  0
SECTION
  2
HEADER
  9
$ACADVER
  1
AC1015
  9
$ACADMAINTVER
 70
    20
  9
$DWGCODEPAGE
  3
ANSI_932
  9
$INSBASE
 10
0.0
 20
0.0
 30
0.0
  9
$EXTMIN
 10
10.0
 20
9.999999999999998
 30
0.0
  9
$EXTMAX
 10
546.220223
 20
375.871609
 30
0.0
  9
$LIMMIN
 10
0.0
 20
0.0
  9
$LIMMAX
 10
572.552
 20
394.713879
  9
$ORTHOMODE
 70
     1
  9
$REGENMODE
 70
     1
  9
$FILLMODE
 70
     1
  9
$QTEXTMODE
 70
     0
  9
$MIRRTEXT
 70
     1
  9
$LTSCALE
 40
20.0
  9
$ATTMODE
 70
     1
  9
$TEXTSIZE
 40
5.0
  9
$TRACEWID
 40
1.0
  9
$TEXTSTYLE
  7
STANDARD
  9
$CLAYER
  8
0
  9
$CELTYPE
  6
BYLAYER
  9
$CECOLOR
 62
   256
  9
$CELTSCALE
 40
1.0
  9
$DISPSILH
 70
     0
  9
$DIMSCALE
 40
1.0
  9
$DIMASZ
 40
2.5
  9
$DIMEXO
 40
1.0
  9
$DIMDLI
 40
10.0
  9
$DIMRND
 40
0.0
  9
$DIMDLE
 40
0.0
  9
$DIMEXE
 40
1.0
  9
$DIMTP
 40
0.0
  9
$DIMTM
 40
0.0
  9
$DIMTXT
 40
3.2
  9
$DIMCEN
 40
0.0
  9
$DIMTSZ
 40
0.0
  9
$DIMTOL
 70
     0
  9
$DIMLIM
 70
     0
  9
$DIMTIH
 70
     0
  9
$DIMTOH
 70
     0
  9
$DIMSE1
 70
     0
  9
$DIMSE2
 70
     0
  9
$DIMTAD
 70
     3
  9
$DIMZIN
 70
     8
  9
$DIMBLK
  1

  9
$DIMASO
 70
     1
  9
$DIMSHO
 70
     1
  9
$DIMPOST
  1

  9
$DIMAPOST
  1

  9
$DIMALT
 70
     0
  9
$DIMALTD
 70
     2
  9
$DIMALTF
 40
25.4
  9
$DIMLFAC
 40
1.0
  9
$DIMTOFL
 70
     1
  9
$DIMTVP
 40
0.0
  9
$DIMTIX
 70
     0
  9
$DIMSOXD
 70
     0
  9
$DIMSAH
 70
     1
  9
$DIMBLK1
  1

  9
$DIMBLK2
  1

  9
$DIMSTYLE
  2
STANDARD
  9
$DIMCLRD
 70
     0
  9
$DIMCLRE
 70
     0
  9
$DIMCLRT
 70
     0
  9
$DIMTFAC
 40
1.0
  9
$DIMGAP
 40
1.0
  9
$DIMJUST
 70
     0
  9
$DIMSD1
 70
     0
  9
$DIMSD2
 70
     0
  9
$DIMTOLJ
 70
     1
  9
$DIMTZIN
 70
     0
  9
$DIMALTZ
 70
     0
  9
$DIMALTTZ
 70
     0
  9
$DIMUPT
 70
     0
  9
$DIMDEC
 70
     4
  9
$DIMTDEC
 70
     4
  9
$DIMALTU
 70
     2
  9
$DIMALTTD
 70
     2
  9
$DIMTXSTY
  7
STANDARD
  9
$DIMAUNIT
 70
     0
  9
$DIMADEC
 70
     0
  9
$DIMALTRND
 40
0.0
  9
$DIMAZIN
 70
     0
  9
$DIMDSEP
 70
    46
  9
$DIMATFIT
 70
     3
  9
$DIMFRAC
 70
     0
  9
$DIMLDRBLK
  1

  9
$DIMLUNIT
 70
     2
  9
$DIMLWD
 70
    -2
  9
$DIMLWE
 70
    -2
  9
$DIMTMOVE
 70
     0
  9
$LUNITS
 70
     2
  9
$LUPREC
 70
     4
  9
$SKETCHINC
 40
1.0
  9
$FILLETRAD
 40
3.299999999999998
  9
$AUNITS
 70
     0
  9
$AUPREC
 70
     2
  9
$MENU
  1
.
  9
$ELEVATION
 40
0.0
  9
$PELEVATION
 40
0.0
  9
$THICKNESS
 40
0.0
  9
$LIMCHECK
 70
     0
  9
$CHAMFERA
 40
10.0
  9
$CHAMFERB
 40
10.0
  9
$CHAMFERC
 40
0.0
  9
$CHAMFERD
 40
0.0
  9
$SKPOLY
 70
     0
  9
$TDCREATE
 40
2451301.447941204
  9
$TDUCREATE
 40
2451301.072941204
  9
$TDUPDATE
 40
2457192.690306887
  9
$TDUUPDATE
 40
2457192.315306887
  9
$TDINDWG
 40
0.1528324769
  9
$TDUSRTIMER
 40
0.1528319792
  9
$USRTIMER
 70
     1
  9
$ANGBASE
 50
0.0
  9
$ANGDIR
 70
     0
  9
$PDMODE
 70
     0
  9
$PDSIZE
 40
0.0
  9
$PLINEWID
 40
0.0
  9
$SPLFRAME
 70
     0
  9
$SPLINETYPE
 70
     6
  9
$SPLINESEGS
 70
     8
  9
$HANDSEED
  5
9B68
  9
$SURFTAB1
 70
     6
  9
$SURFTAB2
 70
     6
  9
$SURFTYPE
 70
     6
  9
$SURFU
 70
     6
  9
$SURFV
 70
     6
  9
$UCSBASE
  2

  9
$UCSNAME
  2

  9
$UCSORG
 10
0.0
 20
0.0
 30
0.0
  9
$UCSXDIR
 10
1.0
 20
0.0
 30
0.0
  9
$UCSYDIR
 10
0.0
 20
1.0
 30
0.0
  9
$UCSORTHOREF
  2

  9
$UCSORTHOVIEW
 70
     0
  9
$UCSORGTOP
 10
0.0
 20
0.0
 30
0.0
  9
$UCSORGBOTTOM
 10
0.0
 20
0.0
 30
0.0
  9
$UCSORGLEFT
 10
0.0
 20
0.0
 30
0.0
  9
$UCSORGRIGHT
 10
0.0
 20
0.0
 30
0.0
  9
$UCSORGFRONT
 10
0.0
 20
0.0
 30
0.0
  9
$UCSORGBACK
 10
0.0
 20
0.0
 30
0.0
  9
$PUCSBASE
  2

  9
$PUCSNAME
  2

  9
$PUCSORG
 10
0.0
 20
0.0
 30
0.0
  9
$PUCSXDIR
 10
1.0
 20
0.0
 30
0.0
  9
$PUCSYDIR
 10
0.0
 20
1.0
 30
0.0
  9
$PUCSORTHOREF
  2

  9
$PUCSORTHOVIEW
 70
     0
  9
$PUCSORGTOP
 10
0.0
 20
0.0
 30
0.0
  9
$PUCSORGBOTTOM
 10
0.0
 20
0.0
 30
0.0
  9
$PUCSORGLEFT
 10
0.0
 20
0.0
 30
0.0
  9
$PUCSORGRIGHT
 10
0.0
 20
0.0
 30
0.0
  9
$PUCSORGFRONT
 10
0.0
 20
0.0
 30
0.0
  9
$PUCSORGBACK
 10
0.0
 20
0.0
 30
0.0
  9
$USERI1
 70
     0
  9
$USERI2
 70
     0
  9
$USERI3
 70
     0
  9
$USERI4
 70
     0
  9
$USERI5
 70
     0
  9
$USERR1
 40
0.0
  9
$USERR2
 40
0.0
  9
$USERR3
 40
0.0
  9
$USERR4
 40
0.0
  9
$USERR5
 40
0.0
  9
$WORLDVIEW
 70
     1
  9
$SHADEDGE
 70
     3
  9
$SHADEDIF
 70
    70
  9
$TILEMODE
 70
     1
  9
$MAXACTVP
 70
    16
  9
$PINSBASE
 10
0.0
 20
0.0
 30
0.0
  9
$PLIMCHECK
 70
     0
  9
$PEXTMIN
 10
1.000000000000000E+20
 20
1.000000000000000E+20
 30
1.000000000000000E+20
  9
$PEXTMAX
 10
-1.000000000000000E+20
 20
-1.000000000000000E+20
 30
-1.000000000000000E+20
  9
$PLIMMIN
 10
0.0
 20
0.0
  9
$PLIMMAX
 10
420.0
 20
297.0
  9
$UNITMODE
 70
     0
  9
$VISRETAIN
 70
     0
  9
$PLINEGEN
 70
     0
  9
$PSLTSCALE
 70
     0
  9
$TREEDEPTH
 70
  3020
  9
$CMLSTYLE
  2
STANDARD
  9
$CMLJUST
 70
     0
  9
$CMLSCALE
 40
1.0
  9
$PROXYGRAPHICS
 70
     1
  9
$MEASUREMENT
 70
     0
  9
$CELWEIGHT
370
    -1
  9
$ENDCAPS
280
     0
  9
$JOINSTYLE
280
     0
  9
$LWDISPLAY
290
     0
  9
$INSUNITS
 70
     0
  9
$HYPERLINKBASE
  1

  9
$STYLESHEET
  1

  9
$XEDIT
290
     1
  9
$CEPSNTYPE
380
     0
  9
$PSTYLEMODE
290
     1
  9
$FINGERPRINTGUID
  2
{30D51006-235E-420E-A327-71009B49C1B6}
  9
$VERSIONGUID
  2
{39AB9139-6182-41D3-9009-EF97FD6A7A5E}
  9
$EXTNAMES
290
     1
  9
$PSVPSCALE
 40
0.0
  9
$OLESTARTUP
290
     0
  0
ENDSEC
  0
SECTION
  2
CLASSES
  0
CLASS
  1
ACDBDICTIONARYWDFLT
  2
AcDbDictionaryWithDefault
  3
ObjectDBX Classes
 90
        0
280
     0
281
     0
  0
CLASS
  1
ACDBPLACEHOLDER
  2
AcDbPlaceHolder
  3
ObjectDBX Classes
 90
        0
280
     0
281
     0
  0
CLASS
  1
LAYOUT
  2
AcDbLayout
  3
ObjectDBX Classes
 90
        0
280
     0
281
     0
  0
CLASS
  1
DICTIONARYVAR
  2
AcDbDictionaryVar
  3
ObjectDBX Classes
 90
        0
280
     0
281
     0
  0
CLASS
  1
MATERIAL
  2
AcDbMaterial
  3
ObjectDBX Classes
 90
     1153
280
     0
281
     0
  0
CLASS
  1
VISUALSTYLE
  2
AcDbVisualStyle
  3
ObjectDBX Classes
 90
     4095
280
     0
281
     0
  0
CLASS
  1
TABLESTYLE
  2
AcDbTableStyle
  3
ObjectDBX Classes
 90
     4095
280
     0
281
     0
  0
CLASS
  1
SCALE
  2
AcDbScale
  3
ObjectDBX Classes
 90
     1153
280
     0
281
     0
  0
CLASS
  1
MLEADERSTYLE
  2
AcDbMLeaderStyle
  3
ACDB_MLEADERSTYLE_CLASS
 90
     4095
280
     0
281
     0
  0
CLASS
  1
ACDBSECTIONVIEWSTYLE
  2
AcDbSectionViewStyle
  3
ObjectDBX Classes
 90
     1025
280
     0
281
     0
  0
CLASS
  1
ACDBDETAILVIEWSTYLE
  2
AcDbDetailViewStyle
  3
ObjectDBX Classes
 90
     1025
280
     0
281
     0
  0
CLASS
  1
CELLSTYLEMAP
  2
AcDbCellStyleMap
  3
ObjectDBX Classes
 90
     1152
280
     0
281
     0
  0
ENDSEC
  0
SECTION
  2
TABLES
  0
TABLE
  2
VPORT
  5
98B0
330
0
100
AcDbSymbolTable
 70
     1
  0
VPORT
  5
9AB3
330
98B0
100
AcDbSymbolTableRecord
100
AcDbViewportTableRecord
  2
*ACTIVE
 70
     0
 10
0.0
 20
0.0
 11
1.0
 21
1.0
 12
418.9375419463472
 22
192.9301413863802
 13
0.0
 23
0.0
 14
10.0
 24
10.0
 15
10.0
 25
10.0
 16
0.0
 26
0.0
 36
1.0
 17
0.0
 27
0.0
 37
0.0
 40
368.7770843634535
 41
2.35006605019815
 42
50.0
 43
0.0
 44
0.0
 50
0.0
 51
0.0
 71
     0
 72
   100
 73
     1
 74
     0
 75
     0
 76
     0
 77
     0
 78
     0
281
     0
 65
     1
110
0.0
120
0.0
130
0.0
111
1.0
121
0.0
131
0.0
112
0.0
122
1.0
132
0.0
 79
     0
146
0.0
1001
ACAD_NAV_VCDISPLAY
1070
     3
  0
ENDTAB
  0
TABLE
  2
LTYPE
  5
98AD
330
0
100
AcDbSymbolTable
 70
     4
  0
LTYPE
  5
98BB
330
98AD
100
AcDbSymbolTableRecord
100
AcDbLinetypeTableRecord
  2
BYBLOCK
 70
     0
  3

 72
    65
 73
     0
 40
0.0
  0
LTYPE
  5
98BC
330
98AD
100
AcDbSymbolTableRecord
100
AcDbLinetypeTableRecord
  2
BYLAYER
 70
     0
  3

 72
    65
 73
     0
 40
0.0
  0
LTYPE
  5
98BD
330
98AD
100
AcDbSymbolTableRecord
100
AcDbLinetypeTableRecord
  2
CONTINUOUS
 70
     0
  3
Solid line
 72
    65
 73
     0
 40
0.0
  0
LTYPE
  5
98CB
330
98AD
100
AcDbSymbolTableRecord
100
AcDbLinetypeTableRecord
  2
DASHED
 70
     0
  3
__ __ __ __ __ __ __ __ __ __ __ __ __ __ __ __
 72
    65
 73
     2
 40
0.75
 49
0.5
 74
     0
 49
-0.25
 74
     0
  0
LTYPE
  5
98CC
330
98AD
100
AcDbSymbolTableRecord
100
AcDbLinetypeTableRecord
  2
CENTER
 70
     0
  3
____ _ ____ _ ____ _ ____ _ ____ _ ____ _ ____ 
 72
    65
 73
     4
 40
2.0
 49
1.25
 74
     0
 49
-0.25
 74
     0
 49
0.25
 74
     0
 49
-0.25
 74
     0
  0
LTYPE
  5
98CD
330
98AD
100
AcDbSymbolTableRecord
100
AcDbLinetypeTableRecord
  2
PHANTOM
 70
     0
  3
______  __  __  ______  __  __  ______  __  __ 
 72
    65
 73
     6
 40
2.5
 49
1.25
 74
     0
 49
-0.25
 74
     0
 49
0.25
 74
     0
 49
-0.25
 74
     0
 49
0.25
 74
     0
 49
-0.25
 74
     0
  0
ENDTAB
  0
TABLE
  2
LAYER
  5
98AA
330
0
100
AcDbSymbolTable
 70
     8
  0
LAYER
  5
98B8
102
{ACAD_XDICTIONARY
360
9B0C
102
}
330
98AA
100
AcDbSymbolTableRecord
100
AcDbLayerTableRecord
  2
0
 70
     0
 62
     7
  6
CONTINUOUS
370
    -3
390
9ABA
  0
LAYER
  5
98CE
102
{ACAD_XDICTIONARY
360
9B0E
102
}
330
98AA
100
AcDbSymbolTableRecord
100
AcDbLayerTableRecord
  2
4
 70
     0
 62
     1
  6
CENTER
370
    -3
390
9ABA
  0
LAYER
  5
98CF
102
{ACAD_XDICTIONARY
360
9B10
102
}
330
98AA
100
AcDbSymbolTableRecord
100
AcDbLayerTableRecord
  2
5
 70
     0
 62
     6
  6
PHANTOM
370
    -3
390
9ABA
  0
LAYER
  5
98D0
102
{ACAD_XDICTIONARY
360
9B12
102
}
330
98AA
100
AcDbSymbolTableRecord
100
AcDbLayerTableRecord
  2
1
 70
     0
 62
     7
  6
CONTINUOUS
370
    -3
390
9ABA
  0
LAYER
  5
98D1
102
{ACAD_XDICTIONARY
360
9B14
102
}
330
98AA
100
AcDbSymbolTableRecord
100
AcDbLayerTableRecord
  2
2
 70
     0
 62
     4
  6
CONTINUOUS
370
    -3
390
9ABA
  0
LAYER
  5
98D2
102
{ACAD_XDICTIONARY
360
9B16
102
}
330
98AA
100
AcDbSymbolTableRecord
100
AcDbLayerTableRecord
  2
3
 70
     0
 62
     2
  6
DASHED
370
    -3
390
9ABA
  0
LAYER
  5
98D3
102
{ACAD_XDICTIONARY
360
9B18
102
}
330
98AA
100
AcDbSymbolTableRecord
100
AcDbLayerTableRecord
  2
6
 70
     0
 62
     5
  6
CONTINUOUS
370
    -3
390
9ABA
  0
LAYER
  5
98D4
102
{ACAD_XDICTIONARY
360
9B1A
102
}
330
98AA
100
AcDbSymbolTableRecord
100
AcDbLayerTableRecord
  2
7
 70
     0
 62
     3
  6
CONTINUOUS
370
    -3
390
9ABA
  0
ENDTAB
  0
TABLE
  2
STYLE
  5
98AB
330
0
100
AcDbSymbolTable
 70
     1
  0
STYLE
  5
98B9
330
98AB
100
AcDbSymbolTableRecord
100
AcDbTextStyleTableRecord
  2
STANDARD
 70
     0
 40
0.0
 41
1.0
 50
0.0
 71
     0
 42
5.0
  3
txt
  4

  0
ENDTAB
  0
TABLE
  2
VIEW
  5
98AE
330
0
100
AcDbSymbolTable
 70
     0
  0
ENDTAB
  0
TABLE
  2
UCS
  5
98AF
330
0
100
AcDbSymbolTable
 70
     0
  0
ENDTAB
  0
TABLE
  2
APPID
  5
98B1
330
0
100
AcDbSymbolTable
 70
     3
  0
APPID
  5
98BA
330
98B1
100
AcDbSymbolTableRecord
100
AcDbRegAppTableRecord
  2
ACAD
 70
     0
  0
APPID
  5
9B26
330
98B1
100
AcDbSymbolTableRecord
100
AcDbRegAppTableRecord
  2
ACAD_NAV_VCDISPLAY
 70
     0
  0
APPID
  5
9B5F
330
98B1
100
AcDbSymbolTableRecord
100
AcDbRegAppTableRecord
  2
ACAD_MLEADERVER
 70
     0
  0
ENDTAB
  0
TABLE
  2
DIMSTYLE
  5
98B2
330
0
100
AcDbSymbolTable
 70
     1
100
AcDbDimStyleTable
 71
     0
  0
DIMSTYLE
105
98D6
330
98B2
100
AcDbSymbolTableRecord
100
AcDbDimStyleTableRecord
  2
STANDARD
 70
     0
 41
2.5
 42
1.0
 43
10.0
 44
1.0
 73
     0
 74
     0
 77
     3
 78
     8
140
3.2
141
0.0
147
1.0
172
     1
173
     1
284
     8
285
     8
286
     8
340
98B9
  0
ENDTAB
  0
TABLE
  2
BLOCK_RECORD
  5
98A9
330
0
100
AcDbSymbolTable
 70
     0
  0
BLOCK_RECORD
  5
98C6
102
{ACAD_XDICTIONARY
360
9A97
102
}
330
98A9
100
AcDbSymbolTableRecord
100
AcDbBlockTableRecord
  2
*MODEL_SPACE
340
9B08
  0
BLOCK_RECORD
  5
98C2
102
{ACAD_XDICTIONARY
360
9A95
102
}
330
98A9
100
AcDbSymbolTableRecord
100
AcDbBlockTableRecord
  2
*PAPER_SPACE
340
9B09
  0
ENDTAB
  0
ENDSEC
  0
SECTION
  2
BLOCKS
  0
BLOCK
  5
98C7
330
98C6
100
AcDbEntity
  8
0
100
AcDbBlockBegin
  2
*MODEL_SPACE
 70
     0
 10
0.0
 20
0.0
 30
0.0
  3
*MODEL_SPACE
  1

  0
ENDBLK
  5
98C8
330
98C6
100
AcDbEntity
  8
0
100
AcDbBlockEnd
  0
BLOCK
  5
98C3
330
98C2
100
AcDbEntity
 67
     1
  8
0
100
AcDbBlockBegin
  2
*PAPER_SPACE
 70
     0
 10
0.0
 20
0.0
 30
0.0
  3
*PAPER_SPACE
  1

  0
ENDBLK
  5
98C4
330
98C2
100
AcDbEntity
 67
     1
  8
0
100
AcDbBlockEnd
  0
ENDSEC
  0
SECTION
  2
ENTITIES
  0
TEXT
  5
98DE
330
98C6
100
AcDbEntity
  8
7
  6
Continuous
100
AcDbText
 10
10.0
 20
18.0
 30
0.0
 40
3.0
  1
TYPE No.TCA-420E-R100
100
AcDbText
  0
TEXT
  5
98DF
330
98C6
100
AcDbEntity
  8
7
  6
Continuous
100
AcDbText
 10
10.0
 20
26.0
 30
0.0
 40
3.0
  1
CODE No.9741
100
AcDbText
  0
TEXT
  5
98E0
330
98C6
100
AcDbEntity
  8
1
  6
Continuous
100
AcDbText
 10
10.0
 20
10.0
 30
0.0
 40
1.399999999999999
  1
LAYER
100
AcDbText
  0
TEXT
  5
98E1
330
98C6
100
AcDbEntity
  8
1
  6
Continuous
100
AcDbText
 10
17.97951099999998
 20
10.04873699999998
 30
0.0
 40
1.399999999999999
  1
1
100
AcDbText
  0
TEXT
  5
98E2
330
98C6
100
AcDbEntity
  8
7
  6
Continuous
100
AcDbText
 10
29.97951099999999
 20
10.04873699999998
 30
0.0
 40
1.399999999999999
  1
7
100
AcDbText
  0
TEXT
  5
98E3
330
98C6
100
AcDbEntity
  8
4
  6
CENTER
100
AcDbText
 10
23.97951099999999
 20
10.04873699999998
 30
0.0
 40
1.399999999999999
  1
4
100
AcDbText
  0
TEXT
  5
98E4
330
98C6
100
AcDbEntity
  8
3
  6
DASHED
100
AcDbText
 10
21.979511
 20
10.04873699999998
 30
0.0
 40
1.399999999999999
  1
3
100
AcDbText
  0
TEXT
  5
98E5
330
98C6
100
AcDbEntity
  8
2
  6
Continuous
100
AcDbText
 10
19.97951099999998
 20
10.04873699999998
 30
0.0
 40
1.399999999999999
  1
2
100
AcDbText
  0
TEXT
  5
98E6
330
98C6
100
AcDbEntity
  8
6
  6
Continuous
100
AcDbText
 10
27.979511
 20
10.04873699999998
 30
0.0
 40
1.399999999999999
  1
6
100
AcDbText
  0
TEXT
  5
98E7
330
98C6
100
AcDbEntity
  8
5
  6
PHANTOM
100
AcDbText
 10
25.97951099999999
 20
10.04873699999998
 30
0.0
 40
1.399999999999999
  1
5
100
AcDbText
  0
LINE
  5
98E8
330
98C6
100
AcDbEntity
  8
4
  6
CENTER
 48
0.8
100
AcDbLine
 10
57.22022299999999
 20
273.871609
 30
0.0
 11
57.22022299999999
 21
141.871609
 31
0.0
  0
LINE
  5
98E9
330
98C6
100
AcDbEntity
  8
4
  6
CENTER
 48
0.8
100
AcDbLine
 10
26.92023300000001
 20
196.871609
 30
0.0
 11
83.72021499999998
 21
196.871609
 31
0.0
  0
LINE
  5
98EA
330
98C6
100
AcDbEntity
  8
1
  6
Continuous
100
AcDbLine
 10
73.220223
 20
250.97366
 30
0.0
 11
73.220223
 21
185.871609
 31
0.0
  0
LINE
  5
98EB
330
98C6
100
AcDbEntity
  8
1
  6
Continuous
100
AcDbLine
 10
41.220223
 20
250.97366
 30
0.0
 11
41.220223
 21
185.871609
 31
0.0
  0
LINE
  5
98EC
330
98C6
100
AcDbEntity
  8
1
  6
Continuous
100
AcDbLine
 10
38.920233
 20
185.871609
 30
0.0
 11
41.220223
 21
185.871609
 31
0.0
  0
LINE
  5
98ED
330
98C6
100
AcDbEntity
  8
1
  6
Continuous
100
AcDbLine
 10
75.520218
 20
185.871609
 30
0.0
 11
73.220223
 21
185.871609
 31
0.0
  0
LINE
  5
98EE
330
98C6
100
AcDbEntity
  8
1
  6
Continuous
100
AcDbLine
 10
32.22022299999999
 20
255.9716009999999
 30
0.0
 11
32.22022299999999
 21
229.5590939999999
 31
0.0
  0
LINE
  5
98EF
330
98C6
100
AcDbEntity
  8
1
  6
Continuous
100
AcDbLine
 10
82.220223
 20
255.9716009999999
 30
0.0
 11
82.220223
 21
229.5590939999999
 31
0.0
  0
LINE
  5
98F0
330
98C6
100
AcDbEntity
  8
1
  6
Continuous
100
AcDbLine
 10
41.220223
 20
200.871609
 30
0.0
 11
42.22022299999999
 21
200.871609
 31
0.0
  0
LINE
  5
98F1
330
98C6
100
AcDbEntity
  8
1
  6
Continuous
100
AcDbLine
 10
41.220223
 20
192.871609
 30
0.0
 11
42.22022299999999
 21
192.871609
 31
0.0
  0
LINE
  5
98F2
330
98C6
100
AcDbEntity
  8
4
  6
CENTER
 48
0.8
100
AcDbLine
 10
212.220223
 20
274.335335
 30
0.0
 11
212.220223
 21
214.6049389999999
 31
0.0
  0
LINE
  5
98F3
330
98C6
100
AcDbEntity
  8
1
  6
Continuous
100
AcDbLine
 10
233.1957099999999
 20
252.071608
 30
0.0
 11
237.220223
 21
252.071608
 31
0.0
  0
LINE
  5
98F4
330
98C6
100
AcDbEntity
  8
4
  6
CENTER
 48
0.8
100
AcDbLine
 10
125.2202229999999
 20
196.871609
 30
0.0
 11
235.220223
 21
196.871609
 31
0.0
  0
LINE
  5
98F5
330
98C6
100
AcDbEntity
  8
4
  6
CENTER
 48
0.8
100
AcDbLine
 10
180.2202229999998
 20
256.3725949999999
 30
0.0
 11
180.2202229999998
 21
141.871609
 31
0.0
  0
LINE
  5
98F6
330
98C6
100
AcDbEntity
  8
1
  6
Continuous
100
AcDbLine
 10
191.220223
 20
251.771612
 30
0.0
 11
191.220223
 21
199.371609
 31
0.0
  0
LINE
  5
98F7
330
98C6
100
AcDbEntity
  8
1
  6
Continuous
100
AcDbLine
 10
189.7663579999999
 20
191.406155
 30
0.0
 11
220.1782389999999
 21
244.524497
 31
0.0
  0
LINE
  5
98F8
330
98C6
100
AcDbEntity
  8
1
  6
Continuous
100
AcDbLine
 10
174.912256
 20
250.8315
 30
0.0
 11
169.2822429999999
 21
198.03806
 31
0.0
  0
LINE
  5
98F9
330
98C6
100
AcDbEntity
  8
4
  6
CENTER
 48
0.8
100
AcDbLine
 10
125.2202229999999
 20
341.8716089999998
 30
0.0
 11
264.686883
 21
341.8716089999998
 31
0.0
  0
LINE
  5
98FA
330
98C6
100
AcDbEntity
  8
4
  6
CENTER
 48
0.8
100
AcDbLine
 10
212.220223
 20
375.871609
 30
0.0
 11
212.220223
 21
307.8716089999998
 31
0.0
  0
LINE
  5
98FB
330
98C6
100
AcDbEntity
  8
1
  6
Continuous
100
AcDbLine
 10
170.931713
 20
253.371624
 30
0.0
 11
189.823926
 21
256.70283
 31
0.0
  0
LINE
  5
98FC
330
98C6
100
AcDbEntity
  8
1
  6
Continuous
100
AcDbLine
 10
170.931713
 20
253.371624
 30
0.0
 11
171.331104
 21
251.1065659999999
 31
0.0
  0
LINE
  5
98FD
330
98C6
100
AcDbEntity
  8
1
  6
Continuous
100
AcDbLine
 10
171.331104
 20
251.1065659999999
 30
0.0
 11
173.701828
 21
251.524589
 31
0.0
  0
LINE
  5
98FE
330
98C6
100
AcDbEntity
  8
1
  6
Continuous
100
AcDbLine
 10
33.920233
 20
201.9736219999999
 30
0.0
 11
33.920233
 21
191.7695959999998
 31
0.0
  0
LINE
  5
98FF
330
98C6
100
AcDbEntity
  8
1
  6
Continuous
100
AcDbLine
 10
35.39518300000001
 20
193.621609
 30
0.0
 11
38.44529299999999
 21
193.621609
 31
0.0
  0
LINE
  5
9900
330
98C6
100
AcDbEntity
  8
1
  6
Continuous
100
AcDbLine
 10
35.36872299999997
 20
200.121609
 30
0.0
 11
38.47175299999999
 21
200.121609
 31
0.0
  0
LINE
  5
9901
330
98C6
100
AcDbEntity
  8
1
  6
Continuous
100
AcDbLine
 10
35.318233
 20
190.3716089999998
 30
0.0
 11
38.52224299999999
 21
190.3716089999998
 31
0.0
  0
LINE
  5
9902
330
98C6
100
AcDbEntity
  8
1
  6
Continuous
100
AcDbLine
 10
35.318233
 20
203.3716089999999
 30
0.0
 11
38.52224299999999
 21
203.3716089999999
 31
0.0
  0
LINE
  5
9903
330
98C6
100
AcDbEntity
  8
1
  6
Continuous
100
AcDbLine
 10
35.318233
 20
190.371613
 30
0.0
 11
33.920233
 21
191.7696
 31
0.0
  0
LINE
  5
9904
330
98C6
100
AcDbEntity
  8
1
  6
Continuous
100
AcDbLine
 10
33.920253
 20
201.973625
 30
0.0
 11
35.318233
 21
203.371613
 31
0.0
  0
LINE
  5
9905
330
98C6
100
AcDbEntity
  8
1
  6
Continuous
100
AcDbLine
 10
78.72021499999998
 20
201.121609
 30
0.0
 11
78.72021499999998
 21
192.621609
 31
0.0
  0
LINE
  5
9906
330
98C6
100
AcDbEntity
  8
1
  6
Continuous
100
AcDbLine
 10
75.520218
 20
190.621609
 30
0.0
 11
76.72021499999998
 21
190.621609
 31
0.0
  0
LINE
  5
9907
330
98C6
100
AcDbEntity
  8
1
  6
Continuous
100
AcDbLine
 10
75.520218
 20
203.121609
 30
0.0
 11
76.72021499999998
 21
203.121609
 31
0.0
  0
LINE
  5
9908
330
98C6
100
AcDbEntity
  8
1
  6
Continuous
100
AcDbLine
 10
75.520218
 20
250.9432789999999
 30
0.0
 11
75.520218
 21
185.871609
 31
0.0
  0
LINE
  5
9909
330
98C6
100
AcDbEntity
  8
1
  6
Continuous
100
AcDbLine
 10
38.920233
 20
250.9432789999999
 30
0.0
 11
38.920233
 21
185.871609
 31
0.0
  0
LINE
  5
990A
330
98C6
100
AcDbEntity
  8
1
  6
Continuous
100
AcDbLine
 10
169.720223
 20
370.8716089999999
 30
0.0
 11
254.7202229999999
 21
370.8716089999999
 31
0.0
  0
LINE
  5
990B
330
98C6
100
AcDbEntity
  8
4
  6
CENTER
 48
0.8
100
AcDbLine
 10
171.220223
 20
367.8716089999999
 30
0.0
 11
171.220223
 21
355.8716089999998
 31
0.0
  0
LINE
  5
990C
330
98C6
100
AcDbEntity
  8
4
  6
CENTER
 48
0.8
100
AcDbLine
 10
165.220223
 20
361.8716089999999
 30
0.0
 11
177.2202229999997
 21
361.8716089999999
 31
0.0
  0
LINE
  5
990D
330
98C6
100
AcDbEntity
  8
1
  6
Continuous
100
AcDbLine
 10
169.720223
 20
312.8716089999998
 30
0.0
 11
254.7202229999999
 21
312.8716089999998
 31
0.0
  0
LINE
  5
990E
330
98C6
100
AcDbEntity
  8
4
  6
CENTER
 48
0.8
100
AcDbLine
 10
171.220223
 20
315.8716089999998
 30
0.0
 11
171.220223
 21
327.8716089999998
 31
0.0
  0
LINE
  5
990F
330
98C6
100
AcDbEntity
  8
4
  6
CENTER
 48
0.8
100
AcDbLine
 10
165.220223
 20
321.871609
 30
0.0
 11
177.2202229999997
 21
321.871609
 31
0.0
  0
LINE
  5
9910
330
98C6
100
AcDbEntity
  8
4
  6
CENTER
 48
0.8
100
AcDbLine
 10
253.220223
 20
367.8716089999999
 30
0.0
 11
253.220223
 21
355.8716089999998
 31
0.0
  0
LINE
  5
9911
330
98C6
100
AcDbEntity
  8
4
  6
CENTER
 48
0.8
100
AcDbLine
 10
259.2202229999999
 20
361.8716089999999
 30
0.0
 11
247.220223
 21
361.8716089999999
 31
0.0
  0
LINE
  5
9912
330
98C6
100
AcDbEntity
  8
4
  6
CENTER
 48
0.8
100
AcDbLine
 10
253.220223
 20
315.8716089999998
 30
0.0
 11
253.220223
 21
327.8716089999998
 31
0.0
  0
LINE
  5
9913
330
98C6
100
AcDbEntity
  8
4
  6
CENTER
 48
0.8
100
AcDbLine
 10
259.2202229999999
 20
321.871609
 30
0.0
 11
247.220223
 21
321.871609
 31
0.0
  0
LINE
  5
9914
330
98C6
100
AcDbEntity
  8
1
  6
Continuous
100
AcDbLine
 10
191.220223
 20
260.9716049999998
 30
0.0
 11
232.220223
 21
260.9716049999998
 31
0.0
  0
LINE
  5
9915
330
98C6
100
AcDbEntity
  8
1
  6
Continuous
100
AcDbLine
 10
262.220208
 20
266.5715979999998
 30
0.0
 11
262.220208
 21
268.8716089999999
 31
0.0
  0
LINE
  5
9916
330
98C6
100
AcDbEntity
  8
1
  6
Continuous
100
AcDbLine
 10
162.220223
 20
268.8716089999999
 30
0.0
 11
262.220208
 21
268.8716089999999
 31
0.0
  0
LINE
  5
9917
330
98C6
100
AcDbEntity
  8
1
  6
Continuous
100
AcDbLine
 10
162.220208
 20
266.571614
 30
0.0
 11
162.220208
 21
268.871617
 31
0.0
  0
LINE
  5
9918
330
98C6
100
AcDbEntity
  8
1
  6
Continuous
100
AcDbLine
 10
162.220223
 20
266.5716059999999
 30
0.0
 11
262.220208
 21
266.5716059999999
 31
0.0
  0
LINE
  5
9919
330
98C6
100
AcDbEntity
  8
1
  6
Continuous
100
AcDbLine
 10
189.220221
 20
261.9716069999999
 30
0.0
 11
235.220223
 21
261.9716069999999
 31
0.0
  0
LINE
  5
991A
330
98C6
100
AcDbEntity
  8
1
  6
Continuous
100
AcDbLine
 10
184.720225
 20
266.5716269999999
 30
0.0
 11
186.6626779999998
 21
263.4035169999999
 31
0.0
  0
LINE
  5
991B
330
98C6
100
AcDbEntity
  8
4
  6
CENTER
 48
0.8
100
AcDbLine
 10
171.220223
 20
273.871609
 30
0.0
 11
171.220223
 21
261.571606
 31
0.0
  0
LINE
  5
991C
330
98C6
100
AcDbEntity
  8
4
  6
CENTER
 48
0.8
100
AcDbLine
 10
253.220223
 20
273.871609
 30
0.0
 11
253.220223
 21
261.571606
 31
0.0
  0
LINE
  5
991D
330
98C6
100
AcDbEntity
  8
1
  6
Continuous
100
AcDbLine
 10
37.22022299999999
 20
260.9716009999999
 30
0.0
 11
77.220223
 21
260.9716009999999
 31
0.0
  0
LINE
  5
991E
330
98C6
100
AcDbEntity
  8
1
  6
Continuous
100
AcDbLine
 10
28.220223
 20
268.8716089999999
 30
0.0
 11
28.220223
 21
266.57161
 31
0.0
  0
LINE
  5
991F
330
98C6
100
AcDbEntity
  8
1
  6
Continuous
100
AcDbLine
 10
86.22022300000002
 20
268.8716089999999
 30
0.0
 11
86.22022300000002
 21
266.5716059999999
 31
0.0
  0
LINE
  5
9920
330
98C6
100
AcDbEntity
  8
4
  6
CENTER
 48
0.8
100
AcDbLine
 10
37.22022299999999
 20
273.871609
 30
0.0
 11
37.22022299999999
 21
261.571606
 31
0.0
  0
LINE
  5
9921
330
98C6
100
AcDbEntity
  8
4
  6
CENTER
 48
0.8
100
AcDbLine
 10
77.220223
 20
273.871609
 30
0.0
 11
77.220223
 21
261.571606
 31
0.0
  0
LINE
  5
9922
330
98C6
100
AcDbEntity
  8
1
  6
Continuous
100
AcDbLine
 10
84.720185
 20
266.5716289999999
 30
0.0
 11
82.77773299999998
 21
263.403525
 31
0.0
  0
LINE
  5
9923
330
98C6
100
AcDbEntity
  8
1
  6
Continuous
100
AcDbLine
 10
28.220223
 20
268.8716089999999
 30
0.0
 11
86.22022300000002
 21
268.8716089999999
 31
0.0
  0
LINE
  5
9924
330
98C6
100
AcDbEntity
  8
1
  6
Continuous
100
AcDbLine
 10
28.220223
 20
266.5716059999999
 30
0.0
 11
86.22022300000002
 21
266.5716059999999
 31
0.0
  0
LINE
  5
9925
330
98C6
100
AcDbEntity
  8
1
  6
Continuous
100
AcDbLine
 10
34.220223
 20
261.9716069999999
 30
0.0
 11
80.22022300000001
 21
261.9716069999999
 31
0.0
  0
LINE
  5
9926
330
98C6
100
AcDbEntity
  8
1
  6
Continuous
100
AcDbLine
 10
29.720173
 20
266.571617
 30
0.0
 11
31.66263300000001
 21
263.4035069999999
 31
0.0
  0
LINE
  5
9927
330
98C6
100
AcDbEntity
  8
1
  6
Continuous
100
AcDbLine
 10
70.720223
 20
149.8510939999999
 30
0.0
 11
70.720223
 21
243.892124
 31
0.0
  0
LINE
  5
9928
330
98C6
100
AcDbEntity
  8
1
  6
Continuous
100
AcDbLine
 10
42.22022299999999
 20
209.371609
 30
0.0
 11
42.22022299999999
 21
184.371606
 31
0.0
  0
LINE
  5
9929
330
98C6
100
AcDbEntity
  8
1
  6
Continuous
100
AcDbLine
 10
43.720223
 20
149.8510939999999
 30
0.0
 11
43.720223
 21
243.892124
 31
0.0
  0
LINE
  5
992A
330
98C6
100
AcDbEntity
  8
1
  6
Continuous
100
AcDbLine
 10
72.220223
 20
209.371609
 30
0.0
 11
72.220223
 21
184.371606
 31
0.0
  0
LINE
  5
992B
330
98C6
100
AcDbEntity
  8
1
  6
Continuous
100
AcDbLine
 10
72.220223
 20
200.871609
 30
0.0
 11
73.22023100000001
 21
200.871609
 31
0.0
  0
LINE
  5
992C
330
98C6
100
AcDbEntity
  8
1
  6
Continuous
100
AcDbLine
 10
72.220223
 20
192.871609
 30
0.0
 11
73.22023100000001
 21
192.871609
 31
0.0
  0
ARC
  5
992D
330
98C6
100
AcDbEntity
  8
1
  6
Continuous
100
AcDbCircle
 10
57.22022299999999
 20
379.571619
 30
0.0
 40
126.2
100
AcDbArc
 50
263.34848
 51
276.6515
  0
ARC
  5
992E
330
98C6
100
AcDbEntity
  8
1
  6
Continuous
100
AcDbCircle
 10
180.2202229999998
 20
196.871609
 30
0.0
 40
11.0
100
AcDbArc
 50
173.91287
 51
330.2075199999998
  0
ARC
  5
992F
330
98C6
100
AcDbEntity
  8
1
  6
Continuous
100
AcDbCircle
 10
233.1957099999999
 20
237.071608
 30
0.0
 40
15.0
100
AcDbArc
 50
89.99998199999996
 51
150.2075699999998
  0
ARC
  5
9930
330
98C6
100
AcDbEntity
  8
1
  6
Continuous
100
AcDbCircle
 10
172.426352
 20
251.096602
 30
0.0
 40
2.5
100
AcDbArc
 50
353.9128499999998
 51
100.0000199999999
  0
ARC
  5
9931
330
98C6
100
AcDbEntity
  8
1
  6
Continuous
100
AcDbCircle
 10
57.22022299999999
 20
384.573819
 30
0.0
 40
128.4999999999998
100
AcDbArc
 50
262.8473099999999
 51
277.1526699999999
  0
ARC
  5
9932
330
98C6
100
AcDbEntity
  8
1
  6
Continuous
100
AcDbCircle
 10
173.8754769999999
 20
250.539781
 30
0.0
 40
1.0
100
AcDbArc
 50
353.9128499999998
 51
100.00003
  0
ARC
  5
9933
330
98C6
100
AcDbEntity
  8
1
  6
Continuous
100
AcDbCircle
 10
57.22022299999999
 20
379.601999
 30
0.0
 40
128.4999999999998
100
AcDbArc
 50
263.34847
 51
276.6515
  0
ARC
  5
9934
330
98C6
100
AcDbEntity
  8
1
  6
Continuous
100
AcDbCircle
 10
72.220223
 20
250.97366
 30
0.0
 40
1.0
100
AcDbArc
 50
0.0
 51
96.65148000000002
  0
ARC
  5
9935
330
98C6
100
AcDbEntity
  8
1
  6
Continuous
100
AcDbCircle
 10
42.22022299999999
 20
250.97366
 30
0.0
 40
1.0
100
AcDbArc
 50
83.348539
 51
179.9999599999999
  0
CIRCLE
  5
9936
330
98C6
100
AcDbEntity
  8
1
  6
Continuous
100
AcDbCircle
 10
180.2202229999998
 20
196.871609
 30
0.0
 40
1.5
  0
CIRCLE
  5
9937
330
98C6
100
AcDbEntity
  8
1
  6
Continuous
100
AcDbCircle
 10
180.2202229999998
 20
196.871609
 30
0.0
 40
6.25
  0
ARC
  5
9938
330
98C6
100
AcDbEntity
  8
1
  6
Continuous
100
AcDbCircle
 10
46.920233
 20
196.871609
 30
0.0
 40
12.0
100
AcDbArc
 50
164.2861599999999
 51
195.71383
  0
ARC
  5
9939
330
98C6
100
AcDbEntity
  8
1
  6
Continuous
100
AcDbCircle
 10
26.92023300000001
 20
196.871609
 30
0.0
 40
12.0
100
AcDbArc
 50
344.2861399999999
 51
15.71386099999998
  0
ARC
  5
993A
330
98C6
100
AcDbEntity
  8
1
  6
Continuous
100
AcDbCircle
 10
38.17023300000001
 20
201.813237
 30
0.0
 40
3.25
100
AcDbArc
 50
151.34725
 51
211.3657499999999
  0
ARC
  5
993B
330
98C6
100
AcDbEntity
  8
1
  6
Continuous
100
AcDbCircle
 10
35.67023300000001
 20
201.813237
 30
0.0
 40
3.25
100
AcDbArc
 50
328.6342
 51
28.65276699999999
  0
ARC
  5
993C
330
98C6
100
AcDbEntity
  8
1
  6
Continuous
100
AcDbCircle
 10
35.67023300000001
 20
191.929981
 30
0.0
 40
3.25
100
AcDbArc
 50
331.3472299999999
 51
31.365793
  0
ARC
  5
993D
330
98C6
100
AcDbEntity
  8
1
  6
Continuous
100
AcDbCircle
 10
38.17023300000001
 20
191.929981
 30
0.0
 40
3.25
100
AcDbArc
 50
148.63423
 51
208.6527299999999
  0
ARC
  5
993E
330
98C6
100
AcDbEntity
  8
1
  6
Continuous
100
AcDbCircle
 10
76.72021499999998
 20
201.121609
 30
0.0
 40
2.0
100
AcDbArc
 50
0.0
 51
89.99998199999996
  0
ARC
  5
993F
330
98C6
100
AcDbEntity
  8
1
  6
Continuous
100
AcDbCircle
 10
76.72021499999998
 20
192.621609
 30
0.0
 40
2.0
100
AcDbArc
 50
270.00002
 51
0.0
  0
ARC
  5
9940
330
98C6
100
AcDbEntity
  8
1
  6
Continuous
100
AcDbCircle
 10
92.220223
 20
229.5590939999999
 30
0.0
 40
60.0
100
AcDbArc
 50
179.9999799999999
 51
205.8780899999999
  0
ARC
  5
9941
330
98C6
100
AcDbEntity
  8
1
  6
Continuous
100
AcDbCircle
 10
22.219913
 20
229.5590939999999
 30
0.0
 40
60.0
100
AcDbArc
 50
333.85625
 51
0.0
  0
ARC
  5
9942
330
98C6
100
AcDbEntity
  8
1
  6
Continuous
100
AcDbCircle
 10
72.22021499999998
 20
250.9432789999999
 30
0.0
 40
3.299999999999998
100
AcDbArc
 50
0.0
 51
96.65153400000001
  0
ARC
  5
9943
330
98C6
100
AcDbEntity
  8
1
  6
Continuous
100
AcDbCircle
 10
42.220243
 20
250.9432789999999
 30
0.0
 40
3.299999999999998
100
AcDbArc
 50
83.348484
 51
179.9999599999999
  0
ARC
  5
9944
330
98C6
100
AcDbEntity
  8
1
  6
Continuous
100
AcDbCircle
 10
169.720223
 20
363.371609
 30
0.0
 40
7.5
100
AcDbArc
 50
89.99998199999996
 51
193.44029
  0
CIRCLE
  5
9945
330
98C6
100
AcDbEntity
  8
1
  6
Continuous
100
AcDbCircle
 10
171.220223
 20
361.8716089999999
 30
0.0
 40
4.4
  0
CIRCLE
  5
9946
330
98C6
100
AcDbEntity
  8
1
  6
Continuous
100
AcDbCircle
 10
171.220223
 20
321.871609
 30
0.0
 40
4.4
  0
ARC
  5
9947
330
98C6
100
AcDbEntity
  8
1
  6
Continuous
100
AcDbCircle
 10
169.720223
 20
320.3716089999998
 30
0.0
 40
7.5
100
AcDbArc
 50
166.5596799999998
 51
269.99995
  0
ARC
  5
9948
330
98C6
100
AcDbEntity
  8
1
  6
Continuous
100
AcDbCircle
 10
79.753563
 20
341.8716089999998
 30
0.0
 40
85.0
100
AcDbArc
 50
346.5596799999998
 51
13.44032099999999
  0
ARC
  5
9949
330
98C6
100
AcDbEntity
  8
1
  6
Continuous
100
AcDbCircle
 10
344.686883
 20
341.8716089999998
 30
0.0
 40
85.0
100
AcDbArc
 50
166.55964
 51
193.44029
  0
ARC
  5
994A
330
98C6
100
AcDbEntity
  8
1
  6
Continuous
100
AcDbCircle
 10
254.7202229999999
 20
363.371609
 30
0.0
 40
7.5
100
AcDbArc
 50
346.5596799999998
 51
89.99998199999996
  0
CIRCLE
  5
994B
330
98C6
100
AcDbEntity
  8
1
  6
Continuous
100
AcDbCircle
 10
253.220223
 20
361.8716089999999
 30
0.0
 40
4.4
  0
CIRCLE
  5
994C
330
98C6
100
AcDbEntity
  8
1
  6
Continuous
100
AcDbCircle
 10
253.220223
 20
321.871609
 30
0.0
 40
4.4
  0
ARC
  5
994D
330
98C6
100
AcDbEntity
  8
1
  6
Continuous
100
AcDbCircle
 10
254.7202229999999
 20
320.3716089999998
 30
0.0
 40
7.5
100
AcDbArc
 50
270.00002
 51
13.440282
  0
CIRCLE
  5
994E
330
98C6
100
AcDbEntity
  8
1
  6
Continuous
100
AcDbCircle
 10
212.220223
 20
341.8716089999998
 30
0.0
 40
9.5
  0
CIRCLE
  5
994F
330
98C6
100
AcDbEntity
  8
1
  6
Continuous
100
AcDbCircle
 10
212.220223
 20
341.8716089999998
 30
0.0
 40
12.5
  0
CIRCLE
  5
9950
330
98C6
100
AcDbEntity
  8
1
  6
Continuous
100
AcDbCircle
 10
212.220223
 20
341.8716089999998
 30
0.0
 40
24.0
  0
CIRCLE
  5
9951
330
98C6
100
AcDbEntity
  8
1
  6
Continuous
100
AcDbCircle
 10
212.220223
 20
341.8716089999998
 30
0.0
 40
22.0
  0
ARC
  5
9952
330
98C6
100
AcDbEntity
  8
1
  6
Continuous
100
AcDbCircle
 10
230.020218
 20
262.4496119999998
 30
0.0
 40
2.778
100
AcDbArc
 50
327.85663
 51
350.09193
  0
ARC
  5
9953
330
98C6
100
AcDbEntity
  8
1
  6
Continuous
100
AcDbCircle
 10
235.220223
 20
264.971607
 30
0.0
 40
3.0
100
AcDbArc
 50
270.00002
 51
328.48644
  0
ARC
  5
9954
330
98C6
100
AcDbEntity
  8
1
  6
Continuous
100
AcDbCircle
 10
189.220223
 20
264.971607
 30
0.0
 40
3.0
100
AcDbArc
 50
211.5135899999999
 51
270.00002
  0
ARC
  5
9955
330
98C6
100
AcDbEntity
  8
1
  6
Continuous
100
AcDbCircle
 10
212.220208
 20
262.4496119999998
 30
0.0
 40
2.778
100
AcDbArc
 50
327.8565799999999
 51
350.09193
  0
ARC
  5
9956
330
98C6
100
AcDbEntity
  8
1
  6
Continuous
100
AcDbCircle
 10
217.708123
 20
262.4496119999998
 30
0.0
 40
2.778
100
AcDbArc
 50
189.90804
 51
212.1434
  0
ARC
  5
9957
330
98C6
100
AcDbEntity
  8
1
  6
Continuous
100
AcDbCircle
 10
226.5973359999999
 20
262.4496119999998
 30
0.0
 40
2.778
100
AcDbArc
 50
327.85663
 51
350.09193
  0
ARC
  5
9958
330
98C6
100
AcDbEntity
  8
1
  6
Continuous
100
AcDbCircle
 10
229.1325769999999
 20
262.4496119999998
 30
0.0
 40
2.778
100
AcDbArc
 50
327.85663
 51
350.09193
  0
ARC
  5
9959
330
98C6
100
AcDbEntity
  8
1
  6
Continuous
100
AcDbCircle
 10
194.420197
 20
262.4496119999998
 30
0.0
 40
2.778
100
AcDbArc
 50
189.9080999999999
 51
212.1433699999999
  0
ARC
  5
995A
330
98C6
100
AcDbEntity
  8
1
  6
Continuous
100
AcDbCircle
 10
212.220208
 20
262.4496119999998
 30
0.0
 40
2.778
100
AcDbArc
 50
189.9080999999999
 51
212.1434
  0
ARC
  5
995B
330
98C6
100
AcDbEntity
  8
1
  6
Continuous
100
AcDbCircle
 10
206.732293
 20
262.4496119999998
 30
0.0
 40
2.778
100
AcDbArc
 50
189.9080999999999
 51
212.1434
  0
ARC
  5
995C
330
98C6
100
AcDbEntity
  8
1
  6
Continuous
100
AcDbCircle
 10
201.779053
 20
262.4496119999998
 30
0.0
 40
2.778
100
AcDbArc
 50
189.9080999999999
 51
212.1434
  0
ARC
  5
995D
330
98C6
100
AcDbEntity
  8
1
  6
Continuous
100
AcDbCircle
 10
197.8430789999999
 20
262.4496119999998
 30
0.0
 40
2.778
100
AcDbArc
 50
189.9080999999999
 51
212.1434
  0
ARC
  5
995E
330
98C6
100
AcDbEntity
  8
1
  6
Continuous
100
AcDbCircle
 10
195.307839
 20
262.4496119999998
 30
0.0
 40
2.778
100
AcDbArc
 50
189.9080999999999
 51
212.1433699999999
  0
ARC
  5
995F
330
98C6
100
AcDbEntity
  8
1
  6
Continuous
100
AcDbCircle
 10
206.732293
 20
262.4496119999998
 30
0.0
 40
2.778
100
AcDbArc
 50
327.8565799999999
 51
350.0919899999999
  0
ARC
  5
9960
330
98C6
100
AcDbEntity
  8
1
  6
Continuous
100
AcDbCircle
 10
217.708123
 20
262.4496119999998
 30
0.0
 40
2.778
100
AcDbArc
 50
327.8565799999999
 51
350.09193
  0
ARC
  5
9961
330
98C6
100
AcDbEntity
  8
1
  6
Continuous
100
AcDbCircle
 10
222.661362
 20
262.4496119999998
 30
0.0
 40
2.778
100
AcDbArc
 50
327.8565799999999
 51
350.09193
  0
ARC
  5
9962
330
98C6
100
AcDbEntity
  8
1
  6
Continuous
100
AcDbCircle
 10
191.220223
 20
255.971604
 30
0.0
 40
5.0
100
AcDbArc
 50
89.99998199999996
 51
178.90034
  0
ARC
  5
9963
330
98C6
100
AcDbEntity
  8
1
  6
Continuous
100
AcDbCircle
 10
46.779063
 20
262.4496119999998
 30
0.0
 40
2.778
100
AcDbArc
 50
327.8564799999998
 51
333.0638399999999
  0
ARC
  5
9964
330
98C6
100
AcDbEntity
  8
1
  6
Continuous
100
AcDbCircle
 10
67.661355
 20
262.4496119999998
 30
0.0
 40
2.778
100
AcDbArc
 50
327.8564799999998
 51
350.09193
  0
ARC
  5
9965
330
98C6
100
AcDbEntity
  8
1
  6
Continuous
100
AcDbCircle
 10
77.220223
 20
255.9716009999999
 30
0.0
 40
5.0
100
AcDbArc
 50
0.0
 51
89.99998199999996
  0
ARC
  5
9966
330
98C6
100
AcDbEntity
  8
1
  6
Continuous
100
AcDbCircle
 10
37.22022299999999
 20
255.9716009999999
 30
0.0
 40
5.0
100
AcDbArc
 50
89.99998199999996
 51
179.9999599999999
  0
ARC
  5
9967
330
98C6
100
AcDbEntity
  8
1
  6
Continuous
100
AcDbCircle
 10
62.708123
 20
262.4496119999998
 30
0.0
 40
2.778
100
AcDbArc
 50
327.8564799999998
 51
350.09193
  0
ARC
  5
9968
330
98C6
100
AcDbEntity
  8
1
  6
Continuous
100
AcDbCircle
 10
75.020218
 20
262.4496119999998
 30
0.0
 40
2.778
100
AcDbArc
 50
327.80113
 51
350.09193
  0
ARC
  5
9969
330
98C6
100
AcDbEntity
  8
1
  6
Continuous
100
AcDbCircle
 10
80.22022300000001
 20
264.971607
 30
0.0
 40
3.0
100
AcDbArc
 50
270.00002
 51
328.48644
  0
ARC
  5
996A
330
98C6
100
AcDbEntity
  8
1
  6
Continuous
100
AcDbCircle
 10
34.220223
 20
264.971607
 30
0.0
 40
3.0
100
AcDbArc
 50
211.5135899999999
 51
270.00002
  0
ARC
  5
996B
330
98C6
100
AcDbEntity
  8
1
  6
Continuous
100
AcDbCircle
 10
57.220203
 20
262.4496119999998
 30
0.0
 40
2.778
100
AcDbArc
 50
327.8564799999998
 51
350.09193
  0
ARC
  5
996C
330
98C6
100
AcDbEntity
  8
1
  6
Continuous
100
AcDbCircle
 10
62.708123
 20
262.4496119999998
 30
0.0
 40
2.778
100
AcDbArc
 50
189.90804
 51
212.14351
  0
ARC
  5
996D
330
98C6
100
AcDbEntity
  8
1
  6
Continuous
100
AcDbCircle
 10
67.661355
 20
262.4496119999998
 30
0.0
 40
2.778
100
AcDbArc
 50
206.9362
 51
212.14351
  0
ARC
  5
996E
330
98C6
100
AcDbEntity
  8
1
  6
Continuous
100
AcDbCircle
 10
71.597329
 20
262.4496119999998
 30
0.0
 40
2.778
100
AcDbArc
 50
327.8564799999998
 51
350.09193
  0
ARC
  5
996F
330
98C6
100
AcDbEntity
  8
1
  6
Continuous
100
AcDbCircle
 10
74.13257699999999
 20
262.4496119999998
 30
0.0
 40
2.778
100
AcDbArc
 50
327.8564799999998
 51
350.09193
  0
ARC
  5
9970
330
98C6
100
AcDbEntity
  8
1
  6
Continuous
100
AcDbCircle
 10
39.420203
 20
262.4496119999998
 30
0.0
 40
2.778
100
AcDbArc
 50
189.9080999999999
 51
212.14351
  0
ARC
  5
9971
330
98C6
100
AcDbEntity
  8
1
  6
Continuous
100
AcDbCircle
 10
57.220203
 20
262.4496119999998
 30
0.0
 40
2.778
100
AcDbArc
 50
189.9080999999999
 51
212.14351
  0
ARC
  5
9972
330
98C6
100
AcDbEntity
  8
1
  6
Continuous
100
AcDbCircle
 10
51.732293
 20
262.4496119999998
 30
0.0
 40
2.778
100
AcDbArc
 50
189.9080999999999
 51
212.14351
  0
ARC
  5
9973
330
98C6
100
AcDbEntity
  8
1
  6
Continuous
100
AcDbCircle
 10
46.779063
 20
262.4496119999998
 30
0.0
 40
2.778
100
AcDbArc
 50
189.9080999999999
 51
212.14351
  0
ARC
  5
9974
330
98C6
100
AcDbEntity
  8
1
  6
Continuous
100
AcDbCircle
 10
42.843083
 20
262.4496119999998
 30
0.0
 40
2.778
100
AcDbArc
 50
189.9080999999999
 51
212.14351
  0
ARC
  5
9975
330
98C6
100
AcDbEntity
  8
1
  6
Continuous
100
AcDbCircle
 10
40.30784299999999
 20
262.4496119999998
 30
0.0
 40
2.778
100
AcDbArc
 50
189.9080999999999
 51
212.14351
  0
ARC
  5
9976
330
98C6
100
AcDbEntity
  8
1
  6
Continuous
100
AcDbCircle
 10
51.732293
 20
262.4496119999998
 30
0.0
 40
2.778
100
AcDbArc
 50
327.8564799999998
 51
350.0919899999999
  0
ARC
  5
9977
330
98C6
100
AcDbEntity
  8
1
  6
Continuous
100
AcDbCircle
 10
180.2202229999998
 20
196.871609
 30
0.0
 40
50.0
100
AcDbArc
 50
96.62188500000002
 51
47.498512
  0
ARC
  5
9978
330
98C6
100
AcDbEntity
  8
1
  6
Continuous
100
AcDbCircle
 10
180.2202229999998
 20
196.871609
 30
0.0
 40
34.5
100
AcDbArc
 50
102.5056799999999
 51
41.614713
  0
ARC
  5
9979
330
98C6
100
AcDbEntity
  8
1
  6
Continuous
100
AcDbCircle
 10
180.2202229999998
 20
196.871609
 30
0.0
 40
15.5
100
AcDbArc
 50
129.12153
 51
14.998887
  0
ARC
  5
997A
330
98C6
100
AcDbEntity
  8
1
  6
Continuous
100
AcDbCircle
 10
45.72022299999999
 20
149.8510939999999
 30
0.0
 40
2.0
100
AcDbArc
 50
180.00002
 51
260.2634799999999
  0
ARC
  5
997B
330
98C6
100
AcDbEntity
  8
1
  6
Continuous
100
AcDbCircle
 10
45.22022299999998
 20
184.371609
 30
0.0
 40
3.0
100
AcDbArc
 50
180.0000399999998
 51
239.99998
  0
ARC
  5
997C
330
98C6
100
AcDbEntity
  8
1
  6
Continuous
100
AcDbCircle
 10
45.22022299999998
 20
209.371609
 30
0.0
 40
3.0
100
AcDbArc
 50
120.0000199999999
 51
179.9999599999999
  0
ARC
  5
997D
330
98C6
100
AcDbEntity
  8
1
  6
Continuous
100
AcDbCircle
 10
68.72022300000001
 20
243.892124
 30
0.0
 40
2.0
100
AcDbArc
 50
0.000055
 51
80.26353399999996
  0
ARC
  5
997E
330
98C6
100
AcDbEntity
  8
1
  6
Continuous
100
AcDbCircle
 10
69.220223
 20
209.371609
 30
0.0
 40
3.0
100
AcDbArc
 50
0.000055
 51
59.999995
  0
ARC
  5
997F
330
98C6
100
AcDbEntity
  8
1
  6
Continuous
100
AcDbCircle
 10
69.220223
 20
184.371609
 30
0.0
 40
3.0
100
AcDbArc
 50
300.00001
 51
359.99995
  0
ARC
  5
9980
330
98C6
100
AcDbEntity
  8
1
  6
Continuous
100
AcDbCircle
 10
68.72022300000001
 20
149.8510939999999
 30
0.0
 40
2.0
100
AcDbArc
 50
279.73647
 51
359.99995
  0
ARC
  5
9981
330
98C6
100
AcDbEntity
  8
1
  6
Continuous
100
AcDbCircle
 10
57.22022299999999
 20
176.871609
 30
0.0
 40
70.0
100
AcDbArc
 50
80.26348
 51
99.73649899999999
  0
ARC
  5
9982
330
98C6
100
AcDbEntity
  8
1
  6
Continuous
100
AcDbCircle
 10
45.72022299999999
 20
243.892124
 30
0.0
 40
2.0
100
AcDbArc
 50
99.736519
 51
179.9999799999999
  0
LINE
  5
9983
330
98C6
100
AcDbEntity
  8
1
  6
Continuous
100
AcDbLine
 10
239.720221
 20
266.5716269999999
 30
0.0
 11
237.777768
 21
263.4035169999999
 31
0.0
  0
ARC
  5
9984
330
98C6
100
AcDbEntity
  8
1
  6
Continuous
100
AcDbCircle
 10
57.22022299999999
 20
216.8716089999997
 30
0.0
 40
70.0
100
AcDbArc
 50
260.2635009999999
 51
279.7365199999999
  0
LINE
  5
9985
330
98C6
100
AcDbEntity
  8
1
  6
Continuous
100
AcDbLine
 10
237.220223
 20
255.971605
 30
0.0
 11
237.220223
 21
252.071608
 31
0.0
  0
ARC
  5
9986
330
98C6
100
AcDbEntity
  8
1
  6
Continuous
100
AcDbCircle
 10
232.220223
 20
255.971605
 30
0.0
 40
5.0
100
AcDbArc
 50
0.0
 51
90.0
  0
LINE
  5
9987
330
98C6
100
AcDbEntity
  8
4
  6
CENTER
 48
0.8
100
AcDbLine
 10
180.2202229999998
 20
375.871609
 30
0.0
 11
180.2202229999998
 21
307.8716089999998
 31
0.0
  0
LINE
  5
9988
330
98C6
100
AcDbEntity
  8
4
  6
CENTER
 48
0.8
100
AcDbLine
 10
180.2202229999998
 20
39.871609
 30
0.0
 11
180.2202229999998
 21
107.871609
 31
0.0
  0
LINE
  5
9989
330
98C6
100
AcDbEntity
  8
4
  6
CENTER
 48
0.8
100
AcDbLine
 10
212.220223
 20
39.871609
 30
0.0
 11
212.220223
 21
107.871609
 31
0.0
  0
LINE
  5
998A
330
98C6
100
AcDbEntity
  8
4
  6
CENTER
 48
0.8
100
AcDbLine
 10
253.220223
 20
99.87160900000001
 30
0.0
 11
253.220223
 21
87.87160899999998
 31
0.0
  0
LINE
  5
998B
330
98C6
100
AcDbEntity
  8
4
  6
CENTER
 48
0.8
100
AcDbLine
 10
171.220223
 20
99.87160900000001
 30
0.0
 11
171.220223
 21
87.87160899999998
 31
0.0
  0
ARC
  5
998C
330
98C6
100
AcDbEntity
  8
1
  6
Continuous
100
AcDbCircle
 10
171.220223
 20
93.87160900000001
 30
0.0
 40
4.4
100
AcDbArc
 50
18.733118
 51
243.8180330000001
  0
CIRCLE
  5
998D
330
98C6
100
AcDbEntity
  8
1
  6
Continuous
100
AcDbCircle
 10
253.220223
 20
93.87160900000001
 30
0.0
 40
4.4
  0
ARC
  5
998E
330
98C6
100
AcDbEntity
  8
1
  6
Continuous
100
AcDbCircle
 10
79.753563
 20
73.87160899999997
 30
0.0
 40
85.0
100
AcDbArc
 50
346.559679
 51
350.8613839999999
  0
ARC
  5
998F
330
98C6
100
AcDbEntity
  8
1
  6
Continuous
100
AcDbCircle
 10
344.686883
 20
73.87160899999997
 30
0.0
 40
85.0
100
AcDbArc
 50
166.55971
 51
193.4403599999999
  0
ARC
  5
9990
330
98C6
100
AcDbEntity
  8
1
  6
Continuous
100
AcDbCircle
 10
254.7202229999999
 20
95.37160900000001
 30
0.0
 40
7.5
100
AcDbArc
 50
346.5597179999999
 51
89.99997999999996
  0
LINE
  5
9991
330
98C6
100
AcDbEntity
  8
4
  6
CENTER
 48
0.8
100
AcDbLine
 10
259.2202229999999
 20
93.87160900000001
 30
0.0
 11
247.220223
 21
93.87160900000001
 31
0.0
  0
LINE
  5
9992
330
98C6
100
AcDbEntity
  8
1
  6
Continuous
100
AcDbLine
 10
169.720223
 20
102.8716089999999
 30
0.0
 11
254.7202229999999
 21
102.8716089999999
 31
0.0
  0
LINE
  5
9993
330
98C6
100
AcDbEntity
  8
4
  6
CENTER
 48
0.8
100
AcDbLine
 10
165.220223
 20
93.87160900000001
 30
0.0
 11
177.2202229999997
 21
93.87160900000001
 31
0.0
  0
ARC
  5
9994
330
98C6
100
AcDbEntity
  8
1
  6
Continuous
100
AcDbCircle
 10
169.720223
 20
95.37160900000001
 30
0.0
 40
7.5
100
AcDbArc
 50
90.00004999999999
 51
193.44032
  0
LINE
  5
9995
330
98C6
100
AcDbEntity
  8
4
  6
CENTER
 48
0.8
100
AcDbLine
 10
125.2202229999999
 20
73.87160899999997
 30
0.0
 11
264.686883
 21
73.87160899999997
 31
0.0
  0
CIRCLE
  5
9996
330
98C6
100
AcDbEntity
  8
1
  6
Continuous
100
AcDbCircle
 10
253.220223
 20
53.871609
 30
0.0
 40
4.4
  0
ARC
  5
9997
330
98C6
100
AcDbEntity
  8
1
  6
Continuous
100
AcDbCircle
 10
254.7202229999999
 20
52.371609
 30
0.0
 40
7.5
100
AcDbArc
 50
270.0000179999999
 51
13.44032
  0
LINE
  5
9998
330
98C6
100
AcDbEntity
  8
4
  6
CENTER
 48
0.8
100
AcDbLine
 10
259.2202229999999
 20
53.871609
 30
0.0
 11
247.220223
 21
53.871609
 31
0.0
  0
LINE
  5
9999
330
98C6
100
AcDbEntity
  8
1
  6
Continuous
100
AcDbLine
 10
169.720223
 20
44.871609
 30
0.0
 11
254.7202229999999
 21
44.871609
 31
0.0
  0
ARC
  5
999A
330
98C6
100
AcDbEntity
  8
1
  6
Continuous
100
AcDbCircle
 10
169.720223
 20
52.371609
 30
0.0
 40
7.5
100
AcDbArc
 50
166.55971
 51
270.0000179999999
  0
LINE
  5
999B
330
98C6
100
AcDbEntity
  8
4
  6
CENTER
 48
0.8
100
AcDbLine
 10
165.220223
 20
53.871609
 30
0.0
 11
177.2202229999997
 21
53.871609
 31
0.0
  0
ARC
  5
999C
330
98C6
100
AcDbEntity
  8
1
  6
Continuous
100
AcDbCircle
 10
171.220223
 20
53.871609
 30
0.0
 40
4.4
100
AcDbArc
 50
116.3674389999999
 51
320.5148669999998
  0
LINE
  5
999D
330
98C6
100
AcDbEntity
  8
4
  6
CENTER
 48
0.8
100
AcDbLine
 10
171.220223
 20
47.87160899999999
 30
0.0
 11
171.220223
 21
59.871609
 31
0.0
  0
LINE
  5
999E
330
98C6
100
AcDbEntity
  8
4
  6
CENTER
 48
0.8
100
AcDbLine
 10
253.220223
 20
47.87160899999999
 30
0.0
 11
253.220223
 21
59.871609
 31
0.0
  0
LINE
  5
999F
330
98C6
100
AcDbEntity
  8
1
  6
Continuous
100
AcDbLine
 10
163.6746569999999
 20
328.3716089999998
 30
0.0
 11
133.1997069999999
 21
328.3716089999998
 31
0.0
  0
LINE
  5
99A0
330
98C6
100
AcDbEntity
  8
1
  6
Continuous
100
AcDbLine
 10
163.6746569999999
 20
355.3716089999999
 30
0.0
 11
133.1997069999999
 21
355.3716089999999
 31
0.0
  0
ARC
  5
99A1
330
98C6
100
AcDbEntity
  8
1
  6
Continuous
100
AcDbCircle
 10
200.2202229999999
 20
341.8716089999998
 30
0.0
 40
70.0
100
AcDbArc
 50
170.26348
 51
189.7364989999998
  0
ARC
  5
99A2
330
98C6
100
AcDbEntity
  8
1
  6
Continuous
100
AcDbCircle
 10
133.1997069999999
 20
330.3716089999998
 30
0.0
 40
2.0
100
AcDbArc
 50
189.736519
 51
269.99998
  0
ARC
  5
99A3
330
98C6
100
AcDbEntity
  8
1
  6
Continuous
100
AcDbCircle
 10
133.1997069999999
 20
353.3716089999999
 30
0.0
 40
2.0
100
AcDbArc
 50
90.00005499999994
 51
170.263534
  0
LINE
  5
99A4
330
98C6
100
AcDbEntity
  8
1
  6
Continuous
100
AcDbLine
 10
169.220223
 20
89.87160899999997
 30
0.0
 11
193.6808049999999
 21
89.87160899999997
 31
0.0
  0
LINE
  5
99A5
330
98C6
100
AcDbEntity
  8
1
  6
Continuous
100
AcDbLine
 10
169.220223
 20
92.171604
 30
0.0
 11
193.680799
 21
92.171604
 31
0.0
  0
LINE
  5
99A6
330
98C6
100
AcDbEntity
  8
1
  6
Continuous
100
AcDbLine
 10
169.220223
 20
57.87160899999999
 30
0.0
 11
193.6808049999999
 21
57.87160899999999
 31
0.0
  0
LINE
  5
99A7
330
98C6
100
AcDbEntity
  8
1
  6
Continuous
100
AcDbLine
 10
169.220223
 20
55.57161899999999
 30
0.0
 11
193.680793
 21
55.57161899999999
 31
0.0
  0
LINE
  5
99A8
330
98C6
100
AcDbEntity
  8
1
  6
Continuous
100
AcDbLine
 10
227.240738
 20
87.37160899999997
 30
0.0
 11
133.1997069999999
 21
87.37160899999997
 31
0.0
  0
LINE
  5
99A9
330
98C6
100
AcDbEntity
  8
1
  6
Continuous
100
AcDbLine
 10
227.240738
 20
60.37160899999999
 30
0.0
 11
133.1997069999999
 21
60.37160899999999
 31
0.0
  0
ARC
  5
99AA
330
98C6
100
AcDbEntity
  8
1
  6
Continuous
100
AcDbCircle
 10
200.2202229999999
 20
73.87160899999997
 30
0.0
 40
70.0
100
AcDbArc
 50
170.26348
 51
189.7364989999998
  0
ARC
  5
99AB
330
98C6
100
AcDbEntity
  8
1
  6
Continuous
100
AcDbCircle
 10
133.1997069999999
 20
62.371609
 30
0.0
 40
2.0
100
AcDbArc
 50
189.736519
 51
269.99998
  0
ARC
  5
99AC
330
98C6
100
AcDbEntity
  8
1
  6
Continuous
100
AcDbCircle
 10
133.1997069999999
 20
85.37160899999998
 30
0.0
 40
2.0
100
AcDbArc
 50
90.00005499999994
 51
170.263534
  0
LINE
  5
99AD
330
98C6
100
AcDbEntity
  8
1
  6
Continuous
100
AcDbLine
 10
186.4702229999998
 20
92.171604
 30
0.0
 11
186.4702229999998
 21
93.371601
 31
0.0
  0
LINE
  5
99AE
330
98C6
100
AcDbEntity
  8
1
  6
Continuous
100
AcDbLine
 10
173.9702229999998
 20
92.171604
 30
0.0
 11
173.9702229999998
 21
93.371601
 31
0.0
  0
LINE
  5
99AF
330
98C6
100
AcDbEntity
  8
1
  6
Continuous
100
AcDbLine
 10
167.7202229999998
 20
88.87160899999996
 30
0.0
 11
192.720225
 21
88.87160899999996
 31
0.0
  0
LINE
  5
99B0
330
98C6
100
AcDbEntity
  8
1
  6
Continuous
100
AcDbLine
 10
167.7202229999998
 20
58.871609
 30
0.0
 11
192.720225
 21
58.871609
 31
0.0
  0
ARC
  5
99B1
330
98C6
100
AcDbEntity
  8
1
  6
Continuous
100
AcDbCircle
 10
167.7202229999998
 20
61.871609
 30
0.0
 40
3.0
100
AcDbArc
 50
210.00002
 51
269.9999599999998
  0
LINE
  5
99B2
330
98C6
100
AcDbEntity
  8
1
  6
Continuous
100
AcDbLine
 10
176.2202229999997
 20
57.87160899999999
 30
0.0
 11
176.2202229999997
 21
58.871609
 31
0.0
  0
ARC
  5
99B3
330
98C6
100
AcDbEntity
  8
1
  6
Continuous
100
AcDbCircle
 10
167.7202229999998
 20
85.87160899999998
 30
0.0
 40
3.0
100
AcDbArc
 50
90.00005499999994
 51
149.9999949999998
  0
LINE
  5
99B4
330
98C6
100
AcDbEntity
  8
1
  6
Continuous
100
AcDbLine
 10
176.2202229999997
 20
88.87160899999996
 30
0.0
 11
176.2202229999997
 21
89.87161699999999
 31
0.0
  0
LINE
  5
99B5
330
98C6
100
AcDbEntity
  8
1
  6
Continuous
100
AcDbLine
 10
184.220223
 20
57.87160899999999
 30
0.0
 11
184.220223
 21
58.871609
 31
0.0
  0
ARC
  5
99B6
330
98C6
100
AcDbEntity
  8
1
  6
Continuous
100
AcDbCircle
 10
192.7202229999998
 20
61.871609
 30
0.0
 40
3.0
100
AcDbArc
 50
270.0000399999999
 51
329.99998
  0
LINE
  5
99B7
330
98C6
100
AcDbEntity
  8
1
  6
Continuous
100
AcDbLine
 10
184.220223
 20
88.87160899999996
 30
0.0
 11
184.220223
 21
89.87161699999999
 31
0.0
  0
ARC
  5
99B8
330
98C6
100
AcDbEntity
  8
1
  6
Continuous
100
AcDbCircle
 10
192.7202229999998
 20
85.87160899999998
 30
0.0
 40
3.0
100
AcDbArc
 50
30.00001
 51
89.99995000000001
  0
LINE
  5
99B9
330
98C6
100
AcDbEntity
  8
1
  6
Continuous
100
AcDbLine
 10
175.970223
 20
95.37160099999999
 30
0.0
 11
184.470223
 21
95.37160099999999
 31
0.0
  0
ARC
  5
99BA
330
98C6
100
AcDbEntity
  8
1
  6
Continuous
100
AcDbCircle
 10
175.970223
 20
93.371601
 30
0.0
 40
2.0
100
AcDbArc
 50
90.0
 51
179.999982
  0
ARC
  5
99BB
330
98C6
100
AcDbEntity
  8
1
  6
Continuous
100
AcDbCircle
 10
184.470223
 20
93.371601
 30
0.0
 40
2.0
100
AcDbArc
 50
0.00002
 51
90.0
  0
ARC
  5
99BC
330
98C6
100
AcDbEntity
  8
1
  6
Continuous
100
AcDbCircle
 10
160.220223
 20
73.87160899999997
 30
0.0
 40
70.0
100
AcDbArc
 50
350.2635009999999
 51
9.73652
  0
ARC
  5
99BD
330
98C6
100
AcDbEntity
  8
1
  6
Continuous
100
AcDbCircle
 10
227.240738
 20
62.371609
 30
0.0
 40
2.0
100
AcDbArc
 50
270.00002
 51
350.2634799999999
  0
ARC
  5
99BE
330
98C6
100
AcDbEntity
  8
1
  6
Continuous
100
AcDbCircle
 10
227.240738
 20
85.37160899999998
 30
0.0
 40
2.0
100
AcDbArc
 50
9.736469999999997
 51
89.99995000000001
  0
LINE
  5
99BF
330
98C6
100
AcDbEntity
  8
1
  6
Continuous
100
AcDbLine
 10
169.220223
 20
92.171604
 30
0.0
 11
169.220223
 21
89.87160899999997
 31
0.0
  0
ARC
  5
99C0
330
98C6
100
AcDbEntity
  8
1
  6
Continuous
100
AcDbCircle
 10
79.753563
 20
73.87160899999997
 30
0.0
 40
85.0
100
AcDbArc
 50
9.138616
 51
13.44032
  0
LINE
  5
99C1
330
98C6
100
AcDbEntity
  8
1
  6
Continuous
100
AcDbLine
 10
169.220223
 20
57.87160899999999
 30
0.0
 11
169.220223
 21
55.57161899999999
 31
0.0
  0
ARC
  5
99C2
330
98C6
100
AcDbEntity
  8
1
  6
Continuous
100
AcDbCircle
 10
214.8902839999998
 20
73.86203899999998
 30
0.0
 40
43.958572
100
AcDbArc
 50
158.641841
 51
160.0348759999999
  0
ARC
  5
99C3
330
98C6
100
AcDbEntity
  8
1
  6
Continuous
100
AcDbCircle
 10
214.8902839999998
 20
73.86203899999998
 30
0.0
 40
43.958572
100
AcDbArc
 50
199.938584
 51
201.331375
  0
ARC
  5
99C4
330
98C6
100
AcDbEntity
  8
1
  6
Continuous
100
AcDbCircle
 10
212.220223
 20
73.87160899999997
 30
0.0
 40
25.0
100
AcDbArc
 50
230.2610529999999
 51
129.738932
  0
ARC
  5
99C5
330
98C6
100
AcDbEntity
  8
1
  6
Continuous
100
AcDbCircle
 10
212.220223
 20
73.87160899999997
 30
0.0
 40
22.7
100
AcDbArc
 50
230.2610839999999
 51
129.7389159999999
  0
ARC
  5
99C6
330
98C6
100
AcDbEntity
  8
1
  6
Continuous
100
AcDbCircle
 10
212.220223
 20
73.87160899999997
 30
0.0
 40
17.0
100
AcDbArc
 50
232.5719939999999
 51
307.4280059999998
  0
ARC
  5
99C7
330
98C6
100
AcDbEntity
  8
1
  6
Continuous
100
AcDbCircle
 10
212.220223
 20
73.87160899999997
 30
0.0
 40
20.69999999999998
100
AcDbArc
 50
220.7057069999999
 51
319.936096
  0
ARC
  5
99C8
330
98C6
100
AcDbEntity
  8
1
  6
Continuous
100
AcDbCircle
 10
212.220223
 20
73.87160899999997
 30
0.0
 40
17.0
100
AcDbArc
 50
52.571994
 51
127.428006
  0
ARC
  5
99C9
330
98C6
100
AcDbEntity
  8
1
  6
Continuous
100
AcDbCircle
 10
212.220223
 20
73.87160899999997
 30
0.0
 40
20.69999999999998
100
AcDbArc
 50
40.06390399999999
 51
139.2942929999997
  0
ARC
  5
99CA
330
98C6
100
AcDbEntity
  8
1
  6
Continuous
100
AcDbCircle
 10
212.220223
 20
73.87160899999997
 30
0.0
 40
20.69999999999998
100
AcDbArc
 50
325.1878759999998
 51
34.81212399999999
  0
CIRCLE
  5
99CB
330
98C6
100
AcDbEntity
  8
2
  6
Continuous
100
AcDbCircle
 10
491.220223
 20
196.871609
 30
0.0
 40
3.3235
  0
CIRCLE
  5
99CC
330
98C6
100
AcDbEntity
  8
1
  6
Continuous
100
AcDbCircle
 10
491.220223
 20
196.871609
 30
0.0
 40
4.0
  0
ARC
  5
99CD
330
98C6
100
AcDbEntity
  8
1
  6
Continuous
100
AcDbCircle
 10
177.2202229999997
 20
48.730018
 30
0.0
 40
6.841600999999998
100
AcDbArc
 50
63.992176
 51
116.007824
  0
ARC
  5
99CE
330
98C6
100
AcDbEntity
  8
1
  6
Continuous
100
AcDbCircle
 10
177.2202229999997
 20
57.41321899999999
 30
0.0
 40
6.841600999999998
100
AcDbArc
 50
243.992176
 51
296.0078240000001
  0
LINE
  5
99CF
330
98C6
100
AcDbEntity
  8
1
  6
Continuous
100
AcDbLine
 10
177.470223
 20
50.571619
 30
0.0
 11
182.970223
 21
50.571619
 31
0.0
  0
LINE
  5
99D0
330
98C6
100
AcDbEntity
  8
1
  6
Continuous
100
AcDbLine
 10
174.220223
 20
54.87879799999999
 30
0.0
 11
174.220223
 21
51.264439
 31
0.0
  0
LINE
  5
99D1
330
98C6
100
AcDbEntity
  8
1
  6
Continuous
100
AcDbLine
 10
180.2202229999998
 20
55.57161899999999
 30
0.0
 11
180.2202229999998
 21
51.264439
 31
0.0
  0
LINE
  5
99D2
330
98C6
100
AcDbEntity
  8
1
  6
Continuous
100
AcDbLine
 10
186.220223
 20
54.87879799999999
 30
0.0
 11
186.220223
 21
51.264439
 31
0.0
  0
ARC
  5
99D3
330
98C6
100
AcDbEntity
  8
1
  6
Continuous
100
AcDbCircle
 10
183.220223
 20
48.730018
 30
0.0
 40
6.841600999999998
100
AcDbArc
 50
63.992176
 51
116.007824
  0
ARC
  5
99D4
330
98C6
100
AcDbEntity
  8
1
  6
Continuous
100
AcDbCircle
 10
183.220223
 20
57.41321899999999
 30
0.0
 40
6.841600999999998
100
AcDbArc
 50
243.992176
 51
296.0078240000001
  0
LINE
  5
99D5
330
98C6
100
AcDbEntity
  8
4
  6
CENTER
 48
0.8
100
AcDbLine
 10
335.3197999999999
 20
273.8716249999999
 30
0.0
 11
335.3197999999999
 21
141.8716249999999
 31
0.0
  0
ARC
  5
99D6
330
98C6
100
AcDbEntity
  8
1
  6
Continuous
100
AcDbCircle
 10
323.8198
 20
149.8511099999998
 30
0.0
 40
2.0
100
AcDbArc
 50
180.0000499999999
 51
260.26353
  0
ARC
  5
99D7
330
98C6
100
AcDbEntity
  8
1
  6
Continuous
100
AcDbCircle
 10
346.8198
 20
149.8511099999998
 30
0.0
 40
2.0
100
AcDbArc
 50
279.7365199999999
 51
359.9999799999998
  0
ARC
  5
99D8
330
98C6
100
AcDbEntity
  8
1
  6
Continuous
100
AcDbCircle
 10
335.3197999999999
 20
216.871625
 30
0.0
 40
70.0
100
AcDbArc
 50
260.2634799999999
 51
279.7364989999999
  0
LINE
  5
99D9
330
98C6
100
AcDbEntity
  8
1
  6
Continuous
100
AcDbLine
 10
348.8198
 20
149.8511099999998
 30
0.0
 11
348.8198
 21
243.892141
 31
0.0
  0
LINE
  5
99DA
330
98C6
100
AcDbEntity
  8
1
  6
Continuous
100
AcDbLine
 10
321.8198
 20
149.8511099999998
 30
0.0
 11
321.8198
 21
243.892141
 31
0.0
  0
LINE
  5
99DB
330
98C6
100
AcDbEntity
  8
1
  6
Continuous
100
AcDbLine
 10
310.3197999999999
 20
255.9716169999999
 30
0.0
 11
310.3197999999999
 21
231.823477
 31
0.0
  0
LINE
  5
99DC
330
98C6
100
AcDbEntity
  8
1
  6
Continuous
100
AcDbLine
 10
317.0198049999999
 20
201.845008
 30
0.0
 11
317.0198049999999
 21
185.871625
 31
0.0
  0
LINE
  5
99DD
330
98C6
100
AcDbEntity
  8
1
  6
Continuous
100
AcDbLine
 10
319.3197999999998
 20
250.973676
 30
0.0
 11
319.3197999999998
 21
185.871625
 31
0.0
  0
LINE
  5
99DE
330
98C6
100
AcDbEntity
  8
1
  6
Continuous
100
AcDbLine
 10
353.6197899999999
 20
201.844997
 30
0.0
 11
353.6197899999999
 21
185.871625
 31
0.0
  0
LINE
  5
99DF
330
98C6
100
AcDbEntity
  8
1
  6
Continuous
100
AcDbLine
 10
351.3198
 20
250.973676
 30
0.0
 11
351.3198
 21
185.871625
 31
0.0
  0
LINE
  5
99E0
330
98C6
100
AcDbEntity
  8
4
  6
CENTER
 48
0.8
100
AcDbLine
 10
365.6197899999999
 20
196.8716249999999
 30
0.0
 11
308.819808
 21
196.8716249999999
 31
0.0
  0
LINE
  5
99E1
330
98C6
100
AcDbEntity
  8
1
  6
Continuous
100
AcDbLine
 10
350.3197999999999
 20
209.3716249999999
 30
0.0
 11
350.3197999999999
 21
184.371623
 31
0.0
  0
LINE
  5
99E2
330
98C6
100
AcDbEntity
  8
1
  6
Continuous
100
AcDbLine
 10
358.6197899999998
 20
201.9736379999999
 30
0.0
 11
358.6197899999998
 21
191.769612
 31
0.0
  0
ARC
  5
99E3
330
98C6
100
AcDbEntity
  8
1
  6
Continuous
100
AcDbCircle
 10
356.8697899999999
 20
191.9299969999999
 30
0.0
 40
3.25
100
AcDbArc
 50
148.634207
 51
208.6527699999999
  0
ARC
  5
99E4
330
98C6
100
AcDbEntity
  8
1
  6
Continuous
100
AcDbCircle
 10
354.3697899999998
 20
191.9299969999999
 30
0.0
 40
3.25
100
AcDbArc
 50
331.3472699999998
 51
31.36577
  0
LINE
  5
99E5
330
98C6
100
AcDbEntity
  8
1
  6
Continuous
100
AcDbLine
 10
351.3198
 20
192.8716249999999
 30
0.0
 11
350.3197999999999
 21
192.8716249999999
 31
0.0
  0
ARC
  5
99E6
330
98C6
100
AcDbEntity
  8
1
  6
Continuous
100
AcDbCircle
 10
347.3198
 20
184.3716249999999
 30
0.0
 40
3.0
100
AcDbArc
 50
300.00002
 51
359.9999599999999
  0
LINE
  5
99E7
330
98C6
100
AcDbEntity
  8
1
  6
Continuous
100
AcDbLine
 10
357.22179
 20
190.371625
 30
0.0
 11
354.0177799999999
 21
190.371625
 31
0.0
  0
LINE
  5
99E8
330
98C6
100
AcDbEntity
  8
1
  6
Continuous
100
AcDbLine
 10
353.6197899999999
 20
185.871625
 30
0.0
 11
351.3198
 21
185.871625
 31
0.0
  0
LINE
  5
99E9
330
98C6
100
AcDbEntity
  8
1
  6
Continuous
100
AcDbLine
 10
357.22179
 20
190.371629
 30
0.0
 11
358.6197899999998
 21
191.769616
 31
0.0
  0
ARC
  5
99EA
330
98C6
100
AcDbEntity
  8
1
  6
Continuous
100
AcDbCircle
 10
347.3198
 20
209.3716249999999
 30
0.0
 40
3.0
100
AcDbArc
 50
0.00004
 51
59.99998000000001
  0
ARC
  5
99EB
330
98C6
100
AcDbEntity
  8
1
  6
Continuous
100
AcDbCircle
 10
365.6197899999999
 20
196.8716249999999
 30
0.0
 40
12.0
100
AcDbArc
 50
164.286139
 51
195.71386
  0
LINE
  5
99EC
330
98C6
100
AcDbEntity
  8
1
  6
Continuous
100
AcDbLine
 10
357.22179
 20
203.3716249999999
 30
0.0
 11
354.2212119999998
 21
203.3716249999999
 31
0.0
  0
LINE
  5
99ED
330
98C6
100
AcDbEntity
  8
1
  6
Continuous
100
AcDbLine
 10
357.1712999999999
 20
200.121625
 30
0.0
 11
354.06827
 21
200.121625
 31
0.0
  0
LINE
  5
99EE
330
98C6
100
AcDbEntity
  8
1
  6
Continuous
100
AcDbLine
 10
357.1448399999999
 20
193.621625
 30
0.0
 11
354.0947299999999
 21
193.621625
 31
0.0
  0
LINE
  5
99EF
330
98C6
100
AcDbEntity
  8
1
  6
Continuous
100
AcDbLine
 10
351.3198
 20
200.8716249999999
 30
0.0
 11
350.3197999999999
 21
200.8716249999999
 31
0.0
  0
ARC
  5
99F0
330
98C6
100
AcDbEntity
  8
1
  6
Continuous
100
AcDbCircle
 10
354.3697899999998
 20
201.8132529999999
 30
0.0
 40
3.25
100
AcDbArc
 50
328.6342499999999
 51
28.65275
  0
ARC
  5
99F1
330
98C6
100
AcDbEntity
  8
1
  6
Continuous
100
AcDbCircle
 10
345.6197899999998
 20
196.8716249999999
 30
0.0
 40
12.0
100
AcDbArc
 50
344.28617
 51
15.71384
  0
LINE
  5
99F2
330
98C6
100
AcDbEntity
  8
1
  6
Continuous
100
AcDbLine
 10
358.61977
 20
201.9736409999999
 30
0.0
 11
357.22179
 21
203.371629
 31
0.0
  0
LINE
  5
99F3
330
98C6
100
AcDbEntity
  8
1
  6
Continuous
100
AcDbLine
 10
320.3197999999998
 20
209.3716249999999
 30
0.0
 11
320.3197999999998
 21
184.371623
 31
0.0
  0
LINE
  5
99F4
330
98C6
100
AcDbEntity
  8
1
  6
Continuous
100
AcDbLine
 10
313.819808
 20
201.1216249999999
 30
0.0
 11
313.819808
 21
192.6216249999999
 31
0.0
  0
LINE
  5
99F5
330
98C6
100
AcDbEntity
  8
1
  6
Continuous
100
AcDbLine
 10
320.3197999999998
 20
192.8716249999999
 30
0.0
 11
319.319792
 21
192.8716249999999
 31
0.0
  0
ARC
  5
99F6
330
98C6
100
AcDbEntity
  8
1
  6
Continuous
100
AcDbCircle
 10
323.3197999999998
 20
184.3716249999999
 30
0.0
 40
3.0
100
AcDbArc
 50
180.0000499999999
 51
239.99999
  0
LINE
  5
99F7
330
98C6
100
AcDbEntity
  8
1
  6
Continuous
100
AcDbLine
 10
317.0198049999999
 20
190.6216249999999
 30
0.0
 11
315.819808
 21
190.6216249999999
 31
0.0
  0
LINE
  5
99F8
330
98C6
100
AcDbEntity
  8
1
  6
Continuous
100
AcDbLine
 10
317.0198049999999
 20
185.871625
 30
0.0
 11
319.3197999999998
 21
185.871625
 31
0.0
  0
ARC
  5
99F9
330
98C6
100
AcDbEntity
  8
1
  6
Continuous
100
AcDbCircle
 10
315.819808
 20
192.6216249999999
 30
0.0
 40
2.0
100
AcDbArc
 50
180.0
 51
269.99998
  0
ARC
  5
99FA
330
98C6
100
AcDbEntity
  8
1
  6
Continuous
100
AcDbCircle
 10
323.3197999999998
 20
209.3716249999999
 30
0.0
 40
3.0
100
AcDbArc
 50
120.000005
 51
179.999945
  0
ARC
  5
99FB
330
98C6
100
AcDbEntity
  8
1
  6
Continuous
100
AcDbCircle
 10
315.819808
 20
201.1216249999999
 30
0.0
 40
2.0
100
AcDbArc
 50
90.0
 51
180.0
  0
LINE
  5
99FC
330
98C6
100
AcDbEntity
  8
1
  6
Continuous
100
AcDbLine
 10
320.3197999999998
 20
200.8716249999999
 30
0.0
 11
319.319792
 21
200.8716249999999
 31
0.0
  0
ARC
  5
99FD
330
98C6
100
AcDbEntity
  8
1
  6
Continuous
100
AcDbCircle
 10
335.3197999999999
 20
176.8716249999999
 30
0.0
 40
70.0
100
AcDbArc
 50
80.263501
 51
99.73652000000001
  0
LINE
  5
99FE
330
98C6
100
AcDbEntity
  8
1
  6
Continuous
100
AcDbLine
 10
358.3197999999999
 20
261.971623
 30
0.0
 11
312.3197999999998
 21
261.971623
 31
0.0
  0
LINE
  5
99FF
330
98C6
100
AcDbEntity
  8
1
  6
Continuous
100
AcDbLine
 10
364.3197999999999
 20
266.5716219999999
 30
0.0
 11
306.3197999999998
 21
266.5716219999999
 31
0.0
  0
LINE
  5
9A00
330
98C6
100
AcDbEntity
  8
1
  6
Continuous
100
AcDbLine
 10
364.3197999999999
 20
268.871625
 30
0.0
 11
306.3197999999998
 21
268.871625
 31
0.0
  0
LINE
  5
9A01
330
98C6
100
AcDbEntity
  8
1
  6
Continuous
100
AcDbLine
 10
355.3198
 20
260.971617
 30
0.0
 11
315.3197999999998
 21
260.971617
 31
0.0
  0
ARC
  5
9A02
330
98C6
100
AcDbEntity
  8
1
  6
Continuous
100
AcDbCircle
 10
358.3197999999999
 20
264.971623
 30
0.0
 40
3.0
100
AcDbArc
 50
269.99998
 51
328.48641
  0
ARC
  5
9A03
330
98C6
100
AcDbEntity
  8
1
  6
Continuous
100
AcDbCircle
 10
355.3198
 20
255.9716169999999
 30
0.0
 40
5.0
100
AcDbArc
 50
0.00004
 51
90.00001800000005
  0
LINE
  5
9A04
330
98C6
100
AcDbEntity
  8
1
  6
Continuous
100
AcDbLine
 10
362.8198499999998
 20
266.571633
 30
0.0
 11
360.87739
 21
263.403523
 31
0.0
  0
LINE
  5
9A05
330
98C6
100
AcDbEntity
  8
1
  6
Continuous
100
AcDbLine
 10
364.3197999999999
 20
268.871625
 30
0.0
 11
364.3197999999999
 21
266.5716259999999
 31
0.0
  0
ARC
  5
9A06
330
98C6
100
AcDbEntity
  8
1
  6
Continuous
100
AcDbCircle
 10
346.8198
 20
243.892141
 30
0.0
 40
2.0
100
AcDbArc
 50
0.00002
 51
80.26348100000001
  0
LINE
  5
9A07
330
98C6
100
AcDbEntity
  8
4
  6
CENTER
 48
0.8
100
AcDbLine
 10
355.3198
 20
273.8716249999999
 30
0.0
 11
355.3198
 21
261.5716219999999
 31
0.0
  0
ARC
  5
9A08
330
98C6
100
AcDbEntity
  8
1
  6
Continuous
100
AcDbCircle
 10
352.2321799999998
 20
262.4496279999998
 30
0.0
 40
2.778
100
AcDbArc
 50
327.85649
 51
350.0919
  0
ARC
  5
9A09
330
98C6
100
AcDbEntity
  8
1
  6
Continuous
100
AcDbCircle
 10
349.6969399999999
 20
262.4496279999998
 30
0.0
 40
2.778
100
AcDbArc
 50
327.85649
 51
350.0919
  0
ARC
  5
9A0A
330
98C6
100
AcDbEntity
  8
1
  6
Continuous
100
AcDbCircle
 10
345.76096
 20
262.4496279999998
 30
0.0
 40
2.778
100
AcDbArc
 50
327.85649
 51
350.0919
  0
ARC
  5
9A0B
330
98C6
100
AcDbEntity
  8
1
  6
Continuous
100
AcDbCircle
 10
353.1198199999999
 20
262.4496279999998
 30
0.0
 40
2.778
100
AcDbArc
 50
327.85649
 51
350.0919
  0
ARC
  5
9A0C
330
98C6
100
AcDbEntity
  8
1
  6
Continuous
100
AcDbCircle
 10
340.8077299999998
 20
262.4496279999998
 30
0.0
 40
2.778
100
AcDbArc
 50
327.85649
 51
350.0919
  0
ARC
  5
9A0D
330
98C6
100
AcDbEntity
  8
1
  6
Continuous
100
AcDbCircle
 10
345.76096
 20
262.4496279999998
 30
0.0
 40
2.778
100
AcDbArc
 50
206.93616
 51
212.14352
  0
ARC
  5
9A0E
330
98C6
100
AcDbEntity
  8
1
  6
Continuous
100
AcDbCircle
 10
329.8319
 20
262.4496279999998
 30
0.0
 40
2.778
100
AcDbArc
 50
327.85649
 51
350.0919599999999
  0
ARC
  5
9A0F
330
98C6
100
AcDbEntity
  8
1
  6
Continuous
100
AcDbCircle
 10
335.31982
 20
262.4496279999998
 30
0.0
 40
2.778
100
AcDbArc
 50
189.90807
 51
212.14352
  0
ARC
  5
9A10
330
98C6
100
AcDbEntity
  8
1
  6
Continuous
100
AcDbCircle
 10
340.8077299999998
 20
262.4496279999998
 30
0.0
 40
2.778
100
AcDbArc
 50
189.9080099999999
 51
212.14352
  0
ARC
  5
9A11
330
98C6
100
AcDbEntity
  8
1
  6
Continuous
100
AcDbCircle
 10
335.31982
 20
262.4496279999998
 30
0.0
 40
2.778
100
AcDbArc
 50
327.85649
 51
350.0919
  0
ARC
  5
9A12
330
98C6
100
AcDbEntity
  8
1
  6
Continuous
100
AcDbCircle
 10
315.3197999999998
 20
255.9716169999999
 30
0.0
 40
5.0
100
AcDbArc
 50
90.00001800000005
 51
180.0
  0
ARC
  5
9A13
330
98C6
100
AcDbEntity
  8
1
  6
Continuous
100
AcDbCircle
 10
323.8198
 20
243.892141
 30
0.0
 40
2.0
100
AcDbArc
 50
99.73646600000002
 51
179.999945
  0
LINE
  5
9A14
330
98C6
100
AcDbEntity
  8
4
  6
CENTER
 48
0.8
100
AcDbLine
 10
315.3197999999998
 20
273.8716249999999
 30
0.0
 11
315.3197999999998
 21
261.5716219999999
 31
0.0
  0
ARC
  5
9A15
330
98C6
100
AcDbEntity
  8
1
  6
Continuous
100
AcDbCircle
 10
318.407446
 20
262.4496279999998
 30
0.0
 40
2.778
100
AcDbArc
 50
189.90807
 51
212.14352
  0
ARC
  5
9A16
330
98C6
100
AcDbEntity
  8
1
  6
Continuous
100
AcDbCircle
 10
320.942694
 20
262.4496279999998
 30
0.0
 40
2.778
100
AcDbArc
 50
189.90807
 51
212.14352
  0
ARC
  5
9A17
330
98C6
100
AcDbEntity
  8
1
  6
Continuous
100
AcDbCircle
 10
324.878668
 20
262.4496279999998
 30
0.0
 40
2.778
100
AcDbArc
 50
327.85649
 51
333.0638
  0
ARC
  5
9A18
330
98C6
100
AcDbEntity
  8
1
  6
Continuous
100
AcDbCircle
 10
317.5198049999999
 20
262.4496279999998
 30
0.0
 40
2.778
100
AcDbArc
 50
189.90807
 51
212.19887
  0
ARC
  5
9A19
330
98C6
100
AcDbEntity
  8
1
  6
Continuous
100
AcDbCircle
 10
329.8319
 20
262.4496279999998
 30
0.0
 40
2.778
100
AcDbArc
 50
189.90807
 51
212.14352
  0
ARC
  5
9A1A
330
98C6
100
AcDbEntity
  8
1
  6
Continuous
100
AcDbCircle
 10
324.878668
 20
262.4496279999998
 30
0.0
 40
2.778
100
AcDbArc
 50
189.90807
 51
212.14352
  0
LINE
  5
9A1B
330
98C6
100
AcDbEntity
  8
1
  6
Continuous
100
AcDbLine
 10
306.3197999999998
 20
268.871625
 30
0.0
 11
306.3197999999998
 21
266.5716219999999
 31
0.0
  0
ARC
  5
9A1C
330
98C6
100
AcDbEntity
  8
1
  6
Continuous
100
AcDbCircle
 10
312.3197999999998
 20
264.971623
 30
0.0
 40
3.0
100
AcDbArc
 50
211.5135599999999
 51
269.99998
  0
LINE
  5
9A1D
330
98C6
100
AcDbEntity
  8
1
  6
Continuous
100
AcDbLine
 10
307.8198379999999
 20
266.5716450000001
 30
0.0
 11
309.76229
 21
263.403541
 31
0.0
  0
LINE
  5
9A1E
330
98C6
100
AcDbEntity
  8
1
  6
Continuous
100
AcDbLine
 10
360.3197999999999
 20
255.9716169999999
 30
0.0
 11
360.3197999999999
 21
231.823477
 31
0.0
  0
LINE
  5
9A1F
330
98C6
100
AcDbEntity
  8
1
  6
Continuous
100
AcDbLine
 10
509.2202229999998
 20
268.8716089999999
 30
0.0
 11
409.2202379999998
 21
268.8716089999999
 31
0.0
  0
LINE
  5
9A20
330
98C6
100
AcDbEntity
  8
1
  6
Continuous
100
AcDbLine
 10
509.2202229999998
 20
266.5716059999999
 30
0.0
 11
409.2202379999998
 21
266.5716059999999
 31
0.0
  0
LINE
  5
9A21
330
98C6
100
AcDbEntity
  8
4
  6
CENTER
 48
0.8
100
AcDbLine
 10
491.220223
 20
256.3725949999999
 30
0.0
 11
491.220223
 21
141.871609
 31
0.0
  0
ARC
  5
9A22
330
98C6
100
AcDbEntity
  8
1
  6
Continuous
100
AcDbCircle
 10
491.220223
 20
196.871609
 30
0.0
 40
50.0
100
AcDbArc
 50
132.5014879999999
 51
83.37811499999999
  0
LINE
  5
9A23
330
98C6
100
AcDbEntity
  8
4
  6
CENTER
 48
0.8
100
AcDbLine
 10
546.220223
 20
196.871609
 30
0.0
 11
436.220223
 21
196.871609
 31
0.0
  0
LINE
  5
9A24
330
98C6
100
AcDbEntity
  8
1
  6
Continuous
100
AcDbLine
 10
481.674088
 20
191.406155
 30
0.0
 11
451.2622059999998
 21
244.524497
 31
0.0
  0
LINE
  5
9A25
330
98C6
100
AcDbEntity
  8
1
  6
Continuous
100
AcDbLine
 10
496.52819
 20
250.8315
 30
0.0
 11
502.158203
 21
198.03806
 31
0.0
  0
LINE
  5
9A26
330
98C6
100
AcDbEntity
  8
1
  6
Continuous
100
AcDbLine
 10
480.2202229999998
 20
251.771612
 30
0.0
 11
480.2202229999998
 21
199.371609
 31
0.0
  0
LINE
  5
9A27
330
98C6
100
AcDbEntity
  8
4
  6
CENTER
 48
0.8
100
AcDbLine
 10
459.2202229999998
 20
274.335335
 30
0.0
 11
459.2202229999998
 21
214.6049389999999
 31
0.0
  0
ARC
  5
9A28
330
98C6
100
AcDbEntity
  8
1
  6
Continuous
100
AcDbCircle
 10
491.220223
 20
196.871609
 30
0.0
 40
15.5
100
AcDbArc
 50
165.001113
 51
50.87847
  0
ARC
  5
9A29
330
98C6
100
AcDbEntity
  8
1
  6
Continuous
100
AcDbCircle
 10
491.220223
 20
196.871609
 30
0.0
 40
34.5
100
AcDbArc
 50
138.385287
 51
77.49432
  0
ARC
  5
9A2A
330
98C6
100
AcDbEntity
  8
1
  6
Continuous
100
AcDbCircle
 10
491.220223
 20
196.871609
 30
0.0
 40
11.0
100
AcDbArc
 50
209.7924799999999
 51
6.08713
  0
LINE
  5
9A2B
330
98C6
100
AcDbEntity
  8
1
  6
Continuous
100
AcDbLine
 10
480.2202229999998
 20
260.9716049999998
 30
0.0
 11
439.2202229999998
 21
260.9716049999998
 31
0.0
  0
LINE
  5
9A2C
330
98C6
100
AcDbEntity
  8
1
  6
Continuous
100
AcDbLine
 10
482.220225
 20
261.9716069999999
 30
0.0
 11
436.220223
 21
261.9716069999999
 31
0.0
  0
ARC
  5
9A2D
330
98C6
100
AcDbEntity
  8
1
  6
Continuous
100
AcDbCircle
 10
480.2202229999998
 20
255.971604
 30
0.0
 40
5.0
100
AcDbArc
 50
1.09966
 51
90.00001800000005
  0
ARC
  5
9A2E
330
98C6
100
AcDbEntity
  8
1
  6
Continuous
100
AcDbCircle
 10
499.014094
 20
251.096602
 30
0.0
 40
2.5
100
AcDbArc
 50
79.99997999999997
 51
186.08715
  0
LINE
  5
9A2F
330
98C6
100
AcDbEntity
  8
1
  6
Continuous
100
AcDbLine
 10
500.508732
 20
253.371624
 30
0.0
 11
481.6165199999998
 21
256.70283
 31
0.0
  0
ARC
  5
9A30
330
98C6
100
AcDbEntity
  8
1
  6
Continuous
100
AcDbCircle
 10
497.564969
 20
250.539781
 30
0.0
 40
1.0
100
AcDbArc
 50
79.99996999999997
 51
186.08715
  0
LINE
  5
9A31
330
98C6
100
AcDbEntity
  8
1
  6
Continuous
100
AcDbLine
 10
500.109342
 20
251.1065659999999
 30
0.0
 11
497.7386169999999
 21
251.524589
 31
0.0
  0
LINE
  5
9A32
330
98C6
100
AcDbEntity
  8
1
  6
Continuous
100
AcDbLine
 10
500.508732
 20
253.371624
 30
0.0
 11
500.109342
 21
251.1065659999999
 31
0.0
  0
LINE
  5
9A33
330
98C6
100
AcDbEntity
  8
4
  6
CENTER
 48
0.8
100
AcDbLine
 10
500.2202229999999
 20
273.871609
 30
0.0
 11
500.2202229999999
 21
261.571606
 31
0.0
  0
LINE
  5
9A34
330
98C6
100
AcDbEntity
  8
1
  6
Continuous
100
AcDbLine
 10
509.2202379999998
 20
266.571614
 30
0.0
 11
509.2202379999998
 21
268.871617
 31
0.0
  0
ARC
  5
9A35
330
98C6
100
AcDbEntity
  8
1
  6
Continuous
100
AcDbCircle
 10
482.220223
 20
264.971607
 30
0.0
 40
3.0
100
AcDbArc
 50
269.99998
 51
328.48641
  0
LINE
  5
9A36
330
98C6
100
AcDbEntity
  8
1
  6
Continuous
100
AcDbLine
 10
486.720221
 20
266.5716269999999
 30
0.0
 11
484.777768
 21
263.4035169999999
 31
0.0
  0
ARC
  5
9A37
330
98C6
100
AcDbEntity
  8
1
  6
Continuous
100
AcDbCircle
 10
438.2447359999998
 20
237.071608
 30
0.0
 40
15.0
100
AcDbArc
 50
29.79243
 51
90.00001800000005
  0
ARC
  5
9A38
330
98C6
100
AcDbEntity
  8
1
  6
Continuous
100
AcDbCircle
 10
476.1326069999998
 20
262.4496119999998
 30
0.0
 40
2.778
100
AcDbArc
 50
327.85663
 51
350.0919
  0
ARC
  5
9A39
330
98C6
100
AcDbEntity
  8
1
  6
Continuous
100
AcDbCircle
 10
473.5973669999999
 20
262.4496119999998
 30
0.0
 40
2.778
100
AcDbArc
 50
327.8566
 51
350.0919
  0
ARC
  5
9A3A
330
98C6
100
AcDbEntity
  8
1
  6
Continuous
100
AcDbCircle
 10
469.6613929999998
 20
262.4496119999998
 30
0.0
 40
2.778
100
AcDbArc
 50
327.8566
 51
350.0919
  0
ARC
  5
9A3B
330
98C6
100
AcDbEntity
  8
1
  6
Continuous
100
AcDbCircle
 10
464.708153
 20
262.4496119999998
 30
0.0
 40
2.778
100
AcDbArc
 50
327.8566
 51
350.0919
  0
ARC
  5
9A3C
330
98C6
100
AcDbEntity
  8
1
  6
Continuous
100
AcDbCircle
 10
477.0202489999999
 20
262.4496119999998
 30
0.0
 40
2.778
100
AcDbArc
 50
327.85663
 51
350.0919
  0
ARC
  5
9A3D
330
98C6
100
AcDbEntity
  8
1
  6
Continuous
100
AcDbCircle
 10
453.7323230000001
 20
262.4496119999998
 30
0.0
 40
2.778
100
AcDbArc
 50
189.90807
 51
212.1434199999999
  0
ARC
  5
9A3E
330
98C6
100
AcDbEntity
  8
1
  6
Continuous
100
AcDbCircle
 10
464.708153
 20
262.4496119999998
 30
0.0
 40
2.778
100
AcDbArc
 50
189.9080099999999
 51
212.1434199999999
  0
ARC
  5
9A3F
330
98C6
100
AcDbEntity
  8
1
  6
Continuous
100
AcDbCircle
 10
459.2202379999998
 20
262.4496119999998
 30
0.0
 40
2.778
100
AcDbArc
 50
327.8566
 51
350.0919
  0
ARC
  5
9A40
330
98C6
100
AcDbEntity
  8
1
  6
Continuous
100
AcDbCircle
 10
453.7323230000001
 20
262.4496119999998
 30
0.0
 40
2.778
100
AcDbArc
 50
327.8566
 51
350.0919599999999
  0
ARC
  5
9A41
330
98C6
100
AcDbEntity
  8
1
  6
Continuous
100
AcDbCircle
 10
459.2202379999998
 20
262.4496119999998
 30
0.0
 40
2.778
100
AcDbArc
 50
189.90807
 51
212.1434199999999
  0
ARC
  5
9A42
330
98C6
100
AcDbEntity
  8
1
  6
Continuous
100
AcDbCircle
 10
439.2202229999998
 20
255.971605
 30
0.0
 40
5.0
100
AcDbArc
 50
90.0
 51
180.0
  0
LINE
  5
9A43
330
98C6
100
AcDbEntity
  8
1
  6
Continuous
100
AcDbLine
 10
434.2202229999998
 20
255.971605
 30
0.0
 11
434.2202229999998
 21
252.071608
 31
0.0
  0
LINE
  5
9A44
330
98C6
100
AcDbEntity
  8
1
  6
Continuous
100
AcDbLine
 10
438.2447359999998
 20
252.071608
 30
0.0
 11
434.2202229999998
 21
252.071608
 31
0.0
  0
LINE
  5
9A45
330
98C6
100
AcDbEntity
  8
1
  6
Continuous
100
AcDbLine
 10
431.720225
 20
266.5716269999999
 30
0.0
 11
433.662678
 21
263.4035169999999
 31
0.0
  0
ARC
  5
9A46
330
98C6
100
AcDbEntity
  8
1
  6
Continuous
100
AcDbCircle
 10
448.779084
 20
262.4496119999998
 30
0.0
 40
2.778
100
AcDbArc
 50
189.90807
 51
212.1434199999999
  0
ARC
  5
9A47
330
98C6
100
AcDbEntity
  8
1
  6
Continuous
100
AcDbCircle
 10
442.3078689999998
 20
262.4496119999998
 30
0.0
 40
2.778
100
AcDbArc
 50
189.90807
 51
212.1433699999999
  0
ARC
  5
9A48
330
98C6
100
AcDbEntity
  8
1
  6
Continuous
100
AcDbCircle
 10
444.8431099999998
 20
262.4496119999998
 30
0.0
 40
2.778
100
AcDbArc
 50
189.90807
 51
212.1433699999999
  0
ARC
  5
9A49
330
98C6
100
AcDbEntity
  8
1
  6
Continuous
100
AcDbCircle
 10
436.220223
 20
264.971607
 30
0.0
 40
3.0
100
AcDbArc
 50
211.5135599999999
 51
269.99998
  0
ARC
  5
9A4A
330
98C6
100
AcDbEntity
  8
1
  6
Continuous
100
AcDbCircle
 10
441.420228
 20
262.4496119999998
 30
0.0
 40
2.778
100
AcDbArc
 50
189.90807
 51
212.1433699999999
  0
LINE
  5
9A4B
330
98C6
100
AcDbEntity
  8
4
  6
CENTER
 48
0.8
100
AcDbLine
 10
418.2202229999998
 20
273.871609
 30
0.0
 11
418.2202229999998
 21
261.571606
 31
0.0
  0
LINE
  5
9A4C
330
98C6
100
AcDbEntity
  8
1
  6
Continuous
100
AcDbLine
 10
409.2202379999998
 20
266.5715979999998
 30
0.0
 11
409.2202379999998
 21
268.8716089999999
 31
0.0
  0
LINE
  5
9A4D
330
98C6
100
AcDbEntity
  8
1
  6
Continuous
100
AcDbLine
 10
491.220223
 20
203.3716029999999
 30
0.0
 11
485.591062
 21
200.1216059999999
 31
0.0
  0
LINE
  5
9A4E
330
98C6
100
AcDbEntity
  8
1
  6
Continuous
100
AcDbLine
 10
485.591062
 20
200.1216059999999
 30
0.0
 11
485.591062
 21
193.621611
 31
0.0
  0
LINE
  5
9A4F
330
98C6
100
AcDbEntity
  8
1
  6
Continuous
100
AcDbLine
 10
485.591062
 20
193.621611
 30
0.0
 11
491.220223
 21
190.371614
 31
0.0
  0
LINE
  5
9A50
330
98C6
100
AcDbEntity
  8
1
  6
Continuous
100
AcDbLine
 10
491.220223
 20
190.371614
 30
0.0
 11
496.8493829999999
 21
193.621611
 31
0.0
  0
LINE
  5
9A51
330
98C6
100
AcDbEntity
  8
1
  6
Continuous
100
AcDbLine
 10
496.8493829999999
 20
193.621611
 30
0.0
 11
496.8493829999999
 21
200.1216059999999
 31
0.0
  0
LINE
  5
9A52
330
98C6
100
AcDbEntity
  8
1
  6
Continuous
100
AcDbLine
 10
496.8493829999999
 20
200.1216059999999
 30
0.0
 11
491.220223
 21
203.3716029999999
 31
0.0
  0
LINE
  5
9A53
330
98C6
100
AcDbEntity
  8
1
  6
Continuous
100
AcDbLine
 10
33.12023299999999
 20
192.871609
 30
0.0
 11
33.920233
 21
192.871609
 31
0.0
  0
LINE
  5
9A54
330
98C6
100
AcDbEntity
  8
2
  6
Continuous
100
AcDbLine
 10
32.443733
 20
193.548109
 30
0.0
 11
33.920233
 21
193.548109
 31
0.0
  0
LINE
  5
9A55
330
98C6
100
AcDbEntity
  8
1
  6
Continuous
100
AcDbLine
 10
33.12023299999999
 20
200.871609
 30
0.0
 11
33.920233
 21
200.871609
 31
0.0
  0
LINE
  5
9A56
330
98C6
100
AcDbEntity
  8
2
  6
Continuous
100
AcDbLine
 10
32.443733
 20
200.1951089999999
 30
0.0
 11
33.920233
 21
200.1951089999999
 31
0.0
  0
LINE
  5
9A57
330
98C6
100
AcDbEntity
  8
1
  6
Continuous
100
AcDbLine
 10
31.92023300000001
 20
194.071609
 30
0.0
 11
33.12023299999999
 21
192.871609
 31
0.0
  0
LINE
  5
9A58
330
98C6
100
AcDbEntity
  8
1
  6
Continuous
100
AcDbLine
 10
33.12023299999999
 20
192.871609
 30
0.0
 11
33.12023299999999
 21
200.871609
 31
0.0
  0
LINE
  5
9A59
330
98C6
100
AcDbEntity
  8
1
  6
Continuous
100
AcDbLine
 10
31.92023300000001
 20
199.6716089999999
 30
0.0
 11
33.12023299999999
 21
200.871609
 31
0.0
  0
LINE
  5
9A5A
330
98C6
100
AcDbEntity
  8
1
  6
Continuous
100
AcDbLine
 10
31.92023300000001
 20
194.071609
 30
0.0
 11
31.92023300000001
 21
199.6716089999999
 31
0.0
  0
LINE
  5
9A5B
330
98C6
100
AcDbEntity
  8
1
  6
Continuous
100
AcDbLine
 10
184.220223
 20
49.771619
 30
0.0
 11
184.220223
 21
50.571619
 31
0.0
  0
LINE
  5
9A5C
330
98C6
100
AcDbEntity
  8
2
  6
Continuous
100
AcDbLine
 10
183.543723
 20
49.095119
 30
0.0
 11
183.543723
 21
50.571619
 31
0.0
  0
LINE
  5
9A5D
330
98C6
100
AcDbEntity
  8
1
  6
Continuous
100
AcDbLine
 10
176.2202229999997
 20
49.771619
 30
0.0
 11
176.2202229999997
 21
50.571619
 31
0.0
  0
LINE
  5
9A5E
330
98C6
100
AcDbEntity
  8
2
  6
Continuous
100
AcDbLine
 10
176.896723
 20
49.095119
 30
0.0
 11
176.896723
 21
50.571619
 31
0.0
  0
LINE
  5
9A5F
330
98C6
100
AcDbEntity
  8
1
  6
Continuous
100
AcDbLine
 10
183.0202229999999
 20
48.571619
 30
0.0
 11
184.220223
 21
49.771619
 31
0.0
  0
LINE
  5
9A60
330
98C6
100
AcDbEntity
  8
1
  6
Continuous
100
AcDbLine
 10
184.220223
 20
49.771619
 30
0.0
 11
176.2202229999997
 21
49.771619
 31
0.0
  0
LINE
  5
9A61
330
98C6
100
AcDbEntity
  8
1
  6
Continuous
100
AcDbLine
 10
177.420223
 20
48.571619
 30
0.0
 11
176.2202229999997
 21
49.771619
 31
0.0
  0
LINE
  5
9A62
330
98C6
100
AcDbEntity
  8
1
  6
Continuous
100
AcDbLine
 10
183.0202229999999
 20
48.571619
 30
0.0
 11
177.420223
 21
48.571619
 31
0.0
  0
LINE
  5
9A63
330
98C6
100
AcDbEntity
  8
1
  6
Continuous
100
AcDbLine
 10
359.4197899999999
 20
200.8716249999999
 30
0.0
 11
359.4197899999999
 21
192.8716249999999
 31
0.0
  0
LINE
  5
9A64
330
98C6
100
AcDbEntity
  8
1
  6
Continuous
100
AcDbLine
 10
360.6197899999998
 20
199.671625
 30
0.0
 11
359.4197899999999
 21
200.8716249999999
 31
0.0
  0
LINE
  5
9A65
330
98C6
100
AcDbEntity
  8
1
  6
Continuous
100
AcDbLine
 10
360.6197899999998
 20
199.671625
 30
0.0
 11
360.6197899999998
 21
194.071625
 31
0.0
  0
LINE
  5
9A66
330
98C6
100
AcDbEntity
  8
1
  6
Continuous
100
AcDbLine
 10
360.6197899999998
 20
194.071625
 30
0.0
 11
359.4197899999999
 21
192.8716249999999
 31
0.0
  0
LINE
  5
9A67
330
98C6
100
AcDbEntity
  8
2
  6
Continuous
100
AcDbLine
 10
360.09629
 20
193.548125
 30
0.0
 11
358.6197899999998
 21
193.548125
 31
0.0
  0
LINE
  5
9A68
330
98C6
100
AcDbEntity
  8
1
  6
Continuous
100
AcDbLine
 10
359.4197899999999
 20
192.8716249999999
 30
0.0
 11
358.6197899999998
 21
192.8716249999999
 31
0.0
  0
LINE
  5
9A69
330
98C6
100
AcDbEntity
  8
2
  6
Continuous
100
AcDbLine
 10
360.09629
 20
200.1951249999999
 30
0.0
 11
358.6197899999998
 21
200.1951249999999
 31
0.0
  0
LINE
  5
9A6A
330
98C6
100
AcDbEntity
  8
1
  6
Continuous
100
AcDbLine
 10
359.4197899999999
 20
200.8716249999999
 30
0.0
 11
358.6197899999998
 21
200.8716249999999
 31
0.0
  0
CIRCLE
  5
9A6B
330
98C6
100
AcDbEntity
  8
1
  6
Continuous
100
AcDbCircle
 10
491.220223
 20
196.871609
 30
0.0
 40
2.799999999999998
  0
CIRCLE
  5
9A6C
330
98C6
100
AcDbEntity
  8
1
  6
Continuous
100
AcDbCircle
 10
491.220223
 20
196.871609
 30
0.0
 40
5.102012999999998
  0
ARC
  5
9A7A
330
98C6
100
AcDbEntity
  8
1
  6
Continuous
100
AcDbCircle
 10
379.7375599999999
 20
231.823477
 30
0.0
 40
69.417761
100
AcDbArc
 50
164.295714
 51
205.1964439999999
  0
ARC
  5
9A7B
330
98C6
100
AcDbEntity
  8
1
  6
Continuous
100
AcDbCircle
 10
290.902039
 20
231.823477
 30
0.0
 40
69.417761
100
AcDbArc
 50
334.8035469999998
 51
15.70428599999999
  0
LINE
  5
9A7C
330
98C6
100
AcDbEntity
  8
1
  6
Continuous
100
AcDbLine
 10
316.531317
 20
203.1216249999999
 30
0.0
 11
315.819808
 21
203.1216249999999
 31
0.0
  0
ARC
  5
9A7D
330
98C6
100
AcDbEntity
  8
1
  6
Continuous
100
AcDbCircle
 10
290.902039
 20
231.823477
 30
0.0
 40
67.117761
100
AcDbArc
 50
334.8035659999998
 51
17.55857599999999
  0
ARC
  5
9A7E
330
98C6
100
AcDbEntity
  8
1
  6
Continuous
100
AcDbCircle
 10
379.7375599999999
 20
231.823477
 30
0.0
 40
67.117761
100
AcDbArc
 50
162.441424
 51
205.196434
  0
ARC
  5
9A7F
330
98C6
100
AcDbEntity
  8
1
  6
Continuous
100
AcDbCircle
 10
335.3197999999999
 20
379.6020149999998
 30
0.0
 40
128.4999999999998
100
AcDbArc
 50
263.34847
 51
276.6515
  0
ARC
  5
9A80
330
98C6
100
AcDbEntity
  8
1
  6
Continuous
100
AcDbCircle
 10
320.3197999999998
 20
250.973676
 30
0.0
 40
1.0
100
AcDbArc
 50
83.348539
 51
179.9999599999999
  0
ARC
  5
9A81
330
98C6
100
AcDbEntity
  8
1
  6
Continuous
100
AcDbCircle
 10
350.3197999999999
 20
250.973676
 30
0.0
 40
1.0
100
AcDbArc
 50
0.00004
 51
96.65146100000001
  0
LINE
  5
9A82
330
98C6
100
AcDbEntity
  8
1
  6
Continuous
100
AcDbLine
 10
314.8364029999999
 20
252.071608
 30
0.0
 11
355.803196
 21
252.071608
 31
0.0
  0
ARC
  5
9A83
330
98C6
100
AcDbEntity
  8
1
  6
Continuous
100
AcDbCircle
 10
355.803196
 20
250.071608
 30
0.0
 40
2.0
100
AcDbArc
 50
15.70428599999999
 51
90.0
  0
ARC
  5
9A84
330
98C6
100
AcDbEntity
  8
1
  6
Continuous
100
AcDbCircle
 10
314.8364029999999
 20
250.071608
 30
0.0
 40
2.0
100
AcDbArc
 50
90.0
 51
164.295714
  0
ARC
  5
9A85
330
98C6
100
AcDbEntity
  8
1
  6
Continuous
100
AcDbCircle
 10
193.680799
 20
96.17160400000001
 30
0.0
 40
4.0
100
AcDbArc
 50
270.0
 51
309.738932
  0
ARC
  5
9A86
330
98C6
100
AcDbEntity
  8
1
  6
Continuous
100
AcDbCircle
 10
193.6808049999999
 20
96.17160900000001
 30
0.0
 40
6.299999999999998
100
AcDbArc
 50
270.0
 51
309.738916
  0
ARC
  5
9A87
330
98C6
100
AcDbEntity
  8
1
  6
Continuous
100
AcDbCircle
 10
193.6808049999999
 20
51.571609
 30
0.0
 40
6.299999999999998
100
AcDbArc
 50
50.261084
 51
90.0
  0
ARC
  5
9A88
330
98C6
100
AcDbEntity
  8
1
  6
Continuous
100
AcDbCircle
 10
193.680793
 20
51.571619
 30
0.0
 40
4.0
100
AcDbArc
 50
50.26105300000001
 51
90.0
  0
ARC
  5
9A89
330
98C6
100
AcDbEntity
  8
1
  6
Continuous
100
AcDbCircle
 10
316.0198049999999
 20
201.845008
 30
0.0
 40
1.0
100
AcDbArc
 50
0.0
 51
25.196444
  0
ARC
  5
9A8A
330
98C6
100
AcDbEntity
  8
1
  6
Continuous
100
AcDbCircle
 10
316.0197999999998
 20
201.8450179999999
 30
0.0
 40
3.299999999999998
100
AcDbArc
 50
0.0
 51
25.196434
  0
ARC
  5
9A8B
330
98C6
100
AcDbEntity
  8
1
  6
Continuous
100
AcDbCircle
 10
354.6197899999999
 20
201.844997
 30
0.0
 40
1.0
100
AcDbArc
 50
154.803547
 51
180.0
  0
ARC
  5
9A8C
330
98C6
100
AcDbEntity
  8
1
  6
Continuous
100
AcDbCircle
 10
354.6197999999998
 20
201.8450179999999
 30
0.0
 40
3.299999999999998
100
AcDbArc
 50
154.803566
 51
180.0
  0
ENDSEC
  0
SECTION
  2
OBJECTS
  0
DICTIONARY
  5
98B4
330
0
100
AcDbDictionary
281
     1
  3
ACAD_CIP_PREVIOUS_PRODUCT_INFO
350
9B0B
  3
ACAD_COLOR
350
9AED
  3
ACAD_DETAILVIEWSTYLE
350
9B06
  3
ACAD_GROUP
350
98B5
  3
ACAD_LAYOUT
350
98C1
  3
ACAD_MATERIAL
350
9ABB
  3
ACAD_MLEADERSTYLE
350
9B02
  3
ACAD_MLINESTYLE
350
98BE
  3
ACAD_PLOTSETTINGS
350
98C0
  3
ACAD_PLOTSTYLENAME
350
9AB9
  3
ACAD_SCALELIST
350
9AF0
  3
ACAD_SECTIONVIEWSTYLE
350
9B04
  3
ACAD_TABLESTYLE
350
9AEE
  3
ACAD_VISUALSTYLE
350
9AD4
  3
ACDB_RECOMPOSE_DATA
350
9B29
  3
AcDbVariableDictionary
350
9B1C
  3
DWGPROPS
350
9B2A
  0
DICTIONARY
  5
9B0C
330
98B8
100
AcDbDictionary
280
     1
281
     1
  3
ADSK_XREC_LAYER_RECONCILED
360
9B0D
  0
DICTIONARY
  5
9B0E
330
98CE
100
AcDbDictionary
280
     1
281
     1
  3
ADSK_XREC_LAYER_RECONCILED
360
9B0F
  0
DICTIONARY
  5
9B10
330
98CF
100
AcDbDictionary
280
     1
281
     1
  3
ADSK_XREC_LAYER_RECONCILED
360
9B11
  0
DICTIONARY
  5
9B12
330
98D0
100
AcDbDictionary
280
     1
281
     1
  3
ADSK_XREC_LAYER_RECONCILED
360
9B13
  0
DICTIONARY
  5
9B14
330
98D1
100
AcDbDictionary
280
     1
281
     1
  3
ADSK_XREC_LAYER_RECONCILED
360
9B15
  0
DICTIONARY
  5
9B16
330
98D2
100
AcDbDictionary
280
     1
281
     1
  3
ADSK_XREC_LAYER_RECONCILED
360
9B17
  0
DICTIONARY
  5
9B18
330
98D3
100
AcDbDictionary
280
     1
281
     1
  3
ADSK_XREC_LAYER_RECONCILED
360
9B19
  0
DICTIONARY
  5
9B1A
330
98D4
100
AcDbDictionary
280
     1
281
     1
  3
ADSK_XREC_LAYER_RECONCILED
360
9B1B
  0
DICTIONARY
  5
9A97
330
98C6
100
AcDbDictionary
281
     1
  3
ACAD_LAYOUTSELFREF
350
9AB5
  0
DICTIONARY
  5
9A95
330
98C2
100
AcDbDictionary
281
     1
  3
ACAD_LAYOUTSELFREF
350
9AB4
  0
XRECORD
  5
9B0B
102
{ACAD_REACTORS
330
98B4
102
}
330
98B4
100
AcDbXrecord
280
     1
300
ACDLT
300
2014
300
ACDLT_F_S
  0
DICTIONARY
  5
9AED
102
{ACAD_REACTORS
330
98B4
102
}
330
98B4
100
AcDbDictionary
281
     1
  0
DICTIONARY
  5
9B06
102
{ACAD_REACTORS
330
98B4
102
}
330
98B4
100
AcDbDictionary
281
     1
  3
Imperial24
350
9B07
  0
DICTIONARY
  5
98B5
102
{ACAD_REACTORS
330
98B4
102
}
330
98B4
100
AcDbDictionary
281
     1
  0
DICTIONARY
  5
98C1
102
{ACAD_REACTORS
330
98B4
102
}
330
98B4
100
AcDbDictionary
281
     1
  3
Model
350
9B08
  3
レイアウト1
350
9B09
  0
DICTIONARY
  5
9ABB
102
{ACAD_REACTORS
330
98B4
102
}
330
98B4
100
AcDbDictionary
281
     1
  3
ByBlock
350
9AC4
  3
ByLayer
350
9ABC
  3
Global
350
9ACC
  0
DICTIONARY
  5
9B02
102
{ACAD_REACTORS
330
98B4
102
}
330
98B4
100
AcDbDictionary
281
     1
  3
Standard
350
9B03
  0
DICTIONARY
  5
98BE
102
{ACAD_REACTORS
330
98B4
102
}
330
98B4
100
AcDbDictionary
281
     1
  3
STANDARD
350
98BF
  0
DICTIONARY
  5
98C0
102
{ACAD_REACTORS
330
98B4
102
}
330
98B4
100
AcDbDictionary
281
     1
  0
ACDBDICTIONARYWDFLT
  5
9AB9
102
{ACAD_REACTORS
330
98B4
102
}
330
98B4
100
AcDbDictionary
281
     1
  3
Normal
350
9ABA
100
AcDbDictionaryWithDefault
340
9ABA
  0
DICTIONARY
  5
9AF0
102
{ACAD_REACTORS
330
98B4
102
}
330
98B4
100
AcDbDictionary
281
     1
  3
A0
350
9AF1
  3
A1
350
9AF2
  3
A2
350
9AF3
  3
A3
350
9AF4
  3
A4
350
9AF5
  3
A5
350
9AF6
  3
A6
350
9AF7
  3
A7
350
9AF8
  3
A8
350
9AF9
  3
A9
350
9AFA
  3
B0
350
9AFB
  3
B1
350
9AFC
  3
B2
350
9AFD
  3
B3
350
9AFE
  3
B4
350
9AFF
  3
B5
350
9B00
  3
B6
350
9B01
  0
DICTIONARY
  5
9B04
102
{ACAD_REACTORS
330
98B4
102
}
330
98B4
100
AcDbDictionary
281
     1
  3
Imperial24
350
9B05
  0
DICTIONARY
  5
9AEE
102
{ACAD_REACTORS
330
98B4
102
}
330
98B4
100
AcDbDictionary
281
     1
  3
Standard
350
9AEF
  0
DICTIONARY
  5
9AD4
102
{ACAD_REACTORS
330
98B4
102
}
330
98B4
100
AcDbDictionary
281
     1
  3
2dWireframe
350
9ADA
  3
Basic
350
9AD9
  3
Brighten
350
9AE0
  3
ColorChange
350
9AE4
  3
Conceptual
350
9ADD
  3
Dim
350
9ADF
  3
EdgeColorOff
350
9AEC
  3
Facepattern
350
9AE3
  3
Flat
350
9AD5
  3
FlatWithEdges
350
9AD6
  3
Gouraud
350
9AD7
  3
GouraudWithEdges
350
9AD8
  3
Hidden
350
9ADC
  3
JitterOff
350
9AEA
  3
Linepattern
350
9AE2
  3
OverhangOff
350
9AEB
  3
Realistic
350
9ADE
  3
Shaded
350
9AE9
  3
Shaded with edges
350
9AE8
  3
Shades of Gray
350
9AE5
  3
Sketchy
350
9AE6
  3
Thicken
350
9AE1
  3
Wireframe
350
9ADB
  3
X-Ray
350
9AE7
  0
XRECORD
  5
9B29
102
{ACAD_REACTORS
330
98B4
102
}
330
98B4
100
AcDbXrecord
280
     1
 90
        1
330
9AEF
  0
DICTIONARY
  5
9B1C
102
{ACAD_REACTORS
330
98B4
102
}
330
98B4
100
AcDbDictionary
281
     1
  3
CANNOSCALE
350
9B21
  3
CMLEADERSTYLE
350
9B1E
  3
CTABLESTYLE
350
9B1D
  3
CVIEWDETAILSTYLE
350
9B1F
  3
CVIEWSECTIONSTYLE
350
9B20
  3
DIMASSOC
350
9B24
  3
INDEXCTL
350
9B23
  3
SORTENTS
350
9B22
  3
XCLIPFRAME
350
9B25
  0
XRECORD
  5
9B2A
102
{ACAD_REACTORS
330
98B4
102
}
330
98B4
100
AcDbXrecord
280
     1
  1
DWGPROPS COOKIE
  2

  3

  4

  6

  7

  8
Yoshitsune
  9

300
=
301
=
302
=
303
=
304
=
305
=
306
=
307
=
308
=
309
=
 40
0.1528317939814815
 41
2451301.447941204
 42
2457192.690306887
  1

 90
        0
  0
XRECORD
  5
9B0D
102
{ACAD_REACTORS
330
9B0C
102
}
330
9B0C
100
AcDbXrecord
280
     1
290
     1
  0
XRECORD
  5
9B0F
102
{ACAD_REACTORS
330
9B0E
102
}
330
9B0E
100
AcDbXrecord
280
     1
290
     1
  0
XRECORD
  5
9B11
102
{ACAD_REACTORS
330
9B10
102
}
330
9B10
100
AcDbXrecord
280
     1
290
     1
  0
XRECORD
  5
9B13
102
{ACAD_REACTORS
330
9B12
102
}
330
9B12
100
AcDbXrecord
280
     1
290
     1
  0
XRECORD
  5
9B15
102
{ACAD_REACTORS
330
9B14
102
}
330
9B14
100
AcDbXrecord
280
     1
290
     1
  0
XRECORD
  5
9B17
102
{ACAD_REACTORS
330
9B16
102
}
330
9B16
100
AcDbXrecord
280
     1
290
     1
  0
XRECORD
  5
9B19
102
{ACAD_REACTORS
330
9B18
102
}
330
9B18
100
AcDbXrecord
280
     1
290
     1
  0
XRECORD
  5
9B1B
102
{ACAD_REACTORS
330
9B1A
102
}
330
9B1A
100
AcDbXrecord
280
     1
290
     1
  0
XRECORD
  5
9AB5
102
{ACAD_REACTORS
330
9A97
102
}
330
9A97
100
AcDbXrecord
280
     1
340
98C6
  0
XRECORD
  5
9AB4
102
{ACAD_REACTORS
330
9A95
102
}
330
9A95
100
AcDbXrecord
280
     1
340
98C2
  0
ACDBDETAILVIEWSTYLE
  5
9B07
102
{ACAD_XDICTIONARY
360
9B62
102
}
102
{ACAD_REACTORS
330
9B06
102
}
330
9B06
100
AcDbModelDocViewStyle
 70
     0
  3
Imperial24
290
     0
100
AcDbDetailViewStyle
 70
     0
 71
     0
 90
        3
 71
     1
340
98B9
 40
0.24
340
0
 40
0.24
300

 40
0.36
280
     3
 71
     2
340
98BD
 90
       25
 71
     3
340
98B9
 40
0.24
 90
        1
 40
0.75
 90
        1
300
%<\AcVar ViewType \f "%tc1">% %<\AcVar ViewDetailId>%\PSCALE %<\AcVar ViewScale \f "%sn">%
 71
     4
340
98BD
 90
       25
340
98BD
 90
       25
280
     0
  0
LAYOUT
  5
9B08
102
{ACAD_XDICTIONARY
360
9B64
102
}
102
{ACAD_REACTORS
330
98C1
102
}
330
98C1
100
AcDbPlotSettings
  1

  2
Canon LBP9100C
  4

  6

 40
0.0
 41
0.0
 42
0.0
 43
0.0
 44
0.0
 45
0.0
 46
0.0
 47
0.0
 48
0.0
 49
0.0
140
0.0
141
0.0
142
1.0
143
1.0
 70
  1712
 72
     0
 73
     0
 74
     0
  7

 75
     0
147
1.0
148
0.0
149
0.0
100
AcDbLayout
  1
Model
 70
     1
 71
     0
 10
0.0
 20
0.0
 11
12.0
 21
9.0
 12
0.0
 22
0.0
 32
0.0
 14
0.0
 24
0.0
 34
0.0
 15
0.0
 25
0.0
 35
0.0
146
0.0
 13
0.0
 23
0.0
 33
0.0
 16
1.0
 26
0.0
 36
0.0
 17
0.0
 27
1.0
 37
0.0
 76
     0
330
98C6
331
9AB3
  0
LAYOUT
  5
9B09
102
{ACAD_XDICTIONARY
360
9B66
102
}
102
{ACAD_REACTORS
330
98C1
102
}
330
98C1
100
AcDbPlotSettings
  1

  2
Canon LBP9100C
  4

  6

 40
0.0
 41
0.0
 42
0.0
 43
0.0
 44
0.0
 45
0.0
 46
0.0
 47
0.0
 48
0.0
 49
0.0
140
0.0
141
0.0
142
1.0
143
1.0
 70
   688
 72
     0
 73
     0
 74
     5
  7

 75
    16
147
1.0
148
0.0
149
0.0
100
AcDbLayout
  1
レイアウト1
 70
     0
 71
     1
 10
0.0
 20
0.0
 11
420.0
 21
297.0
 12
0.0
 22
0.0
 32
0.0
 14
1.000000000000000E+20
 24
1.000000000000000E+20
 34
1.000000000000000E+20
 15
-1.000000000000000E+20
 25
-1.000000000000000E+20
 35
-1.000000000000000E+20
146
0.0
 13
0.0
 23
0.0
 33
0.0
 16
1.0
 26
0.0
 36
0.0
 17
0.0
 27
1.0
 37
0.0
 76
     0
330
98C2
  0
MATERIAL
  5
9AC4
102
{ACAD_XDICTIONARY
360
9AC5
102
}
102
{ACAD_REACTORS
330
9ABB
102
}
330
9ABB
100
AcDbMaterial
  1
ByBlock
 72
     0
 43
0.0208333333333333
 43
0.0
 43
0.0
 43
0.0
 43
0.0
 43
0.0208333333333333
 43
0.0
 43
0.0
 43
0.0
 43
0.0
 43
1.0
 43
0.0
 43
0.0
 43
0.0
 43
0.0
 43
1.0
 77
     0
 47
0.0208333333333333
 47
0.0
 47
0.0
 47
0.0
 47
0.0
 47
0.0208333333333333
 47
0.0
 47
0.0
 47
0.0
 47
0.0
 47
1.0
 47
0.0
 47
0.0
 47
0.0
 47
0.0
 47
1.0
171
     0
 49
0.0208333333333333
 49
0.0
 49
0.0
 49
0.0
 49
0.0
 49
0.0208333333333333
 49
0.0
 49
0.0
 49
0.0
 49
0.0
 49
1.0
 49
0.0
 49
0.0
 49
0.0
 49
0.0
 49
1.0
175
     0
142
0.0208333333333333
142
0.0
142
0.0
142
0.0
142
0.0
142
0.0208333333333333
142
0.0
142
0.0
142
0.0
142
0.0
142
1.0
142
0.0
142
0.0
142
0.0
142
0.0
142
1.0
179
     0
144
0.0208333333333333
144
0.0
144
0.0
144
0.0
144
0.0
144
0.0208333333333333
144
0.0
144
0.0
144
0.0
144
0.0
144
1.0
144
0.0
144
0.0
144
0.0
144
0.0
144
1.0
147
0.0208333333333333
147
0.0
147
0.0
147
0.0
147
0.0
147
0.0208333333333333
147
0.0
147
0.0
147
0.0
147
0.0
147
1.0
147
0.0
147
0.0
147
0.0
147
0.0
147
1.0
  0
MATERIAL
  5
9ABC
102
{ACAD_XDICTIONARY
360
9ABD
102
}
102
{ACAD_REACTORS
330
9ABB
102
}
330
9ABB
100
AcDbMaterial
  1
ByLayer
 72
     0
 43
0.0208333333333333
 43
0.0
 43
0.0
 43
0.0
 43
0.0
 43
0.0208333333333333
 43
0.0
 43
0.0
 43
0.0
 43
0.0
 43
1.0
 43
0.0
 43
0.0
 43
0.0
 43
0.0
 43
1.0
 77
     0
 47
0.0208333333333333
 47
0.0
 47
0.0
 47
0.0
 47
0.0
 47
0.0208333333333333
 47
0.0
 47
0.0
 47
0.0
 47
0.0
 47
1.0
 47
0.0
 47
0.0
 47
0.0
 47
0.0
 47
1.0
171
     0
 49
0.0208333333333333
 49
0.0
 49
0.0
 49
0.0
 49
0.0
 49
0.0208333333333333
 49
0.0
 49
0.0
 49
0.0
 49
0.0
 49
1.0
 49
0.0
 49
0.0
 49
0.0
 49
0.0
 49
1.0
175
     0
142
0.0208333333333333
142
0.0
142
0.0
142
0.0
142
0.0
142
0.0208333333333333
142
0.0
142
0.0
142
0.0
142
0.0
142
1.0
142
0.0
142
0.0
142
0.0
142
0.0
142
1.0
179
     0
144
0.0208333333333333
144
0.0
144
0.0
144
0.0
144
0.0
144
0.0208333333333333
144
0.0
144
0.0
144
0.0
144
0.0
144
1.0
144
0.0
144
0.0
144
0.0
144
0.0
144
1.0
147
0.0208333333333333
147
0.0
147
0.0
147
0.0
147
0.0
147
0.0208333333333333
147
0.0
147
0.0
147
0.0
147
0.0
147
1.0
147
0.0
147
0.0
147
0.0
147
0.0
147
1.0
  0
MATERIAL
  5
9ACC
102
{ACAD_XDICTIONARY
360
9ACD
102
}
102
{ACAD_REACTORS
330
9ABB
102
}
330
9ABB
100
AcDbMaterial
  1
Global
 72
     0
 43
0.0208333333333333
 43
0.0
 43
0.0
 43
0.0
 43
0.0
 43
0.0208333333333333
 43
0.0
 43
0.0
 43
0.0
 43
0.0
 43
1.0
 43
0.0
 43
0.0
 43
0.0
 43
0.0
 43
1.0
 77
     0
 47
0.0208333333333333
 47
0.0
 47
0.0
 47
0.0
 47
0.0
 47
0.0208333333333333
 47
0.0
 47
0.0
 47
0.0
 47
0.0
 47
1.0
 47
0.0
 47
0.0
 47
0.0
 47
0.0
 47
1.0
171
     0
 49
0.0208333333333333
 49
0.0
 49
0.0
 49
0.0
 49
0.0
 49
0.0208333333333333
 49
0.0
 49
0.0
 49
0.0
 49
0.0
 49
1.0
 49
0.0
 49
0.0
 49
0.0
 49
0.0
 49
1.0
175
     0
142
0.0208333333333333
142
0.0
142
0.0
142
0.0
142
0.0
142
0.0208333333333333
142
0.0
142
0.0
142
0.0
142
0.0
142
1.0
142
0.0
142
0.0
142
0.0
142
0.0
142
1.0
179
     0
144
0.0208333333333333
144
0.0
144
0.0
144
0.0
144
0.0
144
0.0208333333333333
144
0.0
144
0.0
144
0.0
144
0.0
144
1.0
144
0.0
144
0.0
144
0.0
144
0.0
144
1.0
147
0.0208333333333333
147
0.0
147
0.0
147
0.0
147
0.0
147
0.0208333333333333
147
0.0
147
0.0
147
0.0
147
0.0
147
1.0
147
0.0
147
0.0
147
0.0
147
0.0
147
1.0
  0
MLEADERSTYLE
  5
9B03
102
{ACAD_REACTORS
330
9B02
102
}
330
9B02
100
AcDbMLeaderStyle
170
     2
171
     1
172
     0
 90
        2
 40
0.0
 41
0.0
173
     1
 91
-1056964608
340
98BB
 92
       -2
290
     1
 42
0.09
291
     1
 43
0.36
  3
Standard
 44
0.18
300

342
98B9
174
     1
178
     6
175
     1
176
     0
 93
-1056964608
 45
0.18
292
     0
297
     0
 46
0.18
 94
-1056964608
 47
1.0
 49
1.0
140
1.0
293
     1
141
0.0
294
     1
177
     0
142
1.0
295
     0
296
     0
143
0.125
1001
ACAD_MLEADERVER
1070
     2
  0
MLINESTYLE
  5
98BF
102
{ACAD_REACTORS
330
98BE
102
}
330
98BE
100
AcDbMlineStyle
  2
STANDARD
 70
     0
  3

 62
   256
 51
90.0
 52
90.0
 71
     2
 49
0.5
 62
   256
  6
BYLAYER
 49
-0.5
 62
   256
  6
BYLAYER
  0
ACDBPLACEHOLDER
  5
9ABA
102
{ACAD_REACTORS
330
9AB9
102
}
330
9AB9
  0
SCALE
  5
9AF1
102
{ACAD_REACTORS
330
9AF0
102
}
330
9AF0
100
AcDbScale
 70
     0
300
1:1
140
1.0
141
1.0
290
     1
  0
SCALE
  5
9AF2
102
{ACAD_REACTORS
330
9AF0
102
}
330
9AF0
100
AcDbScale
 70
     0
300
1/128" = 1'-0"
140
0.0078125
141
12.0
290
     0
  0
SCALE
  5
9AF3
102
{ACAD_REACTORS
330
9AF0
102
}
330
9AF0
100
AcDbScale
 70
     0
300
1/64" = 1'-0"
140
0.015625
141
12.0
290
     0
  0
SCALE
  5
9AF4
102
{ACAD_REACTORS
330
9AF0
102
}
330
9AF0
100
AcDbScale
 70
     0
300
1/32" = 1'-0"
140
0.03125
141
12.0
290
     0
  0
SCALE
  5
9AF5
102
{ACAD_REACTORS
330
9AF0
102
}
330
9AF0
100
AcDbScale
 70
     0
300
1/16" = 1'-0"
140
0.0625
141
12.0
290
     0
  0
SCALE
  5
9AF6
102
{ACAD_REACTORS
330
9AF0
102
}
330
9AF0
100
AcDbScale
 70
     0
300
3/32" = 1'-0"
140
0.09375
141
12.0
290
     0
  0
SCALE
  5
9AF7
102
{ACAD_REACTORS
330
9AF0
102
}
330
9AF0
100
AcDbScale
 70
     0
300
1/8" = 1'-0"
140
0.125
141
12.0
290
     0
  0
SCALE
  5
9AF8
102
{ACAD_REACTORS
330
9AF0
102
}
330
9AF0
100
AcDbScale
 70
     0
300
3/16" = 1'-0"
140
0.1875
141
12.0
290
     0
  0
SCALE
  5
9AF9
102
{ACAD_REACTORS
330
9AF0
102
}
330
9AF0
100
AcDbScale
 70
     0
300
1/4" = 1'-0"
140
0.25
141
12.0
290
     0
  0
SCALE
  5
9AFA
102
{ACAD_REACTORS
330
9AF0
102
}
330
9AF0
100
AcDbScale
 70
     0
300
3/8" = 1'-0"
140
0.375
141
12.0
290
     0
  0
SCALE
  5
9AFB
102
{ACAD_REACTORS
330
9AF0
102
}
330
9AF0
100
AcDbScale
 70
     0
300
1/2" = 1'-0"
140
0.5
141
12.0
290
     0
  0
SCALE
  5
9AFC
102
{ACAD_REACTORS
330
9AF0
102
}
330
9AF0
100
AcDbScale
 70
     0
300
3/4" = 1'-0"
140
0.75
141
12.0
290
     0
  0
SCALE
  5
9AFD
102
{ACAD_REACTORS
330
9AF0
102
}
330
9AF0
100
AcDbScale
 70
     0
300
1" = 1'-0"
140
1.0
141
12.0
290
     0
  0
SCALE
  5
9AFE
102
{ACAD_REACTORS
330
9AF0
102
}
330
9AF0
100
AcDbScale
 70
     0
300
1-1/2" = 1'-0"
140
1.5
141
12.0
290
     0
  0
SCALE
  5
9AFF
102
{ACAD_REACTORS
330
9AF0
102
}
330
9AF0
100
AcDbScale
 70
     0
300
3" = 1'-0"
140
3.0
141
12.0
290
     0
  0
SCALE
  5
9B00
102
{ACAD_REACTORS
330
9AF0
102
}
330
9AF0
100
AcDbScale
 70
     0
300
6" = 1'-0"
140
6.0
141
12.0
290
     0
  0
SCALE
  5
9B01
102
{ACAD_REACTORS
330
9AF0
102
}
330
9AF0
100
AcDbScale
 70
     0
300
1'-0" = 1'-0"
140
12.0
141
12.0
290
     0
  0
ACDBSECTIONVIEWSTYLE
  5
9B05
102
{ACAD_XDICTIONARY
360
9B60
102
}
102
{ACAD_REACTORS
330
9B04
102
}
330
9B04
100
AcDbModelDocViewStyle
 70
     0
  3
Imperial24
290
     0
100
AcDbSectionViewStyle
 70
     0
 71
     0
 90
       78
 71
     1
340
98B9
 40
0.24
340
0
340
0
 40
0.24
300
I, O, Q, S, X, Z
 40
0.48
 90
        3
 40
0.18
 90
        1
 71
     2
340
98BD
 90
       25
340
98BD
 90
       50
 40
0.24
 40
0.0
 40
0.24
 71
     3
340
98B9
 40
0.24
 90
        1
 40
0.75
 90
        1
300
%<\AcVar ViewType \f "%tc1">% %<\AcVar ViewSectionStartId>%-%<\AcVar ViewSectionEndId>%\PSCALE %<\AcVar ViewScale \f "%sn">%
 71
     4
300
ANSI31
 40
1.0
 90
        0
290
     0
290
     0
 90
        6
 40
0.0
 40
1.570796326794896
 40
0.2617993877991494
 40
1.308996938995747
 40
-0.2617993877991494
 40
1.832595714594046
  0
TABLESTYLE
  5
9AEF
102
{ACAD_XDICTIONARY
360
9B27
102
}
102
{ACAD_REACTORS
330
9AEE
102
}
330
9AEE
100
AcDbTableStyle
  3
Standard
 70
     0
 71
     0
 40
0.06
 41
0.06
280
     0
281
     0
  7
STANDARD
140
0.18
170
     2
 62
     0
 63
     7
283
     0
274
    -2
284
     1
 64
     0
275
    -2
285
     1
 65
     0
276
    -2
286
     1
 66
     0
277
    -2
287
     1
 67
     0
278
    -2
288
     1
 68
     0
279
    -2
289
     1
 69
     0
  7
STANDARD
140
0.25
170
     5
 62
     0
 63
     7
283
     0
274
    -2
284
     1
 64
     0
275
    -2
285
     1
 65
     0
276
    -2
286
     1
 66
     0
277
    -2
287
     1
 67
     0
278
    -2
288
     1
 68
     0
279
    -2
289
     1
 69
     0
  7
STANDARD
140
0.18
170
     5
 62
     0
 63
     7
283
     0
274
    -2
284
     1
 64
     0
275
    -2
285
     1
 65
     0
276
    -2
286
     1
 66
     0
277
    -2
287
     1
 67
     0
278
    -2
288
     1
 68
     0
279
    -2
289
     1
 69
     0
  0
VISUALSTYLE
  5
9ADA
102
{ACAD_XDICTIONARY
360
9B38
102
}
102
{ACAD_REACTORS
330
9AD4
102
}
330
9AD4
100
AcDbVisualStyle
  2
2dWireframe
 70
     4
 71
     0
 72
     2
 73
     0
 90
        0
 40
-0.6
 41
-30.0
 62
     5
 63
     7
 74
     1
 91
        4
 64
     7
 65
   257
 75
     1
175
     1
 42
1.0
 92
        0
 66
   257
 43
1.0
 76
     1
 77
     6
 78
     2
 67
     7
 79
     5
170
     0
171
     0
290
     0
174
     0
 93
        1
 44
0.0
173
     0
291
     0
 45
0.0
1001
ACAD
1000
AcDbSavedByObjectVersion
1070
     0
  0
VISUALSTYLE
  5
9AD9
102
{ACAD_XDICTIONARY
360
9B36
102
}
102
{ACAD_REACTORS
330
9AD4
102
}
330
9AD4
100
AcDbVisualStyle
  2
Basic
 70
     7
 71
     1
 72
     0
 73
     1
 90
        0
 40
-0.6
 41
-30.0
 62
     5
 63
     7
 74
     0
 91
        4
 64
     7
 65
   257
 75
     1
175
     1
 42
1.0
 92
        8
 66
     7
 43
1.0
 76
     1
 77
     6
 78
     2
 67
     7
 79
     5
170
     0
171
     0
290
     0
174
     0
 93
        1
 44
0.0
173
     0
291
     1
 45
0.0
1001
ACAD
1000
AcDbSavedByObjectVersion
1070
     0
  0
VISUALSTYLE
  5
9AE0
102
{ACAD_XDICTIONARY
360
9B44
102
}
102
{ACAD_REACTORS
330
9AD4
102
}
330
9AD4
100
AcDbVisualStyle
  2
Brighten
 70
    12
 71
     2
 72
     2
 73
     0
 90
        0
 40
-0.6
 41
-30.0
 62
     5
 63
     7
 74
     1
 91
        4
 64
     7
 65
   257
 75
     1
175
     1
 42
1.0
 92
        8
 66
     7
 43
1.0
 76
     1
 77
     6
 78
     2
 67
     7
 79
     5
170
     0
171
     0
290
     0
174
     0
 93
        1
 44
50.0
173
     0
291
     1
 45
0.0
1001
ACAD
1000
AcDbSavedByObjectVersion
1070
     0
  0
VISUALSTYLE
  5
9AE4
102
{ACAD_XDICTIONARY
360
9B4C
102
}
102
{ACAD_REACTORS
330
9AD4
102
}
330
9AD4
100
AcDbVisualStyle
  2
ColorChange
 70
    16
 71
     2
 72
     2
 73
     3
 90
        0
 40
-0.6
 41
-30.0
 62
     5
 63
     8
 74
     1
 91
        4
 64
     7
 65
   257
 75
     1
175
     1
 42
1.0
 92
        8
 66
     8
 43
1.0
 76
     1
 77
     6
 78
     2
 67
     7
 79
     5
170
     0
171
     0
290
     0
174
     0
 93
        1
 44
0.0
173
     0
291
     1
 45
0.0
1001
ACAD
1000
AcDbSavedByObjectVersion
1070
     0
  0
VISUALSTYLE
  5
9ADD
102
{ACAD_XDICTIONARY
360
9B3E
102
}
102
{ACAD_REACTORS
330
9AD4
102
}
330
9AD4
100
AcDbVisualStyle
  2
Conceptual
 70
     9
 71
     3
 72
     2
 73
     0
 90
        0
 40
-0.6
 41
-30.0
 62
     5
 63
     7
 74
     2
 91
        2
 64
     7
 65
   257
 75
     1
175
     1
 42
179.0
 92
        8
 66
     7
 43
1.0
 76
     1
 77
     6
 78
     2
 67
     7
 79
     3
170
     0
171
     0
290
     0
174
     0
 93
        1
 44
0.0
173
     0
291
     0
 45
0.0
1001
ACAD
1000
AcDbSavedByObjectVersion
1070
     0
  0
VISUALSTYLE
  5
9ADF
102
{ACAD_XDICTIONARY
360
9B42
102
}
102
{ACAD_REACTORS
330
9AD4
102
}
330
9AD4
100
AcDbVisualStyle
  2
Dim
 70
    11
 71
     2
 72
     2
 73
     0
 90
        0
 40
-0.6
 41
-30.0
 62
     5
 63
     7
 74
     1
 91
        4
 64
     7
 65
   257
 75
     1
175
     1
 42
1.0
 92
        8
 66
     7
 43
1.0
 76
     1
 77
     6
 78
     2
 67
     7
 79
     5
170
     0
171
     0
290
     0
174
     0
 93
        1
 44
-50.0
173
     0
291
     1
 45
0.0
1001
ACAD
1000
AcDbSavedByObjectVersion
1070
     0
  0
VISUALSTYLE
  5
9AEC
102
{ACAD_XDICTIONARY
360
9B5C
102
}
102
{ACAD_REACTORS
330
9AD4
102
}
330
9AD4
100
AcDbVisualStyle
  2
EdgeColorOff
 70
    22
 71
     2
 72
     2
 73
     0
 90
        0
 40
-0.6
 41
-30.0
 62
     5
 63
     7
 74
     1
 91
        4
 64
     7
 65
   257
 75
     1
175
     1
 42
1.0
 92
        8
 66
     7
 43
1.0
 76
     1
 77
     6
 78
     2
 67
     7
 79
     5
170
     0
171
     0
290
     0
174
     0
 93
        1
 44
0.0
173
     0
291
     1
 45
0.0
1001
ACAD
1000
AcDbSavedByObjectVersion
1070
     0
  0
VISUALSTYLE
  5
9AE3
102
{ACAD_XDICTIONARY
360
9B4A
102
}
102
{ACAD_REACTORS
330
9AD4
102
}
330
9AD4
100
AcDbVisualStyle
  2
Facepattern
 70
    15
 71
     2
 72
     2
 73
     0
 90
        0
 40
-0.6
 41
-30.0
 62
     5
 63
     7
 74
     1
 91
        4
 64
     7
 65
   257
 75
     1
175
     1
 42
1.0
 92
        8
 66
     7
 43
1.0
 76
     1
 77
     6
 78
     2
 67
     7
 79
     5
170
     0
171
     0
290
     0
174
     0
 93
        1
 44
0.0
173
     0
291
     1
 45
0.0
1001
ACAD
1000
AcDbSavedByObjectVersion
1070
     0
  0
VISUALSTYLE
  5
9AD5
102
{ACAD_XDICTIONARY
360
9B2E
102
}
102
{ACAD_REACTORS
330
9AD4
102
}
330
9AD4
100
AcDbVisualStyle
  2
Flat
 70
     0
 71
     2
 72
     1
 73
     1
 90
        2
 40
-0.6
 41
30.0
 62
     5
 63
     7
 74
     0
 91
        0
 64
     7
 65
   257
 75
     1
175
     1
 42
1.0
 92
        8
 66
     7
 43
1.0
 76
     1
 77
     6
 78
     2
 67
     7
 79
     5
170
     0
171
     0
290
     0
174
     0
 93
       13
 44
0.0
173
     0
291
     1
 45
0.0
1001
ACAD
1000
AcDbSavedByObjectVersion
1070
     0
  0
VISUALSTYLE
  5
9AD6
102
{ACAD_XDICTIONARY
360
9B30
102
}
102
{ACAD_REACTORS
330
9AD4
102
}
330
9AD4
100
AcDbVisualStyle
  2
FlatWithEdges
 70
     1
 71
     2
 72
     1
 73
     1
 90
        2
 40
-0.6
 41
30.0
 62
     5
 63
     7
 74
     1
 91
        0
 64
     7
 65
   257
 75
     1
175
     1
 42
1.0
 92
        0
 66
   257
 43
1.0
 76
     1
 77
     6
 78
     2
 67
     7
 79
     5
170
     0
171
     0
290
     0
174
     0
 93
       13
 44
0.0
173
     0
291
     1
 45
0.0
1001
ACAD
1000
AcDbSavedByObjectVersion
1070
     0
  0
VISUALSTYLE
  5
9AD7
102
{ACAD_XDICTIONARY
360
9B32
102
}
102
{ACAD_REACTORS
330
9AD4
102
}
330
9AD4
100
AcDbVisualStyle
  2
Gouraud
 70
     2
 71
     2
 72
     2
 73
     1
 90
        2
 40
-0.6
 41
30.0
 62
     5
 63
     7
 74
     0
 91
        0
 64
     7
 65
   257
 75
     1
175
     1
 42
1.0
 92
        0
 66
     7
 43
1.0
 76
     1
 77
     6
 78
     2
 67
     7
 79
     5
170
     0
171
     0
290
     0
174
     0
 93
       13
 44
0.0
173
     0
291
     1
 45
0.0
1001
ACAD
1000
AcDbSavedByObjectVersion
1070
     0
  0
VISUALSTYLE
  5
9AD8
102
{ACAD_XDICTIONARY
360
9B34
102
}
102
{ACAD_REACTORS
330
9AD4
102
}
330
9AD4
100
AcDbVisualStyle
  2
GouraudWithEdges
 70
     3
 71
     2
 72
     2
 73
     1
 90
        2
 40
-0.6
 41
30.0
 62
     5
 63
     7
 74
     1
 91
        0
 64
     7
 65
   257
 75
     1
175
     1
 42
1.0
 92
        0
 66
   257
 43
1.0
 76
     1
 77
     6
 78
     2
 67
     7
 79
     5
170
     0
171
     0
290
     0
174
     0
 93
       13
 44
0.0
173
     0
291
     1
 45
0.0
1001
ACAD
1000
AcDbSavedByObjectVersion
1070
     0
  0
VISUALSTYLE
  5
9ADC
102
{ACAD_XDICTIONARY
360
9B3C
102
}
102
{ACAD_REACTORS
330
9AD4
102
}
330
9AD4
100
AcDbVisualStyle
  2
Hidden
 70
     6
 71
     1
 72
     2
 73
     2
 90
        0
 40
-0.6
 41
-30.0
 62
     5
 63
     7
 74
     2
 91
        2
 64
     7
 65
   257
 75
     2
175
     1
 42
40.0
 92
        0
 66
   257
 43
1.0
 76
     1
 77
     6
 78
     2
 67
     7
 79
     3
170
     0
171
     0
290
     0
174
     0
 93
        1
 44
0.0
173
     0
291
     0
 45
0.0
1001
ACAD
1000
AcDbSavedByObjectVersion
1070
     0
  0
VISUALSTYLE
  5
9AEA
102
{ACAD_XDICTIONARY
360
9B58
102
}
102
{ACAD_REACTORS
330
9AD4
102
}
330
9AD4
100
AcDbVisualStyle
  2
JitterOff
 70
    20
 71
     2
 72
     2
 73
     0
 90
        0
 40
-0.6
 41
-30.0
 62
     5
 63
     7
 74
     1
 91
        4
 64
     7
 65
   257
 75
     1
175
     1
 42
1.0
 92
       10
 66
     7
 43
1.0
 76
     1
 77
     6
 78
     2
 67
     7
 79
     5
170
     0
171
     0
290
     0
174
     0
 93
        1
 44
0.0
173
     0
291
     1
 45
0.0
1001
ACAD
1000
AcDbSavedByObjectVersion
1070
     0
  0
VISUALSTYLE
  5
9AE2
102
{ACAD_XDICTIONARY
360
9B48
102
}
102
{ACAD_REACTORS
330
9AD4
102
}
330
9AD4
100
AcDbVisualStyle
  2
Linepattern
 70
    14
 71
     2
 72
     2
 73
     0
 90
        0
 40
-0.6
 41
-30.0
 62
     5
 63
     7
 74
     1
 91
        4
 64
     7
 65
   257
 75
     7
175
     7
 42
1.0
 92
        8
 66
     7
 43
1.0
 76
     1
 77
     6
 78
     2
 67
     7
 79
     5
170
     0
171
     0
290
     0
174
     0
 93
        1
 44
0.0
173
     0
291
     1
 45
0.0
1001
ACAD
1000
AcDbSavedByObjectVersion
1070
     0
  0
VISUALSTYLE
  5
9AEB
102
{ACAD_XDICTIONARY
360
9B5A
102
}
102
{ACAD_REACTORS
330
9AD4
102
}
330
9AD4
100
AcDbVisualStyle
  2
OverhangOff
 70
    21
 71
     2
 72
     2
 73
     0
 90
        0
 40
-0.6
 41
-30.0
 62
     5
 63
     7
 74
     1
 91
        4
 64
     7
 65
   257
 75
     1
175
     1
 42
1.0
 92
        9
 66
     7
 43
1.0
 76
     1
 77
     6
 78
     2
 67
     7
 79
     5
170
     0
171
     0
290
     0
174
     0
 93
        1
 44
0.0
173
     0
291
     1
 45
0.0
1001
ACAD
1000
AcDbSavedByObjectVersion
1070
     0
  0
VISUALSTYLE
  5
9ADE
102
{ACAD_XDICTIONARY
360
9B40
102
}
102
{ACAD_REACTORS
330
9AD4
102
}
330
9AD4
100
AcDbVisualStyle
  2
Realistic
 70
     8
 71
     2
 72
     3
 73
     0
 90
        2
 40
-0.6
 41
30.0
 62
     5
 63
     7
 74
     0
 91
        0
 64
     7
 65
   257
 75
     1
175
     1
 42
1.0
 92
        8
 66
   257
 43
1.0
 76
     1
 77
     6
 78
     2
 67
     7
 79
     3
170
     0
171
     0
290
     0
174
     0
 93
       13
 44
0.0
173
     0
291
     0
 45
0.0
1001
ACAD
1000
AcDbSavedByObjectVersion
1070
     0
  0
VISUALSTYLE
  5
9AE9
102
{ACAD_XDICTIONARY
360
9B56
102
}
102
{ACAD_REACTORS
330
9AD4
102
}
330
9AD4
100
AcDbVisualStyle
  2
Shaded
 70
    27
 71
     2
 72
     2
 73
     1
 90
        2
 40
-0.6
 41
30.0
 62
     5
 63
     7
 74
     0
 91
        4
 64
     7
 65
   257
 75
     1
175
     1
 42
1.0
 92
        8
 66
   257
 43
1.0
 76
     1
 77
     6
 78
     2
 67
     8
 79
     3
170
     0
171
     0
290
     0
174
     0
 93
        5
 44
0.0
173
     0
291
     0
 45
0.0
1001
ACAD
1000
AcDbSavedByObjectVersion
1070
     0
  0
VISUALSTYLE
  5
9AE8
102
{ACAD_XDICTIONARY
360
9B54
102
}
102
{ACAD_REACTORS
330
9AD4
102
}
330
9AD4
100
AcDbVisualStyle
  2
Shaded with edges
 70
    26
 71
     2
 72
     2
 73
     1
 90
        2
 40
-0.6
 41
30.0
 62
     5
 63
     7
 74
     1
 91
       10
 64
     7
 65
   257
 75
     2
175
     1
 42
1.0
 92
        8
 66
   257
 43
1.0
 76
     1
 77
     6
 78
     2
 67
     7
 79
     3
170
     0
171
     0
290
     0
174
     0
 93
        5
 44
0.0
173
     0
291
     0
 45
0.0
1001
ACAD
1000
AcDbSavedByObjectVersion
1070
     0
  0
VISUALSTYLE
  5
9AE5
102
{ACAD_XDICTIONARY
360
9B4E
102
}
102
{ACAD_REACTORS
330
9AD4
102
}
330
9AD4
100
AcDbVisualStyle
  2
Shades of Gray
 70
    23
 71
     2
 72
     2
 73
     3
 90
        0
 40
-0.6
 41
-30.0
 62
     5
 63
     7
 74
     2
 91
        2
 64
     7
 65
     7
 75
     1
175
     1
 42
40.0
 92
        8
 66
     7
 43
1.0
 76
     1
 77
     6
 78
     2
 67
     7
 79
     3
170
     0
171
     0
290
     0
174
     0
 93
        1
 44
0.0
173
     0
291
     0
 45
0.0
1001
ACAD
1000
AcDbSavedByObjectVersion
1070
     0
  0
VISUALSTYLE
  5
9AE6
102
{ACAD_XDICTIONARY
360
9B50
102
}
102
{ACAD_REACTORS
330
9AD4
102
}
330
9AD4
100
AcDbVisualStyle
  2
Sketchy
 70
    24
 71
     1
 72
     2
 73
     2
 90
        0
 40
-0.6
 41
-30.0
 62
     5
 63
     7
 74
     2
 91
        2
 64
     7
 65
     7
 75
     1
175
     1
 42
40.0
 92
       11
 66
     7
 43
1.0
 76
     1
 77
     6
 78
     2
 67
     7
 79
     6
170
     0
171
     0
290
     0
174
     0
 93
        1
 44
0.0
173
     0
291
     0
 45
0.0
1001
ACAD
1000
AcDbSavedByObjectVersion
1070
     0
  0
VISUALSTYLE
  5
9AE1
102
{ACAD_XDICTIONARY
360
9B46
102
}
102
{ACAD_REACTORS
330
9AD4
102
}
330
9AD4
100
AcDbVisualStyle
  2
Thicken
 70
    13
 71
     2
 72
     2
 73
     0
 90
        0
 40
-0.6
 41
-30.0
 62
     5
 63
     7
 74
     1
 91
        4
 64
     7
 65
   257
 75
     1
175
     1
 42
1.0
 92
       12
 66
     7
 43
1.0
 76
     1
 77
     6
 78
     2
 67
     7
 79
     5
170
     0
171
     0
290
     0
174
     0
 93
        1
 44
0.0
173
     0
291
     1
 45
0.0
1001
ACAD
1000
AcDbSavedByObjectVersion
1070
     0
  0
VISUALSTYLE
  5
9ADB
102
{ACAD_XDICTIONARY
360
9B3A
102
}
102
{ACAD_REACTORS
330
9AD4
102
}
330
9AD4
100
AcDbVisualStyle
  2
Wireframe
 70
     5
 71
     0
 72
     2
 73
     0
 90
        0
 40
-0.6
 41
-30.0
 62
     5
 63
     7
 74
     1
 91
        4
 64
     7
 65
   257
 75
     1
175
     1
 42
1.0
 92
        0
 66
   257
 43
1.0
 76
     1
 77
     6
 78
     2
 67
     7
 79
     3
170
     0
171
     0
290
     0
174
     0
 93
        1
 44
0.0
173
     0
291
     0
 45
0.0
1001
ACAD
1000
AcDbSavedByObjectVersion
1070
     0
  0
VISUALSTYLE
  5
9AE7
102
{ACAD_XDICTIONARY
360
9B52
102
}
102
{ACAD_REACTORS
330
9AD4
102
}
330
9AD4
100
AcDbVisualStyle
  2
X-Ray
 70
    25
 71
     2
 72
     2
 73
     1
 90
        1
 40
0.5
 41
-30.0
 62
     5
 63
     7
 74
     1
 91
        0
 64
     7
 65
   257
 75
     1
175
     1
 42
1.0
 92
        8
 66
     7
 43
1.0
 76
     1
 77
     6
 78
     2
 67
     7
 79
     3
170
     0
171
     0
290
     0
174
     0
 93
       13
 44
0.0
173
     0
291
     0
 45
0.0
1001
ACAD
1000
AcDbSavedByObjectVersion
1070
     0
  0
DICTIONARYVAR
  5
9B21
102
{ACAD_REACTORS
330
9B1C
102
}
330
9B1C
100
DictionaryVariables
280
     0
  1
1:1
  0
DICTIONARYVAR
  5
9B1E
102
{ACAD_REACTORS
330
9B1C
102
}
330
9B1C
100
DictionaryVariables
280
     0
  1
STANDARD
  0
DICTIONARYVAR
  5
9B1D
102
{ACAD_REACTORS
330
9B1C
102
}
330
9B1C
100
DictionaryVariables
280
     0
  1
STANDARD
  0
DICTIONARYVAR
  5
9B1F
102
{ACAD_REACTORS
330
9B1C
102
}
330
9B1C
100
DictionaryVariables
280
     0
  1
Imperial24
  0
DICTIONARYVAR
  5
9B20
102
{ACAD_REACTORS
330
9B1C
102
}
330
9B1C
100
DictionaryVariables
280
     0
  1
Imperial24
  0
DICTIONARYVAR
  5
9B24
102
{ACAD_REACTORS
330
9B1C
102
}
330
9B1C
100
DictionaryVariables
280
     0
  1
1
  0
DICTIONARYVAR
  5
9B23
102
{ACAD_REACTORS
330
9B1C
102
}
330
9B1C
100
DictionaryVariables
280
     0
  1
0
  0
DICTIONARYVAR
  5
9B22
102
{ACAD_REACTORS
330
9B1C
102
}
330
9B1C
100
DictionaryVariables
280
     0
  1
127
  0
DICTIONARYVAR
  5
9B25
102
{ACAD_REACTORS
330
9B1C
102
}
330
9B1C
100
DictionaryVariables
280
     0
  1
2
  0
DICTIONARY
  5
9B62
330
9B07
100
AcDbDictionary
280
     1
281
     1
  3
ACAD_XREC_ROUNDTRIP
360
9B63
  0
DICTIONARY
  5
9B64
330
9B08
100
AcDbDictionary
280
     1
281
     1
  3
ACAD_XREC_ROUNDTRIP
360
9B65
  0
DICTIONARY
  5
9B66
330
9B09
100
AcDbDictionary
280
     1
281
     1
  3
ACAD_XREC_ROUNDTRIP
360
9B67
  0
DICTIONARY
  5
9AC5
330
9AC4
100
AcDbDictionary
280
     1
281
     1
  3
ACAD_XREC_ROUNDTRIP
360
9B2C
  3
BUMPTILE
360
9AC7
  3
DIFFUSETILE
360
9AC6
  3
OPACITYTILE
360
9ACA
  3
REFLECTIONTILE
360
9AC9
  3
REFRACTIONTILE
360
9ACB
  3
SPECULARTILE
360
9AC8
  0
DICTIONARY
  5
9ABD
330
9ABC
100
AcDbDictionary
280
     1
281
     1
  3
ACAD_XREC_ROUNDTRIP
360
9B2B
  3
BUMPTILE
360
9ABF
  3
DIFFUSETILE
360
9ABE
  3
OPACITYTILE
360
9AC2
  3
REFLECTIONTILE
360
9AC1
  3
REFRACTIONTILE
360
9AC3
  3
SPECULARTILE
360
9AC0
  0
DICTIONARY
  5
9ACD
330
9ACC
100
AcDbDictionary
280
     1
281
     1
  3
ACAD_XREC_ROUNDTRIP
360
9B2D
  3
BUMPTILE
360
9ACF
  3
DIFFUSETILE
360
9ACE
  3
OPACITYTILE
360
9AD2
  3
REFLECTIONTILE
360
9AD1
  3
REFRACTIONTILE
360
9AD3
  3
SPECULARTILE
360
9AD0
  0
DICTIONARY
  5
9B60
330
9B05
100
AcDbDictionary
280
     1
281
     1
  3
ACAD_XREC_ROUNDTRIP
360
9B61
  0
DICTIONARY
  5
9B27
330
9AEF
100
AcDbDictionary
280
     1
281
     1
  3
ACAD_ROUNDTRIP_2008_TABLESTYLE_CELLSTYLEMAP
360
9B28
  3
ACAD_XREC_ROUNDTRIP
360
9B5E
  0
DICTIONARY
  5
9B38
330
9ADA
100
AcDbDictionary
280
     1
281
     1
  3
ACAD_XREC_ROUNDTRIP
360
9B39
  0
DICTIONARY
  5
9B36
330
9AD9
100
AcDbDictionary
280
     1
281
     1
  3
ACAD_XREC_ROUNDTRIP
360
9B37
  0
DICTIONARY
  5
9B44
330
9AE0
100
AcDbDictionary
280
     1
281
     1
  3
ACAD_XREC_ROUNDTRIP
360
9B45
  0
DICTIONARY
  5
9B4C
330
9AE4
100
AcDbDictionary
280
     1
281
     1
  3
ACAD_XREC_ROUNDTRIP
360
9B4D
  0
DICTIONARY
  5
9B3E
330
9ADD
100
AcDbDictionary
280
     1
281
     1
  3
ACAD_XREC_ROUNDTRIP
360
9B3F
  0
DICTIONARY
  5
9B42
330
9ADF
100
AcDbDictionary
280
     1
281
     1
  3
ACAD_XREC_ROUNDTRIP
360
9B43
  0
DICTIONARY
  5
9B5C
330
9AEC
100
AcDbDictionary
280
     1
281
     1
  3
ACAD_XREC_ROUNDTRIP
360
9B5D
  0
DICTIONARY
  5
9B4A
330
9AE3
100
AcDbDictionary
280
     1
281
     1
  3
ACAD_XREC_ROUNDTRIP
360
9B4B
  0
DICTIONARY
  5
9B2E
330
9AD5
100
AcDbDictionary
280
     1
281
     1
  3
ACAD_XREC_ROUNDTRIP
360
9B2F
  0
DICTIONARY
  5
9B30
330
9AD6
100
AcDbDictionary
280
     1
281
     1
  3
ACAD_XREC_ROUNDTRIP
360
9B31
  0
DICTIONARY
  5
9B32
330
9AD7
100
AcDbDictionary
280
     1
281
     1
  3
ACAD_XREC_ROUNDTRIP
360
9B33
  0
DICTIONARY
  5
9B34
330
9AD8
100
AcDbDictionary
280
     1
281
     1
  3
ACAD_XREC_ROUNDTRIP
360
9B35
  0
DICTIONARY
  5
9B3C
330
9ADC
100
AcDbDictionary
280
     1
281
     1
  3
ACAD_XREC_ROUNDTRIP
360
9B3D
  0
DICTIONARY
  5
9B58
330
9AEA
100
AcDbDictionary
280
     1
281
     1
  3
ACAD_XREC_ROUNDTRIP
360
9B59
  0
DICTIONARY
  5
9B48
330
9AE2
100
AcDbDictionary
280
     1
281
     1
  3
ACAD_XREC_ROUNDTRIP
360
9B49
  0
DICTIONARY
  5
9B5A
330
9AEB
100
AcDbDictionary
280
     1
281
     1
  3
ACAD_XREC_ROUNDTRIP
360
9B5B
  0
DICTIONARY
  5
9B40
330
9ADE
100
AcDbDictionary
280
     1
281
     1
  3
ACAD_XREC_ROUNDTRIP
360
9B41
  0
DICTIONARY
  5
9B56
330
9AE9
100
AcDbDictionary
280
     1
281
     1
  3
ACAD_XREC_ROUNDTRIP
360
9B57
  0
DICTIONARY
  5
9B54
330
9AE8
100
AcDbDictionary
280
     1
281
     1
  3
ACAD_XREC_ROUNDTRIP
360
9B55
  0
DICTIONARY
  5
9B4E
330
9AE5
100
AcDbDictionary
280
     1
281
     1
  3
ACAD_XREC_ROUNDTRIP
360
9B4F
  0
DICTIONARY
  5
9B50
330
9AE6
100
AcDbDictionary
280
     1
281
     1
  3
ACAD_XREC_ROUNDTRIP
360
9B51
  0
DICTIONARY
  5
9B46
330
9AE1
100
AcDbDictionary
280
     1
281
     1
  3
ACAD_XREC_ROUNDTRIP
360
9B47
  0
DICTIONARY
  5
9B3A
330
9ADB
100
AcDbDictionary
280
     1
281
     1
  3
ACAD_XREC_ROUNDTRIP
360
9B3B
  0
DICTIONARY
  5
9B52
330
9AE7
100
AcDbDictionary
280
     1
281
     1
  3
ACAD_XREC_ROUNDTRIP
360
9B53
  0
XRECORD
  5
9B63
102
{ACAD_REACTORS
330
9B62
102
}
330
9B62
100
AcDbXrecord
280
     1
102
DISPLAYNAME
  1
Imperial24
102
FLAGS
 90
        0
  0
XRECORD
  5
9B65
102
{ACAD_REACTORS
330
9B64
102
}
330
9B64
100
AcDbXrecord
280
     1
102
SHADEPLOT
 70
     0
102
SHADEPLOTRESLEVEL
 70
     2
102
SHADEPLOTCUSTOMDPI
 70
   300
  0
XRECORD
  5
9B67
102
{ACAD_REACTORS
330
9B66
102
}
330
9B66
100
AcDbXrecord
280
     1
102
SHADEPLOT
 70
     0
102
SHADEPLOTRESLEVEL
 70
     2
102
SHADEPLOTCUSTOMDPI
 70
   300
  0
XRECORD
  5
9B2C
102
{ACAD_REACTORS
330
9AC5
102
}
330
9AC5
100
AcDbXrecord
280
     1
102
MATERIAL
148
0.0
149
0.0
149
0.0
 93
        0
 94
      127
282
     0
 72
     0
 77
     0
171
     0
175
     0
179
     0
273
     0
  0
XRECORD
  5
9AC7
102
{ACAD_REACTORS
330
9AC5
102
}
330
9AC5
100
AcDbXrecord
280
     1
270
     1
271
     1
  0
XRECORD
  5
9AC6
102
{ACAD_REACTORS
330
9AC5
102
}
330
9AC5
100
AcDbXrecord
280
     1
270
     1
271
     1
  0
XRECORD
  5
9ACA
102
{ACAD_REACTORS
330
9AC5
102
}
330
9AC5
100
AcDbXrecord
280
     1
270
     1
271
     1
  0
XRECORD
  5
9AC9
102
{ACAD_REACTORS
330
9AC5
102
}
330
9AC5
100
AcDbXrecord
280
     1
270
     1
271
     1
  0
XRECORD
  5
9ACB
102
{ACAD_REACTORS
330
9AC5
102
}
330
9AC5
100
AcDbXrecord
280
     1
270
     1
271
     1
  0
XRECORD
  5
9AC8
102
{ACAD_REACTORS
330
9AC5
102
}
330
9AC5
100
AcDbXrecord
280
     1
270
     1
271
     1
  0
XRECORD
  5
9B2B
102
{ACAD_REACTORS
330
9ABD
102
}
330
9ABD
100
AcDbXrecord
280
     1
102
MATERIAL
148
0.0
149
0.0
149
0.0
 93
        0
 94
      127
282
     0
 72
     0
 77
     0
171
     0
175
     0
179
     0
273
     0
  0
XRECORD
  5
9ABF
102
{ACAD_REACTORS
330
9ABD
102
}
330
9ABD
100
AcDbXrecord
280
     1
270
     1
271
     1
  0
XRECORD
  5
9ABE
102
{ACAD_REACTORS
330
9ABD
102
}
330
9ABD
100
AcDbXrecord
280
     1
270
     1
271
     1
  0
XRECORD
  5
9AC2
102
{ACAD_REACTORS
330
9ABD
102
}
330
9ABD
100
AcDbXrecord
280
     1
270
     1
271
     1
  0
XRECORD
  5
9AC1
102
{ACAD_REACTORS
330
9ABD
102
}
330
9ABD
100
AcDbXrecord
280
     1
270
     1
271
     1
  0
XRECORD
  5
9AC3
102
{ACAD_REACTORS
330
9ABD
102
}
330
9ABD
100
AcDbXrecord
280
     1
270
     1
271
     1
  0
XRECORD
  5
9AC0
102
{ACAD_REACTORS
330
9ABD
102
}
330
9ABD
100
AcDbXrecord
280
     1
270
     1
271
     1
  0
XRECORD
  5
9B2D
102
{ACAD_REACTORS
330
9ACD
102
}
330
9ACD
100
AcDbXrecord
280
     1
102
MATERIAL
148
0.0
149
0.0
149
0.0
 93
        0
 94
      127
282
     0
 72
     0
 77
     0
171
     0
175
     0
179
     0
273
     0
  0
XRECORD
  5
9ACF
102
{ACAD_REACTORS
330
9ACD
102
}
330
9ACD
100
AcDbXrecord
280
     1
270
     1
271
     1
  0
XRECORD
  5
9ACE
102
{ACAD_REACTORS
330
9ACD
102
}
330
9ACD
100
AcDbXrecord
280
     1
270
     1
271
     1
  0
XRECORD
  5
9AD2
102
{ACAD_REACTORS
330
9ACD
102
}
330
9ACD
100
AcDbXrecord
280
     1
270
     1
271
     1
  0
XRECORD
  5
9AD1
102
{ACAD_REACTORS
330
9ACD
102
}
330
9ACD
100
AcDbXrecord
280
     1
270
     1
271
     1
  0
XRECORD
  5
9AD3
102
{ACAD_REACTORS
330
9ACD
102
}
330
9ACD
100
AcDbXrecord
280
     1
270
     1
271
     1
  0
XRECORD
  5
9AD0
102
{ACAD_REACTORS
330
9ACD
102
}
330
9ACD
100
AcDbXrecord
280
     1
270
     1
271
     1
  0
XRECORD
  5
9B61
102
{ACAD_REACTORS
330
9B60
102
}
330
9B60
100
AcDbXrecord
280
     1
102
DISPLAYNAME
  1
Imperial24
102
FLAGS
 90
        0
  0
CELLSTYLEMAP
  5
9B28
102
{ACAD_REACTORS
330
9B27
102
}
330
9B27
100
AcDbCellStyleMap
 90
        3
300
CELLSTYLE
  1
TABLEFORMAT_BEGIN
 90
        5
170
     1
 91
        0
 92
    32768
 62
   257
 93
        1
300
CONTENTFORMAT
  1
CONTENTFORMAT_BEGIN
 90
        0
 91
        0
 92
      512
 93
        0
300

 40
0.0
140
1.0
 94
        5
 62
     0
340
98B9
144
0.25
309
CONTENTFORMAT_END
171
     0
 94
        0
309
TABLEFORMAT_END
  1
CELLSTYLE_BEGIN
 90
        1
 91
        1
300
_TITLE
309
CELLSTYLE_END
300
CELLSTYLE
  1
TABLEFORMAT_BEGIN
 90
        5
170
     1
 91
        0
 92
        0
 62
   257
 93
        1
300
CONTENTFORMAT
  1
CONTENTFORMAT_BEGIN
 90
        0
 91
        0
 92
      512
 93
        0
300

 40
0.0
140
1.0
 94
        5
 62
     0
340
98B9
144
0.18
309
CONTENTFORMAT_END
171
     0
 94
        0
309
TABLEFORMAT_END
  1
CELLSTYLE_BEGIN
 90
        2
 91
        1
300
_HEADER
309
CELLSTYLE_END
300
CELLSTYLE
  1
TABLEFORMAT_BEGIN
 90
        5
170
     1
 91
        0
 92
        0
 62
   257
 93
        1
300
CONTENTFORMAT
  1
CONTENTFORMAT_BEGIN
 90
        0
 91
        0
 92
      512
 93
        0
300

 40
0.0
140
1.0
 94
        2
 62
     0
340
98B9
144
0.18
309
CONTENTFORMAT_END
171
     0
 94
        0
309
TABLEFORMAT_END
  1
CELLSTYLE_BEGIN
 90
        3
 91
        2
300
_DATA
309
CELLSTYLE_END
  0
XRECORD
  5
9B5E
102
{ACAD_REACTORS
330
9B27
102
}
330
9B27
100
AcDbXrecord
280
     1
102
ACAD_ROUNDTRIP_PRE2007_TABLESTYLE
 90
      512
 91
        0
  1

 92
      512
 93
        0
  2

 94
      512
 95
        0
  3

  0
XRECORD
  5
9B39
102
{ACAD_REACTORS
330
9B38
102
}
330
9B38
100
AcDbXrecord
280
     1
102
RTVSPost2010Prop28
280
     1
102
RTVSPost2010PropOp28
 70
     1
102
RTVSPost2010Prop29
280
     1
102
RTVSPost2010PropOp29
 70
     1
102
RTVSPost2010Prop30
280
     0
102
RTVSPost2010PropOp30
 70
     1
102
RTVSPost2010Prop31
280
     0
102
RTVSPost2010PropOp31
 70
     1
102
RTVSPost2010Prop32
280
     0
102
RTVSPost2010PropOp32
 70
     1
102
RTVSPost2010Prop33
280
     0
102
RTVSPost2010PropOp33
 70
     1
102
RTVSPost2010Prop34
280
     0
102
RTVSPost2010PropOp34
 70
     1
102
RTVSPost2010Prop35
280
     0
102
RTVSPost2010PropOp35
 70
     1
102
RTVSPost2010Prop36
280
     0
102
RTVSPost2010PropOp36
 70
     1
102
RTVSPost2010Prop37
 90
       50
102
RTVSPost2010PropOp37
 70
     1
102
RTVSPost2010Prop38
140
0.0
102
RTVSPost2010PropOp38
 70
     1
102
RTVSPost2010Prop39
140
1.0
102
RTVSPost2010PropOp39
 70
     1
102
RTVSPost2010Prop40
 90
        0
102
RTVSPost2010PropOp40
 70
     1
102
RTVSPost2010Prop41ColorIndex
 90
       18
102
RTVSPost2010Prop41ColorRGB
 90
        0
102
RTVSPost2010PropOp41
 70
     1
102
RTVSPost2010Prop42
 90
       50
102
RTVSPost2010PropOp42
 70
     1
102
RTVSPost2010Prop43
 90
        3
102
RTVSPost2010PropOp43
 70
     1
102
RTVSPost2010Prop44ColorIndex
 90
        5
102
RTVSPost2010Prop44ColorRGB
 90
      255
102
RTVSPost2010PropOp44
 70
     1
102
RTVSPost2010Prop45
280
     0
102
RTVSPost2010PropOp45
 70
     1
102
RTVSPost2010Prop46
 90
       50
102
RTVSPost2010PropOp46
 70
     1
102
RTVSPost2010Prop47
 90
       50
102
RTVSPost2010PropOp47
 70
     1
102
RTVSPost2010Prop48
 90
       50
102
RTVSPost2010PropOp48
 70
     1
102
RTVSPost2010Prop49
280
     0
102
RTVSPost2010PropOp49
 70
     1
102
RTVSPost2010Prop50
 90
       50
102
RTVSPost2010PropOp50
 70
     1
102
RTVSPost2010Prop51ColorIndex
 90
      256
102
RTVSPost2010Prop51ColorRGB
 90
-16777216
102
RTVSPost2010PropOp51
 70
     0
102
RTVSPost2010Prop52
140
1.0
102
RTVSPost2010PropOp52
 70
     0
102
RTVSPost2010Prop53
 90
        2
102
RTVSPost2010PropOp53
 70
     1
102
RTVSPost2010Prop54
  1
strokes_ogs.tif
102
RTVSPost2010PropOp54
 70
     1
102
RTVSPost2010Prop55
280
     0
102
RTVSPost2010PropOp55
 70
     1
102
RTVSPost2010Prop56
140
1.0
102
RTVSPost2010PropOp56
 70
     1
102
RTVSPost2010Prop57
140
1.0
102
RTVSPost2010PropOp57
 70
     1
102
RTVSPropertyOp0
 70
     1
102
RTVSPropertyOp1
 70
     1
102
RTVSPropertyOp2
 70
     1
102
RTVSPropertyOp3
 70
     1
102
RTVSPropertyOp4
 70
     1
102
RTVSPropertyOp5
 70
     1
102
RTVSPropertyOp6
 70
     1
102
RTVSPropertyOp7
 70
     1
102
RTVSPropertyOp8
 70
     1
102
RTVSPropertyOp9
 70
     1
102
RTVSPropertyOp10
 70
     1
102
RTVSPropertyOp11
 70
     1
102
RTVSPropertyOp12
 70
     1
102
RTVSPropertyOp13
 70
     1
102
RTVSPropertyOp14
 70
     1
102
RTVSPropertyOp15
 70
     1
102
RTVSPropertyOp16
 70
     1
102
RTVSPropertyOp17
 70
     1
102
RTVSPropertyOp18
 70
     1
102
RTVSPropertyOp19
 70
     1
102
RTVSPropertyOp20
 70
     1
102
RTVSPropertyOp21
 70
     1
102
RTVSPropertyOp22
 70
     1
102
RTVSPropertyOp23
 70
     1
102
RTVSPropertyOp24
 70
     1
102
RTVSPropertyOp25
 70
     1
102
RTVSPropertyOp26
 70
     1
102
RTVSPropertyOp27
 70
     1
102
RTVSPropertyOp28
 70
     1
102
RTVSPropertyOp29
 70
     1
102
RTVSPropertyOp30
 70
     1
102
RTVSPropertyOp31
 70
     1
102
RTVSPropertyOp32
 70
     1
102
RTVSPropertyOp33
 70
     1
102
RTVSPropertyOp34
 70
     1
102
RTVSPropertyOp35
 70
     1
102
RTVSPropertyOp36
 70
     1
102
RTVSPropertyOp37
 70
     1
102
RTVSPropertyOp38
 70
     1
102
RTVSPropertyOp39
 70
     1
102
RTVSPropertyOp40
 70
     1
102
RTVSPropertyOp41
 70
     1
102
RTVSPropertyOp42
 70
     1
102
RTVSPropertyOp43
 70
     1
102
RTVSPropertyOp44
 70
     1
102
RTVSPropertyOp45
 70
     1
102
RTVSPropertyOp46
 70
     1
102
RTVSPropertyOp47
 70
     1
102
RTVSPropertyOp48
 70
     1
102
RTVSPropertyOp49
 70
     1
102
RTVSPropertyOp50
 70
     1
102
RTVSPropertyOp51
 70
     0
102
RTVSPropertyOp52
 70
     0
102
RTVSPropertyOp53
 70
     1
102
RTVSPropertyOp54
 70
     1
102
RTVSPropertyOp55
 70
     1
102
RTVSPropertyOp56
 70
     1
102
RTVSPropertyOp57
 70
     1
102
RTVSPropertyOp58
 70
     1
102
RTVSPropertyOp59
 70
     1
102
RTVSPropertyOp60
 70
     1
102
RTVSPropertyOp61
 70
     1
102
RTVSPropertyOp62
 70
     1
  0
XRECORD
  5
9B37
102
{ACAD_REACTORS
330
9B36
102
}
330
9B36
100
AcDbXrecord
280
     1
102
RTVSPost2010Prop28
280
     0
102
RTVSPost2010PropOp28
 70
     1
102
RTVSPost2010Prop29
280
     1
102
RTVSPost2010PropOp29
 70
     1
102
RTVSPost2010Prop30
280
     1
102
RTVSPost2010PropOp30
 70
     1
102
RTVSPost2010Prop31
280
     0
102
RTVSPost2010PropOp31
 70
     1
102
RTVSPost2010Prop32
280
     0
102
RTVSPost2010PropOp32
 70
     1
102
RTVSPost2010Prop33
280
     0
102
RTVSPost2010PropOp33
 70
     1
102
RTVSPost2010Prop34
280
     0
102
RTVSPost2010PropOp34
 70
     1
102
RTVSPost2010Prop35
280
     0
102
RTVSPost2010PropOp35
 70
     1
102
RTVSPost2010Prop36
280
     0
102
RTVSPost2010PropOp36
 70
     1
102
RTVSPost2010Prop37
 90
       50
102
RTVSPost2010PropOp37
 70
     1
102
RTVSPost2010Prop38
140
0.0
102
RTVSPost2010PropOp38
 70
     1
102
RTVSPost2010Prop39
140
1.0
102
RTVSPost2010PropOp39
 70
     1
102
RTVSPost2010Prop40
 90
        0
102
RTVSPost2010PropOp40
 70
     1
102
RTVSPost2010Prop41ColorIndex
 90
       18
102
RTVSPost2010Prop41ColorRGB
 90
        0
102
RTVSPost2010PropOp41
 70
     1
102
RTVSPost2010Prop42
 90
       50
102
RTVSPost2010PropOp42
 70
     1
102
RTVSPost2010Prop43
 90
        3
102
RTVSPost2010PropOp43
 70
     1
102
RTVSPost2010Prop44ColorIndex
 90
        5
102
RTVSPost2010Prop44ColorRGB
 90
      255
102
RTVSPost2010PropOp44
 70
     1
102
RTVSPost2010Prop45
280
     0
102
RTVSPost2010PropOp45
 70
     1
102
RTVSPost2010Prop46
 90
       50
102
RTVSPost2010PropOp46
 70
     1
102
RTVSPost2010Prop47
 90
       50
102
RTVSPost2010PropOp47
 70
     1
102
RTVSPost2010Prop48
 90
       50
102
RTVSPost2010PropOp48
 70
     1
102
RTVSPost2010Prop49
280
     0
102
RTVSPost2010PropOp49
 70
     1
102
RTVSPost2010Prop50
 90
       50
102
RTVSPost2010PropOp50
 70
     1
102
RTVSPost2010Prop51ColorIndex
 90
      256
102
RTVSPost2010Prop51ColorRGB
 90
-16777216
102
RTVSPost2010PropOp51
 70
     0
102
RTVSPost2010Prop52
140
1.0
102
RTVSPost2010PropOp52
 70
     0
102
RTVSPost2010Prop53
 90
        2
102
RTVSPost2010PropOp53
 70
     1
102
RTVSPost2010Prop54
  1
strokes_ogs.tif
102
RTVSPost2010PropOp54
 70
     1
102
RTVSPost2010Prop55
280
     0
102
RTVSPost2010PropOp55
 70
     1
102
RTVSPost2010Prop56
140
1.0
102
RTVSPost2010PropOp56
 70
     1
102
RTVSPost2010Prop57
140
1.0
102
RTVSPost2010PropOp57
 70
     1
102
RTVSPropertyOp0
 70
     1
102
RTVSPropertyOp1
 70
     1
102
RTVSPropertyOp2
 70
     1
102
RTVSPropertyOp3
 70
     1
102
RTVSPropertyOp4
 70
     1
102
RTVSPropertyOp5
 70
     1
102
RTVSPropertyOp6
 70
     1
102
RTVSPropertyOp7
 70
     1
102
RTVSPropertyOp8
 70
     1
102
RTVSPropertyOp9
 70
     1
102
RTVSPropertyOp10
 70
     1
102
RTVSPropertyOp11
 70
     1
102
RTVSPropertyOp12
 70
     1
102
RTVSPropertyOp13
 70
     1
102
RTVSPropertyOp14
 70
     1
102
RTVSPropertyOp15
 70
     1
102
RTVSPropertyOp16
 70
     1
102
RTVSPropertyOp17
 70
     1
102
RTVSPropertyOp18
 70
     1
102
RTVSPropertyOp19
 70
     1
102
RTVSPropertyOp20
 70
     1
102
RTVSPropertyOp21
 70
     1
102
RTVSPropertyOp22
 70
     1
102
RTVSPropertyOp23
 70
     1
102
RTVSPropertyOp24
 70
     1
102
RTVSPropertyOp25
 70
     1
102
RTVSPropertyOp26
 70
     1
102
RTVSPropertyOp27
 70
     1
102
RTVSPropertyOp28
 70
     1
102
RTVSPropertyOp29
 70
     1
102
RTVSPropertyOp30
 70
     1
102
RTVSPropertyOp31
 70
     1
102
RTVSPropertyOp32
 70
     1
102
RTVSPropertyOp33
 70
     1
102
RTVSPropertyOp34
 70
     1
102
RTVSPropertyOp35
 70
     1
102
RTVSPropertyOp36
 70
     1
102
RTVSPropertyOp37
 70
     1
102
RTVSPropertyOp38
 70
     1
102
RTVSPropertyOp39
 70
     1
102
RTVSPropertyOp40
 70
     1
102
RTVSPropertyOp41
 70
     1
102
RTVSPropertyOp42
 70
     1
102
RTVSPropertyOp43
 70
     1
102
RTVSPropertyOp44
 70
     1
102
RTVSPropertyOp45
 70
     1
102
RTVSPropertyOp46
 70
     1
102
RTVSPropertyOp47
 70
     1
102
RTVSPropertyOp48
 70
     1
102
RTVSPropertyOp49
 70
     1
102
RTVSPropertyOp50
 70
     1
102
RTVSPropertyOp51
 70
     0
102
RTVSPropertyOp52
 70
     0
102
RTVSPropertyOp53
 70
     1
102
RTVSPropertyOp54
 70
     1
102
RTVSPropertyOp55
 70
     1
102
RTVSPropertyOp56
 70
     1
102
RTVSPropertyOp57
 70
     1
102
RTVSPropertyOp58
 70
     1
102
RTVSPropertyOp59
 70
     1
102
RTVSPropertyOp60
 70
     1
102
RTVSPropertyOp61
 70
     1
102
RTVSPropertyOp62
 70
     1
  0
XRECORD
  5
9B45
102
{ACAD_REACTORS
330
9B44
102
}
330
9B44
100
AcDbXrecord
280
     1
102
RTVSPost2010Prop28
280
     0
102
RTVSPost2010PropOp28
 70
     1
102
RTVSPost2010Prop29
280
     1
102
RTVSPost2010PropOp29
 70
     1
102
RTVSPost2010Prop30
280
     1
102
RTVSPost2010PropOp30
 70
     1
102
RTVSPost2010Prop31
280
     0
102
RTVSPost2010PropOp31
 70
     1
102
RTVSPost2010Prop32
280
     0
102
RTVSPost2010PropOp32
 70
     1
102
RTVSPost2010Prop33
280
     0
102
RTVSPost2010PropOp33
 70
     1
102
RTVSPost2010Prop34
280
     0
102
RTVSPost2010PropOp34
 70
     1
102
RTVSPost2010Prop35
280
     0
102
RTVSPost2010PropOp35
 70
     1
102
RTVSPost2010Prop36
280
     0
102
RTVSPost2010PropOp36
 70
     1
102
RTVSPost2010Prop37
 90
       50
102
RTVSPost2010PropOp37
 70
     1
102
RTVSPost2010Prop38
140
0.0
102
RTVSPost2010PropOp38
 70
     1
102
RTVSPost2010Prop39
140
1.0
102
RTVSPost2010PropOp39
 70
     1
102
RTVSPost2010Prop40
 90
        0
102
RTVSPost2010PropOp40
 70
     1
102
RTVSPost2010Prop41ColorIndex
 90
       18
102
RTVSPost2010Prop41ColorRGB
 90
        0
102
RTVSPost2010PropOp41
 70
     1
102
RTVSPost2010Prop42
 90
       50
102
RTVSPost2010PropOp42
 70
     1
102
RTVSPost2010Prop43
 90
        3
102
RTVSPost2010PropOp43
 70
     1
102
RTVSPost2010Prop44ColorIndex
 90
        5
102
RTVSPost2010Prop44ColorRGB
 90
      255
102
RTVSPost2010PropOp44
 70
     1
102
RTVSPost2010Prop45
280
     0
102
RTVSPost2010PropOp45
 70
     1
102
RTVSPost2010Prop46
 90
       50
102
RTVSPost2010PropOp46
 70
     1
102
RTVSPost2010Prop47
 90
       50
102
RTVSPost2010PropOp47
 70
     1
102
RTVSPost2010Prop48
 90
       50
102
RTVSPost2010PropOp48
 70
     1
102
RTVSPost2010Prop49
280
     0
102
RTVSPost2010PropOp49
 70
     1
102
RTVSPost2010Prop50
 90
       50
102
RTVSPost2010PropOp50
 70
     1
102
RTVSPost2010Prop51ColorIndex
 90
      256
102
RTVSPost2010Prop51ColorRGB
 90
-16777216
102
RTVSPost2010PropOp51
 70
     0
102
RTVSPost2010Prop52
140
1.0
102
RTVSPost2010PropOp52
 70
     0
102
RTVSPost2010Prop53
 90
        2
102
RTVSPost2010PropOp53
 70
     1
102
RTVSPost2010Prop54
  1
strokes_ogs.tif
102
RTVSPost2010PropOp54
 70
     1
102
RTVSPost2010Prop55
280
     0
102
RTVSPost2010PropOp55
 70
     1
102
RTVSPost2010Prop56
140
1.0
102
RTVSPost2010PropOp56
 70
     1
102
RTVSPost2010Prop57
140
1.0
102
RTVSPost2010PropOp57
 70
     1
102
RTVSPropertyOp0
 70
     1
102
RTVSPropertyOp1
 70
     1
102
RTVSPropertyOp2
 70
     1
102
RTVSPropertyOp3
 70
     1
102
RTVSPropertyOp4
 70
     1
102
RTVSPropertyOp5
 70
     1
102
RTVSPropertyOp6
 70
     1
102
RTVSPropertyOp7
 70
     1
102
RTVSPropertyOp8
 70
     1
102
RTVSPropertyOp9
 70
     1
102
RTVSPropertyOp10
 70
     1
102
RTVSPropertyOp11
 70
     1
102
RTVSPropertyOp12
 70
     1
102
RTVSPropertyOp13
 70
     1
102
RTVSPropertyOp14
 70
     1
102
RTVSPropertyOp15
 70
     1
102
RTVSPropertyOp16
 70
     1
102
RTVSPropertyOp17
 70
     1
102
RTVSPropertyOp18
 70
     1
102
RTVSPropertyOp19
 70
     1
102
RTVSPropertyOp20
 70
     1
102
RTVSPropertyOp21
 70
     1
102
RTVSPropertyOp22
 70
     1
102
RTVSPropertyOp23
 70
     1
102
RTVSPropertyOp24
 70
     1
102
RTVSPropertyOp25
 70
     1
102
RTVSPropertyOp26
 70
     1
102
RTVSPropertyOp27
 70
     1
102
RTVSPropertyOp28
 70
     1
102
RTVSPropertyOp29
 70
     1
102
RTVSPropertyOp30
 70
     1
102
RTVSPropertyOp31
 70
     1
102
RTVSPropertyOp32
 70
     1
102
RTVSPropertyOp33
 70
     1
102
RTVSPropertyOp34
 70
     1
102
RTVSPropertyOp35
 70
     1
102
RTVSPropertyOp36
 70
     1
102
RTVSPropertyOp37
 70
     1
102
RTVSPropertyOp38
 70
     1
102
RTVSPropertyOp39
 70
     1
102
RTVSPropertyOp40
 70
     1
102
RTVSPropertyOp41
 70
     1
102
RTVSPropertyOp42
 70
     1
102
RTVSPropertyOp43
 70
     1
102
RTVSPropertyOp44
 70
     1
102
RTVSPropertyOp45
 70
     1
102
RTVSPropertyOp46
 70
     1
102
RTVSPropertyOp47
 70
     1
102
RTVSPropertyOp48
 70
     1
102
RTVSPropertyOp49
 70
     1
102
RTVSPropertyOp50
 70
     1
102
RTVSPropertyOp51
 70
     0
102
RTVSPropertyOp52
 70
     0
102
RTVSPropertyOp53
 70
     1
102
RTVSPropertyOp54
 70
     1
102
RTVSPropertyOp55
 70
     1
102
RTVSPropertyOp56
 70
     1
102
RTVSPropertyOp57
 70
     1
102
RTVSPropertyOp58
 70
     1
102
RTVSPropertyOp59
 70
     1
102
RTVSPropertyOp60
 70
     1
102
RTVSPropertyOp61
 70
     1
102
RTVSPropertyOp62
 70
     1
  0
XRECORD
  5
9B4D
102
{ACAD_REACTORS
330
9B4C
102
}
330
9B4C
100
AcDbXrecord
280
     1
102
RTVSPost2010Prop28
280
     0
102
RTVSPost2010PropOp28
 70
     1
102
RTVSPost2010Prop29
280
     1
102
RTVSPost2010PropOp29
 70
     1
102
RTVSPost2010Prop30
280
     1
102
RTVSPost2010PropOp30
 70
     1
102
RTVSPost2010Prop31
280
     0
102
RTVSPost2010PropOp31
 70
     1
102
RTVSPost2010Prop32
280
     0
102
RTVSPost2010PropOp32
 70
     1
102
RTVSPost2010Prop33
280
     0
102
RTVSPost2010PropOp33
 70
     1
102
RTVSPost2010Prop34
280
     0
102
RTVSPost2010PropOp34
 70
     1
102
RTVSPost2010Prop35
280
     0
102
RTVSPost2010PropOp35
 70
     1
102
RTVSPost2010Prop36
280
     0
102
RTVSPost2010PropOp36
 70
     1
102
RTVSPost2010Prop37
 90
       50
102
RTVSPost2010PropOp37
 70
     1
102
RTVSPost2010Prop38
140
0.0
102
RTVSPost2010PropOp38
 70
     1
102
RTVSPost2010Prop39
140
1.0
102
RTVSPost2010PropOp39
 70
     1
102
RTVSPost2010Prop40
 90
        0
102
RTVSPost2010PropOp40
 70
     1
102
RTVSPost2010Prop41ColorIndex
 90
       18
102
RTVSPost2010Prop41ColorRGB
 90
        0
102
RTVSPost2010PropOp41
 70
     1
102
RTVSPost2010Prop42
 90
       50
102
RTVSPost2010PropOp42
 70
     1
102
RTVSPost2010Prop43
 90
        3
102
RTVSPost2010PropOp43
 70
     1
102
RTVSPost2010Prop44ColorIndex
 90
        5
102
RTVSPost2010Prop44ColorRGB
 90
      255
102
RTVSPost2010PropOp44
 70
     1
102
RTVSPost2010Prop45
280
     0
102
RTVSPost2010PropOp45
 70
     1
102
RTVSPost2010Prop46
 90
       50
102
RTVSPost2010PropOp46
 70
     1
102
RTVSPost2010Prop47
 90
       50
102
RTVSPost2010PropOp47
 70
     1
102
RTVSPost2010Prop48
 90
       50
102
RTVSPost2010PropOp48
 70
     1
102
RTVSPost2010Prop49
280
     0
102
RTVSPost2010PropOp49
 70
     1
102
RTVSPost2010Prop50
 90
       50
102
RTVSPost2010PropOp50
 70
     1
102
RTVSPost2010Prop51ColorIndex
 90
      256
102
RTVSPost2010Prop51ColorRGB
 90
-16777216
102
RTVSPost2010PropOp51
 70
     0
102
RTVSPost2010Prop52
140
1.0
102
RTVSPost2010PropOp52
 70
     0
102
RTVSPost2010Prop53
 90
        2
102
RTVSPost2010PropOp53
 70
     1
102
RTVSPost2010Prop54
  1
strokes_ogs.tif
102
RTVSPost2010PropOp54
 70
     1
102
RTVSPost2010Prop55
280
     0
102
RTVSPost2010PropOp55
 70
     1
102
RTVSPost2010Prop56
140
1.0
102
RTVSPost2010PropOp56
 70
     1
102
RTVSPost2010Prop57
140
1.0
102
RTVSPost2010PropOp57
 70
     1
102
RTVSPropertyOp0
 70
     1
102
RTVSPropertyOp1
 70
     1
102
RTVSPropertyOp2
 70
     1
102
RTVSPropertyOp3
 70
     1
102
RTVSPropertyOp4
 70
     1
102
RTVSPropertyOp5
 70
     1
102
RTVSPropertyOp6
 70
     1
102
RTVSPropertyOp7
 70
     1
102
RTVSPropertyOp8
 70
     1
102
RTVSPropertyOp9
 70
     1
102
RTVSPropertyOp10
 70
     1
102
RTVSPropertyOp11
 70
     1
102
RTVSPropertyOp12
 70
     1
102
RTVSPropertyOp13
 70
     1
102
RTVSPropertyOp14
 70
     1
102
RTVSPropertyOp15
 70
     1
102
RTVSPropertyOp16
 70
     1
102
RTVSPropertyOp17
 70
     1
102
RTVSPropertyOp18
 70
     1
102
RTVSPropertyOp19
 70
     1
102
RTVSPropertyOp20
 70
     1
102
RTVSPropertyOp21
 70
     1
102
RTVSPropertyOp22
 70
     1
102
RTVSPropertyOp23
 70
     1
102
RTVSPropertyOp24
 70
     1
102
RTVSPropertyOp25
 70
     1
102
RTVSPropertyOp26
 70
     1
102
RTVSPropertyOp27
 70
     1
102
RTVSPropertyOp28
 70
     1
102
RTVSPropertyOp29
 70
     1
102
RTVSPropertyOp30
 70
     1
102
RTVSPropertyOp31
 70
     1
102
RTVSPropertyOp32
 70
     1
102
RTVSPropertyOp33
 70
     1
102
RTVSPropertyOp34
 70
     1
102
RTVSPropertyOp35
 70
     1
102
RTVSPropertyOp36
 70
     1
102
RTVSPropertyOp37
 70
     1
102
RTVSPropertyOp38
 70
     1
102
RTVSPropertyOp39
 70
     1
102
RTVSPropertyOp40
 70
     1
102
RTVSPropertyOp41
 70
     1
102
RTVSPropertyOp42
 70
     1
102
RTVSPropertyOp43
 70
     1
102
RTVSPropertyOp44
 70
     1
102
RTVSPropertyOp45
 70
     1
102
RTVSPropertyOp46
 70
     1
102
RTVSPropertyOp47
 70
     1
102
RTVSPropertyOp48
 70
     1
102
RTVSPropertyOp49
 70
     1
102
RTVSPropertyOp50
 70
     1
102
RTVSPropertyOp51
 70
     0
102
RTVSPropertyOp52
 70
     0
102
RTVSPropertyOp53
 70
     1
102
RTVSPropertyOp54
 70
     1
102
RTVSPropertyOp55
 70
     1
102
RTVSPropertyOp56
 70
     1
102
RTVSPropertyOp57
 70
     1
102
RTVSPropertyOp58
 70
     1
102
RTVSPropertyOp59
 70
     1
102
RTVSPropertyOp60
 70
     1
102
RTVSPropertyOp61
 70
     1
102
RTVSPropertyOp62
 70
     1
  0
XRECORD
  5
9B3F
102
{ACAD_REACTORS
330
9B3E
102
}
330
9B3E
100
AcDbXrecord
280
     1
102
RTVSPost2010Prop28
280
     0
102
RTVSPost2010PropOp28
 70
     1
102
RTVSPost2010Prop29
280
     1
102
RTVSPost2010PropOp29
 70
     1
102
RTVSPost2010Prop30
280
     1
102
RTVSPost2010PropOp30
 70
     1
102
RTVSPost2010Prop31
280
     0
102
RTVSPost2010PropOp31
 70
     1
102
RTVSPost2010Prop32
280
     0
102
RTVSPost2010PropOp32
 70
     1
102
RTVSPost2010Prop33
280
     0
102
RTVSPost2010PropOp33
 70
     1
102
RTVSPost2010Prop34
280
     0
102
RTVSPost2010PropOp34
 70
     1
102
RTVSPost2010Prop35
280
     0
102
RTVSPost2010PropOp35
 70
     1
102
RTVSPost2010Prop36
280
     0
102
RTVSPost2010PropOp36
 70
     1
102
RTVSPost2010Prop37
 90
       50
102
RTVSPost2010PropOp37
 70
     1
102
RTVSPost2010Prop38
140
0.0
102
RTVSPost2010PropOp38
 70
     1
102
RTVSPost2010Prop39
140
1.0
102
RTVSPost2010PropOp39
 70
     1
102
RTVSPost2010Prop40
 90
        0
102
RTVSPost2010PropOp40
 70
     1
102
RTVSPost2010Prop41ColorIndex
 90
       18
102
RTVSPost2010Prop41ColorRGB
 90
        0
102
RTVSPost2010PropOp41
 70
     1
102
RTVSPost2010Prop42
 90
       50
102
RTVSPost2010PropOp42
 70
     1
102
RTVSPost2010Prop43
 90
        3
102
RTVSPost2010PropOp43
 70
     1
102
RTVSPost2010Prop44ColorIndex
 90
        5
102
RTVSPost2010Prop44ColorRGB
 90
      255
102
RTVSPost2010PropOp44
 70
     1
102
RTVSPost2010Prop45
280
     0
102
RTVSPost2010PropOp45
 70
     1
102
RTVSPost2010Prop46
 90
       50
102
RTVSPost2010PropOp46
 70
     1
102
RTVSPost2010Prop47
 90
       50
102
RTVSPost2010PropOp47
 70
     1
102
RTVSPost2010Prop48
 90
       50
102
RTVSPost2010PropOp48
 70
     1
102
RTVSPost2010Prop49
280
     0
102
RTVSPost2010PropOp49
 70
     1
102
RTVSPost2010Prop50
 90
       50
102
RTVSPost2010PropOp50
 70
     1
102
RTVSPost2010Prop51ColorIndex
 90
      256
102
RTVSPost2010Prop51ColorRGB
 90
-16777216
102
RTVSPost2010PropOp51
 70
     0
102
RTVSPost2010Prop52
140
1.0
102
RTVSPost2010PropOp52
 70
     0
102
RTVSPost2010Prop53
 90
        2
102
RTVSPost2010PropOp53
 70
     1
102
RTVSPost2010Prop54
  1
strokes_ogs.tif
102
RTVSPost2010PropOp54
 70
     1
102
RTVSPost2010Prop55
280
     0
102
RTVSPost2010PropOp55
 70
     1
102
RTVSPost2010Prop56
140
1.0
102
RTVSPost2010PropOp56
 70
     1
102
RTVSPost2010Prop57
140
1.0
102
RTVSPost2010PropOp57
 70
     1
102
RTVSPropertyOp0
 70
     1
102
RTVSPropertyOp1
 70
     1
102
RTVSPropertyOp2
 70
     1
102
RTVSPropertyOp3
 70
     1
102
RTVSPropertyOp4
 70
     1
102
RTVSPropertyOp5
 70
     1
102
RTVSPropertyOp6
 70
     1
102
RTVSPropertyOp7
 70
     1
102
RTVSPropertyOp8
 70
     1
102
RTVSPropertyOp9
 70
     1
102
RTVSPropertyOp10
 70
     1
102
RTVSPropertyOp11
 70
     1
102
RTVSPropertyOp12
 70
     1
102
RTVSPropertyOp13
 70
     1
102
RTVSPropertyOp14
 70
     1
102
RTVSPropertyOp15
 70
     1
102
RTVSPropertyOp16
 70
     1
102
RTVSPropertyOp17
 70
     1
102
RTVSPropertyOp18
 70
     1
102
RTVSPropertyOp19
 70
     1
102
RTVSPropertyOp20
 70
     1
102
RTVSPropertyOp21
 70
     1
102
RTVSPropertyOp22
 70
     1
102
RTVSPropertyOp23
 70
     1
102
RTVSPropertyOp24
 70
     1
102
RTVSPropertyOp25
 70
     1
102
RTVSPropertyOp26
 70
     1
102
RTVSPropertyOp27
 70
     1
102
RTVSPropertyOp28
 70
     1
102
RTVSPropertyOp29
 70
     1
102
RTVSPropertyOp30
 70
     1
102
RTVSPropertyOp31
 70
     1
102
RTVSPropertyOp32
 70
     1
102
RTVSPropertyOp33
 70
     1
102
RTVSPropertyOp34
 70
     1
102
RTVSPropertyOp35
 70
     1
102
RTVSPropertyOp36
 70
     1
102
RTVSPropertyOp37
 70
     1
102
RTVSPropertyOp38
 70
     1
102
RTVSPropertyOp39
 70
     1
102
RTVSPropertyOp40
 70
     1
102
RTVSPropertyOp41
 70
     1
102
RTVSPropertyOp42
 70
     1
102
RTVSPropertyOp43
 70
     1
102
RTVSPropertyOp44
 70
     1
102
RTVSPropertyOp45
 70
     1
102
RTVSPropertyOp46
 70
     1
102
RTVSPropertyOp47
 70
     1
102
RTVSPropertyOp48
 70
     1
102
RTVSPropertyOp49
 70
     1
102
RTVSPropertyOp50
 70
     1
102
RTVSPropertyOp51
 70
     0
102
RTVSPropertyOp52
 70
     0
102
RTVSPropertyOp53
 70
     1
102
RTVSPropertyOp54
 70
     1
102
RTVSPropertyOp55
 70
     1
102
RTVSPropertyOp56
 70
     1
102
RTVSPropertyOp57
 70
     1
102
RTVSPropertyOp58
 70
     1
102
RTVSPropertyOp59
 70
     1
102
RTVSPropertyOp60
 70
     1
102
RTVSPropertyOp61
 70
     1
102
RTVSPropertyOp62
 70
     1
  0
XRECORD
  5
9B43
102
{ACAD_REACTORS
330
9B42
102
}
330
9B42
100
AcDbXrecord
280
     1
102
RTVSPost2010Prop28
280
     0
102
RTVSPost2010PropOp28
 70
     1
102
RTVSPost2010Prop29
280
     1
102
RTVSPost2010PropOp29
 70
     1
102
RTVSPost2010Prop30
280
     1
102
RTVSPost2010PropOp30
 70
     1
102
RTVSPost2010Prop31
280
     0
102
RTVSPost2010PropOp31
 70
     1
102
RTVSPost2010Prop32
280
     0
102
RTVSPost2010PropOp32
 70
     1
102
RTVSPost2010Prop33
280
     0
102
RTVSPost2010PropOp33
 70
     1
102
RTVSPost2010Prop34
280
     0
102
RTVSPost2010PropOp34
 70
     1
102
RTVSPost2010Prop35
280
     0
102
RTVSPost2010PropOp35
 70
     1
102
RTVSPost2010Prop36
280
     0
102
RTVSPost2010PropOp36
 70
     1
102
RTVSPost2010Prop37
 90
       50
102
RTVSPost2010PropOp37
 70
     1
102
RTVSPost2010Prop38
140
0.0
102
RTVSPost2010PropOp38
 70
     1
102
RTVSPost2010Prop39
140
1.0
102
RTVSPost2010PropOp39
 70
     1
102
RTVSPost2010Prop40
 90
        0
102
RTVSPost2010PropOp40
 70
     1
102
RTVSPost2010Prop41ColorIndex
 90
       18
102
RTVSPost2010Prop41ColorRGB
 90
        0
102
RTVSPost2010PropOp41
 70
     1
102
RTVSPost2010Prop42
 90
       50
102
RTVSPost2010PropOp42
 70
     1
102
RTVSPost2010Prop43
 90
        3
102
RTVSPost2010PropOp43
 70
     1
102
RTVSPost2010Prop44ColorIndex
 90
        5
102
RTVSPost2010Prop44ColorRGB
 90
      255
102
RTVSPost2010PropOp44
 70
     1
102
RTVSPost2010Prop45
280
     0
102
RTVSPost2010PropOp45
 70
     1
102
RTVSPost2010Prop46
 90
       50
102
RTVSPost2010PropOp46
 70
     1
102
RTVSPost2010Prop47
 90
       50
102
RTVSPost2010PropOp47
 70
     1
102
RTVSPost2010Prop48
 90
       50
102
RTVSPost2010PropOp48
 70
     1
102
RTVSPost2010Prop49
280
     0
102
RTVSPost2010PropOp49
 70
     1
102
RTVSPost2010Prop50
 90
       50
102
RTVSPost2010PropOp50
 70
     1
102
RTVSPost2010Prop51ColorIndex
 90
      256
102
RTVSPost2010Prop51ColorRGB
 90
-16777216
102
RTVSPost2010PropOp51
 70
     0
102
RTVSPost2010Prop52
140
1.0
102
RTVSPost2010PropOp52
 70
     0
102
RTVSPost2010Prop53
 90
        2
102
RTVSPost2010PropOp53
 70
     1
102
RTVSPost2010Prop54
  1
strokes_ogs.tif
102
RTVSPost2010PropOp54
 70
     1
102
RTVSPost2010Prop55
280
     0
102
RTVSPost2010PropOp55
 70
     1
102
RTVSPost2010Prop56
140
1.0
102
RTVSPost2010PropOp56
 70
     1
102
RTVSPost2010Prop57
140
1.0
102
RTVSPost2010PropOp57
 70
     1
102
RTVSPropertyOp0
 70
     1
102
RTVSPropertyOp1
 70
     1
102
RTVSPropertyOp2
 70
     1
102
RTVSPropertyOp3
 70
     1
102
RTVSPropertyOp4
 70
     1
102
RTVSPropertyOp5
 70
     1
102
RTVSPropertyOp6
 70
     1
102
RTVSPropertyOp7
 70
     1
102
RTVSPropertyOp8
 70
     1
102
RTVSPropertyOp9
 70
     1
102
RTVSPropertyOp10
 70
     1
102
RTVSPropertyOp11
 70
     1
102
RTVSPropertyOp12
 70
     1
102
RTVSPropertyOp13
 70
     1
102
RTVSPropertyOp14
 70
     1
102
RTVSPropertyOp15
 70
     1
102
RTVSPropertyOp16
 70
     1
102
RTVSPropertyOp17
 70
     1
102
RTVSPropertyOp18
 70
     1
102
RTVSPropertyOp19
 70
     1
102
RTVSPropertyOp20
 70
     1
102
RTVSPropertyOp21
 70
     1
102
RTVSPropertyOp22
 70
     1
102
RTVSPropertyOp23
 70
     1
102
RTVSPropertyOp24
 70
     1
102
RTVSPropertyOp25
 70
     1
102
RTVSPropertyOp26
 70
     1
102
RTVSPropertyOp27
 70
     1
102
RTVSPropertyOp28
 70
     1
102
RTVSPropertyOp29
 70
     1
102
RTVSPropertyOp30
 70
     1
102
RTVSPropertyOp31
 70
     1
102
RTVSPropertyOp32
 70
     1
102
RTVSPropertyOp33
 70
     1
102
RTVSPropertyOp34
 70
     1
102
RTVSPropertyOp35
 70
     1
102
RTVSPropertyOp36
 70
     1
102
RTVSPropertyOp37
 70
     1
102
RTVSPropertyOp38
 70
     1
102
RTVSPropertyOp39
 70
     1
102
RTVSPropertyOp40
 70
     1
102
RTVSPropertyOp41
 70
     1
102
RTVSPropertyOp42
 70
     1
102
RTVSPropertyOp43
 70
     1
102
RTVSPropertyOp44
 70
     1
102
RTVSPropertyOp45
 70
     1
102
RTVSPropertyOp46
 70
     1
102
RTVSPropertyOp47
 70
     1
102
RTVSPropertyOp48
 70
     1
102
RTVSPropertyOp49
 70
     1
102
RTVSPropertyOp50
 70
     1
102
RTVSPropertyOp51
 70
     0
102
RTVSPropertyOp52
 70
     0
102
RTVSPropertyOp53
 70
     1
102
RTVSPropertyOp54
 70
     1
102
RTVSPropertyOp55
 70
     1
102
RTVSPropertyOp56
 70
     1
102
RTVSPropertyOp57
 70
     1
102
RTVSPropertyOp58
 70
     1
102
RTVSPropertyOp59
 70
     1
102
RTVSPropertyOp60
 70
     1
102
RTVSPropertyOp61
 70
     1
102
RTVSPropertyOp62
 70
     1
  0
XRECORD
  5
9B5D
102
{ACAD_REACTORS
330
9B5C
102
}
330
9B5C
100
AcDbXrecord
280
     1
102
RTVSPost2010Prop28
280
     0
102
RTVSPost2010PropOp28
 70
     1
102
RTVSPost2010Prop29
280
     1
102
RTVSPost2010PropOp29
 70
     1
102
RTVSPost2010Prop30
280
     1
102
RTVSPost2010PropOp30
 70
     1
102
RTVSPost2010Prop31
280
     0
102
RTVSPost2010PropOp31
 70
     1
102
RTVSPost2010Prop32
280
     0
102
RTVSPost2010PropOp32
 70
     1
102
RTVSPost2010Prop33
280
     0
102
RTVSPost2010PropOp33
 70
     1
102
RTVSPost2010Prop34
280
     0
102
RTVSPost2010PropOp34
 70
     1
102
RTVSPost2010Prop35
280
     0
102
RTVSPost2010PropOp35
 70
     1
102
RTVSPost2010Prop36
280
     0
102
RTVSPost2010PropOp36
 70
     1
102
RTVSPost2010Prop37
 90
       50
102
RTVSPost2010PropOp37
 70
     0
102
RTVSPost2010Prop38
140
0.0
102
RTVSPost2010PropOp38
 70
     0
102
RTVSPost2010Prop39
140
1.0
102
RTVSPost2010PropOp39
 70
     0
102
RTVSPost2010Prop40
 90
        0
102
RTVSPost2010PropOp40
 70
     0
102
RTVSPost2010Prop41ColorIndex
 90
       18
102
RTVSPost2010Prop41ColorRGB
 90
        0
102
RTVSPost2010PropOp41
 70
     0
102
RTVSPost2010Prop42
 90
       50
102
RTVSPost2010PropOp42
 70
     0
102
RTVSPost2010Prop43
 90
        3
102
RTVSPost2010PropOp43
 70
     0
102
RTVSPost2010Prop44ColorIndex
 90
        5
102
RTVSPost2010Prop44ColorRGB
 90
      255
102
RTVSPost2010PropOp44
 70
     0
102
RTVSPost2010Prop45
280
     0
102
RTVSPost2010PropOp45
 70
     1
102
RTVSPost2010Prop46
 90
       50
102
RTVSPost2010PropOp46
 70
     0
102
RTVSPost2010Prop47
 90
       50
102
RTVSPost2010PropOp47
 70
     0
102
RTVSPost2010Prop48
 90
       50
102
RTVSPost2010PropOp48
 70
     0
102
RTVSPost2010Prop49
280
     0
102
RTVSPost2010PropOp49
 70
     1
102
RTVSPost2010Prop50
 90
       50
102
RTVSPost2010PropOp50
 70
     0
102
RTVSPost2010Prop51ColorIndex
 90
      256
102
RTVSPost2010Prop51ColorRGB
 90
-16777216
102
RTVSPost2010PropOp51
 70
     0
102
RTVSPost2010Prop52
140
1.0
102
RTVSPost2010PropOp52
 70
     0
102
RTVSPost2010Prop53
 90
        2
102
RTVSPost2010PropOp53
 70
     0
102
RTVSPost2010Prop54
  1
strokes_ogs.tif
102
RTVSPost2010PropOp54
 70
     0
102
RTVSPost2010Prop55
280
     0
102
RTVSPost2010PropOp55
 70
     1
102
RTVSPost2010Prop56
140
1.0
102
RTVSPost2010PropOp56
 70
     0
102
RTVSPost2010Prop57
140
1.0
102
RTVSPost2010PropOp57
 70
     0
102
RTVSPropertyOp0
 70
     0
102
RTVSPropertyOp1
 70
     0
102
RTVSPropertyOp2
 70
     0
102
RTVSPropertyOp3
 70
     0
102
RTVSPropertyOp4
 70
     0
102
RTVSPropertyOp5
 70
     0
102
RTVSPropertyOp6
 70
     0
102
RTVSPropertyOp7
 70
     0
102
RTVSPropertyOp8
 70
     0
102
RTVSPropertyOp9
 70
     0
102
RTVSPropertyOp10
 70
     0
102
RTVSPropertyOp11
 70
     0
102
RTVSPropertyOp12
 70
     0
102
RTVSPropertyOp13
 70
     0
102
RTVSPropertyOp14
 70
     2
102
RTVSPropertyOp15
 70
     0
102
RTVSPropertyOp16
 70
     0
102
RTVSPropertyOp17
 70
     0
102
RTVSPropertyOp18
 70
     0
102
RTVSPropertyOp19
 70
     0
102
RTVSPropertyOp20
 70
     0
102
RTVSPropertyOp21
 70
     0
102
RTVSPropertyOp22
 70
     0
102
RTVSPropertyOp23
 70
     0
102
RTVSPropertyOp24
 70
     0
102
RTVSPropertyOp25
 70
     0
102
RTVSPropertyOp26
 70
     0
102
RTVSPropertyOp27
 70
     0
102
RTVSPropertyOp28
 70
     1
102
RTVSPropertyOp29
 70
     1
102
RTVSPropertyOp30
 70
     1
102
RTVSPropertyOp31
 70
     1
102
RTVSPropertyOp32
 70
     1
102
RTVSPropertyOp33
 70
     1
102
RTVSPropertyOp34
 70
     1
102
RTVSPropertyOp35
 70
     1
102
RTVSPropertyOp36
 70
     1
102
RTVSPropertyOp37
 70
     0
102
RTVSPropertyOp38
 70
     0
102
RTVSPropertyOp39
 70
     0
102
RTVSPropertyOp40
 70
     0
102
RTVSPropertyOp41
 70
     0
102
RTVSPropertyOp42
 70
     0
102
RTVSPropertyOp43
 70
     0
102
RTVSPropertyOp44
 70
     0
102
RTVSPropertyOp45
 70
     1
102
RTVSPropertyOp46
 70
     0
102
RTVSPropertyOp47
 70
     0
102
RTVSPropertyOp48
 70
     0
102
RTVSPropertyOp49
 70
     1
102
RTVSPropertyOp50
 70
     0
102
RTVSPropertyOp51
 70
     0
102
RTVSPropertyOp52
 70
     0
102
RTVSPropertyOp53
 70
     0
102
RTVSPropertyOp54
 70
     0
102
RTVSPropertyOp55
 70
     1
102
RTVSPropertyOp56
 70
     0
102
RTVSPropertyOp57
 70
     0
102
RTVSPropertyOp58
 70
     0
102
RTVSPropertyOp59
 70
     0
102
RTVSPropertyOp60
 70
     0
102
RTVSPropertyOp61
 70
     0
102
RTVSPropertyOp62
 70
     0
  0
XRECORD
  5
9B4B
102
{ACAD_REACTORS
330
9B4A
102
}
330
9B4A
100
AcDbXrecord
280
     1
102
RTVSPost2010Prop28
280
     0
102
RTVSPost2010PropOp28
 70
     1
102
RTVSPost2010Prop29
280
     1
102
RTVSPost2010PropOp29
 70
     1
102
RTVSPost2010Prop30
280
     1
102
RTVSPost2010PropOp30
 70
     1
102
RTVSPost2010Prop31
280
     0
102
RTVSPost2010PropOp31
 70
     1
102
RTVSPost2010Prop32
280
     0
102
RTVSPost2010PropOp32
 70
     1
102
RTVSPost2010Prop33
280
     0
102
RTVSPost2010PropOp33
 70
     1
102
RTVSPost2010Prop34
280
     0
102
RTVSPost2010PropOp34
 70
     1
102
RTVSPost2010Prop35
280
     0
102
RTVSPost2010PropOp35
 70
     1
102
RTVSPost2010Prop36
280
     0
102
RTVSPost2010PropOp36
 70
     1
102
RTVSPost2010Prop37
 90
       50
102
RTVSPost2010PropOp37
 70
     1
102
RTVSPost2010Prop38
140
0.0
102
RTVSPost2010PropOp38
 70
     1
102
RTVSPost2010Prop39
140
1.0
102
RTVSPost2010PropOp39
 70
     1
102
RTVSPost2010Prop40
 90
        0
102
RTVSPost2010PropOp40
 70
     1
102
RTVSPost2010Prop41ColorIndex
 90
       18
102
RTVSPost2010Prop41ColorRGB
 90
        0
102
RTVSPost2010PropOp41
 70
     1
102
RTVSPost2010Prop42
 90
       50
102
RTVSPost2010PropOp42
 70
     1
102
RTVSPost2010Prop43
 90
        3
102
RTVSPost2010PropOp43
 70
     1
102
RTVSPost2010Prop44ColorIndex
 90
        5
102
RTVSPost2010Prop44ColorRGB
 90
      255
102
RTVSPost2010PropOp44
 70
     1
102
RTVSPost2010Prop45
280
     0
102
RTVSPost2010PropOp45
 70
     1
102
RTVSPost2010Prop46
 90
       50
102
RTVSPost2010PropOp46
 70
     1
102
RTVSPost2010Prop47
 90
       50
102
RTVSPost2010PropOp47
 70
     1
102
RTVSPost2010Prop48
 90
       50
102
RTVSPost2010PropOp48
 70
     1
102
RTVSPost2010Prop49
280
     0
102
RTVSPost2010PropOp49
 70
     1
102
RTVSPost2010Prop50
 90
       50
102
RTVSPost2010PropOp50
 70
     1
102
RTVSPost2010Prop51ColorIndex
 90
      256
102
RTVSPost2010Prop51ColorRGB
 90
-16777216
102
RTVSPost2010PropOp51
 70
     0
102
RTVSPost2010Prop52
140
1.0
102
RTVSPost2010PropOp52
 70
     0
102
RTVSPost2010Prop53
 90
        2
102
RTVSPost2010PropOp53
 70
     1
102
RTVSPost2010Prop54
  1
strokes_ogs.tif
102
RTVSPost2010PropOp54
 70
     1
102
RTVSPost2010Prop55
280
     0
102
RTVSPost2010PropOp55
 70
     1
102
RTVSPost2010Prop56
140
1.0
102
RTVSPost2010PropOp56
 70
     1
102
RTVSPost2010Prop57
140
1.0
102
RTVSPost2010PropOp57
 70
     1
102
RTVSPropertyOp0
 70
     1
102
RTVSPropertyOp1
 70
     1
102
RTVSPropertyOp2
 70
     1
102
RTVSPropertyOp3
 70
     1
102
RTVSPropertyOp4
 70
     1
102
RTVSPropertyOp5
 70
     1
102
RTVSPropertyOp6
 70
     1
102
RTVSPropertyOp7
 70
     1
102
RTVSPropertyOp8
 70
     1
102
RTVSPropertyOp9
 70
     1
102
RTVSPropertyOp10
 70
     1
102
RTVSPropertyOp11
 70
     1
102
RTVSPropertyOp12
 70
     1
102
RTVSPropertyOp13
 70
     1
102
RTVSPropertyOp14
 70
     1
102
RTVSPropertyOp15
 70
     1
102
RTVSPropertyOp16
 70
     1
102
RTVSPropertyOp17
 70
     1
102
RTVSPropertyOp18
 70
     1
102
RTVSPropertyOp19
 70
     1
102
RTVSPropertyOp20
 70
     1
102
RTVSPropertyOp21
 70
     1
102
RTVSPropertyOp22
 70
     1
102
RTVSPropertyOp23
 70
     1
102
RTVSPropertyOp24
 70
     1
102
RTVSPropertyOp25
 70
     1
102
RTVSPropertyOp26
 70
     1
102
RTVSPropertyOp27
 70
     1
102
RTVSPropertyOp28
 70
     1
102
RTVSPropertyOp29
 70
     1
102
RTVSPropertyOp30
 70
     1
102
RTVSPropertyOp31
 70
     1
102
RTVSPropertyOp32
 70
     1
102
RTVSPropertyOp33
 70
     1
102
RTVSPropertyOp34
 70
     1
102
RTVSPropertyOp35
 70
     1
102
RTVSPropertyOp36
 70
     1
102
RTVSPropertyOp37
 70
     1
102
RTVSPropertyOp38
 70
     1
102
RTVSPropertyOp39
 70
     1
102
RTVSPropertyOp40
 70
     1
102
RTVSPropertyOp41
 70
     1
102
RTVSPropertyOp42
 70
     1
102
RTVSPropertyOp43
 70
     1
102
RTVSPropertyOp44
 70
     1
102
RTVSPropertyOp45
 70
     1
102
RTVSPropertyOp46
 70
     1
102
RTVSPropertyOp47
 70
     1
102
RTVSPropertyOp48
 70
     1
102
RTVSPropertyOp49
 70
     1
102
RTVSPropertyOp50
 70
     1
102
RTVSPropertyOp51
 70
     0
102
RTVSPropertyOp52
 70
     0
102
RTVSPropertyOp53
 70
     1
102
RTVSPropertyOp54
 70
     1
102
RTVSPropertyOp55
 70
     1
102
RTVSPropertyOp56
 70
     1
102
RTVSPropertyOp57
 70
     1
102
RTVSPropertyOp58
 70
     1
102
RTVSPropertyOp59
 70
     1
102
RTVSPropertyOp60
 70
     1
102
RTVSPropertyOp61
 70
     1
102
RTVSPropertyOp62
 70
     1
  0
XRECORD
  5
9B2F
102
{ACAD_REACTORS
330
9B2E
102
}
330
9B2E
100
AcDbXrecord
280
     1
102
RTVSPost2010Prop28
280
     0
102
RTVSPost2010PropOp28
 70
     1
102
RTVSPost2010Prop29
280
     1
102
RTVSPost2010PropOp29
 70
     1
102
RTVSPost2010Prop30
280
     1
102
RTVSPost2010PropOp30
 70
     1
102
RTVSPost2010Prop31
280
     0
102
RTVSPost2010PropOp31
 70
     1
102
RTVSPost2010Prop32
280
     0
102
RTVSPost2010PropOp32
 70
     1
102
RTVSPost2010Prop33
280
     0
102
RTVSPost2010PropOp33
 70
     1
102
RTVSPost2010Prop34
280
     0
102
RTVSPost2010PropOp34
 70
     1
102
RTVSPost2010Prop35
280
     0
102
RTVSPost2010PropOp35
 70
     1
102
RTVSPost2010Prop36
280
     0
102
RTVSPost2010PropOp36
 70
     1
102
RTVSPost2010Prop37
 90
       50
102
RTVSPost2010PropOp37
 70
     1
102
RTVSPost2010Prop38
140
0.0
102
RTVSPost2010PropOp38
 70
     1
102
RTVSPost2010Prop39
140
1.0
102
RTVSPost2010PropOp39
 70
     1
102
RTVSPost2010Prop40
 90
        0
102
RTVSPost2010PropOp40
 70
     1
102
RTVSPost2010Prop41ColorIndex
 90
       18
102
RTVSPost2010Prop41ColorRGB
 90
        0
102
RTVSPost2010PropOp41
 70
     1
102
RTVSPost2010Prop42
 90
       50
102
RTVSPost2010PropOp42
 70
     1
102
RTVSPost2010Prop43
 90
        3
102
RTVSPost2010PropOp43
 70
     1
102
RTVSPost2010Prop44ColorIndex
 90
        5
102
RTVSPost2010Prop44ColorRGB
 90
      255
102
RTVSPost2010PropOp44
 70
     1
102
RTVSPost2010Prop45
280
     0
102
RTVSPost2010PropOp45
 70
     1
102
RTVSPost2010Prop46
 90
       50
102
RTVSPost2010PropOp46
 70
     1
102
RTVSPost2010Prop47
 90
       50
102
RTVSPost2010PropOp47
 70
     1
102
RTVSPost2010Prop48
 90
       50
102
RTVSPost2010PropOp48
 70
     1
102
RTVSPost2010Prop49
280
     0
102
RTVSPost2010PropOp49
 70
     1
102
RTVSPost2010Prop50
 90
       50
102
RTVSPost2010PropOp50
 70
     1
102
RTVSPost2010Prop51ColorIndex
 90
      256
102
RTVSPost2010Prop51ColorRGB
 90
-16777216
102
RTVSPost2010PropOp51
 70
     0
102
RTVSPost2010Prop52
140
1.0
102
RTVSPost2010PropOp52
 70
     0
102
RTVSPost2010Prop53
 90
        2
102
RTVSPost2010PropOp53
 70
     1
102
RTVSPost2010Prop54
  1
strokes_ogs.tif
102
RTVSPost2010PropOp54
 70
     1
102
RTVSPost2010Prop55
280
     0
102
RTVSPost2010PropOp55
 70
     1
102
RTVSPost2010Prop56
140
1.0
102
RTVSPost2010PropOp56
 70
     1
102
RTVSPost2010Prop57
140
1.0
102
RTVSPost2010PropOp57
 70
     1
102
RTVSPropertyOp0
 70
     1
102
RTVSPropertyOp1
 70
     1
102
RTVSPropertyOp2
 70
     1
102
RTVSPropertyOp3
 70
     1
102
RTVSPropertyOp4
 70
     1
102
RTVSPropertyOp5
 70
     1
102
RTVSPropertyOp6
 70
     1
102
RTVSPropertyOp7
 70
     1
102
RTVSPropertyOp8
 70
     1
102
RTVSPropertyOp9
 70
     1
102
RTVSPropertyOp10
 70
     1
102
RTVSPropertyOp11
 70
     1
102
RTVSPropertyOp12
 70
     1
102
RTVSPropertyOp13
 70
     1
102
RTVSPropertyOp14
 70
     1
102
RTVSPropertyOp15
 70
     1
102
RTVSPropertyOp16
 70
     1
102
RTVSPropertyOp17
 70
     1
102
RTVSPropertyOp18
 70
     1
102
RTVSPropertyOp19
 70
     1
102
RTVSPropertyOp20
 70
     1
102
RTVSPropertyOp21
 70
     1
102
RTVSPropertyOp22
 70
     1
102
RTVSPropertyOp23
 70
     1
102
RTVSPropertyOp24
 70
     1
102
RTVSPropertyOp25
 70
     1
102
RTVSPropertyOp26
 70
     1
102
RTVSPropertyOp27
 70
     1
102
RTVSPropertyOp28
 70
     1
102
RTVSPropertyOp29
 70
     1
102
RTVSPropertyOp30
 70
     1
102
RTVSPropertyOp31
 70
     1
102
RTVSPropertyOp32
 70
     1
102
RTVSPropertyOp33
 70
     1
102
RTVSPropertyOp34
 70
     1
102
RTVSPropertyOp35
 70
     1
102
RTVSPropertyOp36
 70
     1
102
RTVSPropertyOp37
 70
     1
102
RTVSPropertyOp38
 70
     1
102
RTVSPropertyOp39
 70
     1
102
RTVSPropertyOp40
 70
     1
102
RTVSPropertyOp41
 70
     1
102
RTVSPropertyOp42
 70
     1
102
RTVSPropertyOp43
 70
     1
102
RTVSPropertyOp44
 70
     1
102
RTVSPropertyOp45
 70
     1
102
RTVSPropertyOp46
 70
     1
102
RTVSPropertyOp47
 70
     1
102
RTVSPropertyOp48
 70
     1
102
RTVSPropertyOp49
 70
     1
102
RTVSPropertyOp50
 70
     1
102
RTVSPropertyOp51
 70
     0
102
RTVSPropertyOp52
 70
     0
102
RTVSPropertyOp53
 70
     1
102
RTVSPropertyOp54
 70
     1
102
RTVSPropertyOp55
 70
     1
102
RTVSPropertyOp56
 70
     1
102
RTVSPropertyOp57
 70
     1
102
RTVSPropertyOp58
 70
     1
102
RTVSPropertyOp59
 70
     1
102
RTVSPropertyOp60
 70
     1
102
RTVSPropertyOp61
 70
     1
102
RTVSPropertyOp62
 70
     1
  0
XRECORD
  5
9B31
102
{ACAD_REACTORS
330
9B30
102
}
330
9B30
100
AcDbXrecord
280
     1
102
RTVSPost2010Prop28
280
     0
102
RTVSPost2010PropOp28
 70
     1
102
RTVSPost2010Prop29
280
     1
102
RTVSPost2010PropOp29
 70
     1
102
RTVSPost2010Prop30
280
     1
102
RTVSPost2010PropOp30
 70
     1
102
RTVSPost2010Prop31
280
     0
102
RTVSPost2010PropOp31
 70
     1
102
RTVSPost2010Prop32
280
     0
102
RTVSPost2010PropOp32
 70
     1
102
RTVSPost2010Prop33
280
     0
102
RTVSPost2010PropOp33
 70
     1
102
RTVSPost2010Prop34
280
     0
102
RTVSPost2010PropOp34
 70
     1
102
RTVSPost2010Prop35
280
     0
102
RTVSPost2010PropOp35
 70
     1
102
RTVSPost2010Prop36
280
     0
102
RTVSPost2010PropOp36
 70
     1
102
RTVSPost2010Prop37
 90
       50
102
RTVSPost2010PropOp37
 70
     1
102
RTVSPost2010Prop38
140
0.0
102
RTVSPost2010PropOp38
 70
     1
102
RTVSPost2010Prop39
140
1.0
102
RTVSPost2010PropOp39
 70
     1
102
RTVSPost2010Prop40
 90
        0
102
RTVSPost2010PropOp40
 70
     1
102
RTVSPost2010Prop41ColorIndex
 90
       18
102
RTVSPost2010Prop41ColorRGB
 90
        0
102
RTVSPost2010PropOp41
 70
     1
102
RTVSPost2010Prop42
 90
       50
102
RTVSPost2010PropOp42
 70
     1
102
RTVSPost2010Prop43
 90
        3
102
RTVSPost2010PropOp43
 70
     1
102
RTVSPost2010Prop44ColorIndex
 90
        5
102
RTVSPost2010Prop44ColorRGB
 90
      255
102
RTVSPost2010PropOp44
 70
     1
102
RTVSPost2010Prop45
280
     0
102
RTVSPost2010PropOp45
 70
     1
102
RTVSPost2010Prop46
 90
       50
102
RTVSPost2010PropOp46
 70
     1
102
RTVSPost2010Prop47
 90
       50
102
RTVSPost2010PropOp47
 70
     1
102
RTVSPost2010Prop48
 90
       50
102
RTVSPost2010PropOp48
 70
     1
102
RTVSPost2010Prop49
280
     0
102
RTVSPost2010PropOp49
 70
     1
102
RTVSPost2010Prop50
 90
       50
102
RTVSPost2010PropOp50
 70
     1
102
RTVSPost2010Prop51ColorIndex
 90
      256
102
RTVSPost2010Prop51ColorRGB
 90
-16777216
102
RTVSPost2010PropOp51
 70
     0
102
RTVSPost2010Prop52
140
1.0
102
RTVSPost2010PropOp52
 70
     0
102
RTVSPost2010Prop53
 90
        2
102
RTVSPost2010PropOp53
 70
     1
102
RTVSPost2010Prop54
  1
strokes_ogs.tif
102
RTVSPost2010PropOp54
 70
     1
102
RTVSPost2010Prop55
280
     0
102
RTVSPost2010PropOp55
 70
     1
102
RTVSPost2010Prop56
140
1.0
102
RTVSPost2010PropOp56
 70
     1
102
RTVSPost2010Prop57
140
1.0
102
RTVSPost2010PropOp57
 70
     1
102
RTVSPropertyOp0
 70
     1
102
RTVSPropertyOp1
 70
     1
102
RTVSPropertyOp2
 70
     1
102
RTVSPropertyOp3
 70
     1
102
RTVSPropertyOp4
 70
     1
102
RTVSPropertyOp5
 70
     1
102
RTVSPropertyOp6
 70
     1
102
RTVSPropertyOp7
 70
     1
102
RTVSPropertyOp8
 70
     1
102
RTVSPropertyOp9
 70
     1
102
RTVSPropertyOp10
 70
     1
102
RTVSPropertyOp11
 70
     1
102
RTVSPropertyOp12
 70
     1
102
RTVSPropertyOp13
 70
     1
102
RTVSPropertyOp14
 70
     1
102
RTVSPropertyOp15
 70
     1
102
RTVSPropertyOp16
 70
     1
102
RTVSPropertyOp17
 70
     1
102
RTVSPropertyOp18
 70
     1
102
RTVSPropertyOp19
 70
     1
102
RTVSPropertyOp20
 70
     1
102
RTVSPropertyOp21
 70
     1
102
RTVSPropertyOp22
 70
     1
102
RTVSPropertyOp23
 70
     1
102
RTVSPropertyOp24
 70
     1
102
RTVSPropertyOp25
 70
     1
102
RTVSPropertyOp26
 70
     1
102
RTVSPropertyOp27
 70
     1
102
RTVSPropertyOp28
 70
     1
102
RTVSPropertyOp29
 70
     1
102
RTVSPropertyOp30
 70
     1
102
RTVSPropertyOp31
 70
     1
102
RTVSPropertyOp32
 70
     1
102
RTVSPropertyOp33
 70
     1
102
RTVSPropertyOp34
 70
     1
102
RTVSPropertyOp35
 70
     1
102
RTVSPropertyOp36
 70
     1
102
RTVSPropertyOp37
 70
     1
102
RTVSPropertyOp38
 70
     1
102
RTVSPropertyOp39
 70
     1
102
RTVSPropertyOp40
 70
     1
102
RTVSPropertyOp41
 70
     1
102
RTVSPropertyOp42
 70
     1
102
RTVSPropertyOp43
 70
     1
102
RTVSPropertyOp44
 70
     1
102
RTVSPropertyOp45
 70
     1
102
RTVSPropertyOp46
 70
     1
102
RTVSPropertyOp47
 70
     1
102
RTVSPropertyOp48
 70
     1
102
RTVSPropertyOp49
 70
     1
102
RTVSPropertyOp50
 70
     1
102
RTVSPropertyOp51
 70
     0
102
RTVSPropertyOp52
 70
     0
102
RTVSPropertyOp53
 70
     1
102
RTVSPropertyOp54
 70
     1
102
RTVSPropertyOp55
 70
     1
102
RTVSPropertyOp56
 70
     1
102
RTVSPropertyOp57
 70
     1
102
RTVSPropertyOp58
 70
     1
102
RTVSPropertyOp59
 70
     1
102
RTVSPropertyOp60
 70
     1
102
RTVSPropertyOp61
 70
     1
102
RTVSPropertyOp62
 70
     1
  0
XRECORD
  5
9B33
102
{ACAD_REACTORS
330
9B32
102
}
330
9B32
100
AcDbXrecord
280
     1
102
RTVSPost2010Prop28
280
     0
102
RTVSPost2010PropOp28
 70
     1
102
RTVSPost2010Prop29
280
     1
102
RTVSPost2010PropOp29
 70
     1
102
RTVSPost2010Prop30
280
     1
102
RTVSPost2010PropOp30
 70
     1
102
RTVSPost2010Prop31
280
     0
102
RTVSPost2010PropOp31
 70
     1
102
RTVSPost2010Prop32
280
     0
102
RTVSPost2010PropOp32
 70
     1
102
RTVSPost2010Prop33
280
     0
102
RTVSPost2010PropOp33
 70
     1
102
RTVSPost2010Prop34
280
     0
102
RTVSPost2010PropOp34
 70
     1
102
RTVSPost2010Prop35
280
     0
102
RTVSPost2010PropOp35
 70
     1
102
RTVSPost2010Prop36
280
     0
102
RTVSPost2010PropOp36
 70
     1
102
RTVSPost2010Prop37
 90
       50
102
RTVSPost2010PropOp37
 70
     1
102
RTVSPost2010Prop38
140
0.0
102
RTVSPost2010PropOp38
 70
     1
102
RTVSPost2010Prop39
140
1.0
102
RTVSPost2010PropOp39
 70
     1
102
RTVSPost2010Prop40
 90
        0
102
RTVSPost2010PropOp40
 70
     1
102
RTVSPost2010Prop41ColorIndex
 90
       18
102
RTVSPost2010Prop41ColorRGB
 90
        0
102
RTVSPost2010PropOp41
 70
     1
102
RTVSPost2010Prop42
 90
       50
102
RTVSPost2010PropOp42
 70
     1
102
RTVSPost2010Prop43
 90
        3
102
RTVSPost2010PropOp43
 70
     1
102
RTVSPost2010Prop44ColorIndex
 90
        5
102
RTVSPost2010Prop44ColorRGB
 90
      255
102
RTVSPost2010PropOp44
 70
     1
102
RTVSPost2010Prop45
280
     0
102
RTVSPost2010PropOp45
 70
     1
102
RTVSPost2010Prop46
 90
       50
102
RTVSPost2010PropOp46
 70
     1
102
RTVSPost2010Prop47
 90
       50
102
RTVSPost2010PropOp47
 70
     1
102
RTVSPost2010Prop48
 90
       50
102
RTVSPost2010PropOp48
 70
     1
102
RTVSPost2010Prop49
280
     0
102
RTVSPost2010PropOp49
 70
     1
102
RTVSPost2010Prop50
 90
       50
102
RTVSPost2010PropOp50
 70
     1
102
RTVSPost2010Prop51ColorIndex
 90
      256
102
RTVSPost2010Prop51ColorRGB
 90
-16777216
102
RTVSPost2010PropOp51
 70
     0
102
RTVSPost2010Prop52
140
1.0
102
RTVSPost2010PropOp52
 70
     0
102
RTVSPost2010Prop53
 90
        2
102
RTVSPost2010PropOp53
 70
     1
102
RTVSPost2010Prop54
  1
strokes_ogs.tif
102
RTVSPost2010PropOp54
 70
     1
102
RTVSPost2010Prop55
280
     0
102
RTVSPost2010PropOp55
 70
     1
102
RTVSPost2010Prop56
140
1.0
102
RTVSPost2010PropOp56
 70
     1
102
RTVSPost2010Prop57
140
1.0
102
RTVSPost2010PropOp57
 70
     1
102
RTVSPropertyOp0
 70
     1
102
RTVSPropertyOp1
 70
     1
102
RTVSPropertyOp2
 70
     1
102
RTVSPropertyOp3
 70
     1
102
RTVSPropertyOp4
 70
     1
102
RTVSPropertyOp5
 70
     1
102
RTVSPropertyOp6
 70
     1
102
RTVSPropertyOp7
 70
     1
102
RTVSPropertyOp8
 70
     1
102
RTVSPropertyOp9
 70
     1
102
RTVSPropertyOp10
 70
     1
102
RTVSPropertyOp11
 70
     1
102
RTVSPropertyOp12
 70
     1
102
RTVSPropertyOp13
 70
     1
102
RTVSPropertyOp14
 70
     1
102
RTVSPropertyOp15
 70
     1
102
RTVSPropertyOp16
 70
     1
102
RTVSPropertyOp17
 70
     1
102
RTVSPropertyOp18
 70
     1
102
RTVSPropertyOp19
 70
     1
102
RTVSPropertyOp20
 70
     1
102
RTVSPropertyOp21
 70
     1
102
RTVSPropertyOp22
 70
     1
102
RTVSPropertyOp23
 70
     1
102
RTVSPropertyOp24
 70
     1
102
RTVSPropertyOp25
 70
     1
102
RTVSPropertyOp26
 70
     1
102
RTVSPropertyOp27
 70
     1
102
RTVSPropertyOp28
 70
     1
102
RTVSPropertyOp29
 70
     1
102
RTVSPropertyOp30
 70
     1
102
RTVSPropertyOp31
 70
     1
102
RTVSPropertyOp32
 70
     1
102
RTVSPropertyOp33
 70
     1
102
RTVSPropertyOp34
 70
     1
102
RTVSPropertyOp35
 70
     1
102
RTVSPropertyOp36
 70
     1
102
RTVSPropertyOp37
 70
     1
102
RTVSPropertyOp38
 70
     1
102
RTVSPropertyOp39
 70
     1
102
RTVSPropertyOp40
 70
     1
102
RTVSPropertyOp41
 70
     1
102
RTVSPropertyOp42
 70
     1
102
RTVSPropertyOp43
 70
     1
102
RTVSPropertyOp44
 70
     1
102
RTVSPropertyOp45
 70
     1
102
RTVSPropertyOp46
 70
     1
102
RTVSPropertyOp47
 70
     1
102
RTVSPropertyOp48
 70
     1
102
RTVSPropertyOp49
 70
     1
102
RTVSPropertyOp50
 70
     1
102
RTVSPropertyOp51
 70
     0
102
RTVSPropertyOp52
 70
     0
102
RTVSPropertyOp53
 70
     1
102
RTVSPropertyOp54
 70
     1
102
RTVSPropertyOp55
 70
     1
102
RTVSPropertyOp56
 70
     1
102
RTVSPropertyOp57
 70
     1
102
RTVSPropertyOp58
 70
     1
102
RTVSPropertyOp59
 70
     1
102
RTVSPropertyOp60
 70
     1
102
RTVSPropertyOp61
 70
     1
102
RTVSPropertyOp62
 70
     1
  0
XRECORD
  5
9B35
102
{ACAD_REACTORS
330
9B34
102
}
330
9B34
100
AcDbXrecord
280
     1
102
RTVSPost2010Prop28
280
     0
102
RTVSPost2010PropOp28
 70
     1
102
RTVSPost2010Prop29
280
     1
102
RTVSPost2010PropOp29
 70
     1
102
RTVSPost2010Prop30
280
     1
102
RTVSPost2010PropOp30
 70
     1
102
RTVSPost2010Prop31
280
     0
102
RTVSPost2010PropOp31
 70
     1
102
RTVSPost2010Prop32
280
     0
102
RTVSPost2010PropOp32
 70
     1
102
RTVSPost2010Prop33
280
     0
102
RTVSPost2010PropOp33
 70
     1
102
RTVSPost2010Prop34
280
     0
102
RTVSPost2010PropOp34
 70
     1
102
RTVSPost2010Prop35
280
     0
102
RTVSPost2010PropOp35
 70
     1
102
RTVSPost2010Prop36
280
     0
102
RTVSPost2010PropOp36
 70
     1
102
RTVSPost2010Prop37
 90
       50
102
RTVSPost2010PropOp37
 70
     1
102
RTVSPost2010Prop38
140
0.0
102
RTVSPost2010PropOp38
 70
     1
102
RTVSPost2010Prop39
140
1.0
102
RTVSPost2010PropOp39
 70
     1
102
RTVSPost2010Prop40
 90
        0
102
RTVSPost2010PropOp40
 70
     1
102
RTVSPost2010Prop41ColorIndex
 90
       18
102
RTVSPost2010Prop41ColorRGB
 90
        0
102
RTVSPost2010PropOp41
 70
     1
102
RTVSPost2010Prop42
 90
       50
102
RTVSPost2010PropOp42
 70
     1
102
RTVSPost2010Prop43
 90
        3
102
RTVSPost2010PropOp43
 70
     1
102
RTVSPost2010Prop44ColorIndex
 90
        5
102
RTVSPost2010Prop44ColorRGB
 90
      255
102
RTVSPost2010PropOp44
 70
     1
102
RTVSPost2010Prop45
280
     0
102
RTVSPost2010PropOp45
 70
     1
102
RTVSPost2010Prop46
 90
       50
102
RTVSPost2010PropOp46
 70
     1
102
RTVSPost2010Prop47
 90
       50
102
RTVSPost2010PropOp47
 70
     1
102
RTVSPost2010Prop48
 90
       50
102
RTVSPost2010PropOp48
 70
     1
102
RTVSPost2010Prop49
280
     0
102
RTVSPost2010PropOp49
 70
     1
102
RTVSPost2010Prop50
 90
       50
102
RTVSPost2010PropOp50
 70
     1
102
RTVSPost2010Prop51ColorIndex
 90
      256
102
RTVSPost2010Prop51ColorRGB
 90
-16777216
102
RTVSPost2010PropOp51
 70
     0
102
RTVSPost2010Prop52
140
1.0
102
RTVSPost2010PropOp52
 70
     0
102
RTVSPost2010Prop53
 90
        2
102
RTVSPost2010PropOp53
 70
     1
102
RTVSPost2010Prop54
  1
strokes_ogs.tif
102
RTVSPost2010PropOp54
 70
     1
102
RTVSPost2010Prop55
280
     0
102
RTVSPost2010PropOp55
 70
     1
102
RTVSPost2010Prop56
140
1.0
102
RTVSPost2010PropOp56
 70
     1
102
RTVSPost2010Prop57
140
1.0
102
RTVSPost2010PropOp57
 70
     1
102
RTVSPropertyOp0
 70
     1
102
RTVSPropertyOp1
 70
     1
102
RTVSPropertyOp2
 70
     1
102
RTVSPropertyOp3
 70
     1
102
RTVSPropertyOp4
 70
     1
102
RTVSPropertyOp5
 70
     1
102
RTVSPropertyOp6
 70
     1
102
RTVSPropertyOp7
 70
     1
102
RTVSPropertyOp8
 70
     1
102
RTVSPropertyOp9
 70
     1
102
RTVSPropertyOp10
 70
     1
102
RTVSPropertyOp11
 70
     1
102
RTVSPropertyOp12
 70
     1
102
RTVSPropertyOp13
 70
     1
102
RTVSPropertyOp14
 70
     1
102
RTVSPropertyOp15
 70
     1
102
RTVSPropertyOp16
 70
     1
102
RTVSPropertyOp17
 70
     1
102
RTVSPropertyOp18
 70
     1
102
RTVSPropertyOp19
 70
     1
102
RTVSPropertyOp20
 70
     1
102
RTVSPropertyOp21
 70
     1
102
RTVSPropertyOp22
 70
     1
102
RTVSPropertyOp23
 70
     1
102
RTVSPropertyOp24
 70
     1
102
RTVSPropertyOp25
 70
     1
102
RTVSPropertyOp26
 70
     1
102
RTVSPropertyOp27
 70
     1
102
RTVSPropertyOp28
 70
     1
102
RTVSPropertyOp29
 70
     1
102
RTVSPropertyOp30
 70
     1
102
RTVSPropertyOp31
 70
     1
102
RTVSPropertyOp32
 70
     1
102
RTVSPropertyOp33
 70
     1
102
RTVSPropertyOp34
 70
     1
102
RTVSPropertyOp35
 70
     1
102
RTVSPropertyOp36
 70
     1
102
RTVSPropertyOp37
 70
     1
102
RTVSPropertyOp38
 70
     1
102
RTVSPropertyOp39
 70
     1
102
RTVSPropertyOp40
 70
     1
102
RTVSPropertyOp41
 70
     1
102
RTVSPropertyOp42
 70
     1
102
RTVSPropertyOp43
 70
     1
102
RTVSPropertyOp44
 70
     1
102
RTVSPropertyOp45
 70
     1
102
RTVSPropertyOp46
 70
     1
102
RTVSPropertyOp47
 70
     1
102
RTVSPropertyOp48
 70
     1
102
RTVSPropertyOp49
 70
     1
102
RTVSPropertyOp50
 70
     1
102
RTVSPropertyOp51
 70
     0
102
RTVSPropertyOp52
 70
     0
102
RTVSPropertyOp53
 70
     1
102
RTVSPropertyOp54
 70
     1
102
RTVSPropertyOp55
 70
     1
102
RTVSPropertyOp56
 70
     1
102
RTVSPropertyOp57
 70
     1
102
RTVSPropertyOp58
 70
     1
102
RTVSPropertyOp59
 70
     1
102
RTVSPropertyOp60
 70
     1
102
RTVSPropertyOp61
 70
     1
102
RTVSPropertyOp62
 70
     1
  0
XRECORD
  5
9B3D
102
{ACAD_REACTORS
330
9B3C
102
}
330
9B3C
100
AcDbXrecord
280
     1
102
RTVSPost2010Prop28
280
     0
102
RTVSPost2010PropOp28
 70
     1
102
RTVSPost2010Prop29
280
     1
102
RTVSPost2010PropOp29
 70
     1
102
RTVSPost2010Prop30
280
     1
102
RTVSPost2010PropOp30
 70
     1
102
RTVSPost2010Prop31
280
     0
102
RTVSPost2010PropOp31
 70
     1
102
RTVSPost2010Prop32
280
     0
102
RTVSPost2010PropOp32
 70
     1
102
RTVSPost2010Prop33
280
     0
102
RTVSPost2010PropOp33
 70
     1
102
RTVSPost2010Prop34
280
     0
102
RTVSPost2010PropOp34
 70
     1
102
RTVSPost2010Prop35
280
     0
102
RTVSPost2010PropOp35
 70
     1
102
RTVSPost2010Prop36
280
     0
102
RTVSPost2010PropOp36
 70
     1
102
RTVSPost2010Prop37
 90
       50
102
RTVSPost2010PropOp37
 70
     1
102
RTVSPost2010Prop38
140
0.0
102
RTVSPost2010PropOp38
 70
     1
102
RTVSPost2010Prop39
140
1.0
102
RTVSPost2010PropOp39
 70
     1
102
RTVSPost2010Prop40
 90
        0
102
RTVSPost2010PropOp40
 70
     1
102
RTVSPost2010Prop41ColorIndex
 90
       18
102
RTVSPost2010Prop41ColorRGB
 90
        0
102
RTVSPost2010PropOp41
 70
     1
102
RTVSPost2010Prop42
 90
       50
102
RTVSPost2010PropOp42
 70
     1
102
RTVSPost2010Prop43
 90
        3
102
RTVSPost2010PropOp43
 70
     1
102
RTVSPost2010Prop44ColorIndex
 90
        5
102
RTVSPost2010Prop44ColorRGB
 90
      255
102
RTVSPost2010PropOp44
 70
     1
102
RTVSPost2010Prop45
280
     0
102
RTVSPost2010PropOp45
 70
     1
102
RTVSPost2010Prop46
 90
       50
102
RTVSPost2010PropOp46
 70
     1
102
RTVSPost2010Prop47
 90
       50
102
RTVSPost2010PropOp47
 70
     1
102
RTVSPost2010Prop48
 90
       50
102
RTVSPost2010PropOp48
 70
     1
102
RTVSPost2010Prop49
280
     0
102
RTVSPost2010PropOp49
 70
     1
102
RTVSPost2010Prop50
 90
       50
102
RTVSPost2010PropOp50
 70
     1
102
RTVSPost2010Prop51ColorIndex
 90
      256
102
RTVSPost2010Prop51ColorRGB
 90
-16777216
102
RTVSPost2010PropOp51
 70
     0
102
RTVSPost2010Prop52
140
1.0
102
RTVSPost2010PropOp52
 70
     0
102
RTVSPost2010Prop53
 90
        2
102
RTVSPost2010PropOp53
 70
     1
102
RTVSPost2010Prop54
  1
strokes_ogs.tif
102
RTVSPost2010PropOp54
 70
     1
102
RTVSPost2010Prop55
280
     0
102
RTVSPost2010PropOp55
 70
     1
102
RTVSPost2010Prop56
140
1.0
102
RTVSPost2010PropOp56
 70
     1
102
RTVSPost2010Prop57
140
1.0
102
RTVSPost2010PropOp57
 70
     1
102
RTVSPropertyOp0
 70
     1
102
RTVSPropertyOp1
 70
     1
102
RTVSPropertyOp2
 70
     1
102
RTVSPropertyOp3
 70
     1
102
RTVSPropertyOp4
 70
     1
102
RTVSPropertyOp5
 70
     1
102
RTVSPropertyOp6
 70
     1
102
RTVSPropertyOp7
 70
     1
102
RTVSPropertyOp8
 70
     1
102
RTVSPropertyOp9
 70
     1
102
RTVSPropertyOp10
 70
     1
102
RTVSPropertyOp11
 70
     1
102
RTVSPropertyOp12
 70
     1
102
RTVSPropertyOp13
 70
     1
102
RTVSPropertyOp14
 70
     1
102
RTVSPropertyOp15
 70
     1
102
RTVSPropertyOp16
 70
     1
102
RTVSPropertyOp17
 70
     1
102
RTVSPropertyOp18
 70
     1
102
RTVSPropertyOp19
 70
     1
102
RTVSPropertyOp20
 70
     1
102
RTVSPropertyOp21
 70
     1
102
RTVSPropertyOp22
 70
     1
102
RTVSPropertyOp23
 70
     1
102
RTVSPropertyOp24
 70
     1
102
RTVSPropertyOp25
 70
     1
102
RTVSPropertyOp26
 70
     1
102
RTVSPropertyOp27
 70
     1
102
RTVSPropertyOp28
 70
     1
102
RTVSPropertyOp29
 70
     1
102
RTVSPropertyOp30
 70
     1
102
RTVSPropertyOp31
 70
     1
102
RTVSPropertyOp32
 70
     1
102
RTVSPropertyOp33
 70
     1
102
RTVSPropertyOp34
 70
     1
102
RTVSPropertyOp35
 70
     1
102
RTVSPropertyOp36
 70
     1
102
RTVSPropertyOp37
 70
     1
102
RTVSPropertyOp38
 70
     1
102
RTVSPropertyOp39
 70
     1
102
RTVSPropertyOp40
 70
     1
102
RTVSPropertyOp41
 70
     1
102
RTVSPropertyOp42
 70
     1
102
RTVSPropertyOp43
 70
     1
102
RTVSPropertyOp44
 70
     1
102
RTVSPropertyOp45
 70
     1
102
RTVSPropertyOp46
 70
     1
102
RTVSPropertyOp47
 70
     1
102
RTVSPropertyOp48
 70
     1
102
RTVSPropertyOp49
 70
     1
102
RTVSPropertyOp50
 70
     1
102
RTVSPropertyOp51
 70
     0
102
RTVSPropertyOp52
 70
     0
102
RTVSPropertyOp53
 70
     1
102
RTVSPropertyOp54
 70
     1
102
RTVSPropertyOp55
 70
     1
102
RTVSPropertyOp56
 70
     1
102
RTVSPropertyOp57
 70
     1
102
RTVSPropertyOp58
 70
     1
102
RTVSPropertyOp59
 70
     1
102
RTVSPropertyOp60
 70
     1
102
RTVSPropertyOp61
 70
     1
102
RTVSPropertyOp62
 70
     1
  0
XRECORD
  5
9B59
102
{ACAD_REACTORS
330
9B58
102
}
330
9B58
100
AcDbXrecord
280
     1
102
RTVSPost2010Prop28
280
     0
102
RTVSPost2010PropOp28
 70
     1
102
RTVSPost2010Prop29
280
     1
102
RTVSPost2010PropOp29
 70
     1
102
RTVSPost2010Prop30
280
     1
102
RTVSPost2010PropOp30
 70
     1
102
RTVSPost2010Prop31
280
     0
102
RTVSPost2010PropOp31
 70
     1
102
RTVSPost2010Prop32
280
     0
102
RTVSPost2010PropOp32
 70
     1
102
RTVSPost2010Prop33
280
     0
102
RTVSPost2010PropOp33
 70
     1
102
RTVSPost2010Prop34
280
     0
102
RTVSPost2010PropOp34
 70
     1
102
RTVSPost2010Prop35
280
     0
102
RTVSPost2010PropOp35
 70
     1
102
RTVSPost2010Prop36
280
     0
102
RTVSPost2010PropOp36
 70
     1
102
RTVSPost2010Prop37
 90
       50
102
RTVSPost2010PropOp37
 70
     0
102
RTVSPost2010Prop38
140
0.0
102
RTVSPost2010PropOp38
 70
     0
102
RTVSPost2010Prop39
140
1.0
102
RTVSPost2010PropOp39
 70
     0
102
RTVSPost2010Prop40
 90
        0
102
RTVSPost2010PropOp40
 70
     0
102
RTVSPost2010Prop41ColorIndex
 90
       18
102
RTVSPost2010Prop41ColorRGB
 90
        0
102
RTVSPost2010PropOp41
 70
     0
102
RTVSPost2010Prop42
 90
       50
102
RTVSPost2010PropOp42
 70
     0
102
RTVSPost2010Prop43
 90
        3
102
RTVSPost2010PropOp43
 70
     0
102
RTVSPost2010Prop44ColorIndex
 90
        5
102
RTVSPost2010Prop44ColorRGB
 90
      255
102
RTVSPost2010PropOp44
 70
     0
102
RTVSPost2010Prop45
280
     0
102
RTVSPost2010PropOp45
 70
     1
102
RTVSPost2010Prop46
 90
       50
102
RTVSPost2010PropOp46
 70
     0
102
RTVSPost2010Prop47
 90
       50
102
RTVSPost2010PropOp47
 70
     0
102
RTVSPost2010Prop48
 90
       50
102
RTVSPost2010PropOp48
 70
     0
102
RTVSPost2010Prop49
280
     0
102
RTVSPost2010PropOp49
 70
     1
102
RTVSPost2010Prop50
 90
       50
102
RTVSPost2010PropOp50
 70
     0
102
RTVSPost2010Prop51ColorIndex
 90
      256
102
RTVSPost2010Prop51ColorRGB
 90
-16777216
102
RTVSPost2010PropOp51
 70
     0
102
RTVSPost2010Prop52
140
1.0
102
RTVSPost2010PropOp52
 70
     0
102
RTVSPost2010Prop53
 90
        2
102
RTVSPost2010PropOp53
 70
     0
102
RTVSPost2010Prop54
  1
strokes_ogs.tif
102
RTVSPost2010PropOp54
 70
     0
102
RTVSPost2010Prop55
280
     0
102
RTVSPost2010PropOp55
 70
     1
102
RTVSPost2010Prop56
140
1.0
102
RTVSPost2010PropOp56
 70
     0
102
RTVSPost2010Prop57
140
1.0
102
RTVSPost2010PropOp57
 70
     0
102
RTVSPropertyOp0
 70
     0
102
RTVSPropertyOp1
 70
     0
102
RTVSPropertyOp2
 70
     0
102
RTVSPropertyOp3
 70
     0
102
RTVSPropertyOp4
 70
     0
102
RTVSPropertyOp5
 70
     0
102
RTVSPropertyOp6
 70
     0
102
RTVSPropertyOp7
 70
     0
102
RTVSPropertyOp8
 70
     0
102
RTVSPropertyOp9
 70
     0
102
RTVSPropertyOp10
 70
     0
102
RTVSPropertyOp11
 70
     0
102
RTVSPropertyOp12
 70
     0
102
RTVSPropertyOp13
 70
     0
102
RTVSPropertyOp14
 70
     2
102
RTVSPropertyOp15
 70
     0
102
RTVSPropertyOp16
 70
     0
102
RTVSPropertyOp17
 70
     0
102
RTVSPropertyOp18
 70
     0
102
RTVSPropertyOp19
 70
     0
102
RTVSPropertyOp20
 70
     0
102
RTVSPropertyOp21
 70
     0
102
RTVSPropertyOp22
 70
     0
102
RTVSPropertyOp23
 70
     0
102
RTVSPropertyOp24
 70
     0
102
RTVSPropertyOp25
 70
     0
102
RTVSPropertyOp26
 70
     0
102
RTVSPropertyOp27
 70
     0
102
RTVSPropertyOp28
 70
     1
102
RTVSPropertyOp29
 70
     1
102
RTVSPropertyOp30
 70
     1
102
RTVSPropertyOp31
 70
     1
102
RTVSPropertyOp32
 70
     1
102
RTVSPropertyOp33
 70
     1
102
RTVSPropertyOp34
 70
     1
102
RTVSPropertyOp35
 70
     1
102
RTVSPropertyOp36
 70
     1
102
RTVSPropertyOp37
 70
     0
102
RTVSPropertyOp38
 70
     0
102
RTVSPropertyOp39
 70
     0
102
RTVSPropertyOp40
 70
     0
102
RTVSPropertyOp41
 70
     0
102
RTVSPropertyOp42
 70
     0
102
RTVSPropertyOp43
 70
     0
102
RTVSPropertyOp44
 70
     0
102
RTVSPropertyOp45
 70
     1
102
RTVSPropertyOp46
 70
     0
102
RTVSPropertyOp47
 70
     0
102
RTVSPropertyOp48
 70
     0
102
RTVSPropertyOp49
 70
     1
102
RTVSPropertyOp50
 70
     0
102
RTVSPropertyOp51
 70
     0
102
RTVSPropertyOp52
 70
     0
102
RTVSPropertyOp53
 70
     0
102
RTVSPropertyOp54
 70
     0
102
RTVSPropertyOp55
 70
     1
102
RTVSPropertyOp56
 70
     0
102
RTVSPropertyOp57
 70
     0
102
RTVSPropertyOp58
 70
     0
102
RTVSPropertyOp59
 70
     0
102
RTVSPropertyOp60
 70
     0
102
RTVSPropertyOp61
 70
     0
102
RTVSPropertyOp62
 70
     0
  0
XRECORD
  5
9B49
102
{ACAD_REACTORS
330
9B48
102
}
330
9B48
100
AcDbXrecord
280
     1
102
RTVSPost2010Prop28
280
     0
102
RTVSPost2010PropOp28
 70
     1
102
RTVSPost2010Prop29
280
     1
102
RTVSPost2010PropOp29
 70
     1
102
RTVSPost2010Prop30
280
     1
102
RTVSPost2010PropOp30
 70
     1
102
RTVSPost2010Prop31
280
     0
102
RTVSPost2010PropOp31
 70
     1
102
RTVSPost2010Prop32
280
     0
102
RTVSPost2010PropOp32
 70
     1
102
RTVSPost2010Prop33
280
     0
102
RTVSPost2010PropOp33
 70
     1
102
RTVSPost2010Prop34
280
     0
102
RTVSPost2010PropOp34
 70
     1
102
RTVSPost2010Prop35
280
     0
102
RTVSPost2010PropOp35
 70
     1
102
RTVSPost2010Prop36
280
     0
102
RTVSPost2010PropOp36
 70
     1
102
RTVSPost2010Prop37
 90
       50
102
RTVSPost2010PropOp37
 70
     1
102
RTVSPost2010Prop38
140
0.0
102
RTVSPost2010PropOp38
 70
     1
102
RTVSPost2010Prop39
140
1.0
102
RTVSPost2010PropOp39
 70
     1
102
RTVSPost2010Prop40
 90
        0
102
RTVSPost2010PropOp40
 70
     1
102
RTVSPost2010Prop41ColorIndex
 90
       18
102
RTVSPost2010Prop41ColorRGB
 90
        0
102
RTVSPost2010PropOp41
 70
     1
102
RTVSPost2010Prop42
 90
       50
102
RTVSPost2010PropOp42
 70
     1
102
RTVSPost2010Prop43
 90
        3
102
RTVSPost2010PropOp43
 70
     1
102
RTVSPost2010Prop44ColorIndex
 90
        5
102
RTVSPost2010Prop44ColorRGB
 90
      255
102
RTVSPost2010PropOp44
 70
     1
102
RTVSPost2010Prop45
280
     0
102
RTVSPost2010PropOp45
 70
     1
102
RTVSPost2010Prop46
 90
       50
102
RTVSPost2010PropOp46
 70
     1
102
RTVSPost2010Prop47
 90
       50
102
RTVSPost2010PropOp47
 70
     1
102
RTVSPost2010Prop48
 90
       50
102
RTVSPost2010PropOp48
 70
     1
102
RTVSPost2010Prop49
280
     0
102
RTVSPost2010PropOp49
 70
     1
102
RTVSPost2010Prop50
 90
       50
102
RTVSPost2010PropOp50
 70
     1
102
RTVSPost2010Prop51ColorIndex
 90
      256
102
RTVSPost2010Prop51ColorRGB
 90
-16777216
102
RTVSPost2010PropOp51
 70
     0
102
RTVSPost2010Prop52
140
1.0
102
RTVSPost2010PropOp52
 70
     0
102
RTVSPost2010Prop53
 90
        2
102
RTVSPost2010PropOp53
 70
     1
102
RTVSPost2010Prop54
  1
strokes_ogs.tif
102
RTVSPost2010PropOp54
 70
     1
102
RTVSPost2010Prop55
280
     0
102
RTVSPost2010PropOp55
 70
     1
102
RTVSPost2010Prop56
140
1.0
102
RTVSPost2010PropOp56
 70
     1
102
RTVSPost2010Prop57
140
1.0
102
RTVSPost2010PropOp57
 70
     1
102
RTVSPropertyOp0
 70
     1
102
RTVSPropertyOp1
 70
     1
102
RTVSPropertyOp2
 70
     1
102
RTVSPropertyOp3
 70
     1
102
RTVSPropertyOp4
 70
     1
102
RTVSPropertyOp5
 70
     1
102
RTVSPropertyOp6
 70
     1
102
RTVSPropertyOp7
 70
     1
102
RTVSPropertyOp8
 70
     1
102
RTVSPropertyOp9
 70
     1
102
RTVSPropertyOp10
 70
     1
102
RTVSPropertyOp11
 70
     1
102
RTVSPropertyOp12
 70
     1
102
RTVSPropertyOp13
 70
     1
102
RTVSPropertyOp14
 70
     1
102
RTVSPropertyOp15
 70
     1
102
RTVSPropertyOp16
 70
     1
102
RTVSPropertyOp17
 70
     1
102
RTVSPropertyOp18
 70
     1
102
RTVSPropertyOp19
 70
     1
102
RTVSPropertyOp20
 70
     1
102
RTVSPropertyOp21
 70
     1
102
RTVSPropertyOp22
 70
     1
102
RTVSPropertyOp23
 70
     1
102
RTVSPropertyOp24
 70
     1
102
RTVSPropertyOp25
 70
     1
102
RTVSPropertyOp26
 70
     1
102
RTVSPropertyOp27
 70
     1
102
RTVSPropertyOp28
 70
     1
102
RTVSPropertyOp29
 70
     1
102
RTVSPropertyOp30
 70
     1
102
RTVSPropertyOp31
 70
     1
102
RTVSPropertyOp32
 70
     1
102
RTVSPropertyOp33
 70
     1
102
RTVSPropertyOp34
 70
     1
102
RTVSPropertyOp35
 70
     1
102
RTVSPropertyOp36
 70
     1
102
RTVSPropertyOp37
 70
     1
102
RTVSPropertyOp38
 70
     1
102
RTVSPropertyOp39
 70
     1
102
RTVSPropertyOp40
 70
     1
102
RTVSPropertyOp41
 70
     1
102
RTVSPropertyOp42
 70
     1
102
RTVSPropertyOp43
 70
     1
102
RTVSPropertyOp44
 70
     1
102
RTVSPropertyOp45
 70
     1
102
RTVSPropertyOp46
 70
     1
102
RTVSPropertyOp47
 70
     1
102
RTVSPropertyOp48
 70
     1
102
RTVSPropertyOp49
 70
     1
102
RTVSPropertyOp50
 70
     1
102
RTVSPropertyOp51
 70
     0
102
RTVSPropertyOp52
 70
     0
102
RTVSPropertyOp53
 70
     1
102
RTVSPropertyOp54
 70
     1
102
RTVSPropertyOp55
 70
     1
102
RTVSPropertyOp56
 70
     1
102
RTVSPropertyOp57
 70
     1
102
RTVSPropertyOp58
 70
     1
102
RTVSPropertyOp59
 70
     1
102
RTVSPropertyOp60
 70
     1
102
RTVSPropertyOp61
 70
     1
102
RTVSPropertyOp62
 70
     1
  0
XRECORD
  5
9B5B
102
{ACAD_REACTORS
330
9B5A
102
}
330
9B5A
100
AcDbXrecord
280
     1
102
RTVSPost2010Prop28
280
     0
102
RTVSPost2010PropOp28
 70
     1
102
RTVSPost2010Prop29
280
     1
102
RTVSPost2010PropOp29
 70
     1
102
RTVSPost2010Prop30
280
     1
102
RTVSPost2010PropOp30
 70
     1
102
RTVSPost2010Prop31
280
     0
102
RTVSPost2010PropOp31
 70
     1
102
RTVSPost2010Prop32
280
     0
102
RTVSPost2010PropOp32
 70
     1
102
RTVSPost2010Prop33
280
     0
102
RTVSPost2010PropOp33
 70
     1
102
RTVSPost2010Prop34
280
     0
102
RTVSPost2010PropOp34
 70
     1
102
RTVSPost2010Prop35
280
     0
102
RTVSPost2010PropOp35
 70
     1
102
RTVSPost2010Prop36
280
     0
102
RTVSPost2010PropOp36
 70
     1
102
RTVSPost2010Prop37
 90
       50
102
RTVSPost2010PropOp37
 70
     0
102
RTVSPost2010Prop38
140
0.0
102
RTVSPost2010PropOp38
 70
     0
102
RTVSPost2010Prop39
140
1.0
102
RTVSPost2010PropOp39
 70
     0
102
RTVSPost2010Prop40
 90
        0
102
RTVSPost2010PropOp40
 70
     0
102
RTVSPost2010Prop41ColorIndex
 90
       18
102
RTVSPost2010Prop41ColorRGB
 90
        0
102
RTVSPost2010PropOp41
 70
     0
102
RTVSPost2010Prop42
 90
       50
102
RTVSPost2010PropOp42
 70
     0
102
RTVSPost2010Prop43
 90
        3
102
RTVSPost2010PropOp43
 70
     0
102
RTVSPost2010Prop44ColorIndex
 90
        5
102
RTVSPost2010Prop44ColorRGB
 90
      255
102
RTVSPost2010PropOp44
 70
     0
102
RTVSPost2010Prop45
280
     0
102
RTVSPost2010PropOp45
 70
     1
102
RTVSPost2010Prop46
 90
       50
102
RTVSPost2010PropOp46
 70
     0
102
RTVSPost2010Prop47
 90
       50
102
RTVSPost2010PropOp47
 70
     0
102
RTVSPost2010Prop48
 90
       50
102
RTVSPost2010PropOp48
 70
     0
102
RTVSPost2010Prop49
280
     0
102
RTVSPost2010PropOp49
 70
     1
102
RTVSPost2010Prop50
 90
       50
102
RTVSPost2010PropOp50
 70
     0
102
RTVSPost2010Prop51ColorIndex
 90
      256
102
RTVSPost2010Prop51ColorRGB
 90
-16777216
102
RTVSPost2010PropOp51
 70
     0
102
RTVSPost2010Prop52
140
1.0
102
RTVSPost2010PropOp52
 70
     0
102
RTVSPost2010Prop53
 90
        2
102
RTVSPost2010PropOp53
 70
     0
102
RTVSPost2010Prop54
  1
strokes_ogs.tif
102
RTVSPost2010PropOp54
 70
     0
102
RTVSPost2010Prop55
280
     0
102
RTVSPost2010PropOp55
 70
     1
102
RTVSPost2010Prop56
140
1.0
102
RTVSPost2010PropOp56
 70
     0
102
RTVSPost2010Prop57
140
1.0
102
RTVSPost2010PropOp57
 70
     0
102
RTVSPropertyOp0
 70
     0
102
RTVSPropertyOp1
 70
     0
102
RTVSPropertyOp2
 70
     0
102
RTVSPropertyOp3
 70
     0
102
RTVSPropertyOp4
 70
     0
102
RTVSPropertyOp5
 70
     0
102
RTVSPropertyOp6
 70
     0
102
RTVSPropertyOp7
 70
     0
102
RTVSPropertyOp8
 70
     0
102
RTVSPropertyOp9
 70
     0
102
RTVSPropertyOp10
 70
     0
102
RTVSPropertyOp11
 70
     0
102
RTVSPropertyOp12
 70
     0
102
RTVSPropertyOp13
 70
     0
102
RTVSPropertyOp14
 70
     2
102
RTVSPropertyOp15
 70
     0
102
RTVSPropertyOp16
 70
     0
102
RTVSPropertyOp17
 70
     0
102
RTVSPropertyOp18
 70
     0
102
RTVSPropertyOp19
 70
     0
102
RTVSPropertyOp20
 70
     0
102
RTVSPropertyOp21
 70
     0
102
RTVSPropertyOp22
 70
     0
102
RTVSPropertyOp23
 70
     0
102
RTVSPropertyOp24
 70
     0
102
RTVSPropertyOp25
 70
     0
102
RTVSPropertyOp26
 70
     0
102
RTVSPropertyOp27
 70
     0
102
RTVSPropertyOp28
 70
     1
102
RTVSPropertyOp29
 70
     1
102
RTVSPropertyOp30
 70
     1
102
RTVSPropertyOp31
 70
     1
102
RTVSPropertyOp32
 70
     1
102
RTVSPropertyOp33
 70
     1
102
RTVSPropertyOp34
 70
     1
102
RTVSPropertyOp35
 70
     1
102
RTVSPropertyOp36
 70
     1
102
RTVSPropertyOp37
 70
     0
102
RTVSPropertyOp38
 70
     0
102
RTVSPropertyOp39
 70
     0
102
RTVSPropertyOp40
 70
     0
102
RTVSPropertyOp41
 70
     0
102
RTVSPropertyOp42
 70
     0
102
RTVSPropertyOp43
 70
     0
102
RTVSPropertyOp44
 70
     0
102
RTVSPropertyOp45
 70
     1
102
RTVSPropertyOp46
 70
     0
102
RTVSPropertyOp47
 70
     0
102
RTVSPropertyOp48
 70
     0
102
RTVSPropertyOp49
 70
     1
102
RTVSPropertyOp50
 70
     0
102
RTVSPropertyOp51
 70
     0
102
RTVSPropertyOp52
 70
     0
102
RTVSPropertyOp53
 70
     0
102
RTVSPropertyOp54
 70
     0
102
RTVSPropertyOp55
 70
     1
102
RTVSPropertyOp56
 70
     0
102
RTVSPropertyOp57
 70
     0
102
RTVSPropertyOp58
 70
     0
102
RTVSPropertyOp59
 70
     0
102
RTVSPropertyOp60
 70
     0
102
RTVSPropertyOp61
 70
     0
102
RTVSPropertyOp62
 70
     0
  0
XRECORD
  5
9B41
102
{ACAD_REACTORS
330
9B40
102
}
330
9B40
100
AcDbXrecord
280
     1
102
RTVSPost2010Prop28
280
     0
102
RTVSPost2010PropOp28
 70
     1
102
RTVSPost2010Prop29
280
     1
102
RTVSPost2010PropOp29
 70
     1
102
RTVSPost2010Prop30
280
     1
102
RTVSPost2010PropOp30
 70
     1
102
RTVSPost2010Prop31
280
     0
102
RTVSPost2010PropOp31
 70
     1
102
RTVSPost2010Prop32
280
     0
102
RTVSPost2010PropOp32
 70
     1
102
RTVSPost2010Prop33
280
     0
102
RTVSPost2010PropOp33
 70
     1
102
RTVSPost2010Prop34
280
     0
102
RTVSPost2010PropOp34
 70
     1
102
RTVSPost2010Prop35
280
     0
102
RTVSPost2010PropOp35
 70
     1
102
RTVSPost2010Prop36
280
     0
102
RTVSPost2010PropOp36
 70
     1
102
RTVSPost2010Prop37
 90
       50
102
RTVSPost2010PropOp37
 70
     1
102
RTVSPost2010Prop38
140
0.0
102
RTVSPost2010PropOp38
 70
     1
102
RTVSPost2010Prop39
140
1.0
102
RTVSPost2010PropOp39
 70
     1
102
RTVSPost2010Prop40
 90
        0
102
RTVSPost2010PropOp40
 70
     1
102
RTVSPost2010Prop41ColorIndex
 90
       18
102
RTVSPost2010Prop41ColorRGB
 90
        0
102
RTVSPost2010PropOp41
 70
     1
102
RTVSPost2010Prop42
 90
       50
102
RTVSPost2010PropOp42
 70
     1
102
RTVSPost2010Prop43
 90
        3
102
RTVSPost2010PropOp43
 70
     1
102
RTVSPost2010Prop44ColorIndex
 90
        5
102
RTVSPost2010Prop44ColorRGB
 90
      255
102
RTVSPost2010PropOp44
 70
     1
102
RTVSPost2010Prop45
280
     0
102
RTVSPost2010PropOp45
 70
     1
102
RTVSPost2010Prop46
 90
       50
102
RTVSPost2010PropOp46
 70
     1
102
RTVSPost2010Prop47
 90
       50
102
RTVSPost2010PropOp47
 70
     1
102
RTVSPost2010Prop48
 90
       50
102
RTVSPost2010PropOp48
 70
     1
102
RTVSPost2010Prop49
280
     0
102
RTVSPost2010PropOp49
 70
     1
102
RTVSPost2010Prop50
 90
       50
102
RTVSPost2010PropOp50
 70
     1
102
RTVSPost2010Prop51ColorIndex
 90
      256
102
RTVSPost2010Prop51ColorRGB
 90
-16777216
102
RTVSPost2010PropOp51
 70
     0
102
RTVSPost2010Prop52
140
1.0
102
RTVSPost2010PropOp52
 70
     0
102
RTVSPost2010Prop53
 90
        2
102
RTVSPost2010PropOp53
 70
     1
102
RTVSPost2010Prop54
  1
strokes_ogs.tif
102
RTVSPost2010PropOp54
 70
     1
102
RTVSPost2010Prop55
280
     0
102
RTVSPost2010PropOp55
 70
     1
102
RTVSPost2010Prop56
140
1.0
102
RTVSPost2010PropOp56
 70
     1
102
RTVSPost2010Prop57
140
1.0
102
RTVSPost2010PropOp57
 70
     1
102
RTVSPropertyOp0
 70
     1
102
RTVSPropertyOp1
 70
     1
102
RTVSPropertyOp2
 70
     1
102
RTVSPropertyOp3
 70
     1
102
RTVSPropertyOp4
 70
     1
102
RTVSPropertyOp5
 70
     1
102
RTVSPropertyOp6
 70
     1
102
RTVSPropertyOp7
 70
     1
102
RTVSPropertyOp8
 70
     1
102
RTVSPropertyOp9
 70
     1
102
RTVSPropertyOp10
 70
     1
102
RTVSPropertyOp11
 70
     1
102
RTVSPropertyOp12
 70
     1
102
RTVSPropertyOp13
 70
     1
102
RTVSPropertyOp14
 70
     1
102
RTVSPropertyOp15
 70
     1
102
RTVSPropertyOp16
 70
     1
102
RTVSPropertyOp17
 70
     1
102
RTVSPropertyOp18
 70
     1
102
RTVSPropertyOp19
 70
     1
102
RTVSPropertyOp20
 70
     1
102
RTVSPropertyOp21
 70
     1
102
RTVSPropertyOp22
 70
     1
102
RTVSPropertyOp23
 70
     1
102
RTVSPropertyOp24
 70
     1
102
RTVSPropertyOp25
 70
     1
102
RTVSPropertyOp26
 70
     1
102
RTVSPropertyOp27
 70
     1
102
RTVSPropertyOp28
 70
     1
102
RTVSPropertyOp29
 70
     1
102
RTVSPropertyOp30
 70
     1
102
RTVSPropertyOp31
 70
     1
102
RTVSPropertyOp32
 70
     1
102
RTVSPropertyOp33
 70
     1
102
RTVSPropertyOp34
 70
     1
102
RTVSPropertyOp35
 70
     1
102
RTVSPropertyOp36
 70
     1
102
RTVSPropertyOp37
 70
     1
102
RTVSPropertyOp38
 70
     1
102
RTVSPropertyOp39
 70
     1
102
RTVSPropertyOp40
 70
     1
102
RTVSPropertyOp41
 70
     1
102
RTVSPropertyOp42
 70
     1
102
RTVSPropertyOp43
 70
     1
102
RTVSPropertyOp44
 70
     1
102
RTVSPropertyOp45
 70
     1
102
RTVSPropertyOp46
 70
     1
102
RTVSPropertyOp47
 70
     1
102
RTVSPropertyOp48
 70
     1
102
RTVSPropertyOp49
 70
     1
102
RTVSPropertyOp50
 70
     1
102
RTVSPropertyOp51
 70
     0
102
RTVSPropertyOp52
 70
     0
102
RTVSPropertyOp53
 70
     1
102
RTVSPropertyOp54
 70
     1
102
RTVSPropertyOp55
 70
     1
102
RTVSPropertyOp56
 70
     1
102
RTVSPropertyOp57
 70
     1
102
RTVSPropertyOp58
 70
     1
102
RTVSPropertyOp59
 70
     1
102
RTVSPropertyOp60
 70
     1
102
RTVSPropertyOp61
 70
     1
102
RTVSPropertyOp62
 70
     1
  0
XRECORD
  5
9B57
102
{ACAD_REACTORS
330
9B56
102
}
330
9B56
100
AcDbXrecord
280
     1
102
RTVSPost2010Prop28
280
     0
102
RTVSPost2010PropOp28
 70
     1
102
RTVSPost2010Prop29
280
     1
102
RTVSPost2010PropOp29
 70
     1
102
RTVSPost2010Prop30
280
     1
102
RTVSPost2010PropOp30
 70
     1
102
RTVSPost2010Prop31
280
     0
102
RTVSPost2010PropOp31
 70
     1
102
RTVSPost2010Prop32
280
     0
102
RTVSPost2010PropOp32
 70
     1
102
RTVSPost2010Prop33
280
     0
102
RTVSPost2010PropOp33
 70
     1
102
RTVSPost2010Prop34
280
     0
102
RTVSPost2010PropOp34
 70
     1
102
RTVSPost2010Prop35
280
     0
102
RTVSPost2010PropOp35
 70
     1
102
RTVSPost2010Prop36
280
     0
102
RTVSPost2010PropOp36
 70
     1
102
RTVSPost2010Prop37
 90
       50
102
RTVSPost2010PropOp37
 70
     1
102
RTVSPost2010Prop38
140
0.0
102
RTVSPost2010PropOp38
 70
     1
102
RTVSPost2010Prop39
140
1.0
102
RTVSPost2010PropOp39
 70
     1
102
RTVSPost2010Prop40
 90
        0
102
RTVSPost2010PropOp40
 70
     1
102
RTVSPost2010Prop41ColorIndex
 90
       18
102
RTVSPost2010Prop41ColorRGB
 90
        0
102
RTVSPost2010PropOp41
 70
     1
102
RTVSPost2010Prop42
 90
       50
102
RTVSPost2010PropOp42
 70
     1
102
RTVSPost2010Prop43
 90
        3
102
RTVSPost2010PropOp43
 70
     1
102
RTVSPost2010Prop44ColorIndex
 90
        5
102
RTVSPost2010Prop44ColorRGB
 90
      255
102
RTVSPost2010PropOp44
 70
     1
102
RTVSPost2010Prop45
280
     0
102
RTVSPost2010PropOp45
 70
     1
102
RTVSPost2010Prop46
 90
       50
102
RTVSPost2010PropOp46
 70
     1
102
RTVSPost2010Prop47
 90
       50
102
RTVSPost2010PropOp47
 70
     1
102
RTVSPost2010Prop48
 90
       50
102
RTVSPost2010PropOp48
 70
     1
102
RTVSPost2010Prop49
280
     0
102
RTVSPost2010PropOp49
 70
     1
102
RTVSPost2010Prop50
 90
       50
102
RTVSPost2010PropOp50
 70
     1
102
RTVSPost2010Prop51ColorIndex
 90
      256
102
RTVSPost2010Prop51ColorRGB
 90
-16777216
102
RTVSPost2010PropOp51
 70
     0
102
RTVSPost2010Prop52
140
1.0
102
RTVSPost2010PropOp52
 70
     0
102
RTVSPost2010Prop53
 90
        2
102
RTVSPost2010PropOp53
 70
     1
102
RTVSPost2010Prop54
  1
strokes_ogs.tif
102
RTVSPost2010PropOp54
 70
     1
102
RTVSPost2010Prop55
280
     0
102
RTVSPost2010PropOp55
 70
     1
102
RTVSPost2010Prop56
140
1.0
102
RTVSPost2010PropOp56
 70
     1
102
RTVSPost2010Prop57
140
1.0
102
RTVSPost2010PropOp57
 70
     1
102
RTVSPropertyOp0
 70
     1
102
RTVSPropertyOp1
 70
     1
102
RTVSPropertyOp2
 70
     1
102
RTVSPropertyOp3
 70
     1
102
RTVSPropertyOp4
 70
     1
102
RTVSPropertyOp5
 70
     1
102
RTVSPropertyOp6
 70
     1
102
RTVSPropertyOp7
 70
     1
102
RTVSPropertyOp8
 70
     1
102
RTVSPropertyOp9
 70
     1
102
RTVSPropertyOp10
 70
     1
102
RTVSPropertyOp11
 70
     1
102
RTVSPropertyOp12
 70
     1
102
RTVSPropertyOp13
 70
     1
102
RTVSPropertyOp14
 70
     1
102
RTVSPropertyOp15
 70
     1
102
RTVSPropertyOp16
 70
     1
102
RTVSPropertyOp17
 70
     1
102
RTVSPropertyOp18
 70
     1
102
RTVSPropertyOp19
 70
     1
102
RTVSPropertyOp20
 70
     1
102
RTVSPropertyOp21
 70
     1
102
RTVSPropertyOp22
 70
     1
102
RTVSPropertyOp23
 70
     1
102
RTVSPropertyOp24
 70
     1
102
RTVSPropertyOp25
 70
     1
102
RTVSPropertyOp26
 70
     1
102
RTVSPropertyOp27
 70
     1
102
RTVSPropertyOp28
 70
     1
102
RTVSPropertyOp29
 70
     1
102
RTVSPropertyOp30
 70
     1
102
RTVSPropertyOp31
 70
     1
102
RTVSPropertyOp32
 70
     1
102
RTVSPropertyOp33
 70
     1
102
RTVSPropertyOp34
 70
     1
102
RTVSPropertyOp35
 70
     1
102
RTVSPropertyOp36
 70
     1
102
RTVSPropertyOp37
 70
     1
102
RTVSPropertyOp38
 70
     1
102
RTVSPropertyOp39
 70
     1
102
RTVSPropertyOp40
 70
     1
102
RTVSPropertyOp41
 70
     1
102
RTVSPropertyOp42
 70
     1
102
RTVSPropertyOp43
 70
     1
102
RTVSPropertyOp44
 70
     1
102
RTVSPropertyOp45
 70
     1
102
RTVSPropertyOp46
 70
     1
102
RTVSPropertyOp47
 70
     1
102
RTVSPropertyOp48
 70
     1
102
RTVSPropertyOp49
 70
     1
102
RTVSPropertyOp50
 70
     1
102
RTVSPropertyOp51
 70
     0
102
RTVSPropertyOp52
 70
     0
102
RTVSPropertyOp53
 70
     1
102
RTVSPropertyOp54
 70
     1
102
RTVSPropertyOp55
 70
     1
102
RTVSPropertyOp56
 70
     1
102
RTVSPropertyOp57
 70
     1
102
RTVSPropertyOp58
 70
     1
102
RTVSPropertyOp59
 70
     1
102
RTVSPropertyOp60
 70
     1
102
RTVSPropertyOp61
 70
     1
102
RTVSPropertyOp62
 70
     1
  0
XRECORD
  5
9B55
102
{ACAD_REACTORS
330
9B54
102
}
330
9B54
100
AcDbXrecord
280
     1
102
RTVSPost2010Prop28
280
     0
102
RTVSPost2010PropOp28
 70
     1
102
RTVSPost2010Prop29
280
     1
102
RTVSPost2010PropOp29
 70
     1
102
RTVSPost2010Prop30
280
     1
102
RTVSPost2010PropOp30
 70
     1
102
RTVSPost2010Prop31
280
     0
102
RTVSPost2010PropOp31
 70
     1
102
RTVSPost2010Prop32
280
     0
102
RTVSPost2010PropOp32
 70
     1
102
RTVSPost2010Prop33
280
     0
102
RTVSPost2010PropOp33
 70
     1
102
RTVSPost2010Prop34
280
     0
102
RTVSPost2010PropOp34
 70
     1
102
RTVSPost2010Prop35
280
     0
102
RTVSPost2010PropOp35
 70
     1
102
RTVSPost2010Prop36
280
     0
102
RTVSPost2010PropOp36
 70
     1
102
RTVSPost2010Prop37
 90
       50
102
RTVSPost2010PropOp37
 70
     1
102
RTVSPost2010Prop38
140
0.0
102
RTVSPost2010PropOp38
 70
     1
102
RTVSPost2010Prop39
140
1.0
102
RTVSPost2010PropOp39
 70
     1
102
RTVSPost2010Prop40
 90
        0
102
RTVSPost2010PropOp40
 70
     1
102
RTVSPost2010Prop41ColorIndex
 90
       18
102
RTVSPost2010Prop41ColorRGB
 90
        0
102
RTVSPost2010PropOp41
 70
     1
102
RTVSPost2010Prop42
 90
       50
102
RTVSPost2010PropOp42
 70
     1
102
RTVSPost2010Prop43
 90
        3
102
RTVSPost2010PropOp43
 70
     1
102
RTVSPost2010Prop44ColorIndex
 90
        5
102
RTVSPost2010Prop44ColorRGB
 90
      255
102
RTVSPost2010PropOp44
 70
     1
102
RTVSPost2010Prop45
280
     0
102
RTVSPost2010PropOp45
 70
     1
102
RTVSPost2010Prop46
 90
       50
102
RTVSPost2010PropOp46
 70
     1
102
RTVSPost2010Prop47
 90
       50
102
RTVSPost2010PropOp47
 70
     1
102
RTVSPost2010Prop48
 90
       50
102
RTVSPost2010PropOp48
 70
     1
102
RTVSPost2010Prop49
280
     0
102
RTVSPost2010PropOp49
 70
     1
102
RTVSPost2010Prop50
 90
       50
102
RTVSPost2010PropOp50
 70
     1
102
RTVSPost2010Prop51ColorIndex
 90
      256
102
RTVSPost2010Prop51ColorRGB
 90
-16777216
102
RTVSPost2010PropOp51
 70
     0
102
RTVSPost2010Prop52
140
1.0
102
RTVSPost2010PropOp52
 70
     0
102
RTVSPost2010Prop53
 90
        2
102
RTVSPost2010PropOp53
 70
     1
102
RTVSPost2010Prop54
  1
strokes_ogs.tif
102
RTVSPost2010PropOp54
 70
     1
102
RTVSPost2010Prop55
280
     0
102
RTVSPost2010PropOp55
 70
     1
102
RTVSPost2010Prop56
140
1.0
102
RTVSPost2010PropOp56
 70
     1
102
RTVSPost2010Prop57
140
1.0
102
RTVSPost2010PropOp57
 70
     1
102
RTVSPropertyOp0
 70
     1
102
RTVSPropertyOp1
 70
     1
102
RTVSPropertyOp2
 70
     1
102
RTVSPropertyOp3
 70
     1
102
RTVSPropertyOp4
 70
     1
102
RTVSPropertyOp5
 70
     1
102
RTVSPropertyOp6
 70
     1
102
RTVSPropertyOp7
 70
     1
102
RTVSPropertyOp8
 70
     1
102
RTVSPropertyOp9
 70
     1
102
RTVSPropertyOp10
 70
     1
102
RTVSPropertyOp11
 70
     1
102
RTVSPropertyOp12
 70
     1
102
RTVSPropertyOp13
 70
     1
102
RTVSPropertyOp14
 70
     1
102
RTVSPropertyOp15
 70
     1
102
RTVSPropertyOp16
 70
     1
102
RTVSPropertyOp17
 70
     1
102
RTVSPropertyOp18
 70
     1
102
RTVSPropertyOp19
 70
     1
102
RTVSPropertyOp20
 70
     1
102
RTVSPropertyOp21
 70
     1
102
RTVSPropertyOp22
 70
     1
102
RTVSPropertyOp23
 70
     1
102
RTVSPropertyOp24
 70
     1
102
RTVSPropertyOp25
 70
     1
102
RTVSPropertyOp26
 70
     1
102
RTVSPropertyOp27
 70
     1
102
RTVSPropertyOp28
 70
     1
102
RTVSPropertyOp29
 70
     1
102
RTVSPropertyOp30
 70
     1
102
RTVSPropertyOp31
 70
     1
102
RTVSPropertyOp32
 70
     1
102
RTVSPropertyOp33
 70
     1
102
RTVSPropertyOp34
 70
     1
102
RTVSPropertyOp35
 70
     1
102
RTVSPropertyOp36
 70
     1
102
RTVSPropertyOp37
 70
     1
102
RTVSPropertyOp38
 70
     1
102
RTVSPropertyOp39
 70
     1
102
RTVSPropertyOp40
 70
     1
102
RTVSPropertyOp41
 70
     1
102
RTVSPropertyOp42
 70
     1
102
RTVSPropertyOp43
 70
     1
102
RTVSPropertyOp44
 70
     1
102
RTVSPropertyOp45
 70
     1
102
RTVSPropertyOp46
 70
     1
102
RTVSPropertyOp47
 70
     1
102
RTVSPropertyOp48
 70
     1
102
RTVSPropertyOp49
 70
     1
102
RTVSPropertyOp50
 70
     1
102
RTVSPropertyOp51
 70
     0
102
RTVSPropertyOp52
 70
     0
102
RTVSPropertyOp53
 70
     1
102
RTVSPropertyOp54
 70
     1
102
RTVSPropertyOp55
 70
     1
102
RTVSPropertyOp56
 70
     1
102
RTVSPropertyOp57
 70
     1
102
RTVSPropertyOp58
 70
     1
102
RTVSPropertyOp59
 70
     1
102
RTVSPropertyOp60
 70
     1
102
RTVSPropertyOp61
 70
     1
102
RTVSPropertyOp62
 70
     1
  0
XRECORD
  5
9B4F
102
{ACAD_REACTORS
330
9B4E
102
}
330
9B4E
100
AcDbXrecord
280
     1
102
RTVSPost2010Prop28
280
     0
102
RTVSPost2010PropOp28
 70
     1
102
RTVSPost2010Prop29
280
     1
102
RTVSPost2010PropOp29
 70
     1
102
RTVSPost2010Prop30
280
     1
102
RTVSPost2010PropOp30
 70
     1
102
RTVSPost2010Prop31
280
     0
102
RTVSPost2010PropOp31
 70
     1
102
RTVSPost2010Prop32
280
     0
102
RTVSPost2010PropOp32
 70
     1
102
RTVSPost2010Prop33
280
     0
102
RTVSPost2010PropOp33
 70
     1
102
RTVSPost2010Prop34
280
     0
102
RTVSPost2010PropOp34
 70
     1
102
RTVSPost2010Prop35
280
     0
102
RTVSPost2010PropOp35
 70
     1
102
RTVSPost2010Prop36
280
     0
102
RTVSPost2010PropOp36
 70
     1
102
RTVSPost2010Prop37
 90
       50
102
RTVSPost2010PropOp37
 70
     1
102
RTVSPost2010Prop38
140
0.0
102
RTVSPost2010PropOp38
 70
     1
102
RTVSPost2010Prop39
140
1.0
102
RTVSPost2010PropOp39
 70
     1
102
RTVSPost2010Prop40
 90
        0
102
RTVSPost2010PropOp40
 70
     1
102
RTVSPost2010Prop41ColorIndex
 90
       18
102
RTVSPost2010Prop41ColorRGB
 90
        0
102
RTVSPost2010PropOp41
 70
     1
102
RTVSPost2010Prop42
 90
       50
102
RTVSPost2010PropOp42
 70
     1
102
RTVSPost2010Prop43
 90
        3
102
RTVSPost2010PropOp43
 70
     1
102
RTVSPost2010Prop44ColorIndex
 90
        5
102
RTVSPost2010Prop44ColorRGB
 90
      255
102
RTVSPost2010PropOp44
 70
     1
102
RTVSPost2010Prop45
280
     0
102
RTVSPost2010PropOp45
 70
     1
102
RTVSPost2010Prop46
 90
       50
102
RTVSPost2010PropOp46
 70
     1
102
RTVSPost2010Prop47
 90
       50
102
RTVSPost2010PropOp47
 70
     1
102
RTVSPost2010Prop48
 90
       50
102
RTVSPost2010PropOp48
 70
     1
102
RTVSPost2010Prop49
280
     0
102
RTVSPost2010PropOp49
 70
     1
102
RTVSPost2010Prop50
 90
       50
102
RTVSPost2010PropOp50
 70
     1
102
RTVSPost2010Prop51ColorIndex
 90
      256
102
RTVSPost2010Prop51ColorRGB
 90
-16777216
102
RTVSPost2010PropOp51
 70
     0
102
RTVSPost2010Prop52
140
1.0
102
RTVSPost2010PropOp52
 70
     0
102
RTVSPost2010Prop53
 90
        2
102
RTVSPost2010PropOp53
 70
     1
102
RTVSPost2010Prop54
  1
strokes_ogs.tif
102
RTVSPost2010PropOp54
 70
     1
102
RTVSPost2010Prop55
280
     0
102
RTVSPost2010PropOp55
 70
     1
102
RTVSPost2010Prop56
140
1.0
102
RTVSPost2010PropOp56
 70
     1
102
RTVSPost2010Prop57
140
1.0
102
RTVSPost2010PropOp57
 70
     1
102
RTVSPropertyOp0
 70
     1
102
RTVSPropertyOp1
 70
     1
102
RTVSPropertyOp2
 70
     1
102
RTVSPropertyOp3
 70
     1
102
RTVSPropertyOp4
 70
     1
102
RTVSPropertyOp5
 70
     1
102
RTVSPropertyOp6
 70
     1
102
RTVSPropertyOp7
 70
     1
102
RTVSPropertyOp8
 70
     1
102
RTVSPropertyOp9
 70
     1
102
RTVSPropertyOp10
 70
     1
102
RTVSPropertyOp11
 70
     1
102
RTVSPropertyOp12
 70
     1
102
RTVSPropertyOp13
 70
     1
102
RTVSPropertyOp14
 70
     1
102
RTVSPropertyOp15
 70
     1
102
RTVSPropertyOp16
 70
     1
102
RTVSPropertyOp17
 70
     1
102
RTVSPropertyOp18
 70
     1
102
RTVSPropertyOp19
 70
     1
102
RTVSPropertyOp20
 70
     1
102
RTVSPropertyOp21
 70
     1
102
RTVSPropertyOp22
 70
     1
102
RTVSPropertyOp23
 70
     1
102
RTVSPropertyOp24
 70
     1
102
RTVSPropertyOp25
 70
     1
102
RTVSPropertyOp26
 70
     1
102
RTVSPropertyOp27
 70
     1
102
RTVSPropertyOp28
 70
     1
102
RTVSPropertyOp29
 70
     1
102
RTVSPropertyOp30
 70
     1
102
RTVSPropertyOp31
 70
     1
102
RTVSPropertyOp32
 70
     1
102
RTVSPropertyOp33
 70
     1
102
RTVSPropertyOp34
 70
     1
102
RTVSPropertyOp35
 70
     1
102
RTVSPropertyOp36
 70
     1
102
RTVSPropertyOp37
 70
     1
102
RTVSPropertyOp38
 70
     1
102
RTVSPropertyOp39
 70
     1
102
RTVSPropertyOp40
 70
     1
102
RTVSPropertyOp41
 70
     1
102
RTVSPropertyOp42
 70
     1
102
RTVSPropertyOp43
 70
     1
102
RTVSPropertyOp44
 70
     1
102
RTVSPropertyOp45
 70
     1
102
RTVSPropertyOp46
 70
     1
102
RTVSPropertyOp47
 70
     1
102
RTVSPropertyOp48
 70
     1
102
RTVSPropertyOp49
 70
     1
102
RTVSPropertyOp50
 70
     1
102
RTVSPropertyOp51
 70
     0
102
RTVSPropertyOp52
 70
     0
102
RTVSPropertyOp53
 70
     1
102
RTVSPropertyOp54
 70
     1
102
RTVSPropertyOp55
 70
     1
102
RTVSPropertyOp56
 70
     1
102
RTVSPropertyOp57
 70
     1
102
RTVSPropertyOp58
 70
     1
102
RTVSPropertyOp59
 70
     1
102
RTVSPropertyOp60
 70
     1
102
RTVSPropertyOp61
 70
     1
102
RTVSPropertyOp62
 70
     1
  0
XRECORD
  5
9B51
102
{ACAD_REACTORS
330
9B50
102
}
330
9B50
100
AcDbXrecord
280
     1
102
RTVSPost2010Prop28
280
     0
102
RTVSPost2010PropOp28
 70
     1
102
RTVSPost2010Prop29
280
     1
102
RTVSPost2010PropOp29
 70
     1
102
RTVSPost2010Prop30
280
     1
102
RTVSPost2010PropOp30
 70
     1
102
RTVSPost2010Prop31
280
     0
102
RTVSPost2010PropOp31
 70
     1
102
RTVSPost2010Prop32
280
     0
102
RTVSPost2010PropOp32
 70
     1
102
RTVSPost2010Prop33
280
     0
102
RTVSPost2010PropOp33
 70
     1
102
RTVSPost2010Prop34
280
     0
102
RTVSPost2010PropOp34
 70
     1
102
RTVSPost2010Prop35
280
     0
102
RTVSPost2010PropOp35
 70
     1
102
RTVSPost2010Prop36
280
     0
102
RTVSPost2010PropOp36
 70
     1
102
RTVSPost2010Prop37
 90
       50
102
RTVSPost2010PropOp37
 70
     1
102
RTVSPost2010Prop38
140
0.0
102
RTVSPost2010PropOp38
 70
     1
102
RTVSPost2010Prop39
140
1.0
102
RTVSPost2010PropOp39
 70
     1
102
RTVSPost2010Prop40
 90
        0
102
RTVSPost2010PropOp40
 70
     1
102
RTVSPost2010Prop41ColorIndex
 90
       18
102
RTVSPost2010Prop41ColorRGB
 90
        0
102
RTVSPost2010PropOp41
 70
     1
102
RTVSPost2010Prop42
 90
       50
102
RTVSPost2010PropOp42
 70
     1
102
RTVSPost2010Prop43
 90
        3
102
RTVSPost2010PropOp43
 70
     1
102
RTVSPost2010Prop44ColorIndex
 90
        5
102
RTVSPost2010Prop44ColorRGB
 90
      255
102
RTVSPost2010PropOp44
 70
     1
102
RTVSPost2010Prop45
280
     0
102
RTVSPost2010PropOp45
 70
     1
102
RTVSPost2010Prop46
 90
       50
102
RTVSPost2010PropOp46
 70
     1
102
RTVSPost2010Prop47
 90
       50
102
RTVSPost2010PropOp47
 70
     1
102
RTVSPost2010Prop48
 90
       50
102
RTVSPost2010PropOp48
 70
     1
102
RTVSPost2010Prop49
280
     0
102
RTVSPost2010PropOp49
 70
     1
102
RTVSPost2010Prop50
 90
       50
102
RTVSPost2010PropOp50
 70
     1
102
RTVSPost2010Prop51ColorIndex
 90
      256
102
RTVSPost2010Prop51ColorRGB
 90
-16777216
102
RTVSPost2010PropOp51
 70
     0
102
RTVSPost2010Prop52
140
1.0
102
RTVSPost2010PropOp52
 70
     0
102
RTVSPost2010Prop53
 90
        2
102
RTVSPost2010PropOp53
 70
     1
102
RTVSPost2010Prop54
  1
strokes_ogs.tif
102
RTVSPost2010PropOp54
 70
     1
102
RTVSPost2010Prop55
280
     0
102
RTVSPost2010PropOp55
 70
     1
102
RTVSPost2010Prop56
140
1.0
102
RTVSPost2010PropOp56
 70
     1
102
RTVSPost2010Prop57
140
1.0
102
RTVSPost2010PropOp57
 70
     1
102
RTVSPropertyOp0
 70
     1
102
RTVSPropertyOp1
 70
     1
102
RTVSPropertyOp2
 70
     1
102
RTVSPropertyOp3
 70
     1
102
RTVSPropertyOp4
 70
     1
102
RTVSPropertyOp5
 70
     1
102
RTVSPropertyOp6
 70
     1
102
RTVSPropertyOp7
 70
     1
102
RTVSPropertyOp8
 70
     1
102
RTVSPropertyOp9
 70
     1
102
RTVSPropertyOp10
 70
     1
102
RTVSPropertyOp11
 70
     1
102
RTVSPropertyOp12
 70
     1
102
RTVSPropertyOp13
 70
     1
102
RTVSPropertyOp14
 70
     1
102
RTVSPropertyOp15
 70
     1
102
RTVSPropertyOp16
 70
     1
102
RTVSPropertyOp17
 70
     1
102
RTVSPropertyOp18
 70
     1
102
RTVSPropertyOp19
 70
     1
102
RTVSPropertyOp20
 70
     1
102
RTVSPropertyOp21
 70
     1
102
RTVSPropertyOp22
 70
     1
102
RTVSPropertyOp23
 70
     1
102
RTVSPropertyOp24
 70
     1
102
RTVSPropertyOp25
 70
     1
102
RTVSPropertyOp26
 70
     1
102
RTVSPropertyOp27
 70
     1
102
RTVSPropertyOp28
 70
     1
102
RTVSPropertyOp29
 70
     1
102
RTVSPropertyOp30
 70
     1
102
RTVSPropertyOp31
 70
     1
102
RTVSPropertyOp32
 70
     1
102
RTVSPropertyOp33
 70
     1
102
RTVSPropertyOp34
 70
     1
102
RTVSPropertyOp35
 70
     1
102
RTVSPropertyOp36
 70
     1
102
RTVSPropertyOp37
 70
     1
102
RTVSPropertyOp38
 70
     1
102
RTVSPropertyOp39
 70
     1
102
RTVSPropertyOp40
 70
     1
102
RTVSPropertyOp41
 70
     1
102
RTVSPropertyOp42
 70
     1
102
RTVSPropertyOp43
 70
     1
102
RTVSPropertyOp44
 70
     1
102
RTVSPropertyOp45
 70
     1
102
RTVSPropertyOp46
 70
     1
102
RTVSPropertyOp47
 70
     1
102
RTVSPropertyOp48
 70
     1
102
RTVSPropertyOp49
 70
     1
102
RTVSPropertyOp50
 70
     1
102
RTVSPropertyOp51
 70
     0
102
RTVSPropertyOp52
 70
     0
102
RTVSPropertyOp53
 70
     1
102
RTVSPropertyOp54
 70
     1
102
RTVSPropertyOp55
 70
     1
102
RTVSPropertyOp56
 70
     1
102
RTVSPropertyOp57
 70
     1
102
RTVSPropertyOp58
 70
     1
102
RTVSPropertyOp59
 70
     1
102
RTVSPropertyOp60
 70
     1
102
RTVSPropertyOp61
 70
     1
102
RTVSPropertyOp62
 70
     1
  0
XRECORD
  5
9B47
102
{ACAD_REACTORS
330
9B46
102
}
330
9B46
100
AcDbXrecord
280
     1
102
RTVSPost2010Prop28
280
     0
102
RTVSPost2010PropOp28
 70
     1
102
RTVSPost2010Prop29
280
     1
102
RTVSPost2010PropOp29
 70
     1
102
RTVSPost2010Prop30
280
     1
102
RTVSPost2010PropOp30
 70
     1
102
RTVSPost2010Prop31
280
     0
102
RTVSPost2010PropOp31
 70
     1
102
RTVSPost2010Prop32
280
     0
102
RTVSPost2010PropOp32
 70
     1
102
RTVSPost2010Prop33
280
     0
102
RTVSPost2010PropOp33
 70
     1
102
RTVSPost2010Prop34
280
     0
102
RTVSPost2010PropOp34
 70
     1
102
RTVSPost2010Prop35
280
     0
102
RTVSPost2010PropOp35
 70
     1
102
RTVSPost2010Prop36
280
     0
102
RTVSPost2010PropOp36
 70
     1
102
RTVSPost2010Prop37
 90
       50
102
RTVSPost2010PropOp37
 70
     1
102
RTVSPost2010Prop38
140
0.0
102
RTVSPost2010PropOp38
 70
     1
102
RTVSPost2010Prop39
140
1.0
102
RTVSPost2010PropOp39
 70
     1
102
RTVSPost2010Prop40
 90
        0
102
RTVSPost2010PropOp40
 70
     1
102
RTVSPost2010Prop41ColorIndex
 90
       18
102
RTVSPost2010Prop41ColorRGB
 90
        0
102
RTVSPost2010PropOp41
 70
     1
102
RTVSPost2010Prop42
 90
       50
102
RTVSPost2010PropOp42
 70
     1
102
RTVSPost2010Prop43
 90
        3
102
RTVSPost2010PropOp43
 70
     1
102
RTVSPost2010Prop44ColorIndex
 90
        5
102
RTVSPost2010Prop44ColorRGB
 90
      255
102
RTVSPost2010PropOp44
 70
     1
102
RTVSPost2010Prop45
280
     0
102
RTVSPost2010PropOp45
 70
     1
102
RTVSPost2010Prop46
 90
       50
102
RTVSPost2010PropOp46
 70
     1
102
RTVSPost2010Prop47
 90
       50
102
RTVSPost2010PropOp47
 70
     1
102
RTVSPost2010Prop48
 90
       50
102
RTVSPost2010PropOp48
 70
     1
102
RTVSPost2010Prop49
280
     0
102
RTVSPost2010PropOp49
 70
     1
102
RTVSPost2010Prop50
 90
       50
102
RTVSPost2010PropOp50
 70
     1
102
RTVSPost2010Prop51ColorIndex
 90
      256
102
RTVSPost2010Prop51ColorRGB
 90
-16777216
102
RTVSPost2010PropOp51
 70
     0
102
RTVSPost2010Prop52
140
1.0
102
RTVSPost2010PropOp52
 70
     0
102
RTVSPost2010Prop53
 90
        2
102
RTVSPost2010PropOp53
 70
     1
102
RTVSPost2010Prop54
  1
strokes_ogs.tif
102
RTVSPost2010PropOp54
 70
     1
102
RTVSPost2010Prop55
280
     0
102
RTVSPost2010PropOp55
 70
     1
102
RTVSPost2010Prop56
140
1.0
102
RTVSPost2010PropOp56
 70
     1
102
RTVSPost2010Prop57
140
1.0
102
RTVSPost2010PropOp57
 70
     1
102
RTVSPropertyOp0
 70
     1
102
RTVSPropertyOp1
 70
     1
102
RTVSPropertyOp2
 70
     1
102
RTVSPropertyOp3
 70
     1
102
RTVSPropertyOp4
 70
     1
102
RTVSPropertyOp5
 70
     1
102
RTVSPropertyOp6
 70
     1
102
RTVSPropertyOp7
 70
     1
102
RTVSPropertyOp8
 70
     1
102
RTVSPropertyOp9
 70
     1
102
RTVSPropertyOp10
 70
     1
102
RTVSPropertyOp11
 70
     1
102
RTVSPropertyOp12
 70
     1
102
RTVSPropertyOp13
 70
     1
102
RTVSPropertyOp14
 70
     1
102
RTVSPropertyOp15
 70
     1
102
RTVSPropertyOp16
 70
     1
102
RTVSPropertyOp17
 70
     1
102
RTVSPropertyOp18
 70
     1
102
RTVSPropertyOp19
 70
     1
102
RTVSPropertyOp20
 70
     1
102
RTVSPropertyOp21
 70
     1
102
RTVSPropertyOp22
 70
     1
102
RTVSPropertyOp23
 70
     1
102
RTVSPropertyOp24
 70
     1
102
RTVSPropertyOp25
 70
     1
102
RTVSPropertyOp26
 70
     1
102
RTVSPropertyOp27
 70
     1
102
RTVSPropertyOp28
 70
     1
102
RTVSPropertyOp29
 70
     1
102
RTVSPropertyOp30
 70
     1
102
RTVSPropertyOp31
 70
     1
102
RTVSPropertyOp32
 70
     1
102
RTVSPropertyOp33
 70
     1
102
RTVSPropertyOp34
 70
     1
102
RTVSPropertyOp35
 70
     1
102
RTVSPropertyOp36
 70
     1
102
RTVSPropertyOp37
 70
     1
102
RTVSPropertyOp38
 70
     1
102
RTVSPropertyOp39
 70
     1
102
RTVSPropertyOp40
 70
     1
102
RTVSPropertyOp41
 70
     1
102
RTVSPropertyOp42
 70
     1
102
RTVSPropertyOp43
 70
     1
102
RTVSPropertyOp44
 70
     1
102
RTVSPropertyOp45
 70
     1
102
RTVSPropertyOp46
 70
     1
102
RTVSPropertyOp47
 70
     1
102
RTVSPropertyOp48
 70
     1
102
RTVSPropertyOp49
 70
     1
102
RTVSPropertyOp50
 70
     1
102
RTVSPropertyOp51
 70
     0
102
RTVSPropertyOp52
 70
     0
102
RTVSPropertyOp53
 70
     1
102
RTVSPropertyOp54
 70
     1
102
RTVSPropertyOp55
 70
     1
102
RTVSPropertyOp56
 70
     1
102
RTVSPropertyOp57
 70
     1
102
RTVSPropertyOp58
 70
     1
102
RTVSPropertyOp59
 70
     1
102
RTVSPropertyOp60
 70
     1
102
RTVSPropertyOp61
 70
     1
102
RTVSPropertyOp62
 70
     1
  0
XRECORD
  5
9B3B
102
{ACAD_REACTORS
330
9B3A
102
}
330
9B3A
100
AcDbXrecord
280
     1
102
RTVSPost2010Prop28
280
     0
102
RTVSPost2010PropOp28
 70
     1
102
RTVSPost2010Prop29
280
     1
102
RTVSPost2010PropOp29
 70
     1
102
RTVSPost2010Prop30
280
     1
102
RTVSPost2010PropOp30
 70
     1
102
RTVSPost2010Prop31
280
     0
102
RTVSPost2010PropOp31
 70
     1
102
RTVSPost2010Prop32
280
     0
102
RTVSPost2010PropOp32
 70
     1
102
RTVSPost2010Prop33
280
     0
102
RTVSPost2010PropOp33
 70
     1
102
RTVSPost2010Prop34
280
     0
102
RTVSPost2010PropOp34
 70
     1
102
RTVSPost2010Prop35
280
     0
102
RTVSPost2010PropOp35
 70
     1
102
RTVSPost2010Prop36
280
     0
102
RTVSPost2010PropOp36
 70
     1
102
RTVSPost2010Prop37
 90
       50
102
RTVSPost2010PropOp37
 70
     1
102
RTVSPost2010Prop38
140
0.0
102
RTVSPost2010PropOp38
 70
     1
102
RTVSPost2010Prop39
140
1.0
102
RTVSPost2010PropOp39
 70
     1
102
RTVSPost2010Prop40
 90
        0
102
RTVSPost2010PropOp40
 70
     1
102
RTVSPost2010Prop41ColorIndex
 90
       18
102
RTVSPost2010Prop41ColorRGB
 90
        0
102
RTVSPost2010PropOp41
 70
     1
102
RTVSPost2010Prop42
 90
       50
102
RTVSPost2010PropOp42
 70
     1
102
RTVSPost2010Prop43
 90
        3
102
RTVSPost2010PropOp43
 70
     1
102
RTVSPost2010Prop44ColorIndex
 90
        5
102
RTVSPost2010Prop44ColorRGB
 90
      255
102
RTVSPost2010PropOp44
 70
     1
102
RTVSPost2010Prop45
280
     0
102
RTVSPost2010PropOp45
 70
     1
102
RTVSPost2010Prop46
 90
       50
102
RTVSPost2010PropOp46
 70
     1
102
RTVSPost2010Prop47
 90
       50
102
RTVSPost2010PropOp47
 70
     1
102
RTVSPost2010Prop48
 90
       50
102
RTVSPost2010PropOp48
 70
     1
102
RTVSPost2010Prop49
280
     0
102
RTVSPost2010PropOp49
 70
     1
102
RTVSPost2010Prop50
 90
       50
102
RTVSPost2010PropOp50
 70
     1
102
RTVSPost2010Prop51ColorIndex
 90
      256
102
RTVSPost2010Prop51ColorRGB
 90
-16777216
102
RTVSPost2010PropOp51
 70
     0
102
RTVSPost2010Prop52
140
1.0
102
RTVSPost2010PropOp52
 70
     0
102
RTVSPost2010Prop53
 90
        2
102
RTVSPost2010PropOp53
 70
     1
102
RTVSPost2010Prop54
  1
strokes_ogs.tif
102
RTVSPost2010PropOp54
 70
     1
102
RTVSPost2010Prop55
280
     0
102
RTVSPost2010PropOp55
 70
     1
102
RTVSPost2010Prop56
140
1.0
102
RTVSPost2010PropOp56
 70
     1
102
RTVSPost2010Prop57
140
1.0
102
RTVSPost2010PropOp57
 70
     1
102
RTVSPropertyOp0
 70
     1
102
RTVSPropertyOp1
 70
     1
102
RTVSPropertyOp2
 70
     1
102
RTVSPropertyOp3
 70
     1
102
RTVSPropertyOp4
 70
     1
102
RTVSPropertyOp5
 70
     1
102
RTVSPropertyOp6
 70
     1
102
RTVSPropertyOp7
 70
     1
102
RTVSPropertyOp8
 70
     1
102
RTVSPropertyOp9
 70
     1
102
RTVSPropertyOp10
 70
     1
102
RTVSPropertyOp11
 70
     1
102
RTVSPropertyOp12
 70
     1
102
RTVSPropertyOp13
 70
     1
102
RTVSPropertyOp14
 70
     1
102
RTVSPropertyOp15
 70
     1
102
RTVSPropertyOp16
 70
     1
102
RTVSPropertyOp17
 70
     1
102
RTVSPropertyOp18
 70
     1
102
RTVSPropertyOp19
 70
     1
102
RTVSPropertyOp20
 70
     1
102
RTVSPropertyOp21
 70
     1
102
RTVSPropertyOp22
 70
     1
102
RTVSPropertyOp23
 70
     1
102
RTVSPropertyOp24
 70
     1
102
RTVSPropertyOp25
 70
     1
102
RTVSPropertyOp26
 70
     1
102
RTVSPropertyOp27
 70
     1
102
RTVSPropertyOp28
 70
     1
102
RTVSPropertyOp29
 70
     1
102
RTVSPropertyOp30
 70
     1
102
RTVSPropertyOp31
 70
     1
102
RTVSPropertyOp32
 70
     1
102
RTVSPropertyOp33
 70
     1
102
RTVSPropertyOp34
 70
     1
102
RTVSPropertyOp35
 70
     1
102
RTVSPropertyOp36
 70
     1
102
RTVSPropertyOp37
 70
     1
102
RTVSPropertyOp38
 70
     1
102
RTVSPropertyOp39
 70
     1
102
RTVSPropertyOp40
 70
     1
102
RTVSPropertyOp41
 70
     1
102
RTVSPropertyOp42
 70
     1
102
RTVSPropertyOp43
 70
     1
102
RTVSPropertyOp44
 70
     1
102
RTVSPropertyOp45
 70
     1
102
RTVSPropertyOp46
 70
     1
102
RTVSPropertyOp47
 70
     1
102
RTVSPropertyOp48
 70
     1
102
RTVSPropertyOp49
 70
     1
102
RTVSPropertyOp50
 70
     1
102
RTVSPropertyOp51
 70
     0
102
RTVSPropertyOp52
 70
     0
102
RTVSPropertyOp53
 70
     1
102
RTVSPropertyOp54
 70
     1
102
RTVSPropertyOp55
 70
     1
102
RTVSPropertyOp56
 70
     1
102
RTVSPropertyOp57
 70
     1
102
RTVSPropertyOp58
 70
     1
102
RTVSPropertyOp59
 70
     1
102
RTVSPropertyOp60
 70
     1
102
RTVSPropertyOp61
 70
     1
102
RTVSPropertyOp62
 70
     1
  0
XRECORD
  5
9B53
102
{ACAD_REACTORS
330
9B52
102
}
330
9B52
100
AcDbXrecord
280
     1
102
RTVSPost2010Prop28
280
     0
102
RTVSPost2010PropOp28
 70
     1
102
RTVSPost2010Prop29
280
     1
102
RTVSPost2010PropOp29
 70
     1
102
RTVSPost2010Prop30
280
     1
102
RTVSPost2010PropOp30
 70
     1
102
RTVSPost2010Prop31
280
     0
102
RTVSPost2010PropOp31
 70
     1
102
RTVSPost2010Prop32
280
     0
102
RTVSPost2010PropOp32
 70
     1
102
RTVSPost2010Prop33
280
     0
102
RTVSPost2010PropOp33
 70
     1
102
RTVSPost2010Prop34
280
     0
102
RTVSPost2010PropOp34
 70
     1
102
RTVSPost2010Prop35
280
     0
102
RTVSPost2010PropOp35
 70
     1
102
RTVSPost2010Prop36
280
     0
102
RTVSPost2010PropOp36
 70
     1
102
RTVSPost2010Prop37
 90
       50
102
RTVSPost2010PropOp37
 70
     1
102
RTVSPost2010Prop38
140
0.0
102
RTVSPost2010PropOp38
 70
     1
102
RTVSPost2010Prop39
140
1.0
102
RTVSPost2010PropOp39
 70
     1
102
RTVSPost2010Prop40
 90
        0
102
RTVSPost2010PropOp40
 70
     1
102
RTVSPost2010Prop41ColorIndex
 90
       18
102
RTVSPost2010Prop41ColorRGB
 90
        0
102
RTVSPost2010PropOp41
 70
     1
102
RTVSPost2010Prop42
 90
       50
102
RTVSPost2010PropOp42
 70
     1
102
RTVSPost2010Prop43
 90
        3
102
RTVSPost2010PropOp43
 70
     1
102
RTVSPost2010Prop44ColorIndex
 90
        5
102
RTVSPost2010Prop44ColorRGB
 90
      255
102
RTVSPost2010PropOp44
 70
     1
102
RTVSPost2010Prop45
280
     0
102
RTVSPost2010PropOp45
 70
     1
102
RTVSPost2010Prop46
 90
       50
102
RTVSPost2010PropOp46
 70
     1
102
RTVSPost2010Prop47
 90
       50
102
RTVSPost2010PropOp47
 70
     1
102
RTVSPost2010Prop48
 90
       50
102
RTVSPost2010PropOp48
 70
     1
102
RTVSPost2010Prop49
280
     0
102
RTVSPost2010PropOp49
 70
     1
102
RTVSPost2010Prop50
 90
       50
102
RTVSPost2010PropOp50
 70
     1
102
RTVSPost2010Prop51ColorIndex
 90
      256
102
RTVSPost2010Prop51ColorRGB
 90
-16777216
102
RTVSPost2010PropOp51
 70
     0
102
RTVSPost2010Prop52
140
1.0
102
RTVSPost2010PropOp52
 70
     0
102
RTVSPost2010Prop53
 90
        2
102
RTVSPost2010PropOp53
 70
     1
102
RTVSPost2010Prop54
  1
strokes_ogs.tif
102
RTVSPost2010PropOp54
 70
     1
102
RTVSPost2010Prop55
280
     0
102
RTVSPost2010PropOp55
 70
     1
102
RTVSPost2010Prop56
140
1.0
102
RTVSPost2010PropOp56
 70
     1
102
RTVSPost2010Prop57
140
1.0
102
RTVSPost2010PropOp57
 70
     1
102
RTVSPropertyOp0
 70
     1
102
RTVSPropertyOp1
 70
     1
102
RTVSPropertyOp2
 70
     1
102
RTVSPropertyOp3
 70
     1
102
RTVSPropertyOp4
 70
     1
102
RTVSPropertyOp5
 70
     1
102
RTVSPropertyOp6
 70
     1
102
RTVSPropertyOp7
 70
     1
102
RTVSPropertyOp8
 70
     1
102
RTVSPropertyOp9
 70
     1
102
RTVSPropertyOp10
 70
     1
102
RTVSPropertyOp11
 70
     1
102
RTVSPropertyOp12
 70
     1
102
RTVSPropertyOp13
 70
     1
102
RTVSPropertyOp14
 70
     1
102
RTVSPropertyOp15
 70
     1
102
RTVSPropertyOp16
 70
     1
102
RTVSPropertyOp17
 70
     1
102
RTVSPropertyOp18
 70
     1
102
RTVSPropertyOp19
 70
     1
102
RTVSPropertyOp20
 70
     1
102
RTVSPropertyOp21
 70
     1
102
RTVSPropertyOp22
 70
     1
102
RTVSPropertyOp23
 70
     1
102
RTVSPropertyOp24
 70
     1
102
RTVSPropertyOp25
 70
     1
102
RTVSPropertyOp26
 70
     1
102
RTVSPropertyOp27
 70
     1
102
RTVSPropertyOp28
 70
     1
102
RTVSPropertyOp29
 70
     1
102
RTVSPropertyOp30
 70
     1
102
RTVSPropertyOp31
 70
     1
102
RTVSPropertyOp32
 70
     1
102
RTVSPropertyOp33
 70
     1
102
RTVSPropertyOp34
 70
     1
102
RTVSPropertyOp35
 70
     1
102
RTVSPropertyOp36
 70
     1
102
RTVSPropertyOp37
 70
     1
102
RTVSPropertyOp38
 70
     1
102
RTVSPropertyOp39
 70
     1
102
RTVSPropertyOp40
 70
     1
102
RTVSPropertyOp41
 70
     1
102
RTVSPropertyOp42
 70
     1
102
RTVSPropertyOp43
 70
     1
102
RTVSPropertyOp44
 70
     1
102
RTVSPropertyOp45
 70
     1
102
RTVSPropertyOp46
 70
     1
102
RTVSPropertyOp47
 70
     1
102
RTVSPropertyOp48
 70
     1
102
RTVSPropertyOp49
 70
     1
102
RTVSPropertyOp50
 70
     1
102
RTVSPropertyOp51
 70
     0
102
RTVSPropertyOp52
 70
     0
102
RTVSPropertyOp53
 70
     1
102
RTVSPropertyOp54
 70
     1
102
RTVSPropertyOp55
 70
     1
102
RTVSPropertyOp56
 70
     1
102
RTVSPropertyOp57
 70
     1
102
RTVSPropertyOp58
 70
     1
102
RTVSPropertyOp59
 70
     1
102
RTVSPropertyOp60
 70
     1
102
RTVSPropertyOp61
 70
     1
102
RTVSPropertyOp62
 70
     1
  0
ENDSEC
  0
EOF
