  0
SECTION
  2
HEADER
  9
$ACADVER
  1
AC1015
  9
$ACADMAINTVER
 70
    20
  9
$DWGCODEPAGE
  3
ANSI_932
  9
$INSBASE
 10
0.0
 20
0.0
 30
0.0
  9
$EXTMIN
 10
10.0
 20
9.999999999999998
 30
0.0
  9
$EXTMAX
 10
406.533949
 20
283.200895
 30
0.0
  9
$LIMMIN
 10
0.0
 20
0.0
  9
$LIMMAX
 10
495.0
 20
341.25
  9
$ORTHOMODE
 70
     1
  9
$REGENMODE
 70
     1
  9
$FILLMODE
 70
     1
  9
$QTEXTMODE
 70
     0
  9
$MIRRTEXT
 70
     1
  9
$LTSCALE
 40
20.0
  9
$ATTMODE
 70
     1
  9
$TEXTSIZE
 40
5.0
  9
$TRACEWID
 40
1.0
  9
$TEXTSTYLE
  7
STANDARD
  9
$CLAYER
  8
0
  9
$CELTYPE
  6
BYLAYER
  9
$CECOLOR
 62
   256
  9
$CELTSCALE
 40
1.0
  9
$DISPSILH
 70
     0
  9
$DIMSCALE
 40
1.0
  9
$DIMASZ
 40
2.5
  9
$DIMEXO
 40
1.0
  9
$DIMDLI
 40
10.0
  9
$DIMRND
 40
0.0
  9
$DIMDLE
 40
0.0
  9
$DIMEXE
 40
1.0
  9
$DIMTP
 40
0.0
  9
$DIMTM
 40
0.0
  9
$DIMTXT
 40
3.2
  9
$DIMCEN
 40
0.0
  9
$DIMTSZ
 40
0.0
  9
$DIMTOL
 70
     0
  9
$DIMLIM
 70
     0
  9
$DIMTIH
 70
     0
  9
$DIMTOH
 70
     0
  9
$DIMSE1
 70
     0
  9
$DIMSE2
 70
     0
  9
$DIMTAD
 70
     3
  9
$DIMZIN
 70
     8
  9
$DIMBLK
  1

  9
$DIMASO
 70
     1
  9
$DIMSHO
 70
     1
  9
$DIMPOST
  1

  9
$DIMAPOST
  1

  9
$DIMALT
 70
     0
  9
$DIMALTD
 70
     2
  9
$DIMALTF
 40
25.4
  9
$DIMLFAC
 40
1.0
  9
$DIMTOFL
 70
     1
  9
$DIMTVP
 40
0.0
  9
$DIMTIX
 70
     0
  9
$DIMSOXD
 70
     0
  9
$DIMSAH
 70
     1
  9
$DIMBLK1
  1

  9
$DIMBLK2
  1

  9
$DIMSTYLE
  2
STANDARD
  9
$DIMCLRD
 70
     0
  9
$DIMCLRE
 70
     0
  9
$DIMCLRT
 70
     0
  9
$DIMTFAC
 40
1.0
  9
$DIMGAP
 40
1.0
  9
$DIMJUST
 70
     0
  9
$DIMSD1
 70
     0
  9
$DIMSD2
 70
     0
  9
$DIMTOLJ
 70
     1
  9
$DIMTZIN
 70
     0
  9
$DIMALTZ
 70
     0
  9
$DIMALTTZ
 70
     0
  9
$DIMUPT
 70
     0
  9
$DIMDEC
 70
     4
  9
$DIMTDEC
 70
     4
  9
$DIMALTU
 70
     2
  9
$DIMALTTD
 70
     2
  9
$DIMTXSTY
  7
STANDARD
  9
$DIMAUNIT
 70
     0
  9
$DIMADEC
 70
     0
  9
$DIMALTRND
 40
0.0
  9
$DIMAZIN
 70
     0
  9
$DIMDSEP
 70
    46
  9
$DIMATFIT
 70
     3
  9
$DIMFRAC
 70
     0
  9
$DIMLDRBLK
  1

  9
$DIMLUNIT
 70
     2
  9
$DIMLWD
 70
    -2
  9
$DIMLWE
 70
    -2
  9
$DIMTMOVE
 70
     0
  9
$LUNITS
 70
     2
  9
$LUPREC
 70
     4
  9
$SKETCHINC
 40
1.0
  9
$FILLETRAD
 40
6.0
  9
$AUNITS
 70
     0
  9
$AUPREC
 70
     2
  9
$MENU
  1
.
  9
$ELEVATION
 40
0.0
  9
$PELEVATION
 40
0.0
  9
$THICKNESS
 40
0.0
  9
$LIMCHECK
 70
     0
  9
$CHAMFERA
 40
10.0
  9
$CHAMFERB
 40
10.0
  9
$CHAMFERC
 40
0.0
  9
$CHAMFERD
 40
0.0
  9
$SKPOLY
 70
     0
  9
$TDCREATE
 40
2451301.450981250
  9
$TDUCREATE
 40
2451301.075981250
  9
$TDUPDATE
 40
2457192.690345209
  9
$TDUUPDATE
 40
2457192.315345208
  9
$TDINDWG
 40
0.1473659144
  9
$TDUSRTIMER
 40
0.1473657755
  9
$USRTIMER
 70
     1
  9
$ANGBASE
 50
0.0
  9
$ANGDIR
 70
     0
  9
$PDMODE
 70
     0
  9
$PDSIZE
 40
0.0
  9
$PLINEWID
 40
0.0
  9
$SPLFRAME
 70
     0
  9
$SPLINETYPE
 70
     6
  9
$SPLINESEGS
 70
     8
  9
$HANDSEED
  5
9FDE
  9
$SURFTAB1
 70
     6
  9
$SURFTAB2
 70
     6
  9
$SURFTYPE
 70
     6
  9
$SURFU
 70
     6
  9
$SURFV
 70
     6
  9
$UCSBASE
  2

  9
$UCSNAME
  2

  9
$UCSORG
 10
0.0
 20
0.0
 30
0.0
  9
$UCSXDIR
 10
1.0
 20
0.0
 30
0.0
  9
$UCSYDIR
 10
0.0
 20
1.0
 30
0.0
  9
$UCSORTHOREF
  2

  9
$UCSORTHOVIEW
 70
     0
  9
$UCSORGTOP
 10
0.0
 20
0.0
 30
0.0
  9
$UCSORGBOTTOM
 10
0.0
 20
0.0
 30
0.0
  9
$UCSORGLEFT
 10
0.0
 20
0.0
 30
0.0
  9
$UCSORGRIGHT
 10
0.0
 20
0.0
 30
0.0
  9
$UCSORGFRONT
 10
0.0
 20
0.0
 30
0.0
  9
$UCSORGBACK
 10
0.0
 20
0.0
 30
0.0
  9
$PUCSBASE
  2

  9
$PUCSNAME
  2

  9
$PUCSORG
 10
0.0
 20
0.0
 30
0.0
  9
$PUCSXDIR
 10
1.0
 20
0.0
 30
0.0
  9
$PUCSYDIR
 10
0.0
 20
1.0
 30
0.0
  9
$PUCSORTHOREF
  2

  9
$PUCSORTHOVIEW
 70
     0
  9
$PUCSORGTOP
 10
0.0
 20
0.0
 30
0.0
  9
$PUCSORGBOTTOM
 10
0.0
 20
0.0
 30
0.0
  9
$PUCSORGLEFT
 10
0.0
 20
0.0
 30
0.0
  9
$PUCSORGRIGHT
 10
0.0
 20
0.0
 30
0.0
  9
$PUCSORGFRONT
 10
0.0
 20
0.0
 30
0.0
  9
$PUCSORGBACK
 10
0.0
 20
0.0
 30
0.0
  9
$USERI1
 70
     0
  9
$USERI2
 70
     0
  9
$USERI3
 70
     0
  9
$USERI4
 70
     0
  9
$USERI5
 70
     0
  9
$USERR1
 40
0.0
  9
$USERR2
 40
0.0
  9
$USERR3
 40
0.0
  9
$USERR4
 40
0.0
  9
$USERR5
 40
0.0
  9
$WORLDVIEW
 70
     1
  9
$SHADEDGE
 70
     3
  9
$SHADEDIF
 70
    70
  9
$TILEMODE
 70
     1
  9
$MAXACTVP
 70
    16
  9
$PINSBASE
 10
0.0
 20
0.0
 30
0.0
  9
$PLIMCHECK
 70
     0
  9
$PEXTMIN
 10
1.000000000000000E+20
 20
1.000000000000000E+20
 30
1.000000000000000E+20
  9
$PEXTMAX
 10
-1.000000000000000E+20
 20
-1.000000000000000E+20
 30
-1.000000000000000E+20
  9
$PLIMMIN
 10
0.0
 20
0.0
  9
$PLIMMAX
 10
420.0
 20
297.0
  9
$UNITMODE
 70
     0
  9
$VISRETAIN
 70
     0
  9
$PLINEGEN
 70
     0
  9
$PSLTSCALE
 70
     0
  9
$TREEDEPTH
 70
  3020
  9
$CMLSTYLE
  2
STANDARD
  9
$CMLJUST
 70
     0
  9
$CMLSCALE
 40
1.0
  9
$PROXYGRAPHICS
 70
     1
  9
$MEASUREMENT
 70
     0
  9
$CELWEIGHT
370
    -1
  9
$ENDCAPS
280
     0
  9
$JOINSTYLE
280
     0
  9
$LWDISPLAY
290
     0
  9
$INSUNITS
 70
     0
  9
$HYPERLINKBASE
  1

  9
$STYLESHEET
  1

  9
$XEDIT
290
     1
  9
$CEPSNTYPE
380
     0
  9
$PSTYLEMODE
290
     1
  9
$FINGERPRINTGUID
  2
{46742119-C357-442D-9E89-FCA4BF001A97}
  9
$VERSIONGUID
  2
{196E89FA-C412-40EE-AFB9-6A6982CC050E}
  9
$EXTNAMES
290
     1
  9
$PSVPSCALE
 40
0.0
  9
$OLESTARTUP
290
     0
  0
ENDSEC
  0
SECTION
  2
CLASSES
  0
CLASS
  1
ACDBDICTIONARYWDFLT
  2
AcDbDictionaryWithDefault
  3
ObjectDBX Classes
 90
        0
280
     0
281
     0
  0
CLASS
  1
ACDBPLACEHOLDER
  2
AcDbPlaceHolder
  3
ObjectDBX Classes
 90
        0
280
     0
281
     0
  0
CLASS
  1
LAYOUT
  2
AcDbLayout
  3
ObjectDBX Classes
 90
        0
280
     0
281
     0
  0
CLASS
  1
DICTIONARYVAR
  2
AcDbDictionaryVar
  3
ObjectDBX Classes
 90
        0
280
     0
281
     0
  0
CLASS
  1
MATERIAL
  2
AcDbMaterial
  3
ObjectDBX Classes
 90
     1153
280
     0
281
     0
  0
CLASS
  1
VISUALSTYLE
  2
AcDbVisualStyle
  3
ObjectDBX Classes
 90
     4095
280
     0
281
     0
  0
CLASS
  1
TABLESTYLE
  2
AcDbTableStyle
  3
ObjectDBX Classes
 90
     4095
280
     0
281
     0
  0
CLASS
  1
SCALE
  2
AcDbScale
  3
ObjectDBX Classes
 90
     1153
280
     0
281
     0
  0
CLASS
  1
MLEADERSTYLE
  2
AcDbMLeaderStyle
  3
ACDB_MLEADERSTYLE_CLASS
 90
     4095
280
     0
281
     0
  0
CLASS
  1
ACDBSECTIONVIEWSTYLE
  2
AcDbSectionViewStyle
  3
ObjectDBX Classes
 90
     1025
280
     0
281
     0
  0
CLASS
  1
ACDBDETAILVIEWSTYLE
  2
AcDbDetailViewStyle
  3
ObjectDBX Classes
 90
     1025
280
     0
281
     0
  0
CLASS
  1
CELLSTYLEMAP
  2
AcDbCellStyleMap
  3
ObjectDBX Classes
 90
     1152
280
     0
281
     0
  0
ENDSEC
  0
SECTION
  2
TABLES
  0
TABLE
  2
VPORT
  5
9D3A
330
0
100
AcDbSymbolTable
 70
     1
  0
VPORT
  5
9F29
330
9D3A
100
AcDbSymbolTableRecord
100
AcDbViewportTableRecord
  2
*ACTIVE
 70
     0
 10
0.0
 20
0.0
 11
1.0
 21
1.0
 12
313.4405314458347
 22
146.5944107091861
 13
0.0
 23
0.0
 14
10.0
 24
10.0
 15
10.0
 25
10.0
 16
0.0
 26
0.0
 36
1.0
 17
0.0
 27
0.0
 37
0.0
 40
275.3714876882438
 41
2.35006605019815
 42
50.0
 43
0.0
 44
0.0
 50
0.0
 51
0.0
 71
     0
 72
   100
 73
     1
 74
     0
 75
     0
 76
     0
 77
     0
 78
     0
281
     0
 65
     1
110
0.0
120
0.0
130
0.0
111
1.0
121
0.0
131
0.0
112
0.0
122
1.0
132
0.0
 79
     0
146
0.0
1001
ACAD_NAV_VCDISPLAY
1070
     3
  0
ENDTAB
  0
TABLE
  2
LTYPE
  5
9D37
330
0
100
AcDbSymbolTable
 70
     4
  0
LTYPE
  5
9D45
330
9D37
100
AcDbSymbolTableRecord
100
AcDbLinetypeTableRecord
  2
BYBLOCK
 70
     0
  3

 72
    65
 73
     0
 40
0.0
  0
LTYPE
  5
9D46
330
9D37
100
AcDbSymbolTableRecord
100
AcDbLinetypeTableRecord
  2
BYLAYER
 70
     0
  3

 72
    65
 73
     0
 40
0.0
  0
LTYPE
  5
9D47
330
9D37
100
AcDbSymbolTableRecord
100
AcDbLinetypeTableRecord
  2
CONTINUOUS
 70
     0
  3
Solid line
 72
    65
 73
     0
 40
0.0
  0
LTYPE
  5
9D55
330
9D37
100
AcDbSymbolTableRecord
100
AcDbLinetypeTableRecord
  2
DASHED
 70
     0
  3
__ __ __ __ __ __ __ __ __ __ __ __ __ __ __ __
 72
    65
 73
     2
 40
0.75
 49
0.5
 74
     0
 49
-0.25
 74
     0
  0
LTYPE
  5
9D56
330
9D37
100
AcDbSymbolTableRecord
100
AcDbLinetypeTableRecord
  2
CENTER
 70
     0
  3
____ _ ____ _ ____ _ ____ _ ____ _ ____ _ ____ 
 72
    65
 73
     4
 40
2.0
 49
1.25
 74
     0
 49
-0.25
 74
     0
 49
0.25
 74
     0
 49
-0.25
 74
     0
  0
LTYPE
  5
9D57
330
9D37
100
AcDbSymbolTableRecord
100
AcDbLinetypeTableRecord
  2
PHANTOM
 70
     0
  3
______  __  __  ______  __  __  ______  __  __ 
 72
    65
 73
     6
 40
2.5
 49
1.25
 74
     0
 49
-0.25
 74
     0
 49
0.25
 74
     0
 49
-0.25
 74
     0
 49
0.25
 74
     0
 49
-0.25
 74
     0
  0
ENDTAB
  0
TABLE
  2
LAYER
  5
9D34
330
0
100
AcDbSymbolTable
 70
     8
  0
LAYER
  5
9D42
102
{ACAD_XDICTIONARY
360
9F82
102
}
330
9D34
100
AcDbSymbolTableRecord
100
AcDbLayerTableRecord
  2
0
 70
     0
 62
     7
  6
CONTINUOUS
370
    -3
390
9F30
  0
LAYER
  5
9D58
102
{ACAD_XDICTIONARY
360
9F84
102
}
330
9D34
100
AcDbSymbolTableRecord
100
AcDbLayerTableRecord
  2
4
 70
     0
 62
     1
  6
CENTER
370
    -3
390
9F30
  0
LAYER
  5
9D59
102
{ACAD_XDICTIONARY
360
9F86
102
}
330
9D34
100
AcDbSymbolTableRecord
100
AcDbLayerTableRecord
  2
5
 70
     0
 62
     6
  6
PHANTOM
370
    -3
390
9F30
  0
LAYER
  5
9D5A
102
{ACAD_XDICTIONARY
360
9F88
102
}
330
9D34
100
AcDbSymbolTableRecord
100
AcDbLayerTableRecord
  2
1
 70
     0
 62
     7
  6
CONTINUOUS
370
    -3
390
9F30
  0
LAYER
  5
9D5B
102
{ACAD_XDICTIONARY
360
9F8A
102
}
330
9D34
100
AcDbSymbolTableRecord
100
AcDbLayerTableRecord
  2
2
 70
     0
 62
     4
  6
CONTINUOUS
370
    -3
390
9F30
  0
LAYER
  5
9D5C
102
{ACAD_XDICTIONARY
360
9F8C
102
}
330
9D34
100
AcDbSymbolTableRecord
100
AcDbLayerTableRecord
  2
3
 70
     0
 62
     2
  6
DASHED
370
    -3
390
9F30
  0
LAYER
  5
9D5D
102
{ACAD_XDICTIONARY
360
9F8E
102
}
330
9D34
100
AcDbSymbolTableRecord
100
AcDbLayerTableRecord
  2
6
 70
     0
 62
     5
  6
CONTINUOUS
370
    -3
390
9F30
  0
LAYER
  5
9D5E
102
{ACAD_XDICTIONARY
360
9F90
102
}
330
9D34
100
AcDbSymbolTableRecord
100
AcDbLayerTableRecord
  2
7
 70
     0
 62
     3
  6
CONTINUOUS
370
    -3
390
9F30
  0
ENDTAB
  0
TABLE
  2
STYLE
  5
9D35
330
0
100
AcDbSymbolTable
 70
     1
  0
STYLE
  5
9D43
330
9D35
100
AcDbSymbolTableRecord
100
AcDbTextStyleTableRecord
  2
STANDARD
 70
     0
 40
0.0
 41
1.0
 50
0.0
 71
     0
 42
5.0
  3
txt
  4

  0
ENDTAB
  0
TABLE
  2
VIEW
  5
9D38
330
0
100
AcDbSymbolTable
 70
     0
  0
ENDTAB
  0
TABLE
  2
UCS
  5
9D39
330
0
100
AcDbSymbolTable
 70
     0
  0
ENDTAB
  0
TABLE
  2
APPID
  5
9D3B
330
0
100
AcDbSymbolTable
 70
     3
  0
APPID
  5
9D44
330
9D3B
100
AcDbSymbolTableRecord
100
AcDbRegAppTableRecord
  2
ACAD
 70
     0
  0
APPID
  5
9F9C
330
9D3B
100
AcDbSymbolTableRecord
100
AcDbRegAppTableRecord
  2
ACAD_NAV_VCDISPLAY
 70
     0
  0
APPID
  5
9FD5
330
9D3B
100
AcDbSymbolTableRecord
100
AcDbRegAppTableRecord
  2
ACAD_MLEADERVER
 70
     0
  0
ENDTAB
  0
TABLE
  2
DIMSTYLE
  5
9D3C
330
0
100
AcDbSymbolTable
 70
     1
100
AcDbDimStyleTable
 71
     0
  0
DIMSTYLE
105
9D60
330
9D3C
100
AcDbSymbolTableRecord
100
AcDbDimStyleTableRecord
  2
STANDARD
 70
     0
 41
2.5
 42
1.0
 43
10.0
 44
1.0
 73
     0
 74
     0
 77
     3
 78
     8
140
3.2
141
0.0
147
1.0
172
     1
173
     1
284
     8
285
     8
286
     8
340
9D43
  0
ENDTAB
  0
TABLE
  2
BLOCK_RECORD
  5
9D33
330
0
100
AcDbSymbolTable
 70
     0
  0
BLOCK_RECORD
  5
9D50
102
{ACAD_XDICTIONARY
360
9F0F
102
}
330
9D33
100
AcDbSymbolTableRecord
100
AcDbBlockTableRecord
  2
*MODEL_SPACE
340
9F7E
  0
BLOCK_RECORD
  5
9D4C
102
{ACAD_XDICTIONARY
360
9F0D
102
}
330
9D33
100
AcDbSymbolTableRecord
100
AcDbBlockTableRecord
  2
*PAPER_SPACE
340
9F7F
  0
ENDTAB
  0
ENDSEC
  0
SECTION
  2
BLOCKS
  0
BLOCK
  5
9D51
330
9D50
100
AcDbEntity
  8
0
100
AcDbBlockBegin
  2
*MODEL_SPACE
 70
     0
 10
0.0
 20
0.0
 30
0.0
  3
*MODEL_SPACE
  1

  0
ENDBLK
  5
9D52
330
9D50
100
AcDbEntity
  8
0
100
AcDbBlockEnd
  0
BLOCK
  5
9D4D
330
9D4C
100
AcDbEntity
 67
     1
  8
0
100
AcDbBlockBegin
  2
*PAPER_SPACE
 70
     0
 10
0.0
 20
0.0
 30
0.0
  3
*PAPER_SPACE
  1

  0
ENDBLK
  5
9D4E
330
9D4C
100
AcDbEntity
 67
     1
  8
0
100
AcDbBlockEnd
  0
ENDSEC
  0
SECTION
  2
ENTITIES
  0
TEXT
  5
9D68
330
9D50
100
AcDbEntity
  8
7
  6
Continuous
100
AcDbText
 10
10.0
 20
18.0
 30
0.0
 40
3.0
  1
TYPE No.TCA-420E-R50
100
AcDbText
  0
TEXT
  5
9D69
330
9D50
100
AcDbEntity
  8
7
  6
Continuous
100
AcDbText
 10
10.0
 20
26.0
 30
0.0
 40
3.0
  1
CODE No.9738
100
AcDbText
  0
TEXT
  5
9D6A
330
9D50
100
AcDbEntity
  8
1
  6
Continuous
100
AcDbText
 10
10.0
 20
10.0
 30
0.0
 40
1.399999999999999
  1
LAYER
100
AcDbText
  0
TEXT
  5
9D6B
330
9D50
100
AcDbEntity
  8
1
  6
Continuous
100
AcDbText
 10
17.97951099999998
 20
10.04873699999998
 30
0.0
 40
1.399999999999999
  1
1
100
AcDbText
  0
TEXT
  5
9D6C
330
9D50
100
AcDbEntity
  8
7
  6
Continuous
100
AcDbText
 10
29.97951099999999
 20
10.04873699999998
 30
0.0
 40
1.399999999999999
  1
7
100
AcDbText
  0
TEXT
  5
9D6D
330
9D50
100
AcDbEntity
  8
4
  6
CENTER
100
AcDbText
 10
23.97951099999999
 20
10.04873699999998
 30
0.0
 40
1.399999999999999
  1
4
100
AcDbText
  0
TEXT
  5
9D6E
330
9D50
100
AcDbEntity
  8
3
  6
DASHED
100
AcDbText
 10
21.979511
 20
10.04873699999998
 30
0.0
 40
1.399999999999999
  1
3
100
AcDbText
  0
TEXT
  5
9D6F
330
9D50
100
AcDbEntity
  8
2
  6
Continuous
100
AcDbText
 10
19.97951099999998
 20
10.04873699999998
 30
0.0
 40
1.399999999999999
  1
2
100
AcDbText
  0
TEXT
  5
9D70
330
9D50
100
AcDbEntity
  8
6
  6
Continuous
100
AcDbText
 10
27.979511
 20
10.04873699999998
 30
0.0
 40
1.399999999999999
  1
6
100
AcDbText
  0
TEXT
  5
9D71
330
9D50
100
AcDbEntity
  8
5
  6
PHANTOM
100
AcDbText
 10
25.97951099999999
 20
10.04873699999998
 30
0.0
 40
1.399999999999999
  1
5
100
AcDbText
  0
LINE
  5
9D72
330
9D50
100
AcDbEntity
  8
4
  6
CENTER
 48
0.8
100
AcDbLine
 10
49.033949
 20
198.700895
 30
0.0
 11
49.033949
 21
123.7008949999997
 31
0.0
  0
LINE
  5
9D73
330
9D50
100
AcDbEntity
  8
4
  6
CENTER
 48
0.8
100
AcDbLine
 10
27.533964
 20
153.700895
 30
0.0
 11
71.83393000000002
 21
153.700895
 31
0.0
  0
LINE
  5
9D74
330
9D50
100
AcDbEntity
  8
1
  6
Continuous
100
AcDbLine
 10
36.033949
 20
150.4508949999998
 30
0.0
 11
37.033949
 21
150.4508949999998
 31
0.0
  0
LINE
  5
9D75
330
9D50
100
AcDbEntity
  8
1
  6
Continuous
100
AcDbLine
 10
36.033949
 20
156.950895
 30
0.0
 11
37.033949
 21
156.950895
 31
0.0
  0
LINE
  5
9D76
330
9D50
100
AcDbEntity
  8
1
  6
Continuous
100
AcDbLine
 10
37.75704000000001
 20
180.393352
 30
0.0
 11
60.31085799999999
 21
180.393352
 31
0.0
  0
LINE
  5
9D77
330
9D50
100
AcDbEntity
  8
1
  6
Continuous
100
AcDbLine
 10
37.20402299999999
 20
181.627127
 30
0.0
 11
37.75703200000001
 21
180.393347
 31
0.0
  0
LINE
  5
9D78
330
9D50
100
AcDbEntity
  8
1
  6
Continuous
100
AcDbLine
 10
60.863852
 20
181.627135
 30
0.0
 11
60.310835
 21
180.3933539999999
 31
0.0
  0
LINE
  5
9D79
330
9D50
100
AcDbEntity
  8
4
  6
CENTER
 48
0.8
100
AcDbLine
 10
158.533949
 20
198.700895
 30
0.0
 11
158.533949
 21
163.967531
 31
0.0
  0
LINE
  5
9D7A
330
9D50
100
AcDbEntity
  8
4
  6
CENTER
 48
0.8
100
AcDbLine
 10
191.533949
 20
271.2008949999999
 30
0.0
 11
181.533949
 21
271.2008949999999
 31
0.0
  0
LINE
  5
9D7B
330
9D50
100
AcDbEntity
  8
4
  6
CENTER
 48
0.8
100
AcDbLine
 10
186.533949
 20
276.200895
 30
0.0
 11
186.533949
 21
266.200895
 31
0.0
  0
LINE
  5
9D7C
330
9D50
100
AcDbEntity
  8
4
  6
CENTER
 48
0.8
100
AcDbLine
 10
158.533949
 20
283.200895
 30
0.0
 11
158.533949
 21
231.200895
 31
0.0
  0
LINE
  5
9D7D
330
9D50
100
AcDbEntity
  8
4
  6
CENTER
 48
0.8
100
AcDbLine
 10
196.1618629999999
 20
257.200895
 30
0.0
 11
107.5339489999997
 21
257.200895
 31
0.0
  0
LINE
  5
9D7E
330
9D50
100
AcDbEntity
  8
4
  6
CENTER
 48
0.8
100
AcDbLine
 10
191.533949
 20
243.2008909999999
 30
0.0
 11
181.533949
 21
243.2008909999999
 31
0.0
  0
LINE
  5
9D7F
330
9D50
100
AcDbEntity
  8
4
  6
CENTER
 48
0.8
100
AcDbLine
 10
186.533949
 20
238.200895
 30
0.0
 11
186.533949
 21
248.200895
 31
0.0
  0
LINE
  5
9D80
330
9D50
100
AcDbEntity
  8
1
  6
Continuous
100
AcDbLine
 10
130.533949
 20
278.200895
 30
0.0
 11
186.533949
 21
278.200895
 31
0.0
  0
LINE
  5
9D81
330
9D50
100
AcDbEntity
  8
4
  6
CENTER
 48
0.8
100
AcDbLine
 10
125.5339489999997
 20
271.2008949999999
 30
0.0
 11
135.533945
 21
271.2008949999999
 31
0.0
  0
LINE
  5
9D82
330
9D50
100
AcDbEntity
  8
4
  6
CENTER
 48
0.8
100
AcDbLine
 10
130.533949
 20
276.200895
 30
0.0
 11
130.533949
 21
266.200887
 31
0.0
  0
LINE
  5
9D83
330
9D50
100
AcDbEntity
  8
1
  6
Continuous
100
AcDbLine
 10
130.5339529999999
 20
236.200895
 30
0.0
 11
186.533949
 21
236.200895
 31
0.0
  0
LINE
  5
9D84
330
9D50
100
AcDbEntity
  8
4
  6
CENTER
 48
0.8
100
AcDbLine
 10
125.5339489999997
 20
243.2008909999999
 30
0.0
 11
135.533949
 21
243.2008909999999
 31
0.0
  0
LINE
  5
9D85
330
9D50
100
AcDbEntity
  8
4
  6
CENTER
 48
0.8
100
AcDbLine
 10
130.533949
 20
238.200891
 30
0.0
 11
130.533949
 21
248.200887
 31
0.0
  0
LINE
  5
9D86
330
9D50
100
AcDbEntity
  8
1
  6
Continuous
100
AcDbLine
 10
28.033949
 20
193.700895
 30
0.0
 11
70.03394899999999
 21
193.700895
 31
0.0
  0
LINE
  5
9D87
330
9D50
100
AcDbEntity
  8
1
  6
Continuous
100
AcDbLine
 10
28.033949
 20
191.7008949999998
 30
0.0
 11
70.03394899999999
 21
191.7008949999998
 31
0.0
  0
LINE
  5
9D88
330
9D50
100
AcDbEntity
  8
1
  6
Continuous
100
AcDbLine
 10
32.23394600000001
 20
188.400892
 30
0.0
 11
65.833952
 21
188.400892
 31
0.0
  0
LINE
  5
9D89
330
9D50
100
AcDbEntity
  8
1
  6
Continuous
100
AcDbLine
 10
29.97637800000001
 20
190.26119
 30
0.0
 11
29.77474
 21
191.2964839999999
 31
0.0
  0
LINE
  5
9D8A
330
9D50
100
AcDbEntity
  8
1
  6
Continuous
100
AcDbLine
 10
68.091513
 20
190.261174
 30
0.0
 11
68.293154
 21
191.296469
 31
0.0
  0
LINE
  5
9D8B
330
9D50
100
AcDbEntity
  8
1
  6
Continuous
100
AcDbLine
 10
123.5339489999997
 20
193.700895
 30
0.0
 11
193.533949
 21
193.700895
 31
0.0
  0
LINE
  5
9D8C
330
9D50
100
AcDbEntity
  8
1
  6
Continuous
100
AcDbLine
 10
123.5339489999997
 20
191.7009
 30
0.0
 11
123.5339489999997
 21
193.7008999999999
 31
0.0
  0
LINE
  5
9D8D
330
9D50
100
AcDbEntity
  8
1
  6
Continuous
100
AcDbLine
 10
123.5339489999997
 20
191.7008949999998
 30
0.0
 11
193.533949
 21
191.7008949999998
 31
0.0
  0
LINE
  5
9D8E
330
9D50
100
AcDbEntity
  8
1
  6
Continuous
100
AcDbLine
 10
141.733948
 20
188.400892
 30
0.0
 11
175.333952
 21
188.400892
 31
0.0
  0
LINE
  5
9D8F
330
9D50
100
AcDbEntity
  8
1
  6
Continuous
100
AcDbLine
 10
139.476378
 20
190.261191
 30
0.0
 11
139.274735
 21
191.2964849999999
 31
0.0
  0
LINE
  5
9D90
330
9D50
100
AcDbEntity
  8
1
  6
Continuous
100
AcDbLine
 10
193.533949
 20
191.7008889999999
 30
0.0
 11
193.533949
 21
193.700895
 31
0.0
  0
LINE
  5
9D91
330
9D50
100
AcDbEntity
  8
1
  6
Continuous
100
AcDbLine
 10
177.591505
 20
190.261174
 30
0.0
 11
177.79315
 21
191.2964679999998
 31
0.0
  0
LINE
  5
9D92
330
9D50
100
AcDbEntity
  8
4
  6
CENTER
 48
0.8
100
AcDbLine
 10
130.533949
 20
186.7008949999998
 30
0.0
 11
130.533949
 21
198.700895
 31
0.0
  0
LINE
  5
9D93
330
9D50
100
AcDbEntity
  8
4
  6
CENTER
 48
0.8
100
AcDbLine
 10
186.533949
 20
186.7008949999998
 30
0.0
 11
186.533949
 21
198.700895
 31
0.0
  0
LINE
  5
9D94
330
9D50
100
AcDbEntity
  8
1
  6
Continuous
100
AcDbLine
 10
28.033949
 20
193.700895
 30
0.0
 11
28.033949
 21
191.7008949999998
 31
0.0
  0
LINE
  5
9D95
330
9D50
100
AcDbEntity
  8
1
  6
Continuous
100
AcDbLine
 10
70.03394899999999
 20
193.700895
 30
0.0
 11
70.03394899999999
 21
191.7008949999998
 31
0.0
  0
LINE
  5
9D96
330
9D50
100
AcDbEntity
  8
4
  6
CENTER
 48
0.8
100
AcDbLine
 10
35.03394899999999
 20
198.700895
 30
0.0
 11
35.03394899999999
 21
186.7008949999998
 31
0.0
  0
LINE
  5
9D97
330
9D50
100
AcDbEntity
  8
4
  6
CENTER
 48
0.8
100
AcDbLine
 10
63.033949
 20
198.700895
 30
0.0
 11
63.033949
 21
186.7008949999998
 31
0.0
  0
LINE
  5
9D98
330
9D50
100
AcDbEntity
  8
1
  6
Continuous
100
AcDbLine
 10
33.033949
 20
187.6608939999999
 30
0.0
 11
65.03394899999999
 21
187.6608939999999
 31
0.0
  0
LINE
  5
9D99
330
9D50
100
AcDbEntity
  8
1
  6
Continuous
100
AcDbLine
 10
36.033949
 20
146.7527859999998
 30
0.0
 11
36.033949
 21
181.70426
 31
0.0
  0
LINE
  5
9D9A
330
9D50
100
AcDbEntity
  8
1
  6
Continuous
100
AcDbLine
 10
34.033964
 20
146.75279
 30
0.0
 11
36.03396399999999
 21
146.75279
 31
0.0
  0
LINE
  5
9D9B
330
9D50
100
AcDbEntity
  8
1
  6
Continuous
100
AcDbLine
 10
34.033964
 20
146.75279
 30
0.0
 11
34.033964
 21
181.7042589999998
 31
0.0
  0
LINE
  5
9D9C
330
9D50
100
AcDbEntity
  8
1
  6
Continuous
100
AcDbLine
 10
62.033949
 20
146.7527859999998
 30
0.0
 11
62.033949
 21
181.70426
 31
0.0
  0
LINE
  5
9D9D
330
9D50
100
AcDbEntity
  8
1
  6
Continuous
100
AcDbLine
 10
64.033934
 20
146.75279
 30
0.0
 11
62.03393399999999
 21
146.75279
 31
0.0
  0
LINE
  5
9D9E
330
9D50
100
AcDbEntity
  8
1
  6
Continuous
100
AcDbLine
 10
64.033934
 20
146.75279
 30
0.0
 11
64.033934
 21
181.7042589999998
 31
0.0
  0
LINE
  5
9D9F
330
9D50
100
AcDbEntity
  8
1
  6
Continuous
100
AcDbLine
 10
64.033934
 20
148.950895
 30
0.0
 11
64.333937
 21
148.950895
 31
0.0
  0
LINE
  5
9DA0
330
9D50
100
AcDbEntity
  8
1
  6
Continuous
100
AcDbLine
 10
64.033934
 20
158.450895
 30
0.0
 11
64.333937
 21
158.450895
 31
0.0
  0
LINE
  5
9DA1
330
9D50
100
AcDbEntity
  8
1
  6
Continuous
100
AcDbLine
 10
64.333937
 20
148.950895
 30
0.0
 11
64.333937
 21
158.450895
 31
0.0
  0
LINE
  5
9DA2
330
9D50
100
AcDbEntity
  8
1
  6
Continuous
100
AcDbLine
 10
32.53396399999999
 20
150.200895
 30
0.0
 11
32.53396399999999
 21
157.2008969999999
 31
0.0
  0
LINE
  5
9DA3
330
9D50
100
AcDbEntity
  8
1
  6
Continuous
100
AcDbLine
 10
33.53396399999999
 20
149.100897
 30
0.0
 11
33.53396399999999
 21
158.300892
 31
0.0
  0
LINE
  5
9DA4
330
9D50
100
AcDbEntity
  8
1
  6
Continuous
100
AcDbLine
 10
33.533957
 20
149.100897
 30
0.0
 11
34.033957
 21
150.4508989999999
 31
0.0
  0
LINE
  5
9DA5
330
9D50
100
AcDbEntity
  8
1
  6
Continuous
100
AcDbLine
 10
34.033964
 20
156.950895
 30
0.0
 11
33.53396399999999
 21
158.3008949999999
 31
0.0
  0
LINE
  5
9DA6
330
9D50
100
AcDbEntity
  8
1
  6
Continuous
100
AcDbLine
 10
131.7812419999998
 20
181.255969
 30
0.0
 11
134.2432599999999
 21
181.690089
 31
0.0
  0
LINE
  5
9DA7
330
9D50
100
AcDbEntity
  8
1
  6
Continuous
100
AcDbLine
 10
131.433941
 20
183.2255849999999
 30
0.0
 11
142.678883
 21
185.208371
 31
0.0
  0
LINE
  5
9DA8
330
9D50
100
AcDbEntity
  8
1
  6
Continuous
100
AcDbLine
 10
131.433945
 20
183.22558
 30
0.0
 11
131.7812419999998
 21
181.2559639999999
 31
0.0
  0
LINE
  5
9DA9
330
9D50
100
AcDbEntity
  8
1
  6
Continuous
100
AcDbLine
 10
139.383951
 20
184.6273789999999
 30
0.0
 11
140.136604
 21
186.057825
 31
0.0
  0
LINE
  5
9DAA
330
9D50
100
AcDbEntity
  8
1
  6
Continuous
100
AcDbLine
 10
142.7915209999999
 20
187.6608939999999
 30
0.0
 11
174.2763809999999
 21
187.6608939999999
 31
0.0
  0
LINE
  5
9DAB
330
9D50
100
AcDbEntity
  8
1
  6
Continuous
100
AcDbLine
 10
133.8959659999999
 20
183.659701
 30
0.0
 11
134.259974
 21
181.595299
 31
0.0
  0
LINE
  5
9DAC
330
9D50
100
AcDbEntity
  8
1
  6
Continuous
100
AcDbLine
 10
145.533949
 20
183.9415149999999
 30
0.0
 11
145.533949
 21
157.5930209999999
 31
0.0
  0
LINE
  5
9DAD
330
9D50
100
AcDbEntity
  8
4
  6
CENTER
 48
0.8
100
AcDbLine
 10
167.5339489999998
 20
153.700895
 30
0.0
 11
107.5339489999997
 21
153.700895
 31
0.0
  0
LINE
  5
9DAE
330
9D50
100
AcDbEntity
  8
4
  6
CENTER
 48
0.8
100
AcDbLine
 10
137.5339489999997
 20
181.200895
 30
0.0
 11
137.5339489999997
 21
123.7008949999997
 31
0.0
  0
LINE
  5
9DAF
330
9D50
100
AcDbEntity
  8
1
  6
Continuous
100
AcDbLine
 10
134.2658919999997
 20
181.2857539999999
 30
0.0
 11
130.5988879999999
 21
154.552168
 31
0.0
  0
LINE
  5
9DB0
330
9D50
100
AcDbEntity
  8
1
  6
Continuous
100
AcDbLine
 10
162.7856509999998
 20
175.94998
 30
0.0
 11
143.1603149999999
 21
149.4362849999999
 31
0.0
  0
LINE
  5
9DB1
330
9D50
100
AcDbEntity
  8
1
  6
Continuous
100
AcDbLine
 10
168.883993
 20
179.115304
 30
0.0
 11
177.533949
 21
179.4173679999999
 31
0.0
  0
LINE
  5
9DB2
330
9D50
100
AcDbEntity
  8
1
  6
Continuous
100
AcDbLine
 10
61.033949
 20
163.700895
 30
0.0
 11
61.033949
 21
143.700895
 31
0.0
  0
LINE
  5
9DB3
330
9D50
100
AcDbEntity
  8
1
  6
Continuous
100
AcDbLine
 10
37.033949
 20
163.700895
 30
0.0
 11
37.033949
 21
143.700895
 31
0.0
  0
LINE
  5
9DB4
330
9D50
100
AcDbEntity
  8
1
  6
Continuous
100
AcDbLine
 10
38.033949
 20
142.700895
 30
0.0
 11
39.033949
 21
142.700895
 31
0.0
  0
LINE
  5
9DB5
330
9D50
100
AcDbEntity
  8
1
  6
Continuous
100
AcDbLine
 10
59.033949
 20
142.700895
 30
0.0
 11
60.03394899999999
 21
142.700895
 31
0.0
  0
LINE
  5
9DB6
330
9D50
100
AcDbEntity
  8
1
  6
Continuous
100
AcDbLine
 10
39.033949
 20
176.0295349999999
 30
0.0
 11
39.033949
 21
131.372255
 31
0.0
  0
LINE
  5
9DB7
330
9D50
100
AcDbEntity
  8
1
  6
Continuous
100
AcDbLine
 10
59.033949
 20
176.0295349999999
 30
0.0
 11
59.033949
 21
131.372255
 31
0.0
  0
LINE
  5
9DB8
330
9D50
100
AcDbEntity
  8
1
  6
Continuous
100
AcDbLine
 10
38.033949
 20
164.700895
 30
0.0
 11
39.033949
 21
164.700895
 31
0.0
  0
LINE
  5
9DB9
330
9D50
100
AcDbEntity
  8
1
  6
Continuous
100
AcDbLine
 10
59.033949
 20
164.700895
 30
0.0
 11
60.03394899999999
 21
164.700895
 31
0.0
  0
LINE
  5
9DBA
330
9D50
100
AcDbEntity
  8
1
  6
Continuous
100
AcDbLine
 10
61.033949
 20
156.950895
 30
0.0
 11
62.033949
 21
156.950895
 31
0.0
  0
LINE
  5
9DBB
330
9D50
100
AcDbEntity
  8
1
  6
Continuous
100
AcDbLine
 10
61.033949
 20
150.4508949999998
 30
0.0
 11
62.033949
 21
150.4508949999998
 31
0.0
  0
ARC
  5
9DBC
330
9D50
100
AcDbEntity
  8
1
  6
Continuous
100
AcDbCircle
 10
186.533949
 20
271.2008949999999
 30
0.0
 40
7.0
100
AcDbArc
 50
340.76692
 51
89.99996800000003
  0
ARC
  5
9DBD
330
9D50
100
AcDbEntity
  8
1
  6
Continuous
100
AcDbCircle
 10
186.533949
 20
243.200895
 30
0.0
 40
7.0
100
AcDbArc
 50
270.0
 51
19.233055
  0
ARC
  5
9DBE
330
9D50
100
AcDbEntity
  8
1
  6
Continuous
100
AcDbCircle
 10
226.6618589999999
 20
257.2009029999999
 30
0.0
 40
35.49999600000001
100
AcDbArc
 50
160.7508329999998
 51
199.23307
  0
ARC
  5
9DBF
330
9D50
100
AcDbEntity
  8
1
  6
Continuous
100
AcDbCircle
 10
130.533949
 20
271.200887
 30
0.0
 40
7.0
100
AcDbArc
 50
89.99998199999996
 51
199.23301
  0
ARC
  5
9DC0
330
9D50
100
AcDbEntity
  8
1
  6
Continuous
100
AcDbCircle
 10
130.5339529999999
 20
243.200895
 30
0.0
 40
7.0
100
AcDbArc
 50
160.76689
 51
269.99995
  0
ARC
  5
9DC1
330
9D50
100
AcDbEntity
  8
1
  6
Continuous
100
AcDbCircle
 10
90.40603500000001
 20
257.200887
 30
0.0
 40
35.49999600000001
100
AcDbArc
 50
340.7668799999999
 51
19.241066
  0
CIRCLE
  5
9DC2
330
9D50
100
AcDbEntity
  8
1
  6
Continuous
100
AcDbCircle
 10
158.533949
 20
257.200895
 30
0.0
 40
17.25
  0
CIRCLE
  5
9DC3
330
9D50
100
AcDbEntity
  8
1
  6
Continuous
100
AcDbCircle
 10
158.533949
 20
257.200895
 30
0.0
 40
15.75
  0
CIRCLE
  5
9DC4
330
9D50
100
AcDbEntity
  8
1
  6
Continuous
100
AcDbCircle
 10
158.533949
 20
257.200895
 30
0.0
 40
8.3
  0
CIRCLE
  5
9DC5
330
9D50
100
AcDbEntity
  8
1
  6
Continuous
100
AcDbCircle
 10
158.533949
 20
257.200895
 30
0.0
 40
6.75
  0
ARC
  5
9DC6
330
9D50
100
AcDbEntity
  8
1
  6
Continuous
100
AcDbCircle
 10
29.283949
 20
191.2008979999999
 30
0.0
 40
0.5
100
AcDbArc
 50
11.021507
 51
90.00000900000001
  0
ARC
  5
9DC7
330
9D50
100
AcDbEntity
  8
1
  6
Continuous
100
AcDbCircle
 10
32.219526
 20
191.200859
 30
0.0
 40
2.799999999999998
100
AcDbArc
 50
270.00002
 51
271.65221
  0
ARC
  5
9DC8
330
9D50
100
AcDbEntity
  8
1
  6
Continuous
100
AcDbCircle
 10
32.23394600000001
 20
190.7008969999999
 30
0.0
 40
2.299999999999998
100
AcDbArc
 50
191.02148
 51
269.9999899999999
  0
ARC
  5
9DC9
330
9D50
100
AcDbEntity
  8
1
  6
Continuous
100
AcDbCircle
 10
68.78394899999999
 20
191.2008909999999
 30
0.0
 40
0.5
100
AcDbArc
 50
89.999955
 51
168.97846
  0
ARC
  5
9DCA
330
9D50
100
AcDbEntity
  8
1
  6
Continuous
100
AcDbCircle
 10
65.833952
 20
190.7008919999999
 30
0.0
 40
2.299999999999998
100
AcDbArc
 50
270.00002
 51
348.9785299999998
  0
ARC
  5
9DCB
330
9D50
100
AcDbEntity
  8
1
  6
Continuous
100
AcDbCircle
 10
52.95457299999998
 20
188.745394
 30
0.0
 40
1.984499999999996
100
AcDbArc
 50
189.9969899999999
 51
213.12621
  0
ARC
  5
9DCC
330
9D50
100
AcDbEntity
  8
1
  6
Continuous
100
AcDbCircle
 10
49.033949
 20
188.745394
 30
0.0
 40
1.984499999999996
100
AcDbArc
 50
326.8737799999998
 51
350.00299
  0
ARC
  5
9DCD
330
9D50
100
AcDbEntity
  8
1
  6
Continuous
100
AcDbCircle
 10
56.495268
 20
188.745394
 30
0.0
 40
1.984499999999996
100
AcDbArc
 50
206.86325
 51
213.12621
  0
ARC
  5
9DCE
330
9D50
100
AcDbEntity
  8
1
  6
Continuous
100
AcDbCircle
 10
59.312933
 20
188.745394
 30
0.0
 40
1.984499999999996
100
AcDbArc
 50
326.8737799999998
 51
350.00299
  0
ARC
  5
9DCF
330
9D50
100
AcDbEntity
  8
1
  6
Continuous
100
AcDbCircle
 10
61.134535
 20
188.745394
 30
0.0
 40
1.984499999999996
100
AcDbArc
 50
326.8737799999998
 51
350.00299
  0
ARC
  5
9DD0
330
9D50
100
AcDbEntity
  8
1
  6
Continuous
100
AcDbCircle
 10
61.783949
 20
188.745394
 30
0.0
 40
1.984499999999996
100
AcDbArc
 50
326.8737799999998
 51
350.00299
  0
ARC
  5
9DD1
330
9D50
100
AcDbEntity
  8
1
  6
Continuous
100
AcDbCircle
 10
45.113325
 20
188.745394
 30
0.0
 40
1.984499999999996
100
AcDbArc
 50
189.99704
 51
213.12621
  0
ARC
  5
9DD2
330
9D50
100
AcDbEntity
  8
1
  6
Continuous
100
AcDbCircle
 10
49.033949
 20
188.745394
 30
0.0
 40
1.984499999999996
100
AcDbArc
 50
189.9970599999999
 51
213.12621
  0
ARC
  5
9DD3
330
9D50
100
AcDbEntity
  8
1
  6
Continuous
100
AcDbCircle
 10
41.57262999999999
 20
188.745394
 30
0.0
 40
1.984499999999996
100
AcDbArc
 50
189.9970599999999
 51
213.12621
  0
ARC
  5
9DD4
330
9D50
100
AcDbEntity
  8
1
  6
Continuous
100
AcDbCircle
 10
38.754965
 20
188.745394
 30
0.0
 40
1.984499999999996
100
AcDbArc
 50
189.9970599999999
 51
213.12621
  0
ARC
  5
9DD5
330
9D50
100
AcDbEntity
  8
1
  6
Continuous
100
AcDbCircle
 10
36.933363
 20
188.745394
 30
0.0
 40
1.984499999999996
100
AcDbArc
 50
189.9970599999999
 51
213.12621
  0
ARC
  5
9DD6
330
9D50
100
AcDbEntity
  8
1
  6
Continuous
100
AcDbCircle
 10
36.28394899999999
 20
188.745394
 30
0.0
 40
1.984499999999996
100
AcDbArc
 50
189.9970599999999
 51
213.12621
  0
ARC
  5
9DD7
330
9D50
100
AcDbEntity
  8
1
  6
Continuous
100
AcDbCircle
 10
138.783949
 20
191.2008979999999
 30
0.0
 40
0.5
100
AcDbArc
 50
11.021507
 51
90.00000900000001
  0
ARC
  5
9DD8
330
9D50
100
AcDbEntity
  8
1
  6
Continuous
100
AcDbCircle
 10
141.7195259999997
 20
191.200859
 30
0.0
 40
2.799999999999998
100
AcDbArc
 50
270.00002
 51
271.65221
  0
ARC
  5
9DD9
330
9D50
100
AcDbEntity
  8
1
  6
Continuous
100
AcDbCircle
 10
141.733948
 20
190.7008969999999
 30
0.0
 40
2.299999999999998
100
AcDbArc
 50
191.02148
 51
269.9999899999999
  0
ARC
  5
9DDA
330
9D50
100
AcDbEntity
  8
1
  6
Continuous
100
AcDbCircle
 10
178.283949
 20
191.2008909999999
 30
0.0
 40
0.5
100
AcDbArc
 50
89.999955
 51
168.97846
  0
ARC
  5
9DDB
330
9D50
100
AcDbEntity
  8
1
  6
Continuous
100
AcDbCircle
 10
175.333952
 20
190.7008919999999
 30
0.0
 40
2.299999999999998
100
AcDbArc
 50
270.00002
 51
348.9785299999998
  0
ARC
  5
9DDC
330
9D50
100
AcDbEntity
  8
1
  6
Continuous
100
AcDbCircle
 10
162.454573
 20
188.745394
 30
0.0
 40
1.984499999999996
100
AcDbArc
 50
189.9969899999999
 51
213.12621
  0
ARC
  5
9DDD
330
9D50
100
AcDbEntity
  8
1
  6
Continuous
100
AcDbCircle
 10
158.533949
 20
188.745394
 30
0.0
 40
1.984499999999996
100
AcDbArc
 50
326.8737699999998
 51
350.00299
  0
ARC
  5
9DDE
330
9D50
100
AcDbEntity
  8
1
  6
Continuous
100
AcDbCircle
 10
165.9952679999999
 20
188.745394
 30
0.0
 40
1.984499999999996
100
AcDbArc
 50
206.86325
 51
213.12621
  0
ARC
  5
9DDF
330
9D50
100
AcDbEntity
  8
1
  6
Continuous
100
AcDbCircle
 10
168.8129329999999
 20
188.745394
 30
0.0
 40
1.984499999999996
100
AcDbArc
 50
326.8737699999998
 51
350.00299
  0
ARC
  5
9DE0
330
9D50
100
AcDbEntity
  8
1
  6
Continuous
100
AcDbCircle
 10
170.634535
 20
188.745394
 30
0.0
 40
1.984499999999996
100
AcDbArc
 50
326.8737699999998
 51
350.00299
  0
ARC
  5
9DE1
330
9D50
100
AcDbEntity
  8
1
  6
Continuous
100
AcDbCircle
 10
171.283949
 20
188.745394
 30
0.0
 40
1.984499999999996
100
AcDbArc
 50
326.8737699999998
 51
350.00299
  0
ARC
  5
9DE2
330
9D50
100
AcDbEntity
  8
1
  6
Continuous
100
AcDbCircle
 10
154.613325
 20
188.745394
 30
0.0
 40
1.984499999999996
100
AcDbArc
 50
189.99704
 51
213.12621
  0
ARC
  5
9DE3
330
9D50
100
AcDbEntity
  8
1
  6
Continuous
100
AcDbCircle
 10
158.533949
 20
188.745394
 30
0.0
 40
1.984499999999996
100
AcDbArc
 50
189.9970599999999
 51
213.12621
  0
ARC
  5
9DE4
330
9D50
100
AcDbEntity
  8
1
  6
Continuous
100
AcDbCircle
 10
151.0726299999998
 20
188.745394
 30
0.0
 40
1.984499999999996
100
AcDbArc
 50
189.9970599999999
 51
213.12621
  0
ARC
  5
9DE5
330
9D50
100
AcDbEntity
  8
1
  6
Continuous
100
AcDbCircle
 10
148.2549649999999
 20
188.745394
 30
0.0
 40
1.984499999999996
100
AcDbArc
 50
189.9970599999999
 51
213.12621
  0
ARC
  5
9DE6
330
9D50
100
AcDbEntity
  8
1
  6
Continuous
100
AcDbCircle
 10
146.4333629999998
 20
188.745394
 30
0.0
 40
1.984499999999996
100
AcDbArc
 50
189.9970599999999
 51
213.12621
  0
ARC
  5
9DE7
330
9D50
100
AcDbEntity
  8
1
  6
Continuous
100
AcDbCircle
 10
145.783949
 20
188.745394
 30
0.0
 40
1.984499999999996
100
AcDbArc
 50
189.9970599999999
 51
213.12621
  0
ARC
  5
9DE8
330
9D50
100
AcDbEntity
  8
1
  6
Continuous
100
AcDbCircle
 10
49.033949
 20
369.9722249999999
 30
0.0
 40
188.71625
100
AcDbArc
 50
266.04995
 51
273.9500299999999
  0
ARC
  5
9DE9
330
9D50
100
AcDbEntity
  8
1
  6
Continuous
100
AcDbCircle
 10
36.033949
 20
181.7042589999998
 30
0.0
 40
2.0
100
AcDbArc
 50
112.0263899999999
 51
179.9999899999999
  0
ARC
  5
9DEA
330
9D50
100
AcDbEntity
  8
1
  6
Continuous
100
AcDbCircle
 10
49.033949
 20
467.502895
 30
0.0
 40
284.27734
100
AcDbArc
 50
267.2275899999998
 51
272.7723899999999
  0
ARC
  5
9DEB
330
9D50
100
AcDbEntity
  8
1
  6
Continuous
100
AcDbCircle
 10
49.033949
 20
277.2391489999999
 30
0.0
 40
92.611763
100
AcDbArc
 50
261.46176
 51
278.53822
  0
ARC
  5
9DEC
330
9D50
100
AcDbEntity
  8
1
  6
Continuous
100
AcDbCircle
 10
61.97495100000001
 20
170.79731
 30
0.0
 40
32.0
100
AcDbArc
 50
183.47975
 51
204.29943
  0
ARC
  5
9DED
330
9D50
100
AcDbEntity
  8
1
  6
Continuous
100
AcDbCircle
 10
36.09294699999999
 20
170.79731
 30
0.0
 40
32.0
100
AcDbArc
 50
335.74236
 51
356.5202499999998
  0
ARC
  5
9DEE
330
9D50
100
AcDbEntity
  8
1
  6
Continuous
100
AcDbCircle
 10
62.033949
 20
181.7042589999998
 30
0.0
 40
2.0
100
AcDbArc
 50
359.99997
 51
67.97357099999999
  0
ARC
  5
9DEF
330
9D50
100
AcDbEntity
  8
1
  6
Continuous
100
AcDbCircle
 10
61.071425
 20
153.700895
 30
0.0
 40
5.762504999999999
100
AcDbArc
 50
304.48304
 51
55.51696899999999
  0
ARC
  5
9DF0
330
9D50
100
AcDbEntity
  8
1
  6
Continuous
100
AcDbCircle
 10
35.18456900000001
 20
155.795801
 30
0.0
 40
3.0
100
AcDbArc
 50
123.38087
 51
152.0717699999998
  0
ARC
  5
9DF1
330
9D50
100
AcDbEntity
  8
1
  6
Continuous
100
AcDbCircle
 10
35.18456900000001
 20
151.6059929999999
 30
0.0
 40
3.0
100
AcDbArc
 50
207.9282599999999
 51
236.6191499999999
  0
ARC
  5
9DF2
330
9D50
100
AcDbEntity
  8
1
  6
Continuous
100
AcDbCircle
 10
45.113325
 20
188.745394
 30
0.0
 40
1.984499999999996
100
AcDbArc
 50
326.8737799999998
 51
350.0030499999998
  0
ARC
  5
9DF3
330
9D50
100
AcDbEntity
  8
1
  6
Continuous
100
AcDbCircle
 10
41.57262999999999
 20
188.745394
 30
0.0
 40
1.984499999999996
100
AcDbArc
 50
326.8737799999998
 51
333.1367799999998
  0
ARC
  5
9DF4
330
9D50
100
AcDbEntity
  8
1
  6
Continuous
100
AcDbCircle
 10
52.95457299999998
 20
188.745394
 30
0.0
 40
1.984499999999996
100
AcDbArc
 50
326.8737799999998
 51
350.00299
  0
ARC
  5
9DF5
330
9D50
100
AcDbEntity
  8
1
  6
Continuous
100
AcDbCircle
 10
56.495268
 20
188.745394
 30
0.0
 40
1.984499999999996
100
AcDbArc
 50
326.8737799999998
 51
350.00299
  0
ARC
  5
9DF6
330
9D50
100
AcDbEntity
  8
1
  6
Continuous
100
AcDbCircle
 10
154.613325
 20
188.745394
 30
0.0
 40
1.984499999999996
100
AcDbArc
 50
326.8737699999998
 51
350.0030499999998
  0
ARC
  5
9DF7
330
9D50
100
AcDbEntity
  8
1
  6
Continuous
100
AcDbCircle
 10
137.5339489999997
 20
153.600897
 30
0.0
 40
7.0
100
AcDbArc
 50
172.1895899999999
 51
323.4912799999999
  0
ARC
  5
9DF8
330
9D50
100
AcDbEntity
  8
1
  6
Continuous
100
AcDbCircle
 10
142.7915209999999
 20
184.6608939999999
 30
0.0
 40
3.0
100
AcDbArc
 50
89.99998199999996
 51
152.24815
  0
ARC
  5
9DF9
330
9D50
100
AcDbEntity
  8
1
  6
Continuous
100
AcDbCircle
 10
174.2763809999999
 20
184.6608939999999
 30
0.0
 40
3.0
100
AcDbArc
 50
6.796801999999997
 51
89.99998199999996
  0
ARC
  5
9DFA
330
9D50
100
AcDbEntity
  8
1
  6
Continuous
100
AcDbCircle
 10
133.2751679999997
 20
181.42165
 30
0.0
 40
1.0
100
AcDbArc
 50
352.1895799999999
 51
10.0
  0
CIRCLE
  5
9DFB
330
9D50
100
AcDbEntity
  8
1
  6
Continuous
100
AcDbCircle
 10
137.5339489999997
 20
153.700895
 30
0.0
 40
4.75
  0
ARC
  5
9DFC
330
9D50
100
AcDbEntity
  8
1
  6
Continuous
100
AcDbCircle
 10
162.454573
 20
188.745394
 30
0.0
 40
1.984499999999996
100
AcDbArc
 50
326.8737699999998
 51
350.00299
  0
ARC
  5
9DFD
330
9D50
100
AcDbEntity
  8
1
  6
Continuous
100
AcDbCircle
 10
165.9952679999999
 20
188.745394
 30
0.0
 40
1.984499999999996
100
AcDbArc
 50
326.8737699999998
 51
350.00299
  0
ARC
  5
9DFE
330
9D50
100
AcDbEntity
  8
1
  6
Continuous
100
AcDbCircle
 10
151.0726299999998
 20
188.745394
 30
0.0
 40
1.984499999999996
100
AcDbArc
 50
326.8737699999998
 51
333.1367799999998
  0
ARC
  5
9DFF
330
9D50
100
AcDbEntity
  8
1
  6
Continuous
100
AcDbCircle
 10
169.1631909999999
 20
171.120178
 30
0.0
 40
8.0
100
AcDbArc
 50
92.00003199999995
 51
143.32582
  0
ARC
  5
9E00
330
9D50
100
AcDbEntity
  8
1
  6
Continuous
100
AcDbCircle
 10
137.5339489999997
 20
153.700895
 30
0.0
 40
25.0
100
AcDbArc
 50
98.41733600000001
 51
37.08900299999999
  0
ARC
  5
9E01
330
9D50
100
AcDbEntity
  8
1
  6
Continuous
100
AcDbCircle
 10
137.5339489999997
 20
153.700895
 30
0.0
 40
18.0
100
AcDbArc
 50
105.0279999999998
 51
30.400198
  0
ARC
  5
9E02
330
9D50
100
AcDbEntity
  8
1
  6
Continuous
100
AcDbCircle
 10
137.5339489999997
 20
153.700895
 30
0.0
 40
11.0
100
AcDbArc
 50
121.61906
 51
13.56719699999999
  0
ARC
  5
9E03
330
9D50
100
AcDbEntity
  8
1
  6
Continuous
100
AcDbCircle
 10
49.033949
 20
178.700895
 30
0.0
 40
50.0
100
AcDbArc
 50
260.40591
 51
279.59407
  0
ARC
  5
9E04
330
9D50
100
AcDbEntity
  8
1
  6
Continuous
100
AcDbCircle
 10
57.033949
 20
131.372255
 30
0.0
 40
2.0
100
AcDbArc
 50
279.59415
 51
0.0
  0
ARC
  5
9E05
330
9D50
100
AcDbEntity
  8
1
  6
Continuous
100
AcDbCircle
 10
41.033949
 20
131.372255
 30
0.0
 40
2.0
100
AcDbArc
 50
179.9999799999999
 51
260.4058299999999
  0
ARC
  5
9E06
330
9D50
100
AcDbEntity
  8
1
  6
Continuous
100
AcDbCircle
 10
60.03394899999999
 20
143.700895
 30
0.0
 40
1.0
100
AcDbArc
 50
270.00002
 51
0.0
  0
ARC
  5
9E07
330
9D50
100
AcDbEntity
  8
1
  6
Continuous
100
AcDbCircle
 10
38.033949
 20
143.700895
 30
0.0
 40
1.0
100
AcDbArc
 50
179.9999799999999
 51
270.0000299999999
  0
ARC
  5
9E08
330
9D50
100
AcDbEntity
  8
1
  6
Continuous
100
AcDbCircle
 10
38.033949
 20
163.700895
 30
0.0
 40
1.0
100
AcDbArc
 50
89.99998199999996
 51
180.00002
  0
ARC
  5
9E09
330
9D50
100
AcDbEntity
  8
1
  6
Continuous
100
AcDbCircle
 10
60.03394899999999
 20
163.700895
 30
0.0
 40
1.0
100
AcDbArc
 50
0.0
 51
89.99998199999996
  0
ARC
  5
9E0A
330
9D50
100
AcDbEntity
  8
1
  6
Continuous
100
AcDbCircle
 10
57.033949
 20
176.0295349999999
 30
0.0
 40
2.0
100
AcDbArc
 50
0.0
 51
80.40585400000002
  0
ARC
  5
9E0B
330
9D50
100
AcDbEntity
  8
1
  6
Continuous
100
AcDbCircle
 10
41.033949
 20
176.0295349999999
 30
0.0
 40
2.0
100
AcDbArc
 50
99.59416400000003
 51
180.00002
  0
ARC
  5
9E0C
330
9D50
100
AcDbEntity
  8
1
  6
Continuous
100
AcDbCircle
 10
49.033949
 20
128.700895
 30
0.0
 40
50.0
100
AcDbArc
 50
80.40592900000001
 51
99.59408899999999
  0
LINE
  5
9E0D
330
9D50
100
AcDbEntity
  8
1
  6
Continuous
100
AcDbLine
 10
68.03394899999999
 20
184.6608939999999
 30
0.0
 11
68.03394899999999
 21
168.8550449999999
 31
0.0
  0
LINE
  5
9E0E
330
9D50
100
AcDbEntity
  8
1
  6
Continuous
100
AcDbLine
 10
30.03394899999999
 20
184.6608939999999
 30
0.0
 11
30.03394899999999
 21
168.8550449999999
 31
0.0
  0
ARC
  5
9E0F
330
9D50
100
AcDbEntity
  8
1
  6
Continuous
100
AcDbCircle
 10
65.03394899999999
 20
184.6608939999999
 30
0.0
 40
3.0
100
AcDbArc
 50
0.0
 51
90.0
  0
ARC
  5
9E10
330
9D50
100
AcDbEntity
  8
1
  6
Continuous
100
AcDbCircle
 10
33.033949
 20
184.6608939999999
 30
0.0
 40
3.0
100
AcDbArc
 50
90.0
 51
180.0
  0
LINE
  5
9E11
330
9D50
100
AcDbEntity
  8
1
  6
Continuous
100
AcDbLine
 10
177.2552969999999
 20
185.01594
 30
0.0
 11
177.533949
 21
179.4173679999999
 31
0.0
  0
LINE
  5
9E12
330
9D50
100
AcDbEntity
  8
4
  6
CENTER
 48
0.8
100
AcDbLine
 10
137.5339489999997
 20
283.200895
 30
0.0
 11
137.5339489999997
 21
231.200895
 31
0.0
  0
LINE
  5
9E13
330
9D50
100
AcDbEntity
  8
1
  6
Continuous
100
AcDbLine
 10
130.5339529999999
 20
86.20089499999997
 30
0.0
 11
186.533949
 21
86.20089499999997
 31
0.0
  0
LINE
  5
9E14
330
9D50
100
AcDbEntity
  8
1
  6
Continuous
100
AcDbLine
 10
130.533949
 20
44.200895
 30
0.0
 11
186.533949
 21
44.200895
 31
0.0
  0
LINE
  5
9E15
330
9D50
100
AcDbEntity
  8
4
  6
CENTER
 48
0.8
100
AcDbLine
 10
196.1618629999999
 20
65.20089499999999
 30
0.0
 11
107.5339489999997
 21
65.20089499999999
 31
0.0
  0
LINE
  5
9E16
330
9D50
100
AcDbEntity
  8
4
  6
CENTER
 48
0.8
100
AcDbLine
 10
137.5339489999997
 20
39.200895
 30
0.0
 11
137.5339489999997
 21
91.20089499999997
 31
0.0
  0
ARC
  5
9E17
330
9D50
100
AcDbEntity
  8
1
  6
Continuous
100
AcDbCircle
 10
90.40603500000001
 20
65.20090299999999
 30
0.0
 40
35.49999600000001
100
AcDbArc
 50
340.758934
 51
343.638881
  0
LINE
  5
9E18
330
9D50
100
AcDbEntity
  8
4
  6
CENTER
 48
0.8
100
AcDbLine
 10
158.533949
 20
39.200895
 30
0.0
 11
158.533949
 21
91.20089499999997
 31
0.0
  0
ARC
  5
9E19
330
9D50
100
AcDbEntity
  8
1
  6
Continuous
100
AcDbCircle
 10
130.5339529999999
 20
79.20089499999997
 30
0.0
 40
7.0
100
AcDbArc
 50
90.00004999999999
 51
199.23311
  0
LINE
  5
9E1A
330
9D50
100
AcDbEntity
  8
4
  6
CENTER
 48
0.8
100
AcDbLine
 10
125.5339489999997
 20
79.20089899999998
 30
0.0
 11
135.533949
 21
79.20089899999998
 31
0.0
  0
LINE
  5
9E1B
330
9D50
100
AcDbEntity
  8
4
  6
CENTER
 48
0.8
100
AcDbLine
 10
130.533949
 20
84.20089899999998
 30
0.0
 11
130.533949
 21
74.20090299999998
 31
0.0
  0
ARC
  5
9E1C
330
9D50
100
AcDbEntity
  8
1
  6
Continuous
100
AcDbCircle
 10
130.533949
 20
51.20090300000001
 30
0.0
 40
7.0
100
AcDbArc
 50
160.7669899999999
 51
270.0000179999999
  0
LINE
  5
9E1D
330
9D50
100
AcDbEntity
  8
4
  6
CENTER
 48
0.8
100
AcDbLine
 10
130.533949
 20
46.200895
 30
0.0
 11
130.533949
 21
56.20090300000001
 31
0.0
  0
LINE
  5
9E1E
330
9D50
100
AcDbEntity
  8
4
  6
CENTER
 48
0.8
100
AcDbLine
 10
125.5339489999997
 20
51.200895
 30
0.0
 11
135.533945
 21
51.200895
 31
0.0
  0
ARC
  5
9E1F
330
9D50
100
AcDbEntity
  8
1
  6
Continuous
100
AcDbCircle
 10
226.6618589999999
 20
65.20088699999999
 30
0.0
 40
35.49999600000001
100
AcDbArc
 50
160.7669299999997
 51
199.2491669999998
  0
ARC
  5
9E20
330
9D50
100
AcDbEntity
  8
1
  6
Continuous
100
AcDbCircle
 10
186.533949
 20
79.20089499999997
 30
0.0
 40
7.0
100
AcDbArc
 50
340.766945
 51
90.0
  0
LINE
  5
9E21
330
9D50
100
AcDbEntity
  8
4
  6
CENTER
 48
0.8
100
AcDbLine
 10
191.533949
 20
79.20089899999998
 30
0.0
 11
181.533949
 21
79.20089899999998
 31
0.0
  0
LINE
  5
9E22
330
9D50
100
AcDbEntity
  8
4
  6
CENTER
 48
0.8
100
AcDbLine
 10
186.533949
 20
84.20089500000001
 30
0.0
 11
186.533949
 21
74.20089499999997
 31
0.0
  0
ARC
  5
9E23
330
9D50
100
AcDbEntity
  8
1
  6
Continuous
100
AcDbCircle
 10
186.533949
 20
51.200895
 30
0.0
 40
7.0
100
AcDbArc
 50
270.000032
 51
19.23307999999997
  0
LINE
  5
9E24
330
9D50
100
AcDbEntity
  8
4
  6
CENTER
 48
0.8
100
AcDbLine
 10
186.533949
 20
46.200895
 30
0.0
 11
186.533949
 21
56.20089499999998
 31
0.0
  0
LINE
  5
9E25
330
9D50
100
AcDbEntity
  8
4
  6
CENTER
 48
0.8
100
AcDbLine
 10
191.533949
 20
51.200895
 30
0.0
 11
181.533949
 21
51.200895
 31
0.0
  0
LINE
  5
9E26
330
9D50
100
AcDbEntity
  8
1
  6
Continuous
100
AcDbLine
 10
247.033949
 20
176.0295349999999
 30
0.0
 11
247.033949
 21
131.372255
 31
0.0
  0
LINE
  5
9E27
330
9D50
100
AcDbEntity
  8
1
  6
Continuous
100
AcDbLine
 10
267.0339489999999
 20
176.0295349999999
 30
0.0
 11
267.0339489999999
 21
131.372255
 31
0.0
  0
LINE
  5
9E28
330
9D50
100
AcDbEntity
  8
4
  6
CENTER
 48
0.8
100
AcDbLine
 10
257.033949
 20
198.700895
 30
0.0
 11
257.033949
 21
123.7008949999997
 31
0.0
  0
ARC
  5
9E29
330
9D50
100
AcDbEntity
  8
1
  6
Continuous
100
AcDbCircle
 10
257.033949
 20
178.700895
 30
0.0
 40
50.0
100
AcDbArc
 50
260.4059299999998
 51
279.59409
  0
ARC
  5
9E2A
330
9D50
100
AcDbEntity
  8
1
  6
Continuous
100
AcDbCircle
 10
265.0339489999999
 20
131.372255
 30
0.0
 40
2.0
100
AcDbArc
 50
279.59417
 51
0.00002
  0
ARC
  5
9E2B
330
9D50
100
AcDbEntity
  8
1
  6
Continuous
100
AcDbCircle
 10
249.033949
 20
131.372255
 30
0.0
 40
2.0
100
AcDbArc
 50
180.0
 51
260.4058499999998
  0
LINE
  5
9E2C
330
9D50
100
AcDbEntity
  8
1
  6
Continuous
100
AcDbLine
 10
242.033964
 20
146.75279
 30
0.0
 11
244.033964
 21
146.75279
 31
0.0
  0
LINE
  5
9E2D
330
9D50
100
AcDbEntity
  8
1
  6
Continuous
100
AcDbLine
 10
273.0339489999999
 20
187.6608939999999
 30
0.0
 11
241.0339490000001
 21
187.6608939999999
 31
0.0
  0
LINE
  5
9E2E
330
9D50
100
AcDbEntity
  8
1
  6
Continuous
100
AcDbLine
 10
273.833952
 20
188.400892
 30
0.0
 11
240.2339449999999
 21
188.400892
 31
0.0
  0
LINE
  5
9E2F
330
9D50
100
AcDbEntity
  8
1
  6
Continuous
100
AcDbLine
 10
278.033949
 20
191.7008949999998
 30
0.0
 11
236.033949
 21
191.7008949999998
 31
0.0
  0
LINE
  5
9E30
330
9D50
100
AcDbEntity
  8
1
  6
Continuous
100
AcDbLine
 10
278.033949
 20
193.700895
 30
0.0
 11
236.033949
 21
193.700895
 31
0.0
  0
LINE
  5
9E31
330
9D50
100
AcDbEntity
  8
4
  6
CENTER
 48
0.8
100
AcDbLine
 10
278.5339339999998
 20
153.700895
 30
0.0
 11
234.2339669999998
 21
153.700895
 31
0.0
  0
LINE
  5
9E32
330
9D50
100
AcDbEntity
  8
1
  6
Continuous
100
AcDbLine
 10
276.033949
 20
184.6608939999999
 30
0.0
 11
276.033949
 21
168.8550449999999
 31
0.0
  0
LINE
  5
9E33
330
9D50
100
AcDbEntity
  8
1
  6
Continuous
100
AcDbLine
 10
244.0339489999999
 20
146.7527859999998
 30
0.0
 11
244.0339489999999
 21
179.4173679999999
 31
0.0
  0
LINE
  5
9E34
330
9D50
100
AcDbEntity
  8
1
  6
Continuous
100
AcDbLine
 10
272.0339339999998
 20
146.75279
 30
0.0
 11
272.0339339999998
 21
154.3455789999998
 31
0.0
  0
LINE
  5
9E35
330
9D50
100
AcDbEntity
  8
1
  6
Continuous
100
AcDbLine
 10
270.033949
 20
146.7527859999998
 30
0.0
 11
270.033949
 21
179.4173679999999
 31
0.0
  0
ARC
  5
9E36
330
9D50
100
AcDbEntity
  8
1
  6
Continuous
100
AcDbCircle
 10
270.883329
 20
155.795801
 30
0.0
 40
3.0
100
AcDbArc
 50
27.92823
 51
32.723196
  0
LINE
  5
9E37
330
9D50
100
AcDbEntity
  8
1
  6
Continuous
100
AcDbLine
 10
269.0339489999999
 20
163.700895
 30
0.0
 11
269.0339489999999
 21
143.700895
 31
0.0
  0
LINE
  5
9E38
330
9D50
100
AcDbEntity
  8
1
  6
Continuous
100
AcDbLine
 10
245.0339490000001
 20
163.700895
 30
0.0
 11
245.0339490000001
 21
143.700895
 31
0.0
  0
LINE
  5
9E39
330
9D50
100
AcDbEntity
  8
1
  6
Continuous
100
AcDbLine
 10
272.533934
 20
149.100897
 30
0.0
 11
272.533934
 21
155.547931
 31
0.0
  0
ARC
  5
9E3A
330
9D50
100
AcDbEntity
  8
1
  6
Continuous
100
AcDbCircle
 10
268.033949
 20
143.700895
 30
0.0
 40
1.0
100
AcDbArc
 50
269.99997
 51
0.00002
  0
ARC
  5
9E3B
330
9D50
100
AcDbEntity
  8
1
  6
Continuous
100
AcDbCircle
 10
270.883329
 20
151.6059929999999
 30
0.0
 40
3.0
100
AcDbArc
 50
303.38085
 51
332.0717399999998
  0
LINE
  5
9E3C
330
9D50
100
AcDbEntity
  8
1
  6
Continuous
100
AcDbLine
 10
268.033949
 20
142.700895
 30
0.0
 11
267.0339489999999
 21
142.700895
 31
0.0
  0
LINE
  5
9E3D
330
9D50
100
AcDbEntity
  8
1
  6
Continuous
100
AcDbLine
 10
272.533941
 20
149.100897
 30
0.0
 11
272.033941
 21
150.4508989999999
 31
0.0
  0
LINE
  5
9E3E
330
9D50
100
AcDbEntity
  8
1
  6
Continuous
100
AcDbLine
 10
273.5339339999999
 20
150.200895
 30
0.0
 11
273.5339339999999
 21
157.717159
 31
0.0
  0
LINE
  5
9E3F
330
9D50
100
AcDbEntity
  8
1
  6
Continuous
100
AcDbLine
 10
272.0339339999998
 20
146.75279
 30
0.0
 11
270.0339339999998
 21
146.75279
 31
0.0
  0
LINE
  5
9E40
330
9D50
100
AcDbEntity
  8
1
  6
Continuous
100
AcDbLine
 10
270.033949
 20
156.950895
 30
0.0
 11
269.0339489999999
 21
156.950895
 31
0.0
  0
LINE
  5
9E41
330
9D50
100
AcDbEntity
  8
1
  6
Continuous
100
AcDbLine
 10
270.033949
 20
150.4508949999998
 30
0.0
 11
269.0339489999999
 21
150.4508949999998
 31
0.0
  0
ARC
  5
9E42
330
9D50
100
AcDbEntity
  8
1
  6
Continuous
100
AcDbCircle
 10
246.0339489999999
 20
143.700895
 30
0.0
 40
1.0
100
AcDbArc
 50
180.0
 51
269.99998
  0
LINE
  5
9E43
330
9D50
100
AcDbEntity
  8
1
  6
Continuous
100
AcDbLine
 10
245.0339490000001
 20
150.4508949999998
 30
0.0
 11
244.0339489999999
 21
150.4508949999998
 31
0.0
  0
LINE
  5
9E44
330
9D50
100
AcDbEntity
  8
1
  6
Continuous
100
AcDbLine
 10
245.0339490000001
 20
156.950895
 30
0.0
 11
244.0339489999999
 21
156.950895
 31
0.0
  0
LINE
  5
9E45
330
9D50
100
AcDbEntity
  8
1
  6
Continuous
100
AcDbLine
 10
247.033949
 20
142.700895
 30
0.0
 11
246.0339489999999
 21
142.700895
 31
0.0
  0
ARC
  5
9E46
330
9D50
100
AcDbEntity
  8
1
  6
Continuous
100
AcDbCircle
 10
257.033949
 20
128.700895
 30
0.0
 40
50.0
100
AcDbArc
 50
80.405911
 51
99.59407099999999
  0
ARC
  5
9E47
330
9D50
100
AcDbEntity
  8
1
  6
Continuous
100
AcDbCircle
 10
265.0339489999999
 20
176.0295349999999
 30
0.0
 40
2.0
100
AcDbArc
 50
359.9999799999998
 51
80.40583599999996
  0
ARC
  5
9E48
330
9D50
100
AcDbEntity
  8
1
  6
Continuous
100
AcDbCircle
 10
268.033949
 20
163.700895
 30
0.0
 40
1.0
100
AcDbArc
 50
359.9999799999998
 51
90.00001800000005
  0
LINE
  5
9E49
330
9D50
100
AcDbEntity
  8
1
  6
Continuous
100
AcDbLine
 10
268.033949
 20
164.700895
 30
0.0
 11
267.0339489999999
 21
164.700895
 31
0.0
  0
ARC
  5
9E4A
330
9D50
100
AcDbEntity
  8
1
  6
Continuous
100
AcDbCircle
 10
249.033949
 20
176.0295349999999
 30
0.0
 40
2.0
100
AcDbArc
 50
99.594146
 51
180.0
  0
ARC
  5
9E4B
330
9D50
100
AcDbEntity
  8
1
  6
Continuous
100
AcDbCircle
 10
246.0339489999999
 20
163.700895
 30
0.0
 40
1.0
100
AcDbArc
 50
90.00001800000005
 51
180.0
  0
LINE
  5
9E4C
330
9D50
100
AcDbEntity
  8
1
  6
Continuous
100
AcDbLine
 10
247.033949
 20
164.700895
 30
0.0
 11
246.0339489999999
 21
164.700895
 31
0.0
  0
ARC
  5
9E4D
330
9D50
100
AcDbEntity
  8
1
  6
Continuous
100
AcDbCircle
 10
273.0339489999999
 20
184.6608939999999
 30
0.0
 40
3.0
100
AcDbArc
 50
0.0
 51
90.0
  0
ARC
  5
9E4E
330
9D50
100
AcDbEntity
  8
1
  6
Continuous
100
AcDbCircle
 10
273.833952
 20
190.7008969999999
 30
0.0
 40
2.299999999999998
100
AcDbArc
 50
270.00001
 51
348.97852
  0
ARC
  5
9E4F
330
9D50
100
AcDbEntity
  8
1
  6
Continuous
100
AcDbCircle
 10
276.783949
 20
191.2008979999999
 30
0.0
 40
0.5
100
AcDbArc
 50
89.99999100000001
 51
168.9784929999999
  0
LINE
  5
9E50
330
9D50
100
AcDbEntity
  8
1
  6
Continuous
100
AcDbLine
 10
278.033949
 20
193.700895
 30
0.0
 11
278.033949
 21
191.7008949999998
 31
0.0
  0
LINE
  5
9E51
330
9D50
100
AcDbEntity
  8
1
  6
Continuous
100
AcDbLine
 10
276.0915199999999
 20
190.26119
 30
0.0
 11
276.293158
 21
191.2964839999999
 31
0.0
  0
ARC
  5
9E52
330
9D50
100
AcDbEntity
  8
1
  6
Continuous
100
AcDbCircle
 10
264.495268
 20
188.745394
 30
0.0
 40
1.984499999999996
100
AcDbArc
 50
206.8632199999999
 51
213.12622
  0
ARC
  5
9E53
330
9D50
100
AcDbEntity
  8
1
  6
Continuous
100
AcDbCircle
 10
260.9545729999999
 20
188.745394
 30
0.0
 40
1.984499999999996
100
AcDbArc
 50
189.99695
 51
213.12622
  0
ARC
  5
9E54
330
9D50
100
AcDbEntity
  8
1
  6
Continuous
100
AcDbCircle
 10
269.783949
 20
188.745394
 30
0.0
 40
1.984499999999996
100
AcDbArc
 50
326.87379
 51
350.0029399999998
  0
ARC
  5
9E55
330
9D50
100
AcDbEntity
  8
1
  6
Continuous
100
AcDbCircle
 10
269.134535
 20
188.745394
 30
0.0
 40
1.984499999999996
100
AcDbArc
 50
326.87379
 51
350.0029399999998
  0
ARC
  5
9E56
330
9D50
100
AcDbEntity
  8
1
  6
Continuous
100
AcDbCircle
 10
267.312933
 20
188.745394
 30
0.0
 40
1.984499999999996
100
AcDbArc
 50
326.87379
 51
350.0029399999998
  0
ARC
  5
9E57
330
9D50
100
AcDbEntity
  8
1
  6
Continuous
100
AcDbCircle
 10
264.495268
 20
188.745394
 30
0.0
 40
1.984499999999996
100
AcDbArc
 50
326.87379
 51
350.0029399999998
  0
ARC
  5
9E58
330
9D50
100
AcDbEntity
  8
1
  6
Continuous
100
AcDbCircle
 10
257.033949
 20
188.745394
 30
0.0
 40
1.984499999999996
100
AcDbArc
 50
326.87379
 51
350.0029399999998
  0
ARC
  5
9E59
330
9D50
100
AcDbEntity
  8
1
  6
Continuous
100
AcDbCircle
 10
260.9545729999999
 20
188.745394
 30
0.0
 40
1.984499999999996
100
AcDbArc
 50
326.87379
 51
350.0029599999999
  0
ARC
  5
9E5A
330
9D50
100
AcDbEntity
  8
1
  6
Continuous
100
AcDbCircle
 10
273.848372
 20
191.200859
 30
0.0
 40
2.799999999999998
100
AcDbArc
 50
268.3477899999999
 51
269.99998
  0
LINE
  5
9E5B
330
9D50
100
AcDbEntity
  8
4
  6
CENTER
 48
0.8
100
AcDbLine
 10
271.0339489999999
 20
198.700895
 30
0.0
 11
271.0339489999999
 21
186.7008949999998
 31
0.0
  0
ARC
  5
9E5C
330
9D50
100
AcDbEntity
  8
1
  6
Continuous
100
AcDbCircle
 10
249.5726299999998
 20
188.745394
 30
0.0
 40
1.984499999999996
100
AcDbArc
 50
189.99701
 51
213.12622
  0
ARC
  5
9E5D
330
9D50
100
AcDbEntity
  8
1
  6
Continuous
100
AcDbCircle
 10
253.1133249999999
 20
188.745394
 30
0.0
 40
1.984499999999996
100
AcDbArc
 50
189.99701
 51
213.12622
  0
ARC
  5
9E5E
330
9D50
100
AcDbEntity
  8
1
  6
Continuous
100
AcDbCircle
 10
244.283949
 20
188.745394
 30
0.0
 40
1.984499999999996
100
AcDbArc
 50
189.99701
 51
213.12622
  0
ARC
  5
9E5F
330
9D50
100
AcDbEntity
  8
1
  6
Continuous
100
AcDbCircle
 10
244.9333629999999
 20
188.745394
 30
0.0
 40
1.984499999999996
100
AcDbArc
 50
189.99701
 51
213.12622
  0
ARC
  5
9E60
330
9D50
100
AcDbEntity
  8
1
  6
Continuous
100
AcDbCircle
 10
246.754965
 20
188.745394
 30
0.0
 40
1.984499999999996
100
AcDbArc
 50
189.99701
 51
213.12622
  0
ARC
  5
9E61
330
9D50
100
AcDbEntity
  8
1
  6
Continuous
100
AcDbCircle
 10
249.5726299999998
 20
188.745394
 30
0.0
 40
1.984499999999996
100
AcDbArc
 50
326.87379
 51
333.13675
  0
ARC
  5
9E62
330
9D50
100
AcDbEntity
  8
1
  6
Continuous
100
AcDbCircle
 10
257.033949
 20
188.745394
 30
0.0
 40
1.984499999999996
100
AcDbArc
 50
189.99701
 51
213.12622
  0
ARC
  5
9E63
330
9D50
100
AcDbEntity
  8
1
  6
Continuous
100
AcDbCircle
 10
253.1133249999999
 20
188.745394
 30
0.0
 40
1.984499999999996
100
AcDbArc
 50
326.87379
 51
350.00301
  0
LINE
  5
9E64
330
9D50
100
AcDbEntity
  8
4
  6
CENTER
 48
0.8
100
AcDbLine
 10
243.0339490000001
 20
198.700895
 30
0.0
 11
243.0339490000001
 21
186.7008949999998
 31
0.0
  0
LINE
  5
9E65
330
9D50
100
AcDbEntity
  8
1
  6
Continuous
100
AcDbLine
 10
242.033964
 20
146.75279
 30
0.0
 11
242.033964
 21
154.3455789999998
 31
0.0
  0
ARC
  5
9E66
330
9D50
100
AcDbEntity
  8
1
  6
Continuous
100
AcDbCircle
 10
244.996473
 20
153.700895
 30
0.0
 40
5.762504999999999
100
AcDbArc
 50
139.1432849999999
 51
235.5169599999999
  0
LINE
  5
9E67
330
9D50
100
AcDbEntity
  8
1
  6
Continuous
100
AcDbLine
 10
241.7339609999999
 20
148.950895
 30
0.0
 11
241.7339609999999
 21
155.159526
 31
0.0
  0
LINE
  5
9E68
330
9D50
100
AcDbEntity
  8
1
  6
Continuous
100
AcDbLine
 10
242.033964
 20
148.950895
 30
0.0
 11
241.7339609999999
 21
148.950895
 31
0.0
  0
ARC
  5
9E69
330
9D50
100
AcDbEntity
  8
1
  6
Continuous
100
AcDbCircle
 10
241.0339490000001
 20
184.6608939999999
 30
0.0
 40
3.0
100
AcDbArc
 50
90.0
 51
180.0
  0
ARC
  5
9E6A
330
9D50
100
AcDbEntity
  8
1
  6
Continuous
100
AcDbCircle
 10
240.2339459999998
 20
190.7008919999999
 30
0.0
 40
2.299999999999998
100
AcDbArc
 50
191.02147
 51
269.99998
  0
ARC
  5
9E6B
330
9D50
100
AcDbEntity
  8
1
  6
Continuous
100
AcDbCircle
 10
237.283949
 20
191.2008909999999
 30
0.0
 40
0.5
100
AcDbArc
 50
11.02154
 51
90.00004500000001
  0
LINE
  5
9E6C
330
9D50
100
AcDbEntity
  8
1
  6
Continuous
100
AcDbLine
 10
236.033949
 20
193.700895
 30
0.0
 11
236.033949
 21
191.7008949999998
 31
0.0
  0
LINE
  5
9E6D
330
9D50
100
AcDbEntity
  8
1
  6
Continuous
100
AcDbLine
 10
237.9763849999999
 20
190.261174
 30
0.0
 11
237.7747439999999
 21
191.296469
 31
0.0
  0
LINE
  5
9E6E
330
9D50
100
AcDbEntity
  8
1
  6
Continuous
100
AcDbLine
 10
240.1250649999997
 20
179.4173679999999
 30
0.0
 11
273.942832
 21
179.4173679999999
 31
0.0
  0
LINE
  5
9E6F
330
9D50
100
AcDbEntity
  8
1
  6
Continuous
100
AcDbLine
 10
238.033949
 20
184.6608939999999
 30
0.0
 11
238.033949
 21
168.8550449999999
 31
0.0
  0
LINE
  5
9E70
330
9D50
100
AcDbEntity
  8
1
  6
Continuous
100
AcDbLine
 10
115.205309
 20
267.2008949999999
 30
0.0
 11
124.468471
 21
267.2008949999999
 31
0.0
  0
LINE
  5
9E71
330
9D50
100
AcDbEntity
  8
1
  6
Continuous
100
AcDbLine
 10
115.205309
 20
247.200895
 30
0.0
 11
124.468475
 21
247.200895
 31
0.0
  0
ARC
  5
9E72
330
9D50
100
AcDbEntity
  8
1
  6
Continuous
100
AcDbCircle
 10
162.5339489999998
 20
257.200895
 30
0.0
 40
50.0
100
AcDbArc
 50
170.405929
 51
189.594089
  0
ARC
  5
9E73
330
9D50
100
AcDbEntity
  8
1
  6
Continuous
100
AcDbCircle
 10
115.205309
 20
249.200895
 30
0.0
 40
2.0
100
AcDbArc
 50
189.5941639999998
 51
270.00002
  0
ARC
  5
9E74
330
9D50
100
AcDbEntity
  8
1
  6
Continuous
100
AcDbCircle
 10
115.205309
 20
265.2008949999999
 30
0.0
 40
2.0
100
AcDbArc
 50
90.0
 51
170.405854
  0
LINE
  5
9E75
330
9D50
100
AcDbEntity
  8
1
  6
Continuous
100
AcDbLine
 10
142.283949
 20
80.500883
 30
0.0
 11
132.783949
 21
80.500883
 31
0.0
  0
ARC
  5
9E76
330
9D50
100
AcDbEntity
  8
1
  6
Continuous
100
AcDbCircle
 10
137.5339489999997
 20
77.238371
 30
0.0
 40
5.762504999999999
100
AcDbArc
 50
34.48304
 51
145.5169689999999
  0
LINE
  5
9E77
330
9D50
100
AcDbEntity
  8
1
  6
Continuous
100
AcDbLine
 10
127.5339489999997
 20
77.20089499999997
 30
0.0
 11
147.533949
 21
77.20089499999997
 31
0.0
  0
LINE
  5
9E78
330
9D50
100
AcDbEntity
  8
1
  6
Continuous
100
AcDbLine
 10
142.133947
 20
49.70091
 30
0.0
 11
133.4170969999999
 21
49.70091
 31
0.0
  0
LINE
  5
9E79
330
9D50
100
AcDbEntity
  8
1
  6
Continuous
100
AcDbLine
 10
127.5339489999997
 20
53.20089499999999
 30
0.0
 11
147.533949
 21
53.20089499999999
 31
0.0
  0
LINE
  5
9E7A
330
9D50
100
AcDbEntity
  8
1
  6
Continuous
100
AcDbLine
 10
141.033949
 20
48.70091
 30
0.0
 11
134.0339469999999
 21
48.70091
 31
0.0
  0
LINE
  5
9E7B
330
9D50
100
AcDbEntity
  8
1
  6
Continuous
100
AcDbLine
 10
115.205309
 20
55.200895
 30
0.0
 11
159.8625889999999
 21
55.200895
 31
0.0
  0
LINE
  5
9E7C
330
9D50
100
AcDbEntity
  8
1
  6
Continuous
100
AcDbLine
 10
115.205309
 20
75.20089499999997
 30
0.0
 11
159.8625889999999
 21
75.20089499999997
 31
0.0
  0
ARC
  5
9E7D
330
9D50
100
AcDbEntity
  8
1
  6
Continuous
100
AcDbCircle
 10
162.5339489999998
 20
65.20089499999999
 30
0.0
 40
50.0
100
AcDbArc
 50
170.405929
 51
189.594089
  0
ARC
  5
9E7E
330
9D50
100
AcDbEntity
  8
1
  6
Continuous
100
AcDbCircle
 10
115.205309
 20
57.200895
 30
0.0
 40
2.0
100
AcDbArc
 50
189.5941639999998
 51
270.00002
  0
LINE
  5
9E7F
330
9D50
100
AcDbEntity
  8
1
  6
Continuous
100
AcDbLine
 10
134.283949
 20
50.20091
 30
0.0
 11
133.5200179999999
 21
49.917972
 31
0.0
  0
ARC
  5
9E80
330
9D50
100
AcDbEntity
  8
1
  6
Continuous
100
AcDbCircle
 10
135.439043
 20
51.351515
 30
0.0
 40
3.0
100
AcDbArc
 50
221.8665059999999
 51
242.0717699999999
  0
LINE
  5
9E81
330
9D50
100
AcDbEntity
  8
1
  6
Continuous
100
AcDbLine
 10
134.283949
 20
52.200895
 30
0.0
 11
134.283949
 21
53.20089499999999
 31
0.0
  0
LINE
  5
9E82
330
9D50
100
AcDbEntity
  8
1
  6
Continuous
100
AcDbLine
 10
126.5339489999997
 20
54.20089499999999
 30
0.0
 11
126.5339489999997
 21
55.200895
 31
0.0
  0
ARC
  5
9E83
330
9D50
100
AcDbEntity
  8
1
  6
Continuous
100
AcDbCircle
 10
127.5339489999997
 20
54.20089499999999
 30
0.0
 40
1.0
100
AcDbArc
 50
179.999982
 51
270.00002
  0
ARC
  5
9E84
330
9D50
100
AcDbEntity
  8
1
  6
Continuous
100
AcDbCircle
 10
115.205309
 20
73.20089499999998
 30
0.0
 40
2.0
100
AcDbArc
 50
90.0
 51
170.405854
  0
LINE
  5
9E85
330
9D50
100
AcDbEntity
  8
1
  6
Continuous
100
AcDbLine
 10
132.783949
 20
80.20087999999999
 30
0.0
 11
132.783949
 21
80.500883
 31
0.0
  0
LINE
  5
9E86
330
9D50
100
AcDbEntity
  8
1
  6
Continuous
100
AcDbLine
 10
134.283949
 20
77.20089499999997
 30
0.0
 11
134.283949
 21
78.20089499999998
 31
0.0
  0
LINE
  5
9E87
330
9D50
100
AcDbEntity
  8
1
  6
Continuous
100
AcDbLine
 10
126.5339489999997
 20
75.20089499999997
 30
0.0
 11
126.5339489999997
 21
76.20089499999997
 31
0.0
  0
ARC
  5
9E88
330
9D50
100
AcDbEntity
  8
1
  6
Continuous
100
AcDbCircle
 10
127.5339489999997
 20
76.20089499999997
 30
0.0
 40
1.0
100
AcDbArc
 50
90.0
 51
179.999982
  0
ARC
  5
9E89
330
9D50
100
AcDbEntity
  8
1
  6
Continuous
100
AcDbCircle
 10
112.5339489999997
 20
65.20089499999999
 30
0.0
 40
50.0
100
AcDbArc
 50
350.40591
 51
9.59407
  0
LINE
  5
9E8A
330
9D50
100
AcDbEntity
  8
1
  6
Continuous
100
AcDbLine
 10
140.783949
 20
52.200895
 30
0.0
 11
140.783949
 21
53.20089499999999
 31
0.0
  0
LINE
  5
9E8B
330
9D50
100
AcDbEntity
  8
1
  6
Continuous
100
AcDbLine
 10
148.533949
 20
54.20089499999999
 30
0.0
 11
148.533949
 21
55.200895
 31
0.0
  0
ARC
  5
9E8C
330
9D50
100
AcDbEntity
  8
1
  6
Continuous
100
AcDbCircle
 10
139.6288509999999
 20
51.351515
 30
0.0
 40
3.0
100
AcDbArc
 50
297.92826
 51
326.61915
  0
ARC
  5
9E8D
330
9D50
100
AcDbEntity
  8
1
  6
Continuous
100
AcDbCircle
 10
147.533949
 20
54.20089499999999
 30
0.0
 40
1.0
100
AcDbArc
 50
269.99998
 51
0.00003
  0
LINE
  5
9E8E
330
9D50
100
AcDbEntity
  8
1
  6
Continuous
100
AcDbLine
 10
142.133947
 20
49.70090299999998
 30
0.0
 11
140.7839449999999
 21
50.20090299999999
 31
0.0
  0
ARC
  5
9E8F
330
9D50
100
AcDbEntity
  8
1
  6
Continuous
100
AcDbCircle
 10
159.8625889999999
 20
57.200895
 30
0.0
 40
2.0
100
AcDbArc
 50
269.99998
 51
350.40583
  0
LINE
  5
9E90
330
9D50
100
AcDbEntity
  8
1
  6
Continuous
100
AcDbLine
 10
140.783949
 20
77.20089499999997
 30
0.0
 11
140.783949
 21
78.20089499999998
 31
0.0
  0
LINE
  5
9E91
330
9D50
100
AcDbEntity
  8
1
  6
Continuous
100
AcDbLine
 10
142.283949
 20
80.20087999999999
 30
0.0
 11
142.283949
 21
80.500883
 31
0.0
  0
LINE
  5
9E92
330
9D50
100
AcDbEntity
  8
1
  6
Continuous
100
AcDbLine
 10
148.533949
 20
75.20089499999997
 30
0.0
 11
148.533949
 21
76.20089499999997
 31
0.0
  0
ARC
  5
9E93
330
9D50
100
AcDbEntity
  8
1
  6
Continuous
100
AcDbCircle
 10
147.533949
 20
76.20089499999997
 30
0.0
 40
1.0
100
AcDbArc
 50
0.00002
 51
90.0
  0
ARC
  5
9E94
330
9D50
100
AcDbEntity
  8
1
  6
Continuous
100
AcDbCircle
 10
159.8625889999999
 20
73.20089499999998
 30
0.0
 40
2.0
100
AcDbArc
 50
9.59415
 51
90.0
  0
LINE
  5
9E95
330
9D50
100
AcDbEntity
  8
1
  6
Continuous
100
AcDbLine
 10
145.5724449999999
 20
78.20088
 30
0.0
 11
130.534663
 21
78.20088
 31
0.0
  0
LINE
  5
9E96
330
9D50
100
AcDbEntity
  8
1
  6
Continuous
100
AcDbLine
 10
145.5724449999999
 20
80.20087999999999
 30
0.0
 11
130.534663
 21
80.20087999999999
 31
0.0
  0
ARC
  5
9E97
330
9D50
100
AcDbEntity
  8
1
  6
Continuous
100
AcDbCircle
 10
90.40603500000001
 20
65.20090299999999
 30
0.0
 40
35.49999600000001
100
AcDbArc
 50
16.36109199999999
 51
19.23312
  0
LINE
  5
9E98
330
9D50
100
AcDbEntity
  8
1
  6
Continuous
100
AcDbLine
 10
130.534663
 20
80.20087999999999
 30
0.0
 11
130.534663
 21
78.20088
 31
0.0
  0
LINE
  5
9E99
330
9D50
100
AcDbEntity
  8
1
  6
Continuous
100
AcDbLine
 10
145.5724449999999
 20
52.20091
 30
0.0
 11
130.534663
 21
52.20091
 31
0.0
  0
LINE
  5
9E9A
330
9D50
100
AcDbEntity
  8
1
  6
Continuous
100
AcDbLine
 10
145.5724449999999
 20
50.20091
 30
0.0
 11
130.534663
 21
50.20091
 31
0.0
  0
LINE
  5
9E9B
330
9D50
100
AcDbEntity
  8
1
  6
Continuous
100
AcDbLine
 10
130.534663
 20
52.20091
 30
0.0
 11
130.534663
 21
50.20091
 31
0.0
  0
ARC
  5
9E9C
330
9D50
100
AcDbEntity
  8
1
  6
Continuous
100
AcDbCircle
 10
158.533949
 20
65.20089499999999
 30
0.0
 40
19.0
100
AcDbArc
 50
235.7944209999997
 51
124.3012189999999
  0
ARC
  5
9E9D
330
9D50
100
AcDbEntity
  8
1
  6
Continuous
100
AcDbCircle
 10
158.533949
 20
65.20089499999999
 30
0.0
 40
17.0
100
AcDbArc
 50
235.698781
 51
124.3012189999999
  0
ARC
  5
9E9E
330
9D50
100
AcDbEntity
  8
1
  6
Continuous
100
AcDbCircle
 10
178.3590309999999
 20
65.20089499999999
 30
0.0
 40
46.925087
100
AcDbArc
 50
163.916557
 51
165.1833469999999
  0
ARC
  5
9E9F
330
9D50
100
AcDbEntity
  8
1
  6
Continuous
100
AcDbCircle
 10
178.3590309999999
 20
65.20089499999999
 30
0.0
 40
46.925087
100
AcDbArc
 50
194.816653
 51
196.083443
  0
ARC
  5
9EA0
330
9D50
100
AcDbEntity
  8
1
  6
Continuous
100
AcDbCircle
 10
158.533949
 20
65.20089499999999
 30
0.0
 40
19.75
100
AcDbArc
 50
229.4269879999999
 51
130.156391
  0
ARC
  5
9EA1
330
9D50
100
AcDbEntity
  8
1
  6
Continuous
100
AcDbCircle
 10
376.533949
 20
153.700895
 30
0.0
 40
18.0
100
AcDbArc
 50
149.599802
 51
74.97199999999998
  0
ARC
  5
9EA2
330
9D50
100
AcDbEntity
  8
1
  6
Continuous
100
AcDbCircle
 10
376.533949
 20
153.700895
 30
0.0
 40
25.0
100
AcDbArc
 50
142.910997
 51
81.58266399999998
  0
LINE
  5
9EA3
330
9D50
100
AcDbEntity
  8
4
  6
CENTER
 48
0.8
100
AcDbLine
 10
376.533949
 20
181.200895
 30
0.0
 11
376.533949
 21
123.7008949999997
 31
0.0
  0
LINE
  5
9EA4
330
9D50
100
AcDbEntity
  8
4
  6
CENTER
 48
0.8
100
AcDbLine
 10
346.533949
 20
153.700895
 30
0.0
 11
406.533949
 21
153.700895
 31
0.0
  0
ARC
  5
9EA5
330
9D50
100
AcDbEntity
  8
1
  6
Continuous
100
AcDbCircle
 10
339.791517
 20
184.6608939999999
 30
0.0
 40
3.0
100
AcDbArc
 50
90.00001800000005
 51
173.2031979999999
  0
LINE
  5
9EA6
330
9D50
100
AcDbEntity
  8
1
  6
Continuous
100
AcDbLine
 10
345.1839049999999
 20
179.115304
 30
0.0
 11
336.533949
 21
179.4173679999999
 31
0.0
  0
LINE
  5
9EA7
330
9D50
100
AcDbEntity
  8
1
  6
Continuous
100
AcDbLine
 10
372.33395
 20
188.400892
 30
0.0
 11
338.733945
 21
188.400892
 31
0.0
  0
LINE
  5
9EA8
330
9D50
100
AcDbEntity
  8
1
  6
Continuous
100
AcDbLine
 10
390.533949
 20
191.7008949999998
 30
0.0
 11
320.533949
 21
191.7008949999998
 31
0.0
  0
LINE
  5
9EA9
330
9D50
100
AcDbEntity
  8
1
  6
Continuous
100
AcDbLine
 10
390.533949
 20
193.700895
 30
0.0
 11
320.533949
 21
193.700895
 31
0.0
  0
LINE
  5
9EAA
330
9D50
100
AcDbEntity
  8
1
  6
Continuous
100
AcDbLine
 10
379.802006
 20
181.2857539999999
 30
0.0
 11
383.46901
 21
154.552168
 31
0.0
  0
LINE
  5
9EAB
330
9D50
100
AcDbEntity
  8
1
  6
Continuous
100
AcDbLine
 10
368.533949
 20
183.9415149999999
 30
0.0
 11
368.533949
 21
157.5930209999999
 31
0.0
  0
LINE
  5
9EAC
330
9D50
100
AcDbEntity
  8
4
  6
CENTER
 48
0.8
100
AcDbLine
 10
355.533949
 20
198.700895
 30
0.0
 11
355.533949
 21
163.967531
 31
0.0
  0
ARC
  5
9EAD
330
9D50
100
AcDbEntity
  8
1
  6
Continuous
100
AcDbCircle
 10
376.533949
 20
153.700895
 30
0.0
 40
11.0
100
AcDbArc
 50
166.432803
 51
58.38094000000001
  0
ARC
  5
9EAE
330
9D50
100
AcDbEntity
  8
1
  6
Continuous
100
AcDbCircle
 10
376.533949
 20
153.600897
 30
0.0
 40
7.0
100
AcDbArc
 50
216.50872
 51
7.810410000000001
  0
CIRCLE
  5
9EAF
330
9D50
100
AcDbEntity
  8
1
  6
Continuous
100
AcDbCircle
 10
376.533949
 20
153.700895
 30
0.0
 40
4.75
  0
LINE
  5
9EB0
330
9D50
100
AcDbEntity
  8
1
  6
Continuous
100
AcDbLine
 10
351.2822459999999
 20
175.94998
 30
0.0
 11
370.9075829999999
 21
149.4362849999999
 31
0.0
  0
ARC
  5
9EB1
330
9D50
100
AcDbEntity
  8
1
  6
Continuous
100
AcDbCircle
 10
344.9047069999999
 20
171.120178
 30
0.0
 40
8.0
100
AcDbArc
 50
36.67418
 51
87.99996799999998
  0
LINE
  5
9EB2
330
9D50
100
AcDbEntity
  8
1
  6
Continuous
100
AcDbLine
 10
371.276377
 20
187.6608939999999
 30
0.0
 11
339.791517
 21
187.6608939999999
 31
0.0
  0
LINE
  5
9EB3
330
9D50
100
AcDbEntity
  8
1
  6
Continuous
100
AcDbLine
 10
390.533949
 20
191.7009
 30
0.0
 11
390.533949
 21
193.7008999999999
 31
0.0
  0
ARC
  5
9EB4
330
9D50
100
AcDbEntity
  8
1
  6
Continuous
100
AcDbCircle
 10
380.79273
 20
181.42165
 30
0.0
 40
1.0
100
AcDbArc
 50
170.0
 51
187.8104199999999
  0
ARC
  5
9EB5
330
9D50
100
AcDbEntity
  8
1
  6
Continuous
100
AcDbCircle
 10
371.276377
 20
184.6608939999999
 30
0.0
 40
3.0
100
AcDbArc
 50
27.75185
 51
90.00001800000005
  0
ARC
  5
9EB6
330
9D50
100
AcDbEntity
  8
1
  6
Continuous
100
AcDbCircle
 10
372.33395
 20
190.7008969999999
 30
0.0
 40
2.299999999999998
100
AcDbArc
 50
270.00001
 51
348.97852
  0
ARC
  5
9EB7
330
9D50
100
AcDbEntity
  8
1
  6
Continuous
100
AcDbCircle
 10
372.3483719999999
 20
191.200859
 30
0.0
 40
2.799999999999998
100
AcDbArc
 50
268.3477899999999
 51
269.99998
  0
ARC
  5
9EB8
330
9D50
100
AcDbEntity
  8
1
  6
Continuous
100
AcDbCircle
 10
375.2839489999999
 20
191.2008979999999
 30
0.0
 40
0.5
100
AcDbArc
 50
89.99999100000001
 51
168.9784929999999
  0
LINE
  5
9EB9
330
9D50
100
AcDbEntity
  8
1
  6
Continuous
100
AcDbLine
 10
380.1719319999999
 20
183.659701
 30
0.0
 11
379.807924
 21
181.595299
 31
0.0
  0
LINE
  5
9EBA
330
9D50
100
AcDbEntity
  8
1
  6
Continuous
100
AcDbLine
 10
374.6839469999999
 20
184.6273789999999
 30
0.0
 11
373.931294
 21
186.057825
 31
0.0
  0
LINE
  5
9EBB
330
9D50
100
AcDbEntity
  8
1
  6
Continuous
100
AcDbLine
 10
382.6339529999998
 20
183.22558
 30
0.0
 11
382.2866559999998
 21
181.2559639999999
 31
0.0
  0
LINE
  5
9EBC
330
9D50
100
AcDbEntity
  8
1
  6
Continuous
100
AcDbLine
 10
382.633957
 20
183.2255849999999
 30
0.0
 11
371.3890149999999
 21
185.208371
 31
0.0
  0
LINE
  5
9EBD
330
9D50
100
AcDbEntity
  8
1
  6
Continuous
100
AcDbLine
 10
382.2866559999998
 20
181.255969
 30
0.0
 11
379.824638
 21
181.690089
 31
0.0
  0
LINE
  5
9EBE
330
9D50
100
AcDbEntity
  8
4
  6
CENTER
 48
0.8
100
AcDbLine
 10
383.5339489999999
 20
186.7008949999998
 30
0.0
 11
383.5339489999999
 21
198.700895
 31
0.0
  0
LINE
  5
9EBF
330
9D50
100
AcDbEntity
  8
1
  6
Continuous
100
AcDbLine
 10
374.59152
 20
190.261191
 30
0.0
 11
374.793163
 21
191.2964849999999
 31
0.0
  0
ARC
  5
9EC0
330
9D50
100
AcDbEntity
  8
1
  6
Continuous
100
AcDbCircle
 10
362.995268
 20
188.745394
 30
0.0
 40
1.984499999999996
100
AcDbArc
 50
206.8632199999999
 51
213.1262299999999
  0
ARC
  5
9EC1
330
9D50
100
AcDbEntity
  8
1
  6
Continuous
100
AcDbCircle
 10
359.454573
 20
188.745394
 30
0.0
 40
1.984499999999996
100
AcDbArc
 50
189.99695
 51
213.1262299999999
  0
ARC
  5
9EC2
330
9D50
100
AcDbEntity
  8
1
  6
Continuous
100
AcDbCircle
 10
368.283949
 20
188.745394
 30
0.0
 40
1.984499999999996
100
AcDbArc
 50
326.87379
 51
350.0029399999998
  0
ARC
  5
9EC3
330
9D50
100
AcDbEntity
  8
1
  6
Continuous
100
AcDbCircle
 10
367.634535
 20
188.745394
 30
0.0
 40
1.984499999999996
100
AcDbArc
 50
326.87379
 51
350.0029399999998
  0
ARC
  5
9EC4
330
9D50
100
AcDbEntity
  8
1
  6
Continuous
100
AcDbCircle
 10
365.8129329999999
 20
188.745394
 30
0.0
 40
1.984499999999996
100
AcDbArc
 50
326.87379
 51
350.0029399999998
  0
ARC
  5
9EC5
330
9D50
100
AcDbEntity
  8
1
  6
Continuous
100
AcDbCircle
 10
362.995268
 20
188.745394
 30
0.0
 40
1.984499999999996
100
AcDbArc
 50
326.87379
 51
350.0029399999998
  0
ARC
  5
9EC6
330
9D50
100
AcDbEntity
  8
1
  6
Continuous
100
AcDbCircle
 10
355.533949
 20
188.745394
 30
0.0
 40
1.984499999999996
100
AcDbArc
 50
326.87379
 51
350.0029399999998
  0
ARC
  5
9EC7
330
9D50
100
AcDbEntity
  8
1
  6
Continuous
100
AcDbCircle
 10
359.454573
 20
188.745394
 30
0.0
 40
1.984499999999996
100
AcDbArc
 50
326.87379
 51
350.0029599999999
  0
ARC
  5
9EC8
330
9D50
100
AcDbEntity
  8
1
  6
Continuous
100
AcDbCircle
 10
348.07263
 20
188.745394
 30
0.0
 40
1.984499999999996
100
AcDbArc
 50
189.99701
 51
213.1262299999999
  0
ARC
  5
9EC9
330
9D50
100
AcDbEntity
  8
1
  6
Continuous
100
AcDbCircle
 10
351.6133249999999
 20
188.745394
 30
0.0
 40
1.984499999999996
100
AcDbArc
 50
189.99701
 51
213.1262299999999
  0
ARC
  5
9ECA
330
9D50
100
AcDbEntity
  8
1
  6
Continuous
100
AcDbCircle
 10
342.783949
 20
188.745394
 30
0.0
 40
1.984499999999996
100
AcDbArc
 50
189.99701
 51
213.1262299999999
  0
ARC
  5
9ECB
330
9D50
100
AcDbEntity
  8
1
  6
Continuous
100
AcDbCircle
 10
343.4333629999998
 20
188.745394
 30
0.0
 40
1.984499999999996
100
AcDbArc
 50
189.99701
 51
213.1262299999999
  0
ARC
  5
9ECC
330
9D50
100
AcDbEntity
  8
1
  6
Continuous
100
AcDbCircle
 10
345.2549649999999
 20
188.745394
 30
0.0
 40
1.984499999999996
100
AcDbArc
 50
189.99701
 51
213.1262299999999
  0
ARC
  5
9ECD
330
9D50
100
AcDbEntity
  8
1
  6
Continuous
100
AcDbCircle
 10
348.07263
 20
188.745394
 30
0.0
 40
1.984499999999996
100
AcDbArc
 50
326.87379
 51
333.13675
  0
ARC
  5
9ECE
330
9D50
100
AcDbEntity
  8
1
  6
Continuous
100
AcDbCircle
 10
355.533949
 20
188.745394
 30
0.0
 40
1.984499999999996
100
AcDbArc
 50
189.99701
 51
213.1262299999999
  0
ARC
  5
9ECF
330
9D50
100
AcDbEntity
  8
1
  6
Continuous
100
AcDbCircle
 10
351.6133249999999
 20
188.745394
 30
0.0
 40
1.984499999999996
100
AcDbArc
 50
326.87379
 51
350.00301
  0
LINE
  5
9ED0
330
9D50
100
AcDbEntity
  8
1
  6
Continuous
100
AcDbLine
 10
336.8125999999998
 20
185.01594
 30
0.0
 11
336.533949
 21
179.4173679999999
 31
0.0
  0
ARC
  5
9ED1
330
9D50
100
AcDbEntity
  8
1
  6
Continuous
100
AcDbCircle
 10
338.733946
 20
190.7008919999999
 30
0.0
 40
2.299999999999998
100
AcDbArc
 50
191.02147
 51
269.99998
  0
ARC
  5
9ED2
330
9D50
100
AcDbEntity
  8
1
  6
Continuous
100
AcDbCircle
 10
335.7839489999999
 20
191.2008909999999
 30
0.0
 40
0.5
100
AcDbArc
 50
11.02154
 51
90.00004500000001
  0
LINE
  5
9ED3
330
9D50
100
AcDbEntity
  8
4
  6
CENTER
 48
0.8
100
AcDbLine
 10
327.533949
 20
186.7008949999998
 30
0.0
 11
327.533949
 21
198.700895
 31
0.0
  0
LINE
  5
9ED4
330
9D50
100
AcDbEntity
  8
1
  6
Continuous
100
AcDbLine
 10
336.4763929999998
 20
190.261174
 30
0.0
 11
336.2747479999999
 21
191.2964679999998
 31
0.0
  0
LINE
  5
9ED5
330
9D50
100
AcDbEntity
  8
1
  6
Continuous
100
AcDbLine
 10
320.533949
 20
191.7008889999999
 30
0.0
 11
320.533949
 21
193.700895
 31
0.0
  0
ARC
  5
9ED6
330
9D50
100
AcDbEntity
  8
1
  6
Continuous
100
AcDbCircle
 10
158.533949
 20
65.20089499999999
 30
0.0
 40
13.5
100
AcDbArc
 50
227.794554
 51
132.2054459999999
  0
ARC
  5
9ED7
330
9D50
100
AcDbEntity
  8
1
  6
Continuous
100
AcDbCircle
 10
158.533949
 20
65.20089499999999
 30
0.0
 40
10.5
100
AcDbArc
 50
252.2472099999998
 51
107.7527899999999
  0
ARC
  5
9ED8
330
9D50
100
AcDbEntity
  8
1
  6
Continuous
100
AcDbCircle
 10
159.766274
 20
63.968593
 30
0.0
 40
3.623304
100
AcDbArc
 50
316.5091669999998
 51
358.2470069999998
  0
ARC
  5
9ED9
330
9D50
100
AcDbEntity
  8
1
  6
Continuous
100
AcDbCircle
 10
159.7663169999998
 20
66.43334399999999
 30
0.0
 40
3.623247999999998
100
AcDbArc
 50
1.753413
 51
43.491106
  0
LINE
  5
9EDA
330
9D50
100
AcDbEntity
  8
1
  6
Continuous
100
AcDbLine
 10
162.7839189999999
 20
65.200951
 30
0.0
 11
163.3459389999998
 21
66.450955
 31
0.0
  0
LINE
  5
9EDB
330
9D50
100
AcDbEntity
  8
1
  6
Continuous
100
AcDbLine
 10
163.3459769999998
 20
63.95096999999999
 30
0.0
 11
162.7839569999999
 21
65.20096600000001
 31
0.0
  0
ARC
  5
9EDC
330
9D50
100
AcDbEntity
  8
1
  6
Continuous
100
AcDbCircle
 10
162.1100219999999
 20
63.100953
 30
0.0
 40
1.5
100
AcDbArc
 50
34.51822999999999
 51
73.756776
  0
ARC
  5
9EDD
330
9D50
100
AcDbEntity
  8
1
  6
Continuous
100
AcDbCircle
 10
162.1100219999999
 20
67.300949
 30
0.0
 40
1.5
100
AcDbArc
 50
286.2431649999998
 51
325.48158
  0
CIRCLE
  5
9EDE
330
9D50
100
AcDbEntity
  8
1
  6
Continuous
100
AcDbCircle
 10
376.533949
 20
153.700895
 30
0.0
 40
2.049999999999998
  0
ARC
  5
9EEF
330
9D50
100
AcDbEntity
  8
1
  6
Continuous
100
AcDbCircle
 10
270.477794
 20
170.205959
 30
0.0
 40
32.44384500000001
100
AcDbArc
 50
164.8619749999998
 51
208.309821
  0
ARC
  5
9EF0
330
9D50
100
AcDbEntity
  8
1
  6
Continuous
100
AcDbCircle
 10
243.5901029999999
 20
170.205959
 30
0.0
 40
32.44384500000001
100
AcDbArc
 50
331.690179
 51
15.138025
  0
ARC
  5
9EF1
330
9D50
100
AcDbEntity
  8
1
  6
Continuous
100
AcDbCircle
 10
243.5901029999999
 20
170.205959
 30
0.0
 40
30.443845
100
AcDbArc
 50
331.690233
 51
17.61205799999998
  0
ARC
  5
9EF2
330
9D50
100
AcDbEntity
  8
1
  6
Continuous
100
AcDbCircle
 10
270.477794
 20
170.205959
 30
0.0
 40
30.443845
100
AcDbArc
 50
162.3879419999999
 51
208.3097669999999
  0
ARC
  5
9EF3
330
9D50
100
AcDbEntity
  8
1
  6
Continuous
100
AcDbCircle
 10
273.942832
 20
178.4173679999999
 30
0.0
 40
1.0
100
AcDbArc
 50
15.138025
 51
90.0
  0
ARC
  5
9EF4
330
9D50
100
AcDbEntity
  8
1
  6
Continuous
100
AcDbCircle
 10
240.1250649999997
 20
178.4173679999999
 30
0.0
 40
1.0
100
AcDbArc
 50
90.0
 51
164.8619749999998
  0
ARC
  5
9EF5
330
9D50
100
AcDbEntity
  8
1
  6
Continuous
100
AcDbCircle
 10
241.033964
 20
154.3455789999998
 30
0.0
 40
1.0
100
AcDbArc
 50
0.0
 51
28.30982099999999
  0
ARC
  5
9EF6
330
9D50
100
AcDbEntity
  8
1
  6
Continuous
100
AcDbCircle
 10
241.0339490000001
 20
154.3456069999997
 30
0.0
 40
3.0
100
AcDbArc
 50
0.0
 51
28.30976699999999
  0
ARC
  5
9EF7
330
9D50
100
AcDbEntity
  8
1
  6
Continuous
100
AcDbCircle
 10
273.033934
 20
154.3455789999998
 30
0.0
 40
1.0
100
AcDbArc
 50
151.690179
 51
180.0
  0
ARC
  5
9EF8
330
9D50
100
AcDbEntity
  8
1
  6
Continuous
100
AcDbCircle
 10
273.0339489999999
 20
154.3456069999997
 30
0.0
 40
3.0
100
AcDbArc
 50
151.690233
 51
180.0
  0
ARC
  5
9EF9
330
9D50
100
AcDbEntity
  8
1
  6
Continuous
100
AcDbCircle
 10
145.5724449999999
 20
84.20087999999998
 30
0.0
 40
4.0
100
AcDbArc
 50
270.0
 51
304.301219
  0
ARC
  5
9EFA
330
9D50
100
AcDbEntity
  8
1
  6
Continuous
100
AcDbCircle
 10
145.5724449999999
 20
84.20087999999998
 30
0.0
 40
6.0
100
AcDbArc
 50
270.0
 51
304.301219
  0
ARC
  5
9EFB
330
9D50
100
AcDbEntity
  8
1
  6
Continuous
100
AcDbCircle
 10
145.5724449999999
 20
46.20091
 30
0.0
 40
4.0
100
AcDbArc
 50
55.698781
 51
90.0
  0
ARC
  5
9EFC
330
9D50
100
AcDbEntity
  8
1
  6
Continuous
100
AcDbCircle
 10
145.5724449999999
 20
46.20091
 30
0.0
 40
6.0
100
AcDbArc
 50
55.698781
 51
90.0
  0
CIRCLE
  5
9EFD
330
9D50
100
AcDbEntity
  8
1
  6
Continuous
100
AcDbCircle
 10
186.533949
 20
243.2008909999999
 30
0.0
 40
3.25
  0
CIRCLE
  5
9EFE
330
9D50
100
AcDbEntity
  8
1
  6
Continuous
100
AcDbCircle
 10
186.533949
 20
271.2008949999999
 30
0.0
 40
3.25
  0
CIRCLE
  5
9EFF
330
9D50
100
AcDbEntity
  8
1
  6
Continuous
100
AcDbCircle
 10
130.533949
 20
271.2008949999999
 30
0.0
 40
3.25
  0
CIRCLE
  5
9F00
330
9D50
100
AcDbEntity
  8
1
  6
Continuous
100
AcDbCircle
 10
130.533949
 20
243.2008909999999
 30
0.0
 40
3.25
  0
CIRCLE
  5
9F01
330
9D50
100
AcDbEntity
  8
1
  6
Continuous
100
AcDbCircle
 10
186.533949
 20
79.20089899999998
 30
0.0
 40
3.25
  0
CIRCLE
  5
9F02
330
9D50
100
AcDbEntity
  8
1
  6
Continuous
100
AcDbCircle
 10
186.533949
 20
51.200891
 30
0.0
 40
3.25
  0
ARC
  5
9F03
330
9D50
100
AcDbEntity
  8
1
  6
Continuous
100
AcDbCircle
 10
130.6858939999999
 20
79.306832
 30
0.0
 40
3.25
100
AcDbArc
 50
35.344481
 51
220.389523
  0
ARC
  5
9F04
330
9D50
100
AcDbEntity
  8
1
  6
Continuous
100
AcDbCircle
 10
130.5796729999999
 20
51.307025
 30
0.0
 40
3.25
100
AcDbArc
 50
144.35728
 51
340.102212
  0
ENDSEC
  0
SECTION
  2
OBJECTS
  0
DICTIONARY
  5
9D3E
330
0
100
AcDbDictionary
281
     1
  3
ACAD_CIP_PREVIOUS_PRODUCT_INFO
350
9F81
  3
ACAD_COLOR
350
9F63
  3
ACAD_DETAILVIEWSTYLE
350
9F7C
  3
ACAD_GROUP
350
9D3F
  3
ACAD_LAYOUT
350
9D4B
  3
ACAD_MATERIAL
350
9F31
  3
ACAD_MLEADERSTYLE
350
9F78
  3
ACAD_MLINESTYLE
350
9D48
  3
ACAD_PLOTSETTINGS
350
9D4A
  3
ACAD_PLOTSTYLENAME
350
9F2F
  3
ACAD_SCALELIST
350
9F66
  3
ACAD_SECTIONVIEWSTYLE
350
9F7A
  3
ACAD_TABLESTYLE
350
9F64
  3
ACAD_VISUALSTYLE
350
9F4A
  3
ACDB_RECOMPOSE_DATA
350
9F9F
  3
AcDbVariableDictionary
350
9F92
  3
DWGPROPS
350
9FA0
  0
DICTIONARY
  5
9F82
330
9D42
100
AcDbDictionary
280
     1
281
     1
  3
ADSK_XREC_LAYER_RECONCILED
360
9F83
  0
DICTIONARY
  5
9F84
330
9D58
100
AcDbDictionary
280
     1
281
     1
  3
ADSK_XREC_LAYER_RECONCILED
360
9F85
  0
DICTIONARY
  5
9F86
330
9D59
100
AcDbDictionary
280
     1
281
     1
  3
ADSK_XREC_LAYER_RECONCILED
360
9F87
  0
DICTIONARY
  5
9F88
330
9D5A
100
AcDbDictionary
280
     1
281
     1
  3
ADSK_XREC_LAYER_RECONCILED
360
9F89
  0
DICTIONARY
  5
9F8A
330
9D5B
100
AcDbDictionary
280
     1
281
     1
  3
ADSK_XREC_LAYER_RECONCILED
360
9F8B
  0
DICTIONARY
  5
9F8C
330
9D5C
100
AcDbDictionary
280
     1
281
     1
  3
ADSK_XREC_LAYER_RECONCILED
360
9F8D
  0
DICTIONARY
  5
9F8E
330
9D5D
100
AcDbDictionary
280
     1
281
     1
  3
ADSK_XREC_LAYER_RECONCILED
360
9F8F
  0
DICTIONARY
  5
9F90
330
9D5E
100
AcDbDictionary
280
     1
281
     1
  3
ADSK_XREC_LAYER_RECONCILED
360
9F91
  0
DICTIONARY
  5
9F0F
330
9D50
100
AcDbDictionary
281
     1
  3
ACAD_LAYOUTSELFREF
350
9F2B
  0
DICTIONARY
  5
9F0D
330
9D4C
100
AcDbDictionary
281
     1
  3
ACAD_LAYOUTSELFREF
350
9F2A
  0
XRECORD
  5
9F81
102
{ACAD_REACTORS
330
9D3E
102
}
330
9D3E
100
AcDbXrecord
280
     1
300
ACDLT
300
2014
300
ACDLT_F_S
  0
DICTIONARY
  5
9F63
102
{ACAD_REACTORS
330
9D3E
102
}
330
9D3E
100
AcDbDictionary
281
     1
  0
DICTIONARY
  5
9F7C
102
{ACAD_REACTORS
330
9D3E
102
}
330
9D3E
100
AcDbDictionary
281
     1
  3
Imperial24
350
9F7D
  0
DICTIONARY
  5
9D3F
102
{ACAD_REACTORS
330
9D3E
102
}
330
9D3E
100
AcDbDictionary
281
     1
  0
DICTIONARY
  5
9D4B
102
{ACAD_REACTORS
330
9D3E
102
}
330
9D3E
100
AcDbDictionary
281
     1
  3
Model
350
9F7E
  3
レイアウト1
350
9F7F
  0
DICTIONARY
  5
9F31
102
{ACAD_REACTORS
330
9D3E
102
}
330
9D3E
100
AcDbDictionary
281
     1
  3
ByBlock
350
9F3A
  3
ByLayer
350
9F32
  3
Global
350
9F42
  0
DICTIONARY
  5
9F78
102
{ACAD_REACTORS
330
9D3E
102
}
330
9D3E
100
AcDbDictionary
281
     1
  3
Standard
350
9F79
  0
DICTIONARY
  5
9D48
102
{ACAD_REACTORS
330
9D3E
102
}
330
9D3E
100
AcDbDictionary
281
     1
  3
STANDARD
350
9D49
  0
DICTIONARY
  5
9D4A
102
{ACAD_REACTORS
330
9D3E
102
}
330
9D3E
100
AcDbDictionary
281
     1
  0
ACDBDICTIONARYWDFLT
  5
9F2F
102
{ACAD_REACTORS
330
9D3E
102
}
330
9D3E
100
AcDbDictionary
281
     1
  3
Normal
350
9F30
100
AcDbDictionaryWithDefault
340
9F30
  0
DICTIONARY
  5
9F66
102
{ACAD_REACTORS
330
9D3E
102
}
330
9D3E
100
AcDbDictionary
281
     1
  3
A0
350
9F67
  3
A1
350
9F68
  3
A2
350
9F69
  3
A3
350
9F6A
  3
A4
350
9F6B
  3
A5
350
9F6C
  3
A6
350
9F6D
  3
A7
350
9F6E
  3
A8
350
9F6F
  3
A9
350
9F70
  3
B0
350
9F71
  3
B1
350
9F72
  3
B2
350
9F73
  3
B3
350
9F74
  3
B4
350
9F75
  3
B5
350
9F76
  3
B6
350
9F77
  0
DICTIONARY
  5
9F7A
102
{ACAD_REACTORS
330
9D3E
102
}
330
9D3E
100
AcDbDictionary
281
     1
  3
Imperial24
350
9F7B
  0
DICTIONARY
  5
9F64
102
{ACAD_REACTORS
330
9D3E
102
}
330
9D3E
100
AcDbDictionary
281
     1
  3
Standard
350
9F65
  0
DICTIONARY
  5
9F4A
102
{ACAD_REACTORS
330
9D3E
102
}
330
9D3E
100
AcDbDictionary
281
     1
  3
2dWireframe
350
9F50
  3
Basic
350
9F4F
  3
Brighten
350
9F56
  3
ColorChange
350
9F5A
  3
Conceptual
350
9F53
  3
Dim
350
9F55
  3
EdgeColorOff
350
9F62
  3
Facepattern
350
9F59
  3
Flat
350
9F4B
  3
FlatWithEdges
350
9F4C
  3
Gouraud
350
9F4D
  3
GouraudWithEdges
350
9F4E
  3
Hidden
350
9F52
  3
JitterOff
350
9F60
  3
Linepattern
350
9F58
  3
OverhangOff
350
9F61
  3
Realistic
350
9F54
  3
Shaded
350
9F5F
  3
Shaded with edges
350
9F5E
  3
Shades of Gray
350
9F5B
  3
Sketchy
350
9F5C
  3
Thicken
350
9F57
  3
Wireframe
350
9F51
  3
X-Ray
350
9F5D
  0
XRECORD
  5
9F9F
102
{ACAD_REACTORS
330
9D3E
102
}
330
9D3E
100
AcDbXrecord
280
     1
 90
        1
330
9F65
  0
DICTIONARY
  5
9F92
102
{ACAD_REACTORS
330
9D3E
102
}
330
9D3E
100
AcDbDictionary
281
     1
  3
CANNOSCALE
350
9F97
  3
CMLEADERSTYLE
350
9F94
  3
CTABLESTYLE
350
9F93
  3
CVIEWDETAILSTYLE
350
9F95
  3
CVIEWSECTIONSTYLE
350
9F96
  3
DIMASSOC
350
9F9A
  3
INDEXCTL
350
9F99
  3
SORTENTS
350
9F98
  3
XCLIPFRAME
350
9F9B
  0
XRECORD
  5
9FA0
102
{ACAD_REACTORS
330
9D3E
102
}
330
9D3E
100
AcDbXrecord
280
     1
  1
DWGPROPS COOKIE
  2

  3

  4

  6

  7

  8
Yoshitsune
  9

300
=
301
=
302
=
303
=
304
=
305
=
306
=
307
=
308
=
309
=
 40
0.1473652430555556
 41
2451301.45098125
 42
2457192.690345209
  1

 90
        0
  0
XRECORD
  5
9F83
102
{ACAD_REACTORS
330
9F82
102
}
330
9F82
100
AcDbXrecord
280
     1
290
     1
  0
XRECORD
  5
9F85
102
{ACAD_REACTORS
330
9F84
102
}
330
9F84
100
AcDbXrecord
280
     1
290
     1
  0
XRECORD
  5
9F87
102
{ACAD_REACTORS
330
9F86
102
}
330
9F86
100
AcDbXrecord
280
     1
290
     1
  0
XRECORD
  5
9F89
102
{ACAD_REACTORS
330
9F88
102
}
330
9F88
100
AcDbXrecord
280
     1
290
     1
  0
XRECORD
  5
9F8B
102
{ACAD_REACTORS
330
9F8A
102
}
330
9F8A
100
AcDbXrecord
280
     1
290
     1
  0
XRECORD
  5
9F8D
102
{ACAD_REACTORS
330
9F8C
102
}
330
9F8C
100
AcDbXrecord
280
     1
290
     1
  0
XRECORD
  5
9F8F
102
{ACAD_REACTORS
330
9F8E
102
}
330
9F8E
100
AcDbXrecord
280
     1
290
     1
  0
XRECORD
  5
9F91
102
{ACAD_REACTORS
330
9F90
102
}
330
9F90
100
AcDbXrecord
280
     1
290
     1
  0
XRECORD
  5
9F2B
102
{ACAD_REACTORS
330
9F0F
102
}
330
9F0F
100
AcDbXrecord
280
     1
340
9D50
  0
XRECORD
  5
9F2A
102
{ACAD_REACTORS
330
9F0D
102
}
330
9F0D
100
AcDbXrecord
280
     1
340
9D4C
  0
ACDBDETAILVIEWSTYLE
  5
9F7D
102
{ACAD_XDICTIONARY
360
9FD8
102
}
102
{ACAD_REACTORS
330
9F7C
102
}
330
9F7C
100
AcDbModelDocViewStyle
 70
     0
  3
Imperial24
290
     0
100
AcDbDetailViewStyle
 70
     0
 71
     0
 90
        3
 71
     1
340
9D43
 40
0.24
340
0
 40
0.24
300

 40
0.36
280
     3
 71
     2
340
9D47
 90
       25
 71
     3
340
9D43
 40
0.24
 90
        1
 40
0.75
 90
        1
300
%<\AcVar ViewType \f "%tc1">% %<\AcVar ViewDetailId>%\PSCALE %<\AcVar ViewScale \f "%sn">%
 71
     4
340
9D47
 90
       25
340
9D47
 90
       25
280
     0
  0
LAYOUT
  5
9F7E
102
{ACAD_XDICTIONARY
360
9FDA
102
}
102
{ACAD_REACTORS
330
9D4B
102
}
330
9D4B
100
AcDbPlotSettings
  1

  2
Canon LBP9100C
  4

  6

 40
0.0
 41
0.0
 42
0.0
 43
0.0
 44
0.0
 45
0.0
 46
0.0
 47
0.0
 48
0.0
 49
0.0
140
0.0
141
0.0
142
1.0
143
1.0
 70
  1712
 72
     0
 73
     0
 74
     0
  7

 75
     0
147
1.0
148
0.0
149
0.0
100
AcDbLayout
  1
Model
 70
     1
 71
     0
 10
0.0
 20
0.0
 11
12.0
 21
9.0
 12
0.0
 22
0.0
 32
0.0
 14
0.0
 24
0.0
 34
0.0
 15
0.0
 25
0.0
 35
0.0
146
0.0
 13
0.0
 23
0.0
 33
0.0
 16
1.0
 26
0.0
 36
0.0
 17
0.0
 27
1.0
 37
0.0
 76
     0
330
9D50
331
9F29
  0
LAYOUT
  5
9F7F
102
{ACAD_XDICTIONARY
360
9FDC
102
}
102
{ACAD_REACTORS
330
9D4B
102
}
330
9D4B
100
AcDbPlotSettings
  1

  2
Canon LBP9100C
  4

  6

 40
0.0
 41
0.0
 42
0.0
 43
0.0
 44
0.0
 45
0.0
 46
0.0
 47
0.0
 48
0.0
 49
0.0
140
0.0
141
0.0
142
1.0
143
1.0
 70
   688
 72
     0
 73
     0
 74
     5
  7

 75
    16
147
1.0
148
0.0
149
0.0
100
AcDbLayout
  1
レイアウト1
 70
     0
 71
     1
 10
0.0
 20
0.0
 11
420.0
 21
297.0
 12
0.0
 22
0.0
 32
0.0
 14
1.000000000000000E+20
 24
1.000000000000000E+20
 34
1.000000000000000E+20
 15
-1.000000000000000E+20
 25
-1.000000000000000E+20
 35
-1.000000000000000E+20
146
0.0
 13
0.0
 23
0.0
 33
0.0
 16
1.0
 26
0.0
 36
0.0
 17
0.0
 27
1.0
 37
0.0
 76
     0
330
9D4C
  0
MATERIAL
  5
9F3A
102
{ACAD_XDICTIONARY
360
9F3B
102
}
102
{ACAD_REACTORS
330
9F31
102
}
330
9F31
100
AcDbMaterial
  1
ByBlock
 72
     0
 43
0.0208333333333333
 43
0.0
 43
0.0
 43
0.0
 43
0.0
 43
0.0208333333333333
 43
0.0
 43
0.0
 43
0.0
 43
0.0
 43
1.0
 43
0.0
 43
0.0
 43
0.0
 43
0.0
 43
1.0
 77
     0
 47
0.0208333333333333
 47
0.0
 47
0.0
 47
0.0
 47
0.0
 47
0.0208333333333333
 47
0.0
 47
0.0
 47
0.0
 47
0.0
 47
1.0
 47
0.0
 47
0.0
 47
0.0
 47
0.0
 47
1.0
171
     0
 49
0.0208333333333333
 49
0.0
 49
0.0
 49
0.0
 49
0.0
 49
0.0208333333333333
 49
0.0
 49
0.0
 49
0.0
 49
0.0
 49
1.0
 49
0.0
 49
0.0
 49
0.0
 49
0.0
 49
1.0
175
     0
142
0.0208333333333333
142
0.0
142
0.0
142
0.0
142
0.0
142
0.0208333333333333
142
0.0
142
0.0
142
0.0
142
0.0
142
1.0
142
0.0
142
0.0
142
0.0
142
0.0
142
1.0
179
     0
144
0.0208333333333333
144
0.0
144
0.0
144
0.0
144
0.0
144
0.0208333333333333
144
0.0
144
0.0
144
0.0
144
0.0
144
1.0
144
0.0
144
0.0
144
0.0
144
0.0
144
1.0
147
0.0208333333333333
147
0.0
147
0.0
147
0.0
147
0.0
147
0.0208333333333333
147
0.0
147
0.0
147
0.0
147
0.0
147
1.0
147
0.0
147
0.0
147
0.0
147
0.0
147
1.0
  0
MATERIAL
  5
9F32
102
{ACAD_XDICTIONARY
360
9F33
102
}
102
{ACAD_REACTORS
330
9F31
102
}
330
9F31
100
AcDbMaterial
  1
ByLayer
 72
     0
 43
0.0208333333333333
 43
0.0
 43
0.0
 43
0.0
 43
0.0
 43
0.0208333333333333
 43
0.0
 43
0.0
 43
0.0
 43
0.0
 43
1.0
 43
0.0
 43
0.0
 43
0.0
 43
0.0
 43
1.0
 77
     0
 47
0.0208333333333333
 47
0.0
 47
0.0
 47
0.0
 47
0.0
 47
0.0208333333333333
 47
0.0
 47
0.0
 47
0.0
 47
0.0
 47
1.0
 47
0.0
 47
0.0
 47
0.0
 47
0.0
 47
1.0
171
     0
 49
0.0208333333333333
 49
0.0
 49
0.0
 49
0.0
 49
0.0
 49
0.0208333333333333
 49
0.0
 49
0.0
 49
0.0
 49
0.0
 49
1.0
 49
0.0
 49
0.0
 49
0.0
 49
0.0
 49
1.0
175
     0
142
0.0208333333333333
142
0.0
142
0.0
142
0.0
142
0.0
142
0.0208333333333333
142
0.0
142
0.0
142
0.0
142
0.0
142
1.0
142
0.0
142
0.0
142
0.0
142
0.0
142
1.0
179
     0
144
0.0208333333333333
144
0.0
144
0.0
144
0.0
144
0.0
144
0.0208333333333333
144
0.0
144
0.0
144
0.0
144
0.0
144
1.0
144
0.0
144
0.0
144
0.0
144
0.0
144
1.0
147
0.0208333333333333
147
0.0
147
0.0
147
0.0
147
0.0
147
0.0208333333333333
147
0.0
147
0.0
147
0.0
147
0.0
147
1.0
147
0.0
147
0.0
147
0.0
147
0.0
147
1.0
  0
MATERIAL
  5
9F42
102
{ACAD_XDICTIONARY
360
9F43
102
}
102
{ACAD_REACTORS
330
9F31
102
}
330
9F31
100
AcDbMaterial
  1
Global
 72
     0
 43
0.0208333333333333
 43
0.0
 43
0.0
 43
0.0
 43
0.0
 43
0.0208333333333333
 43
0.0
 43
0.0
 43
0.0
 43
0.0
 43
1.0
 43
0.0
 43
0.0
 43
0.0
 43
0.0
 43
1.0
 77
     0
 47
0.0208333333333333
 47
0.0
 47
0.0
 47
0.0
 47
0.0
 47
0.0208333333333333
 47
0.0
 47
0.0
 47
0.0
 47
0.0
 47
1.0
 47
0.0
 47
0.0
 47
0.0
 47
0.0
 47
1.0
171
     0
 49
0.0208333333333333
 49
0.0
 49
0.0
 49
0.0
 49
0.0
 49
0.0208333333333333
 49
0.0
 49
0.0
 49
0.0
 49
0.0
 49
1.0
 49
0.0
 49
0.0
 49
0.0
 49
0.0
 49
1.0
175
     0
142
0.0208333333333333
142
0.0
142
0.0
142
0.0
142
0.0
142
0.0208333333333333
142
0.0
142
0.0
142
0.0
142
0.0
142
1.0
142
0.0
142
0.0
142
0.0
142
0.0
142
1.0
179
     0
144
0.0208333333333333
144
0.0
144
0.0
144
0.0
144
0.0
144
0.0208333333333333
144
0.0
144
0.0
144
0.0
144
0.0
144
1.0
144
0.0
144
0.0
144
0.0
144
0.0
144
1.0
147
0.0208333333333333
147
0.0
147
0.0
147
0.0
147
0.0
147
0.0208333333333333
147
0.0
147
0.0
147
0.0
147
0.0
147
1.0
147
0.0
147
0.0
147
0.0
147
0.0
147
1.0
  0
MLEADERSTYLE
  5
9F79
102
{ACAD_REACTORS
330
9F78
102
}
330
9F78
100
AcDbMLeaderStyle
170
     2
171
     1
172
     0
 90
        2
 40
0.0
 41
0.0
173
     1
 91
-1056964608
340
9D45
 92
       -2
290
     1
 42
0.09
291
     1
 43
0.36
  3
Standard
 44
0.18
300

342
9D43
174
     1
178
     6
175
     1
176
     0
 93
-1056964608
 45
0.18
292
     0
297
     0
 46
0.18
 94
-1056964608
 47
1.0
 49
1.0
140
1.0
293
     1
141
0.0
294
     1
177
     0
142
1.0
295
     0
296
     0
143
0.125
1001
ACAD_MLEADERVER
1070
     2
  0
MLINESTYLE
  5
9D49
102
{ACAD_REACTORS
330
9D48
102
}
330
9D48
100
AcDbMlineStyle
  2
STANDARD
 70
     0
  3

 62
   256
 51
90.0
 52
90.0
 71
     2
 49
0.5
 62
   256
  6
BYLAYER
 49
-0.5
 62
   256
  6
BYLAYER
  0
ACDBPLACEHOLDER
  5
9F30
102
{ACAD_REACTORS
330
9F2F
102
}
330
9F2F
  0
SCALE
  5
9F67
102
{ACAD_REACTORS
330
9F66
102
}
330
9F66
100
AcDbScale
 70
     0
300
1:1
140
1.0
141
1.0
290
     1
  0
SCALE
  5
9F68
102
{ACAD_REACTORS
330
9F66
102
}
330
9F66
100
AcDbScale
 70
     0
300
1/128" = 1'-0"
140
0.0078125
141
12.0
290
     0
  0
SCALE
  5
9F69
102
{ACAD_REACTORS
330
9F66
102
}
330
9F66
100
AcDbScale
 70
     0
300
1/64" = 1'-0"
140
0.015625
141
12.0
290
     0
  0
SCALE
  5
9F6A
102
{ACAD_REACTORS
330
9F66
102
}
330
9F66
100
AcDbScale
 70
     0
300
1/32" = 1'-0"
140
0.03125
141
12.0
290
     0
  0
SCALE
  5
9F6B
102
{ACAD_REACTORS
330
9F66
102
}
330
9F66
100
AcDbScale
 70
     0
300
1/16" = 1'-0"
140
0.0625
141
12.0
290
     0
  0
SCALE
  5
9F6C
102
{ACAD_REACTORS
330
9F66
102
}
330
9F66
100
AcDbScale
 70
     0
300
3/32" = 1'-0"
140
0.09375
141
12.0
290
     0
  0
SCALE
  5
9F6D
102
{ACAD_REACTORS
330
9F66
102
}
330
9F66
100
AcDbScale
 70
     0
300
1/8" = 1'-0"
140
0.125
141
12.0
290
     0
  0
SCALE
  5
9F6E
102
{ACAD_REACTORS
330
9F66
102
}
330
9F66
100
AcDbScale
 70
     0
300
3/16" = 1'-0"
140
0.1875
141
12.0
290
     0
  0
SCALE
  5
9F6F
102
{ACAD_REACTORS
330
9F66
102
}
330
9F66
100
AcDbScale
 70
     0
300
1/4" = 1'-0"
140
0.25
141
12.0
290
     0
  0
SCALE
  5
9F70
102
{ACAD_REACTORS
330
9F66
102
}
330
9F66
100
AcDbScale
 70
     0
300
3/8" = 1'-0"
140
0.375
141
12.0
290
     0
  0
SCALE
  5
9F71
102
{ACAD_REACTORS
330
9F66
102
}
330
9F66
100
AcDbScale
 70
     0
300
1/2" = 1'-0"
140
0.5
141
12.0
290
     0
  0
SCALE
  5
9F72
102
{ACAD_REACTORS
330
9F66
102
}
330
9F66
100
AcDbScale
 70
     0
300
3/4" = 1'-0"
140
0.75
141
12.0
290
     0
  0
SCALE
  5
9F73
102
{ACAD_REACTORS
330
9F66
102
}
330
9F66
100
AcDbScale
 70
     0
300
1" = 1'-0"
140
1.0
141
12.0
290
     0
  0
SCALE
  5
9F74
102
{ACAD_REACTORS
330
9F66
102
}
330
9F66
100
AcDbScale
 70
     0
300
1-1/2" = 1'-0"
140
1.5
141
12.0
290
     0
  0
SCALE
  5
9F75
102
{ACAD_REACTORS
330
9F66
102
}
330
9F66
100
AcDbScale
 70
     0
300
3" = 1'-0"
140
3.0
141
12.0
290
     0
  0
SCALE
  5
9F76
102
{ACAD_REACTORS
330
9F66
102
}
330
9F66
100
AcDbScale
 70
     0
300
6" = 1'-0"
140
6.0
141
12.0
290
     0
  0
SCALE
  5
9F77
102
{ACAD_REACTORS
330
9F66
102
}
330
9F66
100
AcDbScale
 70
     0
300
1'-0" = 1'-0"
140
12.0
141
12.0
290
     0
  0
ACDBSECTIONVIEWSTYLE
  5
9F7B
102
{ACAD_XDICTIONARY
360
9FD6
102
}
102
{ACAD_REACTORS
330
9F7A
102
}
330
9F7A
100
AcDbModelDocViewStyle
 70
     0
  3
Imperial24
290
     0
100
AcDbSectionViewStyle
 70
     0
 71
     0
 90
       78
 71
     1
340
9D43
 40
0.24
340
0
340
0
 40
0.24
300
I, O, Q, S, X, Z
 40
0.48
 90
        3
 40
0.18
 90
        1
 71
     2
340
9D47
 90
       25
340
9D47
 90
       50
 40
0.24
 40
0.0
 40
0.24
 71
     3
340
9D43
 40
0.24
 90
        1
 40
0.75
 90
        1
300
%<\AcVar ViewType \f "%tc1">% %<\AcVar ViewSectionStartId>%-%<\AcVar ViewSectionEndId>%\PSCALE %<\AcVar ViewScale \f "%sn">%
 71
     4
300
ANSI31
 40
1.0
 90
        0
290
     0
290
     0
 90
        6
 40
0.0
 40
1.570796326794896
 40
0.2617993877991494
 40
1.308996938995747
 40
-0.2617993877991494
 40
1.832595714594046
  0
TABLESTYLE
  5
9F65
102
{ACAD_XDICTIONARY
360
9F9D
102
}
102
{ACAD_REACTORS
330
9F64
102
}
330
9F64
100
AcDbTableStyle
  3
Standard
 70
     0
 71
     0
 40
0.06
 41
0.06
280
     0
281
     0
  7
STANDARD
140
0.18
170
     2
 62
     0
 63
     7
283
     0
274
    -2
284
     1
 64
     0
275
    -2
285
     1
 65
     0
276
    -2
286
     1
 66
     0
277
    -2
287
     1
 67
     0
278
    -2
288
     1
 68
     0
279
    -2
289
     1
 69
     0
  7
STANDARD
140
0.25
170
     5
 62
     0
 63
     7
283
     0
274
    -2
284
     1
 64
     0
275
    -2
285
     1
 65
     0
276
    -2
286
     1
 66
     0
277
    -2
287
     1
 67
     0
278
    -2
288
     1
 68
     0
279
    -2
289
     1
 69
     0
  7
STANDARD
140
0.18
170
     5
 62
     0
 63
     7
283
     0
274
    -2
284
     1
 64
     0
275
    -2
285
     1
 65
     0
276
    -2
286
     1
 66
     0
277
    -2
287
     1
 67
     0
278
    -2
288
     1
 68
     0
279
    -2
289
     1
 69
     0
  0
VISUALSTYLE
  5
9F50
102
{ACAD_XDICTIONARY
360
9FAE
102
}
102
{ACAD_REACTORS
330
9F4A
102
}
330
9F4A
100
AcDbVisualStyle
  2
2dWireframe
 70
     4
 71
     0
 72
     2
 73
     0
 90
        0
 40
-0.6
 41
-30.0
 62
     5
 63
     7
 74
     1
 91
        4
 64
     7
 65
   257
 75
     1
175
     1
 42
1.0
 92
        0
 66
   257
 43
1.0
 76
     1
 77
     6
 78
     2
 67
     7
 79
     5
170
     0
171
     0
290
     0
174
     0
 93
        1
 44
0.0
173
     0
291
     0
 45
0.0
1001
ACAD
1000
AcDbSavedByObjectVersion
1070
     0
  0
VISUALSTYLE
  5
9F4F
102
{ACAD_XDICTIONARY
360
9FAC
102
}
102
{ACAD_REACTORS
330
9F4A
102
}
330
9F4A
100
AcDbVisualStyle
  2
Basic
 70
     7
 71
     1
 72
     0
 73
     1
 90
        0
 40
-0.6
 41
-30.0
 62
     5
 63
     7
 74
     0
 91
        4
 64
     7
 65
   257
 75
     1
175
     1
 42
1.0
 92
        8
 66
     7
 43
1.0
 76
     1
 77
     6
 78
     2
 67
     7
 79
     5
170
     0
171
     0
290
     0
174
     0
 93
        1
 44
0.0
173
     0
291
     1
 45
0.0
1001
ACAD
1000
AcDbSavedByObjectVersion
1070
     0
  0
VISUALSTYLE
  5
9F56
102
{ACAD_XDICTIONARY
360
9FBA
102
}
102
{ACAD_REACTORS
330
9F4A
102
}
330
9F4A
100
AcDbVisualStyle
  2
Brighten
 70
    12
 71
     2
 72
     2
 73
     0
 90
        0
 40
-0.6
 41
-30.0
 62
     5
 63
     7
 74
     1
 91
        4
 64
     7
 65
   257
 75
     1
175
     1
 42
1.0
 92
        8
 66
     7
 43
1.0
 76
     1
 77
     6
 78
     2
 67
     7
 79
     5
170
     0
171
     0
290
     0
174
     0
 93
        1
 44
50.0
173
     0
291
     1
 45
0.0
1001
ACAD
1000
AcDbSavedByObjectVersion
1070
     0
  0
VISUALSTYLE
  5
9F5A
102
{ACAD_XDICTIONARY
360
9FC2
102
}
102
{ACAD_REACTORS
330
9F4A
102
}
330
9F4A
100
AcDbVisualStyle
  2
ColorChange
 70
    16
 71
     2
 72
     2
 73
     3
 90
        0
 40
-0.6
 41
-30.0
 62
     5
 63
     8
 74
     1
 91
        4
 64
     7
 65
   257
 75
     1
175
     1
 42
1.0
 92
        8
 66
     8
 43
1.0
 76
     1
 77
     6
 78
     2
 67
     7
 79
     5
170
     0
171
     0
290
     0
174
     0
 93
        1
 44
0.0
173
     0
291
     1
 45
0.0
1001
ACAD
1000
AcDbSavedByObjectVersion
1070
     0
  0
VISUALSTYLE
  5
9F53
102
{ACAD_XDICTIONARY
360
9FB4
102
}
102
{ACAD_REACTORS
330
9F4A
102
}
330
9F4A
100
AcDbVisualStyle
  2
Conceptual
 70
     9
 71
     3
 72
     2
 73
     0
 90
        0
 40
-0.6
 41
-30.0
 62
     5
 63
     7
 74
     2
 91
        2
 64
     7
 65
   257
 75
     1
175
     1
 42
179.0
 92
        8
 66
     7
 43
1.0
 76
     1
 77
     6
 78
     2
 67
     7
 79
     3
170
     0
171
     0
290
     0
174
     0
 93
        1
 44
0.0
173
     0
291
     0
 45
0.0
1001
ACAD
1000
AcDbSavedByObjectVersion
1070
     0
  0
VISUALSTYLE
  5
9F55
102
{ACAD_XDICTIONARY
360
9FB8
102
}
102
{ACAD_REACTORS
330
9F4A
102
}
330
9F4A
100
AcDbVisualStyle
  2
Dim
 70
    11
 71
     2
 72
     2
 73
     0
 90
        0
 40
-0.6
 41
-30.0
 62
     5
 63
     7
 74
     1
 91
        4
 64
     7
 65
   257
 75
     1
175
     1
 42
1.0
 92
        8
 66
     7
 43
1.0
 76
     1
 77
     6
 78
     2
 67
     7
 79
     5
170
     0
171
     0
290
     0
174
     0
 93
        1
 44
-50.0
173
     0
291
     1
 45
0.0
1001
ACAD
1000
AcDbSavedByObjectVersion
1070
     0
  0
VISUALSTYLE
  5
9F62
102
{ACAD_XDICTIONARY
360
9FD2
102
}
102
{ACAD_REACTORS
330
9F4A
102
}
330
9F4A
100
AcDbVisualStyle
  2
EdgeColorOff
 70
    22
 71
     2
 72
     2
 73
     0
 90
        0
 40
-0.6
 41
-30.0
 62
     5
 63
     7
 74
     1
 91
        4
 64
     7
 65
   257
 75
     1
175
     1
 42
1.0
 92
        8
 66
     7
 43
1.0
 76
     1
 77
     6
 78
     2
 67
     7
 79
     5
170
     0
171
     0
290
     0
174
     0
 93
        1
 44
0.0
173
     0
291
     1
 45
0.0
1001
ACAD
1000
AcDbSavedByObjectVersion
1070
     0
  0
VISUALSTYLE
  5
9F59
102
{ACAD_XDICTIONARY
360
9FC0
102
}
102
{ACAD_REACTORS
330
9F4A
102
}
330
9F4A
100
AcDbVisualStyle
  2
Facepattern
 70
    15
 71
     2
 72
     2
 73
     0
 90
        0
 40
-0.6
 41
-30.0
 62
     5
 63
     7
 74
     1
 91
        4
 64
     7
 65
   257
 75
     1
175
     1
 42
1.0
 92
        8
 66
     7
 43
1.0
 76
     1
 77
     6
 78
     2
 67
     7
 79
     5
170
     0
171
     0
290
     0
174
     0
 93
        1
 44
0.0
173
     0
291
     1
 45
0.0
1001
ACAD
1000
AcDbSavedByObjectVersion
1070
     0
  0
VISUALSTYLE
  5
9F4B
102
{ACAD_XDICTIONARY
360
9FA4
102
}
102
{ACAD_REACTORS
330
9F4A
102
}
330
9F4A
100
AcDbVisualStyle
  2
Flat
 70
     0
 71
     2
 72
     1
 73
     1
 90
        2
 40
-0.6
 41
30.0
 62
     5
 63
     7
 74
     0
 91
        0
 64
     7
 65
   257
 75
     1
175
     1
 42
1.0
 92
        8
 66
     7
 43
1.0
 76
     1
 77
     6
 78
     2
 67
     7
 79
     5
170
     0
171
     0
290
     0
174
     0
 93
       13
 44
0.0
173
     0
291
     1
 45
0.0
1001
ACAD
1000
AcDbSavedByObjectVersion
1070
     0
  0
VISUALSTYLE
  5
9F4C
102
{ACAD_XDICTIONARY
360
9FA6
102
}
102
{ACAD_REACTORS
330
9F4A
102
}
330
9F4A
100
AcDbVisualStyle
  2
FlatWithEdges
 70
     1
 71
     2
 72
     1
 73
     1
 90
        2
 40
-0.6
 41
30.0
 62
     5
 63
     7
 74
     1
 91
        0
 64
     7
 65
   257
 75
     1
175
     1
 42
1.0
 92
        0
 66
   257
 43
1.0
 76
     1
 77
     6
 78
     2
 67
     7
 79
     5
170
     0
171
     0
290
     0
174
     0
 93
       13
 44
0.0
173
     0
291
     1
 45
0.0
1001
ACAD
1000
AcDbSavedByObjectVersion
1070
     0
  0
VISUALSTYLE
  5
9F4D
102
{ACAD_XDICTIONARY
360
9FA8
102
}
102
{ACAD_REACTORS
330
9F4A
102
}
330
9F4A
100
AcDbVisualStyle
  2
Gouraud
 70
     2
 71
     2
 72
     2
 73
     1
 90
        2
 40
-0.6
 41
30.0
 62
     5
 63
     7
 74
     0
 91
        0
 64
     7
 65
   257
 75
     1
175
     1
 42
1.0
 92
        0
 66
     7
 43
1.0
 76
     1
 77
     6
 78
     2
 67
     7
 79
     5
170
     0
171
     0
290
     0
174
     0
 93
       13
 44
0.0
173
     0
291
     1
 45
0.0
1001
ACAD
1000
AcDbSavedByObjectVersion
1070
     0
  0
VISUALSTYLE
  5
9F4E
102
{ACAD_XDICTIONARY
360
9FAA
102
}
102
{ACAD_REACTORS
330
9F4A
102
}
330
9F4A
100
AcDbVisualStyle
  2
GouraudWithEdges
 70
     3
 71
     2
 72
     2
 73
     1
 90
        2
 40
-0.6
 41
30.0
 62
     5
 63
     7
 74
     1
 91
        0
 64
     7
 65
   257
 75
     1
175
     1
 42
1.0
 92
        0
 66
   257
 43
1.0
 76
     1
 77
     6
 78
     2
 67
     7
 79
     5
170
     0
171
     0
290
     0
174
     0
 93
       13
 44
0.0
173
     0
291
     1
 45
0.0
1001
ACAD
1000
AcDbSavedByObjectVersion
1070
     0
  0
VISUALSTYLE
  5
9F52
102
{ACAD_XDICTIONARY
360
9FB2
102
}
102
{ACAD_REACTORS
330
9F4A
102
}
330
9F4A
100
AcDbVisualStyle
  2
Hidden
 70
     6
 71
     1
 72
     2
 73
     2
 90
        0
 40
-0.6
 41
-30.0
 62
     5
 63
     7
 74
     2
 91
        2
 64
     7
 65
   257
 75
     2
175
     1
 42
40.0
 92
        0
 66
   257
 43
1.0
 76
     1
 77
     6
 78
     2
 67
     7
 79
     3
170
     0
171
     0
290
     0
174
     0
 93
        1
 44
0.0
173
     0
291
     0
 45
0.0
1001
ACAD
1000
AcDbSavedByObjectVersion
1070
     0
  0
VISUALSTYLE
  5
9F60
102
{ACAD_XDICTIONARY
360
9FCE
102
}
102
{ACAD_REACTORS
330
9F4A
102
}
330
9F4A
100
AcDbVisualStyle
  2
JitterOff
 70
    20
 71
     2
 72
     2
 73
     0
 90
        0
 40
-0.6
 41
-30.0
 62
     5
 63
     7
 74
     1
 91
        4
 64
     7
 65
   257
 75
     1
175
     1
 42
1.0
 92
       10
 66
     7
 43
1.0
 76
     1
 77
     6
 78
     2
 67
     7
 79
     5
170
     0
171
     0
290
     0
174
     0
 93
        1
 44
0.0
173
     0
291
     1
 45
0.0
1001
ACAD
1000
AcDbSavedByObjectVersion
1070
     0
  0
VISUALSTYLE
  5
9F58
102
{ACAD_XDICTIONARY
360
9FBE
102
}
102
{ACAD_REACTORS
330
9F4A
102
}
330
9F4A
100
AcDbVisualStyle
  2
Linepattern
 70
    14
 71
     2
 72
     2
 73
     0
 90
        0
 40
-0.6
 41
-30.0
 62
     5
 63
     7
 74
     1
 91
        4
 64
     7
 65
   257
 75
     7
175
     7
 42
1.0
 92
        8
 66
     7
 43
1.0
 76
     1
 77
     6
 78
     2
 67
     7
 79
     5
170
     0
171
     0
290
     0
174
     0
 93
        1
 44
0.0
173
     0
291
     1
 45
0.0
1001
ACAD
1000
AcDbSavedByObjectVersion
1070
     0
  0
VISUALSTYLE
  5
9F61
102
{ACAD_XDICTIONARY
360
9FD0
102
}
102
{ACAD_REACTORS
330
9F4A
102
}
330
9F4A
100
AcDbVisualStyle
  2
OverhangOff
 70
    21
 71
     2
 72
     2
 73
     0
 90
        0
 40
-0.6
 41
-30.0
 62
     5
 63
     7
 74
     1
 91
        4
 64
     7
 65
   257
 75
     1
175
     1
 42
1.0
 92
        9
 66
     7
 43
1.0
 76
     1
 77
     6
 78
     2
 67
     7
 79
     5
170
     0
171
     0
290
     0
174
     0
 93
        1
 44
0.0
173
     0
291
     1
 45
0.0
1001
ACAD
1000
AcDbSavedByObjectVersion
1070
     0
  0
VISUALSTYLE
  5
9F54
102
{ACAD_XDICTIONARY
360
9FB6
102
}
102
{ACAD_REACTORS
330
9F4A
102
}
330
9F4A
100
AcDbVisualStyle
  2
Realistic
 70
     8
 71
     2
 72
     3
 73
     0
 90
        2
 40
-0.6
 41
30.0
 62
     5
 63
     7
 74
     0
 91
        0
 64
     7
 65
   257
 75
     1
175
     1
 42
1.0
 92
        8
 66
   257
 43
1.0
 76
     1
 77
     6
 78
     2
 67
     7
 79
     3
170
     0
171
     0
290
     0
174
     0
 93
       13
 44
0.0
173
     0
291
     0
 45
0.0
1001
ACAD
1000
AcDbSavedByObjectVersion
1070
     0
  0
VISUALSTYLE
  5
9F5F
102
{ACAD_XDICTIONARY
360
9FCC
102
}
102
{ACAD_REACTORS
330
9F4A
102
}
330
9F4A
100
AcDbVisualStyle
  2
Shaded
 70
    27
 71
     2
 72
     2
 73
     1
 90
        2
 40
-0.6
 41
30.0
 62
     5
 63
     7
 74
     0
 91
        4
 64
     7
 65
   257
 75
     1
175
     1
 42
1.0
 92
        8
 66
   257
 43
1.0
 76
     1
 77
     6
 78
     2
 67
     8
 79
     3
170
     0
171
     0
290
     0
174
     0
 93
        5
 44
0.0
173
     0
291
     0
 45
0.0
1001
ACAD
1000
AcDbSavedByObjectVersion
1070
     0
  0
VISUALSTYLE
  5
9F5E
102
{ACAD_XDICTIONARY
360
9FCA
102
}
102
{ACAD_REACTORS
330
9F4A
102
}
330
9F4A
100
AcDbVisualStyle
  2
Shaded with edges
 70
    26
 71
     2
 72
     2
 73
     1
 90
        2
 40
-0.6
 41
30.0
 62
     5
 63
     7
 74
     1
 91
       10
 64
     7
 65
   257
 75
     2
175
     1
 42
1.0
 92
        8
 66
   257
 43
1.0
 76
     1
 77
     6
 78
     2
 67
     7
 79
     3
170
     0
171
     0
290
     0
174
     0
 93
        5
 44
0.0
173
     0
291
     0
 45
0.0
1001
ACAD
1000
AcDbSavedByObjectVersion
1070
     0
  0
VISUALSTYLE
  5
9F5B
102
{ACAD_XDICTIONARY
360
9FC4
102
}
102
{ACAD_REACTORS
330
9F4A
102
}
330
9F4A
100
AcDbVisualStyle
  2
Shades of Gray
 70
    23
 71
     2
 72
     2
 73
     3
 90
        0
 40
-0.6
 41
-30.0
 62
     5
 63
     7
 74
     2
 91
        2
 64
     7
 65
     7
 75
     1
175
     1
 42
40.0
 92
        8
 66
     7
 43
1.0
 76
     1
 77
     6
 78
     2
 67
     7
 79
     3
170
     0
171
     0
290
     0
174
     0
 93
        1
 44
0.0
173
     0
291
     0
 45
0.0
1001
ACAD
1000
AcDbSavedByObjectVersion
1070
     0
  0
VISUALSTYLE
  5
9F5C
102
{ACAD_XDICTIONARY
360
9FC6
102
}
102
{ACAD_REACTORS
330
9F4A
102
}
330
9F4A
100
AcDbVisualStyle
  2
Sketchy
 70
    24
 71
     1
 72
     2
 73
     2
 90
        0
 40
-0.6
 41
-30.0
 62
     5
 63
     7
 74
     2
 91
        2
 64
     7
 65
     7
 75
     1
175
     1
 42
40.0
 92
       11
 66
     7
 43
1.0
 76
     1
 77
     6
 78
     2
 67
     7
 79
     6
170
     0
171
     0
290
     0
174
     0
 93
        1
 44
0.0
173
     0
291
     0
 45
0.0
1001
ACAD
1000
AcDbSavedByObjectVersion
1070
     0
  0
VISUALSTYLE
  5
9F57
102
{ACAD_XDICTIONARY
360
9FBC
102
}
102
{ACAD_REACTORS
330
9F4A
102
}
330
9F4A
100
AcDbVisualStyle
  2
Thicken
 70
    13
 71
     2
 72
     2
 73
     0
 90
        0
 40
-0.6
 41
-30.0
 62
     5
 63
     7
 74
     1
 91
        4
 64
     7
 65
   257
 75
     1
175
     1
 42
1.0
 92
       12
 66
     7
 43
1.0
 76
     1
 77
     6
 78
     2
 67
     7
 79
     5
170
     0
171
     0
290
     0
174
     0
 93
        1
 44
0.0
173
     0
291
     1
 45
0.0
1001
ACAD
1000
AcDbSavedByObjectVersion
1070
     0
  0
VISUALSTYLE
  5
9F51
102
{ACAD_XDICTIONARY
360
9FB0
102
}
102
{ACAD_REACTORS
330
9F4A
102
}
330
9F4A
100
AcDbVisualStyle
  2
Wireframe
 70
     5
 71
     0
 72
     2
 73
     0
 90
        0
 40
-0.6
 41
-30.0
 62
     5
 63
     7
 74
     1
 91
        4
 64
     7
 65
   257
 75
     1
175
     1
 42
1.0
 92
        0
 66
   257
 43
1.0
 76
     1
 77
     6
 78
     2
 67
     7
 79
     3
170
     0
171
     0
290
     0
174
     0
 93
        1
 44
0.0
173
     0
291
     0
 45
0.0
1001
ACAD
1000
AcDbSavedByObjectVersion
1070
     0
  0
VISUALSTYLE
  5
9F5D
102
{ACAD_XDICTIONARY
360
9FC8
102
}
102
{ACAD_REACTORS
330
9F4A
102
}
330
9F4A
100
AcDbVisualStyle
  2
X-Ray
 70
    25
 71
     2
 72
     2
 73
     1
 90
        1
 40
0.5
 41
-30.0
 62
     5
 63
     7
 74
     1
 91
        0
 64
     7
 65
   257
 75
     1
175
     1
 42
1.0
 92
        8
 66
     7
 43
1.0
 76
     1
 77
     6
 78
     2
 67
     7
 79
     3
170
     0
171
     0
290
     0
174
     0
 93
       13
 44
0.0
173
     0
291
     0
 45
0.0
1001
ACAD
1000
AcDbSavedByObjectVersion
1070
     0
  0
DICTIONARYVAR
  5
9F97
102
{ACAD_REACTORS
330
9F92
102
}
330
9F92
100
DictionaryVariables
280
     0
  1
1:1
  0
DICTIONARYVAR
  5
9F94
102
{ACAD_REACTORS
330
9F92
102
}
330
9F92
100
DictionaryVariables
280
     0
  1
STANDARD
  0
DICTIONARYVAR
  5
9F93
102
{ACAD_REACTORS
330
9F92
102
}
330
9F92
100
DictionaryVariables
280
     0
  1
STANDARD
  0
DICTIONARYVAR
  5
9F95
102
{ACAD_REACTORS
330
9F92
102
}
330
9F92
100
DictionaryVariables
280
     0
  1
Imperial24
  0
DICTIONARYVAR
  5
9F96
102
{ACAD_REACTORS
330
9F92
102
}
330
9F92
100
DictionaryVariables
280
     0
  1
Imperial24
  0
DICTIONARYVAR
  5
9F9A
102
{ACAD_REACTORS
330
9F92
102
}
330
9F92
100
DictionaryVariables
280
     0
  1
1
  0
DICTIONARYVAR
  5
9F99
102
{ACAD_REACTORS
330
9F92
102
}
330
9F92
100
DictionaryVariables
280
     0
  1
0
  0
DICTIONARYVAR
  5
9F98
102
{ACAD_REACTORS
330
9F92
102
}
330
9F92
100
DictionaryVariables
280
     0
  1
127
  0
DICTIONARYVAR
  5
9F9B
102
{ACAD_REACTORS
330
9F92
102
}
330
9F92
100
DictionaryVariables
280
     0
  1
2
  0
DICTIONARY
  5
9FD8
330
9F7D
100
AcDbDictionary
280
     1
281
     1
  3
ACAD_XREC_ROUNDTRIP
360
9FD9
  0
DICTIONARY
  5
9FDA
330
9F7E
100
AcDbDictionary
280
     1
281
     1
  3
ACAD_XREC_ROUNDTRIP
360
9FDB
  0
DICTIONARY
  5
9FDC
330
9F7F
100
AcDbDictionary
280
     1
281
     1
  3
ACAD_XREC_ROUNDTRIP
360
9FDD
  0
DICTIONARY
  5
9F3B
330
9F3A
100
AcDbDictionary
280
     1
281
     1
  3
ACAD_XREC_ROUNDTRIP
360
9FA2
  3
BUMPTILE
360
9F3D
  3
DIFFUSETILE
360
9F3C
  3
OPACITYTILE
360
9F40
  3
REFLECTIONTILE
360
9F3F
  3
REFRACTIONTILE
360
9F41
  3
SPECULARTILE
360
9F3E
  0
DICTIONARY
  5
9F33
330
9F32
100
AcDbDictionary
280
     1
281
     1
  3
ACAD_XREC_ROUNDTRIP
360
9FA1
  3
BUMPTILE
360
9F35
  3
DIFFUSETILE
360
9F34
  3
OPACITYTILE
360
9F38
  3
REFLECTIONTILE
360
9F37
  3
REFRACTIONTILE
360
9F39
  3
SPECULARTILE
360
9F36
  0
DICTIONARY
  5
9F43
330
9F42
100
AcDbDictionary
280
     1
281
     1
  3
ACAD_XREC_ROUNDTRIP
360
9FA3
  3
BUMPTILE
360
9F45
  3
DIFFUSETILE
360
9F44
  3
OPACITYTILE
360
9F48
  3
REFLECTIONTILE
360
9F47
  3
REFRACTIONTILE
360
9F49
  3
SPECULARTILE
360
9F46
  0
DICTIONARY
  5
9FD6
330
9F7B
100
AcDbDictionary
280
     1
281
     1
  3
ACAD_XREC_ROUNDTRIP
360
9FD7
  0
DICTIONARY
  5
9F9D
330
9F65
100
AcDbDictionary
280
     1
281
     1
  3
ACAD_ROUNDTRIP_2008_TABLESTYLE_CELLSTYLEMAP
360
9F9E
  3
ACAD_XREC_ROUNDTRIP
360
9FD4
  0
DICTIONARY
  5
9FAE
330
9F50
100
AcDbDictionary
280
     1
281
     1
  3
ACAD_XREC_ROUNDTRIP
360
9FAF
  0
DICTIONARY
  5
9FAC
330
9F4F
100
AcDbDictionary
280
     1
281
     1
  3
ACAD_XREC_ROUNDTRIP
360
9FAD
  0
DICTIONARY
  5
9FBA
330
9F56
100
AcDbDictionary
280
     1
281
     1
  3
ACAD_XREC_ROUNDTRIP
360
9FBB
  0
DICTIONARY
  5
9FC2
330
9F5A
100
AcDbDictionary
280
     1
281
     1
  3
ACAD_XREC_ROUNDTRIP
360
9FC3
  0
DICTIONARY
  5
9FB4
330
9F53
100
AcDbDictionary
280
     1
281
     1
  3
ACAD_XREC_ROUNDTRIP
360
9FB5
  0
DICTIONARY
  5
9FB8
330
9F55
100
AcDbDictionary
280
     1
281
     1
  3
ACAD_XREC_ROUNDTRIP
360
9FB9
  0
DICTIONARY
  5
9FD2
330
9F62
100
AcDbDictionary
280
     1
281
     1
  3
ACAD_XREC_ROUNDTRIP
360
9FD3
  0
DICTIONARY
  5
9FC0
330
9F59
100
AcDbDictionary
280
     1
281
     1
  3
ACAD_XREC_ROUNDTRIP
360
9FC1
  0
DICTIONARY
  5
9FA4
330
9F4B
100
AcDbDictionary
280
     1
281
     1
  3
ACAD_XREC_ROUNDTRIP
360
9FA5
  0
DICTIONARY
  5
9FA6
330
9F4C
100
AcDbDictionary
280
     1
281
     1
  3
ACAD_XREC_ROUNDTRIP
360
9FA7
  0
DICTIONARY
  5
9FA8
330
9F4D
100
AcDbDictionary
280
     1
281
     1
  3
ACAD_XREC_ROUNDTRIP
360
9FA9
  0
DICTIONARY
  5
9FAA
330
9F4E
100
AcDbDictionary
280
     1
281
     1
  3
ACAD_XREC_ROUNDTRIP
360
9FAB
  0
DICTIONARY
  5
9FB2
330
9F52
100
AcDbDictionary
280
     1
281
     1
  3
ACAD_XREC_ROUNDTRIP
360
9FB3
  0
DICTIONARY
  5
9FCE
330
9F60
100
AcDbDictionary
280
     1
281
     1
  3
ACAD_XREC_ROUNDTRIP
360
9FCF
  0
DICTIONARY
  5
9FBE
330
9F58
100
AcDbDictionary
280
     1
281
     1
  3
ACAD_XREC_ROUNDTRIP
360
9FBF
  0
DICTIONARY
  5
9FD0
330
9F61
100
AcDbDictionary
280
     1
281
     1
  3
ACAD_XREC_ROUNDTRIP
360
9FD1
  0
DICTIONARY
  5
9FB6
330
9F54
100
AcDbDictionary
280
     1
281
     1
  3
ACAD_XREC_ROUNDTRIP
360
9FB7
  0
DICTIONARY
  5
9FCC
330
9F5F
100
AcDbDictionary
280
     1
281
     1
  3
ACAD_XREC_ROUNDTRIP
360
9FCD
  0
DICTIONARY
  5
9FCA
330
9F5E
100
AcDbDictionary
280
     1
281
     1
  3
ACAD_XREC_ROUNDTRIP
360
9FCB
  0
DICTIONARY
  5
9FC4
330
9F5B
100
AcDbDictionary
280
     1
281
     1
  3
ACAD_XREC_ROUNDTRIP
360
9FC5
  0
DICTIONARY
  5
9FC6
330
9F5C
100
AcDbDictionary
280
     1
281
     1
  3
ACAD_XREC_ROUNDTRIP
360
9FC7
  0
DICTIONARY
  5
9FBC
330
9F57
100
AcDbDictionary
280
     1
281
     1
  3
ACAD_XREC_ROUNDTRIP
360
9FBD
  0
DICTIONARY
  5
9FB0
330
9F51
100
AcDbDictionary
280
     1
281
     1
  3
ACAD_XREC_ROUNDTRIP
360
9FB1
  0
DICTIONARY
  5
9FC8
330
9F5D
100
AcDbDictionary
280
     1
281
     1
  3
ACAD_XREC_ROUNDTRIP
360
9FC9
  0
XRECORD
  5
9FD9
102
{ACAD_REACTORS
330
9FD8
102
}
330
9FD8
100
AcDbXrecord
280
     1
102
DISPLAYNAME
  1
Imperial24
102
FLAGS
 90
        0
  0
XRECORD
  5
9FDB
102
{ACAD_REACTORS
330
9FDA
102
}
330
9FDA
100
AcDbXrecord
280
     1
102
SHADEPLOT
 70
     0
102
SHADEPLOTRESLEVEL
 70
     2
102
SHADEPLOTCUSTOMDPI
 70
   300
  0
XRECORD
  5
9FDD
102
{ACAD_REACTORS
330
9FDC
102
}
330
9FDC
100
AcDbXrecord
280
     1
102
SHADEPLOT
 70
     0
102
SHADEPLOTRESLEVEL
 70
     2
102
SHADEPLOTCUSTOMDPI
 70
   300
  0
XRECORD
  5
9FA2
102
{ACAD_REACTORS
330
9F3B
102
}
330
9F3B
100
AcDbXrecord
280
     1
102
MATERIAL
148
0.0
149
0.0
149
0.0
 93
        0
 94
      127
282
     0
 72
     0
 77
     0
171
     0
175
     0
179
     0
273
     0
  0
XRECORD
  5
9F3D
102
{ACAD_REACTORS
330
9F3B
102
}
330
9F3B
100
AcDbXrecord
280
     1
270
     1
271
     1
  0
XRECORD
  5
9F3C
102
{ACAD_REACTORS
330
9F3B
102
}
330
9F3B
100
AcDbXrecord
280
     1
270
     1
271
     1
  0
XRECORD
  5
9F40
102
{ACAD_REACTORS
330
9F3B
102
}
330
9F3B
100
AcDbXrecord
280
     1
270
     1
271
     1
  0
XRECORD
  5
9F3F
102
{ACAD_REACTORS
330
9F3B
102
}
330
9F3B
100
AcDbXrecord
280
     1
270
     1
271
     1
  0
XRECORD
  5
9F41
102
{ACAD_REACTORS
330
9F3B
102
}
330
9F3B
100
AcDbXrecord
280
     1
270
     1
271
     1
  0
XRECORD
  5
9F3E
102
{ACAD_REACTORS
330
9F3B
102
}
330
9F3B
100
AcDbXrecord
280
     1
270
     1
271
     1
  0
XRECORD
  5
9FA1
102
{ACAD_REACTORS
330
9F33
102
}
330
9F33
100
AcDbXrecord
280
     1
102
MATERIAL
148
0.0
149
0.0
149
0.0
 93
        0
 94
      127
282
     0
 72
     0
 77
     0
171
     0
175
     0
179
     0
273
     0
  0
XRECORD
  5
9F35
102
{ACAD_REACTORS
330
9F33
102
}
330
9F33
100
AcDbXrecord
280
     1
270
     1
271
     1
  0
XRECORD
  5
9F34
102
{ACAD_REACTORS
330
9F33
102
}
330
9F33
100
AcDbXrecord
280
     1
270
     1
271
     1
  0
XRECORD
  5
9F38
102
{ACAD_REACTORS
330
9F33
102
}
330
9F33
100
AcDbXrecord
280
     1
270
     1
271
     1
  0
XRECORD
  5
9F37
102
{ACAD_REACTORS
330
9F33
102
}
330
9F33
100
AcDbXrecord
280
     1
270
     1
271
     1
  0
XRECORD
  5
9F39
102
{ACAD_REACTORS
330
9F33
102
}
330
9F33
100
AcDbXrecord
280
     1
270
     1
271
     1
  0
XRECORD
  5
9F36
102
{ACAD_REACTORS
330
9F33
102
}
330
9F33
100
AcDbXrecord
280
     1
270
     1
271
     1
  0
XRECORD
  5
9FA3
102
{ACAD_REACTORS
330
9F43
102
}
330
9F43
100
AcDbXrecord
280
     1
102
MATERIAL
148
0.0
149
0.0
149
0.0
 93
        0
 94
      127
282
     0
 72
     0
 77
     0
171
     0
175
     0
179
     0
273
     0
  0
XRECORD
  5
9F45
102
{ACAD_REACTORS
330
9F43
102
}
330
9F43
100
AcDbXrecord
280
     1
270
     1
271
     1
  0
XRECORD
  5
9F44
102
{ACAD_REACTORS
330
9F43
102
}
330
9F43
100
AcDbXrecord
280
     1
270
     1
271
     1
  0
XRECORD
  5
9F48
102
{ACAD_REACTORS
330
9F43
102
}
330
9F43
100
AcDbXrecord
280
     1
270
     1
271
     1
  0
XRECORD
  5
9F47
102
{ACAD_REACTORS
330
9F43
102
}
330
9F43
100
AcDbXrecord
280
     1
270
     1
271
     1
  0
XRECORD
  5
9F49
102
{ACAD_REACTORS
330
9F43
102
}
330
9F43
100
AcDbXrecord
280
     1
270
     1
271
     1
  0
XRECORD
  5
9F46
102
{ACAD_REACTORS
330
9F43
102
}
330
9F43
100
AcDbXrecord
280
     1
270
     1
271
     1
  0
XRECORD
  5
9FD7
102
{ACAD_REACTORS
330
9FD6
102
}
330
9FD6
100
AcDbXrecord
280
     1
102
DISPLAYNAME
  1
Imperial24
102
FLAGS
 90
        0
  0
CELLSTYLEMAP
  5
9F9E
102
{ACAD_REACTORS
330
9F9D
102
}
330
9F9D
100
AcDbCellStyleMap
 90
        3
300
CELLSTYLE
  1
TABLEFORMAT_BEGIN
 90
        5
170
     1
 91
        0
 92
    32768
 62
   257
 93
        1
300
CONTENTFORMAT
  1
CONTENTFORMAT_BEGIN
 90
        0
 91
        0
 92
      512
 93
        0
300

 40
0.0
140
1.0
 94
        5
 62
     0
340
9D43
144
0.25
309
CONTENTFORMAT_END
171
     0
 94
        0
309
TABLEFORMAT_END
  1
CELLSTYLE_BEGIN
 90
        1
 91
        1
300
_TITLE
309
CELLSTYLE_END
300
CELLSTYLE
  1
TABLEFORMAT_BEGIN
 90
        5
170
     1
 91
        0
 92
        0
 62
   257
 93
        1
300
CONTENTFORMAT
  1
CONTENTFORMAT_BEGIN
 90
        0
 91
        0
 92
      512
 93
        0
300

 40
0.0
140
1.0
 94
        5
 62
     0
340
9D43
144
0.18
309
CONTENTFORMAT_END
171
     0
 94
        0
309
TABLEFORMAT_END
  1
CELLSTYLE_BEGIN
 90
        2
 91
        1
300
_HEADER
309
CELLSTYLE_END
300
CELLSTYLE
  1
TABLEFORMAT_BEGIN
 90
        5
170
     1
 91
        0
 92
        0
 62
   257
 93
        1
300
CONTENTFORMAT
  1
CONTENTFORMAT_BEGIN
 90
        0
 91
        0
 92
      512
 93
        0
300

 40
0.0
140
1.0
 94
        2
 62
     0
340
9D43
144
0.18
309
CONTENTFORMAT_END
171
     0
 94
        0
309
TABLEFORMAT_END
  1
CELLSTYLE_BEGIN
 90
        3
 91
        2
300
_DATA
309
CELLSTYLE_END
  0
XRECORD
  5
9FD4
102
{ACAD_REACTORS
330
9F9D
102
}
330
9F9D
100
AcDbXrecord
280
     1
102
ACAD_ROUNDTRIP_PRE2007_TABLESTYLE
 90
      512
 91
        0
  1

 92
      512
 93
        0
  2

 94
      512
 95
        0
  3

  0
XRECORD
  5
9FAF
102
{ACAD_REACTORS
330
9FAE
102
}
330
9FAE
100
AcDbXrecord
280
     1
102
RTVSPost2010Prop28
280
     1
102
RTVSPost2010PropOp28
 70
     1
102
RTVSPost2010Prop29
280
     1
102
RTVSPost2010PropOp29
 70
     1
102
RTVSPost2010Prop30
280
     0
102
RTVSPost2010PropOp30
 70
     1
102
RTVSPost2010Prop31
280
     0
102
RTVSPost2010PropOp31
 70
     1
102
RTVSPost2010Prop32
280
     0
102
RTVSPost2010PropOp32
 70
     1
102
RTVSPost2010Prop33
280
     0
102
RTVSPost2010PropOp33
 70
     1
102
RTVSPost2010Prop34
280
     0
102
RTVSPost2010PropOp34
 70
     1
102
RTVSPost2010Prop35
280
     0
102
RTVSPost2010PropOp35
 70
     1
102
RTVSPost2010Prop36
280
     0
102
RTVSPost2010PropOp36
 70
     1
102
RTVSPost2010Prop37
 90
       50
102
RTVSPost2010PropOp37
 70
     1
102
RTVSPost2010Prop38
140
0.0
102
RTVSPost2010PropOp38
 70
     1
102
RTVSPost2010Prop39
140
1.0
102
RTVSPost2010PropOp39
 70
     1
102
RTVSPost2010Prop40
 90
        0
102
RTVSPost2010PropOp40
 70
     1
102
RTVSPost2010Prop41ColorIndex
 90
       18
102
RTVSPost2010Prop41ColorRGB
 90
        0
102
RTVSPost2010PropOp41
 70
     1
102
RTVSPost2010Prop42
 90
       50
102
RTVSPost2010PropOp42
 70
     1
102
RTVSPost2010Prop43
 90
        3
102
RTVSPost2010PropOp43
 70
     1
102
RTVSPost2010Prop44ColorIndex
 90
        5
102
RTVSPost2010Prop44ColorRGB
 90
      255
102
RTVSPost2010PropOp44
 70
     1
102
RTVSPost2010Prop45
280
     0
102
RTVSPost2010PropOp45
 70
     1
102
RTVSPost2010Prop46
 90
       50
102
RTVSPost2010PropOp46
 70
     1
102
RTVSPost2010Prop47
 90
       50
102
RTVSPost2010PropOp47
 70
     1
102
RTVSPost2010Prop48
 90
       50
102
RTVSPost2010PropOp48
 70
     1
102
RTVSPost2010Prop49
280
     0
102
RTVSPost2010PropOp49
 70
     1
102
RTVSPost2010Prop50
 90
       50
102
RTVSPost2010PropOp50
 70
     1
102
RTVSPost2010Prop51ColorIndex
 90
      256
102
RTVSPost2010Prop51ColorRGB
 90
-16777216
102
RTVSPost2010PropOp51
 70
     0
102
RTVSPost2010Prop52
140
1.0
102
RTVSPost2010PropOp52
 70
     0
102
RTVSPost2010Prop53
 90
        2
102
RTVSPost2010PropOp53
 70
     1
102
RTVSPost2010Prop54
  1
strokes_ogs.tif
102
RTVSPost2010PropOp54
 70
     1
102
RTVSPost2010Prop55
280
     0
102
RTVSPost2010PropOp55
 70
     1
102
RTVSPost2010Prop56
140
1.0
102
RTVSPost2010PropOp56
 70
     1
102
RTVSPost2010Prop57
140
1.0
102
RTVSPost2010PropOp57
 70
     1
102
RTVSPropertyOp0
 70
     1
102
RTVSPropertyOp1
 70
     1
102
RTVSPropertyOp2
 70
     1
102
RTVSPropertyOp3
 70
     1
102
RTVSPropertyOp4
 70
     1
102
RTVSPropertyOp5
 70
     1
102
RTVSPropertyOp6
 70
     1
102
RTVSPropertyOp7
 70
     1
102
RTVSPropertyOp8
 70
     1
102
RTVSPropertyOp9
 70
     1
102
RTVSPropertyOp10
 70
     1
102
RTVSPropertyOp11
 70
     1
102
RTVSPropertyOp12
 70
     1
102
RTVSPropertyOp13
 70
     1
102
RTVSPropertyOp14
 70
     1
102
RTVSPropertyOp15
 70
     1
102
RTVSPropertyOp16
 70
     1
102
RTVSPropertyOp17
 70
     1
102
RTVSPropertyOp18
 70
     1
102
RTVSPropertyOp19
 70
     1
102
RTVSPropertyOp20
 70
     1
102
RTVSPropertyOp21
 70
     1
102
RTVSPropertyOp22
 70
     1
102
RTVSPropertyOp23
 70
     1
102
RTVSPropertyOp24
 70
     1
102
RTVSPropertyOp25
 70
     1
102
RTVSPropertyOp26
 70
     1
102
RTVSPropertyOp27
 70
     1
102
RTVSPropertyOp28
 70
     1
102
RTVSPropertyOp29
 70
     1
102
RTVSPropertyOp30
 70
     1
102
RTVSPropertyOp31
 70
     1
102
RTVSPropertyOp32
 70
     1
102
RTVSPropertyOp33
 70
     1
102
RTVSPropertyOp34
 70
     1
102
RTVSPropertyOp35
 70
     1
102
RTVSPropertyOp36
 70
     1
102
RTVSPropertyOp37
 70
     1
102
RTVSPropertyOp38
 70
     1
102
RTVSPropertyOp39
 70
     1
102
RTVSPropertyOp40
 70
     1
102
RTVSPropertyOp41
 70
     1
102
RTVSPropertyOp42
 70
     1
102
RTVSPropertyOp43
 70
     1
102
RTVSPropertyOp44
 70
     1
102
RTVSPropertyOp45
 70
     1
102
RTVSPropertyOp46
 70
     1
102
RTVSPropertyOp47
 70
     1
102
RTVSPropertyOp48
 70
     1
102
RTVSPropertyOp49
 70
     1
102
RTVSPropertyOp50
 70
     1
102
RTVSPropertyOp51
 70
     0
102
RTVSPropertyOp52
 70
     0
102
RTVSPropertyOp53
 70
     1
102
RTVSPropertyOp54
 70
     1
102
RTVSPropertyOp55
 70
     1
102
RTVSPropertyOp56
 70
     1
102
RTVSPropertyOp57
 70
     1
102
RTVSPropertyOp58
 70
     1
102
RTVSPropertyOp59
 70
     1
102
RTVSPropertyOp60
 70
     1
102
RTVSPropertyOp61
 70
     1
102
RTVSPropertyOp62
 70
     1
  0
XRECORD
  5
9FAD
102
{ACAD_REACTORS
330
9FAC
102
}
330
9FAC
100
AcDbXrecord
280
     1
102
RTVSPost2010Prop28
280
     0
102
RTVSPost2010PropOp28
 70
     1
102
RTVSPost2010Prop29
280
     1
102
RTVSPost2010PropOp29
 70
     1
102
RTVSPost2010Prop30
280
     1
102
RTVSPost2010PropOp30
 70
     1
102
RTVSPost2010Prop31
280
     0
102
RTVSPost2010PropOp31
 70
     1
102
RTVSPost2010Prop32
280
     0
102
RTVSPost2010PropOp32
 70
     1
102
RTVSPost2010Prop33
280
     0
102
RTVSPost2010PropOp33
 70
     1
102
RTVSPost2010Prop34
280
     0
102
RTVSPost2010PropOp34
 70
     1
102
RTVSPost2010Prop35
280
     0
102
RTVSPost2010PropOp35
 70
     1
102
RTVSPost2010Prop36
280
     0
102
RTVSPost2010PropOp36
 70
     1
102
RTVSPost2010Prop37
 90
       50
102
RTVSPost2010PropOp37
 70
     1
102
RTVSPost2010Prop38
140
0.0
102
RTVSPost2010PropOp38
 70
     1
102
RTVSPost2010Prop39
140
1.0
102
RTVSPost2010PropOp39
 70
     1
102
RTVSPost2010Prop40
 90
        0
102
RTVSPost2010PropOp40
 70
     1
102
RTVSPost2010Prop41ColorIndex
 90
       18
102
RTVSPost2010Prop41ColorRGB
 90
        0
102
RTVSPost2010PropOp41
 70
     1
102
RTVSPost2010Prop42
 90
       50
102
RTVSPost2010PropOp42
 70
     1
102
RTVSPost2010Prop43
 90
        3
102
RTVSPost2010PropOp43
 70
     1
102
RTVSPost2010Prop44ColorIndex
 90
        5
102
RTVSPost2010Prop44ColorRGB
 90
      255
102
RTVSPost2010PropOp44
 70
     1
102
RTVSPost2010Prop45
280
     0
102
RTVSPost2010PropOp45
 70
     1
102
RTVSPost2010Prop46
 90
       50
102
RTVSPost2010PropOp46
 70
     1
102
RTVSPost2010Prop47
 90
       50
102
RTVSPost2010PropOp47
 70
     1
102
RTVSPost2010Prop48
 90
       50
102
RTVSPost2010PropOp48
 70
     1
102
RTVSPost2010Prop49
280
     0
102
RTVSPost2010PropOp49
 70
     1
102
RTVSPost2010Prop50
 90
       50
102
RTVSPost2010PropOp50
 70
     1
102
RTVSPost2010Prop51ColorIndex
 90
      256
102
RTVSPost2010Prop51ColorRGB
 90
-16777216
102
RTVSPost2010PropOp51
 70
     0
102
RTVSPost2010Prop52
140
1.0
102
RTVSPost2010PropOp52
 70
     0
102
RTVSPost2010Prop53
 90
        2
102
RTVSPost2010PropOp53
 70
     1
102
RTVSPost2010Prop54
  1
strokes_ogs.tif
102
RTVSPost2010PropOp54
 70
     1
102
RTVSPost2010Prop55
280
     0
102
RTVSPost2010PropOp55
 70
     1
102
RTVSPost2010Prop56
140
1.0
102
RTVSPost2010PropOp56
 70
     1
102
RTVSPost2010Prop57
140
1.0
102
RTVSPost2010PropOp57
 70
     1
102
RTVSPropertyOp0
 70
     1
102
RTVSPropertyOp1
 70
     1
102
RTVSPropertyOp2
 70
     1
102
RTVSPropertyOp3
 70
     1
102
RTVSPropertyOp4
 70
     1
102
RTVSPropertyOp5
 70
     1
102
RTVSPropertyOp6
 70
     1
102
RTVSPropertyOp7
 70
     1
102
RTVSPropertyOp8
 70
     1
102
RTVSPropertyOp9
 70
     1
102
RTVSPropertyOp10
 70
     1
102
RTVSPropertyOp11
 70
     1
102
RTVSPropertyOp12
 70
     1
102
RTVSPropertyOp13
 70
     1
102
RTVSPropertyOp14
 70
     1
102
RTVSPropertyOp15
 70
     1
102
RTVSPropertyOp16
 70
     1
102
RTVSPropertyOp17
 70
     1
102
RTVSPropertyOp18
 70
     1
102
RTVSPropertyOp19
 70
     1
102
RTVSPropertyOp20
 70
     1
102
RTVSPropertyOp21
 70
     1
102
RTVSPropertyOp22
 70
     1
102
RTVSPropertyOp23
 70
     1
102
RTVSPropertyOp24
 70
     1
102
RTVSPropertyOp25
 70
     1
102
RTVSPropertyOp26
 70
     1
102
RTVSPropertyOp27
 70
     1
102
RTVSPropertyOp28
 70
     1
102
RTVSPropertyOp29
 70
     1
102
RTVSPropertyOp30
 70
     1
102
RTVSPropertyOp31
 70
     1
102
RTVSPropertyOp32
 70
     1
102
RTVSPropertyOp33
 70
     1
102
RTVSPropertyOp34
 70
     1
102
RTVSPropertyOp35
 70
     1
102
RTVSPropertyOp36
 70
     1
102
RTVSPropertyOp37
 70
     1
102
RTVSPropertyOp38
 70
     1
102
RTVSPropertyOp39
 70
     1
102
RTVSPropertyOp40
 70
     1
102
RTVSPropertyOp41
 70
     1
102
RTVSPropertyOp42
 70
     1
102
RTVSPropertyOp43
 70
     1
102
RTVSPropertyOp44
 70
     1
102
RTVSPropertyOp45
 70
     1
102
RTVSPropertyOp46
 70
     1
102
RTVSPropertyOp47
 70
     1
102
RTVSPropertyOp48
 70
     1
102
RTVSPropertyOp49
 70
     1
102
RTVSPropertyOp50
 70
     1
102
RTVSPropertyOp51
 70
     0
102
RTVSPropertyOp52
 70
     0
102
RTVSPropertyOp53
 70
     1
102
RTVSPropertyOp54
 70
     1
102
RTVSPropertyOp55
 70
     1
102
RTVSPropertyOp56
 70
     1
102
RTVSPropertyOp57
 70
     1
102
RTVSPropertyOp58
 70
     1
102
RTVSPropertyOp59
 70
     1
102
RTVSPropertyOp60
 70
     1
102
RTVSPropertyOp61
 70
     1
102
RTVSPropertyOp62
 70
     1
  0
XRECORD
  5
9FBB
102
{ACAD_REACTORS
330
9FBA
102
}
330
9FBA
100
AcDbXrecord
280
     1
102
RTVSPost2010Prop28
280
     0
102
RTVSPost2010PropOp28
 70
     1
102
RTVSPost2010Prop29
280
     1
102
RTVSPost2010PropOp29
 70
     1
102
RTVSPost2010Prop30
280
     1
102
RTVSPost2010PropOp30
 70
     1
102
RTVSPost2010Prop31
280
     0
102
RTVSPost2010PropOp31
 70
     1
102
RTVSPost2010Prop32
280
     0
102
RTVSPost2010PropOp32
 70
     1
102
RTVSPost2010Prop33
280
     0
102
RTVSPost2010PropOp33
 70
     1
102
RTVSPost2010Prop34
280
     0
102
RTVSPost2010PropOp34
 70
     1
102
RTVSPost2010Prop35
280
     0
102
RTVSPost2010PropOp35
 70
     1
102
RTVSPost2010Prop36
280
     0
102
RTVSPost2010PropOp36
 70
     1
102
RTVSPost2010Prop37
 90
       50
102
RTVSPost2010PropOp37
 70
     1
102
RTVSPost2010Prop38
140
0.0
102
RTVSPost2010PropOp38
 70
     1
102
RTVSPost2010Prop39
140
1.0
102
RTVSPost2010PropOp39
 70
     1
102
RTVSPost2010Prop40
 90
        0
102
RTVSPost2010PropOp40
 70
     1
102
RTVSPost2010Prop41ColorIndex
 90
       18
102
RTVSPost2010Prop41ColorRGB
 90
        0
102
RTVSPost2010PropOp41
 70
     1
102
RTVSPost2010Prop42
 90
       50
102
RTVSPost2010PropOp42
 70
     1
102
RTVSPost2010Prop43
 90
        3
102
RTVSPost2010PropOp43
 70
     1
102
RTVSPost2010Prop44ColorIndex
 90
        5
102
RTVSPost2010Prop44ColorRGB
 90
      255
102
RTVSPost2010PropOp44
 70
     1
102
RTVSPost2010Prop45
280
     0
102
RTVSPost2010PropOp45
 70
     1
102
RTVSPost2010Prop46
 90
       50
102
RTVSPost2010PropOp46
 70
     1
102
RTVSPost2010Prop47
 90
       50
102
RTVSPost2010PropOp47
 70
     1
102
RTVSPost2010Prop48
 90
       50
102
RTVSPost2010PropOp48
 70
     1
102
RTVSPost2010Prop49
280
     0
102
RTVSPost2010PropOp49
 70
     1
102
RTVSPost2010Prop50
 90
       50
102
RTVSPost2010PropOp50
 70
     1
102
RTVSPost2010Prop51ColorIndex
 90
      256
102
RTVSPost2010Prop51ColorRGB
 90
-16777216
102
RTVSPost2010PropOp51
 70
     0
102
RTVSPost2010Prop52
140
1.0
102
RTVSPost2010PropOp52
 70
     0
102
RTVSPost2010Prop53
 90
        2
102
RTVSPost2010PropOp53
 70
     1
102
RTVSPost2010Prop54
  1
strokes_ogs.tif
102
RTVSPost2010PropOp54
 70
     1
102
RTVSPost2010Prop55
280
     0
102
RTVSPost2010PropOp55
 70
     1
102
RTVSPost2010Prop56
140
1.0
102
RTVSPost2010PropOp56
 70
     1
102
RTVSPost2010Prop57
140
1.0
102
RTVSPost2010PropOp57
 70
     1
102
RTVSPropertyOp0
 70
     1
102
RTVSPropertyOp1
 70
     1
102
RTVSPropertyOp2
 70
     1
102
RTVSPropertyOp3
 70
     1
102
RTVSPropertyOp4
 70
     1
102
RTVSPropertyOp5
 70
     1
102
RTVSPropertyOp6
 70
     1
102
RTVSPropertyOp7
 70
     1
102
RTVSPropertyOp8
 70
     1
102
RTVSPropertyOp9
 70
     1
102
RTVSPropertyOp10
 70
     1
102
RTVSPropertyOp11
 70
     1
102
RTVSPropertyOp12
 70
     1
102
RTVSPropertyOp13
 70
     1
102
RTVSPropertyOp14
 70
     1
102
RTVSPropertyOp15
 70
     1
102
RTVSPropertyOp16
 70
     1
102
RTVSPropertyOp17
 70
     1
102
RTVSPropertyOp18
 70
     1
102
RTVSPropertyOp19
 70
     1
102
RTVSPropertyOp20
 70
     1
102
RTVSPropertyOp21
 70
     1
102
RTVSPropertyOp22
 70
     1
102
RTVSPropertyOp23
 70
     1
102
RTVSPropertyOp24
 70
     1
102
RTVSPropertyOp25
 70
     1
102
RTVSPropertyOp26
 70
     1
102
RTVSPropertyOp27
 70
     1
102
RTVSPropertyOp28
 70
     1
102
RTVSPropertyOp29
 70
     1
102
RTVSPropertyOp30
 70
     1
102
RTVSPropertyOp31
 70
     1
102
RTVSPropertyOp32
 70
     1
102
RTVSPropertyOp33
 70
     1
102
RTVSPropertyOp34
 70
     1
102
RTVSPropertyOp35
 70
     1
102
RTVSPropertyOp36
 70
     1
102
RTVSPropertyOp37
 70
     1
102
RTVSPropertyOp38
 70
     1
102
RTVSPropertyOp39
 70
     1
102
RTVSPropertyOp40
 70
     1
102
RTVSPropertyOp41
 70
     1
102
RTVSPropertyOp42
 70
     1
102
RTVSPropertyOp43
 70
     1
102
RTVSPropertyOp44
 70
     1
102
RTVSPropertyOp45
 70
     1
102
RTVSPropertyOp46
 70
     1
102
RTVSPropertyOp47
 70
     1
102
RTVSPropertyOp48
 70
     1
102
RTVSPropertyOp49
 70
     1
102
RTVSPropertyOp50
 70
     1
102
RTVSPropertyOp51
 70
     0
102
RTVSPropertyOp52
 70
     0
102
RTVSPropertyOp53
 70
     1
102
RTVSPropertyOp54
 70
     1
102
RTVSPropertyOp55
 70
     1
102
RTVSPropertyOp56
 70
     1
102
RTVSPropertyOp57
 70
     1
102
RTVSPropertyOp58
 70
     1
102
RTVSPropertyOp59
 70
     1
102
RTVSPropertyOp60
 70
     1
102
RTVSPropertyOp61
 70
     1
102
RTVSPropertyOp62
 70
     1
  0
XRECORD
  5
9FC3
102
{ACAD_REACTORS
330
9FC2
102
}
330
9FC2
100
AcDbXrecord
280
     1
102
RTVSPost2010Prop28
280
     0
102
RTVSPost2010PropOp28
 70
     1
102
RTVSPost2010Prop29
280
     1
102
RTVSPost2010PropOp29
 70
     1
102
RTVSPost2010Prop30
280
     1
102
RTVSPost2010PropOp30
 70
     1
102
RTVSPost2010Prop31
280
     0
102
RTVSPost2010PropOp31
 70
     1
102
RTVSPost2010Prop32
280
     0
102
RTVSPost2010PropOp32
 70
     1
102
RTVSPost2010Prop33
280
     0
102
RTVSPost2010PropOp33
 70
     1
102
RTVSPost2010Prop34
280
     0
102
RTVSPost2010PropOp34
 70
     1
102
RTVSPost2010Prop35
280
     0
102
RTVSPost2010PropOp35
 70
     1
102
RTVSPost2010Prop36
280
     0
102
RTVSPost2010PropOp36
 70
     1
102
RTVSPost2010Prop37
 90
       50
102
RTVSPost2010PropOp37
 70
     1
102
RTVSPost2010Prop38
140
0.0
102
RTVSPost2010PropOp38
 70
     1
102
RTVSPost2010Prop39
140
1.0
102
RTVSPost2010PropOp39
 70
     1
102
RTVSPost2010Prop40
 90
        0
102
RTVSPost2010PropOp40
 70
     1
102
RTVSPost2010Prop41ColorIndex
 90
       18
102
RTVSPost2010Prop41ColorRGB
 90
        0
102
RTVSPost2010PropOp41
 70
     1
102
RTVSPost2010Prop42
 90
       50
102
RTVSPost2010PropOp42
 70
     1
102
RTVSPost2010Prop43
 90
        3
102
RTVSPost2010PropOp43
 70
     1
102
RTVSPost2010Prop44ColorIndex
 90
        5
102
RTVSPost2010Prop44ColorRGB
 90
      255
102
RTVSPost2010PropOp44
 70
     1
102
RTVSPost2010Prop45
280
     0
102
RTVSPost2010PropOp45
 70
     1
102
RTVSPost2010Prop46
 90
       50
102
RTVSPost2010PropOp46
 70
     1
102
RTVSPost2010Prop47
 90
       50
102
RTVSPost2010PropOp47
 70
     1
102
RTVSPost2010Prop48
 90
       50
102
RTVSPost2010PropOp48
 70
     1
102
RTVSPost2010Prop49
280
     0
102
RTVSPost2010PropOp49
 70
     1
102
RTVSPost2010Prop50
 90
       50
102
RTVSPost2010PropOp50
 70
     1
102
RTVSPost2010Prop51ColorIndex
 90
      256
102
RTVSPost2010Prop51ColorRGB
 90
-16777216
102
RTVSPost2010PropOp51
 70
     0
102
RTVSPost2010Prop52
140
1.0
102
RTVSPost2010PropOp52
 70
     0
102
RTVSPost2010Prop53
 90
        2
102
RTVSPost2010PropOp53
 70
     1
102
RTVSPost2010Prop54
  1
strokes_ogs.tif
102
RTVSPost2010PropOp54
 70
     1
102
RTVSPost2010Prop55
280
     0
102
RTVSPost2010PropOp55
 70
     1
102
RTVSPost2010Prop56
140
1.0
102
RTVSPost2010PropOp56
 70
     1
102
RTVSPost2010Prop57
140
1.0
102
RTVSPost2010PropOp57
 70
     1
102
RTVSPropertyOp0
 70
     1
102
RTVSPropertyOp1
 70
     1
102
RTVSPropertyOp2
 70
     1
102
RTVSPropertyOp3
 70
     1
102
RTVSPropertyOp4
 70
     1
102
RTVSPropertyOp5
 70
     1
102
RTVSPropertyOp6
 70
     1
102
RTVSPropertyOp7
 70
     1
102
RTVSPropertyOp8
 70
     1
102
RTVSPropertyOp9
 70
     1
102
RTVSPropertyOp10
 70
     1
102
RTVSPropertyOp11
 70
     1
102
RTVSPropertyOp12
 70
     1
102
RTVSPropertyOp13
 70
     1
102
RTVSPropertyOp14
 70
     1
102
RTVSPropertyOp15
 70
     1
102
RTVSPropertyOp16
 70
     1
102
RTVSPropertyOp17
 70
     1
102
RTVSPropertyOp18
 70
     1
102
RTVSPropertyOp19
 70
     1
102
RTVSPropertyOp20
 70
     1
102
RTVSPropertyOp21
 70
     1
102
RTVSPropertyOp22
 70
     1
102
RTVSPropertyOp23
 70
     1
102
RTVSPropertyOp24
 70
     1
102
RTVSPropertyOp25
 70
     1
102
RTVSPropertyOp26
 70
     1
102
RTVSPropertyOp27
 70
     1
102
RTVSPropertyOp28
 70
     1
102
RTVSPropertyOp29
 70
     1
102
RTVSPropertyOp30
 70
     1
102
RTVSPropertyOp31
 70
     1
102
RTVSPropertyOp32
 70
     1
102
RTVSPropertyOp33
 70
     1
102
RTVSPropertyOp34
 70
     1
102
RTVSPropertyOp35
 70
     1
102
RTVSPropertyOp36
 70
     1
102
RTVSPropertyOp37
 70
     1
102
RTVSPropertyOp38
 70
     1
102
RTVSPropertyOp39
 70
     1
102
RTVSPropertyOp40
 70
     1
102
RTVSPropertyOp41
 70
     1
102
RTVSPropertyOp42
 70
     1
102
RTVSPropertyOp43
 70
     1
102
RTVSPropertyOp44
 70
     1
102
RTVSPropertyOp45
 70
     1
102
RTVSPropertyOp46
 70
     1
102
RTVSPropertyOp47
 70
     1
102
RTVSPropertyOp48
 70
     1
102
RTVSPropertyOp49
 70
     1
102
RTVSPropertyOp50
 70
     1
102
RTVSPropertyOp51
 70
     0
102
RTVSPropertyOp52
 70
     0
102
RTVSPropertyOp53
 70
     1
102
RTVSPropertyOp54
 70
     1
102
RTVSPropertyOp55
 70
     1
102
RTVSPropertyOp56
 70
     1
102
RTVSPropertyOp57
 70
     1
102
RTVSPropertyOp58
 70
     1
102
RTVSPropertyOp59
 70
     1
102
RTVSPropertyOp60
 70
     1
102
RTVSPropertyOp61
 70
     1
102
RTVSPropertyOp62
 70
     1
  0
XRECORD
  5
9FB5
102
{ACAD_REACTORS
330
9FB4
102
}
330
9FB4
100
AcDbXrecord
280
     1
102
RTVSPost2010Prop28
280
     0
102
RTVSPost2010PropOp28
 70
     1
102
RTVSPost2010Prop29
280
     1
102
RTVSPost2010PropOp29
 70
     1
102
RTVSPost2010Prop30
280
     1
102
RTVSPost2010PropOp30
 70
     1
102
RTVSPost2010Prop31
280
     0
102
RTVSPost2010PropOp31
 70
     1
102
RTVSPost2010Prop32
280
     0
102
RTVSPost2010PropOp32
 70
     1
102
RTVSPost2010Prop33
280
     0
102
RTVSPost2010PropOp33
 70
     1
102
RTVSPost2010Prop34
280
     0
102
RTVSPost2010PropOp34
 70
     1
102
RTVSPost2010Prop35
280
     0
102
RTVSPost2010PropOp35
 70
     1
102
RTVSPost2010Prop36
280
     0
102
RTVSPost2010PropOp36
 70
     1
102
RTVSPost2010Prop37
 90
       50
102
RTVSPost2010PropOp37
 70
     1
102
RTVSPost2010Prop38
140
0.0
102
RTVSPost2010PropOp38
 70
     1
102
RTVSPost2010Prop39
140
1.0
102
RTVSPost2010PropOp39
 70
     1
102
RTVSPost2010Prop40
 90
        0
102
RTVSPost2010PropOp40
 70
     1
102
RTVSPost2010Prop41ColorIndex
 90
       18
102
RTVSPost2010Prop41ColorRGB
 90
        0
102
RTVSPost2010PropOp41
 70
     1
102
RTVSPost2010Prop42
 90
       50
102
RTVSPost2010PropOp42
 70
     1
102
RTVSPost2010Prop43
 90
        3
102
RTVSPost2010PropOp43
 70
     1
102
RTVSPost2010Prop44ColorIndex
 90
        5
102
RTVSPost2010Prop44ColorRGB
 90
      255
102
RTVSPost2010PropOp44
 70
     1
102
RTVSPost2010Prop45
280
     0
102
RTVSPost2010PropOp45
 70
     1
102
RTVSPost2010Prop46
 90
       50
102
RTVSPost2010PropOp46
 70
     1
102
RTVSPost2010Prop47
 90
       50
102
RTVSPost2010PropOp47
 70
     1
102
RTVSPost2010Prop48
 90
       50
102
RTVSPost2010PropOp48
 70
     1
102
RTVSPost2010Prop49
280
     0
102
RTVSPost2010PropOp49
 70
     1
102
RTVSPost2010Prop50
 90
       50
102
RTVSPost2010PropOp50
 70
     1
102
RTVSPost2010Prop51ColorIndex
 90
      256
102
RTVSPost2010Prop51ColorRGB
 90
-16777216
102
RTVSPost2010PropOp51
 70
     0
102
RTVSPost2010Prop52
140
1.0
102
RTVSPost2010PropOp52
 70
     0
102
RTVSPost2010Prop53
 90
        2
102
RTVSPost2010PropOp53
 70
     1
102
RTVSPost2010Prop54
  1
strokes_ogs.tif
102
RTVSPost2010PropOp54
 70
     1
102
RTVSPost2010Prop55
280
     0
102
RTVSPost2010PropOp55
 70
     1
102
RTVSPost2010Prop56
140
1.0
102
RTVSPost2010PropOp56
 70
     1
102
RTVSPost2010Prop57
140
1.0
102
RTVSPost2010PropOp57
 70
     1
102
RTVSPropertyOp0
 70
     1
102
RTVSPropertyOp1
 70
     1
102
RTVSPropertyOp2
 70
     1
102
RTVSPropertyOp3
 70
     1
102
RTVSPropertyOp4
 70
     1
102
RTVSPropertyOp5
 70
     1
102
RTVSPropertyOp6
 70
     1
102
RTVSPropertyOp7
 70
     1
102
RTVSPropertyOp8
 70
     1
102
RTVSPropertyOp9
 70
     1
102
RTVSPropertyOp10
 70
     1
102
RTVSPropertyOp11
 70
     1
102
RTVSPropertyOp12
 70
     1
102
RTVSPropertyOp13
 70
     1
102
RTVSPropertyOp14
 70
     1
102
RTVSPropertyOp15
 70
     1
102
RTVSPropertyOp16
 70
     1
102
RTVSPropertyOp17
 70
     1
102
RTVSPropertyOp18
 70
     1
102
RTVSPropertyOp19
 70
     1
102
RTVSPropertyOp20
 70
     1
102
RTVSPropertyOp21
 70
     1
102
RTVSPropertyOp22
 70
     1
102
RTVSPropertyOp23
 70
     1
102
RTVSPropertyOp24
 70
     1
102
RTVSPropertyOp25
 70
     1
102
RTVSPropertyOp26
 70
     1
102
RTVSPropertyOp27
 70
     1
102
RTVSPropertyOp28
 70
     1
102
RTVSPropertyOp29
 70
     1
102
RTVSPropertyOp30
 70
     1
102
RTVSPropertyOp31
 70
     1
102
RTVSPropertyOp32
 70
     1
102
RTVSPropertyOp33
 70
     1
102
RTVSPropertyOp34
 70
     1
102
RTVSPropertyOp35
 70
     1
102
RTVSPropertyOp36
 70
     1
102
RTVSPropertyOp37
 70
     1
102
RTVSPropertyOp38
 70
     1
102
RTVSPropertyOp39
 70
     1
102
RTVSPropertyOp40
 70
     1
102
RTVSPropertyOp41
 70
     1
102
RTVSPropertyOp42
 70
     1
102
RTVSPropertyOp43
 70
     1
102
RTVSPropertyOp44
 70
     1
102
RTVSPropertyOp45
 70
     1
102
RTVSPropertyOp46
 70
     1
102
RTVSPropertyOp47
 70
     1
102
RTVSPropertyOp48
 70
     1
102
RTVSPropertyOp49
 70
     1
102
RTVSPropertyOp50
 70
     1
102
RTVSPropertyOp51
 70
     0
102
RTVSPropertyOp52
 70
     0
102
RTVSPropertyOp53
 70
     1
102
RTVSPropertyOp54
 70
     1
102
RTVSPropertyOp55
 70
     1
102
RTVSPropertyOp56
 70
     1
102
RTVSPropertyOp57
 70
     1
102
RTVSPropertyOp58
 70
     1
102
RTVSPropertyOp59
 70
     1
102
RTVSPropertyOp60
 70
     1
102
RTVSPropertyOp61
 70
     1
102
RTVSPropertyOp62
 70
     1
  0
XRECORD
  5
9FB9
102
{ACAD_REACTORS
330
9FB8
102
}
330
9FB8
100
AcDbXrecord
280
     1
102
RTVSPost2010Prop28
280
     0
102
RTVSPost2010PropOp28
 70
     1
102
RTVSPost2010Prop29
280
     1
102
RTVSPost2010PropOp29
 70
     1
102
RTVSPost2010Prop30
280
     1
102
RTVSPost2010PropOp30
 70
     1
102
RTVSPost2010Prop31
280
     0
102
RTVSPost2010PropOp31
 70
     1
102
RTVSPost2010Prop32
280
     0
102
RTVSPost2010PropOp32
 70
     1
102
RTVSPost2010Prop33
280
     0
102
RTVSPost2010PropOp33
 70
     1
102
RTVSPost2010Prop34
280
     0
102
RTVSPost2010PropOp34
 70
     1
102
RTVSPost2010Prop35
280
     0
102
RTVSPost2010PropOp35
 70
     1
102
RTVSPost2010Prop36
280
     0
102
RTVSPost2010PropOp36
 70
     1
102
RTVSPost2010Prop37
 90
       50
102
RTVSPost2010PropOp37
 70
     1
102
RTVSPost2010Prop38
140
0.0
102
RTVSPost2010PropOp38
 70
     1
102
RTVSPost2010Prop39
140
1.0
102
RTVSPost2010PropOp39
 70
     1
102
RTVSPost2010Prop40
 90
        0
102
RTVSPost2010PropOp40
 70
     1
102
RTVSPost2010Prop41ColorIndex
 90
       18
102
RTVSPost2010Prop41ColorRGB
 90
        0
102
RTVSPost2010PropOp41
 70
     1
102
RTVSPost2010Prop42
 90
       50
102
RTVSPost2010PropOp42
 70
     1
102
RTVSPost2010Prop43
 90
        3
102
RTVSPost2010PropOp43
 70
     1
102
RTVSPost2010Prop44ColorIndex
 90
        5
102
RTVSPost2010Prop44ColorRGB
 90
      255
102
RTVSPost2010PropOp44
 70
     1
102
RTVSPost2010Prop45
280
     0
102
RTVSPost2010PropOp45
 70
     1
102
RTVSPost2010Prop46
 90
       50
102
RTVSPost2010PropOp46
 70
     1
102
RTVSPost2010Prop47
 90
       50
102
RTVSPost2010PropOp47
 70
     1
102
RTVSPost2010Prop48
 90
       50
102
RTVSPost2010PropOp48
 70
     1
102
RTVSPost2010Prop49
280
     0
102
RTVSPost2010PropOp49
 70
     1
102
RTVSPost2010Prop50
 90
       50
102
RTVSPost2010PropOp50
 70
     1
102
RTVSPost2010Prop51ColorIndex
 90
      256
102
RTVSPost2010Prop51ColorRGB
 90
-16777216
102
RTVSPost2010PropOp51
 70
     0
102
RTVSPost2010Prop52
140
1.0
102
RTVSPost2010PropOp52
 70
     0
102
RTVSPost2010Prop53
 90
        2
102
RTVSPost2010PropOp53
 70
     1
102
RTVSPost2010Prop54
  1
strokes_ogs.tif
102
RTVSPost2010PropOp54
 70
     1
102
RTVSPost2010Prop55
280
     0
102
RTVSPost2010PropOp55
 70
     1
102
RTVSPost2010Prop56
140
1.0
102
RTVSPost2010PropOp56
 70
     1
102
RTVSPost2010Prop57
140
1.0
102
RTVSPost2010PropOp57
 70
     1
102
RTVSPropertyOp0
 70
     1
102
RTVSPropertyOp1
 70
     1
102
RTVSPropertyOp2
 70
     1
102
RTVSPropertyOp3
 70
     1
102
RTVSPropertyOp4
 70
     1
102
RTVSPropertyOp5
 70
     1
102
RTVSPropertyOp6
 70
     1
102
RTVSPropertyOp7
 70
     1
102
RTVSPropertyOp8
 70
     1
102
RTVSPropertyOp9
 70
     1
102
RTVSPropertyOp10
 70
     1
102
RTVSPropertyOp11
 70
     1
102
RTVSPropertyOp12
 70
     1
102
RTVSPropertyOp13
 70
     1
102
RTVSPropertyOp14
 70
     1
102
RTVSPropertyOp15
 70
     1
102
RTVSPropertyOp16
 70
     1
102
RTVSPropertyOp17
 70
     1
102
RTVSPropertyOp18
 70
     1
102
RTVSPropertyOp19
 70
     1
102
RTVSPropertyOp20
 70
     1
102
RTVSPropertyOp21
 70
     1
102
RTVSPropertyOp22
 70
     1
102
RTVSPropertyOp23
 70
     1
102
RTVSPropertyOp24
 70
     1
102
RTVSPropertyOp25
 70
     1
102
RTVSPropertyOp26
 70
     1
102
RTVSPropertyOp27
 70
     1
102
RTVSPropertyOp28
 70
     1
102
RTVSPropertyOp29
 70
     1
102
RTVSPropertyOp30
 70
     1
102
RTVSPropertyOp31
 70
     1
102
RTVSPropertyOp32
 70
     1
102
RTVSPropertyOp33
 70
     1
102
RTVSPropertyOp34
 70
     1
102
RTVSPropertyOp35
 70
     1
102
RTVSPropertyOp36
 70
     1
102
RTVSPropertyOp37
 70
     1
102
RTVSPropertyOp38
 70
     1
102
RTVSPropertyOp39
 70
     1
102
RTVSPropertyOp40
 70
     1
102
RTVSPropertyOp41
 70
     1
102
RTVSPropertyOp42
 70
     1
102
RTVSPropertyOp43
 70
     1
102
RTVSPropertyOp44
 70
     1
102
RTVSPropertyOp45
 70
     1
102
RTVSPropertyOp46
 70
     1
102
RTVSPropertyOp47
 70
     1
102
RTVSPropertyOp48
 70
     1
102
RTVSPropertyOp49
 70
     1
102
RTVSPropertyOp50
 70
     1
102
RTVSPropertyOp51
 70
     0
102
RTVSPropertyOp52
 70
     0
102
RTVSPropertyOp53
 70
     1
102
RTVSPropertyOp54
 70
     1
102
RTVSPropertyOp55
 70
     1
102
RTVSPropertyOp56
 70
     1
102
RTVSPropertyOp57
 70
     1
102
RTVSPropertyOp58
 70
     1
102
RTVSPropertyOp59
 70
     1
102
RTVSPropertyOp60
 70
     1
102
RTVSPropertyOp61
 70
     1
102
RTVSPropertyOp62
 70
     1
  0
XRECORD
  5
9FD3
102
{ACAD_REACTORS
330
9FD2
102
}
330
9FD2
100
AcDbXrecord
280
     1
102
RTVSPost2010Prop28
280
     0
102
RTVSPost2010PropOp28
 70
     1
102
RTVSPost2010Prop29
280
     1
102
RTVSPost2010PropOp29
 70
     1
102
RTVSPost2010Prop30
280
     1
102
RTVSPost2010PropOp30
 70
     1
102
RTVSPost2010Prop31
280
     0
102
RTVSPost2010PropOp31
 70
     1
102
RTVSPost2010Prop32
280
     0
102
RTVSPost2010PropOp32
 70
     1
102
RTVSPost2010Prop33
280
     0
102
RTVSPost2010PropOp33
 70
     1
102
RTVSPost2010Prop34
280
     0
102
RTVSPost2010PropOp34
 70
     1
102
RTVSPost2010Prop35
280
     0
102
RTVSPost2010PropOp35
 70
     1
102
RTVSPost2010Prop36
280
     0
102
RTVSPost2010PropOp36
 70
     1
102
RTVSPost2010Prop37
 90
       50
102
RTVSPost2010PropOp37
 70
     0
102
RTVSPost2010Prop38
140
0.0
102
RTVSPost2010PropOp38
 70
     0
102
RTVSPost2010Prop39
140
1.0
102
RTVSPost2010PropOp39
 70
     0
102
RTVSPost2010Prop40
 90
        0
102
RTVSPost2010PropOp40
 70
     0
102
RTVSPost2010Prop41ColorIndex
 90
       18
102
RTVSPost2010Prop41ColorRGB
 90
        0
102
RTVSPost2010PropOp41
 70
     0
102
RTVSPost2010Prop42
 90
       50
102
RTVSPost2010PropOp42
 70
     0
102
RTVSPost2010Prop43
 90
        3
102
RTVSPost2010PropOp43
 70
     0
102
RTVSPost2010Prop44ColorIndex
 90
        5
102
RTVSPost2010Prop44ColorRGB
 90
      255
102
RTVSPost2010PropOp44
 70
     0
102
RTVSPost2010Prop45
280
     0
102
RTVSPost2010PropOp45
 70
     1
102
RTVSPost2010Prop46
 90
       50
102
RTVSPost2010PropOp46
 70
     0
102
RTVSPost2010Prop47
 90
       50
102
RTVSPost2010PropOp47
 70
     0
102
RTVSPost2010Prop48
 90
       50
102
RTVSPost2010PropOp48
 70
     0
102
RTVSPost2010Prop49
280
     0
102
RTVSPost2010PropOp49
 70
     1
102
RTVSPost2010Prop50
 90
       50
102
RTVSPost2010PropOp50
 70
     0
102
RTVSPost2010Prop51ColorIndex
 90
      256
102
RTVSPost2010Prop51ColorRGB
 90
-16777216
102
RTVSPost2010PropOp51
 70
     0
102
RTVSPost2010Prop52
140
1.0
102
RTVSPost2010PropOp52
 70
     0
102
RTVSPost2010Prop53
 90
        2
102
RTVSPost2010PropOp53
 70
     0
102
RTVSPost2010Prop54
  1
strokes_ogs.tif
102
RTVSPost2010PropOp54
 70
     0
102
RTVSPost2010Prop55
280
     0
102
RTVSPost2010PropOp55
 70
     1
102
RTVSPost2010Prop56
140
1.0
102
RTVSPost2010PropOp56
 70
     0
102
RTVSPost2010Prop57
140
1.0
102
RTVSPost2010PropOp57
 70
     0
102
RTVSPropertyOp0
 70
     0
102
RTVSPropertyOp1
 70
     0
102
RTVSPropertyOp2
 70
     0
102
RTVSPropertyOp3
 70
     0
102
RTVSPropertyOp4
 70
     0
102
RTVSPropertyOp5
 70
     0
102
RTVSPropertyOp6
 70
     0
102
RTVSPropertyOp7
 70
     0
102
RTVSPropertyOp8
 70
     0
102
RTVSPropertyOp9
 70
     0
102
RTVSPropertyOp10
 70
     0
102
RTVSPropertyOp11
 70
     0
102
RTVSPropertyOp12
 70
     0
102
RTVSPropertyOp13
 70
     0
102
RTVSPropertyOp14
 70
     2
102
RTVSPropertyOp15
 70
     0
102
RTVSPropertyOp16
 70
     0
102
RTVSPropertyOp17
 70
     0
102
RTVSPropertyOp18
 70
     0
102
RTVSPropertyOp19
 70
     0
102
RTVSPropertyOp20
 70
     0
102
RTVSPropertyOp21
 70
     0
102
RTVSPropertyOp22
 70
     0
102
RTVSPropertyOp23
 70
     0
102
RTVSPropertyOp24
 70
     0
102
RTVSPropertyOp25
 70
     0
102
RTVSPropertyOp26
 70
     0
102
RTVSPropertyOp27
 70
     0
102
RTVSPropertyOp28
 70
     1
102
RTVSPropertyOp29
 70
     1
102
RTVSPropertyOp30
 70
     1
102
RTVSPropertyOp31
 70
     1
102
RTVSPropertyOp32
 70
     1
102
RTVSPropertyOp33
 70
     1
102
RTVSPropertyOp34
 70
     1
102
RTVSPropertyOp35
 70
     1
102
RTVSPropertyOp36
 70
     1
102
RTVSPropertyOp37
 70
     0
102
RTVSPropertyOp38
 70
     0
102
RTVSPropertyOp39
 70
     0
102
RTVSPropertyOp40
 70
     0
102
RTVSPropertyOp41
 70
     0
102
RTVSPropertyOp42
 70
     0
102
RTVSPropertyOp43
 70
     0
102
RTVSPropertyOp44
 70
     0
102
RTVSPropertyOp45
 70
     1
102
RTVSPropertyOp46
 70
     0
102
RTVSPropertyOp47
 70
     0
102
RTVSPropertyOp48
 70
     0
102
RTVSPropertyOp49
 70
     1
102
RTVSPropertyOp50
 70
     0
102
RTVSPropertyOp51
 70
     0
102
RTVSPropertyOp52
 70
     0
102
RTVSPropertyOp53
 70
     0
102
RTVSPropertyOp54
 70
     0
102
RTVSPropertyOp55
 70
     1
102
RTVSPropertyOp56
 70
     0
102
RTVSPropertyOp57
 70
     0
102
RTVSPropertyOp58
 70
     0
102
RTVSPropertyOp59
 70
     0
102
RTVSPropertyOp60
 70
     0
102
RTVSPropertyOp61
 70
     0
102
RTVSPropertyOp62
 70
     0
  0
XRECORD
  5
9FC1
102
{ACAD_REACTORS
330
9FC0
102
}
330
9FC0
100
AcDbXrecord
280
     1
102
RTVSPost2010Prop28
280
     0
102
RTVSPost2010PropOp28
 70
     1
102
RTVSPost2010Prop29
280
     1
102
RTVSPost2010PropOp29
 70
     1
102
RTVSPost2010Prop30
280
     1
102
RTVSPost2010PropOp30
 70
     1
102
RTVSPost2010Prop31
280
     0
102
RTVSPost2010PropOp31
 70
     1
102
RTVSPost2010Prop32
280
     0
102
RTVSPost2010PropOp32
 70
     1
102
RTVSPost2010Prop33
280
     0
102
RTVSPost2010PropOp33
 70
     1
102
RTVSPost2010Prop34
280
     0
102
RTVSPost2010PropOp34
 70
     1
102
RTVSPost2010Prop35
280
     0
102
RTVSPost2010PropOp35
 70
     1
102
RTVSPost2010Prop36
280
     0
102
RTVSPost2010PropOp36
 70
     1
102
RTVSPost2010Prop37
 90
       50
102
RTVSPost2010PropOp37
 70
     1
102
RTVSPost2010Prop38
140
0.0
102
RTVSPost2010PropOp38
 70
     1
102
RTVSPost2010Prop39
140
1.0
102
RTVSPost2010PropOp39
 70
     1
102
RTVSPost2010Prop40
 90
        0
102
RTVSPost2010PropOp40
 70
     1
102
RTVSPost2010Prop41ColorIndex
 90
       18
102
RTVSPost2010Prop41ColorRGB
 90
        0
102
RTVSPost2010PropOp41
 70
     1
102
RTVSPost2010Prop42
 90
       50
102
RTVSPost2010PropOp42
 70
     1
102
RTVSPost2010Prop43
 90
        3
102
RTVSPost2010PropOp43
 70
     1
102
RTVSPost2010Prop44ColorIndex
 90
        5
102
RTVSPost2010Prop44ColorRGB
 90
      255
102
RTVSPost2010PropOp44
 70
     1
102
RTVSPost2010Prop45
280
     0
102
RTVSPost2010PropOp45
 70
     1
102
RTVSPost2010Prop46
 90
       50
102
RTVSPost2010PropOp46
 70
     1
102
RTVSPost2010Prop47
 90
       50
102
RTVSPost2010PropOp47
 70
     1
102
RTVSPost2010Prop48
 90
       50
102
RTVSPost2010PropOp48
 70
     1
102
RTVSPost2010Prop49
280
     0
102
RTVSPost2010PropOp49
 70
     1
102
RTVSPost2010Prop50
 90
       50
102
RTVSPost2010PropOp50
 70
     1
102
RTVSPost2010Prop51ColorIndex
 90
      256
102
RTVSPost2010Prop51ColorRGB
 90
-16777216
102
RTVSPost2010PropOp51
 70
     0
102
RTVSPost2010Prop52
140
1.0
102
RTVSPost2010PropOp52
 70
     0
102
RTVSPost2010Prop53
 90
        2
102
RTVSPost2010PropOp53
 70
     1
102
RTVSPost2010Prop54
  1
strokes_ogs.tif
102
RTVSPost2010PropOp54
 70
     1
102
RTVSPost2010Prop55
280
     0
102
RTVSPost2010PropOp55
 70
     1
102
RTVSPost2010Prop56
140
1.0
102
RTVSPost2010PropOp56
 70
     1
102
RTVSPost2010Prop57
140
1.0
102
RTVSPost2010PropOp57
 70
     1
102
RTVSPropertyOp0
 70
     1
102
RTVSPropertyOp1
 70
     1
102
RTVSPropertyOp2
 70
     1
102
RTVSPropertyOp3
 70
     1
102
RTVSPropertyOp4
 70
     1
102
RTVSPropertyOp5
 70
     1
102
RTVSPropertyOp6
 70
     1
102
RTVSPropertyOp7
 70
     1
102
RTVSPropertyOp8
 70
     1
102
RTVSPropertyOp9
 70
     1
102
RTVSPropertyOp10
 70
     1
102
RTVSPropertyOp11
 70
     1
102
RTVSPropertyOp12
 70
     1
102
RTVSPropertyOp13
 70
     1
102
RTVSPropertyOp14
 70
     1
102
RTVSPropertyOp15
 70
     1
102
RTVSPropertyOp16
 70
     1
102
RTVSPropertyOp17
 70
     1
102
RTVSPropertyOp18
 70
     1
102
RTVSPropertyOp19
 70
     1
102
RTVSPropertyOp20
 70
     1
102
RTVSPropertyOp21
 70
     1
102
RTVSPropertyOp22
 70
     1
102
RTVSPropertyOp23
 70
     1
102
RTVSPropertyOp24
 70
     1
102
RTVSPropertyOp25
 70
     1
102
RTVSPropertyOp26
 70
     1
102
RTVSPropertyOp27
 70
     1
102
RTVSPropertyOp28
 70
     1
102
RTVSPropertyOp29
 70
     1
102
RTVSPropertyOp30
 70
     1
102
RTVSPropertyOp31
 70
     1
102
RTVSPropertyOp32
 70
     1
102
RTVSPropertyOp33
 70
     1
102
RTVSPropertyOp34
 70
     1
102
RTVSPropertyOp35
 70
     1
102
RTVSPropertyOp36
 70
     1
102
RTVSPropertyOp37
 70
     1
102
RTVSPropertyOp38
 70
     1
102
RTVSPropertyOp39
 70
     1
102
RTVSPropertyOp40
 70
     1
102
RTVSPropertyOp41
 70
     1
102
RTVSPropertyOp42
 70
     1
102
RTVSPropertyOp43
 70
     1
102
RTVSPropertyOp44
 70
     1
102
RTVSPropertyOp45
 70
     1
102
RTVSPropertyOp46
 70
     1
102
RTVSPropertyOp47
 70
     1
102
RTVSPropertyOp48
 70
     1
102
RTVSPropertyOp49
 70
     1
102
RTVSPropertyOp50
 70
     1
102
RTVSPropertyOp51
 70
     0
102
RTVSPropertyOp52
 70
     0
102
RTVSPropertyOp53
 70
     1
102
RTVSPropertyOp54
 70
     1
102
RTVSPropertyOp55
 70
     1
102
RTVSPropertyOp56
 70
     1
102
RTVSPropertyOp57
 70
     1
102
RTVSPropertyOp58
 70
     1
102
RTVSPropertyOp59
 70
     1
102
RTVSPropertyOp60
 70
     1
102
RTVSPropertyOp61
 70
     1
102
RTVSPropertyOp62
 70
     1
  0
XRECORD
  5
9FA5
102
{ACAD_REACTORS
330
9FA4
102
}
330
9FA4
100
AcDbXrecord
280
     1
102
RTVSPost2010Prop28
280
     0
102
RTVSPost2010PropOp28
 70
     1
102
RTVSPost2010Prop29
280
     1
102
RTVSPost2010PropOp29
 70
     1
102
RTVSPost2010Prop30
280
     1
102
RTVSPost2010PropOp30
 70
     1
102
RTVSPost2010Prop31
280
     0
102
RTVSPost2010PropOp31
 70
     1
102
RTVSPost2010Prop32
280
     0
102
RTVSPost2010PropOp32
 70
     1
102
RTVSPost2010Prop33
280
     0
102
RTVSPost2010PropOp33
 70
     1
102
RTVSPost2010Prop34
280
     0
102
RTVSPost2010PropOp34
 70
     1
102
RTVSPost2010Prop35
280
     0
102
RTVSPost2010PropOp35
 70
     1
102
RTVSPost2010Prop36
280
     0
102
RTVSPost2010PropOp36
 70
     1
102
RTVSPost2010Prop37
 90
       50
102
RTVSPost2010PropOp37
 70
     1
102
RTVSPost2010Prop38
140
0.0
102
RTVSPost2010PropOp38
 70
     1
102
RTVSPost2010Prop39
140
1.0
102
RTVSPost2010PropOp39
 70
     1
102
RTVSPost2010Prop40
 90
        0
102
RTVSPost2010PropOp40
 70
     1
102
RTVSPost2010Prop41ColorIndex
 90
       18
102
RTVSPost2010Prop41ColorRGB
 90
        0
102
RTVSPost2010PropOp41
 70
     1
102
RTVSPost2010Prop42
 90
       50
102
RTVSPost2010PropOp42
 70
     1
102
RTVSPost2010Prop43
 90
        3
102
RTVSPost2010PropOp43
 70
     1
102
RTVSPost2010Prop44ColorIndex
 90
        5
102
RTVSPost2010Prop44ColorRGB
 90
      255
102
RTVSPost2010PropOp44
 70
     1
102
RTVSPost2010Prop45
280
     0
102
RTVSPost2010PropOp45
 70
     1
102
RTVSPost2010Prop46
 90
       50
102
RTVSPost2010PropOp46
 70
     1
102
RTVSPost2010Prop47
 90
       50
102
RTVSPost2010PropOp47
 70
     1
102
RTVSPost2010Prop48
 90
       50
102
RTVSPost2010PropOp48
 70
     1
102
RTVSPost2010Prop49
280
     0
102
RTVSPost2010PropOp49
 70
     1
102
RTVSPost2010Prop50
 90
       50
102
RTVSPost2010PropOp50
 70
     1
102
RTVSPost2010Prop51ColorIndex
 90
      256
102
RTVSPost2010Prop51ColorRGB
 90
-16777216
102
RTVSPost2010PropOp51
 70
     0
102
RTVSPost2010Prop52
140
1.0
102
RTVSPost2010PropOp52
 70
     0
102
RTVSPost2010Prop53
 90
        2
102
RTVSPost2010PropOp53
 70
     1
102
RTVSPost2010Prop54
  1
strokes_ogs.tif
102
RTVSPost2010PropOp54
 70
     1
102
RTVSPost2010Prop55
280
     0
102
RTVSPost2010PropOp55
 70
     1
102
RTVSPost2010Prop56
140
1.0
102
RTVSPost2010PropOp56
 70
     1
102
RTVSPost2010Prop57
140
1.0
102
RTVSPost2010PropOp57
 70
     1
102
RTVSPropertyOp0
 70
     1
102
RTVSPropertyOp1
 70
     1
102
RTVSPropertyOp2
 70
     1
102
RTVSPropertyOp3
 70
     1
102
RTVSPropertyOp4
 70
     1
102
RTVSPropertyOp5
 70
     1
102
RTVSPropertyOp6
 70
     1
102
RTVSPropertyOp7
 70
     1
102
RTVSPropertyOp8
 70
     1
102
RTVSPropertyOp9
 70
     1
102
RTVSPropertyOp10
 70
     1
102
RTVSPropertyOp11
 70
     1
102
RTVSPropertyOp12
 70
     1
102
RTVSPropertyOp13
 70
     1
102
RTVSPropertyOp14
 70
     1
102
RTVSPropertyOp15
 70
     1
102
RTVSPropertyOp16
 70
     1
102
RTVSPropertyOp17
 70
     1
102
RTVSPropertyOp18
 70
     1
102
RTVSPropertyOp19
 70
     1
102
RTVSPropertyOp20
 70
     1
102
RTVSPropertyOp21
 70
     1
102
RTVSPropertyOp22
 70
     1
102
RTVSPropertyOp23
 70
     1
102
RTVSPropertyOp24
 70
     1
102
RTVSPropertyOp25
 70
     1
102
RTVSPropertyOp26
 70
     1
102
RTVSPropertyOp27
 70
     1
102
RTVSPropertyOp28
 70
     1
102
RTVSPropertyOp29
 70
     1
102
RTVSPropertyOp30
 70
     1
102
RTVSPropertyOp31
 70
     1
102
RTVSPropertyOp32
 70
     1
102
RTVSPropertyOp33
 70
     1
102
RTVSPropertyOp34
 70
     1
102
RTVSPropertyOp35
 70
     1
102
RTVSPropertyOp36
 70
     1
102
RTVSPropertyOp37
 70
     1
102
RTVSPropertyOp38
 70
     1
102
RTVSPropertyOp39
 70
     1
102
RTVSPropertyOp40
 70
     1
102
RTVSPropertyOp41
 70
     1
102
RTVSPropertyOp42
 70
     1
102
RTVSPropertyOp43
 70
     1
102
RTVSPropertyOp44
 70
     1
102
RTVSPropertyOp45
 70
     1
102
RTVSPropertyOp46
 70
     1
102
RTVSPropertyOp47
 70
     1
102
RTVSPropertyOp48
 70
     1
102
RTVSPropertyOp49
 70
     1
102
RTVSPropertyOp50
 70
     1
102
RTVSPropertyOp51
 70
     0
102
RTVSPropertyOp52
 70
     0
102
RTVSPropertyOp53
 70
     1
102
RTVSPropertyOp54
 70
     1
102
RTVSPropertyOp55
 70
     1
102
RTVSPropertyOp56
 70
     1
102
RTVSPropertyOp57
 70
     1
102
RTVSPropertyOp58
 70
     1
102
RTVSPropertyOp59
 70
     1
102
RTVSPropertyOp60
 70
     1
102
RTVSPropertyOp61
 70
     1
102
RTVSPropertyOp62
 70
     1
  0
XRECORD
  5
9FA7
102
{ACAD_REACTORS
330
9FA6
102
}
330
9FA6
100
AcDbXrecord
280
     1
102
RTVSPost2010Prop28
280
     0
102
RTVSPost2010PropOp28
 70
     1
102
RTVSPost2010Prop29
280
     1
102
RTVSPost2010PropOp29
 70
     1
102
RTVSPost2010Prop30
280
     1
102
RTVSPost2010PropOp30
 70
     1
102
RTVSPost2010Prop31
280
     0
102
RTVSPost2010PropOp31
 70
     1
102
RTVSPost2010Prop32
280
     0
102
RTVSPost2010PropOp32
 70
     1
102
RTVSPost2010Prop33
280
     0
102
RTVSPost2010PropOp33
 70
     1
102
RTVSPost2010Prop34
280
     0
102
RTVSPost2010PropOp34
 70
     1
102
RTVSPost2010Prop35
280
     0
102
RTVSPost2010PropOp35
 70
     1
102
RTVSPost2010Prop36
280
     0
102
RTVSPost2010PropOp36
 70
     1
102
RTVSPost2010Prop37
 90
       50
102
RTVSPost2010PropOp37
 70
     1
102
RTVSPost2010Prop38
140
0.0
102
RTVSPost2010PropOp38
 70
     1
102
RTVSPost2010Prop39
140
1.0
102
RTVSPost2010PropOp39
 70
     1
102
RTVSPost2010Prop40
 90
        0
102
RTVSPost2010PropOp40
 70
     1
102
RTVSPost2010Prop41ColorIndex
 90
       18
102
RTVSPost2010Prop41ColorRGB
 90
        0
102
RTVSPost2010PropOp41
 70
     1
102
RTVSPost2010Prop42
 90
       50
102
RTVSPost2010PropOp42
 70
     1
102
RTVSPost2010Prop43
 90
        3
102
RTVSPost2010PropOp43
 70
     1
102
RTVSPost2010Prop44ColorIndex
 90
        5
102
RTVSPost2010Prop44ColorRGB
 90
      255
102
RTVSPost2010PropOp44
 70
     1
102
RTVSPost2010Prop45
280
     0
102
RTVSPost2010PropOp45
 70
     1
102
RTVSPost2010Prop46
 90
       50
102
RTVSPost2010PropOp46
 70
     1
102
RTVSPost2010Prop47
 90
       50
102
RTVSPost2010PropOp47
 70
     1
102
RTVSPost2010Prop48
 90
       50
102
RTVSPost2010PropOp48
 70
     1
102
RTVSPost2010Prop49
280
     0
102
RTVSPost2010PropOp49
 70
     1
102
RTVSPost2010Prop50
 90
       50
102
RTVSPost2010PropOp50
 70
     1
102
RTVSPost2010Prop51ColorIndex
 90
      256
102
RTVSPost2010Prop51ColorRGB
 90
-16777216
102
RTVSPost2010PropOp51
 70
     0
102
RTVSPost2010Prop52
140
1.0
102
RTVSPost2010PropOp52
 70
     0
102
RTVSPost2010Prop53
 90
        2
102
RTVSPost2010PropOp53
 70
     1
102
RTVSPost2010Prop54
  1
strokes_ogs.tif
102
RTVSPost2010PropOp54
 70
     1
102
RTVSPost2010Prop55
280
     0
102
RTVSPost2010PropOp55
 70
     1
102
RTVSPost2010Prop56
140
1.0
102
RTVSPost2010PropOp56
 70
     1
102
RTVSPost2010Prop57
140
1.0
102
RTVSPost2010PropOp57
 70
     1
102
RTVSPropertyOp0
 70
     1
102
RTVSPropertyOp1
 70
     1
102
RTVSPropertyOp2
 70
     1
102
RTVSPropertyOp3
 70
     1
102
RTVSPropertyOp4
 70
     1
102
RTVSPropertyOp5
 70
     1
102
RTVSPropertyOp6
 70
     1
102
RTVSPropertyOp7
 70
     1
102
RTVSPropertyOp8
 70
     1
102
RTVSPropertyOp9
 70
     1
102
RTVSPropertyOp10
 70
     1
102
RTVSPropertyOp11
 70
     1
102
RTVSPropertyOp12
 70
     1
102
RTVSPropertyOp13
 70
     1
102
RTVSPropertyOp14
 70
     1
102
RTVSPropertyOp15
 70
     1
102
RTVSPropertyOp16
 70
     1
102
RTVSPropertyOp17
 70
     1
102
RTVSPropertyOp18
 70
     1
102
RTVSPropertyOp19
 70
     1
102
RTVSPropertyOp20
 70
     1
102
RTVSPropertyOp21
 70
     1
102
RTVSPropertyOp22
 70
     1
102
RTVSPropertyOp23
 70
     1
102
RTVSPropertyOp24
 70
     1
102
RTVSPropertyOp25
 70
     1
102
RTVSPropertyOp26
 70
     1
102
RTVSPropertyOp27
 70
     1
102
RTVSPropertyOp28
 70
     1
102
RTVSPropertyOp29
 70
     1
102
RTVSPropertyOp30
 70
     1
102
RTVSPropertyOp31
 70
     1
102
RTVSPropertyOp32
 70
     1
102
RTVSPropertyOp33
 70
     1
102
RTVSPropertyOp34
 70
     1
102
RTVSPropertyOp35
 70
     1
102
RTVSPropertyOp36
 70
     1
102
RTVSPropertyOp37
 70
     1
102
RTVSPropertyOp38
 70
     1
102
RTVSPropertyOp39
 70
     1
102
RTVSPropertyOp40
 70
     1
102
RTVSPropertyOp41
 70
     1
102
RTVSPropertyOp42
 70
     1
102
RTVSPropertyOp43
 70
     1
102
RTVSPropertyOp44
 70
     1
102
RTVSPropertyOp45
 70
     1
102
RTVSPropertyOp46
 70
     1
102
RTVSPropertyOp47
 70
     1
102
RTVSPropertyOp48
 70
     1
102
RTVSPropertyOp49
 70
     1
102
RTVSPropertyOp50
 70
     1
102
RTVSPropertyOp51
 70
     0
102
RTVSPropertyOp52
 70
     0
102
RTVSPropertyOp53
 70
     1
102
RTVSPropertyOp54
 70
     1
102
RTVSPropertyOp55
 70
     1
102
RTVSPropertyOp56
 70
     1
102
RTVSPropertyOp57
 70
     1
102
RTVSPropertyOp58
 70
     1
102
RTVSPropertyOp59
 70
     1
102
RTVSPropertyOp60
 70
     1
102
RTVSPropertyOp61
 70
     1
102
RTVSPropertyOp62
 70
     1
  0
XRECORD
  5
9FA9
102
{ACAD_REACTORS
330
9FA8
102
}
330
9FA8
100
AcDbXrecord
280
     1
102
RTVSPost2010Prop28
280
     0
102
RTVSPost2010PropOp28
 70
     1
102
RTVSPost2010Prop29
280
     1
102
RTVSPost2010PropOp29
 70
     1
102
RTVSPost2010Prop30
280
     1
102
RTVSPost2010PropOp30
 70
     1
102
RTVSPost2010Prop31
280
     0
102
RTVSPost2010PropOp31
 70
     1
102
RTVSPost2010Prop32
280
     0
102
RTVSPost2010PropOp32
 70
     1
102
RTVSPost2010Prop33
280
     0
102
RTVSPost2010PropOp33
 70
     1
102
RTVSPost2010Prop34
280
     0
102
RTVSPost2010PropOp34
 70
     1
102
RTVSPost2010Prop35
280
     0
102
RTVSPost2010PropOp35
 70
     1
102
RTVSPost2010Prop36
280
     0
102
RTVSPost2010PropOp36
 70
     1
102
RTVSPost2010Prop37
 90
       50
102
RTVSPost2010PropOp37
 70
     1
102
RTVSPost2010Prop38
140
0.0
102
RTVSPost2010PropOp38
 70
     1
102
RTVSPost2010Prop39
140
1.0
102
RTVSPost2010PropOp39
 70
     1
102
RTVSPost2010Prop40
 90
        0
102
RTVSPost2010PropOp40
 70
     1
102
RTVSPost2010Prop41ColorIndex
 90
       18
102
RTVSPost2010Prop41ColorRGB
 90
        0
102
RTVSPost2010PropOp41
 70
     1
102
RTVSPost2010Prop42
 90
       50
102
RTVSPost2010PropOp42
 70
     1
102
RTVSPost2010Prop43
 90
        3
102
RTVSPost2010PropOp43
 70
     1
102
RTVSPost2010Prop44ColorIndex
 90
        5
102
RTVSPost2010Prop44ColorRGB
 90
      255
102
RTVSPost2010PropOp44
 70
     1
102
RTVSPost2010Prop45
280
     0
102
RTVSPost2010PropOp45
 70
     1
102
RTVSPost2010Prop46
 90
       50
102
RTVSPost2010PropOp46
 70
     1
102
RTVSPost2010Prop47
 90
       50
102
RTVSPost2010PropOp47
 70
     1
102
RTVSPost2010Prop48
 90
       50
102
RTVSPost2010PropOp48
 70
     1
102
RTVSPost2010Prop49
280
     0
102
RTVSPost2010PropOp49
 70
     1
102
RTVSPost2010Prop50
 90
       50
102
RTVSPost2010PropOp50
 70
     1
102
RTVSPost2010Prop51ColorIndex
 90
      256
102
RTVSPost2010Prop51ColorRGB
 90
-16777216
102
RTVSPost2010PropOp51
 70
     0
102
RTVSPost2010Prop52
140
1.0
102
RTVSPost2010PropOp52
 70
     0
102
RTVSPost2010Prop53
 90
        2
102
RTVSPost2010PropOp53
 70
     1
102
RTVSPost2010Prop54
  1
strokes_ogs.tif
102
RTVSPost2010PropOp54
 70
     1
102
RTVSPost2010Prop55
280
     0
102
RTVSPost2010PropOp55
 70
     1
102
RTVSPost2010Prop56
140
1.0
102
RTVSPost2010PropOp56
 70
     1
102
RTVSPost2010Prop57
140
1.0
102
RTVSPost2010PropOp57
 70
     1
102
RTVSPropertyOp0
 70
     1
102
RTVSPropertyOp1
 70
     1
102
RTVSPropertyOp2
 70
     1
102
RTVSPropertyOp3
 70
     1
102
RTVSPropertyOp4
 70
     1
102
RTVSPropertyOp5
 70
     1
102
RTVSPropertyOp6
 70
     1
102
RTVSPropertyOp7
 70
     1
102
RTVSPropertyOp8
 70
     1
102
RTVSPropertyOp9
 70
     1
102
RTVSPropertyOp10
 70
     1
102
RTVSPropertyOp11
 70
     1
102
RTVSPropertyOp12
 70
     1
102
RTVSPropertyOp13
 70
     1
102
RTVSPropertyOp14
 70
     1
102
RTVSPropertyOp15
 70
     1
102
RTVSPropertyOp16
 70
     1
102
RTVSPropertyOp17
 70
     1
102
RTVSPropertyOp18
 70
     1
102
RTVSPropertyOp19
 70
     1
102
RTVSPropertyOp20
 70
     1
102
RTVSPropertyOp21
 70
     1
102
RTVSPropertyOp22
 70
     1
102
RTVSPropertyOp23
 70
     1
102
RTVSPropertyOp24
 70
     1
102
RTVSPropertyOp25
 70
     1
102
RTVSPropertyOp26
 70
     1
102
RTVSPropertyOp27
 70
     1
102
RTVSPropertyOp28
 70
     1
102
RTVSPropertyOp29
 70
     1
102
RTVSPropertyOp30
 70
     1
102
RTVSPropertyOp31
 70
     1
102
RTVSPropertyOp32
 70
     1
102
RTVSPropertyOp33
 70
     1
102
RTVSPropertyOp34
 70
     1
102
RTVSPropertyOp35
 70
     1
102
RTVSPropertyOp36
 70
     1
102
RTVSPropertyOp37
 70
     1
102
RTVSPropertyOp38
 70
     1
102
RTVSPropertyOp39
 70
     1
102
RTVSPropertyOp40
 70
     1
102
RTVSPropertyOp41
 70
     1
102
RTVSPropertyOp42
 70
     1
102
RTVSPropertyOp43
 70
     1
102
RTVSPropertyOp44
 70
     1
102
RTVSPropertyOp45
 70
     1
102
RTVSPropertyOp46
 70
     1
102
RTVSPropertyOp47
 70
     1
102
RTVSPropertyOp48
 70
     1
102
RTVSPropertyOp49
 70
     1
102
RTVSPropertyOp50
 70
     1
102
RTVSPropertyOp51
 70
     0
102
RTVSPropertyOp52
 70
     0
102
RTVSPropertyOp53
 70
     1
102
RTVSPropertyOp54
 70
     1
102
RTVSPropertyOp55
 70
     1
102
RTVSPropertyOp56
 70
     1
102
RTVSPropertyOp57
 70
     1
102
RTVSPropertyOp58
 70
     1
102
RTVSPropertyOp59
 70
     1
102
RTVSPropertyOp60
 70
     1
102
RTVSPropertyOp61
 70
     1
102
RTVSPropertyOp62
 70
     1
  0
XRECORD
  5
9FAB
102
{ACAD_REACTORS
330
9FAA
102
}
330
9FAA
100
AcDbXrecord
280
     1
102
RTVSPost2010Prop28
280
     0
102
RTVSPost2010PropOp28
 70
     1
102
RTVSPost2010Prop29
280
     1
102
RTVSPost2010PropOp29
 70
     1
102
RTVSPost2010Prop30
280
     1
102
RTVSPost2010PropOp30
 70
     1
102
RTVSPost2010Prop31
280
     0
102
RTVSPost2010PropOp31
 70
     1
102
RTVSPost2010Prop32
280
     0
102
RTVSPost2010PropOp32
 70
     1
102
RTVSPost2010Prop33
280
     0
102
RTVSPost2010PropOp33
 70
     1
102
RTVSPost2010Prop34
280
     0
102
RTVSPost2010PropOp34
 70
     1
102
RTVSPost2010Prop35
280
     0
102
RTVSPost2010PropOp35
 70
     1
102
RTVSPost2010Prop36
280
     0
102
RTVSPost2010PropOp36
 70
     1
102
RTVSPost2010Prop37
 90
       50
102
RTVSPost2010PropOp37
 70
     1
102
RTVSPost2010Prop38
140
0.0
102
RTVSPost2010PropOp38
 70
     1
102
RTVSPost2010Prop39
140
1.0
102
RTVSPost2010PropOp39
 70
     1
102
RTVSPost2010Prop40
 90
        0
102
RTVSPost2010PropOp40
 70
     1
102
RTVSPost2010Prop41ColorIndex
 90
       18
102
RTVSPost2010Prop41ColorRGB
 90
        0
102
RTVSPost2010PropOp41
 70
     1
102
RTVSPost2010Prop42
 90
       50
102
RTVSPost2010PropOp42
 70
     1
102
RTVSPost2010Prop43
 90
        3
102
RTVSPost2010PropOp43
 70
     1
102
RTVSPost2010Prop44ColorIndex
 90
        5
102
RTVSPost2010Prop44ColorRGB
 90
      255
102
RTVSPost2010PropOp44
 70
     1
102
RTVSPost2010Prop45
280
     0
102
RTVSPost2010PropOp45
 70
     1
102
RTVSPost2010Prop46
 90
       50
102
RTVSPost2010PropOp46
 70
     1
102
RTVSPost2010Prop47
 90
       50
102
RTVSPost2010PropOp47
 70
     1
102
RTVSPost2010Prop48
 90
       50
102
RTVSPost2010PropOp48
 70
     1
102
RTVSPost2010Prop49
280
     0
102
RTVSPost2010PropOp49
 70
     1
102
RTVSPost2010Prop50
 90
       50
102
RTVSPost2010PropOp50
 70
     1
102
RTVSPost2010Prop51ColorIndex
 90
      256
102
RTVSPost2010Prop51ColorRGB
 90
-16777216
102
RTVSPost2010PropOp51
 70
     0
102
RTVSPost2010Prop52
140
1.0
102
RTVSPost2010PropOp52
 70
     0
102
RTVSPost2010Prop53
 90
        2
102
RTVSPost2010PropOp53
 70
     1
102
RTVSPost2010Prop54
  1
strokes_ogs.tif
102
RTVSPost2010PropOp54
 70
     1
102
RTVSPost2010Prop55
280
     0
102
RTVSPost2010PropOp55
 70
     1
102
RTVSPost2010Prop56
140
1.0
102
RTVSPost2010PropOp56
 70
     1
102
RTVSPost2010Prop57
140
1.0
102
RTVSPost2010PropOp57
 70
     1
102
RTVSPropertyOp0
 70
     1
102
RTVSPropertyOp1
 70
     1
102
RTVSPropertyOp2
 70
     1
102
RTVSPropertyOp3
 70
     1
102
RTVSPropertyOp4
 70
     1
102
RTVSPropertyOp5
 70
     1
102
RTVSPropertyOp6
 70
     1
102
RTVSPropertyOp7
 70
     1
102
RTVSPropertyOp8
 70
     1
102
RTVSPropertyOp9
 70
     1
102
RTVSPropertyOp10
 70
     1
102
RTVSPropertyOp11
 70
     1
102
RTVSPropertyOp12
 70
     1
102
RTVSPropertyOp13
 70
     1
102
RTVSPropertyOp14
 70
     1
102
RTVSPropertyOp15
 70
     1
102
RTVSPropertyOp16
 70
     1
102
RTVSPropertyOp17
 70
     1
102
RTVSPropertyOp18
 70
     1
102
RTVSPropertyOp19
 70
     1
102
RTVSPropertyOp20
 70
     1
102
RTVSPropertyOp21
 70
     1
102
RTVSPropertyOp22
 70
     1
102
RTVSPropertyOp23
 70
     1
102
RTVSPropertyOp24
 70
     1
102
RTVSPropertyOp25
 70
     1
102
RTVSPropertyOp26
 70
     1
102
RTVSPropertyOp27
 70
     1
102
RTVSPropertyOp28
 70
     1
102
RTVSPropertyOp29
 70
     1
102
RTVSPropertyOp30
 70
     1
102
RTVSPropertyOp31
 70
     1
102
RTVSPropertyOp32
 70
     1
102
RTVSPropertyOp33
 70
     1
102
RTVSPropertyOp34
 70
     1
102
RTVSPropertyOp35
 70
     1
102
RTVSPropertyOp36
 70
     1
102
RTVSPropertyOp37
 70
     1
102
RTVSPropertyOp38
 70
     1
102
RTVSPropertyOp39
 70
     1
102
RTVSPropertyOp40
 70
     1
102
RTVSPropertyOp41
 70
     1
102
RTVSPropertyOp42
 70
     1
102
RTVSPropertyOp43
 70
     1
102
RTVSPropertyOp44
 70
     1
102
RTVSPropertyOp45
 70
     1
102
RTVSPropertyOp46
 70
     1
102
RTVSPropertyOp47
 70
     1
102
RTVSPropertyOp48
 70
     1
102
RTVSPropertyOp49
 70
     1
102
RTVSPropertyOp50
 70
     1
102
RTVSPropertyOp51
 70
     0
102
RTVSPropertyOp52
 70
     0
102
RTVSPropertyOp53
 70
     1
102
RTVSPropertyOp54
 70
     1
102
RTVSPropertyOp55
 70
     1
102
RTVSPropertyOp56
 70
     1
102
RTVSPropertyOp57
 70
     1
102
RTVSPropertyOp58
 70
     1
102
RTVSPropertyOp59
 70
     1
102
RTVSPropertyOp60
 70
     1
102
RTVSPropertyOp61
 70
     1
102
RTVSPropertyOp62
 70
     1
  0
XRECORD
  5
9FB3
102
{ACAD_REACTORS
330
9FB2
102
}
330
9FB2
100
AcDbXrecord
280
     1
102
RTVSPost2010Prop28
280
     0
102
RTVSPost2010PropOp28
 70
     1
102
RTVSPost2010Prop29
280
     1
102
RTVSPost2010PropOp29
 70
     1
102
RTVSPost2010Prop30
280
     1
102
RTVSPost2010PropOp30
 70
     1
102
RTVSPost2010Prop31
280
     0
102
RTVSPost2010PropOp31
 70
     1
102
RTVSPost2010Prop32
280
     0
102
RTVSPost2010PropOp32
 70
     1
102
RTVSPost2010Prop33
280
     0
102
RTVSPost2010PropOp33
 70
     1
102
RTVSPost2010Prop34
280
     0
102
RTVSPost2010PropOp34
 70
     1
102
RTVSPost2010Prop35
280
     0
102
RTVSPost2010PropOp35
 70
     1
102
RTVSPost2010Prop36
280
     0
102
RTVSPost2010PropOp36
 70
     1
102
RTVSPost2010Prop37
 90
       50
102
RTVSPost2010PropOp37
 70
     1
102
RTVSPost2010Prop38
140
0.0
102
RTVSPost2010PropOp38
 70
     1
102
RTVSPost2010Prop39
140
1.0
102
RTVSPost2010PropOp39
 70
     1
102
RTVSPost2010Prop40
 90
        0
102
RTVSPost2010PropOp40
 70
     1
102
RTVSPost2010Prop41ColorIndex
 90
       18
102
RTVSPost2010Prop41ColorRGB
 90
        0
102
RTVSPost2010PropOp41
 70
     1
102
RTVSPost2010Prop42
 90
       50
102
RTVSPost2010PropOp42
 70
     1
102
RTVSPost2010Prop43
 90
        3
102
RTVSPost2010PropOp43
 70
     1
102
RTVSPost2010Prop44ColorIndex
 90
        5
102
RTVSPost2010Prop44ColorRGB
 90
      255
102
RTVSPost2010PropOp44
 70
     1
102
RTVSPost2010Prop45
280
     0
102
RTVSPost2010PropOp45
 70
     1
102
RTVSPost2010Prop46
 90
       50
102
RTVSPost2010PropOp46
 70
     1
102
RTVSPost2010Prop47
 90
       50
102
RTVSPost2010PropOp47
 70
     1
102
RTVSPost2010Prop48
 90
       50
102
RTVSPost2010PropOp48
 70
     1
102
RTVSPost2010Prop49
280
     0
102
RTVSPost2010PropOp49
 70
     1
102
RTVSPost2010Prop50
 90
       50
102
RTVSPost2010PropOp50
 70
     1
102
RTVSPost2010Prop51ColorIndex
 90
      256
102
RTVSPost2010Prop51ColorRGB
 90
-16777216
102
RTVSPost2010PropOp51
 70
     0
102
RTVSPost2010Prop52
140
1.0
102
RTVSPost2010PropOp52
 70
     0
102
RTVSPost2010Prop53
 90
        2
102
RTVSPost2010PropOp53
 70
     1
102
RTVSPost2010Prop54
  1
strokes_ogs.tif
102
RTVSPost2010PropOp54
 70
     1
102
RTVSPost2010Prop55
280
     0
102
RTVSPost2010PropOp55
 70
     1
102
RTVSPost2010Prop56
140
1.0
102
RTVSPost2010PropOp56
 70
     1
102
RTVSPost2010Prop57
140
1.0
102
RTVSPost2010PropOp57
 70
     1
102
RTVSPropertyOp0
 70
     1
102
RTVSPropertyOp1
 70
     1
102
RTVSPropertyOp2
 70
     1
102
RTVSPropertyOp3
 70
     1
102
RTVSPropertyOp4
 70
     1
102
RTVSPropertyOp5
 70
     1
102
RTVSPropertyOp6
 70
     1
102
RTVSPropertyOp7
 70
     1
102
RTVSPropertyOp8
 70
     1
102
RTVSPropertyOp9
 70
     1
102
RTVSPropertyOp10
 70
     1
102
RTVSPropertyOp11
 70
     1
102
RTVSPropertyOp12
 70
     1
102
RTVSPropertyOp13
 70
     1
102
RTVSPropertyOp14
 70
     1
102
RTVSPropertyOp15
 70
     1
102
RTVSPropertyOp16
 70
     1
102
RTVSPropertyOp17
 70
     1
102
RTVSPropertyOp18
 70
     1
102
RTVSPropertyOp19
 70
     1
102
RTVSPropertyOp20
 70
     1
102
RTVSPropertyOp21
 70
     1
102
RTVSPropertyOp22
 70
     1
102
RTVSPropertyOp23
 70
     1
102
RTVSPropertyOp24
 70
     1
102
RTVSPropertyOp25
 70
     1
102
RTVSPropertyOp26
 70
     1
102
RTVSPropertyOp27
 70
     1
102
RTVSPropertyOp28
 70
     1
102
RTVSPropertyOp29
 70
     1
102
RTVSPropertyOp30
 70
     1
102
RTVSPropertyOp31
 70
     1
102
RTVSPropertyOp32
 70
     1
102
RTVSPropertyOp33
 70
     1
102
RTVSPropertyOp34
 70
     1
102
RTVSPropertyOp35
 70
     1
102
RTVSPropertyOp36
 70
     1
102
RTVSPropertyOp37
 70
     1
102
RTVSPropertyOp38
 70
     1
102
RTVSPropertyOp39
 70
     1
102
RTVSPropertyOp40
 70
     1
102
RTVSPropertyOp41
 70
     1
102
RTVSPropertyOp42
 70
     1
102
RTVSPropertyOp43
 70
     1
102
RTVSPropertyOp44
 70
     1
102
RTVSPropertyOp45
 70
     1
102
RTVSPropertyOp46
 70
     1
102
RTVSPropertyOp47
 70
     1
102
RTVSPropertyOp48
 70
     1
102
RTVSPropertyOp49
 70
     1
102
RTVSPropertyOp50
 70
     1
102
RTVSPropertyOp51
 70
     0
102
RTVSPropertyOp52
 70
     0
102
RTVSPropertyOp53
 70
     1
102
RTVSPropertyOp54
 70
     1
102
RTVSPropertyOp55
 70
     1
102
RTVSPropertyOp56
 70
     1
102
RTVSPropertyOp57
 70
     1
102
RTVSPropertyOp58
 70
     1
102
RTVSPropertyOp59
 70
     1
102
RTVSPropertyOp60
 70
     1
102
RTVSPropertyOp61
 70
     1
102
RTVSPropertyOp62
 70
     1
  0
XRECORD
  5
9FCF
102
{ACAD_REACTORS
330
9FCE
102
}
330
9FCE
100
AcDbXrecord
280
     1
102
RTVSPost2010Prop28
280
     0
102
RTVSPost2010PropOp28
 70
     1
102
RTVSPost2010Prop29
280
     1
102
RTVSPost2010PropOp29
 70
     1
102
RTVSPost2010Prop30
280
     1
102
RTVSPost2010PropOp30
 70
     1
102
RTVSPost2010Prop31
280
     0
102
RTVSPost2010PropOp31
 70
     1
102
RTVSPost2010Prop32
280
     0
102
RTVSPost2010PropOp32
 70
     1
102
RTVSPost2010Prop33
280
     0
102
RTVSPost2010PropOp33
 70
     1
102
RTVSPost2010Prop34
280
     0
102
RTVSPost2010PropOp34
 70
     1
102
RTVSPost2010Prop35
280
     0
102
RTVSPost2010PropOp35
 70
     1
102
RTVSPost2010Prop36
280
     0
102
RTVSPost2010PropOp36
 70
     1
102
RTVSPost2010Prop37
 90
       50
102
RTVSPost2010PropOp37
 70
     0
102
RTVSPost2010Prop38
140
0.0
102
RTVSPost2010PropOp38
 70
     0
102
RTVSPost2010Prop39
140
1.0
102
RTVSPost2010PropOp39
 70
     0
102
RTVSPost2010Prop40
 90
        0
102
RTVSPost2010PropOp40
 70
     0
102
RTVSPost2010Prop41ColorIndex
 90
       18
102
RTVSPost2010Prop41ColorRGB
 90
        0
102
RTVSPost2010PropOp41
 70
     0
102
RTVSPost2010Prop42
 90
       50
102
RTVSPost2010PropOp42
 70
     0
102
RTVSPost2010Prop43
 90
        3
102
RTVSPost2010PropOp43
 70
     0
102
RTVSPost2010Prop44ColorIndex
 90
        5
102
RTVSPost2010Prop44ColorRGB
 90
      255
102
RTVSPost2010PropOp44
 70
     0
102
RTVSPost2010Prop45
280
     0
102
RTVSPost2010PropOp45
 70
     1
102
RTVSPost2010Prop46
 90
       50
102
RTVSPost2010PropOp46
 70
     0
102
RTVSPost2010Prop47
 90
       50
102
RTVSPost2010PropOp47
 70
     0
102
RTVSPost2010Prop48
 90
       50
102
RTVSPost2010PropOp48
 70
     0
102
RTVSPost2010Prop49
280
     0
102
RTVSPost2010PropOp49
 70
     1
102
RTVSPost2010Prop50
 90
       50
102
RTVSPost2010PropOp50
 70
     0
102
RTVSPost2010Prop51ColorIndex
 90
      256
102
RTVSPost2010Prop51ColorRGB
 90
-16777216
102
RTVSPost2010PropOp51
 70
     0
102
RTVSPost2010Prop52
140
1.0
102
RTVSPost2010PropOp52
 70
     0
102
RTVSPost2010Prop53
 90
        2
102
RTVSPost2010PropOp53
 70
     0
102
RTVSPost2010Prop54
  1
strokes_ogs.tif
102
RTVSPost2010PropOp54
 70
     0
102
RTVSPost2010Prop55
280
     0
102
RTVSPost2010PropOp55
 70
     1
102
RTVSPost2010Prop56
140
1.0
102
RTVSPost2010PropOp56
 70
     0
102
RTVSPost2010Prop57
140
1.0
102
RTVSPost2010PropOp57
 70
     0
102
RTVSPropertyOp0
 70
     0
102
RTVSPropertyOp1
 70
     0
102
RTVSPropertyOp2
 70
     0
102
RTVSPropertyOp3
 70
     0
102
RTVSPropertyOp4
 70
     0
102
RTVSPropertyOp5
 70
     0
102
RTVSPropertyOp6
 70
     0
102
RTVSPropertyOp7
 70
     0
102
RTVSPropertyOp8
 70
     0
102
RTVSPropertyOp9
 70
     0
102
RTVSPropertyOp10
 70
     0
102
RTVSPropertyOp11
 70
     0
102
RTVSPropertyOp12
 70
     0
102
RTVSPropertyOp13
 70
     0
102
RTVSPropertyOp14
 70
     2
102
RTVSPropertyOp15
 70
     0
102
RTVSPropertyOp16
 70
     0
102
RTVSPropertyOp17
 70
     0
102
RTVSPropertyOp18
 70
     0
102
RTVSPropertyOp19
 70
     0
102
RTVSPropertyOp20
 70
     0
102
RTVSPropertyOp21
 70
     0
102
RTVSPropertyOp22
 70
     0
102
RTVSPropertyOp23
 70
     0
102
RTVSPropertyOp24
 70
     0
102
RTVSPropertyOp25
 70
     0
102
RTVSPropertyOp26
 70
     0
102
RTVSPropertyOp27
 70
     0
102
RTVSPropertyOp28
 70
     1
102
RTVSPropertyOp29
 70
     1
102
RTVSPropertyOp30
 70
     1
102
RTVSPropertyOp31
 70
     1
102
RTVSPropertyOp32
 70
     1
102
RTVSPropertyOp33
 70
     1
102
RTVSPropertyOp34
 70
     1
102
RTVSPropertyOp35
 70
     1
102
RTVSPropertyOp36
 70
     1
102
RTVSPropertyOp37
 70
     0
102
RTVSPropertyOp38
 70
     0
102
RTVSPropertyOp39
 70
     0
102
RTVSPropertyOp40
 70
     0
102
RTVSPropertyOp41
 70
     0
102
RTVSPropertyOp42
 70
     0
102
RTVSPropertyOp43
 70
     0
102
RTVSPropertyOp44
 70
     0
102
RTVSPropertyOp45
 70
     1
102
RTVSPropertyOp46
 70
     0
102
RTVSPropertyOp47
 70
     0
102
RTVSPropertyOp48
 70
     0
102
RTVSPropertyOp49
 70
     1
102
RTVSPropertyOp50
 70
     0
102
RTVSPropertyOp51
 70
     0
102
RTVSPropertyOp52
 70
     0
102
RTVSPropertyOp53
 70
     0
102
RTVSPropertyOp54
 70
     0
102
RTVSPropertyOp55
 70
     1
102
RTVSPropertyOp56
 70
     0
102
RTVSPropertyOp57
 70
     0
102
RTVSPropertyOp58
 70
     0
102
RTVSPropertyOp59
 70
     0
102
RTVSPropertyOp60
 70
     0
102
RTVSPropertyOp61
 70
     0
102
RTVSPropertyOp62
 70
     0
  0
XRECORD
  5
9FBF
102
{ACAD_REACTORS
330
9FBE
102
}
330
9FBE
100
AcDbXrecord
280
     1
102
RTVSPost2010Prop28
280
     0
102
RTVSPost2010PropOp28
 70
     1
102
RTVSPost2010Prop29
280
     1
102
RTVSPost2010PropOp29
 70
     1
102
RTVSPost2010Prop30
280
     1
102
RTVSPost2010PropOp30
 70
     1
102
RTVSPost2010Prop31
280
     0
102
RTVSPost2010PropOp31
 70
     1
102
RTVSPost2010Prop32
280
     0
102
RTVSPost2010PropOp32
 70
     1
102
RTVSPost2010Prop33
280
     0
102
RTVSPost2010PropOp33
 70
     1
102
RTVSPost2010Prop34
280
     0
102
RTVSPost2010PropOp34
 70
     1
102
RTVSPost2010Prop35
280
     0
102
RTVSPost2010PropOp35
 70
     1
102
RTVSPost2010Prop36
280
     0
102
RTVSPost2010PropOp36
 70
     1
102
RTVSPost2010Prop37
 90
       50
102
RTVSPost2010PropOp37
 70
     1
102
RTVSPost2010Prop38
140
0.0
102
RTVSPost2010PropOp38
 70
     1
102
RTVSPost2010Prop39
140
1.0
102
RTVSPost2010PropOp39
 70
     1
102
RTVSPost2010Prop40
 90
        0
102
RTVSPost2010PropOp40
 70
     1
102
RTVSPost2010Prop41ColorIndex
 90
       18
102
RTVSPost2010Prop41ColorRGB
 90
        0
102
RTVSPost2010PropOp41
 70
     1
102
RTVSPost2010Prop42
 90
       50
102
RTVSPost2010PropOp42
 70
     1
102
RTVSPost2010Prop43
 90
        3
102
RTVSPost2010PropOp43
 70
     1
102
RTVSPost2010Prop44ColorIndex
 90
        5
102
RTVSPost2010Prop44ColorRGB
 90
      255
102
RTVSPost2010PropOp44
 70
     1
102
RTVSPost2010Prop45
280
     0
102
RTVSPost2010PropOp45
 70
     1
102
RTVSPost2010Prop46
 90
       50
102
RTVSPost2010PropOp46
 70
     1
102
RTVSPost2010Prop47
 90
       50
102
RTVSPost2010PropOp47
 70
     1
102
RTVSPost2010Prop48
 90
       50
102
RTVSPost2010PropOp48
 70
     1
102
RTVSPost2010Prop49
280
     0
102
RTVSPost2010PropOp49
 70
     1
102
RTVSPost2010Prop50
 90
       50
102
RTVSPost2010PropOp50
 70
     1
102
RTVSPost2010Prop51ColorIndex
 90
      256
102
RTVSPost2010Prop51ColorRGB
 90
-16777216
102
RTVSPost2010PropOp51
 70
     0
102
RTVSPost2010Prop52
140
1.0
102
RTVSPost2010PropOp52
 70
     0
102
RTVSPost2010Prop53
 90
        2
102
RTVSPost2010PropOp53
 70
     1
102
RTVSPost2010Prop54
  1
strokes_ogs.tif
102
RTVSPost2010PropOp54
 70
     1
102
RTVSPost2010Prop55
280
     0
102
RTVSPost2010PropOp55
 70
     1
102
RTVSPost2010Prop56
140
1.0
102
RTVSPost2010PropOp56
 70
     1
102
RTVSPost2010Prop57
140
1.0
102
RTVSPost2010PropOp57
 70
     1
102
RTVSPropertyOp0
 70
     1
102
RTVSPropertyOp1
 70
     1
102
RTVSPropertyOp2
 70
     1
102
RTVSPropertyOp3
 70
     1
102
RTVSPropertyOp4
 70
     1
102
RTVSPropertyOp5
 70
     1
102
RTVSPropertyOp6
 70
     1
102
RTVSPropertyOp7
 70
     1
102
RTVSPropertyOp8
 70
     1
102
RTVSPropertyOp9
 70
     1
102
RTVSPropertyOp10
 70
     1
102
RTVSPropertyOp11
 70
     1
102
RTVSPropertyOp12
 70
     1
102
RTVSPropertyOp13
 70
     1
102
RTVSPropertyOp14
 70
     1
102
RTVSPropertyOp15
 70
     1
102
RTVSPropertyOp16
 70
     1
102
RTVSPropertyOp17
 70
     1
102
RTVSPropertyOp18
 70
     1
102
RTVSPropertyOp19
 70
     1
102
RTVSPropertyOp20
 70
     1
102
RTVSPropertyOp21
 70
     1
102
RTVSPropertyOp22
 70
     1
102
RTVSPropertyOp23
 70
     1
102
RTVSPropertyOp24
 70
     1
102
RTVSPropertyOp25
 70
     1
102
RTVSPropertyOp26
 70
     1
102
RTVSPropertyOp27
 70
     1
102
RTVSPropertyOp28
 70
     1
102
RTVSPropertyOp29
 70
     1
102
RTVSPropertyOp30
 70
     1
102
RTVSPropertyOp31
 70
     1
102
RTVSPropertyOp32
 70
     1
102
RTVSPropertyOp33
 70
     1
102
RTVSPropertyOp34
 70
     1
102
RTVSPropertyOp35
 70
     1
102
RTVSPropertyOp36
 70
     1
102
RTVSPropertyOp37
 70
     1
102
RTVSPropertyOp38
 70
     1
102
RTVSPropertyOp39
 70
     1
102
RTVSPropertyOp40
 70
     1
102
RTVSPropertyOp41
 70
     1
102
RTVSPropertyOp42
 70
     1
102
RTVSPropertyOp43
 70
     1
102
RTVSPropertyOp44
 70
     1
102
RTVSPropertyOp45
 70
     1
102
RTVSPropertyOp46
 70
     1
102
RTVSPropertyOp47
 70
     1
102
RTVSPropertyOp48
 70
     1
102
RTVSPropertyOp49
 70
     1
102
RTVSPropertyOp50
 70
     1
102
RTVSPropertyOp51
 70
     0
102
RTVSPropertyOp52
 70
     0
102
RTVSPropertyOp53
 70
     1
102
RTVSPropertyOp54
 70
     1
102
RTVSPropertyOp55
 70
     1
102
RTVSPropertyOp56
 70
     1
102
RTVSPropertyOp57
 70
     1
102
RTVSPropertyOp58
 70
     1
102
RTVSPropertyOp59
 70
     1
102
RTVSPropertyOp60
 70
     1
102
RTVSPropertyOp61
 70
     1
102
RTVSPropertyOp62
 70
     1
  0
XRECORD
  5
9FD1
102
{ACAD_REACTORS
330
9FD0
102
}
330
9FD0
100
AcDbXrecord
280
     1
102
RTVSPost2010Prop28
280
     0
102
RTVSPost2010PropOp28
 70
     1
102
RTVSPost2010Prop29
280
     1
102
RTVSPost2010PropOp29
 70
     1
102
RTVSPost2010Prop30
280
     1
102
RTVSPost2010PropOp30
 70
     1
102
RTVSPost2010Prop31
280
     0
102
RTVSPost2010PropOp31
 70
     1
102
RTVSPost2010Prop32
280
     0
102
RTVSPost2010PropOp32
 70
     1
102
RTVSPost2010Prop33
280
     0
102
RTVSPost2010PropOp33
 70
     1
102
RTVSPost2010Prop34
280
     0
102
RTVSPost2010PropOp34
 70
     1
102
RTVSPost2010Prop35
280
     0
102
RTVSPost2010PropOp35
 70
     1
102
RTVSPost2010Prop36
280
     0
102
RTVSPost2010PropOp36
 70
     1
102
RTVSPost2010Prop37
 90
       50
102
RTVSPost2010PropOp37
 70
     0
102
RTVSPost2010Prop38
140
0.0
102
RTVSPost2010PropOp38
 70
     0
102
RTVSPost2010Prop39
140
1.0
102
RTVSPost2010PropOp39
 70
     0
102
RTVSPost2010Prop40
 90
        0
102
RTVSPost2010PropOp40
 70
     0
102
RTVSPost2010Prop41ColorIndex
 90
       18
102
RTVSPost2010Prop41ColorRGB
 90
        0
102
RTVSPost2010PropOp41
 70
     0
102
RTVSPost2010Prop42
 90
       50
102
RTVSPost2010PropOp42
 70
     0
102
RTVSPost2010Prop43
 90
        3
102
RTVSPost2010PropOp43
 70
     0
102
RTVSPost2010Prop44ColorIndex
 90
        5
102
RTVSPost2010Prop44ColorRGB
 90
      255
102
RTVSPost2010PropOp44
 70
     0
102
RTVSPost2010Prop45
280
     0
102
RTVSPost2010PropOp45
 70
     1
102
RTVSPost2010Prop46
 90
       50
102
RTVSPost2010PropOp46
 70
     0
102
RTVSPost2010Prop47
 90
       50
102
RTVSPost2010PropOp47
 70
     0
102
RTVSPost2010Prop48
 90
       50
102
RTVSPost2010PropOp48
 70
     0
102
RTVSPost2010Prop49
280
     0
102
RTVSPost2010PropOp49
 70
     1
102
RTVSPost2010Prop50
 90
       50
102
RTVSPost2010PropOp50
 70
     0
102
RTVSPost2010Prop51ColorIndex
 90
      256
102
RTVSPost2010Prop51ColorRGB
 90
-16777216
102
RTVSPost2010PropOp51
 70
     0
102
RTVSPost2010Prop52
140
1.0
102
RTVSPost2010PropOp52
 70
     0
102
RTVSPost2010Prop53
 90
        2
102
RTVSPost2010PropOp53
 70
     0
102
RTVSPost2010Prop54
  1
strokes_ogs.tif
102
RTVSPost2010PropOp54
 70
     0
102
RTVSPost2010Prop55
280
     0
102
RTVSPost2010PropOp55
 70
     1
102
RTVSPost2010Prop56
140
1.0
102
RTVSPost2010PropOp56
 70
     0
102
RTVSPost2010Prop57
140
1.0
102
RTVSPost2010PropOp57
 70
     0
102
RTVSPropertyOp0
 70
     0
102
RTVSPropertyOp1
 70
     0
102
RTVSPropertyOp2
 70
     0
102
RTVSPropertyOp3
 70
     0
102
RTVSPropertyOp4
 70
     0
102
RTVSPropertyOp5
 70
     0
102
RTVSPropertyOp6
 70
     0
102
RTVSPropertyOp7
 70
     0
102
RTVSPropertyOp8
 70
     0
102
RTVSPropertyOp9
 70
     0
102
RTVSPropertyOp10
 70
     0
102
RTVSPropertyOp11
 70
     0
102
RTVSPropertyOp12
 70
     0
102
RTVSPropertyOp13
 70
     0
102
RTVSPropertyOp14
 70
     2
102
RTVSPropertyOp15
 70
     0
102
RTVSPropertyOp16
 70
     0
102
RTVSPropertyOp17
 70
     0
102
RTVSPropertyOp18
 70
     0
102
RTVSPropertyOp19
 70
     0
102
RTVSPropertyOp20
 70
     0
102
RTVSPropertyOp21
 70
     0
102
RTVSPropertyOp22
 70
     0
102
RTVSPropertyOp23
 70
     0
102
RTVSPropertyOp24
 70
     0
102
RTVSPropertyOp25
 70
     0
102
RTVSPropertyOp26
 70
     0
102
RTVSPropertyOp27
 70
     0
102
RTVSPropertyOp28
 70
     1
102
RTVSPropertyOp29
 70
     1
102
RTVSPropertyOp30
 70
     1
102
RTVSPropertyOp31
 70
     1
102
RTVSPropertyOp32
 70
     1
102
RTVSPropertyOp33
 70
     1
102
RTVSPropertyOp34
 70
     1
102
RTVSPropertyOp35
 70
     1
102
RTVSPropertyOp36
 70
     1
102
RTVSPropertyOp37
 70
     0
102
RTVSPropertyOp38
 70
     0
102
RTVSPropertyOp39
 70
     0
102
RTVSPropertyOp40
 70
     0
102
RTVSPropertyOp41
 70
     0
102
RTVSPropertyOp42
 70
     0
102
RTVSPropertyOp43
 70
     0
102
RTVSPropertyOp44
 70
     0
102
RTVSPropertyOp45
 70
     1
102
RTVSPropertyOp46
 70
     0
102
RTVSPropertyOp47
 70
     0
102
RTVSPropertyOp48
 70
     0
102
RTVSPropertyOp49
 70
     1
102
RTVSPropertyOp50
 70
     0
102
RTVSPropertyOp51
 70
     0
102
RTVSPropertyOp52
 70
     0
102
RTVSPropertyOp53
 70
     0
102
RTVSPropertyOp54
 70
     0
102
RTVSPropertyOp55
 70
     1
102
RTVSPropertyOp56
 70
     0
102
RTVSPropertyOp57
 70
     0
102
RTVSPropertyOp58
 70
     0
102
RTVSPropertyOp59
 70
     0
102
RTVSPropertyOp60
 70
     0
102
RTVSPropertyOp61
 70
     0
102
RTVSPropertyOp62
 70
     0
  0
XRECORD
  5
9FB7
102
{ACAD_REACTORS
330
9FB6
102
}
330
9FB6
100
AcDbXrecord
280
     1
102
RTVSPost2010Prop28
280
     0
102
RTVSPost2010PropOp28
 70
     1
102
RTVSPost2010Prop29
280
     1
102
RTVSPost2010PropOp29
 70
     1
102
RTVSPost2010Prop30
280
     1
102
RTVSPost2010PropOp30
 70
     1
102
RTVSPost2010Prop31
280
     0
102
RTVSPost2010PropOp31
 70
     1
102
RTVSPost2010Prop32
280
     0
102
RTVSPost2010PropOp32
 70
     1
102
RTVSPost2010Prop33
280
     0
102
RTVSPost2010PropOp33
 70
     1
102
RTVSPost2010Prop34
280
     0
102
RTVSPost2010PropOp34
 70
     1
102
RTVSPost2010Prop35
280
     0
102
RTVSPost2010PropOp35
 70
     1
102
RTVSPost2010Prop36
280
     0
102
RTVSPost2010PropOp36
 70
     1
102
RTVSPost2010Prop37
 90
       50
102
RTVSPost2010PropOp37
 70
     1
102
RTVSPost2010Prop38
140
0.0
102
RTVSPost2010PropOp38
 70
     1
102
RTVSPost2010Prop39
140
1.0
102
RTVSPost2010PropOp39
 70
     1
102
RTVSPost2010Prop40
 90
        0
102
RTVSPost2010PropOp40
 70
     1
102
RTVSPost2010Prop41ColorIndex
 90
       18
102
RTVSPost2010Prop41ColorRGB
 90
        0
102
RTVSPost2010PropOp41
 70
     1
102
RTVSPost2010Prop42
 90
       50
102
RTVSPost2010PropOp42
 70
     1
102
RTVSPost2010Prop43
 90
        3
102
RTVSPost2010PropOp43
 70
     1
102
RTVSPost2010Prop44ColorIndex
 90
        5
102
RTVSPost2010Prop44ColorRGB
 90
      255
102
RTVSPost2010PropOp44
 70
     1
102
RTVSPost2010Prop45
280
     0
102
RTVSPost2010PropOp45
 70
     1
102
RTVSPost2010Prop46
 90
       50
102
RTVSPost2010PropOp46
 70
     1
102
RTVSPost2010Prop47
 90
       50
102
RTVSPost2010PropOp47
 70
     1
102
RTVSPost2010Prop48
 90
       50
102
RTVSPost2010PropOp48
 70
     1
102
RTVSPost2010Prop49
280
     0
102
RTVSPost2010PropOp49
 70
     1
102
RTVSPost2010Prop50
 90
       50
102
RTVSPost2010PropOp50
 70
     1
102
RTVSPost2010Prop51ColorIndex
 90
      256
102
RTVSPost2010Prop51ColorRGB
 90
-16777216
102
RTVSPost2010PropOp51
 70
     0
102
RTVSPost2010Prop52
140
1.0
102
RTVSPost2010PropOp52
 70
     0
102
RTVSPost2010Prop53
 90
        2
102
RTVSPost2010PropOp53
 70
     1
102
RTVSPost2010Prop54
  1
strokes_ogs.tif
102
RTVSPost2010PropOp54
 70
     1
102
RTVSPost2010Prop55
280
     0
102
RTVSPost2010PropOp55
 70
     1
102
RTVSPost2010Prop56
140
1.0
102
RTVSPost2010PropOp56
 70
     1
102
RTVSPost2010Prop57
140
1.0
102
RTVSPost2010PropOp57
 70
     1
102
RTVSPropertyOp0
 70
     1
102
RTVSPropertyOp1
 70
     1
102
RTVSPropertyOp2
 70
     1
102
RTVSPropertyOp3
 70
     1
102
RTVSPropertyOp4
 70
     1
102
RTVSPropertyOp5
 70
     1
102
RTVSPropertyOp6
 70
     1
102
RTVSPropertyOp7
 70
     1
102
RTVSPropertyOp8
 70
     1
102
RTVSPropertyOp9
 70
     1
102
RTVSPropertyOp10
 70
     1
102
RTVSPropertyOp11
 70
     1
102
RTVSPropertyOp12
 70
     1
102
RTVSPropertyOp13
 70
     1
102
RTVSPropertyOp14
 70
     1
102
RTVSPropertyOp15
 70
     1
102
RTVSPropertyOp16
 70
     1
102
RTVSPropertyOp17
 70
     1
102
RTVSPropertyOp18
 70
     1
102
RTVSPropertyOp19
 70
     1
102
RTVSPropertyOp20
 70
     1
102
RTVSPropertyOp21
 70
     1
102
RTVSPropertyOp22
 70
     1
102
RTVSPropertyOp23
 70
     1
102
RTVSPropertyOp24
 70
     1
102
RTVSPropertyOp25
 70
     1
102
RTVSPropertyOp26
 70
     1
102
RTVSPropertyOp27
 70
     1
102
RTVSPropertyOp28
 70
     1
102
RTVSPropertyOp29
 70
     1
102
RTVSPropertyOp30
 70
     1
102
RTVSPropertyOp31
 70
     1
102
RTVSPropertyOp32
 70
     1
102
RTVSPropertyOp33
 70
     1
102
RTVSPropertyOp34
 70
     1
102
RTVSPropertyOp35
 70
     1
102
RTVSPropertyOp36
 70
     1
102
RTVSPropertyOp37
 70
     1
102
RTVSPropertyOp38
 70
     1
102
RTVSPropertyOp39
 70
     1
102
RTVSPropertyOp40
 70
     1
102
RTVSPropertyOp41
 70
     1
102
RTVSPropertyOp42
 70
     1
102
RTVSPropertyOp43
 70
     1
102
RTVSPropertyOp44
 70
     1
102
RTVSPropertyOp45
 70
     1
102
RTVSPropertyOp46
 70
     1
102
RTVSPropertyOp47
 70
     1
102
RTVSPropertyOp48
 70
     1
102
RTVSPropertyOp49
 70
     1
102
RTVSPropertyOp50
 70
     1
102
RTVSPropertyOp51
 70
     0
102
RTVSPropertyOp52
 70
     0
102
RTVSPropertyOp53
 70
     1
102
RTVSPropertyOp54
 70
     1
102
RTVSPropertyOp55
 70
     1
102
RTVSPropertyOp56
 70
     1
102
RTVSPropertyOp57
 70
     1
102
RTVSPropertyOp58
 70
     1
102
RTVSPropertyOp59
 70
     1
102
RTVSPropertyOp60
 70
     1
102
RTVSPropertyOp61
 70
     1
102
RTVSPropertyOp62
 70
     1
  0
XRECORD
  5
9FCD
102
{ACAD_REACTORS
330
9FCC
102
}
330
9FCC
100
AcDbXrecord
280
     1
102
RTVSPost2010Prop28
280
     0
102
RTVSPost2010PropOp28
 70
     1
102
RTVSPost2010Prop29
280
     1
102
RTVSPost2010PropOp29
 70
     1
102
RTVSPost2010Prop30
280
     1
102
RTVSPost2010PropOp30
 70
     1
102
RTVSPost2010Prop31
280
     0
102
RTVSPost2010PropOp31
 70
     1
102
RTVSPost2010Prop32
280
     0
102
RTVSPost2010PropOp32
 70
     1
102
RTVSPost2010Prop33
280
     0
102
RTVSPost2010PropOp33
 70
     1
102
RTVSPost2010Prop34
280
     0
102
RTVSPost2010PropOp34
 70
     1
102
RTVSPost2010Prop35
280
     0
102
RTVSPost2010PropOp35
 70
     1
102
RTVSPost2010Prop36
280
     0
102
RTVSPost2010PropOp36
 70
     1
102
RTVSPost2010Prop37
 90
       50
102
RTVSPost2010PropOp37
 70
     1
102
RTVSPost2010Prop38
140
0.0
102
RTVSPost2010PropOp38
 70
     1
102
RTVSPost2010Prop39
140
1.0
102
RTVSPost2010PropOp39
 70
     1
102
RTVSPost2010Prop40
 90
        0
102
RTVSPost2010PropOp40
 70
     1
102
RTVSPost2010Prop41ColorIndex
 90
       18
102
RTVSPost2010Prop41ColorRGB
 90
        0
102
RTVSPost2010PropOp41
 70
     1
102
RTVSPost2010Prop42
 90
       50
102
RTVSPost2010PropOp42
 70
     1
102
RTVSPost2010Prop43
 90
        3
102
RTVSPost2010PropOp43
 70
     1
102
RTVSPost2010Prop44ColorIndex
 90
        5
102
RTVSPost2010Prop44ColorRGB
 90
      255
102
RTVSPost2010PropOp44
 70
     1
102
RTVSPost2010Prop45
280
     0
102
RTVSPost2010PropOp45
 70
     1
102
RTVSPost2010Prop46
 90
       50
102
RTVSPost2010PropOp46
 70
     1
102
RTVSPost2010Prop47
 90
       50
102
RTVSPost2010PropOp47
 70
     1
102
RTVSPost2010Prop48
 90
       50
102
RTVSPost2010PropOp48
 70
     1
102
RTVSPost2010Prop49
280
     0
102
RTVSPost2010PropOp49
 70
     1
102
RTVSPost2010Prop50
 90
       50
102
RTVSPost2010PropOp50
 70
     1
102
RTVSPost2010Prop51ColorIndex
 90
      256
102
RTVSPost2010Prop51ColorRGB
 90
-16777216
102
RTVSPost2010PropOp51
 70
     0
102
RTVSPost2010Prop52
140
1.0
102
RTVSPost2010PropOp52
 70
     0
102
RTVSPost2010Prop53
 90
        2
102
RTVSPost2010PropOp53
 70
     1
102
RTVSPost2010Prop54
  1
strokes_ogs.tif
102
RTVSPost2010PropOp54
 70
     1
102
RTVSPost2010Prop55
280
     0
102
RTVSPost2010PropOp55
 70
     1
102
RTVSPost2010Prop56
140
1.0
102
RTVSPost2010PropOp56
 70
     1
102
RTVSPost2010Prop57
140
1.0
102
RTVSPost2010PropOp57
 70
     1
102
RTVSPropertyOp0
 70
     1
102
RTVSPropertyOp1
 70
     1
102
RTVSPropertyOp2
 70
     1
102
RTVSPropertyOp3
 70
     1
102
RTVSPropertyOp4
 70
     1
102
RTVSPropertyOp5
 70
     1
102
RTVSPropertyOp6
 70
     1
102
RTVSPropertyOp7
 70
     1
102
RTVSPropertyOp8
 70
     1
102
RTVSPropertyOp9
 70
     1
102
RTVSPropertyOp10
 70
     1
102
RTVSPropertyOp11
 70
     1
102
RTVSPropertyOp12
 70
     1
102
RTVSPropertyOp13
 70
     1
102
RTVSPropertyOp14
 70
     1
102
RTVSPropertyOp15
 70
     1
102
RTVSPropertyOp16
 70
     1
102
RTVSPropertyOp17
 70
     1
102
RTVSPropertyOp18
 70
     1
102
RTVSPropertyOp19
 70
     1
102
RTVSPropertyOp20
 70
     1
102
RTVSPropertyOp21
 70
     1
102
RTVSPropertyOp22
 70
     1
102
RTVSPropertyOp23
 70
     1
102
RTVSPropertyOp24
 70
     1
102
RTVSPropertyOp25
 70
     1
102
RTVSPropertyOp26
 70
     1
102
RTVSPropertyOp27
 70
     1
102
RTVSPropertyOp28
 70
     1
102
RTVSPropertyOp29
 70
     1
102
RTVSPropertyOp30
 70
     1
102
RTVSPropertyOp31
 70
     1
102
RTVSPropertyOp32
 70
     1
102
RTVSPropertyOp33
 70
     1
102
RTVSPropertyOp34
 70
     1
102
RTVSPropertyOp35
 70
     1
102
RTVSPropertyOp36
 70
     1
102
RTVSPropertyOp37
 70
     1
102
RTVSPropertyOp38
 70
     1
102
RTVSPropertyOp39
 70
     1
102
RTVSPropertyOp40
 70
     1
102
RTVSPropertyOp41
 70
     1
102
RTVSPropertyOp42
 70
     1
102
RTVSPropertyOp43
 70
     1
102
RTVSPropertyOp44
 70
     1
102
RTVSPropertyOp45
 70
     1
102
RTVSPropertyOp46
 70
     1
102
RTVSPropertyOp47
 70
     1
102
RTVSPropertyOp48
 70
     1
102
RTVSPropertyOp49
 70
     1
102
RTVSPropertyOp50
 70
     1
102
RTVSPropertyOp51
 70
     0
102
RTVSPropertyOp52
 70
     0
102
RTVSPropertyOp53
 70
     1
102
RTVSPropertyOp54
 70
     1
102
RTVSPropertyOp55
 70
     1
102
RTVSPropertyOp56
 70
     1
102
RTVSPropertyOp57
 70
     1
102
RTVSPropertyOp58
 70
     1
102
RTVSPropertyOp59
 70
     1
102
RTVSPropertyOp60
 70
     1
102
RTVSPropertyOp61
 70
     1
102
RTVSPropertyOp62
 70
     1
  0
XRECORD
  5
9FCB
102
{ACAD_REACTORS
330
9FCA
102
}
330
9FCA
100
AcDbXrecord
280
     1
102
RTVSPost2010Prop28
280
     0
102
RTVSPost2010PropOp28
 70
     1
102
RTVSPost2010Prop29
280
     1
102
RTVSPost2010PropOp29
 70
     1
102
RTVSPost2010Prop30
280
     1
102
RTVSPost2010PropOp30
 70
     1
102
RTVSPost2010Prop31
280
     0
102
RTVSPost2010PropOp31
 70
     1
102
RTVSPost2010Prop32
280
     0
102
RTVSPost2010PropOp32
 70
     1
102
RTVSPost2010Prop33
280
     0
102
RTVSPost2010PropOp33
 70
     1
102
RTVSPost2010Prop34
280
     0
102
RTVSPost2010PropOp34
 70
     1
102
RTVSPost2010Prop35
280
     0
102
RTVSPost2010PropOp35
 70
     1
102
RTVSPost2010Prop36
280
     0
102
RTVSPost2010PropOp36
 70
     1
102
RTVSPost2010Prop37
 90
       50
102
RTVSPost2010PropOp37
 70
     1
102
RTVSPost2010Prop38
140
0.0
102
RTVSPost2010PropOp38
 70
     1
102
RTVSPost2010Prop39
140
1.0
102
RTVSPost2010PropOp39
 70
     1
102
RTVSPost2010Prop40
 90
        0
102
RTVSPost2010PropOp40
 70
     1
102
RTVSPost2010Prop41ColorIndex
 90
       18
102
RTVSPost2010Prop41ColorRGB
 90
        0
102
RTVSPost2010PropOp41
 70
     1
102
RTVSPost2010Prop42
 90
       50
102
RTVSPost2010PropOp42
 70
     1
102
RTVSPost2010Prop43
 90
        3
102
RTVSPost2010PropOp43
 70
     1
102
RTVSPost2010Prop44ColorIndex
 90
        5
102
RTVSPost2010Prop44ColorRGB
 90
      255
102
RTVSPost2010PropOp44
 70
     1
102
RTVSPost2010Prop45
280
     0
102
RTVSPost2010PropOp45
 70
     1
102
RTVSPost2010Prop46
 90
       50
102
RTVSPost2010PropOp46
 70
     1
102
RTVSPost2010Prop47
 90
       50
102
RTVSPost2010PropOp47
 70
     1
102
RTVSPost2010Prop48
 90
       50
102
RTVSPost2010PropOp48
 70
     1
102
RTVSPost2010Prop49
280
     0
102
RTVSPost2010PropOp49
 70
     1
102
RTVSPost2010Prop50
 90
       50
102
RTVSPost2010PropOp50
 70
     1
102
RTVSPost2010Prop51ColorIndex
 90
      256
102
RTVSPost2010Prop51ColorRGB
 90
-16777216
102
RTVSPost2010PropOp51
 70
     0
102
RTVSPost2010Prop52
140
1.0
102
RTVSPost2010PropOp52
 70
     0
102
RTVSPost2010Prop53
 90
        2
102
RTVSPost2010PropOp53
 70
     1
102
RTVSPost2010Prop54
  1
strokes_ogs.tif
102
RTVSPost2010PropOp54
 70
     1
102
RTVSPost2010Prop55
280
     0
102
RTVSPost2010PropOp55
 70
     1
102
RTVSPost2010Prop56
140
1.0
102
RTVSPost2010PropOp56
 70
     1
102
RTVSPost2010Prop57
140
1.0
102
RTVSPost2010PropOp57
 70
     1
102
RTVSPropertyOp0
 70
     1
102
RTVSPropertyOp1
 70
     1
102
RTVSPropertyOp2
 70
     1
102
RTVSPropertyOp3
 70
     1
102
RTVSPropertyOp4
 70
     1
102
RTVSPropertyOp5
 70
     1
102
RTVSPropertyOp6
 70
     1
102
RTVSPropertyOp7
 70
     1
102
RTVSPropertyOp8
 70
     1
102
RTVSPropertyOp9
 70
     1
102
RTVSPropertyOp10
 70
     1
102
RTVSPropertyOp11
 70
     1
102
RTVSPropertyOp12
 70
     1
102
RTVSPropertyOp13
 70
     1
102
RTVSPropertyOp14
 70
     1
102
RTVSPropertyOp15
 70
     1
102
RTVSPropertyOp16
 70
     1
102
RTVSPropertyOp17
 70
     1
102
RTVSPropertyOp18
 70
     1
102
RTVSPropertyOp19
 70
     1
102
RTVSPropertyOp20
 70
     1
102
RTVSPropertyOp21
 70
     1
102
RTVSPropertyOp22
 70
     1
102
RTVSPropertyOp23
 70
     1
102
RTVSPropertyOp24
 70
     1
102
RTVSPropertyOp25
 70
     1
102
RTVSPropertyOp26
 70
     1
102
RTVSPropertyOp27
 70
     1
102
RTVSPropertyOp28
 70
     1
102
RTVSPropertyOp29
 70
     1
102
RTVSPropertyOp30
 70
     1
102
RTVSPropertyOp31
 70
     1
102
RTVSPropertyOp32
 70
     1
102
RTVSPropertyOp33
 70
     1
102
RTVSPropertyOp34
 70
     1
102
RTVSPropertyOp35
 70
     1
102
RTVSPropertyOp36
 70
     1
102
RTVSPropertyOp37
 70
     1
102
RTVSPropertyOp38
 70
     1
102
RTVSPropertyOp39
 70
     1
102
RTVSPropertyOp40
 70
     1
102
RTVSPropertyOp41
 70
     1
102
RTVSPropertyOp42
 70
     1
102
RTVSPropertyOp43
 70
     1
102
RTVSPropertyOp44
 70
     1
102
RTVSPropertyOp45
 70
     1
102
RTVSPropertyOp46
 70
     1
102
RTVSPropertyOp47
 70
     1
102
RTVSPropertyOp48
 70
     1
102
RTVSPropertyOp49
 70
     1
102
RTVSPropertyOp50
 70
     1
102
RTVSPropertyOp51
 70
     0
102
RTVSPropertyOp52
 70
     0
102
RTVSPropertyOp53
 70
     1
102
RTVSPropertyOp54
 70
     1
102
RTVSPropertyOp55
 70
     1
102
RTVSPropertyOp56
 70
     1
102
RTVSPropertyOp57
 70
     1
102
RTVSPropertyOp58
 70
     1
102
RTVSPropertyOp59
 70
     1
102
RTVSPropertyOp60
 70
     1
102
RTVSPropertyOp61
 70
     1
102
RTVSPropertyOp62
 70
     1
  0
XRECORD
  5
9FC5
102
{ACAD_REACTORS
330
9FC4
102
}
330
9FC4
100
AcDbXrecord
280
     1
102
RTVSPost2010Prop28
280
     0
102
RTVSPost2010PropOp28
 70
     1
102
RTVSPost2010Prop29
280
     1
102
RTVSPost2010PropOp29
 70
     1
102
RTVSPost2010Prop30
280
     1
102
RTVSPost2010PropOp30
 70
     1
102
RTVSPost2010Prop31
280
     0
102
RTVSPost2010PropOp31
 70
     1
102
RTVSPost2010Prop32
280
     0
102
RTVSPost2010PropOp32
 70
     1
102
RTVSPost2010Prop33
280
     0
102
RTVSPost2010PropOp33
 70
     1
102
RTVSPost2010Prop34
280
     0
102
RTVSPost2010PropOp34
 70
     1
102
RTVSPost2010Prop35
280
     0
102
RTVSPost2010PropOp35
 70
     1
102
RTVSPost2010Prop36
280
     0
102
RTVSPost2010PropOp36
 70
     1
102
RTVSPost2010Prop37
 90
       50
102
RTVSPost2010PropOp37
 70
     1
102
RTVSPost2010Prop38
140
0.0
102
RTVSPost2010PropOp38
 70
     1
102
RTVSPost2010Prop39
140
1.0
102
RTVSPost2010PropOp39
 70
     1
102
RTVSPost2010Prop40
 90
        0
102
RTVSPost2010PropOp40
 70
     1
102
RTVSPost2010Prop41ColorIndex
 90
       18
102
RTVSPost2010Prop41ColorRGB
 90
        0
102
RTVSPost2010PropOp41
 70
     1
102
RTVSPost2010Prop42
 90
       50
102
RTVSPost2010PropOp42
 70
     1
102
RTVSPost2010Prop43
 90
        3
102
RTVSPost2010PropOp43
 70
     1
102
RTVSPost2010Prop44ColorIndex
 90
        5
102
RTVSPost2010Prop44ColorRGB
 90
      255
102
RTVSPost2010PropOp44
 70
     1
102
RTVSPost2010Prop45
280
     0
102
RTVSPost2010PropOp45
 70
     1
102
RTVSPost2010Prop46
 90
       50
102
RTVSPost2010PropOp46
 70
     1
102
RTVSPost2010Prop47
 90
       50
102
RTVSPost2010PropOp47
 70
     1
102
RTVSPost2010Prop48
 90
       50
102
RTVSPost2010PropOp48
 70
     1
102
RTVSPost2010Prop49
280
     0
102
RTVSPost2010PropOp49
 70
     1
102
RTVSPost2010Prop50
 90
       50
102
RTVSPost2010PropOp50
 70
     1
102
RTVSPost2010Prop51ColorIndex
 90
      256
102
RTVSPost2010Prop51ColorRGB
 90
-16777216
102
RTVSPost2010PropOp51
 70
     0
102
RTVSPost2010Prop52
140
1.0
102
RTVSPost2010PropOp52
 70
     0
102
RTVSPost2010Prop53
 90
        2
102
RTVSPost2010PropOp53
 70
     1
102
RTVSPost2010Prop54
  1
strokes_ogs.tif
102
RTVSPost2010PropOp54
 70
     1
102
RTVSPost2010Prop55
280
     0
102
RTVSPost2010PropOp55
 70
     1
102
RTVSPost2010Prop56
140
1.0
102
RTVSPost2010PropOp56
 70
     1
102
RTVSPost2010Prop57
140
1.0
102
RTVSPost2010PropOp57
 70
     1
102
RTVSPropertyOp0
 70
     1
102
RTVSPropertyOp1
 70
     1
102
RTVSPropertyOp2
 70
     1
102
RTVSPropertyOp3
 70
     1
102
RTVSPropertyOp4
 70
     1
102
RTVSPropertyOp5
 70
     1
102
RTVSPropertyOp6
 70
     1
102
RTVSPropertyOp7
 70
     1
102
RTVSPropertyOp8
 70
     1
102
RTVSPropertyOp9
 70
     1
102
RTVSPropertyOp10
 70
     1
102
RTVSPropertyOp11
 70
     1
102
RTVSPropertyOp12
 70
     1
102
RTVSPropertyOp13
 70
     1
102
RTVSPropertyOp14
 70
     1
102
RTVSPropertyOp15
 70
     1
102
RTVSPropertyOp16
 70
     1
102
RTVSPropertyOp17
 70
     1
102
RTVSPropertyOp18
 70
     1
102
RTVSPropertyOp19
 70
     1
102
RTVSPropertyOp20
 70
     1
102
RTVSPropertyOp21
 70
     1
102
RTVSPropertyOp22
 70
     1
102
RTVSPropertyOp23
 70
     1
102
RTVSPropertyOp24
 70
     1
102
RTVSPropertyOp25
 70
     1
102
RTVSPropertyOp26
 70
     1
102
RTVSPropertyOp27
 70
     1
102
RTVSPropertyOp28
 70
     1
102
RTVSPropertyOp29
 70
     1
102
RTVSPropertyOp30
 70
     1
102
RTVSPropertyOp31
 70
     1
102
RTVSPropertyOp32
 70
     1
102
RTVSPropertyOp33
 70
     1
102
RTVSPropertyOp34
 70
     1
102
RTVSPropertyOp35
 70
     1
102
RTVSPropertyOp36
 70
     1
102
RTVSPropertyOp37
 70
     1
102
RTVSPropertyOp38
 70
     1
102
RTVSPropertyOp39
 70
     1
102
RTVSPropertyOp40
 70
     1
102
RTVSPropertyOp41
 70
     1
102
RTVSPropertyOp42
 70
     1
102
RTVSPropertyOp43
 70
     1
102
RTVSPropertyOp44
 70
     1
102
RTVSPropertyOp45
 70
     1
102
RTVSPropertyOp46
 70
     1
102
RTVSPropertyOp47
 70
     1
102
RTVSPropertyOp48
 70
     1
102
RTVSPropertyOp49
 70
     1
102
RTVSPropertyOp50
 70
     1
102
RTVSPropertyOp51
 70
     0
102
RTVSPropertyOp52
 70
     0
102
RTVSPropertyOp53
 70
     1
102
RTVSPropertyOp54
 70
     1
102
RTVSPropertyOp55
 70
     1
102
RTVSPropertyOp56
 70
     1
102
RTVSPropertyOp57
 70
     1
102
RTVSPropertyOp58
 70
     1
102
RTVSPropertyOp59
 70
     1
102
RTVSPropertyOp60
 70
     1
102
RTVSPropertyOp61
 70
     1
102
RTVSPropertyOp62
 70
     1
  0
XRECORD
  5
9FC7
102
{ACAD_REACTORS
330
9FC6
102
}
330
9FC6
100
AcDbXrecord
280
     1
102
RTVSPost2010Prop28
280
     0
102
RTVSPost2010PropOp28
 70
     1
102
RTVSPost2010Prop29
280
     1
102
RTVSPost2010PropOp29
 70
     1
102
RTVSPost2010Prop30
280
     1
102
RTVSPost2010PropOp30
 70
     1
102
RTVSPost2010Prop31
280
     0
102
RTVSPost2010PropOp31
 70
     1
102
RTVSPost2010Prop32
280
     0
102
RTVSPost2010PropOp32
 70
     1
102
RTVSPost2010Prop33
280
     0
102
RTVSPost2010PropOp33
 70
     1
102
RTVSPost2010Prop34
280
     0
102
RTVSPost2010PropOp34
 70
     1
102
RTVSPost2010Prop35
280
     0
102
RTVSPost2010PropOp35
 70
     1
102
RTVSPost2010Prop36
280
     0
102
RTVSPost2010PropOp36
 70
     1
102
RTVSPost2010Prop37
 90
       50
102
RTVSPost2010PropOp37
 70
     1
102
RTVSPost2010Prop38
140
0.0
102
RTVSPost2010PropOp38
 70
     1
102
RTVSPost2010Prop39
140
1.0
102
RTVSPost2010PropOp39
 70
     1
102
RTVSPost2010Prop40
 90
        0
102
RTVSPost2010PropOp40
 70
     1
102
RTVSPost2010Prop41ColorIndex
 90
       18
102
RTVSPost2010Prop41ColorRGB
 90
        0
102
RTVSPost2010PropOp41
 70
     1
102
RTVSPost2010Prop42
 90
       50
102
RTVSPost2010PropOp42
 70
     1
102
RTVSPost2010Prop43
 90
        3
102
RTVSPost2010PropOp43
 70
     1
102
RTVSPost2010Prop44ColorIndex
 90
        5
102
RTVSPost2010Prop44ColorRGB
 90
      255
102
RTVSPost2010PropOp44
 70
     1
102
RTVSPost2010Prop45
280
     0
102
RTVSPost2010PropOp45
 70
     1
102
RTVSPost2010Prop46
 90
       50
102
RTVSPost2010PropOp46
 70
     1
102
RTVSPost2010Prop47
 90
       50
102
RTVSPost2010PropOp47
 70
     1
102
RTVSPost2010Prop48
 90
       50
102
RTVSPost2010PropOp48
 70
     1
102
RTVSPost2010Prop49
280
     0
102
RTVSPost2010PropOp49
 70
     1
102
RTVSPost2010Prop50
 90
       50
102
RTVSPost2010PropOp50
 70
     1
102
RTVSPost2010Prop51ColorIndex
 90
      256
102
RTVSPost2010Prop51ColorRGB
 90
-16777216
102
RTVSPost2010PropOp51
 70
     0
102
RTVSPost2010Prop52
140
1.0
102
RTVSPost2010PropOp52
 70
     0
102
RTVSPost2010Prop53
 90
        2
102
RTVSPost2010PropOp53
 70
     1
102
RTVSPost2010Prop54
  1
strokes_ogs.tif
102
RTVSPost2010PropOp54
 70
     1
102
RTVSPost2010Prop55
280
     0
102
RTVSPost2010PropOp55
 70
     1
102
RTVSPost2010Prop56
140
1.0
102
RTVSPost2010PropOp56
 70
     1
102
RTVSPost2010Prop57
140
1.0
102
RTVSPost2010PropOp57
 70
     1
102
RTVSPropertyOp0
 70
     1
102
RTVSPropertyOp1
 70
     1
102
RTVSPropertyOp2
 70
     1
102
RTVSPropertyOp3
 70
     1
102
RTVSPropertyOp4
 70
     1
102
RTVSPropertyOp5
 70
     1
102
RTVSPropertyOp6
 70
     1
102
RTVSPropertyOp7
 70
     1
102
RTVSPropertyOp8
 70
     1
102
RTVSPropertyOp9
 70
     1
102
RTVSPropertyOp10
 70
     1
102
RTVSPropertyOp11
 70
     1
102
RTVSPropertyOp12
 70
     1
102
RTVSPropertyOp13
 70
     1
102
RTVSPropertyOp14
 70
     1
102
RTVSPropertyOp15
 70
     1
102
RTVSPropertyOp16
 70
     1
102
RTVSPropertyOp17
 70
     1
102
RTVSPropertyOp18
 70
     1
102
RTVSPropertyOp19
 70
     1
102
RTVSPropertyOp20
 70
     1
102
RTVSPropertyOp21
 70
     1
102
RTVSPropertyOp22
 70
     1
102
RTVSPropertyOp23
 70
     1
102
RTVSPropertyOp24
 70
     1
102
RTVSPropertyOp25
 70
     1
102
RTVSPropertyOp26
 70
     1
102
RTVSPropertyOp27
 70
     1
102
RTVSPropertyOp28
 70
     1
102
RTVSPropertyOp29
 70
     1
102
RTVSPropertyOp30
 70
     1
102
RTVSPropertyOp31
 70
     1
102
RTVSPropertyOp32
 70
     1
102
RTVSPropertyOp33
 70
     1
102
RTVSPropertyOp34
 70
     1
102
RTVSPropertyOp35
 70
     1
102
RTVSPropertyOp36
 70
     1
102
RTVSPropertyOp37
 70
     1
102
RTVSPropertyOp38
 70
     1
102
RTVSPropertyOp39
 70
     1
102
RTVSPropertyOp40
 70
     1
102
RTVSPropertyOp41
 70
     1
102
RTVSPropertyOp42
 70
     1
102
RTVSPropertyOp43
 70
     1
102
RTVSPropertyOp44
 70
     1
102
RTVSPropertyOp45
 70
     1
102
RTVSPropertyOp46
 70
     1
102
RTVSPropertyOp47
 70
     1
102
RTVSPropertyOp48
 70
     1
102
RTVSPropertyOp49
 70
     1
102
RTVSPropertyOp50
 70
     1
102
RTVSPropertyOp51
 70
     0
102
RTVSPropertyOp52
 70
     0
102
RTVSPropertyOp53
 70
     1
102
RTVSPropertyOp54
 70
     1
102
RTVSPropertyOp55
 70
     1
102
RTVSPropertyOp56
 70
     1
102
RTVSPropertyOp57
 70
     1
102
RTVSPropertyOp58
 70
     1
102
RTVSPropertyOp59
 70
     1
102
RTVSPropertyOp60
 70
     1
102
RTVSPropertyOp61
 70
     1
102
RTVSPropertyOp62
 70
     1
  0
XRECORD
  5
9FBD
102
{ACAD_REACTORS
330
9FBC
102
}
330
9FBC
100
AcDbXrecord
280
     1
102
RTVSPost2010Prop28
280
     0
102
RTVSPost2010PropOp28
 70
     1
102
RTVSPost2010Prop29
280
     1
102
RTVSPost2010PropOp29
 70
     1
102
RTVSPost2010Prop30
280
     1
102
RTVSPost2010PropOp30
 70
     1
102
RTVSPost2010Prop31
280
     0
102
RTVSPost2010PropOp31
 70
     1
102
RTVSPost2010Prop32
280
     0
102
RTVSPost2010PropOp32
 70
     1
102
RTVSPost2010Prop33
280
     0
102
RTVSPost2010PropOp33
 70
     1
102
RTVSPost2010Prop34
280
     0
102
RTVSPost2010PropOp34
 70
     1
102
RTVSPost2010Prop35
280
     0
102
RTVSPost2010PropOp35
 70
     1
102
RTVSPost2010Prop36
280
     0
102
RTVSPost2010PropOp36
 70
     1
102
RTVSPost2010Prop37
 90
       50
102
RTVSPost2010PropOp37
 70
     1
102
RTVSPost2010Prop38
140
0.0
102
RTVSPost2010PropOp38
 70
     1
102
RTVSPost2010Prop39
140
1.0
102
RTVSPost2010PropOp39
 70
     1
102
RTVSPost2010Prop40
 90
        0
102
RTVSPost2010PropOp40
 70
     1
102
RTVSPost2010Prop41ColorIndex
 90
       18
102
RTVSPost2010Prop41ColorRGB
 90
        0
102
RTVSPost2010PropOp41
 70
     1
102
RTVSPost2010Prop42
 90
       50
102
RTVSPost2010PropOp42
 70
     1
102
RTVSPost2010Prop43
 90
        3
102
RTVSPost2010PropOp43
 70
     1
102
RTVSPost2010Prop44ColorIndex
 90
        5
102
RTVSPost2010Prop44ColorRGB
 90
      255
102
RTVSPost2010PropOp44
 70
     1
102
RTVSPost2010Prop45
280
     0
102
RTVSPost2010PropOp45
 70
     1
102
RTVSPost2010Prop46
 90
       50
102
RTVSPost2010PropOp46
 70
     1
102
RTVSPost2010Prop47
 90
       50
102
RTVSPost2010PropOp47
 70
     1
102
RTVSPost2010Prop48
 90
       50
102
RTVSPost2010PropOp48
 70
     1
102
RTVSPost2010Prop49
280
     0
102
RTVSPost2010PropOp49
 70
     1
102
RTVSPost2010Prop50
 90
       50
102
RTVSPost2010PropOp50
 70
     1
102
RTVSPost2010Prop51ColorIndex
 90
      256
102
RTVSPost2010Prop51ColorRGB
 90
-16777216
102
RTVSPost2010PropOp51
 70
     0
102
RTVSPost2010Prop52
140
1.0
102
RTVSPost2010PropOp52
 70
     0
102
RTVSPost2010Prop53
 90
        2
102
RTVSPost2010PropOp53
 70
     1
102
RTVSPost2010Prop54
  1
strokes_ogs.tif
102
RTVSPost2010PropOp54
 70
     1
102
RTVSPost2010Prop55
280
     0
102
RTVSPost2010PropOp55
 70
     1
102
RTVSPost2010Prop56
140
1.0
102
RTVSPost2010PropOp56
 70
     1
102
RTVSPost2010Prop57
140
1.0
102
RTVSPost2010PropOp57
 70
     1
102
RTVSPropertyOp0
 70
     1
102
RTVSPropertyOp1
 70
     1
102
RTVSPropertyOp2
 70
     1
102
RTVSPropertyOp3
 70
     1
102
RTVSPropertyOp4
 70
     1
102
RTVSPropertyOp5
 70
     1
102
RTVSPropertyOp6
 70
     1
102
RTVSPropertyOp7
 70
     1
102
RTVSPropertyOp8
 70
     1
102
RTVSPropertyOp9
 70
     1
102
RTVSPropertyOp10
 70
     1
102
RTVSPropertyOp11
 70
     1
102
RTVSPropertyOp12
 70
     1
102
RTVSPropertyOp13
 70
     1
102
RTVSPropertyOp14
 70
     1
102
RTVSPropertyOp15
 70
     1
102
RTVSPropertyOp16
 70
     1
102
RTVSPropertyOp17
 70
     1
102
RTVSPropertyOp18
 70
     1
102
RTVSPropertyOp19
 70
     1
102
RTVSPropertyOp20
 70
     1
102
RTVSPropertyOp21
 70
     1
102
RTVSPropertyOp22
 70
     1
102
RTVSPropertyOp23
 70
     1
102
RTVSPropertyOp24
 70
     1
102
RTVSPropertyOp25
 70
     1
102
RTVSPropertyOp26
 70
     1
102
RTVSPropertyOp27
 70
     1
102
RTVSPropertyOp28
 70
     1
102
RTVSPropertyOp29
 70
     1
102
RTVSPropertyOp30
 70
     1
102
RTVSPropertyOp31
 70
     1
102
RTVSPropertyOp32
 70
     1
102
RTVSPropertyOp33
 70
     1
102
RTVSPropertyOp34
 70
     1
102
RTVSPropertyOp35
 70
     1
102
RTVSPropertyOp36
 70
     1
102
RTVSPropertyOp37
 70
     1
102
RTVSPropertyOp38
 70
     1
102
RTVSPropertyOp39
 70
     1
102
RTVSPropertyOp40
 70
     1
102
RTVSPropertyOp41
 70
     1
102
RTVSPropertyOp42
 70
     1
102
RTVSPropertyOp43
 70
     1
102
RTVSPropertyOp44
 70
     1
102
RTVSPropertyOp45
 70
     1
102
RTVSPropertyOp46
 70
     1
102
RTVSPropertyOp47
 70
     1
102
RTVSPropertyOp48
 70
     1
102
RTVSPropertyOp49
 70
     1
102
RTVSPropertyOp50
 70
     1
102
RTVSPropertyOp51
 70
     0
102
RTVSPropertyOp52
 70
     0
102
RTVSPropertyOp53
 70
     1
102
RTVSPropertyOp54
 70
     1
102
RTVSPropertyOp55
 70
     1
102
RTVSPropertyOp56
 70
     1
102
RTVSPropertyOp57
 70
     1
102
RTVSPropertyOp58
 70
     1
102
RTVSPropertyOp59
 70
     1
102
RTVSPropertyOp60
 70
     1
102
RTVSPropertyOp61
 70
     1
102
RTVSPropertyOp62
 70
     1
  0
XRECORD
  5
9FB1
102
{ACAD_REACTORS
330
9FB0
102
}
330
9FB0
100
AcDbXrecord
280
     1
102
RTVSPost2010Prop28
280
     0
102
RTVSPost2010PropOp28
 70
     1
102
RTVSPost2010Prop29
280
     1
102
RTVSPost2010PropOp29
 70
     1
102
RTVSPost2010Prop30
280
     1
102
RTVSPost2010PropOp30
 70
     1
102
RTVSPost2010Prop31
280
     0
102
RTVSPost2010PropOp31
 70
     1
102
RTVSPost2010Prop32
280
     0
102
RTVSPost2010PropOp32
 70
     1
102
RTVSPost2010Prop33
280
     0
102
RTVSPost2010PropOp33
 70
     1
102
RTVSPost2010Prop34
280
     0
102
RTVSPost2010PropOp34
 70
     1
102
RTVSPost2010Prop35
280
     0
102
RTVSPost2010PropOp35
 70
     1
102
RTVSPost2010Prop36
280
     0
102
RTVSPost2010PropOp36
 70
     1
102
RTVSPost2010Prop37
 90
       50
102
RTVSPost2010PropOp37
 70
     1
102
RTVSPost2010Prop38
140
0.0
102
RTVSPost2010PropOp38
 70
     1
102
RTVSPost2010Prop39
140
1.0
102
RTVSPost2010PropOp39
 70
     1
102
RTVSPost2010Prop40
 90
        0
102
RTVSPost2010PropOp40
 70
     1
102
RTVSPost2010Prop41ColorIndex
 90
       18
102
RTVSPost2010Prop41ColorRGB
 90
        0
102
RTVSPost2010PropOp41
 70
     1
102
RTVSPost2010Prop42
 90
       50
102
RTVSPost2010PropOp42
 70
     1
102
RTVSPost2010Prop43
 90
        3
102
RTVSPost2010PropOp43
 70
     1
102
RTVSPost2010Prop44ColorIndex
 90
        5
102
RTVSPost2010Prop44ColorRGB
 90
      255
102
RTVSPost2010PropOp44
 70
     1
102
RTVSPost2010Prop45
280
     0
102
RTVSPost2010PropOp45
 70
     1
102
RTVSPost2010Prop46
 90
       50
102
RTVSPost2010PropOp46
 70
     1
102
RTVSPost2010Prop47
 90
       50
102
RTVSPost2010PropOp47
 70
     1
102
RTVSPost2010Prop48
 90
       50
102
RTVSPost2010PropOp48
 70
     1
102
RTVSPost2010Prop49
280
     0
102
RTVSPost2010PropOp49
 70
     1
102
RTVSPost2010Prop50
 90
       50
102
RTVSPost2010PropOp50
 70
     1
102
RTVSPost2010Prop51ColorIndex
 90
      256
102
RTVSPost2010Prop51ColorRGB
 90
-16777216
102
RTVSPost2010PropOp51
 70
     0
102
RTVSPost2010Prop52
140
1.0
102
RTVSPost2010PropOp52
 70
     0
102
RTVSPost2010Prop53
 90
        2
102
RTVSPost2010PropOp53
 70
     1
102
RTVSPost2010Prop54
  1
strokes_ogs.tif
102
RTVSPost2010PropOp54
 70
     1
102
RTVSPost2010Prop55
280
     0
102
RTVSPost2010PropOp55
 70
     1
102
RTVSPost2010Prop56
140
1.0
102
RTVSPost2010PropOp56
 70
     1
102
RTVSPost2010Prop57
140
1.0
102
RTVSPost2010PropOp57
 70
     1
102
RTVSPropertyOp0
 70
     1
102
RTVSPropertyOp1
 70
     1
102
RTVSPropertyOp2
 70
     1
102
RTVSPropertyOp3
 70
     1
102
RTVSPropertyOp4
 70
     1
102
RTVSPropertyOp5
 70
     1
102
RTVSPropertyOp6
 70
     1
102
RTVSPropertyOp7
 70
     1
102
RTVSPropertyOp8
 70
     1
102
RTVSPropertyOp9
 70
     1
102
RTVSPropertyOp10
 70
     1
102
RTVSPropertyOp11
 70
     1
102
RTVSPropertyOp12
 70
     1
102
RTVSPropertyOp13
 70
     1
102
RTVSPropertyOp14
 70
     1
102
RTVSPropertyOp15
 70
     1
102
RTVSPropertyOp16
 70
     1
102
RTVSPropertyOp17
 70
     1
102
RTVSPropertyOp18
 70
     1
102
RTVSPropertyOp19
 70
     1
102
RTVSPropertyOp20
 70
     1
102
RTVSPropertyOp21
 70
     1
102
RTVSPropertyOp22
 70
     1
102
RTVSPropertyOp23
 70
     1
102
RTVSPropertyOp24
 70
     1
102
RTVSPropertyOp25
 70
     1
102
RTVSPropertyOp26
 70
     1
102
RTVSPropertyOp27
 70
     1
102
RTVSPropertyOp28
 70
     1
102
RTVSPropertyOp29
 70
     1
102
RTVSPropertyOp30
 70
     1
102
RTVSPropertyOp31
 70
     1
102
RTVSPropertyOp32
 70
     1
102
RTVSPropertyOp33
 70
     1
102
RTVSPropertyOp34
 70
     1
102
RTVSPropertyOp35
 70
     1
102
RTVSPropertyOp36
 70
     1
102
RTVSPropertyOp37
 70
     1
102
RTVSPropertyOp38
 70
     1
102
RTVSPropertyOp39
 70
     1
102
RTVSPropertyOp40
 70
     1
102
RTVSPropertyOp41
 70
     1
102
RTVSPropertyOp42
 70
     1
102
RTVSPropertyOp43
 70
     1
102
RTVSPropertyOp44
 70
     1
102
RTVSPropertyOp45
 70
     1
102
RTVSPropertyOp46
 70
     1
102
RTVSPropertyOp47
 70
     1
102
RTVSPropertyOp48
 70
     1
102
RTVSPropertyOp49
 70
     1
102
RTVSPropertyOp50
 70
     1
102
RTVSPropertyOp51
 70
     0
102
RTVSPropertyOp52
 70
     0
102
RTVSPropertyOp53
 70
     1
102
RTVSPropertyOp54
 70
     1
102
RTVSPropertyOp55
 70
     1
102
RTVSPropertyOp56
 70
     1
102
RTVSPropertyOp57
 70
     1
102
RTVSPropertyOp58
 70
     1
102
RTVSPropertyOp59
 70
     1
102
RTVSPropertyOp60
 70
     1
102
RTVSPropertyOp61
 70
     1
102
RTVSPropertyOp62
 70
     1
  0
XRECORD
  5
9FC9
102
{ACAD_REACTORS
330
9FC8
102
}
330
9FC8
100
AcDbXrecord
280
     1
102
RTVSPost2010Prop28
280
     0
102
RTVSPost2010PropOp28
 70
     1
102
RTVSPost2010Prop29
280
     1
102
RTVSPost2010PropOp29
 70
     1
102
RTVSPost2010Prop30
280
     1
102
RTVSPost2010PropOp30
 70
     1
102
RTVSPost2010Prop31
280
     0
102
RTVSPost2010PropOp31
 70
     1
102
RTVSPost2010Prop32
280
     0
102
RTVSPost2010PropOp32
 70
     1
102
RTVSPost2010Prop33
280
     0
102
RTVSPost2010PropOp33
 70
     1
102
RTVSPost2010Prop34
280
     0
102
RTVSPost2010PropOp34
 70
     1
102
RTVSPost2010Prop35
280
     0
102
RTVSPost2010PropOp35
 70
     1
102
RTVSPost2010Prop36
280
     0
102
RTVSPost2010PropOp36
 70
     1
102
RTVSPost2010Prop37
 90
       50
102
RTVSPost2010PropOp37
 70
     1
102
RTVSPost2010Prop38
140
0.0
102
RTVSPost2010PropOp38
 70
     1
102
RTVSPost2010Prop39
140
1.0
102
RTVSPost2010PropOp39
 70
     1
102
RTVSPost2010Prop40
 90
        0
102
RTVSPost2010PropOp40
 70
     1
102
RTVSPost2010Prop41ColorIndex
 90
       18
102
RTVSPost2010Prop41ColorRGB
 90
        0
102
RTVSPost2010PropOp41
 70
     1
102
RTVSPost2010Prop42
 90
       50
102
RTVSPost2010PropOp42
 70
     1
102
RTVSPost2010Prop43
 90
        3
102
RTVSPost2010PropOp43
 70
     1
102
RTVSPost2010Prop44ColorIndex
 90
        5
102
RTVSPost2010Prop44ColorRGB
 90
      255
102
RTVSPost2010PropOp44
 70
     1
102
RTVSPost2010Prop45
280
     0
102
RTVSPost2010PropOp45
 70
     1
102
RTVSPost2010Prop46
 90
       50
102
RTVSPost2010PropOp46
 70
     1
102
RTVSPost2010Prop47
 90
       50
102
RTVSPost2010PropOp47
 70
     1
102
RTVSPost2010Prop48
 90
       50
102
RTVSPost2010PropOp48
 70
     1
102
RTVSPost2010Prop49
280
     0
102
RTVSPost2010PropOp49
 70
     1
102
RTVSPost2010Prop50
 90
       50
102
RTVSPost2010PropOp50
 70
     1
102
RTVSPost2010Prop51ColorIndex
 90
      256
102
RTVSPost2010Prop51ColorRGB
 90
-16777216
102
RTVSPost2010PropOp51
 70
     0
102
RTVSPost2010Prop52
140
1.0
102
RTVSPost2010PropOp52
 70
     0
102
RTVSPost2010Prop53
 90
        2
102
RTVSPost2010PropOp53
 70
     1
102
RTVSPost2010Prop54
  1
strokes_ogs.tif
102
RTVSPost2010PropOp54
 70
     1
102
RTVSPost2010Prop55
280
     0
102
RTVSPost2010PropOp55
 70
     1
102
RTVSPost2010Prop56
140
1.0
102
RTVSPost2010PropOp56
 70
     1
102
RTVSPost2010Prop57
140
1.0
102
RTVSPost2010PropOp57
 70
     1
102
RTVSPropertyOp0
 70
     1
102
RTVSPropertyOp1
 70
     1
102
RTVSPropertyOp2
 70
     1
102
RTVSPropertyOp3
 70
     1
102
RTVSPropertyOp4
 70
     1
102
RTVSPropertyOp5
 70
     1
102
RTVSPropertyOp6
 70
     1
102
RTVSPropertyOp7
 70
     1
102
RTVSPropertyOp8
 70
     1
102
RTVSPropertyOp9
 70
     1
102
RTVSPropertyOp10
 70
     1
102
RTVSPropertyOp11
 70
     1
102
RTVSPropertyOp12
 70
     1
102
RTVSPropertyOp13
 70
     1
102
RTVSPropertyOp14
 70
     1
102
RTVSPropertyOp15
 70
     1
102
RTVSPropertyOp16
 70
     1
102
RTVSPropertyOp17
 70
     1
102
RTVSPropertyOp18
 70
     1
102
RTVSPropertyOp19
 70
     1
102
RTVSPropertyOp20
 70
     1
102
RTVSPropertyOp21
 70
     1
102
RTVSPropertyOp22
 70
     1
102
RTVSPropertyOp23
 70
     1
102
RTVSPropertyOp24
 70
     1
102
RTVSPropertyOp25
 70
     1
102
RTVSPropertyOp26
 70
     1
102
RTVSPropertyOp27
 70
     1
102
RTVSPropertyOp28
 70
     1
102
RTVSPropertyOp29
 70
     1
102
RTVSPropertyOp30
 70
     1
102
RTVSPropertyOp31
 70
     1
102
RTVSPropertyOp32
 70
     1
102
RTVSPropertyOp33
 70
     1
102
RTVSPropertyOp34
 70
     1
102
RTVSPropertyOp35
 70
     1
102
RTVSPropertyOp36
 70
     1
102
RTVSPropertyOp37
 70
     1
102
RTVSPropertyOp38
 70
     1
102
RTVSPropertyOp39
 70
     1
102
RTVSPropertyOp40
 70
     1
102
RTVSPropertyOp41
 70
     1
102
RTVSPropertyOp42
 70
     1
102
RTVSPropertyOp43
 70
     1
102
RTVSPropertyOp44
 70
     1
102
RTVSPropertyOp45
 70
     1
102
RTVSPropertyOp46
 70
     1
102
RTVSPropertyOp47
 70
     1
102
RTVSPropertyOp48
 70
     1
102
RTVSPropertyOp49
 70
     1
102
RTVSPropertyOp50
 70
     1
102
RTVSPropertyOp51
 70
     0
102
RTVSPropertyOp52
 70
     0
102
RTVSPropertyOp53
 70
     1
102
RTVSPropertyOp54
 70
     1
102
RTVSPropertyOp55
 70
     1
102
RTVSPropertyOp56
 70
     1
102
RTVSPropertyOp57
 70
     1
102
RTVSPropertyOp58
 70
     1
102
RTVSPropertyOp59
 70
     1
102
RTVSPropertyOp60
 70
     1
102
RTVSPropertyOp61
 70
     1
102
RTVSPropertyOp62
 70
     1
  0
ENDSEC
  0
EOF
