  0
SECTION
  2
HEADER
  9
$ACADVER
  1
AC1015
  9
$ACADMAINTVER
 70
    20
  9
$DWGCODEPAGE
  3
ANSI_932
  9
$INSBASE
 10
0.0
 20
0.0
 30
0.0
  9
$EXTMIN
 10
10.0
 20
9.999999999999998
 30
0.0
  9
$EXTMAX
 10
336.778529
 20
253.802617
 30
0.0
  9
$LIMMIN
 10
0.0
 20
0.0
  9
$LIMMAX
 10
396.0
 20
273.0
  9
$ORTHOMODE
 70
     0
  9
$REGENMODE
 70
     1
  9
$FILLMODE
 70
     1
  9
$QTEXTMODE
 70
     0
  9
$MIRRTEXT
 70
     1
  9
$LTSCALE
 40
20.0
  9
$ATTMODE
 70
     1
  9
$TEXTSIZE
 40
5.0
  9
$TRACEWID
 40
1.0
  9
$TEXTSTYLE
  7
STANDARD
  9
$CLAYER
  8
0
  9
$CELTYPE
  6
BYLAYER
  9
$CECOLOR
 62
   256
  9
$CELTSCALE
 40
1.0
  9
$DISPSILH
 70
     0
  9
$DIMSCALE
 40
1.0
  9
$DIMASZ
 40
2.5
  9
$DIMEXO
 40
1.0
  9
$DIMDLI
 40
10.0
  9
$DIMRND
 40
0.0
  9
$DIMDLE
 40
0.0
  9
$DIMEXE
 40
1.0
  9
$DIMTP
 40
0.0
  9
$DIMTM
 40
0.0
  9
$DIMTXT
 40
3.2
  9
$DIMCEN
 40
0.0
  9
$DIMTSZ
 40
0.0
  9
$DIMTOL
 70
     0
  9
$DIMLIM
 70
     0
  9
$DIMTIH
 70
     0
  9
$DIMTOH
 70
     0
  9
$DIMSE1
 70
     0
  9
$DIMSE2
 70
     0
  9
$DIMTAD
 70
     3
  9
$DIMZIN
 70
     8
  9
$DIMBLK
  1

  9
$DIMASO
 70
     1
  9
$DIMSHO
 70
     1
  9
$DIMPOST
  1

  9
$DIMAPOST
  1

  9
$DIMALT
 70
     0
  9
$DIMALTD
 70
     2
  9
$DIMALTF
 40
25.4
  9
$DIMLFAC
 40
1.0
  9
$DIMTOFL
 70
     1
  9
$DIMTVP
 40
0.0
  9
$DIMTIX
 70
     0
  9
$DIMSOXD
 70
     0
  9
$DIMSAH
 70
     1
  9
$DIMBLK1
  1

  9
$DIMBLK2
  1

  9
$DIMSTYLE
  2
STANDARD
  9
$DIMCLRD
 70
     0
  9
$DIMCLRE
 70
     0
  9
$DIMCLRT
 70
     0
  9
$DIMTFAC
 40
1.0
  9
$DIMGAP
 40
1.0
  9
$DIMJUST
 70
     0
  9
$DIMSD1
 70
     0
  9
$DIMSD2
 70
     0
  9
$DIMTOLJ
 70
     1
  9
$DIMTZIN
 70
     0
  9
$DIMALTZ
 70
     0
  9
$DIMALTTZ
 70
     0
  9
$DIMUPT
 70
     0
  9
$DIMDEC
 70
     4
  9
$DIMTDEC
 70
     4
  9
$DIMALTU
 70
     2
  9
$DIMALTTD
 70
     2
  9
$DIMTXSTY
  7
STANDARD
  9
$DIMAUNIT
 70
     0
  9
$DIMADEC
 70
     0
  9
$DIMALTRND
 40
0.0
  9
$DIMAZIN
 70
     0
  9
$DIMDSEP
 70
    46
  9
$DIMATFIT
 70
     3
  9
$DIMFRAC
 70
     0
  9
$DIMLDRBLK
  1

  9
$DIMLUNIT
 70
     2
  9
$DIMLWD
 70
    -2
  9
$DIMLWE
 70
    -2
  9
$DIMTMOVE
 70
     0
  9
$LUNITS
 70
     2
  9
$LUPREC
 70
     4
  9
$SKETCHINC
 40
1.0
  9
$FILLETRAD
 40
2.0
  9
$AUNITS
 70
     0
  9
$AUPREC
 70
     2
  9
$MENU
  1
.
  9
$ELEVATION
 40
0.0
  9
$PELEVATION
 40
0.0
  9
$THICKNESS
 40
0.0
  9
$LIMCHECK
 70
     0
  9
$CHAMFERA
 40
10.0
  9
$CHAMFERB
 40
10.0
  9
$CHAMFERC
 40
0.0
  9
$CHAMFERD
 40
0.0
  9
$SKPOLY
 70
     0
  9
$TDCREATE
 40
2451301.458431713
  9
$TDUCREATE
 40
2451301.083431713
  9
$TDUPDATE
 40
2457192.690391516
  9
$TDUUPDATE
 40
2457192.315391516
  9
$TDINDWG
 40
0.1079541204
  9
$TDUSRTIMER
 40
0.1079536227
  9
$USRTIMER
 70
     1
  9
$ANGBASE
 50
0.0
  9
$ANGDIR
 70
     0
  9
$PDMODE
 70
     0
  9
$PDSIZE
 40
0.0
  9
$PLINEWID
 40
0.0
  9
$SPLFRAME
 70
     0
  9
$SPLINETYPE
 70
     6
  9
$SPLINESEGS
 70
     8
  9
$HANDSEED
  5
A97F
  9
$SURFTAB1
 70
     6
  9
$SURFTAB2
 70
     6
  9
$SURFTYPE
 70
     6
  9
$SURFU
 70
     6
  9
$SURFV
 70
     6
  9
$UCSBASE
  2

  9
$UCSNAME
  2

  9
$UCSORG
 10
0.0
 20
0.0
 30
0.0
  9
$UCSXDIR
 10
1.0
 20
0.0
 30
0.0
  9
$UCSYDIR
 10
0.0
 20
1.0
 30
0.0
  9
$UCSORTHOREF
  2

  9
$UCSORTHOVIEW
 70
     0
  9
$UCSORGTOP
 10
0.0
 20
0.0
 30
0.0
  9
$UCSORGBOTTOM
 10
0.0
 20
0.0
 30
0.0
  9
$UCSORGLEFT
 10
0.0
 20
0.0
 30
0.0
  9
$UCSORGRIGHT
 10
0.0
 20
0.0
 30
0.0
  9
$UCSORGFRONT
 10
0.0
 20
0.0
 30
0.0
  9
$UCSORGBACK
 10
0.0
 20
0.0
 30
0.0
  9
$PUCSBASE
  2

  9
$PUCSNAME
  2

  9
$PUCSORG
 10
0.0
 20
0.0
 30
0.0
  9
$PUCSXDIR
 10
1.0
 20
0.0
 30
0.0
  9
$PUCSYDIR
 10
0.0
 20
1.0
 30
0.0
  9
$PUCSORTHOREF
  2

  9
$PUCSORTHOVIEW
 70
     0
  9
$PUCSORGTOP
 10
0.0
 20
0.0
 30
0.0
  9
$PUCSORGBOTTOM
 10
0.0
 20
0.0
 30
0.0
  9
$PUCSORGLEFT
 10
0.0
 20
0.0
 30
0.0
  9
$PUCSORGRIGHT
 10
0.0
 20
0.0
 30
0.0
  9
$PUCSORGFRONT
 10
0.0
 20
0.0
 30
0.0
  9
$PUCSORGBACK
 10
0.0
 20
0.0
 30
0.0
  9
$USERI1
 70
     0
  9
$USERI2
 70
     0
  9
$USERI3
 70
     0
  9
$USERI4
 70
     0
  9
$USERI5
 70
     0
  9
$USERR1
 40
0.0
  9
$USERR2
 40
0.0
  9
$USERR3
 40
0.0
  9
$USERR4
 40
0.0
  9
$USERR5
 40
0.0
  9
$WORLDVIEW
 70
     1
  9
$SHADEDGE
 70
     3
  9
$SHADEDIF
 70
    70
  9
$TILEMODE
 70
     1
  9
$MAXACTVP
 70
    16
  9
$PINSBASE
 10
0.0
 20
0.0
 30
0.0
  9
$PLIMCHECK
 70
     0
  9
$PEXTMIN
 10
1.000000000000000E+20
 20
1.000000000000000E+20
 30
1.000000000000000E+20
  9
$PEXTMAX
 10
-1.000000000000000E+20
 20
-1.000000000000000E+20
 30
-1.000000000000000E+20
  9
$PLIMMIN
 10
0.0
 20
0.0
  9
$PLIMMAX
 10
420.0
 20
297.0
  9
$UNITMODE
 70
     0
  9
$VISRETAIN
 70
     0
  9
$PLINEGEN
 70
     0
  9
$PSLTSCALE
 70
     0
  9
$TREEDEPTH
 70
  3020
  9
$CMLSTYLE
  2
STANDARD
  9
$CMLJUST
 70
     0
  9
$CMLSCALE
 40
1.0
  9
$PROXYGRAPHICS
 70
     1
  9
$MEASUREMENT
 70
     0
  9
$CELWEIGHT
370
    -1
  9
$ENDCAPS
280
     0
  9
$JOINSTYLE
280
     0
  9
$LWDISPLAY
290
     0
  9
$INSUNITS
 70
     0
  9
$HYPERLINKBASE
  1

  9
$STYLESHEET
  1

  9
$XEDIT
290
     1
  9
$CEPSNTYPE
380
     0
  9
$PSTYLEMODE
290
     1
  9
$FINGERPRINTGUID
  2
{CF204BCF-7D09-4AC0-B897-598C8A5CC97C}
  9
$VERSIONGUID
  2
{3CEC3C5E-C569-4964-876E-64374188E76B}
  9
$EXTNAMES
290
     1
  9
$PSVPSCALE
 40
0.0
  9
$OLESTARTUP
290
     0
  0
ENDSEC
  0
SECTION
  2
CLASSES
  0
CLASS
  1
ACDBDICTIONARYWDFLT
  2
AcDbDictionaryWithDefault
  3
ObjectDBX Classes
 90
        0
280
     0
281
     0
  0
CLASS
  1
ACDBPLACEHOLDER
  2
AcDbPlaceHolder
  3
ObjectDBX Classes
 90
        0
280
     0
281
     0
  0
CLASS
  1
LAYOUT
  2
AcDbLayout
  3
ObjectDBX Classes
 90
        0
280
     0
281
     0
  0
CLASS
  1
DICTIONARYVAR
  2
AcDbDictionaryVar
  3
ObjectDBX Classes
 90
        0
280
     0
281
     0
  0
CLASS
  1
MATERIAL
  2
AcDbMaterial
  3
ObjectDBX Classes
 90
     1153
280
     0
281
     0
  0
CLASS
  1
VISUALSTYLE
  2
AcDbVisualStyle
  3
ObjectDBX Classes
 90
     4095
280
     0
281
     0
  0
CLASS
  1
TABLESTYLE
  2
AcDbTableStyle
  3
ObjectDBX Classes
 90
     4095
280
     0
281
     0
  0
CLASS
  1
SCALE
  2
AcDbScale
  3
ObjectDBX Classes
 90
     1153
280
     0
281
     0
  0
CLASS
  1
MLEADERSTYLE
  2
AcDbMLeaderStyle
  3
ACDB_MLEADERSTYLE_CLASS
 90
     4095
280
     0
281
     0
  0
CLASS
  1
ACDBSECTIONVIEWSTYLE
  2
AcDbSectionViewStyle
  3
ObjectDBX Classes
 90
     1025
280
     0
281
     0
  0
CLASS
  1
ACDBDETAILVIEWSTYLE
  2
AcDbDetailViewStyle
  3
ObjectDBX Classes
 90
     1025
280
     0
281
     0
  0
CLASS
  1
CELLSTYLEMAP
  2
AcDbCellStyleMap
  3
ObjectDBX Classes
 90
     1152
280
     0
281
     0
  0
ENDSEC
  0
SECTION
  2
TABLES
  0
TABLE
  2
VPORT
  5
A6D9
330
0
100
AcDbSymbolTable
 70
     1
  0
VPORT
  5
A8CA
330
A6D9
100
AcDbSymbolTableRecord
100
AcDbViewportTableRecord
  2
*ACTIVE
 70
     0
 10
0.0
 20
0.0
 11
1.0
 21
1.0
 12
267.2363308218242
 22
131.8969580277299
 13
0.0
 23
0.0
 14
10.0
 24
10.0
 15
10.0
 25
10.0
 16
0.0
 26
0.0
 36
1.0
 17
0.0
 27
0.0
 37
0.0
 40
245.7403190671905
 41
2.35006605019815
 42
50.0
 43
0.0
 44
0.0
 50
0.0
 51
0.0
 71
     0
 72
   100
 73
     1
 74
     0
 75
     0
 76
     0
 77
     0
 78
     0
281
     0
 65
     1
110
0.0
120
0.0
130
0.0
111
1.0
121
0.0
131
0.0
112
0.0
122
1.0
132
0.0
 79
     0
146
0.0
1001
ACAD_NAV_VCDISPLAY
1070
     3
  0
ENDTAB
  0
TABLE
  2
LTYPE
  5
A6D6
330
0
100
AcDbSymbolTable
 70
     4
  0
LTYPE
  5
A6E4
330
A6D6
100
AcDbSymbolTableRecord
100
AcDbLinetypeTableRecord
  2
BYBLOCK
 70
     0
  3

 72
    65
 73
     0
 40
0.0
  0
LTYPE
  5
A6E5
330
A6D6
100
AcDbSymbolTableRecord
100
AcDbLinetypeTableRecord
  2
BYLAYER
 70
     0
  3

 72
    65
 73
     0
 40
0.0
  0
LTYPE
  5
A6E6
330
A6D6
100
AcDbSymbolTableRecord
100
AcDbLinetypeTableRecord
  2
CONTINUOUS
 70
     0
  3
Solid line
 72
    65
 73
     0
 40
0.0
  0
LTYPE
  5
A6F4
330
A6D6
100
AcDbSymbolTableRecord
100
AcDbLinetypeTableRecord
  2
DASHED
 70
     0
  3
__ __ __ __ __ __ __ __ __ __ __ __ __ __ __ __
 72
    65
 73
     2
 40
0.75
 49
0.5
 74
     0
 49
-0.25
 74
     0
  0
LTYPE
  5
A6F5
330
A6D6
100
AcDbSymbolTableRecord
100
AcDbLinetypeTableRecord
  2
CENTER
 70
     0
  3
____ _ ____ _ ____ _ ____ _ ____ _ ____ _ ____ 
 72
    65
 73
     4
 40
2.0
 49
1.25
 74
     0
 49
-0.25
 74
     0
 49
0.25
 74
     0
 49
-0.25
 74
     0
  0
LTYPE
  5
A6F6
330
A6D6
100
AcDbSymbolTableRecord
100
AcDbLinetypeTableRecord
  2
PHANTOM
 70
     0
  3
______  __  __  ______  __  __  ______  __  __ 
 72
    65
 73
     6
 40
2.5
 49
1.25
 74
     0
 49
-0.25
 74
     0
 49
0.25
 74
     0
 49
-0.25
 74
     0
 49
0.25
 74
     0
 49
-0.25
 74
     0
  0
ENDTAB
  0
TABLE
  2
LAYER
  5
A6D3
330
0
100
AcDbSymbolTable
 70
     8
  0
LAYER
  5
A6E1
102
{ACAD_XDICTIONARY
360
A923
102
}
330
A6D3
100
AcDbSymbolTableRecord
100
AcDbLayerTableRecord
  2
0
 70
     0
 62
     7
  6
CONTINUOUS
370
    -3
390
A8D1
  0
LAYER
  5
A6F7
102
{ACAD_XDICTIONARY
360
A925
102
}
330
A6D3
100
AcDbSymbolTableRecord
100
AcDbLayerTableRecord
  2
4
 70
     0
 62
     1
  6
CENTER
370
    -3
390
A8D1
  0
LAYER
  5
A6F8
102
{ACAD_XDICTIONARY
360
A927
102
}
330
A6D3
100
AcDbSymbolTableRecord
100
AcDbLayerTableRecord
  2
5
 70
     0
 62
     6
  6
PHANTOM
370
    -3
390
A8D1
  0
LAYER
  5
A6F9
102
{ACAD_XDICTIONARY
360
A929
102
}
330
A6D3
100
AcDbSymbolTableRecord
100
AcDbLayerTableRecord
  2
1
 70
     0
 62
     7
  6
CONTINUOUS
370
    -3
390
A8D1
  0
LAYER
  5
A6FA
102
{ACAD_XDICTIONARY
360
A92B
102
}
330
A6D3
100
AcDbSymbolTableRecord
100
AcDbLayerTableRecord
  2
2
 70
     0
 62
     4
  6
CONTINUOUS
370
    -3
390
A8D1
  0
LAYER
  5
A6FB
102
{ACAD_XDICTIONARY
360
A92D
102
}
330
A6D3
100
AcDbSymbolTableRecord
100
AcDbLayerTableRecord
  2
3
 70
     0
 62
     2
  6
DASHED
370
    -3
390
A8D1
  0
LAYER
  5
A6FC
102
{ACAD_XDICTIONARY
360
A92F
102
}
330
A6D3
100
AcDbSymbolTableRecord
100
AcDbLayerTableRecord
  2
6
 70
     0
 62
     5
  6
CONTINUOUS
370
    -3
390
A8D1
  0
LAYER
  5
A6FD
102
{ACAD_XDICTIONARY
360
A931
102
}
330
A6D3
100
AcDbSymbolTableRecord
100
AcDbLayerTableRecord
  2
7
 70
     0
 62
     3
  6
CONTINUOUS
370
    -3
390
A8D1
  0
ENDTAB
  0
TABLE
  2
STYLE
  5
A6D4
330
0
100
AcDbSymbolTable
 70
     1
  0
STYLE
  5
A6E2
330
A6D4
100
AcDbSymbolTableRecord
100
AcDbTextStyleTableRecord
  2
STANDARD
 70
     0
 40
0.0
 41
1.0
 50
0.0
 71
     0
 42
5.0
  3
txt
  4

  0
ENDTAB
  0
TABLE
  2
VIEW
  5
A6D7
330
0
100
AcDbSymbolTable
 70
     0
  0
ENDTAB
  0
TABLE
  2
UCS
  5
A6D8
330
0
100
AcDbSymbolTable
 70
     0
  0
ENDTAB
  0
TABLE
  2
APPID
  5
A6DA
330
0
100
AcDbSymbolTable
 70
     3
  0
APPID
  5
A6E3
330
A6DA
100
AcDbSymbolTableRecord
100
AcDbRegAppTableRecord
  2
ACAD
 70
     0
  0
APPID
  5
A93D
330
A6DA
100
AcDbSymbolTableRecord
100
AcDbRegAppTableRecord
  2
ACAD_NAV_VCDISPLAY
 70
     0
  0
APPID
  5
A976
330
A6DA
100
AcDbSymbolTableRecord
100
AcDbRegAppTableRecord
  2
ACAD_MLEADERVER
 70
     0
  0
ENDTAB
  0
TABLE
  2
DIMSTYLE
  5
A6DB
330
0
100
AcDbSymbolTable
 70
     1
100
AcDbDimStyleTable
 71
     0
  0
DIMSTYLE
105
A6FF
330
A6DB
100
AcDbSymbolTableRecord
100
AcDbDimStyleTableRecord
  2
STANDARD
 70
     0
 41
2.5
 42
1.0
 43
10.0
 44
1.0
 73
     0
 74
     0
 77
     3
 78
     8
140
3.2
141
0.0
147
1.0
172
     1
173
     1
284
     8
285
     8
286
     8
340
A6E2
  0
ENDTAB
  0
TABLE
  2
BLOCK_RECORD
  5
A6D2
330
0
100
AcDbSymbolTable
 70
     0
  0
BLOCK_RECORD
  5
A6EF
102
{ACAD_XDICTIONARY
360
A8A9
102
}
330
A6D2
100
AcDbSymbolTableRecord
100
AcDbBlockTableRecord
  2
*MODEL_SPACE
340
A91F
  0
BLOCK_RECORD
  5
A6EB
102
{ACAD_XDICTIONARY
360
A8A7
102
}
330
A6D2
100
AcDbSymbolTableRecord
100
AcDbBlockTableRecord
  2
*PAPER_SPACE
340
A920
  0
ENDTAB
  0
ENDSEC
  0
SECTION
  2
BLOCKS
  0
BLOCK
  5
A6F0
330
A6EF
100
AcDbEntity
  8
0
100
AcDbBlockBegin
  2
*MODEL_SPACE
 70
     0
 10
0.0
 20
0.0
 30
0.0
  3
*MODEL_SPACE
  1

  0
ENDBLK
  5
A6F1
330
A6EF
100
AcDbEntity
  8
0
100
AcDbBlockEnd
  0
BLOCK
  5
A6EC
330
A6EB
100
AcDbEntity
 67
     1
  8
0
100
AcDbBlockBegin
  2
*PAPER_SPACE
 70
     0
 10
0.0
 20
0.0
 30
0.0
  3
*PAPER_SPACE
  1

  0
ENDBLK
  5
A6ED
330
A6EB
100
AcDbEntity
 67
     1
  8
0
100
AcDbBlockEnd
  0
ENDSEC
  0
SECTION
  2
ENTITIES
  0
TEXT
  5
A707
330
A6EF
100
AcDbEntity
  8
7
  6
Continuous
100
AcDbText
 10
10.0
 20
18.0
 30
0.0
 40
3.0
  1
TYPE No.TCA-420G-C38
100
AcDbText
  0
TEXT
  5
A708
330
A6EF
100
AcDbEntity
  8
7
  6
Continuous
100
AcDbText
 10
10.0
 20
26.0
 30
0.0
 40
3.0
  1
CODE No.9709
100
AcDbText
  0
TEXT
  5
A709
330
A6EF
100
AcDbEntity
  8
1
  6
Continuous
100
AcDbText
 10
10.0
 20
10.0
 30
0.0
 40
1.399999999999999
  1
LAYER
100
AcDbText
  0
TEXT
  5
A70A
330
A6EF
100
AcDbEntity
  8
1
  6
Continuous
100
AcDbText
 10
17.97951099999998
 20
10.04873699999998
 30
0.0
 40
1.399999999999999
  1
1
100
AcDbText
  0
TEXT
  5
A70B
330
A6EF
100
AcDbEntity
  8
7
  6
Continuous
100
AcDbText
 10
29.97951099999999
 20
10.04873699999998
 30
0.0
 40
1.399999999999999
  1
7
100
AcDbText
  0
TEXT
  5
A70C
330
A6EF
100
AcDbEntity
  8
4
  6
CENTER
100
AcDbText
 10
23.97951099999999
 20
10.04873699999998
 30
0.0
 40
1.399999999999999
  1
4
100
AcDbText
  0
TEXT
  5
A70D
330
A6EF
100
AcDbEntity
  8
3
  6
DASHED
100
AcDbText
 10
21.979511
 20
10.04873699999998
 30
0.0
 40
1.399999999999999
  1
3
100
AcDbText
  0
TEXT
  5
A70E
330
A6EF
100
AcDbEntity
  8
2
  6
Continuous
100
AcDbText
 10
19.97951099999998
 20
10.04873699999998
 30
0.0
 40
1.399999999999999
  1
2
100
AcDbText
  0
TEXT
  5
A70F
330
A6EF
100
AcDbEntity
  8
6
  6
Continuous
100
AcDbText
 10
27.979511
 20
10.04873699999998
 30
0.0
 40
1.399999999999999
  1
6
100
AcDbText
  0
TEXT
  5
A710
330
A6EF
100
AcDbEntity
  8
5
  6
PHANTOM
100
AcDbText
 10
25.97951099999999
 20
10.04873699999998
 30
0.0
 40
1.399999999999999
  1
5
100
AcDbText
  0
LINE
  5
A711
330
A6EF
100
AcDbEntity
  8
1
  6
Continuous
100
AcDbLine
 10
25.77853
 20
170.752805
 30
0.0
 11
63.77853
 21
170.752805
 31
0.0
  0
LINE
  5
A712
330
A6EF
100
AcDbEntity
  8
1
  6
Continuous
100
AcDbLine
 10
25.77853
 20
169.152805
 30
0.0
 11
63.77853
 21
169.152805
 31
0.0
  0
LINE
  5
A713
330
A6EF
100
AcDbEntity
  8
1
  6
Continuous
100
AcDbLine
 10
25.77853
 20
170.752805
 30
0.0
 11
25.77853
 21
169.152805
 31
0.0
  0
LINE
  5
A714
330
A6EF
100
AcDbEntity
  8
1
  6
Continuous
100
AcDbLine
 10
63.77853
 20
170.752805
 30
0.0
 11
63.77853
 21
169.152805
 31
0.0
  0
LINE
  5
A715
330
A6EF
100
AcDbEntity
  8
4
  6
CENTER
 48
0.5
100
AcDbLine
 10
44.77852999999998
 20
174.452805
 30
0.0
 11
44.77852999999998
 21
115.7336169999999
 31
0.0
  0
LINE
  5
A716
330
A6EF
100
AcDbEntity
  8
4
  6
CENTER
 48
0.5
100
AcDbLine
 10
28.69245499999999
 20
139.7526169999999
 30
0.0
 11
61.07575999999999
 21
139.7526169999999
 31
0.0
  0
LINE
  5
A717
330
A6EF
100
AcDbEntity
  8
1
  6
Continuous
100
AcDbLine
 10
112.7785299999999
 20
170.7526169999999
 30
0.0
 11
158.7785299999999
 21
170.7526169999999
 31
0.0
  0
LINE
  5
A718
330
A6EF
100
AcDbEntity
  8
1
  6
Continuous
100
AcDbLine
 10
112.7785299999999
 20
169.1526169999999
 30
0.0
 11
158.7785299999999
 21
169.1526169999999
 31
0.0
  0
LINE
  5
A719
330
A6EF
100
AcDbEntity
  8
1
  6
Continuous
100
AcDbLine
 10
112.7785299999999
 20
170.7526169999999
 30
0.0
 11
112.7785299999999
 21
169.1526169999999
 31
0.0
  0
LINE
  5
A71A
330
A6EF
100
AcDbEntity
  8
1
  6
Continuous
100
AcDbLine
 10
158.7785299999999
 20
170.7526169999999
 30
0.0
 11
158.7785299999999
 21
169.1526169999999
 31
0.0
  0
LINE
  5
A71B
330
A6EF
100
AcDbEntity
  8
4
  6
CENTER
 48
0.5
100
AcDbLine
 10
135.7785299999999
 20
174.1026169999999
 30
0.0
 11
135.7785299999999
 21
142.0085607110645
 31
0.0
  0
LINE
  5
A71C
330
A6EF
100
AcDbEntity
  8
4
  6
CENTER
 48
0.5
100
AcDbLine
 10
117.77853
 20
174.452617
 30
0.0
 11
117.77853
 21
165.452617
 31
0.0
  0
LINE
  5
A71D
330
A6EF
100
AcDbEntity
  8
4
  6
CENTER
 48
0.5
100
AcDbLine
 10
153.7785299999999
 20
174.452617
 30
0.0
 11
153.7785299999999
 21
165.452617
 31
0.0
  0
LINE
  5
A71E
330
A6EF
100
AcDbEntity
  8
4
  6
CENTER
 48
0.5
100
AcDbLine
 10
135.7785299999999
 20
253.802617
 30
0.0
 11
135.7785299999999
 21
205.802617
 31
0.0
  0
LINE
  5
A71F
330
A6EF
100
AcDbEntity
  8
4
  6
CENTER
 48
0.5
100
AcDbLine
 10
98.77851500000002
 20
229.8026169999999
 30
0.0
 11
159.7785299999999
 21
229.8026169999999
 31
0.0
  0
LINE
  5
A720
330
A6EF
100
AcDbEntity
  8
1
  6
Continuous
100
AcDbLine
 10
117.77853
 20
248.8026169999999
 30
0.0
 11
153.7785299999999
 21
248.8026169999999
 31
0.0
  0
LINE
  5
A721
330
A6EF
100
AcDbEntity
  8
4
  6
CENTER
 48
0.5
100
AcDbLine
 10
121.77853
 20
243.802617
 30
0.0
 11
113.7785299999999
 21
243.802617
 31
0.0
  0
LINE
  5
A722
330
A6EF
100
AcDbEntity
  8
4
  6
CENTER
 48
0.5
100
AcDbLine
 10
117.77853
 20
247.802617
 30
0.0
 11
117.77853
 21
239.802617
 31
0.0
  0
LINE
  5
A723
330
A6EF
100
AcDbEntity
  8
4
  6
CENTER
 48
0.5
100
AcDbLine
 10
149.7785299999998
 20
243.802617
 30
0.0
 11
157.7785299999999
 21
243.802617
 31
0.0
  0
LINE
  5
A724
330
A6EF
100
AcDbEntity
  8
4
  6
CENTER
 48
0.5
100
AcDbLine
 10
153.7785299999999
 20
247.802617
 30
0.0
 11
153.7785299999999
 21
239.802617
 31
0.0
  0
LINE
  5
A725
330
A6EF
100
AcDbEntity
  8
1
  6
Continuous
100
AcDbLine
 10
117.77853
 20
210.802617
 30
0.0
 11
153.7785299999999
 21
210.802617
 31
0.0
  0
LINE
  5
A726
330
A6EF
100
AcDbEntity
  8
4
  6
CENTER
 48
0.5
100
AcDbLine
 10
121.77853
 20
215.8026169999998
 30
0.0
 11
113.7785299999999
 21
215.8026169999998
 31
0.0
  0
LINE
  5
A727
330
A6EF
100
AcDbEntity
  8
4
  6
CENTER
 48
0.5
100
AcDbLine
 10
117.77853
 20
211.8026169999999
 30
0.0
 11
117.77853
 21
219.8026169999999
 31
0.0
  0
LINE
  5
A728
330
A6EF
100
AcDbEntity
  8
4
  6
CENTER
 48
0.5
100
AcDbLine
 10
149.7785299999998
 20
215.8026169999998
 30
0.0
 11
157.7785299999999
 21
215.8026169999998
 31
0.0
  0
LINE
  5
A729
330
A6EF
100
AcDbEntity
  8
4
  6
CENTER
 48
0.5
100
AcDbLine
 10
153.7785299999999
 20
211.8026169999999
 30
0.0
 11
153.7785299999999
 21
219.8026169999999
 31
0.0
  0
LINE
  5
A72A
330
A6EF
100
AcDbEntity
  8
1
  6
Continuous
100
AcDbLine
 10
135.7785299999999
 20
234.352616
 30
0.0
 11
135.7785299999999
 21
225.2525719999999
 31
0.0
  0
LINE
  5
A72B
330
A6EF
100
AcDbEntity
  8
1
  6
Continuous
100
AcDbLine
 10
131.2285379999997
 20
229.8026169999999
 30
0.0
 11
140.32856
 21
229.8026169999999
 31
0.0
  0
LINE
  5
A72C
330
A6EF
100
AcDbEntity
  8
1
  6
Continuous
100
AcDbLine
 10
139.654629
 20
229.2026149999998
 30
0.0
 11
136.3785279999997
 21
229.2026149999998
 31
0.0
  0
LINE
  5
A72D
330
A6EF
100
AcDbEntity
  8
1
  6
Continuous
100
AcDbLine
 10
136.378532
 20
229.202619
 30
0.0
 11
136.378532
 21
225.9265179999999
 31
0.0
  0
LINE
  5
A72E
330
A6EF
100
AcDbEntity
  8
1
  6
Continuous
100
AcDbLine
 10
135.7785149999999
 20
229.802602
 30
0.0
 11
136.3785129999999
 21
229.2026029999999
 31
0.0
  0
LINE
  5
A72F
330
A6EF
100
AcDbEntity
  8
1
  6
Continuous
100
AcDbLine
 10
135.778511
 20
225.2525719999999
 30
0.0
 11
137.028503
 21
224.690556
 31
0.0
  0
LINE
  5
A730
330
A6EF
100
AcDbEntity
  8
1
  6
Continuous
100
AcDbLine
 10
140.890575
 20
228.5526319999999
 30
0.0
 11
140.328556
 21
229.8026319999999
 31
0.0
  0
LINE
  5
A731
330
A6EF
100
AcDbEntity
  8
1
  6
Continuous
100
AcDbLine
 10
136.3785279999997
 20
233.678716
 30
0.0
 11
136.3785279999997
 21
230.4026149999998
 31
0.0
  0
LINE
  5
A732
330
A6EF
100
AcDbEntity
  8
1
  6
Continuous
100
AcDbLine
 10
136.3785279999997
 20
230.4026149999998
 30
0.0
 11
139.654629
 21
230.4026149999998
 31
0.0
  0
LINE
  5
A733
330
A6EF
100
AcDbEntity
  8
1
  6
Continuous
100
AcDbLine
 10
135.7785299999999
 20
229.8026169999999
 30
0.0
 11
136.3785279999997
 21
230.4026149999998
 31
0.0
  0
LINE
  5
A734
330
A6EF
100
AcDbEntity
  8
1
  6
Continuous
100
AcDbLine
 10
140.328529
 20
229.8026169999999
 30
0.0
 11
140.8905449999998
 21
231.052617
 31
0.0
  0
LINE
  5
A735
330
A6EF
100
AcDbEntity
  8
1
  6
Continuous
100
AcDbLine
 10
137.0285299999999
 20
234.914632
 30
0.0
 11
135.7785299999999
 21
234.3526119999999
 31
0.0
  0
LINE
  5
A736
330
A6EF
100
AcDbEntity
  8
1
  6
Continuous
100
AcDbLine
 10
131.902431
 20
230.402612
 30
0.0
 11
135.1785319999999
 21
230.402612
 31
0.0
  0
LINE
  5
A737
330
A6EF
100
AcDbEntity
  8
1
  6
Continuous
100
AcDbLine
 10
135.178528
 20
230.4026149999998
 30
0.0
 11
135.178528
 21
233.678716
 31
0.0
  0
LINE
  5
A738
330
A6EF
100
AcDbEntity
  8
1
  6
Continuous
100
AcDbLine
 10
135.7785299999999
 20
229.8026169999999
 30
0.0
 11
135.1785319999999
 21
230.4026149999998
 31
0.0
  0
LINE
  5
A739
330
A6EF
100
AcDbEntity
  8
1
  6
Continuous
100
AcDbLine
 10
135.778507
 20
234.352593
 30
0.0
 11
134.528515
 21
234.914609
 31
0.0
  0
LINE
  5
A73A
330
A6EF
100
AcDbEntity
  8
1
  6
Continuous
100
AcDbLine
 10
130.666515
 20
231.0526209999999
 30
0.0
 11
131.228535
 21
229.8026209999999
 31
0.0
  0
LINE
  5
A73B
330
A6EF
100
AcDbEntity
  8
1
  6
Continuous
100
AcDbLine
 10
135.1785319999999
 20
225.9265179999999
 30
0.0
 11
135.1785319999999
 21
229.202619
 31
0.0
  0
LINE
  5
A73C
330
A6EF
100
AcDbEntity
  8
1
  6
Continuous
100
AcDbLine
 10
135.1785319999999
 20
229.202611
 30
0.0
 11
131.902431
 21
229.202611
 31
0.0
  0
LINE
  5
A73D
330
A6EF
100
AcDbEntity
  8
1
  6
Continuous
100
AcDbLine
 10
135.778522
 20
229.802609
 30
0.0
 11
135.178524
 21
229.202611
 31
0.0
  0
LINE
  5
A73E
330
A6EF
100
AcDbEntity
  8
1
  6
Continuous
100
AcDbLine
 10
131.228527
 20
229.802606
 30
0.0
 11
130.666511
 21
228.5526089999999
 31
0.0
  0
LINE
  5
A73F
330
A6EF
100
AcDbEntity
  8
1
  6
Continuous
100
AcDbLine
 10
134.52853
 20
224.6906099999999
 30
0.0
 11
135.7785299999999
 21
225.252629
 31
0.0
  0
LINE
  5
A740
330
A6EF
100
AcDbEntity
  8
1
  6
Continuous
100
AcDbLine
 10
153.1582069999998
 20
168.8249899999999
 30
0.0
 11
152.9252699999998
 21
168.1907449999999
 31
0.0
  0
LINE
  5
A741
330
A6EF
100
AcDbEntity
  8
1
  6
Continuous
100
AcDbLine
 10
150.5816949999999
 20
166.5526159999997
 30
0.0
 11
120.978527
 21
166.5526159999997
 31
0.0
  0
LINE
  5
A742
330
A6EF
100
AcDbEntity
  8
1
  6
Continuous
100
AcDbLine
 10
118.398855
 20
168.824994
 30
0.0
 11
118.6317899999999
 21
168.1907479999999
 31
0.0
  0
LINE
  5
A743
330
A6EF
100
AcDbEntity
  8
1
  6
Continuous
100
AcDbLine
 10
62.158207
 20
168.8251779999999
 30
0.0
 11
61.92527
 21
168.190933
 31
0.0
  0
LINE
  5
A744
330
A6EF
100
AcDbEntity
  8
1
  6
Continuous
100
AcDbLine
 10
59.581695
 20
166.552804
 30
0.0
 11
29.97852700000001
 21
166.552804
 31
0.0
  0
LINE
  5
A745
330
A6EF
100
AcDbEntity
  8
1
  6
Continuous
100
AcDbLine
 10
27.398853
 20
168.825183
 30
0.0
 11
27.631794
 21
168.190938
 31
0.0
  0
LINE
  5
A746
330
A6EF
100
AcDbEntity
  8
4
  6
CENTER
 48
0.5
100
AcDbLine
 10
58.77853
 20
174.452805
 30
0.0
 11
58.77853
 21
165.452805
 31
0.0
  0
LINE
  5
A747
330
A6EF
100
AcDbEntity
  8
4
  6
CENTER
 48
0.5
100
AcDbLine
 10
30.77853
 20
174.452805
 30
0.0
 11
30.77853
 21
165.452805
 31
0.0
  0
LINE
  5
A748
330
A6EF
100
AcDbEntity
  8
1
  6
Continuous
100
AcDbLine
 10
122.2785299999999
 20
165.7526149999999
 30
0.0
 11
149.2785299999999
 21
165.7526149999999
 31
0.0
  0
LINE
  5
A749
330
A6EF
100
AcDbEntity
  8
1
  6
Continuous
100
AcDbLine
 10
119.27853
 20
160.0526139999998
 30
0.0
 11
120.5349409999999
 21
160.0526139999998
 31
0.0
  0
LINE
  5
A74A
330
A6EF
100
AcDbEntity
  8
1
  6
Continuous
100
AcDbLine
 10
151.7785299999999
 20
160.3116719999999
 30
0.0
 11
149.3086779999998
 21
160.1094189999997
 31
0.0
  0
LINE
  5
A74B
330
A6EF
100
AcDbEntity
  8
1
  6
Continuous
100
AcDbLine
 10
123.77853
 20
164.1448709999997
 30
0.0
 11
123.77853
 21
146.077217
 31
0.0
  0
LINE
  5
A74C
330
A6EF
100
AcDbEntity
  8
1
  6
Continuous
100
AcDbLine
 10
118.278282
 20
162.5526139999998
 30
0.0
 11
121.7187989999999
 21
164.7213689999998
 31
0.0
  0
LINE
  5
A74D
330
A6EF
100
AcDbEntity
  8
4
  6
CENTER
 48
0.5
100
AcDbLine
 10
122.778531
 20
160.7526169999998
 30
0.0
 11
122.778531
 21
115.7526169999999
 31
0.0
  0
LINE
  5
A74E
330
A6EF
100
AcDbEntity
  8
4
  6
CENTER
 48
0.5
100
AcDbLine
 10
98.77853100000001
 20
139.7526169999999
 30
0.0
 11
146.7785309999999
 21
139.7526169999999
 31
0.0
  0
LINE
  5
A74F
330
A6EF
100
AcDbEntity
  8
1
  6
Continuous
100
AcDbLine
 10
31.27852999999999
 20
165.7528029999998
 30
0.0
 11
58.27853000000001
 21
165.7528029999998
 31
0.0
  0
LINE
  5
A750
330
A6EF
100
AcDbEntity
  8
1
  6
Continuous
100
AcDbLine
 10
28.77852999999999
 20
163.252803
 30
0.0
 11
28.77852999999999
 21
146.1247789999999
 31
0.0
  0
LINE
  5
A751
330
A6EF
100
AcDbEntity
  8
1
  6
Continuous
100
AcDbLine
 10
38.52852999999999
 20
163.024482
 30
0.0
 11
38.52852999999999
 21
159.852802
 31
0.0
  0
LINE
  5
A752
330
A6EF
100
AcDbEntity
  8
1
  6
Continuous
100
AcDbLine
 10
60.77853000000001
 20
163.252803
 30
0.0
 11
60.77853000000001
 21
146.1247789999999
 31
0.0
  0
LINE
  5
A753
330
A6EF
100
AcDbEntity
  8
1
  6
Continuous
100
AcDbLine
 10
51.02852999999999
 20
163.024482
 30
0.0
 11
51.02852999999999
 21
159.852802
 31
0.0
  0
LINE
  5
A754
330
A6EF
100
AcDbEntity
  8
1
  6
Continuous
100
AcDbLine
 10
34.27852999999998
 20
160.373477
 30
0.0
 11
34.27852999999998
 21
133.729805
 31
0.0
  0
LINE
  5
A755
330
A6EF
100
AcDbEntity
  8
1
  6
Continuous
100
AcDbLine
 10
55.27853
 20
160.373477
 30
0.0
 11
55.27853
 21
133.729805
 31
0.0
  0
LINE
  5
A756
330
A6EF
100
AcDbEntity
  8
1
  6
Continuous
100
AcDbLine
 10
56.878528
 20
133.729805
 30
0.0
 11
55.27853
 21
133.729805
 31
0.0
  0
LINE
  5
A757
330
A6EF
100
AcDbEntity
  8
1
  6
Continuous
100
AcDbLine
 10
34.27852999999998
 20
133.729805
 30
0.0
 11
32.67853199999999
 21
133.729805
 31
0.0
  0
LINE
  5
A758
330
A6EF
100
AcDbEntity
  8
1
  6
Continuous
100
AcDbLine
 10
56.878528
 20
161.309579
 30
0.0
 11
56.878528
 21
133.729805
 31
0.0
  0
LINE
  5
A759
330
A6EF
100
AcDbEntity
  8
1
  6
Continuous
100
AcDbLine
 10
32.67853199999999
 20
161.309591
 30
0.0
 11
32.67853199999999
 21
133.729805
 31
0.0
  0
LINE
  5
A75A
330
A6EF
100
AcDbEntity
  8
1
  6
Continuous
100
AcDbLine
 10
56.878528
 20
143.7526169999999
 30
0.0
 11
57.478527
 21
143.7526169999999
 31
0.0
  0
LINE
  5
A75B
330
A6EF
100
AcDbEntity
  8
1
  6
Continuous
100
AcDbLine
 10
56.878528
 20
135.7526169999997
 30
0.0
 11
57.478527
 21
135.7526169999997
 31
0.0
  0
LINE
  5
A75C
330
A6EF
100
AcDbEntity
  8
1
  6
Continuous
100
AcDbLine
 10
59.178528
 20
140.852608
 30
0.0
 11
59.178528
 21
138.6526259999999
 31
0.0
  0
LINE
  5
A75D
330
A6EF
100
AcDbEntity
  8
1
  6
Continuous
100
AcDbLine
 10
57.478527
 20
143.7526169999999
 30
0.0
 11
57.478527
 21
135.7526169999997
 31
0.0
  0
LINE
  5
A75E
330
A6EF
100
AcDbEntity
  8
1
  6
Continuous
100
AcDbLine
 10
30.47853499999999
 20
142.5728189999998
 30
0.0
 11
30.47853499999999
 21
136.9324149999999
 31
0.0
  0
LINE
  5
A75F
330
A6EF
100
AcDbEntity
  8
1
  6
Continuous
100
AcDbLine
 10
31.278538
 20
143.552612
 30
0.0
 11
31.278538
 21
135.952618
 31
0.0
  0
LINE
  5
A760
330
A6EF
100
AcDbEntity
  8
1
  6
Continuous
100
AcDbLine
 10
31.278545
 20
135.952621
 30
0.0
 11
32.678539
 21
136.729809
 31
0.0
  0
LINE
  5
A761
330
A6EF
100
AcDbEntity
  8
1
  6
Continuous
100
AcDbLine
 10
32.67853199999999
 20
142.729801
 30
0.0
 11
31.278538
 21
143.552612
 31
0.0
  0
ARC
  5
A762
330
A6EF
100
AcDbEntity
  8
1
  6
Continuous
100
AcDbCircle
 10
181.43716
 20
229.8026169999999
 30
0.0
 40
26.0
100
AcDbArc
 50
153.1528
 51
206.84718
  0
CIRCLE
  5
A763
330
A6EF
100
AcDbEntity
  8
1
  6
Continuous
100
AcDbCircle
 10
135.7785299999999
 20
229.8026169999999
 30
0.0
 40
15.7
  0
CIRCLE
  5
A764
330
A6EF
100
AcDbEntity
  8
1
  6
Continuous
100
AcDbCircle
 10
135.7785299999999
 20
229.8026169999999
 30
0.0
 40
6.7
  0
CIRCLE
  5
A765
330
A6EF
100
AcDbEntity
  8
1
  6
Continuous
100
AcDbCircle
 10
135.7785299999999
 20
229.8026169999999
 30
0.0
 40
13.9
  0
ARC
  5
A766
330
A6EF
100
AcDbEntity
  8
1
  6
Continuous
100
AcDbCircle
 10
117.77853
 20
243.802617
 30
0.0
 40
5.0
100
AcDbArc
 50
89.99998199999996
 51
206.8471699999999
  0
CIRCLE
  5
A767
330
A6EF
100
AcDbEntity
  8
1
  6
Continuous
100
AcDbCircle
 10
117.77853
 20
243.802617
 30
0.0
 40
2.649999999999999
  0
ARC
  5
A768
330
A6EF
100
AcDbEntity
  8
1
  6
Continuous
100
AcDbCircle
 10
153.7785299999999
 20
243.802617
 30
0.0
 40
5.0
100
AcDbArc
 50
333.1527899999998
 51
89.99998199999996
  0
CIRCLE
  5
A769
330
A6EF
100
AcDbEntity
  8
1
  6
Continuous
100
AcDbCircle
 10
153.7785299999999
 20
243.802617
 30
0.0
 40
2.649999999999999
  0
ARC
  5
A76A
330
A6EF
100
AcDbEntity
  8
1
  6
Continuous
100
AcDbCircle
 10
117.77853
 20
215.8026169999998
 30
0.0
 40
5.0
100
AcDbArc
 50
153.1528099999999
 51
269.99995
  0
CIRCLE
  5
A76B
330
A6EF
100
AcDbEntity
  8
1
  6
Continuous
100
AcDbCircle
 10
117.77853
 20
215.8026169999998
 30
0.0
 40
2.649999999999999
  0
ARC
  5
A76C
330
A6EF
100
AcDbEntity
  8
1
  6
Continuous
100
AcDbCircle
 10
153.7785299999999
 20
215.8026169999998
 30
0.0
 40
5.0
100
AcDbArc
 50
269.9999599999998
 51
26.847209
  0
CIRCLE
  5
A76D
330
A6EF
100
AcDbEntity
  8
1
  6
Continuous
100
AcDbCircle
 10
153.7785299999999
 20
215.8026169999998
 30
0.0
 40
2.649999999999999
  0
ARC
  5
A76E
330
A6EF
100
AcDbEntity
  8
1
  6
Continuous
100
AcDbCircle
 10
90.119895
 20
229.8026169999999
 30
0.0
 40
26.0
100
AcDbArc
 50
333.1527899999998
 51
26.847215
  0
ARC
  5
A76F
330
A6EF
100
AcDbEntity
  8
1
  6
Continuous
100
AcDbCircle
 10
135.7785299999999
 20
229.8026169999999
 30
0.0
 40
5.299999999999998
100
AcDbArc
 50
14.255605
 51
75.74442799999999
  0
ARC
  5
A770
330
A6EF
100
AcDbEntity
  8
1
  6
Continuous
100
AcDbCircle
 10
131.902431
 20
231.902615
 30
0.0
 40
1.5
100
AcDbArc
 50
214.51823
 51
269.9999599999998
  0
ARC
  5
A771
330
A6EF
100
AcDbEntity
  8
1
  6
Continuous
100
AcDbCircle
 10
131.902431
 20
227.7026189999999
 30
0.0
 40
1.5
100
AcDbArc
 50
90.00000900000001
 51
145.48158
  0
ARC
  5
A772
330
A6EF
100
AcDbEntity
  8
1
  6
Continuous
100
AcDbCircle
 10
133.6785319999999
 20
225.9265179999999
 30
0.0
 40
1.5
100
AcDbArc
 50
304.5182199999998
 51
359.9999599999999
  0
ARC
  5
A773
330
A6EF
100
AcDbEntity
  8
1
  6
Continuous
100
AcDbCircle
 10
139.654629
 20
227.7026189999999
 30
0.0
 40
1.5
100
AcDbArc
 50
34.518219
 51
89.999955
  0
ARC
  5
A774
330
A6EF
100
AcDbEntity
  8
1
  6
Continuous
100
AcDbCircle
 10
137.878528
 20
225.9265179999999
 30
0.0
 40
1.5
100
AcDbArc
 50
180.00001
 51
235.4815899999999
  0
ARC
  5
A775
330
A6EF
100
AcDbEntity
  8
1
  6
Continuous
100
AcDbCircle
 10
139.654629
 20
231.902615
 30
0.0
 40
1.5
100
AcDbArc
 50
270.00002
 51
325.48159
  0
ARC
  5
A776
330
A6EF
100
AcDbEntity
  8
1
  6
Continuous
100
AcDbCircle
 10
137.878528
 20
233.678716
 30
0.0
 40
1.5
100
AcDbArc
 50
124.51821
 51
179.9999599999999
  0
ARC
  5
A777
330
A6EF
100
AcDbEntity
  8
1
  6
Continuous
100
AcDbCircle
 10
133.6785319999999
 20
233.678716
 30
0.0
 40
1.5
100
AcDbArc
 50
0.000014
 51
55.481586
  0
ARC
  5
A778
330
A6EF
100
AcDbEntity
  8
1
  6
Continuous
100
AcDbCircle
 10
135.7785299999999
 20
229.8026169999999
 30
0.0
 40
5.299999999999998
100
AcDbArc
 50
104.25605
 51
165.74435
  0
ARC
  5
A779
330
A6EF
100
AcDbEntity
  8
1
  6
Continuous
100
AcDbCircle
 10
135.7785299999999
 20
229.8026169999999
 30
0.0
 40
5.299999999999998
100
AcDbArc
 50
194.25556
 51
255.7441999999999
  0
ARC
  5
A77A
330
A6EF
100
AcDbEntity
  8
1
  6
Continuous
100
AcDbCircle
 10
135.7785299999999
 20
229.8026169999999
 30
0.0
 40
5.299999999999998
100
AcDbArc
 50
284.2548299999999
 51
345.74491
  0
ARC
  5
A77B
330
A6EF
100
AcDbEntity
  8
1
  6
Continuous
100
AcDbCircle
 10
150.5785329999999
 20
169.0526139999998
 30
0.0
 40
2.5
100
AcDbArc
 50
270.00002
 51
339.83362
  0
ARC
  5
A77C
330
A6EF
100
AcDbEntity
  8
1
  6
Continuous
100
AcDbCircle
 10
153.627552
 20
168.6526159999999
 30
0.0
 40
0.5
100
AcDbArc
 50
90.000023
 51
159.83356
  0
ARC
  5
A77D
330
A6EF
100
AcDbEntity
  8
1
  6
Continuous
100
AcDbCircle
 10
120.9785289999999
 20
169.0526179999999
 30
0.0
 40
2.5
100
AcDbArc
 50
200.1663699999999
 51
270.00002
  0
ARC
  5
A77E
330
A6EF
100
AcDbEntity
  8
1
  6
Continuous
100
AcDbCircle
 10
117.929506
 20
168.6526209999998
 30
0.0
 40
0.5
100
AcDbArc
 50
20.16642
 51
89.99996199999998
  0
ARC
  5
A77F
330
A6EF
100
AcDbEntity
  8
1
  6
Continuous
100
AcDbCircle
 10
135.7785299999999
 20
166.5341149999999
 30
0.0
 40
2.381499999999999
100
AcDbArc
 50
340.8432
 51
0.0
  0
ARC
  5
A780
330
A6EF
100
AcDbEntity
  8
1
  6
Continuous
100
AcDbCircle
 10
140.4197689999998
 20
166.5341149999999
 30
0.0
 40
2.381499999999999
100
AcDbArc
 50
192.9830899999998
 51
199.15678
  0
ARC
  5
A781
330
A6EF
100
AcDbEntity
  8
1
  6
Continuous
100
AcDbCircle
 10
144.123917
 20
166.5341149999999
 30
0.0
 40
2.381499999999999
100
AcDbArc
 50
340.8432
 51
0.0
  0
ARC
  5
A782
330
A6EF
100
AcDbEntity
  8
1
  6
Continuous
100
AcDbCircle
 10
146.14307
 20
166.5341149999999
 30
0.0
 40
2.381499999999999
100
AcDbArc
 50
340.8432
 51
0.0
  0
ARC
  5
A783
330
A6EF
100
AcDbEntity
  8
1
  6
Continuous
100
AcDbCircle
 10
135.7785299999999
 20
166.5341149999999
 30
0.0
 40
2.381499999999999
100
AcDbArc
 50
180.0000399999998
 51
199.15678
  0
ARC
  5
A784
330
A6EF
100
AcDbEntity
  8
1
  6
Continuous
100
AcDbCircle
 10
131.137291
 20
166.5341149999999
 30
0.0
 40
2.381499999999999
100
AcDbArc
 50
180.0000399999998
 51
199.15678
  0
ARC
  5
A785
330
A6EF
100
AcDbEntity
  8
1
  6
Continuous
100
AcDbCircle
 10
127.4331429999999
 20
166.5341149999999
 30
0.0
 40
2.381499999999999
100
AcDbArc
 50
180.0000399999998
 51
199.15678
  0
ARC
  5
A786
330
A6EF
100
AcDbEntity
  8
1
  6
Continuous
100
AcDbCircle
 10
125.4139919999998
 20
166.5341149999999
 30
0.0
 40
2.381499999999999
100
AcDbArc
 50
180.0000399999998
 51
199.15678
  0
ARC
  5
A787
330
A6EF
100
AcDbEntity
  8
1
  6
Continuous
100
AcDbCircle
 10
59.578533
 20
169.052802
 30
0.0
 40
2.5
100
AcDbArc
 50
270.00002
 51
339.83362
  0
ARC
  5
A788
330
A6EF
100
AcDbEntity
  8
1
  6
Continuous
100
AcDbCircle
 10
62.627552
 20
168.6528039999998
 30
0.0
 40
0.5
100
AcDbArc
 50
90.000023
 51
159.83356
  0
ARC
  5
A789
330
A6EF
100
AcDbEntity
  8
1
  6
Continuous
100
AcDbCircle
 10
29.97852700000001
 20
169.052806
 30
0.0
 40
2.5
100
AcDbArc
 50
200.1663699999999
 51
270.00002
  0
ARC
  5
A78A
330
A6EF
100
AcDbEntity
  8
1
  6
Continuous
100
AcDbCircle
 10
26.929508
 20
168.6528089999999
 30
0.0
 40
0.5
100
AcDbArc
 50
20.16642
 51
89.99996199999998
  0
ARC
  5
A78B
330
A6EF
100
AcDbEntity
  8
1
  6
Continuous
100
AcDbCircle
 10
44.77852999999998
 20
166.534303
 30
0.0
 40
2.381499999999999
100
AcDbArc
 50
340.8431699999998
 51
0.0
  0
ARC
  5
A78C
330
A6EF
100
AcDbEntity
  8
1
  6
Continuous
100
AcDbCircle
 10
49.419773
 20
166.534303
 30
0.0
 40
2.381499999999999
100
AcDbArc
 50
192.9830899999998
 51
199.15675
  0
ARC
  5
A78D
330
A6EF
100
AcDbEntity
  8
1
  6
Continuous
100
AcDbCircle
 10
53.123917
 20
166.534303
 30
0.0
 40
2.381499999999999
100
AcDbArc
 50
340.8432
 51
0.0
  0
ARC
  5
A78E
330
A6EF
100
AcDbEntity
  8
1
  6
Continuous
100
AcDbCircle
 10
55.14306999999998
 20
166.534303
 30
0.0
 40
2.381499999999999
100
AcDbArc
 50
340.8432
 51
0.0
  0
ARC
  5
A78F
330
A6EF
100
AcDbEntity
  8
1
  6
Continuous
100
AcDbCircle
 10
44.77852999999998
 20
166.534303
 30
0.0
 40
2.381499999999999
100
AcDbArc
 50
180.0000399999998
 51
199.1568
  0
ARC
  5
A790
330
A6EF
100
AcDbEntity
  8
1
  6
Continuous
100
AcDbCircle
 10
40.137287
 20
166.534303
 30
0.0
 40
2.381499999999999
100
AcDbArc
 50
180.0000399999998
 51
199.15675
  0
ARC
  5
A791
330
A6EF
100
AcDbEntity
  8
1
  6
Continuous
100
AcDbCircle
 10
36.43314699999999
 20
166.534303
 30
0.0
 40
2.381499999999999
100
AcDbArc
 50
180.0000399999998
 51
199.1568
  0
ARC
  5
A792
330
A6EF
100
AcDbEntity
  8
1
  6
Continuous
100
AcDbCircle
 10
34.41399
 20
166.534303
 30
0.0
 40
2.381499999999999
100
AcDbArc
 50
180.0000399999998
 51
199.15675
  0
ARC
  5
A793
330
A6EF
100
AcDbEntity
  8
1
  6
Continuous
100
AcDbCircle
 10
140.4197689999998
 20
166.5341149999999
 30
0.0
 40
2.381499999999999
100
AcDbArc
 50
340.8432
 51
0.445121
  0
ARC
  5
A794
330
A6EF
100
AcDbEntity
  8
1
  6
Continuous
100
AcDbCircle
 10
131.137291
 20
166.5341149999999
 30
0.0
 40
2.381499999999999
100
AcDbArc
 50
340.8432
 51
347.0169399999999
  0
ARC
  5
A795
330
A6EF
100
AcDbEntity
  8
1
  6
Continuous
100
AcDbCircle
 10
40.137287
 20
166.534303
 30
0.0
 40
2.381499999999999
100
AcDbArc
 50
340.84323
 51
347.0169399999999
  0
ARC
  5
A796
330
A6EF
100
AcDbEntity
  8
1
  6
Continuous
100
AcDbCircle
 10
49.419773
 20
166.534303
 30
0.0
 40
2.381499999999999
100
AcDbArc
 50
340.8432
 51
0.0
  0
ARC
  5
A797
330
A6EF
100
AcDbEntity
  8
1
  6
Continuous
100
AcDbCircle
 10
122.57853
 20
139.7526169999999
 30
0.0
 40
6.0
100
AcDbArc
 50
168.647377
 51
319.6098769999998
  0
ARC
  5
A798
330
A6EF
100
AcDbEntity
  8
1
  6
Continuous
100
AcDbCircle
 10
135.550385
 20
153.6124969999999
 30
0.0
 40
12.0
100
AcDbArc
 50
221.26059
 51
254.7659769999999
  0
ARC
  5
A799
330
A6EF
100
AcDbEntity
  8
1
  6
Continuous
100
AcDbCircle
 10
123.249172
 20
163.0913639999999
 30
0.0
 40
5.0
100
AcDbArc
 50
186.1856099999999
 51
217.4269699999999
  0
ARC
  5
A79A
330
A6EF
100
AcDbEntity
  8
1
  6
Continuous
100
AcDbCircle
 10
117.0592889999997
 20
157.9783749999998
 30
0.0
 40
5.0
100
AcDbArc
 50
41.79275599999999
 51
66.18413699999999
  0
CIRCLE
  5
A79B
330
A6EF
100
AcDbEntity
  8
1
  6
Continuous
100
AcDbCircle
 10
122.778531
 20
139.7526169999999
 30
0.0
 40
1.1
  0
CIRCLE
  5
A79C
330
A6EF
100
AcDbEntity
  8
1
  6
Continuous
100
AcDbCircle
 10
122.778531
 20
139.7526169999999
 30
0.0
 40
4.0
  0
ARC
  5
A79D
330
A6EF
100
AcDbEntity
  8
1
  6
Continuous
100
AcDbCircle
 10
31.27852999999999
 20
163.252803
 30
0.0
 40
2.5
100
AcDbArc
 50
89.99998199999996
 51
179.9999599999999
  0
ARC
  5
A79E
330
A6EF
100
AcDbEntity
  8
1
  6
Continuous
100
AcDbCircle
 10
34.17852399999999
 20
160.752803
 30
0.0
 40
1.599998999999999
100
AcDbArc
 50
30.64817599999999
 51
159.63544
  0
ARC
  5
A79F
330
A6EF
100
AcDbEntity
  8
1
  6
Continuous
100
AcDbCircle
 10
38.566128
 20
163.352599
 30
0.0
 40
3.5
100
AcDbArc
 50
210.64809
 51
270.00002
  0
ARC
  5
A7A0
330
A6EF
100
AcDbEntity
  8
1
  6
Continuous
100
AcDbCircle
 10
38.52852999999999
 20
164.852802
 30
0.0
 40
5.0
100
AcDbArc
 50
235.7834299999999
 51
270.00002
  0
ARC
  5
A7A1
330
A6EF
100
AcDbEntity
  8
1
  6
Continuous
100
AcDbCircle
 10
35.154598
 20
159.89129
 30
0.0
 40
1.0
100
AcDbArc
 50
55.78356899999999
 51
151.1716599999997
  0
ARC
  5
A7A2
330
A6EF
100
AcDbEntity
  8
1
  6
Continuous
100
AcDbCircle
 10
33.17837100000001
 20
146.1247789999999
 30
0.0
 40
4.4
100
AcDbArc
 50
179.9999799999999
 51
232.1967099999999
  0
ARC
  5
A7A3
330
A6EF
100
AcDbEntity
  8
1
  6
Continuous
100
AcDbCircle
 10
44.850338
 20
60.05283499999999
 30
0.0
 40
100.0
100
AcDbArc
 50
90.04116099999995
 51
93.624565
  0
ARC
  5
A7A4
330
A6EF
100
AcDbEntity
  8
1
  6
Continuous
100
AcDbCircle
 10
58.27853000000001
 20
163.252803
 30
0.0
 40
2.5
100
AcDbArc
 50
0.0
 51
89.99998199999996
  0
ARC
  5
A7A5
330
A6EF
100
AcDbEntity
  8
1
  6
Continuous
100
AcDbCircle
 10
55.37853199999999
 20
160.752803
 30
0.0
 40
1.599998999999999
100
AcDbArc
 50
20.364178
 51
149.35179
  0
ARC
  5
A7A6
330
A6EF
100
AcDbEntity
  8
1
  6
Continuous
100
AcDbCircle
 10
50.990932
 20
163.352599
 30
0.0
 40
3.5
100
AcDbArc
 50
269.9999599999998
 51
329.3518899999999
  0
ARC
  5
A7A7
330
A6EF
100
AcDbEntity
  8
1
  6
Continuous
100
AcDbCircle
 10
51.02852999999999
 20
164.852802
 30
0.0
 40
5.0
100
AcDbArc
 50
269.9999599999998
 51
304.2165499999998
  0
ARC
  5
A7A8
330
A6EF
100
AcDbEntity
  8
1
  6
Continuous
100
AcDbCircle
 10
54.402462
 20
159.89129
 30
0.0
 40
1.0
100
AcDbArc
 50
28.828357
 51
124.2163899999999
  0
ARC
  5
A7A9
330
A6EF
100
AcDbEntity
  8
1
  6
Continuous
100
AcDbCircle
 10
56.378689
 20
146.1247789999999
 30
0.0
 40
4.4
100
AcDbArc
 50
300.64805
 51
0.0
  0
ARC
  5
A7AA
330
A6EF
100
AcDbEntity
  8
1
  6
Continuous
100
AcDbCircle
 10
44.706722
 20
60.05283499999999
 30
0.0
 40
100.0
100
AcDbArc
 50
86.37539900000001
 51
89.95880300000001
  0
ARC
  5
A7AB
330
A6EF
100
AcDbEntity
  8
1
  6
Continuous
100
AcDbCircle
 10
53.978527
 20
139.7526169999999
 30
0.0
 40
5.315071999999998
100
AcDbArc
 50
11.94407899999999
 51
48.814075
  0
ARC
  5
A7AC
330
A6EF
100
AcDbEntity
  8
1
  6
Continuous
100
AcDbCircle
 10
53.978527
 20
139.7526169999999
 30
0.0
 40
5.315071999999998
100
AcDbArc
 50
311.1859299999998
 51
348.0558299999998
  0
ARC
  5
A7AD
330
A6EF
100
AcDbEntity
  8
1
  6
Continuous
100
AcDbCircle
 10
31.478535
 20
142.5728189999998
 30
0.0
 40
1.0
100
AcDbArc
 50
101.5367899999999
 51
179.9999599999999
  0
ARC
  5
A7AE
330
A6EF
100
AcDbEntity
  8
1
  6
Continuous
100
AcDbCircle
 10
31.478535
 20
136.9324149999999
 30
0.0
 40
1.0
100
AcDbArc
 50
179.9999799999999
 51
258.4632099999998
  0
ARC
  5
A7AF
330
A6EF
100
AcDbEntity
  8
1
  6
Continuous
100
AcDbCircle
 10
122.778531
 20
139.7526169999999
 30
0.0
 40
19.0
100
AcDbArc
 50
97.68020800000002
 51
31.68486099999999
  0
ARC
  5
A7B0
330
A6EF
100
AcDbEntity
  8
1
  6
Continuous
100
AcDbCircle
 10
149.635141
 20
156.1227629999999
 30
0.0
 40
4.0
100
AcDbArc
 50
94.681446
 51
139.609877
  0
ARC
  5
A7B1
330
A6EF
100
AcDbEntity
  8
1
  6
Continuous
100
AcDbCircle
 10
90.119895
 20
61.70261700000001
 30
0.0
 40
26.0
100
AcDbArc
 50
333.152785
 51
340.9178749999998
  0
ARC
  5
A7B2
330
A6EF
100
AcDbEntity
  8
1
  6
Continuous
100
AcDbCircle
 10
181.43716
 20
61.70261700000001
 30
0.0
 40
26.0
100
AcDbArc
 50
153.1528199999999
 51
206.8471999999999
  0
LINE
  5
A7B3
330
A6EF
100
AcDbEntity
  8
4
  6
CENTER
 48
0.5
100
AcDbLine
 10
135.7785299999999
 20
37.70261699999997
 30
0.0
 11
135.7785299999999
 21
85.70261700000001
 31
0.0
  0
LINE
  5
A7B4
330
A6EF
100
AcDbEntity
  8
1
  6
Continuous
100
AcDbLine
 10
117.77853
 20
80.70261700000001
 30
0.0
 11
153.7785299999999
 21
80.70261700000001
 31
0.0
  0
ARC
  5
A7B5
330
A6EF
100
AcDbEntity
  8
1
  6
Continuous
100
AcDbCircle
 10
117.77853
 20
75.702617
 30
0.0
 40
2.649999999999999
100
AcDbArc
 50
359.291514
 51
243.07459
  0
ARC
  5
A7B6
330
A6EF
100
AcDbEntity
  8
1
  6
Continuous
100
AcDbCircle
 10
117.77853
 20
75.702617
 30
0.0
 40
5.0
100
AcDbArc
 50
90.00004999999999
 51
206.84719
  0
LINE
  5
A7B7
330
A6EF
100
AcDbEntity
  8
4
  6
CENTER
 48
0.5
100
AcDbLine
 10
120.77853
 20
75.702617
 30
0.0
 11
112.7785299999999
 21
75.702617
 31
0.0
  0
LINE
  5
A7B8
330
A6EF
100
AcDbEntity
  8
4
  6
CENTER
 48
0.5
100
AcDbLine
 10
117.77853
 20
79.702617
 30
0.0
 11
117.77853
 21
71.70261700000001
 31
0.0
  0
ARC
  5
A7B9
330
A6EF
100
AcDbEntity
  8
1
  6
Continuous
100
AcDbCircle
 10
153.7785299999999
 20
75.702617
 30
0.0
 40
5.0
100
AcDbArc
 50
333.1527909999998
 51
90.00004000000002
  0
LINE
  5
A7BA
330
A6EF
100
AcDbEntity
  8
4
  6
CENTER
 48
0.5
100
AcDbLine
 10
149.7785299999998
 20
75.702617
 30
0.0
 11
157.7785299999999
 21
75.702617
 31
0.0
  0
CIRCLE
  5
A7BB
330
A6EF
100
AcDbEntity
  8
1
  6
Continuous
100
AcDbCircle
 10
153.7785299999999
 20
75.702617
 30
0.0
 40
2.649999999999999
  0
LINE
  5
A7BC
330
A6EF
100
AcDbEntity
  8
4
  6
CENTER
 48
0.5
100
AcDbLine
 10
153.7785299999999
 20
79.702617
 30
0.0
 11
153.7785299999999
 21
71.70261700000001
 31
0.0
  0
LINE
  5
A7BD
330
A6EF
100
AcDbEntity
  8
4
  6
CENTER
 48
0.5
100
AcDbLine
 10
98.77853000000001
 20
61.70261700000001
 30
0.0
 11
158.7785299999999
 21
61.70261700000001
 31
0.0
  0
LINE
  5
A7BE
330
A6EF
100
AcDbEntity
  8
1
  6
Continuous
100
AcDbLine
 10
117.77853
 20
42.70261699999998
 30
0.0
 11
153.7785299999999
 21
42.70261699999998
 31
0.0
  0
ARC
  5
A7BF
330
A6EF
100
AcDbEntity
  8
1
  6
Continuous
100
AcDbCircle
 10
117.77853
 20
47.70261699999998
 30
0.0
 40
2.649999999999999
100
AcDbArc
 50
116.92541
 51
353.4998589999998
  0
ARC
  5
A7C0
330
A6EF
100
AcDbEntity
  8
1
  6
Continuous
100
AcDbCircle
 10
117.77853
 20
47.70261699999998
 30
0.0
 40
5.0
100
AcDbArc
 50
153.15283
 51
270.0000179999999
  0
LINE
  5
A7C1
330
A6EF
100
AcDbEntity
  8
4
  6
CENTER
 48
0.5
100
AcDbLine
 10
117.77853
 20
43.70261699999999
 30
0.0
 11
117.77853
 21
51.702617
 31
0.0
  0
LINE
  5
A7C2
330
A6EF
100
AcDbEntity
  8
4
  6
CENTER
 48
0.5
100
AcDbLine
 10
121.77853
 20
47.70261699999998
 30
0.0
 11
113.7785299999999
 21
47.70261699999998
 31
0.0
  0
CIRCLE
  5
A7C3
330
A6EF
100
AcDbEntity
  8
1
  6
Continuous
100
AcDbCircle
 10
153.7785299999999
 20
47.70261699999998
 30
0.0
 40
2.649999999999999
  0
ARC
  5
A7C4
330
A6EF
100
AcDbEntity
  8
1
  6
Continuous
100
AcDbCircle
 10
153.7785299999999
 20
47.70261699999998
 30
0.0
 40
5.0
100
AcDbArc
 50
270.0000179999999
 51
26.84720999999999
  0
LINE
  5
A7C5
330
A6EF
100
AcDbEntity
  8
4
  6
CENTER
 48
0.5
100
AcDbLine
 10
153.7785299999999
 20
43.70261699999999
 30
0.0
 11
153.7785299999999
 21
51.702617
 31
0.0
  0
LINE
  5
A7C6
330
A6EF
100
AcDbEntity
  8
4
  6
CENTER
 48
0.5
100
AcDbLine
 10
149.7785299999998
 20
47.70261699999998
 30
0.0
 11
157.7785299999999
 21
47.70261699999998
 31
0.0
  0
LINE
  5
A7C7
330
A6EF
100
AcDbEntity
  8
4
  6
CENTER
 48
0.5
100
AcDbLine
 10
122.77853
 20
39.70261699999998
 30
0.0
 11
122.77853
 21
83.70261700000002
 31
0.0
  0
LINE
  5
A7C8
330
A6EF
100
AcDbEntity
  8
1
  6
Continuous
100
AcDbLine
 10
132.1910509999999
 20
49.60261899999999
 30
0.0
 11
116.57853
 21
49.60261899999999
 31
0.0
  0
LINE
  5
A7C9
330
A6EF
100
AcDbEntity
  8
1
  6
Continuous
100
AcDbLine
 10
131.3785289999999
 20
51.202617
 30
0.0
 11
116.57853
 21
51.202617
 31
0.0
  0
ARC
  5
A7CA
330
A6EF
100
AcDbEntity
  8
1
  6
Continuous
100
AcDbCircle
 10
119.9583279999999
 20
48.40262199999999
 30
0.0
 40
1.0
100
AcDbArc
 50
191.536784
 51
269.9999599999998
  0
LINE
  5
A7CB
330
A6EF
100
AcDbEntity
  8
1
  6
Continuous
100
AcDbLine
 10
119.801346
 20
49.60261899999999
 30
0.0
 11
118.9785349999999
 21
48.202625
 31
0.0
  0
ARC
  5
A7CC
330
A6EF
100
AcDbEntity
  8
1
  6
Continuous
100
AcDbCircle
 10
125.598732
 20
48.40262199999999
 30
0.0
 40
1.0
100
AcDbArc
 50
269.99998
 51
348.46321
  0
LINE
  5
A7CD
330
A6EF
100
AcDbEntity
  8
1
  6
Continuous
100
AcDbLine
 10
126.5785259999999
 20
48.202632
 30
0.0
 11
125.8013379999999
 21
49.602626
 31
0.0
  0
LINE
  5
A7CE
330
A6EF
100
AcDbEntity
  8
1
  6
Continuous
100
AcDbLine
 10
119.9583279999999
 20
47.40262199999999
 30
0.0
 11
125.598732
 21
47.40262199999999
 31
0.0
  0
LINE
  5
A7CF
330
A6EF
100
AcDbEntity
  8
1
  6
Continuous
100
AcDbLine
 10
118.9785309999999
 20
48.202625
 30
0.0
 11
126.5785289999999
 21
48.202625
 31
0.0
  0
LINE
  5
A7D0
330
A6EF
100
AcDbEntity
  8
1
  6
Continuous
100
AcDbLine
 10
131.3785289999999
 20
72.202617
 30
0.0
 11
116.57853
 21
72.202617
 31
0.0
  0
LINE
  5
A7D1
330
A6EF
100
AcDbEntity
  8
1
  6
Continuous
100
AcDbLine
 10
132.1910509999999
 20
73.802615
 30
0.0
 11
116.57853
 21
73.802615
 31
0.0
  0
LINE
  5
A7D2
330
A6EF
100
AcDbEntity
  8
1
  6
Continuous
100
AcDbLine
 10
118.77853
 20
73.802615
 30
0.0
 11
118.77853
 21
74.402614
 31
0.0
  0
LINE
  5
A7D3
330
A6EF
100
AcDbEntity
  8
1
  6
Continuous
100
AcDbLine
 10
126.77853
 20
73.802615
 30
0.0
 11
126.77853
 21
74.402614
 31
0.0
  0
LINE
  5
A7D4
330
A6EF
100
AcDbEntity
  8
1
  6
Continuous
100
AcDbLine
 10
121.6785389999997
 20
76.102615
 30
0.0
 11
123.8785209999999
 21
76.102615
 31
0.0
  0
ARC
  5
A7D5
330
A6EF
100
AcDbEntity
  8
1
  6
Continuous
100
AcDbCircle
 10
122.77853
 20
70.902614
 30
0.0
 40
5.315071999999998
100
AcDbArc
 50
41.18592999999999
 51
78.05583
  0
LINE
  5
A7D6
330
A6EF
100
AcDbEntity
  8
1
  6
Continuous
100
AcDbLine
 10
118.77853
 20
74.402614
 30
0.0
 11
126.77853
 21
74.402614
 31
0.0
  0
ARC
  5
A7D7
330
A6EF
100
AcDbEntity
  8
1
  6
Continuous
100
AcDbCircle
 10
122.77853
 20
70.902614
 30
0.0
 40
5.315071999999998
100
AcDbArc
 50
101.9440789999999
 51
138.8140629999997
  0
ARC
  5
A7D8
330
A6EF
100
AcDbEntity
  8
1
  6
Continuous
100
AcDbCircle
 10
90.119895
 20
61.70261700000001
 30
0.0
 40
26.0
100
AcDbArc
 50
19.082125
 51
26.84720999999999
  0
LINE
  5
A7D9
330
A6EF
100
AcDbEntity
  8
1
  6
Continuous
100
AcDbLine
 10
116.57853
 20
51.202617
 30
0.0
 11
116.57853
 21
49.60261899999999
 31
0.0
  0
LINE
  5
A7DA
330
A6EF
100
AcDbEntity
  8
1
  6
Continuous
100
AcDbLine
 10
116.57853
 20
73.802615
 30
0.0
 11
116.57853
 21
72.202617
 31
0.0
  0
ARC
  5
A7DB
330
A6EF
100
AcDbEntity
  8
1
  6
Continuous
100
AcDbCircle
 10
135.7785299999999
 20
61.70261700000001
 30
0.0
 40
8.899995999999998
100
AcDbArc
 50
252.757085
 51
287.2429149999998
  0
ARC
  5
A7DC
330
A6EF
100
AcDbEntity
  8
1
  6
Continuous
100
AcDbCircle
 10
135.7785299999999
 20
61.70261700000001
 30
0.0
 40
8.899995999999998
100
AcDbArc
 50
72.757085
 51
107.242915
  0
ARC
  5
A7DD
330
A6EF
100
AcDbEntity
  8
1
  6
Continuous
100
AcDbCircle
 10
135.7785299999999
 20
61.70261700000001
 30
0.0
 40
8.899995999999998
100
AcDbArc
 50
307.067811
 51
52.93218899999999
  0
LINE
  5
A7DE
330
A6EF
100
AcDbEntity
  8
4
  6
CENTER
 48
0.5
100
AcDbLine
 10
122.77853
 20
251.802617
 30
0.0
 11
122.77853
 21
207.802617
 31
0.0
  0
LINE
  5
A7E6
330
A6EF
100
AcDbEntity
  8
4
  6
CENTER
 48
0.5
100
AcDbLine
 10
217.77853
 20
174.452805
 30
0.0
 11
217.77853
 21
115.7336169999999
 31
0.0
  0
LINE
  5
A7E7
330
A6EF
100
AcDbEntity
  8
1
  6
Continuous
100
AcDbLine
 10
233.7785299999999
 20
163.252803
 30
0.0
 11
233.7785299999999
 21
145.2996809999999
 31
0.0
  0
LINE
  5
A7E8
330
A6EF
100
AcDbEntity
  8
1
  6
Continuous
100
AcDbLine
 10
231.2785149999999
 20
135.952621
 30
0.0
 11
229.878521
 21
136.729809
 31
0.0
  0
LINE
  5
A7E9
330
A6EF
100
AcDbEntity
  8
4
  6
CENTER
 48
0.5
100
AcDbLine
 10
233.8646049999999
 20
139.7526169999999
 30
0.0
 11
201.4813
 21
139.7526169999999
 31
0.0
  0
ARC
  5
A7EA
330
A6EF
100
AcDbEntity
  8
1
  6
Continuous
100
AcDbCircle
 10
231.078525
 20
136.9324149999999
 30
0.0
 40
1.0
100
AcDbArc
 50
281.53679
 51
0.00002
  0
LINE
  5
A7EB
330
A6EF
100
AcDbEntity
  8
1
  6
Continuous
100
AcDbLine
 10
231.278522
 20
142.3370909999998
 30
0.0
 11
231.278522
 21
135.952618
 31
0.0
  0
LINE
  5
A7EC
330
A6EF
100
AcDbEntity
  8
1
  6
Continuous
100
AcDbLine
 10
232.078525
 20
142.756897
 30
0.0
 11
232.078525
 21
136.9324149999999
 31
0.0
  0
LINE
  5
A7ED
330
A6EF
100
AcDbEntity
  8
1
  6
Continuous
100
AcDbLine
 10
228.27853
 20
133.729805
 30
0.0
 11
229.878528
 21
133.729805
 31
0.0
  0
LINE
  5
A7EE
330
A6EF
100
AcDbEntity
  8
1
  6
Continuous
100
AcDbLine
 10
205.6785319999999
 20
133.729805
 30
0.0
 11
207.27853
 21
133.729805
 31
0.0
  0
ARC
  5
A7EF
330
A6EF
100
AcDbEntity
  8
1
  6
Continuous
100
AcDbCircle
 10
208.5785329999999
 20
139.7526169999999
 30
0.0
 40
5.315071999999998
100
AcDbArc
 50
191.9441699999999
 51
228.81407
  0
ARC
  5
A7F0
330
A6EF
100
AcDbEntity
  8
1
  6
Continuous
100
AcDbCircle
 10
208.5785329999999
 20
139.7526169999999
 30
0.0
 40
5.315071999999998
100
AcDbArc
 50
149.375121
 51
168.055921
  0
LINE
  5
A7F1
330
A6EF
100
AcDbEntity
  8
1
  6
Continuous
100
AcDbLine
 10
205.078533
 20
142.125436
 30
0.0
 11
205.078533
 21
135.7526169999997
 31
0.0
  0
LINE
  5
A7F2
330
A6EF
100
AcDbEntity
  8
1
  6
Continuous
100
AcDbLine
 10
203.378532
 20
140.852608
 30
0.0
 11
203.378532
 21
138.6526259999999
 31
0.0
  0
LINE
  5
A7F3
330
A6EF
100
AcDbEntity
  8
1
  6
Continuous
100
AcDbLine
 10
205.6785319999999
 20
135.7526169999997
 30
0.0
 11
205.078533
 21
135.7526169999997
 31
0.0
  0
LINE
  5
A7F4
330
A6EF
100
AcDbEntity
  8
1
  6
Continuous
100
AcDbLine
 10
231.2785299999999
 20
165.7528029999998
 30
0.0
 11
204.2785299999999
 21
165.7528029999998
 31
0.0
  0
LINE
  5
A7F5
330
A6EF
100
AcDbEntity
  8
1
  6
Continuous
100
AcDbLine
 10
202.975364
 20
166.552804
 30
0.0
 11
232.5785329999999
 21
166.552804
 31
0.0
  0
LINE
  5
A7F6
330
A6EF
100
AcDbEntity
  8
1
  6
Continuous
100
AcDbLine
 10
236.7785299999999
 20
170.752805
 30
0.0
 11
198.7785299999999
 21
170.752805
 31
0.0
  0
LINE
  5
A7F7
330
A6EF
100
AcDbEntity
  8
1
  6
Continuous
100
AcDbLine
 10
236.7785299999999
 20
169.152805
 30
0.0
 11
198.7785299999999
 21
169.152805
 31
0.0
  0
ARC
  5
A7F8
330
A6EF
100
AcDbEntity
  8
1
  6
Continuous
100
AcDbCircle
 10
231.2785299999999
 20
163.252803
 30
0.0
 40
2.5
100
AcDbArc
 50
0.00004
 51
90.00001800000005
  0
LINE
  5
A7F9
330
A6EF
100
AcDbEntity
  8
4
  6
CENTER
 48
0.5
100
AcDbLine
 10
231.77853
 20
174.452805
 30
0.0
 11
231.77853
 21
165.452805
 31
0.0
  0
LINE
  5
A7FA
330
A6EF
100
AcDbEntity
  8
1
  6
Continuous
100
AcDbLine
 10
235.1582069999998
 20
168.825183
 30
0.0
 11
234.9252659999999
 21
168.190938
 31
0.0
  0
ARC
  5
A7FB
330
A6EF
100
AcDbEntity
  8
1
  6
Continuous
100
AcDbCircle
 10
235.627552
 20
168.6528089999999
 30
0.0
 40
0.5
100
AcDbArc
 50
90.00003799999998
 51
159.83358
  0
ARC
  5
A7FC
330
A6EF
100
AcDbEntity
  8
1
  6
Continuous
100
AcDbCircle
 10
232.5785329999999
 20
169.052806
 30
0.0
 40
2.5
100
AcDbArc
 50
269.99998
 51
339.8336299999998
  0
LINE
  5
A7FD
330
A6EF
100
AcDbEntity
  8
1
  6
Continuous
100
AcDbLine
 10
236.7785299999999
 20
170.752805
 30
0.0
 11
236.7785299999999
 21
169.152805
 31
0.0
  0
ARC
  5
A7FE
330
A6EF
100
AcDbEntity
  8
1
  6
Continuous
100
AcDbCircle
 10
213.1372869999999
 20
166.534303
 30
0.0
 40
2.381499999999999
100
AcDbArc
 50
340.8432499999999
 51
347.01691
  0
ARC
  5
A7FF
330
A6EF
100
AcDbEntity
  8
1
  6
Continuous
100
AcDbCircle
 10
222.4197729999999
 20
166.534303
 30
0.0
 40
2.381499999999999
100
AcDbArc
 50
192.98306
 51
199.15677
  0
ARC
  5
A800
330
A6EF
100
AcDbEntity
  8
1
  6
Continuous
100
AcDbCircle
 10
228.14307
 20
166.534303
 30
0.0
 40
2.381499999999999
100
AcDbArc
 50
340.8432499999999
 51
359.9999599999999
  0
ARC
  5
A801
330
A6EF
100
AcDbEntity
  8
1
  6
Continuous
100
AcDbCircle
 10
226.1239129999999
 20
166.534303
 30
0.0
 40
2.381499999999999
100
AcDbArc
 50
340.8432
 51
359.9999599999999
  0
ARC
  5
A802
330
A6EF
100
AcDbEntity
  8
1
  6
Continuous
100
AcDbCircle
 10
222.4197729999999
 20
166.534303
 30
0.0
 40
2.381499999999999
100
AcDbArc
 50
340.8432499999999
 51
359.9999599999999
  0
ARC
  5
A803
330
A6EF
100
AcDbEntity
  8
1
  6
Continuous
100
AcDbCircle
 10
217.77853
 20
166.534303
 30
0.0
 40
2.381499999999999
100
AcDbArc
 50
340.8432
 51
359.9999599999999
  0
ARC
  5
A804
330
A6EF
100
AcDbEntity
  8
1
  6
Continuous
100
AcDbCircle
 10
217.77853
 20
166.534303
 30
0.0
 40
2.381499999999999
100
AcDbArc
 50
180.0
 51
199.15683
  0
ARC
  5
A805
330
A6EF
100
AcDbEntity
  8
1
  6
Continuous
100
AcDbCircle
 10
204.2785299999999
 20
163.252803
 30
0.0
 40
2.5
100
AcDbArc
 50
90.00001800000005
 51
180.0
  0
LINE
  5
A806
330
A6EF
100
AcDbEntity
  8
4
  6
CENTER
 48
0.5
100
AcDbLine
 10
203.7785299999999
 20
174.452805
 30
0.0
 11
203.7785299999999
 21
165.452805
 31
0.0
  0
ARC
  5
A807
330
A6EF
100
AcDbEntity
  8
1
  6
Continuous
100
AcDbCircle
 10
213.1372869999999
 20
166.534303
 30
0.0
 40
2.381499999999999
100
AcDbArc
 50
180.0
 51
199.1568
  0
ARC
  5
A808
330
A6EF
100
AcDbEntity
  8
1
  6
Continuous
100
AcDbCircle
 10
207.41399
 20
166.534303
 30
0.0
 40
2.381499999999999
100
AcDbArc
 50
180.0
 51
199.1568
  0
ARC
  5
A809
330
A6EF
100
AcDbEntity
  8
1
  6
Continuous
100
AcDbCircle
 10
209.4331429999999
 20
166.534303
 30
0.0
 40
2.381499999999999
100
AcDbArc
 50
180.0
 51
199.1568
  0
LINE
  5
A80A
330
A6EF
100
AcDbEntity
  8
1
  6
Continuous
100
AcDbLine
 10
200.3988529999999
 20
168.8251779999999
 30
0.0
 11
200.6317899999999
 21
168.190933
 31
0.0
  0
ARC
  5
A80B
330
A6EF
100
AcDbEntity
  8
1
  6
Continuous
100
AcDbCircle
 10
199.9295079999999
 20
168.6528039999998
 30
0.0
 40
0.5
100
AcDbArc
 50
20.16643999999998
 51
89.99997699999999
  0
ARC
  5
A80C
330
A6EF
100
AcDbEntity
  8
1
  6
Continuous
100
AcDbCircle
 10
202.978527
 20
169.052802
 30
0.0
 40
2.5
100
AcDbArc
 50
200.16638
 51
269.99998
  0
LINE
  5
A80D
330
A6EF
100
AcDbEntity
  8
1
  6
Continuous
100
AcDbLine
 10
198.7785299999999
 20
170.752805
 30
0.0
 11
198.7785299999999
 21
169.152805
 31
0.0
  0
LINE
  5
A80E
330
A6EF
100
AcDbEntity
  8
1
  6
Continuous
100
AcDbLine
 10
229.878528
 20
141.1802749999999
 30
0.0
 11
229.878528
 21
133.729805
 31
0.0
  0
LINE
  5
A80F
330
A6EF
100
AcDbEntity
  8
1
  6
Continuous
100
AcDbLine
 10
228.27853
 20
157.724037
 30
0.0
 11
228.27853
 21
133.729805
 31
0.0
  0
LINE
  5
A810
330
A6EF
100
AcDbEntity
  8
1
  6
Continuous
100
AcDbLine
 10
208.2214830030528
 20
160.333805
 30
0.0
 11
227.335575996947
 21
160.333805
 31
0.0
  0
LINE
  5
A811
330
A6EF
100
AcDbEntity
  8
1
  6
Continuous
100
AcDbLine
 10
205.6785319999999
 20
141.1802749999999
 30
0.0
 11
205.6785319999999
 21
133.729805
 31
0.0
  0
LINE
  5
A812
330
A6EF
100
AcDbEntity
  8
1
  6
Continuous
100
AcDbLine
 10
207.27853
 20
157.724037
 30
0.0
 11
207.27853
 21
142.729805
 31
0.0
  0
LINE
  5
A813
330
A6EF
100
AcDbEntity
  8
1
  6
Continuous
100
AcDbLine
 10
207.278532
 20
157.7240399999998
 30
0.0
 11
207.278532
 21
133.729805
 31
0.0
  0
ARC
  5
A814
330
A6EF
100
AcDbEntity
  8
1
  6
Continuous
100
AcDbCircle
 10
135.7785299999999
 20
61.70261700000001
 30
0.0
 40
13.4
100
AcDbArc
 50
264.3036259999997
 51
95.69637400000001
  0
ARC
  5
A815
330
A6EF
100
AcDbEntity
  8
1
  6
Continuous
100
AcDbCircle
 10
135.7785299999999
 20
61.70261700000001
 30
0.0
 40
17.37967699999999
100
AcDbArc
 50
235.3660559999999
 51
127.0366379999999
  0
LINE
  5
A816
330
A6EF
100
AcDbEntity
  8
1
  6
Continuous
100
AcDbLine
 10
151.7785299999999
 20
163.2526149999999
 30
0.0
 11
151.7785299999999
 21
160.3116719999999
 31
0.0
  0
ARC
  5
A817
330
A6EF
100
AcDbEntity
  8
1
  6
Continuous
100
AcDbCircle
 10
149.2785299999999
 20
163.2526149999999
 30
0.0
 40
2.5
100
AcDbArc
 50
0.0
 51
90.0
  0
ARC
  5
A818
330
A6EF
100
AcDbEntity
  8
1
  6
Continuous
100
AcDbCircle
 10
122.2785299999999
 20
163.2526149999999
 30
0.0
 40
2.5
100
AcDbArc
 50
90.0
 51
174.172479
  0
ARC
  5
A81A
330
A6EF
100
AcDbEntity
  8
1
  6
Continuous
100
AcDbCircle
 10
210.438193
 20
145.2996809999999
 30
0.0
 40
23.34033599999999
100
AcDbArc
 50
1.180668999999997
 51
37.64549476116818
  0
ARC
  5
A81B
330
A6EF
100
AcDbEntity
  8
1
  6
Continuous
100
AcDbCircle
 10
210.438193
 20
145.2996809999999
 30
0.0
 40
21.740336
100
AcDbArc
 50
1.347553999999999
 51
43.751448
  0
ARC
  5
A81C
330
A6EF
100
AcDbEntity
  8
1
  6
Continuous
100
AcDbCircle
 10
225.118866
 20
145.2996809999999
 30
0.0
 40
21.740336
100
AcDbArc
 50
136.2485519999999
 51
178.652446
  0
ARC
  5
A81D
330
A6EF
100
AcDbEntity
  8
1
  6
Continuous
100
AcDbCircle
 10
225.118866
 20
145.2996809999999
 30
0.0
 40
23.34033599999999
100
AcDbArc
 50
142.3545052388321
 51
178.819331
  0
LINE
  5
A81E
330
A6EF
100
AcDbEntity
  8
1
  6
Continuous
100
AcDbLine
 10
201.7785299999999
 20
163.252803
 30
0.0
 11
201.7785299999999
 21
145.977149
 31
0.0
  0
ARC
  5
A81F
330
A6EF
100
AcDbEntity
  8
1
  6
Continuous
100
AcDbCircle
 10
135.7785299999999
 20
61.70261700000001
 30
0.0
 40
16.0
100
AcDbArc
 50
233.2174509999999
 51
125.5485699999999
  0
ARC
  5
A820
330
A6EF
100
AcDbEntity
  8
1
  6
Continuous
100
AcDbCircle
 10
135.7785299999999
 20
61.70261700000001
 30
0.0
 40
14.4
100
AcDbArc
 50
269.9999959999999
 51
90.0
  0
CIRCLE
  5
A821
330
A6EF
100
AcDbEntity
  8
1
  6
Continuous
100
AcDbCircle
 10
312.7785289999998
 20
139.7526169999999
 30
0.0
 40
4.0
  0
ARC
  5
A822
330
A6EF
100
AcDbEntity
  8
1
  6
Continuous
100
AcDbCircle
 10
205.67853
 20
145.977149
 30
0.0
 40
3.9
100
AcDbArc
 50
180.0
 51
258.2242799999999
  0
ARC
  5
A823
330
A6EF
100
AcDbEntity
  8
1
  6
Continuous
100
AcDbCircle
 10
205.67853
 20
145.977149
 30
0.0
 40
2.299999999999998
100
AcDbArc
 50
180.0
 51
258.2242799999999
  0
ARC
  5
A824
330
A6EF
100
AcDbEntity
  8
1
  6
Continuous
100
AcDbCircle
 10
204.678532
 20
141.1802749999999
 30
0.0
 40
1.0
100
AcDbArc
 50
0.0
 51
78.22427999999998
  0
ARC
  5
A825
330
A6EF
100
AcDbEntity
  8
1
  6
Continuous
100
AcDbCircle
 10
204.678532
 20
141.1802749999999
 30
0.0
 40
2.6
100
AcDbArc
 50
0.0
 51
78.22427999999998
  0
ARC
  5
A826
330
A6EF
100
AcDbEntity
  8
1
  6
Continuous
100
AcDbCircle
 10
229.87853
 20
145.977149
 30
0.0
 40
2.299999999999998
100
AcDbArc
 50
281.7757199999998
 51
0.0
  0
ARC
  5
A827
330
A6EF
100
AcDbEntity
  8
1
  6
Continuous
100
AcDbCircle
 10
230.8785279999999
 20
141.1802749999999
 30
0.0
 40
2.6
100
AcDbArc
 50
101.7757199999997
 51
180.0
  0
ARC
  5
A828
330
A6EF
100
AcDbEntity
  8
1
  6
Continuous
100
AcDbCircle
 10
229.87853
 20
145.977149
 30
0.0
 40
3.9
100
AcDbArc
 50
281.7757199999998
 51
0.0
  0
ARC
  5
A829
330
A6EF
100
AcDbEntity
  8
1
  6
Continuous
100
AcDbCircle
 10
230.8785279999999
 20
141.1802749999999
 30
0.0
 40
1.0
100
AcDbArc
 50
101.7757199999997
 51
180.0
  0
ARC
  5
A82A
330
A6EF
100
AcDbEntity
  8
1
  6
Continuous
100
AcDbCircle
 10
135.778529
 20
75.10261699999998
 30
0.0
 40
2.6
100
AcDbArc
 50
90.0
 51
184.780224
  0
ARC
  5
A82B
330
A6EF
100
AcDbEntity
  8
1
  6
Continuous
100
AcDbCircle
 10
131.3785289999999
 20
74.80261699999998
 30
0.0
 40
2.6
100
AcDbArc
 50
270.0
 51
337.4971049999998
  0
ARC
  5
A82C
330
A6EF
100
AcDbEntity
  8
1
  6
Continuous
100
AcDbCircle
 10
135.778529
 20
75.10261699999998
 30
0.0
 40
1.0
100
AcDbArc
 50
90.0
 51
137.2502069999999
  0
ARC
  5
A82D
330
A6EF
100
AcDbEntity
  8
1
  6
Continuous
100
AcDbCircle
 10
139.939976
 20
71.255842
 30
0.0
 40
6.667037999999998
100
AcDbArc
 50
137.2502069999999
 51
157.497105
  0
ARC
  5
A82E
330
A6EF
100
AcDbEntity
  8
1
  6
Continuous
100
AcDbCircle
 10
132.1910509999999
 20
74.80261500000001
 30
0.0
 40
1.0
100
AcDbArc
 50
270.0
 51
4.780223999999998
  0
ARC
  5
A82F
330
A6EF
100
AcDbEntity
  8
1
  6
Continuous
100
AcDbCircle
 10
135.778529
 20
48.302617
 30
0.0
 40
2.6
100
AcDbArc
 50
175.219776
 51
270.0
  0
ARC
  5
A830
330
A6EF
100
AcDbEntity
  8
1
  6
Continuous
100
AcDbCircle
 10
132.1910509999999
 20
48.602619
 30
0.0
 40
1.0
100
AcDbArc
 50
355.2197759999998
 51
90.0
  0
ARC
  5
A831
330
A6EF
100
AcDbEntity
  8
1
  6
Continuous
100
AcDbCircle
 10
131.3785289999999
 20
48.60261699999998
 30
0.0
 40
2.6
100
AcDbArc
 50
22.502895
 51
90.0
  0
ARC
  5
A832
330
A6EF
100
AcDbEntity
  8
1
  6
Continuous
100
AcDbCircle
 10
139.939976
 20
52.14939099999998
 30
0.0
 40
6.667037999999998
100
AcDbArc
 50
202.5028949999998
 51
222.749793
  0
ARC
  5
A833
330
A6EF
100
AcDbEntity
  8
1
  6
Continuous
100
AcDbCircle
 10
135.778529
 20
48.302617
 30
0.0
 40
1.0
100
AcDbArc
 50
222.749793
 51
270.0
  0
LINE
  5
A834
330
A6EF
100
AcDbEntity
  8
1
  6
Continuous
100
AcDbLine
 10
146.588541
 20
158.714718
 30
0.0
 11
127.14843
 21
135.864685
 31
0.0
  0
LINE
  5
A835
330
A6EF
100
AcDbEntity
  8
1
  6
Continuous
100
AcDbLine
 10
116.695924
 20
140.933697
 30
0.0
 11
120.7870899999999
 21
161.3105659999999
 31
0.0
  0
ARC
  5
A836
330
A6EF
100
AcDbEntity
  8
1
  6
Continuous
100
AcDbCircle
 10
312.7785289999998
 20
139.7526169999999
 30
0.0
 40
19.0
100
AcDbArc
 50
148.3151389999999
 51
82.31979200000003
  0
LINE
  5
A837
330
A6EF
100
AcDbEntity
  8
1
  6
Continuous
100
AcDbLine
 10
313.27853
 20
165.7526149999999
 30
0.0
 11
286.27853
 21
165.7526149999999
 31
0.0
  0
ARC
  5
A838
330
A6EF
100
AcDbEntity
  8
1
  6
Continuous
100
AcDbCircle
 10
300.0066749999998
 20
153.6124969999999
 30
0.0
 40
12.0
100
AcDbArc
 50
285.2340229999999
 51
318.73941
  0
LINE
  5
A839
330
A6EF
100
AcDbEntity
  8
1
  6
Continuous
100
AcDbLine
 10
288.968519
 20
158.714718
 30
0.0
 11
308.4086299999999
 21
135.864685
 31
0.0
  0
LINE
  5
A83A
330
A6EF
100
AcDbEntity
  8
1
  6
Continuous
100
AcDbLine
 10
322.7785299999998
 20
170.7526169999999
 30
0.0
 11
276.7785299999999
 21
170.7526169999999
 31
0.0
  0
LINE
  5
A83B
330
A6EF
100
AcDbEntity
  8
1
  6
Continuous
100
AcDbLine
 10
322.7785299999998
 20
169.1526169999999
 30
0.0
 11
276.7785299999999
 21
169.1526169999999
 31
0.0
  0
LINE
  5
A83C
330
A6EF
100
AcDbEntity
  8
1
  6
Continuous
100
AcDbLine
 10
284.975364
 20
166.5526159999997
 30
0.0
 11
314.5785329999998
 21
166.5526159999997
 31
0.0
  0
LINE
  5
A83D
330
A6EF
100
AcDbEntity
  8
4
  6
CENTER
 48
0.5
100
AcDbLine
 10
336.778529
 20
139.7526169999999
 30
0.0
 11
288.778529
 21
139.7526169999999
 31
0.0
  0
ARC
  5
A83E
330
A6EF
100
AcDbEntity
  8
1
  6
Continuous
100
AcDbCircle
 10
312.9785299999998
 20
139.7526169999999
 30
0.0
 40
6.0
100
AcDbArc
 50
220.390123
 51
11.35262299999999
  0
LINE
  5
A83F
330
A6EF
100
AcDbEntity
  8
1
  6
Continuous
100
AcDbLine
 10
318.8611349999998
 20
140.933697
 30
0.0
 11
314.769969
 21
161.3105659999999
 31
0.0
  0
LINE
  5
A840
330
A6EF
100
AcDbEntity
  8
1
  6
Continuous
100
AcDbLine
 10
316.2785299999999
 20
160.0526139999998
 30
0.0
 11
315.0221179999998
 21
160.0526139999998
 31
0.0
  0
LINE
  5
A841
330
A6EF
100
AcDbEntity
  8
4
  6
CENTER
 48
0.5
100
AcDbLine
 10
317.77853
 20
174.452617
 30
0.0
 11
317.77853
 21
165.452617
 31
0.0
  0
LINE
  5
A842
330
A6EF
100
AcDbEntity
  8
1
  6
Continuous
100
AcDbLine
 10
311.7785299999998
 20
164.1448709999997
 30
0.0
 11
311.7785299999998
 21
146.077217
 31
0.0
  0
LINE
  5
A843
330
A6EF
100
AcDbEntity
  8
1
  6
Continuous
100
AcDbLine
 10
322.7785299999998
 20
170.7526169999999
 30
0.0
 11
322.7785299999998
 21
169.1526169999999
 31
0.0
  0
LINE
  5
A844
330
A6EF
100
AcDbEntity
  8
1
  6
Continuous
100
AcDbLine
 10
317.158205
 20
168.824994
 30
0.0
 11
316.92527
 21
168.1907479999999
 31
0.0
  0
LINE
  5
A845
330
A6EF
100
AcDbEntity
  8
1
  6
Continuous
100
AcDbLine
 10
317.278778
 20
162.5526139999998
 30
0.0
 11
313.8382609999998
 21
164.7213689999998
 31
0.0
  0
ARC
  5
A846
330
A6EF
100
AcDbEntity
  8
1
  6
Continuous
100
AcDbCircle
 10
314.5785309999999
 20
169.0526179999999
 30
0.0
 40
2.5
100
AcDbArc
 50
269.99998
 51
339.8336299999998
  0
ARC
  5
A847
330
A6EF
100
AcDbEntity
  8
1
  6
Continuous
100
AcDbCircle
 10
317.6275539999998
 20
168.6526209999998
 30
0.0
 40
0.5
100
AcDbArc
 50
90.00003799999998
 51
159.83358
  0
ARC
  5
A848
330
A6EF
100
AcDbEntity
  8
1
  6
Continuous
100
AcDbCircle
 10
308.1239169999999
 20
166.5341149999999
 30
0.0
 40
2.381499999999999
100
AcDbArc
 50
340.84322
 51
359.9999599999999
  0
ARC
  5
A849
330
A6EF
100
AcDbEntity
  8
1
  6
Continuous
100
AcDbCircle
 10
310.143068
 20
166.5341149999999
 30
0.0
 40
2.381499999999999
100
AcDbArc
 50
340.84322
 51
359.9999599999999
  0
ARC
  5
A84A
330
A6EF
100
AcDbEntity
  8
1
  6
Continuous
100
AcDbCircle
 10
312.307888
 20
163.0913639999999
 30
0.0
 40
5.0
100
AcDbArc
 50
322.5730299999999
 51
353.81439
  0
ARC
  5
A84B
330
A6EF
100
AcDbEntity
  8
1
  6
Continuous
100
AcDbCircle
 10
318.497771
 20
157.9783749999998
 30
0.0
 40
5.0
100
AcDbArc
 50
113.8158629999999
 51
138.2072439999998
  0
ARC
  5
A84C
330
A6EF
100
AcDbEntity
  8
1
  6
Continuous
100
AcDbCircle
 10
313.27853
 20
163.2526149999999
 30
0.0
 40
2.5
100
AcDbArc
 50
5.827520999999999
 51
90.0
  0
LINE
  5
A84D
330
A6EF
100
AcDbEntity
  8
4
  6
CENTER
 48
0.5
100
AcDbLine
 10
312.7785289999998
 20
160.7526169999998
 30
0.0
 11
312.7785289999998
 21
115.7526169999999
 31
0.0
  0
LINE
  5
A84E
330
A6EF
100
AcDbEntity
  8
4
  6
CENTER
 48
0.5
100
AcDbLine
 10
299.7785299999998
 20
174.1026169999999
 30
0.0
 11
299.7785299999998
 21
142.0085607110647
 31
0.0
  0
ARC
  5
A84F
330
A6EF
100
AcDbEntity
  8
1
  6
Continuous
100
AcDbCircle
 10
299.7785299999998
 20
166.5341149999999
 30
0.0
 40
2.381499999999999
100
AcDbArc
 50
180.0
 51
199.1568
  0
ARC
  5
A850
330
A6EF
100
AcDbEntity
  8
1
  6
Continuous
100
AcDbCircle
 10
295.1372909999999
 20
166.5341149999999
 30
0.0
 40
2.381499999999999
100
AcDbArc
 50
340.84322
 51
347.01691
  0
ARC
  5
A851
330
A6EF
100
AcDbEntity
  8
1
  6
Continuous
100
AcDbCircle
 10
299.7785299999998
 20
166.5341149999999
 30
0.0
 40
2.381499999999999
100
AcDbArc
 50
340.84322
 51
359.9999599999999
  0
ARC
  5
A852
330
A6EF
100
AcDbEntity
  8
1
  6
Continuous
100
AcDbCircle
 10
304.4197689999998
 20
166.5341149999999
 30
0.0
 40
2.381499999999999
100
AcDbArc
 50
340.84322
 51
359.9999599999999
  0
ARC
  5
A853
330
A6EF
100
AcDbEntity
  8
1
  6
Continuous
100
AcDbCircle
 10
295.1372909999999
 20
166.5341149999999
 30
0.0
 40
2.381499999999999
100
AcDbArc
 50
179.5548789999998
 51
199.1568
  0
ARC
  5
A854
330
A6EF
100
AcDbEntity
  8
1
  6
Continuous
100
AcDbCircle
 10
304.4197689999998
 20
166.5341149999999
 30
0.0
 40
2.381499999999999
100
AcDbArc
 50
192.98306
 51
199.1568
  0
ARC
  5
A855
330
A6EF
100
AcDbEntity
  8
1
  6
Continuous
100
AcDbCircle
 10
285.921919
 20
156.1227629999999
 30
0.0
 40
4.0
100
AcDbArc
 50
40.39012299999996
 51
85.31855400000003
  0
LINE
  5
A856
330
A6EF
100
AcDbEntity
  8
4
  6
CENTER
 48
0.5
100
AcDbLine
 10
281.77853
 20
174.452617
 30
0.0
 11
281.77853
 21
165.452617
 31
0.0
  0
LINE
  5
A857
330
A6EF
100
AcDbEntity
  8
1
  6
Continuous
100
AcDbLine
 10
276.7785299999999
 20
170.7526169999999
 30
0.0
 11
276.7785299999999
 21
169.1526169999999
 31
0.0
  0
LINE
  5
A858
330
A6EF
100
AcDbEntity
  8
1
  6
Continuous
100
AcDbLine
 10
282.3988529999998
 20
168.8249899999999
 30
0.0
 11
282.6317899999999
 21
168.1907449999999
 31
0.0
  0
LINE
  5
A859
330
A6EF
100
AcDbEntity
  8
1
  6
Continuous
100
AcDbLine
 10
283.7785299999998
 20
160.3116719999999
 30
0.0
 11
286.2483819999998
 21
160.1094189999997
 31
0.0
  0
ARC
  5
A85A
330
A6EF
100
AcDbEntity
  8
1
  6
Continuous
100
AcDbCircle
 10
284.9785269999998
 20
169.0526139999998
 30
0.0
 40
2.5
100
AcDbArc
 50
200.16638
 51
269.99998
  0
ARC
  5
A85B
330
A6EF
100
AcDbEntity
  8
1
  6
Continuous
100
AcDbCircle
 10
281.9295079999998
 20
168.6526159999999
 30
0.0
 40
0.5
100
AcDbArc
 50
20.16643999999998
 51
89.99997699999999
  0
ARC
  5
A85C
330
A6EF
100
AcDbEntity
  8
1
  6
Continuous
100
AcDbCircle
 10
291.4331429999998
 20
166.5341149999999
 30
0.0
 40
2.381499999999999
100
AcDbArc
 50
180.0
 51
199.1568
  0
ARC
  5
A85D
330
A6EF
100
AcDbEntity
  8
1
  6
Continuous
100
AcDbCircle
 10
289.41399
 20
166.5341149999999
 30
0.0
 40
2.381499999999999
100
AcDbArc
 50
180.0
 51
199.1568
  0
LINE
  5
A85E
330
A6EF
100
AcDbEntity
  8
1
  6
Continuous
100
AcDbLine
 10
283.7785299999998
 20
163.2526149999999
 30
0.0
 11
283.7785299999998
 21
160.3116719999999
 31
0.0
  0
ARC
  5
A85F
330
A6EF
100
AcDbEntity
  8
1
  6
Continuous
100
AcDbCircle
 10
286.27853
 20
163.2526149999999
 30
0.0
 40
2.5
100
AcDbArc
 50
90.0
 51
180.0
  0
LINE
  5
A864
330
A6EF
100
AcDbEntity
  8
1
  6
Continuous
100
AcDbLine
 10
207.27853
 20
136.729805
 30
0.0
 11
207.7785299999999
 21
136.729805
 31
0.0
  0
LINE
  5
A865
330
A6EF
100
AcDbEntity
  8
1
  6
Continuous
100
AcDbLine
 10
207.27853
 20
142.729805
 30
0.0
 11
207.7785299999999
 21
142.729805
 31
0.0
  0
LINE
  5
A866
330
A6EF
100
AcDbEntity
  8
1
  6
Continuous
100
AcDbLine
 10
227.77853
 20
142.729805
 30
0.0
 11
228.27853
 21
142.729805
 31
0.0
  0
LINE
  5
A867
330
A6EF
100
AcDbEntity
  8
1
  6
Continuous
100
AcDbLine
 10
227.77853
 20
136.729805
 30
0.0
 11
228.27853
 21
136.729805
 31
0.0
  0
LINE
  5
A868
330
A6EF
100
AcDbEntity
  8
1
  6
Continuous
100
AcDbLine
 10
55.27853
 20
142.729805
 30
0.0
 11
54.77853
 21
142.729805
 31
0.0
  0
LINE
  5
A869
330
A6EF
100
AcDbEntity
  8
1
  6
Continuous
100
AcDbLine
 10
55.27853
 20
136.729805
 30
0.0
 11
54.77853
 21
136.729805
 31
0.0
  0
LINE
  5
A86A
330
A6EF
100
AcDbEntity
  8
1
  6
Continuous
100
AcDbLine
 10
34.77852999999999
 20
136.729805
 30
0.0
 11
34.27852999999998
 21
136.729805
 31
0.0
  0
LINE
  5
A86B
330
A6EF
100
AcDbEntity
  8
1
  6
Continuous
100
AcDbLine
 10
34.77852999999999
 20
142.729805
 30
0.0
 11
34.27852999999998
 21
142.729805
 31
0.0
  0
ARC
  5
A86C
330
A6EF
100
AcDbEntity
  8
1
  6
Continuous
100
AcDbCircle
 10
208.7785299999999
 20
135.0026169999999
 30
0.0
 40
1.0
100
AcDbArc
 50
179.9999799999999
 51
266.06811
  0
ARC
  5
A86D
330
A6EF
100
AcDbEntity
  8
1
  6
Continuous
100
AcDbCircle
 10
208.7785299999999
 20
144.502617
 30
0.0
 40
1.0
100
AcDbArc
 50
93.93188299999998
 51
180.00002
  0
LINE
  5
A86E
330
A6EF
100
AcDbEntity
  8
1
  6
Continuous
100
AcDbLine
 10
207.7785299999999
 20
144.502617
 30
0.0
 11
207.7785299999999
 21
135.0026159999997
 31
0.0
  0
ARC
  5
A86F
330
A6EF
100
AcDbEntity
  8
1
  6
Continuous
100
AcDbCircle
 10
217.77853
 20
118.7526169999999
 30
0.0
 40
40.0
100
AcDbArc
 50
77.73110099999998
 51
102.268899
  0
LINE
  5
A870
330
A6EF
100
AcDbEntity
  8
1
  6
Continuous
100
AcDbLine
 10
209.27853
 20
157.8390589999998
 30
0.0
 11
209.27853
 21
121.6661739999999
 31
0.0
  0
LINE
  5
A871
330
A6EF
100
AcDbEntity
  8
1
  6
Continuous
100
AcDbLine
 10
209.27853
 20
133.9658919999999
 30
0.0
 11
208.7099649999999
 21
134.0049709999999
 31
0.0
  0
LINE
  5
A872
330
A6EF
100
AcDbEntity
  8
1
  6
Continuous
100
AcDbLine
 10
209.27853
 20
145.5393409999998
 30
0.0
 11
208.7099649999999
 21
145.5002619999999
 31
0.0
  0
ARC
  5
A873
330
A6EF
100
AcDbEntity
  8
1
  6
Continuous
100
AcDbCircle
 10
226.7785299999999
 20
144.502617
 30
0.0
 40
1.0
100
AcDbArc
 50
0.000055
 51
86.06818999999999
  0
ARC
  5
A874
330
A6EF
100
AcDbEntity
  8
1
  6
Continuous
100
AcDbCircle
 10
226.7785299999999
 20
135.0026169999999
 30
0.0
 40
1.0
100
AcDbArc
 50
273.9318099999999
 51
359.99995
  0
LINE
  5
A875
330
A6EF
100
AcDbEntity
  8
1
  6
Continuous
100
AcDbLine
 10
227.77853
 20
144.502617
 30
0.0
 11
227.77853
 21
135.0026159999997
 31
0.0
  0
LINE
  5
A876
330
A6EF
100
AcDbEntity
  8
1
  6
Continuous
100
AcDbLine
 10
226.2785299999999
 20
157.8390589999998
 30
0.0
 11
226.2785299999999
 21
121.6661739999999
 31
0.0
  0
LINE
  5
A877
330
A6EF
100
AcDbEntity
  8
1
  6
Continuous
100
AcDbLine
 10
226.2785299999999
 20
145.539342
 30
0.0
 11
226.847095
 21
145.5002619999999
 31
0.0
  0
LINE
  5
A878
330
A6EF
100
AcDbEntity
  8
1
  6
Continuous
100
AcDbLine
 10
226.2785299999999
 20
133.9658919999999
 30
0.0
 11
226.847095
 21
134.0049709999999
 31
0.0
  0
ARC
  5
A879
330
A6EF
100
AcDbEntity
  8
1
  6
Continuous
100
AcDbCircle
 10
53.77853
 20
135.0026169999999
 30
0.0
 40
1.0
100
AcDbArc
 50
273.9318099999999
 51
359.99995
  0
ARC
  5
A87A
330
A6EF
100
AcDbEntity
  8
1
  6
Continuous
100
AcDbCircle
 10
53.77853
 20
144.502617
 30
0.0
 40
1.0
100
AcDbArc
 50
0.000055
 51
86.06818999999999
  0
ARC
  5
A87B
330
A6EF
100
AcDbEntity
  8
1
  6
Continuous
100
AcDbCircle
 10
44.77852999999998
 20
118.7526169999999
 30
0.0
 40
40.0
100
AcDbArc
 50
77.73110099999998
 51
102.268899
  0
LINE
  5
A87C
330
A6EF
100
AcDbEntity
  8
1
  6
Continuous
100
AcDbLine
 10
36.27852999999999
 20
145.5393409999998
 30
0.0
 11
35.70996499999999
 21
145.5002619999999
 31
0.0
  0
LINE
  5
A87D
330
A6EF
100
AcDbEntity
  8
1
  6
Continuous
100
AcDbLine
 10
36.27852999999999
 20
133.9658919999999
 30
0.0
 11
35.70996499999999
 21
134.0049709999999
 31
0.0
  0
LINE
  5
A87E
330
A6EF
100
AcDbEntity
  8
1
  6
Continuous
100
AcDbLine
 10
36.27852999999999
 20
157.8390589999998
 30
0.0
 11
36.27852999999999
 21
121.6661739999999
 31
0.0
  0
LINE
  5
A87F
330
A6EF
100
AcDbEntity
  8
1
  6
Continuous
100
AcDbLine
 10
34.77852999999999
 20
144.502617
 30
0.0
 11
34.77852999999999
 21
135.0026159999997
 31
0.0
  0
ARC
  5
A880
330
A6EF
100
AcDbEntity
  8
1
  6
Continuous
100
AcDbCircle
 10
35.77852999999999
 20
144.502617
 30
0.0
 40
1.0
100
AcDbArc
 50
93.93188299999998
 51
180.00002
  0
ARC
  5
A881
330
A6EF
100
AcDbEntity
  8
1
  6
Continuous
100
AcDbCircle
 10
35.77852999999999
 20
135.0026169999999
 30
0.0
 40
1.0
100
AcDbArc
 50
179.9999799999999
 51
266.06811
  0
LINE
  5
A882
330
A6EF
100
AcDbEntity
  8
1
  6
Continuous
100
AcDbLine
 10
53.27853000000001
 20
133.9658919999999
 30
0.0
 11
53.84709499999999
 21
134.0049709999999
 31
0.0
  0
LINE
  5
A883
330
A6EF
100
AcDbEntity
  8
1
  6
Continuous
100
AcDbLine
 10
53.27853000000001
 20
145.539342
 30
0.0
 11
53.84709499999999
 21
145.5002619999999
 31
0.0
  0
LINE
  5
A884
330
A6EF
100
AcDbEntity
  8
1
  6
Continuous
100
AcDbLine
 10
53.27853000000001
 20
157.8390589999998
 30
0.0
 11
53.27853000000001
 21
121.6661739999999
 31
0.0
  0
LINE
  5
A885
330
A6EF
100
AcDbEntity
  8
1
  6
Continuous
100
AcDbLine
 10
54.77853
 20
144.502617
 30
0.0
 11
54.77853
 21
135.0026159999997
 31
0.0
  0
ARC
  5
A886
330
A6EF
100
AcDbEntity
  8
1
  6
Continuous
100
AcDbCircle
 10
122.778531
 20
139.7526169999999
 30
0.0
 40
16.5
100
AcDbArc
 50
100.7038619999998
 51
28.852944
  0
ARC
  5
A887
330
A6EF
100
AcDbEntity
  8
1
  6
Continuous
100
AcDbCircle
 10
312.7785289999998
 20
139.7526169999999
 30
0.0
 40
16.5
100
AcDbArc
 50
151.147056
 51
79.296138
  0
ARC
  5
A888
330
A6EF
100
AcDbEntity
  8
1
  6
Continuous
100
AcDbCircle
 10
143.7785299999999
 20
229.8026169999999
 30
0.0
 40
40.0
100
AcDbArc
 50
167.7311009999999
 51
192.268899
  0
LINE
  5
A889
330
A6EF
100
AcDbEntity
  8
1
  6
Continuous
100
AcDbLine
 10
104.692087
 20
238.3026169999999
 30
0.0
 11
114.69122
 21
238.3026169999999
 31
0.0
  0
LINE
  5
A88A
330
A6EF
100
AcDbEntity
  8
1
  6
Continuous
100
AcDbLine
 10
104.692087
 20
221.302617
 30
0.0
 11
114.69122
 21
221.302617
 31
0.0
  0
LINE
  5
A88B
330
A6EF
100
AcDbEntity
  8
1
  6
Continuous
100
AcDbLine
 10
104.692087
 20
70.202617
 30
0.0
 11
140.8649719999999
 21
70.202617
 31
0.0
  0
ARC
  5
A88C
330
A6EF
100
AcDbEntity
  8
1
  6
Continuous
100
AcDbCircle
 10
143.7785299999999
 20
61.70261700000001
 30
0.0
 40
40.0
100
AcDbArc
 50
167.7311009999999
 51
192.268899
  0
LINE
  5
A88D
330
A6EF
100
AcDbEntity
  8
1
  6
Continuous
100
AcDbLine
 10
104.692087
 20
53.20261699999999
 30
0.0
 11
140.8649719999999
 21
53.20261699999999
 31
0.0
  0
ARC
  5
A88E
330
A6EF
100
AcDbEntity
  8
1
  6
Continuous
100
AcDbCircle
 10
127.5285299999999
 20
70.702617
 30
0.0
 40
1.0
100
AcDbArc
 50
3.93181
 51
89.99995000000001
  0
LINE
  5
A88F
330
A6EF
100
AcDbEntity
  8
1
  6
Continuous
100
AcDbLine
 10
128.565255
 20
70.202617
 30
0.0
 11
128.526176
 21
70.771182
 31
0.0
  0
LINE
  5
A890
330
A6EF
100
AcDbEntity
  8
1
  6
Continuous
100
AcDbLine
 10
119.8013419999998
 20
71.70261700000001
 30
0.0
 11
119.8013419999998
 21
72.202617
 31
0.0
  0
LINE
  5
A891
330
A6EF
100
AcDbEntity
  8
1
  6
Continuous
100
AcDbLine
 10
125.8013419999999
 20
71.70261700000001
 30
0.0
 11
125.8013419999999
 21
72.202617
 31
0.0
  0
LINE
  5
A892
330
A6EF
100
AcDbEntity
  8
1
  6
Continuous
100
AcDbLine
 10
118.0285299999999
 20
71.70261700000001
 30
0.0
 11
127.528531
 21
71.70261700000001
 31
0.0
  0
ARC
  5
A893
330
A6EF
100
AcDbEntity
  8
1
  6
Continuous
100
AcDbCircle
 10
118.0285299999999
 20
70.702617
 30
0.0
 40
1.0
100
AcDbArc
 50
90.00005499999994
 51
176.0681899999999
  0
LINE
  5
A894
330
A6EF
100
AcDbEntity
  8
1
  6
Continuous
100
AcDbLine
 10
116.9918049999999
 20
70.202617
 30
0.0
 11
117.030884
 21
70.771182
 31
0.0
  0
LINE
  5
A895
330
A6EF
100
AcDbEntity
  8
1
  6
Continuous
100
AcDbLine
 10
116.9918049999999
 20
53.20261699999999
 30
0.0
 11
117.030884
 21
52.63405200000001
 31
0.0
  0
ARC
  5
A896
330
A6EF
100
AcDbEntity
  8
1
  6
Continuous
100
AcDbCircle
 10
118.0285299999999
 20
52.70261699999998
 30
0.0
 40
1.0
100
AcDbArc
 50
183.931883
 51
270.00002
  0
LINE
  5
A897
330
A6EF
100
AcDbEntity
  8
1
  6
Continuous
100
AcDbLine
 10
119.8013419999998
 20
51.202617
 30
0.0
 11
119.8013419999998
 21
51.702617
 31
0.0
  0
LINE
  5
A898
330
A6EF
100
AcDbEntity
  8
1
  6
Continuous
100
AcDbLine
 10
125.8013419999999
 20
51.202617
 30
0.0
 11
125.8013419999999
 21
51.702617
 31
0.0
  0
LINE
  5
A899
330
A6EF
100
AcDbEntity
  8
1
  6
Continuous
100
AcDbLine
 10
128.565254
 20
53.20261699999999
 30
0.0
 11
128.526176
 21
52.63405200000001
 31
0.0
  0
ARC
  5
A89A
330
A6EF
100
AcDbEntity
  8
1
  6
Continuous
100
AcDbCircle
 10
127.5285299999999
 20
52.70261699999998
 30
0.0
 40
1.0
100
AcDbArc
 50
269.99998
 51
356.06811
  0
LINE
  5
A89B
330
A6EF
100
AcDbEntity
  8
1
  6
Continuous
100
AcDbLine
 10
118.0285299999999
 20
51.702617
 30
0.0
 11
127.528531
 21
51.702617
 31
0.0
  0
ARC
  5
A89C
330
A6EF
100
AcDbEntity
  8
1
  6
Continuous
100
AcDbCircle
 10
101.77853
 20
61.70261700000001
 30
0.0
 40
40.0
100
AcDbArc
 50
347.7311009999998
 51
12.26889899999999
  0
ARC
  5
A89D
330
A6EF
100
AcDbEntity
  8
1
  6
Continuous
100
AcDbCircle
 10
217.77853
 20
160.7526169999998
 30
0.0
 40
40.0
100
AcDbArc
 50
257.7311009999998
 51
282.2688989999998
  0
ARC
  5
A89E
330
A6EF
100
AcDbEntity
  8
1
  6
Continuous
100
AcDbCircle
 10
44.77852999999998
 20
160.7526169999998
 30
0.0
 40
40.0
100
AcDbArc
 50
257.7311009999998
 51
282.2688989999998
  0
ARC
  5
A8C1
330
A6EF
100
AcDbEntity
  8
1
  6
Continuous
100
AcDbCircle
 10
208.2214830030526
 20
158.333805
 30
0.0
 40
2.0
100
AcDbArc
 50
89.9999999999992
 51
142.354505238832
  0
ARC
  5
A8C2
330
A6EF
100
AcDbEntity
  8
1
  6
Continuous
100
AcDbCircle
 10
227.335575996947
 20
158.333805
 30
0.0
 40
2.0
100
AcDbArc
 50
37.64549476116852
 51
90.0
  0
ENDSEC
  0
SECTION
  2
OBJECTS
  0
DICTIONARY
  5
A6DD
330
0
100
AcDbDictionary
281
     1
  3
ACAD_CIP_PREVIOUS_PRODUCT_INFO
350
A922
  3
ACAD_COLOR
350
A904
  3
ACAD_DETAILVIEWSTYLE
350
A91D
  3
ACAD_GROUP
350
A6DE
  3
ACAD_LAYOUT
350
A6EA
  3
ACAD_MATERIAL
350
A8D2
  3
ACAD_MLEADERSTYLE
350
A919
  3
ACAD_MLINESTYLE
350
A6E7
  3
ACAD_PLOTSETTINGS
350
A6E9
  3
ACAD_PLOTSTYLENAME
350
A8D0
  3
ACAD_SCALELIST
350
A907
  3
ACAD_SECTIONVIEWSTYLE
350
A91B
  3
ACAD_TABLESTYLE
350
A905
  3
ACAD_VISUALSTYLE
350
A8EB
  3
ACDB_RECOMPOSE_DATA
350
A940
  3
AcDbVariableDictionary
350
A933
  3
DWGPROPS
350
A941
  0
DICTIONARY
  5
A923
330
A6E1
100
AcDbDictionary
280
     1
281
     1
  3
ADSK_XREC_LAYER_RECONCILED
360
A924
  0
DICTIONARY
  5
A925
330
A6F7
100
AcDbDictionary
280
     1
281
     1
  3
ADSK_XREC_LAYER_RECONCILED
360
A926
  0
DICTIONARY
  5
A927
330
A6F8
100
AcDbDictionary
280
     1
281
     1
  3
ADSK_XREC_LAYER_RECONCILED
360
A928
  0
DICTIONARY
  5
A929
330
A6F9
100
AcDbDictionary
280
     1
281
     1
  3
ADSK_XREC_LAYER_RECONCILED
360
A92A
  0
DICTIONARY
  5
A92B
330
A6FA
100
AcDbDictionary
280
     1
281
     1
  3
ADSK_XREC_LAYER_RECONCILED
360
A92C
  0
DICTIONARY
  5
A92D
330
A6FB
100
AcDbDictionary
280
     1
281
     1
  3
ADSK_XREC_LAYER_RECONCILED
360
A92E
  0
DICTIONARY
  5
A92F
330
A6FC
100
AcDbDictionary
280
     1
281
     1
  3
ADSK_XREC_LAYER_RECONCILED
360
A930
  0
DICTIONARY
  5
A931
330
A6FD
100
AcDbDictionary
280
     1
281
     1
  3
ADSK_XREC_LAYER_RECONCILED
360
A932
  0
DICTIONARY
  5
A8A9
330
A6EF
100
AcDbDictionary
281
     1
  3
ACAD_LAYOUTSELFREF
350
A8CC
  0
DICTIONARY
  5
A8A7
330
A6EB
100
AcDbDictionary
281
     1
  3
ACAD_LAYOUTSELFREF
350
A8CB
  0
XRECORD
  5
A922
102
{ACAD_REACTORS
330
A6DD
102
}
330
A6DD
100
AcDbXrecord
280
     1
300
ACDLT
300
2014
300
ACDLT_F_S
  0
DICTIONARY
  5
A904
102
{ACAD_REACTORS
330
A6DD
102
}
330
A6DD
100
AcDbDictionary
281
     1
  0
DICTIONARY
  5
A91D
102
{ACAD_REACTORS
330
A6DD
102
}
330
A6DD
100
AcDbDictionary
281
     1
  3
Imperial24
350
A91E
  0
DICTIONARY
  5
A6DE
102
{ACAD_REACTORS
330
A6DD
102
}
330
A6DD
100
AcDbDictionary
281
     1
  0
DICTIONARY
  5
A6EA
102
{ACAD_REACTORS
330
A6DD
102
}
330
A6DD
100
AcDbDictionary
281
     1
  3
Model
350
A91F
  3
レイアウト1
350
A920
  0
DICTIONARY
  5
A8D2
102
{ACAD_REACTORS
330
A6DD
102
}
330
A6DD
100
AcDbDictionary
281
     1
  3
ByBlock
350
A8DB
  3
ByLayer
350
A8D3
  3
Global
350
A8E3
  0
DICTIONARY
  5
A919
102
{ACAD_REACTORS
330
A6DD
102
}
330
A6DD
100
AcDbDictionary
281
     1
  3
Standard
350
A91A
  0
DICTIONARY
  5
A6E7
102
{ACAD_REACTORS
330
A6DD
102
}
330
A6DD
100
AcDbDictionary
281
     1
  3
STANDARD
350
A6E8
  0
DICTIONARY
  5
A6E9
102
{ACAD_REACTORS
330
A6DD
102
}
330
A6DD
100
AcDbDictionary
281
     1
  0
ACDBDICTIONARYWDFLT
  5
A8D0
102
{ACAD_REACTORS
330
A6DD
102
}
330
A6DD
100
AcDbDictionary
281
     1
  3
Normal
350
A8D1
100
AcDbDictionaryWithDefault
340
A8D1
  0
DICTIONARY
  5
A907
102
{ACAD_REACTORS
330
A6DD
102
}
330
A6DD
100
AcDbDictionary
281
     1
  3
A0
350
A908
  3
A1
350
A909
  3
A2
350
A90A
  3
A3
350
A90B
  3
A4
350
A90C
  3
A5
350
A90D
  3
A6
350
A90E
  3
A7
350
A90F
  3
A8
350
A910
  3
A9
350
A911
  3
B0
350
A912
  3
B1
350
A913
  3
B2
350
A914
  3
B3
350
A915
  3
B4
350
A916
  3
B5
350
A917
  3
B6
350
A918
  0
DICTIONARY
  5
A91B
102
{ACAD_REACTORS
330
A6DD
102
}
330
A6DD
100
AcDbDictionary
281
     1
  3
Imperial24
350
A91C
  0
DICTIONARY
  5
A905
102
{ACAD_REACTORS
330
A6DD
102
}
330
A6DD
100
AcDbDictionary
281
     1
  3
Standard
350
A906
  0
DICTIONARY
  5
A8EB
102
{ACAD_REACTORS
330
A6DD
102
}
330
A6DD
100
AcDbDictionary
281
     1
  3
2dWireframe
350
A8F1
  3
Basic
350
A8F0
  3
Brighten
350
A8F7
  3
ColorChange
350
A8FB
  3
Conceptual
350
A8F4
  3
Dim
350
A8F6
  3
EdgeColorOff
350
A903
  3
Facepattern
350
A8FA
  3
Flat
350
A8EC
  3
FlatWithEdges
350
A8ED
  3
Gouraud
350
A8EE
  3
GouraudWithEdges
350
A8EF
  3
Hidden
350
A8F3
  3
JitterOff
350
A901
  3
Linepattern
350
A8F9
  3
OverhangOff
350
A902
  3
Realistic
350
A8F5
  3
Shaded
350
A900
  3
Shaded with edges
350
A8FF
  3
Shades of Gray
350
A8FC
  3
Sketchy
350
A8FD
  3
Thicken
350
A8F8
  3
Wireframe
350
A8F2
  3
X-Ray
350
A8FE
  0
XRECORD
  5
A940
102
{ACAD_REACTORS
330
A6DD
102
}
330
A6DD
100
AcDbXrecord
280
     1
 90
        1
330
A906
  0
DICTIONARY
  5
A933
102
{ACAD_REACTORS
330
A6DD
102
}
330
A6DD
100
AcDbDictionary
281
     1
  3
CANNOSCALE
350
A938
  3
CMLEADERSTYLE
350
A935
  3
CTABLESTYLE
350
A934
  3
CVIEWDETAILSTYLE
350
A936
  3
CVIEWSECTIONSTYLE
350
A937
  3
DIMASSOC
350
A93B
  3
INDEXCTL
350
A93A
  3
SORTENTS
350
A939
  3
XCLIPFRAME
350
A93C
  0
XRECORD
  5
A941
102
{ACAD_REACTORS
330
A6DD
102
}
330
A6DD
100
AcDbXrecord
280
     1
  1
DWGPROPS COOKIE
  2

  3

  4

  6

  7

  8
Yoshitsune
  9

300
=
301
=
302
=
303
=
304
=
305
=
306
=
307
=
308
=
309
=
 40
0.1079534259259259
 41
2451301.458431713
 42
2457192.690391516
  1

 90
        0
  0
XRECORD
  5
A924
102
{ACAD_REACTORS
330
A923
102
}
330
A923
100
AcDbXrecord
280
     1
290
     1
  0
XRECORD
  5
A926
102
{ACAD_REACTORS
330
A925
102
}
330
A925
100
AcDbXrecord
280
     1
290
     1
  0
XRECORD
  5
A928
102
{ACAD_REACTORS
330
A927
102
}
330
A927
100
AcDbXrecord
280
     1
290
     1
  0
XRECORD
  5
A92A
102
{ACAD_REACTORS
330
A929
102
}
330
A929
100
AcDbXrecord
280
     1
290
     1
  0
XRECORD
  5
A92C
102
{ACAD_REACTORS
330
A92B
102
}
330
A92B
100
AcDbXrecord
280
     1
290
     1
  0
XRECORD
  5
A92E
102
{ACAD_REACTORS
330
A92D
102
}
330
A92D
100
AcDbXrecord
280
     1
290
     1
  0
XRECORD
  5
A930
102
{ACAD_REACTORS
330
A92F
102
}
330
A92F
100
AcDbXrecord
280
     1
290
     1
  0
XRECORD
  5
A932
102
{ACAD_REACTORS
330
A931
102
}
330
A931
100
AcDbXrecord
280
     1
290
     1
  0
XRECORD
  5
A8CC
102
{ACAD_REACTORS
330
A8A9
102
}
330
A8A9
100
AcDbXrecord
280
     1
340
A6EF
  0
XRECORD
  5
A8CB
102
{ACAD_REACTORS
330
A8A7
102
}
330
A8A7
100
AcDbXrecord
280
     1
340
A6EB
  0
ACDBDETAILVIEWSTYLE
  5
A91E
102
{ACAD_XDICTIONARY
360
A979
102
}
102
{ACAD_REACTORS
330
A91D
102
}
330
A91D
100
AcDbModelDocViewStyle
 70
     0
  3
Imperial24
290
     0
100
AcDbDetailViewStyle
 70
     0
 71
     0
 90
        3
 71
     1
340
A6E2
 40
0.24
340
0
 40
0.24
300

 40
0.36
280
     3
 71
     2
340
A6E6
 90
       25
 71
     3
340
A6E2
 40
0.24
 90
        1
 40
0.75
 90
        1
300
%<\AcVar ViewType \f "%tc1">% %<\AcVar ViewDetailId>%\PSCALE %<\AcVar ViewScale \f "%sn">%
 71
     4
340
A6E6
 90
       25
340
A6E6
 90
       25
280
     0
  0
LAYOUT
  5
A91F
102
{ACAD_XDICTIONARY
360
A97B
102
}
102
{ACAD_REACTORS
330
A6EA
102
}
330
A6EA
100
AcDbPlotSettings
  1

  2
Canon LBP9100C
  4

  6

 40
0.0
 41
0.0
 42
0.0
 43
0.0
 44
0.0
 45
0.0
 46
0.0
 47
0.0
 48
0.0
 49
0.0
140
0.0
141
0.0
142
1.0
143
1.0
 70
  1712
 72
     0
 73
     0
 74
     0
  7

 75
     0
147
1.0
148
0.0
149
0.0
100
AcDbLayout
  1
Model
 70
     1
 71
     0
 10
0.0
 20
0.0
 11
12.0
 21
9.0
 12
0.0
 22
0.0
 32
0.0
 14
0.0
 24
0.0
 34
0.0
 15
0.0
 25
0.0
 35
0.0
146
0.0
 13
0.0
 23
0.0
 33
0.0
 16
1.0
 26
0.0
 36
0.0
 17
0.0
 27
1.0
 37
0.0
 76
     0
330
A6EF
331
A8CA
  0
LAYOUT
  5
A920
102
{ACAD_XDICTIONARY
360
A97D
102
}
102
{ACAD_REACTORS
330
A6EA
102
}
330
A6EA
100
AcDbPlotSettings
  1

  2
Canon LBP9100C
  4

  6

 40
0.0
 41
0.0
 42
0.0
 43
0.0
 44
0.0
 45
0.0
 46
0.0
 47
0.0
 48
0.0
 49
0.0
140
0.0
141
0.0
142
1.0
143
1.0
 70
   688
 72
     0
 73
     0
 74
     5
  7

 75
    16
147
1.0
148
0.0
149
0.0
100
AcDbLayout
  1
レイアウト1
 70
     0
 71
     1
 10
0.0
 20
0.0
 11
420.0
 21
297.0
 12
0.0
 22
0.0
 32
0.0
 14
1.000000000000000E+20
 24
1.000000000000000E+20
 34
1.000000000000000E+20
 15
-1.000000000000000E+20
 25
-1.000000000000000E+20
 35
-1.000000000000000E+20
146
0.0
 13
0.0
 23
0.0
 33
0.0
 16
1.0
 26
0.0
 36
0.0
 17
0.0
 27
1.0
 37
0.0
 76
     0
330
A6EB
  0
MATERIAL
  5
A8DB
102
{ACAD_XDICTIONARY
360
A8DC
102
}
102
{ACAD_REACTORS
330
A8D2
102
}
330
A8D2
100
AcDbMaterial
  1
ByBlock
 72
     0
 43
0.0208333333333333
 43
0.0
 43
0.0
 43
0.0
 43
0.0
 43
0.0208333333333333
 43
0.0
 43
0.0
 43
0.0
 43
0.0
 43
1.0
 43
0.0
 43
0.0
 43
0.0
 43
0.0
 43
1.0
 77
     0
 47
0.0208333333333333
 47
0.0
 47
0.0
 47
0.0
 47
0.0
 47
0.0208333333333333
 47
0.0
 47
0.0
 47
0.0
 47
0.0
 47
1.0
 47
0.0
 47
0.0
 47
0.0
 47
0.0
 47
1.0
171
     0
 49
0.0208333333333333
 49
0.0
 49
0.0
 49
0.0
 49
0.0
 49
0.0208333333333333
 49
0.0
 49
0.0
 49
0.0
 49
0.0
 49
1.0
 49
0.0
 49
0.0
 49
0.0
 49
0.0
 49
1.0
175
     0
142
0.0208333333333333
142
0.0
142
0.0
142
0.0
142
0.0
142
0.0208333333333333
142
0.0
142
0.0
142
0.0
142
0.0
142
1.0
142
0.0
142
0.0
142
0.0
142
0.0
142
1.0
179
     0
144
0.0208333333333333
144
0.0
144
0.0
144
0.0
144
0.0
144
0.0208333333333333
144
0.0
144
0.0
144
0.0
144
0.0
144
1.0
144
0.0
144
0.0
144
0.0
144
0.0
144
1.0
147
0.0208333333333333
147
0.0
147
0.0
147
0.0
147
0.0
147
0.0208333333333333
147
0.0
147
0.0
147
0.0
147
0.0
147
1.0
147
0.0
147
0.0
147
0.0
147
0.0
147
1.0
  0
MATERIAL
  5
A8D3
102
{ACAD_XDICTIONARY
360
A8D4
102
}
102
{ACAD_REACTORS
330
A8D2
102
}
330
A8D2
100
AcDbMaterial
  1
ByLayer
 72
     0
 43
0.0208333333333333
 43
0.0
 43
0.0
 43
0.0
 43
0.0
 43
0.0208333333333333
 43
0.0
 43
0.0
 43
0.0
 43
0.0
 43
1.0
 43
0.0
 43
0.0
 43
0.0
 43
0.0
 43
1.0
 77
     0
 47
0.0208333333333333
 47
0.0
 47
0.0
 47
0.0
 47
0.0
 47
0.0208333333333333
 47
0.0
 47
0.0
 47
0.0
 47
0.0
 47
1.0
 47
0.0
 47
0.0
 47
0.0
 47
0.0
 47
1.0
171
     0
 49
0.0208333333333333
 49
0.0
 49
0.0
 49
0.0
 49
0.0
 49
0.0208333333333333
 49
0.0
 49
0.0
 49
0.0
 49
0.0
 49
1.0
 49
0.0
 49
0.0
 49
0.0
 49
0.0
 49
1.0
175
     0
142
0.0208333333333333
142
0.0
142
0.0
142
0.0
142
0.0
142
0.0208333333333333
142
0.0
142
0.0
142
0.0
142
0.0
142
1.0
142
0.0
142
0.0
142
0.0
142
0.0
142
1.0
179
     0
144
0.0208333333333333
144
0.0
144
0.0
144
0.0
144
0.0
144
0.0208333333333333
144
0.0
144
0.0
144
0.0
144
0.0
144
1.0
144
0.0
144
0.0
144
0.0
144
0.0
144
1.0
147
0.0208333333333333
147
0.0
147
0.0
147
0.0
147
0.0
147
0.0208333333333333
147
0.0
147
0.0
147
0.0
147
0.0
147
1.0
147
0.0
147
0.0
147
0.0
147
0.0
147
1.0
  0
MATERIAL
  5
A8E3
102
{ACAD_XDICTIONARY
360
A8E4
102
}
102
{ACAD_REACTORS
330
A8D2
102
}
330
A8D2
100
AcDbMaterial
  1
Global
 72
     0
 43
0.0208333333333333
 43
0.0
 43
0.0
 43
0.0
 43
0.0
 43
0.0208333333333333
 43
0.0
 43
0.0
 43
0.0
 43
0.0
 43
1.0
 43
0.0
 43
0.0
 43
0.0
 43
0.0
 43
1.0
 77
     0
 47
0.0208333333333333
 47
0.0
 47
0.0
 47
0.0
 47
0.0
 47
0.0208333333333333
 47
0.0
 47
0.0
 47
0.0
 47
0.0
 47
1.0
 47
0.0
 47
0.0
 47
0.0
 47
0.0
 47
1.0
171
     0
 49
0.0208333333333333
 49
0.0
 49
0.0
 49
0.0
 49
0.0
 49
0.0208333333333333
 49
0.0
 49
0.0
 49
0.0
 49
0.0
 49
1.0
 49
0.0
 49
0.0
 49
0.0
 49
0.0
 49
1.0
175
     0
142
0.0208333333333333
142
0.0
142
0.0
142
0.0
142
0.0
142
0.0208333333333333
142
0.0
142
0.0
142
0.0
142
0.0
142
1.0
142
0.0
142
0.0
142
0.0
142
0.0
142
1.0
179
     0
144
0.0208333333333333
144
0.0
144
0.0
144
0.0
144
0.0
144
0.0208333333333333
144
0.0
144
0.0
144
0.0
144
0.0
144
1.0
144
0.0
144
0.0
144
0.0
144
0.0
144
1.0
147
0.0208333333333333
147
0.0
147
0.0
147
0.0
147
0.0
147
0.0208333333333333
147
0.0
147
0.0
147
0.0
147
0.0
147
1.0
147
0.0
147
0.0
147
0.0
147
0.0
147
1.0
  0
MLEADERSTYLE
  5
A91A
102
{ACAD_REACTORS
330
A919
102
}
330
A919
100
AcDbMLeaderStyle
170
     2
171
     1
172
     0
 90
        2
 40
0.0
 41
0.0
173
     1
 91
-1056964608
340
A6E4
 92
       -2
290
     1
 42
0.09
291
     1
 43
0.36
  3
Standard
 44
0.18
300

342
A6E2
174
     1
178
     6
175
     1
176
     0
 93
-1056964608
 45
0.18
292
     0
297
     0
 46
0.18
 94
-1056964608
 47
1.0
 49
1.0
140
1.0
293
     1
141
0.0
294
     1
177
     0
142
1.0
295
     0
296
     0
143
0.125
1001
ACAD_MLEADERVER
1070
     2
  0
MLINESTYLE
  5
A6E8
102
{ACAD_REACTORS
330
A6E7
102
}
330
A6E7
100
AcDbMlineStyle
  2
STANDARD
 70
     0
  3

 62
   256
 51
90.0
 52
90.0
 71
     2
 49
0.5
 62
   256
  6
BYLAYER
 49
-0.5
 62
   256
  6
BYLAYER
  0
ACDBPLACEHOLDER
  5
A8D1
102
{ACAD_REACTORS
330
A8D0
102
}
330
A8D0
  0
SCALE
  5
A908
102
{ACAD_REACTORS
330
A907
102
}
330
A907
100
AcDbScale
 70
     0
300
1:1
140
1.0
141
1.0
290
     1
  0
SCALE
  5
A909
102
{ACAD_REACTORS
330
A907
102
}
330
A907
100
AcDbScale
 70
     0
300
1/128" = 1'-0"
140
0.0078125
141
12.0
290
     0
  0
SCALE
  5
A90A
102
{ACAD_REACTORS
330
A907
102
}
330
A907
100
AcDbScale
 70
     0
300
1/64" = 1'-0"
140
0.015625
141
12.0
290
     0
  0
SCALE
  5
A90B
102
{ACAD_REACTORS
330
A907
102
}
330
A907
100
AcDbScale
 70
     0
300
1/32" = 1'-0"
140
0.03125
141
12.0
290
     0
  0
SCALE
  5
A90C
102
{ACAD_REACTORS
330
A907
102
}
330
A907
100
AcDbScale
 70
     0
300
1/16" = 1'-0"
140
0.0625
141
12.0
290
     0
  0
SCALE
  5
A90D
102
{ACAD_REACTORS
330
A907
102
}
330
A907
100
AcDbScale
 70
     0
300
3/32" = 1'-0"
140
0.09375
141
12.0
290
     0
  0
SCALE
  5
A90E
102
{ACAD_REACTORS
330
A907
102
}
330
A907
100
AcDbScale
 70
     0
300
1/8" = 1'-0"
140
0.125
141
12.0
290
     0
  0
SCALE
  5
A90F
102
{ACAD_REACTORS
330
A907
102
}
330
A907
100
AcDbScale
 70
     0
300
3/16" = 1'-0"
140
0.1875
141
12.0
290
     0
  0
SCALE
  5
A910
102
{ACAD_REACTORS
330
A907
102
}
330
A907
100
AcDbScale
 70
     0
300
1/4" = 1'-0"
140
0.25
141
12.0
290
     0
  0
SCALE
  5
A911
102
{ACAD_REACTORS
330
A907
102
}
330
A907
100
AcDbScale
 70
     0
300
3/8" = 1'-0"
140
0.375
141
12.0
290
     0
  0
SCALE
  5
A912
102
{ACAD_REACTORS
330
A907
102
}
330
A907
100
AcDbScale
 70
     0
300
1/2" = 1'-0"
140
0.5
141
12.0
290
     0
  0
SCALE
  5
A913
102
{ACAD_REACTORS
330
A907
102
}
330
A907
100
AcDbScale
 70
     0
300
3/4" = 1'-0"
140
0.75
141
12.0
290
     0
  0
SCALE
  5
A914
102
{ACAD_REACTORS
330
A907
102
}
330
A907
100
AcDbScale
 70
     0
300
1" = 1'-0"
140
1.0
141
12.0
290
     0
  0
SCALE
  5
A915
102
{ACAD_REACTORS
330
A907
102
}
330
A907
100
AcDbScale
 70
     0
300
1-1/2" = 1'-0"
140
1.5
141
12.0
290
     0
  0
SCALE
  5
A916
102
{ACAD_REACTORS
330
A907
102
}
330
A907
100
AcDbScale
 70
     0
300
3" = 1'-0"
140
3.0
141
12.0
290
     0
  0
SCALE
  5
A917
102
{ACAD_REACTORS
330
A907
102
}
330
A907
100
AcDbScale
 70
     0
300
6" = 1'-0"
140
6.0
141
12.0
290
     0
  0
SCALE
  5
A918
102
{ACAD_REACTORS
330
A907
102
}
330
A907
100
AcDbScale
 70
     0
300
1'-0" = 1'-0"
140
12.0
141
12.0
290
     0
  0
ACDBSECTIONVIEWSTYLE
  5
A91C
102
{ACAD_XDICTIONARY
360
A977
102
}
102
{ACAD_REACTORS
330
A91B
102
}
330
A91B
100
AcDbModelDocViewStyle
 70
     0
  3
Imperial24
290
     0
100
AcDbSectionViewStyle
 70
     0
 71
     0
 90
       78
 71
     1
340
A6E2
 40
0.24
340
0
340
0
 40
0.24
300
I, O, Q, S, X, Z
 40
0.48
 90
        3
 40
0.18
 90
        1
 71
     2
340
A6E6
 90
       25
340
A6E6
 90
       50
 40
0.24
 40
0.0
 40
0.24
 71
     3
340
A6E2
 40
0.24
 90
        1
 40
0.75
 90
        1
300
%<\AcVar ViewType \f "%tc1">% %<\AcVar ViewSectionStartId>%-%<\AcVar ViewSectionEndId>%\PSCALE %<\AcVar ViewScale \f "%sn">%
 71
     4
300
ANSI31
 40
1.0
 90
        0
290
     0
290
     0
 90
        6
 40
0.0
 40
1.570796326794896
 40
0.2617993877991494
 40
1.308996938995747
 40
-0.2617993877991494
 40
1.832595714594046
  0
TABLESTYLE
  5
A906
102
{ACAD_XDICTIONARY
360
A93E
102
}
102
{ACAD_REACTORS
330
A905
102
}
330
A905
100
AcDbTableStyle
  3
Standard
 70
     0
 71
     0
 40
0.06
 41
0.06
280
     0
281
     0
  7
STANDARD
140
0.18
170
     2
 62
     0
 63
     7
283
     0
274
    -2
284
     1
 64
     0
275
    -2
285
     1
 65
     0
276
    -2
286
     1
 66
     0
277
    -2
287
     1
 67
     0
278
    -2
288
     1
 68
     0
279
    -2
289
     1
 69
     0
  7
STANDARD
140
0.25
170
     5
 62
     0
 63
     7
283
     0
274
    -2
284
     1
 64
     0
275
    -2
285
     1
 65
     0
276
    -2
286
     1
 66
     0
277
    -2
287
     1
 67
     0
278
    -2
288
     1
 68
     0
279
    -2
289
     1
 69
     0
  7
STANDARD
140
0.18
170
     5
 62
     0
 63
     7
283
     0
274
    -2
284
     1
 64
     0
275
    -2
285
     1
 65
     0
276
    -2
286
     1
 66
     0
277
    -2
287
     1
 67
     0
278
    -2
288
     1
 68
     0
279
    -2
289
     1
 69
     0
  0
VISUALSTYLE
  5
A8F1
102
{ACAD_XDICTIONARY
360
A94F
102
}
102
{ACAD_REACTORS
330
A8EB
102
}
330
A8EB
100
AcDbVisualStyle
  2
2dWireframe
 70
     4
 71
     0
 72
     2
 73
     0
 90
        0
 40
-0.6
 41
-30.0
 62
     5
 63
     7
 74
     1
 91
        4
 64
     7
 65
   257
 75
     1
175
     1
 42
1.0
 92
        0
 66
   257
 43
1.0
 76
     1
 77
     6
 78
     2
 67
     7
 79
     5
170
     0
171
     0
290
     0
174
     0
 93
        1
 44
0.0
173
     0
291
     0
 45
0.0
1001
ACAD
1000
AcDbSavedByObjectVersion
1070
     0
  0
VISUALSTYLE
  5
A8F0
102
{ACAD_XDICTIONARY
360
A94D
102
}
102
{ACAD_REACTORS
330
A8EB
102
}
330
A8EB
100
AcDbVisualStyle
  2
Basic
 70
     7
 71
     1
 72
     0
 73
     1
 90
        0
 40
-0.6
 41
-30.0
 62
     5
 63
     7
 74
     0
 91
        4
 64
     7
 65
   257
 75
     1
175
     1
 42
1.0
 92
        8
 66
     7
 43
1.0
 76
     1
 77
     6
 78
     2
 67
     7
 79
     5
170
     0
171
     0
290
     0
174
     0
 93
        1
 44
0.0
173
     0
291
     1
 45
0.0
1001
ACAD
1000
AcDbSavedByObjectVersion
1070
     0
  0
VISUALSTYLE
  5
A8F7
102
{ACAD_XDICTIONARY
360
A95B
102
}
102
{ACAD_REACTORS
330
A8EB
102
}
330
A8EB
100
AcDbVisualStyle
  2
Brighten
 70
    12
 71
     2
 72
     2
 73
     0
 90
        0
 40
-0.6
 41
-30.0
 62
     5
 63
     7
 74
     1
 91
        4
 64
     7
 65
   257
 75
     1
175
     1
 42
1.0
 92
        8
 66
     7
 43
1.0
 76
     1
 77
     6
 78
     2
 67
     7
 79
     5
170
     0
171
     0
290
     0
174
     0
 93
        1
 44
50.0
173
     0
291
     1
 45
0.0
1001
ACAD
1000
AcDbSavedByObjectVersion
1070
     0
  0
VISUALSTYLE
  5
A8FB
102
{ACAD_XDICTIONARY
360
A963
102
}
102
{ACAD_REACTORS
330
A8EB
102
}
330
A8EB
100
AcDbVisualStyle
  2
ColorChange
 70
    16
 71
     2
 72
     2
 73
     3
 90
        0
 40
-0.6
 41
-30.0
 62
     5
 63
     8
 74
     1
 91
        4
 64
     7
 65
   257
 75
     1
175
     1
 42
1.0
 92
        8
 66
     8
 43
1.0
 76
     1
 77
     6
 78
     2
 67
     7
 79
     5
170
     0
171
     0
290
     0
174
     0
 93
        1
 44
0.0
173
     0
291
     1
 45
0.0
1001
ACAD
1000
AcDbSavedByObjectVersion
1070
     0
  0
VISUALSTYLE
  5
A8F4
102
{ACAD_XDICTIONARY
360
A955
102
}
102
{ACAD_REACTORS
330
A8EB
102
}
330
A8EB
100
AcDbVisualStyle
  2
Conceptual
 70
     9
 71
     3
 72
     2
 73
     0
 90
        0
 40
-0.6
 41
-30.0
 62
     5
 63
     7
 74
     2
 91
        2
 64
     7
 65
   257
 75
     1
175
     1
 42
179.0
 92
        8
 66
     7
 43
1.0
 76
     1
 77
     6
 78
     2
 67
     7
 79
     3
170
     0
171
     0
290
     0
174
     0
 93
        1
 44
0.0
173
     0
291
     0
 45
0.0
1001
ACAD
1000
AcDbSavedByObjectVersion
1070
     0
  0
VISUALSTYLE
  5
A8F6
102
{ACAD_XDICTIONARY
360
A959
102
}
102
{ACAD_REACTORS
330
A8EB
102
}
330
A8EB
100
AcDbVisualStyle
  2
Dim
 70
    11
 71
     2
 72
     2
 73
     0
 90
        0
 40
-0.6
 41
-30.0
 62
     5
 63
     7
 74
     1
 91
        4
 64
     7
 65
   257
 75
     1
175
     1
 42
1.0
 92
        8
 66
     7
 43
1.0
 76
     1
 77
     6
 78
     2
 67
     7
 79
     5
170
     0
171
     0
290
     0
174
     0
 93
        1
 44
-50.0
173
     0
291
     1
 45
0.0
1001
ACAD
1000
AcDbSavedByObjectVersion
1070
     0
  0
VISUALSTYLE
  5
A903
102
{ACAD_XDICTIONARY
360
A973
102
}
102
{ACAD_REACTORS
330
A8EB
102
}
330
A8EB
100
AcDbVisualStyle
  2
EdgeColorOff
 70
    22
 71
     2
 72
     2
 73
     0
 90
        0
 40
-0.6
 41
-30.0
 62
     5
 63
     7
 74
     1
 91
        4
 64
     7
 65
   257
 75
     1
175
     1
 42
1.0
 92
        8
 66
     7
 43
1.0
 76
     1
 77
     6
 78
     2
 67
     7
 79
     5
170
     0
171
     0
290
     0
174
     0
 93
        1
 44
0.0
173
     0
291
     1
 45
0.0
1001
ACAD
1000
AcDbSavedByObjectVersion
1070
     0
  0
VISUALSTYLE
  5
A8FA
102
{ACAD_XDICTIONARY
360
A961
102
}
102
{ACAD_REACTORS
330
A8EB
102
}
330
A8EB
100
AcDbVisualStyle
  2
Facepattern
 70
    15
 71
     2
 72
     2
 73
     0
 90
        0
 40
-0.6
 41
-30.0
 62
     5
 63
     7
 74
     1
 91
        4
 64
     7
 65
   257
 75
     1
175
     1
 42
1.0
 92
        8
 66
     7
 43
1.0
 76
     1
 77
     6
 78
     2
 67
     7
 79
     5
170
     0
171
     0
290
     0
174
     0
 93
        1
 44
0.0
173
     0
291
     1
 45
0.0
1001
ACAD
1000
AcDbSavedByObjectVersion
1070
     0
  0
VISUALSTYLE
  5
A8EC
102
{ACAD_XDICTIONARY
360
A945
102
}
102
{ACAD_REACTORS
330
A8EB
102
}
330
A8EB
100
AcDbVisualStyle
  2
Flat
 70
     0
 71
     2
 72
     1
 73
     1
 90
        2
 40
-0.6
 41
30.0
 62
     5
 63
     7
 74
     0
 91
        0
 64
     7
 65
   257
 75
     1
175
     1
 42
1.0
 92
        8
 66
     7
 43
1.0
 76
     1
 77
     6
 78
     2
 67
     7
 79
     5
170
     0
171
     0
290
     0
174
     0
 93
       13
 44
0.0
173
     0
291
     1
 45
0.0
1001
ACAD
1000
AcDbSavedByObjectVersion
1070
     0
  0
VISUALSTYLE
  5
A8ED
102
{ACAD_XDICTIONARY
360
A947
102
}
102
{ACAD_REACTORS
330
A8EB
102
}
330
A8EB
100
AcDbVisualStyle
  2
FlatWithEdges
 70
     1
 71
     2
 72
     1
 73
     1
 90
        2
 40
-0.6
 41
30.0
 62
     5
 63
     7
 74
     1
 91
        0
 64
     7
 65
   257
 75
     1
175
     1
 42
1.0
 92
        0
 66
   257
 43
1.0
 76
     1
 77
     6
 78
     2
 67
     7
 79
     5
170
     0
171
     0
290
     0
174
     0
 93
       13
 44
0.0
173
     0
291
     1
 45
0.0
1001
ACAD
1000
AcDbSavedByObjectVersion
1070
     0
  0
VISUALSTYLE
  5
A8EE
102
{ACAD_XDICTIONARY
360
A949
102
}
102
{ACAD_REACTORS
330
A8EB
102
}
330
A8EB
100
AcDbVisualStyle
  2
Gouraud
 70
     2
 71
     2
 72
     2
 73
     1
 90
        2
 40
-0.6
 41
30.0
 62
     5
 63
     7
 74
     0
 91
        0
 64
     7
 65
   257
 75
     1
175
     1
 42
1.0
 92
        0
 66
     7
 43
1.0
 76
     1
 77
     6
 78
     2
 67
     7
 79
     5
170
     0
171
     0
290
     0
174
     0
 93
       13
 44
0.0
173
     0
291
     1
 45
0.0
1001
ACAD
1000
AcDbSavedByObjectVersion
1070
     0
  0
VISUALSTYLE
  5
A8EF
102
{ACAD_XDICTIONARY
360
A94B
102
}
102
{ACAD_REACTORS
330
A8EB
102
}
330
A8EB
100
AcDbVisualStyle
  2
GouraudWithEdges
 70
     3
 71
     2
 72
     2
 73
     1
 90
        2
 40
-0.6
 41
30.0
 62
     5
 63
     7
 74
     1
 91
        0
 64
     7
 65
   257
 75
     1
175
     1
 42
1.0
 92
        0
 66
   257
 43
1.0
 76
     1
 77
     6
 78
     2
 67
     7
 79
     5
170
     0
171
     0
290
     0
174
     0
 93
       13
 44
0.0
173
     0
291
     1
 45
0.0
1001
ACAD
1000
AcDbSavedByObjectVersion
1070
     0
  0
VISUALSTYLE
  5
A8F3
102
{ACAD_XDICTIONARY
360
A953
102
}
102
{ACAD_REACTORS
330
A8EB
102
}
330
A8EB
100
AcDbVisualStyle
  2
Hidden
 70
     6
 71
     1
 72
     2
 73
     2
 90
        0
 40
-0.6
 41
-30.0
 62
     5
 63
     7
 74
     2
 91
        2
 64
     7
 65
   257
 75
     2
175
     1
 42
40.0
 92
        0
 66
   257
 43
1.0
 76
     1
 77
     6
 78
     2
 67
     7
 79
     3
170
     0
171
     0
290
     0
174
     0
 93
        1
 44
0.0
173
     0
291
     0
 45
0.0
1001
ACAD
1000
AcDbSavedByObjectVersion
1070
     0
  0
VISUALSTYLE
  5
A901
102
{ACAD_XDICTIONARY
360
A96F
102
}
102
{ACAD_REACTORS
330
A8EB
102
}
330
A8EB
100
AcDbVisualStyle
  2
JitterOff
 70
    20
 71
     2
 72
     2
 73
     0
 90
        0
 40
-0.6
 41
-30.0
 62
     5
 63
     7
 74
     1
 91
        4
 64
     7
 65
   257
 75
     1
175
     1
 42
1.0
 92
       10
 66
     7
 43
1.0
 76
     1
 77
     6
 78
     2
 67
     7
 79
     5
170
     0
171
     0
290
     0
174
     0
 93
        1
 44
0.0
173
     0
291
     1
 45
0.0
1001
ACAD
1000
AcDbSavedByObjectVersion
1070
     0
  0
VISUALSTYLE
  5
A8F9
102
{ACAD_XDICTIONARY
360
A95F
102
}
102
{ACAD_REACTORS
330
A8EB
102
}
330
A8EB
100
AcDbVisualStyle
  2
Linepattern
 70
    14
 71
     2
 72
     2
 73
     0
 90
        0
 40
-0.6
 41
-30.0
 62
     5
 63
     7
 74
     1
 91
        4
 64
     7
 65
   257
 75
     7
175
     7
 42
1.0
 92
        8
 66
     7
 43
1.0
 76
     1
 77
     6
 78
     2
 67
     7
 79
     5
170
     0
171
     0
290
     0
174
     0
 93
        1
 44
0.0
173
     0
291
     1
 45
0.0
1001
ACAD
1000
AcDbSavedByObjectVersion
1070
     0
  0
VISUALSTYLE
  5
A902
102
{ACAD_XDICTIONARY
360
A971
102
}
102
{ACAD_REACTORS
330
A8EB
102
}
330
A8EB
100
AcDbVisualStyle
  2
OverhangOff
 70
    21
 71
     2
 72
     2
 73
     0
 90
        0
 40
-0.6
 41
-30.0
 62
     5
 63
     7
 74
     1
 91
        4
 64
     7
 65
   257
 75
     1
175
     1
 42
1.0
 92
        9
 66
     7
 43
1.0
 76
     1
 77
     6
 78
     2
 67
     7
 79
     5
170
     0
171
     0
290
     0
174
     0
 93
        1
 44
0.0
173
     0
291
     1
 45
0.0
1001
ACAD
1000
AcDbSavedByObjectVersion
1070
     0
  0
VISUALSTYLE
  5
A8F5
102
{ACAD_XDICTIONARY
360
A957
102
}
102
{ACAD_REACTORS
330
A8EB
102
}
330
A8EB
100
AcDbVisualStyle
  2
Realistic
 70
     8
 71
     2
 72
     3
 73
     0
 90
        2
 40
-0.6
 41
30.0
 62
     5
 63
     7
 74
     0
 91
        0
 64
     7
 65
   257
 75
     1
175
     1
 42
1.0
 92
        8
 66
   257
 43
1.0
 76
     1
 77
     6
 78
     2
 67
     7
 79
     3
170
     0
171
     0
290
     0
174
     0
 93
       13
 44
0.0
173
     0
291
     0
 45
0.0
1001
ACAD
1000
AcDbSavedByObjectVersion
1070
     0
  0
VISUALSTYLE
  5
A900
102
{ACAD_XDICTIONARY
360
A96D
102
}
102
{ACAD_REACTORS
330
A8EB
102
}
330
A8EB
100
AcDbVisualStyle
  2
Shaded
 70
    27
 71
     2
 72
     2
 73
     1
 90
        2
 40
-0.6
 41
30.0
 62
     5
 63
     7
 74
     0
 91
        4
 64
     7
 65
   257
 75
     1
175
     1
 42
1.0
 92
        8
 66
   257
 43
1.0
 76
     1
 77
     6
 78
     2
 67
     8
 79
     3
170
     0
171
     0
290
     0
174
     0
 93
        5
 44
0.0
173
     0
291
     0
 45
0.0
1001
ACAD
1000
AcDbSavedByObjectVersion
1070
     0
  0
VISUALSTYLE
  5
A8FF
102
{ACAD_XDICTIONARY
360
A96B
102
}
102
{ACAD_REACTORS
330
A8EB
102
}
330
A8EB
100
AcDbVisualStyle
  2
Shaded with edges
 70
    26
 71
     2
 72
     2
 73
     1
 90
        2
 40
-0.6
 41
30.0
 62
     5
 63
     7
 74
     1
 91
       10
 64
     7
 65
   257
 75
     2
175
     1
 42
1.0
 92
        8
 66
   257
 43
1.0
 76
     1
 77
     6
 78
     2
 67
     7
 79
     3
170
     0
171
     0
290
     0
174
     0
 93
        5
 44
0.0
173
     0
291
     0
 45
0.0
1001
ACAD
1000
AcDbSavedByObjectVersion
1070
     0
  0
VISUALSTYLE
  5
A8FC
102
{ACAD_XDICTIONARY
360
A965
102
}
102
{ACAD_REACTORS
330
A8EB
102
}
330
A8EB
100
AcDbVisualStyle
  2
Shades of Gray
 70
    23
 71
     2
 72
     2
 73
     3
 90
        0
 40
-0.6
 41
-30.0
 62
     5
 63
     7
 74
     2
 91
        2
 64
     7
 65
     7
 75
     1
175
     1
 42
40.0
 92
        8
 66
     7
 43
1.0
 76
     1
 77
     6
 78
     2
 67
     7
 79
     3
170
     0
171
     0
290
     0
174
     0
 93
        1
 44
0.0
173
     0
291
     0
 45
0.0
1001
ACAD
1000
AcDbSavedByObjectVersion
1070
     0
  0
VISUALSTYLE
  5
A8FD
102
{ACAD_XDICTIONARY
360
A967
102
}
102
{ACAD_REACTORS
330
A8EB
102
}
330
A8EB
100
AcDbVisualStyle
  2
Sketchy
 70
    24
 71
     1
 72
     2
 73
     2
 90
        0
 40
-0.6
 41
-30.0
 62
     5
 63
     7
 74
     2
 91
        2
 64
     7
 65
     7
 75
     1
175
     1
 42
40.0
 92
       11
 66
     7
 43
1.0
 76
     1
 77
     6
 78
     2
 67
     7
 79
     6
170
     0
171
     0
290
     0
174
     0
 93
        1
 44
0.0
173
     0
291
     0
 45
0.0
1001
ACAD
1000
AcDbSavedByObjectVersion
1070
     0
  0
VISUALSTYLE
  5
A8F8
102
{ACAD_XDICTIONARY
360
A95D
102
}
102
{ACAD_REACTORS
330
A8EB
102
}
330
A8EB
100
AcDbVisualStyle
  2
Thicken
 70
    13
 71
     2
 72
     2
 73
     0
 90
        0
 40
-0.6
 41
-30.0
 62
     5
 63
     7
 74
     1
 91
        4
 64
     7
 65
   257
 75
     1
175
     1
 42
1.0
 92
       12
 66
     7
 43
1.0
 76
     1
 77
     6
 78
     2
 67
     7
 79
     5
170
     0
171
     0
290
     0
174
     0
 93
        1
 44
0.0
173
     0
291
     1
 45
0.0
1001
ACAD
1000
AcDbSavedByObjectVersion
1070
     0
  0
VISUALSTYLE
  5
A8F2
102
{ACAD_XDICTIONARY
360
A951
102
}
102
{ACAD_REACTORS
330
A8EB
102
}
330
A8EB
100
AcDbVisualStyle
  2
Wireframe
 70
     5
 71
     0
 72
     2
 73
     0
 90
        0
 40
-0.6
 41
-30.0
 62
     5
 63
     7
 74
     1
 91
        4
 64
     7
 65
   257
 75
     1
175
     1
 42
1.0
 92
        0
 66
   257
 43
1.0
 76
     1
 77
     6
 78
     2
 67
     7
 79
     3
170
     0
171
     0
290
     0
174
     0
 93
        1
 44
0.0
173
     0
291
     0
 45
0.0
1001
ACAD
1000
AcDbSavedByObjectVersion
1070
     0
  0
VISUALSTYLE
  5
A8FE
102
{ACAD_XDICTIONARY
360
A969
102
}
102
{ACAD_REACTORS
330
A8EB
102
}
330
A8EB
100
AcDbVisualStyle
  2
X-Ray
 70
    25
 71
     2
 72
     2
 73
     1
 90
        1
 40
0.5
 41
-30.0
 62
     5
 63
     7
 74
     1
 91
        0
 64
     7
 65
   257
 75
     1
175
     1
 42
1.0
 92
        8
 66
     7
 43
1.0
 76
     1
 77
     6
 78
     2
 67
     7
 79
     3
170
     0
171
     0
290
     0
174
     0
 93
       13
 44
0.0
173
     0
291
     0
 45
0.0
1001
ACAD
1000
AcDbSavedByObjectVersion
1070
     0
  0
DICTIONARYVAR
  5
A938
102
{ACAD_REACTORS
330
A933
102
}
330
A933
100
DictionaryVariables
280
     0
  1
1:1
  0
DICTIONARYVAR
  5
A935
102
{ACAD_REACTORS
330
A933
102
}
330
A933
100
DictionaryVariables
280
     0
  1
STANDARD
  0
DICTIONARYVAR
  5
A934
102
{ACAD_REACTORS
330
A933
102
}
330
A933
100
DictionaryVariables
280
     0
  1
STANDARD
  0
DICTIONARYVAR
  5
A936
102
{ACAD_REACTORS
330
A933
102
}
330
A933
100
DictionaryVariables
280
     0
  1
Imperial24
  0
DICTIONARYVAR
  5
A937
102
{ACAD_REACTORS
330
A933
102
}
330
A933
100
DictionaryVariables
280
     0
  1
Imperial24
  0
DICTIONARYVAR
  5
A93B
102
{ACAD_REACTORS
330
A933
102
}
330
A933
100
DictionaryVariables
280
     0
  1
1
  0
DICTIONARYVAR
  5
A93A
102
{ACAD_REACTORS
330
A933
102
}
330
A933
100
DictionaryVariables
280
     0
  1
0
  0
DICTIONARYVAR
  5
A939
102
{ACAD_REACTORS
330
A933
102
}
330
A933
100
DictionaryVariables
280
     0
  1
127
  0
DICTIONARYVAR
  5
A93C
102
{ACAD_REACTORS
330
A933
102
}
330
A933
100
DictionaryVariables
280
     0
  1
2
  0
DICTIONARY
  5
A979
330
A91E
100
AcDbDictionary
280
     1
281
     1
  3
ACAD_XREC_ROUNDTRIP
360
A97A
  0
DICTIONARY
  5
A97B
330
A91F
100
AcDbDictionary
280
     1
281
     1
  3
ACAD_XREC_ROUNDTRIP
360
A97C
  0
DICTIONARY
  5
A97D
330
A920
100
AcDbDictionary
280
     1
281
     1
  3
ACAD_XREC_ROUNDTRIP
360
A97E
  0
DICTIONARY
  5
A8DC
330
A8DB
100
AcDbDictionary
280
     1
281
     1
  3
ACAD_XREC_ROUNDTRIP
360
A943
  3
BUMPTILE
360
A8DE
  3
DIFFUSETILE
360
A8DD
  3
OPACITYTILE
360
A8E1
  3
REFLECTIONTILE
360
A8E0
  3
REFRACTIONTILE
360
A8E2
  3
SPECULARTILE
360
A8DF
  0
DICTIONARY
  5
A8D4
330
A8D3
100
AcDbDictionary
280
     1
281
     1
  3
ACAD_XREC_ROUNDTRIP
360
A942
  3
BUMPTILE
360
A8D6
  3
DIFFUSETILE
360
A8D5
  3
OPACITYTILE
360
A8D9
  3
REFLECTIONTILE
360
A8D8
  3
REFRACTIONTILE
360
A8DA
  3
SPECULARTILE
360
A8D7
  0
DICTIONARY
  5
A8E4
330
A8E3
100
AcDbDictionary
280
     1
281
     1
  3
ACAD_XREC_ROUNDTRIP
360
A944
  3
BUMPTILE
360
A8E6
  3
DIFFUSETILE
360
A8E5
  3
OPACITYTILE
360
A8E9
  3
REFLECTIONTILE
360
A8E8
  3
REFRACTIONTILE
360
A8EA
  3
SPECULARTILE
360
A8E7
  0
DICTIONARY
  5
A977
330
A91C
100
AcDbDictionary
280
     1
281
     1
  3
ACAD_XREC_ROUNDTRIP
360
A978
  0
DICTIONARY
  5
A93E
330
A906
100
AcDbDictionary
280
     1
281
     1
  3
ACAD_ROUNDTRIP_2008_TABLESTYLE_CELLSTYLEMAP
360
A93F
  3
ACAD_XREC_ROUNDTRIP
360
A975
  0
DICTIONARY
  5
A94F
330
A8F1
100
AcDbDictionary
280
     1
281
     1
  3
ACAD_XREC_ROUNDTRIP
360
A950
  0
DICTIONARY
  5
A94D
330
A8F0
100
AcDbDictionary
280
     1
281
     1
  3
ACAD_XREC_ROUNDTRIP
360
A94E
  0
DICTIONARY
  5
A95B
330
A8F7
100
AcDbDictionary
280
     1
281
     1
  3
ACAD_XREC_ROUNDTRIP
360
A95C
  0
DICTIONARY
  5
A963
330
A8FB
100
AcDbDictionary
280
     1
281
     1
  3
ACAD_XREC_ROUNDTRIP
360
A964
  0
DICTIONARY
  5
A955
330
A8F4
100
AcDbDictionary
280
     1
281
     1
  3
ACAD_XREC_ROUNDTRIP
360
A956
  0
DICTIONARY
  5
A959
330
A8F6
100
AcDbDictionary
280
     1
281
     1
  3
ACAD_XREC_ROUNDTRIP
360
A95A
  0
DICTIONARY
  5
A973
330
A903
100
AcDbDictionary
280
     1
281
     1
  3
ACAD_XREC_ROUNDTRIP
360
A974
  0
DICTIONARY
  5
A961
330
A8FA
100
AcDbDictionary
280
     1
281
     1
  3
ACAD_XREC_ROUNDTRIP
360
A962
  0
DICTIONARY
  5
A945
330
A8EC
100
AcDbDictionary
280
     1
281
     1
  3
ACAD_XREC_ROUNDTRIP
360
A946
  0
DICTIONARY
  5
A947
330
A8ED
100
AcDbDictionary
280
     1
281
     1
  3
ACAD_XREC_ROUNDTRIP
360
A948
  0
DICTIONARY
  5
A949
330
A8EE
100
AcDbDictionary
280
     1
281
     1
  3
ACAD_XREC_ROUNDTRIP
360
A94A
  0
DICTIONARY
  5
A94B
330
A8EF
100
AcDbDictionary
280
     1
281
     1
  3
ACAD_XREC_ROUNDTRIP
360
A94C
  0
DICTIONARY
  5
A953
330
A8F3
100
AcDbDictionary
280
     1
281
     1
  3
ACAD_XREC_ROUNDTRIP
360
A954
  0
DICTIONARY
  5
A96F
330
A901
100
AcDbDictionary
280
     1
281
     1
  3
ACAD_XREC_ROUNDTRIP
360
A970
  0
DICTIONARY
  5
A95F
330
A8F9
100
AcDbDictionary
280
     1
281
     1
  3
ACAD_XREC_ROUNDTRIP
360
A960
  0
DICTIONARY
  5
A971
330
A902
100
AcDbDictionary
280
     1
281
     1
  3
ACAD_XREC_ROUNDTRIP
360
A972
  0
DICTIONARY
  5
A957
330
A8F5
100
AcDbDictionary
280
     1
281
     1
  3
ACAD_XREC_ROUNDTRIP
360
A958
  0
DICTIONARY
  5
A96D
330
A900
100
AcDbDictionary
280
     1
281
     1
  3
ACAD_XREC_ROUNDTRIP
360
A96E
  0
DICTIONARY
  5
A96B
330
A8FF
100
AcDbDictionary
280
     1
281
     1
  3
ACAD_XREC_ROUNDTRIP
360
A96C
  0
DICTIONARY
  5
A965
330
A8FC
100
AcDbDictionary
280
     1
281
     1
  3
ACAD_XREC_ROUNDTRIP
360
A966
  0
DICTIONARY
  5
A967
330
A8FD
100
AcDbDictionary
280
     1
281
     1
  3
ACAD_XREC_ROUNDTRIP
360
A968
  0
DICTIONARY
  5
A95D
330
A8F8
100
AcDbDictionary
280
     1
281
     1
  3
ACAD_XREC_ROUNDTRIP
360
A95E
  0
DICTIONARY
  5
A951
330
A8F2
100
AcDbDictionary
280
     1
281
     1
  3
ACAD_XREC_ROUNDTRIP
360
A952
  0
DICTIONARY
  5
A969
330
A8FE
100
AcDbDictionary
280
     1
281
     1
  3
ACAD_XREC_ROUNDTRIP
360
A96A
  0
XRECORD
  5
A97A
102
{ACAD_REACTORS
330
A979
102
}
330
A979
100
AcDbXrecord
280
     1
102
DISPLAYNAME
  1
Imperial24
102
FLAGS
 90
        0
  0
XRECORD
  5
A97C
102
{ACAD_REACTORS
330
A97B
102
}
330
A97B
100
AcDbXrecord
280
     1
102
SHADEPLOT
 70
     0
102
SHADEPLOTRESLEVEL
 70
     2
102
SHADEPLOTCUSTOMDPI
 70
   300
  0
XRECORD
  5
A97E
102
{ACAD_REACTORS
330
A97D
102
}
330
A97D
100
AcDbXrecord
280
     1
102
SHADEPLOT
 70
     0
102
SHADEPLOTRESLEVEL
 70
     2
102
SHADEPLOTCUSTOMDPI
 70
   300
  0
XRECORD
  5
A943
102
{ACAD_REACTORS
330
A8DC
102
}
330
A8DC
100
AcDbXrecord
280
     1
102
MATERIAL
148
0.0
149
0.0
149
0.0
 93
        0
 94
      127
282
     0
 72
     0
 77
     0
171
     0
175
     0
179
     0
273
     0
  0
XRECORD
  5
A8DE
102
{ACAD_REACTORS
330
A8DC
102
}
330
A8DC
100
AcDbXrecord
280
     1
270
     1
271
     1
  0
XRECORD
  5
A8DD
102
{ACAD_REACTORS
330
A8DC
102
}
330
A8DC
100
AcDbXrecord
280
     1
270
     1
271
     1
  0
XRECORD
  5
A8E1
102
{ACAD_REACTORS
330
A8DC
102
}
330
A8DC
100
AcDbXrecord
280
     1
270
     1
271
     1
  0
XRECORD
  5
A8E0
102
{ACAD_REACTORS
330
A8DC
102
}
330
A8DC
100
AcDbXrecord
280
     1
270
     1
271
     1
  0
XRECORD
  5
A8E2
102
{ACAD_REACTORS
330
A8DC
102
}
330
A8DC
100
AcDbXrecord
280
     1
270
     1
271
     1
  0
XRECORD
  5
A8DF
102
{ACAD_REACTORS
330
A8DC
102
}
330
A8DC
100
AcDbXrecord
280
     1
270
     1
271
     1
  0
XRECORD
  5
A942
102
{ACAD_REACTORS
330
A8D4
102
}
330
A8D4
100
AcDbXrecord
280
     1
102
MATERIAL
148
0.0
149
0.0
149
0.0
 93
        0
 94
      127
282
     0
 72
     0
 77
     0
171
     0
175
     0
179
     0
273
     0
  0
XRECORD
  5
A8D6
102
{ACAD_REACTORS
330
A8D4
102
}
330
A8D4
100
AcDbXrecord
280
     1
270
     1
271
     1
  0
XRECORD
  5
A8D5
102
{ACAD_REACTORS
330
A8D4
102
}
330
A8D4
100
AcDbXrecord
280
     1
270
     1
271
     1
  0
XRECORD
  5
A8D9
102
{ACAD_REACTORS
330
A8D4
102
}
330
A8D4
100
AcDbXrecord
280
     1
270
     1
271
     1
  0
XRECORD
  5
A8D8
102
{ACAD_REACTORS
330
A8D4
102
}
330
A8D4
100
AcDbXrecord
280
     1
270
     1
271
     1
  0
XRECORD
  5
A8DA
102
{ACAD_REACTORS
330
A8D4
102
}
330
A8D4
100
AcDbXrecord
280
     1
270
     1
271
     1
  0
XRECORD
  5
A8D7
102
{ACAD_REACTORS
330
A8D4
102
}
330
A8D4
100
AcDbXrecord
280
     1
270
     1
271
     1
  0
XRECORD
  5
A944
102
{ACAD_REACTORS
330
A8E4
102
}
330
A8E4
100
AcDbXrecord
280
     1
102
MATERIAL
148
0.0
149
0.0
149
0.0
 93
        0
 94
      127
282
     0
 72
     0
 77
     0
171
     0
175
     0
179
     0
273
     0
  0
XRECORD
  5
A8E6
102
{ACAD_REACTORS
330
A8E4
102
}
330
A8E4
100
AcDbXrecord
280
     1
270
     1
271
     1
  0
XRECORD
  5
A8E5
102
{ACAD_REACTORS
330
A8E4
102
}
330
A8E4
100
AcDbXrecord
280
     1
270
     1
271
     1
  0
XRECORD
  5
A8E9
102
{ACAD_REACTORS
330
A8E4
102
}
330
A8E4
100
AcDbXrecord
280
     1
270
     1
271
     1
  0
XRECORD
  5
A8E8
102
{ACAD_REACTORS
330
A8E4
102
}
330
A8E4
100
AcDbXrecord
280
     1
270
     1
271
     1
  0
XRECORD
  5
A8EA
102
{ACAD_REACTORS
330
A8E4
102
}
330
A8E4
100
AcDbXrecord
280
     1
270
     1
271
     1
  0
XRECORD
  5
A8E7
102
{ACAD_REACTORS
330
A8E4
102
}
330
A8E4
100
AcDbXrecord
280
     1
270
     1
271
     1
  0
XRECORD
  5
A978
102
{ACAD_REACTORS
330
A977
102
}
330
A977
100
AcDbXrecord
280
     1
102
DISPLAYNAME
  1
Imperial24
102
FLAGS
 90
        0
  0
CELLSTYLEMAP
  5
A93F
102
{ACAD_REACTORS
330
A93E
102
}
330
A93E
100
AcDbCellStyleMap
 90
        3
300
CELLSTYLE
  1
TABLEFORMAT_BEGIN
 90
        5
170
     1
 91
        0
 92
    32768
 62
   257
 93
        1
300
CONTENTFORMAT
  1
CONTENTFORMAT_BEGIN
 90
        0
 91
        0
 92
      512
 93
        0
300

 40
0.0
140
1.0
 94
        5
 62
     0
340
A6E2
144
0.25
309
CONTENTFORMAT_END
171
     0
 94
        0
309
TABLEFORMAT_END
  1
CELLSTYLE_BEGIN
 90
        1
 91
        1
300
_TITLE
309
CELLSTYLE_END
300
CELLSTYLE
  1
TABLEFORMAT_BEGIN
 90
        5
170
     1
 91
        0
 92
        0
 62
   257
 93
        1
300
CONTENTFORMAT
  1
CONTENTFORMAT_BEGIN
 90
        0
 91
        0
 92
      512
 93
        0
300

 40
0.0
140
1.0
 94
        5
 62
     0
340
A6E2
144
0.18
309
CONTENTFORMAT_END
171
     0
 94
        0
309
TABLEFORMAT_END
  1
CELLSTYLE_BEGIN
 90
        2
 91
        1
300
_HEADER
309
CELLSTYLE_END
300
CELLSTYLE
  1
TABLEFORMAT_BEGIN
 90
        5
170
     1
 91
        0
 92
        0
 62
   257
 93
        1
300
CONTENTFORMAT
  1
CONTENTFORMAT_BEGIN
 90
        0
 91
        0
 92
      512
 93
        0
300

 40
0.0
140
1.0
 94
        2
 62
     0
340
A6E2
144
0.18
309
CONTENTFORMAT_END
171
     0
 94
        0
309
TABLEFORMAT_END
  1
CELLSTYLE_BEGIN
 90
        3
 91
        2
300
_DATA
309
CELLSTYLE_END
  0
XRECORD
  5
A975
102
{ACAD_REACTORS
330
A93E
102
}
330
A93E
100
AcDbXrecord
280
     1
102
ACAD_ROUNDTRIP_PRE2007_TABLESTYLE
 90
      512
 91
        0
  1

 92
      512
 93
        0
  2

 94
      512
 95
        0
  3

  0
XRECORD
  5
A950
102
{ACAD_REACTORS
330
A94F
102
}
330
A94F
100
AcDbXrecord
280
     1
102
RTVSPost2010Prop28
280
     1
102
RTVSPost2010PropOp28
 70
     1
102
RTVSPost2010Prop29
280
     1
102
RTVSPost2010PropOp29
 70
     1
102
RTVSPost2010Prop30
280
     0
102
RTVSPost2010PropOp30
 70
     1
102
RTVSPost2010Prop31
280
     0
102
RTVSPost2010PropOp31
 70
     1
102
RTVSPost2010Prop32
280
     0
102
RTVSPost2010PropOp32
 70
     1
102
RTVSPost2010Prop33
280
     0
102
RTVSPost2010PropOp33
 70
     1
102
RTVSPost2010Prop34
280
     0
102
RTVSPost2010PropOp34
 70
     1
102
RTVSPost2010Prop35
280
     0
102
RTVSPost2010PropOp35
 70
     1
102
RTVSPost2010Prop36
280
     0
102
RTVSPost2010PropOp36
 70
     1
102
RTVSPost2010Prop37
 90
       50
102
RTVSPost2010PropOp37
 70
     1
102
RTVSPost2010Prop38
140
0.0
102
RTVSPost2010PropOp38
 70
     1
102
RTVSPost2010Prop39
140
1.0
102
RTVSPost2010PropOp39
 70
     1
102
RTVSPost2010Prop40
 90
        0
102
RTVSPost2010PropOp40
 70
     1
102
RTVSPost2010Prop41ColorIndex
 90
       18
102
RTVSPost2010Prop41ColorRGB
 90
        0
102
RTVSPost2010PropOp41
 70
     1
102
RTVSPost2010Prop42
 90
       50
102
RTVSPost2010PropOp42
 70
     1
102
RTVSPost2010Prop43
 90
        3
102
RTVSPost2010PropOp43
 70
     1
102
RTVSPost2010Prop44ColorIndex
 90
        5
102
RTVSPost2010Prop44ColorRGB
 90
      255
102
RTVSPost2010PropOp44
 70
     1
102
RTVSPost2010Prop45
280
     0
102
RTVSPost2010PropOp45
 70
     1
102
RTVSPost2010Prop46
 90
       50
102
RTVSPost2010PropOp46
 70
     1
102
RTVSPost2010Prop47
 90
       50
102
RTVSPost2010PropOp47
 70
     1
102
RTVSPost2010Prop48
 90
       50
102
RTVSPost2010PropOp48
 70
     1
102
RTVSPost2010Prop49
280
     0
102
RTVSPost2010PropOp49
 70
     1
102
RTVSPost2010Prop50
 90
       50
102
RTVSPost2010PropOp50
 70
     1
102
RTVSPost2010Prop51ColorIndex
 90
      256
102
RTVSPost2010Prop51ColorRGB
 90
-16777216
102
RTVSPost2010PropOp51
 70
     0
102
RTVSPost2010Prop52
140
1.0
102
RTVSPost2010PropOp52
 70
     0
102
RTVSPost2010Prop53
 90
        2
102
RTVSPost2010PropOp53
 70
     1
102
RTVSPost2010Prop54
  1
strokes_ogs.tif
102
RTVSPost2010PropOp54
 70
     1
102
RTVSPost2010Prop55
280
     0
102
RTVSPost2010PropOp55
 70
     1
102
RTVSPost2010Prop56
140
1.0
102
RTVSPost2010PropOp56
 70
     1
102
RTVSPost2010Prop57
140
1.0
102
RTVSPost2010PropOp57
 70
     1
102
RTVSPropertyOp0
 70
     1
102
RTVSPropertyOp1
 70
     1
102
RTVSPropertyOp2
 70
     1
102
RTVSPropertyOp3
 70
     1
102
RTVSPropertyOp4
 70
     1
102
RTVSPropertyOp5
 70
     1
102
RTVSPropertyOp6
 70
     1
102
RTVSPropertyOp7
 70
     1
102
RTVSPropertyOp8
 70
     1
102
RTVSPropertyOp9
 70
     1
102
RTVSPropertyOp10
 70
     1
102
RTVSPropertyOp11
 70
     1
102
RTVSPropertyOp12
 70
     1
102
RTVSPropertyOp13
 70
     1
102
RTVSPropertyOp14
 70
     1
102
RTVSPropertyOp15
 70
     1
102
RTVSPropertyOp16
 70
     1
102
RTVSPropertyOp17
 70
     1
102
RTVSPropertyOp18
 70
     1
102
RTVSPropertyOp19
 70
     1
102
RTVSPropertyOp20
 70
     1
102
RTVSPropertyOp21
 70
     1
102
RTVSPropertyOp22
 70
     1
102
RTVSPropertyOp23
 70
     1
102
RTVSPropertyOp24
 70
     1
102
RTVSPropertyOp25
 70
     1
102
RTVSPropertyOp26
 70
     1
102
RTVSPropertyOp27
 70
     1
102
RTVSPropertyOp28
 70
     1
102
RTVSPropertyOp29
 70
     1
102
RTVSPropertyOp30
 70
     1
102
RTVSPropertyOp31
 70
     1
102
RTVSPropertyOp32
 70
     1
102
RTVSPropertyOp33
 70
     1
102
RTVSPropertyOp34
 70
     1
102
RTVSPropertyOp35
 70
     1
102
RTVSPropertyOp36
 70
     1
102
RTVSPropertyOp37
 70
     1
102
RTVSPropertyOp38
 70
     1
102
RTVSPropertyOp39
 70
     1
102
RTVSPropertyOp40
 70
     1
102
RTVSPropertyOp41
 70
     1
102
RTVSPropertyOp42
 70
     1
102
RTVSPropertyOp43
 70
     1
102
RTVSPropertyOp44
 70
     1
102
RTVSPropertyOp45
 70
     1
102
RTVSPropertyOp46
 70
     1
102
RTVSPropertyOp47
 70
     1
102
RTVSPropertyOp48
 70
     1
102
RTVSPropertyOp49
 70
     1
102
RTVSPropertyOp50
 70
     1
102
RTVSPropertyOp51
 70
     0
102
RTVSPropertyOp52
 70
     0
102
RTVSPropertyOp53
 70
     1
102
RTVSPropertyOp54
 70
     1
102
RTVSPropertyOp55
 70
     1
102
RTVSPropertyOp56
 70
     1
102
RTVSPropertyOp57
 70
     1
102
RTVSPropertyOp58
 70
     1
102
RTVSPropertyOp59
 70
     1
102
RTVSPropertyOp60
 70
     1
102
RTVSPropertyOp61
 70
     1
102
RTVSPropertyOp62
 70
     1
  0
XRECORD
  5
A94E
102
{ACAD_REACTORS
330
A94D
102
}
330
A94D
100
AcDbXrecord
280
     1
102
RTVSPost2010Prop28
280
     0
102
RTVSPost2010PropOp28
 70
     1
102
RTVSPost2010Prop29
280
     1
102
RTVSPost2010PropOp29
 70
     1
102
RTVSPost2010Prop30
280
     1
102
RTVSPost2010PropOp30
 70
     1
102
RTVSPost2010Prop31
280
     0
102
RTVSPost2010PropOp31
 70
     1
102
RTVSPost2010Prop32
280
     0
102
RTVSPost2010PropOp32
 70
     1
102
RTVSPost2010Prop33
280
     0
102
RTVSPost2010PropOp33
 70
     1
102
RTVSPost2010Prop34
280
     0
102
RTVSPost2010PropOp34
 70
     1
102
RTVSPost2010Prop35
280
     0
102
RTVSPost2010PropOp35
 70
     1
102
RTVSPost2010Prop36
280
     0
102
RTVSPost2010PropOp36
 70
     1
102
RTVSPost2010Prop37
 90
       50
102
RTVSPost2010PropOp37
 70
     1
102
RTVSPost2010Prop38
140
0.0
102
RTVSPost2010PropOp38
 70
     1
102
RTVSPost2010Prop39
140
1.0
102
RTVSPost2010PropOp39
 70
     1
102
RTVSPost2010Prop40
 90
        0
102
RTVSPost2010PropOp40
 70
     1
102
RTVSPost2010Prop41ColorIndex
 90
       18
102
RTVSPost2010Prop41ColorRGB
 90
        0
102
RTVSPost2010PropOp41
 70
     1
102
RTVSPost2010Prop42
 90
       50
102
RTVSPost2010PropOp42
 70
     1
102
RTVSPost2010Prop43
 90
        3
102
RTVSPost2010PropOp43
 70
     1
102
RTVSPost2010Prop44ColorIndex
 90
        5
102
RTVSPost2010Prop44ColorRGB
 90
      255
102
RTVSPost2010PropOp44
 70
     1
102
RTVSPost2010Prop45
280
     0
102
RTVSPost2010PropOp45
 70
     1
102
RTVSPost2010Prop46
 90
       50
102
RTVSPost2010PropOp46
 70
     1
102
RTVSPost2010Prop47
 90
       50
102
RTVSPost2010PropOp47
 70
     1
102
RTVSPost2010Prop48
 90
       50
102
RTVSPost2010PropOp48
 70
     1
102
RTVSPost2010Prop49
280
     0
102
RTVSPost2010PropOp49
 70
     1
102
RTVSPost2010Prop50
 90
       50
102
RTVSPost2010PropOp50
 70
     1
102
RTVSPost2010Prop51ColorIndex
 90
      256
102
RTVSPost2010Prop51ColorRGB
 90
-16777216
102
RTVSPost2010PropOp51
 70
     0
102
RTVSPost2010Prop52
140
1.0
102
RTVSPost2010PropOp52
 70
     0
102
RTVSPost2010Prop53
 90
        2
102
RTVSPost2010PropOp53
 70
     1
102
RTVSPost2010Prop54
  1
strokes_ogs.tif
102
RTVSPost2010PropOp54
 70
     1
102
RTVSPost2010Prop55
280
     0
102
RTVSPost2010PropOp55
 70
     1
102
RTVSPost2010Prop56
140
1.0
102
RTVSPost2010PropOp56
 70
     1
102
RTVSPost2010Prop57
140
1.0
102
RTVSPost2010PropOp57
 70
     1
102
RTVSPropertyOp0
 70
     1
102
RTVSPropertyOp1
 70
     1
102
RTVSPropertyOp2
 70
     1
102
RTVSPropertyOp3
 70
     1
102
RTVSPropertyOp4
 70
     1
102
RTVSPropertyOp5
 70
     1
102
RTVSPropertyOp6
 70
     1
102
RTVSPropertyOp7
 70
     1
102
RTVSPropertyOp8
 70
     1
102
RTVSPropertyOp9
 70
     1
102
RTVSPropertyOp10
 70
     1
102
RTVSPropertyOp11
 70
     1
102
RTVSPropertyOp12
 70
     1
102
RTVSPropertyOp13
 70
     1
102
RTVSPropertyOp14
 70
     1
102
RTVSPropertyOp15
 70
     1
102
RTVSPropertyOp16
 70
     1
102
RTVSPropertyOp17
 70
     1
102
RTVSPropertyOp18
 70
     1
102
RTVSPropertyOp19
 70
     1
102
RTVSPropertyOp20
 70
     1
102
RTVSPropertyOp21
 70
     1
102
RTVSPropertyOp22
 70
     1
102
RTVSPropertyOp23
 70
     1
102
RTVSPropertyOp24
 70
     1
102
RTVSPropertyOp25
 70
     1
102
RTVSPropertyOp26
 70
     1
102
RTVSPropertyOp27
 70
     1
102
RTVSPropertyOp28
 70
     1
102
RTVSPropertyOp29
 70
     1
102
RTVSPropertyOp30
 70
     1
102
RTVSPropertyOp31
 70
     1
102
RTVSPropertyOp32
 70
     1
102
RTVSPropertyOp33
 70
     1
102
RTVSPropertyOp34
 70
     1
102
RTVSPropertyOp35
 70
     1
102
RTVSPropertyOp36
 70
     1
102
RTVSPropertyOp37
 70
     1
102
RTVSPropertyOp38
 70
     1
102
RTVSPropertyOp39
 70
     1
102
RTVSPropertyOp40
 70
     1
102
RTVSPropertyOp41
 70
     1
102
RTVSPropertyOp42
 70
     1
102
RTVSPropertyOp43
 70
     1
102
RTVSPropertyOp44
 70
     1
102
RTVSPropertyOp45
 70
     1
102
RTVSPropertyOp46
 70
     1
102
RTVSPropertyOp47
 70
     1
102
RTVSPropertyOp48
 70
     1
102
RTVSPropertyOp49
 70
     1
102
RTVSPropertyOp50
 70
     1
102
RTVSPropertyOp51
 70
     0
102
RTVSPropertyOp52
 70
     0
102
RTVSPropertyOp53
 70
     1
102
RTVSPropertyOp54
 70
     1
102
RTVSPropertyOp55
 70
     1
102
RTVSPropertyOp56
 70
     1
102
RTVSPropertyOp57
 70
     1
102
RTVSPropertyOp58
 70
     1
102
RTVSPropertyOp59
 70
     1
102
RTVSPropertyOp60
 70
     1
102
RTVSPropertyOp61
 70
     1
102
RTVSPropertyOp62
 70
     1
  0
XRECORD
  5
A95C
102
{ACAD_REACTORS
330
A95B
102
}
330
A95B
100
AcDbXrecord
280
     1
102
RTVSPost2010Prop28
280
     0
102
RTVSPost2010PropOp28
 70
     1
102
RTVSPost2010Prop29
280
     1
102
RTVSPost2010PropOp29
 70
     1
102
RTVSPost2010Prop30
280
     1
102
RTVSPost2010PropOp30
 70
     1
102
RTVSPost2010Prop31
280
     0
102
RTVSPost2010PropOp31
 70
     1
102
RTVSPost2010Prop32
280
     0
102
RTVSPost2010PropOp32
 70
     1
102
RTVSPost2010Prop33
280
     0
102
RTVSPost2010PropOp33
 70
     1
102
RTVSPost2010Prop34
280
     0
102
RTVSPost2010PropOp34
 70
     1
102
RTVSPost2010Prop35
280
     0
102
RTVSPost2010PropOp35
 70
     1
102
RTVSPost2010Prop36
280
     0
102
RTVSPost2010PropOp36
 70
     1
102
RTVSPost2010Prop37
 90
       50
102
RTVSPost2010PropOp37
 70
     1
102
RTVSPost2010Prop38
140
0.0
102
RTVSPost2010PropOp38
 70
     1
102
RTVSPost2010Prop39
140
1.0
102
RTVSPost2010PropOp39
 70
     1
102
RTVSPost2010Prop40
 90
        0
102
RTVSPost2010PropOp40
 70
     1
102
RTVSPost2010Prop41ColorIndex
 90
       18
102
RTVSPost2010Prop41ColorRGB
 90
        0
102
RTVSPost2010PropOp41
 70
     1
102
RTVSPost2010Prop42
 90
       50
102
RTVSPost2010PropOp42
 70
     1
102
RTVSPost2010Prop43
 90
        3
102
RTVSPost2010PropOp43
 70
     1
102
RTVSPost2010Prop44ColorIndex
 90
        5
102
RTVSPost2010Prop44ColorRGB
 90
      255
102
RTVSPost2010PropOp44
 70
     1
102
RTVSPost2010Prop45
280
     0
102
RTVSPost2010PropOp45
 70
     1
102
RTVSPost2010Prop46
 90
       50
102
RTVSPost2010PropOp46
 70
     1
102
RTVSPost2010Prop47
 90
       50
102
RTVSPost2010PropOp47
 70
     1
102
RTVSPost2010Prop48
 90
       50
102
RTVSPost2010PropOp48
 70
     1
102
RTVSPost2010Prop49
280
     0
102
RTVSPost2010PropOp49
 70
     1
102
RTVSPost2010Prop50
 90
       50
102
RTVSPost2010PropOp50
 70
     1
102
RTVSPost2010Prop51ColorIndex
 90
      256
102
RTVSPost2010Prop51ColorRGB
 90
-16777216
102
RTVSPost2010PropOp51
 70
     0
102
RTVSPost2010Prop52
140
1.0
102
RTVSPost2010PropOp52
 70
     0
102
RTVSPost2010Prop53
 90
        2
102
RTVSPost2010PropOp53
 70
     1
102
RTVSPost2010Prop54
  1
strokes_ogs.tif
102
RTVSPost2010PropOp54
 70
     1
102
RTVSPost2010Prop55
280
     0
102
RTVSPost2010PropOp55
 70
     1
102
RTVSPost2010Prop56
140
1.0
102
RTVSPost2010PropOp56
 70
     1
102
RTVSPost2010Prop57
140
1.0
102
RTVSPost2010PropOp57
 70
     1
102
RTVSPropertyOp0
 70
     1
102
RTVSPropertyOp1
 70
     1
102
RTVSPropertyOp2
 70
     1
102
RTVSPropertyOp3
 70
     1
102
RTVSPropertyOp4
 70
     1
102
RTVSPropertyOp5
 70
     1
102
RTVSPropertyOp6
 70
     1
102
RTVSPropertyOp7
 70
     1
102
RTVSPropertyOp8
 70
     1
102
RTVSPropertyOp9
 70
     1
102
RTVSPropertyOp10
 70
     1
102
RTVSPropertyOp11
 70
     1
102
RTVSPropertyOp12
 70
     1
102
RTVSPropertyOp13
 70
     1
102
RTVSPropertyOp14
 70
     1
102
RTVSPropertyOp15
 70
     1
102
RTVSPropertyOp16
 70
     1
102
RTVSPropertyOp17
 70
     1
102
RTVSPropertyOp18
 70
     1
102
RTVSPropertyOp19
 70
     1
102
RTVSPropertyOp20
 70
     1
102
RTVSPropertyOp21
 70
     1
102
RTVSPropertyOp22
 70
     1
102
RTVSPropertyOp23
 70
     1
102
RTVSPropertyOp24
 70
     1
102
RTVSPropertyOp25
 70
     1
102
RTVSPropertyOp26
 70
     1
102
RTVSPropertyOp27
 70
     1
102
RTVSPropertyOp28
 70
     1
102
RTVSPropertyOp29
 70
     1
102
RTVSPropertyOp30
 70
     1
102
RTVSPropertyOp31
 70
     1
102
RTVSPropertyOp32
 70
     1
102
RTVSPropertyOp33
 70
     1
102
RTVSPropertyOp34
 70
     1
102
RTVSPropertyOp35
 70
     1
102
RTVSPropertyOp36
 70
     1
102
RTVSPropertyOp37
 70
     1
102
RTVSPropertyOp38
 70
     1
102
RTVSPropertyOp39
 70
     1
102
RTVSPropertyOp40
 70
     1
102
RTVSPropertyOp41
 70
     1
102
RTVSPropertyOp42
 70
     1
102
RTVSPropertyOp43
 70
     1
102
RTVSPropertyOp44
 70
     1
102
RTVSPropertyOp45
 70
     1
102
RTVSPropertyOp46
 70
     1
102
RTVSPropertyOp47
 70
     1
102
RTVSPropertyOp48
 70
     1
102
RTVSPropertyOp49
 70
     1
102
RTVSPropertyOp50
 70
     1
102
RTVSPropertyOp51
 70
     0
102
RTVSPropertyOp52
 70
     0
102
RTVSPropertyOp53
 70
     1
102
RTVSPropertyOp54
 70
     1
102
RTVSPropertyOp55
 70
     1
102
RTVSPropertyOp56
 70
     1
102
RTVSPropertyOp57
 70
     1
102
RTVSPropertyOp58
 70
     1
102
RTVSPropertyOp59
 70
     1
102
RTVSPropertyOp60
 70
     1
102
RTVSPropertyOp61
 70
     1
102
RTVSPropertyOp62
 70
     1
  0
XRECORD
  5
A964
102
{ACAD_REACTORS
330
A963
102
}
330
A963
100
AcDbXrecord
280
     1
102
RTVSPost2010Prop28
280
     0
102
RTVSPost2010PropOp28
 70
     1
102
RTVSPost2010Prop29
280
     1
102
RTVSPost2010PropOp29
 70
     1
102
RTVSPost2010Prop30
280
     1
102
RTVSPost2010PropOp30
 70
     1
102
RTVSPost2010Prop31
280
     0
102
RTVSPost2010PropOp31
 70
     1
102
RTVSPost2010Prop32
280
     0
102
RTVSPost2010PropOp32
 70
     1
102
RTVSPost2010Prop33
280
     0
102
RTVSPost2010PropOp33
 70
     1
102
RTVSPost2010Prop34
280
     0
102
RTVSPost2010PropOp34
 70
     1
102
RTVSPost2010Prop35
280
     0
102
RTVSPost2010PropOp35
 70
     1
102
RTVSPost2010Prop36
280
     0
102
RTVSPost2010PropOp36
 70
     1
102
RTVSPost2010Prop37
 90
       50
102
RTVSPost2010PropOp37
 70
     1
102
RTVSPost2010Prop38
140
0.0
102
RTVSPost2010PropOp38
 70
     1
102
RTVSPost2010Prop39
140
1.0
102
RTVSPost2010PropOp39
 70
     1
102
RTVSPost2010Prop40
 90
        0
102
RTVSPost2010PropOp40
 70
     1
102
RTVSPost2010Prop41ColorIndex
 90
       18
102
RTVSPost2010Prop41ColorRGB
 90
        0
102
RTVSPost2010PropOp41
 70
     1
102
RTVSPost2010Prop42
 90
       50
102
RTVSPost2010PropOp42
 70
     1
102
RTVSPost2010Prop43
 90
        3
102
RTVSPost2010PropOp43
 70
     1
102
RTVSPost2010Prop44ColorIndex
 90
        5
102
RTVSPost2010Prop44ColorRGB
 90
      255
102
RTVSPost2010PropOp44
 70
     1
102
RTVSPost2010Prop45
280
     0
102
RTVSPost2010PropOp45
 70
     1
102
RTVSPost2010Prop46
 90
       50
102
RTVSPost2010PropOp46
 70
     1
102
RTVSPost2010Prop47
 90
       50
102
RTVSPost2010PropOp47
 70
     1
102
RTVSPost2010Prop48
 90
       50
102
RTVSPost2010PropOp48
 70
     1
102
RTVSPost2010Prop49
280
     0
102
RTVSPost2010PropOp49
 70
     1
102
RTVSPost2010Prop50
 90
       50
102
RTVSPost2010PropOp50
 70
     1
102
RTVSPost2010Prop51ColorIndex
 90
      256
102
RTVSPost2010Prop51ColorRGB
 90
-16777216
102
RTVSPost2010PropOp51
 70
     0
102
RTVSPost2010Prop52
140
1.0
102
RTVSPost2010PropOp52
 70
     0
102
RTVSPost2010Prop53
 90
        2
102
RTVSPost2010PropOp53
 70
     1
102
RTVSPost2010Prop54
  1
strokes_ogs.tif
102
RTVSPost2010PropOp54
 70
     1
102
RTVSPost2010Prop55
280
     0
102
RTVSPost2010PropOp55
 70
     1
102
RTVSPost2010Prop56
140
1.0
102
RTVSPost2010PropOp56
 70
     1
102
RTVSPost2010Prop57
140
1.0
102
RTVSPost2010PropOp57
 70
     1
102
RTVSPropertyOp0
 70
     1
102
RTVSPropertyOp1
 70
     1
102
RTVSPropertyOp2
 70
     1
102
RTVSPropertyOp3
 70
     1
102
RTVSPropertyOp4
 70
     1
102
RTVSPropertyOp5
 70
     1
102
RTVSPropertyOp6
 70
     1
102
RTVSPropertyOp7
 70
     1
102
RTVSPropertyOp8
 70
     1
102
RTVSPropertyOp9
 70
     1
102
RTVSPropertyOp10
 70
     1
102
RTVSPropertyOp11
 70
     1
102
RTVSPropertyOp12
 70
     1
102
RTVSPropertyOp13
 70
     1
102
RTVSPropertyOp14
 70
     1
102
RTVSPropertyOp15
 70
     1
102
RTVSPropertyOp16
 70
     1
102
RTVSPropertyOp17
 70
     1
102
RTVSPropertyOp18
 70
     1
102
RTVSPropertyOp19
 70
     1
102
RTVSPropertyOp20
 70
     1
102
RTVSPropertyOp21
 70
     1
102
RTVSPropertyOp22
 70
     1
102
RTVSPropertyOp23
 70
     1
102
RTVSPropertyOp24
 70
     1
102
RTVSPropertyOp25
 70
     1
102
RTVSPropertyOp26
 70
     1
102
RTVSPropertyOp27
 70
     1
102
RTVSPropertyOp28
 70
     1
102
RTVSPropertyOp29
 70
     1
102
RTVSPropertyOp30
 70
     1
102
RTVSPropertyOp31
 70
     1
102
RTVSPropertyOp32
 70
     1
102
RTVSPropertyOp33
 70
     1
102
RTVSPropertyOp34
 70
     1
102
RTVSPropertyOp35
 70
     1
102
RTVSPropertyOp36
 70
     1
102
RTVSPropertyOp37
 70
     1
102
RTVSPropertyOp38
 70
     1
102
RTVSPropertyOp39
 70
     1
102
RTVSPropertyOp40
 70
     1
102
RTVSPropertyOp41
 70
     1
102
RTVSPropertyOp42
 70
     1
102
RTVSPropertyOp43
 70
     1
102
RTVSPropertyOp44
 70
     1
102
RTVSPropertyOp45
 70
     1
102
RTVSPropertyOp46
 70
     1
102
RTVSPropertyOp47
 70
     1
102
RTVSPropertyOp48
 70
     1
102
RTVSPropertyOp49
 70
     1
102
RTVSPropertyOp50
 70
     1
102
RTVSPropertyOp51
 70
     0
102
RTVSPropertyOp52
 70
     0
102
RTVSPropertyOp53
 70
     1
102
RTVSPropertyOp54
 70
     1
102
RTVSPropertyOp55
 70
     1
102
RTVSPropertyOp56
 70
     1
102
RTVSPropertyOp57
 70
     1
102
RTVSPropertyOp58
 70
     1
102
RTVSPropertyOp59
 70
     1
102
RTVSPropertyOp60
 70
     1
102
RTVSPropertyOp61
 70
     1
102
RTVSPropertyOp62
 70
     1
  0
XRECORD
  5
A956
102
{ACAD_REACTORS
330
A955
102
}
330
A955
100
AcDbXrecord
280
     1
102
RTVSPost2010Prop28
280
     0
102
RTVSPost2010PropOp28
 70
     1
102
RTVSPost2010Prop29
280
     1
102
RTVSPost2010PropOp29
 70
     1
102
RTVSPost2010Prop30
280
     1
102
RTVSPost2010PropOp30
 70
     1
102
RTVSPost2010Prop31
280
     0
102
RTVSPost2010PropOp31
 70
     1
102
RTVSPost2010Prop32
280
     0
102
RTVSPost2010PropOp32
 70
     1
102
RTVSPost2010Prop33
280
     0
102
RTVSPost2010PropOp33
 70
     1
102
RTVSPost2010Prop34
280
     0
102
RTVSPost2010PropOp34
 70
     1
102
RTVSPost2010Prop35
280
     0
102
RTVSPost2010PropOp35
 70
     1
102
RTVSPost2010Prop36
280
     0
102
RTVSPost2010PropOp36
 70
     1
102
RTVSPost2010Prop37
 90
       50
102
RTVSPost2010PropOp37
 70
     1
102
RTVSPost2010Prop38
140
0.0
102
RTVSPost2010PropOp38
 70
     1
102
RTVSPost2010Prop39
140
1.0
102
RTVSPost2010PropOp39
 70
     1
102
RTVSPost2010Prop40
 90
        0
102
RTVSPost2010PropOp40
 70
     1
102
RTVSPost2010Prop41ColorIndex
 90
       18
102
RTVSPost2010Prop41ColorRGB
 90
        0
102
RTVSPost2010PropOp41
 70
     1
102
RTVSPost2010Prop42
 90
       50
102
RTVSPost2010PropOp42
 70
     1
102
RTVSPost2010Prop43
 90
        3
102
RTVSPost2010PropOp43
 70
     1
102
RTVSPost2010Prop44ColorIndex
 90
        5
102
RTVSPost2010Prop44ColorRGB
 90
      255
102
RTVSPost2010PropOp44
 70
     1
102
RTVSPost2010Prop45
280
     0
102
RTVSPost2010PropOp45
 70
     1
102
RTVSPost2010Prop46
 90
       50
102
RTVSPost2010PropOp46
 70
     1
102
RTVSPost2010Prop47
 90
       50
102
RTVSPost2010PropOp47
 70
     1
102
RTVSPost2010Prop48
 90
       50
102
RTVSPost2010PropOp48
 70
     1
102
RTVSPost2010Prop49
280
     0
102
RTVSPost2010PropOp49
 70
     1
102
RTVSPost2010Prop50
 90
       50
102
RTVSPost2010PropOp50
 70
     1
102
RTVSPost2010Prop51ColorIndex
 90
      256
102
RTVSPost2010Prop51ColorRGB
 90
-16777216
102
RTVSPost2010PropOp51
 70
     0
102
RTVSPost2010Prop52
140
1.0
102
RTVSPost2010PropOp52
 70
     0
102
RTVSPost2010Prop53
 90
        2
102
RTVSPost2010PropOp53
 70
     1
102
RTVSPost2010Prop54
  1
strokes_ogs.tif
102
RTVSPost2010PropOp54
 70
     1
102
RTVSPost2010Prop55
280
     0
102
RTVSPost2010PropOp55
 70
     1
102
RTVSPost2010Prop56
140
1.0
102
RTVSPost2010PropOp56
 70
     1
102
RTVSPost2010Prop57
140
1.0
102
RTVSPost2010PropOp57
 70
     1
102
RTVSPropertyOp0
 70
     1
102
RTVSPropertyOp1
 70
     1
102
RTVSPropertyOp2
 70
     1
102
RTVSPropertyOp3
 70
     1
102
RTVSPropertyOp4
 70
     1
102
RTVSPropertyOp5
 70
     1
102
RTVSPropertyOp6
 70
     1
102
RTVSPropertyOp7
 70
     1
102
RTVSPropertyOp8
 70
     1
102
RTVSPropertyOp9
 70
     1
102
RTVSPropertyOp10
 70
     1
102
RTVSPropertyOp11
 70
     1
102
RTVSPropertyOp12
 70
     1
102
RTVSPropertyOp13
 70
     1
102
RTVSPropertyOp14
 70
     1
102
RTVSPropertyOp15
 70
     1
102
RTVSPropertyOp16
 70
     1
102
RTVSPropertyOp17
 70
     1
102
RTVSPropertyOp18
 70
     1
102
RTVSPropertyOp19
 70
     1
102
RTVSPropertyOp20
 70
     1
102
RTVSPropertyOp21
 70
     1
102
RTVSPropertyOp22
 70
     1
102
RTVSPropertyOp23
 70
     1
102
RTVSPropertyOp24
 70
     1
102
RTVSPropertyOp25
 70
     1
102
RTVSPropertyOp26
 70
     1
102
RTVSPropertyOp27
 70
     1
102
RTVSPropertyOp28
 70
     1
102
RTVSPropertyOp29
 70
     1
102
RTVSPropertyOp30
 70
     1
102
RTVSPropertyOp31
 70
     1
102
RTVSPropertyOp32
 70
     1
102
RTVSPropertyOp33
 70
     1
102
RTVSPropertyOp34
 70
     1
102
RTVSPropertyOp35
 70
     1
102
RTVSPropertyOp36
 70
     1
102
RTVSPropertyOp37
 70
     1
102
RTVSPropertyOp38
 70
     1
102
RTVSPropertyOp39
 70
     1
102
RTVSPropertyOp40
 70
     1
102
RTVSPropertyOp41
 70
     1
102
RTVSPropertyOp42
 70
     1
102
RTVSPropertyOp43
 70
     1
102
RTVSPropertyOp44
 70
     1
102
RTVSPropertyOp45
 70
     1
102
RTVSPropertyOp46
 70
     1
102
RTVSPropertyOp47
 70
     1
102
RTVSPropertyOp48
 70
     1
102
RTVSPropertyOp49
 70
     1
102
RTVSPropertyOp50
 70
     1
102
RTVSPropertyOp51
 70
     0
102
RTVSPropertyOp52
 70
     0
102
RTVSPropertyOp53
 70
     1
102
RTVSPropertyOp54
 70
     1
102
RTVSPropertyOp55
 70
     1
102
RTVSPropertyOp56
 70
     1
102
RTVSPropertyOp57
 70
     1
102
RTVSPropertyOp58
 70
     1
102
RTVSPropertyOp59
 70
     1
102
RTVSPropertyOp60
 70
     1
102
RTVSPropertyOp61
 70
     1
102
RTVSPropertyOp62
 70
     1
  0
XRECORD
  5
A95A
102
{ACAD_REACTORS
330
A959
102
}
330
A959
100
AcDbXrecord
280
     1
102
RTVSPost2010Prop28
280
     0
102
RTVSPost2010PropOp28
 70
     1
102
RTVSPost2010Prop29
280
     1
102
RTVSPost2010PropOp29
 70
     1
102
RTVSPost2010Prop30
280
     1
102
RTVSPost2010PropOp30
 70
     1
102
RTVSPost2010Prop31
280
     0
102
RTVSPost2010PropOp31
 70
     1
102
RTVSPost2010Prop32
280
     0
102
RTVSPost2010PropOp32
 70
     1
102
RTVSPost2010Prop33
280
     0
102
RTVSPost2010PropOp33
 70
     1
102
RTVSPost2010Prop34
280
     0
102
RTVSPost2010PropOp34
 70
     1
102
RTVSPost2010Prop35
280
     0
102
RTVSPost2010PropOp35
 70
     1
102
RTVSPost2010Prop36
280
     0
102
RTVSPost2010PropOp36
 70
     1
102
RTVSPost2010Prop37
 90
       50
102
RTVSPost2010PropOp37
 70
     1
102
RTVSPost2010Prop38
140
0.0
102
RTVSPost2010PropOp38
 70
     1
102
RTVSPost2010Prop39
140
1.0
102
RTVSPost2010PropOp39
 70
     1
102
RTVSPost2010Prop40
 90
        0
102
RTVSPost2010PropOp40
 70
     1
102
RTVSPost2010Prop41ColorIndex
 90
       18
102
RTVSPost2010Prop41ColorRGB
 90
        0
102
RTVSPost2010PropOp41
 70
     1
102
RTVSPost2010Prop42
 90
       50
102
RTVSPost2010PropOp42
 70
     1
102
RTVSPost2010Prop43
 90
        3
102
RTVSPost2010PropOp43
 70
     1
102
RTVSPost2010Prop44ColorIndex
 90
        5
102
RTVSPost2010Prop44ColorRGB
 90
      255
102
RTVSPost2010PropOp44
 70
     1
102
RTVSPost2010Prop45
280
     0
102
RTVSPost2010PropOp45
 70
     1
102
RTVSPost2010Prop46
 90
       50
102
RTVSPost2010PropOp46
 70
     1
102
RTVSPost2010Prop47
 90
       50
102
RTVSPost2010PropOp47
 70
     1
102
RTVSPost2010Prop48
 90
       50
102
RTVSPost2010PropOp48
 70
     1
102
RTVSPost2010Prop49
280
     0
102
RTVSPost2010PropOp49
 70
     1
102
RTVSPost2010Prop50
 90
       50
102
RTVSPost2010PropOp50
 70
     1
102
RTVSPost2010Prop51ColorIndex
 90
      256
102
RTVSPost2010Prop51ColorRGB
 90
-16777216
102
RTVSPost2010PropOp51
 70
     0
102
RTVSPost2010Prop52
140
1.0
102
RTVSPost2010PropOp52
 70
     0
102
RTVSPost2010Prop53
 90
        2
102
RTVSPost2010PropOp53
 70
     1
102
RTVSPost2010Prop54
  1
strokes_ogs.tif
102
RTVSPost2010PropOp54
 70
     1
102
RTVSPost2010Prop55
280
     0
102
RTVSPost2010PropOp55
 70
     1
102
RTVSPost2010Prop56
140
1.0
102
RTVSPost2010PropOp56
 70
     1
102
RTVSPost2010Prop57
140
1.0
102
RTVSPost2010PropOp57
 70
     1
102
RTVSPropertyOp0
 70
     1
102
RTVSPropertyOp1
 70
     1
102
RTVSPropertyOp2
 70
     1
102
RTVSPropertyOp3
 70
     1
102
RTVSPropertyOp4
 70
     1
102
RTVSPropertyOp5
 70
     1
102
RTVSPropertyOp6
 70
     1
102
RTVSPropertyOp7
 70
     1
102
RTVSPropertyOp8
 70
     1
102
RTVSPropertyOp9
 70
     1
102
RTVSPropertyOp10
 70
     1
102
RTVSPropertyOp11
 70
     1
102
RTVSPropertyOp12
 70
     1
102
RTVSPropertyOp13
 70
     1
102
RTVSPropertyOp14
 70
     1
102
RTVSPropertyOp15
 70
     1
102
RTVSPropertyOp16
 70
     1
102
RTVSPropertyOp17
 70
     1
102
RTVSPropertyOp18
 70
     1
102
RTVSPropertyOp19
 70
     1
102
RTVSPropertyOp20
 70
     1
102
RTVSPropertyOp21
 70
     1
102
RTVSPropertyOp22
 70
     1
102
RTVSPropertyOp23
 70
     1
102
RTVSPropertyOp24
 70
     1
102
RTVSPropertyOp25
 70
     1
102
RTVSPropertyOp26
 70
     1
102
RTVSPropertyOp27
 70
     1
102
RTVSPropertyOp28
 70
     1
102
RTVSPropertyOp29
 70
     1
102
RTVSPropertyOp30
 70
     1
102
RTVSPropertyOp31
 70
     1
102
RTVSPropertyOp32
 70
     1
102
RTVSPropertyOp33
 70
     1
102
RTVSPropertyOp34
 70
     1
102
RTVSPropertyOp35
 70
     1
102
RTVSPropertyOp36
 70
     1
102
RTVSPropertyOp37
 70
     1
102
RTVSPropertyOp38
 70
     1
102
RTVSPropertyOp39
 70
     1
102
RTVSPropertyOp40
 70
     1
102
RTVSPropertyOp41
 70
     1
102
RTVSPropertyOp42
 70
     1
102
RTVSPropertyOp43
 70
     1
102
RTVSPropertyOp44
 70
     1
102
RTVSPropertyOp45
 70
     1
102
RTVSPropertyOp46
 70
     1
102
RTVSPropertyOp47
 70
     1
102
RTVSPropertyOp48
 70
     1
102
RTVSPropertyOp49
 70
     1
102
RTVSPropertyOp50
 70
     1
102
RTVSPropertyOp51
 70
     0
102
RTVSPropertyOp52
 70
     0
102
RTVSPropertyOp53
 70
     1
102
RTVSPropertyOp54
 70
     1
102
RTVSPropertyOp55
 70
     1
102
RTVSPropertyOp56
 70
     1
102
RTVSPropertyOp57
 70
     1
102
RTVSPropertyOp58
 70
     1
102
RTVSPropertyOp59
 70
     1
102
RTVSPropertyOp60
 70
     1
102
RTVSPropertyOp61
 70
     1
102
RTVSPropertyOp62
 70
     1
  0
XRECORD
  5
A974
102
{ACAD_REACTORS
330
A973
102
}
330
A973
100
AcDbXrecord
280
     1
102
RTVSPost2010Prop28
280
     0
102
RTVSPost2010PropOp28
 70
     1
102
RTVSPost2010Prop29
280
     1
102
RTVSPost2010PropOp29
 70
     1
102
RTVSPost2010Prop30
280
     1
102
RTVSPost2010PropOp30
 70
     1
102
RTVSPost2010Prop31
280
     0
102
RTVSPost2010PropOp31
 70
     1
102
RTVSPost2010Prop32
280
     0
102
RTVSPost2010PropOp32
 70
     1
102
RTVSPost2010Prop33
280
     0
102
RTVSPost2010PropOp33
 70
     1
102
RTVSPost2010Prop34
280
     0
102
RTVSPost2010PropOp34
 70
     1
102
RTVSPost2010Prop35
280
     0
102
RTVSPost2010PropOp35
 70
     1
102
RTVSPost2010Prop36
280
     0
102
RTVSPost2010PropOp36
 70
     1
102
RTVSPost2010Prop37
 90
       50
102
RTVSPost2010PropOp37
 70
     0
102
RTVSPost2010Prop38
140
0.0
102
RTVSPost2010PropOp38
 70
     0
102
RTVSPost2010Prop39
140
1.0
102
RTVSPost2010PropOp39
 70
     0
102
RTVSPost2010Prop40
 90
        0
102
RTVSPost2010PropOp40
 70
     0
102
RTVSPost2010Prop41ColorIndex
 90
       18
102
RTVSPost2010Prop41ColorRGB
 90
        0
102
RTVSPost2010PropOp41
 70
     0
102
RTVSPost2010Prop42
 90
       50
102
RTVSPost2010PropOp42
 70
     0
102
RTVSPost2010Prop43
 90
        3
102
RTVSPost2010PropOp43
 70
     0
102
RTVSPost2010Prop44ColorIndex
 90
        5
102
RTVSPost2010Prop44ColorRGB
 90
      255
102
RTVSPost2010PropOp44
 70
     0
102
RTVSPost2010Prop45
280
     0
102
RTVSPost2010PropOp45
 70
     1
102
RTVSPost2010Prop46
 90
       50
102
RTVSPost2010PropOp46
 70
     0
102
RTVSPost2010Prop47
 90
       50
102
RTVSPost2010PropOp47
 70
     0
102
RTVSPost2010Prop48
 90
       50
102
RTVSPost2010PropOp48
 70
     0
102
RTVSPost2010Prop49
280
     0
102
RTVSPost2010PropOp49
 70
     1
102
RTVSPost2010Prop50
 90
       50
102
RTVSPost2010PropOp50
 70
     0
102
RTVSPost2010Prop51ColorIndex
 90
      256
102
RTVSPost2010Prop51ColorRGB
 90
-16777216
102
RTVSPost2010PropOp51
 70
     0
102
RTVSPost2010Prop52
140
1.0
102
RTVSPost2010PropOp52
 70
     0
102
RTVSPost2010Prop53
 90
        2
102
RTVSPost2010PropOp53
 70
     0
102
RTVSPost2010Prop54
  1
strokes_ogs.tif
102
RTVSPost2010PropOp54
 70
     0
102
RTVSPost2010Prop55
280
     0
102
RTVSPost2010PropOp55
 70
     1
102
RTVSPost2010Prop56
140
1.0
102
RTVSPost2010PropOp56
 70
     0
102
RTVSPost2010Prop57
140
1.0
102
RTVSPost2010PropOp57
 70
     0
102
RTVSPropertyOp0
 70
     0
102
RTVSPropertyOp1
 70
     0
102
RTVSPropertyOp2
 70
     0
102
RTVSPropertyOp3
 70
     0
102
RTVSPropertyOp4
 70
     0
102
RTVSPropertyOp5
 70
     0
102
RTVSPropertyOp6
 70
     0
102
RTVSPropertyOp7
 70
     0
102
RTVSPropertyOp8
 70
     0
102
RTVSPropertyOp9
 70
     0
102
RTVSPropertyOp10
 70
     0
102
RTVSPropertyOp11
 70
     0
102
RTVSPropertyOp12
 70
     0
102
RTVSPropertyOp13
 70
     0
102
RTVSPropertyOp14
 70
     2
102
RTVSPropertyOp15
 70
     0
102
RTVSPropertyOp16
 70
     0
102
RTVSPropertyOp17
 70
     0
102
RTVSPropertyOp18
 70
     0
102
RTVSPropertyOp19
 70
     0
102
RTVSPropertyOp20
 70
     0
102
RTVSPropertyOp21
 70
     0
102
RTVSPropertyOp22
 70
     0
102
RTVSPropertyOp23
 70
     0
102
RTVSPropertyOp24
 70
     0
102
RTVSPropertyOp25
 70
     0
102
RTVSPropertyOp26
 70
     0
102
RTVSPropertyOp27
 70
     0
102
RTVSPropertyOp28
 70
     1
102
RTVSPropertyOp29
 70
     1
102
RTVSPropertyOp30
 70
     1
102
RTVSPropertyOp31
 70
     1
102
RTVSPropertyOp32
 70
     1
102
RTVSPropertyOp33
 70
     1
102
RTVSPropertyOp34
 70
     1
102
RTVSPropertyOp35
 70
     1
102
RTVSPropertyOp36
 70
     1
102
RTVSPropertyOp37
 70
     0
102
RTVSPropertyOp38
 70
     0
102
RTVSPropertyOp39
 70
     0
102
RTVSPropertyOp40
 70
     0
102
RTVSPropertyOp41
 70
     0
102
RTVSPropertyOp42
 70
     0
102
RTVSPropertyOp43
 70
     0
102
RTVSPropertyOp44
 70
     0
102
RTVSPropertyOp45
 70
     1
102
RTVSPropertyOp46
 70
     0
102
RTVSPropertyOp47
 70
     0
102
RTVSPropertyOp48
 70
     0
102
RTVSPropertyOp49
 70
     1
102
RTVSPropertyOp50
 70
     0
102
RTVSPropertyOp51
 70
     0
102
RTVSPropertyOp52
 70
     0
102
RTVSPropertyOp53
 70
     0
102
RTVSPropertyOp54
 70
     0
102
RTVSPropertyOp55
 70
     1
102
RTVSPropertyOp56
 70
     0
102
RTVSPropertyOp57
 70
     0
102
RTVSPropertyOp58
 70
     0
102
RTVSPropertyOp59
 70
     0
102
RTVSPropertyOp60
 70
     0
102
RTVSPropertyOp61
 70
     0
102
RTVSPropertyOp62
 70
     0
  0
XRECORD
  5
A962
102
{ACAD_REACTORS
330
A961
102
}
330
A961
100
AcDbXrecord
280
     1
102
RTVSPost2010Prop28
280
     0
102
RTVSPost2010PropOp28
 70
     1
102
RTVSPost2010Prop29
280
     1
102
RTVSPost2010PropOp29
 70
     1
102
RTVSPost2010Prop30
280
     1
102
RTVSPost2010PropOp30
 70
     1
102
RTVSPost2010Prop31
280
     0
102
RTVSPost2010PropOp31
 70
     1
102
RTVSPost2010Prop32
280
     0
102
RTVSPost2010PropOp32
 70
     1
102
RTVSPost2010Prop33
280
     0
102
RTVSPost2010PropOp33
 70
     1
102
RTVSPost2010Prop34
280
     0
102
RTVSPost2010PropOp34
 70
     1
102
RTVSPost2010Prop35
280
     0
102
RTVSPost2010PropOp35
 70
     1
102
RTVSPost2010Prop36
280
     0
102
RTVSPost2010PropOp36
 70
     1
102
RTVSPost2010Prop37
 90
       50
102
RTVSPost2010PropOp37
 70
     1
102
RTVSPost2010Prop38
140
0.0
102
RTVSPost2010PropOp38
 70
     1
102
RTVSPost2010Prop39
140
1.0
102
RTVSPost2010PropOp39
 70
     1
102
RTVSPost2010Prop40
 90
        0
102
RTVSPost2010PropOp40
 70
     1
102
RTVSPost2010Prop41ColorIndex
 90
       18
102
RTVSPost2010Prop41ColorRGB
 90
        0
102
RTVSPost2010PropOp41
 70
     1
102
RTVSPost2010Prop42
 90
       50
102
RTVSPost2010PropOp42
 70
     1
102
RTVSPost2010Prop43
 90
        3
102
RTVSPost2010PropOp43
 70
     1
102
RTVSPost2010Prop44ColorIndex
 90
        5
102
RTVSPost2010Prop44ColorRGB
 90
      255
102
RTVSPost2010PropOp44
 70
     1
102
RTVSPost2010Prop45
280
     0
102
RTVSPost2010PropOp45
 70
     1
102
RTVSPost2010Prop46
 90
       50
102
RTVSPost2010PropOp46
 70
     1
102
RTVSPost2010Prop47
 90
       50
102
RTVSPost2010PropOp47
 70
     1
102
RTVSPost2010Prop48
 90
       50
102
RTVSPost2010PropOp48
 70
     1
102
RTVSPost2010Prop49
280
     0
102
RTVSPost2010PropOp49
 70
     1
102
RTVSPost2010Prop50
 90
       50
102
RTVSPost2010PropOp50
 70
     1
102
RTVSPost2010Prop51ColorIndex
 90
      256
102
RTVSPost2010Prop51ColorRGB
 90
-16777216
102
RTVSPost2010PropOp51
 70
     0
102
RTVSPost2010Prop52
140
1.0
102
RTVSPost2010PropOp52
 70
     0
102
RTVSPost2010Prop53
 90
        2
102
RTVSPost2010PropOp53
 70
     1
102
RTVSPost2010Prop54
  1
strokes_ogs.tif
102
RTVSPost2010PropOp54
 70
     1
102
RTVSPost2010Prop55
280
     0
102
RTVSPost2010PropOp55
 70
     1
102
RTVSPost2010Prop56
140
1.0
102
RTVSPost2010PropOp56
 70
     1
102
RTVSPost2010Prop57
140
1.0
102
RTVSPost2010PropOp57
 70
     1
102
RTVSPropertyOp0
 70
     1
102
RTVSPropertyOp1
 70
     1
102
RTVSPropertyOp2
 70
     1
102
RTVSPropertyOp3
 70
     1
102
RTVSPropertyOp4
 70
     1
102
RTVSPropertyOp5
 70
     1
102
RTVSPropertyOp6
 70
     1
102
RTVSPropertyOp7
 70
     1
102
RTVSPropertyOp8
 70
     1
102
RTVSPropertyOp9
 70
     1
102
RTVSPropertyOp10
 70
     1
102
RTVSPropertyOp11
 70
     1
102
RTVSPropertyOp12
 70
     1
102
RTVSPropertyOp13
 70
     1
102
RTVSPropertyOp14
 70
     1
102
RTVSPropertyOp15
 70
     1
102
RTVSPropertyOp16
 70
     1
102
RTVSPropertyOp17
 70
     1
102
RTVSPropertyOp18
 70
     1
102
RTVSPropertyOp19
 70
     1
102
RTVSPropertyOp20
 70
     1
102
RTVSPropertyOp21
 70
     1
102
RTVSPropertyOp22
 70
     1
102
RTVSPropertyOp23
 70
     1
102
RTVSPropertyOp24
 70
     1
102
RTVSPropertyOp25
 70
     1
102
RTVSPropertyOp26
 70
     1
102
RTVSPropertyOp27
 70
     1
102
RTVSPropertyOp28
 70
     1
102
RTVSPropertyOp29
 70
     1
102
RTVSPropertyOp30
 70
     1
102
RTVSPropertyOp31
 70
     1
102
RTVSPropertyOp32
 70
     1
102
RTVSPropertyOp33
 70
     1
102
RTVSPropertyOp34
 70
     1
102
RTVSPropertyOp35
 70
     1
102
RTVSPropertyOp36
 70
     1
102
RTVSPropertyOp37
 70
     1
102
RTVSPropertyOp38
 70
     1
102
RTVSPropertyOp39
 70
     1
102
RTVSPropertyOp40
 70
     1
102
RTVSPropertyOp41
 70
     1
102
RTVSPropertyOp42
 70
     1
102
RTVSPropertyOp43
 70
     1
102
RTVSPropertyOp44
 70
     1
102
RTVSPropertyOp45
 70
     1
102
RTVSPropertyOp46
 70
     1
102
RTVSPropertyOp47
 70
     1
102
RTVSPropertyOp48
 70
     1
102
RTVSPropertyOp49
 70
     1
102
RTVSPropertyOp50
 70
     1
102
RTVSPropertyOp51
 70
     0
102
RTVSPropertyOp52
 70
     0
102
RTVSPropertyOp53
 70
     1
102
RTVSPropertyOp54
 70
     1
102
RTVSPropertyOp55
 70
     1
102
RTVSPropertyOp56
 70
     1
102
RTVSPropertyOp57
 70
     1
102
RTVSPropertyOp58
 70
     1
102
RTVSPropertyOp59
 70
     1
102
RTVSPropertyOp60
 70
     1
102
RTVSPropertyOp61
 70
     1
102
RTVSPropertyOp62
 70
     1
  0
XRECORD
  5
A946
102
{ACAD_REACTORS
330
A945
102
}
330
A945
100
AcDbXrecord
280
     1
102
RTVSPost2010Prop28
280
     0
102
RTVSPost2010PropOp28
 70
     1
102
RTVSPost2010Prop29
280
     1
102
RTVSPost2010PropOp29
 70
     1
102
RTVSPost2010Prop30
280
     1
102
RTVSPost2010PropOp30
 70
     1
102
RTVSPost2010Prop31
280
     0
102
RTVSPost2010PropOp31
 70
     1
102
RTVSPost2010Prop32
280
     0
102
RTVSPost2010PropOp32
 70
     1
102
RTVSPost2010Prop33
280
     0
102
RTVSPost2010PropOp33
 70
     1
102
RTVSPost2010Prop34
280
     0
102
RTVSPost2010PropOp34
 70
     1
102
RTVSPost2010Prop35
280
     0
102
RTVSPost2010PropOp35
 70
     1
102
RTVSPost2010Prop36
280
     0
102
RTVSPost2010PropOp36
 70
     1
102
RTVSPost2010Prop37
 90
       50
102
RTVSPost2010PropOp37
 70
     1
102
RTVSPost2010Prop38
140
0.0
102
RTVSPost2010PropOp38
 70
     1
102
RTVSPost2010Prop39
140
1.0
102
RTVSPost2010PropOp39
 70
     1
102
RTVSPost2010Prop40
 90
        0
102
RTVSPost2010PropOp40
 70
     1
102
RTVSPost2010Prop41ColorIndex
 90
       18
102
RTVSPost2010Prop41ColorRGB
 90
        0
102
RTVSPost2010PropOp41
 70
     1
102
RTVSPost2010Prop42
 90
       50
102
RTVSPost2010PropOp42
 70
     1
102
RTVSPost2010Prop43
 90
        3
102
RTVSPost2010PropOp43
 70
     1
102
RTVSPost2010Prop44ColorIndex
 90
        5
102
RTVSPost2010Prop44ColorRGB
 90
      255
102
RTVSPost2010PropOp44
 70
     1
102
RTVSPost2010Prop45
280
     0
102
RTVSPost2010PropOp45
 70
     1
102
RTVSPost2010Prop46
 90
       50
102
RTVSPost2010PropOp46
 70
     1
102
RTVSPost2010Prop47
 90
       50
102
RTVSPost2010PropOp47
 70
     1
102
RTVSPost2010Prop48
 90
       50
102
RTVSPost2010PropOp48
 70
     1
102
RTVSPost2010Prop49
280
     0
102
RTVSPost2010PropOp49
 70
     1
102
RTVSPost2010Prop50
 90
       50
102
RTVSPost2010PropOp50
 70
     1
102
RTVSPost2010Prop51ColorIndex
 90
      256
102
RTVSPost2010Prop51ColorRGB
 90
-16777216
102
RTVSPost2010PropOp51
 70
     0
102
RTVSPost2010Prop52
140
1.0
102
RTVSPost2010PropOp52
 70
     0
102
RTVSPost2010Prop53
 90
        2
102
RTVSPost2010PropOp53
 70
     1
102
RTVSPost2010Prop54
  1
strokes_ogs.tif
102
RTVSPost2010PropOp54
 70
     1
102
RTVSPost2010Prop55
280
     0
102
RTVSPost2010PropOp55
 70
     1
102
RTVSPost2010Prop56
140
1.0
102
RTVSPost2010PropOp56
 70
     1
102
RTVSPost2010Prop57
140
1.0
102
RTVSPost2010PropOp57
 70
     1
102
RTVSPropertyOp0
 70
     1
102
RTVSPropertyOp1
 70
     1
102
RTVSPropertyOp2
 70
     1
102
RTVSPropertyOp3
 70
     1
102
RTVSPropertyOp4
 70
     1
102
RTVSPropertyOp5
 70
     1
102
RTVSPropertyOp6
 70
     1
102
RTVSPropertyOp7
 70
     1
102
RTVSPropertyOp8
 70
     1
102
RTVSPropertyOp9
 70
     1
102
RTVSPropertyOp10
 70
     1
102
RTVSPropertyOp11
 70
     1
102
RTVSPropertyOp12
 70
     1
102
RTVSPropertyOp13
 70
     1
102
RTVSPropertyOp14
 70
     1
102
RTVSPropertyOp15
 70
     1
102
RTVSPropertyOp16
 70
     1
102
RTVSPropertyOp17
 70
     1
102
RTVSPropertyOp18
 70
     1
102
RTVSPropertyOp19
 70
     1
102
RTVSPropertyOp20
 70
     1
102
RTVSPropertyOp21
 70
     1
102
RTVSPropertyOp22
 70
     1
102
RTVSPropertyOp23
 70
     1
102
RTVSPropertyOp24
 70
     1
102
RTVSPropertyOp25
 70
     1
102
RTVSPropertyOp26
 70
     1
102
RTVSPropertyOp27
 70
     1
102
RTVSPropertyOp28
 70
     1
102
RTVSPropertyOp29
 70
     1
102
RTVSPropertyOp30
 70
     1
102
RTVSPropertyOp31
 70
     1
102
RTVSPropertyOp32
 70
     1
102
RTVSPropertyOp33
 70
     1
102
RTVSPropertyOp34
 70
     1
102
RTVSPropertyOp35
 70
     1
102
RTVSPropertyOp36
 70
     1
102
RTVSPropertyOp37
 70
     1
102
RTVSPropertyOp38
 70
     1
102
RTVSPropertyOp39
 70
     1
102
RTVSPropertyOp40
 70
     1
102
RTVSPropertyOp41
 70
     1
102
RTVSPropertyOp42
 70
     1
102
RTVSPropertyOp43
 70
     1
102
RTVSPropertyOp44
 70
     1
102
RTVSPropertyOp45
 70
     1
102
RTVSPropertyOp46
 70
     1
102
RTVSPropertyOp47
 70
     1
102
RTVSPropertyOp48
 70
     1
102
RTVSPropertyOp49
 70
     1
102
RTVSPropertyOp50
 70
     1
102
RTVSPropertyOp51
 70
     0
102
RTVSPropertyOp52
 70
     0
102
RTVSPropertyOp53
 70
     1
102
RTVSPropertyOp54
 70
     1
102
RTVSPropertyOp55
 70
     1
102
RTVSPropertyOp56
 70
     1
102
RTVSPropertyOp57
 70
     1
102
RTVSPropertyOp58
 70
     1
102
RTVSPropertyOp59
 70
     1
102
RTVSPropertyOp60
 70
     1
102
RTVSPropertyOp61
 70
     1
102
RTVSPropertyOp62
 70
     1
  0
XRECORD
  5
A948
102
{ACAD_REACTORS
330
A947
102
}
330
A947
100
AcDbXrecord
280
     1
102
RTVSPost2010Prop28
280
     0
102
RTVSPost2010PropOp28
 70
     1
102
RTVSPost2010Prop29
280
     1
102
RTVSPost2010PropOp29
 70
     1
102
RTVSPost2010Prop30
280
     1
102
RTVSPost2010PropOp30
 70
     1
102
RTVSPost2010Prop31
280
     0
102
RTVSPost2010PropOp31
 70
     1
102
RTVSPost2010Prop32
280
     0
102
RTVSPost2010PropOp32
 70
     1
102
RTVSPost2010Prop33
280
     0
102
RTVSPost2010PropOp33
 70
     1
102
RTVSPost2010Prop34
280
     0
102
RTVSPost2010PropOp34
 70
     1
102
RTVSPost2010Prop35
280
     0
102
RTVSPost2010PropOp35
 70
     1
102
RTVSPost2010Prop36
280
     0
102
RTVSPost2010PropOp36
 70
     1
102
RTVSPost2010Prop37
 90
       50
102
RTVSPost2010PropOp37
 70
     1
102
RTVSPost2010Prop38
140
0.0
102
RTVSPost2010PropOp38
 70
     1
102
RTVSPost2010Prop39
140
1.0
102
RTVSPost2010PropOp39
 70
     1
102
RTVSPost2010Prop40
 90
        0
102
RTVSPost2010PropOp40
 70
     1
102
RTVSPost2010Prop41ColorIndex
 90
       18
102
RTVSPost2010Prop41ColorRGB
 90
        0
102
RTVSPost2010PropOp41
 70
     1
102
RTVSPost2010Prop42
 90
       50
102
RTVSPost2010PropOp42
 70
     1
102
RTVSPost2010Prop43
 90
        3
102
RTVSPost2010PropOp43
 70
     1
102
RTVSPost2010Prop44ColorIndex
 90
        5
102
RTVSPost2010Prop44ColorRGB
 90
      255
102
RTVSPost2010PropOp44
 70
     1
102
RTVSPost2010Prop45
280
     0
102
RTVSPost2010PropOp45
 70
     1
102
RTVSPost2010Prop46
 90
       50
102
RTVSPost2010PropOp46
 70
     1
102
RTVSPost2010Prop47
 90
       50
102
RTVSPost2010PropOp47
 70
     1
102
RTVSPost2010Prop48
 90
       50
102
RTVSPost2010PropOp48
 70
     1
102
RTVSPost2010Prop49
280
     0
102
RTVSPost2010PropOp49
 70
     1
102
RTVSPost2010Prop50
 90
       50
102
RTVSPost2010PropOp50
 70
     1
102
RTVSPost2010Prop51ColorIndex
 90
      256
102
RTVSPost2010Prop51ColorRGB
 90
-16777216
102
RTVSPost2010PropOp51
 70
     0
102
RTVSPost2010Prop52
140
1.0
102
RTVSPost2010PropOp52
 70
     0
102
RTVSPost2010Prop53
 90
        2
102
RTVSPost2010PropOp53
 70
     1
102
RTVSPost2010Prop54
  1
strokes_ogs.tif
102
RTVSPost2010PropOp54
 70
     1
102
RTVSPost2010Prop55
280
     0
102
RTVSPost2010PropOp55
 70
     1
102
RTVSPost2010Prop56
140
1.0
102
RTVSPost2010PropOp56
 70
     1
102
RTVSPost2010Prop57
140
1.0
102
RTVSPost2010PropOp57
 70
     1
102
RTVSPropertyOp0
 70
     1
102
RTVSPropertyOp1
 70
     1
102
RTVSPropertyOp2
 70
     1
102
RTVSPropertyOp3
 70
     1
102
RTVSPropertyOp4
 70
     1
102
RTVSPropertyOp5
 70
     1
102
RTVSPropertyOp6
 70
     1
102
RTVSPropertyOp7
 70
     1
102
RTVSPropertyOp8
 70
     1
102
RTVSPropertyOp9
 70
     1
102
RTVSPropertyOp10
 70
     1
102
RTVSPropertyOp11
 70
     1
102
RTVSPropertyOp12
 70
     1
102
RTVSPropertyOp13
 70
     1
102
RTVSPropertyOp14
 70
     1
102
RTVSPropertyOp15
 70
     1
102
RTVSPropertyOp16
 70
     1
102
RTVSPropertyOp17
 70
     1
102
RTVSPropertyOp18
 70
     1
102
RTVSPropertyOp19
 70
     1
102
RTVSPropertyOp20
 70
     1
102
RTVSPropertyOp21
 70
     1
102
RTVSPropertyOp22
 70
     1
102
RTVSPropertyOp23
 70
     1
102
RTVSPropertyOp24
 70
     1
102
RTVSPropertyOp25
 70
     1
102
RTVSPropertyOp26
 70
     1
102
RTVSPropertyOp27
 70
     1
102
RTVSPropertyOp28
 70
     1
102
RTVSPropertyOp29
 70
     1
102
RTVSPropertyOp30
 70
     1
102
RTVSPropertyOp31
 70
     1
102
RTVSPropertyOp32
 70
     1
102
RTVSPropertyOp33
 70
     1
102
RTVSPropertyOp34
 70
     1
102
RTVSPropertyOp35
 70
     1
102
RTVSPropertyOp36
 70
     1
102
RTVSPropertyOp37
 70
     1
102
RTVSPropertyOp38
 70
     1
102
RTVSPropertyOp39
 70
     1
102
RTVSPropertyOp40
 70
     1
102
RTVSPropertyOp41
 70
     1
102
RTVSPropertyOp42
 70
     1
102
RTVSPropertyOp43
 70
     1
102
RTVSPropertyOp44
 70
     1
102
RTVSPropertyOp45
 70
     1
102
RTVSPropertyOp46
 70
     1
102
RTVSPropertyOp47
 70
     1
102
RTVSPropertyOp48
 70
     1
102
RTVSPropertyOp49
 70
     1
102
RTVSPropertyOp50
 70
     1
102
RTVSPropertyOp51
 70
     0
102
RTVSPropertyOp52
 70
     0
102
RTVSPropertyOp53
 70
     1
102
RTVSPropertyOp54
 70
     1
102
RTVSPropertyOp55
 70
     1
102
RTVSPropertyOp56
 70
     1
102
RTVSPropertyOp57
 70
     1
102
RTVSPropertyOp58
 70
     1
102
RTVSPropertyOp59
 70
     1
102
RTVSPropertyOp60
 70
     1
102
RTVSPropertyOp61
 70
     1
102
RTVSPropertyOp62
 70
     1
  0
XRECORD
  5
A94A
102
{ACAD_REACTORS
330
A949
102
}
330
A949
100
AcDbXrecord
280
     1
102
RTVSPost2010Prop28
280
     0
102
RTVSPost2010PropOp28
 70
     1
102
RTVSPost2010Prop29
280
     1
102
RTVSPost2010PropOp29
 70
     1
102
RTVSPost2010Prop30
280
     1
102
RTVSPost2010PropOp30
 70
     1
102
RTVSPost2010Prop31
280
     0
102
RTVSPost2010PropOp31
 70
     1
102
RTVSPost2010Prop32
280
     0
102
RTVSPost2010PropOp32
 70
     1
102
RTVSPost2010Prop33
280
     0
102
RTVSPost2010PropOp33
 70
     1
102
RTVSPost2010Prop34
280
     0
102
RTVSPost2010PropOp34
 70
     1
102
RTVSPost2010Prop35
280
     0
102
RTVSPost2010PropOp35
 70
     1
102
RTVSPost2010Prop36
280
     0
102
RTVSPost2010PropOp36
 70
     1
102
RTVSPost2010Prop37
 90
       50
102
RTVSPost2010PropOp37
 70
     1
102
RTVSPost2010Prop38
140
0.0
102
RTVSPost2010PropOp38
 70
     1
102
RTVSPost2010Prop39
140
1.0
102
RTVSPost2010PropOp39
 70
     1
102
RTVSPost2010Prop40
 90
        0
102
RTVSPost2010PropOp40
 70
     1
102
RTVSPost2010Prop41ColorIndex
 90
       18
102
RTVSPost2010Prop41ColorRGB
 90
        0
102
RTVSPost2010PropOp41
 70
     1
102
RTVSPost2010Prop42
 90
       50
102
RTVSPost2010PropOp42
 70
     1
102
RTVSPost2010Prop43
 90
        3
102
RTVSPost2010PropOp43
 70
     1
102
RTVSPost2010Prop44ColorIndex
 90
        5
102
RTVSPost2010Prop44ColorRGB
 90
      255
102
RTVSPost2010PropOp44
 70
     1
102
RTVSPost2010Prop45
280
     0
102
RTVSPost2010PropOp45
 70
     1
102
RTVSPost2010Prop46
 90
       50
102
RTVSPost2010PropOp46
 70
     1
102
RTVSPost2010Prop47
 90
       50
102
RTVSPost2010PropOp47
 70
     1
102
RTVSPost2010Prop48
 90
       50
102
RTVSPost2010PropOp48
 70
     1
102
RTVSPost2010Prop49
280
     0
102
RTVSPost2010PropOp49
 70
     1
102
RTVSPost2010Prop50
 90
       50
102
RTVSPost2010PropOp50
 70
     1
102
RTVSPost2010Prop51ColorIndex
 90
      256
102
RTVSPost2010Prop51ColorRGB
 90
-16777216
102
RTVSPost2010PropOp51
 70
     0
102
RTVSPost2010Prop52
140
1.0
102
RTVSPost2010PropOp52
 70
     0
102
RTVSPost2010Prop53
 90
        2
102
RTVSPost2010PropOp53
 70
     1
102
RTVSPost2010Prop54
  1
strokes_ogs.tif
102
RTVSPost2010PropOp54
 70
     1
102
RTVSPost2010Prop55
280
     0
102
RTVSPost2010PropOp55
 70
     1
102
RTVSPost2010Prop56
140
1.0
102
RTVSPost2010PropOp56
 70
     1
102
RTVSPost2010Prop57
140
1.0
102
RTVSPost2010PropOp57
 70
     1
102
RTVSPropertyOp0
 70
     1
102
RTVSPropertyOp1
 70
     1
102
RTVSPropertyOp2
 70
     1
102
RTVSPropertyOp3
 70
     1
102
RTVSPropertyOp4
 70
     1
102
RTVSPropertyOp5
 70
     1
102
RTVSPropertyOp6
 70
     1
102
RTVSPropertyOp7
 70
     1
102
RTVSPropertyOp8
 70
     1
102
RTVSPropertyOp9
 70
     1
102
RTVSPropertyOp10
 70
     1
102
RTVSPropertyOp11
 70
     1
102
RTVSPropertyOp12
 70
     1
102
RTVSPropertyOp13
 70
     1
102
RTVSPropertyOp14
 70
     1
102
RTVSPropertyOp15
 70
     1
102
RTVSPropertyOp16
 70
     1
102
RTVSPropertyOp17
 70
     1
102
RTVSPropertyOp18
 70
     1
102
RTVSPropertyOp19
 70
     1
102
RTVSPropertyOp20
 70
     1
102
RTVSPropertyOp21
 70
     1
102
RTVSPropertyOp22
 70
     1
102
RTVSPropertyOp23
 70
     1
102
RTVSPropertyOp24
 70
     1
102
RTVSPropertyOp25
 70
     1
102
RTVSPropertyOp26
 70
     1
102
RTVSPropertyOp27
 70
     1
102
RTVSPropertyOp28
 70
     1
102
RTVSPropertyOp29
 70
     1
102
RTVSPropertyOp30
 70
     1
102
RTVSPropertyOp31
 70
     1
102
RTVSPropertyOp32
 70
     1
102
RTVSPropertyOp33
 70
     1
102
RTVSPropertyOp34
 70
     1
102
RTVSPropertyOp35
 70
     1
102
RTVSPropertyOp36
 70
     1
102
RTVSPropertyOp37
 70
     1
102
RTVSPropertyOp38
 70
     1
102
RTVSPropertyOp39
 70
     1
102
RTVSPropertyOp40
 70
     1
102
RTVSPropertyOp41
 70
     1
102
RTVSPropertyOp42
 70
     1
102
RTVSPropertyOp43
 70
     1
102
RTVSPropertyOp44
 70
     1
102
RTVSPropertyOp45
 70
     1
102
RTVSPropertyOp46
 70
     1
102
RTVSPropertyOp47
 70
     1
102
RTVSPropertyOp48
 70
     1
102
RTVSPropertyOp49
 70
     1
102
RTVSPropertyOp50
 70
     1
102
RTVSPropertyOp51
 70
     0
102
RTVSPropertyOp52
 70
     0
102
RTVSPropertyOp53
 70
     1
102
RTVSPropertyOp54
 70
     1
102
RTVSPropertyOp55
 70
     1
102
RTVSPropertyOp56
 70
     1
102
RTVSPropertyOp57
 70
     1
102
RTVSPropertyOp58
 70
     1
102
RTVSPropertyOp59
 70
     1
102
RTVSPropertyOp60
 70
     1
102
RTVSPropertyOp61
 70
     1
102
RTVSPropertyOp62
 70
     1
  0
XRECORD
  5
A94C
102
{ACAD_REACTORS
330
A94B
102
}
330
A94B
100
AcDbXrecord
280
     1
102
RTVSPost2010Prop28
280
     0
102
RTVSPost2010PropOp28
 70
     1
102
RTVSPost2010Prop29
280
     1
102
RTVSPost2010PropOp29
 70
     1
102
RTVSPost2010Prop30
280
     1
102
RTVSPost2010PropOp30
 70
     1
102
RTVSPost2010Prop31
280
     0
102
RTVSPost2010PropOp31
 70
     1
102
RTVSPost2010Prop32
280
     0
102
RTVSPost2010PropOp32
 70
     1
102
RTVSPost2010Prop33
280
     0
102
RTVSPost2010PropOp33
 70
     1
102
RTVSPost2010Prop34
280
     0
102
RTVSPost2010PropOp34
 70
     1
102
RTVSPost2010Prop35
280
     0
102
RTVSPost2010PropOp35
 70
     1
102
RTVSPost2010Prop36
280
     0
102
RTVSPost2010PropOp36
 70
     1
102
RTVSPost2010Prop37
 90
       50
102
RTVSPost2010PropOp37
 70
     1
102
RTVSPost2010Prop38
140
0.0
102
RTVSPost2010PropOp38
 70
     1
102
RTVSPost2010Prop39
140
1.0
102
RTVSPost2010PropOp39
 70
     1
102
RTVSPost2010Prop40
 90
        0
102
RTVSPost2010PropOp40
 70
     1
102
RTVSPost2010Prop41ColorIndex
 90
       18
102
RTVSPost2010Prop41ColorRGB
 90
        0
102
RTVSPost2010PropOp41
 70
     1
102
RTVSPost2010Prop42
 90
       50
102
RTVSPost2010PropOp42
 70
     1
102
RTVSPost2010Prop43
 90
        3
102
RTVSPost2010PropOp43
 70
     1
102
RTVSPost2010Prop44ColorIndex
 90
        5
102
RTVSPost2010Prop44ColorRGB
 90
      255
102
RTVSPost2010PropOp44
 70
     1
102
RTVSPost2010Prop45
280
     0
102
RTVSPost2010PropOp45
 70
     1
102
RTVSPost2010Prop46
 90
       50
102
RTVSPost2010PropOp46
 70
     1
102
RTVSPost2010Prop47
 90
       50
102
RTVSPost2010PropOp47
 70
     1
102
RTVSPost2010Prop48
 90
       50
102
RTVSPost2010PropOp48
 70
     1
102
RTVSPost2010Prop49
280
     0
102
RTVSPost2010PropOp49
 70
     1
102
RTVSPost2010Prop50
 90
       50
102
RTVSPost2010PropOp50
 70
     1
102
RTVSPost2010Prop51ColorIndex
 90
      256
102
RTVSPost2010Prop51ColorRGB
 90
-16777216
102
RTVSPost2010PropOp51
 70
     0
102
RTVSPost2010Prop52
140
1.0
102
RTVSPost2010PropOp52
 70
     0
102
RTVSPost2010Prop53
 90
        2
102
RTVSPost2010PropOp53
 70
     1
102
RTVSPost2010Prop54
  1
strokes_ogs.tif
102
RTVSPost2010PropOp54
 70
     1
102
RTVSPost2010Prop55
280
     0
102
RTVSPost2010PropOp55
 70
     1
102
RTVSPost2010Prop56
140
1.0
102
RTVSPost2010PropOp56
 70
     1
102
RTVSPost2010Prop57
140
1.0
102
RTVSPost2010PropOp57
 70
     1
102
RTVSPropertyOp0
 70
     1
102
RTVSPropertyOp1
 70
     1
102
RTVSPropertyOp2
 70
     1
102
RTVSPropertyOp3
 70
     1
102
RTVSPropertyOp4
 70
     1
102
RTVSPropertyOp5
 70
     1
102
RTVSPropertyOp6
 70
     1
102
RTVSPropertyOp7
 70
     1
102
RTVSPropertyOp8
 70
     1
102
RTVSPropertyOp9
 70
     1
102
RTVSPropertyOp10
 70
     1
102
RTVSPropertyOp11
 70
     1
102
RTVSPropertyOp12
 70
     1
102
RTVSPropertyOp13
 70
     1
102
RTVSPropertyOp14
 70
     1
102
RTVSPropertyOp15
 70
     1
102
RTVSPropertyOp16
 70
     1
102
RTVSPropertyOp17
 70
     1
102
RTVSPropertyOp18
 70
     1
102
RTVSPropertyOp19
 70
     1
102
RTVSPropertyOp20
 70
     1
102
RTVSPropertyOp21
 70
     1
102
RTVSPropertyOp22
 70
     1
102
RTVSPropertyOp23
 70
     1
102
RTVSPropertyOp24
 70
     1
102
RTVSPropertyOp25
 70
     1
102
RTVSPropertyOp26
 70
     1
102
RTVSPropertyOp27
 70
     1
102
RTVSPropertyOp28
 70
     1
102
RTVSPropertyOp29
 70
     1
102
RTVSPropertyOp30
 70
     1
102
RTVSPropertyOp31
 70
     1
102
RTVSPropertyOp32
 70
     1
102
RTVSPropertyOp33
 70
     1
102
RTVSPropertyOp34
 70
     1
102
RTVSPropertyOp35
 70
     1
102
RTVSPropertyOp36
 70
     1
102
RTVSPropertyOp37
 70
     1
102
RTVSPropertyOp38
 70
     1
102
RTVSPropertyOp39
 70
     1
102
RTVSPropertyOp40
 70
     1
102
RTVSPropertyOp41
 70
     1
102
RTVSPropertyOp42
 70
     1
102
RTVSPropertyOp43
 70
     1
102
RTVSPropertyOp44
 70
     1
102
RTVSPropertyOp45
 70
     1
102
RTVSPropertyOp46
 70
     1
102
RTVSPropertyOp47
 70
     1
102
RTVSPropertyOp48
 70
     1
102
RTVSPropertyOp49
 70
     1
102
RTVSPropertyOp50
 70
     1
102
RTVSPropertyOp51
 70
     0
102
RTVSPropertyOp52
 70
     0
102
RTVSPropertyOp53
 70
     1
102
RTVSPropertyOp54
 70
     1
102
RTVSPropertyOp55
 70
     1
102
RTVSPropertyOp56
 70
     1
102
RTVSPropertyOp57
 70
     1
102
RTVSPropertyOp58
 70
     1
102
RTVSPropertyOp59
 70
     1
102
RTVSPropertyOp60
 70
     1
102
RTVSPropertyOp61
 70
     1
102
RTVSPropertyOp62
 70
     1
  0
XRECORD
  5
A954
102
{ACAD_REACTORS
330
A953
102
}
330
A953
100
AcDbXrecord
280
     1
102
RTVSPost2010Prop28
280
     0
102
RTVSPost2010PropOp28
 70
     1
102
RTVSPost2010Prop29
280
     1
102
RTVSPost2010PropOp29
 70
     1
102
RTVSPost2010Prop30
280
     1
102
RTVSPost2010PropOp30
 70
     1
102
RTVSPost2010Prop31
280
     0
102
RTVSPost2010PropOp31
 70
     1
102
RTVSPost2010Prop32
280
     0
102
RTVSPost2010PropOp32
 70
     1
102
RTVSPost2010Prop33
280
     0
102
RTVSPost2010PropOp33
 70
     1
102
RTVSPost2010Prop34
280
     0
102
RTVSPost2010PropOp34
 70
     1
102
RTVSPost2010Prop35
280
     0
102
RTVSPost2010PropOp35
 70
     1
102
RTVSPost2010Prop36
280
     0
102
RTVSPost2010PropOp36
 70
     1
102
RTVSPost2010Prop37
 90
       50
102
RTVSPost2010PropOp37
 70
     1
102
RTVSPost2010Prop38
140
0.0
102
RTVSPost2010PropOp38
 70
     1
102
RTVSPost2010Prop39
140
1.0
102
RTVSPost2010PropOp39
 70
     1
102
RTVSPost2010Prop40
 90
        0
102
RTVSPost2010PropOp40
 70
     1
102
RTVSPost2010Prop41ColorIndex
 90
       18
102
RTVSPost2010Prop41ColorRGB
 90
        0
102
RTVSPost2010PropOp41
 70
     1
102
RTVSPost2010Prop42
 90
       50
102
RTVSPost2010PropOp42
 70
     1
102
RTVSPost2010Prop43
 90
        3
102
RTVSPost2010PropOp43
 70
     1
102
RTVSPost2010Prop44ColorIndex
 90
        5
102
RTVSPost2010Prop44ColorRGB
 90
      255
102
RTVSPost2010PropOp44
 70
     1
102
RTVSPost2010Prop45
280
     0
102
RTVSPost2010PropOp45
 70
     1
102
RTVSPost2010Prop46
 90
       50
102
RTVSPost2010PropOp46
 70
     1
102
RTVSPost2010Prop47
 90
       50
102
RTVSPost2010PropOp47
 70
     1
102
RTVSPost2010Prop48
 90
       50
102
RTVSPost2010PropOp48
 70
     1
102
RTVSPost2010Prop49
280
     0
102
RTVSPost2010PropOp49
 70
     1
102
RTVSPost2010Prop50
 90
       50
102
RTVSPost2010PropOp50
 70
     1
102
RTVSPost2010Prop51ColorIndex
 90
      256
102
RTVSPost2010Prop51ColorRGB
 90
-16777216
102
RTVSPost2010PropOp51
 70
     0
102
RTVSPost2010Prop52
140
1.0
102
RTVSPost2010PropOp52
 70
     0
102
RTVSPost2010Prop53
 90
        2
102
RTVSPost2010PropOp53
 70
     1
102
RTVSPost2010Prop54
  1
strokes_ogs.tif
102
RTVSPost2010PropOp54
 70
     1
102
RTVSPost2010Prop55
280
     0
102
RTVSPost2010PropOp55
 70
     1
102
RTVSPost2010Prop56
140
1.0
102
RTVSPost2010PropOp56
 70
     1
102
RTVSPost2010Prop57
140
1.0
102
RTVSPost2010PropOp57
 70
     1
102
RTVSPropertyOp0
 70
     1
102
RTVSPropertyOp1
 70
     1
102
RTVSPropertyOp2
 70
     1
102
RTVSPropertyOp3
 70
     1
102
RTVSPropertyOp4
 70
     1
102
RTVSPropertyOp5
 70
     1
102
RTVSPropertyOp6
 70
     1
102
RTVSPropertyOp7
 70
     1
102
RTVSPropertyOp8
 70
     1
102
RTVSPropertyOp9
 70
     1
102
RTVSPropertyOp10
 70
     1
102
RTVSPropertyOp11
 70
     1
102
RTVSPropertyOp12
 70
     1
102
RTVSPropertyOp13
 70
     1
102
RTVSPropertyOp14
 70
     1
102
RTVSPropertyOp15
 70
     1
102
RTVSPropertyOp16
 70
     1
102
RTVSPropertyOp17
 70
     1
102
RTVSPropertyOp18
 70
     1
102
RTVSPropertyOp19
 70
     1
102
RTVSPropertyOp20
 70
     1
102
RTVSPropertyOp21
 70
     1
102
RTVSPropertyOp22
 70
     1
102
RTVSPropertyOp23
 70
     1
102
RTVSPropertyOp24
 70
     1
102
RTVSPropertyOp25
 70
     1
102
RTVSPropertyOp26
 70
     1
102
RTVSPropertyOp27
 70
     1
102
RTVSPropertyOp28
 70
     1
102
RTVSPropertyOp29
 70
     1
102
RTVSPropertyOp30
 70
     1
102
RTVSPropertyOp31
 70
     1
102
RTVSPropertyOp32
 70
     1
102
RTVSPropertyOp33
 70
     1
102
RTVSPropertyOp34
 70
     1
102
RTVSPropertyOp35
 70
     1
102
RTVSPropertyOp36
 70
     1
102
RTVSPropertyOp37
 70
     1
102
RTVSPropertyOp38
 70
     1
102
RTVSPropertyOp39
 70
     1
102
RTVSPropertyOp40
 70
     1
102
RTVSPropertyOp41
 70
     1
102
RTVSPropertyOp42
 70
     1
102
RTVSPropertyOp43
 70
     1
102
RTVSPropertyOp44
 70
     1
102
RTVSPropertyOp45
 70
     1
102
RTVSPropertyOp46
 70
     1
102
RTVSPropertyOp47
 70
     1
102
RTVSPropertyOp48
 70
     1
102
RTVSPropertyOp49
 70
     1
102
RTVSPropertyOp50
 70
     1
102
RTVSPropertyOp51
 70
     0
102
RTVSPropertyOp52
 70
     0
102
RTVSPropertyOp53
 70
     1
102
RTVSPropertyOp54
 70
     1
102
RTVSPropertyOp55
 70
     1
102
RTVSPropertyOp56
 70
     1
102
RTVSPropertyOp57
 70
     1
102
RTVSPropertyOp58
 70
     1
102
RTVSPropertyOp59
 70
     1
102
RTVSPropertyOp60
 70
     1
102
RTVSPropertyOp61
 70
     1
102
RTVSPropertyOp62
 70
     1
  0
XRECORD
  5
A970
102
{ACAD_REACTORS
330
A96F
102
}
330
A96F
100
AcDbXrecord
280
     1
102
RTVSPost2010Prop28
280
     0
102
RTVSPost2010PropOp28
 70
     1
102
RTVSPost2010Prop29
280
     1
102
RTVSPost2010PropOp29
 70
     1
102
RTVSPost2010Prop30
280
     1
102
RTVSPost2010PropOp30
 70
     1
102
RTVSPost2010Prop31
280
     0
102
RTVSPost2010PropOp31
 70
     1
102
RTVSPost2010Prop32
280
     0
102
RTVSPost2010PropOp32
 70
     1
102
RTVSPost2010Prop33
280
     0
102
RTVSPost2010PropOp33
 70
     1
102
RTVSPost2010Prop34
280
     0
102
RTVSPost2010PropOp34
 70
     1
102
RTVSPost2010Prop35
280
     0
102
RTVSPost2010PropOp35
 70
     1
102
RTVSPost2010Prop36
280
     0
102
RTVSPost2010PropOp36
 70
     1
102
RTVSPost2010Prop37
 90
       50
102
RTVSPost2010PropOp37
 70
     0
102
RTVSPost2010Prop38
140
0.0
102
RTVSPost2010PropOp38
 70
     0
102
RTVSPost2010Prop39
140
1.0
102
RTVSPost2010PropOp39
 70
     0
102
RTVSPost2010Prop40
 90
        0
102
RTVSPost2010PropOp40
 70
     0
102
RTVSPost2010Prop41ColorIndex
 90
       18
102
RTVSPost2010Prop41ColorRGB
 90
        0
102
RTVSPost2010PropOp41
 70
     0
102
RTVSPost2010Prop42
 90
       50
102
RTVSPost2010PropOp42
 70
     0
102
RTVSPost2010Prop43
 90
        3
102
RTVSPost2010PropOp43
 70
     0
102
RTVSPost2010Prop44ColorIndex
 90
        5
102
RTVSPost2010Prop44ColorRGB
 90
      255
102
RTVSPost2010PropOp44
 70
     0
102
RTVSPost2010Prop45
280
     0
102
RTVSPost2010PropOp45
 70
     1
102
RTVSPost2010Prop46
 90
       50
102
RTVSPost2010PropOp46
 70
     0
102
RTVSPost2010Prop47
 90
       50
102
RTVSPost2010PropOp47
 70
     0
102
RTVSPost2010Prop48
 90
       50
102
RTVSPost2010PropOp48
 70
     0
102
RTVSPost2010Prop49
280
     0
102
RTVSPost2010PropOp49
 70
     1
102
RTVSPost2010Prop50
 90
       50
102
RTVSPost2010PropOp50
 70
     0
102
RTVSPost2010Prop51ColorIndex
 90
      256
102
RTVSPost2010Prop51ColorRGB
 90
-16777216
102
RTVSPost2010PropOp51
 70
     0
102
RTVSPost2010Prop52
140
1.0
102
RTVSPost2010PropOp52
 70
     0
102
RTVSPost2010Prop53
 90
        2
102
RTVSPost2010PropOp53
 70
     0
102
RTVSPost2010Prop54
  1
strokes_ogs.tif
102
RTVSPost2010PropOp54
 70
     0
102
RTVSPost2010Prop55
280
     0
102
RTVSPost2010PropOp55
 70
     1
102
RTVSPost2010Prop56
140
1.0
102
RTVSPost2010PropOp56
 70
     0
102
RTVSPost2010Prop57
140
1.0
102
RTVSPost2010PropOp57
 70
     0
102
RTVSPropertyOp0
 70
     0
102
RTVSPropertyOp1
 70
     0
102
RTVSPropertyOp2
 70
     0
102
RTVSPropertyOp3
 70
     0
102
RTVSPropertyOp4
 70
     0
102
RTVSPropertyOp5
 70
     0
102
RTVSPropertyOp6
 70
     0
102
RTVSPropertyOp7
 70
     0
102
RTVSPropertyOp8
 70
     0
102
RTVSPropertyOp9
 70
     0
102
RTVSPropertyOp10
 70
     0
102
RTVSPropertyOp11
 70
     0
102
RTVSPropertyOp12
 70
     0
102
RTVSPropertyOp13
 70
     0
102
RTVSPropertyOp14
 70
     2
102
RTVSPropertyOp15
 70
     0
102
RTVSPropertyOp16
 70
     0
102
RTVSPropertyOp17
 70
     0
102
RTVSPropertyOp18
 70
     0
102
RTVSPropertyOp19
 70
     0
102
RTVSPropertyOp20
 70
     0
102
RTVSPropertyOp21
 70
     0
102
RTVSPropertyOp22
 70
     0
102
RTVSPropertyOp23
 70
     0
102
RTVSPropertyOp24
 70
     0
102
RTVSPropertyOp25
 70
     0
102
RTVSPropertyOp26
 70
     0
102
RTVSPropertyOp27
 70
     0
102
RTVSPropertyOp28
 70
     1
102
RTVSPropertyOp29
 70
     1
102
RTVSPropertyOp30
 70
     1
102
RTVSPropertyOp31
 70
     1
102
RTVSPropertyOp32
 70
     1
102
RTVSPropertyOp33
 70
     1
102
RTVSPropertyOp34
 70
     1
102
RTVSPropertyOp35
 70
     1
102
RTVSPropertyOp36
 70
     1
102
RTVSPropertyOp37
 70
     0
102
RTVSPropertyOp38
 70
     0
102
RTVSPropertyOp39
 70
     0
102
RTVSPropertyOp40
 70
     0
102
RTVSPropertyOp41
 70
     0
102
RTVSPropertyOp42
 70
     0
102
RTVSPropertyOp43
 70
     0
102
RTVSPropertyOp44
 70
     0
102
RTVSPropertyOp45
 70
     1
102
RTVSPropertyOp46
 70
     0
102
RTVSPropertyOp47
 70
     0
102
RTVSPropertyOp48
 70
     0
102
RTVSPropertyOp49
 70
     1
102
RTVSPropertyOp50
 70
     0
102
RTVSPropertyOp51
 70
     0
102
RTVSPropertyOp52
 70
     0
102
RTVSPropertyOp53
 70
     0
102
RTVSPropertyOp54
 70
     0
102
RTVSPropertyOp55
 70
     1
102
RTVSPropertyOp56
 70
     0
102
RTVSPropertyOp57
 70
     0
102
RTVSPropertyOp58
 70
     0
102
RTVSPropertyOp59
 70
     0
102
RTVSPropertyOp60
 70
     0
102
RTVSPropertyOp61
 70
     0
102
RTVSPropertyOp62
 70
     0
  0
XRECORD
  5
A960
102
{ACAD_REACTORS
330
A95F
102
}
330
A95F
100
AcDbXrecord
280
     1
102
RTVSPost2010Prop28
280
     0
102
RTVSPost2010PropOp28
 70
     1
102
RTVSPost2010Prop29
280
     1
102
RTVSPost2010PropOp29
 70
     1
102
RTVSPost2010Prop30
280
     1
102
RTVSPost2010PropOp30
 70
     1
102
RTVSPost2010Prop31
280
     0
102
RTVSPost2010PropOp31
 70
     1
102
RTVSPost2010Prop32
280
     0
102
RTVSPost2010PropOp32
 70
     1
102
RTVSPost2010Prop33
280
     0
102
RTVSPost2010PropOp33
 70
     1
102
RTVSPost2010Prop34
280
     0
102
RTVSPost2010PropOp34
 70
     1
102
RTVSPost2010Prop35
280
     0
102
RTVSPost2010PropOp35
 70
     1
102
RTVSPost2010Prop36
280
     0
102
RTVSPost2010PropOp36
 70
     1
102
RTVSPost2010Prop37
 90
       50
102
RTVSPost2010PropOp37
 70
     1
102
RTVSPost2010Prop38
140
0.0
102
RTVSPost2010PropOp38
 70
     1
102
RTVSPost2010Prop39
140
1.0
102
RTVSPost2010PropOp39
 70
     1
102
RTVSPost2010Prop40
 90
        0
102
RTVSPost2010PropOp40
 70
     1
102
RTVSPost2010Prop41ColorIndex
 90
       18
102
RTVSPost2010Prop41ColorRGB
 90
        0
102
RTVSPost2010PropOp41
 70
     1
102
RTVSPost2010Prop42
 90
       50
102
RTVSPost2010PropOp42
 70
     1
102
RTVSPost2010Prop43
 90
        3
102
RTVSPost2010PropOp43
 70
     1
102
RTVSPost2010Prop44ColorIndex
 90
        5
102
RTVSPost2010Prop44ColorRGB
 90
      255
102
RTVSPost2010PropOp44
 70
     1
102
RTVSPost2010Prop45
280
     0
102
RTVSPost2010PropOp45
 70
     1
102
RTVSPost2010Prop46
 90
       50
102
RTVSPost2010PropOp46
 70
     1
102
RTVSPost2010Prop47
 90
       50
102
RTVSPost2010PropOp47
 70
     1
102
RTVSPost2010Prop48
 90
       50
102
RTVSPost2010PropOp48
 70
     1
102
RTVSPost2010Prop49
280
     0
102
RTVSPost2010PropOp49
 70
     1
102
RTVSPost2010Prop50
 90
       50
102
RTVSPost2010PropOp50
 70
     1
102
RTVSPost2010Prop51ColorIndex
 90
      256
102
RTVSPost2010Prop51ColorRGB
 90
-16777216
102
RTVSPost2010PropOp51
 70
     0
102
RTVSPost2010Prop52
140
1.0
102
RTVSPost2010PropOp52
 70
     0
102
RTVSPost2010Prop53
 90
        2
102
RTVSPost2010PropOp53
 70
     1
102
RTVSPost2010Prop54
  1
strokes_ogs.tif
102
RTVSPost2010PropOp54
 70
     1
102
RTVSPost2010Prop55
280
     0
102
RTVSPost2010PropOp55
 70
     1
102
RTVSPost2010Prop56
140
1.0
102
RTVSPost2010PropOp56
 70
     1
102
RTVSPost2010Prop57
140
1.0
102
RTVSPost2010PropOp57
 70
     1
102
RTVSPropertyOp0
 70
     1
102
RTVSPropertyOp1
 70
     1
102
RTVSPropertyOp2
 70
     1
102
RTVSPropertyOp3
 70
     1
102
RTVSPropertyOp4
 70
     1
102
RTVSPropertyOp5
 70
     1
102
RTVSPropertyOp6
 70
     1
102
RTVSPropertyOp7
 70
     1
102
RTVSPropertyOp8
 70
     1
102
RTVSPropertyOp9
 70
     1
102
RTVSPropertyOp10
 70
     1
102
RTVSPropertyOp11
 70
     1
102
RTVSPropertyOp12
 70
     1
102
RTVSPropertyOp13
 70
     1
102
RTVSPropertyOp14
 70
     1
102
RTVSPropertyOp15
 70
     1
102
RTVSPropertyOp16
 70
     1
102
RTVSPropertyOp17
 70
     1
102
RTVSPropertyOp18
 70
     1
102
RTVSPropertyOp19
 70
     1
102
RTVSPropertyOp20
 70
     1
102
RTVSPropertyOp21
 70
     1
102
RTVSPropertyOp22
 70
     1
102
RTVSPropertyOp23
 70
     1
102
RTVSPropertyOp24
 70
     1
102
RTVSPropertyOp25
 70
     1
102
RTVSPropertyOp26
 70
     1
102
RTVSPropertyOp27
 70
     1
102
RTVSPropertyOp28
 70
     1
102
RTVSPropertyOp29
 70
     1
102
RTVSPropertyOp30
 70
     1
102
RTVSPropertyOp31
 70
     1
102
RTVSPropertyOp32
 70
     1
102
RTVSPropertyOp33
 70
     1
102
RTVSPropertyOp34
 70
     1
102
RTVSPropertyOp35
 70
     1
102
RTVSPropertyOp36
 70
     1
102
RTVSPropertyOp37
 70
     1
102
RTVSPropertyOp38
 70
     1
102
RTVSPropertyOp39
 70
     1
102
RTVSPropertyOp40
 70
     1
102
RTVSPropertyOp41
 70
     1
102
RTVSPropertyOp42
 70
     1
102
RTVSPropertyOp43
 70
     1
102
RTVSPropertyOp44
 70
     1
102
RTVSPropertyOp45
 70
     1
102
RTVSPropertyOp46
 70
     1
102
RTVSPropertyOp47
 70
     1
102
RTVSPropertyOp48
 70
     1
102
RTVSPropertyOp49
 70
     1
102
RTVSPropertyOp50
 70
     1
102
RTVSPropertyOp51
 70
     0
102
RTVSPropertyOp52
 70
     0
102
RTVSPropertyOp53
 70
     1
102
RTVSPropertyOp54
 70
     1
102
RTVSPropertyOp55
 70
     1
102
RTVSPropertyOp56
 70
     1
102
RTVSPropertyOp57
 70
     1
102
RTVSPropertyOp58
 70
     1
102
RTVSPropertyOp59
 70
     1
102
RTVSPropertyOp60
 70
     1
102
RTVSPropertyOp61
 70
     1
102
RTVSPropertyOp62
 70
     1
  0
XRECORD
  5
A972
102
{ACAD_REACTORS
330
A971
102
}
330
A971
100
AcDbXrecord
280
     1
102
RTVSPost2010Prop28
280
     0
102
RTVSPost2010PropOp28
 70
     1
102
RTVSPost2010Prop29
280
     1
102
RTVSPost2010PropOp29
 70
     1
102
RTVSPost2010Prop30
280
     1
102
RTVSPost2010PropOp30
 70
     1
102
RTVSPost2010Prop31
280
     0
102
RTVSPost2010PropOp31
 70
     1
102
RTVSPost2010Prop32
280
     0
102
RTVSPost2010PropOp32
 70
     1
102
RTVSPost2010Prop33
280
     0
102
RTVSPost2010PropOp33
 70
     1
102
RTVSPost2010Prop34
280
     0
102
RTVSPost2010PropOp34
 70
     1
102
RTVSPost2010Prop35
280
     0
102
RTVSPost2010PropOp35
 70
     1
102
RTVSPost2010Prop36
280
     0
102
RTVSPost2010PropOp36
 70
     1
102
RTVSPost2010Prop37
 90
       50
102
RTVSPost2010PropOp37
 70
     0
102
RTVSPost2010Prop38
140
0.0
102
RTVSPost2010PropOp38
 70
     0
102
RTVSPost2010Prop39
140
1.0
102
RTVSPost2010PropOp39
 70
     0
102
RTVSPost2010Prop40
 90
        0
102
RTVSPost2010PropOp40
 70
     0
102
RTVSPost2010Prop41ColorIndex
 90
       18
102
RTVSPost2010Prop41ColorRGB
 90
        0
102
RTVSPost2010PropOp41
 70
     0
102
RTVSPost2010Prop42
 90
       50
102
RTVSPost2010PropOp42
 70
     0
102
RTVSPost2010Prop43
 90
        3
102
RTVSPost2010PropOp43
 70
     0
102
RTVSPost2010Prop44ColorIndex
 90
        5
102
RTVSPost2010Prop44ColorRGB
 90
      255
102
RTVSPost2010PropOp44
 70
     0
102
RTVSPost2010Prop45
280
     0
102
RTVSPost2010PropOp45
 70
     1
102
RTVSPost2010Prop46
 90
       50
102
RTVSPost2010PropOp46
 70
     0
102
RTVSPost2010Prop47
 90
       50
102
RTVSPost2010PropOp47
 70
     0
102
RTVSPost2010Prop48
 90
       50
102
RTVSPost2010PropOp48
 70
     0
102
RTVSPost2010Prop49
280
     0
102
RTVSPost2010PropOp49
 70
     1
102
RTVSPost2010Prop50
 90
       50
102
RTVSPost2010PropOp50
 70
     0
102
RTVSPost2010Prop51ColorIndex
 90
      256
102
RTVSPost2010Prop51ColorRGB
 90
-16777216
102
RTVSPost2010PropOp51
 70
     0
102
RTVSPost2010Prop52
140
1.0
102
RTVSPost2010PropOp52
 70
     0
102
RTVSPost2010Prop53
 90
        2
102
RTVSPost2010PropOp53
 70
     0
102
RTVSPost2010Prop54
  1
strokes_ogs.tif
102
RTVSPost2010PropOp54
 70
     0
102
RTVSPost2010Prop55
280
     0
102
RTVSPost2010PropOp55
 70
     1
102
RTVSPost2010Prop56
140
1.0
102
RTVSPost2010PropOp56
 70
     0
102
RTVSPost2010Prop57
140
1.0
102
RTVSPost2010PropOp57
 70
     0
102
RTVSPropertyOp0
 70
     0
102
RTVSPropertyOp1
 70
     0
102
RTVSPropertyOp2
 70
     0
102
RTVSPropertyOp3
 70
     0
102
RTVSPropertyOp4
 70
     0
102
RTVSPropertyOp5
 70
     0
102
RTVSPropertyOp6
 70
     0
102
RTVSPropertyOp7
 70
     0
102
RTVSPropertyOp8
 70
     0
102
RTVSPropertyOp9
 70
     0
102
RTVSPropertyOp10
 70
     0
102
RTVSPropertyOp11
 70
     0
102
RTVSPropertyOp12
 70
     0
102
RTVSPropertyOp13
 70
     0
102
RTVSPropertyOp14
 70
     2
102
RTVSPropertyOp15
 70
     0
102
RTVSPropertyOp16
 70
     0
102
RTVSPropertyOp17
 70
     0
102
RTVSPropertyOp18
 70
     0
102
RTVSPropertyOp19
 70
     0
102
RTVSPropertyOp20
 70
     0
102
RTVSPropertyOp21
 70
     0
102
RTVSPropertyOp22
 70
     0
102
RTVSPropertyOp23
 70
     0
102
RTVSPropertyOp24
 70
     0
102
RTVSPropertyOp25
 70
     0
102
RTVSPropertyOp26
 70
     0
102
RTVSPropertyOp27
 70
     0
102
RTVSPropertyOp28
 70
     1
102
RTVSPropertyOp29
 70
     1
102
RTVSPropertyOp30
 70
     1
102
RTVSPropertyOp31
 70
     1
102
RTVSPropertyOp32
 70
     1
102
RTVSPropertyOp33
 70
     1
102
RTVSPropertyOp34
 70
     1
102
RTVSPropertyOp35
 70
     1
102
RTVSPropertyOp36
 70
     1
102
RTVSPropertyOp37
 70
     0
102
RTVSPropertyOp38
 70
     0
102
RTVSPropertyOp39
 70
     0
102
RTVSPropertyOp40
 70
     0
102
RTVSPropertyOp41
 70
     0
102
RTVSPropertyOp42
 70
     0
102
RTVSPropertyOp43
 70
     0
102
RTVSPropertyOp44
 70
     0
102
RTVSPropertyOp45
 70
     1
102
RTVSPropertyOp46
 70
     0
102
RTVSPropertyOp47
 70
     0
102
RTVSPropertyOp48
 70
     0
102
RTVSPropertyOp49
 70
     1
102
RTVSPropertyOp50
 70
     0
102
RTVSPropertyOp51
 70
     0
102
RTVSPropertyOp52
 70
     0
102
RTVSPropertyOp53
 70
     0
102
RTVSPropertyOp54
 70
     0
102
RTVSPropertyOp55
 70
     1
102
RTVSPropertyOp56
 70
     0
102
RTVSPropertyOp57
 70
     0
102
RTVSPropertyOp58
 70
     0
102
RTVSPropertyOp59
 70
     0
102
RTVSPropertyOp60
 70
     0
102
RTVSPropertyOp61
 70
     0
102
RTVSPropertyOp62
 70
     0
  0
XRECORD
  5
A958
102
{ACAD_REACTORS
330
A957
102
}
330
A957
100
AcDbXrecord
280
     1
102
RTVSPost2010Prop28
280
     0
102
RTVSPost2010PropOp28
 70
     1
102
RTVSPost2010Prop29
280
     1
102
RTVSPost2010PropOp29
 70
     1
102
RTVSPost2010Prop30
280
     1
102
RTVSPost2010PropOp30
 70
     1
102
RTVSPost2010Prop31
280
     0
102
RTVSPost2010PropOp31
 70
     1
102
RTVSPost2010Prop32
280
     0
102
RTVSPost2010PropOp32
 70
     1
102
RTVSPost2010Prop33
280
     0
102
RTVSPost2010PropOp33
 70
     1
102
RTVSPost2010Prop34
280
     0
102
RTVSPost2010PropOp34
 70
     1
102
RTVSPost2010Prop35
280
     0
102
RTVSPost2010PropOp35
 70
     1
102
RTVSPost2010Prop36
280
     0
102
RTVSPost2010PropOp36
 70
     1
102
RTVSPost2010Prop37
 90
       50
102
RTVSPost2010PropOp37
 70
     1
102
RTVSPost2010Prop38
140
0.0
102
RTVSPost2010PropOp38
 70
     1
102
RTVSPost2010Prop39
140
1.0
102
RTVSPost2010PropOp39
 70
     1
102
RTVSPost2010Prop40
 90
        0
102
RTVSPost2010PropOp40
 70
     1
102
RTVSPost2010Prop41ColorIndex
 90
       18
102
RTVSPost2010Prop41ColorRGB
 90
        0
102
RTVSPost2010PropOp41
 70
     1
102
RTVSPost2010Prop42
 90
       50
102
RTVSPost2010PropOp42
 70
     1
102
RTVSPost2010Prop43
 90
        3
102
RTVSPost2010PropOp43
 70
     1
102
RTVSPost2010Prop44ColorIndex
 90
        5
102
RTVSPost2010Prop44ColorRGB
 90
      255
102
RTVSPost2010PropOp44
 70
     1
102
RTVSPost2010Prop45
280
     0
102
RTVSPost2010PropOp45
 70
     1
102
RTVSPost2010Prop46
 90
       50
102
RTVSPost2010PropOp46
 70
     1
102
RTVSPost2010Prop47
 90
       50
102
RTVSPost2010PropOp47
 70
     1
102
RTVSPost2010Prop48
 90
       50
102
RTVSPost2010PropOp48
 70
     1
102
RTVSPost2010Prop49
280
     0
102
RTVSPost2010PropOp49
 70
     1
102
RTVSPost2010Prop50
 90
       50
102
RTVSPost2010PropOp50
 70
     1
102
RTVSPost2010Prop51ColorIndex
 90
      256
102
RTVSPost2010Prop51ColorRGB
 90
-16777216
102
RTVSPost2010PropOp51
 70
     0
102
RTVSPost2010Prop52
140
1.0
102
RTVSPost2010PropOp52
 70
     0
102
RTVSPost2010Prop53
 90
        2
102
RTVSPost2010PropOp53
 70
     1
102
RTVSPost2010Prop54
  1
strokes_ogs.tif
102
RTVSPost2010PropOp54
 70
     1
102
RTVSPost2010Prop55
280
     0
102
RTVSPost2010PropOp55
 70
     1
102
RTVSPost2010Prop56
140
1.0
102
RTVSPost2010PropOp56
 70
     1
102
RTVSPost2010Prop57
140
1.0
102
RTVSPost2010PropOp57
 70
     1
102
RTVSPropertyOp0
 70
     1
102
RTVSPropertyOp1
 70
     1
102
RTVSPropertyOp2
 70
     1
102
RTVSPropertyOp3
 70
     1
102
RTVSPropertyOp4
 70
     1
102
RTVSPropertyOp5
 70
     1
102
RTVSPropertyOp6
 70
     1
102
RTVSPropertyOp7
 70
     1
102
RTVSPropertyOp8
 70
     1
102
RTVSPropertyOp9
 70
     1
102
RTVSPropertyOp10
 70
     1
102
RTVSPropertyOp11
 70
     1
102
RTVSPropertyOp12
 70
     1
102
RTVSPropertyOp13
 70
     1
102
RTVSPropertyOp14
 70
     1
102
RTVSPropertyOp15
 70
     1
102
RTVSPropertyOp16
 70
     1
102
RTVSPropertyOp17
 70
     1
102
RTVSPropertyOp18
 70
     1
102
RTVSPropertyOp19
 70
     1
102
RTVSPropertyOp20
 70
     1
102
RTVSPropertyOp21
 70
     1
102
RTVSPropertyOp22
 70
     1
102
RTVSPropertyOp23
 70
     1
102
RTVSPropertyOp24
 70
     1
102
RTVSPropertyOp25
 70
     1
102
RTVSPropertyOp26
 70
     1
102
RTVSPropertyOp27
 70
     1
102
RTVSPropertyOp28
 70
     1
102
RTVSPropertyOp29
 70
     1
102
RTVSPropertyOp30
 70
     1
102
RTVSPropertyOp31
 70
     1
102
RTVSPropertyOp32
 70
     1
102
RTVSPropertyOp33
 70
     1
102
RTVSPropertyOp34
 70
     1
102
RTVSPropertyOp35
 70
     1
102
RTVSPropertyOp36
 70
     1
102
RTVSPropertyOp37
 70
     1
102
RTVSPropertyOp38
 70
     1
102
RTVSPropertyOp39
 70
     1
102
RTVSPropertyOp40
 70
     1
102
RTVSPropertyOp41
 70
     1
102
RTVSPropertyOp42
 70
     1
102
RTVSPropertyOp43
 70
     1
102
RTVSPropertyOp44
 70
     1
102
RTVSPropertyOp45
 70
     1
102
RTVSPropertyOp46
 70
     1
102
RTVSPropertyOp47
 70
     1
102
RTVSPropertyOp48
 70
     1
102
RTVSPropertyOp49
 70
     1
102
RTVSPropertyOp50
 70
     1
102
RTVSPropertyOp51
 70
     0
102
RTVSPropertyOp52
 70
     0
102
RTVSPropertyOp53
 70
     1
102
RTVSPropertyOp54
 70
     1
102
RTVSPropertyOp55
 70
     1
102
RTVSPropertyOp56
 70
     1
102
RTVSPropertyOp57
 70
     1
102
RTVSPropertyOp58
 70
     1
102
RTVSPropertyOp59
 70
     1
102
RTVSPropertyOp60
 70
     1
102
RTVSPropertyOp61
 70
     1
102
RTVSPropertyOp62
 70
     1
  0
XRECORD
  5
A96E
102
{ACAD_REACTORS
330
A96D
102
}
330
A96D
100
AcDbXrecord
280
     1
102
RTVSPost2010Prop28
280
     0
102
RTVSPost2010PropOp28
 70
     1
102
RTVSPost2010Prop29
280
     1
102
RTVSPost2010PropOp29
 70
     1
102
RTVSPost2010Prop30
280
     1
102
RTVSPost2010PropOp30
 70
     1
102
RTVSPost2010Prop31
280
     0
102
RTVSPost2010PropOp31
 70
     1
102
RTVSPost2010Prop32
280
     0
102
RTVSPost2010PropOp32
 70
     1
102
RTVSPost2010Prop33
280
     0
102
RTVSPost2010PropOp33
 70
     1
102
RTVSPost2010Prop34
280
     0
102
RTVSPost2010PropOp34
 70
     1
102
RTVSPost2010Prop35
280
     0
102
RTVSPost2010PropOp35
 70
     1
102
RTVSPost2010Prop36
280
     0
102
RTVSPost2010PropOp36
 70
     1
102
RTVSPost2010Prop37
 90
       50
102
RTVSPost2010PropOp37
 70
     1
102
RTVSPost2010Prop38
140
0.0
102
RTVSPost2010PropOp38
 70
     1
102
RTVSPost2010Prop39
140
1.0
102
RTVSPost2010PropOp39
 70
     1
102
RTVSPost2010Prop40
 90
        0
102
RTVSPost2010PropOp40
 70
     1
102
RTVSPost2010Prop41ColorIndex
 90
       18
102
RTVSPost2010Prop41ColorRGB
 90
        0
102
RTVSPost2010PropOp41
 70
     1
102
RTVSPost2010Prop42
 90
       50
102
RTVSPost2010PropOp42
 70
     1
102
RTVSPost2010Prop43
 90
        3
102
RTVSPost2010PropOp43
 70
     1
102
RTVSPost2010Prop44ColorIndex
 90
        5
102
RTVSPost2010Prop44ColorRGB
 90
      255
102
RTVSPost2010PropOp44
 70
     1
102
RTVSPost2010Prop45
280
     0
102
RTVSPost2010PropOp45
 70
     1
102
RTVSPost2010Prop46
 90
       50
102
RTVSPost2010PropOp46
 70
     1
102
RTVSPost2010Prop47
 90
       50
102
RTVSPost2010PropOp47
 70
     1
102
RTVSPost2010Prop48
 90
       50
102
RTVSPost2010PropOp48
 70
     1
102
RTVSPost2010Prop49
280
     0
102
RTVSPost2010PropOp49
 70
     1
102
RTVSPost2010Prop50
 90
       50
102
RTVSPost2010PropOp50
 70
     1
102
RTVSPost2010Prop51ColorIndex
 90
      256
102
RTVSPost2010Prop51ColorRGB
 90
-16777216
102
RTVSPost2010PropOp51
 70
     0
102
RTVSPost2010Prop52
140
1.0
102
RTVSPost2010PropOp52
 70
     0
102
RTVSPost2010Prop53
 90
        2
102
RTVSPost2010PropOp53
 70
     1
102
RTVSPost2010Prop54
  1
strokes_ogs.tif
102
RTVSPost2010PropOp54
 70
     1
102
RTVSPost2010Prop55
280
     0
102
RTVSPost2010PropOp55
 70
     1
102
RTVSPost2010Prop56
140
1.0
102
RTVSPost2010PropOp56
 70
     1
102
RTVSPost2010Prop57
140
1.0
102
RTVSPost2010PropOp57
 70
     1
102
RTVSPropertyOp0
 70
     1
102
RTVSPropertyOp1
 70
     1
102
RTVSPropertyOp2
 70
     1
102
RTVSPropertyOp3
 70
     1
102
RTVSPropertyOp4
 70
     1
102
RTVSPropertyOp5
 70
     1
102
RTVSPropertyOp6
 70
     1
102
RTVSPropertyOp7
 70
     1
102
RTVSPropertyOp8
 70
     1
102
RTVSPropertyOp9
 70
     1
102
RTVSPropertyOp10
 70
     1
102
RTVSPropertyOp11
 70
     1
102
RTVSPropertyOp12
 70
     1
102
RTVSPropertyOp13
 70
     1
102
RTVSPropertyOp14
 70
     1
102
RTVSPropertyOp15
 70
     1
102
RTVSPropertyOp16
 70
     1
102
RTVSPropertyOp17
 70
     1
102
RTVSPropertyOp18
 70
     1
102
RTVSPropertyOp19
 70
     1
102
RTVSPropertyOp20
 70
     1
102
RTVSPropertyOp21
 70
     1
102
RTVSPropertyOp22
 70
     1
102
RTVSPropertyOp23
 70
     1
102
RTVSPropertyOp24
 70
     1
102
RTVSPropertyOp25
 70
     1
102
RTVSPropertyOp26
 70
     1
102
RTVSPropertyOp27
 70
     1
102
RTVSPropertyOp28
 70
     1
102
RTVSPropertyOp29
 70
     1
102
RTVSPropertyOp30
 70
     1
102
RTVSPropertyOp31
 70
     1
102
RTVSPropertyOp32
 70
     1
102
RTVSPropertyOp33
 70
     1
102
RTVSPropertyOp34
 70
     1
102
RTVSPropertyOp35
 70
     1
102
RTVSPropertyOp36
 70
     1
102
RTVSPropertyOp37
 70
     1
102
RTVSPropertyOp38
 70
     1
102
RTVSPropertyOp39
 70
     1
102
RTVSPropertyOp40
 70
     1
102
RTVSPropertyOp41
 70
     1
102
RTVSPropertyOp42
 70
     1
102
RTVSPropertyOp43
 70
     1
102
RTVSPropertyOp44
 70
     1
102
RTVSPropertyOp45
 70
     1
102
RTVSPropertyOp46
 70
     1
102
RTVSPropertyOp47
 70
     1
102
RTVSPropertyOp48
 70
     1
102
RTVSPropertyOp49
 70
     1
102
RTVSPropertyOp50
 70
     1
102
RTVSPropertyOp51
 70
     0
102
RTVSPropertyOp52
 70
     0
102
RTVSPropertyOp53
 70
     1
102
RTVSPropertyOp54
 70
     1
102
RTVSPropertyOp55
 70
     1
102
RTVSPropertyOp56
 70
     1
102
RTVSPropertyOp57
 70
     1
102
RTVSPropertyOp58
 70
     1
102
RTVSPropertyOp59
 70
     1
102
RTVSPropertyOp60
 70
     1
102
RTVSPropertyOp61
 70
     1
102
RTVSPropertyOp62
 70
     1
  0
XRECORD
  5
A96C
102
{ACAD_REACTORS
330
A96B
102
}
330
A96B
100
AcDbXrecord
280
     1
102
RTVSPost2010Prop28
280
     0
102
RTVSPost2010PropOp28
 70
     1
102
RTVSPost2010Prop29
280
     1
102
RTVSPost2010PropOp29
 70
     1
102
RTVSPost2010Prop30
280
     1
102
RTVSPost2010PropOp30
 70
     1
102
RTVSPost2010Prop31
280
     0
102
RTVSPost2010PropOp31
 70
     1
102
RTVSPost2010Prop32
280
     0
102
RTVSPost2010PropOp32
 70
     1
102
RTVSPost2010Prop33
280
     0
102
RTVSPost2010PropOp33
 70
     1
102
RTVSPost2010Prop34
280
     0
102
RTVSPost2010PropOp34
 70
     1
102
RTVSPost2010Prop35
280
     0
102
RTVSPost2010PropOp35
 70
     1
102
RTVSPost2010Prop36
280
     0
102
RTVSPost2010PropOp36
 70
     1
102
RTVSPost2010Prop37
 90
       50
102
RTVSPost2010PropOp37
 70
     1
102
RTVSPost2010Prop38
140
0.0
102
RTVSPost2010PropOp38
 70
     1
102
RTVSPost2010Prop39
140
1.0
102
RTVSPost2010PropOp39
 70
     1
102
RTVSPost2010Prop40
 90
        0
102
RTVSPost2010PropOp40
 70
     1
102
RTVSPost2010Prop41ColorIndex
 90
       18
102
RTVSPost2010Prop41ColorRGB
 90
        0
102
RTVSPost2010PropOp41
 70
     1
102
RTVSPost2010Prop42
 90
       50
102
RTVSPost2010PropOp42
 70
     1
102
RTVSPost2010Prop43
 90
        3
102
RTVSPost2010PropOp43
 70
     1
102
RTVSPost2010Prop44ColorIndex
 90
        5
102
RTVSPost2010Prop44ColorRGB
 90
      255
102
RTVSPost2010PropOp44
 70
     1
102
RTVSPost2010Prop45
280
     0
102
RTVSPost2010PropOp45
 70
     1
102
RTVSPost2010Prop46
 90
       50
102
RTVSPost2010PropOp46
 70
     1
102
RTVSPost2010Prop47
 90
       50
102
RTVSPost2010PropOp47
 70
     1
102
RTVSPost2010Prop48
 90
       50
102
RTVSPost2010PropOp48
 70
     1
102
RTVSPost2010Prop49
280
     0
102
RTVSPost2010PropOp49
 70
     1
102
RTVSPost2010Prop50
 90
       50
102
RTVSPost2010PropOp50
 70
     1
102
RTVSPost2010Prop51ColorIndex
 90
      256
102
RTVSPost2010Prop51ColorRGB
 90
-16777216
102
RTVSPost2010PropOp51
 70
     0
102
RTVSPost2010Prop52
140
1.0
102
RTVSPost2010PropOp52
 70
     0
102
RTVSPost2010Prop53
 90
        2
102
RTVSPost2010PropOp53
 70
     1
102
RTVSPost2010Prop54
  1
strokes_ogs.tif
102
RTVSPost2010PropOp54
 70
     1
102
RTVSPost2010Prop55
280
     0
102
RTVSPost2010PropOp55
 70
     1
102
RTVSPost2010Prop56
140
1.0
102
RTVSPost2010PropOp56
 70
     1
102
RTVSPost2010Prop57
140
1.0
102
RTVSPost2010PropOp57
 70
     1
102
RTVSPropertyOp0
 70
     1
102
RTVSPropertyOp1
 70
     1
102
RTVSPropertyOp2
 70
     1
102
RTVSPropertyOp3
 70
     1
102
RTVSPropertyOp4
 70
     1
102
RTVSPropertyOp5
 70
     1
102
RTVSPropertyOp6
 70
     1
102
RTVSPropertyOp7
 70
     1
102
RTVSPropertyOp8
 70
     1
102
RTVSPropertyOp9
 70
     1
102
RTVSPropertyOp10
 70
     1
102
RTVSPropertyOp11
 70
     1
102
RTVSPropertyOp12
 70
     1
102
RTVSPropertyOp13
 70
     1
102
RTVSPropertyOp14
 70
     1
102
RTVSPropertyOp15
 70
     1
102
RTVSPropertyOp16
 70
     1
102
RTVSPropertyOp17
 70
     1
102
RTVSPropertyOp18
 70
     1
102
RTVSPropertyOp19
 70
     1
102
RTVSPropertyOp20
 70
     1
102
RTVSPropertyOp21
 70
     1
102
RTVSPropertyOp22
 70
     1
102
RTVSPropertyOp23
 70
     1
102
RTVSPropertyOp24
 70
     1
102
RTVSPropertyOp25
 70
     1
102
RTVSPropertyOp26
 70
     1
102
RTVSPropertyOp27
 70
     1
102
RTVSPropertyOp28
 70
     1
102
RTVSPropertyOp29
 70
     1
102
RTVSPropertyOp30
 70
     1
102
RTVSPropertyOp31
 70
     1
102
RTVSPropertyOp32
 70
     1
102
RTVSPropertyOp33
 70
     1
102
RTVSPropertyOp34
 70
     1
102
RTVSPropertyOp35
 70
     1
102
RTVSPropertyOp36
 70
     1
102
RTVSPropertyOp37
 70
     1
102
RTVSPropertyOp38
 70
     1
102
RTVSPropertyOp39
 70
     1
102
RTVSPropertyOp40
 70
     1
102
RTVSPropertyOp41
 70
     1
102
RTVSPropertyOp42
 70
     1
102
RTVSPropertyOp43
 70
     1
102
RTVSPropertyOp44
 70
     1
102
RTVSPropertyOp45
 70
     1
102
RTVSPropertyOp46
 70
     1
102
RTVSPropertyOp47
 70
     1
102
RTVSPropertyOp48
 70
     1
102
RTVSPropertyOp49
 70
     1
102
RTVSPropertyOp50
 70
     1
102
RTVSPropertyOp51
 70
     0
102
RTVSPropertyOp52
 70
     0
102
RTVSPropertyOp53
 70
     1
102
RTVSPropertyOp54
 70
     1
102
RTVSPropertyOp55
 70
     1
102
RTVSPropertyOp56
 70
     1
102
RTVSPropertyOp57
 70
     1
102
RTVSPropertyOp58
 70
     1
102
RTVSPropertyOp59
 70
     1
102
RTVSPropertyOp60
 70
     1
102
RTVSPropertyOp61
 70
     1
102
RTVSPropertyOp62
 70
     1
  0
XRECORD
  5
A966
102
{ACAD_REACTORS
330
A965
102
}
330
A965
100
AcDbXrecord
280
     1
102
RTVSPost2010Prop28
280
     0
102
RTVSPost2010PropOp28
 70
     1
102
RTVSPost2010Prop29
280
     1
102
RTVSPost2010PropOp29
 70
     1
102
RTVSPost2010Prop30
280
     1
102
RTVSPost2010PropOp30
 70
     1
102
RTVSPost2010Prop31
280
     0
102
RTVSPost2010PropOp31
 70
     1
102
RTVSPost2010Prop32
280
     0
102
RTVSPost2010PropOp32
 70
     1
102
RTVSPost2010Prop33
280
     0
102
RTVSPost2010PropOp33
 70
     1
102
RTVSPost2010Prop34
280
     0
102
RTVSPost2010PropOp34
 70
     1
102
RTVSPost2010Prop35
280
     0
102
RTVSPost2010PropOp35
 70
     1
102
RTVSPost2010Prop36
280
     0
102
RTVSPost2010PropOp36
 70
     1
102
RTVSPost2010Prop37
 90
       50
102
RTVSPost2010PropOp37
 70
     1
102
RTVSPost2010Prop38
140
0.0
102
RTVSPost2010PropOp38
 70
     1
102
RTVSPost2010Prop39
140
1.0
102
RTVSPost2010PropOp39
 70
     1
102
RTVSPost2010Prop40
 90
        0
102
RTVSPost2010PropOp40
 70
     1
102
RTVSPost2010Prop41ColorIndex
 90
       18
102
RTVSPost2010Prop41ColorRGB
 90
        0
102
RTVSPost2010PropOp41
 70
     1
102
RTVSPost2010Prop42
 90
       50
102
RTVSPost2010PropOp42
 70
     1
102
RTVSPost2010Prop43
 90
        3
102
RTVSPost2010PropOp43
 70
     1
102
RTVSPost2010Prop44ColorIndex
 90
        5
102
RTVSPost2010Prop44ColorRGB
 90
      255
102
RTVSPost2010PropOp44
 70
     1
102
RTVSPost2010Prop45
280
     0
102
RTVSPost2010PropOp45
 70
     1
102
RTVSPost2010Prop46
 90
       50
102
RTVSPost2010PropOp46
 70
     1
102
RTVSPost2010Prop47
 90
       50
102
RTVSPost2010PropOp47
 70
     1
102
RTVSPost2010Prop48
 90
       50
102
RTVSPost2010PropOp48
 70
     1
102
RTVSPost2010Prop49
280
     0
102
RTVSPost2010PropOp49
 70
     1
102
RTVSPost2010Prop50
 90
       50
102
RTVSPost2010PropOp50
 70
     1
102
RTVSPost2010Prop51ColorIndex
 90
      256
102
RTVSPost2010Prop51ColorRGB
 90
-16777216
102
RTVSPost2010PropOp51
 70
     0
102
RTVSPost2010Prop52
140
1.0
102
RTVSPost2010PropOp52
 70
     0
102
RTVSPost2010Prop53
 90
        2
102
RTVSPost2010PropOp53
 70
     1
102
RTVSPost2010Prop54
  1
strokes_ogs.tif
102
RTVSPost2010PropOp54
 70
     1
102
RTVSPost2010Prop55
280
     0
102
RTVSPost2010PropOp55
 70
     1
102
RTVSPost2010Prop56
140
1.0
102
RTVSPost2010PropOp56
 70
     1
102
RTVSPost2010Prop57
140
1.0
102
RTVSPost2010PropOp57
 70
     1
102
RTVSPropertyOp0
 70
     1
102
RTVSPropertyOp1
 70
     1
102
RTVSPropertyOp2
 70
     1
102
RTVSPropertyOp3
 70
     1
102
RTVSPropertyOp4
 70
     1
102
RTVSPropertyOp5
 70
     1
102
RTVSPropertyOp6
 70
     1
102
RTVSPropertyOp7
 70
     1
102
RTVSPropertyOp8
 70
     1
102
RTVSPropertyOp9
 70
     1
102
RTVSPropertyOp10
 70
     1
102
RTVSPropertyOp11
 70
     1
102
RTVSPropertyOp12
 70
     1
102
RTVSPropertyOp13
 70
     1
102
RTVSPropertyOp14
 70
     1
102
RTVSPropertyOp15
 70
     1
102
RTVSPropertyOp16
 70
     1
102
RTVSPropertyOp17
 70
     1
102
RTVSPropertyOp18
 70
     1
102
RTVSPropertyOp19
 70
     1
102
RTVSPropertyOp20
 70
     1
102
RTVSPropertyOp21
 70
     1
102
RTVSPropertyOp22
 70
     1
102
RTVSPropertyOp23
 70
     1
102
RTVSPropertyOp24
 70
     1
102
RTVSPropertyOp25
 70
     1
102
RTVSPropertyOp26
 70
     1
102
RTVSPropertyOp27
 70
     1
102
RTVSPropertyOp28
 70
     1
102
RTVSPropertyOp29
 70
     1
102
RTVSPropertyOp30
 70
     1
102
RTVSPropertyOp31
 70
     1
102
RTVSPropertyOp32
 70
     1
102
RTVSPropertyOp33
 70
     1
102
RTVSPropertyOp34
 70
     1
102
RTVSPropertyOp35
 70
     1
102
RTVSPropertyOp36
 70
     1
102
RTVSPropertyOp37
 70
     1
102
RTVSPropertyOp38
 70
     1
102
RTVSPropertyOp39
 70
     1
102
RTVSPropertyOp40
 70
     1
102
RTVSPropertyOp41
 70
     1
102
RTVSPropertyOp42
 70
     1
102
RTVSPropertyOp43
 70
     1
102
RTVSPropertyOp44
 70
     1
102
RTVSPropertyOp45
 70
     1
102
RTVSPropertyOp46
 70
     1
102
RTVSPropertyOp47
 70
     1
102
RTVSPropertyOp48
 70
     1
102
RTVSPropertyOp49
 70
     1
102
RTVSPropertyOp50
 70
     1
102
RTVSPropertyOp51
 70
     0
102
RTVSPropertyOp52
 70
     0
102
RTVSPropertyOp53
 70
     1
102
RTVSPropertyOp54
 70
     1
102
RTVSPropertyOp55
 70
     1
102
RTVSPropertyOp56
 70
     1
102
RTVSPropertyOp57
 70
     1
102
RTVSPropertyOp58
 70
     1
102
RTVSPropertyOp59
 70
     1
102
RTVSPropertyOp60
 70
     1
102
RTVSPropertyOp61
 70
     1
102
RTVSPropertyOp62
 70
     1
  0
XRECORD
  5
A968
102
{ACAD_REACTORS
330
A967
102
}
330
A967
100
AcDbXrecord
280
     1
102
RTVSPost2010Prop28
280
     0
102
RTVSPost2010PropOp28
 70
     1
102
RTVSPost2010Prop29
280
     1
102
RTVSPost2010PropOp29
 70
     1
102
RTVSPost2010Prop30
280
     1
102
RTVSPost2010PropOp30
 70
     1
102
RTVSPost2010Prop31
280
     0
102
RTVSPost2010PropOp31
 70
     1
102
RTVSPost2010Prop32
280
     0
102
RTVSPost2010PropOp32
 70
     1
102
RTVSPost2010Prop33
280
     0
102
RTVSPost2010PropOp33
 70
     1
102
RTVSPost2010Prop34
280
     0
102
RTVSPost2010PropOp34
 70
     1
102
RTVSPost2010Prop35
280
     0
102
RTVSPost2010PropOp35
 70
     1
102
RTVSPost2010Prop36
280
     0
102
RTVSPost2010PropOp36
 70
     1
102
RTVSPost2010Prop37
 90
       50
102
RTVSPost2010PropOp37
 70
     1
102
RTVSPost2010Prop38
140
0.0
102
RTVSPost2010PropOp38
 70
     1
102
RTVSPost2010Prop39
140
1.0
102
RTVSPost2010PropOp39
 70
     1
102
RTVSPost2010Prop40
 90
        0
102
RTVSPost2010PropOp40
 70
     1
102
RTVSPost2010Prop41ColorIndex
 90
       18
102
RTVSPost2010Prop41ColorRGB
 90
        0
102
RTVSPost2010PropOp41
 70
     1
102
RTVSPost2010Prop42
 90
       50
102
RTVSPost2010PropOp42
 70
     1
102
RTVSPost2010Prop43
 90
        3
102
RTVSPost2010PropOp43
 70
     1
102
RTVSPost2010Prop44ColorIndex
 90
        5
102
RTVSPost2010Prop44ColorRGB
 90
      255
102
RTVSPost2010PropOp44
 70
     1
102
RTVSPost2010Prop45
280
     0
102
RTVSPost2010PropOp45
 70
     1
102
RTVSPost2010Prop46
 90
       50
102
RTVSPost2010PropOp46
 70
     1
102
RTVSPost2010Prop47
 90
       50
102
RTVSPost2010PropOp47
 70
     1
102
RTVSPost2010Prop48
 90
       50
102
RTVSPost2010PropOp48
 70
     1
102
RTVSPost2010Prop49
280
     0
102
RTVSPost2010PropOp49
 70
     1
102
RTVSPost2010Prop50
 90
       50
102
RTVSPost2010PropOp50
 70
     1
102
RTVSPost2010Prop51ColorIndex
 90
      256
102
RTVSPost2010Prop51ColorRGB
 90
-16777216
102
RTVSPost2010PropOp51
 70
     0
102
RTVSPost2010Prop52
140
1.0
102
RTVSPost2010PropOp52
 70
     0
102
RTVSPost2010Prop53
 90
        2
102
RTVSPost2010PropOp53
 70
     1
102
RTVSPost2010Prop54
  1
strokes_ogs.tif
102
RTVSPost2010PropOp54
 70
     1
102
RTVSPost2010Prop55
280
     0
102
RTVSPost2010PropOp55
 70
     1
102
RTVSPost2010Prop56
140
1.0
102
RTVSPost2010PropOp56
 70
     1
102
RTVSPost2010Prop57
140
1.0
102
RTVSPost2010PropOp57
 70
     1
102
RTVSPropertyOp0
 70
     1
102
RTVSPropertyOp1
 70
     1
102
RTVSPropertyOp2
 70
     1
102
RTVSPropertyOp3
 70
     1
102
RTVSPropertyOp4
 70
     1
102
RTVSPropertyOp5
 70
     1
102
RTVSPropertyOp6
 70
     1
102
RTVSPropertyOp7
 70
     1
102
RTVSPropertyOp8
 70
     1
102
RTVSPropertyOp9
 70
     1
102
RTVSPropertyOp10
 70
     1
102
RTVSPropertyOp11
 70
     1
102
RTVSPropertyOp12
 70
     1
102
RTVSPropertyOp13
 70
     1
102
RTVSPropertyOp14
 70
     1
102
RTVSPropertyOp15
 70
     1
102
RTVSPropertyOp16
 70
     1
102
RTVSPropertyOp17
 70
     1
102
RTVSPropertyOp18
 70
     1
102
RTVSPropertyOp19
 70
     1
102
RTVSPropertyOp20
 70
     1
102
RTVSPropertyOp21
 70
     1
102
RTVSPropertyOp22
 70
     1
102
RTVSPropertyOp23
 70
     1
102
RTVSPropertyOp24
 70
     1
102
RTVSPropertyOp25
 70
     1
102
RTVSPropertyOp26
 70
     1
102
RTVSPropertyOp27
 70
     1
102
RTVSPropertyOp28
 70
     1
102
RTVSPropertyOp29
 70
     1
102
RTVSPropertyOp30
 70
     1
102
RTVSPropertyOp31
 70
     1
102
RTVSPropertyOp32
 70
     1
102
RTVSPropertyOp33
 70
     1
102
RTVSPropertyOp34
 70
     1
102
RTVSPropertyOp35
 70
     1
102
RTVSPropertyOp36
 70
     1
102
RTVSPropertyOp37
 70
     1
102
RTVSPropertyOp38
 70
     1
102
RTVSPropertyOp39
 70
     1
102
RTVSPropertyOp40
 70
     1
102
RTVSPropertyOp41
 70
     1
102
RTVSPropertyOp42
 70
     1
102
RTVSPropertyOp43
 70
     1
102
RTVSPropertyOp44
 70
     1
102
RTVSPropertyOp45
 70
     1
102
RTVSPropertyOp46
 70
     1
102
RTVSPropertyOp47
 70
     1
102
RTVSPropertyOp48
 70
     1
102
RTVSPropertyOp49
 70
     1
102
RTVSPropertyOp50
 70
     1
102
RTVSPropertyOp51
 70
     0
102
RTVSPropertyOp52
 70
     0
102
RTVSPropertyOp53
 70
     1
102
RTVSPropertyOp54
 70
     1
102
RTVSPropertyOp55
 70
     1
102
RTVSPropertyOp56
 70
     1
102
RTVSPropertyOp57
 70
     1
102
RTVSPropertyOp58
 70
     1
102
RTVSPropertyOp59
 70
     1
102
RTVSPropertyOp60
 70
     1
102
RTVSPropertyOp61
 70
     1
102
RTVSPropertyOp62
 70
     1
  0
XRECORD
  5
A95E
102
{ACAD_REACTORS
330
A95D
102
}
330
A95D
100
AcDbXrecord
280
     1
102
RTVSPost2010Prop28
280
     0
102
RTVSPost2010PropOp28
 70
     1
102
RTVSPost2010Prop29
280
     1
102
RTVSPost2010PropOp29
 70
     1
102
RTVSPost2010Prop30
280
     1
102
RTVSPost2010PropOp30
 70
     1
102
RTVSPost2010Prop31
280
     0
102
RTVSPost2010PropOp31
 70
     1
102
RTVSPost2010Prop32
280
     0
102
RTVSPost2010PropOp32
 70
     1
102
RTVSPost2010Prop33
280
     0
102
RTVSPost2010PropOp33
 70
     1
102
RTVSPost2010Prop34
280
     0
102
RTVSPost2010PropOp34
 70
     1
102
RTVSPost2010Prop35
280
     0
102
RTVSPost2010PropOp35
 70
     1
102
RTVSPost2010Prop36
280
     0
102
RTVSPost2010PropOp36
 70
     1
102
RTVSPost2010Prop37
 90
       50
102
RTVSPost2010PropOp37
 70
     1
102
RTVSPost2010Prop38
140
0.0
102
RTVSPost2010PropOp38
 70
     1
102
RTVSPost2010Prop39
140
1.0
102
RTVSPost2010PropOp39
 70
     1
102
RTVSPost2010Prop40
 90
        0
102
RTVSPost2010PropOp40
 70
     1
102
RTVSPost2010Prop41ColorIndex
 90
       18
102
RTVSPost2010Prop41ColorRGB
 90
        0
102
RTVSPost2010PropOp41
 70
     1
102
RTVSPost2010Prop42
 90
       50
102
RTVSPost2010PropOp42
 70
     1
102
RTVSPost2010Prop43
 90
        3
102
RTVSPost2010PropOp43
 70
     1
102
RTVSPost2010Prop44ColorIndex
 90
        5
102
RTVSPost2010Prop44ColorRGB
 90
      255
102
RTVSPost2010PropOp44
 70
     1
102
RTVSPost2010Prop45
280
     0
102
RTVSPost2010PropOp45
 70
     1
102
RTVSPost2010Prop46
 90
       50
102
RTVSPost2010PropOp46
 70
     1
102
RTVSPost2010Prop47
 90
       50
102
RTVSPost2010PropOp47
 70
     1
102
RTVSPost2010Prop48
 90
       50
102
RTVSPost2010PropOp48
 70
     1
102
RTVSPost2010Prop49
280
     0
102
RTVSPost2010PropOp49
 70
     1
102
RTVSPost2010Prop50
 90
       50
102
RTVSPost2010PropOp50
 70
     1
102
RTVSPost2010Prop51ColorIndex
 90
      256
102
RTVSPost2010Prop51ColorRGB
 90
-16777216
102
RTVSPost2010PropOp51
 70
     0
102
RTVSPost2010Prop52
140
1.0
102
RTVSPost2010PropOp52
 70
     0
102
RTVSPost2010Prop53
 90
        2
102
RTVSPost2010PropOp53
 70
     1
102
RTVSPost2010Prop54
  1
strokes_ogs.tif
102
RTVSPost2010PropOp54
 70
     1
102
RTVSPost2010Prop55
280
     0
102
RTVSPost2010PropOp55
 70
     1
102
RTVSPost2010Prop56
140
1.0
102
RTVSPost2010PropOp56
 70
     1
102
RTVSPost2010Prop57
140
1.0
102
RTVSPost2010PropOp57
 70
     1
102
RTVSPropertyOp0
 70
     1
102
RTVSPropertyOp1
 70
     1
102
RTVSPropertyOp2
 70
     1
102
RTVSPropertyOp3
 70
     1
102
RTVSPropertyOp4
 70
     1
102
RTVSPropertyOp5
 70
     1
102
RTVSPropertyOp6
 70
     1
102
RTVSPropertyOp7
 70
     1
102
RTVSPropertyOp8
 70
     1
102
RTVSPropertyOp9
 70
     1
102
RTVSPropertyOp10
 70
     1
102
RTVSPropertyOp11
 70
     1
102
RTVSPropertyOp12
 70
     1
102
RTVSPropertyOp13
 70
     1
102
RTVSPropertyOp14
 70
     1
102
RTVSPropertyOp15
 70
     1
102
RTVSPropertyOp16
 70
     1
102
RTVSPropertyOp17
 70
     1
102
RTVSPropertyOp18
 70
     1
102
RTVSPropertyOp19
 70
     1
102
RTVSPropertyOp20
 70
     1
102
RTVSPropertyOp21
 70
     1
102
RTVSPropertyOp22
 70
     1
102
RTVSPropertyOp23
 70
     1
102
RTVSPropertyOp24
 70
     1
102
RTVSPropertyOp25
 70
     1
102
RTVSPropertyOp26
 70
     1
102
RTVSPropertyOp27
 70
     1
102
RTVSPropertyOp28
 70
     1
102
RTVSPropertyOp29
 70
     1
102
RTVSPropertyOp30
 70
     1
102
RTVSPropertyOp31
 70
     1
102
RTVSPropertyOp32
 70
     1
102
RTVSPropertyOp33
 70
     1
102
RTVSPropertyOp34
 70
     1
102
RTVSPropertyOp35
 70
     1
102
RTVSPropertyOp36
 70
     1
102
RTVSPropertyOp37
 70
     1
102
RTVSPropertyOp38
 70
     1
102
RTVSPropertyOp39
 70
     1
102
RTVSPropertyOp40
 70
     1
102
RTVSPropertyOp41
 70
     1
102
RTVSPropertyOp42
 70
     1
102
RTVSPropertyOp43
 70
     1
102
RTVSPropertyOp44
 70
     1
102
RTVSPropertyOp45
 70
     1
102
RTVSPropertyOp46
 70
     1
102
RTVSPropertyOp47
 70
     1
102
RTVSPropertyOp48
 70
     1
102
RTVSPropertyOp49
 70
     1
102
RTVSPropertyOp50
 70
     1
102
RTVSPropertyOp51
 70
     0
102
RTVSPropertyOp52
 70
     0
102
RTVSPropertyOp53
 70
     1
102
RTVSPropertyOp54
 70
     1
102
RTVSPropertyOp55
 70
     1
102
RTVSPropertyOp56
 70
     1
102
RTVSPropertyOp57
 70
     1
102
RTVSPropertyOp58
 70
     1
102
RTVSPropertyOp59
 70
     1
102
RTVSPropertyOp60
 70
     1
102
RTVSPropertyOp61
 70
     1
102
RTVSPropertyOp62
 70
     1
  0
XRECORD
  5
A952
102
{ACAD_REACTORS
330
A951
102
}
330
A951
100
AcDbXrecord
280
     1
102
RTVSPost2010Prop28
280
     0
102
RTVSPost2010PropOp28
 70
     1
102
RTVSPost2010Prop29
280
     1
102
RTVSPost2010PropOp29
 70
     1
102
RTVSPost2010Prop30
280
     1
102
RTVSPost2010PropOp30
 70
     1
102
RTVSPost2010Prop31
280
     0
102
RTVSPost2010PropOp31
 70
     1
102
RTVSPost2010Prop32
280
     0
102
RTVSPost2010PropOp32
 70
     1
102
RTVSPost2010Prop33
280
     0
102
RTVSPost2010PropOp33
 70
     1
102
RTVSPost2010Prop34
280
     0
102
RTVSPost2010PropOp34
 70
     1
102
RTVSPost2010Prop35
280
     0
102
RTVSPost2010PropOp35
 70
     1
102
RTVSPost2010Prop36
280
     0
102
RTVSPost2010PropOp36
 70
     1
102
RTVSPost2010Prop37
 90
       50
102
RTVSPost2010PropOp37
 70
     1
102
RTVSPost2010Prop38
140
0.0
102
RTVSPost2010PropOp38
 70
     1
102
RTVSPost2010Prop39
140
1.0
102
RTVSPost2010PropOp39
 70
     1
102
RTVSPost2010Prop40
 90
        0
102
RTVSPost2010PropOp40
 70
     1
102
RTVSPost2010Prop41ColorIndex
 90
       18
102
RTVSPost2010Prop41ColorRGB
 90
        0
102
RTVSPost2010PropOp41
 70
     1
102
RTVSPost2010Prop42
 90
       50
102
RTVSPost2010PropOp42
 70
     1
102
RTVSPost2010Prop43
 90
        3
102
RTVSPost2010PropOp43
 70
     1
102
RTVSPost2010Prop44ColorIndex
 90
        5
102
RTVSPost2010Prop44ColorRGB
 90
      255
102
RTVSPost2010PropOp44
 70
     1
102
RTVSPost2010Prop45
280
     0
102
RTVSPost2010PropOp45
 70
     1
102
RTVSPost2010Prop46
 90
       50
102
RTVSPost2010PropOp46
 70
     1
102
RTVSPost2010Prop47
 90
       50
102
RTVSPost2010PropOp47
 70
     1
102
RTVSPost2010Prop48
 90
       50
102
RTVSPost2010PropOp48
 70
     1
102
RTVSPost2010Prop49
280
     0
102
RTVSPost2010PropOp49
 70
     1
102
RTVSPost2010Prop50
 90
       50
102
RTVSPost2010PropOp50
 70
     1
102
RTVSPost2010Prop51ColorIndex
 90
      256
102
RTVSPost2010Prop51ColorRGB
 90
-16777216
102
RTVSPost2010PropOp51
 70
     0
102
RTVSPost2010Prop52
140
1.0
102
RTVSPost2010PropOp52
 70
     0
102
RTVSPost2010Prop53
 90
        2
102
RTVSPost2010PropOp53
 70
     1
102
RTVSPost2010Prop54
  1
strokes_ogs.tif
102
RTVSPost2010PropOp54
 70
     1
102
RTVSPost2010Prop55
280
     0
102
RTVSPost2010PropOp55
 70
     1
102
RTVSPost2010Prop56
140
1.0
102
RTVSPost2010PropOp56
 70
     1
102
RTVSPost2010Prop57
140
1.0
102
RTVSPost2010PropOp57
 70
     1
102
RTVSPropertyOp0
 70
     1
102
RTVSPropertyOp1
 70
     1
102
RTVSPropertyOp2
 70
     1
102
RTVSPropertyOp3
 70
     1
102
RTVSPropertyOp4
 70
     1
102
RTVSPropertyOp5
 70
     1
102
RTVSPropertyOp6
 70
     1
102
RTVSPropertyOp7
 70
     1
102
RTVSPropertyOp8
 70
     1
102
RTVSPropertyOp9
 70
     1
102
RTVSPropertyOp10
 70
     1
102
RTVSPropertyOp11
 70
     1
102
RTVSPropertyOp12
 70
     1
102
RTVSPropertyOp13
 70
     1
102
RTVSPropertyOp14
 70
     1
102
RTVSPropertyOp15
 70
     1
102
RTVSPropertyOp16
 70
     1
102
RTVSPropertyOp17
 70
     1
102
RTVSPropertyOp18
 70
     1
102
RTVSPropertyOp19
 70
     1
102
RTVSPropertyOp20
 70
     1
102
RTVSPropertyOp21
 70
     1
102
RTVSPropertyOp22
 70
     1
102
RTVSPropertyOp23
 70
     1
102
RTVSPropertyOp24
 70
     1
102
RTVSPropertyOp25
 70
     1
102
RTVSPropertyOp26
 70
     1
102
RTVSPropertyOp27
 70
     1
102
RTVSPropertyOp28
 70
     1
102
RTVSPropertyOp29
 70
     1
102
RTVSPropertyOp30
 70
     1
102
RTVSPropertyOp31
 70
     1
102
RTVSPropertyOp32
 70
     1
102
RTVSPropertyOp33
 70
     1
102
RTVSPropertyOp34
 70
     1
102
RTVSPropertyOp35
 70
     1
102
RTVSPropertyOp36
 70
     1
102
RTVSPropertyOp37
 70
     1
102
RTVSPropertyOp38
 70
     1
102
RTVSPropertyOp39
 70
     1
102
RTVSPropertyOp40
 70
     1
102
RTVSPropertyOp41
 70
     1
102
RTVSPropertyOp42
 70
     1
102
RTVSPropertyOp43
 70
     1
102
RTVSPropertyOp44
 70
     1
102
RTVSPropertyOp45
 70
     1
102
RTVSPropertyOp46
 70
     1
102
RTVSPropertyOp47
 70
     1
102
RTVSPropertyOp48
 70
     1
102
RTVSPropertyOp49
 70
     1
102
RTVSPropertyOp50
 70
     1
102
RTVSPropertyOp51
 70
     0
102
RTVSPropertyOp52
 70
     0
102
RTVSPropertyOp53
 70
     1
102
RTVSPropertyOp54
 70
     1
102
RTVSPropertyOp55
 70
     1
102
RTVSPropertyOp56
 70
     1
102
RTVSPropertyOp57
 70
     1
102
RTVSPropertyOp58
 70
     1
102
RTVSPropertyOp59
 70
     1
102
RTVSPropertyOp60
 70
     1
102
RTVSPropertyOp61
 70
     1
102
RTVSPropertyOp62
 70
     1
  0
XRECORD
  5
A96A
102
{ACAD_REACTORS
330
A969
102
}
330
A969
100
AcDbXrecord
280
     1
102
RTVSPost2010Prop28
280
     0
102
RTVSPost2010PropOp28
 70
     1
102
RTVSPost2010Prop29
280
     1
102
RTVSPost2010PropOp29
 70
     1
102
RTVSPost2010Prop30
280
     1
102
RTVSPost2010PropOp30
 70
     1
102
RTVSPost2010Prop31
280
     0
102
RTVSPost2010PropOp31
 70
     1
102
RTVSPost2010Prop32
280
     0
102
RTVSPost2010PropOp32
 70
     1
102
RTVSPost2010Prop33
280
     0
102
RTVSPost2010PropOp33
 70
     1
102
RTVSPost2010Prop34
280
     0
102
RTVSPost2010PropOp34
 70
     1
102
RTVSPost2010Prop35
280
     0
102
RTVSPost2010PropOp35
 70
     1
102
RTVSPost2010Prop36
280
     0
102
RTVSPost2010PropOp36
 70
     1
102
RTVSPost2010Prop37
 90
       50
102
RTVSPost2010PropOp37
 70
     1
102
RTVSPost2010Prop38
140
0.0
102
RTVSPost2010PropOp38
 70
     1
102
RTVSPost2010Prop39
140
1.0
102
RTVSPost2010PropOp39
 70
     1
102
RTVSPost2010Prop40
 90
        0
102
RTVSPost2010PropOp40
 70
     1
102
RTVSPost2010Prop41ColorIndex
 90
       18
102
RTVSPost2010Prop41ColorRGB
 90
        0
102
RTVSPost2010PropOp41
 70
     1
102
RTVSPost2010Prop42
 90
       50
102
RTVSPost2010PropOp42
 70
     1
102
RTVSPost2010Prop43
 90
        3
102
RTVSPost2010PropOp43
 70
     1
102
RTVSPost2010Prop44ColorIndex
 90
        5
102
RTVSPost2010Prop44ColorRGB
 90
      255
102
RTVSPost2010PropOp44
 70
     1
102
RTVSPost2010Prop45
280
     0
102
RTVSPost2010PropOp45
 70
     1
102
RTVSPost2010Prop46
 90
       50
102
RTVSPost2010PropOp46
 70
     1
102
RTVSPost2010Prop47
 90
       50
102
RTVSPost2010PropOp47
 70
     1
102
RTVSPost2010Prop48
 90
       50
102
RTVSPost2010PropOp48
 70
     1
102
RTVSPost2010Prop49
280
     0
102
RTVSPost2010PropOp49
 70
     1
102
RTVSPost2010Prop50
 90
       50
102
RTVSPost2010PropOp50
 70
     1
102
RTVSPost2010Prop51ColorIndex
 90
      256
102
RTVSPost2010Prop51ColorRGB
 90
-16777216
102
RTVSPost2010PropOp51
 70
     0
102
RTVSPost2010Prop52
140
1.0
102
RTVSPost2010PropOp52
 70
     0
102
RTVSPost2010Prop53
 90
        2
102
RTVSPost2010PropOp53
 70
     1
102
RTVSPost2010Prop54
  1
strokes_ogs.tif
102
RTVSPost2010PropOp54
 70
     1
102
RTVSPost2010Prop55
280
     0
102
RTVSPost2010PropOp55
 70
     1
102
RTVSPost2010Prop56
140
1.0
102
RTVSPost2010PropOp56
 70
     1
102
RTVSPost2010Prop57
140
1.0
102
RTVSPost2010PropOp57
 70
     1
102
RTVSPropertyOp0
 70
     1
102
RTVSPropertyOp1
 70
     1
102
RTVSPropertyOp2
 70
     1
102
RTVSPropertyOp3
 70
     1
102
RTVSPropertyOp4
 70
     1
102
RTVSPropertyOp5
 70
     1
102
RTVSPropertyOp6
 70
     1
102
RTVSPropertyOp7
 70
     1
102
RTVSPropertyOp8
 70
     1
102
RTVSPropertyOp9
 70
     1
102
RTVSPropertyOp10
 70
     1
102
RTVSPropertyOp11
 70
     1
102
RTVSPropertyOp12
 70
     1
102
RTVSPropertyOp13
 70
     1
102
RTVSPropertyOp14
 70
     1
102
RTVSPropertyOp15
 70
     1
102
RTVSPropertyOp16
 70
     1
102
RTVSPropertyOp17
 70
     1
102
RTVSPropertyOp18
 70
     1
102
RTVSPropertyOp19
 70
     1
102
RTVSPropertyOp20
 70
     1
102
RTVSPropertyOp21
 70
     1
102
RTVSPropertyOp22
 70
     1
102
RTVSPropertyOp23
 70
     1
102
RTVSPropertyOp24
 70
     1
102
RTVSPropertyOp25
 70
     1
102
RTVSPropertyOp26
 70
     1
102
RTVSPropertyOp27
 70
     1
102
RTVSPropertyOp28
 70
     1
102
RTVSPropertyOp29
 70
     1
102
RTVSPropertyOp30
 70
     1
102
RTVSPropertyOp31
 70
     1
102
RTVSPropertyOp32
 70
     1
102
RTVSPropertyOp33
 70
     1
102
RTVSPropertyOp34
 70
     1
102
RTVSPropertyOp35
 70
     1
102
RTVSPropertyOp36
 70
     1
102
RTVSPropertyOp37
 70
     1
102
RTVSPropertyOp38
 70
     1
102
RTVSPropertyOp39
 70
     1
102
RTVSPropertyOp40
 70
     1
102
RTVSPropertyOp41
 70
     1
102
RTVSPropertyOp42
 70
     1
102
RTVSPropertyOp43
 70
     1
102
RTVSPropertyOp44
 70
     1
102
RTVSPropertyOp45
 70
     1
102
RTVSPropertyOp46
 70
     1
102
RTVSPropertyOp47
 70
     1
102
RTVSPropertyOp48
 70
     1
102
RTVSPropertyOp49
 70
     1
102
RTVSPropertyOp50
 70
     1
102
RTVSPropertyOp51
 70
     0
102
RTVSPropertyOp52
 70
     0
102
RTVSPropertyOp53
 70
     1
102
RTVSPropertyOp54
 70
     1
102
RTVSPropertyOp55
 70
     1
102
RTVSPropertyOp56
 70
     1
102
RTVSPropertyOp57
 70
     1
102
RTVSPropertyOp58
 70
     1
102
RTVSPropertyOp59
 70
     1
102
RTVSPropertyOp60
 70
     1
102
RTVSPropertyOp61
 70
     1
102
RTVSPropertyOp62
 70
     1
  0
ENDSEC
  0
EOF
