  0
SECTION
  2
HEADER
  9
$ACADVER
  1
AC1015
  9
$ACADMAINTVER
 70
    20
  9
$DWGCODEPAGE
  3
ANSI_932
  9
$INSBASE
 10
0.0
 20
0.0
 30
0.0
  9
$EXTMIN
 10
10.0
 20
9.999999999999998
 30
0.0
  9
$EXTMAX
 10
482.631487
 20
347.8915799999999
 30
0.0
  9
$LIMMIN
 10
0.0
 20
0.0
  9
$LIMMAX
 10
543.4709999999999
 20
374.665614
  9
$ORTHOMODE
 70
     1
  9
$REGENMODE
 70
     1
  9
$FILLMODE
 70
     1
  9
$QTEXTMODE
 70
     0
  9
$MIRRTEXT
 70
     1
  9
$LTSCALE
 40
20.0
  9
$ATTMODE
 70
     1
  9
$TEXTSIZE
 40
5.0
  9
$TRACEWID
 40
1.0
  9
$TEXTSTYLE
  7
STANDARD
  9
$CLAYER
  8
0
  9
$CELTYPE
  6
BYLAYER
  9
$CECOLOR
 62
   256
  9
$CELTSCALE
 40
1.0
  9
$DISPSILH
 70
     0
  9
$DIMSCALE
 40
1.0
  9
$DIMASZ
 40
2.5
  9
$DIMEXO
 40
1.0
  9
$DIMDLI
 40
10.0
  9
$DIMRND
 40
0.0
  9
$DIMDLE
 40
0.0
  9
$DIMEXE
 40
1.0
  9
$DIMTP
 40
0.0
  9
$DIMTM
 40
0.0
  9
$DIMTXT
 40
3.2
  9
$DIMCEN
 40
0.0
  9
$DIMTSZ
 40
0.0
  9
$DIMTOL
 70
     0
  9
$DIMLIM
 70
     0
  9
$DIMTIH
 70
     0
  9
$DIMTOH
 70
     0
  9
$DIMSE1
 70
     0
  9
$DIMSE2
 70
     0
  9
$DIMTAD
 70
     3
  9
$DIMZIN
 70
     8
  9
$DIMBLK
  1

  9
$DIMASO
 70
     1
  9
$DIMSHO
 70
     1
  9
$DIMPOST
  1

  9
$DIMAPOST
  1

  9
$DIMALT
 70
     0
  9
$DIMALTD
 70
     2
  9
$DIMALTF
 40
25.4
  9
$DIMLFAC
 40
1.0
  9
$DIMTOFL
 70
     1
  9
$DIMTVP
 40
0.0
  9
$DIMTIX
 70
     0
  9
$DIMSOXD
 70
     0
  9
$DIMSAH
 70
     1
  9
$DIMBLK1
  1

  9
$DIMBLK2
  1

  9
$DIMSTYLE
  2
STANDARD
  9
$DIMCLRD
 70
     0
  9
$DIMCLRE
 70
     0
  9
$DIMCLRT
 70
     0
  9
$DIMTFAC
 40
1.0
  9
$DIMGAP
 40
1.0
  9
$DIMJUST
 70
     0
  9
$DIMSD1
 70
     0
  9
$DIMSD2
 70
     0
  9
$DIMTOLJ
 70
     1
  9
$DIMTZIN
 70
     0
  9
$DIMALTZ
 70
     0
  9
$DIMALTTZ
 70
     0
  9
$DIMUPT
 70
     0
  9
$DIMDEC
 70
     4
  9
$DIMTDEC
 70
     4
  9
$DIMALTU
 70
     2
  9
$DIMALTTD
 70
     2
  9
$DIMTXSTY
  7
STANDARD
  9
$DIMAUNIT
 70
     0
  9
$DIMADEC
 70
     0
  9
$DIMALTRND
 40
0.0
  9
$DIMAZIN
 70
     0
  9
$DIMDSEP
 70
    46
  9
$DIMATFIT
 70
     3
  9
$DIMFRAC
 70
     0
  9
$DIMLDRBLK
  1

  9
$DIMLUNIT
 70
     2
  9
$DIMLWD
 70
    -2
  9
$DIMLWE
 70
    -2
  9
$DIMTMOVE
 70
     0
  9
$LUNITS
 70
     2
  9
$LUPREC
 70
     4
  9
$SKETCHINC
 40
1.0
  9
$FILLETRAD
 40
2.0
  9
$AUNITS
 70
     0
  9
$AUPREC
 70
     2
  9
$MENU
  1
.
  9
$ELEVATION
 40
0.0
  9
$PELEVATION
 40
0.0
  9
$THICKNESS
 40
0.0
  9
$LIMCHECK
 70
     0
  9
$CHAMFERA
 40
10.0
  9
$CHAMFERB
 40
10.0
  9
$CHAMFERC
 40
0.0
  9
$CHAMFERD
 40
0.0
  9
$SKPOLY
 70
     0
  9
$TDCREATE
 40
2451301.459548148
  9
$TDUCREATE
 40
2451301.084548148
  9
$TDUPDATE
 40
2457192.690417258
  9
$TDUUPDATE
 40
2457192.315417257
  9
$TDINDWG
 40
0.1054688079
  9
$TDUSRTIMER
 40
0.1054685185
  9
$USRTIMER
 70
     1
  9
$ANGBASE
 50
0.0
  9
$ANGDIR
 70
     0
  9
$PDMODE
 70
     0
  9
$PDSIZE
 40
0.0
  9
$PLINEWID
 40
0.0
  9
$SPLFRAME
 70
     0
  9
$SPLINETYPE
 70
     6
  9
$SPLINESEGS
 70
     8
  9
$HANDSEED
  5
A25F
  9
$SURFTAB1
 70
     6
  9
$SURFTAB2
 70
     6
  9
$SURFTYPE
 70
     6
  9
$SURFU
 70
     6
  9
$SURFV
 70
     6
  9
$UCSBASE
  2

  9
$UCSNAME
  2

  9
$UCSORG
 10
0.0
 20
0.0
 30
0.0
  9
$UCSXDIR
 10
1.0
 20
0.0
 30
0.0
  9
$UCSYDIR
 10
0.0
 20
1.0
 30
0.0
  9
$UCSORTHOREF
  2

  9
$UCSORTHOVIEW
 70
     0
  9
$UCSORGTOP
 10
0.0
 20
0.0
 30
0.0
  9
$UCSORGBOTTOM
 10
0.0
 20
0.0
 30
0.0
  9
$UCSORGLEFT
 10
0.0
 20
0.0
 30
0.0
  9
$UCSORGRIGHT
 10
0.0
 20
0.0
 30
0.0
  9
$UCSORGFRONT
 10
0.0
 20
0.0
 30
0.0
  9
$UCSORGBACK
 10
0.0
 20
0.0
 30
0.0
  9
$PUCSBASE
  2

  9
$PUCSNAME
  2

  9
$PUCSORG
 10
0.0
 20
0.0
 30
0.0
  9
$PUCSXDIR
 10
1.0
 20
0.0
 30
0.0
  9
$PUCSYDIR
 10
0.0
 20
1.0
 30
0.0
  9
$PUCSORTHOREF
  2

  9
$PUCSORTHOVIEW
 70
     0
  9
$PUCSORGTOP
 10
0.0
 20
0.0
 30
0.0
  9
$PUCSORGBOTTOM
 10
0.0
 20
0.0
 30
0.0
  9
$PUCSORGLEFT
 10
0.0
 20
0.0
 30
0.0
  9
$PUCSORGRIGHT
 10
0.0
 20
0.0
 30
0.0
  9
$PUCSORGFRONT
 10
0.0
 20
0.0
 30
0.0
  9
$PUCSORGBACK
 10
0.0
 20
0.0
 30
0.0
  9
$USERI1
 70
     0
  9
$USERI2
 70
     0
  9
$USERI3
 70
     0
  9
$USERI4
 70
     0
  9
$USERI5
 70
     0
  9
$USERR1
 40
0.0
  9
$USERR2
 40
0.0
  9
$USERR3
 40
0.0
  9
$USERR4
 40
0.0
  9
$USERR5
 40
0.0
  9
$WORLDVIEW
 70
     1
  9
$SHADEDGE
 70
     3
  9
$SHADEDIF
 70
    70
  9
$TILEMODE
 70
     1
  9
$MAXACTVP
 70
    16
  9
$PINSBASE
 10
0.0
 20
0.0
 30
0.0
  9
$PLIMCHECK
 70
     0
  9
$PEXTMIN
 10
1.000000000000000E+20
 20
1.000000000000000E+20
 30
1.000000000000000E+20
  9
$PEXTMAX
 10
-1.000000000000000E+20
 20
-1.000000000000000E+20
 30
-1.000000000000000E+20
  9
$PLIMMIN
 10
0.0
 20
0.0
  9
$PLIMMAX
 10
420.0
 20
297.0
  9
$UNITMODE
 70
     0
  9
$VISRETAIN
 70
     0
  9
$PLINEGEN
 70
     0
  9
$PSLTSCALE
 70
     0
  9
$TREEDEPTH
 70
  3020
  9
$CMLSTYLE
  2
STANDARD
  9
$CMLJUST
 70
     0
  9
$CMLSCALE
 40
1.0
  9
$PROXYGRAPHICS
 70
     1
  9
$MEASUREMENT
 70
     0
  9
$CELWEIGHT
370
    -1
  9
$ENDCAPS
280
     0
  9
$JOINSTYLE
280
     0
  9
$LWDISPLAY
290
     0
  9
$INSUNITS
 70
     0
  9
$HYPERLINKBASE
  1

  9
$STYLESHEET
  1

  9
$XEDIT
290
     1
  9
$CEPSNTYPE
380
     0
  9
$PSTYLEMODE
290
     1
  9
$FINGERPRINTGUID
  2
{71F703ED-5007-4C0D-A1AE-588DC5E9EF2C}
  9
$VERSIONGUID
  2
{40313958-C980-4287-972E-E6550AE60F6E}
  9
$EXTNAMES
290
     1
  9
$PSVPSCALE
 40
0.0
  9
$OLESTARTUP
290
     0
  0
ENDSEC
  0
SECTION
  2
CLASSES
  0
CLASS
  1
ACDBDICTIONARYWDFLT
  2
AcDbDictionaryWithDefault
  3
ObjectDBX Classes
 90
        0
280
     0
281
     0
  0
CLASS
  1
ACDBPLACEHOLDER
  2
AcDbPlaceHolder
  3
ObjectDBX Classes
 90
        0
280
     0
281
     0
  0
CLASS
  1
LAYOUT
  2
AcDbLayout
  3
ObjectDBX Classes
 90
        0
280
     0
281
     0
  0
CLASS
  1
DICTIONARYVAR
  2
AcDbDictionaryVar
  3
ObjectDBX Classes
 90
        0
280
     0
281
     0
  0
CLASS
  1
MATERIAL
  2
AcDbMaterial
  3
ObjectDBX Classes
 90
     1153
280
     0
281
     0
  0
CLASS
  1
VISUALSTYLE
  2
AcDbVisualStyle
  3
ObjectDBX Classes
 90
     4095
280
     0
281
     0
  0
CLASS
  1
TABLESTYLE
  2
AcDbTableStyle
  3
ObjectDBX Classes
 90
     4095
280
     0
281
     0
  0
CLASS
  1
SCALE
  2
AcDbScale
  3
ObjectDBX Classes
 90
     1153
280
     0
281
     0
  0
CLASS
  1
MLEADERSTYLE
  2
AcDbMLeaderStyle
  3
ACDB_MLEADERSTYLE_CLASS
 90
     4095
280
     0
281
     0
  0
CLASS
  1
ACDBSECTIONVIEWSTYLE
  2
AcDbSectionViewStyle
  3
ObjectDBX Classes
 90
     1025
280
     0
281
     0
  0
CLASS
  1
ACDBDETAILVIEWSTYLE
  2
AcDbDetailViewStyle
  3
ObjectDBX Classes
 90
     1025
280
     0
281
     0
  0
CLASS
  1
CELLSTYLEMAP
  2
AcDbCellStyleMap
  3
ObjectDBX Classes
 90
     1152
280
     0
281
     0
  0
ENDSEC
  0
SECTION
  2
TABLES
  0
TABLE
  2
VPORT
  5
9FAF
330
0
100
AcDbSymbolTable
 70
     1
  0
VPORT
  5
A1AA
330
9FAF
100
AcDbSymbolTableRecord
100
AcDbViewportTableRecord
  2
*ACTIVE
 70
     0
 10
0.0
 20
0.0
 11
1.0
 21
1.0
 12
376.3757065674544
 22
178.9431931691949
 13
0.0
 23
0.0
 14
10.0
 24
10.0
 15
10.0
 25
10.0
 16
0.0
 26
0.0
 36
1.0
 17
0.0
 27
0.0
 37
0.0
 40
340.5675810221902
 41
2.35006605019815
 42
50.0
 43
0.0
 44
0.0
 50
0.0
 51
0.0
 71
     0
 72
   100
 73
     1
 74
     0
 75
     0
 76
     0
 77
     0
 78
     0
281
     0
 65
     1
110
0.0
120
0.0
130
0.0
111
1.0
121
0.0
131
0.0
112
0.0
122
1.0
132
0.0
 79
     0
146
0.0
1001
ACAD_NAV_VCDISPLAY
1070
     3
  0
ENDTAB
  0
TABLE
  2
LTYPE
  5
9FAC
330
0
100
AcDbSymbolTable
 70
     4
  0
LTYPE
  5
9FBA
330
9FAC
100
AcDbSymbolTableRecord
100
AcDbLinetypeTableRecord
  2
BYBLOCK
 70
     0
  3

 72
    65
 73
     0
 40
0.0
  0
LTYPE
  5
9FBB
330
9FAC
100
AcDbSymbolTableRecord
100
AcDbLinetypeTableRecord
  2
BYLAYER
 70
     0
  3

 72
    65
 73
     0
 40
0.0
  0
LTYPE
  5
9FBC
330
9FAC
100
AcDbSymbolTableRecord
100
AcDbLinetypeTableRecord
  2
CONTINUOUS
 70
     0
  3
Solid line
 72
    65
 73
     0
 40
0.0
  0
LTYPE
  5
9FCA
330
9FAC
100
AcDbSymbolTableRecord
100
AcDbLinetypeTableRecord
  2
DASHED
 70
     0
  3
__ __ __ __ __ __ __ __ __ __ __ __ __ __ __ __
 72
    65
 73
     2
 40
0.75
 49
0.5
 74
     0
 49
-0.25
 74
     0
  0
LTYPE
  5
9FCB
330
9FAC
100
AcDbSymbolTableRecord
100
AcDbLinetypeTableRecord
  2
CENTER
 70
     0
  3
____ _ ____ _ ____ _ ____ _ ____ _ ____ _ ____ 
 72
    65
 73
     4
 40
2.0
 49
1.25
 74
     0
 49
-0.25
 74
     0
 49
0.25
 74
     0
 49
-0.25
 74
     0
  0
LTYPE
  5
9FCC
330
9FAC
100
AcDbSymbolTableRecord
100
AcDbLinetypeTableRecord
  2
PHANTOM
 70
     0
  3
______  __  __  ______  __  __  ______  __  __ 
 72
    65
 73
     6
 40
2.5
 49
1.25
 74
     0
 49
-0.25
 74
     0
 49
0.25
 74
     0
 49
-0.25
 74
     0
 49
0.25
 74
     0
 49
-0.25
 74
     0
  0
ENDTAB
  0
TABLE
  2
LAYER
  5
9FA9
330
0
100
AcDbSymbolTable
 70
     8
  0
LAYER
  5
9FB7
102
{ACAD_XDICTIONARY
360
A203
102
}
330
9FA9
100
AcDbSymbolTableRecord
100
AcDbLayerTableRecord
  2
0
 70
     0
 62
     7
  6
CONTINUOUS
370
    -3
390
A1B1
  0
LAYER
  5
9FCD
102
{ACAD_XDICTIONARY
360
A205
102
}
330
9FA9
100
AcDbSymbolTableRecord
100
AcDbLayerTableRecord
  2
4
 70
     0
 62
     1
  6
CENTER
370
    -3
390
A1B1
  0
LAYER
  5
9FCE
102
{ACAD_XDICTIONARY
360
A207
102
}
330
9FA9
100
AcDbSymbolTableRecord
100
AcDbLayerTableRecord
  2
5
 70
     0
 62
     6
  6
PHANTOM
370
    -3
390
A1B1
  0
LAYER
  5
9FCF
102
{ACAD_XDICTIONARY
360
A209
102
}
330
9FA9
100
AcDbSymbolTableRecord
100
AcDbLayerTableRecord
  2
1
 70
     0
 62
     7
  6
CONTINUOUS
370
    -3
390
A1B1
  0
LAYER
  5
9FD0
102
{ACAD_XDICTIONARY
360
A20B
102
}
330
9FA9
100
AcDbSymbolTableRecord
100
AcDbLayerTableRecord
  2
2
 70
     0
 62
     4
  6
CONTINUOUS
370
    -3
390
A1B1
  0
LAYER
  5
9FD1
102
{ACAD_XDICTIONARY
360
A20D
102
}
330
9FA9
100
AcDbSymbolTableRecord
100
AcDbLayerTableRecord
  2
3
 70
     0
 62
     2
  6
DASHED
370
    -3
390
A1B1
  0
LAYER
  5
9FD2
102
{ACAD_XDICTIONARY
360
A20F
102
}
330
9FA9
100
AcDbSymbolTableRecord
100
AcDbLayerTableRecord
  2
6
 70
     0
 62
     5
  6
CONTINUOUS
370
    -3
390
A1B1
  0
LAYER
  5
9FD3
102
{ACAD_XDICTIONARY
360
A211
102
}
330
9FA9
100
AcDbSymbolTableRecord
100
AcDbLayerTableRecord
  2
7
 70
     0
 62
     3
  6
CONTINUOUS
370
    -3
390
A1B1
  0
ENDTAB
  0
TABLE
  2
STYLE
  5
9FAA
330
0
100
AcDbSymbolTable
 70
     1
  0
STYLE
  5
9FB8
330
9FAA
100
AcDbSymbolTableRecord
100
AcDbTextStyleTableRecord
  2
STANDARD
 70
     0
 40
0.0
 41
1.0
 50
0.0
 71
     0
 42
5.0
  3
txt
  4

  0
ENDTAB
  0
TABLE
  2
VIEW
  5
9FAD
330
0
100
AcDbSymbolTable
 70
     0
  0
ENDTAB
  0
TABLE
  2
UCS
  5
9FAE
330
0
100
AcDbSymbolTable
 70
     0
  0
ENDTAB
  0
TABLE
  2
APPID
  5
9FB0
330
0
100
AcDbSymbolTable
 70
     3
  0
APPID
  5
9FB9
330
9FB0
100
AcDbSymbolTableRecord
100
AcDbRegAppTableRecord
  2
ACAD
 70
     0
  0
APPID
  5
A21D
330
9FB0
100
AcDbSymbolTableRecord
100
AcDbRegAppTableRecord
  2
ACAD_NAV_VCDISPLAY
 70
     0
  0
APPID
  5
A256
330
9FB0
100
AcDbSymbolTableRecord
100
AcDbRegAppTableRecord
  2
ACAD_MLEADERVER
 70
     0
  0
ENDTAB
  0
TABLE
  2
DIMSTYLE
  5
9FB1
330
0
100
AcDbSymbolTable
 70
     1
100
AcDbDimStyleTable
 71
     0
  0
DIMSTYLE
105
9FD5
330
9FB1
100
AcDbSymbolTableRecord
100
AcDbDimStyleTableRecord
  2
STANDARD
 70
     0
 41
2.5
 42
1.0
 43
10.0
 44
1.0
 73
     0
 74
     0
 77
     3
 78
     8
140
3.2
141
0.0
147
1.0
172
     1
173
     1
284
     8
285
     8
286
     8
340
9FB8
  0
ENDTAB
  0
TABLE
  2
BLOCK_RECORD
  5
9FA8
330
0
100
AcDbSymbolTable
 70
     0
  0
BLOCK_RECORD
  5
9FC5
102
{ACAD_XDICTIONARY
360
A18E
102
}
330
9FA8
100
AcDbSymbolTableRecord
100
AcDbBlockTableRecord
  2
*MODEL_SPACE
340
A1FF
  0
BLOCK_RECORD
  5
9FC1
102
{ACAD_XDICTIONARY
360
A18C
102
}
330
9FA8
100
AcDbSymbolTableRecord
100
AcDbBlockTableRecord
  2
*PAPER_SPACE
340
A200
  0
ENDTAB
  0
ENDSEC
  0
SECTION
  2
BLOCKS
  0
BLOCK
  5
9FC6
330
9FC5
100
AcDbEntity
  8
0
100
AcDbBlockBegin
  2
*MODEL_SPACE
 70
     0
 10
0.0
 20
0.0
 30
0.0
  3
*MODEL_SPACE
  1

  0
ENDBLK
  5
9FC7
330
9FC5
100
AcDbEntity
  8
0
100
AcDbBlockEnd
  0
BLOCK
  5
9FC2
330
9FC1
100
AcDbEntity
 67
     1
  8
0
100
AcDbBlockBegin
  2
*PAPER_SPACE
 70
     0
 10
0.0
 20
0.0
 30
0.0
  3
*PAPER_SPACE
  1

  0
ENDBLK
  5
9FC3
330
9FC1
100
AcDbEntity
 67
     1
  8
0
100
AcDbBlockEnd
  0
ENDSEC
  0
SECTION
  2
ENTITIES
  0
TEXT
  5
9FDD
330
9FC5
100
AcDbEntity
  8
7
  6
Continuous
100
AcDbText
 10
10.0
 20
18.0
 30
0.0
 40
3.0
  1
TYPE No.TCA-420G-C65
100
AcDbText
  0
TEXT
  5
9FDE
330
9FC5
100
AcDbEntity
  8
7
  6
Continuous
100
AcDbText
 10
10.0
 20
26.0
 30
0.0
 40
3.0
  1
CODE No.9711
100
AcDbText
  0
TEXT
  5
9FDF
330
9FC5
100
AcDbEntity
  8
1
  6
Continuous
100
AcDbText
 10
10.0
 20
10.0
 30
0.0
 40
1.399999999999999
  1
LAYER
100
AcDbText
  0
TEXT
  5
9FE0
330
9FC5
100
AcDbEntity
  8
1
  6
Continuous
100
AcDbText
 10
17.97951099999998
 20
10.04873699999998
 30
0.0
 40
1.399999999999999
  1
1
100
AcDbText
  0
TEXT
  5
9FE1
330
9FC5
100
AcDbEntity
  8
7
  6
Continuous
100
AcDbText
 10
29.97951099999999
 20
10.04873699999998
 30
0.0
 40
1.399999999999999
  1
7
100
AcDbText
  0
TEXT
  5
9FE2
330
9FC5
100
AcDbEntity
  8
4
  6
CENTER
100
AcDbText
 10
23.97951099999999
 20
10.04873699999998
 30
0.0
 40
1.399999999999999
  1
4
100
AcDbText
  0
TEXT
  5
9FE3
330
9FC5
100
AcDbEntity
  8
3
  6
DASHED
100
AcDbText
 10
21.979511
 20
10.04873699999998
 30
0.0
 40
1.399999999999999
  1
3
100
AcDbText
  0
TEXT
  5
9FE4
330
9FC5
100
AcDbEntity
  8
2
  6
Continuous
100
AcDbText
 10
19.97951099999998
 20
10.04873699999998
 30
0.0
 40
1.399999999999999
  1
2
100
AcDbText
  0
TEXT
  5
9FE5
330
9FC5
100
AcDbEntity
  8
6
  6
Continuous
100
AcDbText
 10
27.979511
 20
10.04873699999998
 30
0.0
 40
1.399999999999999
  1
6
100
AcDbText
  0
TEXT
  5
9FE6
330
9FC5
100
AcDbEntity
  8
5
  6
PHANTOM
100
AcDbText
 10
25.97951099999999
 20
10.04873699999998
 30
0.0
 40
1.399999999999999
  1
5
100
AcDbText
  0
LINE
  5
9FE7
330
9FC5
100
AcDbEntity
  8
4
  6
CENTER
 48
0.8
100
AcDbLine
 10
56.13148699999999
 20
237.3915799999998
 30
0.0
 11
56.13148699999999
 21
147.64158
 31
0.0
  0
LINE
  5
9FE8
330
9FC5
100
AcDbEntity
  8
1
  6
Continuous
100
AcDbLine
 10
35.13149699999999
 20
224.9915779999998
 30
0.0
 11
77.13148699999995
 21
224.9915779999998
 31
0.0
  0
LINE
  5
9FE9
330
9FC5
100
AcDbEntity
  8
4
  6
CENTER
 48
0.8
100
AcDbLine
 10
30.831487
 20
184.89158
 30
0.0
 11
82.63147899999998
 21
184.89158
 31
0.0
  0
LINE
  5
9FEA
330
9FC5
100
AcDbEntity
  8
1
  6
Continuous
100
AcDbLine
 10
80.63148699999997
 20
221.4915779999997
 30
0.0
 11
80.63148699999997
 21
198.476632
 31
0.0
  0
LINE
  5
9FEB
330
9FC5
100
AcDbEntity
  8
1
  6
Continuous
100
AcDbLine
 10
40.131487
 20
180.89158
 30
0.0
 11
41.13148699999999
 21
180.89158
 31
0.0
  0
LINE
  5
9FEC
330
9FC5
100
AcDbEntity
  8
1
  6
Continuous
100
AcDbLine
 10
40.131487
 20
188.89158
 30
0.0
 11
41.13148699999999
 21
188.89158
 31
0.0
  0
LINE
  5
9FED
330
9FC5
100
AcDbEntity
  8
1
  6
Continuous
100
AcDbLine
 10
66.13148699999999
 20
222.77115
 30
0.0
 11
66.13148699999999
 21
220.06949
 31
0.0
  0
LINE
  5
9FEE
330
9FC5
100
AcDbEntity
  8
1
  6
Continuous
100
AcDbLine
 10
67.13148699999999
 20
222.77115
 30
0.0
 11
67.13148699999999
 21
220.0695909999998
 31
0.0
  0
LINE
  5
9FEF
330
9FC5
100
AcDbEntity
  8
1
  6
Continuous
100
AcDbLine
 10
46.13148699999999
 20
222.77115
 30
0.0
 11
46.13148699999999
 21
219.9785279999999
 31
0.0
  0
LINE
  5
9FF0
330
9FC5
100
AcDbEntity
  8
1
  6
Continuous
100
AcDbLine
 10
45.131487
 20
222.77115
 30
0.0
 11
45.131487
 21
220.0687349999999
 31
0.0
  0
LINE
  5
9FF1
330
9FC5
100
AcDbEntity
  8
1
  6
Continuous
100
AcDbLine
 10
37.382477
 20
190.56727
 30
0.0
 11
37.831477
 21
188.8915879999999
 31
0.0
  0
LINE
  5
9FF2
330
9FC5
100
AcDbEntity
  8
1
  6
Continuous
100
AcDbLine
 10
37.382497
 20
179.2159059999999
 30
0.0
 11
37.831487
 21
180.89158
 31
0.0
  0
LINE
  5
9FF3
330
9FC5
100
AcDbEntity
  8
1
  6
Continuous
100
AcDbLine
 10
74.43148199999997
 20
190.89158
 30
0.0
 11
75.631479
 21
190.89158
 31
0.0
  0
LINE
  5
9FF4
330
9FC5
100
AcDbEntity
  8
1
  6
Continuous
100
AcDbLine
 10
74.43148199999997
 20
178.89158
 30
0.0
 11
75.631479
 21
178.89158
 31
0.0
  0
LINE
  5
9FF5
330
9FC5
100
AcDbEntity
  8
1
  6
Continuous
100
AcDbLine
 10
77.63147899999998
 20
188.89158
 30
0.0
 11
77.63147899999998
 21
180.89158
 31
0.0
  0
LINE
  5
9FF6
330
9FC5
100
AcDbEntity
  8
1
  6
Continuous
100
AcDbLine
 10
35.83148700000001
 20
189.068147
 30
0.0
 11
35.83148700000001
 21
180.7150359999999
 31
0.0
  0
LINE
  5
9FF7
330
9FC5
100
AcDbEntity
  8
1
  6
Continuous
100
AcDbLine
 10
37.382457
 20
179.215898
 30
0.0
 11
37.382457
 21
190.5672769999999
 31
0.0
  0
LINE
  5
9FF8
330
9FC5
100
AcDbEntity
  8
4
  6
CENTER
 48
0.8
100
AcDbLine
 10
191.1314869999999
 20
237.3915799999998
 30
0.0
 11
191.1314869999999
 21
191.2811979999999
 31
0.0
  0
LINE
  5
9FF9
330
9FC5
100
AcDbEntity
  8
1
  6
Continuous
100
AcDbLine
 10
169.431486
 20
224.9915779999998
 30
0.0
 11
212.1314869999999
 21
224.9915779999998
 31
0.0
  0
LINE
  5
9FFA
330
9FC5
100
AcDbEntity
  8
4
  6
CENTER
 48
0.8
100
AcDbLine
 10
132.631487
 20
184.89158
 30
0.0
 11
207.631487
 21
184.89158
 31
0.0
  0
LINE
  5
9FFB
330
9FC5
100
AcDbEntity
  8
4
  6
CENTER
 48
0.8
100
AcDbLine
 10
170.131487
 20
219.8915819999998
 30
0.0
 11
170.131487
 21
147.39158
 31
0.0
  0
LINE
  5
9FFC
330
9FC5
100
AcDbEntity
  8
1
  6
Continuous
100
AcDbLine
 10
191.131458
 20
320.291672
 30
0.0
 11
191.131459
 21
307.491563
 31
0.0
  0
LINE
  5
9FFD
330
9FC5
100
AcDbEntity
  8
1
  6
Continuous
100
AcDbLine
 10
184.7313189999999
 20
313.8915749999998
 30
0.0
 11
197.5314619999998
 21
313.8915759999998
 31
0.0
  0
LINE
  5
9FFE
330
9FC5
100
AcDbEntity
  8
1
  6
Continuous
100
AcDbLine
 10
192.377879
 20
315.1380299999999
 30
0.0
 11
191.131442
 21
313.891593
 31
0.0
  0
LINE
  5
9FFF
330
9FC5
100
AcDbEntity
  8
1
  6
Continuous
100
AcDbLine
 10
192.3778889999999
 20
312.6451149999998
 30
0.0
 11
191.131437
 21
313.891567
 31
0.0
  0
LINE
  5
A000
330
9FC5
100
AcDbEntity
  8
1
  6
Continuous
100
AcDbLine
 10
189.8849889999999
 20
315.1379989999998
 30
0.0
 11
191.1314349999999
 21
313.8915529999998
 31
0.0
  0
LINE
  5
A001
330
9FC5
100
AcDbEntity
  8
1
  6
Continuous
100
AcDbLine
 10
189.885036
 20
312.6450950000001
 30
0.0
 11
191.131479
 21
313.8915379999999
 31
0.0
  0
LINE
  5
A002
330
9FC5
100
AcDbEntity
  8
1
  6
Continuous
100
AcDbLine
 10
156.1314869999999
 20
232.3915799999999
 30
0.0
 11
226.131487
 21
232.3915799999999
 31
0.0
  0
LINE
  5
A003
330
9FC5
100
AcDbEntity
  8
1
  6
Continuous
100
AcDbLine
 10
156.1314869999999
 20
230.091584
 30
0.0
 11
156.1314869999999
 21
232.391583
 31
0.0
  0
LINE
  5
A004
330
9FC5
100
AcDbEntity
  8
1
  6
Continuous
100
AcDbLine
 10
156.1314869999999
 20
230.0915809999999
 30
0.0
 11
226.131487
 21
230.0915809999999
 31
0.0
  0
LINE
  5
A005
330
9FC5
100
AcDbEntity
  8
4
  6
CENTER
 48
0.8
100
AcDbLine
 10
163.6314869999999
 20
225.0915809999999
 30
0.0
 11
163.6314869999999
 21
237.3915799999998
 31
0.0
  0
LINE
  5
A006
330
9FC5
100
AcDbEntity
  8
1
  6
Continuous
100
AcDbLine
 10
168.681486
 20
226.4915779999999
 30
0.0
 11
213.584619
 21
226.4915779999999
 31
0.0
  0
LINE
  5
A007
330
9FC5
100
AcDbEntity
  8
1
  6
Continuous
100
AcDbLine
 10
164.8814899999998
 20
230.091583
 30
0.0
 11
165.424109
 21
228.711163
 31
0.0
  0
LINE
  5
A008
330
9FC5
100
AcDbEntity
  8
1
  6
Continuous
100
AcDbLine
 10
226.131487
 20
230.0915779999999
 30
0.0
 11
226.131487
 21
232.3915799999999
 31
0.0
  0
LINE
  5
A009
330
9FC5
100
AcDbEntity
  8
4
  6
CENTER
 48
0.8
100
AcDbLine
 10
218.6314869999999
 20
225.0915809999999
 30
0.0
 11
218.6314869999999
 21
237.3915799999998
 31
0.0
  0
LINE
  5
A00A
330
9FC5
100
AcDbEntity
  8
1
  6
Continuous
100
AcDbLine
 10
217.3814829999999
 20
230.0915759999998
 30
0.0
 11
216.838865
 21
228.711155
 31
0.0
  0
LINE
  5
A00B
330
9FC5
100
AcDbEntity
  8
1
  6
Continuous
100
AcDbLine
 10
27.131487
 20
232.3915799999999
 30
0.0
 11
85.131487
 21
232.3915799999999
 31
0.0
  0
LINE
  5
A00C
330
9FC5
100
AcDbEntity
  8
1
  6
Continuous
100
AcDbLine
 10
27.131487
 20
230.0915809999999
 30
0.0
 11
85.131487
 21
230.0915809999999
 31
0.0
  0
LINE
  5
A00D
330
9FC5
100
AcDbEntity
  8
1
  6
Continuous
100
AcDbLine
 10
33.68148699999998
 20
226.4915779999999
 30
0.0
 11
78.584615
 21
226.4915779999999
 31
0.0
  0
LINE
  5
A00E
330
9FC5
100
AcDbEntity
  8
1
  6
Continuous
100
AcDbLine
 10
29.88149699999999
 20
230.091584
 30
0.0
 11
30.424117
 21
228.711164
 31
0.0
  0
LINE
  5
A00F
330
9FC5
100
AcDbEntity
  8
1
  6
Continuous
100
AcDbLine
 10
82.38148699999998
 20
230.091574
 30
0.0
 11
81.83886899999997
 21
228.7111529999999
 31
0.0
  0
LINE
  5
A010
330
9FC5
100
AcDbEntity
  8
1
  6
Continuous
100
AcDbLine
 10
85.131487
 20
232.3915799999999
 30
0.0
 11
85.131487
 21
230.0915809999999
 31
0.0
  0
LINE
  5
A011
330
9FC5
100
AcDbEntity
  8
1
  6
Continuous
100
AcDbLine
 10
27.131487
 20
232.3915799999999
 30
0.0
 11
27.131487
 21
230.0915809999999
 31
0.0
  0
LINE
  5
A012
330
9FC5
100
AcDbEntity
  8
4
  6
CENTER
 48
0.8
100
AcDbLine
 10
77.13148699999995
 20
237.3915799999998
 30
0.0
 11
77.13148699999995
 21
225.0915809999999
 31
0.0
  0
LINE
  5
A013
330
9FC5
100
AcDbEntity
  8
4
  6
CENTER
 48
0.8
100
AcDbLine
 10
35.131487
 20
237.3915799999998
 30
0.0
 11
35.131487
 21
225.0915809999999
 31
0.0
  0
LINE
  5
A014
330
9FC5
100
AcDbEntity
  8
4
  6
CENTER
 48
0.8
100
AcDbLine
 10
191.1314869999999
 20
347.8915799999999
 30
0.0
 11
191.1314869999999
 21
279.8915799999999
 31
0.0
  0
LINE
  5
A015
330
9FC5
100
AcDbEntity
  8
4
  6
CENTER
 48
0.8
100
AcDbLine
 10
132.8814869999999
 20
313.8915799999998
 30
0.0
 11
227.822397
 21
313.8915799999998
 31
0.0
  0
LINE
  5
A016
330
9FC5
100
AcDbEntity
  8
1
  6
Continuous
100
AcDbLine
 10
163.6314849999999
 20
284.8915799999998
 30
0.0
 11
218.6314869999999
 21
284.8915799999998
 31
0.0
  0
LINE
  5
A017
330
9FC5
100
AcDbEntity
  8
1
  6
Continuous
100
AcDbLine
 10
163.6314889999999
 20
342.8915799999998
 30
0.0
 11
218.6314869999999
 21
342.8915799999998
 31
0.0
  0
LINE
  5
A018
330
9FC5
100
AcDbEntity
  8
4
  6
CENTER
 48
0.8
100
AcDbLine
 10
163.6314869999999
 20
298.89158
 30
0.0
 11
163.6314869999999
 21
286.8915799999998
 31
0.0
  0
LINE
  5
A019
330
9FC5
100
AcDbEntity
  8
4
  6
CENTER
 48
0.8
100
AcDbLine
 10
157.631487
 20
292.89158
 30
0.0
 11
169.631485
 21
292.89158
 31
0.0
  0
LINE
  5
A01A
330
9FC5
100
AcDbEntity
  8
4
  6
CENTER
 48
0.8
100
AcDbLine
 10
163.6314869999999
 20
328.8915799999998
 30
0.0
 11
163.6314869999999
 21
340.8915799999998
 31
0.0
  0
LINE
  5
A01B
330
9FC5
100
AcDbEntity
  8
4
  6
CENTER
 48
0.8
100
AcDbLine
 10
157.631487
 20
334.8915799999998
 30
0.0
 11
169.631489
 21
334.8915799999998
 31
0.0
  0
LINE
  5
A01C
330
9FC5
100
AcDbEntity
  8
4
  6
CENTER
 48
0.8
100
AcDbLine
 10
218.6314869999999
 20
298.89158
 30
0.0
 11
218.6314869999999
 21
286.8915799999998
 31
0.0
  0
LINE
  5
A01D
330
9FC5
100
AcDbEntity
  8
4
  6
CENTER
 48
0.8
100
AcDbLine
 10
224.6314869999999
 20
292.89158
 30
0.0
 11
212.6314869999999
 21
292.89158
 31
0.0
  0
LINE
  5
A01E
330
9FC5
100
AcDbEntity
  8
4
  6
CENTER
 48
0.8
100
AcDbLine
 10
218.6314869999999
 20
328.8915799999998
 30
0.0
 11
218.6314869999999
 21
340.8915799999998
 31
0.0
  0
LINE
  5
A01F
330
9FC5
100
AcDbEntity
  8
4
  6
CENTER
 48
0.8
100
AcDbLine
 10
224.6314869999999
 20
334.8915799999998
 30
0.0
 11
212.6314869999999
 21
334.8915799999998
 31
0.0
  0
LINE
  5
A020
330
9FC5
100
AcDbEntity
  8
1
  6
Continuous
100
AcDbLine
 10
209.930304
 20
217.9915779999999
 30
0.0
 11
215.631487
 21
217.9915779999999
 31
0.0
  0
LINE
  5
A021
330
9FC5
100
AcDbEntity
  8
1
  6
Continuous
100
AcDbLine
 10
165.931486
 20
221.4915779999997
 30
0.0
 11
165.931486
 21
219.191577
 31
0.0
  0
LINE
  5
A022
330
9FC5
100
AcDbEntity
  8
1
  6
Continuous
100
AcDbLine
 10
176.8990139999999
 20
179.7485669999999
 30
0.0
 11
203.6212319999999
 21
214.911494
 31
0.0
  0
LINE
  5
A023
330
9FC5
100
AcDbEntity
  8
1
  6
Continuous
100
AcDbLine
 10
161.6728259999999
 20
185.7288719999999
 30
0.0
 11
164.4790739999999
 21
214.078689
 31
0.0
  0
LINE
  5
A024
330
9FC5
100
AcDbEntity
  8
1
  6
Continuous
100
AcDbLine
 10
74.43148999999998
 20
214.291891
 30
0.0
 11
74.43148999999998
 21
176.39158
 31
0.0
  0
LINE
  5
A025
330
9FC5
100
AcDbEntity
  8
1
  6
Continuous
100
AcDbLine
 10
72.13148699999995
 20
214.191579
 30
0.0
 11
72.13148699999995
 21
176.39158
 31
0.0
  0
LINE
  5
A026
330
9FC5
100
AcDbEntity
  8
1
  6
Continuous
100
AcDbLine
 10
69.63148699999999
 20
220.191579
 30
0.0
 11
72.88148699999998
 21
220.191579
 31
0.0
  0
LINE
  5
A027
330
9FC5
100
AcDbEntity
  8
1
  6
Continuous
100
AcDbLine
 10
68.113848
 20
220.4234309999999
 30
0.0
 11
68.81673599999999
 21
220.61177
 31
0.0
  0
LINE
  5
A028
330
9FC5
100
AcDbEntity
  8
1
  6
Continuous
100
AcDbLine
 10
42.631487
 20
220.191579
 30
0.0
 11
39.381487
 21
220.191579
 31
0.0
  0
LINE
  5
A029
330
9FC5
100
AcDbEntity
  8
1
  6
Continuous
100
AcDbLine
 10
44.149127
 20
220.423435
 30
0.0
 11
43.44623699999998
 21
220.611774
 31
0.0
  0
LINE
  5
A02A
330
9FC5
100
AcDbEntity
  8
1
  6
Continuous
100
AcDbLine
 10
40.131487
 20
214.191579
 30
0.0
 11
40.131487
 21
176.39158
 31
0.0
  0
LINE
  5
A02B
330
9FC5
100
AcDbEntity
  8
1
  6
Continuous
100
AcDbLine
 10
37.831487
 20
214.291891
 30
0.0
 11
37.831487
 21
176.39158
 31
0.0
  0
LINE
  5
A02C
330
9FC5
100
AcDbEntity
  8
1
  6
Continuous
100
AcDbLine
 10
37.831487
 20
176.39158
 30
0.0
 11
40.131487
 21
176.39158
 31
0.0
  0
LINE
  5
A02D
330
9FC5
100
AcDbEntity
  8
1
  6
Continuous
100
AcDbLine
 10
72.13148699999995
 20
176.39158
 30
0.0
 11
74.43148999999998
 21
176.39158
 31
0.0
  0
LINE
  5
A02E
330
9FC5
100
AcDbEntity
  8
1
  6
Continuous
100
AcDbLine
 10
31.631487
 20
221.4915779999997
 30
0.0
 11
31.631487
 21
198.476632
 31
0.0
  0
LINE
  5
A02F
330
9FC5
100
AcDbEntity
  8
1
  6
Continuous
100
AcDbLine
 10
71.13148699999998
 20
188.89158
 30
0.0
 11
72.13148699999995
 21
188.89158
 31
0.0
  0
LINE
  5
A030
330
9FC5
100
AcDbEntity
  8
1
  6
Continuous
100
AcDbLine
 10
71.13148699999998
 20
180.89158
 30
0.0
 11
72.13148699999995
 21
180.89158
 31
0.0
  0
ARC
  5
A031
330
9FC5
100
AcDbEntity
  8
1
  6
Continuous
100
AcDbCircle
 10
68.63148699999999
 20
218.4915779999998
 30
0.0
 40
2.0
100
AcDbArc
 50
105.0000399999997
 51
155.3912799999999
  0
ARC
  5
A032
330
9FC5
100
AcDbEntity
  8
1
  6
Continuous
100
AcDbCircle
 10
64.63148699999999
 20
218.37034
 30
0.0
 40
2.0
100
AcDbArc
 50
28.99118899999999
 51
88.36554499999998
  0
ARC
  5
A033
330
9FC5
100
AcDbEntity
  8
1
  6
Continuous
100
AcDbCircle
 10
66.63148699999999
 20
220.307779
 30
0.0
 40
1.0
100
AcDbArc
 50
255.48635
 51
280.46622
  0
ARC
  5
A034
330
9FC5
100
AcDbEntity
  8
1
  6
Continuous
100
AcDbCircle
 10
43.63148699999999
 20
218.4915779999998
 30
0.0
 40
2.0
100
AcDbArc
 50
24.60868
 51
74.99999200000002
  0
ARC
  5
A035
330
9FC5
100
AcDbEntity
  8
1
  6
Continuous
100
AcDbCircle
 10
47.631487
 20
218.37034
 30
0.0
 40
2.0
100
AcDbArc
 50
91.634419
 51
151.0087799999998
  0
ARC
  5
A036
330
9FC5
100
AcDbEntity
  8
1
  6
Continuous
100
AcDbCircle
 10
45.631487
 20
220.307779
 30
0.0
 40
1.0
100
AcDbArc
 50
259.5337599999999
 51
284.5136299999998
  0
ARC
  5
A037
330
9FC5
100
AcDbEntity
  8
1
  6
Continuous
100
AcDbCircle
 10
75.631479
 20
188.89158
 30
0.0
 40
2.0
100
AcDbArc
 50
0.0
 51
89.99998199999996
  0
ARC
  5
A038
330
9FC5
100
AcDbEntity
  8
1
  6
Continuous
100
AcDbCircle
 10
75.631479
 20
180.89158
 30
0.0
 40
2.0
100
AcDbArc
 50
270.00002
 51
0.0
  0
ARC
  5
A039
330
9FC5
100
AcDbEntity
  8
1
  6
Continuous
100
AcDbCircle
 10
37.331487
 20
180.7150359999999
 30
0.0
 40
1.5
100
AcDbArc
 50
179.9999799999999
 51
271.94882
  0
ARC
  5
A03A
330
9FC5
100
AcDbEntity
  8
1
  6
Continuous
100
AcDbCircle
 10
37.331487
 20
189.068147
 30
0.0
 40
1.5
100
AcDbArc
 50
88.051186
 51
179.9999599999999
  0
CIRCLE
  5
A03B
330
9FC5
100
AcDbEntity
  8
1
  6
Continuous
100
AcDbCircle
 10
170.131487
 20
184.89158
 30
0.0
 40
1.5
  0
CIRCLE
  5
A03C
330
9FC5
100
AcDbEntity
  8
1
  6
Continuous
100
AcDbCircle
 10
170.131487
 20
184.89158
 30
0.0
 40
6.0
  0
ARC
  5
A03D
330
9FC5
100
AcDbEntity
  8
1
  6
Continuous
100
AcDbCircle
 10
165.888227
 20
224.4245339999999
 30
0.0
 40
5.0
100
AcDbArc
 50
270.4957299999999
 51
330.82976
  0
ARC
  5
A03E
330
9FC5
100
AcDbEntity
  8
1
  6
Continuous
100
AcDbCircle
 10
168.5186019999999
 20
219.5404579999999
 30
0.0
 40
3.0
100
AcDbArc
 50
54.65483599999998
 51
149.5839399999999
  0
ARC
  5
A03F
330
9FC5
100
AcDbEntity
  8
1
  6
Continuous
100
AcDbCircle
 10
168.681486
 20
229.9915799999999
 30
0.0
 40
3.5
100
AcDbArc
 50
201.4589299999999
 51
270.00002
  0
ARC
  5
A040
330
9FC5
100
AcDbEntity
  8
1
  6
Continuous
100
AcDbCircle
 10
213.5814879999998
 20
229.991577
 30
0.0
 40
3.5
100
AcDbArc
 50
270.00002
 51
338.5410199999999
  0
ARC
  5
A041
330
9FC5
100
AcDbEntity
  8
1
  6
Continuous
100
AcDbCircle
 10
207.381487
 20
226.566581
 30
0.0
 40
3.174999999999998
100
AcDbArc
 50
330.2600799999999
 51
0.0
  0
ARC
  5
A042
330
9FC5
100
AcDbEntity
  8
1
  6
Continuous
100
AcDbCircle
 10
191.1314869999999
 20
226.5665779999999
 30
0.0
 40
3.174999999999998
100
AcDbArc
 50
330.26013
 51
0.0
  0
ARC
  5
A043
330
9FC5
100
AcDbEntity
  8
1
  6
Continuous
100
AcDbCircle
 10
197.359102
 20
226.5665779999999
 30
0.0
 40
3.174999999999998
100
AcDbArc
 50
191.2671299999999
 51
209.7398499999999
  0
ARC
  5
A044
330
9FC5
100
AcDbEntity
  8
1
  6
Continuous
100
AcDbCircle
 10
202.6357589999999
 20
226.5665779999999
 30
0.0
 40
3.174999999999998
100
AcDbArc
 50
330.26013
 51
0.0
  0
ARC
  5
A045
330
9FC5
100
AcDbEntity
  8
1
  6
Continuous
100
AcDbCircle
 10
206.1557029999999
 20
226.5665779999999
 30
0.0
 40
3.174999999999998
100
AcDbArc
 50
330.26013
 51
0.0
  0
ARC
  5
A046
330
9FC5
100
AcDbEntity
  8
1
  6
Continuous
100
AcDbCircle
 10
174.8814869999999
 20
226.566581
 30
0.0
 40
3.174999999999998
100
AcDbArc
 50
179.9999599999999
 51
209.7398899999999
  0
ARC
  5
A047
330
9FC5
100
AcDbEntity
  8
1
  6
Continuous
100
AcDbCircle
 10
191.1314869999999
 20
226.5665779999999
 30
0.0
 40
3.174999999999998
100
AcDbArc
 50
179.9999599999999
 51
209.7398399999999
  0
ARC
  5
A048
330
9FC5
100
AcDbEntity
  8
1
  6
Continuous
100
AcDbCircle
 10
184.903872
 20
226.5665779999999
 30
0.0
 40
3.174999999999998
100
AcDbArc
 50
179.9999599999999
 51
209.7398399999999
  0
ARC
  5
A049
330
9FC5
100
AcDbEntity
  8
1
  6
Continuous
100
AcDbCircle
 10
179.627216
 20
226.5665779999999
 30
0.0
 40
3.174999999999998
100
AcDbArc
 50
179.9999599999999
 51
209.7398399999999
  0
ARC
  5
A04A
330
9FC5
100
AcDbEntity
  8
1
  6
Continuous
100
AcDbCircle
 10
176.107271
 20
226.5665779999999
 30
0.0
 40
3.174999999999998
100
AcDbArc
 50
179.9999599999999
 51
209.7398399999999
  0
ARC
  5
A04B
330
9FC5
100
AcDbEntity
  8
1
  6
Continuous
100
AcDbCircle
 10
33.68148699999998
 20
229.9915799999999
 30
0.0
 40
3.5
100
AcDbArc
 50
201.4589299999999
 51
270.00002
  0
ARC
  5
A04C
330
9FC5
100
AcDbEntity
  8
1
  6
Continuous
100
AcDbCircle
 10
78.58148400000001
 20
229.991577
 30
0.0
 40
3.5
100
AcDbArc
 50
270.00002
 51
338.5410199999999
  0
ARC
  5
A04D
330
9FC5
100
AcDbEntity
  8
1
  6
Continuous
100
AcDbCircle
 10
72.38148699999998
 20
226.566581
 30
0.0
 40
3.174999999999998
100
AcDbArc
 50
330.26005
 51
0.0
  0
ARC
  5
A04E
330
9FC5
100
AcDbEntity
  8
1
  6
Continuous
100
AcDbCircle
 10
56.13148699999999
 20
226.5665779999999
 30
0.0
 40
3.174999999999998
100
AcDbArc
 50
330.26016
 51
0.0
  0
ARC
  5
A04F
330
9FC5
100
AcDbEntity
  8
1
  6
Continuous
100
AcDbCircle
 10
62.359102
 20
226.5665779999999
 30
0.0
 40
3.174999999999998
100
AcDbArc
 50
191.2671299999999
 51
209.7398099999999
  0
ARC
  5
A050
330
9FC5
100
AcDbEntity
  8
1
  6
Continuous
100
AcDbCircle
 10
67.63575899999999
 20
226.5665779999999
 30
0.0
 40
3.174999999999998
100
AcDbArc
 50
330.26016
 51
0.0
  0
ARC
  5
A051
330
9FC5
100
AcDbEntity
  8
1
  6
Continuous
100
AcDbCircle
 10
71.155703
 20
226.5665779999999
 30
0.0
 40
3.174999999999998
100
AcDbArc
 50
330.26016
 51
0.0
  0
ARC
  5
A052
330
9FC5
100
AcDbEntity
  8
1
  6
Continuous
100
AcDbCircle
 10
39.88148699999999
 20
226.566581
 30
0.0
 40
3.174999999999998
100
AcDbArc
 50
179.9999599999999
 51
209.7399199999999
  0
ARC
  5
A053
330
9FC5
100
AcDbEntity
  8
1
  6
Continuous
100
AcDbCircle
 10
56.13148699999999
 20
226.5665779999999
 30
0.0
 40
3.174999999999998
100
AcDbArc
 50
179.9999599999999
 51
209.7397999999999
  0
ARC
  5
A054
330
9FC5
100
AcDbEntity
  8
1
  6
Continuous
100
AcDbCircle
 10
49.903867
 20
226.5665779999999
 30
0.0
 40
3.174999999999998
100
AcDbArc
 50
179.9999599999999
 51
209.7397999999999
  0
ARC
  5
A055
330
9FC5
100
AcDbEntity
  8
1
  6
Continuous
100
AcDbCircle
 10
44.627217
 20
226.5665779999999
 30
0.0
 40
3.174999999999998
100
AcDbArc
 50
179.9999599999999
 51
209.7397999999999
  0
ARC
  5
A056
330
9FC5
100
AcDbEntity
  8
1
  6
Continuous
100
AcDbCircle
 10
41.10726699999999
 20
226.5665779999999
 30
0.0
 40
3.174999999999998
100
AcDbArc
 50
179.9999599999999
 51
209.7397999999999
  0
ARC
  5
A057
330
9FC5
100
AcDbEntity
  8
1
  6
Continuous
100
AcDbCircle
 10
163.6314849999999
 20
292.3915799999998
 30
0.0
 40
7.5
100
AcDbArc
 50
162.50042
 51
269.99995
  0
ARC
  5
A058
330
9FC5
100
AcDbEntity
  8
1
  6
Continuous
100
AcDbCircle
 10
163.6314889999999
 20
335.3915799999998
 30
0.0
 40
7.5
100
AcDbArc
 50
89.99999599999998
 51
197.4996199999999
  0
ARC
  5
A059
330
9FC5
100
AcDbEntity
  8
1
  6
Continuous
100
AcDbCircle
 10
218.6314869999999
 20
292.3915799999998
 30
0.0
 40
7.5
100
AcDbArc
 50
270.0000299999999
 51
17.49957999999999
  0
ARC
  5
A05A
330
9FC5
100
AcDbEntity
  8
1
  6
Continuous
100
AcDbCircle
 10
218.6314869999999
 20
335.3915799999998
 30
0.0
 40
7.5
100
AcDbArc
 50
342.50037
 51
89.99999599999998
  0
ARC
  5
A05B
330
9FC5
100
AcDbEntity
  8
1
  6
Continuous
100
AcDbCircle
 10
286.822397
 20
313.8915719999999
 30
0.0
 40
64.0
100
AcDbArc
 50
162.5003899999998
 51
197.4996199999999
  0
ARC
  5
A05C
330
9FC5
100
AcDbEntity
  8
1
  6
Continuous
100
AcDbCircle
 10
95.44057700000001
 20
313.891588
 30
0.0
 40
64.0
100
AcDbArc
 50
342.50037
 51
17.499607
  0
CIRCLE
  5
A05D
330
9FC5
100
AcDbEntity
  8
1
  6
Continuous
100
AcDbCircle
 10
163.6314849999999
 20
292.89158
 30
0.0
 40
4.4
  0
CIRCLE
  5
A05E
330
9FC5
100
AcDbEntity
  8
1
  6
Continuous
100
AcDbCircle
 10
163.6314889999999
 20
334.8915799999998
 30
0.0
 40
4.4
  0
CIRCLE
  5
A05F
330
9FC5
100
AcDbEntity
  8
1
  6
Continuous
100
AcDbCircle
 10
218.6314869999999
 20
292.89158
 30
0.0
 40
4.4
  0
CIRCLE
  5
A060
330
9FC5
100
AcDbEntity
  8
1
  6
Continuous
100
AcDbCircle
 10
218.6314869999999
 20
334.8915799999998
 30
0.0
 40
4.4
  0
CIRCLE
  5
A061
330
9FC5
100
AcDbEntity
  8
1
  6
Continuous
100
AcDbCircle
 10
191.1314869999999
 20
313.8915799999998
 30
0.0
 40
23.200001
  0
CIRCLE
  5
A062
330
9FC5
100
AcDbEntity
  8
1
  6
Continuous
100
AcDbCircle
 10
191.1314869999999
 20
313.8915799999998
 30
0.0
 40
21.700001
  0
CIRCLE
  5
A063
330
9FC5
100
AcDbEntity
  8
1
  6
Continuous
100
AcDbCircle
 10
191.1314869999999
 20
313.8915799999998
 30
0.0
 40
11.4
  0
ARC
  5
A064
330
9FC5
100
AcDbEntity
  8
1
  6
Continuous
100
AcDbCircle
 10
191.1314549999999
 20
313.8915729999999
 30
0.0
 40
8.0
100
AcDbArc
 50
15.962
 51
74.03891800000002
  0
ARC
  5
A065
330
9FC5
100
AcDbEntity
  8
1
  6
Continuous
100
AcDbCircle
 10
192.731455
 20
315.491573
 30
0.0
 40
0.5
100
AcDbArc
 50
180.00003
 51
270.0
  0
ARC
  5
A066
330
9FC5
100
AcDbEntity
  8
1
  6
Continuous
100
AcDbCircle
 10
193.168524
 20
329.9849909999998
 30
0.0
 40
15.0
100
AcDbArc
 50
268.2726999999998
 51
292.1458399999999
  0
ARC
  5
A067
330
9FC5
100
AcDbEntity
  8
1
  6
Continuous
100
AcDbCircle
 10
207.2247909999999
 20
315.9287239999998
 30
0.0
 40
15.0
100
AcDbArc
 50
157.85431
 51
181.72746
  0
ARC
  5
A068
330
9FC5
100
AcDbEntity
  8
1
  6
Continuous
100
AcDbCircle
 10
175.0380409999999
 20
315.928646
 30
0.0
 40
15.0
100
AcDbArc
 50
358.27267
 51
22.14583999999999
  0
ARC
  5
A069
330
9FC5
100
AcDbEntity
  8
1
  6
Continuous
100
AcDbCircle
 10
189.094299
 20
329.984915
 30
0.0
 40
15.0
100
AcDbArc
 50
247.8543099999999
 51
271.72746
  0
ARC
  5
A06A
330
9FC5
100
AcDbEntity
  8
1
  6
Continuous
100
AcDbCircle
 10
189.531454
 20
315.491572
 30
0.0
 40
0.5
100
AcDbArc
 50
270.0000299999999
 51
0.0
  0
ARC
  5
A06B
330
9FC5
100
AcDbEntity
  8
1
  6
Continuous
100
AcDbCircle
 10
189.0943829999999
 20
297.798159
 30
0.0
 40
15.0
100
AcDbArc
 50
88.272677
 51
112.1458279999999
  0
ARC
  5
A06C
330
9FC5
100
AcDbEntity
  8
1
  6
Continuous
100
AcDbCircle
 10
175.0381179999999
 20
311.854421
 30
0.0
 40
15.0
100
AcDbArc
 50
337.8543
 51
1.72747
  0
ARC
  5
A06D
330
9FC5
100
AcDbEntity
  8
1
  6
Continuous
100
AcDbCircle
 10
189.5314559999999
 20
312.291574
 30
0.0
 40
0.5
100
AcDbArc
 50
0.00002
 51
90.00000500000002
  0
ARC
  5
A06E
330
9FC5
100
AcDbEntity
  8
1
  6
Continuous
100
AcDbCircle
 10
207.2248699999999
 20
311.8545009999999
 30
0.0
 40
15.0
100
AcDbArc
 50
178.2726699999997
 51
202.14585
  0
ARC
  5
A06F
330
9FC5
100
AcDbEntity
  8
1
  6
Continuous
100
AcDbCircle
 10
193.168606
 20
297.7982369999998
 30
0.0
 40
15.0
100
AcDbArc
 50
67.854298
 51
91.72746899999998
  0
ARC
  5
A070
330
9FC5
100
AcDbEntity
  8
1
  6
Continuous
100
AcDbCircle
 10
192.731456
 20
312.291575
 30
0.0
 40
0.5
100
AcDbArc
 50
90.00000500000002
 51
180.0
  0
ARC
  5
A071
330
9FC5
100
AcDbEntity
  8
1
  6
Continuous
100
AcDbCircle
 10
191.1314549999999
 20
313.8915729999999
 30
0.0
 40
8.0
100
AcDbArc
 50
105.962102
 51
164.0389099999999
  0
ARC
  5
A072
330
9FC5
100
AcDbEntity
  8
1
  6
Continuous
100
AcDbCircle
 10
191.1314549999999
 20
313.8915729999999
 30
0.0
 40
8.0
100
AcDbArc
 50
195.96204
 51
254.0389499999998
  0
ARC
  5
A073
330
9FC5
100
AcDbEntity
  8
1
  6
Continuous
100
AcDbCircle
 10
191.1314549999999
 20
313.8915729999999
 30
0.0
 40
8.0
100
AcDbArc
 50
285.9620599999999
 51
344.0390299999998
  0
ARC
  5
A074
330
9FC5
100
AcDbEntity
  8
1
  6
Continuous
100
AcDbCircle
 10
185.736138
 20
311.8226069999999
 30
0.0
 40
2.299999999999998
100
AcDbArc
 50
115.900792
 51
183.2629599999999
  0
ARC
  5
A075
330
9FC5
100
AcDbEntity
  8
1
  6
Continuous
100
AcDbCircle
 10
185.736141
 20
315.9605429999998
 30
0.0
 40
2.299999999999998
100
AcDbArc
 50
176.7370399999999
 51
244.0992099999998
  0
ARC
  5
A076
330
9FC5
100
AcDbEntity
  8
1
  6
Continuous
100
AcDbCircle
 10
189.062488
 20
319.286891
 30
0.0
 40
2.299999999999998
100
AcDbArc
 50
25.90079
 51
93.26296000000002
  0
ARC
  5
A077
330
9FC5
100
AcDbEntity
  8
1
  6
Continuous
100
AcDbCircle
 10
193.200427
 20
319.2868899999998
 30
0.0
 40
2.299999999999998
100
AcDbArc
 50
86.73704200000001
 51
154.0992099999999
  0
ARC
  5
A078
330
9FC5
100
AcDbEntity
  8
1
  6
Continuous
100
AcDbCircle
 10
196.5267729999999
 20
315.9605399999998
 30
0.0
 40
2.299999999999998
100
AcDbArc
 50
295.9008
 51
3.262959999999998
  0
ARC
  5
A079
330
9FC5
100
AcDbEntity
  8
1
  6
Continuous
100
AcDbCircle
 10
196.5267719999999
 20
311.822602
 30
0.0
 40
2.299999999999998
100
AcDbArc
 50
356.7370499999999
 51
64.09921700000001
  0
ARC
  5
A07A
330
9FC5
100
AcDbEntity
  8
1
  6
Continuous
100
AcDbCircle
 10
193.2004219999998
 20
308.496256
 30
0.0
 40
2.299999999999998
100
AcDbArc
 50
205.90079
 51
273.2629499999998
  0
ARC
  5
A07B
330
9FC5
100
AcDbEntity
  8
1
  6
Continuous
100
AcDbCircle
 10
189.0624829999999
 20
308.4962569999999
 30
0.0
 40
2.299999999999998
100
AcDbArc
 50
266.73705
 51
334.09922
  0
ARC
  5
A07C
330
9FC5
100
AcDbEntity
  8
1
  6
Continuous
100
AcDbCircle
 10
49.903867
 20
226.5665779999999
 30
0.0
 40
3.174999999999998
100
AcDbArc
 50
330.26016
 51
348.7328699999998
  0
ARC
  5
A07D
330
9FC5
100
AcDbEntity
  8
1
  6
Continuous
100
AcDbCircle
 10
62.359102
 20
226.5665779999999
 30
0.0
 40
3.174999999999998
100
AcDbArc
 50
330.26016
 51
0.0
  0
ARC
  5
A07E
330
9FC5
100
AcDbEntity
  8
1
  6
Continuous
100
AcDbCircle
 10
184.903872
 20
226.5665779999999
 30
0.0
 40
3.174999999999998
100
AcDbArc
 50
330.26013
 51
348.7328699999998
  0
ARC
  5
A07F
330
9FC5
100
AcDbEntity
  8
1
  6
Continuous
100
AcDbCircle
 10
197.359102
 20
226.5665779999999
 30
0.0
 40
3.174999999999998
100
AcDbArc
 50
330.26013
 51
0.0
  0
ARC
  5
A080
330
9FC5
100
AcDbEntity
  8
1
  6
Continuous
100
AcDbCircle
 10
209.930304
 20
209.9915779999999
 30
0.0
 40
8.0
100
AcDbArc
 50
89.99998199999996
 51
142.0488399999999
  0
ARC
  5
A081
330
9FC5
100
AcDbEntity
  8
1
  6
Continuous
100
AcDbCircle
 10
169.431486
 20
221.4915779999997
 30
0.0
 40
3.5
100
AcDbArc
 50
89.99998199999996
 51
179.9999599999999
  0
ARC
  5
A082
330
9FC5
100
AcDbEntity
  8
1
  6
Continuous
100
AcDbCircle
 10
170.131487
 20
184.89158
 30
0.0
 40
8.5
100
AcDbArc
 50
174.3469299999999
 51
322.76679
  0
ARC
  5
A083
330
9FC5
100
AcDbEntity
  8
1
  6
Continuous
100
AcDbCircle
 10
179.406122
 20
212.601114
 30
0.0
 40
15.0
100
AcDbArc
 50
153.9367
 51
174.3469299999999
  0
ARC
  5
A084
330
9FC5
100
AcDbEntity
  8
1
  6
Continuous
100
AcDbCircle
 10
69.63148699999999
 20
221.1915789999999
 30
0.0
 40
1.0
100
AcDbArc
 50
101.96231
 51
270.0
  0
ARC
  5
A085
330
9FC5
100
AcDbEntity
  8
1
  6
Continuous
100
AcDbCircle
 10
72.88148699999998
 20
221.3915799999998
 30
0.0
 40
1.199999999999999
100
AcDbArc
 50
270.00002
 51
99.88999300000001
  0
ARC
  5
A086
330
9FC5
100
AcDbEntity
  8
1
  6
Continuous
100
AcDbCircle
 10
62.43190999999999
 20
214.291891
 30
0.0
 40
12.0
100
AcDbArc
 50
0.0
 51
29.44848
  0
ARC
  5
A087
330
9FC5
100
AcDbEntity
  8
1
  6
Continuous
100
AcDbCircle
 10
60.13885699999999
 20
214.6121839999999
 30
0.0
 40
12.0
100
AcDbArc
 50
357.9913499999999
 51
19.77081799999998
  0
ARC
  5
A088
330
9FC5
100
AcDbEntity
  8
1
  6
Continuous
100
AcDbCircle
 10
73.56956700000002
 20
202.6041769999999
 30
0.0
 40
20.0
100
AcDbArc
 50
92.09751899999998
 51
101.96228
  0
ARC
  5
A089
330
9FC5
100
AcDbEntity
  8
1
  6
Continuous
100
AcDbCircle
 10
71.80817600000001
 20
228.6641939999999
 30
0.0
 40
10.0
100
AcDbArc
 50
242.15877
 51
267.84121
  0
ARC
  5
A08A
330
9FC5
100
AcDbEntity
  8
1
  6
Continuous
100
AcDbCircle
 10
42.631487
 20
221.1915789999999
 30
0.0
 40
1.0
100
AcDbArc
 50
269.9999599999998
 51
78.03765700000003
  0
ARC
  5
A08B
330
9FC5
100
AcDbEntity
  8
1
  6
Continuous
100
AcDbCircle
 10
39.381487
 20
221.3915799999998
 30
0.0
 40
1.199999999999999
100
AcDbArc
 50
80.109971
 51
269.99995
  0
ARC
  5
A08C
330
9FC5
100
AcDbEntity
  8
1
  6
Continuous
100
AcDbCircle
 10
49.831067
 20
214.291891
 30
0.0
 40
12.0
100
AcDbArc
 50
150.55148
 51
179.9999599999999
  0
ARC
  5
A08D
330
9FC5
100
AcDbEntity
  8
1
  6
Continuous
100
AcDbCircle
 10
52.124117
 20
214.6121839999999
 30
0.0
 40
12.0
100
AcDbArc
 50
160.2291499999997
 51
182.00861
  0
ARC
  5
A08E
330
9FC5
100
AcDbEntity
  8
1
  6
Continuous
100
AcDbCircle
 10
38.693407
 20
202.6041769999999
 30
0.0
 40
20.0
100
AcDbArc
 50
78.037684
 51
87.902445
  0
ARC
  5
A08F
330
9FC5
100
AcDbEntity
  8
1
  6
Continuous
100
AcDbCircle
 10
40.454797
 20
228.6641939999999
 30
0.0
 40
10.0
100
AcDbArc
 50
272.15877
 51
297.8412099999999
  0
ARC
  5
A090
330
9FC5
100
AcDbEntity
  8
1
  6
Continuous
100
AcDbCircle
 10
77.13148699999995
 20
221.4915779999997
 30
0.0
 40
3.5
100
AcDbArc
 50
0.0
 51
89.99998199999996
  0
ARC
  5
A091
330
9FC5
100
AcDbEntity
  8
1
  6
Continuous
100
AcDbCircle
 10
35.13149699999999
 20
221.4915779999997
 30
0.0
 40
3.5
100
AcDbArc
 50
89.99998199999996
 51
179.9999599999999
  0
ARC
  5
A092
330
9FC5
100
AcDbEntity
  8
1
  6
Continuous
100
AcDbCircle
 10
70.83149899999998
 20
198.490701
 30
0.0
 40
9.8
100
AcDbArc
 50
306.4646
 51
359.91775
  0
ARC
  5
A093
330
9FC5
100
AcDbEntity
  8
1
  6
Continuous
100
AcDbCircle
 10
41.431477
 20
198.490701
 30
0.0
 40
9.8
100
AcDbArc
 50
180.08223
 51
238.3562799999999
  0
LINE
  5
A094
330
9FC5
100
AcDbEntity
  8
1
  6
Continuous
100
AcDbLine
 10
47.574443
 20
220.3695259999999
 30
0.0
 11
64.68853100000001
 21
220.3695259999999
 31
0.0
  0
LINE
  5
A095
330
9FC5
100
AcDbEntity
  8
4
  6
CENTER
 48
0.8
100
AcDbLine
 10
170.131487
 20
345.8915799999999
 30
0.0
 11
170.131487
 21
281.8915799999999
 31
0.0
  0
LINE
  5
A096
330
9FC5
100
AcDbEntity
  8
4
  6
CENTER
 48
0.8
100
AcDbLine
 10
132.8814869999999
 20
70.89158000000002
 30
0.0
 11
227.822397
 21
70.89158000000002
 31
0.0
  0
LINE
  5
A097
330
9FC5
100
AcDbEntity
  8
1
  6
Continuous
100
AcDbLine
 10
163.6314889999999
 20
41.89157999999999
 30
0.0
 11
218.6314869999999
 21
41.89157999999999
 31
0.0
  0
LINE
  5
A098
330
9FC5
100
AcDbEntity
  8
1
  6
Continuous
100
AcDbLine
 10
163.6314849999999
 20
99.89158000000001
 30
0.0
 11
218.6314869999999
 21
99.89158000000001
 31
0.0
  0
LINE
  5
A099
330
9FC5
100
AcDbEntity
  8
4
  6
CENTER
 48
0.8
100
AcDbLine
 10
170.131487
 20
38.89157999999999
 30
0.0
 11
170.131487
 21
102.89158
 31
0.0
  0
LINE
  5
A09A
330
9FC5
100
AcDbEntity
  8
4
  6
CENTER
 48
0.8
100
AcDbLine
 10
191.1314869999999
 20
36.89157999999999
 30
0.0
 11
191.1314869999999
 21
104.89158
 31
0.0
  0
ARC
  5
A09B
330
9FC5
100
AcDbEntity
  8
1
  6
Continuous
100
AcDbCircle
 10
95.44057700000001
 20
70.89157199999998
 30
0.0
 40
64.0
100
AcDbArc
 50
342.5003929999998
 51
348.7370279999999
  0
LINE
  5
A09C
330
9FC5
100
AcDbEntity
  8
4
  6
CENTER
 48
0.8
100
AcDbLine
 10
157.631487
 20
91.89158
 30
0.0
 11
169.631485
 21
91.89158
 31
0.0
  0
ARC
  5
A09D
330
9FC5
100
AcDbEntity
  8
1
  6
Continuous
100
AcDbCircle
 10
163.6314849999999
 20
92.39158000000001
 30
0.0
 40
7.5
100
AcDbArc
 50
90.00004999999999
 51
197.49958
  0
ARC
  5
A09E
330
9FC5
100
AcDbEntity
  8
1
  6
Continuous
100
AcDbCircle
 10
163.6314849999999
 20
91.89158
 30
0.0
 40
4.4
100
AcDbArc
 50
6.524873999999998
 51
242.964337
  0
LINE
  5
A09F
330
9FC5
100
AcDbEntity
  8
4
  6
CENTER
 48
0.8
100
AcDbLine
 10
163.6314869999999
 20
85.89158000000002
 30
0.0
 11
163.6314869999999
 21
97.89158
 31
0.0
  0
LINE
  5
A0A0
330
9FC5
100
AcDbEntity
  8
4
  6
CENTER
 48
0.8
100
AcDbLine
 10
157.631487
 20
49.89157999999999
 30
0.0
 11
169.631489
 21
49.89157999999999
 31
0.0
  0
ARC
  5
A0A1
330
9FC5
100
AcDbEntity
  8
1
  6
Continuous
100
AcDbCircle
 10
163.6314889999999
 20
49.89157999999999
 30
0.0
 40
4.4
100
AcDbArc
 50
117.0357189999999
 51
9.154132999999999
  0
ARC
  5
A0A2
330
9FC5
100
AcDbEntity
  8
1
  6
Continuous
100
AcDbCircle
 10
163.6314889999999
 20
49.39157999999999
 30
0.0
 40
7.5
100
AcDbArc
 50
162.5003799999998
 51
270.0000039999998
  0
LINE
  5
A0A3
330
9FC5
100
AcDbEntity
  8
4
  6
CENTER
 48
0.8
100
AcDbLine
 10
163.6314869999999
 20
55.89158000000001
 30
0.0
 11
163.6314869999999
 21
43.89158
 31
0.0
  0
ARC
  5
A0A4
330
9FC5
100
AcDbEntity
  8
1
  6
Continuous
100
AcDbCircle
 10
286.822397
 20
70.89158799999998
 30
0.0
 40
64.0
100
AcDbArc
 50
162.5003799999998
 51
197.49961
  0
ARC
  5
A0A5
330
9FC5
100
AcDbEntity
  8
1
  6
Continuous
100
AcDbCircle
 10
218.6314869999999
 20
92.39158000000001
 30
0.0
 40
7.5
100
AcDbArc
 50
342.50042
 51
89.99996999999996
  0
CIRCLE
  5
A0A6
330
9FC5
100
AcDbEntity
  8
1
  6
Continuous
100
AcDbCircle
 10
218.6314869999999
 20
91.89158
 30
0.0
 40
4.4
  0
LINE
  5
A0A7
330
9FC5
100
AcDbEntity
  8
4
  6
CENTER
 48
0.8
100
AcDbLine
 10
224.6314869999999
 20
91.89158
 30
0.0
 11
212.6314869999999
 21
91.89158
 31
0.0
  0
LINE
  5
A0A8
330
9FC5
100
AcDbEntity
  8
4
  6
CENTER
 48
0.8
100
AcDbLine
 10
218.6314869999999
 20
85.89158000000002
 30
0.0
 11
218.6314869999999
 21
97.89158
 31
0.0
  0
CIRCLE
  5
A0A9
330
9FC5
100
AcDbEntity
  8
1
  6
Continuous
100
AcDbCircle
 10
218.6314869999999
 20
49.89157999999999
 30
0.0
 40
4.4
  0
LINE
  5
A0AA
330
9FC5
100
AcDbEntity
  8
4
  6
CENTER
 48
0.8
100
AcDbLine
 10
224.6314869999999
 20
49.89157999999999
 30
0.0
 11
212.6314869999999
 21
49.89157999999999
 31
0.0
  0
ARC
  5
A0AB
330
9FC5
100
AcDbEntity
  8
1
  6
Continuous
100
AcDbCircle
 10
218.6314869999999
 20
49.39157999999999
 30
0.0
 40
7.5
100
AcDbArc
 50
270.0000039999998
 51
17.49963
  0
LINE
  5
A0AC
330
9FC5
100
AcDbEntity
  8
4
  6
CENTER
 48
0.8
100
AcDbLine
 10
218.6314869999999
 20
55.89158000000001
 30
0.0
 11
218.6314869999999
 21
43.89158
 31
0.0
  0
LINE
  5
A0AD
330
9FC5
100
AcDbEntity
  8
1
  6
Continuous
100
AcDbLine
 10
161.631487
 20
52.59158000000001
 30
0.0
 11
183.403601
 21
52.59158000000001
 31
0.0
  0
LINE
  5
A0AE
330
9FC5
100
AcDbEntity
  8
1
  6
Continuous
100
AcDbLine
 10
161.631487
 20
54.89157999999999
 30
0.0
 11
182.0236279999997
 21
54.89157999999999
 31
0.0
  0
ARC
  5
A0AF
330
9FC5
100
AcDbEntity
  8
1
  6
Continuous
100
AcDbCircle
 10
165.9549199999998
 20
52.09158
 30
0.0
 40
1.5
100
AcDbArc
 50
178.051186
 51
269.9999599999998
  0
LINE
  5
A0B0
330
9FC5
100
AcDbEntity
  8
1
  6
Continuous
100
AcDbLine
 10
164.4557969999999
 20
52.14256999999999
 30
0.0
 11
166.131479
 21
52.59157
 31
0.0
  0
LINE
  5
A0B1
330
9FC5
100
AcDbEntity
  8
1
  6
Continuous
100
AcDbLine
 10
166.1314869999999
 20
54.89157999999999
 30
0.0
 11
166.1314869999999
 21
55.89158000000001
 31
0.0
  0
ARC
  5
A0B2
330
9FC5
100
AcDbEntity
  8
1
  6
Continuous
100
AcDbCircle
 10
174.308031
 20
52.09158
 30
0.0
 40
1.5
100
AcDbArc
 50
269.99998
 51
1.94882
  0
LINE
  5
A0B3
330
9FC5
100
AcDbEntity
  8
1
  6
Continuous
100
AcDbLine
 10
175.807161
 20
52.14259000000001
 30
0.0
 11
174.131487
 21
52.59158000000001
 31
0.0
  0
LINE
  5
A0B4
330
9FC5
100
AcDbEntity
  8
1
  6
Continuous
100
AcDbLine
 10
174.131487
 20
54.89157999999999
 30
0.0
 11
174.131487
 21
55.89158000000001
 31
0.0
  0
LINE
  5
A0B5
330
9FC5
100
AcDbEntity
  8
1
  6
Continuous
100
AcDbLine
 10
175.8071689999999
 20
52.14255
 30
0.0
 11
164.4557899999998
 21
52.14255
 31
0.0
  0
LINE
  5
A0B6
330
9FC5
100
AcDbEntity
  8
1
  6
Continuous
100
AcDbLine
 10
165.9549199999998
 20
50.59158
 30
0.0
 11
174.308031
 21
50.59158
 31
0.0
  0
LINE
  5
A0B7
330
9FC5
100
AcDbEntity
  8
1
  6
Continuous
100
AcDbLine
 10
161.631487
 20
86.89158
 30
0.0
 11
182.06533
 21
86.89158
 31
0.0
  0
LINE
  5
A0B8
330
9FC5
100
AcDbEntity
  8
1
  6
Continuous
100
AcDbLine
 10
161.631487
 20
89.19158299999997
 30
0.0
 11
183.403602
 21
89.19158299999997
 31
0.0
  0
LINE
  5
A0B9
330
9FC5
100
AcDbEntity
  8
1
  6
Continuous
100
AcDbLine
 10
164.1314869999999
 20
89.191575
 30
0.0
 11
164.1314869999999
 21
90.391572
 31
0.0
  0
LINE
  5
A0BA
330
9FC5
100
AcDbEntity
  8
1
  6
Continuous
100
AcDbLine
 10
176.1314869999999
 20
89.191575
 30
0.0
 11
176.1314869999999
 21
90.391572
 31
0.0
  0
LINE
  5
A0BB
330
9FC5
100
AcDbEntity
  8
1
  6
Continuous
100
AcDbLine
 10
166.1314869999999
 20
85.89158000000002
 30
0.0
 11
166.1314869999999
 21
86.89158
 31
0.0
  0
LINE
  5
A0BC
330
9FC5
100
AcDbEntity
  8
1
  6
Continuous
100
AcDbLine
 10
174.131487
 20
85.89158000000002
 30
0.0
 11
174.131487
 21
86.89158
 31
0.0
  0
ARC
  5
A0BD
330
9FC5
100
AcDbEntity
  8
1
  6
Continuous
100
AcDbCircle
 10
166.1314869999999
 20
90.391572
 30
0.0
 40
2.0
100
AcDbArc
 50
90.0
 51
179.999982
  0
ARC
  5
A0BE
330
9FC5
100
AcDbEntity
  8
1
  6
Continuous
100
AcDbCircle
 10
174.131487
 20
90.391572
 30
0.0
 40
2.0
100
AcDbArc
 50
0.00002
 51
90.0
  0
LINE
  5
A0BF
330
9FC5
100
AcDbEntity
  8
1
  6
Continuous
100
AcDbLine
 10
166.1314869999999
 20
92.39157199999999
 30
0.0
 11
174.131487
 21
92.39157199999999
 31
0.0
  0
ARC
  5
A0C0
330
9FC5
100
AcDbEntity
  8
1
  6
Continuous
100
AcDbCircle
 10
95.44057700000001
 20
70.89157199999998
 30
0.0
 40
64.0
100
AcDbArc
 50
11.26298699999999
 51
17.49963
  0
LINE
  5
A0C1
330
9FC5
100
AcDbEntity
  8
1
  6
Continuous
100
AcDbLine
 10
161.631487
 20
89.19158299999997
 30
0.0
 11
161.631487
 21
86.89158
 31
0.0
  0
LINE
  5
A0C2
330
9FC5
100
AcDbEntity
  8
1
  6
Continuous
100
AcDbLine
 10
161.631487
 20
54.89157999999999
 30
0.0
 11
161.631487
 21
52.59158000000001
 31
0.0
  0
ARC
  5
A0C3
330
9FC5
100
AcDbEntity
  8
1
  6
Continuous
100
AcDbCircle
 10
191.1314869999999
 20
70.89158000000002
 30
0.0
 40
26.24999600000001
100
AcDbArc
 50
230.6211989999999
 51
126.7635509999997
  0
ARC
  5
A0C4
330
9FC5
100
AcDbEntity
  8
1
  6
Continuous
100
AcDbCircle
 10
191.1314869999999
 20
70.89158000000002
 30
0.0
 40
20.40000099999998
100
AcDbArc
 50
256.974435
 51
103.0255649999999
  0
ARC
  5
A0C5
330
9FC5
100
AcDbEntity
  8
1
  6
Continuous
100
AcDbCircle
 10
191.1314869999999
 20
70.89158000000002
 30
0.0
 40
13.900001
100
AcDbArc
 50
249.268852
 51
290.731148
  0
ARC
  5
A0C6
330
9FC5
100
AcDbEntity
  8
1
  6
Continuous
100
AcDbCircle
 10
191.1314869999999
 20
70.89158000000002
 30
0.0
 40
13.900001
100
AcDbArc
 50
320.3882089999999
 51
39.61179099999999
  0
ARC
  5
A0C7
330
9FC5
100
AcDbEntity
  8
1
  6
Continuous
100
AcDbCircle
 10
288.1314949999998
 20
180.89158
 30
0.0
 40
2.0
100
AcDbArc
 50
180.0
 51
269.99998
  0
LINE
  5
A0C8
330
9FC5
100
AcDbEntity
  8
1
  6
Continuous
100
AcDbLine
 10
289.331484
 20
189.1260139999999
 30
0.0
 11
289.331484
 21
176.39158
 31
0.0
  0
LINE
  5
A0C9
330
9FC5
100
AcDbEntity
  8
1
  6
Continuous
100
AcDbLine
 10
291.6314869999999
 20
217.9915779999999
 30
0.0
 11
291.6314869999999
 21
176.39158
 31
0.0
  0
LINE
  5
A0CA
330
9FC5
100
AcDbEntity
  8
1
  6
Continuous
100
AcDbLine
 10
326.380477
 20
179.2159059999999
 30
0.0
 11
325.931487
 21
180.89158
 31
0.0
  0
ARC
  5
A0CB
330
9FC5
100
AcDbEntity
  8
1
  6
Continuous
100
AcDbCircle
 10
326.431487
 20
180.7150359999999
 30
0.0
 40
1.5
100
AcDbArc
 50
268.05118
 51
0.00002
  0
LINE
  5
A0CC
330
9FC5
100
AcDbEntity
  8
1
  6
Continuous
100
AcDbLine
 10
326.3805169999999
 20
179.215898
 30
0.0
 11
326.3805169999999
 21
189.9605379999999
 31
0.0
  0
LINE
  5
A0CD
330
9FC5
100
AcDbEntity
  8
1
  6
Continuous
100
AcDbLine
 10
323.631487
 20
217.9915779999999
 30
0.0
 11
323.631487
 21
176.39158
 31
0.0
  0
LINE
  5
A0CE
330
9FC5
100
AcDbEntity
  8
1
  6
Continuous
100
AcDbLine
 10
325.931487
 20
189.126013
 30
0.0
 11
325.931487
 21
176.39158
 31
0.0
  0
LINE
  5
A0CF
330
9FC5
100
AcDbEntity
  8
4
  6
CENTER
 48
0.8
100
AcDbLine
 10
307.631487
 20
237.3915799999998
 30
0.0
 11
307.631487
 21
147.64158
 31
0.0
  0
LINE
  5
A0D0
330
9FC5
100
AcDbEntity
  8
1
  6
Continuous
100
AcDbLine
 10
325.931487
 20
176.39158
 30
0.0
 11
323.631487
 21
176.39158
 31
0.0
  0
LINE
  5
A0D1
330
9FC5
100
AcDbEntity
  8
1
  6
Continuous
100
AcDbLine
 10
289.3314919999999
 20
178.89158
 30
0.0
 11
288.1314949999998
 21
178.89158
 31
0.0
  0
LINE
  5
A0D2
330
9FC5
100
AcDbEntity
  8
1
  6
Continuous
100
AcDbLine
 10
291.6314869999999
 20
176.39158
 30
0.0
 11
289.331484
 21
176.39158
 31
0.0
  0
LINE
  5
A0D3
330
9FC5
100
AcDbEntity
  8
1
  6
Continuous
100
AcDbLine
 10
328.631477
 20
224.9915779999998
 30
0.0
 11
286.631487
 21
224.9915779999998
 31
0.0
  0
LINE
  5
A0D4
330
9FC5
100
AcDbEntity
  8
4
  6
CENTER
 48
0.8
100
AcDbLine
 10
332.931487
 20
184.89158
 30
0.0
 11
281.1314949999999
 21
184.89158
 31
0.0
  0
LINE
  5
A0D5
330
9FC5
100
AcDbEntity
  8
1
  6
Continuous
100
AcDbLine
 10
336.631487
 20
232.3915799999999
 30
0.0
 11
278.6314869999998
 21
232.3915799999999
 31
0.0
  0
LINE
  5
A0D6
330
9FC5
100
AcDbEntity
  8
1
  6
Continuous
100
AcDbLine
 10
336.631487
 20
230.0915809999999
 30
0.0
 11
278.6314869999998
 21
230.0915809999999
 31
0.0
  0
LINE
  5
A0D7
330
9FC5
100
AcDbEntity
  8
1
  6
Continuous
100
AcDbLine
 10
330.0814869999998
 20
226.4915779999999
 30
0.0
 11
285.17836
 21
226.4915779999999
 31
0.0
  0
ARC
  5
A0D8
330
9FC5
100
AcDbEntity
  8
1
  6
Continuous
100
AcDbCircle
 10
328.631477
 20
221.4915779999997
 30
0.0
 40
3.5
100
AcDbArc
 50
0.00004
 51
90.00001800000005
  0
LINE
  5
A0D9
330
9FC5
100
AcDbEntity
  8
1
  6
Continuous
100
AcDbLine
 10
332.131487
 20
221.4915779999997
 30
0.0
 11
332.131487
 21
198.4766309999999
 31
0.0
  0
LINE
  5
A0DA
330
9FC5
100
AcDbEntity
  8
1
  6
Continuous
100
AcDbLine
 10
323.631487
 20
188.89158
 30
0.0
 11
322.6314869999999
 21
188.89158
 31
0.0
  0
LINE
  5
A0DB
330
9FC5
100
AcDbEntity
  8
1
  6
Continuous
100
AcDbLine
 10
323.631487
 20
180.89158
 30
0.0
 11
322.6314869999999
 21
180.89158
 31
0.0
  0
LINE
  5
A0DC
330
9FC5
100
AcDbEntity
  8
1
  6
Continuous
100
AcDbLine
 10
327.931487
 20
189.068147
 30
0.0
 11
327.931487
 21
180.7150359999999
 31
0.0
  0
ARC
  5
A0DD
330
9FC5
100
AcDbEntity
  8
1
  6
Continuous
100
AcDbCircle
 10
311.6388569999998
 20
214.6121839999999
 30
0.0
 40
12.0
100
AcDbArc
 50
357.9913899999998
 51
0.8876280000000001
  0
ARC
  5
A0DE
330
9FC5
100
AcDbEntity
  8
1
  6
Continuous
100
AcDbCircle
 10
330.0814869999998
 20
229.9915799999999
 30
0.0
 40
3.5
100
AcDbArc
 50
269.99998
 51
338.5410699999998
  0
LINE
  5
A0DF
330
9FC5
100
AcDbEntity
  8
1
  6
Continuous
100
AcDbLine
 10
336.631487
 20
232.3915799999999
 30
0.0
 11
336.631487
 21
230.0915809999999
 31
0.0
  0
LINE
  5
A0E0
330
9FC5
100
AcDbEntity
  8
1
  6
Continuous
100
AcDbLine
 10
333.881477
 20
230.091584
 30
0.0
 11
333.3388569999998
 21
228.711164
 31
0.0
  0
ARC
  5
A0E1
330
9FC5
100
AcDbEntity
  8
1
  6
Continuous
100
AcDbCircle
 10
323.881487
 20
226.566581
 30
0.0
 40
3.174999999999998
100
AcDbArc
 50
330.2600799999999
 51
0.00004
  0
ARC
  5
A0E2
330
9FC5
100
AcDbEntity
  8
1
  6
Continuous
100
AcDbCircle
 10
313.8591069999999
 20
226.5665779999999
 30
0.0
 40
3.174999999999998
100
AcDbArc
 50
330.2602
 51
0.00004
  0
ARC
  5
A0E3
330
9FC5
100
AcDbEntity
  8
1
  6
Continuous
100
AcDbCircle
 10
319.1357569999999
 20
226.5665779999999
 30
0.0
 40
3.174999999999998
100
AcDbArc
 50
330.2602
 51
0.00004
  0
ARC
  5
A0E4
330
9FC5
100
AcDbEntity
  8
1
  6
Continuous
100
AcDbCircle
 10
322.655707
 20
226.5665779999999
 30
0.0
 40
3.174999999999998
100
AcDbArc
 50
330.2602
 51
0.00004
  0
LINE
  5
A0E5
330
9FC5
100
AcDbEntity
  8
4
  6
CENTER
 48
0.8
100
AcDbLine
 10
328.6314869999998
 20
237.3915799999998
 30
0.0
 11
328.6314869999998
 21
225.0915809999999
 31
0.0
  0
ARC
  5
A0E6
330
9FC5
100
AcDbEntity
  8
1
  6
Continuous
100
AcDbCircle
 10
307.631487
 20
226.5665779999999
 30
0.0
 40
3.174999999999998
100
AcDbArc
 50
180.0
 51
209.7398399999999
  0
ARC
  5
A0E7
330
9FC5
100
AcDbEntity
  8
1
  6
Continuous
100
AcDbCircle
 10
301.4038719999998
 20
226.5665779999999
 30
0.0
 40
3.174999999999998
100
AcDbArc
 50
330.2601899999999
 51
348.7328699999998
  0
ARC
  5
A0E8
330
9FC5
100
AcDbEntity
  8
1
  6
Continuous
100
AcDbCircle
 10
307.631487
 20
226.5665779999999
 30
0.0
 40
3.174999999999998
100
AcDbArc
 50
330.2602
 51
0.00004
  0
ARC
  5
A0E9
330
9FC5
100
AcDbEntity
  8
1
  6
Continuous
100
AcDbCircle
 10
313.8591069999999
 20
226.5665779999999
 30
0.0
 40
3.174999999999998
100
AcDbArc
 50
191.2671299999999
 51
209.7398399999999
  0
ARC
  5
A0EA
330
9FC5
100
AcDbEntity
  8
1
  6
Continuous
100
AcDbCircle
 10
286.631487
 20
221.4915779999997
 30
0.0
 40
3.5
100
AcDbArc
 50
90.00001800000005
 51
180.0
  0
LINE
  5
A0EB
330
9FC5
100
AcDbEntity
  8
1
  6
Continuous
100
AcDbLine
 10
283.1314869999999
 20
221.4915779999997
 30
0.0
 11
283.1314869999999
 21
198.375877
 31
0.0
  0
LINE
  5
A0EC
330
9FC5
100
AcDbEntity
  8
1
  6
Continuous
100
AcDbLine
 10
292.631487
 20
188.89158
 30
0.0
 11
291.6314869999999
 21
188.89158
 31
0.0
  0
ARC
  5
A0ED
330
9FC5
100
AcDbEntity
  8
1
  6
Continuous
100
AcDbCircle
 10
288.1314949999998
 20
188.89158
 30
0.0
 40
2.0
100
AcDbArc
 50
165.9866089999999
 51
180.0
  0
LINE
  5
A0EE
330
9FC5
100
AcDbEntity
  8
1
  6
Continuous
100
AcDbLine
 10
292.631487
 20
180.89158
 30
0.0
 11
291.6314869999999
 21
180.89158
 31
0.0
  0
LINE
  5
A0EF
330
9FC5
100
AcDbEntity
  8
1
  6
Continuous
100
AcDbLine
 10
286.1314949999998
 20
188.89158
 30
0.0
 11
286.1314949999998
 21
180.89158
 31
0.0
  0
ARC
  5
A0F0
330
9FC5
100
AcDbEntity
  8
1
  6
Continuous
100
AcDbCircle
 10
285.1814899999999
 20
229.991577
 30
0.0
 40
3.5
100
AcDbArc
 50
201.4589799999999
 51
269.99998
  0
ARC
  5
A0F1
330
9FC5
100
AcDbEntity
  8
1
  6
Continuous
100
AcDbCircle
 10
291.3814869999999
 20
226.566581
 30
0.0
 40
3.174999999999998
100
AcDbArc
 50
180.0
 51
209.7399499999999
  0
ARC
  5
A0F2
330
9FC5
100
AcDbEntity
  8
1
  6
Continuous
100
AcDbCircle
 10
296.1272149999998
 20
226.5665779999999
 30
0.0
 40
3.174999999999998
100
AcDbArc
 50
180.0
 51
209.7398399999999
  0
ARC
  5
A0F3
330
9FC5
100
AcDbEntity
  8
1
  6
Continuous
100
AcDbCircle
 10
292.6072709999999
 20
226.5665779999999
 30
0.0
 40
3.174999999999998
100
AcDbArc
 50
180.0
 51
209.7398399999999
  0
ARC
  5
A0F4
330
9FC5
100
AcDbEntity
  8
1
  6
Continuous
100
AcDbCircle
 10
301.4038719999998
 20
226.5665779999999
 30
0.0
 40
3.174999999999998
100
AcDbArc
 50
180.0
 51
209.7398399999999
  0
LINE
  5
A0F5
330
9FC5
100
AcDbEntity
  8
4
  6
CENTER
 48
0.8
100
AcDbLine
 10
286.631487
 20
237.3915799999998
 30
0.0
 11
286.631487
 21
225.0915809999999
 31
0.0
  0
LINE
  5
A0F6
330
9FC5
100
AcDbEntity
  8
1
  6
Continuous
100
AcDbLine
 10
278.6314869999998
 20
232.3915799999999
 30
0.0
 11
278.6314869999998
 21
230.0915809999999
 31
0.0
  0
LINE
  5
A0F7
330
9FC5
100
AcDbEntity
  8
1
  6
Continuous
100
AcDbLine
 10
281.3814869999998
 20
230.091574
 30
0.0
 11
281.924105
 21
228.7111529999999
 31
0.0
  0
LINE
  5
A0F8
330
9FC5
100
AcDbEntity
  8
1
  6
Continuous
100
AcDbLine
 10
289.427037
 20
217.9915779999999
 30
0.0
 11
325.8359369999999
 21
217.9915779999999
 31
0.0
  0
ARC
  5
A0F9
330
9FC5
100
AcDbEntity
  8
1
  6
Continuous
100
AcDbCircle
 10
191.1314869999999
 20
70.89158000000002
 30
0.0
 40
13.900001
100
AcDbArc
 50
69.268852
 51
110.7311479999999
  0
LINE
  5
A0FA
330
9FC5
100
AcDbEntity
  8
1
  6
Continuous
100
AcDbLine
 10
174.6314869999999
 20
219.235807
 30
0.0
 11
174.6314869999999
 21
198.3569199999998
 31
0.0
  0
ARC
  5
A0FB
330
9FC5
100
AcDbEntity
  8
1
  6
Continuous
100
AcDbCircle
 10
183.6314869999999
 20
198.3569199999998
 30
0.0
 40
9.0
100
AcDbArc
 50
179.9999799999999
 51
273.71945
  0
LINE
  5
A0FC
330
9FC5
100
AcDbEntity
  8
1
  6
Continuous
100
AcDbLine
 10
215.631487
 20
221.4915779999997
 30
0.0
 11
215.631487
 21
217.9915779999999
 31
0.0
  0
ARC
  5
A0FD
330
9FC5
100
AcDbEntity
  8
1
  6
Continuous
100
AcDbCircle
 10
212.1314869999999
 20
221.4915779999997
 30
0.0
 40
3.5
100
AcDbArc
 50
0.0
 51
90.0
  0
ARC
  5
A0FE
330
9FC5
100
AcDbEntity
  8
1
  6
Continuous
100
AcDbCircle
 10
322.9875369999998
 20
198.4766309999999
 30
0.0
 40
39.85605000000001
100
AcDbArc
 50
152.440318
 51
180.013473
  0
ARC
  5
A0FF
330
9FC5
100
AcDbEntity
  8
1
  6
Continuous
100
AcDbCircle
 10
322.9875369999998
 20
198.4766309999999
 30
0.0
 40
37.55605
100
AcDbArc
 50
148.693106
 51
180.014298
  0
ARC
  5
A100
330
9FC5
100
AcDbEntity
  8
1
  6
Continuous
100
AcDbCircle
 10
292.275437
 20
198.4766309999999
 30
0.0
 40
37.55605
100
AcDbArc
 50
359.733893
 51
31.306894
  0
ARC
  5
A101
330
9FC5
100
AcDbEntity
  8
1
  6
Continuous
100
AcDbCircle
 10
292.275437
 20
198.4766309999999
 30
0.0
 40
39.85605000000001
100
AcDbArc
 50
359.72401
 51
27.55968199999999
  0
ARC
  5
A102
330
9FC5
100
AcDbEntity
  8
1
  6
Continuous
100
AcDbCircle
 10
445.131487
 20
184.89158
 30
0.0
 40
8.5
100
AcDbArc
 50
217.23321
 51
5.653069999999998
  0
LINE
  5
A103
330
9FC5
100
AcDbEntity
  8
4
  6
CENTER
 48
0.8
100
AcDbLine
 10
445.131487
 20
219.8915819999998
 30
0.0
 11
445.131487
 21
147.39158
 31
0.0
  0
LINE
  5
A104
330
9FC5
100
AcDbEntity
  8
4
  6
CENTER
 48
0.8
100
AcDbLine
 10
482.631487
 20
184.89158
 30
0.0
 11
407.631487
 21
184.89158
 31
0.0
  0
LINE
  5
A105
330
9FC5
100
AcDbEntity
  8
1
  6
Continuous
100
AcDbLine
 10
438.3639599999998
 20
179.7485669999999
 30
0.0
 11
411.641743
 21
214.911494
 31
0.0
  0
LINE
  5
A106
330
9FC5
100
AcDbEntity
  8
1
  6
Continuous
100
AcDbLine
 10
445.8314879999998
 20
224.9915779999998
 30
0.0
 11
403.131487
 21
224.9915779999998
 31
0.0
  0
LINE
  5
A107
330
9FC5
100
AcDbEntity
  8
1
  6
Continuous
100
AcDbLine
 10
446.5814879999999
 20
226.4915779999999
 30
0.0
 11
401.678356
 21
226.4915779999999
 31
0.0
  0
LINE
  5
A108
330
9FC5
100
AcDbEntity
  8
1
  6
Continuous
100
AcDbLine
 10
459.1314869999997
 20
230.0915809999999
 30
0.0
 11
389.131487
 21
230.0915809999999
 31
0.0
  0
LINE
  5
A109
330
9FC5
100
AcDbEntity
  8
1
  6
Continuous
100
AcDbLine
 10
459.1314869999997
 20
232.3915799999999
 30
0.0
 11
389.131487
 21
232.3915799999999
 31
0.0
  0
ARC
  5
A10A
330
9FC5
100
AcDbEntity
  8
1
  6
Continuous
100
AcDbCircle
 10
449.374748
 20
224.4245339999999
 30
0.0
 40
5.0
100
AcDbArc
 50
209.1702399999998
 51
269.50427
  0
LINE
  5
A10B
330
9FC5
100
AcDbEntity
  8
1
  6
Continuous
100
AcDbLine
 10
449.3314879999998
 20
221.4915779999997
 30
0.0
 11
449.3314879999998
 21
219.191577
 31
0.0
  0
LINE
  5
A10C
330
9FC5
100
AcDbEntity
  8
4
  6
CENTER
 48
0.8
100
AcDbLine
 10
424.131487
 20
237.3915799999998
 30
0.0
 11
424.131487
 21
191.2811979999999
 31
0.0
  0
CIRCLE
  5
A10D
330
9FC5
100
AcDbEntity
  8
1
  6
Continuous
100
AcDbCircle
 10
445.131487
 20
184.89158
 30
0.0
 40
6.0
  0
LINE
  5
A10E
330
9FC5
100
AcDbEntity
  8
1
  6
Continuous
100
AcDbLine
 10
453.590148
 20
185.7288719999999
 30
0.0
 11
450.7839009999998
 21
214.078689
 31
0.0
  0
ARC
  5
A10F
330
9FC5
100
AcDbEntity
  8
1
  6
Continuous
100
AcDbCircle
 10
435.8568519999998
 20
212.601114
 30
0.0
 40
15.0
100
AcDbArc
 50
5.653069999999998
 51
26.0633
  0
ARC
  5
A110
330
9FC5
100
AcDbEntity
  8
1
  6
Continuous
100
AcDbCircle
 10
431.631487
 20
198.3569199999998
 30
0.0
 40
9.0
100
AcDbArc
 50
266.28055
 51
0.00002
  0
LINE
  5
A111
330
9FC5
100
AcDbEntity
  8
1
  6
Continuous
100
AcDbLine
 10
440.631487
 20
219.235807
 30
0.0
 11
440.631487
 21
198.3569199999998
 31
0.0
  0
ARC
  5
A112
330
9FC5
100
AcDbEntity
  8
1
  6
Continuous
100
AcDbCircle
 10
446.744373
 20
219.5404579999999
 30
0.0
 40
3.0
100
AcDbArc
 50
30.41605999999999
 51
125.3451639999999
  0
ARC
  5
A113
330
9FC5
100
AcDbEntity
  8
1
  6
Continuous
100
AcDbCircle
 10
445.8314879999998
 20
221.4915779999997
 30
0.0
 40
3.5
100
AcDbArc
 50
0.00004
 51
90.00001800000005
  0
ARC
  5
A114
330
9FC5
100
AcDbEntity
  8
1
  6
Continuous
100
AcDbCircle
 10
446.5814879999999
 20
229.9915799999999
 30
0.0
 40
3.5
100
AcDbArc
 50
269.99998
 51
338.5410699999998
  0
LINE
  5
A115
330
9FC5
100
AcDbEntity
  8
1
  6
Continuous
100
AcDbLine
 10
450.381484
 20
230.091583
 30
0.0
 11
449.8388659999998
 21
228.711163
 31
0.0
  0
LINE
  5
A116
330
9FC5
100
AcDbEntity
  8
4
  6
CENTER
 48
0.8
100
AcDbLine
 10
451.631487
 20
225.0915809999999
 30
0.0
 11
451.631487
 21
237.3915799999998
 31
0.0
  0
LINE
  5
A117
330
9FC5
100
AcDbEntity
  8
1
  6
Continuous
100
AcDbLine
 10
459.1314869999997
 20
230.091584
 30
0.0
 11
459.1314869999997
 21
232.391583
 31
0.0
  0
ARC
  5
A118
330
9FC5
100
AcDbEntity
  8
1
  6
Continuous
100
AcDbCircle
 10
439.155703
 20
226.5665779999999
 30
0.0
 40
3.174999999999998
100
AcDbArc
 50
330.26016
 51
0.00004
  0
ARC
  5
A119
330
9FC5
100
AcDbEntity
  8
1
  6
Continuous
100
AcDbCircle
 10
435.635758
 20
226.5665779999999
 30
0.0
 40
3.174999999999998
100
AcDbArc
 50
330.26016
 51
0.00004
  0
ARC
  5
A11A
330
9FC5
100
AcDbEntity
  8
1
  6
Continuous
100
AcDbCircle
 10
430.3591019999998
 20
226.5665779999999
 30
0.0
 40
3.174999999999998
100
AcDbArc
 50
330.26016
 51
0.00004
  0
ARC
  5
A11B
330
9FC5
100
AcDbEntity
  8
1
  6
Continuous
100
AcDbCircle
 10
440.3814869999997
 20
226.566581
 30
0.0
 40
3.174999999999998
100
AcDbArc
 50
330.2601099999999
 51
0.00004
  0
ARC
  5
A11C
330
9FC5
100
AcDbEntity
  8
1
  6
Continuous
100
AcDbCircle
 10
417.9038719999998
 20
226.5665779999999
 30
0.0
 40
3.174999999999998
100
AcDbArc
 50
180.0
 51
209.73987
  0
ARC
  5
A11D
330
9FC5
100
AcDbEntity
  8
1
  6
Continuous
100
AcDbCircle
 10
430.3591019999998
 20
226.5665779999999
 30
0.0
 40
3.174999999999998
100
AcDbArc
 50
191.2671299999999
 51
209.73987
  0
ARC
  5
A11E
330
9FC5
100
AcDbEntity
  8
1
  6
Continuous
100
AcDbCircle
 10
424.131487
 20
226.5665779999999
 30
0.0
 40
3.174999999999998
100
AcDbArc
 50
330.26016
 51
0.00004
  0
ARC
  5
A11F
330
9FC5
100
AcDbEntity
  8
1
  6
Continuous
100
AcDbCircle
 10
417.9038719999998
 20
226.5665779999999
 30
0.0
 40
3.174999999999998
100
AcDbArc
 50
330.26015
 51
348.7328699999998
  0
ARC
  5
A120
330
9FC5
100
AcDbEntity
  8
1
  6
Continuous
100
AcDbCircle
 10
424.131487
 20
226.5665779999999
 30
0.0
 40
3.174999999999998
100
AcDbArc
 50
180.0
 51
209.73987
  0
LINE
  5
A121
330
9FC5
100
AcDbEntity
  8
1
  6
Continuous
100
AcDbLine
 10
399.6314869999998
 20
221.4915779999997
 30
0.0
 11
399.6314869999998
 21
217.9915779999999
 31
0.0
  0
LINE
  5
A122
330
9FC5
100
AcDbEntity
  8
1
  6
Continuous
100
AcDbLine
 10
405.33267
 20
217.9915779999999
 30
0.0
 11
399.6314869999998
 21
217.9915779999999
 31
0.0
  0
ARC
  5
A123
330
9FC5
100
AcDbEntity
  8
1
  6
Continuous
100
AcDbCircle
 10
405.33267
 20
209.9915779999999
 30
0.0
 40
8.0
100
AcDbArc
 50
37.95115999999997
 51
90.00001800000005
  0
ARC
  5
A124
330
9FC5
100
AcDbEntity
  8
1
  6
Continuous
100
AcDbCircle
 10
403.131487
 20
221.4915779999997
 30
0.0
 40
3.5
100
AcDbArc
 50
90.0
 51
180.0
  0
ARC
  5
A125
330
9FC5
100
AcDbEntity
  8
1
  6
Continuous
100
AcDbCircle
 10
409.1072709999998
 20
226.5665779999999
 30
0.0
 40
3.174999999999998
100
AcDbArc
 50
180.0
 51
209.73987
  0
ARC
  5
A126
330
9FC5
100
AcDbEntity
  8
1
  6
Continuous
100
AcDbCircle
 10
412.627215
 20
226.5665779999999
 30
0.0
 40
3.174999999999998
100
AcDbArc
 50
180.0
 51
209.73987
  0
ARC
  5
A127
330
9FC5
100
AcDbEntity
  8
1
  6
Continuous
100
AcDbCircle
 10
407.881487
 20
226.566581
 30
0.0
 40
3.174999999999998
100
AcDbArc
 50
180.0
 51
209.7399199999999
  0
ARC
  5
A128
330
9FC5
100
AcDbEntity
  8
1
  6
Continuous
100
AcDbCircle
 10
401.681486
 20
229.991577
 30
0.0
 40
3.5
100
AcDbArc
 50
201.4589799999999
 51
269.99998
  0
LINE
  5
A129
330
9FC5
100
AcDbEntity
  8
1
  6
Continuous
100
AcDbLine
 10
397.881491
 20
230.0915759999998
 30
0.0
 11
398.4241089999999
 21
228.711155
 31
0.0
  0
LINE
  5
A12A
330
9FC5
100
AcDbEntity
  8
4
  6
CENTER
 48
0.8
100
AcDbLine
 10
396.631487
 20
225.0915809999999
 30
0.0
 11
396.631487
 21
237.3915799999998
 31
0.0
  0
LINE
  5
A12B
330
9FC5
100
AcDbEntity
  8
1
  6
Continuous
100
AcDbLine
 10
389.131487
 20
230.0915779999999
 30
0.0
 11
389.131487
 21
232.3915799999999
 31
0.0
  0
CIRCLE
  5
A12C
330
9FC5
100
AcDbEntity
  8
1
  6
Continuous
100
AcDbCircle
 10
445.131487
 20
184.89158
 30
0.0
 40
2.9
  0
ARC
  5
A12D
330
9FC5
100
AcDbEntity
  8
1
  6
Continuous
100
AcDbCircle
 10
191.1314869999999
 20
70.89158000000002
 30
0.0
 40
24.5
100
AcDbArc
 50
231.1981569999999
 51
127.752001
  0
ARC
  5
A12E
330
9FC5
100
AcDbEntity
  8
1
  6
Continuous
100
AcDbCircle
 10
191.1314869999999
 20
70.89158000000002
 30
0.0
 40
22.2
100
AcDbArc
 50
270.0
 51
90.0
  0
ARC
  5
A13A
330
9FC5
100
AcDbEntity
  8
1
  6
Continuous
100
AcDbCircle
 10
292.1314869999998
 20
198.375877
 30
0.0
 40
9.0
100
AcDbArc
 50
180.0
 51
247.666299
  0
ARC
  5
A13B
330
9FC5
100
AcDbEntity
  8
1
  6
Continuous
100
AcDbCircle
 10
288.1314949999998
 20
188.89158
 30
0.0
 40
2.0
100
AcDbArc
 50
112.450384
 51
180.0
  0
ARC
  5
A13C
330
9FC5
100
AcDbEntity
  8
1
  6
Continuous
100
AcDbCircle
 10
288.331484
 20
189.1260139999999
 30
0.0
 40
1.0
100
AcDbArc
 50
0.0
 51
67.66629899999999
  0
ARC
  5
A13D
330
9FC5
100
AcDbEntity
  8
1
  6
Continuous
100
AcDbCircle
 10
292.1314869999998
 20
198.375877
 30
0.0
 40
6.7
100
AcDbArc
 50
180.0
 51
247.666317
  0
ARC
  5
A13E
330
9FC5
100
AcDbEntity
  8
1
  6
Continuous
100
AcDbCircle
 10
288.3314869999998
 20
189.126013
 30
0.0
 40
3.299999999999998
100
AcDbArc
 50
0.0
 51
67.66631700000001
  0
ARC
  5
A13F
330
9FC5
100
AcDbEntity
  8
1
  6
Continuous
100
AcDbCircle
 10
323.1314869999998
 20
198.375877
 30
0.0
 40
9.0
100
AcDbArc
 50
292.333683
 51
0.0
  0
ARC
  5
A140
330
9FC5
100
AcDbEntity
  8
1
  6
Continuous
100
AcDbCircle
 10
323.1314869999998
 20
198.375877
 30
0.0
 40
6.7
100
AcDbArc
 50
292.333683
 51
0.0
  0
ARC
  5
A141
330
9FC5
100
AcDbEntity
  8
1
  6
Continuous
100
AcDbCircle
 10
326.931487
 20
189.126013
 30
0.0
 40
3.299999999999998
100
AcDbArc
 50
112.333683
 51
180.0
  0
ARC
  5
A142
330
9FC5
100
AcDbEntity
  8
1
  6
Continuous
100
AcDbCircle
 10
326.931487
 20
189.126013
 30
0.0
 40
1.0
100
AcDbArc
 50
112.333683
 51
180.0
  0
ARC
  5
A143
330
9FC5
100
AcDbEntity
  8
1
  6
Continuous
100
AcDbCircle
 10
326.431487
 20
189.068124
 30
0.0
 40
1.5
100
AcDbArc
 50
359.9999799999998
 51
58.845437
  0
LINE
  5
A144
330
9FC5
100
AcDbEntity
  8
1
  6
Continuous
100
AcDbLine
 10
326.1670449999998
 20
189.7707049999999
 30
0.0
 11
325.931487
 21
188.89158
 31
0.0
  0
ARC
  5
A145
330
9FC5
100
AcDbEntity
  8
1
  6
Continuous
100
AcDbCircle
 10
191.13153
 20
88.47538
 30
0.0
 40
6.916199999999999
100
AcDbArc
 50
90.0
 51
167.479065
  0
ARC
  5
A146
330
9FC5
100
AcDbEntity
  8
1
  6
Continuous
100
AcDbCircle
 10
183.403602
 20
90.19158299999999
 30
0.0
 40
1.0
100
AcDbArc
 50
270.0
 51
347.479065
  0
ARC
  5
A147
330
9FC5
100
AcDbEntity
  8
1
  6
Continuous
100
AcDbCircle
 10
182.06533
 20
90.19158
 30
0.0
 40
3.299999999999998
100
AcDbArc
 50
270.0
 51
331.964356
  0
ARC
  5
A148
330
9FC5
100
AcDbEntity
  8
1
  6
Continuous
100
AcDbCircle
 10
191.13153
 20
88.47538
 30
0.0
 40
4.6162
100
AcDbArc
 50
90.0
 51
115.949592
  0
ARC
  5
A149
330
9FC5
100
AcDbEntity
  8
1
  6
Continuous
100
AcDbCircle
 10
193.1754449999999
 20
84.27535799999999
 30
0.0
 40
9.28715
100
AcDbArc
 50
115.949592
 51
151.964356
  0
ARC
  5
A14A
330
9FC5
100
AcDbEntity
  8
1
  6
Continuous
100
AcDbCircle
 10
182.06533
 20
51.59158
 30
0.0
 40
3.299999999999998
100
AcDbArc
 50
28.035644
 51
90.0
  0
ARC
  5
A14B
330
9FC5
100
AcDbEntity
  8
1
  6
Continuous
100
AcDbCircle
 10
193.1754449999999
 20
57.50780200000001
 30
0.0
 40
9.28715
100
AcDbArc
 50
208.035644
 51
244.050408
  0
ARC
  5
A14C
330
9FC5
100
AcDbEntity
  8
1
  6
Continuous
100
AcDbCircle
 10
191.13153
 20
53.30778000000001
 30
0.0
 40
4.6162
100
AcDbArc
 50
244.050408
 51
270.0
  0
ARC
  5
A14D
330
9FC5
100
AcDbEntity
  8
1
  6
Continuous
100
AcDbCircle
 10
191.13153
 20
53.30778000000001
 30
0.0
 40
6.916199999999999
100
AcDbArc
 50
192.520912
 51
270.0
  0
ARC
  5
A14E
330
9FC5
100
AcDbEntity
  8
1
  6
Continuous
100
AcDbCircle
 10
183.403601
 20
51.59158
 30
0.0
 40
1.0
100
AcDbArc
 50
12.52091199999999
 51
90.0
  0
ARC
  5
A14F
330
9FC5
100
AcDbEntity
  8
1
  6
Continuous
100
AcDbCircle
 10
325.8359369999999
 20
215.9915779999999
 30
0.0
 40
2.0
100
AcDbArc
 50
27.55968199999999
 51
90.0
  0
ARC
  5
A150
330
9FC5
100
AcDbEntity
  8
1
  6
Continuous
100
AcDbCircle
 10
289.427037
 20
215.9915779999999
 30
0.0
 40
2.0
100
AcDbArc
 50
90.0
 51
152.440318
  0
LINE
  5
A151
330
9FC5
100
AcDbEntity
  8
1
  6
Continuous
100
AcDbLine
 10
139.4691949999999
 20
326.3915799999998
 30
0.0
 11
158.208007
 21
326.3915799999998
 31
0.0
  0
LINE
  5
A152
330
9FC5
100
AcDbEntity
  8
1
  6
Continuous
100
AcDbLine
 10
139.4691949999999
 20
301.3915799999998
 30
0.0
 11
158.208003
 21
301.3915799999998
 31
0.0
  0
ARC
  5
A153
330
9FC5
100
AcDbEntity
  8
1
  6
Continuous
100
AcDbCircle
 10
187.881487
 20
313.8915799999998
 30
0.0
 40
50.0
100
AcDbArc
 50
165.5224879999998
 51
194.4775119999999
  0
ARC
  5
A154
330
9FC5
100
AcDbEntity
  8
1
  6
Continuous
100
AcDbCircle
 10
56.13148699999999
 20
167.14158
 30
0.0
 40
50.0
100
AcDbArc
 50
75.52248799999998
 51
104.477512
  0
ARC
  5
A155
330
9FC5
100
AcDbEntity
  8
1
  6
Continuous
100
AcDbCircle
 10
56.13148699999999
 20
202.64158
 30
0.0
 40
50.0
100
AcDbArc
 50
255.522488
 51
284.4775119999998
  0
LINE
  5
A156
330
9FC5
100
AcDbEntity
  8
1
  6
Continuous
100
AcDbLine
 10
43.63148699999999
 20
215.553872
 30
0.0
 11
43.63148699999999
 21
154.2292879999999
 31
0.0
  0
LINE
  5
A157
330
9FC5
100
AcDbEntity
  8
1
  6
Continuous
100
AcDbLine
 10
41.13148699999999
 20
193.89158
 30
0.0
 11
41.13148699999999
 21
175.891579
 31
0.0
  0
ARC
  5
A158
330
9FC5
100
AcDbEntity
  8
1
  6
Continuous
100
AcDbCircle
 10
42.131487
 20
175.89158
 30
0.0
 40
1.0
100
AcDbArc
 50
179.9999799999999
 51
260.8565899999999
  0
LINE
  5
A159
330
9FC5
100
AcDbEntity
  8
1
  6
Continuous
100
AcDbLine
 10
43.63148699999999
 20
174.637299
 30
0.0
 11
41.97258999999998
 21
174.9042929999999
 31
0.0
  0
ARC
  5
A15A
330
9FC5
100
AcDbEntity
  8
1
  6
Continuous
100
AcDbCircle
 10
42.131487
 20
193.89158
 30
0.0
 40
1.0
100
AcDbArc
 50
99.14342000000001
 51
180.00002
  0
LINE
  5
A15B
330
9FC5
100
AcDbEntity
  8
1
  6
Continuous
100
AcDbLine
 10
43.63148699999999
 20
195.145862
 30
0.0
 11
41.97258999999998
 21
194.8788679999999
 31
0.0
  0
LINE
  5
A15C
330
9FC5
100
AcDbEntity
  8
1
  6
Continuous
100
AcDbLine
 10
68.63148699999999
 20
215.553872
 30
0.0
 11
68.63148699999999
 21
154.2292879999999
 31
0.0
  0
LINE
  5
A15D
330
9FC5
100
AcDbEntity
  8
1
  6
Continuous
100
AcDbLine
 10
71.13148699999998
 20
193.89158
 30
0.0
 11
71.13148699999998
 21
175.891579
 31
0.0
  0
LINE
  5
A15E
330
9FC5
100
AcDbEntity
  8
1
  6
Continuous
100
AcDbLine
 10
68.63148699999999
 20
174.637291
 30
0.0
 11
70.29038800000001
 21
174.904287
 31
0.0
  0
ARC
  5
A15F
330
9FC5
100
AcDbEntity
  8
1
  6
Continuous
100
AcDbCircle
 10
70.13148699999999
 20
175.89158
 30
0.0
 40
1.0
100
AcDbArc
 50
279.14335
 51
359.99995
  0
LINE
  5
A160
330
9FC5
100
AcDbEntity
  8
1
  6
Continuous
100
AcDbLine
 10
68.63148699999999
 20
195.145869
 30
0.0
 11
70.29039199999999
 21
194.878873
 31
0.0
  0
ARC
  5
A161
330
9FC5
100
AcDbEntity
  8
1
  6
Continuous
100
AcDbCircle
 10
70.13148699999999
 20
193.89158
 30
0.0
 40
1.0
100
AcDbArc
 50
0.000055
 51
80.85665400000001
  0
ARC
  5
A162
330
9FC5
100
AcDbEntity
  8
1
  6
Continuous
100
AcDbCircle
 10
307.631487
 20
202.64158
 30
0.0
 40
50.0
100
AcDbArc
 50
255.522488
 51
284.4775119999998
  0
ARC
  5
A163
330
9FC5
100
AcDbEntity
  8
1
  6
Continuous
100
AcDbCircle
 10
307.631487
 20
167.14158
 30
0.0
 40
50.0
100
AcDbArc
 50
75.52248799999998
 51
104.477512
  0
LINE
  5
A164
330
9FC5
100
AcDbEntity
  8
1
  6
Continuous
100
AcDbLine
 10
295.131487
 20
215.553872
 30
0.0
 11
295.131487
 21
154.2292879999999
 31
0.0
  0
ARC
  5
A165
330
9FC5
100
AcDbEntity
  8
1
  6
Continuous
100
AcDbCircle
 10
293.6314869999998
 20
193.89158
 30
0.0
 40
1.0
100
AcDbArc
 50
99.14342000000001
 51
180.00002
  0
ARC
  5
A166
330
9FC5
100
AcDbEntity
  8
1
  6
Continuous
100
AcDbCircle
 10
293.6314869999998
 20
175.89158
 30
0.0
 40
1.0
100
AcDbArc
 50
179.9999799999999
 51
260.8565899999999
  0
LINE
  5
A167
330
9FC5
100
AcDbEntity
  8
1
  6
Continuous
100
AcDbLine
 10
292.631487
 20
193.89158
 30
0.0
 11
292.631487
 21
175.891579
 31
0.0
  0
LINE
  5
A168
330
9FC5
100
AcDbEntity
  8
1
  6
Continuous
100
AcDbLine
 10
295.131487
 20
195.145862
 30
0.0
 11
293.4725899999999
 21
194.8788679999999
 31
0.0
  0
LINE
  5
A169
330
9FC5
100
AcDbEntity
  8
1
  6
Continuous
100
AcDbLine
 10
295.131487
 20
174.637299
 30
0.0
 11
293.4725899999999
 21
174.9042929999999
 31
0.0
  0
LINE
  5
A16A
330
9FC5
100
AcDbEntity
  8
1
  6
Continuous
100
AcDbLine
 10
320.131487
 20
215.553872
 30
0.0
 11
320.131487
 21
154.2292879999999
 31
0.0
  0
ARC
  5
A16B
330
9FC5
100
AcDbEntity
  8
1
  6
Continuous
100
AcDbCircle
 10
321.631487
 20
193.89158
 30
0.0
 40
1.0
100
AcDbArc
 50
0.000055
 51
80.85665400000001
  0
LINE
  5
A16C
330
9FC5
100
AcDbEntity
  8
1
  6
Continuous
100
AcDbLine
 10
320.131487
 20
195.145869
 30
0.0
 11
321.7903919999999
 21
194.878873
 31
0.0
  0
ARC
  5
A16D
330
9FC5
100
AcDbEntity
  8
1
  6
Continuous
100
AcDbCircle
 10
321.631487
 20
175.89158
 30
0.0
 40
1.0
100
AcDbArc
 50
279.14335
 51
359.99995
  0
LINE
  5
A16E
330
9FC5
100
AcDbEntity
  8
1
  6
Continuous
100
AcDbLine
 10
320.131487
 20
174.637291
 30
0.0
 11
321.790388
 21
174.904287
 31
0.0
  0
LINE
  5
A16F
330
9FC5
100
AcDbEntity
  8
1
  6
Continuous
100
AcDbLine
 10
322.6314869999999
 20
193.89158
 30
0.0
 11
322.6314869999999
 21
175.891579
 31
0.0
  0
LINE
  5
A170
330
9FC5
100
AcDbEntity
  8
1
  6
Continuous
100
AcDbLine
 10
139.4691949999999
 20
58.39158000000001
 30
0.0
 11
200.793779
 21
58.39158000000001
 31
0.0
  0
LINE
  5
A171
330
9FC5
100
AcDbEntity
  8
1
  6
Continuous
100
AcDbLine
 10
139.4691949999999
 20
83.39158000000002
 30
0.0
 11
200.793779
 21
83.39158000000002
 31
0.0
  0
LINE
  5
A172
330
9FC5
100
AcDbEntity
  8
1
  6
Continuous
100
AcDbLine
 10
159.877205
 20
58.39158000000001
 30
0.0
 11
160.1441989999998
 21
56.732683
 31
0.0
  0
LINE
  5
A173
330
9FC5
100
AcDbEntity
  8
1
  6
Continuous
100
AcDbLine
 10
180.3857689999999
 20
58.39158000000001
 30
0.0
 11
180.118775
 21
56.732683
 31
0.0
  0
LINE
  5
A174
330
9FC5
100
AcDbEntity
  8
1
  6
Continuous
100
AcDbLine
 10
161.1314869999999
 20
55.89158000000001
 30
0.0
 11
179.1314879999999
 21
55.89158000000001
 31
0.0
  0
ARC
  5
A175
330
9FC5
100
AcDbEntity
  8
1
  6
Continuous
100
AcDbCircle
 10
161.1314869999999
 20
56.89157999999999
 30
0.0
 40
1.0
100
AcDbArc
 50
189.1434199999999
 51
270.00002
  0
ARC
  5
A176
330
9FC5
100
AcDbEntity
  8
1
  6
Continuous
100
AcDbCircle
 10
179.1314869999999
 20
56.89157999999999
 30
0.0
 40
1.0
100
AcDbArc
 50
269.99998
 51
350.8565899999999
  0
LINE
  5
A177
330
9FC5
100
AcDbEntity
  8
1
  6
Continuous
100
AcDbLine
 10
161.1314869999999
 20
85.89158000000002
 30
0.0
 11
179.1314879999999
 21
85.89158000000002
 31
0.0
  0
ARC
  5
A178
330
9FC5
100
AcDbEntity
  8
1
  6
Continuous
100
AcDbCircle
 10
187.881487
 20
70.89158000000002
 30
0.0
 40
50.0
100
AcDbArc
 50
165.5224879999998
 51
194.4775119999999
  0
ARC
  5
A179
330
9FC5
100
AcDbEntity
  8
1
  6
Continuous
100
AcDbCircle
 10
161.1314869999999
 20
84.89158000000001
 30
0.0
 40
1.0
100
AcDbArc
 50
90.00005499999994
 51
170.8566539999999
  0
LINE
  5
A17A
330
9FC5
100
AcDbEntity
  8
1
  6
Continuous
100
AcDbLine
 10
159.8771979999999
 20
83.39158000000002
 30
0.0
 11
160.1441939999999
 21
85.05048499999999
 31
0.0
  0
ARC
  5
A17B
330
9FC5
100
AcDbEntity
  8
1
  6
Continuous
100
AcDbCircle
 10
179.1314869999999
 20
84.89158000000001
 30
0.0
 40
1.0
100
AcDbArc
 50
9.143349999999999
 51
89.99995000000001
  0
LINE
  5
A17C
330
9FC5
100
AcDbEntity
  8
1
  6
Continuous
100
AcDbLine
 10
180.3857759999999
 20
83.39158000000002
 30
0.0
 11
180.1187799999999
 21
85.05048100000001
 31
0.0
  0
ARC
  5
A17D
330
9FC5
100
AcDbEntity
  8
1
  6
Continuous
100
AcDbCircle
 10
152.3814869999999
 20
70.89158000000002
 30
0.0
 40
50.0
100
AcDbArc
 50
345.522488
 51
14.47751199999999
  0
ARC
  5
A17E
330
9FC5
100
AcDbEntity
  8
1
  6
Continuous
100
AcDbCircle
 10
170.131487
 20
184.89158
 30
0.0
 40
27.5
100
AcDbArc
 50
102.351364
 51
34.76237199999999
  0
ARC
  5
A17F
330
9FC5
100
AcDbEntity
  8
1
  6
Continuous
100
AcDbCircle
 10
170.131487
 20
184.89158
 30
0.0
 40
10.0
100
AcDbArc
 50
142.55858
 51
354.555154
  0
ARC
  5
A180
330
9FC5
100
AcDbEntity
  8
1
  6
Continuous
100
AcDbCircle
 10
170.131487
 20
184.89158
 30
0.0
 40
32.5
100
AcDbArc
 50
98.97066399999999
 51
37.605457
  0
ARC
  5
A181
330
9FC5
100
AcDbEntity
  8
1
  6
Continuous
100
AcDbCircle
 10
445.131487
 20
184.89158
 30
0.0
 40
10.0
100
AcDbArc
 50
185.444846
 51
37.44142
  0
ARC
  5
A182
330
9FC5
100
AcDbEntity
  8
1
  6
Continuous
100
AcDbCircle
 10
445.131487
 20
184.89158
 30
0.0
 40
32.5
100
AcDbArc
 50
142.394543
 51
81.029336
  0
ARC
  5
A183
330
9FC5
100
AcDbEntity
  8
1
  6
Continuous
100
AcDbCircle
 10
445.131487
 20
184.89158
 30
0.0
 40
27.5
100
AcDbArc
 50
145.237628
 51
77.64863599999998
  0
ENDSEC
  0
SECTION
  2
OBJECTS
  0
DICTIONARY
  5
9FB3
330
0
100
AcDbDictionary
281
     1
  3
ACAD_CIP_PREVIOUS_PRODUCT_INFO
350
A202
  3
ACAD_COLOR
350
A1E4
  3
ACAD_DETAILVIEWSTYLE
350
A1FD
  3
ACAD_GROUP
350
9FB4
  3
ACAD_LAYOUT
350
9FC0
  3
ACAD_MATERIAL
350
A1B2
  3
ACAD_MLEADERSTYLE
350
A1F9
  3
ACAD_MLINESTYLE
350
9FBD
  3
ACAD_PLOTSETTINGS
350
9FBF
  3
ACAD_PLOTSTYLENAME
350
A1B0
  3
ACAD_SCALELIST
350
A1E7
  3
ACAD_SECTIONVIEWSTYLE
350
A1FB
  3
ACAD_TABLESTYLE
350
A1E5
  3
ACAD_VISUALSTYLE
350
A1CB
  3
ACDB_RECOMPOSE_DATA
350
A220
  3
AcDbVariableDictionary
350
A213
  3
DWGPROPS
350
A221
  0
DICTIONARY
  5
A203
330
9FB7
100
AcDbDictionary
280
     1
281
     1
  3
ADSK_XREC_LAYER_RECONCILED
360
A204
  0
DICTIONARY
  5
A205
330
9FCD
100
AcDbDictionary
280
     1
281
     1
  3
ADSK_XREC_LAYER_RECONCILED
360
A206
  0
DICTIONARY
  5
A207
330
9FCE
100
AcDbDictionary
280
     1
281
     1
  3
ADSK_XREC_LAYER_RECONCILED
360
A208
  0
DICTIONARY
  5
A209
330
9FCF
100
AcDbDictionary
280
     1
281
     1
  3
ADSK_XREC_LAYER_RECONCILED
360
A20A
  0
DICTIONARY
  5
A20B
330
9FD0
100
AcDbDictionary
280
     1
281
     1
  3
ADSK_XREC_LAYER_RECONCILED
360
A20C
  0
DICTIONARY
  5
A20D
330
9FD1
100
AcDbDictionary
280
     1
281
     1
  3
ADSK_XREC_LAYER_RECONCILED
360
A20E
  0
DICTIONARY
  5
A20F
330
9FD2
100
AcDbDictionary
280
     1
281
     1
  3
ADSK_XREC_LAYER_RECONCILED
360
A210
  0
DICTIONARY
  5
A211
330
9FD3
100
AcDbDictionary
280
     1
281
     1
  3
ADSK_XREC_LAYER_RECONCILED
360
A212
  0
DICTIONARY
  5
A18E
330
9FC5
100
AcDbDictionary
281
     1
  3
ACAD_LAYOUTSELFREF
350
A1AC
  0
DICTIONARY
  5
A18C
330
9FC1
100
AcDbDictionary
281
     1
  3
ACAD_LAYOUTSELFREF
350
A1AB
  0
XRECORD
  5
A202
102
{ACAD_REACTORS
330
9FB3
102
}
330
9FB3
100
AcDbXrecord
280
     1
300
ACDLT
300
2014
300
ACDLT_F_S
  0
DICTIONARY
  5
A1E4
102
{ACAD_REACTORS
330
9FB3
102
}
330
9FB3
100
AcDbDictionary
281
     1
  0
DICTIONARY
  5
A1FD
102
{ACAD_REACTORS
330
9FB3
102
}
330
9FB3
100
AcDbDictionary
281
     1
  3
Imperial24
350
A1FE
  0
DICTIONARY
  5
9FB4
102
{ACAD_REACTORS
330
9FB3
102
}
330
9FB3
100
AcDbDictionary
281
     1
  0
DICTIONARY
  5
9FC0
102
{ACAD_REACTORS
330
9FB3
102
}
330
9FB3
100
AcDbDictionary
281
     1
  3
Model
350
A1FF
  3
レイアウト1
350
A200
  0
DICTIONARY
  5
A1B2
102
{ACAD_REACTORS
330
9FB3
102
}
330
9FB3
100
AcDbDictionary
281
     1
  3
ByBlock
350
A1BB
  3
ByLayer
350
A1B3
  3
Global
350
A1C3
  0
DICTIONARY
  5
A1F9
102
{ACAD_REACTORS
330
9FB3
102
}
330
9FB3
100
AcDbDictionary
281
     1
  3
Standard
350
A1FA
  0
DICTIONARY
  5
9FBD
102
{ACAD_REACTORS
330
9FB3
102
}
330
9FB3
100
AcDbDictionary
281
     1
  3
STANDARD
350
9FBE
  0
DICTIONARY
  5
9FBF
102
{ACAD_REACTORS
330
9FB3
102
}
330
9FB3
100
AcDbDictionary
281
     1
  0
ACDBDICTIONARYWDFLT
  5
A1B0
102
{ACAD_REACTORS
330
9FB3
102
}
330
9FB3
100
AcDbDictionary
281
     1
  3
Normal
350
A1B1
100
AcDbDictionaryWithDefault
340
A1B1
  0
DICTIONARY
  5
A1E7
102
{ACAD_REACTORS
330
9FB3
102
}
330
9FB3
100
AcDbDictionary
281
     1
  3
A0
350
A1E8
  3
A1
350
A1E9
  3
A2
350
A1EA
  3
A3
350
A1EB
  3
A4
350
A1EC
  3
A5
350
A1ED
  3
A6
350
A1EE
  3
A7
350
A1EF
  3
A8
350
A1F0
  3
A9
350
A1F1
  3
B0
350
A1F2
  3
B1
350
A1F3
  3
B2
350
A1F4
  3
B3
350
A1F5
  3
B4
350
A1F6
  3
B5
350
A1F7
  3
B6
350
A1F8
  0
DICTIONARY
  5
A1FB
102
{ACAD_REACTORS
330
9FB3
102
}
330
9FB3
100
AcDbDictionary
281
     1
  3
Imperial24
350
A1FC
  0
DICTIONARY
  5
A1E5
102
{ACAD_REACTORS
330
9FB3
102
}
330
9FB3
100
AcDbDictionary
281
     1
  3
Standard
350
A1E6
  0
DICTIONARY
  5
A1CB
102
{ACAD_REACTORS
330
9FB3
102
}
330
9FB3
100
AcDbDictionary
281
     1
  3
2dWireframe
350
A1D1
  3
Basic
350
A1D0
  3
Brighten
350
A1D7
  3
ColorChange
350
A1DB
  3
Conceptual
350
A1D4
  3
Dim
350
A1D6
  3
EdgeColorOff
350
A1E3
  3
Facepattern
350
A1DA
  3
Flat
350
A1CC
  3
FlatWithEdges
350
A1CD
  3
Gouraud
350
A1CE
  3
GouraudWithEdges
350
A1CF
  3
Hidden
350
A1D3
  3
JitterOff
350
A1E1
  3
Linepattern
350
A1D9
  3
OverhangOff
350
A1E2
  3
Realistic
350
A1D5
  3
Shaded
350
A1E0
  3
Shaded with edges
350
A1DF
  3
Shades of Gray
350
A1DC
  3
Sketchy
350
A1DD
  3
Thicken
350
A1D8
  3
Wireframe
350
A1D2
  3
X-Ray
350
A1DE
  0
XRECORD
  5
A220
102
{ACAD_REACTORS
330
9FB3
102
}
330
9FB3
100
AcDbXrecord
280
     1
 90
        1
330
A1E6
  0
DICTIONARY
  5
A213
102
{ACAD_REACTORS
330
9FB3
102
}
330
9FB3
100
AcDbDictionary
281
     1
  3
CANNOSCALE
350
A218
  3
CMLEADERSTYLE
350
A215
  3
CTABLESTYLE
350
A214
  3
CVIEWDETAILSTYLE
350
A216
  3
CVIEWSECTIONSTYLE
350
A217
  3
DIMASSOC
350
A21B
  3
INDEXCTL
350
A21A
  3
SORTENTS
350
A219
  3
XCLIPFRAME
350
A21C
  0
XRECORD
  5
A221
102
{ACAD_REACTORS
330
9FB3
102
}
330
9FB3
100
AcDbXrecord
280
     1
  1
DWGPROPS COOKIE
  2

  3

  4

  6

  7

  8
Yoshitsune
  9

300
=
301
=
302
=
303
=
304
=
305
=
306
=
307
=
308
=
309
=
 40
0.1054681134259259
 41
2451301.459548148
 42
2457192.690417258
  1

 90
        0
  0
XRECORD
  5
A204
102
{ACAD_REACTORS
330
A203
102
}
330
A203
100
AcDbXrecord
280
     1
290
     1
  0
XRECORD
  5
A206
102
{ACAD_REACTORS
330
A205
102
}
330
A205
100
AcDbXrecord
280
     1
290
     1
  0
XRECORD
  5
A208
102
{ACAD_REACTORS
330
A207
102
}
330
A207
100
AcDbXrecord
280
     1
290
     1
  0
XRECORD
  5
A20A
102
{ACAD_REACTORS
330
A209
102
}
330
A209
100
AcDbXrecord
280
     1
290
     1
  0
XRECORD
  5
A20C
102
{ACAD_REACTORS
330
A20B
102
}
330
A20B
100
AcDbXrecord
280
     1
290
     1
  0
XRECORD
  5
A20E
102
{ACAD_REACTORS
330
A20D
102
}
330
A20D
100
AcDbXrecord
280
     1
290
     1
  0
XRECORD
  5
A210
102
{ACAD_REACTORS
330
A20F
102
}
330
A20F
100
AcDbXrecord
280
     1
290
     1
  0
XRECORD
  5
A212
102
{ACAD_REACTORS
330
A211
102
}
330
A211
100
AcDbXrecord
280
     1
290
     1
  0
XRECORD
  5
A1AC
102
{ACAD_REACTORS
330
A18E
102
}
330
A18E
100
AcDbXrecord
280
     1
340
9FC5
  0
XRECORD
  5
A1AB
102
{ACAD_REACTORS
330
A18C
102
}
330
A18C
100
AcDbXrecord
280
     1
340
9FC1
  0
ACDBDETAILVIEWSTYLE
  5
A1FE
102
{ACAD_XDICTIONARY
360
A259
102
}
102
{ACAD_REACTORS
330
A1FD
102
}
330
A1FD
100
AcDbModelDocViewStyle
 70
     0
  3
Imperial24
290
     0
100
AcDbDetailViewStyle
 70
     0
 71
     0
 90
        3
 71
     1
340
9FB8
 40
0.24
340
0
 40
0.24
300

 40
0.36
280
     3
 71
     2
340
9FBC
 90
       25
 71
     3
340
9FB8
 40
0.24
 90
        1
 40
0.75
 90
        1
300
%<\AcVar ViewType \f "%tc1">% %<\AcVar ViewDetailId>%\PSCALE %<\AcVar ViewScale \f "%sn">%
 71
     4
340
9FBC
 90
       25
340
9FBC
 90
       25
280
     0
  0
LAYOUT
  5
A1FF
102
{ACAD_XDICTIONARY
360
A25B
102
}
102
{ACAD_REACTORS
330
9FC0
102
}
330
9FC0
100
AcDbPlotSettings
  1

  2
Canon LBP9100C
  4

  6

 40
0.0
 41
0.0
 42
0.0
 43
0.0
 44
0.0
 45
0.0
 46
0.0
 47
0.0
 48
0.0
 49
0.0
140
0.0
141
0.0
142
1.0
143
1.0
 70
  1712
 72
     0
 73
     0
 74
     0
  7

 75
     0
147
1.0
148
0.0
149
0.0
100
AcDbLayout
  1
Model
 70
     1
 71
     0
 10
0.0
 20
0.0
 11
12.0
 21
9.0
 12
0.0
 22
0.0
 32
0.0
 14
0.0
 24
0.0
 34
0.0
 15
0.0
 25
0.0
 35
0.0
146
0.0
 13
0.0
 23
0.0
 33
0.0
 16
1.0
 26
0.0
 36
0.0
 17
0.0
 27
1.0
 37
0.0
 76
     0
330
9FC5
331
A1AA
  0
LAYOUT
  5
A200
102
{ACAD_XDICTIONARY
360
A25D
102
}
102
{ACAD_REACTORS
330
9FC0
102
}
330
9FC0
100
AcDbPlotSettings
  1

  2
Canon LBP9100C
  4

  6

 40
0.0
 41
0.0
 42
0.0
 43
0.0
 44
0.0
 45
0.0
 46
0.0
 47
0.0
 48
0.0
 49
0.0
140
0.0
141
0.0
142
1.0
143
1.0
 70
   688
 72
     0
 73
     0
 74
     5
  7

 75
    16
147
1.0
148
0.0
149
0.0
100
AcDbLayout
  1
レイアウト1
 70
     0
 71
     1
 10
0.0
 20
0.0
 11
420.0
 21
297.0
 12
0.0
 22
0.0
 32
0.0
 14
1.000000000000000E+20
 24
1.000000000000000E+20
 34
1.000000000000000E+20
 15
-1.000000000000000E+20
 25
-1.000000000000000E+20
 35
-1.000000000000000E+20
146
0.0
 13
0.0
 23
0.0
 33
0.0
 16
1.0
 26
0.0
 36
0.0
 17
0.0
 27
1.0
 37
0.0
 76
     0
330
9FC1
  0
MATERIAL
  5
A1BB
102
{ACAD_XDICTIONARY
360
A1BC
102
}
102
{ACAD_REACTORS
330
A1B2
102
}
330
A1B2
100
AcDbMaterial
  1
ByBlock
 72
     0
 43
0.0208333333333333
 43
0.0
 43
0.0
 43
0.0
 43
0.0
 43
0.0208333333333333
 43
0.0
 43
0.0
 43
0.0
 43
0.0
 43
1.0
 43
0.0
 43
0.0
 43
0.0
 43
0.0
 43
1.0
 77
     0
 47
0.0208333333333333
 47
0.0
 47
0.0
 47
0.0
 47
0.0
 47
0.0208333333333333
 47
0.0
 47
0.0
 47
0.0
 47
0.0
 47
1.0
 47
0.0
 47
0.0
 47
0.0
 47
0.0
 47
1.0
171
     0
 49
0.0208333333333333
 49
0.0
 49
0.0
 49
0.0
 49
0.0
 49
0.0208333333333333
 49
0.0
 49
0.0
 49
0.0
 49
0.0
 49
1.0
 49
0.0
 49
0.0
 49
0.0
 49
0.0
 49
1.0
175
     0
142
0.0208333333333333
142
0.0
142
0.0
142
0.0
142
0.0
142
0.0208333333333333
142
0.0
142
0.0
142
0.0
142
0.0
142
1.0
142
0.0
142
0.0
142
0.0
142
0.0
142
1.0
179
     0
144
0.0208333333333333
144
0.0
144
0.0
144
0.0
144
0.0
144
0.0208333333333333
144
0.0
144
0.0
144
0.0
144
0.0
144
1.0
144
0.0
144
0.0
144
0.0
144
0.0
144
1.0
147
0.0208333333333333
147
0.0
147
0.0
147
0.0
147
0.0
147
0.0208333333333333
147
0.0
147
0.0
147
0.0
147
0.0
147
1.0
147
0.0
147
0.0
147
0.0
147
0.0
147
1.0
  0
MATERIAL
  5
A1B3
102
{ACAD_XDICTIONARY
360
A1B4
102
}
102
{ACAD_REACTORS
330
A1B2
102
}
330
A1B2
100
AcDbMaterial
  1
ByLayer
 72
     0
 43
0.0208333333333333
 43
0.0
 43
0.0
 43
0.0
 43
0.0
 43
0.0208333333333333
 43
0.0
 43
0.0
 43
0.0
 43
0.0
 43
1.0
 43
0.0
 43
0.0
 43
0.0
 43
0.0
 43
1.0
 77
     0
 47
0.0208333333333333
 47
0.0
 47
0.0
 47
0.0
 47
0.0
 47
0.0208333333333333
 47
0.0
 47
0.0
 47
0.0
 47
0.0
 47
1.0
 47
0.0
 47
0.0
 47
0.0
 47
0.0
 47
1.0
171
     0
 49
0.0208333333333333
 49
0.0
 49
0.0
 49
0.0
 49
0.0
 49
0.0208333333333333
 49
0.0
 49
0.0
 49
0.0
 49
0.0
 49
1.0
 49
0.0
 49
0.0
 49
0.0
 49
0.0
 49
1.0
175
     0
142
0.0208333333333333
142
0.0
142
0.0
142
0.0
142
0.0
142
0.0208333333333333
142
0.0
142
0.0
142
0.0
142
0.0
142
1.0
142
0.0
142
0.0
142
0.0
142
0.0
142
1.0
179
     0
144
0.0208333333333333
144
0.0
144
0.0
144
0.0
144
0.0
144
0.0208333333333333
144
0.0
144
0.0
144
0.0
144
0.0
144
1.0
144
0.0
144
0.0
144
0.0
144
0.0
144
1.0
147
0.0208333333333333
147
0.0
147
0.0
147
0.0
147
0.0
147
0.0208333333333333
147
0.0
147
0.0
147
0.0
147
0.0
147
1.0
147
0.0
147
0.0
147
0.0
147
0.0
147
1.0
  0
MATERIAL
  5
A1C3
102
{ACAD_XDICTIONARY
360
A1C4
102
}
102
{ACAD_REACTORS
330
A1B2
102
}
330
A1B2
100
AcDbMaterial
  1
Global
 72
     0
 43
0.0208333333333333
 43
0.0
 43
0.0
 43
0.0
 43
0.0
 43
0.0208333333333333
 43
0.0
 43
0.0
 43
0.0
 43
0.0
 43
1.0
 43
0.0
 43
0.0
 43
0.0
 43
0.0
 43
1.0
 77
     0
 47
0.0208333333333333
 47
0.0
 47
0.0
 47
0.0
 47
0.0
 47
0.0208333333333333
 47
0.0
 47
0.0
 47
0.0
 47
0.0
 47
1.0
 47
0.0
 47
0.0
 47
0.0
 47
0.0
 47
1.0
171
     0
 49
0.0208333333333333
 49
0.0
 49
0.0
 49
0.0
 49
0.0
 49
0.0208333333333333
 49
0.0
 49
0.0
 49
0.0
 49
0.0
 49
1.0
 49
0.0
 49
0.0
 49
0.0
 49
0.0
 49
1.0
175
     0
142
0.0208333333333333
142
0.0
142
0.0
142
0.0
142
0.0
142
0.0208333333333333
142
0.0
142
0.0
142
0.0
142
0.0
142
1.0
142
0.0
142
0.0
142
0.0
142
0.0
142
1.0
179
     0
144
0.0208333333333333
144
0.0
144
0.0
144
0.0
144
0.0
144
0.0208333333333333
144
0.0
144
0.0
144
0.0
144
0.0
144
1.0
144
0.0
144
0.0
144
0.0
144
0.0
144
1.0
147
0.0208333333333333
147
0.0
147
0.0
147
0.0
147
0.0
147
0.0208333333333333
147
0.0
147
0.0
147
0.0
147
0.0
147
1.0
147
0.0
147
0.0
147
0.0
147
0.0
147
1.0
  0
MLEADERSTYLE
  5
A1FA
102
{ACAD_REACTORS
330
A1F9
102
}
330
A1F9
100
AcDbMLeaderStyle
170
     2
171
     1
172
     0
 90
        2
 40
0.0
 41
0.0
173
     1
 91
-1056964608
340
9FBA
 92
       -2
290
     1
 42
0.09
291
     1
 43
0.36
  3
Standard
 44
0.18
300

342
9FB8
174
     1
178
     6
175
     1
176
     0
 93
-1056964608
 45
0.18
292
     0
297
     0
 46
0.18
 94
-1056964608
 47
1.0
 49
1.0
140
1.0
293
     1
141
0.0
294
     1
177
     0
142
1.0
295
     0
296
     0
143
0.125
1001
ACAD_MLEADERVER
1070
     2
  0
MLINESTYLE
  5
9FBE
102
{ACAD_REACTORS
330
9FBD
102
}
330
9FBD
100
AcDbMlineStyle
  2
STANDARD
 70
     0
  3

 62
   256
 51
90.0
 52
90.0
 71
     2
 49
0.5
 62
   256
  6
BYLAYER
 49
-0.5
 62
   256
  6
BYLAYER
  0
ACDBPLACEHOLDER
  5
A1B1
102
{ACAD_REACTORS
330
A1B0
102
}
330
A1B0
  0
SCALE
  5
A1E8
102
{ACAD_REACTORS
330
A1E7
102
}
330
A1E7
100
AcDbScale
 70
     0
300
1:1
140
1.0
141
1.0
290
     1
  0
SCALE
  5
A1E9
102
{ACAD_REACTORS
330
A1E7
102
}
330
A1E7
100
AcDbScale
 70
     0
300
1/128" = 1'-0"
140
0.0078125
141
12.0
290
     0
  0
SCALE
  5
A1EA
102
{ACAD_REACTORS
330
A1E7
102
}
330
A1E7
100
AcDbScale
 70
     0
300
1/64" = 1'-0"
140
0.015625
141
12.0
290
     0
  0
SCALE
  5
A1EB
102
{ACAD_REACTORS
330
A1E7
102
}
330
A1E7
100
AcDbScale
 70
     0
300
1/32" = 1'-0"
140
0.03125
141
12.0
290
     0
  0
SCALE
  5
A1EC
102
{ACAD_REACTORS
330
A1E7
102
}
330
A1E7
100
AcDbScale
 70
     0
300
1/16" = 1'-0"
140
0.0625
141
12.0
290
     0
  0
SCALE
  5
A1ED
102
{ACAD_REACTORS
330
A1E7
102
}
330
A1E7
100
AcDbScale
 70
     0
300
3/32" = 1'-0"
140
0.09375
141
12.0
290
     0
  0
SCALE
  5
A1EE
102
{ACAD_REACTORS
330
A1E7
102
}
330
A1E7
100
AcDbScale
 70
     0
300
1/8" = 1'-0"
140
0.125
141
12.0
290
     0
  0
SCALE
  5
A1EF
102
{ACAD_REACTORS
330
A1E7
102
}
330
A1E7
100
AcDbScale
 70
     0
300
3/16" = 1'-0"
140
0.1875
141
12.0
290
     0
  0
SCALE
  5
A1F0
102
{ACAD_REACTORS
330
A1E7
102
}
330
A1E7
100
AcDbScale
 70
     0
300
1/4" = 1'-0"
140
0.25
141
12.0
290
     0
  0
SCALE
  5
A1F1
102
{ACAD_REACTORS
330
A1E7
102
}
330
A1E7
100
AcDbScale
 70
     0
300
3/8" = 1'-0"
140
0.375
141
12.0
290
     0
  0
SCALE
  5
A1F2
102
{ACAD_REACTORS
330
A1E7
102
}
330
A1E7
100
AcDbScale
 70
     0
300
1/2" = 1'-0"
140
0.5
141
12.0
290
     0
  0
SCALE
  5
A1F3
102
{ACAD_REACTORS
330
A1E7
102
}
330
A1E7
100
AcDbScale
 70
     0
300
3/4" = 1'-0"
140
0.75
141
12.0
290
     0
  0
SCALE
  5
A1F4
102
{ACAD_REACTORS
330
A1E7
102
}
330
A1E7
100
AcDbScale
 70
     0
300
1" = 1'-0"
140
1.0
141
12.0
290
     0
  0
SCALE
  5
A1F5
102
{ACAD_REACTORS
330
A1E7
102
}
330
A1E7
100
AcDbScale
 70
     0
300
1-1/2" = 1'-0"
140
1.5
141
12.0
290
     0
  0
SCALE
  5
A1F6
102
{ACAD_REACTORS
330
A1E7
102
}
330
A1E7
100
AcDbScale
 70
     0
300
3" = 1'-0"
140
3.0
141
12.0
290
     0
  0
SCALE
  5
A1F7
102
{ACAD_REACTORS
330
A1E7
102
}
330
A1E7
100
AcDbScale
 70
     0
300
6" = 1'-0"
140
6.0
141
12.0
290
     0
  0
SCALE
  5
A1F8
102
{ACAD_REACTORS
330
A1E7
102
}
330
A1E7
100
AcDbScale
 70
     0
300
1'-0" = 1'-0"
140
12.0
141
12.0
290
     0
  0
ACDBSECTIONVIEWSTYLE
  5
A1FC
102
{ACAD_XDICTIONARY
360
A257
102
}
102
{ACAD_REACTORS
330
A1FB
102
}
330
A1FB
100
AcDbModelDocViewStyle
 70
     0
  3
Imperial24
290
     0
100
AcDbSectionViewStyle
 70
     0
 71
     0
 90
       78
 71
     1
340
9FB8
 40
0.24
340
0
340
0
 40
0.24
300
I, O, Q, S, X, Z
 40
0.48
 90
        3
 40
0.18
 90
        1
 71
     2
340
9FBC
 90
       25
340
9FBC
 90
       50
 40
0.24
 40
0.0
 40
0.24
 71
     3
340
9FB8
 40
0.24
 90
        1
 40
0.75
 90
        1
300
%<\AcVar ViewType \f "%tc1">% %<\AcVar ViewSectionStartId>%-%<\AcVar ViewSectionEndId>%\PSCALE %<\AcVar ViewScale \f "%sn">%
 71
     4
300
ANSI31
 40
1.0
 90
        0
290
     0
290
     0
 90
        6
 40
0.0
 40
1.570796326794896
 40
0.2617993877991494
 40
1.308996938995747
 40
-0.2617993877991494
 40
1.832595714594046
  0
TABLESTYLE
  5
A1E6
102
{ACAD_XDICTIONARY
360
A21E
102
}
102
{ACAD_REACTORS
330
A1E5
102
}
330
A1E5
100
AcDbTableStyle
  3
Standard
 70
     0
 71
     0
 40
0.06
 41
0.06
280
     0
281
     0
  7
STANDARD
140
0.18
170
     2
 62
     0
 63
     7
283
     0
274
    -2
284
     1
 64
     0
275
    -2
285
     1
 65
     0
276
    -2
286
     1
 66
     0
277
    -2
287
     1
 67
     0
278
    -2
288
     1
 68
     0
279
    -2
289
     1
 69
     0
  7
STANDARD
140
0.25
170
     5
 62
     0
 63
     7
283
     0
274
    -2
284
     1
 64
     0
275
    -2
285
     1
 65
     0
276
    -2
286
     1
 66
     0
277
    -2
287
     1
 67
     0
278
    -2
288
     1
 68
     0
279
    -2
289
     1
 69
     0
  7
STANDARD
140
0.18
170
     5
 62
     0
 63
     7
283
     0
274
    -2
284
     1
 64
     0
275
    -2
285
     1
 65
     0
276
    -2
286
     1
 66
     0
277
    -2
287
     1
 67
     0
278
    -2
288
     1
 68
     0
279
    -2
289
     1
 69
     0
  0
VISUALSTYLE
  5
A1D1
102
{ACAD_XDICTIONARY
360
A22F
102
}
102
{ACAD_REACTORS
330
A1CB
102
}
330
A1CB
100
AcDbVisualStyle
  2
2dWireframe
 70
     4
 71
     0
 72
     2
 73
     0
 90
        0
 40
-0.6
 41
-30.0
 62
     5
 63
     7
 74
     1
 91
        4
 64
     7
 65
   257
 75
     1
175
     1
 42
1.0
 92
        0
 66
   257
 43
1.0
 76
     1
 77
     6
 78
     2
 67
     7
 79
     5
170
     0
171
     0
290
     0
174
     0
 93
        1
 44
0.0
173
     0
291
     0
 45
0.0
1001
ACAD
1000
AcDbSavedByObjectVersion
1070
     0
  0
VISUALSTYLE
  5
A1D0
102
{ACAD_XDICTIONARY
360
A22D
102
}
102
{ACAD_REACTORS
330
A1CB
102
}
330
A1CB
100
AcDbVisualStyle
  2
Basic
 70
     7
 71
     1
 72
     0
 73
     1
 90
        0
 40
-0.6
 41
-30.0
 62
     5
 63
     7
 74
     0
 91
        4
 64
     7
 65
   257
 75
     1
175
     1
 42
1.0
 92
        8
 66
     7
 43
1.0
 76
     1
 77
     6
 78
     2
 67
     7
 79
     5
170
     0
171
     0
290
     0
174
     0
 93
        1
 44
0.0
173
     0
291
     1
 45
0.0
1001
ACAD
1000
AcDbSavedByObjectVersion
1070
     0
  0
VISUALSTYLE
  5
A1D7
102
{ACAD_XDICTIONARY
360
A23B
102
}
102
{ACAD_REACTORS
330
A1CB
102
}
330
A1CB
100
AcDbVisualStyle
  2
Brighten
 70
    12
 71
     2
 72
     2
 73
     0
 90
        0
 40
-0.6
 41
-30.0
 62
     5
 63
     7
 74
     1
 91
        4
 64
     7
 65
   257
 75
     1
175
     1
 42
1.0
 92
        8
 66
     7
 43
1.0
 76
     1
 77
     6
 78
     2
 67
     7
 79
     5
170
     0
171
     0
290
     0
174
     0
 93
        1
 44
50.0
173
     0
291
     1
 45
0.0
1001
ACAD
1000
AcDbSavedByObjectVersion
1070
     0
  0
VISUALSTYLE
  5
A1DB
102
{ACAD_XDICTIONARY
360
A243
102
}
102
{ACAD_REACTORS
330
A1CB
102
}
330
A1CB
100
AcDbVisualStyle
  2
ColorChange
 70
    16
 71
     2
 72
     2
 73
     3
 90
        0
 40
-0.6
 41
-30.0
 62
     5
 63
     8
 74
     1
 91
        4
 64
     7
 65
   257
 75
     1
175
     1
 42
1.0
 92
        8
 66
     8
 43
1.0
 76
     1
 77
     6
 78
     2
 67
     7
 79
     5
170
     0
171
     0
290
     0
174
     0
 93
        1
 44
0.0
173
     0
291
     1
 45
0.0
1001
ACAD
1000
AcDbSavedByObjectVersion
1070
     0
  0
VISUALSTYLE
  5
A1D4
102
{ACAD_XDICTIONARY
360
A235
102
}
102
{ACAD_REACTORS
330
A1CB
102
}
330
A1CB
100
AcDbVisualStyle
  2
Conceptual
 70
     9
 71
     3
 72
     2
 73
     0
 90
        0
 40
-0.6
 41
-30.0
 62
     5
 63
     7
 74
     2
 91
        2
 64
     7
 65
   257
 75
     1
175
     1
 42
179.0
 92
        8
 66
     7
 43
1.0
 76
     1
 77
     6
 78
     2
 67
     7
 79
     3
170
     0
171
     0
290
     0
174
     0
 93
        1
 44
0.0
173
     0
291
     0
 45
0.0
1001
ACAD
1000
AcDbSavedByObjectVersion
1070
     0
  0
VISUALSTYLE
  5
A1D6
102
{ACAD_XDICTIONARY
360
A239
102
}
102
{ACAD_REACTORS
330
A1CB
102
}
330
A1CB
100
AcDbVisualStyle
  2
Dim
 70
    11
 71
     2
 72
     2
 73
     0
 90
        0
 40
-0.6
 41
-30.0
 62
     5
 63
     7
 74
     1
 91
        4
 64
     7
 65
   257
 75
     1
175
     1
 42
1.0
 92
        8
 66
     7
 43
1.0
 76
     1
 77
     6
 78
     2
 67
     7
 79
     5
170
     0
171
     0
290
     0
174
     0
 93
        1
 44
-50.0
173
     0
291
     1
 45
0.0
1001
ACAD
1000
AcDbSavedByObjectVersion
1070
     0
  0
VISUALSTYLE
  5
A1E3
102
{ACAD_XDICTIONARY
360
A253
102
}
102
{ACAD_REACTORS
330
A1CB
102
}
330
A1CB
100
AcDbVisualStyle
  2
EdgeColorOff
 70
    22
 71
     2
 72
     2
 73
     0
 90
        0
 40
-0.6
 41
-30.0
 62
     5
 63
     7
 74
     1
 91
        4
 64
     7
 65
   257
 75
     1
175
     1
 42
1.0
 92
        8
 66
     7
 43
1.0
 76
     1
 77
     6
 78
     2
 67
     7
 79
     5
170
     0
171
     0
290
     0
174
     0
 93
        1
 44
0.0
173
     0
291
     1
 45
0.0
1001
ACAD
1000
AcDbSavedByObjectVersion
1070
     0
  0
VISUALSTYLE
  5
A1DA
102
{ACAD_XDICTIONARY
360
A241
102
}
102
{ACAD_REACTORS
330
A1CB
102
}
330
A1CB
100
AcDbVisualStyle
  2
Facepattern
 70
    15
 71
     2
 72
     2
 73
     0
 90
        0
 40
-0.6
 41
-30.0
 62
     5
 63
     7
 74
     1
 91
        4
 64
     7
 65
   257
 75
     1
175
     1
 42
1.0
 92
        8
 66
     7
 43
1.0
 76
     1
 77
     6
 78
     2
 67
     7
 79
     5
170
     0
171
     0
290
     0
174
     0
 93
        1
 44
0.0
173
     0
291
     1
 45
0.0
1001
ACAD
1000
AcDbSavedByObjectVersion
1070
     0
  0
VISUALSTYLE
  5
A1CC
102
{ACAD_XDICTIONARY
360
A225
102
}
102
{ACAD_REACTORS
330
A1CB
102
}
330
A1CB
100
AcDbVisualStyle
  2
Flat
 70
     0
 71
     2
 72
     1
 73
     1
 90
        2
 40
-0.6
 41
30.0
 62
     5
 63
     7
 74
     0
 91
        0
 64
     7
 65
   257
 75
     1
175
     1
 42
1.0
 92
        8
 66
     7
 43
1.0
 76
     1
 77
     6
 78
     2
 67
     7
 79
     5
170
     0
171
     0
290
     0
174
     0
 93
       13
 44
0.0
173
     0
291
     1
 45
0.0
1001
ACAD
1000
AcDbSavedByObjectVersion
1070
     0
  0
VISUALSTYLE
  5
A1CD
102
{ACAD_XDICTIONARY
360
A227
102
}
102
{ACAD_REACTORS
330
A1CB
102
}
330
A1CB
100
AcDbVisualStyle
  2
FlatWithEdges
 70
     1
 71
     2
 72
     1
 73
     1
 90
        2
 40
-0.6
 41
30.0
 62
     5
 63
     7
 74
     1
 91
        0
 64
     7
 65
   257
 75
     1
175
     1
 42
1.0
 92
        0
 66
   257
 43
1.0
 76
     1
 77
     6
 78
     2
 67
     7
 79
     5
170
     0
171
     0
290
     0
174
     0
 93
       13
 44
0.0
173
     0
291
     1
 45
0.0
1001
ACAD
1000
AcDbSavedByObjectVersion
1070
     0
  0
VISUALSTYLE
  5
A1CE
102
{ACAD_XDICTIONARY
360
A229
102
}
102
{ACAD_REACTORS
330
A1CB
102
}
330
A1CB
100
AcDbVisualStyle
  2
Gouraud
 70
     2
 71
     2
 72
     2
 73
     1
 90
        2
 40
-0.6
 41
30.0
 62
     5
 63
     7
 74
     0
 91
        0
 64
     7
 65
   257
 75
     1
175
     1
 42
1.0
 92
        0
 66
     7
 43
1.0
 76
     1
 77
     6
 78
     2
 67
     7
 79
     5
170
     0
171
     0
290
     0
174
     0
 93
       13
 44
0.0
173
     0
291
     1
 45
0.0
1001
ACAD
1000
AcDbSavedByObjectVersion
1070
     0
  0
VISUALSTYLE
  5
A1CF
102
{ACAD_XDICTIONARY
360
A22B
102
}
102
{ACAD_REACTORS
330
A1CB
102
}
330
A1CB
100
AcDbVisualStyle
  2
GouraudWithEdges
 70
     3
 71
     2
 72
     2
 73
     1
 90
        2
 40
-0.6
 41
30.0
 62
     5
 63
     7
 74
     1
 91
        0
 64
     7
 65
   257
 75
     1
175
     1
 42
1.0
 92
        0
 66
   257
 43
1.0
 76
     1
 77
     6
 78
     2
 67
     7
 79
     5
170
     0
171
     0
290
     0
174
     0
 93
       13
 44
0.0
173
     0
291
     1
 45
0.0
1001
ACAD
1000
AcDbSavedByObjectVersion
1070
     0
  0
VISUALSTYLE
  5
A1D3
102
{ACAD_XDICTIONARY
360
A233
102
}
102
{ACAD_REACTORS
330
A1CB
102
}
330
A1CB
100
AcDbVisualStyle
  2
Hidden
 70
     6
 71
     1
 72
     2
 73
     2
 90
        0
 40
-0.6
 41
-30.0
 62
     5
 63
     7
 74
     2
 91
        2
 64
     7
 65
   257
 75
     2
175
     1
 42
40.0
 92
        0
 66
   257
 43
1.0
 76
     1
 77
     6
 78
     2
 67
     7
 79
     3
170
     0
171
     0
290
     0
174
     0
 93
        1
 44
0.0
173
     0
291
     0
 45
0.0
1001
ACAD
1000
AcDbSavedByObjectVersion
1070
     0
  0
VISUALSTYLE
  5
A1E1
102
{ACAD_XDICTIONARY
360
A24F
102
}
102
{ACAD_REACTORS
330
A1CB
102
}
330
A1CB
100
AcDbVisualStyle
  2
JitterOff
 70
    20
 71
     2
 72
     2
 73
     0
 90
        0
 40
-0.6
 41
-30.0
 62
     5
 63
     7
 74
     1
 91
        4
 64
     7
 65
   257
 75
     1
175
     1
 42
1.0
 92
       10
 66
     7
 43
1.0
 76
     1
 77
     6
 78
     2
 67
     7
 79
     5
170
     0
171
     0
290
     0
174
     0
 93
        1
 44
0.0
173
     0
291
     1
 45
0.0
1001
ACAD
1000
AcDbSavedByObjectVersion
1070
     0
  0
VISUALSTYLE
  5
A1D9
102
{ACAD_XDICTIONARY
360
A23F
102
}
102
{ACAD_REACTORS
330
A1CB
102
}
330
A1CB
100
AcDbVisualStyle
  2
Linepattern
 70
    14
 71
     2
 72
     2
 73
     0
 90
        0
 40
-0.6
 41
-30.0
 62
     5
 63
     7
 74
     1
 91
        4
 64
     7
 65
   257
 75
     7
175
     7
 42
1.0
 92
        8
 66
     7
 43
1.0
 76
     1
 77
     6
 78
     2
 67
     7
 79
     5
170
     0
171
     0
290
     0
174
     0
 93
        1
 44
0.0
173
     0
291
     1
 45
0.0
1001
ACAD
1000
AcDbSavedByObjectVersion
1070
     0
  0
VISUALSTYLE
  5
A1E2
102
{ACAD_XDICTIONARY
360
A251
102
}
102
{ACAD_REACTORS
330
A1CB
102
}
330
A1CB
100
AcDbVisualStyle
  2
OverhangOff
 70
    21
 71
     2
 72
     2
 73
     0
 90
        0
 40
-0.6
 41
-30.0
 62
     5
 63
     7
 74
     1
 91
        4
 64
     7
 65
   257
 75
     1
175
     1
 42
1.0
 92
        9
 66
     7
 43
1.0
 76
     1
 77
     6
 78
     2
 67
     7
 79
     5
170
     0
171
     0
290
     0
174
     0
 93
        1
 44
0.0
173
     0
291
     1
 45
0.0
1001
ACAD
1000
AcDbSavedByObjectVersion
1070
     0
  0
VISUALSTYLE
  5
A1D5
102
{ACAD_XDICTIONARY
360
A237
102
}
102
{ACAD_REACTORS
330
A1CB
102
}
330
A1CB
100
AcDbVisualStyle
  2
Realistic
 70
     8
 71
     2
 72
     3
 73
     0
 90
        2
 40
-0.6
 41
30.0
 62
     5
 63
     7
 74
     0
 91
        0
 64
     7
 65
   257
 75
     1
175
     1
 42
1.0
 92
        8
 66
   257
 43
1.0
 76
     1
 77
     6
 78
     2
 67
     7
 79
     3
170
     0
171
     0
290
     0
174
     0
 93
       13
 44
0.0
173
     0
291
     0
 45
0.0
1001
ACAD
1000
AcDbSavedByObjectVersion
1070
     0
  0
VISUALSTYLE
  5
A1E0
102
{ACAD_XDICTIONARY
360
A24D
102
}
102
{ACAD_REACTORS
330
A1CB
102
}
330
A1CB
100
AcDbVisualStyle
  2
Shaded
 70
    27
 71
     2
 72
     2
 73
     1
 90
        2
 40
-0.6
 41
30.0
 62
     5
 63
     7
 74
     0
 91
        4
 64
     7
 65
   257
 75
     1
175
     1
 42
1.0
 92
        8
 66
   257
 43
1.0
 76
     1
 77
     6
 78
     2
 67
     8
 79
     3
170
     0
171
     0
290
     0
174
     0
 93
        5
 44
0.0
173
     0
291
     0
 45
0.0
1001
ACAD
1000
AcDbSavedByObjectVersion
1070
     0
  0
VISUALSTYLE
  5
A1DF
102
{ACAD_XDICTIONARY
360
A24B
102
}
102
{ACAD_REACTORS
330
A1CB
102
}
330
A1CB
100
AcDbVisualStyle
  2
Shaded with edges
 70
    26
 71
     2
 72
     2
 73
     1
 90
        2
 40
-0.6
 41
30.0
 62
     5
 63
     7
 74
     1
 91
       10
 64
     7
 65
   257
 75
     2
175
     1
 42
1.0
 92
        8
 66
   257
 43
1.0
 76
     1
 77
     6
 78
     2
 67
     7
 79
     3
170
     0
171
     0
290
     0
174
     0
 93
        5
 44
0.0
173
     0
291
     0
 45
0.0
1001
ACAD
1000
AcDbSavedByObjectVersion
1070
     0
  0
VISUALSTYLE
  5
A1DC
102
{ACAD_XDICTIONARY
360
A245
102
}
102
{ACAD_REACTORS
330
A1CB
102
}
330
A1CB
100
AcDbVisualStyle
  2
Shades of Gray
 70
    23
 71
     2
 72
     2
 73
     3
 90
        0
 40
-0.6
 41
-30.0
 62
     5
 63
     7
 74
     2
 91
        2
 64
     7
 65
     7
 75
     1
175
     1
 42
40.0
 92
        8
 66
     7
 43
1.0
 76
     1
 77
     6
 78
     2
 67
     7
 79
     3
170
     0
171
     0
290
     0
174
     0
 93
        1
 44
0.0
173
     0
291
     0
 45
0.0
1001
ACAD
1000
AcDbSavedByObjectVersion
1070
     0
  0
VISUALSTYLE
  5
A1DD
102
{ACAD_XDICTIONARY
360
A247
102
}
102
{ACAD_REACTORS
330
A1CB
102
}
330
A1CB
100
AcDbVisualStyle
  2
Sketchy
 70
    24
 71
     1
 72
     2
 73
     2
 90
        0
 40
-0.6
 41
-30.0
 62
     5
 63
     7
 74
     2
 91
        2
 64
     7
 65
     7
 75
     1
175
     1
 42
40.0
 92
       11
 66
     7
 43
1.0
 76
     1
 77
     6
 78
     2
 67
     7
 79
     6
170
     0
171
     0
290
     0
174
     0
 93
        1
 44
0.0
173
     0
291
     0
 45
0.0
1001
ACAD
1000
AcDbSavedByObjectVersion
1070
     0
  0
VISUALSTYLE
  5
A1D8
102
{ACAD_XDICTIONARY
360
A23D
102
}
102
{ACAD_REACTORS
330
A1CB
102
}
330
A1CB
100
AcDbVisualStyle
  2
Thicken
 70
    13
 71
     2
 72
     2
 73
     0
 90
        0
 40
-0.6
 41
-30.0
 62
     5
 63
     7
 74
     1
 91
        4
 64
     7
 65
   257
 75
     1
175
     1
 42
1.0
 92
       12
 66
     7
 43
1.0
 76
     1
 77
     6
 78
     2
 67
     7
 79
     5
170
     0
171
     0
290
     0
174
     0
 93
        1
 44
0.0
173
     0
291
     1
 45
0.0
1001
ACAD
1000
AcDbSavedByObjectVersion
1070
     0
  0
VISUALSTYLE
  5
A1D2
102
{ACAD_XDICTIONARY
360
A231
102
}
102
{ACAD_REACTORS
330
A1CB
102
}
330
A1CB
100
AcDbVisualStyle
  2
Wireframe
 70
     5
 71
     0
 72
     2
 73
     0
 90
        0
 40
-0.6
 41
-30.0
 62
     5
 63
     7
 74
     1
 91
        4
 64
     7
 65
   257
 75
     1
175
     1
 42
1.0
 92
        0
 66
   257
 43
1.0
 76
     1
 77
     6
 78
     2
 67
     7
 79
     3
170
     0
171
     0
290
     0
174
     0
 93
        1
 44
0.0
173
     0
291
     0
 45
0.0
1001
ACAD
1000
AcDbSavedByObjectVersion
1070
     0
  0
VISUALSTYLE
  5
A1DE
102
{ACAD_XDICTIONARY
360
A249
102
}
102
{ACAD_REACTORS
330
A1CB
102
}
330
A1CB
100
AcDbVisualStyle
  2
X-Ray
 70
    25
 71
     2
 72
     2
 73
     1
 90
        1
 40
0.5
 41
-30.0
 62
     5
 63
     7
 74
     1
 91
        0
 64
     7
 65
   257
 75
     1
175
     1
 42
1.0
 92
        8
 66
     7
 43
1.0
 76
     1
 77
     6
 78
     2
 67
     7
 79
     3
170
     0
171
     0
290
     0
174
     0
 93
       13
 44
0.0
173
     0
291
     0
 45
0.0
1001
ACAD
1000
AcDbSavedByObjectVersion
1070
     0
  0
DICTIONARYVAR
  5
A218
102
{ACAD_REACTORS
330
A213
102
}
330
A213
100
DictionaryVariables
280
     0
  1
1:1
  0
DICTIONARYVAR
  5
A215
102
{ACAD_REACTORS
330
A213
102
}
330
A213
100
DictionaryVariables
280
     0
  1
STANDARD
  0
DICTIONARYVAR
  5
A214
102
{ACAD_REACTORS
330
A213
102
}
330
A213
100
DictionaryVariables
280
     0
  1
STANDARD
  0
DICTIONARYVAR
  5
A216
102
{ACAD_REACTORS
330
A213
102
}
330
A213
100
DictionaryVariables
280
     0
  1
Imperial24
  0
DICTIONARYVAR
  5
A217
102
{ACAD_REACTORS
330
A213
102
}
330
A213
100
DictionaryVariables
280
     0
  1
Imperial24
  0
DICTIONARYVAR
  5
A21B
102
{ACAD_REACTORS
330
A213
102
}
330
A213
100
DictionaryVariables
280
     0
  1
1
  0
DICTIONARYVAR
  5
A21A
102
{ACAD_REACTORS
330
A213
102
}
330
A213
100
DictionaryVariables
280
     0
  1
0
  0
DICTIONARYVAR
  5
A219
102
{ACAD_REACTORS
330
A213
102
}
330
A213
100
DictionaryVariables
280
     0
  1
127
  0
DICTIONARYVAR
  5
A21C
102
{ACAD_REACTORS
330
A213
102
}
330
A213
100
DictionaryVariables
280
     0
  1
2
  0
DICTIONARY
  5
A259
330
A1FE
100
AcDbDictionary
280
     1
281
     1
  3
ACAD_XREC_ROUNDTRIP
360
A25A
  0
DICTIONARY
  5
A25B
330
A1FF
100
AcDbDictionary
280
     1
281
     1
  3
ACAD_XREC_ROUNDTRIP
360
A25C
  0
DICTIONARY
  5
A25D
330
A200
100
AcDbDictionary
280
     1
281
     1
  3
ACAD_XREC_ROUNDTRIP
360
A25E
  0
DICTIONARY
  5
A1BC
330
A1BB
100
AcDbDictionary
280
     1
281
     1
  3
ACAD_XREC_ROUNDTRIP
360
A223
  3
BUMPTILE
360
A1BE
  3
DIFFUSETILE
360
A1BD
  3
OPACITYTILE
360
A1C1
  3
REFLECTIONTILE
360
A1C0
  3
REFRACTIONTILE
360
A1C2
  3
SPECULARTILE
360
A1BF
  0
DICTIONARY
  5
A1B4
330
A1B3
100
AcDbDictionary
280
     1
281
     1
  3
ACAD_XREC_ROUNDTRIP
360
A222
  3
BUMPTILE
360
A1B6
  3
DIFFUSETILE
360
A1B5
  3
OPACITYTILE
360
A1B9
  3
REFLECTIONTILE
360
A1B8
  3
REFRACTIONTILE
360
A1BA
  3
SPECULARTILE
360
A1B7
  0
DICTIONARY
  5
A1C4
330
A1C3
100
AcDbDictionary
280
     1
281
     1
  3
ACAD_XREC_ROUNDTRIP
360
A224
  3
BUMPTILE
360
A1C6
  3
DIFFUSETILE
360
A1C5
  3
OPACITYTILE
360
A1C9
  3
REFLECTIONTILE
360
A1C8
  3
REFRACTIONTILE
360
A1CA
  3
SPECULARTILE
360
A1C7
  0
DICTIONARY
  5
A257
330
A1FC
100
AcDbDictionary
280
     1
281
     1
  3
ACAD_XREC_ROUNDTRIP
360
A258
  0
DICTIONARY
  5
A21E
330
A1E6
100
AcDbDictionary
280
     1
281
     1
  3
ACAD_ROUNDTRIP_2008_TABLESTYLE_CELLSTYLEMAP
360
A21F
  3
ACAD_XREC_ROUNDTRIP
360
A255
  0
DICTIONARY
  5
A22F
330
A1D1
100
AcDbDictionary
280
     1
281
     1
  3
ACAD_XREC_ROUNDTRIP
360
A230
  0
DICTIONARY
  5
A22D
330
A1D0
100
AcDbDictionary
280
     1
281
     1
  3
ACAD_XREC_ROUNDTRIP
360
A22E
  0
DICTIONARY
  5
A23B
330
A1D7
100
AcDbDictionary
280
     1
281
     1
  3
ACAD_XREC_ROUNDTRIP
360
A23C
  0
DICTIONARY
  5
A243
330
A1DB
100
AcDbDictionary
280
     1
281
     1
  3
ACAD_XREC_ROUNDTRIP
360
A244
  0
DICTIONARY
  5
A235
330
A1D4
100
AcDbDictionary
280
     1
281
     1
  3
ACAD_XREC_ROUNDTRIP
360
A236
  0
DICTIONARY
  5
A239
330
A1D6
100
AcDbDictionary
280
     1
281
     1
  3
ACAD_XREC_ROUNDTRIP
360
A23A
  0
DICTIONARY
  5
A253
330
A1E3
100
AcDbDictionary
280
     1
281
     1
  3
ACAD_XREC_ROUNDTRIP
360
A254
  0
DICTIONARY
  5
A241
330
A1DA
100
AcDbDictionary
280
     1
281
     1
  3
ACAD_XREC_ROUNDTRIP
360
A242
  0
DICTIONARY
  5
A225
330
A1CC
100
AcDbDictionary
280
     1
281
     1
  3
ACAD_XREC_ROUNDTRIP
360
A226
  0
DICTIONARY
  5
A227
330
A1CD
100
AcDbDictionary
280
     1
281
     1
  3
ACAD_XREC_ROUNDTRIP
360
A228
  0
DICTIONARY
  5
A229
330
A1CE
100
AcDbDictionary
280
     1
281
     1
  3
ACAD_XREC_ROUNDTRIP
360
A22A
  0
DICTIONARY
  5
A22B
330
A1CF
100
AcDbDictionary
280
     1
281
     1
  3
ACAD_XREC_ROUNDTRIP
360
A22C
  0
DICTIONARY
  5
A233
330
A1D3
100
AcDbDictionary
280
     1
281
     1
  3
ACAD_XREC_ROUNDTRIP
360
A234
  0
DICTIONARY
  5
A24F
330
A1E1
100
AcDbDictionary
280
     1
281
     1
  3
ACAD_XREC_ROUNDTRIP
360
A250
  0
DICTIONARY
  5
A23F
330
A1D9
100
AcDbDictionary
280
     1
281
     1
  3
ACAD_XREC_ROUNDTRIP
360
A240
  0
DICTIONARY
  5
A251
330
A1E2
100
AcDbDictionary
280
     1
281
     1
  3
ACAD_XREC_ROUNDTRIP
360
A252
  0
DICTIONARY
  5
A237
330
A1D5
100
AcDbDictionary
280
     1
281
     1
  3
ACAD_XREC_ROUNDTRIP
360
A238
  0
DICTIONARY
  5
A24D
330
A1E0
100
AcDbDictionary
280
     1
281
     1
  3
ACAD_XREC_ROUNDTRIP
360
A24E
  0
DICTIONARY
  5
A24B
330
A1DF
100
AcDbDictionary
280
     1
281
     1
  3
ACAD_XREC_ROUNDTRIP
360
A24C
  0
DICTIONARY
  5
A245
330
A1DC
100
AcDbDictionary
280
     1
281
     1
  3
ACAD_XREC_ROUNDTRIP
360
A246
  0
DICTIONARY
  5
A247
330
A1DD
100
AcDbDictionary
280
     1
281
     1
  3
ACAD_XREC_ROUNDTRIP
360
A248
  0
DICTIONARY
  5
A23D
330
A1D8
100
AcDbDictionary
280
     1
281
     1
  3
ACAD_XREC_ROUNDTRIP
360
A23E
  0
DICTIONARY
  5
A231
330
A1D2
100
AcDbDictionary
280
     1
281
     1
  3
ACAD_XREC_ROUNDTRIP
360
A232
  0
DICTIONARY
  5
A249
330
A1DE
100
AcDbDictionary
280
     1
281
     1
  3
ACAD_XREC_ROUNDTRIP
360
A24A
  0
XRECORD
  5
A25A
102
{ACAD_REACTORS
330
A259
102
}
330
A259
100
AcDbXrecord
280
     1
102
DISPLAYNAME
  1
Imperial24
102
FLAGS
 90
        0
  0
XRECORD
  5
A25C
102
{ACAD_REACTORS
330
A25B
102
}
330
A25B
100
AcDbXrecord
280
     1
102
SHADEPLOT
 70
     0
102
SHADEPLOTRESLEVEL
 70
     2
102
SHADEPLOTCUSTOMDPI
 70
   300
  0
XRECORD
  5
A25E
102
{ACAD_REACTORS
330
A25D
102
}
330
A25D
100
AcDbXrecord
280
     1
102
SHADEPLOT
 70
     0
102
SHADEPLOTRESLEVEL
 70
     2
102
SHADEPLOTCUSTOMDPI
 70
   300
  0
XRECORD
  5
A223
102
{ACAD_REACTORS
330
A1BC
102
}
330
A1BC
100
AcDbXrecord
280
     1
102
MATERIAL
148
0.0
149
0.0
149
0.0
 93
        0
 94
      127
282
     0
 72
     0
 77
     0
171
     0
175
     0
179
     0
273
     0
  0
XRECORD
  5
A1BE
102
{ACAD_REACTORS
330
A1BC
102
}
330
A1BC
100
AcDbXrecord
280
     1
270
     1
271
     1
  0
XRECORD
  5
A1BD
102
{ACAD_REACTORS
330
A1BC
102
}
330
A1BC
100
AcDbXrecord
280
     1
270
     1
271
     1
  0
XRECORD
  5
A1C1
102
{ACAD_REACTORS
330
A1BC
102
}
330
A1BC
100
AcDbXrecord
280
     1
270
     1
271
     1
  0
XRECORD
  5
A1C0
102
{ACAD_REACTORS
330
A1BC
102
}
330
A1BC
100
AcDbXrecord
280
     1
270
     1
271
     1
  0
XRECORD
  5
A1C2
102
{ACAD_REACTORS
330
A1BC
102
}
330
A1BC
100
AcDbXrecord
280
     1
270
     1
271
     1
  0
XRECORD
  5
A1BF
102
{ACAD_REACTORS
330
A1BC
102
}
330
A1BC
100
AcDbXrecord
280
     1
270
     1
271
     1
  0
XRECORD
  5
A222
102
{ACAD_REACTORS
330
A1B4
102
}
330
A1B4
100
AcDbXrecord
280
     1
102
MATERIAL
148
0.0
149
0.0
149
0.0
 93
        0
 94
      127
282
     0
 72
     0
 77
     0
171
     0
175
     0
179
     0
273
     0
  0
XRECORD
  5
A1B6
102
{ACAD_REACTORS
330
A1B4
102
}
330
A1B4
100
AcDbXrecord
280
     1
270
     1
271
     1
  0
XRECORD
  5
A1B5
102
{ACAD_REACTORS
330
A1B4
102
}
330
A1B4
100
AcDbXrecord
280
     1
270
     1
271
     1
  0
XRECORD
  5
A1B9
102
{ACAD_REACTORS
330
A1B4
102
}
330
A1B4
100
AcDbXrecord
280
     1
270
     1
271
     1
  0
XRECORD
  5
A1B8
102
{ACAD_REACTORS
330
A1B4
102
}
330
A1B4
100
AcDbXrecord
280
     1
270
     1
271
     1
  0
XRECORD
  5
A1BA
102
{ACAD_REACTORS
330
A1B4
102
}
330
A1B4
100
AcDbXrecord
280
     1
270
     1
271
     1
  0
XRECORD
  5
A1B7
102
{ACAD_REACTORS
330
A1B4
102
}
330
A1B4
100
AcDbXrecord
280
     1
270
     1
271
     1
  0
XRECORD
  5
A224
102
{ACAD_REACTORS
330
A1C4
102
}
330
A1C4
100
AcDbXrecord
280
     1
102
MATERIAL
148
0.0
149
0.0
149
0.0
 93
        0
 94
      127
282
     0
 72
     0
 77
     0
171
     0
175
     0
179
     0
273
     0
  0
XRECORD
  5
A1C6
102
{ACAD_REACTORS
330
A1C4
102
}
330
A1C4
100
AcDbXrecord
280
     1
270
     1
271
     1
  0
XRECORD
  5
A1C5
102
{ACAD_REACTORS
330
A1C4
102
}
330
A1C4
100
AcDbXrecord
280
     1
270
     1
271
     1
  0
XRECORD
  5
A1C9
102
{ACAD_REACTORS
330
A1C4
102
}
330
A1C4
100
AcDbXrecord
280
     1
270
     1
271
     1
  0
XRECORD
  5
A1C8
102
{ACAD_REACTORS
330
A1C4
102
}
330
A1C4
100
AcDbXrecord
280
     1
270
     1
271
     1
  0
XRECORD
  5
A1CA
102
{ACAD_REACTORS
330
A1C4
102
}
330
A1C4
100
AcDbXrecord
280
     1
270
     1
271
     1
  0
XRECORD
  5
A1C7
102
{ACAD_REACTORS
330
A1C4
102
}
330
A1C4
100
AcDbXrecord
280
     1
270
     1
271
     1
  0
XRECORD
  5
A258
102
{ACAD_REACTORS
330
A257
102
}
330
A257
100
AcDbXrecord
280
     1
102
DISPLAYNAME
  1
Imperial24
102
FLAGS
 90
        0
  0
CELLSTYLEMAP
  5
A21F
102
{ACAD_REACTORS
330
A21E
102
}
330
A21E
100
AcDbCellStyleMap
 90
        3
300
CELLSTYLE
  1
TABLEFORMAT_BEGIN
 90
        5
170
     1
 91
        0
 92
    32768
 62
   257
 93
        1
300
CONTENTFORMAT
  1
CONTENTFORMAT_BEGIN
 90
        0
 91
        0
 92
      512
 93
        0
300

 40
0.0
140
1.0
 94
        5
 62
     0
340
9FB8
144
0.25
309
CONTENTFORMAT_END
171
     0
 94
        0
309
TABLEFORMAT_END
  1
CELLSTYLE_BEGIN
 90
        1
 91
        1
300
_TITLE
309
CELLSTYLE_END
300
CELLSTYLE
  1
TABLEFORMAT_BEGIN
 90
        5
170
     1
 91
        0
 92
        0
 62
   257
 93
        1
300
CONTENTFORMAT
  1
CONTENTFORMAT_BEGIN
 90
        0
 91
        0
 92
      512
 93
        0
300

 40
0.0
140
1.0
 94
        5
 62
     0
340
9FB8
144
0.18
309
CONTENTFORMAT_END
171
     0
 94
        0
309
TABLEFORMAT_END
  1
CELLSTYLE_BEGIN
 90
        2
 91
        1
300
_HEADER
309
CELLSTYLE_END
300
CELLSTYLE
  1
TABLEFORMAT_BEGIN
 90
        5
170
     1
 91
        0
 92
        0
 62
   257
 93
        1
300
CONTENTFORMAT
  1
CONTENTFORMAT_BEGIN
 90
        0
 91
        0
 92
      512
 93
        0
300

 40
0.0
140
1.0
 94
        2
 62
     0
340
9FB8
144
0.18
309
CONTENTFORMAT_END
171
     0
 94
        0
309
TABLEFORMAT_END
  1
CELLSTYLE_BEGIN
 90
        3
 91
        2
300
_DATA
309
CELLSTYLE_END
  0
XRECORD
  5
A255
102
{ACAD_REACTORS
330
A21E
102
}
330
A21E
100
AcDbXrecord
280
     1
102
ACAD_ROUNDTRIP_PRE2007_TABLESTYLE
 90
      512
 91
        0
  1

 92
      512
 93
        0
  2

 94
      512
 95
        0
  3

  0
XRECORD
  5
A230
102
{ACAD_REACTORS
330
A22F
102
}
330
A22F
100
AcDbXrecord
280
     1
102
RTVSPost2010Prop28
280
     1
102
RTVSPost2010PropOp28
 70
     1
102
RTVSPost2010Prop29
280
     1
102
RTVSPost2010PropOp29
 70
     1
102
RTVSPost2010Prop30
280
     0
102
RTVSPost2010PropOp30
 70
     1
102
RTVSPost2010Prop31
280
     0
102
RTVSPost2010PropOp31
 70
     1
102
RTVSPost2010Prop32
280
     0
102
RTVSPost2010PropOp32
 70
     1
102
RTVSPost2010Prop33
280
     0
102
RTVSPost2010PropOp33
 70
     1
102
RTVSPost2010Prop34
280
     0
102
RTVSPost2010PropOp34
 70
     1
102
RTVSPost2010Prop35
280
     0
102
RTVSPost2010PropOp35
 70
     1
102
RTVSPost2010Prop36
280
     0
102
RTVSPost2010PropOp36
 70
     1
102
RTVSPost2010Prop37
 90
       50
102
RTVSPost2010PropOp37
 70
     1
102
RTVSPost2010Prop38
140
0.0
102
RTVSPost2010PropOp38
 70
     1
102
RTVSPost2010Prop39
140
1.0
102
RTVSPost2010PropOp39
 70
     1
102
RTVSPost2010Prop40
 90
        0
102
RTVSPost2010PropOp40
 70
     1
102
RTVSPost2010Prop41ColorIndex
 90
       18
102
RTVSPost2010Prop41ColorRGB
 90
        0
102
RTVSPost2010PropOp41
 70
     1
102
RTVSPost2010Prop42
 90
       50
102
RTVSPost2010PropOp42
 70
     1
102
RTVSPost2010Prop43
 90
        3
102
RTVSPost2010PropOp43
 70
     1
102
RTVSPost2010Prop44ColorIndex
 90
        5
102
RTVSPost2010Prop44ColorRGB
 90
      255
102
RTVSPost2010PropOp44
 70
     1
102
RTVSPost2010Prop45
280
     0
102
RTVSPost2010PropOp45
 70
     1
102
RTVSPost2010Prop46
 90
       50
102
RTVSPost2010PropOp46
 70
     1
102
RTVSPost2010Prop47
 90
       50
102
RTVSPost2010PropOp47
 70
     1
102
RTVSPost2010Prop48
 90
       50
102
RTVSPost2010PropOp48
 70
     1
102
RTVSPost2010Prop49
280
     0
102
RTVSPost2010PropOp49
 70
     1
102
RTVSPost2010Prop50
 90
       50
102
RTVSPost2010PropOp50
 70
     1
102
RTVSPost2010Prop51ColorIndex
 90
      256
102
RTVSPost2010Prop51ColorRGB
 90
-16777216
102
RTVSPost2010PropOp51
 70
     0
102
RTVSPost2010Prop52
140
1.0
102
RTVSPost2010PropOp52
 70
     0
102
RTVSPost2010Prop53
 90
        2
102
RTVSPost2010PropOp53
 70
     1
102
RTVSPost2010Prop54
  1
strokes_ogs.tif
102
RTVSPost2010PropOp54
 70
     1
102
RTVSPost2010Prop55
280
     0
102
RTVSPost2010PropOp55
 70
     1
102
RTVSPost2010Prop56
140
1.0
102
RTVSPost2010PropOp56
 70
     1
102
RTVSPost2010Prop57
140
1.0
102
RTVSPost2010PropOp57
 70
     1
102
RTVSPropertyOp0
 70
     1
102
RTVSPropertyOp1
 70
     1
102
RTVSPropertyOp2
 70
     1
102
RTVSPropertyOp3
 70
     1
102
RTVSPropertyOp4
 70
     1
102
RTVSPropertyOp5
 70
     1
102
RTVSPropertyOp6
 70
     1
102
RTVSPropertyOp7
 70
     1
102
RTVSPropertyOp8
 70
     1
102
RTVSPropertyOp9
 70
     1
102
RTVSPropertyOp10
 70
     1
102
RTVSPropertyOp11
 70
     1
102
RTVSPropertyOp12
 70
     1
102
RTVSPropertyOp13
 70
     1
102
RTVSPropertyOp14
 70
     1
102
RTVSPropertyOp15
 70
     1
102
RTVSPropertyOp16
 70
     1
102
RTVSPropertyOp17
 70
     1
102
RTVSPropertyOp18
 70
     1
102
RTVSPropertyOp19
 70
     1
102
RTVSPropertyOp20
 70
     1
102
RTVSPropertyOp21
 70
     1
102
RTVSPropertyOp22
 70
     1
102
RTVSPropertyOp23
 70
     1
102
RTVSPropertyOp24
 70
     1
102
RTVSPropertyOp25
 70
     1
102
RTVSPropertyOp26
 70
     1
102
RTVSPropertyOp27
 70
     1
102
RTVSPropertyOp28
 70
     1
102
RTVSPropertyOp29
 70
     1
102
RTVSPropertyOp30
 70
     1
102
RTVSPropertyOp31
 70
     1
102
RTVSPropertyOp32
 70
     1
102
RTVSPropertyOp33
 70
     1
102
RTVSPropertyOp34
 70
     1
102
RTVSPropertyOp35
 70
     1
102
RTVSPropertyOp36
 70
     1
102
RTVSPropertyOp37
 70
     1
102
RTVSPropertyOp38
 70
     1
102
RTVSPropertyOp39
 70
     1
102
RTVSPropertyOp40
 70
     1
102
RTVSPropertyOp41
 70
     1
102
RTVSPropertyOp42
 70
     1
102
RTVSPropertyOp43
 70
     1
102
RTVSPropertyOp44
 70
     1
102
RTVSPropertyOp45
 70
     1
102
RTVSPropertyOp46
 70
     1
102
RTVSPropertyOp47
 70
     1
102
RTVSPropertyOp48
 70
     1
102
RTVSPropertyOp49
 70
     1
102
RTVSPropertyOp50
 70
     1
102
RTVSPropertyOp51
 70
     0
102
RTVSPropertyOp52
 70
     0
102
RTVSPropertyOp53
 70
     1
102
RTVSPropertyOp54
 70
     1
102
RTVSPropertyOp55
 70
     1
102
RTVSPropertyOp56
 70
     1
102
RTVSPropertyOp57
 70
     1
102
RTVSPropertyOp58
 70
     1
102
RTVSPropertyOp59
 70
     1
102
RTVSPropertyOp60
 70
     1
102
RTVSPropertyOp61
 70
     1
102
RTVSPropertyOp62
 70
     1
  0
XRECORD
  5
A22E
102
{ACAD_REACTORS
330
A22D
102
}
330
A22D
100
AcDbXrecord
280
     1
102
RTVSPost2010Prop28
280
     0
102
RTVSPost2010PropOp28
 70
     1
102
RTVSPost2010Prop29
280
     1
102
RTVSPost2010PropOp29
 70
     1
102
RTVSPost2010Prop30
280
     1
102
RTVSPost2010PropOp30
 70
     1
102
RTVSPost2010Prop31
280
     0
102
RTVSPost2010PropOp31
 70
     1
102
RTVSPost2010Prop32
280
     0
102
RTVSPost2010PropOp32
 70
     1
102
RTVSPost2010Prop33
280
     0
102
RTVSPost2010PropOp33
 70
     1
102
RTVSPost2010Prop34
280
     0
102
RTVSPost2010PropOp34
 70
     1
102
RTVSPost2010Prop35
280
     0
102
RTVSPost2010PropOp35
 70
     1
102
RTVSPost2010Prop36
280
     0
102
RTVSPost2010PropOp36
 70
     1
102
RTVSPost2010Prop37
 90
       50
102
RTVSPost2010PropOp37
 70
     1
102
RTVSPost2010Prop38
140
0.0
102
RTVSPost2010PropOp38
 70
     1
102
RTVSPost2010Prop39
140
1.0
102
RTVSPost2010PropOp39
 70
     1
102
RTVSPost2010Prop40
 90
        0
102
RTVSPost2010PropOp40
 70
     1
102
RTVSPost2010Prop41ColorIndex
 90
       18
102
RTVSPost2010Prop41ColorRGB
 90
        0
102
RTVSPost2010PropOp41
 70
     1
102
RTVSPost2010Prop42
 90
       50
102
RTVSPost2010PropOp42
 70
     1
102
RTVSPost2010Prop43
 90
        3
102
RTVSPost2010PropOp43
 70
     1
102
RTVSPost2010Prop44ColorIndex
 90
        5
102
RTVSPost2010Prop44ColorRGB
 90
      255
102
RTVSPost2010PropOp44
 70
     1
102
RTVSPost2010Prop45
280
     0
102
RTVSPost2010PropOp45
 70
     1
102
RTVSPost2010Prop46
 90
       50
102
RTVSPost2010PropOp46
 70
     1
102
RTVSPost2010Prop47
 90
       50
102
RTVSPost2010PropOp47
 70
     1
102
RTVSPost2010Prop48
 90
       50
102
RTVSPost2010PropOp48
 70
     1
102
RTVSPost2010Prop49
280
     0
102
RTVSPost2010PropOp49
 70
     1
102
RTVSPost2010Prop50
 90
       50
102
RTVSPost2010PropOp50
 70
     1
102
RTVSPost2010Prop51ColorIndex
 90
      256
102
RTVSPost2010Prop51ColorRGB
 90
-16777216
102
RTVSPost2010PropOp51
 70
     0
102
RTVSPost2010Prop52
140
1.0
102
RTVSPost2010PropOp52
 70
     0
102
RTVSPost2010Prop53
 90
        2
102
RTVSPost2010PropOp53
 70
     1
102
RTVSPost2010Prop54
  1
strokes_ogs.tif
102
RTVSPost2010PropOp54
 70
     1
102
RTVSPost2010Prop55
280
     0
102
RTVSPost2010PropOp55
 70
     1
102
RTVSPost2010Prop56
140
1.0
102
RTVSPost2010PropOp56
 70
     1
102
RTVSPost2010Prop57
140
1.0
102
RTVSPost2010PropOp57
 70
     1
102
RTVSPropertyOp0
 70
     1
102
RTVSPropertyOp1
 70
     1
102
RTVSPropertyOp2
 70
     1
102
RTVSPropertyOp3
 70
     1
102
RTVSPropertyOp4
 70
     1
102
RTVSPropertyOp5
 70
     1
102
RTVSPropertyOp6
 70
     1
102
RTVSPropertyOp7
 70
     1
102
RTVSPropertyOp8
 70
     1
102
RTVSPropertyOp9
 70
     1
102
RTVSPropertyOp10
 70
     1
102
RTVSPropertyOp11
 70
     1
102
RTVSPropertyOp12
 70
     1
102
RTVSPropertyOp13
 70
     1
102
RTVSPropertyOp14
 70
     1
102
RTVSPropertyOp15
 70
     1
102
RTVSPropertyOp16
 70
     1
102
RTVSPropertyOp17
 70
     1
102
RTVSPropertyOp18
 70
     1
102
RTVSPropertyOp19
 70
     1
102
RTVSPropertyOp20
 70
     1
102
RTVSPropertyOp21
 70
     1
102
RTVSPropertyOp22
 70
     1
102
RTVSPropertyOp23
 70
     1
102
RTVSPropertyOp24
 70
     1
102
RTVSPropertyOp25
 70
     1
102
RTVSPropertyOp26
 70
     1
102
RTVSPropertyOp27
 70
     1
102
RTVSPropertyOp28
 70
     1
102
RTVSPropertyOp29
 70
     1
102
RTVSPropertyOp30
 70
     1
102
RTVSPropertyOp31
 70
     1
102
RTVSPropertyOp32
 70
     1
102
RTVSPropertyOp33
 70
     1
102
RTVSPropertyOp34
 70
     1
102
RTVSPropertyOp35
 70
     1
102
RTVSPropertyOp36
 70
     1
102
RTVSPropertyOp37
 70
     1
102
RTVSPropertyOp38
 70
     1
102
RTVSPropertyOp39
 70
     1
102
RTVSPropertyOp40
 70
     1
102
RTVSPropertyOp41
 70
     1
102
RTVSPropertyOp42
 70
     1
102
RTVSPropertyOp43
 70
     1
102
RTVSPropertyOp44
 70
     1
102
RTVSPropertyOp45
 70
     1
102
RTVSPropertyOp46
 70
     1
102
RTVSPropertyOp47
 70
     1
102
RTVSPropertyOp48
 70
     1
102
RTVSPropertyOp49
 70
     1
102
RTVSPropertyOp50
 70
     1
102
RTVSPropertyOp51
 70
     0
102
RTVSPropertyOp52
 70
     0
102
RTVSPropertyOp53
 70
     1
102
RTVSPropertyOp54
 70
     1
102
RTVSPropertyOp55
 70
     1
102
RTVSPropertyOp56
 70
     1
102
RTVSPropertyOp57
 70
     1
102
RTVSPropertyOp58
 70
     1
102
RTVSPropertyOp59
 70
     1
102
RTVSPropertyOp60
 70
     1
102
RTVSPropertyOp61
 70
     1
102
RTVSPropertyOp62
 70
     1
  0
XRECORD
  5
A23C
102
{ACAD_REACTORS
330
A23B
102
}
330
A23B
100
AcDbXrecord
280
     1
102
RTVSPost2010Prop28
280
     0
102
RTVSPost2010PropOp28
 70
     1
102
RTVSPost2010Prop29
280
     1
102
RTVSPost2010PropOp29
 70
     1
102
RTVSPost2010Prop30
280
     1
102
RTVSPost2010PropOp30
 70
     1
102
RTVSPost2010Prop31
280
     0
102
RTVSPost2010PropOp31
 70
     1
102
RTVSPost2010Prop32
280
     0
102
RTVSPost2010PropOp32
 70
     1
102
RTVSPost2010Prop33
280
     0
102
RTVSPost2010PropOp33
 70
     1
102
RTVSPost2010Prop34
280
     0
102
RTVSPost2010PropOp34
 70
     1
102
RTVSPost2010Prop35
280
     0
102
RTVSPost2010PropOp35
 70
     1
102
RTVSPost2010Prop36
280
     0
102
RTVSPost2010PropOp36
 70
     1
102
RTVSPost2010Prop37
 90
       50
102
RTVSPost2010PropOp37
 70
     1
102
RTVSPost2010Prop38
140
0.0
102
RTVSPost2010PropOp38
 70
     1
102
RTVSPost2010Prop39
140
1.0
102
RTVSPost2010PropOp39
 70
     1
102
RTVSPost2010Prop40
 90
        0
102
RTVSPost2010PropOp40
 70
     1
102
RTVSPost2010Prop41ColorIndex
 90
       18
102
RTVSPost2010Prop41ColorRGB
 90
        0
102
RTVSPost2010PropOp41
 70
     1
102
RTVSPost2010Prop42
 90
       50
102
RTVSPost2010PropOp42
 70
     1
102
RTVSPost2010Prop43
 90
        3
102
RTVSPost2010PropOp43
 70
     1
102
RTVSPost2010Prop44ColorIndex
 90
        5
102
RTVSPost2010Prop44ColorRGB
 90
      255
102
RTVSPost2010PropOp44
 70
     1
102
RTVSPost2010Prop45
280
     0
102
RTVSPost2010PropOp45
 70
     1
102
RTVSPost2010Prop46
 90
       50
102
RTVSPost2010PropOp46
 70
     1
102
RTVSPost2010Prop47
 90
       50
102
RTVSPost2010PropOp47
 70
     1
102
RTVSPost2010Prop48
 90
       50
102
RTVSPost2010PropOp48
 70
     1
102
RTVSPost2010Prop49
280
     0
102
RTVSPost2010PropOp49
 70
     1
102
RTVSPost2010Prop50
 90
       50
102
RTVSPost2010PropOp50
 70
     1
102
RTVSPost2010Prop51ColorIndex
 90
      256
102
RTVSPost2010Prop51ColorRGB
 90
-16777216
102
RTVSPost2010PropOp51
 70
     0
102
RTVSPost2010Prop52
140
1.0
102
RTVSPost2010PropOp52
 70
     0
102
RTVSPost2010Prop53
 90
        2
102
RTVSPost2010PropOp53
 70
     1
102
RTVSPost2010Prop54
  1
strokes_ogs.tif
102
RTVSPost2010PropOp54
 70
     1
102
RTVSPost2010Prop55
280
     0
102
RTVSPost2010PropOp55
 70
     1
102
RTVSPost2010Prop56
140
1.0
102
RTVSPost2010PropOp56
 70
     1
102
RTVSPost2010Prop57
140
1.0
102
RTVSPost2010PropOp57
 70
     1
102
RTVSPropertyOp0
 70
     1
102
RTVSPropertyOp1
 70
     1
102
RTVSPropertyOp2
 70
     1
102
RTVSPropertyOp3
 70
     1
102
RTVSPropertyOp4
 70
     1
102
RTVSPropertyOp5
 70
     1
102
RTVSPropertyOp6
 70
     1
102
RTVSPropertyOp7
 70
     1
102
RTVSPropertyOp8
 70
     1
102
RTVSPropertyOp9
 70
     1
102
RTVSPropertyOp10
 70
     1
102
RTVSPropertyOp11
 70
     1
102
RTVSPropertyOp12
 70
     1
102
RTVSPropertyOp13
 70
     1
102
RTVSPropertyOp14
 70
     1
102
RTVSPropertyOp15
 70
     1
102
RTVSPropertyOp16
 70
     1
102
RTVSPropertyOp17
 70
     1
102
RTVSPropertyOp18
 70
     1
102
RTVSPropertyOp19
 70
     1
102
RTVSPropertyOp20
 70
     1
102
RTVSPropertyOp21
 70
     1
102
RTVSPropertyOp22
 70
     1
102
RTVSPropertyOp23
 70
     1
102
RTVSPropertyOp24
 70
     1
102
RTVSPropertyOp25
 70
     1
102
RTVSPropertyOp26
 70
     1
102
RTVSPropertyOp27
 70
     1
102
RTVSPropertyOp28
 70
     1
102
RTVSPropertyOp29
 70
     1
102
RTVSPropertyOp30
 70
     1
102
RTVSPropertyOp31
 70
     1
102
RTVSPropertyOp32
 70
     1
102
RTVSPropertyOp33
 70
     1
102
RTVSPropertyOp34
 70
     1
102
RTVSPropertyOp35
 70
     1
102
RTVSPropertyOp36
 70
     1
102
RTVSPropertyOp37
 70
     1
102
RTVSPropertyOp38
 70
     1
102
RTVSPropertyOp39
 70
     1
102
RTVSPropertyOp40
 70
     1
102
RTVSPropertyOp41
 70
     1
102
RTVSPropertyOp42
 70
     1
102
RTVSPropertyOp43
 70
     1
102
RTVSPropertyOp44
 70
     1
102
RTVSPropertyOp45
 70
     1
102
RTVSPropertyOp46
 70
     1
102
RTVSPropertyOp47
 70
     1
102
RTVSPropertyOp48
 70
     1
102
RTVSPropertyOp49
 70
     1
102
RTVSPropertyOp50
 70
     1
102
RTVSPropertyOp51
 70
     0
102
RTVSPropertyOp52
 70
     0
102
RTVSPropertyOp53
 70
     1
102
RTVSPropertyOp54
 70
     1
102
RTVSPropertyOp55
 70
     1
102
RTVSPropertyOp56
 70
     1
102
RTVSPropertyOp57
 70
     1
102
RTVSPropertyOp58
 70
     1
102
RTVSPropertyOp59
 70
     1
102
RTVSPropertyOp60
 70
     1
102
RTVSPropertyOp61
 70
     1
102
RTVSPropertyOp62
 70
     1
  0
XRECORD
  5
A244
102
{ACAD_REACTORS
330
A243
102
}
330
A243
100
AcDbXrecord
280
     1
102
RTVSPost2010Prop28
280
     0
102
RTVSPost2010PropOp28
 70
     1
102
RTVSPost2010Prop29
280
     1
102
RTVSPost2010PropOp29
 70
     1
102
RTVSPost2010Prop30
280
     1
102
RTVSPost2010PropOp30
 70
     1
102
RTVSPost2010Prop31
280
     0
102
RTVSPost2010PropOp31
 70
     1
102
RTVSPost2010Prop32
280
     0
102
RTVSPost2010PropOp32
 70
     1
102
RTVSPost2010Prop33
280
     0
102
RTVSPost2010PropOp33
 70
     1
102
RTVSPost2010Prop34
280
     0
102
RTVSPost2010PropOp34
 70
     1
102
RTVSPost2010Prop35
280
     0
102
RTVSPost2010PropOp35
 70
     1
102
RTVSPost2010Prop36
280
     0
102
RTVSPost2010PropOp36
 70
     1
102
RTVSPost2010Prop37
 90
       50
102
RTVSPost2010PropOp37
 70
     1
102
RTVSPost2010Prop38
140
0.0
102
RTVSPost2010PropOp38
 70
     1
102
RTVSPost2010Prop39
140
1.0
102
RTVSPost2010PropOp39
 70
     1
102
RTVSPost2010Prop40
 90
        0
102
RTVSPost2010PropOp40
 70
     1
102
RTVSPost2010Prop41ColorIndex
 90
       18
102
RTVSPost2010Prop41ColorRGB
 90
        0
102
RTVSPost2010PropOp41
 70
     1
102
RTVSPost2010Prop42
 90
       50
102
RTVSPost2010PropOp42
 70
     1
102
RTVSPost2010Prop43
 90
        3
102
RTVSPost2010PropOp43
 70
     1
102
RTVSPost2010Prop44ColorIndex
 90
        5
102
RTVSPost2010Prop44ColorRGB
 90
      255
102
RTVSPost2010PropOp44
 70
     1
102
RTVSPost2010Prop45
280
     0
102
RTVSPost2010PropOp45
 70
     1
102
RTVSPost2010Prop46
 90
       50
102
RTVSPost2010PropOp46
 70
     1
102
RTVSPost2010Prop47
 90
       50
102
RTVSPost2010PropOp47
 70
     1
102
RTVSPost2010Prop48
 90
       50
102
RTVSPost2010PropOp48
 70
     1
102
RTVSPost2010Prop49
280
     0
102
RTVSPost2010PropOp49
 70
     1
102
RTVSPost2010Prop50
 90
       50
102
RTVSPost2010PropOp50
 70
     1
102
RTVSPost2010Prop51ColorIndex
 90
      256
102
RTVSPost2010Prop51ColorRGB
 90
-16777216
102
RTVSPost2010PropOp51
 70
     0
102
RTVSPost2010Prop52
140
1.0
102
RTVSPost2010PropOp52
 70
     0
102
RTVSPost2010Prop53
 90
        2
102
RTVSPost2010PropOp53
 70
     1
102
RTVSPost2010Prop54
  1
strokes_ogs.tif
102
RTVSPost2010PropOp54
 70
     1
102
RTVSPost2010Prop55
280
     0
102
RTVSPost2010PropOp55
 70
     1
102
RTVSPost2010Prop56
140
1.0
102
RTVSPost2010PropOp56
 70
     1
102
RTVSPost2010Prop57
140
1.0
102
RTVSPost2010PropOp57
 70
     1
102
RTVSPropertyOp0
 70
     1
102
RTVSPropertyOp1
 70
     1
102
RTVSPropertyOp2
 70
     1
102
RTVSPropertyOp3
 70
     1
102
RTVSPropertyOp4
 70
     1
102
RTVSPropertyOp5
 70
     1
102
RTVSPropertyOp6
 70
     1
102
RTVSPropertyOp7
 70
     1
102
RTVSPropertyOp8
 70
     1
102
RTVSPropertyOp9
 70
     1
102
RTVSPropertyOp10
 70
     1
102
RTVSPropertyOp11
 70
     1
102
RTVSPropertyOp12
 70
     1
102
RTVSPropertyOp13
 70
     1
102
RTVSPropertyOp14
 70
     1
102
RTVSPropertyOp15
 70
     1
102
RTVSPropertyOp16
 70
     1
102
RTVSPropertyOp17
 70
     1
102
RTVSPropertyOp18
 70
     1
102
RTVSPropertyOp19
 70
     1
102
RTVSPropertyOp20
 70
     1
102
RTVSPropertyOp21
 70
     1
102
RTVSPropertyOp22
 70
     1
102
RTVSPropertyOp23
 70
     1
102
RTVSPropertyOp24
 70
     1
102
RTVSPropertyOp25
 70
     1
102
RTVSPropertyOp26
 70
     1
102
RTVSPropertyOp27
 70
     1
102
RTVSPropertyOp28
 70
     1
102
RTVSPropertyOp29
 70
     1
102
RTVSPropertyOp30
 70
     1
102
RTVSPropertyOp31
 70
     1
102
RTVSPropertyOp32
 70
     1
102
RTVSPropertyOp33
 70
     1
102
RTVSPropertyOp34
 70
     1
102
RTVSPropertyOp35
 70
     1
102
RTVSPropertyOp36
 70
     1
102
RTVSPropertyOp37
 70
     1
102
RTVSPropertyOp38
 70
     1
102
RTVSPropertyOp39
 70
     1
102
RTVSPropertyOp40
 70
     1
102
RTVSPropertyOp41
 70
     1
102
RTVSPropertyOp42
 70
     1
102
RTVSPropertyOp43
 70
     1
102
RTVSPropertyOp44
 70
     1
102
RTVSPropertyOp45
 70
     1
102
RTVSPropertyOp46
 70
     1
102
RTVSPropertyOp47
 70
     1
102
RTVSPropertyOp48
 70
     1
102
RTVSPropertyOp49
 70
     1
102
RTVSPropertyOp50
 70
     1
102
RTVSPropertyOp51
 70
     0
102
RTVSPropertyOp52
 70
     0
102
RTVSPropertyOp53
 70
     1
102
RTVSPropertyOp54
 70
     1
102
RTVSPropertyOp55
 70
     1
102
RTVSPropertyOp56
 70
     1
102
RTVSPropertyOp57
 70
     1
102
RTVSPropertyOp58
 70
     1
102
RTVSPropertyOp59
 70
     1
102
RTVSPropertyOp60
 70
     1
102
RTVSPropertyOp61
 70
     1
102
RTVSPropertyOp62
 70
     1
  0
XRECORD
  5
A236
102
{ACAD_REACTORS
330
A235
102
}
330
A235
100
AcDbXrecord
280
     1
102
RTVSPost2010Prop28
280
     0
102
RTVSPost2010PropOp28
 70
     1
102
RTVSPost2010Prop29
280
     1
102
RTVSPost2010PropOp29
 70
     1
102
RTVSPost2010Prop30
280
     1
102
RTVSPost2010PropOp30
 70
     1
102
RTVSPost2010Prop31
280
     0
102
RTVSPost2010PropOp31
 70
     1
102
RTVSPost2010Prop32
280
     0
102
RTVSPost2010PropOp32
 70
     1
102
RTVSPost2010Prop33
280
     0
102
RTVSPost2010PropOp33
 70
     1
102
RTVSPost2010Prop34
280
     0
102
RTVSPost2010PropOp34
 70
     1
102
RTVSPost2010Prop35
280
     0
102
RTVSPost2010PropOp35
 70
     1
102
RTVSPost2010Prop36
280
     0
102
RTVSPost2010PropOp36
 70
     1
102
RTVSPost2010Prop37
 90
       50
102
RTVSPost2010PropOp37
 70
     1
102
RTVSPost2010Prop38
140
0.0
102
RTVSPost2010PropOp38
 70
     1
102
RTVSPost2010Prop39
140
1.0
102
RTVSPost2010PropOp39
 70
     1
102
RTVSPost2010Prop40
 90
        0
102
RTVSPost2010PropOp40
 70
     1
102
RTVSPost2010Prop41ColorIndex
 90
       18
102
RTVSPost2010Prop41ColorRGB
 90
        0
102
RTVSPost2010PropOp41
 70
     1
102
RTVSPost2010Prop42
 90
       50
102
RTVSPost2010PropOp42
 70
     1
102
RTVSPost2010Prop43
 90
        3
102
RTVSPost2010PropOp43
 70
     1
102
RTVSPost2010Prop44ColorIndex
 90
        5
102
RTVSPost2010Prop44ColorRGB
 90
      255
102
RTVSPost2010PropOp44
 70
     1
102
RTVSPost2010Prop45
280
     0
102
RTVSPost2010PropOp45
 70
     1
102
RTVSPost2010Prop46
 90
       50
102
RTVSPost2010PropOp46
 70
     1
102
RTVSPost2010Prop47
 90
       50
102
RTVSPost2010PropOp47
 70
     1
102
RTVSPost2010Prop48
 90
       50
102
RTVSPost2010PropOp48
 70
     1
102
RTVSPost2010Prop49
280
     0
102
RTVSPost2010PropOp49
 70
     1
102
RTVSPost2010Prop50
 90
       50
102
RTVSPost2010PropOp50
 70
     1
102
RTVSPost2010Prop51ColorIndex
 90
      256
102
RTVSPost2010Prop51ColorRGB
 90
-16777216
102
RTVSPost2010PropOp51
 70
     0
102
RTVSPost2010Prop52
140
1.0
102
RTVSPost2010PropOp52
 70
     0
102
RTVSPost2010Prop53
 90
        2
102
RTVSPost2010PropOp53
 70
     1
102
RTVSPost2010Prop54
  1
strokes_ogs.tif
102
RTVSPost2010PropOp54
 70
     1
102
RTVSPost2010Prop55
280
     0
102
RTVSPost2010PropOp55
 70
     1
102
RTVSPost2010Prop56
140
1.0
102
RTVSPost2010PropOp56
 70
     1
102
RTVSPost2010Prop57
140
1.0
102
RTVSPost2010PropOp57
 70
     1
102
RTVSPropertyOp0
 70
     1
102
RTVSPropertyOp1
 70
     1
102
RTVSPropertyOp2
 70
     1
102
RTVSPropertyOp3
 70
     1
102
RTVSPropertyOp4
 70
     1
102
RTVSPropertyOp5
 70
     1
102
RTVSPropertyOp6
 70
     1
102
RTVSPropertyOp7
 70
     1
102
RTVSPropertyOp8
 70
     1
102
RTVSPropertyOp9
 70
     1
102
RTVSPropertyOp10
 70
     1
102
RTVSPropertyOp11
 70
     1
102
RTVSPropertyOp12
 70
     1
102
RTVSPropertyOp13
 70
     1
102
RTVSPropertyOp14
 70
     1
102
RTVSPropertyOp15
 70
     1
102
RTVSPropertyOp16
 70
     1
102
RTVSPropertyOp17
 70
     1
102
RTVSPropertyOp18
 70
     1
102
RTVSPropertyOp19
 70
     1
102
RTVSPropertyOp20
 70
     1
102
RTVSPropertyOp21
 70
     1
102
RTVSPropertyOp22
 70
     1
102
RTVSPropertyOp23
 70
     1
102
RTVSPropertyOp24
 70
     1
102
RTVSPropertyOp25
 70
     1
102
RTVSPropertyOp26
 70
     1
102
RTVSPropertyOp27
 70
     1
102
RTVSPropertyOp28
 70
     1
102
RTVSPropertyOp29
 70
     1
102
RTVSPropertyOp30
 70
     1
102
RTVSPropertyOp31
 70
     1
102
RTVSPropertyOp32
 70
     1
102
RTVSPropertyOp33
 70
     1
102
RTVSPropertyOp34
 70
     1
102
RTVSPropertyOp35
 70
     1
102
RTVSPropertyOp36
 70
     1
102
RTVSPropertyOp37
 70
     1
102
RTVSPropertyOp38
 70
     1
102
RTVSPropertyOp39
 70
     1
102
RTVSPropertyOp40
 70
     1
102
RTVSPropertyOp41
 70
     1
102
RTVSPropertyOp42
 70
     1
102
RTVSPropertyOp43
 70
     1
102
RTVSPropertyOp44
 70
     1
102
RTVSPropertyOp45
 70
     1
102
RTVSPropertyOp46
 70
     1
102
RTVSPropertyOp47
 70
     1
102
RTVSPropertyOp48
 70
     1
102
RTVSPropertyOp49
 70
     1
102
RTVSPropertyOp50
 70
     1
102
RTVSPropertyOp51
 70
     0
102
RTVSPropertyOp52
 70
     0
102
RTVSPropertyOp53
 70
     1
102
RTVSPropertyOp54
 70
     1
102
RTVSPropertyOp55
 70
     1
102
RTVSPropertyOp56
 70
     1
102
RTVSPropertyOp57
 70
     1
102
RTVSPropertyOp58
 70
     1
102
RTVSPropertyOp59
 70
     1
102
RTVSPropertyOp60
 70
     1
102
RTVSPropertyOp61
 70
     1
102
RTVSPropertyOp62
 70
     1
  0
XRECORD
  5
A23A
102
{ACAD_REACTORS
330
A239
102
}
330
A239
100
AcDbXrecord
280
     1
102
RTVSPost2010Prop28
280
     0
102
RTVSPost2010PropOp28
 70
     1
102
RTVSPost2010Prop29
280
     1
102
RTVSPost2010PropOp29
 70
     1
102
RTVSPost2010Prop30
280
     1
102
RTVSPost2010PropOp30
 70
     1
102
RTVSPost2010Prop31
280
     0
102
RTVSPost2010PropOp31
 70
     1
102
RTVSPost2010Prop32
280
     0
102
RTVSPost2010PropOp32
 70
     1
102
RTVSPost2010Prop33
280
     0
102
RTVSPost2010PropOp33
 70
     1
102
RTVSPost2010Prop34
280
     0
102
RTVSPost2010PropOp34
 70
     1
102
RTVSPost2010Prop35
280
     0
102
RTVSPost2010PropOp35
 70
     1
102
RTVSPost2010Prop36
280
     0
102
RTVSPost2010PropOp36
 70
     1
102
RTVSPost2010Prop37
 90
       50
102
RTVSPost2010PropOp37
 70
     1
102
RTVSPost2010Prop38
140
0.0
102
RTVSPost2010PropOp38
 70
     1
102
RTVSPost2010Prop39
140
1.0
102
RTVSPost2010PropOp39
 70
     1
102
RTVSPost2010Prop40
 90
        0
102
RTVSPost2010PropOp40
 70
     1
102
RTVSPost2010Prop41ColorIndex
 90
       18
102
RTVSPost2010Prop41ColorRGB
 90
        0
102
RTVSPost2010PropOp41
 70
     1
102
RTVSPost2010Prop42
 90
       50
102
RTVSPost2010PropOp42
 70
     1
102
RTVSPost2010Prop43
 90
        3
102
RTVSPost2010PropOp43
 70
     1
102
RTVSPost2010Prop44ColorIndex
 90
        5
102
RTVSPost2010Prop44ColorRGB
 90
      255
102
RTVSPost2010PropOp44
 70
     1
102
RTVSPost2010Prop45
280
     0
102
RTVSPost2010PropOp45
 70
     1
102
RTVSPost2010Prop46
 90
       50
102
RTVSPost2010PropOp46
 70
     1
102
RTVSPost2010Prop47
 90
       50
102
RTVSPost2010PropOp47
 70
     1
102
RTVSPost2010Prop48
 90
       50
102
RTVSPost2010PropOp48
 70
     1
102
RTVSPost2010Prop49
280
     0
102
RTVSPost2010PropOp49
 70
     1
102
RTVSPost2010Prop50
 90
       50
102
RTVSPost2010PropOp50
 70
     1
102
RTVSPost2010Prop51ColorIndex
 90
      256
102
RTVSPost2010Prop51ColorRGB
 90
-16777216
102
RTVSPost2010PropOp51
 70
     0
102
RTVSPost2010Prop52
140
1.0
102
RTVSPost2010PropOp52
 70
     0
102
RTVSPost2010Prop53
 90
        2
102
RTVSPost2010PropOp53
 70
     1
102
RTVSPost2010Prop54
  1
strokes_ogs.tif
102
RTVSPost2010PropOp54
 70
     1
102
RTVSPost2010Prop55
280
     0
102
RTVSPost2010PropOp55
 70
     1
102
RTVSPost2010Prop56
140
1.0
102
RTVSPost2010PropOp56
 70
     1
102
RTVSPost2010Prop57
140
1.0
102
RTVSPost2010PropOp57
 70
     1
102
RTVSPropertyOp0
 70
     1
102
RTVSPropertyOp1
 70
     1
102
RTVSPropertyOp2
 70
     1
102
RTVSPropertyOp3
 70
     1
102
RTVSPropertyOp4
 70
     1
102
RTVSPropertyOp5
 70
     1
102
RTVSPropertyOp6
 70
     1
102
RTVSPropertyOp7
 70
     1
102
RTVSPropertyOp8
 70
     1
102
RTVSPropertyOp9
 70
     1
102
RTVSPropertyOp10
 70
     1
102
RTVSPropertyOp11
 70
     1
102
RTVSPropertyOp12
 70
     1
102
RTVSPropertyOp13
 70
     1
102
RTVSPropertyOp14
 70
     1
102
RTVSPropertyOp15
 70
     1
102
RTVSPropertyOp16
 70
     1
102
RTVSPropertyOp17
 70
     1
102
RTVSPropertyOp18
 70
     1
102
RTVSPropertyOp19
 70
     1
102
RTVSPropertyOp20
 70
     1
102
RTVSPropertyOp21
 70
     1
102
RTVSPropertyOp22
 70
     1
102
RTVSPropertyOp23
 70
     1
102
RTVSPropertyOp24
 70
     1
102
RTVSPropertyOp25
 70
     1
102
RTVSPropertyOp26
 70
     1
102
RTVSPropertyOp27
 70
     1
102
RTVSPropertyOp28
 70
     1
102
RTVSPropertyOp29
 70
     1
102
RTVSPropertyOp30
 70
     1
102
RTVSPropertyOp31
 70
     1
102
RTVSPropertyOp32
 70
     1
102
RTVSPropertyOp33
 70
     1
102
RTVSPropertyOp34
 70
     1
102
RTVSPropertyOp35
 70
     1
102
RTVSPropertyOp36
 70
     1
102
RTVSPropertyOp37
 70
     1
102
RTVSPropertyOp38
 70
     1
102
RTVSPropertyOp39
 70
     1
102
RTVSPropertyOp40
 70
     1
102
RTVSPropertyOp41
 70
     1
102
RTVSPropertyOp42
 70
     1
102
RTVSPropertyOp43
 70
     1
102
RTVSPropertyOp44
 70
     1
102
RTVSPropertyOp45
 70
     1
102
RTVSPropertyOp46
 70
     1
102
RTVSPropertyOp47
 70
     1
102
RTVSPropertyOp48
 70
     1
102
RTVSPropertyOp49
 70
     1
102
RTVSPropertyOp50
 70
     1
102
RTVSPropertyOp51
 70
     0
102
RTVSPropertyOp52
 70
     0
102
RTVSPropertyOp53
 70
     1
102
RTVSPropertyOp54
 70
     1
102
RTVSPropertyOp55
 70
     1
102
RTVSPropertyOp56
 70
     1
102
RTVSPropertyOp57
 70
     1
102
RTVSPropertyOp58
 70
     1
102
RTVSPropertyOp59
 70
     1
102
RTVSPropertyOp60
 70
     1
102
RTVSPropertyOp61
 70
     1
102
RTVSPropertyOp62
 70
     1
  0
XRECORD
  5
A254
102
{ACAD_REACTORS
330
A253
102
}
330
A253
100
AcDbXrecord
280
     1
102
RTVSPost2010Prop28
280
     0
102
RTVSPost2010PropOp28
 70
     1
102
RTVSPost2010Prop29
280
     1
102
RTVSPost2010PropOp29
 70
     1
102
RTVSPost2010Prop30
280
     1
102
RTVSPost2010PropOp30
 70
     1
102
RTVSPost2010Prop31
280
     0
102
RTVSPost2010PropOp31
 70
     1
102
RTVSPost2010Prop32
280
     0
102
RTVSPost2010PropOp32
 70
     1
102
RTVSPost2010Prop33
280
     0
102
RTVSPost2010PropOp33
 70
     1
102
RTVSPost2010Prop34
280
     0
102
RTVSPost2010PropOp34
 70
     1
102
RTVSPost2010Prop35
280
     0
102
RTVSPost2010PropOp35
 70
     1
102
RTVSPost2010Prop36
280
     0
102
RTVSPost2010PropOp36
 70
     1
102
RTVSPost2010Prop37
 90
       50
102
RTVSPost2010PropOp37
 70
     0
102
RTVSPost2010Prop38
140
0.0
102
RTVSPost2010PropOp38
 70
     0
102
RTVSPost2010Prop39
140
1.0
102
RTVSPost2010PropOp39
 70
     0
102
RTVSPost2010Prop40
 90
        0
102
RTVSPost2010PropOp40
 70
     0
102
RTVSPost2010Prop41ColorIndex
 90
       18
102
RTVSPost2010Prop41ColorRGB
 90
        0
102
RTVSPost2010PropOp41
 70
     0
102
RTVSPost2010Prop42
 90
       50
102
RTVSPost2010PropOp42
 70
     0
102
RTVSPost2010Prop43
 90
        3
102
RTVSPost2010PropOp43
 70
     0
102
RTVSPost2010Prop44ColorIndex
 90
        5
102
RTVSPost2010Prop44ColorRGB
 90
      255
102
RTVSPost2010PropOp44
 70
     0
102
RTVSPost2010Prop45
280
     0
102
RTVSPost2010PropOp45
 70
     1
102
RTVSPost2010Prop46
 90
       50
102
RTVSPost2010PropOp46
 70
     0
102
RTVSPost2010Prop47
 90
       50
102
RTVSPost2010PropOp47
 70
     0
102
RTVSPost2010Prop48
 90
       50
102
RTVSPost2010PropOp48
 70
     0
102
RTVSPost2010Prop49
280
     0
102
RTVSPost2010PropOp49
 70
     1
102
RTVSPost2010Prop50
 90
       50
102
RTVSPost2010PropOp50
 70
     0
102
RTVSPost2010Prop51ColorIndex
 90
      256
102
RTVSPost2010Prop51ColorRGB
 90
-16777216
102
RTVSPost2010PropOp51
 70
     0
102
RTVSPost2010Prop52
140
1.0
102
RTVSPost2010PropOp52
 70
     0
102
RTVSPost2010Prop53
 90
        2
102
RTVSPost2010PropOp53
 70
     0
102
RTVSPost2010Prop54
  1
strokes_ogs.tif
102
RTVSPost2010PropOp54
 70
     0
102
RTVSPost2010Prop55
280
     0
102
RTVSPost2010PropOp55
 70
     1
102
RTVSPost2010Prop56
140
1.0
102
RTVSPost2010PropOp56
 70
     0
102
RTVSPost2010Prop57
140
1.0
102
RTVSPost2010PropOp57
 70
     0
102
RTVSPropertyOp0
 70
     0
102
RTVSPropertyOp1
 70
     0
102
RTVSPropertyOp2
 70
     0
102
RTVSPropertyOp3
 70
     0
102
RTVSPropertyOp4
 70
     0
102
RTVSPropertyOp5
 70
     0
102
RTVSPropertyOp6
 70
     0
102
RTVSPropertyOp7
 70
     0
102
RTVSPropertyOp8
 70
     0
102
RTVSPropertyOp9
 70
     0
102
RTVSPropertyOp10
 70
     0
102
RTVSPropertyOp11
 70
     0
102
RTVSPropertyOp12
 70
     0
102
RTVSPropertyOp13
 70
     0
102
RTVSPropertyOp14
 70
     2
102
RTVSPropertyOp15
 70
     0
102
RTVSPropertyOp16
 70
     0
102
RTVSPropertyOp17
 70
     0
102
RTVSPropertyOp18
 70
     0
102
RTVSPropertyOp19
 70
     0
102
RTVSPropertyOp20
 70
     0
102
RTVSPropertyOp21
 70
     0
102
RTVSPropertyOp22
 70
     0
102
RTVSPropertyOp23
 70
     0
102
RTVSPropertyOp24
 70
     0
102
RTVSPropertyOp25
 70
     0
102
RTVSPropertyOp26
 70
     0
102
RTVSPropertyOp27
 70
     0
102
RTVSPropertyOp28
 70
     1
102
RTVSPropertyOp29
 70
     1
102
RTVSPropertyOp30
 70
     1
102
RTVSPropertyOp31
 70
     1
102
RTVSPropertyOp32
 70
     1
102
RTVSPropertyOp33
 70
     1
102
RTVSPropertyOp34
 70
     1
102
RTVSPropertyOp35
 70
     1
102
RTVSPropertyOp36
 70
     1
102
RTVSPropertyOp37
 70
     0
102
RTVSPropertyOp38
 70
     0
102
RTVSPropertyOp39
 70
     0
102
RTVSPropertyOp40
 70
     0
102
RTVSPropertyOp41
 70
     0
102
RTVSPropertyOp42
 70
     0
102
RTVSPropertyOp43
 70
     0
102
RTVSPropertyOp44
 70
     0
102
RTVSPropertyOp45
 70
     1
102
RTVSPropertyOp46
 70
     0
102
RTVSPropertyOp47
 70
     0
102
RTVSPropertyOp48
 70
     0
102
RTVSPropertyOp49
 70
     1
102
RTVSPropertyOp50
 70
     0
102
RTVSPropertyOp51
 70
     0
102
RTVSPropertyOp52
 70
     0
102
RTVSPropertyOp53
 70
     0
102
RTVSPropertyOp54
 70
     0
102
RTVSPropertyOp55
 70
     1
102
RTVSPropertyOp56
 70
     0
102
RTVSPropertyOp57
 70
     0
102
RTVSPropertyOp58
 70
     0
102
RTVSPropertyOp59
 70
     0
102
RTVSPropertyOp60
 70
     0
102
RTVSPropertyOp61
 70
     0
102
RTVSPropertyOp62
 70
     0
  0
XRECORD
  5
A242
102
{ACAD_REACTORS
330
A241
102
}
330
A241
100
AcDbXrecord
280
     1
102
RTVSPost2010Prop28
280
     0
102
RTVSPost2010PropOp28
 70
     1
102
RTVSPost2010Prop29
280
     1
102
RTVSPost2010PropOp29
 70
     1
102
RTVSPost2010Prop30
280
     1
102
RTVSPost2010PropOp30
 70
     1
102
RTVSPost2010Prop31
280
     0
102
RTVSPost2010PropOp31
 70
     1
102
RTVSPost2010Prop32
280
     0
102
RTVSPost2010PropOp32
 70
     1
102
RTVSPost2010Prop33
280
     0
102
RTVSPost2010PropOp33
 70
     1
102
RTVSPost2010Prop34
280
     0
102
RTVSPost2010PropOp34
 70
     1
102
RTVSPost2010Prop35
280
     0
102
RTVSPost2010PropOp35
 70
     1
102
RTVSPost2010Prop36
280
     0
102
RTVSPost2010PropOp36
 70
     1
102
RTVSPost2010Prop37
 90
       50
102
RTVSPost2010PropOp37
 70
     1
102
RTVSPost2010Prop38
140
0.0
102
RTVSPost2010PropOp38
 70
     1
102
RTVSPost2010Prop39
140
1.0
102
RTVSPost2010PropOp39
 70
     1
102
RTVSPost2010Prop40
 90
        0
102
RTVSPost2010PropOp40
 70
     1
102
RTVSPost2010Prop41ColorIndex
 90
       18
102
RTVSPost2010Prop41ColorRGB
 90
        0
102
RTVSPost2010PropOp41
 70
     1
102
RTVSPost2010Prop42
 90
       50
102
RTVSPost2010PropOp42
 70
     1
102
RTVSPost2010Prop43
 90
        3
102
RTVSPost2010PropOp43
 70
     1
102
RTVSPost2010Prop44ColorIndex
 90
        5
102
RTVSPost2010Prop44ColorRGB
 90
      255
102
RTVSPost2010PropOp44
 70
     1
102
RTVSPost2010Prop45
280
     0
102
RTVSPost2010PropOp45
 70
     1
102
RTVSPost2010Prop46
 90
       50
102
RTVSPost2010PropOp46
 70
     1
102
RTVSPost2010Prop47
 90
       50
102
RTVSPost2010PropOp47
 70
     1
102
RTVSPost2010Prop48
 90
       50
102
RTVSPost2010PropOp48
 70
     1
102
RTVSPost2010Prop49
280
     0
102
RTVSPost2010PropOp49
 70
     1
102
RTVSPost2010Prop50
 90
       50
102
RTVSPost2010PropOp50
 70
     1
102
RTVSPost2010Prop51ColorIndex
 90
      256
102
RTVSPost2010Prop51ColorRGB
 90
-16777216
102
RTVSPost2010PropOp51
 70
     0
102
RTVSPost2010Prop52
140
1.0
102
RTVSPost2010PropOp52
 70
     0
102
RTVSPost2010Prop53
 90
        2
102
RTVSPost2010PropOp53
 70
     1
102
RTVSPost2010Prop54
  1
strokes_ogs.tif
102
RTVSPost2010PropOp54
 70
     1
102
RTVSPost2010Prop55
280
     0
102
RTVSPost2010PropOp55
 70
     1
102
RTVSPost2010Prop56
140
1.0
102
RTVSPost2010PropOp56
 70
     1
102
RTVSPost2010Prop57
140
1.0
102
RTVSPost2010PropOp57
 70
     1
102
RTVSPropertyOp0
 70
     1
102
RTVSPropertyOp1
 70
     1
102
RTVSPropertyOp2
 70
     1
102
RTVSPropertyOp3
 70
     1
102
RTVSPropertyOp4
 70
     1
102
RTVSPropertyOp5
 70
     1
102
RTVSPropertyOp6
 70
     1
102
RTVSPropertyOp7
 70
     1
102
RTVSPropertyOp8
 70
     1
102
RTVSPropertyOp9
 70
     1
102
RTVSPropertyOp10
 70
     1
102
RTVSPropertyOp11
 70
     1
102
RTVSPropertyOp12
 70
     1
102
RTVSPropertyOp13
 70
     1
102
RTVSPropertyOp14
 70
     1
102
RTVSPropertyOp15
 70
     1
102
RTVSPropertyOp16
 70
     1
102
RTVSPropertyOp17
 70
     1
102
RTVSPropertyOp18
 70
     1
102
RTVSPropertyOp19
 70
     1
102
RTVSPropertyOp20
 70
     1
102
RTVSPropertyOp21
 70
     1
102
RTVSPropertyOp22
 70
     1
102
RTVSPropertyOp23
 70
     1
102
RTVSPropertyOp24
 70
     1
102
RTVSPropertyOp25
 70
     1
102
RTVSPropertyOp26
 70
     1
102
RTVSPropertyOp27
 70
     1
102
RTVSPropertyOp28
 70
     1
102
RTVSPropertyOp29
 70
     1
102
RTVSPropertyOp30
 70
     1
102
RTVSPropertyOp31
 70
     1
102
RTVSPropertyOp32
 70
     1
102
RTVSPropertyOp33
 70
     1
102
RTVSPropertyOp34
 70
     1
102
RTVSPropertyOp35
 70
     1
102
RTVSPropertyOp36
 70
     1
102
RTVSPropertyOp37
 70
     1
102
RTVSPropertyOp38
 70
     1
102
RTVSPropertyOp39
 70
     1
102
RTVSPropertyOp40
 70
     1
102
RTVSPropertyOp41
 70
     1
102
RTVSPropertyOp42
 70
     1
102
RTVSPropertyOp43
 70
     1
102
RTVSPropertyOp44
 70
     1
102
RTVSPropertyOp45
 70
     1
102
RTVSPropertyOp46
 70
     1
102
RTVSPropertyOp47
 70
     1
102
RTVSPropertyOp48
 70
     1
102
RTVSPropertyOp49
 70
     1
102
RTVSPropertyOp50
 70
     1
102
RTVSPropertyOp51
 70
     0
102
RTVSPropertyOp52
 70
     0
102
RTVSPropertyOp53
 70
     1
102
RTVSPropertyOp54
 70
     1
102
RTVSPropertyOp55
 70
     1
102
RTVSPropertyOp56
 70
     1
102
RTVSPropertyOp57
 70
     1
102
RTVSPropertyOp58
 70
     1
102
RTVSPropertyOp59
 70
     1
102
RTVSPropertyOp60
 70
     1
102
RTVSPropertyOp61
 70
     1
102
RTVSPropertyOp62
 70
     1
  0
XRECORD
  5
A226
102
{ACAD_REACTORS
330
A225
102
}
330
A225
100
AcDbXrecord
280
     1
102
RTVSPost2010Prop28
280
     0
102
RTVSPost2010PropOp28
 70
     1
102
RTVSPost2010Prop29
280
     1
102
RTVSPost2010PropOp29
 70
     1
102
RTVSPost2010Prop30
280
     1
102
RTVSPost2010PropOp30
 70
     1
102
RTVSPost2010Prop31
280
     0
102
RTVSPost2010PropOp31
 70
     1
102
RTVSPost2010Prop32
280
     0
102
RTVSPost2010PropOp32
 70
     1
102
RTVSPost2010Prop33
280
     0
102
RTVSPost2010PropOp33
 70
     1
102
RTVSPost2010Prop34
280
     0
102
RTVSPost2010PropOp34
 70
     1
102
RTVSPost2010Prop35
280
     0
102
RTVSPost2010PropOp35
 70
     1
102
RTVSPost2010Prop36
280
     0
102
RTVSPost2010PropOp36
 70
     1
102
RTVSPost2010Prop37
 90
       50
102
RTVSPost2010PropOp37
 70
     1
102
RTVSPost2010Prop38
140
0.0
102
RTVSPost2010PropOp38
 70
     1
102
RTVSPost2010Prop39
140
1.0
102
RTVSPost2010PropOp39
 70
     1
102
RTVSPost2010Prop40
 90
        0
102
RTVSPost2010PropOp40
 70
     1
102
RTVSPost2010Prop41ColorIndex
 90
       18
102
RTVSPost2010Prop41ColorRGB
 90
        0
102
RTVSPost2010PropOp41
 70
     1
102
RTVSPost2010Prop42
 90
       50
102
RTVSPost2010PropOp42
 70
     1
102
RTVSPost2010Prop43
 90
        3
102
RTVSPost2010PropOp43
 70
     1
102
RTVSPost2010Prop44ColorIndex
 90
        5
102
RTVSPost2010Prop44ColorRGB
 90
      255
102
RTVSPost2010PropOp44
 70
     1
102
RTVSPost2010Prop45
280
     0
102
RTVSPost2010PropOp45
 70
     1
102
RTVSPost2010Prop46
 90
       50
102
RTVSPost2010PropOp46
 70
     1
102
RTVSPost2010Prop47
 90
       50
102
RTVSPost2010PropOp47
 70
     1
102
RTVSPost2010Prop48
 90
       50
102
RTVSPost2010PropOp48
 70
     1
102
RTVSPost2010Prop49
280
     0
102
RTVSPost2010PropOp49
 70
     1
102
RTVSPost2010Prop50
 90
       50
102
RTVSPost2010PropOp50
 70
     1
102
RTVSPost2010Prop51ColorIndex
 90
      256
102
RTVSPost2010Prop51ColorRGB
 90
-16777216
102
RTVSPost2010PropOp51
 70
     0
102
RTVSPost2010Prop52
140
1.0
102
RTVSPost2010PropOp52
 70
     0
102
RTVSPost2010Prop53
 90
        2
102
RTVSPost2010PropOp53
 70
     1
102
RTVSPost2010Prop54
  1
strokes_ogs.tif
102
RTVSPost2010PropOp54
 70
     1
102
RTVSPost2010Prop55
280
     0
102
RTVSPost2010PropOp55
 70
     1
102
RTVSPost2010Prop56
140
1.0
102
RTVSPost2010PropOp56
 70
     1
102
RTVSPost2010Prop57
140
1.0
102
RTVSPost2010PropOp57
 70
     1
102
RTVSPropertyOp0
 70
     1
102
RTVSPropertyOp1
 70
     1
102
RTVSPropertyOp2
 70
     1
102
RTVSPropertyOp3
 70
     1
102
RTVSPropertyOp4
 70
     1
102
RTVSPropertyOp5
 70
     1
102
RTVSPropertyOp6
 70
     1
102
RTVSPropertyOp7
 70
     1
102
RTVSPropertyOp8
 70
     1
102
RTVSPropertyOp9
 70
     1
102
RTVSPropertyOp10
 70
     1
102
RTVSPropertyOp11
 70
     1
102
RTVSPropertyOp12
 70
     1
102
RTVSPropertyOp13
 70
     1
102
RTVSPropertyOp14
 70
     1
102
RTVSPropertyOp15
 70
     1
102
RTVSPropertyOp16
 70
     1
102
RTVSPropertyOp17
 70
     1
102
RTVSPropertyOp18
 70
     1
102
RTVSPropertyOp19
 70
     1
102
RTVSPropertyOp20
 70
     1
102
RTVSPropertyOp21
 70
     1
102
RTVSPropertyOp22
 70
     1
102
RTVSPropertyOp23
 70
     1
102
RTVSPropertyOp24
 70
     1
102
RTVSPropertyOp25
 70
     1
102
RTVSPropertyOp26
 70
     1
102
RTVSPropertyOp27
 70
     1
102
RTVSPropertyOp28
 70
     1
102
RTVSPropertyOp29
 70
     1
102
RTVSPropertyOp30
 70
     1
102
RTVSPropertyOp31
 70
     1
102
RTVSPropertyOp32
 70
     1
102
RTVSPropertyOp33
 70
     1
102
RTVSPropertyOp34
 70
     1
102
RTVSPropertyOp35
 70
     1
102
RTVSPropertyOp36
 70
     1
102
RTVSPropertyOp37
 70
     1
102
RTVSPropertyOp38
 70
     1
102
RTVSPropertyOp39
 70
     1
102
RTVSPropertyOp40
 70
     1
102
RTVSPropertyOp41
 70
     1
102
RTVSPropertyOp42
 70
     1
102
RTVSPropertyOp43
 70
     1
102
RTVSPropertyOp44
 70
     1
102
RTVSPropertyOp45
 70
     1
102
RTVSPropertyOp46
 70
     1
102
RTVSPropertyOp47
 70
     1
102
RTVSPropertyOp48
 70
     1
102
RTVSPropertyOp49
 70
     1
102
RTVSPropertyOp50
 70
     1
102
RTVSPropertyOp51
 70
     0
102
RTVSPropertyOp52
 70
     0
102
RTVSPropertyOp53
 70
     1
102
RTVSPropertyOp54
 70
     1
102
RTVSPropertyOp55
 70
     1
102
RTVSPropertyOp56
 70
     1
102
RTVSPropertyOp57
 70
     1
102
RTVSPropertyOp58
 70
     1
102
RTVSPropertyOp59
 70
     1
102
RTVSPropertyOp60
 70
     1
102
RTVSPropertyOp61
 70
     1
102
RTVSPropertyOp62
 70
     1
  0
XRECORD
  5
A228
102
{ACAD_REACTORS
330
A227
102
}
330
A227
100
AcDbXrecord
280
     1
102
RTVSPost2010Prop28
280
     0
102
RTVSPost2010PropOp28
 70
     1
102
RTVSPost2010Prop29
280
     1
102
RTVSPost2010PropOp29
 70
     1
102
RTVSPost2010Prop30
280
     1
102
RTVSPost2010PropOp30
 70
     1
102
RTVSPost2010Prop31
280
     0
102
RTVSPost2010PropOp31
 70
     1
102
RTVSPost2010Prop32
280
     0
102
RTVSPost2010PropOp32
 70
     1
102
RTVSPost2010Prop33
280
     0
102
RTVSPost2010PropOp33
 70
     1
102
RTVSPost2010Prop34
280
     0
102
RTVSPost2010PropOp34
 70
     1
102
RTVSPost2010Prop35
280
     0
102
RTVSPost2010PropOp35
 70
     1
102
RTVSPost2010Prop36
280
     0
102
RTVSPost2010PropOp36
 70
     1
102
RTVSPost2010Prop37
 90
       50
102
RTVSPost2010PropOp37
 70
     1
102
RTVSPost2010Prop38
140
0.0
102
RTVSPost2010PropOp38
 70
     1
102
RTVSPost2010Prop39
140
1.0
102
RTVSPost2010PropOp39
 70
     1
102
RTVSPost2010Prop40
 90
        0
102
RTVSPost2010PropOp40
 70
     1
102
RTVSPost2010Prop41ColorIndex
 90
       18
102
RTVSPost2010Prop41ColorRGB
 90
        0
102
RTVSPost2010PropOp41
 70
     1
102
RTVSPost2010Prop42
 90
       50
102
RTVSPost2010PropOp42
 70
     1
102
RTVSPost2010Prop43
 90
        3
102
RTVSPost2010PropOp43
 70
     1
102
RTVSPost2010Prop44ColorIndex
 90
        5
102
RTVSPost2010Prop44ColorRGB
 90
      255
102
RTVSPost2010PropOp44
 70
     1
102
RTVSPost2010Prop45
280
     0
102
RTVSPost2010PropOp45
 70
     1
102
RTVSPost2010Prop46
 90
       50
102
RTVSPost2010PropOp46
 70
     1
102
RTVSPost2010Prop47
 90
       50
102
RTVSPost2010PropOp47
 70
     1
102
RTVSPost2010Prop48
 90
       50
102
RTVSPost2010PropOp48
 70
     1
102
RTVSPost2010Prop49
280
     0
102
RTVSPost2010PropOp49
 70
     1
102
RTVSPost2010Prop50
 90
       50
102
RTVSPost2010PropOp50
 70
     1
102
RTVSPost2010Prop51ColorIndex
 90
      256
102
RTVSPost2010Prop51ColorRGB
 90
-16777216
102
RTVSPost2010PropOp51
 70
     0
102
RTVSPost2010Prop52
140
1.0
102
RTVSPost2010PropOp52
 70
     0
102
RTVSPost2010Prop53
 90
        2
102
RTVSPost2010PropOp53
 70
     1
102
RTVSPost2010Prop54
  1
strokes_ogs.tif
102
RTVSPost2010PropOp54
 70
     1
102
RTVSPost2010Prop55
280
     0
102
RTVSPost2010PropOp55
 70
     1
102
RTVSPost2010Prop56
140
1.0
102
RTVSPost2010PropOp56
 70
     1
102
RTVSPost2010Prop57
140
1.0
102
RTVSPost2010PropOp57
 70
     1
102
RTVSPropertyOp0
 70
     1
102
RTVSPropertyOp1
 70
     1
102
RTVSPropertyOp2
 70
     1
102
RTVSPropertyOp3
 70
     1
102
RTVSPropertyOp4
 70
     1
102
RTVSPropertyOp5
 70
     1
102
RTVSPropertyOp6
 70
     1
102
RTVSPropertyOp7
 70
     1
102
RTVSPropertyOp8
 70
     1
102
RTVSPropertyOp9
 70
     1
102
RTVSPropertyOp10
 70
     1
102
RTVSPropertyOp11
 70
     1
102
RTVSPropertyOp12
 70
     1
102
RTVSPropertyOp13
 70
     1
102
RTVSPropertyOp14
 70
     1
102
RTVSPropertyOp15
 70
     1
102
RTVSPropertyOp16
 70
     1
102
RTVSPropertyOp17
 70
     1
102
RTVSPropertyOp18
 70
     1
102
RTVSPropertyOp19
 70
     1
102
RTVSPropertyOp20
 70
     1
102
RTVSPropertyOp21
 70
     1
102
RTVSPropertyOp22
 70
     1
102
RTVSPropertyOp23
 70
     1
102
RTVSPropertyOp24
 70
     1
102
RTVSPropertyOp25
 70
     1
102
RTVSPropertyOp26
 70
     1
102
RTVSPropertyOp27
 70
     1
102
RTVSPropertyOp28
 70
     1
102
RTVSPropertyOp29
 70
     1
102
RTVSPropertyOp30
 70
     1
102
RTVSPropertyOp31
 70
     1
102
RTVSPropertyOp32
 70
     1
102
RTVSPropertyOp33
 70
     1
102
RTVSPropertyOp34
 70
     1
102
RTVSPropertyOp35
 70
     1
102
RTVSPropertyOp36
 70
     1
102
RTVSPropertyOp37
 70
     1
102
RTVSPropertyOp38
 70
     1
102
RTVSPropertyOp39
 70
     1
102
RTVSPropertyOp40
 70
     1
102
RTVSPropertyOp41
 70
     1
102
RTVSPropertyOp42
 70
     1
102
RTVSPropertyOp43
 70
     1
102
RTVSPropertyOp44
 70
     1
102
RTVSPropertyOp45
 70
     1
102
RTVSPropertyOp46
 70
     1
102
RTVSPropertyOp47
 70
     1
102
RTVSPropertyOp48
 70
     1
102
RTVSPropertyOp49
 70
     1
102
RTVSPropertyOp50
 70
     1
102
RTVSPropertyOp51
 70
     0
102
RTVSPropertyOp52
 70
     0
102
RTVSPropertyOp53
 70
     1
102
RTVSPropertyOp54
 70
     1
102
RTVSPropertyOp55
 70
     1
102
RTVSPropertyOp56
 70
     1
102
RTVSPropertyOp57
 70
     1
102
RTVSPropertyOp58
 70
     1
102
RTVSPropertyOp59
 70
     1
102
RTVSPropertyOp60
 70
     1
102
RTVSPropertyOp61
 70
     1
102
RTVSPropertyOp62
 70
     1
  0
XRECORD
  5
A22A
102
{ACAD_REACTORS
330
A229
102
}
330
A229
100
AcDbXrecord
280
     1
102
RTVSPost2010Prop28
280
     0
102
RTVSPost2010PropOp28
 70
     1
102
RTVSPost2010Prop29
280
     1
102
RTVSPost2010PropOp29
 70
     1
102
RTVSPost2010Prop30
280
     1
102
RTVSPost2010PropOp30
 70
     1
102
RTVSPost2010Prop31
280
     0
102
RTVSPost2010PropOp31
 70
     1
102
RTVSPost2010Prop32
280
     0
102
RTVSPost2010PropOp32
 70
     1
102
RTVSPost2010Prop33
280
     0
102
RTVSPost2010PropOp33
 70
     1
102
RTVSPost2010Prop34
280
     0
102
RTVSPost2010PropOp34
 70
     1
102
RTVSPost2010Prop35
280
     0
102
RTVSPost2010PropOp35
 70
     1
102
RTVSPost2010Prop36
280
     0
102
RTVSPost2010PropOp36
 70
     1
102
RTVSPost2010Prop37
 90
       50
102
RTVSPost2010PropOp37
 70
     1
102
RTVSPost2010Prop38
140
0.0
102
RTVSPost2010PropOp38
 70
     1
102
RTVSPost2010Prop39
140
1.0
102
RTVSPost2010PropOp39
 70
     1
102
RTVSPost2010Prop40
 90
        0
102
RTVSPost2010PropOp40
 70
     1
102
RTVSPost2010Prop41ColorIndex
 90
       18
102
RTVSPost2010Prop41ColorRGB
 90
        0
102
RTVSPost2010PropOp41
 70
     1
102
RTVSPost2010Prop42
 90
       50
102
RTVSPost2010PropOp42
 70
     1
102
RTVSPost2010Prop43
 90
        3
102
RTVSPost2010PropOp43
 70
     1
102
RTVSPost2010Prop44ColorIndex
 90
        5
102
RTVSPost2010Prop44ColorRGB
 90
      255
102
RTVSPost2010PropOp44
 70
     1
102
RTVSPost2010Prop45
280
     0
102
RTVSPost2010PropOp45
 70
     1
102
RTVSPost2010Prop46
 90
       50
102
RTVSPost2010PropOp46
 70
     1
102
RTVSPost2010Prop47
 90
       50
102
RTVSPost2010PropOp47
 70
     1
102
RTVSPost2010Prop48
 90
       50
102
RTVSPost2010PropOp48
 70
     1
102
RTVSPost2010Prop49
280
     0
102
RTVSPost2010PropOp49
 70
     1
102
RTVSPost2010Prop50
 90
       50
102
RTVSPost2010PropOp50
 70
     1
102
RTVSPost2010Prop51ColorIndex
 90
      256
102
RTVSPost2010Prop51ColorRGB
 90
-16777216
102
RTVSPost2010PropOp51
 70
     0
102
RTVSPost2010Prop52
140
1.0
102
RTVSPost2010PropOp52
 70
     0
102
RTVSPost2010Prop53
 90
        2
102
RTVSPost2010PropOp53
 70
     1
102
RTVSPost2010Prop54
  1
strokes_ogs.tif
102
RTVSPost2010PropOp54
 70
     1
102
RTVSPost2010Prop55
280
     0
102
RTVSPost2010PropOp55
 70
     1
102
RTVSPost2010Prop56
140
1.0
102
RTVSPost2010PropOp56
 70
     1
102
RTVSPost2010Prop57
140
1.0
102
RTVSPost2010PropOp57
 70
     1
102
RTVSPropertyOp0
 70
     1
102
RTVSPropertyOp1
 70
     1
102
RTVSPropertyOp2
 70
     1
102
RTVSPropertyOp3
 70
     1
102
RTVSPropertyOp4
 70
     1
102
RTVSPropertyOp5
 70
     1
102
RTVSPropertyOp6
 70
     1
102
RTVSPropertyOp7
 70
     1
102
RTVSPropertyOp8
 70
     1
102
RTVSPropertyOp9
 70
     1
102
RTVSPropertyOp10
 70
     1
102
RTVSPropertyOp11
 70
     1
102
RTVSPropertyOp12
 70
     1
102
RTVSPropertyOp13
 70
     1
102
RTVSPropertyOp14
 70
     1
102
RTVSPropertyOp15
 70
     1
102
RTVSPropertyOp16
 70
     1
102
RTVSPropertyOp17
 70
     1
102
RTVSPropertyOp18
 70
     1
102
RTVSPropertyOp19
 70
     1
102
RTVSPropertyOp20
 70
     1
102
RTVSPropertyOp21
 70
     1
102
RTVSPropertyOp22
 70
     1
102
RTVSPropertyOp23
 70
     1
102
RTVSPropertyOp24
 70
     1
102
RTVSPropertyOp25
 70
     1
102
RTVSPropertyOp26
 70
     1
102
RTVSPropertyOp27
 70
     1
102
RTVSPropertyOp28
 70
     1
102
RTVSPropertyOp29
 70
     1
102
RTVSPropertyOp30
 70
     1
102
RTVSPropertyOp31
 70
     1
102
RTVSPropertyOp32
 70
     1
102
RTVSPropertyOp33
 70
     1
102
RTVSPropertyOp34
 70
     1
102
RTVSPropertyOp35
 70
     1
102
RTVSPropertyOp36
 70
     1
102
RTVSPropertyOp37
 70
     1
102
RTVSPropertyOp38
 70
     1
102
RTVSPropertyOp39
 70
     1
102
RTVSPropertyOp40
 70
     1
102
RTVSPropertyOp41
 70
     1
102
RTVSPropertyOp42
 70
     1
102
RTVSPropertyOp43
 70
     1
102
RTVSPropertyOp44
 70
     1
102
RTVSPropertyOp45
 70
     1
102
RTVSPropertyOp46
 70
     1
102
RTVSPropertyOp47
 70
     1
102
RTVSPropertyOp48
 70
     1
102
RTVSPropertyOp49
 70
     1
102
RTVSPropertyOp50
 70
     1
102
RTVSPropertyOp51
 70
     0
102
RTVSPropertyOp52
 70
     0
102
RTVSPropertyOp53
 70
     1
102
RTVSPropertyOp54
 70
     1
102
RTVSPropertyOp55
 70
     1
102
RTVSPropertyOp56
 70
     1
102
RTVSPropertyOp57
 70
     1
102
RTVSPropertyOp58
 70
     1
102
RTVSPropertyOp59
 70
     1
102
RTVSPropertyOp60
 70
     1
102
RTVSPropertyOp61
 70
     1
102
RTVSPropertyOp62
 70
     1
  0
XRECORD
  5
A22C
102
{ACAD_REACTORS
330
A22B
102
}
330
A22B
100
AcDbXrecord
280
     1
102
RTVSPost2010Prop28
280
     0
102
RTVSPost2010PropOp28
 70
     1
102
RTVSPost2010Prop29
280
     1
102
RTVSPost2010PropOp29
 70
     1
102
RTVSPost2010Prop30
280
     1
102
RTVSPost2010PropOp30
 70
     1
102
RTVSPost2010Prop31
280
     0
102
RTVSPost2010PropOp31
 70
     1
102
RTVSPost2010Prop32
280
     0
102
RTVSPost2010PropOp32
 70
     1
102
RTVSPost2010Prop33
280
     0
102
RTVSPost2010PropOp33
 70
     1
102
RTVSPost2010Prop34
280
     0
102
RTVSPost2010PropOp34
 70
     1
102
RTVSPost2010Prop35
280
     0
102
RTVSPost2010PropOp35
 70
     1
102
RTVSPost2010Prop36
280
     0
102
RTVSPost2010PropOp36
 70
     1
102
RTVSPost2010Prop37
 90
       50
102
RTVSPost2010PropOp37
 70
     1
102
RTVSPost2010Prop38
140
0.0
102
RTVSPost2010PropOp38
 70
     1
102
RTVSPost2010Prop39
140
1.0
102
RTVSPost2010PropOp39
 70
     1
102
RTVSPost2010Prop40
 90
        0
102
RTVSPost2010PropOp40
 70
     1
102
RTVSPost2010Prop41ColorIndex
 90
       18
102
RTVSPost2010Prop41ColorRGB
 90
        0
102
RTVSPost2010PropOp41
 70
     1
102
RTVSPost2010Prop42
 90
       50
102
RTVSPost2010PropOp42
 70
     1
102
RTVSPost2010Prop43
 90
        3
102
RTVSPost2010PropOp43
 70
     1
102
RTVSPost2010Prop44ColorIndex
 90
        5
102
RTVSPost2010Prop44ColorRGB
 90
      255
102
RTVSPost2010PropOp44
 70
     1
102
RTVSPost2010Prop45
280
     0
102
RTVSPost2010PropOp45
 70
     1
102
RTVSPost2010Prop46
 90
       50
102
RTVSPost2010PropOp46
 70
     1
102
RTVSPost2010Prop47
 90
       50
102
RTVSPost2010PropOp47
 70
     1
102
RTVSPost2010Prop48
 90
       50
102
RTVSPost2010PropOp48
 70
     1
102
RTVSPost2010Prop49
280
     0
102
RTVSPost2010PropOp49
 70
     1
102
RTVSPost2010Prop50
 90
       50
102
RTVSPost2010PropOp50
 70
     1
102
RTVSPost2010Prop51ColorIndex
 90
      256
102
RTVSPost2010Prop51ColorRGB
 90
-16777216
102
RTVSPost2010PropOp51
 70
     0
102
RTVSPost2010Prop52
140
1.0
102
RTVSPost2010PropOp52
 70
     0
102
RTVSPost2010Prop53
 90
        2
102
RTVSPost2010PropOp53
 70
     1
102
RTVSPost2010Prop54
  1
strokes_ogs.tif
102
RTVSPost2010PropOp54
 70
     1
102
RTVSPost2010Prop55
280
     0
102
RTVSPost2010PropOp55
 70
     1
102
RTVSPost2010Prop56
140
1.0
102
RTVSPost2010PropOp56
 70
     1
102
RTVSPost2010Prop57
140
1.0
102
RTVSPost2010PropOp57
 70
     1
102
RTVSPropertyOp0
 70
     1
102
RTVSPropertyOp1
 70
     1
102
RTVSPropertyOp2
 70
     1
102
RTVSPropertyOp3
 70
     1
102
RTVSPropertyOp4
 70
     1
102
RTVSPropertyOp5
 70
     1
102
RTVSPropertyOp6
 70
     1
102
RTVSPropertyOp7
 70
     1
102
RTVSPropertyOp8
 70
     1
102
RTVSPropertyOp9
 70
     1
102
RTVSPropertyOp10
 70
     1
102
RTVSPropertyOp11
 70
     1
102
RTVSPropertyOp12
 70
     1
102
RTVSPropertyOp13
 70
     1
102
RTVSPropertyOp14
 70
     1
102
RTVSPropertyOp15
 70
     1
102
RTVSPropertyOp16
 70
     1
102
RTVSPropertyOp17
 70
     1
102
RTVSPropertyOp18
 70
     1
102
RTVSPropertyOp19
 70
     1
102
RTVSPropertyOp20
 70
     1
102
RTVSPropertyOp21
 70
     1
102
RTVSPropertyOp22
 70
     1
102
RTVSPropertyOp23
 70
     1
102
RTVSPropertyOp24
 70
     1
102
RTVSPropertyOp25
 70
     1
102
RTVSPropertyOp26
 70
     1
102
RTVSPropertyOp27
 70
     1
102
RTVSPropertyOp28
 70
     1
102
RTVSPropertyOp29
 70
     1
102
RTVSPropertyOp30
 70
     1
102
RTVSPropertyOp31
 70
     1
102
RTVSPropertyOp32
 70
     1
102
RTVSPropertyOp33
 70
     1
102
RTVSPropertyOp34
 70
     1
102
RTVSPropertyOp35
 70
     1
102
RTVSPropertyOp36
 70
     1
102
RTVSPropertyOp37
 70
     1
102
RTVSPropertyOp38
 70
     1
102
RTVSPropertyOp39
 70
     1
102
RTVSPropertyOp40
 70
     1
102
RTVSPropertyOp41
 70
     1
102
RTVSPropertyOp42
 70
     1
102
RTVSPropertyOp43
 70
     1
102
RTVSPropertyOp44
 70
     1
102
RTVSPropertyOp45
 70
     1
102
RTVSPropertyOp46
 70
     1
102
RTVSPropertyOp47
 70
     1
102
RTVSPropertyOp48
 70
     1
102
RTVSPropertyOp49
 70
     1
102
RTVSPropertyOp50
 70
     1
102
RTVSPropertyOp51
 70
     0
102
RTVSPropertyOp52
 70
     0
102
RTVSPropertyOp53
 70
     1
102
RTVSPropertyOp54
 70
     1
102
RTVSPropertyOp55
 70
     1
102
RTVSPropertyOp56
 70
     1
102
RTVSPropertyOp57
 70
     1
102
RTVSPropertyOp58
 70
     1
102
RTVSPropertyOp59
 70
     1
102
RTVSPropertyOp60
 70
     1
102
RTVSPropertyOp61
 70
     1
102
RTVSPropertyOp62
 70
     1
  0
XRECORD
  5
A234
102
{ACAD_REACTORS
330
A233
102
}
330
A233
100
AcDbXrecord
280
     1
102
RTVSPost2010Prop28
280
     0
102
RTVSPost2010PropOp28
 70
     1
102
RTVSPost2010Prop29
280
     1
102
RTVSPost2010PropOp29
 70
     1
102
RTVSPost2010Prop30
280
     1
102
RTVSPost2010PropOp30
 70
     1
102
RTVSPost2010Prop31
280
     0
102
RTVSPost2010PropOp31
 70
     1
102
RTVSPost2010Prop32
280
     0
102
RTVSPost2010PropOp32
 70
     1
102
RTVSPost2010Prop33
280
     0
102
RTVSPost2010PropOp33
 70
     1
102
RTVSPost2010Prop34
280
     0
102
RTVSPost2010PropOp34
 70
     1
102
RTVSPost2010Prop35
280
     0
102
RTVSPost2010PropOp35
 70
     1
102
RTVSPost2010Prop36
280
     0
102
RTVSPost2010PropOp36
 70
     1
102
RTVSPost2010Prop37
 90
       50
102
RTVSPost2010PropOp37
 70
     1
102
RTVSPost2010Prop38
140
0.0
102
RTVSPost2010PropOp38
 70
     1
102
RTVSPost2010Prop39
140
1.0
102
RTVSPost2010PropOp39
 70
     1
102
RTVSPost2010Prop40
 90
        0
102
RTVSPost2010PropOp40
 70
     1
102
RTVSPost2010Prop41ColorIndex
 90
       18
102
RTVSPost2010Prop41ColorRGB
 90
        0
102
RTVSPost2010PropOp41
 70
     1
102
RTVSPost2010Prop42
 90
       50
102
RTVSPost2010PropOp42
 70
     1
102
RTVSPost2010Prop43
 90
        3
102
RTVSPost2010PropOp43
 70
     1
102
RTVSPost2010Prop44ColorIndex
 90
        5
102
RTVSPost2010Prop44ColorRGB
 90
      255
102
RTVSPost2010PropOp44
 70
     1
102
RTVSPost2010Prop45
280
     0
102
RTVSPost2010PropOp45
 70
     1
102
RTVSPost2010Prop46
 90
       50
102
RTVSPost2010PropOp46
 70
     1
102
RTVSPost2010Prop47
 90
       50
102
RTVSPost2010PropOp47
 70
     1
102
RTVSPost2010Prop48
 90
       50
102
RTVSPost2010PropOp48
 70
     1
102
RTVSPost2010Prop49
280
     0
102
RTVSPost2010PropOp49
 70
     1
102
RTVSPost2010Prop50
 90
       50
102
RTVSPost2010PropOp50
 70
     1
102
RTVSPost2010Prop51ColorIndex
 90
      256
102
RTVSPost2010Prop51ColorRGB
 90
-16777216
102
RTVSPost2010PropOp51
 70
     0
102
RTVSPost2010Prop52
140
1.0
102
RTVSPost2010PropOp52
 70
     0
102
RTVSPost2010Prop53
 90
        2
102
RTVSPost2010PropOp53
 70
     1
102
RTVSPost2010Prop54
  1
strokes_ogs.tif
102
RTVSPost2010PropOp54
 70
     1
102
RTVSPost2010Prop55
280
     0
102
RTVSPost2010PropOp55
 70
     1
102
RTVSPost2010Prop56
140
1.0
102
RTVSPost2010PropOp56
 70
     1
102
RTVSPost2010Prop57
140
1.0
102
RTVSPost2010PropOp57
 70
     1
102
RTVSPropertyOp0
 70
     1
102
RTVSPropertyOp1
 70
     1
102
RTVSPropertyOp2
 70
     1
102
RTVSPropertyOp3
 70
     1
102
RTVSPropertyOp4
 70
     1
102
RTVSPropertyOp5
 70
     1
102
RTVSPropertyOp6
 70
     1
102
RTVSPropertyOp7
 70
     1
102
RTVSPropertyOp8
 70
     1
102
RTVSPropertyOp9
 70
     1
102
RTVSPropertyOp10
 70
     1
102
RTVSPropertyOp11
 70
     1
102
RTVSPropertyOp12
 70
     1
102
RTVSPropertyOp13
 70
     1
102
RTVSPropertyOp14
 70
     1
102
RTVSPropertyOp15
 70
     1
102
RTVSPropertyOp16
 70
     1
102
RTVSPropertyOp17
 70
     1
102
RTVSPropertyOp18
 70
     1
102
RTVSPropertyOp19
 70
     1
102
RTVSPropertyOp20
 70
     1
102
RTVSPropertyOp21
 70
     1
102
RTVSPropertyOp22
 70
     1
102
RTVSPropertyOp23
 70
     1
102
RTVSPropertyOp24
 70
     1
102
RTVSPropertyOp25
 70
     1
102
RTVSPropertyOp26
 70
     1
102
RTVSPropertyOp27
 70
     1
102
RTVSPropertyOp28
 70
     1
102
RTVSPropertyOp29
 70
     1
102
RTVSPropertyOp30
 70
     1
102
RTVSPropertyOp31
 70
     1
102
RTVSPropertyOp32
 70
     1
102
RTVSPropertyOp33
 70
     1
102
RTVSPropertyOp34
 70
     1
102
RTVSPropertyOp35
 70
     1
102
RTVSPropertyOp36
 70
     1
102
RTVSPropertyOp37
 70
     1
102
RTVSPropertyOp38
 70
     1
102
RTVSPropertyOp39
 70
     1
102
RTVSPropertyOp40
 70
     1
102
RTVSPropertyOp41
 70
     1
102
RTVSPropertyOp42
 70
     1
102
RTVSPropertyOp43
 70
     1
102
RTVSPropertyOp44
 70
     1
102
RTVSPropertyOp45
 70
     1
102
RTVSPropertyOp46
 70
     1
102
RTVSPropertyOp47
 70
     1
102
RTVSPropertyOp48
 70
     1
102
RTVSPropertyOp49
 70
     1
102
RTVSPropertyOp50
 70
     1
102
RTVSPropertyOp51
 70
     0
102
RTVSPropertyOp52
 70
     0
102
RTVSPropertyOp53
 70
     1
102
RTVSPropertyOp54
 70
     1
102
RTVSPropertyOp55
 70
     1
102
RTVSPropertyOp56
 70
     1
102
RTVSPropertyOp57
 70
     1
102
RTVSPropertyOp58
 70
     1
102
RTVSPropertyOp59
 70
     1
102
RTVSPropertyOp60
 70
     1
102
RTVSPropertyOp61
 70
     1
102
RTVSPropertyOp62
 70
     1
  0
XRECORD
  5
A250
102
{ACAD_REACTORS
330
A24F
102
}
330
A24F
100
AcDbXrecord
280
     1
102
RTVSPost2010Prop28
280
     0
102
RTVSPost2010PropOp28
 70
     1
102
RTVSPost2010Prop29
280
     1
102
RTVSPost2010PropOp29
 70
     1
102
RTVSPost2010Prop30
280
     1
102
RTVSPost2010PropOp30
 70
     1
102
RTVSPost2010Prop31
280
     0
102
RTVSPost2010PropOp31
 70
     1
102
RTVSPost2010Prop32
280
     0
102
RTVSPost2010PropOp32
 70
     1
102
RTVSPost2010Prop33
280
     0
102
RTVSPost2010PropOp33
 70
     1
102
RTVSPost2010Prop34
280
     0
102
RTVSPost2010PropOp34
 70
     1
102
RTVSPost2010Prop35
280
     0
102
RTVSPost2010PropOp35
 70
     1
102
RTVSPost2010Prop36
280
     0
102
RTVSPost2010PropOp36
 70
     1
102
RTVSPost2010Prop37
 90
       50
102
RTVSPost2010PropOp37
 70
     0
102
RTVSPost2010Prop38
140
0.0
102
RTVSPost2010PropOp38
 70
     0
102
RTVSPost2010Prop39
140
1.0
102
RTVSPost2010PropOp39
 70
     0
102
RTVSPost2010Prop40
 90
        0
102
RTVSPost2010PropOp40
 70
     0
102
RTVSPost2010Prop41ColorIndex
 90
       18
102
RTVSPost2010Prop41ColorRGB
 90
        0
102
RTVSPost2010PropOp41
 70
     0
102
RTVSPost2010Prop42
 90
       50
102
RTVSPost2010PropOp42
 70
     0
102
RTVSPost2010Prop43
 90
        3
102
RTVSPost2010PropOp43
 70
     0
102
RTVSPost2010Prop44ColorIndex
 90
        5
102
RTVSPost2010Prop44ColorRGB
 90
      255
102
RTVSPost2010PropOp44
 70
     0
102
RTVSPost2010Prop45
280
     0
102
RTVSPost2010PropOp45
 70
     1
102
RTVSPost2010Prop46
 90
       50
102
RTVSPost2010PropOp46
 70
     0
102
RTVSPost2010Prop47
 90
       50
102
RTVSPost2010PropOp47
 70
     0
102
RTVSPost2010Prop48
 90
       50
102
RTVSPost2010PropOp48
 70
     0
102
RTVSPost2010Prop49
280
     0
102
RTVSPost2010PropOp49
 70
     1
102
RTVSPost2010Prop50
 90
       50
102
RTVSPost2010PropOp50
 70
     0
102
RTVSPost2010Prop51ColorIndex
 90
      256
102
RTVSPost2010Prop51ColorRGB
 90
-16777216
102
RTVSPost2010PropOp51
 70
     0
102
RTVSPost2010Prop52
140
1.0
102
RTVSPost2010PropOp52
 70
     0
102
RTVSPost2010Prop53
 90
        2
102
RTVSPost2010PropOp53
 70
     0
102
RTVSPost2010Prop54
  1
strokes_ogs.tif
102
RTVSPost2010PropOp54
 70
     0
102
RTVSPost2010Prop55
280
     0
102
RTVSPost2010PropOp55
 70
     1
102
RTVSPost2010Prop56
140
1.0
102
RTVSPost2010PropOp56
 70
     0
102
RTVSPost2010Prop57
140
1.0
102
RTVSPost2010PropOp57
 70
     0
102
RTVSPropertyOp0
 70
     0
102
RTVSPropertyOp1
 70
     0
102
RTVSPropertyOp2
 70
     0
102
RTVSPropertyOp3
 70
     0
102
RTVSPropertyOp4
 70
     0
102
RTVSPropertyOp5
 70
     0
102
RTVSPropertyOp6
 70
     0
102
RTVSPropertyOp7
 70
     0
102
RTVSPropertyOp8
 70
     0
102
RTVSPropertyOp9
 70
     0
102
RTVSPropertyOp10
 70
     0
102
RTVSPropertyOp11
 70
     0
102
RTVSPropertyOp12
 70
     0
102
RTVSPropertyOp13
 70
     0
102
RTVSPropertyOp14
 70
     2
102
RTVSPropertyOp15
 70
     0
102
RTVSPropertyOp16
 70
     0
102
RTVSPropertyOp17
 70
     0
102
RTVSPropertyOp18
 70
     0
102
RTVSPropertyOp19
 70
     0
102
RTVSPropertyOp20
 70
     0
102
RTVSPropertyOp21
 70
     0
102
RTVSPropertyOp22
 70
     0
102
RTVSPropertyOp23
 70
     0
102
RTVSPropertyOp24
 70
     0
102
RTVSPropertyOp25
 70
     0
102
RTVSPropertyOp26
 70
     0
102
RTVSPropertyOp27
 70
     0
102
RTVSPropertyOp28
 70
     1
102
RTVSPropertyOp29
 70
     1
102
RTVSPropertyOp30
 70
     1
102
RTVSPropertyOp31
 70
     1
102
RTVSPropertyOp32
 70
     1
102
RTVSPropertyOp33
 70
     1
102
RTVSPropertyOp34
 70
     1
102
RTVSPropertyOp35
 70
     1
102
RTVSPropertyOp36
 70
     1
102
RTVSPropertyOp37
 70
     0
102
RTVSPropertyOp38
 70
     0
102
RTVSPropertyOp39
 70
     0
102
RTVSPropertyOp40
 70
     0
102
RTVSPropertyOp41
 70
     0
102
RTVSPropertyOp42
 70
     0
102
RTVSPropertyOp43
 70
     0
102
RTVSPropertyOp44
 70
     0
102
RTVSPropertyOp45
 70
     1
102
RTVSPropertyOp46
 70
     0
102
RTVSPropertyOp47
 70
     0
102
RTVSPropertyOp48
 70
     0
102
RTVSPropertyOp49
 70
     1
102
RTVSPropertyOp50
 70
     0
102
RTVSPropertyOp51
 70
     0
102
RTVSPropertyOp52
 70
     0
102
RTVSPropertyOp53
 70
     0
102
RTVSPropertyOp54
 70
     0
102
RTVSPropertyOp55
 70
     1
102
RTVSPropertyOp56
 70
     0
102
RTVSPropertyOp57
 70
     0
102
RTVSPropertyOp58
 70
     0
102
RTVSPropertyOp59
 70
     0
102
RTVSPropertyOp60
 70
     0
102
RTVSPropertyOp61
 70
     0
102
RTVSPropertyOp62
 70
     0
  0
XRECORD
  5
A240
102
{ACAD_REACTORS
330
A23F
102
}
330
A23F
100
AcDbXrecord
280
     1
102
RTVSPost2010Prop28
280
     0
102
RTVSPost2010PropOp28
 70
     1
102
RTVSPost2010Prop29
280
     1
102
RTVSPost2010PropOp29
 70
     1
102
RTVSPost2010Prop30
280
     1
102
RTVSPost2010PropOp30
 70
     1
102
RTVSPost2010Prop31
280
     0
102
RTVSPost2010PropOp31
 70
     1
102
RTVSPost2010Prop32
280
     0
102
RTVSPost2010PropOp32
 70
     1
102
RTVSPost2010Prop33
280
     0
102
RTVSPost2010PropOp33
 70
     1
102
RTVSPost2010Prop34
280
     0
102
RTVSPost2010PropOp34
 70
     1
102
RTVSPost2010Prop35
280
     0
102
RTVSPost2010PropOp35
 70
     1
102
RTVSPost2010Prop36
280
     0
102
RTVSPost2010PropOp36
 70
     1
102
RTVSPost2010Prop37
 90
       50
102
RTVSPost2010PropOp37
 70
     1
102
RTVSPost2010Prop38
140
0.0
102
RTVSPost2010PropOp38
 70
     1
102
RTVSPost2010Prop39
140
1.0
102
RTVSPost2010PropOp39
 70
     1
102
RTVSPost2010Prop40
 90
        0
102
RTVSPost2010PropOp40
 70
     1
102
RTVSPost2010Prop41ColorIndex
 90
       18
102
RTVSPost2010Prop41ColorRGB
 90
        0
102
RTVSPost2010PropOp41
 70
     1
102
RTVSPost2010Prop42
 90
       50
102
RTVSPost2010PropOp42
 70
     1
102
RTVSPost2010Prop43
 90
        3
102
RTVSPost2010PropOp43
 70
     1
102
RTVSPost2010Prop44ColorIndex
 90
        5
102
RTVSPost2010Prop44ColorRGB
 90
      255
102
RTVSPost2010PropOp44
 70
     1
102
RTVSPost2010Prop45
280
     0
102
RTVSPost2010PropOp45
 70
     1
102
RTVSPost2010Prop46
 90
       50
102
RTVSPost2010PropOp46
 70
     1
102
RTVSPost2010Prop47
 90
       50
102
RTVSPost2010PropOp47
 70
     1
102
RTVSPost2010Prop48
 90
       50
102
RTVSPost2010PropOp48
 70
     1
102
RTVSPost2010Prop49
280
     0
102
RTVSPost2010PropOp49
 70
     1
102
RTVSPost2010Prop50
 90
       50
102
RTVSPost2010PropOp50
 70
     1
102
RTVSPost2010Prop51ColorIndex
 90
      256
102
RTVSPost2010Prop51ColorRGB
 90
-16777216
102
RTVSPost2010PropOp51
 70
     0
102
RTVSPost2010Prop52
140
1.0
102
RTVSPost2010PropOp52
 70
     0
102
RTVSPost2010Prop53
 90
        2
102
RTVSPost2010PropOp53
 70
     1
102
RTVSPost2010Prop54
  1
strokes_ogs.tif
102
RTVSPost2010PropOp54
 70
     1
102
RTVSPost2010Prop55
280
     0
102
RTVSPost2010PropOp55
 70
     1
102
RTVSPost2010Prop56
140
1.0
102
RTVSPost2010PropOp56
 70
     1
102
RTVSPost2010Prop57
140
1.0
102
RTVSPost2010PropOp57
 70
     1
102
RTVSPropertyOp0
 70
     1
102
RTVSPropertyOp1
 70
     1
102
RTVSPropertyOp2
 70
     1
102
RTVSPropertyOp3
 70
     1
102
RTVSPropertyOp4
 70
     1
102
RTVSPropertyOp5
 70
     1
102
RTVSPropertyOp6
 70
     1
102
RTVSPropertyOp7
 70
     1
102
RTVSPropertyOp8
 70
     1
102
RTVSPropertyOp9
 70
     1
102
RTVSPropertyOp10
 70
     1
102
RTVSPropertyOp11
 70
     1
102
RTVSPropertyOp12
 70
     1
102
RTVSPropertyOp13
 70
     1
102
RTVSPropertyOp14
 70
     1
102
RTVSPropertyOp15
 70
     1
102
RTVSPropertyOp16
 70
     1
102
RTVSPropertyOp17
 70
     1
102
RTVSPropertyOp18
 70
     1
102
RTVSPropertyOp19
 70
     1
102
RTVSPropertyOp20
 70
     1
102
RTVSPropertyOp21
 70
     1
102
RTVSPropertyOp22
 70
     1
102
RTVSPropertyOp23
 70
     1
102
RTVSPropertyOp24
 70
     1
102
RTVSPropertyOp25
 70
     1
102
RTVSPropertyOp26
 70
     1
102
RTVSPropertyOp27
 70
     1
102
RTVSPropertyOp28
 70
     1
102
RTVSPropertyOp29
 70
     1
102
RTVSPropertyOp30
 70
     1
102
RTVSPropertyOp31
 70
     1
102
RTVSPropertyOp32
 70
     1
102
RTVSPropertyOp33
 70
     1
102
RTVSPropertyOp34
 70
     1
102
RTVSPropertyOp35
 70
     1
102
RTVSPropertyOp36
 70
     1
102
RTVSPropertyOp37
 70
     1
102
RTVSPropertyOp38
 70
     1
102
RTVSPropertyOp39
 70
     1
102
RTVSPropertyOp40
 70
     1
102
RTVSPropertyOp41
 70
     1
102
RTVSPropertyOp42
 70
     1
102
RTVSPropertyOp43
 70
     1
102
RTVSPropertyOp44
 70
     1
102
RTVSPropertyOp45
 70
     1
102
RTVSPropertyOp46
 70
     1
102
RTVSPropertyOp47
 70
     1
102
RTVSPropertyOp48
 70
     1
102
RTVSPropertyOp49
 70
     1
102
RTVSPropertyOp50
 70
     1
102
RTVSPropertyOp51
 70
     0
102
RTVSPropertyOp52
 70
     0
102
RTVSPropertyOp53
 70
     1
102
RTVSPropertyOp54
 70
     1
102
RTVSPropertyOp55
 70
     1
102
RTVSPropertyOp56
 70
     1
102
RTVSPropertyOp57
 70
     1
102
RTVSPropertyOp58
 70
     1
102
RTVSPropertyOp59
 70
     1
102
RTVSPropertyOp60
 70
     1
102
RTVSPropertyOp61
 70
     1
102
RTVSPropertyOp62
 70
     1
  0
XRECORD
  5
A252
102
{ACAD_REACTORS
330
A251
102
}
330
A251
100
AcDbXrecord
280
     1
102
RTVSPost2010Prop28
280
     0
102
RTVSPost2010PropOp28
 70
     1
102
RTVSPost2010Prop29
280
     1
102
RTVSPost2010PropOp29
 70
     1
102
RTVSPost2010Prop30
280
     1
102
RTVSPost2010PropOp30
 70
     1
102
RTVSPost2010Prop31
280
     0
102
RTVSPost2010PropOp31
 70
     1
102
RTVSPost2010Prop32
280
     0
102
RTVSPost2010PropOp32
 70
     1
102
RTVSPost2010Prop33
280
     0
102
RTVSPost2010PropOp33
 70
     1
102
RTVSPost2010Prop34
280
     0
102
RTVSPost2010PropOp34
 70
     1
102
RTVSPost2010Prop35
280
     0
102
RTVSPost2010PropOp35
 70
     1
102
RTVSPost2010Prop36
280
     0
102
RTVSPost2010PropOp36
 70
     1
102
RTVSPost2010Prop37
 90
       50
102
RTVSPost2010PropOp37
 70
     0
102
RTVSPost2010Prop38
140
0.0
102
RTVSPost2010PropOp38
 70
     0
102
RTVSPost2010Prop39
140
1.0
102
RTVSPost2010PropOp39
 70
     0
102
RTVSPost2010Prop40
 90
        0
102
RTVSPost2010PropOp40
 70
     0
102
RTVSPost2010Prop41ColorIndex
 90
       18
102
RTVSPost2010Prop41ColorRGB
 90
        0
102
RTVSPost2010PropOp41
 70
     0
102
RTVSPost2010Prop42
 90
       50
102
RTVSPost2010PropOp42
 70
     0
102
RTVSPost2010Prop43
 90
        3
102
RTVSPost2010PropOp43
 70
     0
102
RTVSPost2010Prop44ColorIndex
 90
        5
102
RTVSPost2010Prop44ColorRGB
 90
      255
102
RTVSPost2010PropOp44
 70
     0
102
RTVSPost2010Prop45
280
     0
102
RTVSPost2010PropOp45
 70
     1
102
RTVSPost2010Prop46
 90
       50
102
RTVSPost2010PropOp46
 70
     0
102
RTVSPost2010Prop47
 90
       50
102
RTVSPost2010PropOp47
 70
     0
102
RTVSPost2010Prop48
 90
       50
102
RTVSPost2010PropOp48
 70
     0
102
RTVSPost2010Prop49
280
     0
102
RTVSPost2010PropOp49
 70
     1
102
RTVSPost2010Prop50
 90
       50
102
RTVSPost2010PropOp50
 70
     0
102
RTVSPost2010Prop51ColorIndex
 90
      256
102
RTVSPost2010Prop51ColorRGB
 90
-16777216
102
RTVSPost2010PropOp51
 70
     0
102
RTVSPost2010Prop52
140
1.0
102
RTVSPost2010PropOp52
 70
     0
102
RTVSPost2010Prop53
 90
        2
102
RTVSPost2010PropOp53
 70
     0
102
RTVSPost2010Prop54
  1
strokes_ogs.tif
102
RTVSPost2010PropOp54
 70
     0
102
RTVSPost2010Prop55
280
     0
102
RTVSPost2010PropOp55
 70
     1
102
RTVSPost2010Prop56
140
1.0
102
RTVSPost2010PropOp56
 70
     0
102
RTVSPost2010Prop57
140
1.0
102
RTVSPost2010PropOp57
 70
     0
102
RTVSPropertyOp0
 70
     0
102
RTVSPropertyOp1
 70
     0
102
RTVSPropertyOp2
 70
     0
102
RTVSPropertyOp3
 70
     0
102
RTVSPropertyOp4
 70
     0
102
RTVSPropertyOp5
 70
     0
102
RTVSPropertyOp6
 70
     0
102
RTVSPropertyOp7
 70
     0
102
RTVSPropertyOp8
 70
     0
102
RTVSPropertyOp9
 70
     0
102
RTVSPropertyOp10
 70
     0
102
RTVSPropertyOp11
 70
     0
102
RTVSPropertyOp12
 70
     0
102
RTVSPropertyOp13
 70
     0
102
RTVSPropertyOp14
 70
     2
102
RTVSPropertyOp15
 70
     0
102
RTVSPropertyOp16
 70
     0
102
RTVSPropertyOp17
 70
     0
102
RTVSPropertyOp18
 70
     0
102
RTVSPropertyOp19
 70
     0
102
RTVSPropertyOp20
 70
     0
102
RTVSPropertyOp21
 70
     0
102
RTVSPropertyOp22
 70
     0
102
RTVSPropertyOp23
 70
     0
102
RTVSPropertyOp24
 70
     0
102
RTVSPropertyOp25
 70
     0
102
RTVSPropertyOp26
 70
     0
102
RTVSPropertyOp27
 70
     0
102
RTVSPropertyOp28
 70
     1
102
RTVSPropertyOp29
 70
     1
102
RTVSPropertyOp30
 70
     1
102
RTVSPropertyOp31
 70
     1
102
RTVSPropertyOp32
 70
     1
102
RTVSPropertyOp33
 70
     1
102
RTVSPropertyOp34
 70
     1
102
RTVSPropertyOp35
 70
     1
102
RTVSPropertyOp36
 70
     1
102
RTVSPropertyOp37
 70
     0
102
RTVSPropertyOp38
 70
     0
102
RTVSPropertyOp39
 70
     0
102
RTVSPropertyOp40
 70
     0
102
RTVSPropertyOp41
 70
     0
102
RTVSPropertyOp42
 70
     0
102
RTVSPropertyOp43
 70
     0
102
RTVSPropertyOp44
 70
     0
102
RTVSPropertyOp45
 70
     1
102
RTVSPropertyOp46
 70
     0
102
RTVSPropertyOp47
 70
     0
102
RTVSPropertyOp48
 70
     0
102
RTVSPropertyOp49
 70
     1
102
RTVSPropertyOp50
 70
     0
102
RTVSPropertyOp51
 70
     0
102
RTVSPropertyOp52
 70
     0
102
RTVSPropertyOp53
 70
     0
102
RTVSPropertyOp54
 70
     0
102
RTVSPropertyOp55
 70
     1
102
RTVSPropertyOp56
 70
     0
102
RTVSPropertyOp57
 70
     0
102
RTVSPropertyOp58
 70
     0
102
RTVSPropertyOp59
 70
     0
102
RTVSPropertyOp60
 70
     0
102
RTVSPropertyOp61
 70
     0
102
RTVSPropertyOp62
 70
     0
  0
XRECORD
  5
A238
102
{ACAD_REACTORS
330
A237
102
}
330
A237
100
AcDbXrecord
280
     1
102
RTVSPost2010Prop28
280
     0
102
RTVSPost2010PropOp28
 70
     1
102
RTVSPost2010Prop29
280
     1
102
RTVSPost2010PropOp29
 70
     1
102
RTVSPost2010Prop30
280
     1
102
RTVSPost2010PropOp30
 70
     1
102
RTVSPost2010Prop31
280
     0
102
RTVSPost2010PropOp31
 70
     1
102
RTVSPost2010Prop32
280
     0
102
RTVSPost2010PropOp32
 70
     1
102
RTVSPost2010Prop33
280
     0
102
RTVSPost2010PropOp33
 70
     1
102
RTVSPost2010Prop34
280
     0
102
RTVSPost2010PropOp34
 70
     1
102
RTVSPost2010Prop35
280
     0
102
RTVSPost2010PropOp35
 70
     1
102
RTVSPost2010Prop36
280
     0
102
RTVSPost2010PropOp36
 70
     1
102
RTVSPost2010Prop37
 90
       50
102
RTVSPost2010PropOp37
 70
     1
102
RTVSPost2010Prop38
140
0.0
102
RTVSPost2010PropOp38
 70
     1
102
RTVSPost2010Prop39
140
1.0
102
RTVSPost2010PropOp39
 70
     1
102
RTVSPost2010Prop40
 90
        0
102
RTVSPost2010PropOp40
 70
     1
102
RTVSPost2010Prop41ColorIndex
 90
       18
102
RTVSPost2010Prop41ColorRGB
 90
        0
102
RTVSPost2010PropOp41
 70
     1
102
RTVSPost2010Prop42
 90
       50
102
RTVSPost2010PropOp42
 70
     1
102
RTVSPost2010Prop43
 90
        3
102
RTVSPost2010PropOp43
 70
     1
102
RTVSPost2010Prop44ColorIndex
 90
        5
102
RTVSPost2010Prop44ColorRGB
 90
      255
102
RTVSPost2010PropOp44
 70
     1
102
RTVSPost2010Prop45
280
     0
102
RTVSPost2010PropOp45
 70
     1
102
RTVSPost2010Prop46
 90
       50
102
RTVSPost2010PropOp46
 70
     1
102
RTVSPost2010Prop47
 90
       50
102
RTVSPost2010PropOp47
 70
     1
102
RTVSPost2010Prop48
 90
       50
102
RTVSPost2010PropOp48
 70
     1
102
RTVSPost2010Prop49
280
     0
102
RTVSPost2010PropOp49
 70
     1
102
RTVSPost2010Prop50
 90
       50
102
RTVSPost2010PropOp50
 70
     1
102
RTVSPost2010Prop51ColorIndex
 90
      256
102
RTVSPost2010Prop51ColorRGB
 90
-16777216
102
RTVSPost2010PropOp51
 70
     0
102
RTVSPost2010Prop52
140
1.0
102
RTVSPost2010PropOp52
 70
     0
102
RTVSPost2010Prop53
 90
        2
102
RTVSPost2010PropOp53
 70
     1
102
RTVSPost2010Prop54
  1
strokes_ogs.tif
102
RTVSPost2010PropOp54
 70
     1
102
RTVSPost2010Prop55
280
     0
102
RTVSPost2010PropOp55
 70
     1
102
RTVSPost2010Prop56
140
1.0
102
RTVSPost2010PropOp56
 70
     1
102
RTVSPost2010Prop57
140
1.0
102
RTVSPost2010PropOp57
 70
     1
102
RTVSPropertyOp0
 70
     1
102
RTVSPropertyOp1
 70
     1
102
RTVSPropertyOp2
 70
     1
102
RTVSPropertyOp3
 70
     1
102
RTVSPropertyOp4
 70
     1
102
RTVSPropertyOp5
 70
     1
102
RTVSPropertyOp6
 70
     1
102
RTVSPropertyOp7
 70
     1
102
RTVSPropertyOp8
 70
     1
102
RTVSPropertyOp9
 70
     1
102
RTVSPropertyOp10
 70
     1
102
RTVSPropertyOp11
 70
     1
102
RTVSPropertyOp12
 70
     1
102
RTVSPropertyOp13
 70
     1
102
RTVSPropertyOp14
 70
     1
102
RTVSPropertyOp15
 70
     1
102
RTVSPropertyOp16
 70
     1
102
RTVSPropertyOp17
 70
     1
102
RTVSPropertyOp18
 70
     1
102
RTVSPropertyOp19
 70
     1
102
RTVSPropertyOp20
 70
     1
102
RTVSPropertyOp21
 70
     1
102
RTVSPropertyOp22
 70
     1
102
RTVSPropertyOp23
 70
     1
102
RTVSPropertyOp24
 70
     1
102
RTVSPropertyOp25
 70
     1
102
RTVSPropertyOp26
 70
     1
102
RTVSPropertyOp27
 70
     1
102
RTVSPropertyOp28
 70
     1
102
RTVSPropertyOp29
 70
     1
102
RTVSPropertyOp30
 70
     1
102
RTVSPropertyOp31
 70
     1
102
RTVSPropertyOp32
 70
     1
102
RTVSPropertyOp33
 70
     1
102
RTVSPropertyOp34
 70
     1
102
RTVSPropertyOp35
 70
     1
102
RTVSPropertyOp36
 70
     1
102
RTVSPropertyOp37
 70
     1
102
RTVSPropertyOp38
 70
     1
102
RTVSPropertyOp39
 70
     1
102
RTVSPropertyOp40
 70
     1
102
RTVSPropertyOp41
 70
     1
102
RTVSPropertyOp42
 70
     1
102
RTVSPropertyOp43
 70
     1
102
RTVSPropertyOp44
 70
     1
102
RTVSPropertyOp45
 70
     1
102
RTVSPropertyOp46
 70
     1
102
RTVSPropertyOp47
 70
     1
102
RTVSPropertyOp48
 70
     1
102
RTVSPropertyOp49
 70
     1
102
RTVSPropertyOp50
 70
     1
102
RTVSPropertyOp51
 70
     0
102
RTVSPropertyOp52
 70
     0
102
RTVSPropertyOp53
 70
     1
102
RTVSPropertyOp54
 70
     1
102
RTVSPropertyOp55
 70
     1
102
RTVSPropertyOp56
 70
     1
102
RTVSPropertyOp57
 70
     1
102
RTVSPropertyOp58
 70
     1
102
RTVSPropertyOp59
 70
     1
102
RTVSPropertyOp60
 70
     1
102
RTVSPropertyOp61
 70
     1
102
RTVSPropertyOp62
 70
     1
  0
XRECORD
  5
A24E
102
{ACAD_REACTORS
330
A24D
102
}
330
A24D
100
AcDbXrecord
280
     1
102
RTVSPost2010Prop28
280
     0
102
RTVSPost2010PropOp28
 70
     1
102
RTVSPost2010Prop29
280
     1
102
RTVSPost2010PropOp29
 70
     1
102
RTVSPost2010Prop30
280
     1
102
RTVSPost2010PropOp30
 70
     1
102
RTVSPost2010Prop31
280
     0
102
RTVSPost2010PropOp31
 70
     1
102
RTVSPost2010Prop32
280
     0
102
RTVSPost2010PropOp32
 70
     1
102
RTVSPost2010Prop33
280
     0
102
RTVSPost2010PropOp33
 70
     1
102
RTVSPost2010Prop34
280
     0
102
RTVSPost2010PropOp34
 70
     1
102
RTVSPost2010Prop35
280
     0
102
RTVSPost2010PropOp35
 70
     1
102
RTVSPost2010Prop36
280
     0
102
RTVSPost2010PropOp36
 70
     1
102
RTVSPost2010Prop37
 90
       50
102
RTVSPost2010PropOp37
 70
     1
102
RTVSPost2010Prop38
140
0.0
102
RTVSPost2010PropOp38
 70
     1
102
RTVSPost2010Prop39
140
1.0
102
RTVSPost2010PropOp39
 70
     1
102
RTVSPost2010Prop40
 90
        0
102
RTVSPost2010PropOp40
 70
     1
102
RTVSPost2010Prop41ColorIndex
 90
       18
102
RTVSPost2010Prop41ColorRGB
 90
        0
102
RTVSPost2010PropOp41
 70
     1
102
RTVSPost2010Prop42
 90
       50
102
RTVSPost2010PropOp42
 70
     1
102
RTVSPost2010Prop43
 90
        3
102
RTVSPost2010PropOp43
 70
     1
102
RTVSPost2010Prop44ColorIndex
 90
        5
102
RTVSPost2010Prop44ColorRGB
 90
      255
102
RTVSPost2010PropOp44
 70
     1
102
RTVSPost2010Prop45
280
     0
102
RTVSPost2010PropOp45
 70
     1
102
RTVSPost2010Prop46
 90
       50
102
RTVSPost2010PropOp46
 70
     1
102
RTVSPost2010Prop47
 90
       50
102
RTVSPost2010PropOp47
 70
     1
102
RTVSPost2010Prop48
 90
       50
102
RTVSPost2010PropOp48
 70
     1
102
RTVSPost2010Prop49
280
     0
102
RTVSPost2010PropOp49
 70
     1
102
RTVSPost2010Prop50
 90
       50
102
RTVSPost2010PropOp50
 70
     1
102
RTVSPost2010Prop51ColorIndex
 90
      256
102
RTVSPost2010Prop51ColorRGB
 90
-16777216
102
RTVSPost2010PropOp51
 70
     0
102
RTVSPost2010Prop52
140
1.0
102
RTVSPost2010PropOp52
 70
     0
102
RTVSPost2010Prop53
 90
        2
102
RTVSPost2010PropOp53
 70
     1
102
RTVSPost2010Prop54
  1
strokes_ogs.tif
102
RTVSPost2010PropOp54
 70
     1
102
RTVSPost2010Prop55
280
     0
102
RTVSPost2010PropOp55
 70
     1
102
RTVSPost2010Prop56
140
1.0
102
RTVSPost2010PropOp56
 70
     1
102
RTVSPost2010Prop57
140
1.0
102
RTVSPost2010PropOp57
 70
     1
102
RTVSPropertyOp0
 70
     1
102
RTVSPropertyOp1
 70
     1
102
RTVSPropertyOp2
 70
     1
102
RTVSPropertyOp3
 70
     1
102
RTVSPropertyOp4
 70
     1
102
RTVSPropertyOp5
 70
     1
102
RTVSPropertyOp6
 70
     1
102
RTVSPropertyOp7
 70
     1
102
RTVSPropertyOp8
 70
     1
102
RTVSPropertyOp9
 70
     1
102
RTVSPropertyOp10
 70
     1
102
RTVSPropertyOp11
 70
     1
102
RTVSPropertyOp12
 70
     1
102
RTVSPropertyOp13
 70
     1
102
RTVSPropertyOp14
 70
     1
102
RTVSPropertyOp15
 70
     1
102
RTVSPropertyOp16
 70
     1
102
RTVSPropertyOp17
 70
     1
102
RTVSPropertyOp18
 70
     1
102
RTVSPropertyOp19
 70
     1
102
RTVSPropertyOp20
 70
     1
102
RTVSPropertyOp21
 70
     1
102
RTVSPropertyOp22
 70
     1
102
RTVSPropertyOp23
 70
     1
102
RTVSPropertyOp24
 70
     1
102
RTVSPropertyOp25
 70
     1
102
RTVSPropertyOp26
 70
     1
102
RTVSPropertyOp27
 70
     1
102
RTVSPropertyOp28
 70
     1
102
RTVSPropertyOp29
 70
     1
102
RTVSPropertyOp30
 70
     1
102
RTVSPropertyOp31
 70
     1
102
RTVSPropertyOp32
 70
     1
102
RTVSPropertyOp33
 70
     1
102
RTVSPropertyOp34
 70
     1
102
RTVSPropertyOp35
 70
     1
102
RTVSPropertyOp36
 70
     1
102
RTVSPropertyOp37
 70
     1
102
RTVSPropertyOp38
 70
     1
102
RTVSPropertyOp39
 70
     1
102
RTVSPropertyOp40
 70
     1
102
RTVSPropertyOp41
 70
     1
102
RTVSPropertyOp42
 70
     1
102
RTVSPropertyOp43
 70
     1
102
RTVSPropertyOp44
 70
     1
102
RTVSPropertyOp45
 70
     1
102
RTVSPropertyOp46
 70
     1
102
RTVSPropertyOp47
 70
     1
102
RTVSPropertyOp48
 70
     1
102
RTVSPropertyOp49
 70
     1
102
RTVSPropertyOp50
 70
     1
102
RTVSPropertyOp51
 70
     0
102
RTVSPropertyOp52
 70
     0
102
RTVSPropertyOp53
 70
     1
102
RTVSPropertyOp54
 70
     1
102
RTVSPropertyOp55
 70
     1
102
RTVSPropertyOp56
 70
     1
102
RTVSPropertyOp57
 70
     1
102
RTVSPropertyOp58
 70
     1
102
RTVSPropertyOp59
 70
     1
102
RTVSPropertyOp60
 70
     1
102
RTVSPropertyOp61
 70
     1
102
RTVSPropertyOp62
 70
     1
  0
XRECORD
  5
A24C
102
{ACAD_REACTORS
330
A24B
102
}
330
A24B
100
AcDbXrecord
280
     1
102
RTVSPost2010Prop28
280
     0
102
RTVSPost2010PropOp28
 70
     1
102
RTVSPost2010Prop29
280
     1
102
RTVSPost2010PropOp29
 70
     1
102
RTVSPost2010Prop30
280
     1
102
RTVSPost2010PropOp30
 70
     1
102
RTVSPost2010Prop31
280
     0
102
RTVSPost2010PropOp31
 70
     1
102
RTVSPost2010Prop32
280
     0
102
RTVSPost2010PropOp32
 70
     1
102
RTVSPost2010Prop33
280
     0
102
RTVSPost2010PropOp33
 70
     1
102
RTVSPost2010Prop34
280
     0
102
RTVSPost2010PropOp34
 70
     1
102
RTVSPost2010Prop35
280
     0
102
RTVSPost2010PropOp35
 70
     1
102
RTVSPost2010Prop36
280
     0
102
RTVSPost2010PropOp36
 70
     1
102
RTVSPost2010Prop37
 90
       50
102
RTVSPost2010PropOp37
 70
     1
102
RTVSPost2010Prop38
140
0.0
102
RTVSPost2010PropOp38
 70
     1
102
RTVSPost2010Prop39
140
1.0
102
RTVSPost2010PropOp39
 70
     1
102
RTVSPost2010Prop40
 90
        0
102
RTVSPost2010PropOp40
 70
     1
102
RTVSPost2010Prop41ColorIndex
 90
       18
102
RTVSPost2010Prop41ColorRGB
 90
        0
102
RTVSPost2010PropOp41
 70
     1
102
RTVSPost2010Prop42
 90
       50
102
RTVSPost2010PropOp42
 70
     1
102
RTVSPost2010Prop43
 90
        3
102
RTVSPost2010PropOp43
 70
     1
102
RTVSPost2010Prop44ColorIndex
 90
        5
102
RTVSPost2010Prop44ColorRGB
 90
      255
102
RTVSPost2010PropOp44
 70
     1
102
RTVSPost2010Prop45
280
     0
102
RTVSPost2010PropOp45
 70
     1
102
RTVSPost2010Prop46
 90
       50
102
RTVSPost2010PropOp46
 70
     1
102
RTVSPost2010Prop47
 90
       50
102
RTVSPost2010PropOp47
 70
     1
102
RTVSPost2010Prop48
 90
       50
102
RTVSPost2010PropOp48
 70
     1
102
RTVSPost2010Prop49
280
     0
102
RTVSPost2010PropOp49
 70
     1
102
RTVSPost2010Prop50
 90
       50
102
RTVSPost2010PropOp50
 70
     1
102
RTVSPost2010Prop51ColorIndex
 90
      256
102
RTVSPost2010Prop51ColorRGB
 90
-16777216
102
RTVSPost2010PropOp51
 70
     0
102
RTVSPost2010Prop52
140
1.0
102
RTVSPost2010PropOp52
 70
     0
102
RTVSPost2010Prop53
 90
        2
102
RTVSPost2010PropOp53
 70
     1
102
RTVSPost2010Prop54
  1
strokes_ogs.tif
102
RTVSPost2010PropOp54
 70
     1
102
RTVSPost2010Prop55
280
     0
102
RTVSPost2010PropOp55
 70
     1
102
RTVSPost2010Prop56
140
1.0
102
RTVSPost2010PropOp56
 70
     1
102
RTVSPost2010Prop57
140
1.0
102
RTVSPost2010PropOp57
 70
     1
102
RTVSPropertyOp0
 70
     1
102
RTVSPropertyOp1
 70
     1
102
RTVSPropertyOp2
 70
     1
102
RTVSPropertyOp3
 70
     1
102
RTVSPropertyOp4
 70
     1
102
RTVSPropertyOp5
 70
     1
102
RTVSPropertyOp6
 70
     1
102
RTVSPropertyOp7
 70
     1
102
RTVSPropertyOp8
 70
     1
102
RTVSPropertyOp9
 70
     1
102
RTVSPropertyOp10
 70
     1
102
RTVSPropertyOp11
 70
     1
102
RTVSPropertyOp12
 70
     1
102
RTVSPropertyOp13
 70
     1
102
RTVSPropertyOp14
 70
     1
102
RTVSPropertyOp15
 70
     1
102
RTVSPropertyOp16
 70
     1
102
RTVSPropertyOp17
 70
     1
102
RTVSPropertyOp18
 70
     1
102
RTVSPropertyOp19
 70
     1
102
RTVSPropertyOp20
 70
     1
102
RTVSPropertyOp21
 70
     1
102
RTVSPropertyOp22
 70
     1
102
RTVSPropertyOp23
 70
     1
102
RTVSPropertyOp24
 70
     1
102
RTVSPropertyOp25
 70
     1
102
RTVSPropertyOp26
 70
     1
102
RTVSPropertyOp27
 70
     1
102
RTVSPropertyOp28
 70
     1
102
RTVSPropertyOp29
 70
     1
102
RTVSPropertyOp30
 70
     1
102
RTVSPropertyOp31
 70
     1
102
RTVSPropertyOp32
 70
     1
102
RTVSPropertyOp33
 70
     1
102
RTVSPropertyOp34
 70
     1
102
RTVSPropertyOp35
 70
     1
102
RTVSPropertyOp36
 70
     1
102
RTVSPropertyOp37
 70
     1
102
RTVSPropertyOp38
 70
     1
102
RTVSPropertyOp39
 70
     1
102
RTVSPropertyOp40
 70
     1
102
RTVSPropertyOp41
 70
     1
102
RTVSPropertyOp42
 70
     1
102
RTVSPropertyOp43
 70
     1
102
RTVSPropertyOp44
 70
     1
102
RTVSPropertyOp45
 70
     1
102
RTVSPropertyOp46
 70
     1
102
RTVSPropertyOp47
 70
     1
102
RTVSPropertyOp48
 70
     1
102
RTVSPropertyOp49
 70
     1
102
RTVSPropertyOp50
 70
     1
102
RTVSPropertyOp51
 70
     0
102
RTVSPropertyOp52
 70
     0
102
RTVSPropertyOp53
 70
     1
102
RTVSPropertyOp54
 70
     1
102
RTVSPropertyOp55
 70
     1
102
RTVSPropertyOp56
 70
     1
102
RTVSPropertyOp57
 70
     1
102
RTVSPropertyOp58
 70
     1
102
RTVSPropertyOp59
 70
     1
102
RTVSPropertyOp60
 70
     1
102
RTVSPropertyOp61
 70
     1
102
RTVSPropertyOp62
 70
     1
  0
XRECORD
  5
A246
102
{ACAD_REACTORS
330
A245
102
}
330
A245
100
AcDbXrecord
280
     1
102
RTVSPost2010Prop28
280
     0
102
RTVSPost2010PropOp28
 70
     1
102
RTVSPost2010Prop29
280
     1
102
RTVSPost2010PropOp29
 70
     1
102
RTVSPost2010Prop30
280
     1
102
RTVSPost2010PropOp30
 70
     1
102
RTVSPost2010Prop31
280
     0
102
RTVSPost2010PropOp31
 70
     1
102
RTVSPost2010Prop32
280
     0
102
RTVSPost2010PropOp32
 70
     1
102
RTVSPost2010Prop33
280
     0
102
RTVSPost2010PropOp33
 70
     1
102
RTVSPost2010Prop34
280
     0
102
RTVSPost2010PropOp34
 70
     1
102
RTVSPost2010Prop35
280
     0
102
RTVSPost2010PropOp35
 70
     1
102
RTVSPost2010Prop36
280
     0
102
RTVSPost2010PropOp36
 70
     1
102
RTVSPost2010Prop37
 90
       50
102
RTVSPost2010PropOp37
 70
     1
102
RTVSPost2010Prop38
140
0.0
102
RTVSPost2010PropOp38
 70
     1
102
RTVSPost2010Prop39
140
1.0
102
RTVSPost2010PropOp39
 70
     1
102
RTVSPost2010Prop40
 90
        0
102
RTVSPost2010PropOp40
 70
     1
102
RTVSPost2010Prop41ColorIndex
 90
       18
102
RTVSPost2010Prop41ColorRGB
 90
        0
102
RTVSPost2010PropOp41
 70
     1
102
RTVSPost2010Prop42
 90
       50
102
RTVSPost2010PropOp42
 70
     1
102
RTVSPost2010Prop43
 90
        3
102
RTVSPost2010PropOp43
 70
     1
102
RTVSPost2010Prop44ColorIndex
 90
        5
102
RTVSPost2010Prop44ColorRGB
 90
      255
102
RTVSPost2010PropOp44
 70
     1
102
RTVSPost2010Prop45
280
     0
102
RTVSPost2010PropOp45
 70
     1
102
RTVSPost2010Prop46
 90
       50
102
RTVSPost2010PropOp46
 70
     1
102
RTVSPost2010Prop47
 90
       50
102
RTVSPost2010PropOp47
 70
     1
102
RTVSPost2010Prop48
 90
       50
102
RTVSPost2010PropOp48
 70
     1
102
RTVSPost2010Prop49
280
     0
102
RTVSPost2010PropOp49
 70
     1
102
RTVSPost2010Prop50
 90
       50
102
RTVSPost2010PropOp50
 70
     1
102
RTVSPost2010Prop51ColorIndex
 90
      256
102
RTVSPost2010Prop51ColorRGB
 90
-16777216
102
RTVSPost2010PropOp51
 70
     0
102
RTVSPost2010Prop52
140
1.0
102
RTVSPost2010PropOp52
 70
     0
102
RTVSPost2010Prop53
 90
        2
102
RTVSPost2010PropOp53
 70
     1
102
RTVSPost2010Prop54
  1
strokes_ogs.tif
102
RTVSPost2010PropOp54
 70
     1
102
RTVSPost2010Prop55
280
     0
102
RTVSPost2010PropOp55
 70
     1
102
RTVSPost2010Prop56
140
1.0
102
RTVSPost2010PropOp56
 70
     1
102
RTVSPost2010Prop57
140
1.0
102
RTVSPost2010PropOp57
 70
     1
102
RTVSPropertyOp0
 70
     1
102
RTVSPropertyOp1
 70
     1
102
RTVSPropertyOp2
 70
     1
102
RTVSPropertyOp3
 70
     1
102
RTVSPropertyOp4
 70
     1
102
RTVSPropertyOp5
 70
     1
102
RTVSPropertyOp6
 70
     1
102
RTVSPropertyOp7
 70
     1
102
RTVSPropertyOp8
 70
     1
102
RTVSPropertyOp9
 70
     1
102
RTVSPropertyOp10
 70
     1
102
RTVSPropertyOp11
 70
     1
102
RTVSPropertyOp12
 70
     1
102
RTVSPropertyOp13
 70
     1
102
RTVSPropertyOp14
 70
     1
102
RTVSPropertyOp15
 70
     1
102
RTVSPropertyOp16
 70
     1
102
RTVSPropertyOp17
 70
     1
102
RTVSPropertyOp18
 70
     1
102
RTVSPropertyOp19
 70
     1
102
RTVSPropertyOp20
 70
     1
102
RTVSPropertyOp21
 70
     1
102
RTVSPropertyOp22
 70
     1
102
RTVSPropertyOp23
 70
     1
102
RTVSPropertyOp24
 70
     1
102
RTVSPropertyOp25
 70
     1
102
RTVSPropertyOp26
 70
     1
102
RTVSPropertyOp27
 70
     1
102
RTVSPropertyOp28
 70
     1
102
RTVSPropertyOp29
 70
     1
102
RTVSPropertyOp30
 70
     1
102
RTVSPropertyOp31
 70
     1
102
RTVSPropertyOp32
 70
     1
102
RTVSPropertyOp33
 70
     1
102
RTVSPropertyOp34
 70
     1
102
RTVSPropertyOp35
 70
     1
102
RTVSPropertyOp36
 70
     1
102
RTVSPropertyOp37
 70
     1
102
RTVSPropertyOp38
 70
     1
102
RTVSPropertyOp39
 70
     1
102
RTVSPropertyOp40
 70
     1
102
RTVSPropertyOp41
 70
     1
102
RTVSPropertyOp42
 70
     1
102
RTVSPropertyOp43
 70
     1
102
RTVSPropertyOp44
 70
     1
102
RTVSPropertyOp45
 70
     1
102
RTVSPropertyOp46
 70
     1
102
RTVSPropertyOp47
 70
     1
102
RTVSPropertyOp48
 70
     1
102
RTVSPropertyOp49
 70
     1
102
RTVSPropertyOp50
 70
     1
102
RTVSPropertyOp51
 70
     0
102
RTVSPropertyOp52
 70
     0
102
RTVSPropertyOp53
 70
     1
102
RTVSPropertyOp54
 70
     1
102
RTVSPropertyOp55
 70
     1
102
RTVSPropertyOp56
 70
     1
102
RTVSPropertyOp57
 70
     1
102
RTVSPropertyOp58
 70
     1
102
RTVSPropertyOp59
 70
     1
102
RTVSPropertyOp60
 70
     1
102
RTVSPropertyOp61
 70
     1
102
RTVSPropertyOp62
 70
     1
  0
XRECORD
  5
A248
102
{ACAD_REACTORS
330
A247
102
}
330
A247
100
AcDbXrecord
280
     1
102
RTVSPost2010Prop28
280
     0
102
RTVSPost2010PropOp28
 70
     1
102
RTVSPost2010Prop29
280
     1
102
RTVSPost2010PropOp29
 70
     1
102
RTVSPost2010Prop30
280
     1
102
RTVSPost2010PropOp30
 70
     1
102
RTVSPost2010Prop31
280
     0
102
RTVSPost2010PropOp31
 70
     1
102
RTVSPost2010Prop32
280
     0
102
RTVSPost2010PropOp32
 70
     1
102
RTVSPost2010Prop33
280
     0
102
RTVSPost2010PropOp33
 70
     1
102
RTVSPost2010Prop34
280
     0
102
RTVSPost2010PropOp34
 70
     1
102
RTVSPost2010Prop35
280
     0
102
RTVSPost2010PropOp35
 70
     1
102
RTVSPost2010Prop36
280
     0
102
RTVSPost2010PropOp36
 70
     1
102
RTVSPost2010Prop37
 90
       50
102
RTVSPost2010PropOp37
 70
     1
102
RTVSPost2010Prop38
140
0.0
102
RTVSPost2010PropOp38
 70
     1
102
RTVSPost2010Prop39
140
1.0
102
RTVSPost2010PropOp39
 70
     1
102
RTVSPost2010Prop40
 90
        0
102
RTVSPost2010PropOp40
 70
     1
102
RTVSPost2010Prop41ColorIndex
 90
       18
102
RTVSPost2010Prop41ColorRGB
 90
        0
102
RTVSPost2010PropOp41
 70
     1
102
RTVSPost2010Prop42
 90
       50
102
RTVSPost2010PropOp42
 70
     1
102
RTVSPost2010Prop43
 90
        3
102
RTVSPost2010PropOp43
 70
     1
102
RTVSPost2010Prop44ColorIndex
 90
        5
102
RTVSPost2010Prop44ColorRGB
 90
      255
102
RTVSPost2010PropOp44
 70
     1
102
RTVSPost2010Prop45
280
     0
102
RTVSPost2010PropOp45
 70
     1
102
RTVSPost2010Prop46
 90
       50
102
RTVSPost2010PropOp46
 70
     1
102
RTVSPost2010Prop47
 90
       50
102
RTVSPost2010PropOp47
 70
     1
102
RTVSPost2010Prop48
 90
       50
102
RTVSPost2010PropOp48
 70
     1
102
RTVSPost2010Prop49
280
     0
102
RTVSPost2010PropOp49
 70
     1
102
RTVSPost2010Prop50
 90
       50
102
RTVSPost2010PropOp50
 70
     1
102
RTVSPost2010Prop51ColorIndex
 90
      256
102
RTVSPost2010Prop51ColorRGB
 90
-16777216
102
RTVSPost2010PropOp51
 70
     0
102
RTVSPost2010Prop52
140
1.0
102
RTVSPost2010PropOp52
 70
     0
102
RTVSPost2010Prop53
 90
        2
102
RTVSPost2010PropOp53
 70
     1
102
RTVSPost2010Prop54
  1
strokes_ogs.tif
102
RTVSPost2010PropOp54
 70
     1
102
RTVSPost2010Prop55
280
     0
102
RTVSPost2010PropOp55
 70
     1
102
RTVSPost2010Prop56
140
1.0
102
RTVSPost2010PropOp56
 70
     1
102
RTVSPost2010Prop57
140
1.0
102
RTVSPost2010PropOp57
 70
     1
102
RTVSPropertyOp0
 70
     1
102
RTVSPropertyOp1
 70
     1
102
RTVSPropertyOp2
 70
     1
102
RTVSPropertyOp3
 70
     1
102
RTVSPropertyOp4
 70
     1
102
RTVSPropertyOp5
 70
     1
102
RTVSPropertyOp6
 70
     1
102
RTVSPropertyOp7
 70
     1
102
RTVSPropertyOp8
 70
     1
102
RTVSPropertyOp9
 70
     1
102
RTVSPropertyOp10
 70
     1
102
RTVSPropertyOp11
 70
     1
102
RTVSPropertyOp12
 70
     1
102
RTVSPropertyOp13
 70
     1
102
RTVSPropertyOp14
 70
     1
102
RTVSPropertyOp15
 70
     1
102
RTVSPropertyOp16
 70
     1
102
RTVSPropertyOp17
 70
     1
102
RTVSPropertyOp18
 70
     1
102
RTVSPropertyOp19
 70
     1
102
RTVSPropertyOp20
 70
     1
102
RTVSPropertyOp21
 70
     1
102
RTVSPropertyOp22
 70
     1
102
RTVSPropertyOp23
 70
     1
102
RTVSPropertyOp24
 70
     1
102
RTVSPropertyOp25
 70
     1
102
RTVSPropertyOp26
 70
     1
102
RTVSPropertyOp27
 70
     1
102
RTVSPropertyOp28
 70
     1
102
RTVSPropertyOp29
 70
     1
102
RTVSPropertyOp30
 70
     1
102
RTVSPropertyOp31
 70
     1
102
RTVSPropertyOp32
 70
     1
102
RTVSPropertyOp33
 70
     1
102
RTVSPropertyOp34
 70
     1
102
RTVSPropertyOp35
 70
     1
102
RTVSPropertyOp36
 70
     1
102
RTVSPropertyOp37
 70
     1
102
RTVSPropertyOp38
 70
     1
102
RTVSPropertyOp39
 70
     1
102
RTVSPropertyOp40
 70
     1
102
RTVSPropertyOp41
 70
     1
102
RTVSPropertyOp42
 70
     1
102
RTVSPropertyOp43
 70
     1
102
RTVSPropertyOp44
 70
     1
102
RTVSPropertyOp45
 70
     1
102
RTVSPropertyOp46
 70
     1
102
RTVSPropertyOp47
 70
     1
102
RTVSPropertyOp48
 70
     1
102
RTVSPropertyOp49
 70
     1
102
RTVSPropertyOp50
 70
     1
102
RTVSPropertyOp51
 70
     0
102
RTVSPropertyOp52
 70
     0
102
RTVSPropertyOp53
 70
     1
102
RTVSPropertyOp54
 70
     1
102
RTVSPropertyOp55
 70
     1
102
RTVSPropertyOp56
 70
     1
102
RTVSPropertyOp57
 70
     1
102
RTVSPropertyOp58
 70
     1
102
RTVSPropertyOp59
 70
     1
102
RTVSPropertyOp60
 70
     1
102
RTVSPropertyOp61
 70
     1
102
RTVSPropertyOp62
 70
     1
  0
XRECORD
  5
A23E
102
{ACAD_REACTORS
330
A23D
102
}
330
A23D
100
AcDbXrecord
280
     1
102
RTVSPost2010Prop28
280
     0
102
RTVSPost2010PropOp28
 70
     1
102
RTVSPost2010Prop29
280
     1
102
RTVSPost2010PropOp29
 70
     1
102
RTVSPost2010Prop30
280
     1
102
RTVSPost2010PropOp30
 70
     1
102
RTVSPost2010Prop31
280
     0
102
RTVSPost2010PropOp31
 70
     1
102
RTVSPost2010Prop32
280
     0
102
RTVSPost2010PropOp32
 70
     1
102
RTVSPost2010Prop33
280
     0
102
RTVSPost2010PropOp33
 70
     1
102
RTVSPost2010Prop34
280
     0
102
RTVSPost2010PropOp34
 70
     1
102
RTVSPost2010Prop35
280
     0
102
RTVSPost2010PropOp35
 70
     1
102
RTVSPost2010Prop36
280
     0
102
RTVSPost2010PropOp36
 70
     1
102
RTVSPost2010Prop37
 90
       50
102
RTVSPost2010PropOp37
 70
     1
102
RTVSPost2010Prop38
140
0.0
102
RTVSPost2010PropOp38
 70
     1
102
RTVSPost2010Prop39
140
1.0
102
RTVSPost2010PropOp39
 70
     1
102
RTVSPost2010Prop40
 90
        0
102
RTVSPost2010PropOp40
 70
     1
102
RTVSPost2010Prop41ColorIndex
 90
       18
102
RTVSPost2010Prop41ColorRGB
 90
        0
102
RTVSPost2010PropOp41
 70
     1
102
RTVSPost2010Prop42
 90
       50
102
RTVSPost2010PropOp42
 70
     1
102
RTVSPost2010Prop43
 90
        3
102
RTVSPost2010PropOp43
 70
     1
102
RTVSPost2010Prop44ColorIndex
 90
        5
102
RTVSPost2010Prop44ColorRGB
 90
      255
102
RTVSPost2010PropOp44
 70
     1
102
RTVSPost2010Prop45
280
     0
102
RTVSPost2010PropOp45
 70
     1
102
RTVSPost2010Prop46
 90
       50
102
RTVSPost2010PropOp46
 70
     1
102
RTVSPost2010Prop47
 90
       50
102
RTVSPost2010PropOp47
 70
     1
102
RTVSPost2010Prop48
 90
       50
102
RTVSPost2010PropOp48
 70
     1
102
RTVSPost2010Prop49
280
     0
102
RTVSPost2010PropOp49
 70
     1
102
RTVSPost2010Prop50
 90
       50
102
RTVSPost2010PropOp50
 70
     1
102
RTVSPost2010Prop51ColorIndex
 90
      256
102
RTVSPost2010Prop51ColorRGB
 90
-16777216
102
RTVSPost2010PropOp51
 70
     0
102
RTVSPost2010Prop52
140
1.0
102
RTVSPost2010PropOp52
 70
     0
102
RTVSPost2010Prop53
 90
        2
102
RTVSPost2010PropOp53
 70
     1
102
RTVSPost2010Prop54
  1
strokes_ogs.tif
102
RTVSPost2010PropOp54
 70
     1
102
RTVSPost2010Prop55
280
     0
102
RTVSPost2010PropOp55
 70
     1
102
RTVSPost2010Prop56
140
1.0
102
RTVSPost2010PropOp56
 70
     1
102
RTVSPost2010Prop57
140
1.0
102
RTVSPost2010PropOp57
 70
     1
102
RTVSPropertyOp0
 70
     1
102
RTVSPropertyOp1
 70
     1
102
RTVSPropertyOp2
 70
     1
102
RTVSPropertyOp3
 70
     1
102
RTVSPropertyOp4
 70
     1
102
RTVSPropertyOp5
 70
     1
102
RTVSPropertyOp6
 70
     1
102
RTVSPropertyOp7
 70
     1
102
RTVSPropertyOp8
 70
     1
102
RTVSPropertyOp9
 70
     1
102
RTVSPropertyOp10
 70
     1
102
RTVSPropertyOp11
 70
     1
102
RTVSPropertyOp12
 70
     1
102
RTVSPropertyOp13
 70
     1
102
RTVSPropertyOp14
 70
     1
102
RTVSPropertyOp15
 70
     1
102
RTVSPropertyOp16
 70
     1
102
RTVSPropertyOp17
 70
     1
102
RTVSPropertyOp18
 70
     1
102
RTVSPropertyOp19
 70
     1
102
RTVSPropertyOp20
 70
     1
102
RTVSPropertyOp21
 70
     1
102
RTVSPropertyOp22
 70
     1
102
RTVSPropertyOp23
 70
     1
102
RTVSPropertyOp24
 70
     1
102
RTVSPropertyOp25
 70
     1
102
RTVSPropertyOp26
 70
     1
102
RTVSPropertyOp27
 70
     1
102
RTVSPropertyOp28
 70
     1
102
RTVSPropertyOp29
 70
     1
102
RTVSPropertyOp30
 70
     1
102
RTVSPropertyOp31
 70
     1
102
RTVSPropertyOp32
 70
     1
102
RTVSPropertyOp33
 70
     1
102
RTVSPropertyOp34
 70
     1
102
RTVSPropertyOp35
 70
     1
102
RTVSPropertyOp36
 70
     1
102
RTVSPropertyOp37
 70
     1
102
RTVSPropertyOp38
 70
     1
102
RTVSPropertyOp39
 70
     1
102
RTVSPropertyOp40
 70
     1
102
RTVSPropertyOp41
 70
     1
102
RTVSPropertyOp42
 70
     1
102
RTVSPropertyOp43
 70
     1
102
RTVSPropertyOp44
 70
     1
102
RTVSPropertyOp45
 70
     1
102
RTVSPropertyOp46
 70
     1
102
RTVSPropertyOp47
 70
     1
102
RTVSPropertyOp48
 70
     1
102
RTVSPropertyOp49
 70
     1
102
RTVSPropertyOp50
 70
     1
102
RTVSPropertyOp51
 70
     0
102
RTVSPropertyOp52
 70
     0
102
RTVSPropertyOp53
 70
     1
102
RTVSPropertyOp54
 70
     1
102
RTVSPropertyOp55
 70
     1
102
RTVSPropertyOp56
 70
     1
102
RTVSPropertyOp57
 70
     1
102
RTVSPropertyOp58
 70
     1
102
RTVSPropertyOp59
 70
     1
102
RTVSPropertyOp60
 70
     1
102
RTVSPropertyOp61
 70
     1
102
RTVSPropertyOp62
 70
     1
  0
XRECORD
  5
A232
102
{ACAD_REACTORS
330
A231
102
}
330
A231
100
AcDbXrecord
280
     1
102
RTVSPost2010Prop28
280
     0
102
RTVSPost2010PropOp28
 70
     1
102
RTVSPost2010Prop29
280
     1
102
RTVSPost2010PropOp29
 70
     1
102
RTVSPost2010Prop30
280
     1
102
RTVSPost2010PropOp30
 70
     1
102
RTVSPost2010Prop31
280
     0
102
RTVSPost2010PropOp31
 70
     1
102
RTVSPost2010Prop32
280
     0
102
RTVSPost2010PropOp32
 70
     1
102
RTVSPost2010Prop33
280
     0
102
RTVSPost2010PropOp33
 70
     1
102
RTVSPost2010Prop34
280
     0
102
RTVSPost2010PropOp34
 70
     1
102
RTVSPost2010Prop35
280
     0
102
RTVSPost2010PropOp35
 70
     1
102
RTVSPost2010Prop36
280
     0
102
RTVSPost2010PropOp36
 70
     1
102
RTVSPost2010Prop37
 90
       50
102
RTVSPost2010PropOp37
 70
     1
102
RTVSPost2010Prop38
140
0.0
102
RTVSPost2010PropOp38
 70
     1
102
RTVSPost2010Prop39
140
1.0
102
RTVSPost2010PropOp39
 70
     1
102
RTVSPost2010Prop40
 90
        0
102
RTVSPost2010PropOp40
 70
     1
102
RTVSPost2010Prop41ColorIndex
 90
       18
102
RTVSPost2010Prop41ColorRGB
 90
        0
102
RTVSPost2010PropOp41
 70
     1
102
RTVSPost2010Prop42
 90
       50
102
RTVSPost2010PropOp42
 70
     1
102
RTVSPost2010Prop43
 90
        3
102
RTVSPost2010PropOp43
 70
     1
102
RTVSPost2010Prop44ColorIndex
 90
        5
102
RTVSPost2010Prop44ColorRGB
 90
      255
102
RTVSPost2010PropOp44
 70
     1
102
RTVSPost2010Prop45
280
     0
102
RTVSPost2010PropOp45
 70
     1
102
RTVSPost2010Prop46
 90
       50
102
RTVSPost2010PropOp46
 70
     1
102
RTVSPost2010Prop47
 90
       50
102
RTVSPost2010PropOp47
 70
     1
102
RTVSPost2010Prop48
 90
       50
102
RTVSPost2010PropOp48
 70
     1
102
RTVSPost2010Prop49
280
     0
102
RTVSPost2010PropOp49
 70
     1
102
RTVSPost2010Prop50
 90
       50
102
RTVSPost2010PropOp50
 70
     1
102
RTVSPost2010Prop51ColorIndex
 90
      256
102
RTVSPost2010Prop51ColorRGB
 90
-16777216
102
RTVSPost2010PropOp51
 70
     0
102
RTVSPost2010Prop52
140
1.0
102
RTVSPost2010PropOp52
 70
     0
102
RTVSPost2010Prop53
 90
        2
102
RTVSPost2010PropOp53
 70
     1
102
RTVSPost2010Prop54
  1
strokes_ogs.tif
102
RTVSPost2010PropOp54
 70
     1
102
RTVSPost2010Prop55
280
     0
102
RTVSPost2010PropOp55
 70
     1
102
RTVSPost2010Prop56
140
1.0
102
RTVSPost2010PropOp56
 70
     1
102
RTVSPost2010Prop57
140
1.0
102
RTVSPost2010PropOp57
 70
     1
102
RTVSPropertyOp0
 70
     1
102
RTVSPropertyOp1
 70
     1
102
RTVSPropertyOp2
 70
     1
102
RTVSPropertyOp3
 70
     1
102
RTVSPropertyOp4
 70
     1
102
RTVSPropertyOp5
 70
     1
102
RTVSPropertyOp6
 70
     1
102
RTVSPropertyOp7
 70
     1
102
RTVSPropertyOp8
 70
     1
102
RTVSPropertyOp9
 70
     1
102
RTVSPropertyOp10
 70
     1
102
RTVSPropertyOp11
 70
     1
102
RTVSPropertyOp12
 70
     1
102
RTVSPropertyOp13
 70
     1
102
RTVSPropertyOp14
 70
     1
102
RTVSPropertyOp15
 70
     1
102
RTVSPropertyOp16
 70
     1
102
RTVSPropertyOp17
 70
     1
102
RTVSPropertyOp18
 70
     1
102
RTVSPropertyOp19
 70
     1
102
RTVSPropertyOp20
 70
     1
102
RTVSPropertyOp21
 70
     1
102
RTVSPropertyOp22
 70
     1
102
RTVSPropertyOp23
 70
     1
102
RTVSPropertyOp24
 70
     1
102
RTVSPropertyOp25
 70
     1
102
RTVSPropertyOp26
 70
     1
102
RTVSPropertyOp27
 70
     1
102
RTVSPropertyOp28
 70
     1
102
RTVSPropertyOp29
 70
     1
102
RTVSPropertyOp30
 70
     1
102
RTVSPropertyOp31
 70
     1
102
RTVSPropertyOp32
 70
     1
102
RTVSPropertyOp33
 70
     1
102
RTVSPropertyOp34
 70
     1
102
RTVSPropertyOp35
 70
     1
102
RTVSPropertyOp36
 70
     1
102
RTVSPropertyOp37
 70
     1
102
RTVSPropertyOp38
 70
     1
102
RTVSPropertyOp39
 70
     1
102
RTVSPropertyOp40
 70
     1
102
RTVSPropertyOp41
 70
     1
102
RTVSPropertyOp42
 70
     1
102
RTVSPropertyOp43
 70
     1
102
RTVSPropertyOp44
 70
     1
102
RTVSPropertyOp45
 70
     1
102
RTVSPropertyOp46
 70
     1
102
RTVSPropertyOp47
 70
     1
102
RTVSPropertyOp48
 70
     1
102
RTVSPropertyOp49
 70
     1
102
RTVSPropertyOp50
 70
     1
102
RTVSPropertyOp51
 70
     0
102
RTVSPropertyOp52
 70
     0
102
RTVSPropertyOp53
 70
     1
102
RTVSPropertyOp54
 70
     1
102
RTVSPropertyOp55
 70
     1
102
RTVSPropertyOp56
 70
     1
102
RTVSPropertyOp57
 70
     1
102
RTVSPropertyOp58
 70
     1
102
RTVSPropertyOp59
 70
     1
102
RTVSPropertyOp60
 70
     1
102
RTVSPropertyOp61
 70
     1
102
RTVSPropertyOp62
 70
     1
  0
XRECORD
  5
A24A
102
{ACAD_REACTORS
330
A249
102
}
330
A249
100
AcDbXrecord
280
     1
102
RTVSPost2010Prop28
280
     0
102
RTVSPost2010PropOp28
 70
     1
102
RTVSPost2010Prop29
280
     1
102
RTVSPost2010PropOp29
 70
     1
102
RTVSPost2010Prop30
280
     1
102
RTVSPost2010PropOp30
 70
     1
102
RTVSPost2010Prop31
280
     0
102
RTVSPost2010PropOp31
 70
     1
102
RTVSPost2010Prop32
280
     0
102
RTVSPost2010PropOp32
 70
     1
102
RTVSPost2010Prop33
280
     0
102
RTVSPost2010PropOp33
 70
     1
102
RTVSPost2010Prop34
280
     0
102
RTVSPost2010PropOp34
 70
     1
102
RTVSPost2010Prop35
280
     0
102
RTVSPost2010PropOp35
 70
     1
102
RTVSPost2010Prop36
280
     0
102
RTVSPost2010PropOp36
 70
     1
102
RTVSPost2010Prop37
 90
       50
102
RTVSPost2010PropOp37
 70
     1
102
RTVSPost2010Prop38
140
0.0
102
RTVSPost2010PropOp38
 70
     1
102
RTVSPost2010Prop39
140
1.0
102
RTVSPost2010PropOp39
 70
     1
102
RTVSPost2010Prop40
 90
        0
102
RTVSPost2010PropOp40
 70
     1
102
RTVSPost2010Prop41ColorIndex
 90
       18
102
RTVSPost2010Prop41ColorRGB
 90
        0
102
RTVSPost2010PropOp41
 70
     1
102
RTVSPost2010Prop42
 90
       50
102
RTVSPost2010PropOp42
 70
     1
102
RTVSPost2010Prop43
 90
        3
102
RTVSPost2010PropOp43
 70
     1
102
RTVSPost2010Prop44ColorIndex
 90
        5
102
RTVSPost2010Prop44ColorRGB
 90
      255
102
RTVSPost2010PropOp44
 70
     1
102
RTVSPost2010Prop45
280
     0
102
RTVSPost2010PropOp45
 70
     1
102
RTVSPost2010Prop46
 90
       50
102
RTVSPost2010PropOp46
 70
     1
102
RTVSPost2010Prop47
 90
       50
102
RTVSPost2010PropOp47
 70
     1
102
RTVSPost2010Prop48
 90
       50
102
RTVSPost2010PropOp48
 70
     1
102
RTVSPost2010Prop49
280
     0
102
RTVSPost2010PropOp49
 70
     1
102
RTVSPost2010Prop50
 90
       50
102
RTVSPost2010PropOp50
 70
     1
102
RTVSPost2010Prop51ColorIndex
 90
      256
102
RTVSPost2010Prop51ColorRGB
 90
-16777216
102
RTVSPost2010PropOp51
 70
     0
102
RTVSPost2010Prop52
140
1.0
102
RTVSPost2010PropOp52
 70
     0
102
RTVSPost2010Prop53
 90
        2
102
RTVSPost2010PropOp53
 70
     1
102
RTVSPost2010Prop54
  1
strokes_ogs.tif
102
RTVSPost2010PropOp54
 70
     1
102
RTVSPost2010Prop55
280
     0
102
RTVSPost2010PropOp55
 70
     1
102
RTVSPost2010Prop56
140
1.0
102
RTVSPost2010PropOp56
 70
     1
102
RTVSPost2010Prop57
140
1.0
102
RTVSPost2010PropOp57
 70
     1
102
RTVSPropertyOp0
 70
     1
102
RTVSPropertyOp1
 70
     1
102
RTVSPropertyOp2
 70
     1
102
RTVSPropertyOp3
 70
     1
102
RTVSPropertyOp4
 70
     1
102
RTVSPropertyOp5
 70
     1
102
RTVSPropertyOp6
 70
     1
102
RTVSPropertyOp7
 70
     1
102
RTVSPropertyOp8
 70
     1
102
RTVSPropertyOp9
 70
     1
102
RTVSPropertyOp10
 70
     1
102
RTVSPropertyOp11
 70
     1
102
RTVSPropertyOp12
 70
     1
102
RTVSPropertyOp13
 70
     1
102
RTVSPropertyOp14
 70
     1
102
RTVSPropertyOp15
 70
     1
102
RTVSPropertyOp16
 70
     1
102
RTVSPropertyOp17
 70
     1
102
RTVSPropertyOp18
 70
     1
102
RTVSPropertyOp19
 70
     1
102
RTVSPropertyOp20
 70
     1
102
RTVSPropertyOp21
 70
     1
102
RTVSPropertyOp22
 70
     1
102
RTVSPropertyOp23
 70
     1
102
RTVSPropertyOp24
 70
     1
102
RTVSPropertyOp25
 70
     1
102
RTVSPropertyOp26
 70
     1
102
RTVSPropertyOp27
 70
     1
102
RTVSPropertyOp28
 70
     1
102
RTVSPropertyOp29
 70
     1
102
RTVSPropertyOp30
 70
     1
102
RTVSPropertyOp31
 70
     1
102
RTVSPropertyOp32
 70
     1
102
RTVSPropertyOp33
 70
     1
102
RTVSPropertyOp34
 70
     1
102
RTVSPropertyOp35
 70
     1
102
RTVSPropertyOp36
 70
     1
102
RTVSPropertyOp37
 70
     1
102
RTVSPropertyOp38
 70
     1
102
RTVSPropertyOp39
 70
     1
102
RTVSPropertyOp40
 70
     1
102
RTVSPropertyOp41
 70
     1
102
RTVSPropertyOp42
 70
     1
102
RTVSPropertyOp43
 70
     1
102
RTVSPropertyOp44
 70
     1
102
RTVSPropertyOp45
 70
     1
102
RTVSPropertyOp46
 70
     1
102
RTVSPropertyOp47
 70
     1
102
RTVSPropertyOp48
 70
     1
102
RTVSPropertyOp49
 70
     1
102
RTVSPropertyOp50
 70
     1
102
RTVSPropertyOp51
 70
     0
102
RTVSPropertyOp52
 70
     0
102
RTVSPropertyOp53
 70
     1
102
RTVSPropertyOp54
 70
     1
102
RTVSPropertyOp55
 70
     1
102
RTVSPropertyOp56
 70
     1
102
RTVSPropertyOp57
 70
     1
102
RTVSPropertyOp58
 70
     1
102
RTVSPropertyOp59
 70
     1
102
RTVSPropertyOp60
 70
     1
102
RTVSPropertyOp61
 70
     1
102
RTVSPropertyOp62
 70
     1
  0
ENDSEC
  0
EOF
