  0
SECTION
  2
HEADER
  9
$ACADVER
  1
AC1015
  9
$ACADMAINTVER
 70
    20
  9
$DWGCODEPAGE
  3
ANSI_932
  9
$INSBASE
 10
0.0
 20
0.0
 30
0.0
  9
$EXTMIN
 10
10.0
 20
9.999999999999998
 30
0.0
  9
$EXTMAX
 10
462.6314869999998
 20
337.8915799999998
 30
0.0
  9
$LIMMIN
 10
0.0
 20
0.0
  9
$LIMMAX
 10
543.47
 20
374.6649239999999
  9
$ORTHOMODE
 70
     1
  9
$REGENMODE
 70
     1
  9
$FILLMODE
 70
     1
  9
$QTEXTMODE
 70
     0
  9
$MIRRTEXT
 70
     1
  9
$LTSCALE
 40
20.0
  9
$ATTMODE
 70
     1
  9
$TEXTSIZE
 40
5.0
  9
$TRACEWID
 40
1.0
  9
$TEXTSTYLE
  7
STANDARD
  9
$CLAYER
  8
0
  9
$CELTYPE
  6
BYLAYER
  9
$CECOLOR
 62
   256
  9
$CELTSCALE
 40
1.0
  9
$DISPSILH
 70
     0
  9
$DIMSCALE
 40
1.0
  9
$DIMASZ
 40
2.5
  9
$DIMEXO
 40
1.0
  9
$DIMDLI
 40
10.0
  9
$DIMRND
 40
0.0
  9
$DIMDLE
 40
0.0
  9
$DIMEXE
 40
1.0
  9
$DIMTP
 40
0.0
  9
$DIMTM
 40
0.0
  9
$DIMTXT
 40
3.2
  9
$DIMCEN
 40
0.0
  9
$DIMTSZ
 40
0.0
  9
$DIMTOL
 70
     0
  9
$DIMLIM
 70
     0
  9
$DIMTIH
 70
     0
  9
$DIMTOH
 70
     0
  9
$DIMSE1
 70
     0
  9
$DIMSE2
 70
     0
  9
$DIMTAD
 70
     3
  9
$DIMZIN
 70
     8
  9
$DIMBLK
  1

  9
$DIMASO
 70
     1
  9
$DIMSHO
 70
     1
  9
$DIMPOST
  1

  9
$DIMAPOST
  1

  9
$DIMALT
 70
     0
  9
$DIMALTD
 70
     2
  9
$DIMALTF
 40
25.4
  9
$DIMLFAC
 40
1.0
  9
$DIMTOFL
 70
     1
  9
$DIMTVP
 40
0.0
  9
$DIMTIX
 70
     0
  9
$DIMSOXD
 70
     0
  9
$DIMSAH
 70
     1
  9
$DIMBLK1
  1

  9
$DIMBLK2
  1

  9
$DIMSTYLE
  2
STANDARD
  9
$DIMCLRD
 70
     0
  9
$DIMCLRE
 70
     0
  9
$DIMCLRT
 70
     0
  9
$DIMTFAC
 40
1.0
  9
$DIMGAP
 40
1.0
  9
$DIMJUST
 70
     0
  9
$DIMSD1
 70
     0
  9
$DIMSD2
 70
     0
  9
$DIMTOLJ
 70
     1
  9
$DIMTZIN
 70
     0
  9
$DIMALTZ
 70
     0
  9
$DIMALTTZ
 70
     0
  9
$DIMUPT
 70
     0
  9
$DIMDEC
 70
     4
  9
$DIMTDEC
 70
     4
  9
$DIMALTU
 70
     2
  9
$DIMALTTD
 70
     2
  9
$DIMTXSTY
  7
STANDARD
  9
$DIMAUNIT
 70
     0
  9
$DIMADEC
 70
     0
  9
$DIMALTRND
 40
0.0
  9
$DIMAZIN
 70
     0
  9
$DIMDSEP
 70
    46
  9
$DIMATFIT
 70
     3
  9
$DIMFRAC
 70
     0
  9
$DIMLDRBLK
  1

  9
$DIMLUNIT
 70
     2
  9
$DIMLWD
 70
    -2
  9
$DIMLWE
 70
    -2
  9
$DIMTMOVE
 70
     0
  9
$LUNITS
 70
     2
  9
$LUPREC
 70
     4
  9
$SKETCHINC
 40
1.0
  9
$FILLETRAD
 40
2.0
  9
$AUNITS
 70
     0
  9
$AUPREC
 70
     2
  9
$MENU
  1
.
  9
$ELEVATION
 40
0.0
  9
$PELEVATION
 40
0.0
  9
$THICKNESS
 40
0.0
  9
$LIMCHECK
 70
     0
  9
$CHAMFERA
 40
10.0
  9
$CHAMFERB
 40
10.0
  9
$CHAMFERC
 40
0.0
  9
$CHAMFERD
 40
0.0
  9
$SKPOLY
 70
     0
  9
$TDCREATE
 40
2451301.459950347
  9
$TDUCREATE
 40
2451301.084950348
  9
$TDUPDATE
 40
2457192.690428716
  9
$TDUUPDATE
 40
2457192.315428716
  9
$TDINDWG
 40
0.1041197338
  9
$TDUSRTIMER
 40
0.1041194213
  9
$USRTIMER
 70
     1
  9
$ANGBASE
 50
0.0
  9
$ANGDIR
 70
     0
  9
$PDMODE
 70
     0
  9
$PDSIZE
 40
0.0
  9
$PLINEWID
 40
0.0
  9
$SPLFRAME
 70
     0
  9
$SPLINETYPE
 70
     6
  9
$SPLINESEGS
 70
     8
  9
$HANDSEED
  5
A041
  9
$SURFTAB1
 70
     6
  9
$SURFTAB2
 70
     6
  9
$SURFTYPE
 70
     6
  9
$SURFU
 70
     6
  9
$SURFV
 70
     6
  9
$UCSBASE
  2

  9
$UCSNAME
  2

  9
$UCSORG
 10
0.0
 20
0.0
 30
0.0
  9
$UCSXDIR
 10
1.0
 20
0.0
 30
0.0
  9
$UCSYDIR
 10
0.0
 20
1.0
 30
0.0
  9
$UCSORTHOREF
  2

  9
$UCSORTHOVIEW
 70
     0
  9
$UCSORGTOP
 10
0.0
 20
0.0
 30
0.0
  9
$UCSORGBOTTOM
 10
0.0
 20
0.0
 30
0.0
  9
$UCSORGLEFT
 10
0.0
 20
0.0
 30
0.0
  9
$UCSORGRIGHT
 10
0.0
 20
0.0
 30
0.0
  9
$UCSORGFRONT
 10
0.0
 20
0.0
 30
0.0
  9
$UCSORGBACK
 10
0.0
 20
0.0
 30
0.0
  9
$PUCSBASE
  2

  9
$PUCSNAME
  2

  9
$PUCSORG
 10
0.0
 20
0.0
 30
0.0
  9
$PUCSXDIR
 10
1.0
 20
0.0
 30
0.0
  9
$PUCSYDIR
 10
0.0
 20
1.0
 30
0.0
  9
$PUCSORTHOREF
  2

  9
$PUCSORTHOVIEW
 70
     0
  9
$PUCSORGTOP
 10
0.0
 20
0.0
 30
0.0
  9
$PUCSORGBOTTOM
 10
0.0
 20
0.0
 30
0.0
  9
$PUCSORGLEFT
 10
0.0
 20
0.0
 30
0.0
  9
$PUCSORGRIGHT
 10
0.0
 20
0.0
 30
0.0
  9
$PUCSORGFRONT
 10
0.0
 20
0.0
 30
0.0
  9
$PUCSORGBACK
 10
0.0
 20
0.0
 30
0.0
  9
$USERI1
 70
     0
  9
$USERI2
 70
     0
  9
$USERI3
 70
     0
  9
$USERI4
 70
     0
  9
$USERI5
 70
     0
  9
$USERR1
 40
0.0
  9
$USERR2
 40
0.0
  9
$USERR3
 40
0.0
  9
$USERR4
 40
0.0
  9
$USERR5
 40
0.0
  9
$WORLDVIEW
 70
     1
  9
$SHADEDGE
 70
     3
  9
$SHADEDIF
 70
    70
  9
$TILEMODE
 70
     1
  9
$MAXACTVP
 70
    16
  9
$PINSBASE
 10
0.0
 20
0.0
 30
0.0
  9
$PLIMCHECK
 70
     0
  9
$PEXTMIN
 10
1.000000000000000E+20
 20
1.000000000000000E+20
 30
1.000000000000000E+20
  9
$PEXTMAX
 10
-1.000000000000000E+20
 20
-1.000000000000000E+20
 30
-1.000000000000000E+20
  9
$PLIMMIN
 10
0.0
 20
0.0
  9
$PLIMMAX
 10
420.0
 20
297.0
  9
$UNITMODE
 70
     0
  9
$VISRETAIN
 70
     0
  9
$PLINEGEN
 70
     0
  9
$PSLTSCALE
 70
     0
  9
$TREEDEPTH
 70
  3020
  9
$CMLSTYLE
  2
STANDARD
  9
$CMLJUST
 70
     0
  9
$CMLSCALE
 40
1.0
  9
$PROXYGRAPHICS
 70
     1
  9
$MEASUREMENT
 70
     0
  9
$CELWEIGHT
370
    -1
  9
$ENDCAPS
280
     0
  9
$JOINSTYLE
280
     0
  9
$LWDISPLAY
290
     0
  9
$INSUNITS
 70
     0
  9
$HYPERLINKBASE
  1

  9
$STYLESHEET
  1

  9
$XEDIT
290
     1
  9
$CEPSNTYPE
380
     0
  9
$PSTYLEMODE
290
     1
  9
$FINGERPRINTGUID
  2
{9F70E8AE-C6C1-4D24-9AA5-D6EFB54DB254}
  9
$VERSIONGUID
  2
{BF57CC01-0646-417A-A66D-5CCF56C885A8}
  9
$EXTNAMES
290
     1
  9
$PSVPSCALE
 40
0.0
  9
$OLESTARTUP
290
     0
  0
ENDSEC
  0
SECTION
  2
CLASSES
  0
CLASS
  1
ACDBDICTIONARYWDFLT
  2
AcDbDictionaryWithDefault
  3
ObjectDBX Classes
 90
        0
280
     0
281
     0
  0
CLASS
  1
ACDBPLACEHOLDER
  2
AcDbPlaceHolder
  3
ObjectDBX Classes
 90
        0
280
     0
281
     0
  0
CLASS
  1
LAYOUT
  2
AcDbLayout
  3
ObjectDBX Classes
 90
        0
280
     0
281
     0
  0
CLASS
  1
DICTIONARYVAR
  2
AcDbDictionaryVar
  3
ObjectDBX Classes
 90
        0
280
     0
281
     0
  0
CLASS
  1
MATERIAL
  2
AcDbMaterial
  3
ObjectDBX Classes
 90
     1153
280
     0
281
     0
  0
CLASS
  1
VISUALSTYLE
  2
AcDbVisualStyle
  3
ObjectDBX Classes
 90
     4095
280
     0
281
     0
  0
CLASS
  1
TABLESTYLE
  2
AcDbTableStyle
  3
ObjectDBX Classes
 90
     4095
280
     0
281
     0
  0
CLASS
  1
SCALE
  2
AcDbScale
  3
ObjectDBX Classes
 90
     1153
280
     0
281
     0
  0
CLASS
  1
MLEADERSTYLE
  2
AcDbMLeaderStyle
  3
ACDB_MLEADERSTYLE_CLASS
 90
     4095
280
     0
281
     0
  0
CLASS
  1
ACDBSECTIONVIEWSTYLE
  2
AcDbSectionViewStyle
  3
ObjectDBX Classes
 90
     1025
280
     0
281
     0
  0
CLASS
  1
ACDBDETAILVIEWSTYLE
  2
AcDbDetailViewStyle
  3
ObjectDBX Classes
 90
     1025
280
     0
281
     0
  0
CLASS
  1
CELLSTYLEMAP
  2
AcDbCellStyleMap
  3
ObjectDBX Classes
 90
     1152
280
     0
281
     0
  0
ENDSEC
  0
SECTION
  2
TABLES
  0
TABLE
  2
VPORT
  5
9D92
330
0
100
AcDbSymbolTable
 70
     1
  0
VPORT
  5
9F8C
330
9D92
100
AcDbSymbolTableRecord
100
AcDbViewportTableRecord
  2
*ACTIVE
 70
     0
 10
0.0
 20
0.0
 11
1.0
 21
1.0
 12
362.5218145250859
 22
173.9548395327864
 13
0.0
 23
0.0
 14
10.0
 24
10.0
 15
10.0
 25
10.0
 16
0.0
 26
0.0
 36
1.0
 17
0.0
 27
0.0
 37
0.0
 40
330.5121473693566
 41
2.35006605019815
 42
50.0
 43
0.0
 44
0.0
 50
0.0
 51
0.0
 71
     0
 72
   100
 73
     1
 74
     0
 75
     0
 76
     0
 77
     0
 78
     0
281
     0
 65
     1
110
0.0
120
0.0
130
0.0
111
1.0
121
0.0
131
0.0
112
0.0
122
1.0
132
0.0
 79
     0
146
0.0
1001
ACAD_NAV_VCDISPLAY
1070
     3
  0
ENDTAB
  0
TABLE
  2
LTYPE
  5
9D8F
330
0
100
AcDbSymbolTable
 70
     4
  0
LTYPE
  5
9D9D
330
9D8F
100
AcDbSymbolTableRecord
100
AcDbLinetypeTableRecord
  2
BYBLOCK
 70
     0
  3

 72
    65
 73
     0
 40
0.0
  0
LTYPE
  5
9D9E
330
9D8F
100
AcDbSymbolTableRecord
100
AcDbLinetypeTableRecord
  2
BYLAYER
 70
     0
  3

 72
    65
 73
     0
 40
0.0
  0
LTYPE
  5
9D9F
330
9D8F
100
AcDbSymbolTableRecord
100
AcDbLinetypeTableRecord
  2
CONTINUOUS
 70
     0
  3
Solid line
 72
    65
 73
     0
 40
0.0
  0
LTYPE
  5
9DAD
330
9D8F
100
AcDbSymbolTableRecord
100
AcDbLinetypeTableRecord
  2
DASHED
 70
     0
  3
__ __ __ __ __ __ __ __ __ __ __ __ __ __ __ __
 72
    65
 73
     2
 40
0.75
 49
0.5
 74
     0
 49
-0.25
 74
     0
  0
LTYPE
  5
9DAE
330
9D8F
100
AcDbSymbolTableRecord
100
AcDbLinetypeTableRecord
  2
CENTER
 70
     0
  3
____ _ ____ _ ____ _ ____ _ ____ _ ____ _ ____ 
 72
    65
 73
     4
 40
2.0
 49
1.25
 74
     0
 49
-0.25
 74
     0
 49
0.25
 74
     0
 49
-0.25
 74
     0
  0
LTYPE
  5
9DAF
330
9D8F
100
AcDbSymbolTableRecord
100
AcDbLinetypeTableRecord
  2
PHANTOM
 70
     0
  3
______  __  __  ______  __  __  ______  __  __ 
 72
    65
 73
     6
 40
2.5
 49
1.25
 74
     0
 49
-0.25
 74
     0
 49
0.25
 74
     0
 49
-0.25
 74
     0
 49
0.25
 74
     0
 49
-0.25
 74
     0
  0
ENDTAB
  0
TABLE
  2
LAYER
  5
9D8C
330
0
100
AcDbSymbolTable
 70
     8
  0
LAYER
  5
9D9A
102
{ACAD_XDICTIONARY
360
9FE5
102
}
330
9D8C
100
AcDbSymbolTableRecord
100
AcDbLayerTableRecord
  2
0
 70
     0
 62
     7
  6
CONTINUOUS
370
    -3
390
9F93
  0
LAYER
  5
9DB0
102
{ACAD_XDICTIONARY
360
9FE7
102
}
330
9D8C
100
AcDbSymbolTableRecord
100
AcDbLayerTableRecord
  2
4
 70
     0
 62
     1
  6
CENTER
370
    -3
390
9F93
  0
LAYER
  5
9DB1
102
{ACAD_XDICTIONARY
360
9FE9
102
}
330
9D8C
100
AcDbSymbolTableRecord
100
AcDbLayerTableRecord
  2
5
 70
     0
 62
     6
  6
PHANTOM
370
    -3
390
9F93
  0
LAYER
  5
9DB2
102
{ACAD_XDICTIONARY
360
9FEB
102
}
330
9D8C
100
AcDbSymbolTableRecord
100
AcDbLayerTableRecord
  2
1
 70
     0
 62
     7
  6
CONTINUOUS
370
    -3
390
9F93
  0
LAYER
  5
9DB3
102
{ACAD_XDICTIONARY
360
9FED
102
}
330
9D8C
100
AcDbSymbolTableRecord
100
AcDbLayerTableRecord
  2
2
 70
     0
 62
     4
  6
CONTINUOUS
370
    -3
390
9F93
  0
LAYER
  5
9DB4
102
{ACAD_XDICTIONARY
360
9FEF
102
}
330
9D8C
100
AcDbSymbolTableRecord
100
AcDbLayerTableRecord
  2
3
 70
     0
 62
     2
  6
DASHED
370
    -3
390
9F93
  0
LAYER
  5
9DB5
102
{ACAD_XDICTIONARY
360
9FF1
102
}
330
9D8C
100
AcDbSymbolTableRecord
100
AcDbLayerTableRecord
  2
6
 70
     0
 62
     5
  6
CONTINUOUS
370
    -3
390
9F93
  0
LAYER
  5
9DB6
102
{ACAD_XDICTIONARY
360
9FF3
102
}
330
9D8C
100
AcDbSymbolTableRecord
100
AcDbLayerTableRecord
  2
7
 70
     0
 62
     3
  6
CONTINUOUS
370
    -3
390
9F93
  0
ENDTAB
  0
TABLE
  2
STYLE
  5
9D8D
330
0
100
AcDbSymbolTable
 70
     1
  0
STYLE
  5
9D9B
330
9D8D
100
AcDbSymbolTableRecord
100
AcDbTextStyleTableRecord
  2
STANDARD
 70
     0
 40
0.0
 41
1.0
 50
0.0
 71
     0
 42
5.0
  3
txt
  4

  0
ENDTAB
  0
TABLE
  2
VIEW
  5
9D90
330
0
100
AcDbSymbolTable
 70
     0
  0
ENDTAB
  0
TABLE
  2
UCS
  5
9D91
330
0
100
AcDbSymbolTable
 70
     0
  0
ENDTAB
  0
TABLE
  2
APPID
  5
9D93
330
0
100
AcDbSymbolTable
 70
     3
  0
APPID
  5
9D9C
330
9D93
100
AcDbSymbolTableRecord
100
AcDbRegAppTableRecord
  2
ACAD
 70
     0
  0
APPID
  5
9FFF
330
9D93
100
AcDbSymbolTableRecord
100
AcDbRegAppTableRecord
  2
ACAD_NAV_VCDISPLAY
 70
     0
  0
APPID
  5
A038
330
9D93
100
AcDbSymbolTableRecord
100
AcDbRegAppTableRecord
  2
ACAD_MLEADERVER
 70
     0
  0
ENDTAB
  0
TABLE
  2
DIMSTYLE
  5
9D94
330
0
100
AcDbSymbolTable
 70
     1
100
AcDbDimStyleTable
 71
     0
  0
DIMSTYLE
105
9DB8
330
9D94
100
AcDbSymbolTableRecord
100
AcDbDimStyleTableRecord
  2
STANDARD
 70
     0
 41
2.5
 42
1.0
 43
10.0
 44
1.0
 73
     0
 74
     0
 77
     3
 78
     8
140
3.2
141
0.0
147
1.0
172
     1
173
     1
284
     8
285
     8
286
     8
340
9D9B
  0
ENDTAB
  0
TABLE
  2
BLOCK_RECORD
  5
9D8B
330
0
100
AcDbSymbolTable
 70
     0
  0
BLOCK_RECORD
  5
9DA8
102
{ACAD_XDICTIONARY
360
9F71
102
}
330
9D8B
100
AcDbSymbolTableRecord
100
AcDbBlockTableRecord
  2
*MODEL_SPACE
340
9FE1
  0
BLOCK_RECORD
  5
9DA4
102
{ACAD_XDICTIONARY
360
9F6F
102
}
330
9D8B
100
AcDbSymbolTableRecord
100
AcDbBlockTableRecord
  2
*PAPER_SPACE
340
9FE2
  0
ENDTAB
  0
ENDSEC
  0
SECTION
  2
BLOCKS
  0
BLOCK
  5
9DA9
330
9DA8
100
AcDbEntity
  8
0
100
AcDbBlockBegin
  2
*MODEL_SPACE
 70
     0
 10
0.0
 20
0.0
 30
0.0
  3
*MODEL_SPACE
  1

  0
ENDBLK
  5
9DAA
330
9DA8
100
AcDbEntity
  8
0
100
AcDbBlockEnd
  0
BLOCK
  5
9DA5
330
9DA4
100
AcDbEntity
 67
     1
  8
0
100
AcDbBlockBegin
  2
*PAPER_SPACE
 70
     0
 10
0.0
 20
0.0
 30
0.0
  3
*PAPER_SPACE
  1

  0
ENDBLK
  5
9DA6
330
9DA4
100
AcDbEntity
 67
     1
  8
0
100
AcDbBlockEnd
  0
ENDSEC
  0
SECTION
  2
ENTITIES
  0
TEXT
  5
9DC0
330
9DA8
100
AcDbEntity
  8
7
  6
Continuous
100
AcDbText
 10
10.0
 20
18.0
 30
0.0
 40
3.0
  1
TYPE No.TCA-420G-C75
100
AcDbText
  0
TEXT
  5
9DC1
330
9DA8
100
AcDbEntity
  8
7
  6
Continuous
100
AcDbText
 10
10.0
 20
26.0
 30
0.0
 40
3.0
  1
CODE No.9712
100
AcDbText
  0
TEXT
  5
9DC2
330
9DA8
100
AcDbEntity
  8
1
  6
Continuous
100
AcDbText
 10
10.0
 20
10.0
 30
0.0
 40
1.399999999999999
  1
LAYER
100
AcDbText
  0
TEXT
  5
9DC3
330
9DA8
100
AcDbEntity
  8
1
  6
Continuous
100
AcDbText
 10
17.97951099999998
 20
10.04873699999998
 30
0.0
 40
1.399999999999999
  1
1
100
AcDbText
  0
TEXT
  5
9DC4
330
9DA8
100
AcDbEntity
  8
7
  6
Continuous
100
AcDbText
 10
29.97951099999999
 20
10.04873699999998
 30
0.0
 40
1.399999999999999
  1
7
100
AcDbText
  0
TEXT
  5
9DC5
330
9DA8
100
AcDbEntity
  8
4
  6
CENTER
100
AcDbText
 10
23.97951099999999
 20
10.04873699999998
 30
0.0
 40
1.399999999999999
  1
4
100
AcDbText
  0
TEXT
  5
9DC6
330
9DA8
100
AcDbEntity
  8
3
  6
DASHED
100
AcDbText
 10
21.979511
 20
10.04873699999998
 30
0.0
 40
1.399999999999999
  1
3
100
AcDbText
  0
TEXT
  5
9DC7
330
9DA8
100
AcDbEntity
  8
2
  6
Continuous
100
AcDbText
 10
19.97951099999998
 20
10.04873699999998
 30
0.0
 40
1.399999999999999
  1
2
100
AcDbText
  0
TEXT
  5
9DC8
330
9DA8
100
AcDbEntity
  8
6
  6
Continuous
100
AcDbText
 10
27.979511
 20
10.04873699999998
 30
0.0
 40
1.399999999999999
  1
6
100
AcDbText
  0
TEXT
  5
9DC9
330
9DA8
100
AcDbEntity
  8
5
  6
PHANTOM
100
AcDbText
 10
25.97951099999999
 20
10.04873699999998
 30
0.0
 40
1.399999999999999
  1
5
100
AcDbText
  0
LINE
  5
9DCA
330
9DA8
100
AcDbEntity
  8
4
  6
CENTER
 48
0.8
100
AcDbLine
 10
56.13148699999999
 20
237.3915799999998
 30
0.0
 11
56.13148699999999
 21
137.39158
 31
0.0
  0
LINE
  5
9DCB
330
9DA8
100
AcDbEntity
  8
1
  6
Continuous
100
AcDbLine
 10
35.13149699999999
 20
224.9915779999998
 30
0.0
 11
77.13148699999995
 21
224.9915779999998
 31
0.0
  0
LINE
  5
9DCC
330
9DA8
100
AcDbEntity
  8
4
  6
CENTER
 48
0.8
100
AcDbLine
 10
30.831487
 20
179.89158
 30
0.0
 11
82.63147899999998
 21
179.89158
 31
0.0
  0
LINE
  5
9DCD
330
9DA8
100
AcDbEntity
  8
1
  6
Continuous
100
AcDbLine
 10
80.63148699999997
 20
221.4915779999997
 30
0.0
 11
80.63148699999997
 21
193.4766319999999
 31
0.0
  0
LINE
  5
9DCE
330
9DA8
100
AcDbEntity
  8
1
  6
Continuous
100
AcDbLine
 10
40.131487
 20
175.89158
 30
0.0
 11
41.13148699999999
 21
175.89158
 31
0.0
  0
LINE
  5
9DCF
330
9DA8
100
AcDbEntity
  8
1
  6
Continuous
100
AcDbLine
 10
40.131487
 20
183.89158
 30
0.0
 11
41.13148699999999
 21
183.89158
 31
0.0
  0
LINE
  5
9DD0
330
9DA8
100
AcDbEntity
  8
1
  6
Continuous
100
AcDbLine
 10
66.13148699999999
 20
222.77115
 30
0.0
 11
66.13148699999999
 21
220.06949
 31
0.0
  0
LINE
  5
9DD1
330
9DA8
100
AcDbEntity
  8
1
  6
Continuous
100
AcDbLine
 10
67.13148699999999
 20
222.77115
 30
0.0
 11
67.13148699999999
 21
220.0695909999998
 31
0.0
  0
LINE
  5
9DD2
330
9DA8
100
AcDbEntity
  8
1
  6
Continuous
100
AcDbLine
 10
46.13148699999999
 20
222.77115
 30
0.0
 11
46.13148699999999
 21
219.9785279999999
 31
0.0
  0
LINE
  5
9DD3
330
9DA8
100
AcDbEntity
  8
1
  6
Continuous
100
AcDbLine
 10
45.131487
 20
222.77115
 30
0.0
 11
45.131487
 21
220.0687349999999
 31
0.0
  0
LINE
  5
9DD4
330
9DA8
100
AcDbEntity
  8
1
  6
Continuous
100
AcDbLine
 10
37.382477
 20
185.56727
 30
0.0
 11
37.831477
 21
183.8915879999999
 31
0.0
  0
LINE
  5
9DD5
330
9DA8
100
AcDbEntity
  8
1
  6
Continuous
100
AcDbLine
 10
37.382497
 20
174.2159059999999
 30
0.0
 11
37.831487
 21
175.89158
 31
0.0
  0
LINE
  5
9DD6
330
9DA8
100
AcDbEntity
  8
1
  6
Continuous
100
AcDbLine
 10
74.43148199999997
 20
185.89158
 30
0.0
 11
75.631479
 21
185.89158
 31
0.0
  0
LINE
  5
9DD7
330
9DA8
100
AcDbEntity
  8
1
  6
Continuous
100
AcDbLine
 10
74.43148199999997
 20
173.89158
 30
0.0
 11
75.631479
 21
173.89158
 31
0.0
  0
LINE
  5
9DD8
330
9DA8
100
AcDbEntity
  8
1
  6
Continuous
100
AcDbLine
 10
77.63147899999998
 20
183.89158
 30
0.0
 11
77.63147899999998
 21
175.89158
 31
0.0
  0
LINE
  5
9DD9
330
9DA8
100
AcDbEntity
  8
1
  6
Continuous
100
AcDbLine
 10
35.83148700000001
 20
184.0681469999999
 30
0.0
 11
35.83148700000001
 21
175.7150359999999
 31
0.0
  0
LINE
  5
9DDA
330
9DA8
100
AcDbEntity
  8
1
  6
Continuous
100
AcDbLine
 10
37.382457
 20
174.215898
 30
0.0
 11
37.382457
 21
185.5672769999999
 31
0.0
  0
LINE
  5
9DDB
330
9DA8
100
AcDbEntity
  8
4
  6
CENTER
 48
0.8
100
AcDbLine
 10
186.1314869999999
 20
237.3915799999998
 30
0.0
 11
186.1314869999999
 21
187.2811979999999
 31
0.0
  0
LINE
  5
9DDC
330
9DA8
100
AcDbEntity
  8
1
  6
Continuous
100
AcDbLine
 10
164.431486
 20
224.9915779999998
 30
0.0
 11
207.131487
 21
224.9915779999998
 31
0.0
  0
LINE
  5
9DDD
330
9DA8
100
AcDbEntity
  8
4
  6
CENTER
 48
0.8
100
AcDbLine
 10
122.631487
 20
179.89158
 30
0.0
 11
207.631487
 21
179.89158
 31
0.0
  0
LINE
  5
9DDE
330
9DA8
100
AcDbEntity
  8
4
  6
CENTER
 48
0.8
100
AcDbLine
 10
165.131487
 20
219.8915819999998
 30
0.0
 11
165.131487
 21
137.39158
 31
0.0
  0
LINE
  5
9DDF
330
9DA8
100
AcDbEntity
  8
1
  6
Continuous
100
AcDbLine
 10
186.131504
 20
310.291708
 30
0.0
 11
186.131506
 21
297.4915989999999
 31
0.0
  0
LINE
  5
9DE0
330
9DA8
100
AcDbEntity
  8
1
  6
Continuous
100
AcDbLine
 10
179.7313649999999
 20
303.891611
 30
0.0
 11
192.531508
 21
303.891613
 31
0.0
  0
LINE
  5
9DE1
330
9DA8
100
AcDbEntity
  8
1
  6
Continuous
100
AcDbLine
 10
187.377926
 20
305.1380669999998
 30
0.0
 11
186.1314879999999
 21
303.891629
 31
0.0
  0
LINE
  5
9DE2
330
9DA8
100
AcDbEntity
  8
1
  6
Continuous
100
AcDbLine
 10
187.377935
 20
302.645152
 30
0.0
 11
186.131484
 21
303.8916039999998
 31
0.0
  0
LINE
  5
9DE3
330
9DA8
100
AcDbEntity
  8
1
  6
Continuous
100
AcDbLine
 10
184.885035
 20
305.138036
 30
0.0
 11
186.131481
 21
303.891589
 31
0.0
  0
LINE
  5
9DE4
330
9DA8
100
AcDbEntity
  8
1
  6
Continuous
100
AcDbLine
 10
184.885082
 20
302.645131
 30
0.0
 11
186.131525
 21
303.891575
 31
0.0
  0
LINE
  5
9DE5
330
9DA8
100
AcDbEntity
  8
1
  6
Continuous
100
AcDbLine
 10
151.1314869999999
 20
232.3915799999999
 30
0.0
 11
221.1314869999999
 21
232.3915799999999
 31
0.0
  0
LINE
  5
9DE6
330
9DA8
100
AcDbEntity
  8
1
  6
Continuous
100
AcDbLine
 10
151.1314869999999
 20
230.091584
 30
0.0
 11
151.1314869999999
 21
232.391583
 31
0.0
  0
LINE
  5
9DE7
330
9DA8
100
AcDbEntity
  8
1
  6
Continuous
100
AcDbLine
 10
151.1314869999999
 20
230.0915809999999
 30
0.0
 11
221.1314869999999
 21
230.0915809999999
 31
0.0
  0
LINE
  5
9DE8
330
9DA8
100
AcDbEntity
  8
4
  6
CENTER
 48
0.8
100
AcDbLine
 10
158.6314869999999
 20
225.0915809999999
 30
0.0
 11
158.6314869999999
 21
237.3915799999998
 31
0.0
  0
LINE
  5
9DE9
330
9DA8
100
AcDbEntity
  8
1
  6
Continuous
100
AcDbLine
 10
163.681486
 20
226.4915779999999
 30
0.0
 11
208.584619
 21
226.4915779999999
 31
0.0
  0
LINE
  5
9DEA
330
9DA8
100
AcDbEntity
  8
1
  6
Continuous
100
AcDbLine
 10
159.8814899999998
 20
230.091583
 30
0.0
 11
160.4241089999999
 21
228.711163
 31
0.0
  0
LINE
  5
9DEB
330
9DA8
100
AcDbEntity
  8
1
  6
Continuous
100
AcDbLine
 10
221.1314869999999
 20
230.0915779999999
 30
0.0
 11
221.1314869999999
 21
232.3915799999999
 31
0.0
  0
LINE
  5
9DEC
330
9DA8
100
AcDbEntity
  8
4
  6
CENTER
 48
0.8
100
AcDbLine
 10
213.631487
 20
225.0915809999999
 30
0.0
 11
213.631487
 21
237.3915799999998
 31
0.0
  0
LINE
  5
9DED
330
9DA8
100
AcDbEntity
  8
1
  6
Continuous
100
AcDbLine
 10
212.381483
 20
230.0915759999998
 30
0.0
 11
211.8388649999999
 21
228.711155
 31
0.0
  0
LINE
  5
9DEE
330
9DA8
100
AcDbEntity
  8
1
  6
Continuous
100
AcDbLine
 10
27.131487
 20
232.3915799999999
 30
0.0
 11
85.131487
 21
232.3915799999999
 31
0.0
  0
LINE
  5
9DEF
330
9DA8
100
AcDbEntity
  8
1
  6
Continuous
100
AcDbLine
 10
27.131487
 20
230.0915809999999
 30
0.0
 11
85.131487
 21
230.0915809999999
 31
0.0
  0
LINE
  5
9DF0
330
9DA8
100
AcDbEntity
  8
1
  6
Continuous
100
AcDbLine
 10
33.68148699999998
 20
226.4915779999999
 30
0.0
 11
78.584615
 21
226.4915779999999
 31
0.0
  0
LINE
  5
9DF1
330
9DA8
100
AcDbEntity
  8
1
  6
Continuous
100
AcDbLine
 10
29.88149699999999
 20
230.091584
 30
0.0
 11
30.424117
 21
228.711164
 31
0.0
  0
LINE
  5
9DF2
330
9DA8
100
AcDbEntity
  8
1
  6
Continuous
100
AcDbLine
 10
82.38148699999998
 20
230.091574
 30
0.0
 11
81.83886899999997
 21
228.7111529999999
 31
0.0
  0
LINE
  5
9DF3
330
9DA8
100
AcDbEntity
  8
1
  6
Continuous
100
AcDbLine
 10
85.131487
 20
232.3915799999999
 30
0.0
 11
85.131487
 21
230.0915809999999
 31
0.0
  0
LINE
  5
9DF4
330
9DA8
100
AcDbEntity
  8
1
  6
Continuous
100
AcDbLine
 10
27.131487
 20
232.3915799999999
 30
0.0
 11
27.131487
 21
230.0915809999999
 31
0.0
  0
LINE
  5
9DF5
330
9DA8
100
AcDbEntity
  8
4
  6
CENTER
 48
0.8
100
AcDbLine
 10
77.13148699999995
 20
237.3915799999998
 30
0.0
 11
77.13148699999995
 21
225.0915809999999
 31
0.0
  0
LINE
  5
9DF6
330
9DA8
100
AcDbEntity
  8
4
  6
CENTER
 48
0.8
100
AcDbLine
 10
35.131487
 20
237.3915799999998
 30
0.0
 11
35.131487
 21
225.0915809999999
 31
0.0
  0
LINE
  5
9DF7
330
9DA8
100
AcDbEntity
  8
4
  6
CENTER
 48
0.8
100
AcDbLine
 10
186.1314869999999
 20
337.8915799999998
 30
0.0
 11
186.1314869999999
 21
269.8915799999999
 31
0.0
  0
LINE
  5
9DF8
330
9DA8
100
AcDbEntity
  8
4
  6
CENTER
 48
0.8
100
AcDbLine
 10
122.631487
 20
303.8915799999998
 30
0.0
 11
222.822397
 21
303.8915799999998
 31
0.0
  0
LINE
  5
9DF9
330
9DA8
100
AcDbEntity
  8
1
  6
Continuous
100
AcDbLine
 10
158.6314849999999
 20
274.8915799999999
 30
0.0
 11
213.631487
 21
274.8915799999999
 31
0.0
  0
LINE
  5
9DFA
330
9DA8
100
AcDbEntity
  8
1
  6
Continuous
100
AcDbLine
 10
158.6314889999998
 20
332.8915799999998
 30
0.0
 11
213.631487
 21
332.8915799999998
 31
0.0
  0
LINE
  5
9DFB
330
9DA8
100
AcDbEntity
  8
4
  6
CENTER
 48
0.8
100
AcDbLine
 10
158.6314869999999
 20
288.8915799999998
 30
0.0
 11
158.6314869999999
 21
276.8915799999999
 31
0.0
  0
LINE
  5
9DFC
330
9DA8
100
AcDbEntity
  8
4
  6
CENTER
 48
0.8
100
AcDbLine
 10
152.631487
 20
282.8915799999998
 30
0.0
 11
164.6314849999999
 21
282.8915799999998
 31
0.0
  0
LINE
  5
9DFD
330
9DA8
100
AcDbEntity
  8
4
  6
CENTER
 48
0.8
100
AcDbLine
 10
158.6314869999999
 20
318.8915799999998
 30
0.0
 11
158.6314869999999
 21
330.8915799999998
 31
0.0
  0
LINE
  5
9DFE
330
9DA8
100
AcDbEntity
  8
4
  6
CENTER
 48
0.8
100
AcDbLine
 10
152.631487
 20
324.8915799999998
 30
0.0
 11
164.631489
 21
324.8915799999998
 31
0.0
  0
LINE
  5
9DFF
330
9DA8
100
AcDbEntity
  8
4
  6
CENTER
 48
0.8
100
AcDbLine
 10
213.631487
 20
288.8915799999998
 30
0.0
 11
213.631487
 21
276.8915799999999
 31
0.0
  0
LINE
  5
9E00
330
9DA8
100
AcDbEntity
  8
4
  6
CENTER
 48
0.8
100
AcDbLine
 10
219.631487
 20
282.8915799999998
 30
0.0
 11
207.631487
 21
282.8915799999998
 31
0.0
  0
LINE
  5
9E01
330
9DA8
100
AcDbEntity
  8
4
  6
CENTER
 48
0.8
100
AcDbLine
 10
213.631487
 20
318.8915799999998
 30
0.0
 11
213.631487
 21
330.8915799999998
 31
0.0
  0
LINE
  5
9E02
330
9DA8
100
AcDbEntity
  8
4
  6
CENTER
 48
0.8
100
AcDbLine
 10
219.631487
 20
324.8915799999998
 30
0.0
 11
207.631487
 21
324.8915799999998
 31
0.0
  0
LINE
  5
9E03
330
9DA8
100
AcDbEntity
  8
1
  6
Continuous
100
AcDbLine
 10
204.930304
 20
217.9915779999999
 30
0.0
 11
210.6314869999999
 21
217.9915779999999
 31
0.0
  0
LINE
  5
9E04
330
9DA8
100
AcDbEntity
  8
1
  6
Continuous
100
AcDbLine
 10
160.931486
 20
221.4915779999997
 30
0.0
 11
160.931486
 21
219.191577
 31
0.0
  0
LINE
  5
9E05
330
9DA8
100
AcDbEntity
  8
1
  6
Continuous
100
AcDbLine
 10
171.899014
 20
174.7485669999998
 30
0.0
 11
198.6212319999999
 21
214.911494
 31
0.0
  0
LINE
  5
9E06
330
9DA8
100
AcDbEntity
  8
1
  6
Continuous
100
AcDbLine
 10
156.6728259999998
 20
180.728872
 30
0.0
 11
159.479074
 21
214.078689
 31
0.0
  0
LINE
  5
9E07
330
9DA8
100
AcDbEntity
  8
1
  6
Continuous
100
AcDbLine
 10
74.43148999999998
 20
214.291891
 30
0.0
 11
74.43148999999998
 21
171.39158
 31
0.0
  0
LINE
  5
9E08
330
9DA8
100
AcDbEntity
  8
1
  6
Continuous
100
AcDbLine
 10
72.13148699999995
 20
214.191579
 30
0.0
 11
72.13148699999995
 21
171.39158
 31
0.0
  0
LINE
  5
9E09
330
9DA8
100
AcDbEntity
  8
1
  6
Continuous
100
AcDbLine
 10
69.63148699999999
 20
220.191579
 30
0.0
 11
72.88148699999998
 21
220.191579
 31
0.0
  0
LINE
  5
9E0A
330
9DA8
100
AcDbEntity
  8
1
  6
Continuous
100
AcDbLine
 10
68.113848
 20
220.4234309999999
 30
0.0
 11
68.81673599999999
 21
220.61177
 31
0.0
  0
LINE
  5
9E0B
330
9DA8
100
AcDbEntity
  8
1
  6
Continuous
100
AcDbLine
 10
42.631487
 20
220.191579
 30
0.0
 11
39.381487
 21
220.191579
 31
0.0
  0
LINE
  5
9E0C
330
9DA8
100
AcDbEntity
  8
1
  6
Continuous
100
AcDbLine
 10
44.149127
 20
220.423435
 30
0.0
 11
43.44623699999998
 21
220.611774
 31
0.0
  0
LINE
  5
9E0D
330
9DA8
100
AcDbEntity
  8
1
  6
Continuous
100
AcDbLine
 10
40.131487
 20
214.191579
 30
0.0
 11
40.131487
 21
171.39158
 31
0.0
  0
LINE
  5
9E0E
330
9DA8
100
AcDbEntity
  8
1
  6
Continuous
100
AcDbLine
 10
37.831487
 20
214.291891
 30
0.0
 11
37.831487
 21
171.39158
 31
0.0
  0
LINE
  5
9E0F
330
9DA8
100
AcDbEntity
  8
1
  6
Continuous
100
AcDbLine
 10
37.831487
 20
171.39158
 30
0.0
 11
40.131487
 21
171.39158
 31
0.0
  0
LINE
  5
9E10
330
9DA8
100
AcDbEntity
  8
1
  6
Continuous
100
AcDbLine
 10
72.13148699999995
 20
171.39158
 30
0.0
 11
74.43148999999998
 21
171.39158
 31
0.0
  0
LINE
  5
9E11
330
9DA8
100
AcDbEntity
  8
1
  6
Continuous
100
AcDbLine
 10
31.631487
 20
221.4915779999997
 30
0.0
 11
31.631487
 21
193.4766319999999
 31
0.0
  0
LINE
  5
9E12
330
9DA8
100
AcDbEntity
  8
1
  6
Continuous
100
AcDbLine
 10
71.13148699999998
 20
183.89158
 30
0.0
 11
72.13148699999995
 21
183.89158
 31
0.0
  0
LINE
  5
9E13
330
9DA8
100
AcDbEntity
  8
1
  6
Continuous
100
AcDbLine
 10
71.13148699999998
 20
175.89158
 30
0.0
 11
72.13148699999995
 21
175.89158
 31
0.0
  0
ARC
  5
9E14
330
9DA8
100
AcDbEntity
  8
1
  6
Continuous
100
AcDbCircle
 10
68.63148699999999
 20
218.4915779999998
 30
0.0
 40
2.0
100
AcDbArc
 50
105.0000399999997
 51
155.3912799999999
  0
ARC
  5
9E15
330
9DA8
100
AcDbEntity
  8
1
  6
Continuous
100
AcDbCircle
 10
64.63148699999999
 20
218.37034
 30
0.0
 40
2.0
100
AcDbArc
 50
28.99118899999999
 51
88.36554499999998
  0
ARC
  5
9E16
330
9DA8
100
AcDbEntity
  8
1
  6
Continuous
100
AcDbCircle
 10
66.63148699999999
 20
220.307779
 30
0.0
 40
1.0
100
AcDbArc
 50
255.48635
 51
280.46622
  0
ARC
  5
9E17
330
9DA8
100
AcDbEntity
  8
1
  6
Continuous
100
AcDbCircle
 10
43.63148699999999
 20
218.4915779999998
 30
0.0
 40
2.0
100
AcDbArc
 50
24.60868
 51
74.99999200000002
  0
ARC
  5
9E18
330
9DA8
100
AcDbEntity
  8
1
  6
Continuous
100
AcDbCircle
 10
47.631487
 20
218.37034
 30
0.0
 40
2.0
100
AcDbArc
 50
91.634419
 51
151.0087799999998
  0
ARC
  5
9E19
330
9DA8
100
AcDbEntity
  8
1
  6
Continuous
100
AcDbCircle
 10
45.631487
 20
220.307779
 30
0.0
 40
1.0
100
AcDbArc
 50
259.5337599999999
 51
284.5136299999998
  0
ARC
  5
9E1A
330
9DA8
100
AcDbEntity
  8
1
  6
Continuous
100
AcDbCircle
 10
75.631479
 20
183.89158
 30
0.0
 40
2.0
100
AcDbArc
 50
0.0
 51
89.99998199999996
  0
ARC
  5
9E1B
330
9DA8
100
AcDbEntity
  8
1
  6
Continuous
100
AcDbCircle
 10
75.631479
 20
175.89158
 30
0.0
 40
2.0
100
AcDbArc
 50
270.00002
 51
0.0
  0
ARC
  5
9E1C
330
9DA8
100
AcDbEntity
  8
1
  6
Continuous
100
AcDbCircle
 10
37.331487
 20
175.7150359999999
 30
0.0
 40
1.5
100
AcDbArc
 50
179.9999799999999
 51
271.94882
  0
ARC
  5
9E1D
330
9DA8
100
AcDbEntity
  8
1
  6
Continuous
100
AcDbCircle
 10
37.331487
 20
184.0681469999999
 30
0.0
 40
1.5
100
AcDbArc
 50
88.051186
 51
179.9999599999999
  0
CIRCLE
  5
9E1E
330
9DA8
100
AcDbEntity
  8
1
  6
Continuous
100
AcDbCircle
 10
165.131487
 20
179.89158
 30
0.0
 40
1.5
  0
ARC
  5
9E1F
330
9DA8
100
AcDbEntity
  8
1
  6
Continuous
100
AcDbCircle
 10
160.888227
 20
224.4245339999999
 30
0.0
 40
5.0
100
AcDbArc
 50
270.4957299999999
 51
330.82976
  0
ARC
  5
9E20
330
9DA8
100
AcDbEntity
  8
1
  6
Continuous
100
AcDbCircle
 10
163.5186019999999
 20
219.5404579999999
 30
0.0
 40
3.0
100
AcDbArc
 50
54.65483599999998
 51
149.5839399999999
  0
ARC
  5
9E21
330
9DA8
100
AcDbEntity
  8
1
  6
Continuous
100
AcDbCircle
 10
163.681486
 20
229.9915799999999
 30
0.0
 40
3.5
100
AcDbArc
 50
201.4589299999999
 51
270.00002
  0
ARC
  5
9E22
330
9DA8
100
AcDbEntity
  8
1
  6
Continuous
100
AcDbCircle
 10
208.581488
 20
229.991577
 30
0.0
 40
3.5
100
AcDbArc
 50
270.00002
 51
338.5410199999999
  0
ARC
  5
9E23
330
9DA8
100
AcDbEntity
  8
1
  6
Continuous
100
AcDbCircle
 10
202.3814869999999
 20
226.566581
 30
0.0
 40
3.174999999999998
100
AcDbArc
 50
330.2600799999999
 51
0.0
  0
ARC
  5
9E24
330
9DA8
100
AcDbEntity
  8
1
  6
Continuous
100
AcDbCircle
 10
186.1314869999999
 20
226.5665779999999
 30
0.0
 40
3.174999999999998
100
AcDbArc
 50
330.26013
 51
0.0
  0
ARC
  5
9E25
330
9DA8
100
AcDbEntity
  8
1
  6
Continuous
100
AcDbCircle
 10
192.359102
 20
226.5665779999999
 30
0.0
 40
3.174999999999998
100
AcDbArc
 50
191.2671299999999
 51
209.7398499999999
  0
ARC
  5
9E26
330
9DA8
100
AcDbEntity
  8
1
  6
Continuous
100
AcDbCircle
 10
197.635759
 20
226.5665779999999
 30
0.0
 40
3.174999999999998
100
AcDbArc
 50
330.26013
 51
0.0
  0
ARC
  5
9E27
330
9DA8
100
AcDbEntity
  8
1
  6
Continuous
100
AcDbCircle
 10
201.155703
 20
226.5665779999999
 30
0.0
 40
3.174999999999998
100
AcDbArc
 50
330.26013
 51
0.0
  0
ARC
  5
9E28
330
9DA8
100
AcDbEntity
  8
1
  6
Continuous
100
AcDbCircle
 10
169.8814869999999
 20
226.566581
 30
0.0
 40
3.174999999999998
100
AcDbArc
 50
179.9999599999999
 51
209.7398899999999
  0
ARC
  5
9E29
330
9DA8
100
AcDbEntity
  8
1
  6
Continuous
100
AcDbCircle
 10
186.1314869999999
 20
226.5665779999999
 30
0.0
 40
3.174999999999998
100
AcDbArc
 50
179.9999599999999
 51
209.7398399999999
  0
ARC
  5
9E2A
330
9DA8
100
AcDbEntity
  8
1
  6
Continuous
100
AcDbCircle
 10
179.903872
 20
226.5665779999999
 30
0.0
 40
3.174999999999998
100
AcDbArc
 50
179.9999599999999
 51
209.7398399999999
  0
ARC
  5
9E2B
330
9DA8
100
AcDbEntity
  8
1
  6
Continuous
100
AcDbCircle
 10
174.627216
 20
226.5665779999999
 30
0.0
 40
3.174999999999998
100
AcDbArc
 50
179.9999599999999
 51
209.7398399999999
  0
ARC
  5
9E2C
330
9DA8
100
AcDbEntity
  8
1
  6
Continuous
100
AcDbCircle
 10
171.107271
 20
226.5665779999999
 30
0.0
 40
3.174999999999998
100
AcDbArc
 50
179.9999599999999
 51
209.7398399999999
  0
ARC
  5
9E2D
330
9DA8
100
AcDbEntity
  8
1
  6
Continuous
100
AcDbCircle
 10
33.68148699999998
 20
229.9915799999999
 30
0.0
 40
3.5
100
AcDbArc
 50
201.4589299999999
 51
270.00002
  0
ARC
  5
9E2E
330
9DA8
100
AcDbEntity
  8
1
  6
Continuous
100
AcDbCircle
 10
78.58148400000001
 20
229.991577
 30
0.0
 40
3.5
100
AcDbArc
 50
270.00002
 51
338.5410199999999
  0
ARC
  5
9E2F
330
9DA8
100
AcDbEntity
  8
1
  6
Continuous
100
AcDbCircle
 10
72.38148699999998
 20
226.566581
 30
0.0
 40
3.174999999999998
100
AcDbArc
 50
330.26005
 51
0.0
  0
ARC
  5
9E30
330
9DA8
100
AcDbEntity
  8
1
  6
Continuous
100
AcDbCircle
 10
56.13148699999999
 20
226.5665779999999
 30
0.0
 40
3.174999999999998
100
AcDbArc
 50
330.26016
 51
0.0
  0
ARC
  5
9E31
330
9DA8
100
AcDbEntity
  8
1
  6
Continuous
100
AcDbCircle
 10
62.359102
 20
226.5665779999999
 30
0.0
 40
3.174999999999998
100
AcDbArc
 50
191.2671299999999
 51
209.7398099999999
  0
ARC
  5
9E32
330
9DA8
100
AcDbEntity
  8
1
  6
Continuous
100
AcDbCircle
 10
67.63575899999999
 20
226.5665779999999
 30
0.0
 40
3.174999999999998
100
AcDbArc
 50
330.26016
 51
0.0
  0
ARC
  5
9E33
330
9DA8
100
AcDbEntity
  8
1
  6
Continuous
100
AcDbCircle
 10
71.155703
 20
226.5665779999999
 30
0.0
 40
3.174999999999998
100
AcDbArc
 50
330.26016
 51
0.0
  0
ARC
  5
9E34
330
9DA8
100
AcDbEntity
  8
1
  6
Continuous
100
AcDbCircle
 10
39.88148699999999
 20
226.566581
 30
0.0
 40
3.174999999999998
100
AcDbArc
 50
179.9999599999999
 51
209.7399199999999
  0
ARC
  5
9E35
330
9DA8
100
AcDbEntity
  8
1
  6
Continuous
100
AcDbCircle
 10
56.13148699999999
 20
226.5665779999999
 30
0.0
 40
3.174999999999998
100
AcDbArc
 50
179.9999599999999
 51
209.7397999999999
  0
ARC
  5
9E36
330
9DA8
100
AcDbEntity
  8
1
  6
Continuous
100
AcDbCircle
 10
49.903867
 20
226.5665779999999
 30
0.0
 40
3.174999999999998
100
AcDbArc
 50
179.9999599999999
 51
209.7397999999999
  0
ARC
  5
9E37
330
9DA8
100
AcDbEntity
  8
1
  6
Continuous
100
AcDbCircle
 10
44.627217
 20
226.5665779999999
 30
0.0
 40
3.174999999999998
100
AcDbArc
 50
179.9999599999999
 51
209.7397999999999
  0
ARC
  5
9E38
330
9DA8
100
AcDbEntity
  8
1
  6
Continuous
100
AcDbCircle
 10
41.10726699999999
 20
226.5665779999999
 30
0.0
 40
3.174999999999998
100
AcDbArc
 50
179.9999599999999
 51
209.7397999999999
  0
ARC
  5
9E39
330
9DA8
100
AcDbEntity
  8
1
  6
Continuous
100
AcDbCircle
 10
158.6314849999999
 20
282.3915799999998
 30
0.0
 40
7.5
100
AcDbArc
 50
162.50042
 51
269.99995
  0
ARC
  5
9E3A
330
9DA8
100
AcDbEntity
  8
1
  6
Continuous
100
AcDbCircle
 10
158.6314889999998
 20
325.3915799999998
 30
0.0
 40
7.5
100
AcDbArc
 50
89.99999599999998
 51
197.4996199999999
  0
ARC
  5
9E3B
330
9DA8
100
AcDbEntity
  8
1
  6
Continuous
100
AcDbCircle
 10
213.631487
 20
282.3915799999998
 30
0.0
 40
7.5
100
AcDbArc
 50
270.0000299999999
 51
17.49957999999999
  0
ARC
  5
9E3C
330
9DA8
100
AcDbEntity
  8
1
  6
Continuous
100
AcDbCircle
 10
213.631487
 20
325.3915799999998
 30
0.0
 40
7.5
100
AcDbArc
 50
342.50037
 51
89.99999599999998
  0
ARC
  5
9E3D
330
9DA8
100
AcDbEntity
  8
1
  6
Continuous
100
AcDbCircle
 10
281.822397
 20
303.8915719999998
 30
0.0
 40
64.0
100
AcDbArc
 50
162.5003899999998
 51
197.4996199999999
  0
ARC
  5
9E3E
330
9DA8
100
AcDbEntity
  8
1
  6
Continuous
100
AcDbCircle
 10
90.44057700000001
 20
303.891588
 30
0.0
 40
64.0
100
AcDbArc
 50
342.50037
 51
17.499607
  0
CIRCLE
  5
9E3F
330
9DA8
100
AcDbEntity
  8
1
  6
Continuous
100
AcDbCircle
 10
158.6314849999999
 20
282.8915799999998
 30
0.0
 40
4.4
  0
CIRCLE
  5
9E40
330
9DA8
100
AcDbEntity
  8
1
  6
Continuous
100
AcDbCircle
 10
158.6314889999998
 20
324.8915799999998
 30
0.0
 40
4.4
  0
CIRCLE
  5
9E41
330
9DA8
100
AcDbEntity
  8
1
  6
Continuous
100
AcDbCircle
 10
213.631487
 20
282.8915799999998
 30
0.0
 40
4.4
  0
CIRCLE
  5
9E42
330
9DA8
100
AcDbEntity
  8
1
  6
Continuous
100
AcDbCircle
 10
213.631487
 20
324.8915799999998
 30
0.0
 40
4.4
  0
CIRCLE
  5
9E43
330
9DA8
100
AcDbEntity
  8
1
  6
Continuous
100
AcDbCircle
 10
186.1314869999999
 20
303.8915799999998
 30
0.0
 40
23.200001
  0
CIRCLE
  5
9E44
330
9DA8
100
AcDbEntity
  8
1
  6
Continuous
100
AcDbCircle
 10
186.1314869999999
 20
303.8915799999998
 30
0.0
 40
21.700001
  0
CIRCLE
  5
9E45
330
9DA8
100
AcDbEntity
  8
1
  6
Continuous
100
AcDbCircle
 10
186.1314869999999
 20
303.8915799999998
 30
0.0
 40
11.4
  0
ARC
  5
9E46
330
9DA8
100
AcDbEntity
  8
1
  6
Continuous
100
AcDbCircle
 10
186.131501
 20
303.89161
 30
0.0
 40
8.0
100
AcDbArc
 50
15.962
 51
74.03891800000002
  0
ARC
  5
9E47
330
9DA8
100
AcDbEntity
  8
1
  6
Continuous
100
AcDbCircle
 10
187.731501
 20
305.4916089999998
 30
0.0
 40
0.5
100
AcDbArc
 50
180.00003
 51
270.0
  0
ARC
  5
9E48
330
9DA8
100
AcDbEntity
  8
1
  6
Continuous
100
AcDbCircle
 10
188.168571
 20
319.985027
 30
0.0
 40
15.0
100
AcDbArc
 50
268.2726999999998
 51
292.1458399999999
  0
ARC
  5
9E49
330
9DA8
100
AcDbEntity
  8
1
  6
Continuous
100
AcDbCircle
 10
202.224837
 20
305.928761
 30
0.0
 40
15.0
100
AcDbArc
 50
157.85431
 51
181.72746
  0
ARC
  5
9E4A
330
9DA8
100
AcDbEntity
  8
1
  6
Continuous
100
AcDbCircle
 10
170.038087
 20
305.928682
 30
0.0
 40
15.0
100
AcDbArc
 50
358.27267
 51
22.14583999999999
  0
ARC
  5
9E4B
330
9DA8
100
AcDbEntity
  8
1
  6
Continuous
100
AcDbCircle
 10
184.094345
 20
319.984952
 30
0.0
 40
15.0
100
AcDbArc
 50
247.8543099999999
 51
271.72746
  0
ARC
  5
9E4C
330
9DA8
100
AcDbEntity
  8
1
  6
Continuous
100
AcDbCircle
 10
184.5315
 20
305.4916079999998
 30
0.0
 40
0.5
100
AcDbArc
 50
270.0000299999999
 51
0.0
  0
ARC
  5
9E4D
330
9DA8
100
AcDbEntity
  8
1
  6
Continuous
100
AcDbCircle
 10
184.0944289999999
 20
287.798195
 30
0.0
 40
15.0
100
AcDbArc
 50
88.272677
 51
112.1458279999999
  0
ARC
  5
9E4E
330
9DA8
100
AcDbEntity
  8
1
  6
Continuous
100
AcDbCircle
 10
170.0381639999999
 20
301.854458
 30
0.0
 40
15.0
100
AcDbArc
 50
337.8543
 51
1.72747
  0
ARC
  5
9E4F
330
9DA8
100
AcDbEntity
  8
1
  6
Continuous
100
AcDbCircle
 10
184.5315019999999
 20
302.2916099999998
 30
0.0
 40
0.5
100
AcDbArc
 50
0.00002
 51
90.00000500000002
  0
ARC
  5
9E50
330
9DA8
100
AcDbEntity
  8
1
  6
Continuous
100
AcDbCircle
 10
202.2249159999998
 20
301.8545379999999
 30
0.0
 40
15.0
100
AcDbArc
 50
178.2726699999997
 51
202.14585
  0
ARC
  5
9E51
330
9DA8
100
AcDbEntity
  8
1
  6
Continuous
100
AcDbCircle
 10
188.168652
 20
287.7982739999998
 30
0.0
 40
15.0
100
AcDbArc
 50
67.854298
 51
91.72746899999998
  0
ARC
  5
9E52
330
9DA8
100
AcDbEntity
  8
1
  6
Continuous
100
AcDbCircle
 10
187.731502
 20
302.291612
 30
0.0
 40
0.5
100
AcDbArc
 50
90.00000500000002
 51
180.0
  0
ARC
  5
9E53
330
9DA8
100
AcDbEntity
  8
1
  6
Continuous
100
AcDbCircle
 10
186.131501
 20
303.89161
 30
0.0
 40
8.0
100
AcDbArc
 50
105.962102
 51
164.0389099999999
  0
ARC
  5
9E54
330
9DA8
100
AcDbEntity
  8
1
  6
Continuous
100
AcDbCircle
 10
186.131501
 20
303.89161
 30
0.0
 40
8.0
100
AcDbArc
 50
195.96204
 51
254.0389499999998
  0
ARC
  5
9E55
330
9DA8
100
AcDbEntity
  8
1
  6
Continuous
100
AcDbCircle
 10
186.131501
 20
303.89161
 30
0.0
 40
8.0
100
AcDbArc
 50
285.9620599999999
 51
344.0390299999998
  0
ARC
  5
9E56
330
9DA8
100
AcDbEntity
  8
1
  6
Continuous
100
AcDbCircle
 10
180.736184
 20
301.822643
 30
0.0
 40
2.299999999999998
100
AcDbArc
 50
115.900792
 51
183.2629599999999
  0
ARC
  5
9E57
330
9DA8
100
AcDbEntity
  8
1
  6
Continuous
100
AcDbCircle
 10
180.736187
 20
305.9605799999999
 30
0.0
 40
2.299999999999998
100
AcDbArc
 50
176.7370399999999
 51
244.0992099999998
  0
ARC
  5
9E58
330
9DA8
100
AcDbEntity
  8
1
  6
Continuous
100
AcDbCircle
 10
184.062534
 20
309.286927
 30
0.0
 40
2.299999999999998
100
AcDbArc
 50
25.90079
 51
93.26296000000002
  0
ARC
  5
9E59
330
9DA8
100
AcDbEntity
  8
1
  6
Continuous
100
AcDbCircle
 10
188.200473
 20
309.286927
 30
0.0
 40
2.299999999999998
100
AcDbArc
 50
86.73704200000001
 51
154.0992099999999
  0
ARC
  5
9E5A
330
9DA8
100
AcDbEntity
  8
1
  6
Continuous
100
AcDbCircle
 10
191.5268189999999
 20
305.960577
 30
0.0
 40
2.299999999999998
100
AcDbArc
 50
295.9008
 51
3.262959999999998
  0
ARC
  5
9E5B
330
9DA8
100
AcDbEntity
  8
1
  6
Continuous
100
AcDbCircle
 10
191.5268179999999
 20
301.8226379999998
 30
0.0
 40
2.299999999999998
100
AcDbArc
 50
356.7370499999999
 51
64.09921700000001
  0
ARC
  5
9E5C
330
9DA8
100
AcDbEntity
  8
1
  6
Continuous
100
AcDbCircle
 10
188.200468
 20
298.496293
 30
0.0
 40
2.299999999999998
100
AcDbArc
 50
205.90079
 51
273.2629499999998
  0
ARC
  5
9E5D
330
9DA8
100
AcDbEntity
  8
1
  6
Continuous
100
AcDbCircle
 10
184.06253
 20
298.496293
 30
0.0
 40
2.299999999999998
100
AcDbArc
 50
266.73705
 51
334.09922
  0
ARC
  5
9E5E
330
9DA8
100
AcDbEntity
  8
1
  6
Continuous
100
AcDbCircle
 10
49.903867
 20
226.5665779999999
 30
0.0
 40
3.174999999999998
100
AcDbArc
 50
330.26016
 51
348.7328699999998
  0
ARC
  5
9E5F
330
9DA8
100
AcDbEntity
  8
1
  6
Continuous
100
AcDbCircle
 10
62.359102
 20
226.5665779999999
 30
0.0
 40
3.174999999999998
100
AcDbArc
 50
330.26016
 51
0.0
  0
ARC
  5
9E60
330
9DA8
100
AcDbEntity
  8
1
  6
Continuous
100
AcDbCircle
 10
179.903872
 20
226.5665779999999
 30
0.0
 40
3.174999999999998
100
AcDbArc
 50
330.26013
 51
348.7328699999998
  0
ARC
  5
9E61
330
9DA8
100
AcDbEntity
  8
1
  6
Continuous
100
AcDbCircle
 10
192.359102
 20
226.5665779999999
 30
0.0
 40
3.174999999999998
100
AcDbArc
 50
330.26013
 51
0.0
  0
ARC
  5
9E62
330
9DA8
100
AcDbEntity
  8
1
  6
Continuous
100
AcDbCircle
 10
204.930304
 20
209.9915779999999
 30
0.0
 40
8.0
100
AcDbArc
 50
89.99998199999996
 51
142.0488399999999
  0
ARC
  5
9E63
330
9DA8
100
AcDbEntity
  8
1
  6
Continuous
100
AcDbCircle
 10
164.431486
 20
221.4915779999997
 30
0.0
 40
3.5
100
AcDbArc
 50
89.99998199999996
 51
179.9999599999999
  0
ARC
  5
9E64
330
9DA8
100
AcDbEntity
  8
1
  6
Continuous
100
AcDbCircle
 10
165.131487
 20
179.89158
 30
0.0
 40
8.5
100
AcDbArc
 50
174.3469299999999
 51
322.76679
  0
ARC
  5
9E65
330
9DA8
100
AcDbEntity
  8
1
  6
Continuous
100
AcDbCircle
 10
174.406122
 20
212.601114
 30
0.0
 40
15.0
100
AcDbArc
 50
153.9367
 51
174.3469299999999
  0
ARC
  5
9E66
330
9DA8
100
AcDbEntity
  8
1
  6
Continuous
100
AcDbCircle
 10
69.63148699999999
 20
221.1915789999999
 30
0.0
 40
1.0
100
AcDbArc
 50
101.96231
 51
270.0
  0
ARC
  5
9E67
330
9DA8
100
AcDbEntity
  8
1
  6
Continuous
100
AcDbCircle
 10
72.88148699999998
 20
221.3915799999998
 30
0.0
 40
1.199999999999999
100
AcDbArc
 50
270.00002
 51
99.88999300000001
  0
ARC
  5
9E68
330
9DA8
100
AcDbEntity
  8
1
  6
Continuous
100
AcDbCircle
 10
62.43190999999999
 20
214.291891
 30
0.0
 40
12.0
100
AcDbArc
 50
0.0
 51
29.44848
  0
ARC
  5
9E69
330
9DA8
100
AcDbEntity
  8
1
  6
Continuous
100
AcDbCircle
 10
60.13885699999999
 20
214.6121839999999
 30
0.0
 40
12.0
100
AcDbArc
 50
357.9913499999999
 51
19.77081799999998
  0
ARC
  5
9E6A
330
9DA8
100
AcDbEntity
  8
1
  6
Continuous
100
AcDbCircle
 10
73.56956700000002
 20
202.6041769999999
 30
0.0
 40
20.0
100
AcDbArc
 50
92.09751899999998
 51
101.96228
  0
ARC
  5
9E6B
330
9DA8
100
AcDbEntity
  8
1
  6
Continuous
100
AcDbCircle
 10
71.80817600000001
 20
228.6641939999999
 30
0.0
 40
10.0
100
AcDbArc
 50
242.15877
 51
267.84121
  0
ARC
  5
9E6C
330
9DA8
100
AcDbEntity
  8
1
  6
Continuous
100
AcDbCircle
 10
42.631487
 20
221.1915789999999
 30
0.0
 40
1.0
100
AcDbArc
 50
269.9999599999998
 51
78.03765700000003
  0
ARC
  5
9E6D
330
9DA8
100
AcDbEntity
  8
1
  6
Continuous
100
AcDbCircle
 10
39.381487
 20
221.3915799999998
 30
0.0
 40
1.199999999999999
100
AcDbArc
 50
80.109971
 51
269.99995
  0
ARC
  5
9E6E
330
9DA8
100
AcDbEntity
  8
1
  6
Continuous
100
AcDbCircle
 10
49.831067
 20
214.291891
 30
0.0
 40
12.0
100
AcDbArc
 50
150.55148
 51
179.9999599999999
  0
ARC
  5
9E6F
330
9DA8
100
AcDbEntity
  8
1
  6
Continuous
100
AcDbCircle
 10
52.124117
 20
214.6121839999999
 30
0.0
 40
12.0
100
AcDbArc
 50
160.2291499999997
 51
182.00861
  0
ARC
  5
9E70
330
9DA8
100
AcDbEntity
  8
1
  6
Continuous
100
AcDbCircle
 10
38.693407
 20
202.6041769999999
 30
0.0
 40
20.0
100
AcDbArc
 50
78.037684
 51
87.902445
  0
ARC
  5
9E71
330
9DA8
100
AcDbEntity
  8
1
  6
Continuous
100
AcDbCircle
 10
40.454797
 20
228.6641939999999
 30
0.0
 40
10.0
100
AcDbArc
 50
272.15877
 51
297.8412099999999
  0
ARC
  5
9E72
330
9DA8
100
AcDbEntity
  8
1
  6
Continuous
100
AcDbCircle
 10
77.13148699999995
 20
221.4915779999997
 30
0.0
 40
3.5
100
AcDbArc
 50
0.0
 51
89.99998199999996
  0
ARC
  5
9E73
330
9DA8
100
AcDbEntity
  8
1
  6
Continuous
100
AcDbCircle
 10
35.13149699999999
 20
221.4915779999997
 30
0.0
 40
3.5
100
AcDbArc
 50
89.99998199999996
 51
179.9999599999999
  0
ARC
  5
9E74
330
9DA8
100
AcDbEntity
  8
1
  6
Continuous
100
AcDbCircle
 10
70.83149899999998
 20
193.490701
 30
0.0
 40
9.8
100
AcDbArc
 50
306.4646
 51
359.91775
  0
ARC
  5
9E75
330
9DA8
100
AcDbEntity
  8
1
  6
Continuous
100
AcDbCircle
 10
41.431477
 20
193.490701
 30
0.0
 40
9.8
100
AcDbArc
 50
180.08223
 51
238.3562799999999
  0
LINE
  5
9E76
330
9DA8
100
AcDbEntity
  8
1
  6
Continuous
100
AcDbLine
 10
47.574443
 20
220.3695259999999
 30
0.0
 11
64.68853100000001
 21
220.3695259999999
 31
0.0
  0
LINE
  5
9E77
330
9DA8
100
AcDbEntity
  8
4
  6
CENTER
 48
0.8
100
AcDbLine
 10
165.131487
 20
335.8915799999998
 30
0.0
 11
165.131487
 21
271.8915799999999
 31
0.0
  0
LINE
  5
9E78
330
9DA8
100
AcDbEntity
  8
4
  6
CENTER
 48
0.8
100
AcDbLine
 10
122.631487
 20
70.89158000000002
 30
0.0
 11
222.822397
 21
70.89158000000002
 31
0.0
  0
LINE
  5
9E79
330
9DA8
100
AcDbEntity
  8
1
  6
Continuous
100
AcDbLine
 10
158.6314889999998
 20
41.89157999999999
 30
0.0
 11
213.631487
 21
41.89157999999999
 31
0.0
  0
LINE
  5
9E7A
330
9DA8
100
AcDbEntity
  8
1
  6
Continuous
100
AcDbLine
 10
158.6314849999999
 20
99.89158000000001
 30
0.0
 11
213.631487
 21
99.89158000000001
 31
0.0
  0
LINE
  5
9E7B
330
9DA8
100
AcDbEntity
  8
4
  6
CENTER
 48
0.8
100
AcDbLine
 10
165.131487
 20
38.89157999999999
 30
0.0
 11
165.131487
 21
102.89158
 31
0.0
  0
LINE
  5
9E7C
330
9DA8
100
AcDbEntity
  8
4
  6
CENTER
 48
0.8
100
AcDbLine
 10
186.1314869999999
 20
36.89157999999999
 30
0.0
 11
186.1314869999999
 21
104.89158
 31
0.0
  0
ARC
  5
9E7D
330
9DA8
100
AcDbEntity
  8
1
  6
Continuous
100
AcDbCircle
 10
90.44057700000001
 20
70.89157199999998
 30
0.0
 40
64.0
100
AcDbArc
 50
342.5003929999998
 51
348.7370279999999
  0
LINE
  5
9E7E
330
9DA8
100
AcDbEntity
  8
4
  6
CENTER
 48
0.8
100
AcDbLine
 10
152.631487
 20
91.89158
 30
0.0
 11
164.6314849999999
 21
91.89158
 31
0.0
  0
ARC
  5
9E7F
330
9DA8
100
AcDbEntity
  8
1
  6
Continuous
100
AcDbCircle
 10
158.6314849999999
 20
92.39158000000001
 30
0.0
 40
7.5
100
AcDbArc
 50
90.00004999999999
 51
197.49958
  0
ARC
  5
9E80
330
9DA8
100
AcDbEntity
  8
1
  6
Continuous
100
AcDbCircle
 10
158.6314849999999
 20
91.89158
 30
0.0
 40
4.4
100
AcDbArc
 50
6.524873999999998
 51
242.964337
  0
LINE
  5
9E81
330
9DA8
100
AcDbEntity
  8
4
  6
CENTER
 48
0.8
100
AcDbLine
 10
158.6314869999999
 20
85.89158000000002
 30
0.0
 11
158.6314869999999
 21
97.89158
 31
0.0
  0
LINE
  5
9E82
330
9DA8
100
AcDbEntity
  8
4
  6
CENTER
 48
0.8
100
AcDbLine
 10
152.631487
 20
49.89157999999999
 30
0.0
 11
164.631489
 21
49.89157999999999
 31
0.0
  0
ARC
  5
9E83
330
9DA8
100
AcDbEntity
  8
1
  6
Continuous
100
AcDbCircle
 10
158.6314889999998
 20
49.89157999999999
 30
0.0
 40
4.4
100
AcDbArc
 50
117.0357189999999
 51
9.154132999999999
  0
ARC
  5
9E84
330
9DA8
100
AcDbEntity
  8
1
  6
Continuous
100
AcDbCircle
 10
158.6314889999998
 20
49.39157999999999
 30
0.0
 40
7.5
100
AcDbArc
 50
162.5003799999998
 51
270.0000039999998
  0
LINE
  5
9E85
330
9DA8
100
AcDbEntity
  8
4
  6
CENTER
 48
0.8
100
AcDbLine
 10
158.6314869999999
 20
55.89158000000001
 30
0.0
 11
158.6314869999999
 21
43.89158
 31
0.0
  0
ARC
  5
9E86
330
9DA8
100
AcDbEntity
  8
1
  6
Continuous
100
AcDbCircle
 10
281.822397
 20
70.89158799999998
 30
0.0
 40
64.0
100
AcDbArc
 50
162.5003799999998
 51
197.49961
  0
ARC
  5
9E87
330
9DA8
100
AcDbEntity
  8
1
  6
Continuous
100
AcDbCircle
 10
213.631487
 20
92.39158000000001
 30
0.0
 40
7.5
100
AcDbArc
 50
342.50042
 51
89.99996999999996
  0
CIRCLE
  5
9E88
330
9DA8
100
AcDbEntity
  8
1
  6
Continuous
100
AcDbCircle
 10
213.631487
 20
91.89158
 30
0.0
 40
4.4
  0
LINE
  5
9E89
330
9DA8
100
AcDbEntity
  8
4
  6
CENTER
 48
0.8
100
AcDbLine
 10
219.631487
 20
91.89158
 30
0.0
 11
207.631487
 21
91.89158
 31
0.0
  0
LINE
  5
9E8A
330
9DA8
100
AcDbEntity
  8
4
  6
CENTER
 48
0.8
100
AcDbLine
 10
213.631487
 20
85.89158000000002
 30
0.0
 11
213.631487
 21
97.89158
 31
0.0
  0
CIRCLE
  5
9E8B
330
9DA8
100
AcDbEntity
  8
1
  6
Continuous
100
AcDbCircle
 10
213.631487
 20
49.89157999999999
 30
0.0
 40
4.4
  0
LINE
  5
9E8C
330
9DA8
100
AcDbEntity
  8
4
  6
CENTER
 48
0.8
100
AcDbLine
 10
219.631487
 20
49.89157999999999
 30
0.0
 11
207.631487
 21
49.89157999999999
 31
0.0
  0
ARC
  5
9E8D
330
9DA8
100
AcDbEntity
  8
1
  6
Continuous
100
AcDbCircle
 10
213.631487
 20
49.39157999999999
 30
0.0
 40
7.5
100
AcDbArc
 50
270.0000039999998
 51
17.49963
  0
LINE
  5
9E8E
330
9DA8
100
AcDbEntity
  8
4
  6
CENTER
 48
0.8
100
AcDbLine
 10
213.631487
 20
55.89158000000001
 30
0.0
 11
213.631487
 21
43.89158
 31
0.0
  0
LINE
  5
9E8F
330
9DA8
100
AcDbEntity
  8
1
  6
Continuous
100
AcDbLine
 10
156.631487
 20
52.59158000000001
 30
0.0
 11
178.881583
 21
52.59158000000001
 31
0.0
  0
LINE
  5
9E90
330
9DA8
100
AcDbEntity
  8
1
  6
Continuous
100
AcDbLine
 10
156.631487
 20
54.89157999999999
 30
0.0
 11
177.6426879999999
 21
54.89157999999999
 31
0.0
  0
ARC
  5
9E91
330
9DA8
100
AcDbEntity
  8
1
  6
Continuous
100
AcDbCircle
 10
160.95492
 20
52.09158
 30
0.0
 40
1.5
100
AcDbArc
 50
178.051186
 51
269.9999599999998
  0
LINE
  5
9E92
330
9DA8
100
AcDbEntity
  8
1
  6
Continuous
100
AcDbLine
 10
159.4557969999998
 20
52.14256999999999
 30
0.0
 11
161.131479
 21
52.59157
 31
0.0
  0
LINE
  5
9E93
330
9DA8
100
AcDbEntity
  8
1
  6
Continuous
100
AcDbLine
 10
161.1314869999999
 20
54.89157999999999
 30
0.0
 11
161.1314869999999
 21
55.89158000000001
 31
0.0
  0
ARC
  5
9E94
330
9DA8
100
AcDbEntity
  8
1
  6
Continuous
100
AcDbCircle
 10
169.308031
 20
52.09158
 30
0.0
 40
1.5
100
AcDbArc
 50
269.99998
 51
1.94882
  0
LINE
  5
9E95
330
9DA8
100
AcDbEntity
  8
1
  6
Continuous
100
AcDbLine
 10
170.807161
 20
52.14259000000001
 30
0.0
 11
169.131487
 21
52.59158000000001
 31
0.0
  0
LINE
  5
9E96
330
9DA8
100
AcDbEntity
  8
1
  6
Continuous
100
AcDbLine
 10
169.131487
 20
54.89157999999999
 30
0.0
 11
169.131487
 21
55.89158000000001
 31
0.0
  0
LINE
  5
9E97
330
9DA8
100
AcDbEntity
  8
1
  6
Continuous
100
AcDbLine
 10
170.8071689999998
 20
52.14255
 30
0.0
 11
159.4557899999998
 21
52.14255
 31
0.0
  0
LINE
  5
9E98
330
9DA8
100
AcDbEntity
  8
1
  6
Continuous
100
AcDbLine
 10
160.95492
 20
50.59158
 30
0.0
 11
169.308031
 21
50.59158
 31
0.0
  0
LINE
  5
9E99
330
9DA8
100
AcDbEntity
  8
1
  6
Continuous
100
AcDbLine
 10
156.631487
 20
86.89158
 30
0.0
 11
177.6426879999999
 21
86.89158
 31
0.0
  0
LINE
  5
9E9A
330
9DA8
100
AcDbEntity
  8
1
  6
Continuous
100
AcDbLine
 10
156.631487
 20
89.19158299999997
 30
0.0
 11
178.881584
 21
89.19158299999997
 31
0.0
  0
LINE
  5
9E9B
330
9DA8
100
AcDbEntity
  8
1
  6
Continuous
100
AcDbLine
 10
159.1314869999999
 20
89.191575
 30
0.0
 11
159.1314869999999
 21
90.391572
 31
0.0
  0
LINE
  5
9E9C
330
9DA8
100
AcDbEntity
  8
1
  6
Continuous
100
AcDbLine
 10
171.1314869999999
 20
89.191575
 30
0.0
 11
171.1314869999999
 21
90.391572
 31
0.0
  0
LINE
  5
9E9D
330
9DA8
100
AcDbEntity
  8
1
  6
Continuous
100
AcDbLine
 10
161.1314869999999
 20
85.89158000000002
 30
0.0
 11
161.1314869999999
 21
86.89158
 31
0.0
  0
LINE
  5
9E9E
330
9DA8
100
AcDbEntity
  8
1
  6
Continuous
100
AcDbLine
 10
169.131487
 20
85.89158000000002
 30
0.0
 11
169.131487
 21
86.89158
 31
0.0
  0
ARC
  5
9E9F
330
9DA8
100
AcDbEntity
  8
1
  6
Continuous
100
AcDbCircle
 10
161.1314869999999
 20
90.391572
 30
0.0
 40
2.0
100
AcDbArc
 50
90.0
 51
179.999982
  0
ARC
  5
9EA0
330
9DA8
100
AcDbEntity
  8
1
  6
Continuous
100
AcDbCircle
 10
169.131487
 20
90.391572
 30
0.0
 40
2.0
100
AcDbArc
 50
0.00002
 51
90.0
  0
LINE
  5
9EA1
330
9DA8
100
AcDbEntity
  8
1
  6
Continuous
100
AcDbLine
 10
161.1314869999999
 20
92.39157199999999
 30
0.0
 11
169.131487
 21
92.39157199999999
 31
0.0
  0
ARC
  5
9EA2
330
9DA8
100
AcDbEntity
  8
1
  6
Continuous
100
AcDbCircle
 10
90.44057700000001
 20
70.89157199999998
 30
0.0
 40
64.0
100
AcDbArc
 50
11.26298699999999
 51
17.49963
  0
LINE
  5
9EA3
330
9DA8
100
AcDbEntity
  8
1
  6
Continuous
100
AcDbLine
 10
156.631487
 20
89.19158299999997
 30
0.0
 11
156.631487
 21
86.89158
 31
0.0
  0
LINE
  5
9EA4
330
9DA8
100
AcDbEntity
  8
1
  6
Continuous
100
AcDbLine
 10
156.631487
 20
54.89157999999999
 30
0.0
 11
156.631487
 21
52.59158000000001
 31
0.0
  0
ARC
  5
9EA5
330
9DA8
100
AcDbEntity
  8
1
  6
Continuous
100
AcDbCircle
 10
186.1314869999999
 20
70.89158000000002
 30
0.0
 40
26.24999600000001
100
AcDbArc
 50
230.6211989999999
 51
126.7635509999997
  0
ARC
  5
9EA6
330
9DA8
100
AcDbEntity
  8
1
  6
Continuous
100
AcDbCircle
 10
186.1314869999999
 20
70.89158000000002
 30
0.0
 40
20.40000099999998
100
AcDbArc
 50
258.9251679999999
 51
101.074832
  0
ARC
  5
9EA7
330
9DA8
100
AcDbEntity
  8
1
  6
Continuous
100
AcDbCircle
 10
186.1314869999999
 20
70.89158000000002
 30
0.0
 40
13.900001
100
AcDbArc
 50
244.063654
 51
295.936346
  0
ARC
  5
9EA8
330
9DA8
100
AcDbEntity
  8
1
  6
Continuous
100
AcDbCircle
 10
186.1314869999999
 20
70.89158000000002
 30
0.0
 40
13.900001
100
AcDbArc
 50
64.063654
 51
115.936346
  0
ARC
  5
9EA9
330
9DA8
100
AcDbEntity
  8
1
  6
Continuous
100
AcDbCircle
 10
273.1314949999999
 20
175.89158
 30
0.0
 40
2.0
100
AcDbArc
 50
180.0
 51
269.99998
  0
LINE
  5
9EAA
330
9DA8
100
AcDbEntity
  8
1
  6
Continuous
100
AcDbLine
 10
274.331484
 20
185.700803
 30
0.0
 11
274.331484
 21
171.39158
 31
0.0
  0
LINE
  5
9EAB
330
9DA8
100
AcDbEntity
  8
1
  6
Continuous
100
AcDbLine
 10
276.6314869999998
 20
217.9915779999999
 30
0.0
 11
276.6314869999998
 21
171.39158
 31
0.0
  0
LINE
  5
9EAC
330
9DA8
100
AcDbEntity
  8
1
  6
Continuous
100
AcDbLine
 10
311.3804769999998
 20
174.2159059999999
 30
0.0
 11
310.9314869999999
 21
175.89158
 31
0.0
  0
ARC
  5
9EAD
330
9DA8
100
AcDbEntity
  8
1
  6
Continuous
100
AcDbCircle
 10
311.431487
 20
175.7150359999999
 30
0.0
 40
1.5
100
AcDbArc
 50
268.05118
 51
0.00002
  0
LINE
  5
9EAE
330
9DA8
100
AcDbEntity
  8
1
  6
Continuous
100
AcDbLine
 10
311.380517
 20
174.215898
 30
0.0
 11
311.380517
 21
185.567258
 31
0.0
  0
LINE
  5
9EAF
330
9DA8
100
AcDbEntity
  8
1
  6
Continuous
100
AcDbLine
 10
308.6314869999998
 20
217.9915779999999
 30
0.0
 11
308.6314869999998
 21
171.39158
 31
0.0
  0
LINE
  5
9EB0
330
9DA8
100
AcDbEntity
  8
1
  6
Continuous
100
AcDbLine
 10
310.9314869999999
 20
185.700802
 30
0.0
 11
310.9314869999999
 21
171.39158
 31
0.0
  0
LINE
  5
9EB1
330
9DA8
100
AcDbEntity
  8
4
  6
CENTER
 48
0.8
100
AcDbLine
 10
292.631487
 20
237.3915799999998
 30
0.0
 11
292.631487
 21
137.39158
 31
0.0
  0
LINE
  5
9EB2
330
9DA8
100
AcDbEntity
  8
1
  6
Continuous
100
AcDbLine
 10
310.9314869999999
 20
171.39158
 30
0.0
 11
308.6314869999998
 21
171.39158
 31
0.0
  0
LINE
  5
9EB3
330
9DA8
100
AcDbEntity
  8
1
  6
Continuous
100
AcDbLine
 10
274.3314919999999
 20
173.89158
 30
0.0
 11
273.1314949999999
 21
173.89158
 31
0.0
  0
LINE
  5
9EB4
330
9DA8
100
AcDbEntity
  8
1
  6
Continuous
100
AcDbLine
 10
276.6314869999998
 20
171.39158
 30
0.0
 11
274.331484
 21
171.39158
 31
0.0
  0
LINE
  5
9EB5
330
9DA8
100
AcDbEntity
  8
1
  6
Continuous
100
AcDbLine
 10
313.631477
 20
224.9915779999998
 30
0.0
 11
271.631487
 21
224.9915779999998
 31
0.0
  0
LINE
  5
9EB6
330
9DA8
100
AcDbEntity
  8
4
  6
CENTER
 48
0.8
100
AcDbLine
 10
317.931487
 20
179.89158
 30
0.0
 11
266.1314949999999
 21
179.89158
 31
0.0
  0
LINE
  5
9EB7
330
9DA8
100
AcDbEntity
  8
1
  6
Continuous
100
AcDbLine
 10
321.631487
 20
232.3915799999999
 30
0.0
 11
263.631487
 21
232.3915799999999
 31
0.0
  0
LINE
  5
9EB8
330
9DA8
100
AcDbEntity
  8
1
  6
Continuous
100
AcDbLine
 10
321.631487
 20
230.0915809999999
 30
0.0
 11
263.631487
 21
230.0915809999999
 31
0.0
  0
LINE
  5
9EB9
330
9DA8
100
AcDbEntity
  8
1
  6
Continuous
100
AcDbLine
 10
315.081487
 20
226.4915779999999
 30
0.0
 11
270.17836
 21
226.4915779999999
 31
0.0
  0
ARC
  5
9EBA
330
9DA8
100
AcDbEntity
  8
1
  6
Continuous
100
AcDbCircle
 10
313.631477
 20
221.4915779999997
 30
0.0
 40
3.5
100
AcDbArc
 50
0.00004
 51
90.00001800000005
  0
LINE
  5
9EBB
330
9DA8
100
AcDbEntity
  8
1
  6
Continuous
100
AcDbLine
 10
308.6314869999998
 20
183.89158
 30
0.0
 11
307.631487
 21
183.89158
 31
0.0
  0
ARC
  5
9EBC
330
9DA8
100
AcDbEntity
  8
1
  6
Continuous
100
AcDbCircle
 10
311.431487
 20
184.0681469999999
 30
0.0
 40
1.5
100
AcDbArc
 50
0.00004
 51
0.608247
  0
LINE
  5
9EBD
330
9DA8
100
AcDbEntity
  8
1
  6
Continuous
100
AcDbLine
 10
308.6314869999998
 20
175.89158
 30
0.0
 11
307.631487
 21
175.89158
 31
0.0
  0
LINE
  5
9EBE
330
9DA8
100
AcDbEntity
  8
1
  6
Continuous
100
AcDbLine
 10
312.9314869999999
 20
184.0681469999999
 30
0.0
 11
312.9314869999999
 21
175.7150359999999
 31
0.0
  0
ARC
  5
9EBF
330
9DA8
100
AcDbEntity
  8
1
  6
Continuous
100
AcDbCircle
 10
296.6388569999998
 20
214.6121839999999
 30
0.0
 40
12.0
100
AcDbArc
 50
357.9913899999998
 51
0.8876280000000001
  0
ARC
  5
9EC0
330
9DA8
100
AcDbEntity
  8
1
  6
Continuous
100
AcDbCircle
 10
315.081487
 20
229.9915799999999
 30
0.0
 40
3.5
100
AcDbArc
 50
269.99998
 51
338.5410699999998
  0
LINE
  5
9EC1
330
9DA8
100
AcDbEntity
  8
1
  6
Continuous
100
AcDbLine
 10
321.631487
 20
232.3915799999999
 30
0.0
 11
321.631487
 21
230.0915809999999
 31
0.0
  0
LINE
  5
9EC2
330
9DA8
100
AcDbEntity
  8
1
  6
Continuous
100
AcDbLine
 10
318.881477
 20
230.091584
 30
0.0
 11
318.3388569999999
 21
228.711164
 31
0.0
  0
ARC
  5
9EC3
330
9DA8
100
AcDbEntity
  8
1
  6
Continuous
100
AcDbCircle
 10
308.881487
 20
226.566581
 30
0.0
 40
3.174999999999998
100
AcDbArc
 50
330.2600799999999
 51
0.00004
  0
ARC
  5
9EC4
330
9DA8
100
AcDbEntity
  8
1
  6
Continuous
100
AcDbCircle
 10
298.859107
 20
226.5665779999999
 30
0.0
 40
3.174999999999998
100
AcDbArc
 50
330.2602
 51
0.00004
  0
ARC
  5
9EC5
330
9DA8
100
AcDbEntity
  8
1
  6
Continuous
100
AcDbCircle
 10
304.1357569999997
 20
226.5665779999999
 30
0.0
 40
3.174999999999998
100
AcDbArc
 50
330.2602
 51
0.00004
  0
ARC
  5
9EC6
330
9DA8
100
AcDbEntity
  8
1
  6
Continuous
100
AcDbCircle
 10
307.655707
 20
226.5665779999999
 30
0.0
 40
3.174999999999998
100
AcDbArc
 50
330.2602
 51
0.00004
  0
LINE
  5
9EC7
330
9DA8
100
AcDbEntity
  8
4
  6
CENTER
 48
0.8
100
AcDbLine
 10
313.631487
 20
237.3915799999998
 30
0.0
 11
313.631487
 21
225.0915809999999
 31
0.0
  0
ARC
  5
9EC8
330
9DA8
100
AcDbEntity
  8
1
  6
Continuous
100
AcDbCircle
 10
292.631487
 20
226.5665779999999
 30
0.0
 40
3.174999999999998
100
AcDbArc
 50
180.0
 51
209.7398399999999
  0
ARC
  5
9EC9
330
9DA8
100
AcDbEntity
  8
1
  6
Continuous
100
AcDbCircle
 10
286.4038719999998
 20
226.5665779999999
 30
0.0
 40
3.174999999999998
100
AcDbArc
 50
330.2601899999999
 51
348.7328699999998
  0
ARC
  5
9ECA
330
9DA8
100
AcDbEntity
  8
1
  6
Continuous
100
AcDbCircle
 10
292.631487
 20
226.5665779999999
 30
0.0
 40
3.174999999999998
100
AcDbArc
 50
330.2602
 51
0.00004
  0
ARC
  5
9ECB
330
9DA8
100
AcDbEntity
  8
1
  6
Continuous
100
AcDbCircle
 10
298.859107
 20
226.5665779999999
 30
0.0
 40
3.174999999999998
100
AcDbArc
 50
191.2671299999999
 51
209.7398399999999
  0
ARC
  5
9ECC
330
9DA8
100
AcDbEntity
  8
1
  6
Continuous
100
AcDbCircle
 10
271.631487
 20
221.4915779999997
 30
0.0
 40
3.5
100
AcDbArc
 50
90.00001800000005
 51
180.0
  0
LINE
  5
9ECD
330
9DA8
100
AcDbEntity
  8
1
  6
Continuous
100
AcDbLine
 10
268.131487
 20
221.4915779999997
 30
0.0
 11
268.131487
 21
196.1396729999999
 31
0.0
  0
LINE
  5
9ECE
330
9DA8
100
AcDbEntity
  8
1
  6
Continuous
100
AcDbLine
 10
277.6314869999998
 20
183.89158
 30
0.0
 11
276.6314869999998
 21
183.89158
 31
0.0
  0
LINE
  5
9ECF
330
9DA8
100
AcDbEntity
  8
1
  6
Continuous
100
AcDbLine
 10
277.6314869999998
 20
175.89158
 30
0.0
 11
276.6314869999998
 21
175.89158
 31
0.0
  0
LINE
  5
9ED0
330
9DA8
100
AcDbEntity
  8
1
  6
Continuous
100
AcDbLine
 10
271.1314949999999
 20
183.89158
 30
0.0
 11
271.1314949999999
 21
175.89158
 31
0.0
  0
ARC
  5
9ED1
330
9DA8
100
AcDbEntity
  8
1
  6
Continuous
100
AcDbCircle
 10
270.18149
 20
229.991577
 30
0.0
 40
3.5
100
AcDbArc
 50
201.4589799999999
 51
269.99998
  0
ARC
  5
9ED2
330
9DA8
100
AcDbEntity
  8
1
  6
Continuous
100
AcDbCircle
 10
276.381487
 20
226.566581
 30
0.0
 40
3.174999999999998
100
AcDbArc
 50
180.0
 51
209.7399499999999
  0
ARC
  5
9ED3
330
9DA8
100
AcDbEntity
  8
1
  6
Continuous
100
AcDbCircle
 10
281.1272149999999
 20
226.5665779999999
 30
0.0
 40
3.174999999999998
100
AcDbArc
 50
180.0
 51
209.7398399999999
  0
ARC
  5
9ED4
330
9DA8
100
AcDbEntity
  8
1
  6
Continuous
100
AcDbCircle
 10
277.6072709999999
 20
226.5665779999999
 30
0.0
 40
3.174999999999998
100
AcDbArc
 50
180.0
 51
209.7398399999999
  0
ARC
  5
9ED5
330
9DA8
100
AcDbEntity
  8
1
  6
Continuous
100
AcDbCircle
 10
286.4038719999998
 20
226.5665779999999
 30
0.0
 40
3.174999999999998
100
AcDbArc
 50
180.0
 51
209.7398399999999
  0
LINE
  5
9ED6
330
9DA8
100
AcDbEntity
  8
4
  6
CENTER
 48
0.8
100
AcDbLine
 10
271.631487
 20
237.3915799999998
 30
0.0
 11
271.631487
 21
225.0915809999999
 31
0.0
  0
LINE
  5
9ED7
330
9DA8
100
AcDbEntity
  8
1
  6
Continuous
100
AcDbLine
 10
263.631487
 20
232.3915799999999
 30
0.0
 11
263.631487
 21
230.0915809999999
 31
0.0
  0
LINE
  5
9ED8
330
9DA8
100
AcDbEntity
  8
1
  6
Continuous
100
AcDbLine
 10
266.3814869999999
 20
230.091574
 30
0.0
 11
266.924105
 21
228.7111529999999
 31
0.0
  0
LINE
  5
9ED9
330
9DA8
100
AcDbEntity
  8
1
  6
Continuous
100
AcDbLine
 10
274.3288
 20
217.9915779999999
 30
0.0
 11
310.934175
 21
217.9915779999999
 31
0.0
  0
LINE
  5
9EDA
330
9DA8
100
AcDbEntity
  8
1
  6
Continuous
100
AcDbLine
 10
168.6314869999999
 20
221.624854
 30
0.0
 11
168.6314869999999
 21
201.863363
 31
0.0
  0
ARC
  5
9EDB
330
9DA8
100
AcDbEntity
  8
1
  6
Continuous
100
AcDbCircle
 10
184.631487
 20
201.863363
 30
0.0
 40
16.0
100
AcDbArc
 50
179.9999799999999
 51
249.34745
  0
LINE
  5
9EDC
330
9DA8
100
AcDbEntity
  8
1
  6
Continuous
100
AcDbLine
 10
210.6314869999999
 20
221.4915779999997
 30
0.0
 11
210.6314869999999
 21
217.9915779999999
 31
0.0
  0
ARC
  5
9EDD
330
9DA8
100
AcDbEntity
  8
1
  6
Continuous
100
AcDbCircle
 10
207.131487
 20
221.4915779999997
 30
0.0
 40
3.5
100
AcDbArc
 50
0.0
 51
90.0
  0
ARC
  5
9EDE
330
9DA8
100
AcDbEntity
  8
1
  6
Continuous
100
AcDbCircle
 10
319.1766289999999
 20
196.1396729999999
 30
0.0
 40
51.045142
100
AcDbArc
 50
156.123408
 51
184.2547079999999
  0
LINE
  5
9EDF
330
9DA8
100
AcDbEntity
  8
1
  6
Continuous
100
AcDbLine
 10
317.1314869999998
 20
221.4915779999997
 30
0.0
 11
317.1314869999998
 21
196.1396729999999
 31
0.0
  0
ARC
  5
9EE0
330
9DA8
100
AcDbEntity
  8
1
  6
Continuous
100
AcDbCircle
 10
319.1766289999999
 20
196.1396729999999
 30
0.0
 40
48.745142
100
AcDbArc
 50
153.3660459999999
 51
184.2547079999999
  0
ARC
  5
9EE1
330
9DA8
100
AcDbEntity
  8
1
  6
Continuous
100
AcDbCircle
 10
186.1314869999999
 20
70.89158000000002
 30
0.0
 40
24.5
100
AcDbArc
 50
231.1981569999999
 51
127.752001
  0
ARC
  5
9EE2
330
9DA8
100
AcDbEntity
  8
1
  6
Continuous
100
AcDbCircle
 10
186.1314869999999
 20
70.89158000000002
 30
0.0
 40
22.2
100
AcDbArc
 50
270.0
 51
90.0
  0
LINE
  5
9EEE
330
9DA8
100
AcDbEntity
  8
1
  6
Continuous
100
AcDbLine
 10
413.36396
 20
174.7485669999998
 30
0.0
 11
386.641743
 21
214.911494
 31
0.0
  0
ARC
  5
9EEF
330
9DA8
100
AcDbEntity
  8
1
  6
Continuous
100
AcDbCircle
 10
420.131487
 20
179.89158
 30
0.0
 40
8.5
100
AcDbArc
 50
217.23321
 51
5.653069999999998
  0
CIRCLE
  5
9EF0
330
9DA8
100
AcDbEntity
  8
1
  6
Continuous
100
AcDbCircle
 10
420.131487
 20
179.89158
 30
0.0
 40
6.0
  0
LINE
  5
9EF1
330
9DA8
100
AcDbEntity
  8
4
  6
CENTER
 48
0.8
100
AcDbLine
 10
420.131487
 20
219.8915819999998
 30
0.0
 11
420.131487
 21
137.39158
 31
0.0
  0
LINE
  5
9EF2
330
9DA8
100
AcDbEntity
  8
4
  6
CENTER
 48
0.8
100
AcDbLine
 10
462.6314869999998
 20
179.89158
 30
0.0
 11
377.631487
 21
179.89158
 31
0.0
  0
LINE
  5
9EF3
330
9DA8
100
AcDbEntity
  8
1
  6
Continuous
100
AcDbLine
 10
420.8314879999998
 20
224.9915779999998
 30
0.0
 11
378.131487
 21
224.9915779999998
 31
0.0
  0
LINE
  5
9EF4
330
9DA8
100
AcDbEntity
  8
1
  6
Continuous
100
AcDbLine
 10
421.5814879999999
 20
226.4915779999999
 30
0.0
 11
376.678356
 21
226.4915779999999
 31
0.0
  0
LINE
  5
9EF5
330
9DA8
100
AcDbEntity
  8
1
  6
Continuous
100
AcDbLine
 10
434.1314869999997
 20
230.0915809999999
 30
0.0
 11
364.1314869999998
 21
230.0915809999999
 31
0.0
  0
LINE
  5
9EF6
330
9DA8
100
AcDbEntity
  8
1
  6
Continuous
100
AcDbLine
 10
434.1314869999997
 20
232.3915799999999
 30
0.0
 11
364.1314869999998
 21
232.3915799999999
 31
0.0
  0
LINE
  5
9EF7
330
9DA8
100
AcDbEntity
  8
1
  6
Continuous
100
AcDbLine
 10
416.6314869999998
 20
221.624854
 30
0.0
 11
416.6314869999998
 21
201.863363
 31
0.0
  0
ARC
  5
9EF8
330
9DA8
100
AcDbEntity
  8
1
  6
Continuous
100
AcDbCircle
 10
424.374748
 20
224.4245339999999
 30
0.0
 40
5.0
100
AcDbArc
 50
209.1702399999998
 51
269.50427
  0
LINE
  5
9EF9
330
9DA8
100
AcDbEntity
  8
1
  6
Continuous
100
AcDbLine
 10
424.3314879999998
 20
221.4915779999997
 30
0.0
 11
424.3314879999998
 21
219.191577
 31
0.0
  0
LINE
  5
9EFA
330
9DA8
100
AcDbEntity
  8
4
  6
CENTER
 48
0.8
100
AcDbLine
 10
399.131487
 20
237.3915799999998
 30
0.0
 11
399.131487
 21
187.2811979999999
 31
0.0
  0
LINE
  5
9EFB
330
9DA8
100
AcDbEntity
  8
1
  6
Continuous
100
AcDbLine
 10
428.590148
 20
180.728872
 30
0.0
 11
425.7839009999998
 21
214.078689
 31
0.0
  0
ARC
  5
9EFC
330
9DA8
100
AcDbEntity
  8
1
  6
Continuous
100
AcDbCircle
 10
410.856852
 20
212.601114
 30
0.0
 40
15.0
100
AcDbArc
 50
5.653069999999998
 51
26.0633
  0
ARC
  5
9EFD
330
9DA8
100
AcDbEntity
  8
1
  6
Continuous
100
AcDbCircle
 10
400.6314869999997
 20
201.863363
 30
0.0
 40
16.0
100
AcDbArc
 50
290.65255
 51
0.00002
  0
ARC
  5
9EFE
330
9DA8
100
AcDbEntity
  8
1
  6
Continuous
100
AcDbCircle
 10
421.744373
 20
219.5404579999999
 30
0.0
 40
3.0
100
AcDbArc
 50
30.41605999999999
 51
125.3451639999999
  0
ARC
  5
9EFF
330
9DA8
100
AcDbEntity
  8
1
  6
Continuous
100
AcDbCircle
 10
420.8314879999998
 20
221.4915779999997
 30
0.0
 40
3.5
100
AcDbArc
 50
0.00004
 51
90.00001800000005
  0
ARC
  5
9F00
330
9DA8
100
AcDbEntity
  8
1
  6
Continuous
100
AcDbCircle
 10
421.5814879999999
 20
229.9915799999999
 30
0.0
 40
3.5
100
AcDbArc
 50
269.99998
 51
338.5410699999998
  0
LINE
  5
9F01
330
9DA8
100
AcDbEntity
  8
1
  6
Continuous
100
AcDbLine
 10
425.381484
 20
230.091583
 30
0.0
 11
424.8388659999998
 21
228.711163
 31
0.0
  0
LINE
  5
9F02
330
9DA8
100
AcDbEntity
  8
4
  6
CENTER
 48
0.8
100
AcDbLine
 10
426.631487
 20
225.0915809999999
 30
0.0
 11
426.631487
 21
237.3915799999998
 31
0.0
  0
LINE
  5
9F03
330
9DA8
100
AcDbEntity
  8
1
  6
Continuous
100
AcDbLine
 10
434.1314869999997
 20
230.091584
 30
0.0
 11
434.1314869999997
 21
232.391583
 31
0.0
  0
ARC
  5
9F04
330
9DA8
100
AcDbEntity
  8
1
  6
Continuous
100
AcDbCircle
 10
414.1557029999998
 20
226.5665779999999
 30
0.0
 40
3.174999999999998
100
AcDbArc
 50
330.26016
 51
0.00004
  0
ARC
  5
9F05
330
9DA8
100
AcDbEntity
  8
1
  6
Continuous
100
AcDbCircle
 10
410.635758
 20
226.5665779999999
 30
0.0
 40
3.174999999999998
100
AcDbArc
 50
330.26016
 51
0.00004
  0
ARC
  5
9F06
330
9DA8
100
AcDbEntity
  8
1
  6
Continuous
100
AcDbCircle
 10
405.3591019999998
 20
226.5665779999999
 30
0.0
 40
3.174999999999998
100
AcDbArc
 50
330.26016
 51
0.00004
  0
ARC
  5
9F07
330
9DA8
100
AcDbEntity
  8
1
  6
Continuous
100
AcDbCircle
 10
415.3814869999997
 20
226.566581
 30
0.0
 40
3.174999999999998
100
AcDbArc
 50
330.2601099999999
 51
0.00004
  0
ARC
  5
9F08
330
9DA8
100
AcDbEntity
  8
1
  6
Continuous
100
AcDbCircle
 10
392.9038719999999
 20
226.5665779999999
 30
0.0
 40
3.174999999999998
100
AcDbArc
 50
180.0
 51
209.73987
  0
ARC
  5
9F09
330
9DA8
100
AcDbEntity
  8
1
  6
Continuous
100
AcDbCircle
 10
405.3591019999998
 20
226.5665779999999
 30
0.0
 40
3.174999999999998
100
AcDbArc
 50
191.2671299999999
 51
209.73987
  0
ARC
  5
9F0A
330
9DA8
100
AcDbEntity
  8
1
  6
Continuous
100
AcDbCircle
 10
399.131487
 20
226.5665779999999
 30
0.0
 40
3.174999999999998
100
AcDbArc
 50
330.26016
 51
0.00004
  0
ARC
  5
9F0B
330
9DA8
100
AcDbEntity
  8
1
  6
Continuous
100
AcDbCircle
 10
392.9038719999999
 20
226.5665779999999
 30
0.0
 40
3.174999999999998
100
AcDbArc
 50
330.26015
 51
348.7328699999998
  0
ARC
  5
9F0C
330
9DA8
100
AcDbEntity
  8
1
  6
Continuous
100
AcDbCircle
 10
399.131487
 20
226.5665779999999
 30
0.0
 40
3.174999999999998
100
AcDbArc
 50
180.0
 51
209.73987
  0
LINE
  5
9F0D
330
9DA8
100
AcDbEntity
  8
1
  6
Continuous
100
AcDbLine
 10
374.6314869999998
 20
221.4915779999997
 30
0.0
 11
374.6314869999998
 21
217.9915779999999
 31
0.0
  0
LINE
  5
9F0E
330
9DA8
100
AcDbEntity
  8
1
  6
Continuous
100
AcDbLine
 10
380.3326699999999
 20
217.9915779999999
 30
0.0
 11
374.6314869999998
 21
217.9915779999999
 31
0.0
  0
ARC
  5
9F0F
330
9DA8
100
AcDbEntity
  8
1
  6
Continuous
100
AcDbCircle
 10
380.3326699999999
 20
209.9915779999999
 30
0.0
 40
8.0
100
AcDbArc
 50
37.95115999999997
 51
90.00001800000005
  0
ARC
  5
9F10
330
9DA8
100
AcDbEntity
  8
1
  6
Continuous
100
AcDbCircle
 10
378.131487
 20
221.4915779999997
 30
0.0
 40
3.5
100
AcDbArc
 50
90.0
 51
180.0
  0
ARC
  5
9F11
330
9DA8
100
AcDbEntity
  8
1
  6
Continuous
100
AcDbCircle
 10
384.1072709999999
 20
226.5665779999999
 30
0.0
 40
3.174999999999998
100
AcDbArc
 50
180.0
 51
209.73987
  0
ARC
  5
9F12
330
9DA8
100
AcDbEntity
  8
1
  6
Continuous
100
AcDbCircle
 10
387.6272149999999
 20
226.5665779999999
 30
0.0
 40
3.174999999999998
100
AcDbArc
 50
180.0
 51
209.73987
  0
ARC
  5
9F13
330
9DA8
100
AcDbEntity
  8
1
  6
Continuous
100
AcDbCircle
 10
382.881487
 20
226.566581
 30
0.0
 40
3.174999999999998
100
AcDbArc
 50
180.0
 51
209.7399199999999
  0
ARC
  5
9F14
330
9DA8
100
AcDbEntity
  8
1
  6
Continuous
100
AcDbCircle
 10
376.681486
 20
229.991577
 30
0.0
 40
3.5
100
AcDbArc
 50
201.4589799999999
 51
269.99998
  0
LINE
  5
9F15
330
9DA8
100
AcDbEntity
  8
1
  6
Continuous
100
AcDbLine
 10
372.881491
 20
230.0915759999998
 30
0.0
 11
373.4241089999999
 21
228.711155
 31
0.0
  0
LINE
  5
9F16
330
9DA8
100
AcDbEntity
  8
4
  6
CENTER
 48
0.8
100
AcDbLine
 10
371.631487
 20
225.0915809999999
 30
0.0
 11
371.631487
 21
237.3915799999998
 31
0.0
  0
LINE
  5
9F17
330
9DA8
100
AcDbEntity
  8
1
  6
Continuous
100
AcDbLine
 10
364.1314869999998
 20
230.0915779999999
 30
0.0
 11
364.1314869999998
 21
232.3915799999999
 31
0.0
  0
CIRCLE
  5
9F18
330
9DA8
100
AcDbEntity
  8
1
  6
Continuous
100
AcDbCircle
 10
420.131487
 20
179.89158
 30
0.0
 40
2.6
  0
ARC
  5
9F19
330
9DA8
100
AcDbEntity
  8
1
  6
Continuous
100
AcDbCircle
 10
274.4550759999999
 20
192.812592
 30
0.0
 40
6.2
100
AcDbArc
 50
184.2547079999999
 51
261.0220439999998
  0
ARC
  5
9F1A
330
9DA8
100
AcDbEntity
  8
1
  6
Continuous
100
AcDbCircle
 10
274.4550759999999
 20
192.812592
 30
0.0
 40
3.9
100
AcDbArc
 50
184.2547079999999
 51
261.0220679999998
  0
ARC
  5
9F1B
330
9DA8
100
AcDbEntity
  8
1
  6
Continuous
100
AcDbCircle
 10
273.3314839999998
 20
185.700803
 30
0.0
 40
1.0
100
AcDbArc
 50
0.0
 51
81.02204399999996
  0
ARC
  5
9F1C
330
9DA8
100
AcDbEntity
  8
1
  6
Continuous
100
AcDbCircle
 10
273.331487
 20
185.700802
 30
0.0
 40
3.299999999999998
100
AcDbArc
 50
0.0
 51
81.02206800000002
  0
ARC
  5
9F1D
330
9DA8
100
AcDbEntity
  8
1
  6
Continuous
100
AcDbCircle
 10
273.1314949999999
 20
183.89158
 30
0.0
 40
2.0
100
AcDbArc
 50
90.00002
 51
180.0
  0
LINE
  5
9F1E
330
9DA8
100
AcDbEntity
  8
1
  6
Continuous
100
AcDbLine
 10
274.3314919999999
 20
185.89158
 30
0.0
 11
273.1314949999999
 21
185.89158
 31
0.0
  0
ARC
  5
9F1F
330
9DA8
100
AcDbEntity
  8
1
  6
Continuous
100
AcDbCircle
 10
266.0863449999999
 20
196.1396729999999
 30
0.0
 40
48.745142
100
AcDbArc
 50
355.745292
 51
26.633954
  0
ARC
  5
9F20
330
9DA8
100
AcDbEntity
  8
1
  6
Continuous
100
AcDbCircle
 10
266.0863449999999
 20
196.1396729999999
 30
0.0
 40
51.045142
100
AcDbArc
 50
355.745292
 51
23.876592
  0
ARC
  5
9F21
330
9DA8
100
AcDbEntity
  8
1
  6
Continuous
100
AcDbCircle
 10
310.807898
 20
192.812592
 30
0.0
 40
6.2
100
AcDbArc
 50
278.977932
 51
355.745292
  0
ARC
  5
9F22
330
9DA8
100
AcDbEntity
  8
1
  6
Continuous
100
AcDbCircle
 10
310.807898
 20
192.812592
 30
0.0
 40
3.9
100
AcDbArc
 50
278.977932
 51
355.745292
  0
ARC
  5
9F23
330
9DA8
100
AcDbEntity
  8
1
  6
Continuous
100
AcDbCircle
 10
311.931487
 20
185.700802
 30
0.0
 40
3.299999999999998
100
AcDbArc
 50
98.977932
 51
180.0
  0
ARC
  5
9F24
330
9DA8
100
AcDbEntity
  8
1
  6
Continuous
100
AcDbCircle
 10
311.931487
 20
185.700802
 30
0.0
 40
1.0
100
AcDbArc
 50
98.977932
 51
180.0
  0
ARC
  5
9F25
330
9DA8
100
AcDbEntity
  8
1
  6
Continuous
100
AcDbCircle
 10
311.431487
 20
184.068124
 30
0.0
 40
1.5
100
AcDbArc
 50
359.9999799999998
 51
91.94881999999999
  0
LINE
  5
9F26
330
9DA8
100
AcDbEntity
  8
1
  6
Continuous
100
AcDbLine
 10
311.3804769999998
 20
185.567254
 30
0.0
 11
310.9314869999999
 21
183.89158
 31
0.0
  0
ARC
  5
9F27
330
9DA8
100
AcDbEntity
  8
1
  6
Continuous
100
AcDbCircle
 10
186.1314879999999
 20
89.05278
 30
0.0
 40
6.338799999999999
100
AcDbArc
 50
90.0
 51
171.0730169999999
  0
ARC
  5
9F28
330
9DA8
100
AcDbEntity
  8
1
  6
Continuous
100
AcDbCircle
 10
178.881584
 20
90.19158299999999
 30
0.0
 40
1.0
100
AcDbArc
 50
270.0
 51
351.0730169999998
  0
ARC
  5
9F29
330
9DA8
100
AcDbEntity
  8
1
  6
Continuous
100
AcDbCircle
 10
186.1314879999999
 20
89.05278
 30
0.0
 40
4.0388
100
AcDbArc
 50
90.0
 51
128.276377
  0
ARC
  5
9F2A
330
9DA8
100
AcDbEntity
  8
1
  6
Continuous
100
AcDbCircle
 10
177.6426879999999
 20
90.19158
 30
0.0
 40
3.299999999999998
100
AcDbArc
 50
270.0
 51
330.797555
  0
ARC
  5
9F2B
330
9DA8
100
AcDbEntity
  8
1
  6
Continuous
100
AcDbCircle
 10
191.222012
 20
82.60159200000002
 30
0.0
 40
12.256541
100
AcDbArc
 50
128.276377
 51
150.7975549999999
  0
ARC
  5
9F2C
330
9DA8
100
AcDbEntity
  8
1
  6
Continuous
100
AcDbCircle
 10
177.6426879999999
 20
51.59158
 30
0.0
 40
3.299999999999998
100
AcDbArc
 50
29.202445
 51
90.0
  0
ARC
  5
9F2D
330
9DA8
100
AcDbEntity
  8
1
  6
Continuous
100
AcDbCircle
 10
191.222012
 20
59.18156800000001
 30
0.0
 40
12.256541
100
AcDbArc
 50
209.2024449999999
 51
231.7236229999998
  0
ARC
  5
9F2E
330
9DA8
100
AcDbEntity
  8
1
  6
Continuous
100
AcDbCircle
 10
186.1314879999999
 20
52.73037999999999
 30
0.0
 40
6.338799999999999
100
AcDbArc
 50
188.9269589999999
 51
270.0
  0
ARC
  5
9F2F
330
9DA8
100
AcDbEntity
  8
1
  6
Continuous
100
AcDbCircle
 10
186.1314879999999
 20
52.73037999999999
 30
0.0
 40
4.0388
100
AcDbArc
 50
231.7236229999998
 51
270.0
  0
ARC
  5
9F30
330
9DA8
100
AcDbEntity
  8
1
  6
Continuous
100
AcDbCircle
 10
178.881583
 20
51.59158
 30
0.0
 40
1.0
100
AcDbArc
 50
8.926959
 51
90.0
  0
ARC
  5
9F31
330
9DA8
100
AcDbEntity
  8
1
  6
Continuous
100
AcDbCircle
 10
310.934175
 20
215.9915779999999
 30
0.0
 40
2.0
100
AcDbArc
 50
23.876592
 51
90.0
  0
ARC
  5
9F32
330
9DA8
100
AcDbEntity
  8
1
  6
Continuous
100
AcDbCircle
 10
274.3288
 20
215.9915779999999
 30
0.0
 40
2.0
100
AcDbArc
 50
90.0
 51
156.123408
  0
LINE
  5
9F33
330
9DA8
100
AcDbEntity
  8
1
  6
Continuous
100
AcDbLine
 10
129.2191949999997
 20
316.3915799999998
 30
0.0
 11
153.208007
 21
316.3915799999998
 31
0.0
  0
LINE
  5
9F34
330
9DA8
100
AcDbEntity
  8
1
  6
Continuous
100
AcDbLine
 10
129.2191949999997
 20
291.3915799999998
 30
0.0
 11
153.2080029999999
 21
291.3915799999998
 31
0.0
  0
ARC
  5
9F35
330
9DA8
100
AcDbEntity
  8
1
  6
Continuous
100
AcDbCircle
 10
177.631487
 20
303.8915799999998
 30
0.0
 40
50.0
100
AcDbArc
 50
165.5224879999998
 51
194.4775119999999
  0
ARC
  5
9F36
330
9DA8
100
AcDbEntity
  8
1
  6
Continuous
100
AcDbCircle
 10
56.13148699999999
 20
167.39158
 30
0.0
 40
50.0
100
AcDbArc
 50
75.52248799999998
 51
104.477512
  0
ARC
  5
9F37
330
9DA8
100
AcDbEntity
  8
1
  6
Continuous
100
AcDbCircle
 10
56.13148699999999
 20
192.3915799999998
 30
0.0
 40
50.0
100
AcDbArc
 50
255.522488
 51
284.4775119999998
  0
LINE
  5
9F38
330
9DA8
100
AcDbEntity
  8
1
  6
Continuous
100
AcDbLine
 10
41.13148699999999
 20
169.8915799999998
 30
0.0
 11
41.13148699999999
 21
189.89158
 31
0.0
  0
LINE
  5
9F39
330
9DA8
100
AcDbEntity
  8
1
  6
Continuous
100
AcDbLine
 10
43.63148699999999
 20
215.8038719999999
 30
0.0
 11
43.63148699999999
 21
143.9792879999999
 31
0.0
  0
LINE
  5
9F3A
330
9DA8
100
AcDbEntity
  8
1
  6
Continuous
100
AcDbLine
 10
43.63148699999999
 20
168.732542
 30
0.0
 11
42.029482
 21
168.896793
 31
0.0
  0
ARC
  5
9F3B
330
9DA8
100
AcDbEntity
  8
1
  6
Continuous
100
AcDbCircle
 10
42.131487
 20
169.8915799999998
 30
0.0
 40
1.0
100
AcDbArc
 50
179.9999799999999
 51
264.1457399999999
  0
LINE
  5
9F3C
330
9DA8
100
AcDbEntity
  8
1
  6
Continuous
100
AcDbLine
 10
43.63148699999999
 20
191.0506189999999
 30
0.0
 11
42.029474
 21
190.8863659999999
 31
0.0
  0
ARC
  5
9F3D
330
9DA8
100
AcDbEntity
  8
1
  6
Continuous
100
AcDbCircle
 10
42.131487
 20
189.89158
 30
0.0
 40
1.0
100
AcDbArc
 50
95.85426699999999
 51
180.00002
  0
LINE
  5
9F3E
330
9DA8
100
AcDbEntity
  8
1
  6
Continuous
100
AcDbLine
 10
71.13148699999998
 20
169.8915799999998
 30
0.0
 11
71.13148699999998
 21
189.89158
 31
0.0
  0
LINE
  5
9F3F
330
9DA8
100
AcDbEntity
  8
1
  6
Continuous
100
AcDbLine
 10
68.63148699999999
 20
215.8038719999999
 30
0.0
 11
68.63148699999999
 21
143.9792879999999
 31
0.0
  0
ARC
  5
9F40
330
9DA8
100
AcDbEntity
  8
1
  6
Continuous
100
AcDbCircle
 10
70.13148699999999
 20
169.8915799999998
 30
0.0
 40
1.0
100
AcDbArc
 50
275.85419
 51
359.99995
  0
LINE
  5
9F41
330
9DA8
100
AcDbEntity
  8
1
  6
Continuous
100
AcDbLine
 10
68.63148699999999
 20
168.7325409999999
 30
0.0
 11
70.23348399999999
 21
168.8967909999998
 31
0.0
  0
ARC
  5
9F42
330
9DA8
100
AcDbEntity
  8
1
  6
Continuous
100
AcDbCircle
 10
70.13148699999999
 20
189.89158
 30
0.0
 40
1.0
100
AcDbArc
 50
0.000055
 51
84.14580599999998
  0
LINE
  5
9F43
330
9DA8
100
AcDbEntity
  8
1
  6
Continuous
100
AcDbLine
 10
68.63148699999999
 20
191.0506189999999
 30
0.0
 11
70.23348399999999
 21
190.886369
 31
0.0
  0
LINE
  5
9F44
330
9DA8
100
AcDbEntity
  8
1
  6
Continuous
100
AcDbLine
 10
305.131487
 20
215.8038719999999
 30
0.0
 11
305.131487
 21
143.9792879999999
 31
0.0
  0
ARC
  5
9F45
330
9DA8
100
AcDbEntity
  8
1
  6
Continuous
100
AcDbCircle
 10
292.631487
 20
167.39158
 30
0.0
 40
50.0
100
AcDbArc
 50
75.52248799999998
 51
104.477512
  0
LINE
  5
9F46
330
9DA8
100
AcDbEntity
  8
1
  6
Continuous
100
AcDbLine
 10
280.131487
 20
215.8038719999999
 30
0.0
 11
280.131487
 21
143.9792879999999
 31
0.0
  0
LINE
  5
9F47
330
9DA8
100
AcDbEntity
  8
1
  6
Continuous
100
AcDbLine
 10
277.6314869999998
 20
169.8915799999998
 30
0.0
 11
277.6314869999998
 21
189.89158
 31
0.0
  0
ARC
  5
9F48
330
9DA8
100
AcDbEntity
  8
1
  6
Continuous
100
AcDbCircle
 10
278.6314869999998
 20
189.89158
 30
0.0
 40
1.0
100
AcDbArc
 50
95.85426699999999
 51
180.00002
  0
LINE
  5
9F49
330
9DA8
100
AcDbEntity
  8
1
  6
Continuous
100
AcDbLine
 10
280.131487
 20
191.0506189999999
 30
0.0
 11
278.5294739999999
 21
190.8863659999999
 31
0.0
  0
ARC
  5
9F4A
330
9DA8
100
AcDbEntity
  8
1
  6
Continuous
100
AcDbCircle
 10
292.631487
 20
192.3915799999998
 30
0.0
 40
50.0
100
AcDbArc
 50
255.522488
 51
284.4775119999998
  0
ARC
  5
9F4B
330
9DA8
100
AcDbEntity
  8
1
  6
Continuous
100
AcDbCircle
 10
278.6314869999998
 20
169.8915799999998
 30
0.0
 40
1.0
100
AcDbArc
 50
179.9999799999999
 51
264.1457399999999
  0
LINE
  5
9F4C
330
9DA8
100
AcDbEntity
  8
1
  6
Continuous
100
AcDbLine
 10
280.131487
 20
168.732542
 30
0.0
 11
278.5294819999999
 21
168.896793
 31
0.0
  0
LINE
  5
9F4D
330
9DA8
100
AcDbEntity
  8
1
  6
Continuous
100
AcDbLine
 10
307.631487
 20
169.8915799999998
 30
0.0
 11
307.631487
 21
189.89158
 31
0.0
  0
LINE
  5
9F4E
330
9DA8
100
AcDbEntity
  8
1
  6
Continuous
100
AcDbLine
 10
305.131487
 20
168.7325409999999
 30
0.0
 11
306.733484
 21
168.8967909999998
 31
0.0
  0
ARC
  5
9F4F
330
9DA8
100
AcDbEntity
  8
1
  6
Continuous
100
AcDbCircle
 10
306.6314869999998
 20
169.8915799999998
 30
0.0
 40
1.0
100
AcDbArc
 50
275.85419
 51
359.99995
  0
LINE
  5
9F50
330
9DA8
100
AcDbEntity
  8
1
  6
Continuous
100
AcDbLine
 10
305.131487
 20
191.0506189999999
 30
0.0
 11
306.733484
 21
190.886369
 31
0.0
  0
ARC
  5
9F51
330
9DA8
100
AcDbEntity
  8
1
  6
Continuous
100
AcDbCircle
 10
306.6314869999998
 20
189.89158
 30
0.0
 40
1.0
100
AcDbArc
 50
0.000055
 51
84.14580599999998
  0
ARC
  5
9F52
330
9DA8
100
AcDbEntity
  8
1
  6
Continuous
100
AcDbCircle
 10
177.631487
 20
70.89158000000002
 30
0.0
 40
50.0
100
AcDbArc
 50
165.5224879999998
 51
194.4775119999999
  0
ARC
  5
9F53
330
9DA8
100
AcDbEntity
  8
1
  6
Continuous
100
AcDbCircle
 10
152.631487
 20
70.89158000000002
 30
0.0
 40
50.0
100
AcDbArc
 50
345.522488
 51
14.47751199999999
  0
LINE
  5
9F54
330
9DA8
100
AcDbEntity
  8
1
  6
Continuous
100
AcDbLine
 10
129.2191949999997
 20
58.39158000000001
 30
0.0
 11
201.043779
 21
58.39158000000001
 31
0.0
  0
LINE
  5
9F55
330
9DA8
100
AcDbEntity
  8
1
  6
Continuous
100
AcDbLine
 10
175.1314869999999
 20
55.89158000000001
 30
0.0
 11
155.1314869999998
 21
55.89158000000001
 31
0.0
  0
ARC
  5
9F56
330
9DA8
100
AcDbEntity
  8
1
  6
Continuous
100
AcDbCircle
 10
155.1314869999998
 20
56.89157999999999
 30
0.0
 40
1.0
100
AcDbArc
 50
185.854267
 51
270.00002
  0
LINE
  5
9F57
330
9DA8
100
AcDbEntity
  8
1
  6
Continuous
100
AcDbLine
 10
153.9724479999998
 20
58.39158000000001
 30
0.0
 11
154.1367009999999
 21
56.789567
 31
0.0
  0
LINE
  5
9F58
330
9DA8
100
AcDbEntity
  8
1
  6
Continuous
100
AcDbLine
 10
176.290525
 20
58.39158000000001
 30
0.0
 11
176.126274
 21
56.789575
 31
0.0
  0
ARC
  5
9F59
330
9DA8
100
AcDbEntity
  8
1
  6
Continuous
100
AcDbCircle
 10
175.1314869999999
 20
56.89157999999999
 30
0.0
 40
1.0
100
AcDbArc
 50
269.99998
 51
354.14574
  0
LINE
  5
9F5A
330
9DA8
100
AcDbEntity
  8
1
  6
Continuous
100
AcDbLine
 10
129.2191949999997
 20
83.39158000000002
 30
0.0
 11
201.043779
 21
83.39158000000002
 31
0.0
  0
LINE
  5
9F5B
330
9DA8
100
AcDbEntity
  8
1
  6
Continuous
100
AcDbLine
 10
175.1314869999999
 20
85.89158000000002
 30
0.0
 11
155.1314869999998
 21
85.89158000000002
 31
0.0
  0
LINE
  5
9F5C
330
9DA8
100
AcDbEntity
  8
1
  6
Continuous
100
AcDbLine
 10
153.9724479999998
 20
83.39158000000002
 30
0.0
 11
154.136698
 21
84.993577
 31
0.0
  0
ARC
  5
9F5D
330
9DA8
100
AcDbEntity
  8
1
  6
Continuous
100
AcDbCircle
 10
155.1314869999998
 20
84.89158000000001
 30
0.0
 40
1.0
100
AcDbArc
 50
90.00005499999994
 51
174.145806
  0
LINE
  5
9F5E
330
9DA8
100
AcDbEntity
  8
1
  6
Continuous
100
AcDbLine
 10
176.290527
 20
83.39158000000002
 30
0.0
 11
176.1262759999999
 21
84.993577
 31
0.0
  0
ARC
  5
9F5F
330
9DA8
100
AcDbEntity
  8
1
  6
Continuous
100
AcDbCircle
 10
175.1314869999999
 20
84.89158000000001
 30
0.0
 40
1.0
100
AcDbArc
 50
5.854189999999999
 51
89.99995000000001
  0
ARC
  5
9F60
330
9DA8
100
AcDbEntity
  8
1
  6
Continuous
100
AcDbCircle
 10
165.131487
 20
179.89158
 30
0.0
 40
37.5
100
AcDbArc
 50
97.740038
 51
43.28771699999999
  0
ARC
  5
9F61
330
9DA8
100
AcDbEntity
  8
1
  6
Continuous
100
AcDbCircle
 10
165.131487
 20
179.89158
 30
0.0
 40
32.5
100
AcDbArc
 50
100.3498179999998
 51
41.231565
  0
ARC
  5
9F62
330
9DA8
100
AcDbEntity
  8
1
  6
Continuous
100
AcDbCircle
 10
165.131487
 20
179.89158
 30
0.0
 40
11.0
100
AcDbArc
 50
135.78201
 51
5.900042
  0
CIRCLE
  5
9F63
330
9DA8
100
AcDbEntity
  8
1
  6
Continuous
100
AcDbCircle
 10
165.131487
 20
179.89158
 30
0.0
 40
6.0
  0
ARC
  5
9F64
330
9DA8
100
AcDbEntity
  8
1
  6
Continuous
100
AcDbCircle
 10
420.131487
 20
179.89158
 30
0.0
 40
37.5
100
AcDbArc
 50
136.712283
 51
82.259962
  0
ARC
  5
9F65
330
9DA8
100
AcDbEntity
  8
1
  6
Continuous
100
AcDbCircle
 10
420.131487
 20
179.89158
 30
0.0
 40
32.5
100
AcDbArc
 50
138.768435
 51
79.650182
  0
ARC
  5
9F66
330
9DA8
100
AcDbEntity
  8
1
  6
Continuous
100
AcDbCircle
 10
420.131487
 20
179.89158
 30
0.0
 40
11.0
100
AcDbArc
 50
174.0999579999999
 51
44.21799
  0
ENDSEC
  0
SECTION
  2
OBJECTS
  0
DICTIONARY
  5
9D96
330
0
100
AcDbDictionary
281
     1
  3
ACAD_CIP_PREVIOUS_PRODUCT_INFO
350
9FE4
  3
ACAD_COLOR
350
9FC6
  3
ACAD_DETAILVIEWSTYLE
350
9FDF
  3
ACAD_GROUP
350
9D97
  3
ACAD_LAYOUT
350
9DA3
  3
ACAD_MATERIAL
350
9F94
  3
ACAD_MLEADERSTYLE
350
9FDB
  3
ACAD_MLINESTYLE
350
9DA0
  3
ACAD_PLOTSETTINGS
350
9DA2
  3
ACAD_PLOTSTYLENAME
350
9F92
  3
ACAD_SCALELIST
350
9FC9
  3
ACAD_SECTIONVIEWSTYLE
350
9FDD
  3
ACAD_TABLESTYLE
350
9FC7
  3
ACAD_VISUALSTYLE
350
9FAD
  3
ACDB_RECOMPOSE_DATA
350
A002
  3
AcDbVariableDictionary
350
9FF5
  3
DWGPROPS
350
A003
  0
DICTIONARY
  5
9FE5
330
9D9A
100
AcDbDictionary
280
     1
281
     1
  3
ADSK_XREC_LAYER_RECONCILED
360
9FE6
  0
DICTIONARY
  5
9FE7
330
9DB0
100
AcDbDictionary
280
     1
281
     1
  3
ADSK_XREC_LAYER_RECONCILED
360
9FE8
  0
DICTIONARY
  5
9FE9
330
9DB1
100
AcDbDictionary
280
     1
281
     1
  3
ADSK_XREC_LAYER_RECONCILED
360
9FEA
  0
DICTIONARY
  5
9FEB
330
9DB2
100
AcDbDictionary
280
     1
281
     1
  3
ADSK_XREC_LAYER_RECONCILED
360
9FEC
  0
DICTIONARY
  5
9FED
330
9DB3
100
AcDbDictionary
280
     1
281
     1
  3
ADSK_XREC_LAYER_RECONCILED
360
9FEE
  0
DICTIONARY
  5
9FEF
330
9DB4
100
AcDbDictionary
280
     1
281
     1
  3
ADSK_XREC_LAYER_RECONCILED
360
9FF0
  0
DICTIONARY
  5
9FF1
330
9DB5
100
AcDbDictionary
280
     1
281
     1
  3
ADSK_XREC_LAYER_RECONCILED
360
9FF2
  0
DICTIONARY
  5
9FF3
330
9DB6
100
AcDbDictionary
280
     1
281
     1
  3
ADSK_XREC_LAYER_RECONCILED
360
9FF4
  0
DICTIONARY
  5
9F71
330
9DA8
100
AcDbDictionary
281
     1
  3
ACAD_LAYOUTSELFREF
350
9F8E
  0
DICTIONARY
  5
9F6F
330
9DA4
100
AcDbDictionary
281
     1
  3
ACAD_LAYOUTSELFREF
350
9F8D
  0
XRECORD
  5
9FE4
102
{ACAD_REACTORS
330
9D96
102
}
330
9D96
100
AcDbXrecord
280
     1
300
ACDLT
300
2014
300
ACDLT_F_S
  0
DICTIONARY
  5
9FC6
102
{ACAD_REACTORS
330
9D96
102
}
330
9D96
100
AcDbDictionary
281
     1
  0
DICTIONARY
  5
9FDF
102
{ACAD_REACTORS
330
9D96
102
}
330
9D96
100
AcDbDictionary
281
     1
  3
Imperial24
350
9FE0
  0
DICTIONARY
  5
9D97
102
{ACAD_REACTORS
330
9D96
102
}
330
9D96
100
AcDbDictionary
281
     1
  0
DICTIONARY
  5
9DA3
102
{ACAD_REACTORS
330
9D96
102
}
330
9D96
100
AcDbDictionary
281
     1
  3
Model
350
9FE1
  3
レイアウト1
350
9FE2
  0
DICTIONARY
  5
9F94
102
{ACAD_REACTORS
330
9D96
102
}
330
9D96
100
AcDbDictionary
281
     1
  3
ByBlock
350
9F9D
  3
ByLayer
350
9F95
  3
Global
350
9FA5
  0
DICTIONARY
  5
9FDB
102
{ACAD_REACTORS
330
9D96
102
}
330
9D96
100
AcDbDictionary
281
     1
  3
Standard
350
9FDC
  0
DICTIONARY
  5
9DA0
102
{ACAD_REACTORS
330
9D96
102
}
330
9D96
100
AcDbDictionary
281
     1
  3
STANDARD
350
9DA1
  0
DICTIONARY
  5
9DA2
102
{ACAD_REACTORS
330
9D96
102
}
330
9D96
100
AcDbDictionary
281
     1
  0
ACDBDICTIONARYWDFLT
  5
9F92
102
{ACAD_REACTORS
330
9D96
102
}
330
9D96
100
AcDbDictionary
281
     1
  3
Normal
350
9F93
100
AcDbDictionaryWithDefault
340
9F93
  0
DICTIONARY
  5
9FC9
102
{ACAD_REACTORS
330
9D96
102
}
330
9D96
100
AcDbDictionary
281
     1
  3
A0
350
9FCA
  3
A1
350
9FCB
  3
A2
350
9FCC
  3
A3
350
9FCD
  3
A4
350
9FCE
  3
A5
350
9FCF
  3
A6
350
9FD0
  3
A7
350
9FD1
  3
A8
350
9FD2
  3
A9
350
9FD3
  3
B0
350
9FD4
  3
B1
350
9FD5
  3
B2
350
9FD6
  3
B3
350
9FD7
  3
B4
350
9FD8
  3
B5
350
9FD9
  3
B6
350
9FDA
  0
DICTIONARY
  5
9FDD
102
{ACAD_REACTORS
330
9D96
102
}
330
9D96
100
AcDbDictionary
281
     1
  3
Imperial24
350
9FDE
  0
DICTIONARY
  5
9FC7
102
{ACAD_REACTORS
330
9D96
102
}
330
9D96
100
AcDbDictionary
281
     1
  3
Standard
350
9FC8
  0
DICTIONARY
  5
9FAD
102
{ACAD_REACTORS
330
9D96
102
}
330
9D96
100
AcDbDictionary
281
     1
  3
2dWireframe
350
9FB3
  3
Basic
350
9FB2
  3
Brighten
350
9FB9
  3
ColorChange
350
9FBD
  3
Conceptual
350
9FB6
  3
Dim
350
9FB8
  3
EdgeColorOff
350
9FC5
  3
Facepattern
350
9FBC
  3
Flat
350
9FAE
  3
FlatWithEdges
350
9FAF
  3
Gouraud
350
9FB0
  3
GouraudWithEdges
350
9FB1
  3
Hidden
350
9FB5
  3
JitterOff
350
9FC3
  3
Linepattern
350
9FBB
  3
OverhangOff
350
9FC4
  3
Realistic
350
9FB7
  3
Shaded
350
9FC2
  3
Shaded with edges
350
9FC1
  3
Shades of Gray
350
9FBE
  3
Sketchy
350
9FBF
  3
Thicken
350
9FBA
  3
Wireframe
350
9FB4
  3
X-Ray
350
9FC0
  0
XRECORD
  5
A002
102
{ACAD_REACTORS
330
9D96
102
}
330
9D96
100
AcDbXrecord
280
     1
 90
        1
330
9FC8
  0
DICTIONARY
  5
9FF5
102
{ACAD_REACTORS
330
9D96
102
}
330
9D96
100
AcDbDictionary
281
     1
  3
CANNOSCALE
350
9FFA
  3
CMLEADERSTYLE
350
9FF7
  3
CTABLESTYLE
350
9FF6
  3
CVIEWDETAILSTYLE
350
9FF8
  3
CVIEWSECTIONSTYLE
350
9FF9
  3
DIMASSOC
350
9FFD
  3
INDEXCTL
350
9FFC
  3
SORTENTS
350
9FFB
  3
XCLIPFRAME
350
9FFE
  0
XRECORD
  5
A003
102
{ACAD_REACTORS
330
9D96
102
}
330
9D96
100
AcDbXrecord
280
     1
  1
DWGPROPS COOKIE
  2

  3

  4

  6

  7

  8
Yoshitsune
  9

300
=
301
=
302
=
303
=
304
=
305
=
306
=
307
=
308
=
309
=
 40
0.1041190509259259
 41
2451301.459950347
 42
2457192.690428716
  1

 90
        0
  0
XRECORD
  5
9FE6
102
{ACAD_REACTORS
330
9FE5
102
}
330
9FE5
100
AcDbXrecord
280
     1
290
     1
  0
XRECORD
  5
9FE8
102
{ACAD_REACTORS
330
9FE7
102
}
330
9FE7
100
AcDbXrecord
280
     1
290
     1
  0
XRECORD
  5
9FEA
102
{ACAD_REACTORS
330
9FE9
102
}
330
9FE9
100
AcDbXrecord
280
     1
290
     1
  0
XRECORD
  5
9FEC
102
{ACAD_REACTORS
330
9FEB
102
}
330
9FEB
100
AcDbXrecord
280
     1
290
     1
  0
XRECORD
  5
9FEE
102
{ACAD_REACTORS
330
9FED
102
}
330
9FED
100
AcDbXrecord
280
     1
290
     1
  0
XRECORD
  5
9FF0
102
{ACAD_REACTORS
330
9FEF
102
}
330
9FEF
100
AcDbXrecord
280
     1
290
     1
  0
XRECORD
  5
9FF2
102
{ACAD_REACTORS
330
9FF1
102
}
330
9FF1
100
AcDbXrecord
280
     1
290
     1
  0
XRECORD
  5
9FF4
102
{ACAD_REACTORS
330
9FF3
102
}
330
9FF3
100
AcDbXrecord
280
     1
290
     1
  0
XRECORD
  5
9F8E
102
{ACAD_REACTORS
330
9F71
102
}
330
9F71
100
AcDbXrecord
280
     1
340
9DA8
  0
XRECORD
  5
9F8D
102
{ACAD_REACTORS
330
9F6F
102
}
330
9F6F
100
AcDbXrecord
280
     1
340
9DA4
  0
ACDBDETAILVIEWSTYLE
  5
9FE0
102
{ACAD_XDICTIONARY
360
A03B
102
}
102
{ACAD_REACTORS
330
9FDF
102
}
330
9FDF
100
AcDbModelDocViewStyle
 70
     0
  3
Imperial24
290
     0
100
AcDbDetailViewStyle
 70
     0
 71
     0
 90
        3
 71
     1
340
9D9B
 40
0.24
340
0
 40
0.24
300

 40
0.36
280
     3
 71
     2
340
9D9F
 90
       25
 71
     3
340
9D9B
 40
0.24
 90
        1
 40
0.75
 90
        1
300
%<\AcVar ViewType \f "%tc1">% %<\AcVar ViewDetailId>%\PSCALE %<\AcVar ViewScale \f "%sn">%
 71
     4
340
9D9F
 90
       25
340
9D9F
 90
       25
280
     0
  0
LAYOUT
  5
9FE1
102
{ACAD_XDICTIONARY
360
A03D
102
}
102
{ACAD_REACTORS
330
9DA3
102
}
330
9DA3
100
AcDbPlotSettings
  1

  2
Canon LBP9100C
  4

  6

 40
0.0
 41
0.0
 42
0.0
 43
0.0
 44
0.0
 45
0.0
 46
0.0
 47
0.0
 48
0.0
 49
0.0
140
0.0
141
0.0
142
1.0
143
1.0
 70
  1712
 72
     0
 73
     0
 74
     0
  7

 75
     0
147
1.0
148
0.0
149
0.0
100
AcDbLayout
  1
Model
 70
     1
 71
     0
 10
0.0
 20
0.0
 11
12.0
 21
9.0
 12
0.0
 22
0.0
 32
0.0
 14
0.0
 24
0.0
 34
0.0
 15
0.0
 25
0.0
 35
0.0
146
0.0
 13
0.0
 23
0.0
 33
0.0
 16
1.0
 26
0.0
 36
0.0
 17
0.0
 27
1.0
 37
0.0
 76
     0
330
9DA8
331
9F8C
  0
LAYOUT
  5
9FE2
102
{ACAD_XDICTIONARY
360
A03F
102
}
102
{ACAD_REACTORS
330
9DA3
102
}
330
9DA3
100
AcDbPlotSettings
  1

  2
Canon LBP9100C
  4

  6

 40
0.0
 41
0.0
 42
0.0
 43
0.0
 44
0.0
 45
0.0
 46
0.0
 47
0.0
 48
0.0
 49
0.0
140
0.0
141
0.0
142
1.0
143
1.0
 70
   688
 72
     0
 73
     0
 74
     5
  7

 75
    16
147
1.0
148
0.0
149
0.0
100
AcDbLayout
  1
レイアウト1
 70
     0
 71
     1
 10
0.0
 20
0.0
 11
420.0
 21
297.0
 12
0.0
 22
0.0
 32
0.0
 14
1.000000000000000E+20
 24
1.000000000000000E+20
 34
1.000000000000000E+20
 15
-1.000000000000000E+20
 25
-1.000000000000000E+20
 35
-1.000000000000000E+20
146
0.0
 13
0.0
 23
0.0
 33
0.0
 16
1.0
 26
0.0
 36
0.0
 17
0.0
 27
1.0
 37
0.0
 76
     0
330
9DA4
  0
MATERIAL
  5
9F9D
102
{ACAD_XDICTIONARY
360
9F9E
102
}
102
{ACAD_REACTORS
330
9F94
102
}
330
9F94
100
AcDbMaterial
  1
ByBlock
 72
     0
 43
0.0208333333333333
 43
0.0
 43
0.0
 43
0.0
 43
0.0
 43
0.0208333333333333
 43
0.0
 43
0.0
 43
0.0
 43
0.0
 43
1.0
 43
0.0
 43
0.0
 43
0.0
 43
0.0
 43
1.0
 77
     0
 47
0.0208333333333333
 47
0.0
 47
0.0
 47
0.0
 47
0.0
 47
0.0208333333333333
 47
0.0
 47
0.0
 47
0.0
 47
0.0
 47
1.0
 47
0.0
 47
0.0
 47
0.0
 47
0.0
 47
1.0
171
     0
 49
0.0208333333333333
 49
0.0
 49
0.0
 49
0.0
 49
0.0
 49
0.0208333333333333
 49
0.0
 49
0.0
 49
0.0
 49
0.0
 49
1.0
 49
0.0
 49
0.0
 49
0.0
 49
0.0
 49
1.0
175
     0
142
0.0208333333333333
142
0.0
142
0.0
142
0.0
142
0.0
142
0.0208333333333333
142
0.0
142
0.0
142
0.0
142
0.0
142
1.0
142
0.0
142
0.0
142
0.0
142
0.0
142
1.0
179
     0
144
0.0208333333333333
144
0.0
144
0.0
144
0.0
144
0.0
144
0.0208333333333333
144
0.0
144
0.0
144
0.0
144
0.0
144
1.0
144
0.0
144
0.0
144
0.0
144
0.0
144
1.0
147
0.0208333333333333
147
0.0
147
0.0
147
0.0
147
0.0
147
0.0208333333333333
147
0.0
147
0.0
147
0.0
147
0.0
147
1.0
147
0.0
147
0.0
147
0.0
147
0.0
147
1.0
  0
MATERIAL
  5
9F95
102
{ACAD_XDICTIONARY
360
9F96
102
}
102
{ACAD_REACTORS
330
9F94
102
}
330
9F94
100
AcDbMaterial
  1
ByLayer
 72
     0
 43
0.0208333333333333
 43
0.0
 43
0.0
 43
0.0
 43
0.0
 43
0.0208333333333333
 43
0.0
 43
0.0
 43
0.0
 43
0.0
 43
1.0
 43
0.0
 43
0.0
 43
0.0
 43
0.0
 43
1.0
 77
     0
 47
0.0208333333333333
 47
0.0
 47
0.0
 47
0.0
 47
0.0
 47
0.0208333333333333
 47
0.0
 47
0.0
 47
0.0
 47
0.0
 47
1.0
 47
0.0
 47
0.0
 47
0.0
 47
0.0
 47
1.0
171
     0
 49
0.0208333333333333
 49
0.0
 49
0.0
 49
0.0
 49
0.0
 49
0.0208333333333333
 49
0.0
 49
0.0
 49
0.0
 49
0.0
 49
1.0
 49
0.0
 49
0.0
 49
0.0
 49
0.0
 49
1.0
175
     0
142
0.0208333333333333
142
0.0
142
0.0
142
0.0
142
0.0
142
0.0208333333333333
142
0.0
142
0.0
142
0.0
142
0.0
142
1.0
142
0.0
142
0.0
142
0.0
142
0.0
142
1.0
179
     0
144
0.0208333333333333
144
0.0
144
0.0
144
0.0
144
0.0
144
0.0208333333333333
144
0.0
144
0.0
144
0.0
144
0.0
144
1.0
144
0.0
144
0.0
144
0.0
144
0.0
144
1.0
147
0.0208333333333333
147
0.0
147
0.0
147
0.0
147
0.0
147
0.0208333333333333
147
0.0
147
0.0
147
0.0
147
0.0
147
1.0
147
0.0
147
0.0
147
0.0
147
0.0
147
1.0
  0
MATERIAL
  5
9FA5
102
{ACAD_XDICTIONARY
360
9FA6
102
}
102
{ACAD_REACTORS
330
9F94
102
}
330
9F94
100
AcDbMaterial
  1
Global
 72
     0
 43
0.0208333333333333
 43
0.0
 43
0.0
 43
0.0
 43
0.0
 43
0.0208333333333333
 43
0.0
 43
0.0
 43
0.0
 43
0.0
 43
1.0
 43
0.0
 43
0.0
 43
0.0
 43
0.0
 43
1.0
 77
     0
 47
0.0208333333333333
 47
0.0
 47
0.0
 47
0.0
 47
0.0
 47
0.0208333333333333
 47
0.0
 47
0.0
 47
0.0
 47
0.0
 47
1.0
 47
0.0
 47
0.0
 47
0.0
 47
0.0
 47
1.0
171
     0
 49
0.0208333333333333
 49
0.0
 49
0.0
 49
0.0
 49
0.0
 49
0.0208333333333333
 49
0.0
 49
0.0
 49
0.0
 49
0.0
 49
1.0
 49
0.0
 49
0.0
 49
0.0
 49
0.0
 49
1.0
175
     0
142
0.0208333333333333
142
0.0
142
0.0
142
0.0
142
0.0
142
0.0208333333333333
142
0.0
142
0.0
142
0.0
142
0.0
142
1.0
142
0.0
142
0.0
142
0.0
142
0.0
142
1.0
179
     0
144
0.0208333333333333
144
0.0
144
0.0
144
0.0
144
0.0
144
0.0208333333333333
144
0.0
144
0.0
144
0.0
144
0.0
144
1.0
144
0.0
144
0.0
144
0.0
144
0.0
144
1.0
147
0.0208333333333333
147
0.0
147
0.0
147
0.0
147
0.0
147
0.0208333333333333
147
0.0
147
0.0
147
0.0
147
0.0
147
1.0
147
0.0
147
0.0
147
0.0
147
0.0
147
1.0
  0
MLEADERSTYLE
  5
9FDC
102
{ACAD_REACTORS
330
9FDB
102
}
330
9FDB
100
AcDbMLeaderStyle
170
     2
171
     1
172
     0
 90
        2
 40
0.0
 41
0.0
173
     1
 91
-1056964608
340
9D9D
 92
       -2
290
     1
 42
0.09
291
     1
 43
0.36
  3
Standard
 44
0.18
300

342
9D9B
174
     1
178
     6
175
     1
176
     0
 93
-1056964608
 45
0.18
292
     0
297
     0
 46
0.18
 94
-1056964608
 47
1.0
 49
1.0
140
1.0
293
     1
141
0.0
294
     1
177
     0
142
1.0
295
     0
296
     0
143
0.125
1001
ACAD_MLEADERVER
1070
     2
  0
MLINESTYLE
  5
9DA1
102
{ACAD_REACTORS
330
9DA0
102
}
330
9DA0
100
AcDbMlineStyle
  2
STANDARD
 70
     0
  3

 62
   256
 51
90.0
 52
90.0
 71
     2
 49
0.5
 62
   256
  6
BYLAYER
 49
-0.5
 62
   256
  6
BYLAYER
  0
ACDBPLACEHOLDER
  5
9F93
102
{ACAD_REACTORS
330
9F92
102
}
330
9F92
  0
SCALE
  5
9FCA
102
{ACAD_REACTORS
330
9FC9
102
}
330
9FC9
100
AcDbScale
 70
     0
300
1:1
140
1.0
141
1.0
290
     1
  0
SCALE
  5
9FCB
102
{ACAD_REACTORS
330
9FC9
102
}
330
9FC9
100
AcDbScale
 70
     0
300
1/128" = 1'-0"
140
0.0078125
141
12.0
290
     0
  0
SCALE
  5
9FCC
102
{ACAD_REACTORS
330
9FC9
102
}
330
9FC9
100
AcDbScale
 70
     0
300
1/64" = 1'-0"
140
0.015625
141
12.0
290
     0
  0
SCALE
  5
9FCD
102
{ACAD_REACTORS
330
9FC9
102
}
330
9FC9
100
AcDbScale
 70
     0
300
1/32" = 1'-0"
140
0.03125
141
12.0
290
     0
  0
SCALE
  5
9FCE
102
{ACAD_REACTORS
330
9FC9
102
}
330
9FC9
100
AcDbScale
 70
     0
300
1/16" = 1'-0"
140
0.0625
141
12.0
290
     0
  0
SCALE
  5
9FCF
102
{ACAD_REACTORS
330
9FC9
102
}
330
9FC9
100
AcDbScale
 70
     0
300
3/32" = 1'-0"
140
0.09375
141
12.0
290
     0
  0
SCALE
  5
9FD0
102
{ACAD_REACTORS
330
9FC9
102
}
330
9FC9
100
AcDbScale
 70
     0
300
1/8" = 1'-0"
140
0.125
141
12.0
290
     0
  0
SCALE
  5
9FD1
102
{ACAD_REACTORS
330
9FC9
102
}
330
9FC9
100
AcDbScale
 70
     0
300
3/16" = 1'-0"
140
0.1875
141
12.0
290
     0
  0
SCALE
  5
9FD2
102
{ACAD_REACTORS
330
9FC9
102
}
330
9FC9
100
AcDbScale
 70
     0
300
1/4" = 1'-0"
140
0.25
141
12.0
290
     0
  0
SCALE
  5
9FD3
102
{ACAD_REACTORS
330
9FC9
102
}
330
9FC9
100
AcDbScale
 70
     0
300
3/8" = 1'-0"
140
0.375
141
12.0
290
     0
  0
SCALE
  5
9FD4
102
{ACAD_REACTORS
330
9FC9
102
}
330
9FC9
100
AcDbScale
 70
     0
300
1/2" = 1'-0"
140
0.5
141
12.0
290
     0
  0
SCALE
  5
9FD5
102
{ACAD_REACTORS
330
9FC9
102
}
330
9FC9
100
AcDbScale
 70
     0
300
3/4" = 1'-0"
140
0.75
141
12.0
290
     0
  0
SCALE
  5
9FD6
102
{ACAD_REACTORS
330
9FC9
102
}
330
9FC9
100
AcDbScale
 70
     0
300
1" = 1'-0"
140
1.0
141
12.0
290
     0
  0
SCALE
  5
9FD7
102
{ACAD_REACTORS
330
9FC9
102
}
330
9FC9
100
AcDbScale
 70
     0
300
1-1/2" = 1'-0"
140
1.5
141
12.0
290
     0
  0
SCALE
  5
9FD8
102
{ACAD_REACTORS
330
9FC9
102
}
330
9FC9
100
AcDbScale
 70
     0
300
3" = 1'-0"
140
3.0
141
12.0
290
     0
  0
SCALE
  5
9FD9
102
{ACAD_REACTORS
330
9FC9
102
}
330
9FC9
100
AcDbScale
 70
     0
300
6" = 1'-0"
140
6.0
141
12.0
290
     0
  0
SCALE
  5
9FDA
102
{ACAD_REACTORS
330
9FC9
102
}
330
9FC9
100
AcDbScale
 70
     0
300
1'-0" = 1'-0"
140
12.0
141
12.0
290
     0
  0
ACDBSECTIONVIEWSTYLE
  5
9FDE
102
{ACAD_XDICTIONARY
360
A039
102
}
102
{ACAD_REACTORS
330
9FDD
102
}
330
9FDD
100
AcDbModelDocViewStyle
 70
     0
  3
Imperial24
290
     0
100
AcDbSectionViewStyle
 70
     0
 71
     0
 90
       78
 71
     1
340
9D9B
 40
0.24
340
0
340
0
 40
0.24
300
I, O, Q, S, X, Z
 40
0.48
 90
        3
 40
0.18
 90
        1
 71
     2
340
9D9F
 90
       25
340
9D9F
 90
       50
 40
0.24
 40
0.0
 40
0.24
 71
     3
340
9D9B
 40
0.24
 90
        1
 40
0.75
 90
        1
300
%<\AcVar ViewType \f "%tc1">% %<\AcVar ViewSectionStartId>%-%<\AcVar ViewSectionEndId>%\PSCALE %<\AcVar ViewScale \f "%sn">%
 71
     4
300
ANSI31
 40
1.0
 90
        0
290
     0
290
     0
 90
        6
 40
0.0
 40
1.570796326794896
 40
0.2617993877991494
 40
1.308996938995747
 40
-0.2617993877991494
 40
1.832595714594046
  0
TABLESTYLE
  5
9FC8
102
{ACAD_XDICTIONARY
360
A000
102
}
102
{ACAD_REACTORS
330
9FC7
102
}
330
9FC7
100
AcDbTableStyle
  3
Standard
 70
     0
 71
     0
 40
0.06
 41
0.06
280
     0
281
     0
  7
STANDARD
140
0.18
170
     2
 62
     0
 63
     7
283
     0
274
    -2
284
     1
 64
     0
275
    -2
285
     1
 65
     0
276
    -2
286
     1
 66
     0
277
    -2
287
     1
 67
     0
278
    -2
288
     1
 68
     0
279
    -2
289
     1
 69
     0
  7
STANDARD
140
0.25
170
     5
 62
     0
 63
     7
283
     0
274
    -2
284
     1
 64
     0
275
    -2
285
     1
 65
     0
276
    -2
286
     1
 66
     0
277
    -2
287
     1
 67
     0
278
    -2
288
     1
 68
     0
279
    -2
289
     1
 69
     0
  7
STANDARD
140
0.18
170
     5
 62
     0
 63
     7
283
     0
274
    -2
284
     1
 64
     0
275
    -2
285
     1
 65
     0
276
    -2
286
     1
 66
     0
277
    -2
287
     1
 67
     0
278
    -2
288
     1
 68
     0
279
    -2
289
     1
 69
     0
  0
VISUALSTYLE
  5
9FB3
102
{ACAD_XDICTIONARY
360
A011
102
}
102
{ACAD_REACTORS
330
9FAD
102
}
330
9FAD
100
AcDbVisualStyle
  2
2dWireframe
 70
     4
 71
     0
 72
     2
 73
     0
 90
        0
 40
-0.6
 41
-30.0
 62
     5
 63
     7
 74
     1
 91
        4
 64
     7
 65
   257
 75
     1
175
     1
 42
1.0
 92
        0
 66
   257
 43
1.0
 76
     1
 77
     6
 78
     2
 67
     7
 79
     5
170
     0
171
     0
290
     0
174
     0
 93
        1
 44
0.0
173
     0
291
     0
 45
0.0
1001
ACAD
1000
AcDbSavedByObjectVersion
1070
     0
  0
VISUALSTYLE
  5
9FB2
102
{ACAD_XDICTIONARY
360
A00F
102
}
102
{ACAD_REACTORS
330
9FAD
102
}
330
9FAD
100
AcDbVisualStyle
  2
Basic
 70
     7
 71
     1
 72
     0
 73
     1
 90
        0
 40
-0.6
 41
-30.0
 62
     5
 63
     7
 74
     0
 91
        4
 64
     7
 65
   257
 75
     1
175
     1
 42
1.0
 92
        8
 66
     7
 43
1.0
 76
     1
 77
     6
 78
     2
 67
     7
 79
     5
170
     0
171
     0
290
     0
174
     0
 93
        1
 44
0.0
173
     0
291
     1
 45
0.0
1001
ACAD
1000
AcDbSavedByObjectVersion
1070
     0
  0
VISUALSTYLE
  5
9FB9
102
{ACAD_XDICTIONARY
360
A01D
102
}
102
{ACAD_REACTORS
330
9FAD
102
}
330
9FAD
100
AcDbVisualStyle
  2
Brighten
 70
    12
 71
     2
 72
     2
 73
     0
 90
        0
 40
-0.6
 41
-30.0
 62
     5
 63
     7
 74
     1
 91
        4
 64
     7
 65
   257
 75
     1
175
     1
 42
1.0
 92
        8
 66
     7
 43
1.0
 76
     1
 77
     6
 78
     2
 67
     7
 79
     5
170
     0
171
     0
290
     0
174
     0
 93
        1
 44
50.0
173
     0
291
     1
 45
0.0
1001
ACAD
1000
AcDbSavedByObjectVersion
1070
     0
  0
VISUALSTYLE
  5
9FBD
102
{ACAD_XDICTIONARY
360
A025
102
}
102
{ACAD_REACTORS
330
9FAD
102
}
330
9FAD
100
AcDbVisualStyle
  2
ColorChange
 70
    16
 71
     2
 72
     2
 73
     3
 90
        0
 40
-0.6
 41
-30.0
 62
     5
 63
     8
 74
     1
 91
        4
 64
     7
 65
   257
 75
     1
175
     1
 42
1.0
 92
        8
 66
     8
 43
1.0
 76
     1
 77
     6
 78
     2
 67
     7
 79
     5
170
     0
171
     0
290
     0
174
     0
 93
        1
 44
0.0
173
     0
291
     1
 45
0.0
1001
ACAD
1000
AcDbSavedByObjectVersion
1070
     0
  0
VISUALSTYLE
  5
9FB6
102
{ACAD_XDICTIONARY
360
A017
102
}
102
{ACAD_REACTORS
330
9FAD
102
}
330
9FAD
100
AcDbVisualStyle
  2
Conceptual
 70
     9
 71
     3
 72
     2
 73
     0
 90
        0
 40
-0.6
 41
-30.0
 62
     5
 63
     7
 74
     2
 91
        2
 64
     7
 65
   257
 75
     1
175
     1
 42
179.0
 92
        8
 66
     7
 43
1.0
 76
     1
 77
     6
 78
     2
 67
     7
 79
     3
170
     0
171
     0
290
     0
174
     0
 93
        1
 44
0.0
173
     0
291
     0
 45
0.0
1001
ACAD
1000
AcDbSavedByObjectVersion
1070
     0
  0
VISUALSTYLE
  5
9FB8
102
{ACAD_XDICTIONARY
360
A01B
102
}
102
{ACAD_REACTORS
330
9FAD
102
}
330
9FAD
100
AcDbVisualStyle
  2
Dim
 70
    11
 71
     2
 72
     2
 73
     0
 90
        0
 40
-0.6
 41
-30.0
 62
     5
 63
     7
 74
     1
 91
        4
 64
     7
 65
   257
 75
     1
175
     1
 42
1.0
 92
        8
 66
     7
 43
1.0
 76
     1
 77
     6
 78
     2
 67
     7
 79
     5
170
     0
171
     0
290
     0
174
     0
 93
        1
 44
-50.0
173
     0
291
     1
 45
0.0
1001
ACAD
1000
AcDbSavedByObjectVersion
1070
     0
  0
VISUALSTYLE
  5
9FC5
102
{ACAD_XDICTIONARY
360
A035
102
}
102
{ACAD_REACTORS
330
9FAD
102
}
330
9FAD
100
AcDbVisualStyle
  2
EdgeColorOff
 70
    22
 71
     2
 72
     2
 73
     0
 90
        0
 40
-0.6
 41
-30.0
 62
     5
 63
     7
 74
     1
 91
        4
 64
     7
 65
   257
 75
     1
175
     1
 42
1.0
 92
        8
 66
     7
 43
1.0
 76
     1
 77
     6
 78
     2
 67
     7
 79
     5
170
     0
171
     0
290
     0
174
     0
 93
        1
 44
0.0
173
     0
291
     1
 45
0.0
1001
ACAD
1000
AcDbSavedByObjectVersion
1070
     0
  0
VISUALSTYLE
  5
9FBC
102
{ACAD_XDICTIONARY
360
A023
102
}
102
{ACAD_REACTORS
330
9FAD
102
}
330
9FAD
100
AcDbVisualStyle
  2
Facepattern
 70
    15
 71
     2
 72
     2
 73
     0
 90
        0
 40
-0.6
 41
-30.0
 62
     5
 63
     7
 74
     1
 91
        4
 64
     7
 65
   257
 75
     1
175
     1
 42
1.0
 92
        8
 66
     7
 43
1.0
 76
     1
 77
     6
 78
     2
 67
     7
 79
     5
170
     0
171
     0
290
     0
174
     0
 93
        1
 44
0.0
173
     0
291
     1
 45
0.0
1001
ACAD
1000
AcDbSavedByObjectVersion
1070
     0
  0
VISUALSTYLE
  5
9FAE
102
{ACAD_XDICTIONARY
360
A007
102
}
102
{ACAD_REACTORS
330
9FAD
102
}
330
9FAD
100
AcDbVisualStyle
  2
Flat
 70
     0
 71
     2
 72
     1
 73
     1
 90
        2
 40
-0.6
 41
30.0
 62
     5
 63
     7
 74
     0
 91
        0
 64
     7
 65
   257
 75
     1
175
     1
 42
1.0
 92
        8
 66
     7
 43
1.0
 76
     1
 77
     6
 78
     2
 67
     7
 79
     5
170
     0
171
     0
290
     0
174
     0
 93
       13
 44
0.0
173
     0
291
     1
 45
0.0
1001
ACAD
1000
AcDbSavedByObjectVersion
1070
     0
  0
VISUALSTYLE
  5
9FAF
102
{ACAD_XDICTIONARY
360
A009
102
}
102
{ACAD_REACTORS
330
9FAD
102
}
330
9FAD
100
AcDbVisualStyle
  2
FlatWithEdges
 70
     1
 71
     2
 72
     1
 73
     1
 90
        2
 40
-0.6
 41
30.0
 62
     5
 63
     7
 74
     1
 91
        0
 64
     7
 65
   257
 75
     1
175
     1
 42
1.0
 92
        0
 66
   257
 43
1.0
 76
     1
 77
     6
 78
     2
 67
     7
 79
     5
170
     0
171
     0
290
     0
174
     0
 93
       13
 44
0.0
173
     0
291
     1
 45
0.0
1001
ACAD
1000
AcDbSavedByObjectVersion
1070
     0
  0
VISUALSTYLE
  5
9FB0
102
{ACAD_XDICTIONARY
360
A00B
102
}
102
{ACAD_REACTORS
330
9FAD
102
}
330
9FAD
100
AcDbVisualStyle
  2
Gouraud
 70
     2
 71
     2
 72
     2
 73
     1
 90
        2
 40
-0.6
 41
30.0
 62
     5
 63
     7
 74
     0
 91
        0
 64
     7
 65
   257
 75
     1
175
     1
 42
1.0
 92
        0
 66
     7
 43
1.0
 76
     1
 77
     6
 78
     2
 67
     7
 79
     5
170
     0
171
     0
290
     0
174
     0
 93
       13
 44
0.0
173
     0
291
     1
 45
0.0
1001
ACAD
1000
AcDbSavedByObjectVersion
1070
     0
  0
VISUALSTYLE
  5
9FB1
102
{ACAD_XDICTIONARY
360
A00D
102
}
102
{ACAD_REACTORS
330
9FAD
102
}
330
9FAD
100
AcDbVisualStyle
  2
GouraudWithEdges
 70
     3
 71
     2
 72
     2
 73
     1
 90
        2
 40
-0.6
 41
30.0
 62
     5
 63
     7
 74
     1
 91
        0
 64
     7
 65
   257
 75
     1
175
     1
 42
1.0
 92
        0
 66
   257
 43
1.0
 76
     1
 77
     6
 78
     2
 67
     7
 79
     5
170
     0
171
     0
290
     0
174
     0
 93
       13
 44
0.0
173
     0
291
     1
 45
0.0
1001
ACAD
1000
AcDbSavedByObjectVersion
1070
     0
  0
VISUALSTYLE
  5
9FB5
102
{ACAD_XDICTIONARY
360
A015
102
}
102
{ACAD_REACTORS
330
9FAD
102
}
330
9FAD
100
AcDbVisualStyle
  2
Hidden
 70
     6
 71
     1
 72
     2
 73
     2
 90
        0
 40
-0.6
 41
-30.0
 62
     5
 63
     7
 74
     2
 91
        2
 64
     7
 65
   257
 75
     2
175
     1
 42
40.0
 92
        0
 66
   257
 43
1.0
 76
     1
 77
     6
 78
     2
 67
     7
 79
     3
170
     0
171
     0
290
     0
174
     0
 93
        1
 44
0.0
173
     0
291
     0
 45
0.0
1001
ACAD
1000
AcDbSavedByObjectVersion
1070
     0
  0
VISUALSTYLE
  5
9FC3
102
{ACAD_XDICTIONARY
360
A031
102
}
102
{ACAD_REACTORS
330
9FAD
102
}
330
9FAD
100
AcDbVisualStyle
  2
JitterOff
 70
    20
 71
     2
 72
     2
 73
     0
 90
        0
 40
-0.6
 41
-30.0
 62
     5
 63
     7
 74
     1
 91
        4
 64
     7
 65
   257
 75
     1
175
     1
 42
1.0
 92
       10
 66
     7
 43
1.0
 76
     1
 77
     6
 78
     2
 67
     7
 79
     5
170
     0
171
     0
290
     0
174
     0
 93
        1
 44
0.0
173
     0
291
     1
 45
0.0
1001
ACAD
1000
AcDbSavedByObjectVersion
1070
     0
  0
VISUALSTYLE
  5
9FBB
102
{ACAD_XDICTIONARY
360
A021
102
}
102
{ACAD_REACTORS
330
9FAD
102
}
330
9FAD
100
AcDbVisualStyle
  2
Linepattern
 70
    14
 71
     2
 72
     2
 73
     0
 90
        0
 40
-0.6
 41
-30.0
 62
     5
 63
     7
 74
     1
 91
        4
 64
     7
 65
   257
 75
     7
175
     7
 42
1.0
 92
        8
 66
     7
 43
1.0
 76
     1
 77
     6
 78
     2
 67
     7
 79
     5
170
     0
171
     0
290
     0
174
     0
 93
        1
 44
0.0
173
     0
291
     1
 45
0.0
1001
ACAD
1000
AcDbSavedByObjectVersion
1070
     0
  0
VISUALSTYLE
  5
9FC4
102
{ACAD_XDICTIONARY
360
A033
102
}
102
{ACAD_REACTORS
330
9FAD
102
}
330
9FAD
100
AcDbVisualStyle
  2
OverhangOff
 70
    21
 71
     2
 72
     2
 73
     0
 90
        0
 40
-0.6
 41
-30.0
 62
     5
 63
     7
 74
     1
 91
        4
 64
     7
 65
   257
 75
     1
175
     1
 42
1.0
 92
        9
 66
     7
 43
1.0
 76
     1
 77
     6
 78
     2
 67
     7
 79
     5
170
     0
171
     0
290
     0
174
     0
 93
        1
 44
0.0
173
     0
291
     1
 45
0.0
1001
ACAD
1000
AcDbSavedByObjectVersion
1070
     0
  0
VISUALSTYLE
  5
9FB7
102
{ACAD_XDICTIONARY
360
A019
102
}
102
{ACAD_REACTORS
330
9FAD
102
}
330
9FAD
100
AcDbVisualStyle
  2
Realistic
 70
     8
 71
     2
 72
     3
 73
     0
 90
        2
 40
-0.6
 41
30.0
 62
     5
 63
     7
 74
     0
 91
        0
 64
     7
 65
   257
 75
     1
175
     1
 42
1.0
 92
        8
 66
   257
 43
1.0
 76
     1
 77
     6
 78
     2
 67
     7
 79
     3
170
     0
171
     0
290
     0
174
     0
 93
       13
 44
0.0
173
     0
291
     0
 45
0.0
1001
ACAD
1000
AcDbSavedByObjectVersion
1070
     0
  0
VISUALSTYLE
  5
9FC2
102
{ACAD_XDICTIONARY
360
A02F
102
}
102
{ACAD_REACTORS
330
9FAD
102
}
330
9FAD
100
AcDbVisualStyle
  2
Shaded
 70
    27
 71
     2
 72
     2
 73
     1
 90
        2
 40
-0.6
 41
30.0
 62
     5
 63
     7
 74
     0
 91
        4
 64
     7
 65
   257
 75
     1
175
     1
 42
1.0
 92
        8
 66
   257
 43
1.0
 76
     1
 77
     6
 78
     2
 67
     8
 79
     3
170
     0
171
     0
290
     0
174
     0
 93
        5
 44
0.0
173
     0
291
     0
 45
0.0
1001
ACAD
1000
AcDbSavedByObjectVersion
1070
     0
  0
VISUALSTYLE
  5
9FC1
102
{ACAD_XDICTIONARY
360
A02D
102
}
102
{ACAD_REACTORS
330
9FAD
102
}
330
9FAD
100
AcDbVisualStyle
  2
Shaded with edges
 70
    26
 71
     2
 72
     2
 73
     1
 90
        2
 40
-0.6
 41
30.0
 62
     5
 63
     7
 74
     1
 91
       10
 64
     7
 65
   257
 75
     2
175
     1
 42
1.0
 92
        8
 66
   257
 43
1.0
 76
     1
 77
     6
 78
     2
 67
     7
 79
     3
170
     0
171
     0
290
     0
174
     0
 93
        5
 44
0.0
173
     0
291
     0
 45
0.0
1001
ACAD
1000
AcDbSavedByObjectVersion
1070
     0
  0
VISUALSTYLE
  5
9FBE
102
{ACAD_XDICTIONARY
360
A027
102
}
102
{ACAD_REACTORS
330
9FAD
102
}
330
9FAD
100
AcDbVisualStyle
  2
Shades of Gray
 70
    23
 71
     2
 72
     2
 73
     3
 90
        0
 40
-0.6
 41
-30.0
 62
     5
 63
     7
 74
     2
 91
        2
 64
     7
 65
     7
 75
     1
175
     1
 42
40.0
 92
        8
 66
     7
 43
1.0
 76
     1
 77
     6
 78
     2
 67
     7
 79
     3
170
     0
171
     0
290
     0
174
     0
 93
        1
 44
0.0
173
     0
291
     0
 45
0.0
1001
ACAD
1000
AcDbSavedByObjectVersion
1070
     0
  0
VISUALSTYLE
  5
9FBF
102
{ACAD_XDICTIONARY
360
A029
102
}
102
{ACAD_REACTORS
330
9FAD
102
}
330
9FAD
100
AcDbVisualStyle
  2
Sketchy
 70
    24
 71
     1
 72
     2
 73
     2
 90
        0
 40
-0.6
 41
-30.0
 62
     5
 63
     7
 74
     2
 91
        2
 64
     7
 65
     7
 75
     1
175
     1
 42
40.0
 92
       11
 66
     7
 43
1.0
 76
     1
 77
     6
 78
     2
 67
     7
 79
     6
170
     0
171
     0
290
     0
174
     0
 93
        1
 44
0.0
173
     0
291
     0
 45
0.0
1001
ACAD
1000
AcDbSavedByObjectVersion
1070
     0
  0
VISUALSTYLE
  5
9FBA
102
{ACAD_XDICTIONARY
360
A01F
102
}
102
{ACAD_REACTORS
330
9FAD
102
}
330
9FAD
100
AcDbVisualStyle
  2
Thicken
 70
    13
 71
     2
 72
     2
 73
     0
 90
        0
 40
-0.6
 41
-30.0
 62
     5
 63
     7
 74
     1
 91
        4
 64
     7
 65
   257
 75
     1
175
     1
 42
1.0
 92
       12
 66
     7
 43
1.0
 76
     1
 77
     6
 78
     2
 67
     7
 79
     5
170
     0
171
     0
290
     0
174
     0
 93
        1
 44
0.0
173
     0
291
     1
 45
0.0
1001
ACAD
1000
AcDbSavedByObjectVersion
1070
     0
  0
VISUALSTYLE
  5
9FB4
102
{ACAD_XDICTIONARY
360
A013
102
}
102
{ACAD_REACTORS
330
9FAD
102
}
330
9FAD
100
AcDbVisualStyle
  2
Wireframe
 70
     5
 71
     0
 72
     2
 73
     0
 90
        0
 40
-0.6
 41
-30.0
 62
     5
 63
     7
 74
     1
 91
        4
 64
     7
 65
   257
 75
     1
175
     1
 42
1.0
 92
        0
 66
   257
 43
1.0
 76
     1
 77
     6
 78
     2
 67
     7
 79
     3
170
     0
171
     0
290
     0
174
     0
 93
        1
 44
0.0
173
     0
291
     0
 45
0.0
1001
ACAD
1000
AcDbSavedByObjectVersion
1070
     0
  0
VISUALSTYLE
  5
9FC0
102
{ACAD_XDICTIONARY
360
A02B
102
}
102
{ACAD_REACTORS
330
9FAD
102
}
330
9FAD
100
AcDbVisualStyle
  2
X-Ray
 70
    25
 71
     2
 72
     2
 73
     1
 90
        1
 40
0.5
 41
-30.0
 62
     5
 63
     7
 74
     1
 91
        0
 64
     7
 65
   257
 75
     1
175
     1
 42
1.0
 92
        8
 66
     7
 43
1.0
 76
     1
 77
     6
 78
     2
 67
     7
 79
     3
170
     0
171
     0
290
     0
174
     0
 93
       13
 44
0.0
173
     0
291
     0
 45
0.0
1001
ACAD
1000
AcDbSavedByObjectVersion
1070
     0
  0
DICTIONARYVAR
  5
9FFA
102
{ACAD_REACTORS
330
9FF5
102
}
330
9FF5
100
DictionaryVariables
280
     0
  1
1:1
  0
DICTIONARYVAR
  5
9FF7
102
{ACAD_REACTORS
330
9FF5
102
}
330
9FF5
100
DictionaryVariables
280
     0
  1
STANDARD
  0
DICTIONARYVAR
  5
9FF6
102
{ACAD_REACTORS
330
9FF5
102
}
330
9FF5
100
DictionaryVariables
280
     0
  1
STANDARD
  0
DICTIONARYVAR
  5
9FF8
102
{ACAD_REACTORS
330
9FF5
102
}
330
9FF5
100
DictionaryVariables
280
     0
  1
Imperial24
  0
DICTIONARYVAR
  5
9FF9
102
{ACAD_REACTORS
330
9FF5
102
}
330
9FF5
100
DictionaryVariables
280
     0
  1
Imperial24
  0
DICTIONARYVAR
  5
9FFD
102
{ACAD_REACTORS
330
9FF5
102
}
330
9FF5
100
DictionaryVariables
280
     0
  1
1
  0
DICTIONARYVAR
  5
9FFC
102
{ACAD_REACTORS
330
9FF5
102
}
330
9FF5
100
DictionaryVariables
280
     0
  1
0
  0
DICTIONARYVAR
  5
9FFB
102
{ACAD_REACTORS
330
9FF5
102
}
330
9FF5
100
DictionaryVariables
280
     0
  1
127
  0
DICTIONARYVAR
  5
9FFE
102
{ACAD_REACTORS
330
9FF5
102
}
330
9FF5
100
DictionaryVariables
280
     0
  1
2
  0
DICTIONARY
  5
A03B
330
9FE0
100
AcDbDictionary
280
     1
281
     1
  3
ACAD_XREC_ROUNDTRIP
360
A03C
  0
DICTIONARY
  5
A03D
330
9FE1
100
AcDbDictionary
280
     1
281
     1
  3
ACAD_XREC_ROUNDTRIP
360
A03E
  0
DICTIONARY
  5
A03F
330
9FE2
100
AcDbDictionary
280
     1
281
     1
  3
ACAD_XREC_ROUNDTRIP
360
A040
  0
DICTIONARY
  5
9F9E
330
9F9D
100
AcDbDictionary
280
     1
281
     1
  3
ACAD_XREC_ROUNDTRIP
360
A005
  3
BUMPTILE
360
9FA0
  3
DIFFUSETILE
360
9F9F
  3
OPACITYTILE
360
9FA3
  3
REFLECTIONTILE
360
9FA2
  3
REFRACTIONTILE
360
9FA4
  3
SPECULARTILE
360
9FA1
  0
DICTIONARY
  5
9F96
330
9F95
100
AcDbDictionary
280
     1
281
     1
  3
ACAD_XREC_ROUNDTRIP
360
A004
  3
BUMPTILE
360
9F98
  3
DIFFUSETILE
360
9F97
  3
OPACITYTILE
360
9F9B
  3
REFLECTIONTILE
360
9F9A
  3
REFRACTIONTILE
360
9F9C
  3
SPECULARTILE
360
9F99
  0
DICTIONARY
  5
9FA6
330
9FA5
100
AcDbDictionary
280
     1
281
     1
  3
ACAD_XREC_ROUNDTRIP
360
A006
  3
BUMPTILE
360
9FA8
  3
DIFFUSETILE
360
9FA7
  3
OPACITYTILE
360
9FAB
  3
REFLECTIONTILE
360
9FAA
  3
REFRACTIONTILE
360
9FAC
  3
SPECULARTILE
360
9FA9
  0
DICTIONARY
  5
A039
330
9FDE
100
AcDbDictionary
280
     1
281
     1
  3
ACAD_XREC_ROUNDTRIP
360
A03A
  0
DICTIONARY
  5
A000
330
9FC8
100
AcDbDictionary
280
     1
281
     1
  3
ACAD_ROUNDTRIP_2008_TABLESTYLE_CELLSTYLEMAP
360
A001
  3
ACAD_XREC_ROUNDTRIP
360
A037
  0
DICTIONARY
  5
A011
330
9FB3
100
AcDbDictionary
280
     1
281
     1
  3
ACAD_XREC_ROUNDTRIP
360
A012
  0
DICTIONARY
  5
A00F
330
9FB2
100
AcDbDictionary
280
     1
281
     1
  3
ACAD_XREC_ROUNDTRIP
360
A010
  0
DICTIONARY
  5
A01D
330
9FB9
100
AcDbDictionary
280
     1
281
     1
  3
ACAD_XREC_ROUNDTRIP
360
A01E
  0
DICTIONARY
  5
A025
330
9FBD
100
AcDbDictionary
280
     1
281
     1
  3
ACAD_XREC_ROUNDTRIP
360
A026
  0
DICTIONARY
  5
A017
330
9FB6
100
AcDbDictionary
280
     1
281
     1
  3
ACAD_XREC_ROUNDTRIP
360
A018
  0
DICTIONARY
  5
A01B
330
9FB8
100
AcDbDictionary
280
     1
281
     1
  3
ACAD_XREC_ROUNDTRIP
360
A01C
  0
DICTIONARY
  5
A035
330
9FC5
100
AcDbDictionary
280
     1
281
     1
  3
ACAD_XREC_ROUNDTRIP
360
A036
  0
DICTIONARY
  5
A023
330
9FBC
100
AcDbDictionary
280
     1
281
     1
  3
ACAD_XREC_ROUNDTRIP
360
A024
  0
DICTIONARY
  5
A007
330
9FAE
100
AcDbDictionary
280
     1
281
     1
  3
ACAD_XREC_ROUNDTRIP
360
A008
  0
DICTIONARY
  5
A009
330
9FAF
100
AcDbDictionary
280
     1
281
     1
  3
ACAD_XREC_ROUNDTRIP
360
A00A
  0
DICTIONARY
  5
A00B
330
9FB0
100
AcDbDictionary
280
     1
281
     1
  3
ACAD_XREC_ROUNDTRIP
360
A00C
  0
DICTIONARY
  5
A00D
330
9FB1
100
AcDbDictionary
280
     1
281
     1
  3
ACAD_XREC_ROUNDTRIP
360
A00E
  0
DICTIONARY
  5
A015
330
9FB5
100
AcDbDictionary
280
     1
281
     1
  3
ACAD_XREC_ROUNDTRIP
360
A016
  0
DICTIONARY
  5
A031
330
9FC3
100
AcDbDictionary
280
     1
281
     1
  3
ACAD_XREC_ROUNDTRIP
360
A032
  0
DICTIONARY
  5
A021
330
9FBB
100
AcDbDictionary
280
     1
281
     1
  3
ACAD_XREC_ROUNDTRIP
360
A022
  0
DICTIONARY
  5
A033
330
9FC4
100
AcDbDictionary
280
     1
281
     1
  3
ACAD_XREC_ROUNDTRIP
360
A034
  0
DICTIONARY
  5
A019
330
9FB7
100
AcDbDictionary
280
     1
281
     1
  3
ACAD_XREC_ROUNDTRIP
360
A01A
  0
DICTIONARY
  5
A02F
330
9FC2
100
AcDbDictionary
280
     1
281
     1
  3
ACAD_XREC_ROUNDTRIP
360
A030
  0
DICTIONARY
  5
A02D
330
9FC1
100
AcDbDictionary
280
     1
281
     1
  3
ACAD_XREC_ROUNDTRIP
360
A02E
  0
DICTIONARY
  5
A027
330
9FBE
100
AcDbDictionary
280
     1
281
     1
  3
ACAD_XREC_ROUNDTRIP
360
A028
  0
DICTIONARY
  5
A029
330
9FBF
100
AcDbDictionary
280
     1
281
     1
  3
ACAD_XREC_ROUNDTRIP
360
A02A
  0
DICTIONARY
  5
A01F
330
9FBA
100
AcDbDictionary
280
     1
281
     1
  3
ACAD_XREC_ROUNDTRIP
360
A020
  0
DICTIONARY
  5
A013
330
9FB4
100
AcDbDictionary
280
     1
281
     1
  3
ACAD_XREC_ROUNDTRIP
360
A014
  0
DICTIONARY
  5
A02B
330
9FC0
100
AcDbDictionary
280
     1
281
     1
  3
ACAD_XREC_ROUNDTRIP
360
A02C
  0
XRECORD
  5
A03C
102
{ACAD_REACTORS
330
A03B
102
}
330
A03B
100
AcDbXrecord
280
     1
102
DISPLAYNAME
  1
Imperial24
102
FLAGS
 90
        0
  0
XRECORD
  5
A03E
102
{ACAD_REACTORS
330
A03D
102
}
330
A03D
100
AcDbXrecord
280
     1
102
SHADEPLOT
 70
     0
102
SHADEPLOTRESLEVEL
 70
     2
102
SHADEPLOTCUSTOMDPI
 70
   300
  0
XRECORD
  5
A040
102
{ACAD_REACTORS
330
A03F
102
}
330
A03F
100
AcDbXrecord
280
     1
102
SHADEPLOT
 70
     0
102
SHADEPLOTRESLEVEL
 70
     2
102
SHADEPLOTCUSTOMDPI
 70
   300
  0
XRECORD
  5
A005
102
{ACAD_REACTORS
330
9F9E
102
}
330
9F9E
100
AcDbXrecord
280
     1
102
MATERIAL
148
0.0
149
0.0
149
0.0
 93
        0
 94
      127
282
     0
 72
     0
 77
     0
171
     0
175
     0
179
     0
273
     0
  0
XRECORD
  5
9FA0
102
{ACAD_REACTORS
330
9F9E
102
}
330
9F9E
100
AcDbXrecord
280
     1
270
     1
271
     1
  0
XRECORD
  5
9F9F
102
{ACAD_REACTORS
330
9F9E
102
}
330
9F9E
100
AcDbXrecord
280
     1
270
     1
271
     1
  0
XRECORD
  5
9FA3
102
{ACAD_REACTORS
330
9F9E
102
}
330
9F9E
100
AcDbXrecord
280
     1
270
     1
271
     1
  0
XRECORD
  5
9FA2
102
{ACAD_REACTORS
330
9F9E
102
}
330
9F9E
100
AcDbXrecord
280
     1
270
     1
271
     1
  0
XRECORD
  5
9FA4
102
{ACAD_REACTORS
330
9F9E
102
}
330
9F9E
100
AcDbXrecord
280
     1
270
     1
271
     1
  0
XRECORD
  5
9FA1
102
{ACAD_REACTORS
330
9F9E
102
}
330
9F9E
100
AcDbXrecord
280
     1
270
     1
271
     1
  0
XRECORD
  5
A004
102
{ACAD_REACTORS
330
9F96
102
}
330
9F96
100
AcDbXrecord
280
     1
102
MATERIAL
148
0.0
149
0.0
149
0.0
 93
        0
 94
      127
282
     0
 72
     0
 77
     0
171
     0
175
     0
179
     0
273
     0
  0
XRECORD
  5
9F98
102
{ACAD_REACTORS
330
9F96
102
}
330
9F96
100
AcDbXrecord
280
     1
270
     1
271
     1
  0
XRECORD
  5
9F97
102
{ACAD_REACTORS
330
9F96
102
}
330
9F96
100
AcDbXrecord
280
     1
270
     1
271
     1
  0
XRECORD
  5
9F9B
102
{ACAD_REACTORS
330
9F96
102
}
330
9F96
100
AcDbXrecord
280
     1
270
     1
271
     1
  0
XRECORD
  5
9F9A
102
{ACAD_REACTORS
330
9F96
102
}
330
9F96
100
AcDbXrecord
280
     1
270
     1
271
     1
  0
XRECORD
  5
9F9C
102
{ACAD_REACTORS
330
9F96
102
}
330
9F96
100
AcDbXrecord
280
     1
270
     1
271
     1
  0
XRECORD
  5
9F99
102
{ACAD_REACTORS
330
9F96
102
}
330
9F96
100
AcDbXrecord
280
     1
270
     1
271
     1
  0
XRECORD
  5
A006
102
{ACAD_REACTORS
330
9FA6
102
}
330
9FA6
100
AcDbXrecord
280
     1
102
MATERIAL
148
0.0
149
0.0
149
0.0
 93
        0
 94
      127
282
     0
 72
     0
 77
     0
171
     0
175
     0
179
     0
273
     0
  0
XRECORD
  5
9FA8
102
{ACAD_REACTORS
330
9FA6
102
}
330
9FA6
100
AcDbXrecord
280
     1
270
     1
271
     1
  0
XRECORD
  5
9FA7
102
{ACAD_REACTORS
330
9FA6
102
}
330
9FA6
100
AcDbXrecord
280
     1
270
     1
271
     1
  0
XRECORD
  5
9FAB
102
{ACAD_REACTORS
330
9FA6
102
}
330
9FA6
100
AcDbXrecord
280
     1
270
     1
271
     1
  0
XRECORD
  5
9FAA
102
{ACAD_REACTORS
330
9FA6
102
}
330
9FA6
100
AcDbXrecord
280
     1
270
     1
271
     1
  0
XRECORD
  5
9FAC
102
{ACAD_REACTORS
330
9FA6
102
}
330
9FA6
100
AcDbXrecord
280
     1
270
     1
271
     1
  0
XRECORD
  5
9FA9
102
{ACAD_REACTORS
330
9FA6
102
}
330
9FA6
100
AcDbXrecord
280
     1
270
     1
271
     1
  0
XRECORD
  5
A03A
102
{ACAD_REACTORS
330
A039
102
}
330
A039
100
AcDbXrecord
280
     1
102
DISPLAYNAME
  1
Imperial24
102
FLAGS
 90
        0
  0
CELLSTYLEMAP
  5
A001
102
{ACAD_REACTORS
330
A000
102
}
330
A000
100
AcDbCellStyleMap
 90
        3
300
CELLSTYLE
  1
TABLEFORMAT_BEGIN
 90
        5
170
     1
 91
        0
 92
    32768
 62
   257
 93
        1
300
CONTENTFORMAT
  1
CONTENTFORMAT_BEGIN
 90
        0
 91
        0
 92
      512
 93
        0
300

 40
0.0
140
1.0
 94
        5
 62
     0
340
9D9B
144
0.25
309
CONTENTFORMAT_END
171
     0
 94
        0
309
TABLEFORMAT_END
  1
CELLSTYLE_BEGIN
 90
        1
 91
        1
300
_TITLE
309
CELLSTYLE_END
300
CELLSTYLE
  1
TABLEFORMAT_BEGIN
 90
        5
170
     1
 91
        0
 92
        0
 62
   257
 93
        1
300
CONTENTFORMAT
  1
CONTENTFORMAT_BEGIN
 90
        0
 91
        0
 92
      512
 93
        0
300

 40
0.0
140
1.0
 94
        5
 62
     0
340
9D9B
144
0.18
309
CONTENTFORMAT_END
171
     0
 94
        0
309
TABLEFORMAT_END
  1
CELLSTYLE_BEGIN
 90
        2
 91
        1
300
_HEADER
309
CELLSTYLE_END
300
CELLSTYLE
  1
TABLEFORMAT_BEGIN
 90
        5
170
     1
 91
        0
 92
        0
 62
   257
 93
        1
300
CONTENTFORMAT
  1
CONTENTFORMAT_BEGIN
 90
        0
 91
        0
 92
      512
 93
        0
300

 40
0.0
140
1.0
 94
        2
 62
     0
340
9D9B
144
0.18
309
CONTENTFORMAT_END
171
     0
 94
        0
309
TABLEFORMAT_END
  1
CELLSTYLE_BEGIN
 90
        3
 91
        2
300
_DATA
309
CELLSTYLE_END
  0
XRECORD
  5
A037
102
{ACAD_REACTORS
330
A000
102
}
330
A000
100
AcDbXrecord
280
     1
102
ACAD_ROUNDTRIP_PRE2007_TABLESTYLE
 90
      512
 91
        0
  1

 92
      512
 93
        0
  2

 94
      512
 95
        0
  3

  0
XRECORD
  5
A012
102
{ACAD_REACTORS
330
A011
102
}
330
A011
100
AcDbXrecord
280
     1
102
RTVSPost2010Prop28
280
     1
102
RTVSPost2010PropOp28
 70
     1
102
RTVSPost2010Prop29
280
     1
102
RTVSPost2010PropOp29
 70
     1
102
RTVSPost2010Prop30
280
     0
102
RTVSPost2010PropOp30
 70
     1
102
RTVSPost2010Prop31
280
     0
102
RTVSPost2010PropOp31
 70
     1
102
RTVSPost2010Prop32
280
     0
102
RTVSPost2010PropOp32
 70
     1
102
RTVSPost2010Prop33
280
     0
102
RTVSPost2010PropOp33
 70
     1
102
RTVSPost2010Prop34
280
     0
102
RTVSPost2010PropOp34
 70
     1
102
RTVSPost2010Prop35
280
     0
102
RTVSPost2010PropOp35
 70
     1
102
RTVSPost2010Prop36
280
     0
102
RTVSPost2010PropOp36
 70
     1
102
RTVSPost2010Prop37
 90
       50
102
RTVSPost2010PropOp37
 70
     1
102
RTVSPost2010Prop38
140
0.0
102
RTVSPost2010PropOp38
 70
     1
102
RTVSPost2010Prop39
140
1.0
102
RTVSPost2010PropOp39
 70
     1
102
RTVSPost2010Prop40
 90
        0
102
RTVSPost2010PropOp40
 70
     1
102
RTVSPost2010Prop41ColorIndex
 90
       18
102
RTVSPost2010Prop41ColorRGB
 90
        0
102
RTVSPost2010PropOp41
 70
     1
102
RTVSPost2010Prop42
 90
       50
102
RTVSPost2010PropOp42
 70
     1
102
RTVSPost2010Prop43
 90
        3
102
RTVSPost2010PropOp43
 70
     1
102
RTVSPost2010Prop44ColorIndex
 90
        5
102
RTVSPost2010Prop44ColorRGB
 90
      255
102
RTVSPost2010PropOp44
 70
     1
102
RTVSPost2010Prop45
280
     0
102
RTVSPost2010PropOp45
 70
     1
102
RTVSPost2010Prop46
 90
       50
102
RTVSPost2010PropOp46
 70
     1
102
RTVSPost2010Prop47
 90
       50
102
RTVSPost2010PropOp47
 70
     1
102
RTVSPost2010Prop48
 90
       50
102
RTVSPost2010PropOp48
 70
     1
102
RTVSPost2010Prop49
280
     0
102
RTVSPost2010PropOp49
 70
     1
102
RTVSPost2010Prop50
 90
       50
102
RTVSPost2010PropOp50
 70
     1
102
RTVSPost2010Prop51ColorIndex
 90
      256
102
RTVSPost2010Prop51ColorRGB
 90
-16777216
102
RTVSPost2010PropOp51
 70
     0
102
RTVSPost2010Prop52
140
1.0
102
RTVSPost2010PropOp52
 70
     0
102
RTVSPost2010Prop53
 90
        2
102
RTVSPost2010PropOp53
 70
     1
102
RTVSPost2010Prop54
  1
strokes_ogs.tif
102
RTVSPost2010PropOp54
 70
     1
102
RTVSPost2010Prop55
280
     0
102
RTVSPost2010PropOp55
 70
     1
102
RTVSPost2010Prop56
140
1.0
102
RTVSPost2010PropOp56
 70
     1
102
RTVSPost2010Prop57
140
1.0
102
RTVSPost2010PropOp57
 70
     1
102
RTVSPropertyOp0
 70
     1
102
RTVSPropertyOp1
 70
     1
102
RTVSPropertyOp2
 70
     1
102
RTVSPropertyOp3
 70
     1
102
RTVSPropertyOp4
 70
     1
102
RTVSPropertyOp5
 70
     1
102
RTVSPropertyOp6
 70
     1
102
RTVSPropertyOp7
 70
     1
102
RTVSPropertyOp8
 70
     1
102
RTVSPropertyOp9
 70
     1
102
RTVSPropertyOp10
 70
     1
102
RTVSPropertyOp11
 70
     1
102
RTVSPropertyOp12
 70
     1
102
RTVSPropertyOp13
 70
     1
102
RTVSPropertyOp14
 70
     1
102
RTVSPropertyOp15
 70
     1
102
RTVSPropertyOp16
 70
     1
102
RTVSPropertyOp17
 70
     1
102
RTVSPropertyOp18
 70
     1
102
RTVSPropertyOp19
 70
     1
102
RTVSPropertyOp20
 70
     1
102
RTVSPropertyOp21
 70
     1
102
RTVSPropertyOp22
 70
     1
102
RTVSPropertyOp23
 70
     1
102
RTVSPropertyOp24
 70
     1
102
RTVSPropertyOp25
 70
     1
102
RTVSPropertyOp26
 70
     1
102
RTVSPropertyOp27
 70
     1
102
RTVSPropertyOp28
 70
     1
102
RTVSPropertyOp29
 70
     1
102
RTVSPropertyOp30
 70
     1
102
RTVSPropertyOp31
 70
     1
102
RTVSPropertyOp32
 70
     1
102
RTVSPropertyOp33
 70
     1
102
RTVSPropertyOp34
 70
     1
102
RTVSPropertyOp35
 70
     1
102
RTVSPropertyOp36
 70
     1
102
RTVSPropertyOp37
 70
     1
102
RTVSPropertyOp38
 70
     1
102
RTVSPropertyOp39
 70
     1
102
RTVSPropertyOp40
 70
     1
102
RTVSPropertyOp41
 70
     1
102
RTVSPropertyOp42
 70
     1
102
RTVSPropertyOp43
 70
     1
102
RTVSPropertyOp44
 70
     1
102
RTVSPropertyOp45
 70
     1
102
RTVSPropertyOp46
 70
     1
102
RTVSPropertyOp47
 70
     1
102
RTVSPropertyOp48
 70
     1
102
RTVSPropertyOp49
 70
     1
102
RTVSPropertyOp50
 70
     1
102
RTVSPropertyOp51
 70
     0
102
RTVSPropertyOp52
 70
     0
102
RTVSPropertyOp53
 70
     1
102
RTVSPropertyOp54
 70
     1
102
RTVSPropertyOp55
 70
     1
102
RTVSPropertyOp56
 70
     1
102
RTVSPropertyOp57
 70
     1
102
RTVSPropertyOp58
 70
     1
102
RTVSPropertyOp59
 70
     1
102
RTVSPropertyOp60
 70
     1
102
RTVSPropertyOp61
 70
     1
102
RTVSPropertyOp62
 70
     1
  0
XRECORD
  5
A010
102
{ACAD_REACTORS
330
A00F
102
}
330
A00F
100
AcDbXrecord
280
     1
102
RTVSPost2010Prop28
280
     0
102
RTVSPost2010PropOp28
 70
     1
102
RTVSPost2010Prop29
280
     1
102
RTVSPost2010PropOp29
 70
     1
102
RTVSPost2010Prop30
280
     1
102
RTVSPost2010PropOp30
 70
     1
102
RTVSPost2010Prop31
280
     0
102
RTVSPost2010PropOp31
 70
     1
102
RTVSPost2010Prop32
280
     0
102
RTVSPost2010PropOp32
 70
     1
102
RTVSPost2010Prop33
280
     0
102
RTVSPost2010PropOp33
 70
     1
102
RTVSPost2010Prop34
280
     0
102
RTVSPost2010PropOp34
 70
     1
102
RTVSPost2010Prop35
280
     0
102
RTVSPost2010PropOp35
 70
     1
102
RTVSPost2010Prop36
280
     0
102
RTVSPost2010PropOp36
 70
     1
102
RTVSPost2010Prop37
 90
       50
102
RTVSPost2010PropOp37
 70
     1
102
RTVSPost2010Prop38
140
0.0
102
RTVSPost2010PropOp38
 70
     1
102
RTVSPost2010Prop39
140
1.0
102
RTVSPost2010PropOp39
 70
     1
102
RTVSPost2010Prop40
 90
        0
102
RTVSPost2010PropOp40
 70
     1
102
RTVSPost2010Prop41ColorIndex
 90
       18
102
RTVSPost2010Prop41ColorRGB
 90
        0
102
RTVSPost2010PropOp41
 70
     1
102
RTVSPost2010Prop42
 90
       50
102
RTVSPost2010PropOp42
 70
     1
102
RTVSPost2010Prop43
 90
        3
102
RTVSPost2010PropOp43
 70
     1
102
RTVSPost2010Prop44ColorIndex
 90
        5
102
RTVSPost2010Prop44ColorRGB
 90
      255
102
RTVSPost2010PropOp44
 70
     1
102
RTVSPost2010Prop45
280
     0
102
RTVSPost2010PropOp45
 70
     1
102
RTVSPost2010Prop46
 90
       50
102
RTVSPost2010PropOp46
 70
     1
102
RTVSPost2010Prop47
 90
       50
102
RTVSPost2010PropOp47
 70
     1
102
RTVSPost2010Prop48
 90
       50
102
RTVSPost2010PropOp48
 70
     1
102
RTVSPost2010Prop49
280
     0
102
RTVSPost2010PropOp49
 70
     1
102
RTVSPost2010Prop50
 90
       50
102
RTVSPost2010PropOp50
 70
     1
102
RTVSPost2010Prop51ColorIndex
 90
      256
102
RTVSPost2010Prop51ColorRGB
 90
-16777216
102
RTVSPost2010PropOp51
 70
     0
102
RTVSPost2010Prop52
140
1.0
102
RTVSPost2010PropOp52
 70
     0
102
RTVSPost2010Prop53
 90
        2
102
RTVSPost2010PropOp53
 70
     1
102
RTVSPost2010Prop54
  1
strokes_ogs.tif
102
RTVSPost2010PropOp54
 70
     1
102
RTVSPost2010Prop55
280
     0
102
RTVSPost2010PropOp55
 70
     1
102
RTVSPost2010Prop56
140
1.0
102
RTVSPost2010PropOp56
 70
     1
102
RTVSPost2010Prop57
140
1.0
102
RTVSPost2010PropOp57
 70
     1
102
RTVSPropertyOp0
 70
     1
102
RTVSPropertyOp1
 70
     1
102
RTVSPropertyOp2
 70
     1
102
RTVSPropertyOp3
 70
     1
102
RTVSPropertyOp4
 70
     1
102
RTVSPropertyOp5
 70
     1
102
RTVSPropertyOp6
 70
     1
102
RTVSPropertyOp7
 70
     1
102
RTVSPropertyOp8
 70
     1
102
RTVSPropertyOp9
 70
     1
102
RTVSPropertyOp10
 70
     1
102
RTVSPropertyOp11
 70
     1
102
RTVSPropertyOp12
 70
     1
102
RTVSPropertyOp13
 70
     1
102
RTVSPropertyOp14
 70
     1
102
RTVSPropertyOp15
 70
     1
102
RTVSPropertyOp16
 70
     1
102
RTVSPropertyOp17
 70
     1
102
RTVSPropertyOp18
 70
     1
102
RTVSPropertyOp19
 70
     1
102
RTVSPropertyOp20
 70
     1
102
RTVSPropertyOp21
 70
     1
102
RTVSPropertyOp22
 70
     1
102
RTVSPropertyOp23
 70
     1
102
RTVSPropertyOp24
 70
     1
102
RTVSPropertyOp25
 70
     1
102
RTVSPropertyOp26
 70
     1
102
RTVSPropertyOp27
 70
     1
102
RTVSPropertyOp28
 70
     1
102
RTVSPropertyOp29
 70
     1
102
RTVSPropertyOp30
 70
     1
102
RTVSPropertyOp31
 70
     1
102
RTVSPropertyOp32
 70
     1
102
RTVSPropertyOp33
 70
     1
102
RTVSPropertyOp34
 70
     1
102
RTVSPropertyOp35
 70
     1
102
RTVSPropertyOp36
 70
     1
102
RTVSPropertyOp37
 70
     1
102
RTVSPropertyOp38
 70
     1
102
RTVSPropertyOp39
 70
     1
102
RTVSPropertyOp40
 70
     1
102
RTVSPropertyOp41
 70
     1
102
RTVSPropertyOp42
 70
     1
102
RTVSPropertyOp43
 70
     1
102
RTVSPropertyOp44
 70
     1
102
RTVSPropertyOp45
 70
     1
102
RTVSPropertyOp46
 70
     1
102
RTVSPropertyOp47
 70
     1
102
RTVSPropertyOp48
 70
     1
102
RTVSPropertyOp49
 70
     1
102
RTVSPropertyOp50
 70
     1
102
RTVSPropertyOp51
 70
     0
102
RTVSPropertyOp52
 70
     0
102
RTVSPropertyOp53
 70
     1
102
RTVSPropertyOp54
 70
     1
102
RTVSPropertyOp55
 70
     1
102
RTVSPropertyOp56
 70
     1
102
RTVSPropertyOp57
 70
     1
102
RTVSPropertyOp58
 70
     1
102
RTVSPropertyOp59
 70
     1
102
RTVSPropertyOp60
 70
     1
102
RTVSPropertyOp61
 70
     1
102
RTVSPropertyOp62
 70
     1
  0
XRECORD
  5
A01E
102
{ACAD_REACTORS
330
A01D
102
}
330
A01D
100
AcDbXrecord
280
     1
102
RTVSPost2010Prop28
280
     0
102
RTVSPost2010PropOp28
 70
     1
102
RTVSPost2010Prop29
280
     1
102
RTVSPost2010PropOp29
 70
     1
102
RTVSPost2010Prop30
280
     1
102
RTVSPost2010PropOp30
 70
     1
102
RTVSPost2010Prop31
280
     0
102
RTVSPost2010PropOp31
 70
     1
102
RTVSPost2010Prop32
280
     0
102
RTVSPost2010PropOp32
 70
     1
102
RTVSPost2010Prop33
280
     0
102
RTVSPost2010PropOp33
 70
     1
102
RTVSPost2010Prop34
280
     0
102
RTVSPost2010PropOp34
 70
     1
102
RTVSPost2010Prop35
280
     0
102
RTVSPost2010PropOp35
 70
     1
102
RTVSPost2010Prop36
280
     0
102
RTVSPost2010PropOp36
 70
     1
102
RTVSPost2010Prop37
 90
       50
102
RTVSPost2010PropOp37
 70
     1
102
RTVSPost2010Prop38
140
0.0
102
RTVSPost2010PropOp38
 70
     1
102
RTVSPost2010Prop39
140
1.0
102
RTVSPost2010PropOp39
 70
     1
102
RTVSPost2010Prop40
 90
        0
102
RTVSPost2010PropOp40
 70
     1
102
RTVSPost2010Prop41ColorIndex
 90
       18
102
RTVSPost2010Prop41ColorRGB
 90
        0
102
RTVSPost2010PropOp41
 70
     1
102
RTVSPost2010Prop42
 90
       50
102
RTVSPost2010PropOp42
 70
     1
102
RTVSPost2010Prop43
 90
        3
102
RTVSPost2010PropOp43
 70
     1
102
RTVSPost2010Prop44ColorIndex
 90
        5
102
RTVSPost2010Prop44ColorRGB
 90
      255
102
RTVSPost2010PropOp44
 70
     1
102
RTVSPost2010Prop45
280
     0
102
RTVSPost2010PropOp45
 70
     1
102
RTVSPost2010Prop46
 90
       50
102
RTVSPost2010PropOp46
 70
     1
102
RTVSPost2010Prop47
 90
       50
102
RTVSPost2010PropOp47
 70
     1
102
RTVSPost2010Prop48
 90
       50
102
RTVSPost2010PropOp48
 70
     1
102
RTVSPost2010Prop49
280
     0
102
RTVSPost2010PropOp49
 70
     1
102
RTVSPost2010Prop50
 90
       50
102
RTVSPost2010PropOp50
 70
     1
102
RTVSPost2010Prop51ColorIndex
 90
      256
102
RTVSPost2010Prop51ColorRGB
 90
-16777216
102
RTVSPost2010PropOp51
 70
     0
102
RTVSPost2010Prop52
140
1.0
102
RTVSPost2010PropOp52
 70
     0
102
RTVSPost2010Prop53
 90
        2
102
RTVSPost2010PropOp53
 70
     1
102
RTVSPost2010Prop54
  1
strokes_ogs.tif
102
RTVSPost2010PropOp54
 70
     1
102
RTVSPost2010Prop55
280
     0
102
RTVSPost2010PropOp55
 70
     1
102
RTVSPost2010Prop56
140
1.0
102
RTVSPost2010PropOp56
 70
     1
102
RTVSPost2010Prop57
140
1.0
102
RTVSPost2010PropOp57
 70
     1
102
RTVSPropertyOp0
 70
     1
102
RTVSPropertyOp1
 70
     1
102
RTVSPropertyOp2
 70
     1
102
RTVSPropertyOp3
 70
     1
102
RTVSPropertyOp4
 70
     1
102
RTVSPropertyOp5
 70
     1
102
RTVSPropertyOp6
 70
     1
102
RTVSPropertyOp7
 70
     1
102
RTVSPropertyOp8
 70
     1
102
RTVSPropertyOp9
 70
     1
102
RTVSPropertyOp10
 70
     1
102
RTVSPropertyOp11
 70
     1
102
RTVSPropertyOp12
 70
     1
102
RTVSPropertyOp13
 70
     1
102
RTVSPropertyOp14
 70
     1
102
RTVSPropertyOp15
 70
     1
102
RTVSPropertyOp16
 70
     1
102
RTVSPropertyOp17
 70
     1
102
RTVSPropertyOp18
 70
     1
102
RTVSPropertyOp19
 70
     1
102
RTVSPropertyOp20
 70
     1
102
RTVSPropertyOp21
 70
     1
102
RTVSPropertyOp22
 70
     1
102
RTVSPropertyOp23
 70
     1
102
RTVSPropertyOp24
 70
     1
102
RTVSPropertyOp25
 70
     1
102
RTVSPropertyOp26
 70
     1
102
RTVSPropertyOp27
 70
     1
102
RTVSPropertyOp28
 70
     1
102
RTVSPropertyOp29
 70
     1
102
RTVSPropertyOp30
 70
     1
102
RTVSPropertyOp31
 70
     1
102
RTVSPropertyOp32
 70
     1
102
RTVSPropertyOp33
 70
     1
102
RTVSPropertyOp34
 70
     1
102
RTVSPropertyOp35
 70
     1
102
RTVSPropertyOp36
 70
     1
102
RTVSPropertyOp37
 70
     1
102
RTVSPropertyOp38
 70
     1
102
RTVSPropertyOp39
 70
     1
102
RTVSPropertyOp40
 70
     1
102
RTVSPropertyOp41
 70
     1
102
RTVSPropertyOp42
 70
     1
102
RTVSPropertyOp43
 70
     1
102
RTVSPropertyOp44
 70
     1
102
RTVSPropertyOp45
 70
     1
102
RTVSPropertyOp46
 70
     1
102
RTVSPropertyOp47
 70
     1
102
RTVSPropertyOp48
 70
     1
102
RTVSPropertyOp49
 70
     1
102
RTVSPropertyOp50
 70
     1
102
RTVSPropertyOp51
 70
     0
102
RTVSPropertyOp52
 70
     0
102
RTVSPropertyOp53
 70
     1
102
RTVSPropertyOp54
 70
     1
102
RTVSPropertyOp55
 70
     1
102
RTVSPropertyOp56
 70
     1
102
RTVSPropertyOp57
 70
     1
102
RTVSPropertyOp58
 70
     1
102
RTVSPropertyOp59
 70
     1
102
RTVSPropertyOp60
 70
     1
102
RTVSPropertyOp61
 70
     1
102
RTVSPropertyOp62
 70
     1
  0
XRECORD
  5
A026
102
{ACAD_REACTORS
330
A025
102
}
330
A025
100
AcDbXrecord
280
     1
102
RTVSPost2010Prop28
280
     0
102
RTVSPost2010PropOp28
 70
     1
102
RTVSPost2010Prop29
280
     1
102
RTVSPost2010PropOp29
 70
     1
102
RTVSPost2010Prop30
280
     1
102
RTVSPost2010PropOp30
 70
     1
102
RTVSPost2010Prop31
280
     0
102
RTVSPost2010PropOp31
 70
     1
102
RTVSPost2010Prop32
280
     0
102
RTVSPost2010PropOp32
 70
     1
102
RTVSPost2010Prop33
280
     0
102
RTVSPost2010PropOp33
 70
     1
102
RTVSPost2010Prop34
280
     0
102
RTVSPost2010PropOp34
 70
     1
102
RTVSPost2010Prop35
280
     0
102
RTVSPost2010PropOp35
 70
     1
102
RTVSPost2010Prop36
280
     0
102
RTVSPost2010PropOp36
 70
     1
102
RTVSPost2010Prop37
 90
       50
102
RTVSPost2010PropOp37
 70
     1
102
RTVSPost2010Prop38
140
0.0
102
RTVSPost2010PropOp38
 70
     1
102
RTVSPost2010Prop39
140
1.0
102
RTVSPost2010PropOp39
 70
     1
102
RTVSPost2010Prop40
 90
        0
102
RTVSPost2010PropOp40
 70
     1
102
RTVSPost2010Prop41ColorIndex
 90
       18
102
RTVSPost2010Prop41ColorRGB
 90
        0
102
RTVSPost2010PropOp41
 70
     1
102
RTVSPost2010Prop42
 90
       50
102
RTVSPost2010PropOp42
 70
     1
102
RTVSPost2010Prop43
 90
        3
102
RTVSPost2010PropOp43
 70
     1
102
RTVSPost2010Prop44ColorIndex
 90
        5
102
RTVSPost2010Prop44ColorRGB
 90
      255
102
RTVSPost2010PropOp44
 70
     1
102
RTVSPost2010Prop45
280
     0
102
RTVSPost2010PropOp45
 70
     1
102
RTVSPost2010Prop46
 90
       50
102
RTVSPost2010PropOp46
 70
     1
102
RTVSPost2010Prop47
 90
       50
102
RTVSPost2010PropOp47
 70
     1
102
RTVSPost2010Prop48
 90
       50
102
RTVSPost2010PropOp48
 70
     1
102
RTVSPost2010Prop49
280
     0
102
RTVSPost2010PropOp49
 70
     1
102
RTVSPost2010Prop50
 90
       50
102
RTVSPost2010PropOp50
 70
     1
102
RTVSPost2010Prop51ColorIndex
 90
      256
102
RTVSPost2010Prop51ColorRGB
 90
-16777216
102
RTVSPost2010PropOp51
 70
     0
102
RTVSPost2010Prop52
140
1.0
102
RTVSPost2010PropOp52
 70
     0
102
RTVSPost2010Prop53
 90
        2
102
RTVSPost2010PropOp53
 70
     1
102
RTVSPost2010Prop54
  1
strokes_ogs.tif
102
RTVSPost2010PropOp54
 70
     1
102
RTVSPost2010Prop55
280
     0
102
RTVSPost2010PropOp55
 70
     1
102
RTVSPost2010Prop56
140
1.0
102
RTVSPost2010PropOp56
 70
     1
102
RTVSPost2010Prop57
140
1.0
102
RTVSPost2010PropOp57
 70
     1
102
RTVSPropertyOp0
 70
     1
102
RTVSPropertyOp1
 70
     1
102
RTVSPropertyOp2
 70
     1
102
RTVSPropertyOp3
 70
     1
102
RTVSPropertyOp4
 70
     1
102
RTVSPropertyOp5
 70
     1
102
RTVSPropertyOp6
 70
     1
102
RTVSPropertyOp7
 70
     1
102
RTVSPropertyOp8
 70
     1
102
RTVSPropertyOp9
 70
     1
102
RTVSPropertyOp10
 70
     1
102
RTVSPropertyOp11
 70
     1
102
RTVSPropertyOp12
 70
     1
102
RTVSPropertyOp13
 70
     1
102
RTVSPropertyOp14
 70
     1
102
RTVSPropertyOp15
 70
     1
102
RTVSPropertyOp16
 70
     1
102
RTVSPropertyOp17
 70
     1
102
RTVSPropertyOp18
 70
     1
102
RTVSPropertyOp19
 70
     1
102
RTVSPropertyOp20
 70
     1
102
RTVSPropertyOp21
 70
     1
102
RTVSPropertyOp22
 70
     1
102
RTVSPropertyOp23
 70
     1
102
RTVSPropertyOp24
 70
     1
102
RTVSPropertyOp25
 70
     1
102
RTVSPropertyOp26
 70
     1
102
RTVSPropertyOp27
 70
     1
102
RTVSPropertyOp28
 70
     1
102
RTVSPropertyOp29
 70
     1
102
RTVSPropertyOp30
 70
     1
102
RTVSPropertyOp31
 70
     1
102
RTVSPropertyOp32
 70
     1
102
RTVSPropertyOp33
 70
     1
102
RTVSPropertyOp34
 70
     1
102
RTVSPropertyOp35
 70
     1
102
RTVSPropertyOp36
 70
     1
102
RTVSPropertyOp37
 70
     1
102
RTVSPropertyOp38
 70
     1
102
RTVSPropertyOp39
 70
     1
102
RTVSPropertyOp40
 70
     1
102
RTVSPropertyOp41
 70
     1
102
RTVSPropertyOp42
 70
     1
102
RTVSPropertyOp43
 70
     1
102
RTVSPropertyOp44
 70
     1
102
RTVSPropertyOp45
 70
     1
102
RTVSPropertyOp46
 70
     1
102
RTVSPropertyOp47
 70
     1
102
RTVSPropertyOp48
 70
     1
102
RTVSPropertyOp49
 70
     1
102
RTVSPropertyOp50
 70
     1
102
RTVSPropertyOp51
 70
     0
102
RTVSPropertyOp52
 70
     0
102
RTVSPropertyOp53
 70
     1
102
RTVSPropertyOp54
 70
     1
102
RTVSPropertyOp55
 70
     1
102
RTVSPropertyOp56
 70
     1
102
RTVSPropertyOp57
 70
     1
102
RTVSPropertyOp58
 70
     1
102
RTVSPropertyOp59
 70
     1
102
RTVSPropertyOp60
 70
     1
102
RTVSPropertyOp61
 70
     1
102
RTVSPropertyOp62
 70
     1
  0
XRECORD
  5
A018
102
{ACAD_REACTORS
330
A017
102
}
330
A017
100
AcDbXrecord
280
     1
102
RTVSPost2010Prop28
280
     0
102
RTVSPost2010PropOp28
 70
     1
102
RTVSPost2010Prop29
280
     1
102
RTVSPost2010PropOp29
 70
     1
102
RTVSPost2010Prop30
280
     1
102
RTVSPost2010PropOp30
 70
     1
102
RTVSPost2010Prop31
280
     0
102
RTVSPost2010PropOp31
 70
     1
102
RTVSPost2010Prop32
280
     0
102
RTVSPost2010PropOp32
 70
     1
102
RTVSPost2010Prop33
280
     0
102
RTVSPost2010PropOp33
 70
     1
102
RTVSPost2010Prop34
280
     0
102
RTVSPost2010PropOp34
 70
     1
102
RTVSPost2010Prop35
280
     0
102
RTVSPost2010PropOp35
 70
     1
102
RTVSPost2010Prop36
280
     0
102
RTVSPost2010PropOp36
 70
     1
102
RTVSPost2010Prop37
 90
       50
102
RTVSPost2010PropOp37
 70
     1
102
RTVSPost2010Prop38
140
0.0
102
RTVSPost2010PropOp38
 70
     1
102
RTVSPost2010Prop39
140
1.0
102
RTVSPost2010PropOp39
 70
     1
102
RTVSPost2010Prop40
 90
        0
102
RTVSPost2010PropOp40
 70
     1
102
RTVSPost2010Prop41ColorIndex
 90
       18
102
RTVSPost2010Prop41ColorRGB
 90
        0
102
RTVSPost2010PropOp41
 70
     1
102
RTVSPost2010Prop42
 90
       50
102
RTVSPost2010PropOp42
 70
     1
102
RTVSPost2010Prop43
 90
        3
102
RTVSPost2010PropOp43
 70
     1
102
RTVSPost2010Prop44ColorIndex
 90
        5
102
RTVSPost2010Prop44ColorRGB
 90
      255
102
RTVSPost2010PropOp44
 70
     1
102
RTVSPost2010Prop45
280
     0
102
RTVSPost2010PropOp45
 70
     1
102
RTVSPost2010Prop46
 90
       50
102
RTVSPost2010PropOp46
 70
     1
102
RTVSPost2010Prop47
 90
       50
102
RTVSPost2010PropOp47
 70
     1
102
RTVSPost2010Prop48
 90
       50
102
RTVSPost2010PropOp48
 70
     1
102
RTVSPost2010Prop49
280
     0
102
RTVSPost2010PropOp49
 70
     1
102
RTVSPost2010Prop50
 90
       50
102
RTVSPost2010PropOp50
 70
     1
102
RTVSPost2010Prop51ColorIndex
 90
      256
102
RTVSPost2010Prop51ColorRGB
 90
-16777216
102
RTVSPost2010PropOp51
 70
     0
102
RTVSPost2010Prop52
140
1.0
102
RTVSPost2010PropOp52
 70
     0
102
RTVSPost2010Prop53
 90
        2
102
RTVSPost2010PropOp53
 70
     1
102
RTVSPost2010Prop54
  1
strokes_ogs.tif
102
RTVSPost2010PropOp54
 70
     1
102
RTVSPost2010Prop55
280
     0
102
RTVSPost2010PropOp55
 70
     1
102
RTVSPost2010Prop56
140
1.0
102
RTVSPost2010PropOp56
 70
     1
102
RTVSPost2010Prop57
140
1.0
102
RTVSPost2010PropOp57
 70
     1
102
RTVSPropertyOp0
 70
     1
102
RTVSPropertyOp1
 70
     1
102
RTVSPropertyOp2
 70
     1
102
RTVSPropertyOp3
 70
     1
102
RTVSPropertyOp4
 70
     1
102
RTVSPropertyOp5
 70
     1
102
RTVSPropertyOp6
 70
     1
102
RTVSPropertyOp7
 70
     1
102
RTVSPropertyOp8
 70
     1
102
RTVSPropertyOp9
 70
     1
102
RTVSPropertyOp10
 70
     1
102
RTVSPropertyOp11
 70
     1
102
RTVSPropertyOp12
 70
     1
102
RTVSPropertyOp13
 70
     1
102
RTVSPropertyOp14
 70
     1
102
RTVSPropertyOp15
 70
     1
102
RTVSPropertyOp16
 70
     1
102
RTVSPropertyOp17
 70
     1
102
RTVSPropertyOp18
 70
     1
102
RTVSPropertyOp19
 70
     1
102
RTVSPropertyOp20
 70
     1
102
RTVSPropertyOp21
 70
     1
102
RTVSPropertyOp22
 70
     1
102
RTVSPropertyOp23
 70
     1
102
RTVSPropertyOp24
 70
     1
102
RTVSPropertyOp25
 70
     1
102
RTVSPropertyOp26
 70
     1
102
RTVSPropertyOp27
 70
     1
102
RTVSPropertyOp28
 70
     1
102
RTVSPropertyOp29
 70
     1
102
RTVSPropertyOp30
 70
     1
102
RTVSPropertyOp31
 70
     1
102
RTVSPropertyOp32
 70
     1
102
RTVSPropertyOp33
 70
     1
102
RTVSPropertyOp34
 70
     1
102
RTVSPropertyOp35
 70
     1
102
RTVSPropertyOp36
 70
     1
102
RTVSPropertyOp37
 70
     1
102
RTVSPropertyOp38
 70
     1
102
RTVSPropertyOp39
 70
     1
102
RTVSPropertyOp40
 70
     1
102
RTVSPropertyOp41
 70
     1
102
RTVSPropertyOp42
 70
     1
102
RTVSPropertyOp43
 70
     1
102
RTVSPropertyOp44
 70
     1
102
RTVSPropertyOp45
 70
     1
102
RTVSPropertyOp46
 70
     1
102
RTVSPropertyOp47
 70
     1
102
RTVSPropertyOp48
 70
     1
102
RTVSPropertyOp49
 70
     1
102
RTVSPropertyOp50
 70
     1
102
RTVSPropertyOp51
 70
     0
102
RTVSPropertyOp52
 70
     0
102
RTVSPropertyOp53
 70
     1
102
RTVSPropertyOp54
 70
     1
102
RTVSPropertyOp55
 70
     1
102
RTVSPropertyOp56
 70
     1
102
RTVSPropertyOp57
 70
     1
102
RTVSPropertyOp58
 70
     1
102
RTVSPropertyOp59
 70
     1
102
RTVSPropertyOp60
 70
     1
102
RTVSPropertyOp61
 70
     1
102
RTVSPropertyOp62
 70
     1
  0
XRECORD
  5
A01C
102
{ACAD_REACTORS
330
A01B
102
}
330
A01B
100
AcDbXrecord
280
     1
102
RTVSPost2010Prop28
280
     0
102
RTVSPost2010PropOp28
 70
     1
102
RTVSPost2010Prop29
280
     1
102
RTVSPost2010PropOp29
 70
     1
102
RTVSPost2010Prop30
280
     1
102
RTVSPost2010PropOp30
 70
     1
102
RTVSPost2010Prop31
280
     0
102
RTVSPost2010PropOp31
 70
     1
102
RTVSPost2010Prop32
280
     0
102
RTVSPost2010PropOp32
 70
     1
102
RTVSPost2010Prop33
280
     0
102
RTVSPost2010PropOp33
 70
     1
102
RTVSPost2010Prop34
280
     0
102
RTVSPost2010PropOp34
 70
     1
102
RTVSPost2010Prop35
280
     0
102
RTVSPost2010PropOp35
 70
     1
102
RTVSPost2010Prop36
280
     0
102
RTVSPost2010PropOp36
 70
     1
102
RTVSPost2010Prop37
 90
       50
102
RTVSPost2010PropOp37
 70
     1
102
RTVSPost2010Prop38
140
0.0
102
RTVSPost2010PropOp38
 70
     1
102
RTVSPost2010Prop39
140
1.0
102
RTVSPost2010PropOp39
 70
     1
102
RTVSPost2010Prop40
 90
        0
102
RTVSPost2010PropOp40
 70
     1
102
RTVSPost2010Prop41ColorIndex
 90
       18
102
RTVSPost2010Prop41ColorRGB
 90
        0
102
RTVSPost2010PropOp41
 70
     1
102
RTVSPost2010Prop42
 90
       50
102
RTVSPost2010PropOp42
 70
     1
102
RTVSPost2010Prop43
 90
        3
102
RTVSPost2010PropOp43
 70
     1
102
RTVSPost2010Prop44ColorIndex
 90
        5
102
RTVSPost2010Prop44ColorRGB
 90
      255
102
RTVSPost2010PropOp44
 70
     1
102
RTVSPost2010Prop45
280
     0
102
RTVSPost2010PropOp45
 70
     1
102
RTVSPost2010Prop46
 90
       50
102
RTVSPost2010PropOp46
 70
     1
102
RTVSPost2010Prop47
 90
       50
102
RTVSPost2010PropOp47
 70
     1
102
RTVSPost2010Prop48
 90
       50
102
RTVSPost2010PropOp48
 70
     1
102
RTVSPost2010Prop49
280
     0
102
RTVSPost2010PropOp49
 70
     1
102
RTVSPost2010Prop50
 90
       50
102
RTVSPost2010PropOp50
 70
     1
102
RTVSPost2010Prop51ColorIndex
 90
      256
102
RTVSPost2010Prop51ColorRGB
 90
-16777216
102
RTVSPost2010PropOp51
 70
     0
102
RTVSPost2010Prop52
140
1.0
102
RTVSPost2010PropOp52
 70
     0
102
RTVSPost2010Prop53
 90
        2
102
RTVSPost2010PropOp53
 70
     1
102
RTVSPost2010Prop54
  1
strokes_ogs.tif
102
RTVSPost2010PropOp54
 70
     1
102
RTVSPost2010Prop55
280
     0
102
RTVSPost2010PropOp55
 70
     1
102
RTVSPost2010Prop56
140
1.0
102
RTVSPost2010PropOp56
 70
     1
102
RTVSPost2010Prop57
140
1.0
102
RTVSPost2010PropOp57
 70
     1
102
RTVSPropertyOp0
 70
     1
102
RTVSPropertyOp1
 70
     1
102
RTVSPropertyOp2
 70
     1
102
RTVSPropertyOp3
 70
     1
102
RTVSPropertyOp4
 70
     1
102
RTVSPropertyOp5
 70
     1
102
RTVSPropertyOp6
 70
     1
102
RTVSPropertyOp7
 70
     1
102
RTVSPropertyOp8
 70
     1
102
RTVSPropertyOp9
 70
     1
102
RTVSPropertyOp10
 70
     1
102
RTVSPropertyOp11
 70
     1
102
RTVSPropertyOp12
 70
     1
102
RTVSPropertyOp13
 70
     1
102
RTVSPropertyOp14
 70
     1
102
RTVSPropertyOp15
 70
     1
102
RTVSPropertyOp16
 70
     1
102
RTVSPropertyOp17
 70
     1
102
RTVSPropertyOp18
 70
     1
102
RTVSPropertyOp19
 70
     1
102
RTVSPropertyOp20
 70
     1
102
RTVSPropertyOp21
 70
     1
102
RTVSPropertyOp22
 70
     1
102
RTVSPropertyOp23
 70
     1
102
RTVSPropertyOp24
 70
     1
102
RTVSPropertyOp25
 70
     1
102
RTVSPropertyOp26
 70
     1
102
RTVSPropertyOp27
 70
     1
102
RTVSPropertyOp28
 70
     1
102
RTVSPropertyOp29
 70
     1
102
RTVSPropertyOp30
 70
     1
102
RTVSPropertyOp31
 70
     1
102
RTVSPropertyOp32
 70
     1
102
RTVSPropertyOp33
 70
     1
102
RTVSPropertyOp34
 70
     1
102
RTVSPropertyOp35
 70
     1
102
RTVSPropertyOp36
 70
     1
102
RTVSPropertyOp37
 70
     1
102
RTVSPropertyOp38
 70
     1
102
RTVSPropertyOp39
 70
     1
102
RTVSPropertyOp40
 70
     1
102
RTVSPropertyOp41
 70
     1
102
RTVSPropertyOp42
 70
     1
102
RTVSPropertyOp43
 70
     1
102
RTVSPropertyOp44
 70
     1
102
RTVSPropertyOp45
 70
     1
102
RTVSPropertyOp46
 70
     1
102
RTVSPropertyOp47
 70
     1
102
RTVSPropertyOp48
 70
     1
102
RTVSPropertyOp49
 70
     1
102
RTVSPropertyOp50
 70
     1
102
RTVSPropertyOp51
 70
     0
102
RTVSPropertyOp52
 70
     0
102
RTVSPropertyOp53
 70
     1
102
RTVSPropertyOp54
 70
     1
102
RTVSPropertyOp55
 70
     1
102
RTVSPropertyOp56
 70
     1
102
RTVSPropertyOp57
 70
     1
102
RTVSPropertyOp58
 70
     1
102
RTVSPropertyOp59
 70
     1
102
RTVSPropertyOp60
 70
     1
102
RTVSPropertyOp61
 70
     1
102
RTVSPropertyOp62
 70
     1
  0
XRECORD
  5
A036
102
{ACAD_REACTORS
330
A035
102
}
330
A035
100
AcDbXrecord
280
     1
102
RTVSPost2010Prop28
280
     0
102
RTVSPost2010PropOp28
 70
     1
102
RTVSPost2010Prop29
280
     1
102
RTVSPost2010PropOp29
 70
     1
102
RTVSPost2010Prop30
280
     1
102
RTVSPost2010PropOp30
 70
     1
102
RTVSPost2010Prop31
280
     0
102
RTVSPost2010PropOp31
 70
     1
102
RTVSPost2010Prop32
280
     0
102
RTVSPost2010PropOp32
 70
     1
102
RTVSPost2010Prop33
280
     0
102
RTVSPost2010PropOp33
 70
     1
102
RTVSPost2010Prop34
280
     0
102
RTVSPost2010PropOp34
 70
     1
102
RTVSPost2010Prop35
280
     0
102
RTVSPost2010PropOp35
 70
     1
102
RTVSPost2010Prop36
280
     0
102
RTVSPost2010PropOp36
 70
     1
102
RTVSPost2010Prop37
 90
       50
102
RTVSPost2010PropOp37
 70
     0
102
RTVSPost2010Prop38
140
0.0
102
RTVSPost2010PropOp38
 70
     0
102
RTVSPost2010Prop39
140
1.0
102
RTVSPost2010PropOp39
 70
     0
102
RTVSPost2010Prop40
 90
        0
102
RTVSPost2010PropOp40
 70
     0
102
RTVSPost2010Prop41ColorIndex
 90
       18
102
RTVSPost2010Prop41ColorRGB
 90
        0
102
RTVSPost2010PropOp41
 70
     0
102
RTVSPost2010Prop42
 90
       50
102
RTVSPost2010PropOp42
 70
     0
102
RTVSPost2010Prop43
 90
        3
102
RTVSPost2010PropOp43
 70
     0
102
RTVSPost2010Prop44ColorIndex
 90
        5
102
RTVSPost2010Prop44ColorRGB
 90
      255
102
RTVSPost2010PropOp44
 70
     0
102
RTVSPost2010Prop45
280
     0
102
RTVSPost2010PropOp45
 70
     1
102
RTVSPost2010Prop46
 90
       50
102
RTVSPost2010PropOp46
 70
     0
102
RTVSPost2010Prop47
 90
       50
102
RTVSPost2010PropOp47
 70
     0
102
RTVSPost2010Prop48
 90
       50
102
RTVSPost2010PropOp48
 70
     0
102
RTVSPost2010Prop49
280
     0
102
RTVSPost2010PropOp49
 70
     1
102
RTVSPost2010Prop50
 90
       50
102
RTVSPost2010PropOp50
 70
     0
102
RTVSPost2010Prop51ColorIndex
 90
      256
102
RTVSPost2010Prop51ColorRGB
 90
-16777216
102
RTVSPost2010PropOp51
 70
     0
102
RTVSPost2010Prop52
140
1.0
102
RTVSPost2010PropOp52
 70
     0
102
RTVSPost2010Prop53
 90
        2
102
RTVSPost2010PropOp53
 70
     0
102
RTVSPost2010Prop54
  1
strokes_ogs.tif
102
RTVSPost2010PropOp54
 70
     0
102
RTVSPost2010Prop55
280
     0
102
RTVSPost2010PropOp55
 70
     1
102
RTVSPost2010Prop56
140
1.0
102
RTVSPost2010PropOp56
 70
     0
102
RTVSPost2010Prop57
140
1.0
102
RTVSPost2010PropOp57
 70
     0
102
RTVSPropertyOp0
 70
     0
102
RTVSPropertyOp1
 70
     0
102
RTVSPropertyOp2
 70
     0
102
RTVSPropertyOp3
 70
     0
102
RTVSPropertyOp4
 70
     0
102
RTVSPropertyOp5
 70
     0
102
RTVSPropertyOp6
 70
     0
102
RTVSPropertyOp7
 70
     0
102
RTVSPropertyOp8
 70
     0
102
RTVSPropertyOp9
 70
     0
102
RTVSPropertyOp10
 70
     0
102
RTVSPropertyOp11
 70
     0
102
RTVSPropertyOp12
 70
     0
102
RTVSPropertyOp13
 70
     0
102
RTVSPropertyOp14
 70
     2
102
RTVSPropertyOp15
 70
     0
102
RTVSPropertyOp16
 70
     0
102
RTVSPropertyOp17
 70
     0
102
RTVSPropertyOp18
 70
     0
102
RTVSPropertyOp19
 70
     0
102
RTVSPropertyOp20
 70
     0
102
RTVSPropertyOp21
 70
     0
102
RTVSPropertyOp22
 70
     0
102
RTVSPropertyOp23
 70
     0
102
RTVSPropertyOp24
 70
     0
102
RTVSPropertyOp25
 70
     0
102
RTVSPropertyOp26
 70
     0
102
RTVSPropertyOp27
 70
     0
102
RTVSPropertyOp28
 70
     1
102
RTVSPropertyOp29
 70
     1
102
RTVSPropertyOp30
 70
     1
102
RTVSPropertyOp31
 70
     1
102
RTVSPropertyOp32
 70
     1
102
RTVSPropertyOp33
 70
     1
102
RTVSPropertyOp34
 70
     1
102
RTVSPropertyOp35
 70
     1
102
RTVSPropertyOp36
 70
     1
102
RTVSPropertyOp37
 70
     0
102
RTVSPropertyOp38
 70
     0
102
RTVSPropertyOp39
 70
     0
102
RTVSPropertyOp40
 70
     0
102
RTVSPropertyOp41
 70
     0
102
RTVSPropertyOp42
 70
     0
102
RTVSPropertyOp43
 70
     0
102
RTVSPropertyOp44
 70
     0
102
RTVSPropertyOp45
 70
     1
102
RTVSPropertyOp46
 70
     0
102
RTVSPropertyOp47
 70
     0
102
RTVSPropertyOp48
 70
     0
102
RTVSPropertyOp49
 70
     1
102
RTVSPropertyOp50
 70
     0
102
RTVSPropertyOp51
 70
     0
102
RTVSPropertyOp52
 70
     0
102
RTVSPropertyOp53
 70
     0
102
RTVSPropertyOp54
 70
     0
102
RTVSPropertyOp55
 70
     1
102
RTVSPropertyOp56
 70
     0
102
RTVSPropertyOp57
 70
     0
102
RTVSPropertyOp58
 70
     0
102
RTVSPropertyOp59
 70
     0
102
RTVSPropertyOp60
 70
     0
102
RTVSPropertyOp61
 70
     0
102
RTVSPropertyOp62
 70
     0
  0
XRECORD
  5
A024
102
{ACAD_REACTORS
330
A023
102
}
330
A023
100
AcDbXrecord
280
     1
102
RTVSPost2010Prop28
280
     0
102
RTVSPost2010PropOp28
 70
     1
102
RTVSPost2010Prop29
280
     1
102
RTVSPost2010PropOp29
 70
     1
102
RTVSPost2010Prop30
280
     1
102
RTVSPost2010PropOp30
 70
     1
102
RTVSPost2010Prop31
280
     0
102
RTVSPost2010PropOp31
 70
     1
102
RTVSPost2010Prop32
280
     0
102
RTVSPost2010PropOp32
 70
     1
102
RTVSPost2010Prop33
280
     0
102
RTVSPost2010PropOp33
 70
     1
102
RTVSPost2010Prop34
280
     0
102
RTVSPost2010PropOp34
 70
     1
102
RTVSPost2010Prop35
280
     0
102
RTVSPost2010PropOp35
 70
     1
102
RTVSPost2010Prop36
280
     0
102
RTVSPost2010PropOp36
 70
     1
102
RTVSPost2010Prop37
 90
       50
102
RTVSPost2010PropOp37
 70
     1
102
RTVSPost2010Prop38
140
0.0
102
RTVSPost2010PropOp38
 70
     1
102
RTVSPost2010Prop39
140
1.0
102
RTVSPost2010PropOp39
 70
     1
102
RTVSPost2010Prop40
 90
        0
102
RTVSPost2010PropOp40
 70
     1
102
RTVSPost2010Prop41ColorIndex
 90
       18
102
RTVSPost2010Prop41ColorRGB
 90
        0
102
RTVSPost2010PropOp41
 70
     1
102
RTVSPost2010Prop42
 90
       50
102
RTVSPost2010PropOp42
 70
     1
102
RTVSPost2010Prop43
 90
        3
102
RTVSPost2010PropOp43
 70
     1
102
RTVSPost2010Prop44ColorIndex
 90
        5
102
RTVSPost2010Prop44ColorRGB
 90
      255
102
RTVSPost2010PropOp44
 70
     1
102
RTVSPost2010Prop45
280
     0
102
RTVSPost2010PropOp45
 70
     1
102
RTVSPost2010Prop46
 90
       50
102
RTVSPost2010PropOp46
 70
     1
102
RTVSPost2010Prop47
 90
       50
102
RTVSPost2010PropOp47
 70
     1
102
RTVSPost2010Prop48
 90
       50
102
RTVSPost2010PropOp48
 70
     1
102
RTVSPost2010Prop49
280
     0
102
RTVSPost2010PropOp49
 70
     1
102
RTVSPost2010Prop50
 90
       50
102
RTVSPost2010PropOp50
 70
     1
102
RTVSPost2010Prop51ColorIndex
 90
      256
102
RTVSPost2010Prop51ColorRGB
 90
-16777216
102
RTVSPost2010PropOp51
 70
     0
102
RTVSPost2010Prop52
140
1.0
102
RTVSPost2010PropOp52
 70
     0
102
RTVSPost2010Prop53
 90
        2
102
RTVSPost2010PropOp53
 70
     1
102
RTVSPost2010Prop54
  1
strokes_ogs.tif
102
RTVSPost2010PropOp54
 70
     1
102
RTVSPost2010Prop55
280
     0
102
RTVSPost2010PropOp55
 70
     1
102
RTVSPost2010Prop56
140
1.0
102
RTVSPost2010PropOp56
 70
     1
102
RTVSPost2010Prop57
140
1.0
102
RTVSPost2010PropOp57
 70
     1
102
RTVSPropertyOp0
 70
     1
102
RTVSPropertyOp1
 70
     1
102
RTVSPropertyOp2
 70
     1
102
RTVSPropertyOp3
 70
     1
102
RTVSPropertyOp4
 70
     1
102
RTVSPropertyOp5
 70
     1
102
RTVSPropertyOp6
 70
     1
102
RTVSPropertyOp7
 70
     1
102
RTVSPropertyOp8
 70
     1
102
RTVSPropertyOp9
 70
     1
102
RTVSPropertyOp10
 70
     1
102
RTVSPropertyOp11
 70
     1
102
RTVSPropertyOp12
 70
     1
102
RTVSPropertyOp13
 70
     1
102
RTVSPropertyOp14
 70
     1
102
RTVSPropertyOp15
 70
     1
102
RTVSPropertyOp16
 70
     1
102
RTVSPropertyOp17
 70
     1
102
RTVSPropertyOp18
 70
     1
102
RTVSPropertyOp19
 70
     1
102
RTVSPropertyOp20
 70
     1
102
RTVSPropertyOp21
 70
     1
102
RTVSPropertyOp22
 70
     1
102
RTVSPropertyOp23
 70
     1
102
RTVSPropertyOp24
 70
     1
102
RTVSPropertyOp25
 70
     1
102
RTVSPropertyOp26
 70
     1
102
RTVSPropertyOp27
 70
     1
102
RTVSPropertyOp28
 70
     1
102
RTVSPropertyOp29
 70
     1
102
RTVSPropertyOp30
 70
     1
102
RTVSPropertyOp31
 70
     1
102
RTVSPropertyOp32
 70
     1
102
RTVSPropertyOp33
 70
     1
102
RTVSPropertyOp34
 70
     1
102
RTVSPropertyOp35
 70
     1
102
RTVSPropertyOp36
 70
     1
102
RTVSPropertyOp37
 70
     1
102
RTVSPropertyOp38
 70
     1
102
RTVSPropertyOp39
 70
     1
102
RTVSPropertyOp40
 70
     1
102
RTVSPropertyOp41
 70
     1
102
RTVSPropertyOp42
 70
     1
102
RTVSPropertyOp43
 70
     1
102
RTVSPropertyOp44
 70
     1
102
RTVSPropertyOp45
 70
     1
102
RTVSPropertyOp46
 70
     1
102
RTVSPropertyOp47
 70
     1
102
RTVSPropertyOp48
 70
     1
102
RTVSPropertyOp49
 70
     1
102
RTVSPropertyOp50
 70
     1
102
RTVSPropertyOp51
 70
     0
102
RTVSPropertyOp52
 70
     0
102
RTVSPropertyOp53
 70
     1
102
RTVSPropertyOp54
 70
     1
102
RTVSPropertyOp55
 70
     1
102
RTVSPropertyOp56
 70
     1
102
RTVSPropertyOp57
 70
     1
102
RTVSPropertyOp58
 70
     1
102
RTVSPropertyOp59
 70
     1
102
RTVSPropertyOp60
 70
     1
102
RTVSPropertyOp61
 70
     1
102
RTVSPropertyOp62
 70
     1
  0
XRECORD
  5
A008
102
{ACAD_REACTORS
330
A007
102
}
330
A007
100
AcDbXrecord
280
     1
102
RTVSPost2010Prop28
280
     0
102
RTVSPost2010PropOp28
 70
     1
102
RTVSPost2010Prop29
280
     1
102
RTVSPost2010PropOp29
 70
     1
102
RTVSPost2010Prop30
280
     1
102
RTVSPost2010PropOp30
 70
     1
102
RTVSPost2010Prop31
280
     0
102
RTVSPost2010PropOp31
 70
     1
102
RTVSPost2010Prop32
280
     0
102
RTVSPost2010PropOp32
 70
     1
102
RTVSPost2010Prop33
280
     0
102
RTVSPost2010PropOp33
 70
     1
102
RTVSPost2010Prop34
280
     0
102
RTVSPost2010PropOp34
 70
     1
102
RTVSPost2010Prop35
280
     0
102
RTVSPost2010PropOp35
 70
     1
102
RTVSPost2010Prop36
280
     0
102
RTVSPost2010PropOp36
 70
     1
102
RTVSPost2010Prop37
 90
       50
102
RTVSPost2010PropOp37
 70
     1
102
RTVSPost2010Prop38
140
0.0
102
RTVSPost2010PropOp38
 70
     1
102
RTVSPost2010Prop39
140
1.0
102
RTVSPost2010PropOp39
 70
     1
102
RTVSPost2010Prop40
 90
        0
102
RTVSPost2010PropOp40
 70
     1
102
RTVSPost2010Prop41ColorIndex
 90
       18
102
RTVSPost2010Prop41ColorRGB
 90
        0
102
RTVSPost2010PropOp41
 70
     1
102
RTVSPost2010Prop42
 90
       50
102
RTVSPost2010PropOp42
 70
     1
102
RTVSPost2010Prop43
 90
        3
102
RTVSPost2010PropOp43
 70
     1
102
RTVSPost2010Prop44ColorIndex
 90
        5
102
RTVSPost2010Prop44ColorRGB
 90
      255
102
RTVSPost2010PropOp44
 70
     1
102
RTVSPost2010Prop45
280
     0
102
RTVSPost2010PropOp45
 70
     1
102
RTVSPost2010Prop46
 90
       50
102
RTVSPost2010PropOp46
 70
     1
102
RTVSPost2010Prop47
 90
       50
102
RTVSPost2010PropOp47
 70
     1
102
RTVSPost2010Prop48
 90
       50
102
RTVSPost2010PropOp48
 70
     1
102
RTVSPost2010Prop49
280
     0
102
RTVSPost2010PropOp49
 70
     1
102
RTVSPost2010Prop50
 90
       50
102
RTVSPost2010PropOp50
 70
     1
102
RTVSPost2010Prop51ColorIndex
 90
      256
102
RTVSPost2010Prop51ColorRGB
 90
-16777216
102
RTVSPost2010PropOp51
 70
     0
102
RTVSPost2010Prop52
140
1.0
102
RTVSPost2010PropOp52
 70
     0
102
RTVSPost2010Prop53
 90
        2
102
RTVSPost2010PropOp53
 70
     1
102
RTVSPost2010Prop54
  1
strokes_ogs.tif
102
RTVSPost2010PropOp54
 70
     1
102
RTVSPost2010Prop55
280
     0
102
RTVSPost2010PropOp55
 70
     1
102
RTVSPost2010Prop56
140
1.0
102
RTVSPost2010PropOp56
 70
     1
102
RTVSPost2010Prop57
140
1.0
102
RTVSPost2010PropOp57
 70
     1
102
RTVSPropertyOp0
 70
     1
102
RTVSPropertyOp1
 70
     1
102
RTVSPropertyOp2
 70
     1
102
RTVSPropertyOp3
 70
     1
102
RTVSPropertyOp4
 70
     1
102
RTVSPropertyOp5
 70
     1
102
RTVSPropertyOp6
 70
     1
102
RTVSPropertyOp7
 70
     1
102
RTVSPropertyOp8
 70
     1
102
RTVSPropertyOp9
 70
     1
102
RTVSPropertyOp10
 70
     1
102
RTVSPropertyOp11
 70
     1
102
RTVSPropertyOp12
 70
     1
102
RTVSPropertyOp13
 70
     1
102
RTVSPropertyOp14
 70
     1
102
RTVSPropertyOp15
 70
     1
102
RTVSPropertyOp16
 70
     1
102
RTVSPropertyOp17
 70
     1
102
RTVSPropertyOp18
 70
     1
102
RTVSPropertyOp19
 70
     1
102
RTVSPropertyOp20
 70
     1
102
RTVSPropertyOp21
 70
     1
102
RTVSPropertyOp22
 70
     1
102
RTVSPropertyOp23
 70
     1
102
RTVSPropertyOp24
 70
     1
102
RTVSPropertyOp25
 70
     1
102
RTVSPropertyOp26
 70
     1
102
RTVSPropertyOp27
 70
     1
102
RTVSPropertyOp28
 70
     1
102
RTVSPropertyOp29
 70
     1
102
RTVSPropertyOp30
 70
     1
102
RTVSPropertyOp31
 70
     1
102
RTVSPropertyOp32
 70
     1
102
RTVSPropertyOp33
 70
     1
102
RTVSPropertyOp34
 70
     1
102
RTVSPropertyOp35
 70
     1
102
RTVSPropertyOp36
 70
     1
102
RTVSPropertyOp37
 70
     1
102
RTVSPropertyOp38
 70
     1
102
RTVSPropertyOp39
 70
     1
102
RTVSPropertyOp40
 70
     1
102
RTVSPropertyOp41
 70
     1
102
RTVSPropertyOp42
 70
     1
102
RTVSPropertyOp43
 70
     1
102
RTVSPropertyOp44
 70
     1
102
RTVSPropertyOp45
 70
     1
102
RTVSPropertyOp46
 70
     1
102
RTVSPropertyOp47
 70
     1
102
RTVSPropertyOp48
 70
     1
102
RTVSPropertyOp49
 70
     1
102
RTVSPropertyOp50
 70
     1
102
RTVSPropertyOp51
 70
     0
102
RTVSPropertyOp52
 70
     0
102
RTVSPropertyOp53
 70
     1
102
RTVSPropertyOp54
 70
     1
102
RTVSPropertyOp55
 70
     1
102
RTVSPropertyOp56
 70
     1
102
RTVSPropertyOp57
 70
     1
102
RTVSPropertyOp58
 70
     1
102
RTVSPropertyOp59
 70
     1
102
RTVSPropertyOp60
 70
     1
102
RTVSPropertyOp61
 70
     1
102
RTVSPropertyOp62
 70
     1
  0
XRECORD
  5
A00A
102
{ACAD_REACTORS
330
A009
102
}
330
A009
100
AcDbXrecord
280
     1
102
RTVSPost2010Prop28
280
     0
102
RTVSPost2010PropOp28
 70
     1
102
RTVSPost2010Prop29
280
     1
102
RTVSPost2010PropOp29
 70
     1
102
RTVSPost2010Prop30
280
     1
102
RTVSPost2010PropOp30
 70
     1
102
RTVSPost2010Prop31
280
     0
102
RTVSPost2010PropOp31
 70
     1
102
RTVSPost2010Prop32
280
     0
102
RTVSPost2010PropOp32
 70
     1
102
RTVSPost2010Prop33
280
     0
102
RTVSPost2010PropOp33
 70
     1
102
RTVSPost2010Prop34
280
     0
102
RTVSPost2010PropOp34
 70
     1
102
RTVSPost2010Prop35
280
     0
102
RTVSPost2010PropOp35
 70
     1
102
RTVSPost2010Prop36
280
     0
102
RTVSPost2010PropOp36
 70
     1
102
RTVSPost2010Prop37
 90
       50
102
RTVSPost2010PropOp37
 70
     1
102
RTVSPost2010Prop38
140
0.0
102
RTVSPost2010PropOp38
 70
     1
102
RTVSPost2010Prop39
140
1.0
102
RTVSPost2010PropOp39
 70
     1
102
RTVSPost2010Prop40
 90
        0
102
RTVSPost2010PropOp40
 70
     1
102
RTVSPost2010Prop41ColorIndex
 90
       18
102
RTVSPost2010Prop41ColorRGB
 90
        0
102
RTVSPost2010PropOp41
 70
     1
102
RTVSPost2010Prop42
 90
       50
102
RTVSPost2010PropOp42
 70
     1
102
RTVSPost2010Prop43
 90
        3
102
RTVSPost2010PropOp43
 70
     1
102
RTVSPost2010Prop44ColorIndex
 90
        5
102
RTVSPost2010Prop44ColorRGB
 90
      255
102
RTVSPost2010PropOp44
 70
     1
102
RTVSPost2010Prop45
280
     0
102
RTVSPost2010PropOp45
 70
     1
102
RTVSPost2010Prop46
 90
       50
102
RTVSPost2010PropOp46
 70
     1
102
RTVSPost2010Prop47
 90
       50
102
RTVSPost2010PropOp47
 70
     1
102
RTVSPost2010Prop48
 90
       50
102
RTVSPost2010PropOp48
 70
     1
102
RTVSPost2010Prop49
280
     0
102
RTVSPost2010PropOp49
 70
     1
102
RTVSPost2010Prop50
 90
       50
102
RTVSPost2010PropOp50
 70
     1
102
RTVSPost2010Prop51ColorIndex
 90
      256
102
RTVSPost2010Prop51ColorRGB
 90
-16777216
102
RTVSPost2010PropOp51
 70
     0
102
RTVSPost2010Prop52
140
1.0
102
RTVSPost2010PropOp52
 70
     0
102
RTVSPost2010Prop53
 90
        2
102
RTVSPost2010PropOp53
 70
     1
102
RTVSPost2010Prop54
  1
strokes_ogs.tif
102
RTVSPost2010PropOp54
 70
     1
102
RTVSPost2010Prop55
280
     0
102
RTVSPost2010PropOp55
 70
     1
102
RTVSPost2010Prop56
140
1.0
102
RTVSPost2010PropOp56
 70
     1
102
RTVSPost2010Prop57
140
1.0
102
RTVSPost2010PropOp57
 70
     1
102
RTVSPropertyOp0
 70
     1
102
RTVSPropertyOp1
 70
     1
102
RTVSPropertyOp2
 70
     1
102
RTVSPropertyOp3
 70
     1
102
RTVSPropertyOp4
 70
     1
102
RTVSPropertyOp5
 70
     1
102
RTVSPropertyOp6
 70
     1
102
RTVSPropertyOp7
 70
     1
102
RTVSPropertyOp8
 70
     1
102
RTVSPropertyOp9
 70
     1
102
RTVSPropertyOp10
 70
     1
102
RTVSPropertyOp11
 70
     1
102
RTVSPropertyOp12
 70
     1
102
RTVSPropertyOp13
 70
     1
102
RTVSPropertyOp14
 70
     1
102
RTVSPropertyOp15
 70
     1
102
RTVSPropertyOp16
 70
     1
102
RTVSPropertyOp17
 70
     1
102
RTVSPropertyOp18
 70
     1
102
RTVSPropertyOp19
 70
     1
102
RTVSPropertyOp20
 70
     1
102
RTVSPropertyOp21
 70
     1
102
RTVSPropertyOp22
 70
     1
102
RTVSPropertyOp23
 70
     1
102
RTVSPropertyOp24
 70
     1
102
RTVSPropertyOp25
 70
     1
102
RTVSPropertyOp26
 70
     1
102
RTVSPropertyOp27
 70
     1
102
RTVSPropertyOp28
 70
     1
102
RTVSPropertyOp29
 70
     1
102
RTVSPropertyOp30
 70
     1
102
RTVSPropertyOp31
 70
     1
102
RTVSPropertyOp32
 70
     1
102
RTVSPropertyOp33
 70
     1
102
RTVSPropertyOp34
 70
     1
102
RTVSPropertyOp35
 70
     1
102
RTVSPropertyOp36
 70
     1
102
RTVSPropertyOp37
 70
     1
102
RTVSPropertyOp38
 70
     1
102
RTVSPropertyOp39
 70
     1
102
RTVSPropertyOp40
 70
     1
102
RTVSPropertyOp41
 70
     1
102
RTVSPropertyOp42
 70
     1
102
RTVSPropertyOp43
 70
     1
102
RTVSPropertyOp44
 70
     1
102
RTVSPropertyOp45
 70
     1
102
RTVSPropertyOp46
 70
     1
102
RTVSPropertyOp47
 70
     1
102
RTVSPropertyOp48
 70
     1
102
RTVSPropertyOp49
 70
     1
102
RTVSPropertyOp50
 70
     1
102
RTVSPropertyOp51
 70
     0
102
RTVSPropertyOp52
 70
     0
102
RTVSPropertyOp53
 70
     1
102
RTVSPropertyOp54
 70
     1
102
RTVSPropertyOp55
 70
     1
102
RTVSPropertyOp56
 70
     1
102
RTVSPropertyOp57
 70
     1
102
RTVSPropertyOp58
 70
     1
102
RTVSPropertyOp59
 70
     1
102
RTVSPropertyOp60
 70
     1
102
RTVSPropertyOp61
 70
     1
102
RTVSPropertyOp62
 70
     1
  0
XRECORD
  5
A00C
102
{ACAD_REACTORS
330
A00B
102
}
330
A00B
100
AcDbXrecord
280
     1
102
RTVSPost2010Prop28
280
     0
102
RTVSPost2010PropOp28
 70
     1
102
RTVSPost2010Prop29
280
     1
102
RTVSPost2010PropOp29
 70
     1
102
RTVSPost2010Prop30
280
     1
102
RTVSPost2010PropOp30
 70
     1
102
RTVSPost2010Prop31
280
     0
102
RTVSPost2010PropOp31
 70
     1
102
RTVSPost2010Prop32
280
     0
102
RTVSPost2010PropOp32
 70
     1
102
RTVSPost2010Prop33
280
     0
102
RTVSPost2010PropOp33
 70
     1
102
RTVSPost2010Prop34
280
     0
102
RTVSPost2010PropOp34
 70
     1
102
RTVSPost2010Prop35
280
     0
102
RTVSPost2010PropOp35
 70
     1
102
RTVSPost2010Prop36
280
     0
102
RTVSPost2010PropOp36
 70
     1
102
RTVSPost2010Prop37
 90
       50
102
RTVSPost2010PropOp37
 70
     1
102
RTVSPost2010Prop38
140
0.0
102
RTVSPost2010PropOp38
 70
     1
102
RTVSPost2010Prop39
140
1.0
102
RTVSPost2010PropOp39
 70
     1
102
RTVSPost2010Prop40
 90
        0
102
RTVSPost2010PropOp40
 70
     1
102
RTVSPost2010Prop41ColorIndex
 90
       18
102
RTVSPost2010Prop41ColorRGB
 90
        0
102
RTVSPost2010PropOp41
 70
     1
102
RTVSPost2010Prop42
 90
       50
102
RTVSPost2010PropOp42
 70
     1
102
RTVSPost2010Prop43
 90
        3
102
RTVSPost2010PropOp43
 70
     1
102
RTVSPost2010Prop44ColorIndex
 90
        5
102
RTVSPost2010Prop44ColorRGB
 90
      255
102
RTVSPost2010PropOp44
 70
     1
102
RTVSPost2010Prop45
280
     0
102
RTVSPost2010PropOp45
 70
     1
102
RTVSPost2010Prop46
 90
       50
102
RTVSPost2010PropOp46
 70
     1
102
RTVSPost2010Prop47
 90
       50
102
RTVSPost2010PropOp47
 70
     1
102
RTVSPost2010Prop48
 90
       50
102
RTVSPost2010PropOp48
 70
     1
102
RTVSPost2010Prop49
280
     0
102
RTVSPost2010PropOp49
 70
     1
102
RTVSPost2010Prop50
 90
       50
102
RTVSPost2010PropOp50
 70
     1
102
RTVSPost2010Prop51ColorIndex
 90
      256
102
RTVSPost2010Prop51ColorRGB
 90
-16777216
102
RTVSPost2010PropOp51
 70
     0
102
RTVSPost2010Prop52
140
1.0
102
RTVSPost2010PropOp52
 70
     0
102
RTVSPost2010Prop53
 90
        2
102
RTVSPost2010PropOp53
 70
     1
102
RTVSPost2010Prop54
  1
strokes_ogs.tif
102
RTVSPost2010PropOp54
 70
     1
102
RTVSPost2010Prop55
280
     0
102
RTVSPost2010PropOp55
 70
     1
102
RTVSPost2010Prop56
140
1.0
102
RTVSPost2010PropOp56
 70
     1
102
RTVSPost2010Prop57
140
1.0
102
RTVSPost2010PropOp57
 70
     1
102
RTVSPropertyOp0
 70
     1
102
RTVSPropertyOp1
 70
     1
102
RTVSPropertyOp2
 70
     1
102
RTVSPropertyOp3
 70
     1
102
RTVSPropertyOp4
 70
     1
102
RTVSPropertyOp5
 70
     1
102
RTVSPropertyOp6
 70
     1
102
RTVSPropertyOp7
 70
     1
102
RTVSPropertyOp8
 70
     1
102
RTVSPropertyOp9
 70
     1
102
RTVSPropertyOp10
 70
     1
102
RTVSPropertyOp11
 70
     1
102
RTVSPropertyOp12
 70
     1
102
RTVSPropertyOp13
 70
     1
102
RTVSPropertyOp14
 70
     1
102
RTVSPropertyOp15
 70
     1
102
RTVSPropertyOp16
 70
     1
102
RTVSPropertyOp17
 70
     1
102
RTVSPropertyOp18
 70
     1
102
RTVSPropertyOp19
 70
     1
102
RTVSPropertyOp20
 70
     1
102
RTVSPropertyOp21
 70
     1
102
RTVSPropertyOp22
 70
     1
102
RTVSPropertyOp23
 70
     1
102
RTVSPropertyOp24
 70
     1
102
RTVSPropertyOp25
 70
     1
102
RTVSPropertyOp26
 70
     1
102
RTVSPropertyOp27
 70
     1
102
RTVSPropertyOp28
 70
     1
102
RTVSPropertyOp29
 70
     1
102
RTVSPropertyOp30
 70
     1
102
RTVSPropertyOp31
 70
     1
102
RTVSPropertyOp32
 70
     1
102
RTVSPropertyOp33
 70
     1
102
RTVSPropertyOp34
 70
     1
102
RTVSPropertyOp35
 70
     1
102
RTVSPropertyOp36
 70
     1
102
RTVSPropertyOp37
 70
     1
102
RTVSPropertyOp38
 70
     1
102
RTVSPropertyOp39
 70
     1
102
RTVSPropertyOp40
 70
     1
102
RTVSPropertyOp41
 70
     1
102
RTVSPropertyOp42
 70
     1
102
RTVSPropertyOp43
 70
     1
102
RTVSPropertyOp44
 70
     1
102
RTVSPropertyOp45
 70
     1
102
RTVSPropertyOp46
 70
     1
102
RTVSPropertyOp47
 70
     1
102
RTVSPropertyOp48
 70
     1
102
RTVSPropertyOp49
 70
     1
102
RTVSPropertyOp50
 70
     1
102
RTVSPropertyOp51
 70
     0
102
RTVSPropertyOp52
 70
     0
102
RTVSPropertyOp53
 70
     1
102
RTVSPropertyOp54
 70
     1
102
RTVSPropertyOp55
 70
     1
102
RTVSPropertyOp56
 70
     1
102
RTVSPropertyOp57
 70
     1
102
RTVSPropertyOp58
 70
     1
102
RTVSPropertyOp59
 70
     1
102
RTVSPropertyOp60
 70
     1
102
RTVSPropertyOp61
 70
     1
102
RTVSPropertyOp62
 70
     1
  0
XRECORD
  5
A00E
102
{ACAD_REACTORS
330
A00D
102
}
330
A00D
100
AcDbXrecord
280
     1
102
RTVSPost2010Prop28
280
     0
102
RTVSPost2010PropOp28
 70
     1
102
RTVSPost2010Prop29
280
     1
102
RTVSPost2010PropOp29
 70
     1
102
RTVSPost2010Prop30
280
     1
102
RTVSPost2010PropOp30
 70
     1
102
RTVSPost2010Prop31
280
     0
102
RTVSPost2010PropOp31
 70
     1
102
RTVSPost2010Prop32
280
     0
102
RTVSPost2010PropOp32
 70
     1
102
RTVSPost2010Prop33
280
     0
102
RTVSPost2010PropOp33
 70
     1
102
RTVSPost2010Prop34
280
     0
102
RTVSPost2010PropOp34
 70
     1
102
RTVSPost2010Prop35
280
     0
102
RTVSPost2010PropOp35
 70
     1
102
RTVSPost2010Prop36
280
     0
102
RTVSPost2010PropOp36
 70
     1
102
RTVSPost2010Prop37
 90
       50
102
RTVSPost2010PropOp37
 70
     1
102
RTVSPost2010Prop38
140
0.0
102
RTVSPost2010PropOp38
 70
     1
102
RTVSPost2010Prop39
140
1.0
102
RTVSPost2010PropOp39
 70
     1
102
RTVSPost2010Prop40
 90
        0
102
RTVSPost2010PropOp40
 70
     1
102
RTVSPost2010Prop41ColorIndex
 90
       18
102
RTVSPost2010Prop41ColorRGB
 90
        0
102
RTVSPost2010PropOp41
 70
     1
102
RTVSPost2010Prop42
 90
       50
102
RTVSPost2010PropOp42
 70
     1
102
RTVSPost2010Prop43
 90
        3
102
RTVSPost2010PropOp43
 70
     1
102
RTVSPost2010Prop44ColorIndex
 90
        5
102
RTVSPost2010Prop44ColorRGB
 90
      255
102
RTVSPost2010PropOp44
 70
     1
102
RTVSPost2010Prop45
280
     0
102
RTVSPost2010PropOp45
 70
     1
102
RTVSPost2010Prop46
 90
       50
102
RTVSPost2010PropOp46
 70
     1
102
RTVSPost2010Prop47
 90
       50
102
RTVSPost2010PropOp47
 70
     1
102
RTVSPost2010Prop48
 90
       50
102
RTVSPost2010PropOp48
 70
     1
102
RTVSPost2010Prop49
280
     0
102
RTVSPost2010PropOp49
 70
     1
102
RTVSPost2010Prop50
 90
       50
102
RTVSPost2010PropOp50
 70
     1
102
RTVSPost2010Prop51ColorIndex
 90
      256
102
RTVSPost2010Prop51ColorRGB
 90
-16777216
102
RTVSPost2010PropOp51
 70
     0
102
RTVSPost2010Prop52
140
1.0
102
RTVSPost2010PropOp52
 70
     0
102
RTVSPost2010Prop53
 90
        2
102
RTVSPost2010PropOp53
 70
     1
102
RTVSPost2010Prop54
  1
strokes_ogs.tif
102
RTVSPost2010PropOp54
 70
     1
102
RTVSPost2010Prop55
280
     0
102
RTVSPost2010PropOp55
 70
     1
102
RTVSPost2010Prop56
140
1.0
102
RTVSPost2010PropOp56
 70
     1
102
RTVSPost2010Prop57
140
1.0
102
RTVSPost2010PropOp57
 70
     1
102
RTVSPropertyOp0
 70
     1
102
RTVSPropertyOp1
 70
     1
102
RTVSPropertyOp2
 70
     1
102
RTVSPropertyOp3
 70
     1
102
RTVSPropertyOp4
 70
     1
102
RTVSPropertyOp5
 70
     1
102
RTVSPropertyOp6
 70
     1
102
RTVSPropertyOp7
 70
     1
102
RTVSPropertyOp8
 70
     1
102
RTVSPropertyOp9
 70
     1
102
RTVSPropertyOp10
 70
     1
102
RTVSPropertyOp11
 70
     1
102
RTVSPropertyOp12
 70
     1
102
RTVSPropertyOp13
 70
     1
102
RTVSPropertyOp14
 70
     1
102
RTVSPropertyOp15
 70
     1
102
RTVSPropertyOp16
 70
     1
102
RTVSPropertyOp17
 70
     1
102
RTVSPropertyOp18
 70
     1
102
RTVSPropertyOp19
 70
     1
102
RTVSPropertyOp20
 70
     1
102
RTVSPropertyOp21
 70
     1
102
RTVSPropertyOp22
 70
     1
102
RTVSPropertyOp23
 70
     1
102
RTVSPropertyOp24
 70
     1
102
RTVSPropertyOp25
 70
     1
102
RTVSPropertyOp26
 70
     1
102
RTVSPropertyOp27
 70
     1
102
RTVSPropertyOp28
 70
     1
102
RTVSPropertyOp29
 70
     1
102
RTVSPropertyOp30
 70
     1
102
RTVSPropertyOp31
 70
     1
102
RTVSPropertyOp32
 70
     1
102
RTVSPropertyOp33
 70
     1
102
RTVSPropertyOp34
 70
     1
102
RTVSPropertyOp35
 70
     1
102
RTVSPropertyOp36
 70
     1
102
RTVSPropertyOp37
 70
     1
102
RTVSPropertyOp38
 70
     1
102
RTVSPropertyOp39
 70
     1
102
RTVSPropertyOp40
 70
     1
102
RTVSPropertyOp41
 70
     1
102
RTVSPropertyOp42
 70
     1
102
RTVSPropertyOp43
 70
     1
102
RTVSPropertyOp44
 70
     1
102
RTVSPropertyOp45
 70
     1
102
RTVSPropertyOp46
 70
     1
102
RTVSPropertyOp47
 70
     1
102
RTVSPropertyOp48
 70
     1
102
RTVSPropertyOp49
 70
     1
102
RTVSPropertyOp50
 70
     1
102
RTVSPropertyOp51
 70
     0
102
RTVSPropertyOp52
 70
     0
102
RTVSPropertyOp53
 70
     1
102
RTVSPropertyOp54
 70
     1
102
RTVSPropertyOp55
 70
     1
102
RTVSPropertyOp56
 70
     1
102
RTVSPropertyOp57
 70
     1
102
RTVSPropertyOp58
 70
     1
102
RTVSPropertyOp59
 70
     1
102
RTVSPropertyOp60
 70
     1
102
RTVSPropertyOp61
 70
     1
102
RTVSPropertyOp62
 70
     1
  0
XRECORD
  5
A016
102
{ACAD_REACTORS
330
A015
102
}
330
A015
100
AcDbXrecord
280
     1
102
RTVSPost2010Prop28
280
     0
102
RTVSPost2010PropOp28
 70
     1
102
RTVSPost2010Prop29
280
     1
102
RTVSPost2010PropOp29
 70
     1
102
RTVSPost2010Prop30
280
     1
102
RTVSPost2010PropOp30
 70
     1
102
RTVSPost2010Prop31
280
     0
102
RTVSPost2010PropOp31
 70
     1
102
RTVSPost2010Prop32
280
     0
102
RTVSPost2010PropOp32
 70
     1
102
RTVSPost2010Prop33
280
     0
102
RTVSPost2010PropOp33
 70
     1
102
RTVSPost2010Prop34
280
     0
102
RTVSPost2010PropOp34
 70
     1
102
RTVSPost2010Prop35
280
     0
102
RTVSPost2010PropOp35
 70
     1
102
RTVSPost2010Prop36
280
     0
102
RTVSPost2010PropOp36
 70
     1
102
RTVSPost2010Prop37
 90
       50
102
RTVSPost2010PropOp37
 70
     1
102
RTVSPost2010Prop38
140
0.0
102
RTVSPost2010PropOp38
 70
     1
102
RTVSPost2010Prop39
140
1.0
102
RTVSPost2010PropOp39
 70
     1
102
RTVSPost2010Prop40
 90
        0
102
RTVSPost2010PropOp40
 70
     1
102
RTVSPost2010Prop41ColorIndex
 90
       18
102
RTVSPost2010Prop41ColorRGB
 90
        0
102
RTVSPost2010PropOp41
 70
     1
102
RTVSPost2010Prop42
 90
       50
102
RTVSPost2010PropOp42
 70
     1
102
RTVSPost2010Prop43
 90
        3
102
RTVSPost2010PropOp43
 70
     1
102
RTVSPost2010Prop44ColorIndex
 90
        5
102
RTVSPost2010Prop44ColorRGB
 90
      255
102
RTVSPost2010PropOp44
 70
     1
102
RTVSPost2010Prop45
280
     0
102
RTVSPost2010PropOp45
 70
     1
102
RTVSPost2010Prop46
 90
       50
102
RTVSPost2010PropOp46
 70
     1
102
RTVSPost2010Prop47
 90
       50
102
RTVSPost2010PropOp47
 70
     1
102
RTVSPost2010Prop48
 90
       50
102
RTVSPost2010PropOp48
 70
     1
102
RTVSPost2010Prop49
280
     0
102
RTVSPost2010PropOp49
 70
     1
102
RTVSPost2010Prop50
 90
       50
102
RTVSPost2010PropOp50
 70
     1
102
RTVSPost2010Prop51ColorIndex
 90
      256
102
RTVSPost2010Prop51ColorRGB
 90
-16777216
102
RTVSPost2010PropOp51
 70
     0
102
RTVSPost2010Prop52
140
1.0
102
RTVSPost2010PropOp52
 70
     0
102
RTVSPost2010Prop53
 90
        2
102
RTVSPost2010PropOp53
 70
     1
102
RTVSPost2010Prop54
  1
strokes_ogs.tif
102
RTVSPost2010PropOp54
 70
     1
102
RTVSPost2010Prop55
280
     0
102
RTVSPost2010PropOp55
 70
     1
102
RTVSPost2010Prop56
140
1.0
102
RTVSPost2010PropOp56
 70
     1
102
RTVSPost2010Prop57
140
1.0
102
RTVSPost2010PropOp57
 70
     1
102
RTVSPropertyOp0
 70
     1
102
RTVSPropertyOp1
 70
     1
102
RTVSPropertyOp2
 70
     1
102
RTVSPropertyOp3
 70
     1
102
RTVSPropertyOp4
 70
     1
102
RTVSPropertyOp5
 70
     1
102
RTVSPropertyOp6
 70
     1
102
RTVSPropertyOp7
 70
     1
102
RTVSPropertyOp8
 70
     1
102
RTVSPropertyOp9
 70
     1
102
RTVSPropertyOp10
 70
     1
102
RTVSPropertyOp11
 70
     1
102
RTVSPropertyOp12
 70
     1
102
RTVSPropertyOp13
 70
     1
102
RTVSPropertyOp14
 70
     1
102
RTVSPropertyOp15
 70
     1
102
RTVSPropertyOp16
 70
     1
102
RTVSPropertyOp17
 70
     1
102
RTVSPropertyOp18
 70
     1
102
RTVSPropertyOp19
 70
     1
102
RTVSPropertyOp20
 70
     1
102
RTVSPropertyOp21
 70
     1
102
RTVSPropertyOp22
 70
     1
102
RTVSPropertyOp23
 70
     1
102
RTVSPropertyOp24
 70
     1
102
RTVSPropertyOp25
 70
     1
102
RTVSPropertyOp26
 70
     1
102
RTVSPropertyOp27
 70
     1
102
RTVSPropertyOp28
 70
     1
102
RTVSPropertyOp29
 70
     1
102
RTVSPropertyOp30
 70
     1
102
RTVSPropertyOp31
 70
     1
102
RTVSPropertyOp32
 70
     1
102
RTVSPropertyOp33
 70
     1
102
RTVSPropertyOp34
 70
     1
102
RTVSPropertyOp35
 70
     1
102
RTVSPropertyOp36
 70
     1
102
RTVSPropertyOp37
 70
     1
102
RTVSPropertyOp38
 70
     1
102
RTVSPropertyOp39
 70
     1
102
RTVSPropertyOp40
 70
     1
102
RTVSPropertyOp41
 70
     1
102
RTVSPropertyOp42
 70
     1
102
RTVSPropertyOp43
 70
     1
102
RTVSPropertyOp44
 70
     1
102
RTVSPropertyOp45
 70
     1
102
RTVSPropertyOp46
 70
     1
102
RTVSPropertyOp47
 70
     1
102
RTVSPropertyOp48
 70
     1
102
RTVSPropertyOp49
 70
     1
102
RTVSPropertyOp50
 70
     1
102
RTVSPropertyOp51
 70
     0
102
RTVSPropertyOp52
 70
     0
102
RTVSPropertyOp53
 70
     1
102
RTVSPropertyOp54
 70
     1
102
RTVSPropertyOp55
 70
     1
102
RTVSPropertyOp56
 70
     1
102
RTVSPropertyOp57
 70
     1
102
RTVSPropertyOp58
 70
     1
102
RTVSPropertyOp59
 70
     1
102
RTVSPropertyOp60
 70
     1
102
RTVSPropertyOp61
 70
     1
102
RTVSPropertyOp62
 70
     1
  0
XRECORD
  5
A032
102
{ACAD_REACTORS
330
A031
102
}
330
A031
100
AcDbXrecord
280
     1
102
RTVSPost2010Prop28
280
     0
102
RTVSPost2010PropOp28
 70
     1
102
RTVSPost2010Prop29
280
     1
102
RTVSPost2010PropOp29
 70
     1
102
RTVSPost2010Prop30
280
     1
102
RTVSPost2010PropOp30
 70
     1
102
RTVSPost2010Prop31
280
     0
102
RTVSPost2010PropOp31
 70
     1
102
RTVSPost2010Prop32
280
     0
102
RTVSPost2010PropOp32
 70
     1
102
RTVSPost2010Prop33
280
     0
102
RTVSPost2010PropOp33
 70
     1
102
RTVSPost2010Prop34
280
     0
102
RTVSPost2010PropOp34
 70
     1
102
RTVSPost2010Prop35
280
     0
102
RTVSPost2010PropOp35
 70
     1
102
RTVSPost2010Prop36
280
     0
102
RTVSPost2010PropOp36
 70
     1
102
RTVSPost2010Prop37
 90
       50
102
RTVSPost2010PropOp37
 70
     0
102
RTVSPost2010Prop38
140
0.0
102
RTVSPost2010PropOp38
 70
     0
102
RTVSPost2010Prop39
140
1.0
102
RTVSPost2010PropOp39
 70
     0
102
RTVSPost2010Prop40
 90
        0
102
RTVSPost2010PropOp40
 70
     0
102
RTVSPost2010Prop41ColorIndex
 90
       18
102
RTVSPost2010Prop41ColorRGB
 90
        0
102
RTVSPost2010PropOp41
 70
     0
102
RTVSPost2010Prop42
 90
       50
102
RTVSPost2010PropOp42
 70
     0
102
RTVSPost2010Prop43
 90
        3
102
RTVSPost2010PropOp43
 70
     0
102
RTVSPost2010Prop44ColorIndex
 90
        5
102
RTVSPost2010Prop44ColorRGB
 90
      255
102
RTVSPost2010PropOp44
 70
     0
102
RTVSPost2010Prop45
280
     0
102
RTVSPost2010PropOp45
 70
     1
102
RTVSPost2010Prop46
 90
       50
102
RTVSPost2010PropOp46
 70
     0
102
RTVSPost2010Prop47
 90
       50
102
RTVSPost2010PropOp47
 70
     0
102
RTVSPost2010Prop48
 90
       50
102
RTVSPost2010PropOp48
 70
     0
102
RTVSPost2010Prop49
280
     0
102
RTVSPost2010PropOp49
 70
     1
102
RTVSPost2010Prop50
 90
       50
102
RTVSPost2010PropOp50
 70
     0
102
RTVSPost2010Prop51ColorIndex
 90
      256
102
RTVSPost2010Prop51ColorRGB
 90
-16777216
102
RTVSPost2010PropOp51
 70
     0
102
RTVSPost2010Prop52
140
1.0
102
RTVSPost2010PropOp52
 70
     0
102
RTVSPost2010Prop53
 90
        2
102
RTVSPost2010PropOp53
 70
     0
102
RTVSPost2010Prop54
  1
strokes_ogs.tif
102
RTVSPost2010PropOp54
 70
     0
102
RTVSPost2010Prop55
280
     0
102
RTVSPost2010PropOp55
 70
     1
102
RTVSPost2010Prop56
140
1.0
102
RTVSPost2010PropOp56
 70
     0
102
RTVSPost2010Prop57
140
1.0
102
RTVSPost2010PropOp57
 70
     0
102
RTVSPropertyOp0
 70
     0
102
RTVSPropertyOp1
 70
     0
102
RTVSPropertyOp2
 70
     0
102
RTVSPropertyOp3
 70
     0
102
RTVSPropertyOp4
 70
     0
102
RTVSPropertyOp5
 70
     0
102
RTVSPropertyOp6
 70
     0
102
RTVSPropertyOp7
 70
     0
102
RTVSPropertyOp8
 70
     0
102
RTVSPropertyOp9
 70
     0
102
RTVSPropertyOp10
 70
     0
102
RTVSPropertyOp11
 70
     0
102
RTVSPropertyOp12
 70
     0
102
RTVSPropertyOp13
 70
     0
102
RTVSPropertyOp14
 70
     2
102
RTVSPropertyOp15
 70
     0
102
RTVSPropertyOp16
 70
     0
102
RTVSPropertyOp17
 70
     0
102
RTVSPropertyOp18
 70
     0
102
RTVSPropertyOp19
 70
     0
102
RTVSPropertyOp20
 70
     0
102
RTVSPropertyOp21
 70
     0
102
RTVSPropertyOp22
 70
     0
102
RTVSPropertyOp23
 70
     0
102
RTVSPropertyOp24
 70
     0
102
RTVSPropertyOp25
 70
     0
102
RTVSPropertyOp26
 70
     0
102
RTVSPropertyOp27
 70
     0
102
RTVSPropertyOp28
 70
     1
102
RTVSPropertyOp29
 70
     1
102
RTVSPropertyOp30
 70
     1
102
RTVSPropertyOp31
 70
     1
102
RTVSPropertyOp32
 70
     1
102
RTVSPropertyOp33
 70
     1
102
RTVSPropertyOp34
 70
     1
102
RTVSPropertyOp35
 70
     1
102
RTVSPropertyOp36
 70
     1
102
RTVSPropertyOp37
 70
     0
102
RTVSPropertyOp38
 70
     0
102
RTVSPropertyOp39
 70
     0
102
RTVSPropertyOp40
 70
     0
102
RTVSPropertyOp41
 70
     0
102
RTVSPropertyOp42
 70
     0
102
RTVSPropertyOp43
 70
     0
102
RTVSPropertyOp44
 70
     0
102
RTVSPropertyOp45
 70
     1
102
RTVSPropertyOp46
 70
     0
102
RTVSPropertyOp47
 70
     0
102
RTVSPropertyOp48
 70
     0
102
RTVSPropertyOp49
 70
     1
102
RTVSPropertyOp50
 70
     0
102
RTVSPropertyOp51
 70
     0
102
RTVSPropertyOp52
 70
     0
102
RTVSPropertyOp53
 70
     0
102
RTVSPropertyOp54
 70
     0
102
RTVSPropertyOp55
 70
     1
102
RTVSPropertyOp56
 70
     0
102
RTVSPropertyOp57
 70
     0
102
RTVSPropertyOp58
 70
     0
102
RTVSPropertyOp59
 70
     0
102
RTVSPropertyOp60
 70
     0
102
RTVSPropertyOp61
 70
     0
102
RTVSPropertyOp62
 70
     0
  0
XRECORD
  5
A022
102
{ACAD_REACTORS
330
A021
102
}
330
A021
100
AcDbXrecord
280
     1
102
RTVSPost2010Prop28
280
     0
102
RTVSPost2010PropOp28
 70
     1
102
RTVSPost2010Prop29
280
     1
102
RTVSPost2010PropOp29
 70
     1
102
RTVSPost2010Prop30
280
     1
102
RTVSPost2010PropOp30
 70
     1
102
RTVSPost2010Prop31
280
     0
102
RTVSPost2010PropOp31
 70
     1
102
RTVSPost2010Prop32
280
     0
102
RTVSPost2010PropOp32
 70
     1
102
RTVSPost2010Prop33
280
     0
102
RTVSPost2010PropOp33
 70
     1
102
RTVSPost2010Prop34
280
     0
102
RTVSPost2010PropOp34
 70
     1
102
RTVSPost2010Prop35
280
     0
102
RTVSPost2010PropOp35
 70
     1
102
RTVSPost2010Prop36
280
     0
102
RTVSPost2010PropOp36
 70
     1
102
RTVSPost2010Prop37
 90
       50
102
RTVSPost2010PropOp37
 70
     1
102
RTVSPost2010Prop38
140
0.0
102
RTVSPost2010PropOp38
 70
     1
102
RTVSPost2010Prop39
140
1.0
102
RTVSPost2010PropOp39
 70
     1
102
RTVSPost2010Prop40
 90
        0
102
RTVSPost2010PropOp40
 70
     1
102
RTVSPost2010Prop41ColorIndex
 90
       18
102
RTVSPost2010Prop41ColorRGB
 90
        0
102
RTVSPost2010PropOp41
 70
     1
102
RTVSPost2010Prop42
 90
       50
102
RTVSPost2010PropOp42
 70
     1
102
RTVSPost2010Prop43
 90
        3
102
RTVSPost2010PropOp43
 70
     1
102
RTVSPost2010Prop44ColorIndex
 90
        5
102
RTVSPost2010Prop44ColorRGB
 90
      255
102
RTVSPost2010PropOp44
 70
     1
102
RTVSPost2010Prop45
280
     0
102
RTVSPost2010PropOp45
 70
     1
102
RTVSPost2010Prop46
 90
       50
102
RTVSPost2010PropOp46
 70
     1
102
RTVSPost2010Prop47
 90
       50
102
RTVSPost2010PropOp47
 70
     1
102
RTVSPost2010Prop48
 90
       50
102
RTVSPost2010PropOp48
 70
     1
102
RTVSPost2010Prop49
280
     0
102
RTVSPost2010PropOp49
 70
     1
102
RTVSPost2010Prop50
 90
       50
102
RTVSPost2010PropOp50
 70
     1
102
RTVSPost2010Prop51ColorIndex
 90
      256
102
RTVSPost2010Prop51ColorRGB
 90
-16777216
102
RTVSPost2010PropOp51
 70
     0
102
RTVSPost2010Prop52
140
1.0
102
RTVSPost2010PropOp52
 70
     0
102
RTVSPost2010Prop53
 90
        2
102
RTVSPost2010PropOp53
 70
     1
102
RTVSPost2010Prop54
  1
strokes_ogs.tif
102
RTVSPost2010PropOp54
 70
     1
102
RTVSPost2010Prop55
280
     0
102
RTVSPost2010PropOp55
 70
     1
102
RTVSPost2010Prop56
140
1.0
102
RTVSPost2010PropOp56
 70
     1
102
RTVSPost2010Prop57
140
1.0
102
RTVSPost2010PropOp57
 70
     1
102
RTVSPropertyOp0
 70
     1
102
RTVSPropertyOp1
 70
     1
102
RTVSPropertyOp2
 70
     1
102
RTVSPropertyOp3
 70
     1
102
RTVSPropertyOp4
 70
     1
102
RTVSPropertyOp5
 70
     1
102
RTVSPropertyOp6
 70
     1
102
RTVSPropertyOp7
 70
     1
102
RTVSPropertyOp8
 70
     1
102
RTVSPropertyOp9
 70
     1
102
RTVSPropertyOp10
 70
     1
102
RTVSPropertyOp11
 70
     1
102
RTVSPropertyOp12
 70
     1
102
RTVSPropertyOp13
 70
     1
102
RTVSPropertyOp14
 70
     1
102
RTVSPropertyOp15
 70
     1
102
RTVSPropertyOp16
 70
     1
102
RTVSPropertyOp17
 70
     1
102
RTVSPropertyOp18
 70
     1
102
RTVSPropertyOp19
 70
     1
102
RTVSPropertyOp20
 70
     1
102
RTVSPropertyOp21
 70
     1
102
RTVSPropertyOp22
 70
     1
102
RTVSPropertyOp23
 70
     1
102
RTVSPropertyOp24
 70
     1
102
RTVSPropertyOp25
 70
     1
102
RTVSPropertyOp26
 70
     1
102
RTVSPropertyOp27
 70
     1
102
RTVSPropertyOp28
 70
     1
102
RTVSPropertyOp29
 70
     1
102
RTVSPropertyOp30
 70
     1
102
RTVSPropertyOp31
 70
     1
102
RTVSPropertyOp32
 70
     1
102
RTVSPropertyOp33
 70
     1
102
RTVSPropertyOp34
 70
     1
102
RTVSPropertyOp35
 70
     1
102
RTVSPropertyOp36
 70
     1
102
RTVSPropertyOp37
 70
     1
102
RTVSPropertyOp38
 70
     1
102
RTVSPropertyOp39
 70
     1
102
RTVSPropertyOp40
 70
     1
102
RTVSPropertyOp41
 70
     1
102
RTVSPropertyOp42
 70
     1
102
RTVSPropertyOp43
 70
     1
102
RTVSPropertyOp44
 70
     1
102
RTVSPropertyOp45
 70
     1
102
RTVSPropertyOp46
 70
     1
102
RTVSPropertyOp47
 70
     1
102
RTVSPropertyOp48
 70
     1
102
RTVSPropertyOp49
 70
     1
102
RTVSPropertyOp50
 70
     1
102
RTVSPropertyOp51
 70
     0
102
RTVSPropertyOp52
 70
     0
102
RTVSPropertyOp53
 70
     1
102
RTVSPropertyOp54
 70
     1
102
RTVSPropertyOp55
 70
     1
102
RTVSPropertyOp56
 70
     1
102
RTVSPropertyOp57
 70
     1
102
RTVSPropertyOp58
 70
     1
102
RTVSPropertyOp59
 70
     1
102
RTVSPropertyOp60
 70
     1
102
RTVSPropertyOp61
 70
     1
102
RTVSPropertyOp62
 70
     1
  0
XRECORD
  5
A034
102
{ACAD_REACTORS
330
A033
102
}
330
A033
100
AcDbXrecord
280
     1
102
RTVSPost2010Prop28
280
     0
102
RTVSPost2010PropOp28
 70
     1
102
RTVSPost2010Prop29
280
     1
102
RTVSPost2010PropOp29
 70
     1
102
RTVSPost2010Prop30
280
     1
102
RTVSPost2010PropOp30
 70
     1
102
RTVSPost2010Prop31
280
     0
102
RTVSPost2010PropOp31
 70
     1
102
RTVSPost2010Prop32
280
     0
102
RTVSPost2010PropOp32
 70
     1
102
RTVSPost2010Prop33
280
     0
102
RTVSPost2010PropOp33
 70
     1
102
RTVSPost2010Prop34
280
     0
102
RTVSPost2010PropOp34
 70
     1
102
RTVSPost2010Prop35
280
     0
102
RTVSPost2010PropOp35
 70
     1
102
RTVSPost2010Prop36
280
     0
102
RTVSPost2010PropOp36
 70
     1
102
RTVSPost2010Prop37
 90
       50
102
RTVSPost2010PropOp37
 70
     0
102
RTVSPost2010Prop38
140
0.0
102
RTVSPost2010PropOp38
 70
     0
102
RTVSPost2010Prop39
140
1.0
102
RTVSPost2010PropOp39
 70
     0
102
RTVSPost2010Prop40
 90
        0
102
RTVSPost2010PropOp40
 70
     0
102
RTVSPost2010Prop41ColorIndex
 90
       18
102
RTVSPost2010Prop41ColorRGB
 90
        0
102
RTVSPost2010PropOp41
 70
     0
102
RTVSPost2010Prop42
 90
       50
102
RTVSPost2010PropOp42
 70
     0
102
RTVSPost2010Prop43
 90
        3
102
RTVSPost2010PropOp43
 70
     0
102
RTVSPost2010Prop44ColorIndex
 90
        5
102
RTVSPost2010Prop44ColorRGB
 90
      255
102
RTVSPost2010PropOp44
 70
     0
102
RTVSPost2010Prop45
280
     0
102
RTVSPost2010PropOp45
 70
     1
102
RTVSPost2010Prop46
 90
       50
102
RTVSPost2010PropOp46
 70
     0
102
RTVSPost2010Prop47
 90
       50
102
RTVSPost2010PropOp47
 70
     0
102
RTVSPost2010Prop48
 90
       50
102
RTVSPost2010PropOp48
 70
     0
102
RTVSPost2010Prop49
280
     0
102
RTVSPost2010PropOp49
 70
     1
102
RTVSPost2010Prop50
 90
       50
102
RTVSPost2010PropOp50
 70
     0
102
RTVSPost2010Prop51ColorIndex
 90
      256
102
RTVSPost2010Prop51ColorRGB
 90
-16777216
102
RTVSPost2010PropOp51
 70
     0
102
RTVSPost2010Prop52
140
1.0
102
RTVSPost2010PropOp52
 70
     0
102
RTVSPost2010Prop53
 90
        2
102
RTVSPost2010PropOp53
 70
     0
102
RTVSPost2010Prop54
  1
strokes_ogs.tif
102
RTVSPost2010PropOp54
 70
     0
102
RTVSPost2010Prop55
280
     0
102
RTVSPost2010PropOp55
 70
     1
102
RTVSPost2010Prop56
140
1.0
102
RTVSPost2010PropOp56
 70
     0
102
RTVSPost2010Prop57
140
1.0
102
RTVSPost2010PropOp57
 70
     0
102
RTVSPropertyOp0
 70
     0
102
RTVSPropertyOp1
 70
     0
102
RTVSPropertyOp2
 70
     0
102
RTVSPropertyOp3
 70
     0
102
RTVSPropertyOp4
 70
     0
102
RTVSPropertyOp5
 70
     0
102
RTVSPropertyOp6
 70
     0
102
RTVSPropertyOp7
 70
     0
102
RTVSPropertyOp8
 70
     0
102
RTVSPropertyOp9
 70
     0
102
RTVSPropertyOp10
 70
     0
102
RTVSPropertyOp11
 70
     0
102
RTVSPropertyOp12
 70
     0
102
RTVSPropertyOp13
 70
     0
102
RTVSPropertyOp14
 70
     2
102
RTVSPropertyOp15
 70
     0
102
RTVSPropertyOp16
 70
     0
102
RTVSPropertyOp17
 70
     0
102
RTVSPropertyOp18
 70
     0
102
RTVSPropertyOp19
 70
     0
102
RTVSPropertyOp20
 70
     0
102
RTVSPropertyOp21
 70
     0
102
RTVSPropertyOp22
 70
     0
102
RTVSPropertyOp23
 70
     0
102
RTVSPropertyOp24
 70
     0
102
RTVSPropertyOp25
 70
     0
102
RTVSPropertyOp26
 70
     0
102
RTVSPropertyOp27
 70
     0
102
RTVSPropertyOp28
 70
     1
102
RTVSPropertyOp29
 70
     1
102
RTVSPropertyOp30
 70
     1
102
RTVSPropertyOp31
 70
     1
102
RTVSPropertyOp32
 70
     1
102
RTVSPropertyOp33
 70
     1
102
RTVSPropertyOp34
 70
     1
102
RTVSPropertyOp35
 70
     1
102
RTVSPropertyOp36
 70
     1
102
RTVSPropertyOp37
 70
     0
102
RTVSPropertyOp38
 70
     0
102
RTVSPropertyOp39
 70
     0
102
RTVSPropertyOp40
 70
     0
102
RTVSPropertyOp41
 70
     0
102
RTVSPropertyOp42
 70
     0
102
RTVSPropertyOp43
 70
     0
102
RTVSPropertyOp44
 70
     0
102
RTVSPropertyOp45
 70
     1
102
RTVSPropertyOp46
 70
     0
102
RTVSPropertyOp47
 70
     0
102
RTVSPropertyOp48
 70
     0
102
RTVSPropertyOp49
 70
     1
102
RTVSPropertyOp50
 70
     0
102
RTVSPropertyOp51
 70
     0
102
RTVSPropertyOp52
 70
     0
102
RTVSPropertyOp53
 70
     0
102
RTVSPropertyOp54
 70
     0
102
RTVSPropertyOp55
 70
     1
102
RTVSPropertyOp56
 70
     0
102
RTVSPropertyOp57
 70
     0
102
RTVSPropertyOp58
 70
     0
102
RTVSPropertyOp59
 70
     0
102
RTVSPropertyOp60
 70
     0
102
RTVSPropertyOp61
 70
     0
102
RTVSPropertyOp62
 70
     0
  0
XRECORD
  5
A01A
102
{ACAD_REACTORS
330
A019
102
}
330
A019
100
AcDbXrecord
280
     1
102
RTVSPost2010Prop28
280
     0
102
RTVSPost2010PropOp28
 70
     1
102
RTVSPost2010Prop29
280
     1
102
RTVSPost2010PropOp29
 70
     1
102
RTVSPost2010Prop30
280
     1
102
RTVSPost2010PropOp30
 70
     1
102
RTVSPost2010Prop31
280
     0
102
RTVSPost2010PropOp31
 70
     1
102
RTVSPost2010Prop32
280
     0
102
RTVSPost2010PropOp32
 70
     1
102
RTVSPost2010Prop33
280
     0
102
RTVSPost2010PropOp33
 70
     1
102
RTVSPost2010Prop34
280
     0
102
RTVSPost2010PropOp34
 70
     1
102
RTVSPost2010Prop35
280
     0
102
RTVSPost2010PropOp35
 70
     1
102
RTVSPost2010Prop36
280
     0
102
RTVSPost2010PropOp36
 70
     1
102
RTVSPost2010Prop37
 90
       50
102
RTVSPost2010PropOp37
 70
     1
102
RTVSPost2010Prop38
140
0.0
102
RTVSPost2010PropOp38
 70
     1
102
RTVSPost2010Prop39
140
1.0
102
RTVSPost2010PropOp39
 70
     1
102
RTVSPost2010Prop40
 90
        0
102
RTVSPost2010PropOp40
 70
     1
102
RTVSPost2010Prop41ColorIndex
 90
       18
102
RTVSPost2010Prop41ColorRGB
 90
        0
102
RTVSPost2010PropOp41
 70
     1
102
RTVSPost2010Prop42
 90
       50
102
RTVSPost2010PropOp42
 70
     1
102
RTVSPost2010Prop43
 90
        3
102
RTVSPost2010PropOp43
 70
     1
102
RTVSPost2010Prop44ColorIndex
 90
        5
102
RTVSPost2010Prop44ColorRGB
 90
      255
102
RTVSPost2010PropOp44
 70
     1
102
RTVSPost2010Prop45
280
     0
102
RTVSPost2010PropOp45
 70
     1
102
RTVSPost2010Prop46
 90
       50
102
RTVSPost2010PropOp46
 70
     1
102
RTVSPost2010Prop47
 90
       50
102
RTVSPost2010PropOp47
 70
     1
102
RTVSPost2010Prop48
 90
       50
102
RTVSPost2010PropOp48
 70
     1
102
RTVSPost2010Prop49
280
     0
102
RTVSPost2010PropOp49
 70
     1
102
RTVSPost2010Prop50
 90
       50
102
RTVSPost2010PropOp50
 70
     1
102
RTVSPost2010Prop51ColorIndex
 90
      256
102
RTVSPost2010Prop51ColorRGB
 90
-16777216
102
RTVSPost2010PropOp51
 70
     0
102
RTVSPost2010Prop52
140
1.0
102
RTVSPost2010PropOp52
 70
     0
102
RTVSPost2010Prop53
 90
        2
102
RTVSPost2010PropOp53
 70
     1
102
RTVSPost2010Prop54
  1
strokes_ogs.tif
102
RTVSPost2010PropOp54
 70
     1
102
RTVSPost2010Prop55
280
     0
102
RTVSPost2010PropOp55
 70
     1
102
RTVSPost2010Prop56
140
1.0
102
RTVSPost2010PropOp56
 70
     1
102
RTVSPost2010Prop57
140
1.0
102
RTVSPost2010PropOp57
 70
     1
102
RTVSPropertyOp0
 70
     1
102
RTVSPropertyOp1
 70
     1
102
RTVSPropertyOp2
 70
     1
102
RTVSPropertyOp3
 70
     1
102
RTVSPropertyOp4
 70
     1
102
RTVSPropertyOp5
 70
     1
102
RTVSPropertyOp6
 70
     1
102
RTVSPropertyOp7
 70
     1
102
RTVSPropertyOp8
 70
     1
102
RTVSPropertyOp9
 70
     1
102
RTVSPropertyOp10
 70
     1
102
RTVSPropertyOp11
 70
     1
102
RTVSPropertyOp12
 70
     1
102
RTVSPropertyOp13
 70
     1
102
RTVSPropertyOp14
 70
     1
102
RTVSPropertyOp15
 70
     1
102
RTVSPropertyOp16
 70
     1
102
RTVSPropertyOp17
 70
     1
102
RTVSPropertyOp18
 70
     1
102
RTVSPropertyOp19
 70
     1
102
RTVSPropertyOp20
 70
     1
102
RTVSPropertyOp21
 70
     1
102
RTVSPropertyOp22
 70
     1
102
RTVSPropertyOp23
 70
     1
102
RTVSPropertyOp24
 70
     1
102
RTVSPropertyOp25
 70
     1
102
RTVSPropertyOp26
 70
     1
102
RTVSPropertyOp27
 70
     1
102
RTVSPropertyOp28
 70
     1
102
RTVSPropertyOp29
 70
     1
102
RTVSPropertyOp30
 70
     1
102
RTVSPropertyOp31
 70
     1
102
RTVSPropertyOp32
 70
     1
102
RTVSPropertyOp33
 70
     1
102
RTVSPropertyOp34
 70
     1
102
RTVSPropertyOp35
 70
     1
102
RTVSPropertyOp36
 70
     1
102
RTVSPropertyOp37
 70
     1
102
RTVSPropertyOp38
 70
     1
102
RTVSPropertyOp39
 70
     1
102
RTVSPropertyOp40
 70
     1
102
RTVSPropertyOp41
 70
     1
102
RTVSPropertyOp42
 70
     1
102
RTVSPropertyOp43
 70
     1
102
RTVSPropertyOp44
 70
     1
102
RTVSPropertyOp45
 70
     1
102
RTVSPropertyOp46
 70
     1
102
RTVSPropertyOp47
 70
     1
102
RTVSPropertyOp48
 70
     1
102
RTVSPropertyOp49
 70
     1
102
RTVSPropertyOp50
 70
     1
102
RTVSPropertyOp51
 70
     0
102
RTVSPropertyOp52
 70
     0
102
RTVSPropertyOp53
 70
     1
102
RTVSPropertyOp54
 70
     1
102
RTVSPropertyOp55
 70
     1
102
RTVSPropertyOp56
 70
     1
102
RTVSPropertyOp57
 70
     1
102
RTVSPropertyOp58
 70
     1
102
RTVSPropertyOp59
 70
     1
102
RTVSPropertyOp60
 70
     1
102
RTVSPropertyOp61
 70
     1
102
RTVSPropertyOp62
 70
     1
  0
XRECORD
  5
A030
102
{ACAD_REACTORS
330
A02F
102
}
330
A02F
100
AcDbXrecord
280
     1
102
RTVSPost2010Prop28
280
     0
102
RTVSPost2010PropOp28
 70
     1
102
RTVSPost2010Prop29
280
     1
102
RTVSPost2010PropOp29
 70
     1
102
RTVSPost2010Prop30
280
     1
102
RTVSPost2010PropOp30
 70
     1
102
RTVSPost2010Prop31
280
     0
102
RTVSPost2010PropOp31
 70
     1
102
RTVSPost2010Prop32
280
     0
102
RTVSPost2010PropOp32
 70
     1
102
RTVSPost2010Prop33
280
     0
102
RTVSPost2010PropOp33
 70
     1
102
RTVSPost2010Prop34
280
     0
102
RTVSPost2010PropOp34
 70
     1
102
RTVSPost2010Prop35
280
     0
102
RTVSPost2010PropOp35
 70
     1
102
RTVSPost2010Prop36
280
     0
102
RTVSPost2010PropOp36
 70
     1
102
RTVSPost2010Prop37
 90
       50
102
RTVSPost2010PropOp37
 70
     1
102
RTVSPost2010Prop38
140
0.0
102
RTVSPost2010PropOp38
 70
     1
102
RTVSPost2010Prop39
140
1.0
102
RTVSPost2010PropOp39
 70
     1
102
RTVSPost2010Prop40
 90
        0
102
RTVSPost2010PropOp40
 70
     1
102
RTVSPost2010Prop41ColorIndex
 90
       18
102
RTVSPost2010Prop41ColorRGB
 90
        0
102
RTVSPost2010PropOp41
 70
     1
102
RTVSPost2010Prop42
 90
       50
102
RTVSPost2010PropOp42
 70
     1
102
RTVSPost2010Prop43
 90
        3
102
RTVSPost2010PropOp43
 70
     1
102
RTVSPost2010Prop44ColorIndex
 90
        5
102
RTVSPost2010Prop44ColorRGB
 90
      255
102
RTVSPost2010PropOp44
 70
     1
102
RTVSPost2010Prop45
280
     0
102
RTVSPost2010PropOp45
 70
     1
102
RTVSPost2010Prop46
 90
       50
102
RTVSPost2010PropOp46
 70
     1
102
RTVSPost2010Prop47
 90
       50
102
RTVSPost2010PropOp47
 70
     1
102
RTVSPost2010Prop48
 90
       50
102
RTVSPost2010PropOp48
 70
     1
102
RTVSPost2010Prop49
280
     0
102
RTVSPost2010PropOp49
 70
     1
102
RTVSPost2010Prop50
 90
       50
102
RTVSPost2010PropOp50
 70
     1
102
RTVSPost2010Prop51ColorIndex
 90
      256
102
RTVSPost2010Prop51ColorRGB
 90
-16777216
102
RTVSPost2010PropOp51
 70
     0
102
RTVSPost2010Prop52
140
1.0
102
RTVSPost2010PropOp52
 70
     0
102
RTVSPost2010Prop53
 90
        2
102
RTVSPost2010PropOp53
 70
     1
102
RTVSPost2010Prop54
  1
strokes_ogs.tif
102
RTVSPost2010PropOp54
 70
     1
102
RTVSPost2010Prop55
280
     0
102
RTVSPost2010PropOp55
 70
     1
102
RTVSPost2010Prop56
140
1.0
102
RTVSPost2010PropOp56
 70
     1
102
RTVSPost2010Prop57
140
1.0
102
RTVSPost2010PropOp57
 70
     1
102
RTVSPropertyOp0
 70
     1
102
RTVSPropertyOp1
 70
     1
102
RTVSPropertyOp2
 70
     1
102
RTVSPropertyOp3
 70
     1
102
RTVSPropertyOp4
 70
     1
102
RTVSPropertyOp5
 70
     1
102
RTVSPropertyOp6
 70
     1
102
RTVSPropertyOp7
 70
     1
102
RTVSPropertyOp8
 70
     1
102
RTVSPropertyOp9
 70
     1
102
RTVSPropertyOp10
 70
     1
102
RTVSPropertyOp11
 70
     1
102
RTVSPropertyOp12
 70
     1
102
RTVSPropertyOp13
 70
     1
102
RTVSPropertyOp14
 70
     1
102
RTVSPropertyOp15
 70
     1
102
RTVSPropertyOp16
 70
     1
102
RTVSPropertyOp17
 70
     1
102
RTVSPropertyOp18
 70
     1
102
RTVSPropertyOp19
 70
     1
102
RTVSPropertyOp20
 70
     1
102
RTVSPropertyOp21
 70
     1
102
RTVSPropertyOp22
 70
     1
102
RTVSPropertyOp23
 70
     1
102
RTVSPropertyOp24
 70
     1
102
RTVSPropertyOp25
 70
     1
102
RTVSPropertyOp26
 70
     1
102
RTVSPropertyOp27
 70
     1
102
RTVSPropertyOp28
 70
     1
102
RTVSPropertyOp29
 70
     1
102
RTVSPropertyOp30
 70
     1
102
RTVSPropertyOp31
 70
     1
102
RTVSPropertyOp32
 70
     1
102
RTVSPropertyOp33
 70
     1
102
RTVSPropertyOp34
 70
     1
102
RTVSPropertyOp35
 70
     1
102
RTVSPropertyOp36
 70
     1
102
RTVSPropertyOp37
 70
     1
102
RTVSPropertyOp38
 70
     1
102
RTVSPropertyOp39
 70
     1
102
RTVSPropertyOp40
 70
     1
102
RTVSPropertyOp41
 70
     1
102
RTVSPropertyOp42
 70
     1
102
RTVSPropertyOp43
 70
     1
102
RTVSPropertyOp44
 70
     1
102
RTVSPropertyOp45
 70
     1
102
RTVSPropertyOp46
 70
     1
102
RTVSPropertyOp47
 70
     1
102
RTVSPropertyOp48
 70
     1
102
RTVSPropertyOp49
 70
     1
102
RTVSPropertyOp50
 70
     1
102
RTVSPropertyOp51
 70
     0
102
RTVSPropertyOp52
 70
     0
102
RTVSPropertyOp53
 70
     1
102
RTVSPropertyOp54
 70
     1
102
RTVSPropertyOp55
 70
     1
102
RTVSPropertyOp56
 70
     1
102
RTVSPropertyOp57
 70
     1
102
RTVSPropertyOp58
 70
     1
102
RTVSPropertyOp59
 70
     1
102
RTVSPropertyOp60
 70
     1
102
RTVSPropertyOp61
 70
     1
102
RTVSPropertyOp62
 70
     1
  0
XRECORD
  5
A02E
102
{ACAD_REACTORS
330
A02D
102
}
330
A02D
100
AcDbXrecord
280
     1
102
RTVSPost2010Prop28
280
     0
102
RTVSPost2010PropOp28
 70
     1
102
RTVSPost2010Prop29
280
     1
102
RTVSPost2010PropOp29
 70
     1
102
RTVSPost2010Prop30
280
     1
102
RTVSPost2010PropOp30
 70
     1
102
RTVSPost2010Prop31
280
     0
102
RTVSPost2010PropOp31
 70
     1
102
RTVSPost2010Prop32
280
     0
102
RTVSPost2010PropOp32
 70
     1
102
RTVSPost2010Prop33
280
     0
102
RTVSPost2010PropOp33
 70
     1
102
RTVSPost2010Prop34
280
     0
102
RTVSPost2010PropOp34
 70
     1
102
RTVSPost2010Prop35
280
     0
102
RTVSPost2010PropOp35
 70
     1
102
RTVSPost2010Prop36
280
     0
102
RTVSPost2010PropOp36
 70
     1
102
RTVSPost2010Prop37
 90
       50
102
RTVSPost2010PropOp37
 70
     1
102
RTVSPost2010Prop38
140
0.0
102
RTVSPost2010PropOp38
 70
     1
102
RTVSPost2010Prop39
140
1.0
102
RTVSPost2010PropOp39
 70
     1
102
RTVSPost2010Prop40
 90
        0
102
RTVSPost2010PropOp40
 70
     1
102
RTVSPost2010Prop41ColorIndex
 90
       18
102
RTVSPost2010Prop41ColorRGB
 90
        0
102
RTVSPost2010PropOp41
 70
     1
102
RTVSPost2010Prop42
 90
       50
102
RTVSPost2010PropOp42
 70
     1
102
RTVSPost2010Prop43
 90
        3
102
RTVSPost2010PropOp43
 70
     1
102
RTVSPost2010Prop44ColorIndex
 90
        5
102
RTVSPost2010Prop44ColorRGB
 90
      255
102
RTVSPost2010PropOp44
 70
     1
102
RTVSPost2010Prop45
280
     0
102
RTVSPost2010PropOp45
 70
     1
102
RTVSPost2010Prop46
 90
       50
102
RTVSPost2010PropOp46
 70
     1
102
RTVSPost2010Prop47
 90
       50
102
RTVSPost2010PropOp47
 70
     1
102
RTVSPost2010Prop48
 90
       50
102
RTVSPost2010PropOp48
 70
     1
102
RTVSPost2010Prop49
280
     0
102
RTVSPost2010PropOp49
 70
     1
102
RTVSPost2010Prop50
 90
       50
102
RTVSPost2010PropOp50
 70
     1
102
RTVSPost2010Prop51ColorIndex
 90
      256
102
RTVSPost2010Prop51ColorRGB
 90
-16777216
102
RTVSPost2010PropOp51
 70
     0
102
RTVSPost2010Prop52
140
1.0
102
RTVSPost2010PropOp52
 70
     0
102
RTVSPost2010Prop53
 90
        2
102
RTVSPost2010PropOp53
 70
     1
102
RTVSPost2010Prop54
  1
strokes_ogs.tif
102
RTVSPost2010PropOp54
 70
     1
102
RTVSPost2010Prop55
280
     0
102
RTVSPost2010PropOp55
 70
     1
102
RTVSPost2010Prop56
140
1.0
102
RTVSPost2010PropOp56
 70
     1
102
RTVSPost2010Prop57
140
1.0
102
RTVSPost2010PropOp57
 70
     1
102
RTVSPropertyOp0
 70
     1
102
RTVSPropertyOp1
 70
     1
102
RTVSPropertyOp2
 70
     1
102
RTVSPropertyOp3
 70
     1
102
RTVSPropertyOp4
 70
     1
102
RTVSPropertyOp5
 70
     1
102
RTVSPropertyOp6
 70
     1
102
RTVSPropertyOp7
 70
     1
102
RTVSPropertyOp8
 70
     1
102
RTVSPropertyOp9
 70
     1
102
RTVSPropertyOp10
 70
     1
102
RTVSPropertyOp11
 70
     1
102
RTVSPropertyOp12
 70
     1
102
RTVSPropertyOp13
 70
     1
102
RTVSPropertyOp14
 70
     1
102
RTVSPropertyOp15
 70
     1
102
RTVSPropertyOp16
 70
     1
102
RTVSPropertyOp17
 70
     1
102
RTVSPropertyOp18
 70
     1
102
RTVSPropertyOp19
 70
     1
102
RTVSPropertyOp20
 70
     1
102
RTVSPropertyOp21
 70
     1
102
RTVSPropertyOp22
 70
     1
102
RTVSPropertyOp23
 70
     1
102
RTVSPropertyOp24
 70
     1
102
RTVSPropertyOp25
 70
     1
102
RTVSPropertyOp26
 70
     1
102
RTVSPropertyOp27
 70
     1
102
RTVSPropertyOp28
 70
     1
102
RTVSPropertyOp29
 70
     1
102
RTVSPropertyOp30
 70
     1
102
RTVSPropertyOp31
 70
     1
102
RTVSPropertyOp32
 70
     1
102
RTVSPropertyOp33
 70
     1
102
RTVSPropertyOp34
 70
     1
102
RTVSPropertyOp35
 70
     1
102
RTVSPropertyOp36
 70
     1
102
RTVSPropertyOp37
 70
     1
102
RTVSPropertyOp38
 70
     1
102
RTVSPropertyOp39
 70
     1
102
RTVSPropertyOp40
 70
     1
102
RTVSPropertyOp41
 70
     1
102
RTVSPropertyOp42
 70
     1
102
RTVSPropertyOp43
 70
     1
102
RTVSPropertyOp44
 70
     1
102
RTVSPropertyOp45
 70
     1
102
RTVSPropertyOp46
 70
     1
102
RTVSPropertyOp47
 70
     1
102
RTVSPropertyOp48
 70
     1
102
RTVSPropertyOp49
 70
     1
102
RTVSPropertyOp50
 70
     1
102
RTVSPropertyOp51
 70
     0
102
RTVSPropertyOp52
 70
     0
102
RTVSPropertyOp53
 70
     1
102
RTVSPropertyOp54
 70
     1
102
RTVSPropertyOp55
 70
     1
102
RTVSPropertyOp56
 70
     1
102
RTVSPropertyOp57
 70
     1
102
RTVSPropertyOp58
 70
     1
102
RTVSPropertyOp59
 70
     1
102
RTVSPropertyOp60
 70
     1
102
RTVSPropertyOp61
 70
     1
102
RTVSPropertyOp62
 70
     1
  0
XRECORD
  5
A028
102
{ACAD_REACTORS
330
A027
102
}
330
A027
100
AcDbXrecord
280
     1
102
RTVSPost2010Prop28
280
     0
102
RTVSPost2010PropOp28
 70
     1
102
RTVSPost2010Prop29
280
     1
102
RTVSPost2010PropOp29
 70
     1
102
RTVSPost2010Prop30
280
     1
102
RTVSPost2010PropOp30
 70
     1
102
RTVSPost2010Prop31
280
     0
102
RTVSPost2010PropOp31
 70
     1
102
RTVSPost2010Prop32
280
     0
102
RTVSPost2010PropOp32
 70
     1
102
RTVSPost2010Prop33
280
     0
102
RTVSPost2010PropOp33
 70
     1
102
RTVSPost2010Prop34
280
     0
102
RTVSPost2010PropOp34
 70
     1
102
RTVSPost2010Prop35
280
     0
102
RTVSPost2010PropOp35
 70
     1
102
RTVSPost2010Prop36
280
     0
102
RTVSPost2010PropOp36
 70
     1
102
RTVSPost2010Prop37
 90
       50
102
RTVSPost2010PropOp37
 70
     1
102
RTVSPost2010Prop38
140
0.0
102
RTVSPost2010PropOp38
 70
     1
102
RTVSPost2010Prop39
140
1.0
102
RTVSPost2010PropOp39
 70
     1
102
RTVSPost2010Prop40
 90
        0
102
RTVSPost2010PropOp40
 70
     1
102
RTVSPost2010Prop41ColorIndex
 90
       18
102
RTVSPost2010Prop41ColorRGB
 90
        0
102
RTVSPost2010PropOp41
 70
     1
102
RTVSPost2010Prop42
 90
       50
102
RTVSPost2010PropOp42
 70
     1
102
RTVSPost2010Prop43
 90
        3
102
RTVSPost2010PropOp43
 70
     1
102
RTVSPost2010Prop44ColorIndex
 90
        5
102
RTVSPost2010Prop44ColorRGB
 90
      255
102
RTVSPost2010PropOp44
 70
     1
102
RTVSPost2010Prop45
280
     0
102
RTVSPost2010PropOp45
 70
     1
102
RTVSPost2010Prop46
 90
       50
102
RTVSPost2010PropOp46
 70
     1
102
RTVSPost2010Prop47
 90
       50
102
RTVSPost2010PropOp47
 70
     1
102
RTVSPost2010Prop48
 90
       50
102
RTVSPost2010PropOp48
 70
     1
102
RTVSPost2010Prop49
280
     0
102
RTVSPost2010PropOp49
 70
     1
102
RTVSPost2010Prop50
 90
       50
102
RTVSPost2010PropOp50
 70
     1
102
RTVSPost2010Prop51ColorIndex
 90
      256
102
RTVSPost2010Prop51ColorRGB
 90
-16777216
102
RTVSPost2010PropOp51
 70
     0
102
RTVSPost2010Prop52
140
1.0
102
RTVSPost2010PropOp52
 70
     0
102
RTVSPost2010Prop53
 90
        2
102
RTVSPost2010PropOp53
 70
     1
102
RTVSPost2010Prop54
  1
strokes_ogs.tif
102
RTVSPost2010PropOp54
 70
     1
102
RTVSPost2010Prop55
280
     0
102
RTVSPost2010PropOp55
 70
     1
102
RTVSPost2010Prop56
140
1.0
102
RTVSPost2010PropOp56
 70
     1
102
RTVSPost2010Prop57
140
1.0
102
RTVSPost2010PropOp57
 70
     1
102
RTVSPropertyOp0
 70
     1
102
RTVSPropertyOp1
 70
     1
102
RTVSPropertyOp2
 70
     1
102
RTVSPropertyOp3
 70
     1
102
RTVSPropertyOp4
 70
     1
102
RTVSPropertyOp5
 70
     1
102
RTVSPropertyOp6
 70
     1
102
RTVSPropertyOp7
 70
     1
102
RTVSPropertyOp8
 70
     1
102
RTVSPropertyOp9
 70
     1
102
RTVSPropertyOp10
 70
     1
102
RTVSPropertyOp11
 70
     1
102
RTVSPropertyOp12
 70
     1
102
RTVSPropertyOp13
 70
     1
102
RTVSPropertyOp14
 70
     1
102
RTVSPropertyOp15
 70
     1
102
RTVSPropertyOp16
 70
     1
102
RTVSPropertyOp17
 70
     1
102
RTVSPropertyOp18
 70
     1
102
RTVSPropertyOp19
 70
     1
102
RTVSPropertyOp20
 70
     1
102
RTVSPropertyOp21
 70
     1
102
RTVSPropertyOp22
 70
     1
102
RTVSPropertyOp23
 70
     1
102
RTVSPropertyOp24
 70
     1
102
RTVSPropertyOp25
 70
     1
102
RTVSPropertyOp26
 70
     1
102
RTVSPropertyOp27
 70
     1
102
RTVSPropertyOp28
 70
     1
102
RTVSPropertyOp29
 70
     1
102
RTVSPropertyOp30
 70
     1
102
RTVSPropertyOp31
 70
     1
102
RTVSPropertyOp32
 70
     1
102
RTVSPropertyOp33
 70
     1
102
RTVSPropertyOp34
 70
     1
102
RTVSPropertyOp35
 70
     1
102
RTVSPropertyOp36
 70
     1
102
RTVSPropertyOp37
 70
     1
102
RTVSPropertyOp38
 70
     1
102
RTVSPropertyOp39
 70
     1
102
RTVSPropertyOp40
 70
     1
102
RTVSPropertyOp41
 70
     1
102
RTVSPropertyOp42
 70
     1
102
RTVSPropertyOp43
 70
     1
102
RTVSPropertyOp44
 70
     1
102
RTVSPropertyOp45
 70
     1
102
RTVSPropertyOp46
 70
     1
102
RTVSPropertyOp47
 70
     1
102
RTVSPropertyOp48
 70
     1
102
RTVSPropertyOp49
 70
     1
102
RTVSPropertyOp50
 70
     1
102
RTVSPropertyOp51
 70
     0
102
RTVSPropertyOp52
 70
     0
102
RTVSPropertyOp53
 70
     1
102
RTVSPropertyOp54
 70
     1
102
RTVSPropertyOp55
 70
     1
102
RTVSPropertyOp56
 70
     1
102
RTVSPropertyOp57
 70
     1
102
RTVSPropertyOp58
 70
     1
102
RTVSPropertyOp59
 70
     1
102
RTVSPropertyOp60
 70
     1
102
RTVSPropertyOp61
 70
     1
102
RTVSPropertyOp62
 70
     1
  0
XRECORD
  5
A02A
102
{ACAD_REACTORS
330
A029
102
}
330
A029
100
AcDbXrecord
280
     1
102
RTVSPost2010Prop28
280
     0
102
RTVSPost2010PropOp28
 70
     1
102
RTVSPost2010Prop29
280
     1
102
RTVSPost2010PropOp29
 70
     1
102
RTVSPost2010Prop30
280
     1
102
RTVSPost2010PropOp30
 70
     1
102
RTVSPost2010Prop31
280
     0
102
RTVSPost2010PropOp31
 70
     1
102
RTVSPost2010Prop32
280
     0
102
RTVSPost2010PropOp32
 70
     1
102
RTVSPost2010Prop33
280
     0
102
RTVSPost2010PropOp33
 70
     1
102
RTVSPost2010Prop34
280
     0
102
RTVSPost2010PropOp34
 70
     1
102
RTVSPost2010Prop35
280
     0
102
RTVSPost2010PropOp35
 70
     1
102
RTVSPost2010Prop36
280
     0
102
RTVSPost2010PropOp36
 70
     1
102
RTVSPost2010Prop37
 90
       50
102
RTVSPost2010PropOp37
 70
     1
102
RTVSPost2010Prop38
140
0.0
102
RTVSPost2010PropOp38
 70
     1
102
RTVSPost2010Prop39
140
1.0
102
RTVSPost2010PropOp39
 70
     1
102
RTVSPost2010Prop40
 90
        0
102
RTVSPost2010PropOp40
 70
     1
102
RTVSPost2010Prop41ColorIndex
 90
       18
102
RTVSPost2010Prop41ColorRGB
 90
        0
102
RTVSPost2010PropOp41
 70
     1
102
RTVSPost2010Prop42
 90
       50
102
RTVSPost2010PropOp42
 70
     1
102
RTVSPost2010Prop43
 90
        3
102
RTVSPost2010PropOp43
 70
     1
102
RTVSPost2010Prop44ColorIndex
 90
        5
102
RTVSPost2010Prop44ColorRGB
 90
      255
102
RTVSPost2010PropOp44
 70
     1
102
RTVSPost2010Prop45
280
     0
102
RTVSPost2010PropOp45
 70
     1
102
RTVSPost2010Prop46
 90
       50
102
RTVSPost2010PropOp46
 70
     1
102
RTVSPost2010Prop47
 90
       50
102
RTVSPost2010PropOp47
 70
     1
102
RTVSPost2010Prop48
 90
       50
102
RTVSPost2010PropOp48
 70
     1
102
RTVSPost2010Prop49
280
     0
102
RTVSPost2010PropOp49
 70
     1
102
RTVSPost2010Prop50
 90
       50
102
RTVSPost2010PropOp50
 70
     1
102
RTVSPost2010Prop51ColorIndex
 90
      256
102
RTVSPost2010Prop51ColorRGB
 90
-16777216
102
RTVSPost2010PropOp51
 70
     0
102
RTVSPost2010Prop52
140
1.0
102
RTVSPost2010PropOp52
 70
     0
102
RTVSPost2010Prop53
 90
        2
102
RTVSPost2010PropOp53
 70
     1
102
RTVSPost2010Prop54
  1
strokes_ogs.tif
102
RTVSPost2010PropOp54
 70
     1
102
RTVSPost2010Prop55
280
     0
102
RTVSPost2010PropOp55
 70
     1
102
RTVSPost2010Prop56
140
1.0
102
RTVSPost2010PropOp56
 70
     1
102
RTVSPost2010Prop57
140
1.0
102
RTVSPost2010PropOp57
 70
     1
102
RTVSPropertyOp0
 70
     1
102
RTVSPropertyOp1
 70
     1
102
RTVSPropertyOp2
 70
     1
102
RTVSPropertyOp3
 70
     1
102
RTVSPropertyOp4
 70
     1
102
RTVSPropertyOp5
 70
     1
102
RTVSPropertyOp6
 70
     1
102
RTVSPropertyOp7
 70
     1
102
RTVSPropertyOp8
 70
     1
102
RTVSPropertyOp9
 70
     1
102
RTVSPropertyOp10
 70
     1
102
RTVSPropertyOp11
 70
     1
102
RTVSPropertyOp12
 70
     1
102
RTVSPropertyOp13
 70
     1
102
RTVSPropertyOp14
 70
     1
102
RTVSPropertyOp15
 70
     1
102
RTVSPropertyOp16
 70
     1
102
RTVSPropertyOp17
 70
     1
102
RTVSPropertyOp18
 70
     1
102
RTVSPropertyOp19
 70
     1
102
RTVSPropertyOp20
 70
     1
102
RTVSPropertyOp21
 70
     1
102
RTVSPropertyOp22
 70
     1
102
RTVSPropertyOp23
 70
     1
102
RTVSPropertyOp24
 70
     1
102
RTVSPropertyOp25
 70
     1
102
RTVSPropertyOp26
 70
     1
102
RTVSPropertyOp27
 70
     1
102
RTVSPropertyOp28
 70
     1
102
RTVSPropertyOp29
 70
     1
102
RTVSPropertyOp30
 70
     1
102
RTVSPropertyOp31
 70
     1
102
RTVSPropertyOp32
 70
     1
102
RTVSPropertyOp33
 70
     1
102
RTVSPropertyOp34
 70
     1
102
RTVSPropertyOp35
 70
     1
102
RTVSPropertyOp36
 70
     1
102
RTVSPropertyOp37
 70
     1
102
RTVSPropertyOp38
 70
     1
102
RTVSPropertyOp39
 70
     1
102
RTVSPropertyOp40
 70
     1
102
RTVSPropertyOp41
 70
     1
102
RTVSPropertyOp42
 70
     1
102
RTVSPropertyOp43
 70
     1
102
RTVSPropertyOp44
 70
     1
102
RTVSPropertyOp45
 70
     1
102
RTVSPropertyOp46
 70
     1
102
RTVSPropertyOp47
 70
     1
102
RTVSPropertyOp48
 70
     1
102
RTVSPropertyOp49
 70
     1
102
RTVSPropertyOp50
 70
     1
102
RTVSPropertyOp51
 70
     0
102
RTVSPropertyOp52
 70
     0
102
RTVSPropertyOp53
 70
     1
102
RTVSPropertyOp54
 70
     1
102
RTVSPropertyOp55
 70
     1
102
RTVSPropertyOp56
 70
     1
102
RTVSPropertyOp57
 70
     1
102
RTVSPropertyOp58
 70
     1
102
RTVSPropertyOp59
 70
     1
102
RTVSPropertyOp60
 70
     1
102
RTVSPropertyOp61
 70
     1
102
RTVSPropertyOp62
 70
     1
  0
XRECORD
  5
A020
102
{ACAD_REACTORS
330
A01F
102
}
330
A01F
100
AcDbXrecord
280
     1
102
RTVSPost2010Prop28
280
     0
102
RTVSPost2010PropOp28
 70
     1
102
RTVSPost2010Prop29
280
     1
102
RTVSPost2010PropOp29
 70
     1
102
RTVSPost2010Prop30
280
     1
102
RTVSPost2010PropOp30
 70
     1
102
RTVSPost2010Prop31
280
     0
102
RTVSPost2010PropOp31
 70
     1
102
RTVSPost2010Prop32
280
     0
102
RTVSPost2010PropOp32
 70
     1
102
RTVSPost2010Prop33
280
     0
102
RTVSPost2010PropOp33
 70
     1
102
RTVSPost2010Prop34
280
     0
102
RTVSPost2010PropOp34
 70
     1
102
RTVSPost2010Prop35
280
     0
102
RTVSPost2010PropOp35
 70
     1
102
RTVSPost2010Prop36
280
     0
102
RTVSPost2010PropOp36
 70
     1
102
RTVSPost2010Prop37
 90
       50
102
RTVSPost2010PropOp37
 70
     1
102
RTVSPost2010Prop38
140
0.0
102
RTVSPost2010PropOp38
 70
     1
102
RTVSPost2010Prop39
140
1.0
102
RTVSPost2010PropOp39
 70
     1
102
RTVSPost2010Prop40
 90
        0
102
RTVSPost2010PropOp40
 70
     1
102
RTVSPost2010Prop41ColorIndex
 90
       18
102
RTVSPost2010Prop41ColorRGB
 90
        0
102
RTVSPost2010PropOp41
 70
     1
102
RTVSPost2010Prop42
 90
       50
102
RTVSPost2010PropOp42
 70
     1
102
RTVSPost2010Prop43
 90
        3
102
RTVSPost2010PropOp43
 70
     1
102
RTVSPost2010Prop44ColorIndex
 90
        5
102
RTVSPost2010Prop44ColorRGB
 90
      255
102
RTVSPost2010PropOp44
 70
     1
102
RTVSPost2010Prop45
280
     0
102
RTVSPost2010PropOp45
 70
     1
102
RTVSPost2010Prop46
 90
       50
102
RTVSPost2010PropOp46
 70
     1
102
RTVSPost2010Prop47
 90
       50
102
RTVSPost2010PropOp47
 70
     1
102
RTVSPost2010Prop48
 90
       50
102
RTVSPost2010PropOp48
 70
     1
102
RTVSPost2010Prop49
280
     0
102
RTVSPost2010PropOp49
 70
     1
102
RTVSPost2010Prop50
 90
       50
102
RTVSPost2010PropOp50
 70
     1
102
RTVSPost2010Prop51ColorIndex
 90
      256
102
RTVSPost2010Prop51ColorRGB
 90
-16777216
102
RTVSPost2010PropOp51
 70
     0
102
RTVSPost2010Prop52
140
1.0
102
RTVSPost2010PropOp52
 70
     0
102
RTVSPost2010Prop53
 90
        2
102
RTVSPost2010PropOp53
 70
     1
102
RTVSPost2010Prop54
  1
strokes_ogs.tif
102
RTVSPost2010PropOp54
 70
     1
102
RTVSPost2010Prop55
280
     0
102
RTVSPost2010PropOp55
 70
     1
102
RTVSPost2010Prop56
140
1.0
102
RTVSPost2010PropOp56
 70
     1
102
RTVSPost2010Prop57
140
1.0
102
RTVSPost2010PropOp57
 70
     1
102
RTVSPropertyOp0
 70
     1
102
RTVSPropertyOp1
 70
     1
102
RTVSPropertyOp2
 70
     1
102
RTVSPropertyOp3
 70
     1
102
RTVSPropertyOp4
 70
     1
102
RTVSPropertyOp5
 70
     1
102
RTVSPropertyOp6
 70
     1
102
RTVSPropertyOp7
 70
     1
102
RTVSPropertyOp8
 70
     1
102
RTVSPropertyOp9
 70
     1
102
RTVSPropertyOp10
 70
     1
102
RTVSPropertyOp11
 70
     1
102
RTVSPropertyOp12
 70
     1
102
RTVSPropertyOp13
 70
     1
102
RTVSPropertyOp14
 70
     1
102
RTVSPropertyOp15
 70
     1
102
RTVSPropertyOp16
 70
     1
102
RTVSPropertyOp17
 70
     1
102
RTVSPropertyOp18
 70
     1
102
RTVSPropertyOp19
 70
     1
102
RTVSPropertyOp20
 70
     1
102
RTVSPropertyOp21
 70
     1
102
RTVSPropertyOp22
 70
     1
102
RTVSPropertyOp23
 70
     1
102
RTVSPropertyOp24
 70
     1
102
RTVSPropertyOp25
 70
     1
102
RTVSPropertyOp26
 70
     1
102
RTVSPropertyOp27
 70
     1
102
RTVSPropertyOp28
 70
     1
102
RTVSPropertyOp29
 70
     1
102
RTVSPropertyOp30
 70
     1
102
RTVSPropertyOp31
 70
     1
102
RTVSPropertyOp32
 70
     1
102
RTVSPropertyOp33
 70
     1
102
RTVSPropertyOp34
 70
     1
102
RTVSPropertyOp35
 70
     1
102
RTVSPropertyOp36
 70
     1
102
RTVSPropertyOp37
 70
     1
102
RTVSPropertyOp38
 70
     1
102
RTVSPropertyOp39
 70
     1
102
RTVSPropertyOp40
 70
     1
102
RTVSPropertyOp41
 70
     1
102
RTVSPropertyOp42
 70
     1
102
RTVSPropertyOp43
 70
     1
102
RTVSPropertyOp44
 70
     1
102
RTVSPropertyOp45
 70
     1
102
RTVSPropertyOp46
 70
     1
102
RTVSPropertyOp47
 70
     1
102
RTVSPropertyOp48
 70
     1
102
RTVSPropertyOp49
 70
     1
102
RTVSPropertyOp50
 70
     1
102
RTVSPropertyOp51
 70
     0
102
RTVSPropertyOp52
 70
     0
102
RTVSPropertyOp53
 70
     1
102
RTVSPropertyOp54
 70
     1
102
RTVSPropertyOp55
 70
     1
102
RTVSPropertyOp56
 70
     1
102
RTVSPropertyOp57
 70
     1
102
RTVSPropertyOp58
 70
     1
102
RTVSPropertyOp59
 70
     1
102
RTVSPropertyOp60
 70
     1
102
RTVSPropertyOp61
 70
     1
102
RTVSPropertyOp62
 70
     1
  0
XRECORD
  5
A014
102
{ACAD_REACTORS
330
A013
102
}
330
A013
100
AcDbXrecord
280
     1
102
RTVSPost2010Prop28
280
     0
102
RTVSPost2010PropOp28
 70
     1
102
RTVSPost2010Prop29
280
     1
102
RTVSPost2010PropOp29
 70
     1
102
RTVSPost2010Prop30
280
     1
102
RTVSPost2010PropOp30
 70
     1
102
RTVSPost2010Prop31
280
     0
102
RTVSPost2010PropOp31
 70
     1
102
RTVSPost2010Prop32
280
     0
102
RTVSPost2010PropOp32
 70
     1
102
RTVSPost2010Prop33
280
     0
102
RTVSPost2010PropOp33
 70
     1
102
RTVSPost2010Prop34
280
     0
102
RTVSPost2010PropOp34
 70
     1
102
RTVSPost2010Prop35
280
     0
102
RTVSPost2010PropOp35
 70
     1
102
RTVSPost2010Prop36
280
     0
102
RTVSPost2010PropOp36
 70
     1
102
RTVSPost2010Prop37
 90
       50
102
RTVSPost2010PropOp37
 70
     1
102
RTVSPost2010Prop38
140
0.0
102
RTVSPost2010PropOp38
 70
     1
102
RTVSPost2010Prop39
140
1.0
102
RTVSPost2010PropOp39
 70
     1
102
RTVSPost2010Prop40
 90
        0
102
RTVSPost2010PropOp40
 70
     1
102
RTVSPost2010Prop41ColorIndex
 90
       18
102
RTVSPost2010Prop41ColorRGB
 90
        0
102
RTVSPost2010PropOp41
 70
     1
102
RTVSPost2010Prop42
 90
       50
102
RTVSPost2010PropOp42
 70
     1
102
RTVSPost2010Prop43
 90
        3
102
RTVSPost2010PropOp43
 70
     1
102
RTVSPost2010Prop44ColorIndex
 90
        5
102
RTVSPost2010Prop44ColorRGB
 90
      255
102
RTVSPost2010PropOp44
 70
     1
102
RTVSPost2010Prop45
280
     0
102
RTVSPost2010PropOp45
 70
     1
102
RTVSPost2010Prop46
 90
       50
102
RTVSPost2010PropOp46
 70
     1
102
RTVSPost2010Prop47
 90
       50
102
RTVSPost2010PropOp47
 70
     1
102
RTVSPost2010Prop48
 90
       50
102
RTVSPost2010PropOp48
 70
     1
102
RTVSPost2010Prop49
280
     0
102
RTVSPost2010PropOp49
 70
     1
102
RTVSPost2010Prop50
 90
       50
102
RTVSPost2010PropOp50
 70
     1
102
RTVSPost2010Prop51ColorIndex
 90
      256
102
RTVSPost2010Prop51ColorRGB
 90
-16777216
102
RTVSPost2010PropOp51
 70
     0
102
RTVSPost2010Prop52
140
1.0
102
RTVSPost2010PropOp52
 70
     0
102
RTVSPost2010Prop53
 90
        2
102
RTVSPost2010PropOp53
 70
     1
102
RTVSPost2010Prop54
  1
strokes_ogs.tif
102
RTVSPost2010PropOp54
 70
     1
102
RTVSPost2010Prop55
280
     0
102
RTVSPost2010PropOp55
 70
     1
102
RTVSPost2010Prop56
140
1.0
102
RTVSPost2010PropOp56
 70
     1
102
RTVSPost2010Prop57
140
1.0
102
RTVSPost2010PropOp57
 70
     1
102
RTVSPropertyOp0
 70
     1
102
RTVSPropertyOp1
 70
     1
102
RTVSPropertyOp2
 70
     1
102
RTVSPropertyOp3
 70
     1
102
RTVSPropertyOp4
 70
     1
102
RTVSPropertyOp5
 70
     1
102
RTVSPropertyOp6
 70
     1
102
RTVSPropertyOp7
 70
     1
102
RTVSPropertyOp8
 70
     1
102
RTVSPropertyOp9
 70
     1
102
RTVSPropertyOp10
 70
     1
102
RTVSPropertyOp11
 70
     1
102
RTVSPropertyOp12
 70
     1
102
RTVSPropertyOp13
 70
     1
102
RTVSPropertyOp14
 70
     1
102
RTVSPropertyOp15
 70
     1
102
RTVSPropertyOp16
 70
     1
102
RTVSPropertyOp17
 70
     1
102
RTVSPropertyOp18
 70
     1
102
RTVSPropertyOp19
 70
     1
102
RTVSPropertyOp20
 70
     1
102
RTVSPropertyOp21
 70
     1
102
RTVSPropertyOp22
 70
     1
102
RTVSPropertyOp23
 70
     1
102
RTVSPropertyOp24
 70
     1
102
RTVSPropertyOp25
 70
     1
102
RTVSPropertyOp26
 70
     1
102
RTVSPropertyOp27
 70
     1
102
RTVSPropertyOp28
 70
     1
102
RTVSPropertyOp29
 70
     1
102
RTVSPropertyOp30
 70
     1
102
RTVSPropertyOp31
 70
     1
102
RTVSPropertyOp32
 70
     1
102
RTVSPropertyOp33
 70
     1
102
RTVSPropertyOp34
 70
     1
102
RTVSPropertyOp35
 70
     1
102
RTVSPropertyOp36
 70
     1
102
RTVSPropertyOp37
 70
     1
102
RTVSPropertyOp38
 70
     1
102
RTVSPropertyOp39
 70
     1
102
RTVSPropertyOp40
 70
     1
102
RTVSPropertyOp41
 70
     1
102
RTVSPropertyOp42
 70
     1
102
RTVSPropertyOp43
 70
     1
102
RTVSPropertyOp44
 70
     1
102
RTVSPropertyOp45
 70
     1
102
RTVSPropertyOp46
 70
     1
102
RTVSPropertyOp47
 70
     1
102
RTVSPropertyOp48
 70
     1
102
RTVSPropertyOp49
 70
     1
102
RTVSPropertyOp50
 70
     1
102
RTVSPropertyOp51
 70
     0
102
RTVSPropertyOp52
 70
     0
102
RTVSPropertyOp53
 70
     1
102
RTVSPropertyOp54
 70
     1
102
RTVSPropertyOp55
 70
     1
102
RTVSPropertyOp56
 70
     1
102
RTVSPropertyOp57
 70
     1
102
RTVSPropertyOp58
 70
     1
102
RTVSPropertyOp59
 70
     1
102
RTVSPropertyOp60
 70
     1
102
RTVSPropertyOp61
 70
     1
102
RTVSPropertyOp62
 70
     1
  0
XRECORD
  5
A02C
102
{ACAD_REACTORS
330
A02B
102
}
330
A02B
100
AcDbXrecord
280
     1
102
RTVSPost2010Prop28
280
     0
102
RTVSPost2010PropOp28
 70
     1
102
RTVSPost2010Prop29
280
     1
102
RTVSPost2010PropOp29
 70
     1
102
RTVSPost2010Prop30
280
     1
102
RTVSPost2010PropOp30
 70
     1
102
RTVSPost2010Prop31
280
     0
102
RTVSPost2010PropOp31
 70
     1
102
RTVSPost2010Prop32
280
     0
102
RTVSPost2010PropOp32
 70
     1
102
RTVSPost2010Prop33
280
     0
102
RTVSPost2010PropOp33
 70
     1
102
RTVSPost2010Prop34
280
     0
102
RTVSPost2010PropOp34
 70
     1
102
RTVSPost2010Prop35
280
     0
102
RTVSPost2010PropOp35
 70
     1
102
RTVSPost2010Prop36
280
     0
102
RTVSPost2010PropOp36
 70
     1
102
RTVSPost2010Prop37
 90
       50
102
RTVSPost2010PropOp37
 70
     1
102
RTVSPost2010Prop38
140
0.0
102
RTVSPost2010PropOp38
 70
     1
102
RTVSPost2010Prop39
140
1.0
102
RTVSPost2010PropOp39
 70
     1
102
RTVSPost2010Prop40
 90
        0
102
RTVSPost2010PropOp40
 70
     1
102
RTVSPost2010Prop41ColorIndex
 90
       18
102
RTVSPost2010Prop41ColorRGB
 90
        0
102
RTVSPost2010PropOp41
 70
     1
102
RTVSPost2010Prop42
 90
       50
102
RTVSPost2010PropOp42
 70
     1
102
RTVSPost2010Prop43
 90
        3
102
RTVSPost2010PropOp43
 70
     1
102
RTVSPost2010Prop44ColorIndex
 90
        5
102
RTVSPost2010Prop44ColorRGB
 90
      255
102
RTVSPost2010PropOp44
 70
     1
102
RTVSPost2010Prop45
280
     0
102
RTVSPost2010PropOp45
 70
     1
102
RTVSPost2010Prop46
 90
       50
102
RTVSPost2010PropOp46
 70
     1
102
RTVSPost2010Prop47
 90
       50
102
RTVSPost2010PropOp47
 70
     1
102
RTVSPost2010Prop48
 90
       50
102
RTVSPost2010PropOp48
 70
     1
102
RTVSPost2010Prop49
280
     0
102
RTVSPost2010PropOp49
 70
     1
102
RTVSPost2010Prop50
 90
       50
102
RTVSPost2010PropOp50
 70
     1
102
RTVSPost2010Prop51ColorIndex
 90
      256
102
RTVSPost2010Prop51ColorRGB
 90
-16777216
102
RTVSPost2010PropOp51
 70
     0
102
RTVSPost2010Prop52
140
1.0
102
RTVSPost2010PropOp52
 70
     0
102
RTVSPost2010Prop53
 90
        2
102
RTVSPost2010PropOp53
 70
     1
102
RTVSPost2010Prop54
  1
strokes_ogs.tif
102
RTVSPost2010PropOp54
 70
     1
102
RTVSPost2010Prop55
280
     0
102
RTVSPost2010PropOp55
 70
     1
102
RTVSPost2010Prop56
140
1.0
102
RTVSPost2010PropOp56
 70
     1
102
RTVSPost2010Prop57
140
1.0
102
RTVSPost2010PropOp57
 70
     1
102
RTVSPropertyOp0
 70
     1
102
RTVSPropertyOp1
 70
     1
102
RTVSPropertyOp2
 70
     1
102
RTVSPropertyOp3
 70
     1
102
RTVSPropertyOp4
 70
     1
102
RTVSPropertyOp5
 70
     1
102
RTVSPropertyOp6
 70
     1
102
RTVSPropertyOp7
 70
     1
102
RTVSPropertyOp8
 70
     1
102
RTVSPropertyOp9
 70
     1
102
RTVSPropertyOp10
 70
     1
102
RTVSPropertyOp11
 70
     1
102
RTVSPropertyOp12
 70
     1
102
RTVSPropertyOp13
 70
     1
102
RTVSPropertyOp14
 70
     1
102
RTVSPropertyOp15
 70
     1
102
RTVSPropertyOp16
 70
     1
102
RTVSPropertyOp17
 70
     1
102
RTVSPropertyOp18
 70
     1
102
RTVSPropertyOp19
 70
     1
102
RTVSPropertyOp20
 70
     1
102
RTVSPropertyOp21
 70
     1
102
RTVSPropertyOp22
 70
     1
102
RTVSPropertyOp23
 70
     1
102
RTVSPropertyOp24
 70
     1
102
RTVSPropertyOp25
 70
     1
102
RTVSPropertyOp26
 70
     1
102
RTVSPropertyOp27
 70
     1
102
RTVSPropertyOp28
 70
     1
102
RTVSPropertyOp29
 70
     1
102
RTVSPropertyOp30
 70
     1
102
RTVSPropertyOp31
 70
     1
102
RTVSPropertyOp32
 70
     1
102
RTVSPropertyOp33
 70
     1
102
RTVSPropertyOp34
 70
     1
102
RTVSPropertyOp35
 70
     1
102
RTVSPropertyOp36
 70
     1
102
RTVSPropertyOp37
 70
     1
102
RTVSPropertyOp38
 70
     1
102
RTVSPropertyOp39
 70
     1
102
RTVSPropertyOp40
 70
     1
102
RTVSPropertyOp41
 70
     1
102
RTVSPropertyOp42
 70
     1
102
RTVSPropertyOp43
 70
     1
102
RTVSPropertyOp44
 70
     1
102
RTVSPropertyOp45
 70
     1
102
RTVSPropertyOp46
 70
     1
102
RTVSPropertyOp47
 70
     1
102
RTVSPropertyOp48
 70
     1
102
RTVSPropertyOp49
 70
     1
102
RTVSPropertyOp50
 70
     1
102
RTVSPropertyOp51
 70
     0
102
RTVSPropertyOp52
 70
     0
102
RTVSPropertyOp53
 70
     1
102
RTVSPropertyOp54
 70
     1
102
RTVSPropertyOp55
 70
     1
102
RTVSPropertyOp56
 70
     1
102
RTVSPropertyOp57
 70
     1
102
RTVSPropertyOp58
 70
     1
102
RTVSPropertyOp59
 70
     1
102
RTVSPropertyOp60
 70
     1
102
RTVSPropertyOp61
 70
     1
102
RTVSPropertyOp62
 70
     1
  0
ENDSEC
  0
EOF
