  0
SECTION
  2
HEADER
  9
$ACADVER
  1
AC1015
  9
$ACADMAINTVER
 70
    20
  9
$DWGCODEPAGE
  3
ANSI_932
  9
$INSBASE
 10
0.0
 20
0.0
 30
0.0
  9
$EXTMIN
 10
10.0
 20
9.999999999999998
 30
0.0
  9
$EXTMAX
 10
284.283179
 20
213.9010199999999
 30
0.0
  9
$LIMMIN
 10
0.0
 20
0.0
  9
$LIMMAX
 10
396.0
 20
273.0
  9
$ORTHOMODE
 70
     0
  9
$REGENMODE
 70
     1
  9
$FILLMODE
 70
     1
  9
$QTEXTMODE
 70
     0
  9
$MIRRTEXT
 70
     1
  9
$LTSCALE
 40
20.0
  9
$ATTMODE
 70
     1
  9
$TEXTSIZE
 40
5.0
  9
$TRACEWID
 40
1.0
  9
$TEXTSTYLE
  7
STANDARD
  9
$CLAYER
  8
0
  9
$CELTYPE
  6
BYLAYER
  9
$CECOLOR
 62
   256
  9
$CELTSCALE
 40
1.0
  9
$DISPSILH
 70
     0
  9
$DIMSCALE
 40
1.0
  9
$DIMASZ
 40
2.5
  9
$DIMEXO
 40
1.0
  9
$DIMDLI
 40
10.0
  9
$DIMRND
 40
0.0
  9
$DIMDLE
 40
0.0
  9
$DIMEXE
 40
1.0
  9
$DIMTP
 40
0.0
  9
$DIMTM
 40
0.0
  9
$DIMTXT
 40
3.2
  9
$DIMCEN
 40
0.0
  9
$DIMTSZ
 40
0.0
  9
$DIMTOL
 70
     0
  9
$DIMLIM
 70
     0
  9
$DIMTIH
 70
     0
  9
$DIMTOH
 70
     0
  9
$DIMSE1
 70
     0
  9
$DIMSE2
 70
     0
  9
$DIMTAD
 70
     3
  9
$DIMZIN
 70
     8
  9
$DIMBLK
  1

  9
$DIMASO
 70
     1
  9
$DIMSHO
 70
     1
  9
$DIMPOST
  1

  9
$DIMAPOST
  1

  9
$DIMALT
 70
     0
  9
$DIMALTD
 70
     2
  9
$DIMALTF
 40
25.4
  9
$DIMLFAC
 40
1.0
  9
$DIMTOFL
 70
     1
  9
$DIMTVP
 40
0.0
  9
$DIMTIX
 70
     0
  9
$DIMSOXD
 70
     0
  9
$DIMSAH
 70
     1
  9
$DIMBLK1
  1

  9
$DIMBLK2
  1

  9
$DIMSTYLE
  2
STANDARD
  9
$DIMCLRD
 70
     0
  9
$DIMCLRE
 70
     0
  9
$DIMCLRT
 70
     0
  9
$DIMTFAC
 40
1.0
  9
$DIMGAP
 40
1.0
  9
$DIMJUST
 70
     0
  9
$DIMSD1
 70
     0
  9
$DIMSD2
 70
     0
  9
$DIMTOLJ
 70
     1
  9
$DIMTZIN
 70
     0
  9
$DIMALTZ
 70
     0
  9
$DIMALTTZ
 70
     0
  9
$DIMUPT
 70
     0
  9
$DIMDEC
 70
     4
  9
$DIMTDEC
 70
     4
  9
$DIMALTU
 70
     2
  9
$DIMALTTD
 70
     2
  9
$DIMTXSTY
  7
STANDARD
  9
$DIMAUNIT
 70
     0
  9
$DIMADEC
 70
     0
  9
$DIMALTRND
 40
0.0
  9
$DIMAZIN
 70
     0
  9
$DIMDSEP
 70
    46
  9
$DIMATFIT
 70
     3
  9
$DIMFRAC
 70
     0
  9
$DIMLDRBLK
  1

  9
$DIMLUNIT
 70
     2
  9
$DIMLWD
 70
    -2
  9
$DIMLWE
 70
    -2
  9
$DIMTMOVE
 70
     0
  9
$LUNITS
 70
     2
  9
$LUPREC
 70
     4
  9
$SKETCHINC
 40
1.0
  9
$FILLETRAD
 40
1.0
  9
$AUNITS
 70
     0
  9
$AUPREC
 70
     2
  9
$MENU
  1
.
  9
$ELEVATION
 40
0.0
  9
$PELEVATION
 40
0.0
  9
$THICKNESS
 40
0.0
  9
$LIMCHECK
 70
     0
  9
$CHAMFERA
 40
10.0
  9
$CHAMFERB
 40
10.0
  9
$CHAMFERC
 40
0.0
  9
$CHAMFERD
 40
0.0
  9
$SKPOLY
 70
     0
  9
$TDCREATE
 40
2451301.460395949
  9
$TDUCREATE
 40
2451301.085395949
  9
$TDUPDATE
 40
2457192.690437998
  9
$TDUUPDATE
 40
2457192.315437998
  9
$TDINDWG
 40
0.1026242824
  9
$TDUSRTIMER
 40
0.1026239815
  9
$USRTIMER
 70
     1
  9
$ANGBASE
 50
0.0
  9
$ANGDIR
 70
     0
  9
$PDMODE
 70
     0
  9
$PDSIZE
 40
0.0
  9
$PLINEWID
 40
0.0
  9
$SPLFRAME
 70
     0
  9
$SPLINETYPE
 70
     6
  9
$SPLINESEGS
 70
     8
  9
$HANDSEED
  5
9F1D
  9
$SURFTAB1
 70
     6
  9
$SURFTAB2
 70
     6
  9
$SURFTYPE
 70
     6
  9
$SURFU
 70
     6
  9
$SURFV
 70
     6
  9
$UCSBASE
  2

  9
$UCSNAME
  2

  9
$UCSORG
 10
0.0
 20
0.0
 30
0.0
  9
$UCSXDIR
 10
1.0
 20
0.0
 30
0.0
  9
$UCSYDIR
 10
0.0
 20
1.0
 30
0.0
  9
$UCSORTHOREF
  2

  9
$UCSORTHOVIEW
 70
     0
  9
$UCSORGTOP
 10
0.0
 20
0.0
 30
0.0
  9
$UCSORGBOTTOM
 10
0.0
 20
0.0
 30
0.0
  9
$UCSORGLEFT
 10
0.0
 20
0.0
 30
0.0
  9
$UCSORGRIGHT
 10
0.0
 20
0.0
 30
0.0
  9
$UCSORGFRONT
 10
0.0
 20
0.0
 30
0.0
  9
$UCSORGBACK
 10
0.0
 20
0.0
 30
0.0
  9
$PUCSBASE
  2

  9
$PUCSNAME
  2

  9
$PUCSORG
 10
0.0
 20
0.0
 30
0.0
  9
$PUCSXDIR
 10
1.0
 20
0.0
 30
0.0
  9
$PUCSYDIR
 10
0.0
 20
1.0
 30
0.0
  9
$PUCSORTHOREF
  2

  9
$PUCSORTHOVIEW
 70
     0
  9
$PUCSORGTOP
 10
0.0
 20
0.0
 30
0.0
  9
$PUCSORGBOTTOM
 10
0.0
 20
0.0
 30
0.0
  9
$PUCSORGLEFT
 10
0.0
 20
0.0
 30
0.0
  9
$PUCSORGRIGHT
 10
0.0
 20
0.0
 30
0.0
  9
$PUCSORGFRONT
 10
0.0
 20
0.0
 30
0.0
  9
$PUCSORGBACK
 10
0.0
 20
0.0
 30
0.0
  9
$USERI1
 70
     0
  9
$USERI2
 70
     0
  9
$USERI3
 70
     0
  9
$USERI4
 70
     0
  9
$USERI5
 70
     0
  9
$USERR1
 40
0.0
  9
$USERR2
 40
0.0
  9
$USERR3
 40
0.0
  9
$USERR4
 40
0.0
  9
$USERR5
 40
0.0
  9
$WORLDVIEW
 70
     1
  9
$SHADEDGE
 70
     3
  9
$SHADEDIF
 70
    70
  9
$TILEMODE
 70
     1
  9
$MAXACTVP
 70
    16
  9
$PINSBASE
 10
0.0
 20
0.0
 30
0.0
  9
$PLIMCHECK
 70
     0
  9
$PEXTMIN
 10
1.000000000000000E+20
 20
1.000000000000000E+20
 30
1.000000000000000E+20
  9
$PEXTMAX
 10
-1.000000000000000E+20
 20
-1.000000000000000E+20
 30
-1.000000000000000E+20
  9
$PLIMMIN
 10
0.0
 20
0.0
  9
$PLIMMAX
 10
420.0
 20
297.0
  9
$UNITMODE
 70
     0
  9
$VISRETAIN
 70
     0
  9
$PLINEGEN
 70
     0
  9
$PSLTSCALE
 70
     0
  9
$TREEDEPTH
 70
  3020
  9
$CMLSTYLE
  2
STANDARD
  9
$CMLJUST
 70
     0
  9
$CMLSCALE
 40
1.0
  9
$PROXYGRAPHICS
 70
     1
  9
$MEASUREMENT
 70
     0
  9
$CELWEIGHT
370
    -1
  9
$ENDCAPS
280
     0
  9
$JOINSTYLE
280
     0
  9
$LWDISPLAY
290
     0
  9
$INSUNITS
 70
     0
  9
$HYPERLINKBASE
  1

  9
$STYLESHEET
  1

  9
$XEDIT
290
     1
  9
$CEPSNTYPE
380
     0
  9
$PSTYLEMODE
290
     1
  9
$FINGERPRINTGUID
  2
{ED257BC8-4AE5-4626-8563-4EC03F7F53CE}
  9
$VERSIONGUID
  2
{4F060D7D-8523-43D3-B69D-9950E2948C8D}
  9
$EXTNAMES
290
     1
  9
$PSVPSCALE
 40
0.0
  9
$OLESTARTUP
290
     0
  0
ENDSEC
  0
SECTION
  2
CLASSES
  0
CLASS
  1
ACDBDICTIONARYWDFLT
  2
AcDbDictionaryWithDefault
  3
ObjectDBX Classes
 90
        0
280
     0
281
     0
  0
CLASS
  1
ACDBPLACEHOLDER
  2
AcDbPlaceHolder
  3
ObjectDBX Classes
 90
        0
280
     0
281
     0
  0
CLASS
  1
LAYOUT
  2
AcDbLayout
  3
ObjectDBX Classes
 90
        0
280
     0
281
     0
  0
CLASS
  1
DICTIONARYVAR
  2
AcDbDictionaryVar
  3
ObjectDBX Classes
 90
        0
280
     0
281
     0
  0
CLASS
  1
MATERIAL
  2
AcDbMaterial
  3
ObjectDBX Classes
 90
     1153
280
     0
281
     0
  0
CLASS
  1
VISUALSTYLE
  2
AcDbVisualStyle
  3
ObjectDBX Classes
 90
     4095
280
     0
281
     0
  0
CLASS
  1
TABLESTYLE
  2
AcDbTableStyle
  3
ObjectDBX Classes
 90
     4095
280
     0
281
     0
  0
CLASS
  1
SCALE
  2
AcDbScale
  3
ObjectDBX Classes
 90
     1153
280
     0
281
     0
  0
CLASS
  1
MLEADERSTYLE
  2
AcDbMLeaderStyle
  3
ACDB_MLEADERSTYLE_CLASS
 90
     4095
280
     0
281
     0
  0
CLASS
  1
ACDBSECTIONVIEWSTYLE
  2
AcDbSectionViewStyle
  3
ObjectDBX Classes
 90
     1025
280
     0
281
     0
  0
CLASS
  1
ACDBDETAILVIEWSTYLE
  2
AcDbDetailViewStyle
  3
ObjectDBX Classes
 90
     1025
280
     0
281
     0
  0
CLASS
  1
CELLSTYLEMAP
  2
AcDbCellStyleMap
  3
ObjectDBX Classes
 90
     1152
280
     0
281
     0
  0
ENDSEC
  0
SECTION
  2
TABLES
  0
TABLE
  2
VPORT
  5
9C91
330
0
100
AcDbSymbolTable
 70
     1
  0
VPORT
  5
9E68
330
9C91
100
AcDbSymbolTableRecord
100
AcDbViewportTableRecord
  2
*ACTIVE
 70
     0
 10
0.0
 20
0.0
 11
1.0
 21
1.0
 12
225.6296349826663
 22
111.9539114346889
 13
0.0
 23
0.0
 14
10.0
 24
10.0
 15
10.0
 25
10.0
 16
0.0
 26
0.0
 36
1.0
 17
0.0
 27
0.0
 37
0.0
 40
205.5393356717447
 41
2.35006605019815
 42
50.0
 43
0.0
 44
0.0
 50
0.0
 51
0.0
 71
     0
 72
   100
 73
     1
 74
     0
 75
     0
 76
     0
 77
     0
 78
     0
281
     0
 65
     1
110
0.0
120
0.0
130
0.0
111
1.0
121
0.0
131
0.0
112
0.0
122
1.0
132
0.0
 79
     0
146
0.0
1001
ACAD_NAV_VCDISPLAY
1070
     3
  0
ENDTAB
  0
TABLE
  2
LTYPE
  5
9C8E
330
0
100
AcDbSymbolTable
 70
     4
  0
LTYPE
  5
9C9C
330
9C8E
100
AcDbSymbolTableRecord
100
AcDbLinetypeTableRecord
  2
BYBLOCK
 70
     0
  3

 72
    65
 73
     0
 40
0.0
  0
LTYPE
  5
9C9D
330
9C8E
100
AcDbSymbolTableRecord
100
AcDbLinetypeTableRecord
  2
BYLAYER
 70
     0
  3

 72
    65
 73
     0
 40
0.0
  0
LTYPE
  5
9C9E
330
9C8E
100
AcDbSymbolTableRecord
100
AcDbLinetypeTableRecord
  2
CONTINUOUS
 70
     0
  3
Solid line
 72
    65
 73
     0
 40
0.0
  0
LTYPE
  5
9CAC
330
9C8E
100
AcDbSymbolTableRecord
100
AcDbLinetypeTableRecord
  2
DASHED
 70
     0
  3
__ __ __ __ __ __ __ __ __ __ __ __ __ __ __ __
 72
    65
 73
     2
 40
0.75
 49
0.5
 74
     0
 49
-0.25
 74
     0
  0
LTYPE
  5
9CAD
330
9C8E
100
AcDbSymbolTableRecord
100
AcDbLinetypeTableRecord
  2
CENTER
 70
     0
  3
____ _ ____ _ ____ _ ____ _ ____ _ ____ _ ____ 
 72
    65
 73
     4
 40
2.0
 49
1.25
 74
     0
 49
-0.25
 74
     0
 49
0.25
 74
     0
 49
-0.25
 74
     0
  0
LTYPE
  5
9CAE
330
9C8E
100
AcDbSymbolTableRecord
100
AcDbLinetypeTableRecord
  2
PHANTOM
 70
     0
  3
______  __  __  ______  __  __  ______  __  __ 
 72
    65
 73
     6
 40
2.5
 49
1.25
 74
     0
 49
-0.25
 74
     0
 49
0.25
 74
     0
 49
-0.25
 74
     0
 49
0.25
 74
     0
 49
-0.25
 74
     0
  0
ENDTAB
  0
TABLE
  2
LAYER
  5
9C8B
330
0
100
AcDbSymbolTable
 70
     8
  0
LAYER
  5
9C99
102
{ACAD_XDICTIONARY
360
9EC1
102
}
330
9C8B
100
AcDbSymbolTableRecord
100
AcDbLayerTableRecord
  2
0
 70
     0
 62
     7
  6
CONTINUOUS
370
    -3
390
9E6F
  0
LAYER
  5
9CAF
102
{ACAD_XDICTIONARY
360
9EC3
102
}
330
9C8B
100
AcDbSymbolTableRecord
100
AcDbLayerTableRecord
  2
4
 70
     0
 62
     1
  6
CENTER
370
    -3
390
9E6F
  0
LAYER
  5
9CB0
102
{ACAD_XDICTIONARY
360
9EC5
102
}
330
9C8B
100
AcDbSymbolTableRecord
100
AcDbLayerTableRecord
  2
5
 70
     0
 62
     6
  6
PHANTOM
370
    -3
390
9E6F
  0
LAYER
  5
9CB1
102
{ACAD_XDICTIONARY
360
9EC7
102
}
330
9C8B
100
AcDbSymbolTableRecord
100
AcDbLayerTableRecord
  2
1
 70
     0
 62
     7
  6
CONTINUOUS
370
    -3
390
9E6F
  0
LAYER
  5
9CB2
102
{ACAD_XDICTIONARY
360
9EC9
102
}
330
9C8B
100
AcDbSymbolTableRecord
100
AcDbLayerTableRecord
  2
2
 70
     0
 62
     4
  6
CONTINUOUS
370
    -3
390
9E6F
  0
LAYER
  5
9CB3
102
{ACAD_XDICTIONARY
360
9ECB
102
}
330
9C8B
100
AcDbSymbolTableRecord
100
AcDbLayerTableRecord
  2
3
 70
     0
 62
     2
  6
DASHED
370
    -3
390
9E6F
  0
LAYER
  5
9CB4
102
{ACAD_XDICTIONARY
360
9ECD
102
}
330
9C8B
100
AcDbSymbolTableRecord
100
AcDbLayerTableRecord
  2
6
 70
     0
 62
     5
  6
CONTINUOUS
370
    -3
390
9E6F
  0
LAYER
  5
9CB5
102
{ACAD_XDICTIONARY
360
9ECF
102
}
330
9C8B
100
AcDbSymbolTableRecord
100
AcDbLayerTableRecord
  2
7
 70
     0
 62
     3
  6
CONTINUOUS
370
    -3
390
9E6F
  0
ENDTAB
  0
TABLE
  2
STYLE
  5
9C8C
330
0
100
AcDbSymbolTable
 70
     1
  0
STYLE
  5
9C9A
330
9C8C
100
AcDbSymbolTableRecord
100
AcDbTextStyleTableRecord
  2
STANDARD
 70
     0
 40
0.0
 41
1.0
 50
0.0
 71
     0
 42
5.0
  3
txt
  4

  0
ENDTAB
  0
TABLE
  2
VIEW
  5
9C8F
330
0
100
AcDbSymbolTable
 70
     0
  0
ENDTAB
  0
TABLE
  2
UCS
  5
9C90
330
0
100
AcDbSymbolTable
 70
     0
  0
ENDTAB
  0
TABLE
  2
APPID
  5
9C92
330
0
100
AcDbSymbolTable
 70
     3
  0
APPID
  5
9C9B
330
9C92
100
AcDbSymbolTableRecord
100
AcDbRegAppTableRecord
  2
ACAD
 70
     0
  0
APPID
  5
9EDB
330
9C92
100
AcDbSymbolTableRecord
100
AcDbRegAppTableRecord
  2
ACAD_NAV_VCDISPLAY
 70
     0
  0
APPID
  5
9F14
330
9C92
100
AcDbSymbolTableRecord
100
AcDbRegAppTableRecord
  2
ACAD_MLEADERVER
 70
     0
  0
ENDTAB
  0
TABLE
  2
DIMSTYLE
  5
9C93
330
0
100
AcDbSymbolTable
 70
     1
100
AcDbDimStyleTable
 71
     0
  0
DIMSTYLE
105
9CB7
330
9C93
100
AcDbSymbolTableRecord
100
AcDbDimStyleTableRecord
  2
STANDARD
 70
     0
 41
2.5
 42
1.0
 43
10.0
 44
1.0
 73
     0
 74
     0
 77
     3
 78
     8
140
3.2
141
0.0
147
1.0
172
     1
173
     1
284
     8
285
     8
286
     8
340
9C9A
  0
ENDTAB
  0
TABLE
  2
BLOCK_RECORD
  5
9C8A
330
0
100
AcDbSymbolTable
 70
     0
  0
BLOCK_RECORD
  5
9CA7
102
{ACAD_XDICTIONARY
360
9E4C
102
}
330
9C8A
100
AcDbSymbolTableRecord
100
AcDbBlockTableRecord
  2
*MODEL_SPACE
340
9EBD
  0
BLOCK_RECORD
  5
9CA3
102
{ACAD_XDICTIONARY
360
9E4A
102
}
330
9C8A
100
AcDbSymbolTableRecord
100
AcDbBlockTableRecord
  2
*PAPER_SPACE
340
9EBE
  0
ENDTAB
  0
ENDSEC
  0
SECTION
  2
BLOCKS
  0
BLOCK
  5
9CA8
330
9CA7
100
AcDbEntity
  8
0
100
AcDbBlockBegin
  2
*MODEL_SPACE
 70
     0
 10
0.0
 20
0.0
 30
0.0
  3
*MODEL_SPACE
  1

  0
ENDBLK
  5
9CA9
330
9CA7
100
AcDbEntity
  8
0
100
AcDbBlockEnd
  0
BLOCK
  5
9CA4
330
9CA3
100
AcDbEntity
 67
     1
  8
0
100
AcDbBlockBegin
  2
*PAPER_SPACE
 70
     0
 10
0.0
 20
0.0
 30
0.0
  3
*PAPER_SPACE
  1

  0
ENDBLK
  5
9CA5
330
9CA3
100
AcDbEntity
 67
     1
  8
0
100
AcDbBlockEnd
  0
ENDSEC
  0
SECTION
  2
ENTITIES
  0
TEXT
  5
9CBF
330
9CA7
100
AcDbEntity
  8
7
  6
Continuous
100
AcDbText
 10
10.0
 20
18.0
 30
0.0
 40
3.0
  1
TYPE No.TCA-420G-N25
100
AcDbText
  0
TEXT
  5
9CC0
330
9CA7
100
AcDbEntity
  8
7
  6
Continuous
100
AcDbText
 10
10.0
 20
26.0
 30
0.0
 40
3.0
  1
CODE No.9713
100
AcDbText
  0
TEXT
  5
9CC1
330
9CA7
100
AcDbEntity
  8
1
  6
Continuous
100
AcDbText
 10
10.0
 20
10.0
 30
0.0
 40
1.399999999999999
  1
LAYER
100
AcDbText
  0
TEXT
  5
9CC2
330
9CA7
100
AcDbEntity
  8
1
  6
Continuous
100
AcDbText
 10
17.97951099999998
 20
10.04873699999998
 30
0.0
 40
1.399999999999999
  1
1
100
AcDbText
  0
TEXT
  5
9CC3
330
9CA7
100
AcDbEntity
  8
7
  6
Continuous
100
AcDbText
 10
29.97951099999999
 20
10.04873699999998
 30
0.0
 40
1.399999999999999
  1
7
100
AcDbText
  0
TEXT
  5
9CC4
330
9CA7
100
AcDbEntity
  8
4
  6
CENTER
100
AcDbText
 10
23.97951099999999
 20
10.04873699999998
 30
0.0
 40
1.399999999999999
  1
4
100
AcDbText
  0
TEXT
  5
9CC5
330
9CA7
100
AcDbEntity
  8
3
  6
DASHED
100
AcDbText
 10
21.979511
 20
10.04873699999998
 30
0.0
 40
1.399999999999999
  1
3
100
AcDbText
  0
TEXT
  5
9CC6
330
9CA7
100
AcDbEntity
  8
2
  6
Continuous
100
AcDbText
 10
19.97951099999998
 20
10.04873699999998
 30
0.0
 40
1.399999999999999
  1
2
100
AcDbText
  0
TEXT
  5
9CC7
330
9CA7
100
AcDbEntity
  8
6
  6
Continuous
100
AcDbText
 10
27.979511
 20
10.04873699999998
 30
0.0
 40
1.399999999999999
  1
6
100
AcDbText
  0
TEXT
  5
9CC8
330
9CA7
100
AcDbEntity
  8
5
  6
PHANTOM
100
AcDbText
 10
25.97951099999999
 20
10.04873699999998
 30
0.0
 40
1.399999999999999
  1
5
100
AcDbText
  0
LINE
  5
9CC9
330
9CA7
100
AcDbEntity
  8
4
  6
CENTER
 48
0.5
100
AcDbLine
 10
117.783179
 20
213.9010199999999
 30
0.0
 11
117.783179
 21
173.9010199999999
 31
0.0
  0
LINE
  5
9CCA
330
9CA7
100
AcDbEntity
  8
4
  6
CENTER
 48
0.5
100
AcDbLine
 10
91.28318099999999
 20
193.90102
 30
0.0
 11
138.525527
 21
193.90102
 31
0.0
  0
LINE
  5
9CCB
330
9CA7
100
AcDbEntity
  8
4
  6
CENTER
 48
0.5
100
AcDbLine
 10
43.78317899999998
 20
146.4010199999998
 30
0.0
 11
43.78317899999998
 21
101.401022
 31
0.0
  0
LINE
  5
9CCC
330
9CA7
100
AcDbEntity
  8
4
  6
CENTER
 48
0.5
100
AcDbLine
 10
28.595188
 20
118.9010219999999
 30
0.0
 11
59.071176
 21
118.9010219999999
 31
0.0
  0
LINE
  5
9CCD
330
9CA7
100
AcDbEntity
  8
1
  6
Continuous
100
AcDbLine
 10
36.28917599999999
 20
116.6510199999999
 30
0.0
 11
36.78317899999999
 21
116.6510199999999
 31
0.0
  0
LINE
  5
9CCE
330
9CA7
100
AcDbEntity
  8
1
  6
Continuous
100
AcDbLine
 10
36.28317899999997
 20
121.151022
 30
0.0
 11
36.78317899999999
 21
121.151022
 31
0.0
  0
LINE
  5
9CCF
330
9CA7
100
AcDbEntity
  8
4
  6
CENTER
 48
0.5
100
AcDbLine
 10
117.783179
 20
146.4010199999998
 30
0.0
 11
117.783179
 21
121.712791
 31
0.0
  0
LINE
  5
9CD0
330
9CA7
100
AcDbEntity
  8
4
  6
CENTER
 48
0.5
100
AcDbLine
 10
91.283179
 20
118.9010219999999
 30
0.0
 11
126.283179
 21
118.9010219999999
 31
0.0
  0
LINE
  5
9CD1
330
9CA7
100
AcDbEntity
  8
4
  6
CENTER
 48
0.5
100
AcDbLine
 10
108.783179
 20
134.102348
 30
0.0
 11
108.783179
 21
101.401022
 31
0.0
  0
LINE
  5
9CD2
330
9CA7
100
AcDbEntity
  8
1
  6
Continuous
100
AcDbLine
 10
103.783179
 20
208.9010199999999
 30
0.0
 11
131.7831789999999
 21
208.9010199999999
 31
0.0
  0
LINE
  5
9CD3
330
9CA7
100
AcDbEntity
  8
4
  6
CENTER
 48
0.5
100
AcDbLine
 10
103.783179
 20
208.4010199999999
 30
0.0
 11
103.783179
 21
202.4010199999999
 31
0.0
  0
LINE
  5
9CD4
330
9CA7
100
AcDbEntity
  8
4
  6
CENTER
 48
0.5
100
AcDbLine
 10
100.783179
 20
205.40102
 30
0.0
 11
106.783179
 21
205.40102
 31
0.0
  0
LINE
  5
9CD5
330
9CA7
100
AcDbEntity
  8
4
  6
CENTER
 48
0.5
100
AcDbLine
 10
131.7831789999999
 20
208.4010199999999
 30
0.0
 11
131.7831789999999
 21
202.4010199999999
 31
0.0
  0
LINE
  5
9CD6
330
9CA7
100
AcDbEntity
  8
4
  6
CENTER
 48
0.5
100
AcDbLine
 10
134.7831789999997
 20
205.40102
 30
0.0
 11
128.783179
 21
205.40102
 31
0.0
  0
LINE
  5
9CD7
330
9CA7
100
AcDbEntity
  8
1
  6
Continuous
100
AcDbLine
 10
103.783179
 20
178.9010199999999
 30
0.0
 11
131.7831789999999
 21
178.9010199999999
 31
0.0
  0
LINE
  5
9CD8
330
9CA7
100
AcDbEntity
  8
4
  6
CENTER
 48
0.5
100
AcDbLine
 10
103.783179
 20
179.4010199999999
 30
0.0
 11
103.783179
 21
185.4010199999999
 31
0.0
  0
LINE
  5
9CD9
330
9CA7
100
AcDbEntity
  8
4
  6
CENTER
 48
0.5
100
AcDbLine
 10
100.783179
 20
182.40102
 30
0.0
 11
106.783179
 21
182.40102
 31
0.0
  0
LINE
  5
9CDA
330
9CA7
100
AcDbEntity
  8
4
  6
CENTER
 48
0.5
100
AcDbLine
 10
131.7831789999999
 20
179.4010199999999
 30
0.0
 11
131.7831789999999
 21
185.4010199999999
 31
0.0
  0
LINE
  5
9CDB
330
9CA7
100
AcDbEntity
  8
4
  6
CENTER
 48
0.5
100
AcDbLine
 10
134.7831789999997
 20
182.40102
 30
0.0
 11
128.783179
 21
182.40102
 31
0.0
  0
LINE
  5
9CDC
330
9CA7
100
AcDbEntity
  8
1
  6
Continuous
100
AcDbLine
 10
117.783179
 20
197.40102
 30
0.0
 11
117.783179
 21
190.4010199999999
 31
0.0
  0
LINE
  5
9CDD
330
9CA7
100
AcDbEntity
  8
1
  6
Continuous
100
AcDbLine
 10
114.283179
 20
193.90102
 30
0.0
 11
121.283179
 21
193.90102
 31
0.0
  0
LINE
  5
9CDE
330
9CA7
100
AcDbEntity
  8
1
  6
Continuous
100
AcDbLine
 10
120.609278
 20
193.301018
 30
0.0
 11
118.383177
 21
193.301018
 31
0.0
  0
LINE
  5
9CDF
330
9CA7
100
AcDbEntity
  8
1
  6
Continuous
100
AcDbLine
 10
118.383181
 20
193.3010219999999
 30
0.0
 11
118.383181
 21
191.0749209999999
 31
0.0
  0
LINE
  5
9CE0
330
9CA7
100
AcDbEntity
  8
1
  6
Continuous
100
AcDbLine
 10
117.783179
 20
193.901016
 30
0.0
 11
118.383177
 21
193.301018
 31
0.0
  0
LINE
  5
9CE1
330
9CA7
100
AcDbEntity
  8
1
  6
Continuous
100
AcDbLine
 10
117.783179
 20
190.4010199999999
 30
0.0
 11
119.033175
 21
189.8390009999999
 31
0.0
  0
LINE
  5
9CE2
330
9CA7
100
AcDbEntity
  8
1
  6
Continuous
100
AcDbLine
 10
121.8451949999999
 20
192.6510199999999
 30
0.0
 11
121.283175
 21
193.90102
 31
0.0
  0
LINE
  5
9CE3
330
9CA7
100
AcDbEntity
  8
1
  6
Continuous
100
AcDbLine
 10
118.383177
 20
196.7271189999999
 30
0.0
 11
118.383177
 21
194.5010179999999
 31
0.0
  0
LINE
  5
9CE4
330
9CA7
100
AcDbEntity
  8
1
  6
Continuous
100
AcDbLine
 10
118.383177
 20
194.5010179999999
 30
0.0
 11
120.609278
 21
194.5010179999999
 31
0.0
  0
LINE
  5
9CE5
330
9CA7
100
AcDbEntity
  8
1
  6
Continuous
100
AcDbLine
 10
117.783179
 20
193.90102
 30
0.0
 11
118.383177
 21
194.5010179999999
 31
0.0
  0
LINE
  5
9CE6
330
9CA7
100
AcDbEntity
  8
1
  6
Continuous
100
AcDbLine
 10
121.283179
 20
193.90102
 30
0.0
 11
121.8451949999999
 21
195.1510159999999
 31
0.0
  0
LINE
  5
9CE7
330
9CA7
100
AcDbEntity
  8
1
  6
Continuous
100
AcDbLine
 10
119.033179
 20
197.9630359999999
 30
0.0
 11
117.783179
 21
197.40102
 31
0.0
  0
LINE
  5
9CE8
330
9CA7
100
AcDbEntity
  8
1
  6
Continuous
100
AcDbLine
 10
114.95708
 20
194.501015
 30
0.0
 11
117.183181
 21
194.501015
 31
0.0
  0
LINE
  5
9CE9
330
9CA7
100
AcDbEntity
  8
1
  6
Continuous
100
AcDbLine
 10
117.183177
 20
194.5010179999999
 30
0.0
 11
117.183177
 21
196.7271189999999
 31
0.0
  0
LINE
  5
9CEA
330
9CA7
100
AcDbEntity
  8
1
  6
Continuous
100
AcDbLine
 10
117.783179
 20
193.90102
 30
0.0
 11
117.183181
 21
194.5010179999999
 31
0.0
  0
LINE
  5
9CEB
330
9CA7
100
AcDbEntity
  8
1
  6
Continuous
100
AcDbLine
 10
117.7831709999999
 20
197.40102
 30
0.0
 11
116.5331749999999
 21
197.9630389999999
 31
0.0
  0
LINE
  5
9CEC
330
9CA7
100
AcDbEntity
  8
1
  6
Continuous
100
AcDbLine
 10
113.7211629999999
 20
195.1510199999999
 30
0.0
 11
114.2831829999999
 21
193.90102
 31
0.0
  0
LINE
  5
9CED
330
9CA7
100
AcDbEntity
  8
1
  6
Continuous
100
AcDbLine
 10
117.183181
 20
191.0749209999999
 30
0.0
 11
117.183181
 21
193.3010219999999
 31
0.0
  0
LINE
  5
9CEE
330
9CA7
100
AcDbEntity
  8
1
  6
Continuous
100
AcDbLine
 10
117.183181
 20
193.301014
 30
0.0
 11
114.95708
 21
193.301014
 31
0.0
  0
LINE
  5
9CEF
330
9CA7
100
AcDbEntity
  8
1
  6
Continuous
100
AcDbLine
 10
117.7831749999999
 20
193.90102
 30
0.0
 11
117.183177
 21
193.3010219999999
 31
0.0
  0
LINE
  5
9CF0
330
9CA7
100
AcDbEntity
  8
1
  6
Continuous
100
AcDbLine
 10
114.283179
 20
193.901005
 30
0.0
 11
113.7211629999999
 21
192.651012
 31
0.0
  0
LINE
  5
9CF1
330
9CA7
100
AcDbEntity
  8
1
  6
Continuous
100
AcDbLine
 10
116.5331829999999
 20
189.839008
 30
0.0
 11
117.7831829999999
 21
190.4010279999999
 31
0.0
  0
LINE
  5
9CF2
330
9CA7
100
AcDbEntity
  8
1
  6
Continuous
100
AcDbLine
 10
125.883177
 20
132.5010199999999
 30
0.0
 11
129.983179
 21
132.5010199999999
 31
0.0
  0
LINE
  5
9CF3
330
9CA7
100
AcDbEntity
  8
1
  6
Continuous
100
AcDbLine
 10
108.48318
 20
132.8986639999999
 30
0.0
 11
108.48318
 21
122.913397
 31
0.0
  0
LINE
  5
9CF4
330
9CA7
100
AcDbEntity
  8
1
  6
Continuous
100
AcDbLine
 10
112.4089949999999
 20
116.2357859999999
 30
0.0
 11
123.465972
 21
131.2778409999999
 31
0.0
  0
LINE
  5
9CF5
330
9CA7
100
AcDbEntity
  8
1
  6
Continuous
100
AcDbLine
 10
104.7831809999999
 20
133.6010209999997
 30
0.0
 11
104.2858069999998
 21
119.0547959999999
 31
0.0
  0
LINE
  5
9CF6
330
9CA7
100
AcDbEntity
  8
1
  6
Continuous
100
AcDbLine
 10
104.7831809999999
 20
133.601019
 30
0.0
 11
104.283181
 21
134.6010179999999
 31
0.0
  0
LINE
  5
9CF7
330
9CA7
100
AcDbEntity
  8
1
  6
Continuous
100
AcDbLine
 10
104.2831829999997
 20
134.6010159999997
 30
0.0
 11
105.814131
 21
136.258182
 31
0.0
  0
LINE
  5
9CF8
330
9CA7
100
AcDbEntity
  8
1
  6
Continuous
100
AcDbLine
 10
107.283179
 20
136.9010219999997
 30
0.0
 11
127.983179
 21
136.9010219999997
 31
0.0
  0
LINE
  5
9CF9
330
9CA7
100
AcDbEntity
  8
1
  6
Continuous
100
AcDbLine
 10
57.533175
 20
140.0010189999997
 30
0.0
 11
56.545729
 21
138.334452
 31
0.0
  0
LINE
  5
9CFA
330
9CA7
100
AcDbEntity
  8
1
  6
Continuous
100
AcDbLine
 10
58.78317899999998
 20
140.0010179999999
 30
0.0
 11
28.78317899999998
 21
140.0010179999999
 31
0.0
  0
LINE
  5
9CFB
330
9CA7
100
AcDbEntity
  8
1
  6
Continuous
100
AcDbLine
 10
58.78317899999998
 20
141.4010199999998
 30
0.0
 11
28.78317899999998
 21
141.4010199999998
 31
0.0
  0
LINE
  5
9CFC
330
9CA7
100
AcDbEntity
  8
1
  6
Continuous
100
AcDbLine
 10
55.08502199999998
 20
137.5010179999997
 30
0.0
 11
32.483176
 21
137.5010179999997
 31
0.0
  0
LINE
  5
9CFD
330
9CA7
100
AcDbEntity
  8
1
  6
Continuous
100
AcDbLine
 10
30.033183
 20
140.0010189999997
 30
0.0
 11
31.02063199999999
 21
138.334451
 31
0.0
  0
LINE
  5
9CFE
330
9CA7
100
AcDbEntity
  8
1
  6
Continuous
100
AcDbLine
 10
135.2831789999999
 20
140.0010159999999
 30
0.0
 11
135.2831789999999
 21
141.4010199999998
 31
0.0
  0
LINE
  5
9CFF
330
9CA7
100
AcDbEntity
  8
4
  6
CENTER
 48
0.5
100
AcDbLine
 10
131.7831789999999
 20
137.0010179999999
 30
0.0
 11
131.7831789999999
 21
144.4010199999998
 31
0.0
  0
LINE
  5
9D00
330
9CA7
100
AcDbEntity
  8
1
  6
Continuous
100
AcDbLine
 10
131.533175
 20
140.0010179999999
 30
0.0
 11
130.545726
 21
138.3344499999997
 31
0.0
  0
LINE
  5
9D01
330
9CA7
100
AcDbEntity
  8
1
  6
Continuous
100
AcDbLine
 10
135.2831789999999
 20
140.0010179999999
 30
0.0
 11
100.283179
 21
140.0010179999999
 31
0.0
  0
LINE
  5
9D02
330
9CA7
100
AcDbEntity
  8
1
  6
Continuous
100
AcDbLine
 10
100.283179
 20
140.001021
 30
0.0
 11
100.283179
 21
141.4010219999999
 31
0.0
  0
LINE
  5
9D03
330
9CA7
100
AcDbEntity
  8
4
  6
CENTER
 48
0.5
100
AcDbLine
 10
103.783179
 20
137.0010179999999
 30
0.0
 11
103.783179
 21
144.4010199999998
 31
0.0
  0
LINE
  5
9D04
330
9CA7
100
AcDbEntity
  8
1
  6
Continuous
100
AcDbLine
 10
135.2831789999999
 20
141.4010199999998
 30
0.0
 11
100.283179
 21
141.4010199999998
 31
0.0
  0
LINE
  5
9D05
330
9CA7
100
AcDbEntity
  8
1
  6
Continuous
100
AcDbLine
 10
129.085022
 20
137.5010179999997
 30
0.0
 11
106.483178
 21
137.5010179999997
 31
0.0
  0
LINE
  5
9D06
330
9CA7
100
AcDbEntity
  8
1
  6
Continuous
100
AcDbLine
 10
104.0331769999999
 20
140.0010149999999
 30
0.0
 11
105.020625
 21
138.3344469999999
 31
0.0
  0
LINE
  5
9D07
330
9CA7
100
AcDbEntity
  8
1
  6
Continuous
100
AcDbLine
 10
28.78317899999998
 20
141.4010199999998
 30
0.0
 11
28.78317899999998
 21
140.0010179999999
 31
0.0
  0
LINE
  5
9D08
330
9CA7
100
AcDbEntity
  8
1
  6
Continuous
100
AcDbLine
 10
58.78317899999998
 20
141.4010199999998
 30
0.0
 11
58.78317899999998
 21
140.0010179999999
 31
0.0
  0
LINE
  5
9D09
330
9CA7
100
AcDbEntity
  8
4
  6
CENTER
 48
0.5
100
AcDbLine
 10
32.28317899999999
 20
144.4010199999998
 30
0.0
 11
32.28317899999999
 21
137.0010179999999
 31
0.0
  0
LINE
  5
9D0A
330
9CA7
100
AcDbEntity
  8
4
  6
CENTER
 48
0.5
100
AcDbLine
 10
55.28317900000001
 20
144.4010199999998
 30
0.0
 11
55.28317900000001
 21
137.0010179999999
 31
0.0
  0
LINE
  5
9D0B
330
9CA7
100
AcDbEntity
  8
1
  6
Continuous
100
AcDbLine
 10
33.583182
 20
136.9010219999997
 30
0.0
 11
53.98317999999999
 21
136.9010219999997
 31
0.0
  0
LINE
  5
9D0C
330
9CA7
100
AcDbEntity
  8
1
  6
Continuous
100
AcDbLine
 10
31.583182
 20
134.9010219999997
 30
0.0
 11
31.583182
 21
123.542147
 31
0.0
  0
LINE
  5
9D0D
330
9CA7
100
AcDbEntity
  8
1
  6
Continuous
100
AcDbLine
 10
37.03316799999999
 20
133.601013
 30
0.0
 11
36.733168
 21
134.6010149999999
 31
0.0
  0
LINE
  5
9D0E
330
9CA7
100
AcDbEntity
  8
1
  6
Continuous
100
AcDbLine
 10
55.98317999999999
 20
134.9010219999997
 30
0.0
 11
55.98317999999999
 21
123.542147
 31
0.0
  0
LINE
  5
9D0F
330
9CA7
100
AcDbEntity
  8
1
  6
Continuous
100
AcDbLine
 10
50.533175
 20
133.6010249999999
 30
0.0
 11
50.833174
 21
134.601024
 31
0.0
  0
LINE
  5
9D10
330
9CA7
100
AcDbEntity
  8
1
  6
Continuous
100
AcDbLine
 10
39.183181
 20
135.4010219999999
 30
0.0
 11
39.183181
 21
132.720842
 31
0.0
  0
LINE
  5
9D11
330
9CA7
100
AcDbEntity
  8
1
  6
Continuous
100
AcDbLine
 10
48.38317700000001
 20
135.4010219999999
 30
0.0
 11
48.38317700000001
 21
132.720842
 31
0.0
  0
LINE
  5
9D12
330
9CA7
100
AcDbEntity
  8
1
  6
Continuous
100
AcDbLine
 10
35.08317799999999
 20
114.4010199999997
 30
0.0
 11
36.28317899999997
 21
114.4010199999997
 31
0.0
  0
LINE
  5
9D13
330
9CA7
100
AcDbEntity
  8
1
  6
Continuous
100
AcDbLine
 10
51.28317899999998
 20
114.4010199999997
 30
0.0
 11
52.48318000000001
 21
114.4010199999997
 31
0.0
  0
LINE
  5
9D14
330
9CA7
100
AcDbEntity
  8
1
  6
Continuous
100
AcDbLine
 10
54.0745
 20
117.6510199999997
 30
0.0
 11
54.067816
 21
120.1510239999997
 31
0.0
  0
LINE
  5
9D15
330
9CA7
100
AcDbEntity
  8
1
  6
Continuous
100
AcDbLine
 10
34.188136
 20
116.256924
 30
0.0
 11
34.202273
 21
121.5457669999999
 31
0.0
  0
LINE
  5
9D16
330
9CA7
100
AcDbEntity
  8
1
  6
Continuous
100
AcDbLine
 10
35.08919399999999
 20
116.6510199999999
 30
0.0
 11
34.380454
 21
116.257862
 31
0.0
  0
LINE
  5
9D17
330
9CA7
100
AcDbEntity
  8
1
  6
Continuous
100
AcDbLine
 10
34.394221
 20
121.544382
 30
0.0
 11
35.08317799999999
 21
121.161061
 31
0.0
  0
LINE
  5
9D18
330
9CA7
100
AcDbEntity
  8
1
  6
Continuous
100
AcDbLine
 10
50.783179
 20
121.151022
 30
0.0
 11
51.28317899999998
 21
121.151022
 31
0.0
  0
LINE
  5
9D19
330
9CA7
100
AcDbEntity
  8
1
  6
Continuous
100
AcDbLine
 10
50.783179
 20
116.6510199999999
 30
0.0
 11
51.28317899999998
 21
116.6510199999999
 31
0.0
  0
ARC
  5
9D1A
330
9CA7
100
AcDbEntity
  8
1
  6
Continuous
100
AcDbCircle
 10
103.783179
 20
182.40102
 30
0.0
 40
3.5
100
AcDbArc
 50
162.6203999999999
 51
269.99995
  0
CIRCLE
  5
9D1B
330
9CA7
100
AcDbEntity
  8
1
  6
Continuous
100
AcDbCircle
 10
103.783179
 20
182.40102
 30
0.0
 40
2.1
  0
ARC
  5
9D1C
330
9CA7
100
AcDbEntity
  8
1
  6
Continuous
100
AcDbCircle
 10
131.7831789999999
 20
182.40102
 30
0.0
 40
3.5
100
AcDbArc
 50
269.9999599999998
 51
17.379621
  0
CIRCLE
  5
9D1D
330
9CA7
100
AcDbEntity
  8
1
  6
Continuous
100
AcDbCircle
 10
131.7831789999999
 20
182.40102
 30
0.0
 40
2.1
  0
ARC
  5
9D1E
330
9CA7
100
AcDbEntity
  8
1
  6
Continuous
100
AcDbCircle
 10
67.04083100000001
 20
193.90102
 30
0.0
 40
35.0
100
AcDbArc
 50
342.6203799999999
 51
17.379616
  0
ARC
  5
9D1F
330
9CA7
100
AcDbEntity
  8
1
  6
Continuous
100
AcDbCircle
 10
168.525527
 20
193.90102
 30
0.0
 40
35.0
100
AcDbArc
 50
162.6203999999999
 51
197.37959
  0
CIRCLE
  5
9D20
330
9CA7
100
AcDbEntity
  8
1
  6
Continuous
100
AcDbCircle
 10
117.783179
 20
193.90102
 30
0.0
 40
11.75
  0
CIRCLE
  5
9D21
330
9CA7
100
AcDbEntity
  8
1
  6
Continuous
100
AcDbCircle
 10
117.783179
 20
193.90102
 30
0.0
 40
4.9
  0
CIRCLE
  5
9D22
330
9CA7
100
AcDbEntity
  8
1
  6
Continuous
100
AcDbCircle
 10
117.783179
 20
193.90102
 30
0.0
 40
10.84999999999999
  0
ARC
  5
9D23
330
9CA7
100
AcDbEntity
  8
1
  6
Continuous
100
AcDbCircle
 10
103.783179
 20
205.40102
 30
0.0
 40
3.5
100
AcDbArc
 50
89.99998199999996
 51
197.37959
  0
CIRCLE
  5
9D24
330
9CA7
100
AcDbEntity
  8
1
  6
Continuous
100
AcDbCircle
 10
103.783179
 20
205.40102
 30
0.0
 40
2.1
  0
ARC
  5
9D25
330
9CA7
100
AcDbEntity
  8
1
  6
Continuous
100
AcDbCircle
 10
131.7831789999999
 20
205.40102
 30
0.0
 40
3.5
100
AcDbArc
 50
342.6203799999999
 51
89.99998199999996
  0
CIRCLE
  5
9D26
330
9CA7
100
AcDbEntity
  8
1
  6
Continuous
100
AcDbCircle
 10
131.7831789999999
 20
205.40102
 30
0.0
 40
2.1
  0
ARC
  5
9D27
330
9CA7
100
AcDbEntity
  8
1
  6
Continuous
100
AcDbCircle
 10
117.783179
 20
193.90102
 30
0.0
 40
4.25
100
AcDbArc
 50
287.10464
 51
342.8953599999998
  0
ARC
  5
9D28
330
9CA7
100
AcDbEntity
  8
1
  6
Continuous
100
AcDbCircle
 10
120.609278
 20
191.801022
 30
0.0
 40
1.5
100
AcDbArc
 50
34.518219
 51
89.999955
  0
ARC
  5
9D29
330
9CA7
100
AcDbEntity
  8
1
  6
Continuous
100
AcDbCircle
 10
119.8831769999999
 20
191.0749209999999
 30
0.0
 40
1.5
100
AcDbArc
 50
180.00001
 51
235.4815899999999
  0
ARC
  5
9D2A
330
9CA7
100
AcDbEntity
  8
1
  6
Continuous
100
AcDbCircle
 10
120.609278
 20
196.0010179999999
 30
0.0
 40
1.5
100
AcDbArc
 50
270.00002
 51
325.48159
  0
ARC
  5
9D2B
330
9CA7
100
AcDbEntity
  8
1
  6
Continuous
100
AcDbCircle
 10
117.783179
 20
193.90102
 30
0.0
 40
4.25
100
AcDbArc
 50
17.104634
 51
72.895365
  0
ARC
  5
9D2C
330
9CA7
100
AcDbEntity
  8
1
  6
Continuous
100
AcDbCircle
 10
119.8831769999999
 20
196.7271189999999
 30
0.0
 40
1.5
100
AcDbArc
 50
124.51821
 51
179.9999599999999
  0
ARC
  5
9D2D
330
9CA7
100
AcDbEntity
  8
1
  6
Continuous
100
AcDbCircle
 10
115.683181
 20
196.7271189999999
 30
0.0
 40
1.5
100
AcDbArc
 50
0.000014
 51
55.481586
  0
ARC
  5
9D2E
330
9CA7
100
AcDbEntity
  8
1
  6
Continuous
100
AcDbCircle
 10
117.783179
 20
193.90102
 30
0.0
 40
4.25
100
AcDbArc
 50
107.10463
 51
162.8953699999998
  0
ARC
  5
9D2F
330
9CA7
100
AcDbEntity
  8
1
  6
Continuous
100
AcDbCircle
 10
114.95708
 20
196.0010179999999
 30
0.0
 40
1.5
100
AcDbArc
 50
214.51823
 51
269.9999599999998
  0
ARC
  5
9D30
330
9CA7
100
AcDbEntity
  8
1
  6
Continuous
100
AcDbCircle
 10
114.95708
 20
191.801022
 30
0.0
 40
1.5
100
AcDbArc
 50
90.00000900000001
 51
145.48158
  0
ARC
  5
9D31
330
9CA7
100
AcDbEntity
  8
1
  6
Continuous
100
AcDbCircle
 10
117.783179
 20
193.90102
 30
0.0
 40
4.25
100
AcDbArc
 50
197.1046499999999
 51
252.89537
  0
ARC
  5
9D32
330
9CA7
100
AcDbEntity
  8
1
  6
Continuous
100
AcDbCircle
 10
115.683181
 20
191.0749209999999
 30
0.0
 40
1.5
100
AcDbArc
 50
304.5182199999998
 51
359.9999599999999
  0
ARC
  5
9D33
330
9CA7
100
AcDbEntity
  8
1
  6
Continuous
100
AcDbCircle
 10
108.783179
 20
118.9010219999999
 30
0.0
 40
4.5
100
AcDbArc
 50
178.04168
 51
323.68144
  0
ARC
  5
9D34
330
9CA7
100
AcDbEntity
  8
1
  6
Continuous
100
AcDbCircle
 10
107.283179
 20
134.9010219999997
 30
0.0
 40
2.0
100
AcDbArc
 50
89.99998199999996
 51
137.26719
  0
ARC
  5
9D35
330
9CA7
100
AcDbEntity
  8
1
  6
Continuous
100
AcDbCircle
 10
125.883177
 20
129.5010199999999
 30
0.0
 40
3.0
100
AcDbArc
 50
89.99998199999996
 51
143.68148
  0
ARC
  5
9D36
330
9CA7
100
AcDbEntity
  8
1
  6
Continuous
100
AcDbCircle
 10
115.9061459999997
 20
127.0702229999999
 30
0.0
 40
7.0
100
AcDbArc
 50
216.55541
 51
264.6232299999999
  0
CIRCLE
  5
9D37
330
9CA7
100
AcDbEntity
  8
1
  6
Continuous
100
AcDbCircle
 10
108.783179
 20
118.9010219999999
 30
0.0
 40
3.0
  0
ARC
  5
9D38
330
9CA7
100
AcDbEntity
  8
1
  6
Continuous
100
AcDbCircle
 10
32.48317999999999
 20
139.201021
 30
0.0
 40
1.7
100
AcDbArc
 50
210.6469299999999
 51
270.00002
  0
ARC
  5
9D39
330
9CA7
100
AcDbEntity
  8
1
  6
Continuous
100
AcDbCircle
 10
55.083178
 20
139.2010169999997
 30
0.0
 40
1.7
100
AcDbArc
 50
270.00002
 51
329.3530799999998
  0
ARC
  5
9D3A
330
9CA7
100
AcDbEntity
  8
1
  6
Continuous
100
AcDbCircle
 10
51.633177
 20
137.8855199999997
 30
0.0
 40
1.984499999999996
100
AcDbArc
 50
330.2580999999999
 51
348.82816
  0
ARC
  5
9D3B
330
9CA7
100
AcDbEntity
  8
1
  6
Continuous
100
AcDbCircle
 10
50.483554
 20
137.8855199999997
 30
0.0
 40
1.984499999999996
100
AcDbArc
 50
330.2580999999999
 51
348.82816
  0
ARC
  5
9D3C
330
9CA7
100
AcDbEntity
  8
1
  6
Continuous
100
AcDbCircle
 10
47.62483099999999
 20
137.8855199999997
 30
0.0
 40
1.984499999999996
100
AcDbArc
 50
191.17182
 51
209.7418799999999
  0
ARC
  5
9D3D
330
9CA7
100
AcDbEntity
  8
1
  6
Continuous
100
AcDbCircle
 10
43.78317899999998
 20
137.8855199999997
 30
0.0
 40
1.984499999999996
100
AcDbArc
 50
191.17182
 51
209.7418799999999
  0
ARC
  5
9D3E
330
9CA7
100
AcDbEntity
  8
1
  6
Continuous
100
AcDbCircle
 10
35.93318099999999
 20
137.8855199999997
 30
0.0
 40
1.984499999999996
100
AcDbArc
 50
191.17182
 51
209.7418799999999
  0
ARC
  5
9D3F
330
9CA7
100
AcDbEntity
  8
1
  6
Continuous
100
AcDbCircle
 10
37.08280399999999
 20
137.8855199999997
 30
0.0
 40
1.984499999999996
100
AcDbArc
 50
191.17182
 51
209.7418799999999
  0
ARC
  5
9D40
330
9CA7
100
AcDbEntity
  8
1
  6
Continuous
100
AcDbCircle
 10
39.941527
 20
137.8855199999997
 30
0.0
 40
1.984499999999996
100
AcDbArc
 50
191.17182
 51
209.7418799999999
  0
ARC
  5
9D41
330
9CA7
100
AcDbEntity
  8
1
  6
Continuous
100
AcDbCircle
 10
47.62483099999999
 20
137.8855199999997
 30
0.0
 40
1.984499999999996
100
AcDbArc
 50
330.2580999999999
 51
348.8281499999998
  0
ARC
  5
9D42
330
9CA7
100
AcDbEntity
  8
1
  6
Continuous
100
AcDbCircle
 10
43.78317899999998
 20
137.8855199999997
 30
0.0
 40
1.984499999999996
100
AcDbArc
 50
330.2580999999999
 51
348.8281499999998
  0
ARC
  5
9D43
330
9CA7
100
AcDbEntity
  8
1
  6
Continuous
100
AcDbCircle
 10
39.941527
 20
137.8855199999997
 30
0.0
 40
1.984499999999996
100
AcDbArc
 50
330.2580999999999
 51
348.82816
  0
ARC
  5
9D44
330
9CA7
100
AcDbEntity
  8
1
  6
Continuous
100
AcDbCircle
 10
117.783179
 20
137.8855199999997
 30
0.0
 40
1.984499999999996
100
AcDbArc
 50
330.2580999999999
 51
348.8281499999998
  0
ARC
  5
9D45
330
9CA7
100
AcDbEntity
  8
1
  6
Continuous
100
AcDbCircle
 10
113.9415269999999
 20
137.8855199999997
 30
0.0
 40
1.984499999999996
100
AcDbArc
 50
330.2580999999999
 51
348.82816
  0
ARC
  5
9D46
330
9CA7
100
AcDbEntity
  8
1
  6
Continuous
100
AcDbCircle
 10
106.48318
 20
139.201021
 30
0.0
 40
1.7
100
AcDbArc
 50
210.6469299999999
 51
270.00002
  0
ARC
  5
9D47
330
9CA7
100
AcDbEntity
  8
1
  6
Continuous
100
AcDbCircle
 10
129.0831779999997
 20
139.2010169999997
 30
0.0
 40
1.7
100
AcDbArc
 50
270.00002
 51
329.3530799999998
  0
ARC
  5
9D48
330
9CA7
100
AcDbEntity
  8
1
  6
Continuous
100
AcDbCircle
 10
125.633177
 20
137.8855199999997
 30
0.0
 40
1.984499999999996
100
AcDbArc
 50
330.2580999999999
 51
348.82816
  0
ARC
  5
9D49
330
9CA7
100
AcDbEntity
  8
1
  6
Continuous
100
AcDbCircle
 10
124.4835539999999
 20
137.8855199999997
 30
0.0
 40
1.984499999999996
100
AcDbArc
 50
330.2580999999999
 51
348.82816
  0
ARC
  5
9D4A
330
9CA7
100
AcDbEntity
  8
1
  6
Continuous
100
AcDbCircle
 10
121.624831
 20
137.8855199999997
 30
0.0
 40
1.984499999999996
100
AcDbArc
 50
191.17182
 51
209.7418799999999
  0
ARC
  5
9D4B
330
9CA7
100
AcDbEntity
  8
1
  6
Continuous
100
AcDbCircle
 10
117.783179
 20
137.8855199999997
 30
0.0
 40
1.984499999999996
100
AcDbArc
 50
191.17182
 51
209.7418799999999
  0
ARC
  5
9D4C
330
9CA7
100
AcDbEntity
  8
1
  6
Continuous
100
AcDbCircle
 10
109.933181
 20
137.8855199999997
 30
0.0
 40
1.984499999999996
100
AcDbArc
 50
191.17182
 51
209.7418799999999
  0
ARC
  5
9D4D
330
9CA7
100
AcDbEntity
  8
1
  6
Continuous
100
AcDbCircle
 10
111.082804
 20
137.8855199999997
 30
0.0
 40
1.984499999999996
100
AcDbArc
 50
191.17182
 51
209.7418799999999
  0
ARC
  5
9D4E
330
9CA7
100
AcDbEntity
  8
1
  6
Continuous
100
AcDbCircle
 10
113.9415269999999
 20
137.8855199999997
 30
0.0
 40
1.984499999999996
100
AcDbArc
 50
191.17182
 51
209.7418799999999
  0
ARC
  5
9D4F
330
9CA7
100
AcDbEntity
  8
1
  6
Continuous
100
AcDbCircle
 10
121.624831
 20
137.8855199999997
 30
0.0
 40
1.984499999999996
100
AcDbArc
 50
330.2580999999999
 51
348.8281499999998
  0
ARC
  5
9D50
330
9CA7
100
AcDbEntity
  8
1
  6
Continuous
100
AcDbCircle
 10
33.583182
 20
134.9010219999997
 30
0.0
 40
2.0
100
AcDbArc
 50
89.99998199999996
 51
179.9999599999999
  0
ARC
  5
9D51
330
9CA7
100
AcDbEntity
  8
1
  6
Continuous
100
AcDbCircle
 10
43.7741
 20
147.0010179999998
 30
0.0
 40
15.0
100
AcDbArc
 50
243.2951299999999
 51
296.704922
  0
ARC
  5
9D52
330
9CA7
100
AcDbEntity
  8
1
  6
Continuous
100
AcDbCircle
 10
36.582645
 20
133.104141
 30
0.0
 40
1.5
100
AcDbArc
 50
84.18794699999997
 51
178.47235
  0
ARC
  5
9D53
330
9CA7
100
AcDbEntity
  8
1
  6
Continuous
100
AcDbCircle
 10
35.03317899999998
 20
123.542147
 30
0.0
 40
3.45
100
AcDbArc
 50
179.9999799999999
 51
248.2867999999998
  0
ARC
  5
9D54
330
9CA7
100
AcDbEntity
  8
1
  6
Continuous
100
AcDbCircle
 10
53.98317999999999
 20
134.9010219999997
 30
0.0
 40
2.0
100
AcDbArc
 50
0.0
 51
89.99998199999996
  0
ARC
  5
9D55
330
9CA7
100
AcDbEntity
  8
1
  6
Continuous
100
AcDbCircle
 10
52.533183
 20
123.542147
 30
0.0
 40
3.45
100
AcDbArc
 50
294.3615699999998
 51
0.000014
  0
CIRCLE
  5
9D56
330
9CA7
100
AcDbEntity
  8
1
  6
Continuous
100
AcDbCircle
 10
108.783179
 20
118.9010219999999
 30
0.0
 40
1.25
  0
ARC
  5
9D57
330
9CA7
100
AcDbEntity
  8
1
  6
Continuous
100
AcDbCircle
 10
50.943587
 20
118.8969379999999
 30
0.0
 40
3.366532999999998
100
AcDbArc
 50
297.1377899999998
 51
338.43532
  0
ARC
  5
9D58
330
9CA7
100
AcDbEntity
  8
1
  6
Continuous
100
AcDbCircle
 10
50.943587
 20
118.8969379999999
 30
0.0
 40
3.366532999999998
100
AcDbArc
 50
21.870985
 51
63.168499
  0
ARC
  5
9D59
330
9CA7
100
AcDbEntity
  8
1
  6
Continuous
100
AcDbCircle
 10
40.19730599999999
 20
118.884977
 30
0.0
 40
6.602128999999997
100
AcDbArc
 50
157.1639899999999
 51
202.52161
  0
ARC
  5
9D5A
330
9CA7
100
AcDbEntity
  8
1
  6
Continuous
100
AcDbCircle
 10
34.296981
 20
121.369612
 30
0.0
 40
0.2
100
AcDbArc
 50
60.909838
 51
157.16369
  0
ARC
  5
9D5B
330
9CA7
100
AcDbEntity
  8
1
  6
Continuous
100
AcDbCircle
 10
34.28343499999999
 20
116.432754
 30
0.0
 40
0.2
100
AcDbArc
 50
202.52183
 51
299.01873
  0
LINE
  5
9D5C
330
9CA7
100
AcDbEntity
  8
1
  6
Continuous
100
AcDbLine
 10
35.08317799999999
 20
114.4010199999997
 30
0.0
 11
35.08317799999999
 21
133.1441299999999
 31
0.0
  0
LINE
  5
9D5D
330
9CA7
100
AcDbEntity
  8
1
  6
Continuous
100
AcDbLine
 10
36.28317899999997
 20
114.4010199999997
 30
0.0
 11
36.28317899999997
 21
133.171496
 31
0.0
  0
ARC
  5
9D5E
330
9CA7
100
AcDbEntity
  8
1
  6
Continuous
100
AcDbCircle
 10
36.78316699999999
 20
133.168012
 30
0.0
 40
0.5
100
AcDbArc
 50
60.000393
 51
180.399234
  0
LINE
  5
9D5F
330
9CA7
100
AcDbEntity
  8
1
  6
Continuous
100
AcDbLine
 10
52.48318000000001
 20
114.4010199999997
 30
0.0
 11
52.48318000000001
 21
133.1441299999999
 31
0.0
  0
LINE
  5
9D60
330
9CA7
100
AcDbEntity
  8
1
  6
Continuous
100
AcDbLine
 10
51.28317899999998
 20
114.4010199999997
 30
0.0
 11
51.28317899999998
 21
133.171496
 31
0.0
  0
ARC
  5
9D61
330
9CA7
100
AcDbEntity
  8
1
  6
Continuous
100
AcDbCircle
 10
50.783192
 20
133.168012
 30
0.0
 40
0.5
100
AcDbArc
 50
359.600766
 51
119.999607
  0
ARC
  5
9D62
330
9CA7
100
AcDbEntity
  8
1
  6
Continuous
100
AcDbCircle
 10
50.983714
 20
133.104141
 30
0.0
 40
1.5
100
AcDbArc
 50
1.527649999999999
 51
95.81205300000002
  0
LINE
  5
9D63
330
9CA7
100
AcDbEntity
  8
4
  6
CENTER
 48
0.5
100
AcDbLine
 10
91.28318099999999
 20
53.90101999999998
 30
0.0
 11
138.525527
 21
53.90101999999998
 31
0.0
  0
LINE
  5
9D64
330
9CA7
100
AcDbEntity
  8
1
  6
Continuous
100
AcDbLine
 10
103.783179
 20
68.90101999999997
 30
0.0
 11
131.7831789999999
 21
68.90101999999997
 31
0.0
  0
LINE
  5
9D65
330
9CA7
100
AcDbEntity
  8
1
  6
Continuous
100
AcDbLine
 10
103.783179
 20
38.90102
 30
0.0
 11
131.7831789999999
 21
38.90102
 31
0.0
  0
ARC
  5
9D66
330
9CA7
100
AcDbEntity
  8
1
  6
Continuous
100
AcDbCircle
 10
67.04083100000001
 20
53.90101999999998
 30
0.0
 40
35.0
100
AcDbArc
 50
342.6203839999999
 51
350.12911
  0
CIRCLE
  5
9D67
330
9CA7
100
AcDbEntity
  8
1
  6
Continuous
100
AcDbCircle
 10
103.783179
 20
65.40101999999999
 30
0.0
 40
2.1
  0
ARC
  5
9D68
330
9CA7
100
AcDbEntity
  8
1
  6
Continuous
100
AcDbCircle
 10
103.783179
 20
65.40101999999999
 30
0.0
 40
3.5
100
AcDbArc
 50
90.00004999999999
 51
197.3796
  0
LINE
  5
9D69
330
9CA7
100
AcDbEntity
  8
4
  6
CENTER
 48
0.5
100
AcDbLine
 10
100.783179
 20
65.40101999999999
 30
0.0
 11
106.783179
 21
65.40101999999999
 31
0.0
  0
LINE
  5
9D6A
330
9CA7
100
AcDbEntity
  8
4
  6
CENTER
 48
0.5
100
AcDbLine
 10
103.783179
 20
68.40101999999999
 30
0.0
 11
103.783179
 21
62.40102
 31
0.0
  0
CIRCLE
  5
9D6B
330
9CA7
100
AcDbEntity
  8
1
  6
Continuous
100
AcDbCircle
 10
103.783179
 20
42.40102
 30
0.0
 40
2.1
  0
ARC
  5
9D6C
330
9CA7
100
AcDbEntity
  8
1
  6
Continuous
100
AcDbCircle
 10
103.783179
 20
42.40102
 30
0.0
 40
3.5
100
AcDbArc
 50
162.6204099999999
 51
270.0000179999999
  0
LINE
  5
9D6D
330
9CA7
100
AcDbEntity
  8
4
  6
CENTER
 48
0.5
100
AcDbLine
 10
100.783179
 20
42.40102
 30
0.0
 11
106.783179
 21
42.40102
 31
0.0
  0
LINE
  5
9D6E
330
9CA7
100
AcDbEntity
  8
4
  6
CENTER
 48
0.5
100
AcDbLine
 10
103.783179
 20
39.40102
 30
0.0
 11
103.783179
 21
45.40102
 31
0.0
  0
LINE
  5
9D6F
330
9CA7
100
AcDbEntity
  8
4
  6
CENTER
 48
0.5
100
AcDbLine
 10
117.783179
 20
33.90102000000001
 30
0.0
 11
117.783179
 21
73.90101999999997
 31
0.0
  0
ARC
  5
9D70
330
9CA7
100
AcDbEntity
  8
1
  6
Continuous
100
AcDbCircle
 10
168.525527
 20
53.90101999999998
 30
0.0
 40
35.0
100
AcDbArc
 50
162.6204099999999
 51
197.3796
  0
CIRCLE
  5
9D71
330
9CA7
100
AcDbEntity
  8
1
  6
Continuous
100
AcDbCircle
 10
131.7831789999999
 20
65.40101999999999
 30
0.0
 40
2.1
  0
ARC
  5
9D72
330
9CA7
100
AcDbEntity
  8
1
  6
Continuous
100
AcDbCircle
 10
131.7831789999999
 20
65.40101999999999
 30
0.0
 40
3.5
100
AcDbArc
 50
342.620379
 51
90.00004000000002
  0
LINE
  5
9D73
330
9CA7
100
AcDbEntity
  8
4
  6
CENTER
 48
0.5
100
AcDbLine
 10
134.7831789999997
 20
65.40101999999999
 30
0.0
 11
128.783179
 21
65.40101999999999
 31
0.0
  0
LINE
  5
9D74
330
9CA7
100
AcDbEntity
  8
4
  6
CENTER
 48
0.5
100
AcDbLine
 10
131.7831789999999
 20
68.40101999999999
 30
0.0
 11
131.7831789999999
 21
62.40102
 31
0.0
  0
CIRCLE
  5
9D75
330
9CA7
100
AcDbEntity
  8
1
  6
Continuous
100
AcDbCircle
 10
131.7831789999999
 20
42.40102
 30
0.0
 40
2.1
  0
ARC
  5
9D76
330
9CA7
100
AcDbEntity
  8
1
  6
Continuous
100
AcDbCircle
 10
131.7831789999999
 20
42.40102
 30
0.0
 40
3.5
100
AcDbArc
 50
270.0000179999999
 51
17.37962
  0
LINE
  5
9D77
330
9CA7
100
AcDbEntity
  8
4
  6
CENTER
 48
0.5
100
AcDbLine
 10
134.7831789999997
 20
42.40102
 30
0.0
 11
128.783179
 21
42.40102
 31
0.0
  0
LINE
  5
9D78
330
9CA7
100
AcDbEntity
  8
4
  6
CENTER
 48
0.5
100
AcDbLine
 10
131.7831789999999
 20
39.40102
 30
0.0
 11
131.7831789999999
 21
45.40102
 31
0.0
  0
LINE
  5
9D79
330
9CA7
100
AcDbEntity
  8
4
  6
CENTER
 48
0.5
100
AcDbLine
 10
108.783179
 20
35.90102
 30
0.0
 11
108.783179
 21
71.90101999999997
 31
0.0
  0
LINE
  5
9D7A
330
9CA7
100
AcDbEntity
  8
1
  6
Continuous
100
AcDbLine
 10
113.6502139999999
 20
46.40102
 30
0.0
 11
104.283179
 21
46.40102
 31
0.0
  0
LINE
  5
9D7B
330
9CA7
100
AcDbEntity
  8
1
  6
Continuous
100
AcDbLine
 10
114.2502139999999
 20
45.201019
 30
0.0
 11
104.283179
 21
45.201019
 31
0.0
  0
ARC
  5
9D7C
330
9CA7
100
AcDbEntity
  8
1
  6
Continuous
100
AcDbCircle
 10
108.7992239999999
 20
50.31514699999998
 30
0.0
 40
6.602128999999997
100
AcDbArc
 50
247.16399
 51
292.52161
  0
LINE
  5
9D7D
330
9CA7
100
AcDbEntity
  8
1
  6
Continuous
100
AcDbLine
 10
111.427277
 20
44.30597699999998
 30
0.0
 11
106.138434
 21
44.32011399999999
 31
0.0
  0
LINE
  5
9D7E
330
9CA7
100
AcDbEntity
  8
1
  6
Continuous
100
AcDbLine
 10
111.0331809999999
 20
46.407017
 30
0.0
 11
111.0331809999999
 21
46.90102
 31
0.0
  0
LINE
  5
9D7F
330
9CA7
100
AcDbEntity
  8
1
  6
Continuous
100
AcDbLine
 10
111.0331809999999
 20
45.20703499999998
 30
0.0
 11
111.4263389999997
 21
44.49829499999998
 31
0.0
  0
ARC
  5
9D80
330
9CA7
100
AcDbEntity
  8
1
  6
Continuous
100
AcDbCircle
 10
111.251447
 20
44.401276
 30
0.0
 40
0.2
100
AcDbArc
 50
292.5218299999999
 51
29.01873
  0
LINE
  5
9D81
330
9CA7
100
AcDbEntity
  8
1
  6
Continuous
100
AcDbLine
 10
106.533179
 20
46.40102
 30
0.0
 11
106.533179
 21
46.90102
 31
0.0
  0
LINE
  5
9D82
330
9CA7
100
AcDbEntity
  8
1
  6
Continuous
100
AcDbLine
 10
106.1398189999999
 20
44.512062
 30
0.0
 11
106.533177
 21
45.219059
 31
0.0
  0
ARC
  5
9D83
330
9CA7
100
AcDbEntity
  8
1
  6
Continuous
100
AcDbCircle
 10
106.3145889999999
 20
44.41482199999999
 30
0.0
 40
0.2
100
AcDbArc
 50
150.9098379999998
 51
247.16369
  0
ARC
  5
9D84
330
9CA7
100
AcDbEntity
  8
1
  6
Continuous
100
AcDbCircle
 10
108.7872629999999
 20
61.061428
 30
0.0
 40
3.366532999999998
100
AcDbArc
 50
111.8709849999999
 51
152.785502
  0
LINE
  5
9D85
330
9CA7
100
AcDbEntity
  8
1
  6
Continuous
100
AcDbLine
 10
114.2502139999999
 20
62.60102100000001
 30
0.0
 11
104.283179
 21
62.60102100000001
 31
0.0
  0
LINE
  5
9D86
330
9CA7
100
AcDbEntity
  8
1
  6
Continuous
100
AcDbLine
 10
113.6502139999999
 20
61.40101999999998
 30
0.0
 11
104.283179
 21
61.40101999999998
 31
0.0
  0
ARC
  5
9D87
330
9CA7
100
AcDbEntity
  8
1
  6
Continuous
100
AcDbCircle
 10
108.7872629999999
 20
61.061428
 30
0.0
 40
3.366532999999998
100
AcDbArc
 50
27.214498
 51
68.43531999999999
  0
LINE
  5
9D88
330
9CA7
100
AcDbEntity
  8
1
  6
Continuous
100
AcDbLine
 10
111.0331809999999
 20
60.90101999999999
 30
0.0
 11
111.0331809999999
 21
61.40101999999998
 31
0.0
  0
LINE
  5
9D89
330
9CA7
100
AcDbEntity
  8
1
  6
Continuous
100
AcDbLine
 10
110.0331809999999
 20
64.192341
 30
0.0
 11
107.533177
 21
64.18565699999999
 31
0.0
  0
LINE
  5
9D8A
330
9CA7
100
AcDbEntity
  8
1
  6
Continuous
100
AcDbLine
 10
106.533179
 20
60.90101999999999
 30
0.0
 11
106.533179
 21
61.40101999999998
 31
0.0
  0
LINE
  5
9D8B
330
9CA7
100
AcDbEntity
  8
1
  6
Continuous
100
AcDbLine
 10
104.283179
 20
62.60102100000001
 30
0.0
 11
104.283179
 21
61.40101999999998
 31
0.0
  0
ARC
  5
9D8C
330
9CA7
100
AcDbEntity
  8
1
  6
Continuous
100
AcDbCircle
 10
67.04083100000001
 20
53.90101999999998
 30
0.0
 40
35.0
100
AcDbArc
 50
9.870889999999999
 51
17.37962
  0
LINE
  5
9D8D
330
9CA7
100
AcDbEntity
  8
1
  6
Continuous
100
AcDbLine
 10
104.283179
 20
46.40102
 30
0.0
 11
104.283179
 21
45.201019
 31
0.0
  0
ARC
  5
9D8E
330
9CA7
100
AcDbEntity
  8
1
  6
Continuous
100
AcDbCircle
 10
117.783179
 20
53.90101999999998
 30
0.0
 40
13.74999599999999
100
AcDbArc
 50
227.781365
 51
131.5659099999997
  0
ARC
  5
9D8F
330
9CA7
100
AcDbEntity
  8
1
  6
Continuous
100
AcDbCircle
 10
117.783179
 20
53.90101999999998
 30
0.0
 40
9.799998
100
AcDbArc
 50
260.162995
 51
99.83700500000002
  0
ARC
  5
9D90
330
9CA7
100
AcDbEntity
  8
1
  6
Continuous
100
AcDbCircle
 10
117.783179
 20
53.90101999999998
 30
0.0
 40
5.0
100
AcDbArc
 50
309.8438629999999
 51
50.156137
  0
LINE
  5
9D91
330
9CA7
100
AcDbEntity
  8
4
  6
CENTER
 48
0.5
100
AcDbLine
 10
108.783179
 20
211.9010199999999
 30
0.0
 11
108.783179
 21
175.9010199999999
 31
0.0
  0
LINE
  5
9D92
330
9CA7
100
AcDbEntity
  8
4
  6
CENTER
 48
0.5
100
AcDbLine
 10
199.2831789999999
 20
144.4010199999998
 30
0.0
 11
199.2831789999999
 21
137.0010179999999
 31
0.0
  0
LINE
  5
9D93
330
9CA7
100
AcDbEntity
  8
4
  6
CENTER
 48
0.5
100
AcDbLine
 10
176.2831789999999
 20
144.4010199999998
 30
0.0
 11
176.2831789999999
 21
137.0010179999999
 31
0.0
  0
LINE
  5
9D94
330
9CA7
100
AcDbEntity
  8
4
  6
CENTER
 48
0.5
100
AcDbLine
 10
187.7831789999999
 20
146.4010199999998
 30
0.0
 11
187.7831789999999
 21
101.401022
 31
0.0
  0
LINE
  5
9D95
330
9CA7
100
AcDbEntity
  8
1
  6
Continuous
100
AcDbLine
 10
201.533175
 20
140.0010189999997
 30
0.0
 11
200.545726
 21
138.334451
 31
0.0
  0
LINE
  5
9D96
330
9CA7
100
AcDbEntity
  8
1
  6
Continuous
100
AcDbLine
 10
174.033183
 20
140.0010189999997
 30
0.0
 11
175.020629
 21
138.334452
 31
0.0
  0
LINE
  5
9D97
330
9CA7
100
AcDbEntity
  8
4
  6
CENTER
 48
0.5
100
AcDbLine
 10
202.97117
 20
118.9010219999999
 30
0.0
 11
172.495183
 21
118.9010219999999
 31
0.0
  0
ARC
  5
9D98
330
9CA7
100
AcDbEntity
  8
1
  6
Continuous
100
AcDbCircle
 10
197.9831759999999
 20
134.9010219999997
 30
0.0
 40
2.0
100
AcDbArc
 50
0.00004
 51
90.00001800000005
  0
ARC
  5
9D99
330
9CA7
100
AcDbEntity
  8
1
  6
Continuous
100
AcDbCircle
 10
199.083178
 20
139.201021
 30
0.0
 40
1.7
100
AcDbArc
 50
269.99998
 51
329.35307
  0
LINE
  5
9D9A
330
9CA7
100
AcDbEntity
  8
1
  6
Continuous
100
AcDbLine
 10
199.983176
 20
134.9010219999997
 30
0.0
 11
199.983176
 21
123.542147
 31
0.0
  0
LINE
  5
9D9B
330
9CA7
100
AcDbEntity
  8
1
  6
Continuous
100
AcDbLine
 10
180.2831789999999
 20
114.4010199999997
 30
0.0
 11
180.2831789999999
 21
132.5010199999999
 31
0.0
  0
LINE
  5
9D9C
330
9CA7
100
AcDbEntity
  8
1
  6
Continuous
100
AcDbLine
 10
196.4831799999998
 20
114.4010199999997
 30
0.0
 11
196.4831799999998
 21
119.2135399999999
 31
0.0
  0
LINE
  5
9D9D
330
9CA7
100
AcDbEntity
  8
1
  6
Continuous
100
AcDbLine
 10
195.2831789999999
 20
114.4010199999997
 30
0.0
 11
195.2831789999999
 21
132.5010199999999
 31
0.0
  0
ARC
  5
9D9E
330
9CA7
100
AcDbEntity
  8
1
  6
Continuous
100
AcDbCircle
 10
191.369052
 20
118.884977
 30
0.0
 40
6.602128999999997
100
AcDbArc
 50
337.47839
 51
12.70447899999999
  0
ARC
  5
9D9F
330
9CA7
100
AcDbEntity
  8
1
  6
Continuous
100
AcDbCircle
 10
180.6227709999998
 20
118.8969379999999
 30
0.0
 40
3.366532999999998
100
AcDbArc
 50
201.56468
 51
242.86221
  0
LINE
  5
9DA0
330
9CA7
100
AcDbEntity
  8
1
  6
Continuous
100
AcDbLine
 10
197.378222
 20
116.256924
 30
0.0
 11
197.3676969999999
 21
120.194598
 31
0.0
  0
ARC
  5
9DA1
330
9CA7
100
AcDbEntity
  8
1
  6
Continuous
100
AcDbCircle
 10
197.282923
 20
116.432754
 30
0.0
 40
0.2
100
AcDbArc
 50
240.9812699999999
 51
337.4781699999998
  0
LINE
  5
9DA2
330
9CA7
100
AcDbEntity
  8
1
  6
Continuous
100
AcDbLine
 10
196.4831799999998
 20
116.6476819999999
 30
0.0
 11
197.185904
 21
116.257862
 31
0.0
  0
LINE
  5
9DA3
330
9CA7
100
AcDbEntity
  8
1
  6
Continuous
100
AcDbLine
 10
196.4831799999998
 20
114.4010199999997
 30
0.0
 11
195.2831789999999
 21
114.4010199999997
 31
0.0
  0
LINE
  5
9DA4
330
9CA7
100
AcDbEntity
  8
1
  6
Continuous
100
AcDbLine
 10
195.277182
 20
116.6510199999999
 30
0.0
 11
194.783179
 21
116.6510199999999
 31
0.0
  0
LINE
  5
9DA5
330
9CA7
100
AcDbEntity
  8
1
  6
Continuous
100
AcDbLine
 10
180.7831789999999
 20
116.6510199999999
 30
0.0
 11
180.2831789999999
 21
116.6510199999999
 31
0.0
  0
LINE
  5
9DA6
330
9CA7
100
AcDbEntity
  8
1
  6
Continuous
100
AcDbLine
 10
180.2831789999999
 20
114.4010199999997
 30
0.0
 11
179.0831779999997
 21
114.4010199999997
 31
0.0
  0
LINE
  5
9DA7
330
9CA7
100
AcDbEntity
  8
1
  6
Continuous
100
AcDbLine
 10
197.9831759999999
 20
136.9010219999997
 30
0.0
 11
177.583178
 21
136.9010219999997
 31
0.0
  0
LINE
  5
9DA8
330
9CA7
100
AcDbEntity
  8
1
  6
Continuous
100
AcDbLine
 10
176.4813359999999
 20
137.5010179999997
 30
0.0
 11
199.083182
 21
137.5010179999997
 31
0.0
  0
ARC
  5
9DA9
330
9CA7
100
AcDbEntity
  8
1
  6
Continuous
100
AcDbCircle
 10
187.792258
 20
147.0010179999998
 30
0.0
 40
15.0
100
AcDbArc
 50
255.164866
 51
284.8351339999998
  0
ARC
  5
9DAA
330
9CA7
100
AcDbEntity
  8
1
  6
Continuous
100
AcDbCircle
 10
191.624831
 20
137.8855199999997
 30
0.0
 40
1.984499999999996
100
AcDbArc
 50
191.1718399999998
 51
209.7418999999999
  0
ARC
  5
9DAB
330
9CA7
100
AcDbEntity
  8
1
  6
Continuous
100
AcDbCircle
 10
187.7831789999999
 20
137.8855199999997
 30
0.0
 40
1.984499999999996
100
AcDbArc
 50
191.1718499999999
 51
209.7418999999999
  0
ARC
  5
9DAC
330
9CA7
100
AcDbEntity
  8
1
  6
Continuous
100
AcDbCircle
 10
191.624831
 20
137.8855199999997
 30
0.0
 40
1.984499999999996
100
AcDbArc
 50
330.25812
 51
348.8281799999999
  0
ARC
  5
9DAD
330
9CA7
100
AcDbEntity
  8
1
  6
Continuous
100
AcDbCircle
 10
194.4835539999999
 20
137.8855199999997
 30
0.0
 40
1.984499999999996
100
AcDbArc
 50
330.25812
 51
348.8281799999999
  0
ARC
  5
9DAE
330
9CA7
100
AcDbEntity
  8
1
  6
Continuous
100
AcDbCircle
 10
195.633177
 20
137.8855199999997
 30
0.0
 40
1.984499999999996
100
AcDbArc
 50
330.25812
 51
348.8281799999999
  0
ARC
  5
9DAF
330
9CA7
100
AcDbEntity
  8
1
  6
Continuous
100
AcDbCircle
 10
187.7831789999999
 20
137.8855199999997
 30
0.0
 40
1.984499999999996
100
AcDbArc
 50
330.25812
 51
348.8281799999999
  0
ARC
  5
9DB0
330
9CA7
100
AcDbEntity
  8
1
  6
Continuous
100
AcDbCircle
 10
183.941527
 20
137.8855199999997
 30
0.0
 40
1.984499999999996
100
AcDbArc
 50
330.25812
 51
348.8281799999999
  0
LINE
  5
9DB1
330
9CA7
100
AcDbEntity
  8
1
  6
Continuous
100
AcDbLine
 10
195.2831789999999
 20
121.151022
 30
0.0
 11
194.783179
 21
121.151022
 31
0.0
  0
ARC
  5
9DB2
330
9CA7
100
AcDbEntity
  8
1
  6
Continuous
100
AcDbCircle
 10
180.6227709999998
 20
118.8969379999999
 30
0.0
 40
3.366532999999998
100
AcDbArc
 50
153.4951129999998
 51
158.1290149999998
  0
ARC
  5
9DB3
330
9CA7
100
AcDbEntity
  8
1
  6
Continuous
100
AcDbCircle
 10
177.583178
 20
134.9010219999997
 30
0.0
 40
2.0
100
AcDbArc
 50
90.00001800000005
 51
180.0
  0
ARC
  5
9DB4
330
9CA7
100
AcDbEntity
  8
1
  6
Continuous
100
AcDbCircle
 10
183.941527
 20
137.8855199999997
 30
0.0
 40
1.984499999999996
100
AcDbArc
 50
191.1718499999999
 51
209.7418999999999
  0
ARC
  5
9DB5
330
9CA7
100
AcDbEntity
  8
1
  6
Continuous
100
AcDbCircle
 10
181.082804
 20
137.8855199999997
 30
0.0
 40
1.984499999999996
100
AcDbArc
 50
191.1718399999998
 51
209.7418999999999
  0
ARC
  5
9DB6
330
9CA7
100
AcDbEntity
  8
1
  6
Continuous
100
AcDbCircle
 10
179.9331809999999
 20
137.8855199999997
 30
0.0
 40
1.984499999999996
100
AcDbArc
 50
191.1718399999998
 51
209.7418999999999
  0
ARC
  5
9DB7
330
9CA7
100
AcDbEntity
  8
1
  6
Continuous
100
AcDbCircle
 10
176.48318
 20
139.2010169999997
 30
0.0
 40
1.7
100
AcDbArc
 50
210.64692
 51
269.99998
  0
LINE
  5
9DB8
330
9CA7
100
AcDbEntity
  8
1
  6
Continuous
100
AcDbLine
 10
180.7831789999999
 20
121.151022
 30
0.0
 11
180.2831789999999
 21
121.151022
 31
0.0
  0
LINE
  5
9DB9
330
9CA7
100
AcDbEntity
  8
1
  6
Continuous
100
AcDbLine
 10
177.491858
 20
117.6510199999997
 30
0.0
 11
177.4985419999999
 21
120.1510239999997
 31
0.0
  0
LINE
  5
9DBA
330
9CA7
100
AcDbEntity
  8
1
  6
Continuous
100
AcDbLine
 10
175.583178
 20
134.9010219999997
 30
0.0
 11
175.583178
 21
123.601022
 31
0.0
  0
LINE
  5
9DBB
330
9CA7
100
AcDbEntity
  8
1
  6
Continuous
100
AcDbLine
 10
172.7831789999999
 20
140.0010179999999
 30
0.0
 11
202.783179
 21
140.0010179999999
 31
0.0
  0
LINE
  5
9DBC
330
9CA7
100
AcDbEntity
  8
1
  6
Continuous
100
AcDbLine
 10
172.7831789999999
 20
141.4010199999998
 30
0.0
 11
202.783179
 21
141.4010199999998
 31
0.0
  0
LINE
  5
9DBD
330
9CA7
100
AcDbEntity
  8
1
  6
Continuous
100
AcDbLine
 10
202.783179
 20
141.4010199999998
 30
0.0
 11
202.783179
 21
140.0010179999999
 31
0.0
  0
LINE
  5
9DBE
330
9CA7
100
AcDbEntity
  8
1
  6
Continuous
100
AcDbLine
 10
172.7831789999999
 20
141.4010199999998
 30
0.0
 11
172.7831789999999
 21
140.0010179999999
 31
0.0
  0
LINE
  5
9DBF
330
9CA7
100
AcDbEntity
  8
1
  6
Continuous
100
AcDbLine
 10
178.223858
 20
132.5010199999999
 30
0.0
 11
197.3425009999999
 21
132.5010199999999
 31
0.0
  0
LINE
  5
9DC0
330
9CA7
100
AcDbEntity
  8
1
  6
Continuous
100
AcDbLine
 10
179.0831779999997
 20
114.4010199999997
 30
0.0
 11
179.0831779999997
 21
119.2135399999999
 31
0.0
  0
LINE
  5
9DC1
330
9CA7
100
AcDbEntity
  8
1
  6
Continuous
100
AcDbLine
 10
129.983179
 20
134.9010219999997
 30
0.0
 11
129.983179
 21
132.5010199999999
 31
0.0
  0
ARC
  5
9DC2
330
9CA7
100
AcDbEntity
  8
1
  6
Continuous
100
AcDbCircle
 10
127.983179
 20
134.9010219999997
 30
0.0
 40
2.0
100
AcDbArc
 50
0.0
 51
90.0
  0
ARC
  5
9DC3
330
9CA7
100
AcDbEntity
  8
1
  6
Continuous
100
AcDbCircle
 10
196.6845939999998
 20
123.5468959999999
 30
0.0
 40
21.10141399999998
100
AcDbArc
 50
156.69038
 51
180.021649
  0
ARC
  5
9DC4
330
9CA7
100
AcDbEntity
  8
1
  6
Continuous
100
AcDbCircle
 10
178.881765
 20
123.5468959999999
 30
0.0
 40
21.10141399999998
100
AcDbArc
 50
359.9783509999999
 51
23.30961999999999
  0
ARC
  5
9DC5
330
9CA7
100
AcDbEntity
  8
1
  6
Continuous
100
AcDbCircle
 10
178.881765
 20
123.5468959999999
 30
0.0
 40
19.90141399999998
100
AcDbArc
 50
359.9783509999999
 51
26.738808
  0
ARC
  5
9DC6
330
9CA7
100
AcDbEntity
  8
1
  6
Continuous
100
AcDbCircle
 10
196.6845939999998
 20
123.5468959999999
 30
0.0
 40
19.90141399999998
100
AcDbArc
 50
153.2611919999999
 51
180.021649
  0
LINE
  5
9DC7
330
9CA7
100
AcDbEntity
  8
1
  6
Continuous
100
AcDbLine
 10
268.283179
 20
136.9010219999997
 30
0.0
 11
247.5831789999999
 21
136.9010219999997
 31
0.0
  0
CIRCLE
  5
9DC8
330
9CA7
100
AcDbEntity
  8
1
  6
Continuous
100
AcDbCircle
 10
266.783179
 20
118.9010219999999
 30
0.0
 40
3.0
  0
ARC
  5
9DC9
330
9CA7
100
AcDbEntity
  8
1
  6
Continuous
100
AcDbCircle
 10
259.660212
 20
127.0702229999999
 30
0.0
 40
7.0
100
AcDbArc
 50
275.37677
 51
323.44459
  0
ARC
  5
9DCA
330
9CA7
100
AcDbEntity
  8
1
  6
Continuous
100
AcDbCircle
 10
266.783179
 20
118.9010219999999
 30
0.0
 40
4.5
100
AcDbArc
 50
216.3185599999999
 51
1.95832
  0
LINE
  5
9DCB
330
9CA7
100
AcDbEntity
  8
1
  6
Continuous
100
AcDbLine
 10
246.4813359999999
 20
137.5010179999997
 30
0.0
 11
269.0831799999999
 21
137.5010179999997
 31
0.0
  0
LINE
  5
9DCC
330
9CA7
100
AcDbEntity
  8
1
  6
Continuous
100
AcDbLine
 10
240.283179
 20
141.4010199999998
 30
0.0
 11
275.283179
 21
141.4010199999998
 31
0.0
  0
LINE
  5
9DCD
330
9CA7
100
AcDbEntity
  8
1
  6
Continuous
100
AcDbLine
 10
240.283179
 20
140.0010179999999
 30
0.0
 11
275.283179
 21
140.0010179999999
 31
0.0
  0
LINE
  5
9DCE
330
9CA7
100
AcDbEntity
  8
4
  6
CENTER
 48
0.5
100
AcDbLine
 10
284.283179
 20
118.9010219999999
 30
0.0
 11
249.2831789999999
 21
118.9010219999999
 31
0.0
  0
LINE
  5
9DCF
330
9CA7
100
AcDbEntity
  8
4
  6
CENTER
 48
0.5
100
AcDbLine
 10
266.783179
 20
134.102348
 30
0.0
 11
266.783179
 21
101.401022
 31
0.0
  0
ARC
  5
9DD0
330
9CA7
100
AcDbEntity
  8
1
  6
Continuous
100
AcDbCircle
 10
269.0831779999999
 20
139.201021
 30
0.0
 40
1.7
100
AcDbArc
 50
269.99998
 51
329.35307
  0
LINE
  5
9DD1
330
9CA7
100
AcDbEntity
  8
4
  6
CENTER
 48
0.5
100
AcDbLine
 10
271.783179
 20
137.0010179999999
 30
0.0
 11
271.783179
 21
144.4010199999998
 31
0.0
  0
ARC
  5
9DD2
330
9CA7
100
AcDbEntity
  8
1
  6
Continuous
100
AcDbCircle
 10
264.483554
 20
137.8855199999997
 30
0.0
 40
1.984499999999996
100
AcDbArc
 50
330.25812
 51
348.8281799999999
  0
ARC
  5
9DD3
330
9CA7
100
AcDbEntity
  8
1
  6
Continuous
100
AcDbCircle
 10
265.6331769999998
 20
137.8855199999997
 30
0.0
 40
1.984499999999996
100
AcDbArc
 50
330.25812
 51
348.8281799999999
  0
ARC
  5
9DD4
330
9CA7
100
AcDbEntity
  8
1
  6
Continuous
100
AcDbCircle
 10
268.283179
 20
134.9010219999997
 30
0.0
 40
2.0
100
AcDbArc
 50
42.73280999999999
 51
90.00001800000005
  0
LINE
  5
9DD5
330
9CA7
100
AcDbEntity
  8
1
  6
Continuous
100
AcDbLine
 10
271.283175
 20
134.6010159999997
 30
0.0
 11
269.7522269999999
 21
136.258182
 31
0.0
  0
LINE
  5
9DD6
330
9CA7
100
AcDbEntity
  8
1
  6
Continuous
100
AcDbLine
 10
270.783177
 20
133.601019
 30
0.0
 11
271.283177
 21
134.6010179999999
 31
0.0
  0
LINE
  5
9DD7
330
9CA7
100
AcDbEntity
  8
1
  6
Continuous
100
AcDbLine
 10
270.783177
 20
133.6010209999997
 30
0.0
 11
271.2805509999999
 21
119.0547959999999
 31
0.0
  0
LINE
  5
9DD8
330
9CA7
100
AcDbEntity
  8
1
  6
Continuous
100
AcDbLine
 10
267.0831779999999
 20
132.8986639999999
 30
0.0
 11
267.0831779999999
 21
122.913397
 31
0.0
  0
LINE
  5
9DD9
330
9CA7
100
AcDbEntity
  8
1
  6
Continuous
100
AcDbLine
 10
271.533181
 20
140.0010149999999
 30
0.0
 11
270.5457329999999
 21
138.3344469999999
 31
0.0
  0
LINE
  5
9DDA
330
9CA7
100
AcDbEntity
  8
1
  6
Continuous
100
AcDbLine
 10
275.283179
 20
140.001021
 30
0.0
 11
275.283179
 21
141.4010219999999
 31
0.0
  0
ARC
  5
9DDB
330
9CA7
100
AcDbEntity
  8
1
  6
Continuous
100
AcDbCircle
 10
246.4831799999998
 20
139.2010169999997
 30
0.0
 40
1.7
100
AcDbArc
 50
210.64692
 51
269.99998
  0
LINE
  5
9DDC
330
9CA7
100
AcDbEntity
  8
4
  6
CENTER
 48
0.5
100
AcDbLine
 10
243.783179
 20
137.0010179999999
 30
0.0
 11
243.783179
 21
144.4010199999998
 31
0.0
  0
LINE
  5
9DDD
330
9CA7
100
AcDbEntity
  8
4
  6
CENTER
 48
0.5
100
AcDbLine
 10
257.783179
 20
146.4010199999998
 30
0.0
 11
257.783179
 21
121.712791
 31
0.0
  0
LINE
  5
9DDE
330
9CA7
100
AcDbEntity
  8
1
  6
Continuous
100
AcDbLine
 10
249.6831809999999
 20
132.5010199999999
 30
0.0
 11
245.5831789999999
 21
132.5010199999999
 31
0.0
  0
LINE
  5
9DDF
330
9CA7
100
AcDbEntity
  8
1
  6
Continuous
100
AcDbLine
 10
263.1573629999999
 20
116.2357859999999
 30
0.0
 11
252.100387
 21
131.2778409999999
 31
0.0
  0
ARC
  5
9DE0
330
9CA7
100
AcDbEntity
  8
1
  6
Continuous
100
AcDbCircle
 10
253.941527
 20
137.8855199999997
 30
0.0
 40
1.984499999999996
100
AcDbArc
 50
191.1718499999999
 51
209.7418999999999
  0
ARC
  5
9DE1
330
9CA7
100
AcDbEntity
  8
1
  6
Continuous
100
AcDbCircle
 10
261.6248309999999
 20
137.8855199999997
 30
0.0
 40
1.984499999999996
100
AcDbArc
 50
330.25812
 51
348.8281799999999
  0
ARC
  5
9DE2
330
9CA7
100
AcDbEntity
  8
1
  6
Continuous
100
AcDbCircle
 10
257.783179
 20
137.8855199999997
 30
0.0
 40
1.984499999999996
100
AcDbArc
 50
330.25812
 51
348.8281799999999
  0
ARC
  5
9DE3
330
9CA7
100
AcDbEntity
  8
1
  6
Continuous
100
AcDbCircle
 10
253.941527
 20
137.8855199999997
 30
0.0
 40
1.984499999999996
100
AcDbArc
 50
330.25812
 51
348.8281799999999
  0
ARC
  5
9DE4
330
9CA7
100
AcDbEntity
  8
1
  6
Continuous
100
AcDbCircle
 10
251.082804
 20
137.8855199999997
 30
0.0
 40
1.984499999999996
100
AcDbArc
 50
191.1718399999998
 51
209.7418999999999
  0
ARC
  5
9DE5
330
9CA7
100
AcDbEntity
  8
1
  6
Continuous
100
AcDbCircle
 10
249.933181
 20
137.8855199999997
 30
0.0
 40
1.984499999999996
100
AcDbArc
 50
191.1718399999998
 51
209.7418999999999
  0
ARC
  5
9DE6
330
9CA7
100
AcDbEntity
  8
1
  6
Continuous
100
AcDbCircle
 10
261.6248309999999
 20
137.8855199999997
 30
0.0
 40
1.984499999999996
100
AcDbArc
 50
191.1718399999998
 51
209.7418999999999
  0
ARC
  5
9DE7
330
9CA7
100
AcDbEntity
  8
1
  6
Continuous
100
AcDbCircle
 10
257.783179
 20
137.8855199999997
 30
0.0
 40
1.984499999999996
100
AcDbArc
 50
191.1718499999999
 51
209.7418999999999
  0
ARC
  5
9DE8
330
9CA7
100
AcDbEntity
  8
1
  6
Continuous
100
AcDbCircle
 10
249.6831809999999
 20
129.5010199999999
 30
0.0
 40
3.0
100
AcDbArc
 50
36.31852
 51
90.00001800000005
  0
LINE
  5
9DE9
330
9CA7
100
AcDbEntity
  8
1
  6
Continuous
100
AcDbLine
 10
245.5831789999999
 20
134.9010219999997
 30
0.0
 11
245.5831789999999
 21
132.5010199999999
 31
0.0
  0
ARC
  5
9DEA
330
9CA7
100
AcDbEntity
  8
1
  6
Continuous
100
AcDbCircle
 10
247.5831789999999
 20
134.9010219999997
 30
0.0
 40
2.0
100
AcDbArc
 50
90.0
 51
180.0
  0
LINE
  5
9DEB
330
9CA7
100
AcDbEntity
  8
1
  6
Continuous
100
AcDbLine
 10
244.033183
 20
140.0010179999999
 30
0.0
 11
245.0206319999999
 21
138.3344499999997
 31
0.0
  0
LINE
  5
9DEC
330
9CA7
100
AcDbEntity
  8
1
  6
Continuous
100
AcDbLine
 10
240.283179
 20
140.0010159999999
 30
0.0
 11
240.283179
 21
141.4010199999998
 31
0.0
  0
ARC
  5
9DED
330
9CA7
100
AcDbEntity
  8
1
  6
Continuous
100
AcDbCircle
 10
117.783179
 20
53.90101999999998
 30
0.0
 40
12.19999999999999
100
AcDbArc
 50
234.367119
 51
125.501896
  0
ARC
  5
9DEE
330
9CA7
100
AcDbEntity
  8
1
  6
Continuous
100
AcDbCircle
 10
117.783179
 20
53.90101999999998
 30
0.0
 40
11.0
100
AcDbArc
 50
270.0
 51
90.0
  0
ARC
  5
9DEF
330
9CA7
100
AcDbEntity
  8
1
  6
Continuous
100
AcDbCircle
 10
179.0831779999997
 20
123.601022
 30
0.0
 40
3.5
100
AcDbArc
 50
180.0
 51
257.1604119999999
  0
ARC
  5
9DF0
330
9CA7
100
AcDbEntity
  8
1
  6
Continuous
100
AcDbCircle
 10
178.0831779999997
 20
119.2135399999999
 30
0.0
 40
1.0
100
AcDbArc
 50
0.0
 51
77.16041199999998
  0
ARC
  5
9DF1
330
9CA7
100
AcDbEntity
  8
1
  6
Continuous
100
AcDbCircle
 10
179.0831779999997
 20
123.601022
 30
0.0
 40
2.299999999999998
100
AcDbArc
 50
180.0
 51
257.1604249999999
  0
ARC
  5
9DF2
330
9CA7
100
AcDbEntity
  8
1
  6
Continuous
100
AcDbCircle
 10
178.083179
 20
119.2135389999997
 30
0.0
 40
2.2
100
AcDbArc
 50
0.0
 51
77.160425
  0
ARC
  5
9DF3
330
9CA7
100
AcDbEntity
  8
1
  6
Continuous
100
AcDbCircle
 10
196.4831799999998
 20
123.601022
 30
0.0
 40
3.5
100
AcDbArc
 50
282.839588
 51
0.0
  0
ARC
  5
9DF4
330
9CA7
100
AcDbEntity
  8
1
  6
Continuous
100
AcDbCircle
 10
196.4831799999998
 20
123.601022
 30
0.0
 40
2.299999999999998
100
AcDbArc
 50
282.839575
 51
0.0
  0
ARC
  5
9DF5
330
9CA7
100
AcDbEntity
  8
1
  6
Continuous
100
AcDbCircle
 10
197.4831789999998
 20
119.2135389999997
 30
0.0
 40
2.2
100
AcDbArc
 50
102.8395749999999
 51
180.0
  0
ARC
  5
9DF6
330
9CA7
100
AcDbEntity
  8
1
  6
Continuous
100
AcDbCircle
 10
197.48318
 20
119.2135399999999
 30
0.0
 40
1.0
100
AcDbArc
 50
102.839588
 51
180.0
  0
ARC
  5
9DF7
330
9CA7
100
AcDbEntity
  8
1
  6
Continuous
100
AcDbCircle
 10
117.783179
 20
63.56802
 30
0.0
 40
2.532999999999999
100
AcDbArc
 50
90.0
 51
180.2983689999999
  0
ARC
  5
9DF8
330
9CA7
100
AcDbEntity
  8
1
  6
Continuous
100
AcDbCircle
 10
114.2502139999999
 20
63.60102099999998
 30
0.0
 40
1.0
100
AcDbArc
 50
270.0
 51
358.85363
  0
ARC
  5
9DF9
330
9CA7
100
AcDbEntity
  8
1
  6
Continuous
100
AcDbCircle
 10
117.783179
 20
63.56802
 30
0.0
 40
1.333
100
AcDbArc
 50
90.0
 51
137.790527
  0
ARC
  5
9DFA
330
9CA7
100
AcDbEntity
  8
1
  6
Continuous
100
AcDbCircle
 10
113.6502139999999
 20
63.60102
 30
0.0
 40
2.2
100
AcDbArc
 50
270.0
 51
336.344631
  0
ARC
  5
9DFB
330
9CA7
100
AcDbEntity
  8
1
  6
Continuous
100
AcDbCircle
 10
121.5729159999999
 20
60.130555
 30
0.0
 40
6.449469999999998
100
AcDbArc
 50
137.790527
 51
156.3446309999999
  0
ARC
  5
9DFC
330
9CA7
100
AcDbEntity
  8
1
  6
Continuous
100
AcDbCircle
 10
113.6502139999999
 20
44.20101999999999
 30
0.0
 40
2.2
100
AcDbArc
 50
23.65536899999999
 51
90.0
  0
ARC
  5
9DFD
330
9CA7
100
AcDbEntity
  8
1
  6
Continuous
100
AcDbCircle
 10
117.783179
 20
44.23402
 30
0.0
 40
2.532999999999999
100
AcDbArc
 50
179.701631
 51
270.0
  0
ARC
  5
9DFE
330
9CA7
100
AcDbEntity
  8
1
  6
Continuous
100
AcDbCircle
 10
114.2502139999999
 20
44.201019
 30
0.0
 40
1.0
100
AcDbArc
 50
1.146369999999999
 51
90.0
  0
ARC
  5
9DFF
330
9CA7
100
AcDbEntity
  8
1
  6
Continuous
100
AcDbCircle
 10
121.5729159999999
 20
47.67148399999999
 30
0.0
 40
6.449469999999998
100
AcDbArc
 50
203.655369
 51
222.209473
  0
ARC
  5
9E00
330
9CA7
100
AcDbEntity
  8
1
  6
Continuous
100
AcDbCircle
 10
117.783179
 20
44.23402
 30
0.0
 40
1.333
100
AcDbArc
 50
222.209473
 51
270.0
  0
ARC
  5
9E01
330
9CA7
100
AcDbEntity
  8
1
  6
Continuous
100
AcDbCircle
 10
197.3425009999999
 20
131.5010199999999
 30
0.0
 40
1.0
100
AcDbArc
 50
23.30961999999999
 51
90.0
  0
ARC
  5
9E02
330
9CA7
100
AcDbEntity
  8
1
  6
Continuous
100
AcDbCircle
 10
178.223858
 20
131.5010199999999
 30
0.0
 40
1.0
100
AcDbArc
 50
90.0
 51
156.69038
  0
ARC
  5
9E03
330
9CA7
100
AcDbEntity
  8
1
  6
Continuous
100
AcDbCircle
 10
108.783179
 20
118.9010219999999
 30
0.0
 40
10.0
100
AcDbArc
 50
114.785353
 51
26.937776
  0
ARC
  5
9E04
330
9CA7
100
AcDbEntity
  8
1
  6
Continuous
100
AcDbCircle
 10
108.783179
 20
118.9010219999999
 30
0.0
 40
12.5
100
AcDbArc
 50
109.141865
 51
32.581268
  0
LINE
  5
9E05
330
9CA7
100
AcDbEntity
  8
1
  6
Continuous
100
AcDbLine
 10
97.717465
 20
187.9010199999999
 30
0.0
 11
101.522711
 21
187.9010199999999
 31
0.0
  0
ARC
  5
9E06
330
9CA7
100
AcDbEntity
  8
1
  6
Continuous
100
AcDbCircle
 10
97.717465
 20
188.9010199999999
 30
0.0
 40
1.0
100
AcDbArc
 50
189.928454
 51
270.00002
  0
ARC
  5
9E07
330
9CA7
100
AcDbEntity
  8
1
  6
Continuous
100
AcDbCircle
 10
126.283179
 20
193.90102
 30
0.0
 40
30.0
100
AcDbArc
 50
170.0703509999999
 51
189.92827
  0
LINE
  5
9E08
330
9CA7
100
AcDbEntity
  8
1
  6
Continuous
100
AcDbLine
 10
97.717465
 20
199.9010199999999
 30
0.0
 11
101.522711
 21
199.9010199999999
 31
0.0
  0
ARC
  5
9E09
330
9CA7
100
AcDbEntity
  8
1
  6
Continuous
100
AcDbCircle
 10
97.717465
 20
198.9010199999999
 30
0.0
 40
1.0
100
AcDbArc
 50
90.0
 51
170.0716329999998
  0
LINE
  5
9E0A
330
9CA7
100
AcDbEntity
  8
1
  6
Continuous
100
AcDbLine
 10
49.783179
 20
129.9667359999999
 30
0.0
 11
49.783179
 21
107.835308
 31
0.0
  0
LINE
  5
9E0B
330
9CA7
100
AcDbEntity
  8
1
  6
Continuous
100
AcDbLine
 10
37.78317899999999
 20
129.9667359999999
 30
0.0
 11
37.78317899999999
 21
107.835308
 31
0.0
  0
ARC
  5
9E0C
330
9CA7
100
AcDbEntity
  8
1
  6
Continuous
100
AcDbCircle
 10
43.78317899999998
 20
136.4010219999999
 30
0.0
 40
30.0
100
AcDbArc
 50
260.0717299999999
 51
279.9296489999999
  0
ARC
  5
9E0D
330
9CA7
100
AcDbEntity
  8
1
  6
Continuous
100
AcDbCircle
 10
38.78317899999997
 20
107.835308
 30
0.0
 40
1.0
100
AcDbArc
 50
179.9999799999999
 51
260.07156
  0
ARC
  5
9E0E
330
9CA7
100
AcDbEntity
  8
1
  6
Continuous
100
AcDbCircle
 10
48.78317899999998
 20
107.835308
 30
0.0
 40
1.0
100
AcDbArc
 50
279.9283699999999
 51
0.0
  0
ARC
  5
9E0F
330
9CA7
100
AcDbEntity
  8
1
  6
Continuous
100
AcDbCircle
 10
43.78317899999998
 20
101.401022
 30
0.0
 40
30.0
100
AcDbArc
 50
80.07035100000001
 51
99.92826999999998
  0
LINE
  5
9E10
330
9CA7
100
AcDbEntity
  8
1
  6
Continuous
100
AcDbLine
 10
37.15367
 20
122.88396
 30
0.0
 11
37.78317100000001
 21
123.052756
 31
0.0
  0
ARC
  5
9E11
330
9CA7
100
AcDbEntity
  8
1
  6
Continuous
100
AcDbCircle
 10
37.28317899999999
 20
122.401022
 30
0.0
 40
0.5
100
AcDbArc
 50
105.0100699999999
 51
180.00002
  0
ARC
  5
9E12
330
9CA7
100
AcDbEntity
  8
1
  6
Continuous
100
AcDbCircle
 10
38.78317899999997
 20
129.9667359999999
 30
0.0
 40
1.0
100
AcDbArc
 50
99.928454
 51
180.00002
  0
LINE
  5
9E13
330
9CA7
100
AcDbEntity
  8
1
  6
Continuous
100
AcDbLine
 10
37.15367
 20
114.918083
 30
0.0
 11
37.78317100000001
 21
114.749287
 31
0.0
  0
ARC
  5
9E14
330
9CA7
100
AcDbEntity
  8
1
  6
Continuous
100
AcDbCircle
 10
37.28317899999999
 20
115.4010219999999
 30
0.0
 40
0.5
100
AcDbArc
 50
179.9999799999999
 51
254.98992
  0
LINE
  5
9E15
330
9CA7
100
AcDbEntity
  8
1
  6
Continuous
100
AcDbLine
 10
36.78317899999999
 20
115.4010219999999
 30
0.0
 11
36.78317899999999
 21
122.401022
 31
0.0
  0
ARC
  5
9E16
330
9CA7
100
AcDbEntity
  8
1
  6
Continuous
100
AcDbCircle
 10
50.283179
 20
122.401022
 30
0.0
 40
0.5
100
AcDbArc
 50
0.000055
 51
74.98999899999998
  0
LINE
  5
9E17
330
9CA7
100
AcDbEntity
  8
1
  6
Continuous
100
AcDbLine
 10
50.41268399999999
 20
122.883962
 30
0.0
 11
49.783179
 21
123.05276
 31
0.0
  0
ARC
  5
9E18
330
9CA7
100
AcDbEntity
  8
1
  6
Continuous
100
AcDbCircle
 10
48.78317899999998
 20
129.9667359999999
 30
0.0
 40
1.0
100
AcDbArc
 50
0.0
 51
80.07163300000001
  0
LINE
  5
9E19
330
9CA7
100
AcDbEntity
  8
1
  6
Continuous
100
AcDbLine
 10
50.41268399999999
 20
114.918081
 30
0.0
 11
49.783179
 21
114.749283
 31
0.0
  0
ARC
  5
9E1A
330
9CA7
100
AcDbEntity
  8
1
  6
Continuous
100
AcDbCircle
 10
50.283179
 20
115.4010219999999
 30
0.0
 40
0.5
100
AcDbArc
 50
285.0099999999999
 51
359.99995
  0
LINE
  5
9E1B
330
9CA7
100
AcDbEntity
  8
1
  6
Continuous
100
AcDbLine
 10
50.783179
 20
115.4010219999999
 30
0.0
 11
50.783179
 21
122.401022
 31
0.0
  0
ARC
  5
9E1C
330
9CA7
100
AcDbEntity
  8
1
  6
Continuous
100
AcDbCircle
 10
187.7831789999999
 20
101.401022
 30
0.0
 40
30.0
100
AcDbArc
 50
80.07035100000001
 51
99.92826999999998
  0
ARC
  5
9E1D
330
9CA7
100
AcDbEntity
  8
1
  6
Continuous
100
AcDbCircle
 10
187.7831789999999
 20
136.4010219999999
 30
0.0
 40
30.0
100
AcDbArc
 50
260.0717299999999
 51
279.9296489999999
  0
LINE
  5
9E1E
330
9CA7
100
AcDbEntity
  8
1
  6
Continuous
100
AcDbLine
 10
181.7831789999999
 20
129.9667359999999
 30
0.0
 11
181.7831789999999
 21
107.835308
 31
0.0
  0
ARC
  5
9E1F
330
9CA7
100
AcDbEntity
  8
1
  6
Continuous
100
AcDbCircle
 10
182.7831789999999
 20
107.835308
 30
0.0
 40
1.0
100
AcDbArc
 50
179.9999799999999
 51
260.07156
  0
LINE
  5
9E20
330
9CA7
100
AcDbEntity
  8
1
  6
Continuous
100
AcDbLine
 10
180.7831789999999
 20
115.4010219999999
 30
0.0
 11
180.7831789999999
 21
122.401022
 31
0.0
  0
ARC
  5
9E21
330
9CA7
100
AcDbEntity
  8
1
  6
Continuous
100
AcDbCircle
 10
181.2831789999999
 20
115.4010219999999
 30
0.0
 40
0.5
100
AcDbArc
 50
179.9999799999999
 51
254.98992
  0
LINE
  5
9E22
330
9CA7
100
AcDbEntity
  8
1
  6
Continuous
100
AcDbLine
 10
181.1536699999997
 20
114.918083
 30
0.0
 11
181.783171
 21
114.749287
 31
0.0
  0
ARC
  5
9E23
330
9CA7
100
AcDbEntity
  8
1
  6
Continuous
100
AcDbCircle
 10
182.7831789999999
 20
129.9667359999999
 30
0.0
 40
1.0
100
AcDbArc
 50
99.928454
 51
180.00002
  0
ARC
  5
9E24
330
9CA7
100
AcDbEntity
  8
1
  6
Continuous
100
AcDbCircle
 10
181.2831789999999
 20
122.401022
 30
0.0
 40
0.5
100
AcDbArc
 50
105.0100699999999
 51
180.00002
  0
LINE
  5
9E25
330
9CA7
100
AcDbEntity
  8
1
  6
Continuous
100
AcDbLine
 10
181.1536699999997
 20
122.88396
 30
0.0
 11
181.783171
 21
123.052756
 31
0.0
  0
LINE
  5
9E26
330
9CA7
100
AcDbEntity
  8
1
  6
Continuous
100
AcDbLine
 10
193.7831789999999
 20
129.9667359999999
 30
0.0
 11
193.7831789999999
 21
107.835308
 31
0.0
  0
ARC
  5
9E27
330
9CA7
100
AcDbEntity
  8
1
  6
Continuous
100
AcDbCircle
 10
192.7831789999999
 20
107.835308
 30
0.0
 40
1.0
100
AcDbArc
 50
279.9283699999999
 51
0.0
  0
LINE
  5
9E28
330
9CA7
100
AcDbEntity
  8
1
  6
Continuous
100
AcDbLine
 10
194.783179
 20
115.4010219999999
 30
0.0
 11
194.783179
 21
122.401022
 31
0.0
  0
ARC
  5
9E29
330
9CA7
100
AcDbEntity
  8
1
  6
Continuous
100
AcDbCircle
 10
194.2831789999999
 20
115.4010219999999
 30
0.0
 40
0.5
100
AcDbArc
 50
285.0099999999999
 51
359.99995
  0
LINE
  5
9E2A
330
9CA7
100
AcDbEntity
  8
1
  6
Continuous
100
AcDbLine
 10
194.412684
 20
114.918081
 30
0.0
 11
193.7831789999999
 21
114.749283
 31
0.0
  0
ARC
  5
9E2B
330
9CA7
100
AcDbEntity
  8
1
  6
Continuous
100
AcDbCircle
 10
192.7831789999999
 20
129.9667359999999
 30
0.0
 40
1.0
100
AcDbArc
 50
0.0
 51
80.07163300000001
  0
LINE
  5
9E2C
330
9CA7
100
AcDbEntity
  8
1
  6
Continuous
100
AcDbLine
 10
194.412684
 20
122.883962
 30
0.0
 11
193.7831789999999
 21
123.05276
 31
0.0
  0
ARC
  5
9E2D
330
9CA7
100
AcDbEntity
  8
1
  6
Continuous
100
AcDbCircle
 10
194.2831789999999
 20
122.401022
 30
0.0
 40
0.5
100
AcDbArc
 50
0.000055
 51
74.98999899999998
  0
LINE
  5
9E2E
330
9CA7
100
AcDbEntity
  8
1
  6
Continuous
100
AcDbLine
 10
112.2831789999999
 20
60.90101999999999
 30
0.0
 11
105.283179
 21
60.90101999999999
 31
0.0
  0
LINE
  5
9E2F
330
9CA7
100
AcDbEntity
  8
1
  6
Continuous
100
AcDbLine
 10
112.2831789999999
 20
46.90102
 30
0.0
 11
105.283179
 21
46.90102
 31
0.0
  0
LINE
  5
9E30
330
9CA7
100
AcDbEntity
  8
1
  6
Continuous
100
AcDbLine
 10
97.717465
 20
47.90102
 30
0.0
 11
119.8488929999999
 21
47.90102
 31
0.0
  0
LINE
  5
9E31
330
9CA7
100
AcDbEntity
  8
1
  6
Continuous
100
AcDbLine
 10
97.717465
 20
59.90102
 30
0.0
 11
119.8488929999999
 21
59.90102
 31
0.0
  0
ARC
  5
9E32
330
9CA7
100
AcDbEntity
  8
1
  6
Continuous
100
AcDbCircle
 10
97.717465
 20
58.90101999999998
 30
0.0
 40
1.0
100
AcDbArc
 50
90.0
 51
170.0716329999998
  0
LINE
  5
9E33
330
9CA7
100
AcDbEntity
  8
1
  6
Continuous
100
AcDbLine
 10
104.800239
 20
60.53052499999999
 30
0.0
 11
104.631441
 21
59.90102
 31
0.0
  0
ARC
  5
9E34
330
9CA7
100
AcDbEntity
  8
1
  6
Continuous
100
AcDbCircle
 10
105.283179
 20
60.40102
 30
0.0
 40
0.5
100
AcDbArc
 50
90.00005499999994
 51
164.989999
  0
ARC
  5
9E35
330
9CA7
100
AcDbEntity
  8
1
  6
Continuous
100
AcDbCircle
 10
97.717465
 20
48.90102
 30
0.0
 40
1.0
100
AcDbArc
 50
189.928454
 51
270.00002
  0
ARC
  5
9E36
330
9CA7
100
AcDbEntity
  8
1
  6
Continuous
100
AcDbCircle
 10
105.283179
 20
47.40102
 30
0.0
 40
0.5
100
AcDbArc
 50
195.0100699999999
 51
270.00002
  0
LINE
  5
9E37
330
9CA7
100
AcDbEntity
  8
1
  6
Continuous
100
AcDbLine
 10
104.800241
 20
47.27151099999999
 30
0.0
 11
104.631445
 21
47.901012
 31
0.0
  0
ARC
  5
9E38
330
9CA7
100
AcDbEntity
  8
1
  6
Continuous
100
AcDbCircle
 10
126.283179
 20
53.90101999999998
 30
0.0
 40
30.0
100
AcDbArc
 50
170.0703509999999
 51
189.92827
  0
ARC
  5
9E39
330
9CA7
100
AcDbEntity
  8
1
  6
Continuous
100
AcDbCircle
 10
112.2831789999999
 20
60.40102
 30
0.0
 40
0.5
100
AcDbArc
 50
15.01
 51
89.99995000000001
  0
LINE
  5
9E3A
330
9CA7
100
AcDbEntity
  8
1
  6
Continuous
100
AcDbLine
 10
112.76612
 20
60.53052499999999
 30
0.0
 11
112.9349179999999
 21
59.90102
 31
0.0
  0
ARC
  5
9E3B
330
9CA7
100
AcDbEntity
  8
1
  6
Continuous
100
AcDbCircle
 10
112.2831789999999
 20
47.40102
 30
0.0
 40
0.5
100
AcDbArc
 50
269.99998
 51
344.9899199999999
  0
LINE
  5
9E3C
330
9CA7
100
AcDbEntity
  8
1
  6
Continuous
100
AcDbLine
 10
112.766118
 20
47.27151099999999
 30
0.0
 11
112.9349139999999
 21
47.901012
 31
0.0
  0
ARC
  5
9E3D
330
9CA7
100
AcDbEntity
  8
1
  6
Continuous
100
AcDbCircle
 10
119.8488929999999
 20
58.90101999999998
 30
0.0
 40
1.0
100
AcDbArc
 50
9.928369999999999
 51
90.0
  0
ARC
  5
9E3E
330
9CA7
100
AcDbEntity
  8
1
  6
Continuous
100
AcDbCircle
 10
119.8488929999999
 20
48.90102
 30
0.0
 40
1.0
100
AcDbArc
 50
269.99998
 51
350.0715599999999
  0
ARC
  5
9E3F
330
9CA7
100
AcDbEntity
  8
1
  6
Continuous
100
AcDbCircle
 10
91.283179
 20
53.90101999999998
 30
0.0
 40
30.0
100
AcDbArc
 50
350.07173
 51
9.929648999999999
  0
ARC
  5
9E40
330
9CA7
100
AcDbEntity
  8
1
  6
Continuous
100
AcDbCircle
 10
266.783179
 20
118.9010219999999
 30
0.0
 40
12.5
100
AcDbArc
 50
147.418732
 51
70.85813500000002
  0
ARC
  5
9E41
330
9CA7
100
AcDbEntity
  8
1
  6
Continuous
100
AcDbCircle
 10
266.783179
 20
118.9010219999999
 30
0.0
 40
10.0
100
AcDbArc
 50
153.0622239999999
 51
65.214647
  0
ENDSEC
  0
SECTION
  2
OBJECTS
  0
DICTIONARY
  5
9C95
330
0
100
AcDbDictionary
281
     1
  3
ACAD_CIP_PREVIOUS_PRODUCT_INFO
350
9EC0
  3
ACAD_COLOR
350
9EA2
  3
ACAD_DETAILVIEWSTYLE
350
9EBB
  3
ACAD_GROUP
350
9C96
  3
ACAD_LAYOUT
350
9CA2
  3
ACAD_MATERIAL
350
9E70
  3
ACAD_MLEADERSTYLE
350
9EB7
  3
ACAD_MLINESTYLE
350
9C9F
  3
ACAD_PLOTSETTINGS
350
9CA1
  3
ACAD_PLOTSTYLENAME
350
9E6E
  3
ACAD_SCALELIST
350
9EA5
  3
ACAD_SECTIONVIEWSTYLE
350
9EB9
  3
ACAD_TABLESTYLE
350
9EA3
  3
ACAD_VISUALSTYLE
350
9E89
  3
ACDB_RECOMPOSE_DATA
350
9EDE
  3
AcDbVariableDictionary
350
9ED1
  3
DWGPROPS
350
9EDF
  0
DICTIONARY
  5
9EC1
330
9C99
100
AcDbDictionary
280
     1
281
     1
  3
ADSK_XREC_LAYER_RECONCILED
360
9EC2
  0
DICTIONARY
  5
9EC3
330
9CAF
100
AcDbDictionary
280
     1
281
     1
  3
ADSK_XREC_LAYER_RECONCILED
360
9EC4
  0
DICTIONARY
  5
9EC5
330
9CB0
100
AcDbDictionary
280
     1
281
     1
  3
ADSK_XREC_LAYER_RECONCILED
360
9EC6
  0
DICTIONARY
  5
9EC7
330
9CB1
100
AcDbDictionary
280
     1
281
     1
  3
ADSK_XREC_LAYER_RECONCILED
360
9EC8
  0
DICTIONARY
  5
9EC9
330
9CB2
100
AcDbDictionary
280
     1
281
     1
  3
ADSK_XREC_LAYER_RECONCILED
360
9ECA
  0
DICTIONARY
  5
9ECB
330
9CB3
100
AcDbDictionary
280
     1
281
     1
  3
ADSK_XREC_LAYER_RECONCILED
360
9ECC
  0
DICTIONARY
  5
9ECD
330
9CB4
100
AcDbDictionary
280
     1
281
     1
  3
ADSK_XREC_LAYER_RECONCILED
360
9ECE
  0
DICTIONARY
  5
9ECF
330
9CB5
100
AcDbDictionary
280
     1
281
     1
  3
ADSK_XREC_LAYER_RECONCILED
360
9ED0
  0
DICTIONARY
  5
9E4C
330
9CA7
100
AcDbDictionary
281
     1
  3
ACAD_LAYOUTSELFREF
350
9E6A
  0
DICTIONARY
  5
9E4A
330
9CA3
100
AcDbDictionary
281
     1
  3
ACAD_LAYOUTSELFREF
350
9E69
  0
XRECORD
  5
9EC0
102
{ACAD_REACTORS
330
9C95
102
}
330
9C95
100
AcDbXrecord
280
     1
300
ACDLT
300
2014
300
ACDLT_F_S
  0
DICTIONARY
  5
9EA2
102
{ACAD_REACTORS
330
9C95
102
}
330
9C95
100
AcDbDictionary
281
     1
  0
DICTIONARY
  5
9EBB
102
{ACAD_REACTORS
330
9C95
102
}
330
9C95
100
AcDbDictionary
281
     1
  3
Imperial24
350
9EBC
  0
DICTIONARY
  5
9C96
102
{ACAD_REACTORS
330
9C95
102
}
330
9C95
100
AcDbDictionary
281
     1
  0
DICTIONARY
  5
9CA2
102
{ACAD_REACTORS
330
9C95
102
}
330
9C95
100
AcDbDictionary
281
     1
  3
Model
350
9EBD
  3
レイアウト1
350
9EBE
  0
DICTIONARY
  5
9E70
102
{ACAD_REACTORS
330
9C95
102
}
330
9C95
100
AcDbDictionary
281
     1
  3
ByBlock
350
9E79
  3
ByLayer
350
9E71
  3
Global
350
9E81
  0
DICTIONARY
  5
9EB7
102
{ACAD_REACTORS
330
9C95
102
}
330
9C95
100
AcDbDictionary
281
     1
  3
Standard
350
9EB8
  0
DICTIONARY
  5
9C9F
102
{ACAD_REACTORS
330
9C95
102
}
330
9C95
100
AcDbDictionary
281
     1
  3
STANDARD
350
9CA0
  0
DICTIONARY
  5
9CA1
102
{ACAD_REACTORS
330
9C95
102
}
330
9C95
100
AcDbDictionary
281
     1
  0
ACDBDICTIONARYWDFLT
  5
9E6E
102
{ACAD_REACTORS
330
9C95
102
}
330
9C95
100
AcDbDictionary
281
     1
  3
Normal
350
9E6F
100
AcDbDictionaryWithDefault
340
9E6F
  0
DICTIONARY
  5
9EA5
102
{ACAD_REACTORS
330
9C95
102
}
330
9C95
100
AcDbDictionary
281
     1
  3
A0
350
9EA6
  3
A1
350
9EA7
  3
A2
350
9EA8
  3
A3
350
9EA9
  3
A4
350
9EAA
  3
A5
350
9EAB
  3
A6
350
9EAC
  3
A7
350
9EAD
  3
A8
350
9EAE
  3
A9
350
9EAF
  3
B0
350
9EB0
  3
B1
350
9EB1
  3
B2
350
9EB2
  3
B3
350
9EB3
  3
B4
350
9EB4
  3
B5
350
9EB5
  3
B6
350
9EB6
  0
DICTIONARY
  5
9EB9
102
{ACAD_REACTORS
330
9C95
102
}
330
9C95
100
AcDbDictionary
281
     1
  3
Imperial24
350
9EBA
  0
DICTIONARY
  5
9EA3
102
{ACAD_REACTORS
330
9C95
102
}
330
9C95
100
AcDbDictionary
281
     1
  3
Standard
350
9EA4
  0
DICTIONARY
  5
9E89
102
{ACAD_REACTORS
330
9C95
102
}
330
9C95
100
AcDbDictionary
281
     1
  3
2dWireframe
350
9E8F
  3
Basic
350
9E8E
  3
Brighten
350
9E95
  3
ColorChange
350
9E99
  3
Conceptual
350
9E92
  3
Dim
350
9E94
  3
EdgeColorOff
350
9EA1
  3
Facepattern
350
9E98
  3
Flat
350
9E8A
  3
FlatWithEdges
350
9E8B
  3
Gouraud
350
9E8C
  3
GouraudWithEdges
350
9E8D
  3
Hidden
350
9E91
  3
JitterOff
350
9E9F
  3
Linepattern
350
9E97
  3
OverhangOff
350
9EA0
  3
Realistic
350
9E93
  3
Shaded
350
9E9E
  3
Shaded with edges
350
9E9D
  3
Shades of Gray
350
9E9A
  3
Sketchy
350
9E9B
  3
Thicken
350
9E96
  3
Wireframe
350
9E90
  3
X-Ray
350
9E9C
  0
XRECORD
  5
9EDE
102
{ACAD_REACTORS
330
9C95
102
}
330
9C95
100
AcDbXrecord
280
     1
 90
        1
330
9EA4
  0
DICTIONARY
  5
9ED1
102
{ACAD_REACTORS
330
9C95
102
}
330
9C95
100
AcDbDictionary
281
     1
  3
CANNOSCALE
350
9ED6
  3
CMLEADERSTYLE
350
9ED3
  3
CTABLESTYLE
350
9ED2
  3
CVIEWDETAILSTYLE
350
9ED4
  3
CVIEWSECTIONSTYLE
350
9ED5
  3
DIMASSOC
350
9ED9
  3
INDEXCTL
350
9ED8
  3
SORTENTS
350
9ED7
  3
XCLIPFRAME
350
9EDA
  0
XRECORD
  5
9EDF
102
{ACAD_REACTORS
330
9C95
102
}
330
9C95
100
AcDbXrecord
280
     1
  1
DWGPROPS COOKIE
  2

  3

  4

  6

  7

  8
Yoshitsune
  9

300
=
301
=
302
=
303
=
304
=
305
=
306
=
307
=
308
=
309
=
 40
0.102623599537037
 41
2451301.460395949
 42
2457192.690437998
  1

 90
        0
  0
XRECORD
  5
9EC2
102
{ACAD_REACTORS
330
9EC1
102
}
330
9EC1
100
AcDbXrecord
280
     1
290
     1
  0
XRECORD
  5
9EC4
102
{ACAD_REACTORS
330
9EC3
102
}
330
9EC3
100
AcDbXrecord
280
     1
290
     1
  0
XRECORD
  5
9EC6
102
{ACAD_REACTORS
330
9EC5
102
}
330
9EC5
100
AcDbXrecord
280
     1
290
     1
  0
XRECORD
  5
9EC8
102
{ACAD_REACTORS
330
9EC7
102
}
330
9EC7
100
AcDbXrecord
280
     1
290
     1
  0
XRECORD
  5
9ECA
102
{ACAD_REACTORS
330
9EC9
102
}
330
9EC9
100
AcDbXrecord
280
     1
290
     1
  0
XRECORD
  5
9ECC
102
{ACAD_REACTORS
330
9ECB
102
}
330
9ECB
100
AcDbXrecord
280
     1
290
     1
  0
XRECORD
  5
9ECE
102
{ACAD_REACTORS
330
9ECD
102
}
330
9ECD
100
AcDbXrecord
280
     1
290
     1
  0
XRECORD
  5
9ED0
102
{ACAD_REACTORS
330
9ECF
102
}
330
9ECF
100
AcDbXrecord
280
     1
290
     1
  0
XRECORD
  5
9E6A
102
{ACAD_REACTORS
330
9E4C
102
}
330
9E4C
100
AcDbXrecord
280
     1
340
9CA7
  0
XRECORD
  5
9E69
102
{ACAD_REACTORS
330
9E4A
102
}
330
9E4A
100
AcDbXrecord
280
     1
340
9CA3
  0
ACDBDETAILVIEWSTYLE
  5
9EBC
102
{ACAD_XDICTIONARY
360
9F17
102
}
102
{ACAD_REACTORS
330
9EBB
102
}
330
9EBB
100
AcDbModelDocViewStyle
 70
     0
  3
Imperial24
290
     0
100
AcDbDetailViewStyle
 70
     0
 71
     0
 90
        3
 71
     1
340
9C9A
 40
0.24
340
0
 40
0.24
300

 40
0.36
280
     3
 71
     2
340
9C9E
 90
       25
 71
     3
340
9C9A
 40
0.24
 90
        1
 40
0.75
 90
        1
300
%<\AcVar ViewType \f "%tc1">% %<\AcVar ViewDetailId>%\PSCALE %<\AcVar ViewScale \f "%sn">%
 71
     4
340
9C9E
 90
       25
340
9C9E
 90
       25
280
     0
  0
LAYOUT
  5
9EBD
102
{ACAD_XDICTIONARY
360
9F19
102
}
102
{ACAD_REACTORS
330
9CA2
102
}
330
9CA2
100
AcDbPlotSettings
  1

  2
Canon LBP9100C
  4

  6

 40
0.0
 41
0.0
 42
0.0
 43
0.0
 44
0.0
 45
0.0
 46
0.0
 47
0.0
 48
0.0
 49
0.0
140
0.0
141
0.0
142
1.0
143
1.0
 70
  1712
 72
     0
 73
     0
 74
     0
  7

 75
     0
147
1.0
148
0.0
149
0.0
100
AcDbLayout
  1
Model
 70
     1
 71
     0
 10
0.0
 20
0.0
 11
12.0
 21
9.0
 12
0.0
 22
0.0
 32
0.0
 14
0.0
 24
0.0
 34
0.0
 15
0.0
 25
0.0
 35
0.0
146
0.0
 13
0.0
 23
0.0
 33
0.0
 16
1.0
 26
0.0
 36
0.0
 17
0.0
 27
1.0
 37
0.0
 76
     0
330
9CA7
331
9E68
  0
LAYOUT
  5
9EBE
102
{ACAD_XDICTIONARY
360
9F1B
102
}
102
{ACAD_REACTORS
330
9CA2
102
}
330
9CA2
100
AcDbPlotSettings
  1

  2
Canon LBP9100C
  4

  6

 40
0.0
 41
0.0
 42
0.0
 43
0.0
 44
0.0
 45
0.0
 46
0.0
 47
0.0
 48
0.0
 49
0.0
140
0.0
141
0.0
142
1.0
143
1.0
 70
   688
 72
     0
 73
     0
 74
     5
  7

 75
    16
147
1.0
148
0.0
149
0.0
100
AcDbLayout
  1
レイアウト1
 70
     0
 71
     1
 10
0.0
 20
0.0
 11
420.0
 21
297.0
 12
0.0
 22
0.0
 32
0.0
 14
1.000000000000000E+20
 24
1.000000000000000E+20
 34
1.000000000000000E+20
 15
-1.000000000000000E+20
 25
-1.000000000000000E+20
 35
-1.000000000000000E+20
146
0.0
 13
0.0
 23
0.0
 33
0.0
 16
1.0
 26
0.0
 36
0.0
 17
0.0
 27
1.0
 37
0.0
 76
     0
330
9CA3
  0
MATERIAL
  5
9E79
102
{ACAD_XDICTIONARY
360
9E7A
102
}
102
{ACAD_REACTORS
330
9E70
102
}
330
9E70
100
AcDbMaterial
  1
ByBlock
 72
     0
 43
0.0208333333333333
 43
0.0
 43
0.0
 43
0.0
 43
0.0
 43
0.0208333333333333
 43
0.0
 43
0.0
 43
0.0
 43
0.0
 43
1.0
 43
0.0
 43
0.0
 43
0.0
 43
0.0
 43
1.0
 77
     0
 47
0.0208333333333333
 47
0.0
 47
0.0
 47
0.0
 47
0.0
 47
0.0208333333333333
 47
0.0
 47
0.0
 47
0.0
 47
0.0
 47
1.0
 47
0.0
 47
0.0
 47
0.0
 47
0.0
 47
1.0
171
     0
 49
0.0208333333333333
 49
0.0
 49
0.0
 49
0.0
 49
0.0
 49
0.0208333333333333
 49
0.0
 49
0.0
 49
0.0
 49
0.0
 49
1.0
 49
0.0
 49
0.0
 49
0.0
 49
0.0
 49
1.0
175
     0
142
0.0208333333333333
142
0.0
142
0.0
142
0.0
142
0.0
142
0.0208333333333333
142
0.0
142
0.0
142
0.0
142
0.0
142
1.0
142
0.0
142
0.0
142
0.0
142
0.0
142
1.0
179
     0
144
0.0208333333333333
144
0.0
144
0.0
144
0.0
144
0.0
144
0.0208333333333333
144
0.0
144
0.0
144
0.0
144
0.0
144
1.0
144
0.0
144
0.0
144
0.0
144
0.0
144
1.0
147
0.0208333333333333
147
0.0
147
0.0
147
0.0
147
0.0
147
0.0208333333333333
147
0.0
147
0.0
147
0.0
147
0.0
147
1.0
147
0.0
147
0.0
147
0.0
147
0.0
147
1.0
  0
MATERIAL
  5
9E71
102
{ACAD_XDICTIONARY
360
9E72
102
}
102
{ACAD_REACTORS
330
9E70
102
}
330
9E70
100
AcDbMaterial
  1
ByLayer
 72
     0
 43
0.0208333333333333
 43
0.0
 43
0.0
 43
0.0
 43
0.0
 43
0.0208333333333333
 43
0.0
 43
0.0
 43
0.0
 43
0.0
 43
1.0
 43
0.0
 43
0.0
 43
0.0
 43
0.0
 43
1.0
 77
     0
 47
0.0208333333333333
 47
0.0
 47
0.0
 47
0.0
 47
0.0
 47
0.0208333333333333
 47
0.0
 47
0.0
 47
0.0
 47
0.0
 47
1.0
 47
0.0
 47
0.0
 47
0.0
 47
0.0
 47
1.0
171
     0
 49
0.0208333333333333
 49
0.0
 49
0.0
 49
0.0
 49
0.0
 49
0.0208333333333333
 49
0.0
 49
0.0
 49
0.0
 49
0.0
 49
1.0
 49
0.0
 49
0.0
 49
0.0
 49
0.0
 49
1.0
175
     0
142
0.0208333333333333
142
0.0
142
0.0
142
0.0
142
0.0
142
0.0208333333333333
142
0.0
142
0.0
142
0.0
142
0.0
142
1.0
142
0.0
142
0.0
142
0.0
142
0.0
142
1.0
179
     0
144
0.0208333333333333
144
0.0
144
0.0
144
0.0
144
0.0
144
0.0208333333333333
144
0.0
144
0.0
144
0.0
144
0.0
144
1.0
144
0.0
144
0.0
144
0.0
144
0.0
144
1.0
147
0.0208333333333333
147
0.0
147
0.0
147
0.0
147
0.0
147
0.0208333333333333
147
0.0
147
0.0
147
0.0
147
0.0
147
1.0
147
0.0
147
0.0
147
0.0
147
0.0
147
1.0
  0
MATERIAL
  5
9E81
102
{ACAD_XDICTIONARY
360
9E82
102
}
102
{ACAD_REACTORS
330
9E70
102
}
330
9E70
100
AcDbMaterial
  1
Global
 72
     0
 43
0.0208333333333333
 43
0.0
 43
0.0
 43
0.0
 43
0.0
 43
0.0208333333333333
 43
0.0
 43
0.0
 43
0.0
 43
0.0
 43
1.0
 43
0.0
 43
0.0
 43
0.0
 43
0.0
 43
1.0
 77
     0
 47
0.0208333333333333
 47
0.0
 47
0.0
 47
0.0
 47
0.0
 47
0.0208333333333333
 47
0.0
 47
0.0
 47
0.0
 47
0.0
 47
1.0
 47
0.0
 47
0.0
 47
0.0
 47
0.0
 47
1.0
171
     0
 49
0.0208333333333333
 49
0.0
 49
0.0
 49
0.0
 49
0.0
 49
0.0208333333333333
 49
0.0
 49
0.0
 49
0.0
 49
0.0
 49
1.0
 49
0.0
 49
0.0
 49
0.0
 49
0.0
 49
1.0
175
     0
142
0.0208333333333333
142
0.0
142
0.0
142
0.0
142
0.0
142
0.0208333333333333
142
0.0
142
0.0
142
0.0
142
0.0
142
1.0
142
0.0
142
0.0
142
0.0
142
0.0
142
1.0
179
     0
144
0.0208333333333333
144
0.0
144
0.0
144
0.0
144
0.0
144
0.0208333333333333
144
0.0
144
0.0
144
0.0
144
0.0
144
1.0
144
0.0
144
0.0
144
0.0
144
0.0
144
1.0
147
0.0208333333333333
147
0.0
147
0.0
147
0.0
147
0.0
147
0.0208333333333333
147
0.0
147
0.0
147
0.0
147
0.0
147
1.0
147
0.0
147
0.0
147
0.0
147
0.0
147
1.0
  0
MLEADERSTYLE
  5
9EB8
102
{ACAD_REACTORS
330
9EB7
102
}
330
9EB7
100
AcDbMLeaderStyle
170
     2
171
     1
172
     0
 90
        2
 40
0.0
 41
0.0
173
     1
 91
-1056964608
340
9C9C
 92
       -2
290
     1
 42
0.09
291
     1
 43
0.36
  3
Standard
 44
0.18
300

342
9C9A
174
     1
178
     6
175
     1
176
     0
 93
-1056964608
 45
0.18
292
     0
297
     0
 46
0.18
 94
-1056964608
 47
1.0
 49
1.0
140
1.0
293
     1
141
0.0
294
     1
177
     0
142
1.0
295
     0
296
     0
143
0.125
1001
ACAD_MLEADERVER
1070
     2
  0
MLINESTYLE
  5
9CA0
102
{ACAD_REACTORS
330
9C9F
102
}
330
9C9F
100
AcDbMlineStyle
  2
STANDARD
 70
     0
  3

 62
   256
 51
90.0
 52
90.0
 71
     2
 49
0.5
 62
   256
  6
BYLAYER
 49
-0.5
 62
   256
  6
BYLAYER
  0
ACDBPLACEHOLDER
  5
9E6F
102
{ACAD_REACTORS
330
9E6E
102
}
330
9E6E
  0
SCALE
  5
9EA6
102
{ACAD_REACTORS
330
9EA5
102
}
330
9EA5
100
AcDbScale
 70
     0
300
1:1
140
1.0
141
1.0
290
     1
  0
SCALE
  5
9EA7
102
{ACAD_REACTORS
330
9EA5
102
}
330
9EA5
100
AcDbScale
 70
     0
300
1/128" = 1'-0"
140
0.0078125
141
12.0
290
     0
  0
SCALE
  5
9EA8
102
{ACAD_REACTORS
330
9EA5
102
}
330
9EA5
100
AcDbScale
 70
     0
300
1/64" = 1'-0"
140
0.015625
141
12.0
290
     0
  0
SCALE
  5
9EA9
102
{ACAD_REACTORS
330
9EA5
102
}
330
9EA5
100
AcDbScale
 70
     0
300
1/32" = 1'-0"
140
0.03125
141
12.0
290
     0
  0
SCALE
  5
9EAA
102
{ACAD_REACTORS
330
9EA5
102
}
330
9EA5
100
AcDbScale
 70
     0
300
1/16" = 1'-0"
140
0.0625
141
12.0
290
     0
  0
SCALE
  5
9EAB
102
{ACAD_REACTORS
330
9EA5
102
}
330
9EA5
100
AcDbScale
 70
     0
300
3/32" = 1'-0"
140
0.09375
141
12.0
290
     0
  0
SCALE
  5
9EAC
102
{ACAD_REACTORS
330
9EA5
102
}
330
9EA5
100
AcDbScale
 70
     0
300
1/8" = 1'-0"
140
0.125
141
12.0
290
     0
  0
SCALE
  5
9EAD
102
{ACAD_REACTORS
330
9EA5
102
}
330
9EA5
100
AcDbScale
 70
     0
300
3/16" = 1'-0"
140
0.1875
141
12.0
290
     0
  0
SCALE
  5
9EAE
102
{ACAD_REACTORS
330
9EA5
102
}
330
9EA5
100
AcDbScale
 70
     0
300
1/4" = 1'-0"
140
0.25
141
12.0
290
     0
  0
SCALE
  5
9EAF
102
{ACAD_REACTORS
330
9EA5
102
}
330
9EA5
100
AcDbScale
 70
     0
300
3/8" = 1'-0"
140
0.375
141
12.0
290
     0
  0
SCALE
  5
9EB0
102
{ACAD_REACTORS
330
9EA5
102
}
330
9EA5
100
AcDbScale
 70
     0
300
1/2" = 1'-0"
140
0.5
141
12.0
290
     0
  0
SCALE
  5
9EB1
102
{ACAD_REACTORS
330
9EA5
102
}
330
9EA5
100
AcDbScale
 70
     0
300
3/4" = 1'-0"
140
0.75
141
12.0
290
     0
  0
SCALE
  5
9EB2
102
{ACAD_REACTORS
330
9EA5
102
}
330
9EA5
100
AcDbScale
 70
     0
300
1" = 1'-0"
140
1.0
141
12.0
290
     0
  0
SCALE
  5
9EB3
102
{ACAD_REACTORS
330
9EA5
102
}
330
9EA5
100
AcDbScale
 70
     0
300
1-1/2" = 1'-0"
140
1.5
141
12.0
290
     0
  0
SCALE
  5
9EB4
102
{ACAD_REACTORS
330
9EA5
102
}
330
9EA5
100
AcDbScale
 70
     0
300
3" = 1'-0"
140
3.0
141
12.0
290
     0
  0
SCALE
  5
9EB5
102
{ACAD_REACTORS
330
9EA5
102
}
330
9EA5
100
AcDbScale
 70
     0
300
6" = 1'-0"
140
6.0
141
12.0
290
     0
  0
SCALE
  5
9EB6
102
{ACAD_REACTORS
330
9EA5
102
}
330
9EA5
100
AcDbScale
 70
     0
300
1'-0" = 1'-0"
140
12.0
141
12.0
290
     0
  0
ACDBSECTIONVIEWSTYLE
  5
9EBA
102
{ACAD_XDICTIONARY
360
9F15
102
}
102
{ACAD_REACTORS
330
9EB9
102
}
330
9EB9
100
AcDbModelDocViewStyle
 70
     0
  3
Imperial24
290
     0
100
AcDbSectionViewStyle
 70
     0
 71
     0
 90
       78
 71
     1
340
9C9A
 40
0.24
340
0
340
0
 40
0.24
300
I, O, Q, S, X, Z
 40
0.48
 90
        3
 40
0.18
 90
        1
 71
     2
340
9C9E
 90
       25
340
9C9E
 90
       50
 40
0.24
 40
0.0
 40
0.24
 71
     3
340
9C9A
 40
0.24
 90
        1
 40
0.75
 90
        1
300
%<\AcVar ViewType \f "%tc1">% %<\AcVar ViewSectionStartId>%-%<\AcVar ViewSectionEndId>%\PSCALE %<\AcVar ViewScale \f "%sn">%
 71
     4
300
ANSI31
 40
1.0
 90
        0
290
     0
290
     0
 90
        6
 40
0.0
 40
1.570796326794896
 40
0.2617993877991494
 40
1.308996938995747
 40
-0.2617993877991494
 40
1.832595714594046
  0
TABLESTYLE
  5
9EA4
102
{ACAD_XDICTIONARY
360
9EDC
102
}
102
{ACAD_REACTORS
330
9EA3
102
}
330
9EA3
100
AcDbTableStyle
  3
Standard
 70
     0
 71
     0
 40
0.06
 41
0.06
280
     0
281
     0
  7
STANDARD
140
0.18
170
     2
 62
     0
 63
     7
283
     0
274
    -2
284
     1
 64
     0
275
    -2
285
     1
 65
     0
276
    -2
286
     1
 66
     0
277
    -2
287
     1
 67
     0
278
    -2
288
     1
 68
     0
279
    -2
289
     1
 69
     0
  7
STANDARD
140
0.25
170
     5
 62
     0
 63
     7
283
     0
274
    -2
284
     1
 64
     0
275
    -2
285
     1
 65
     0
276
    -2
286
     1
 66
     0
277
    -2
287
     1
 67
     0
278
    -2
288
     1
 68
     0
279
    -2
289
     1
 69
     0
  7
STANDARD
140
0.18
170
     5
 62
     0
 63
     7
283
     0
274
    -2
284
     1
 64
     0
275
    -2
285
     1
 65
     0
276
    -2
286
     1
 66
     0
277
    -2
287
     1
 67
     0
278
    -2
288
     1
 68
     0
279
    -2
289
     1
 69
     0
  0
VISUALSTYLE
  5
9E8F
102
{ACAD_XDICTIONARY
360
9EED
102
}
102
{ACAD_REACTORS
330
9E89
102
}
330
9E89
100
AcDbVisualStyle
  2
2dWireframe
 70
     4
 71
     0
 72
     2
 73
     0
 90
        0
 40
-0.6
 41
-30.0
 62
     5
 63
     7
 74
     1
 91
        4
 64
     7
 65
   257
 75
     1
175
     1
 42
1.0
 92
        0
 66
   257
 43
1.0
 76
     1
 77
     6
 78
     2
 67
     7
 79
     5
170
     0
171
     0
290
     0
174
     0
 93
        1
 44
0.0
173
     0
291
     0
 45
0.0
1001
ACAD
1000
AcDbSavedByObjectVersion
1070
     0
  0
VISUALSTYLE
  5
9E8E
102
{ACAD_XDICTIONARY
360
9EEB
102
}
102
{ACAD_REACTORS
330
9E89
102
}
330
9E89
100
AcDbVisualStyle
  2
Basic
 70
     7
 71
     1
 72
     0
 73
     1
 90
        0
 40
-0.6
 41
-30.0
 62
     5
 63
     7
 74
     0
 91
        4
 64
     7
 65
   257
 75
     1
175
     1
 42
1.0
 92
        8
 66
     7
 43
1.0
 76
     1
 77
     6
 78
     2
 67
     7
 79
     5
170
     0
171
     0
290
     0
174
     0
 93
        1
 44
0.0
173
     0
291
     1
 45
0.0
1001
ACAD
1000
AcDbSavedByObjectVersion
1070
     0
  0
VISUALSTYLE
  5
9E95
102
{ACAD_XDICTIONARY
360
9EF9
102
}
102
{ACAD_REACTORS
330
9E89
102
}
330
9E89
100
AcDbVisualStyle
  2
Brighten
 70
    12
 71
     2
 72
     2
 73
     0
 90
        0
 40
-0.6
 41
-30.0
 62
     5
 63
     7
 74
     1
 91
        4
 64
     7
 65
   257
 75
     1
175
     1
 42
1.0
 92
        8
 66
     7
 43
1.0
 76
     1
 77
     6
 78
     2
 67
     7
 79
     5
170
     0
171
     0
290
     0
174
     0
 93
        1
 44
50.0
173
     0
291
     1
 45
0.0
1001
ACAD
1000
AcDbSavedByObjectVersion
1070
     0
  0
VISUALSTYLE
  5
9E99
102
{ACAD_XDICTIONARY
360
9F01
102
}
102
{ACAD_REACTORS
330
9E89
102
}
330
9E89
100
AcDbVisualStyle
  2
ColorChange
 70
    16
 71
     2
 72
     2
 73
     3
 90
        0
 40
-0.6
 41
-30.0
 62
     5
 63
     8
 74
     1
 91
        4
 64
     7
 65
   257
 75
     1
175
     1
 42
1.0
 92
        8
 66
     8
 43
1.0
 76
     1
 77
     6
 78
     2
 67
     7
 79
     5
170
     0
171
     0
290
     0
174
     0
 93
        1
 44
0.0
173
     0
291
     1
 45
0.0
1001
ACAD
1000
AcDbSavedByObjectVersion
1070
     0
  0
VISUALSTYLE
  5
9E92
102
{ACAD_XDICTIONARY
360
9EF3
102
}
102
{ACAD_REACTORS
330
9E89
102
}
330
9E89
100
AcDbVisualStyle
  2
Conceptual
 70
     9
 71
     3
 72
     2
 73
     0
 90
        0
 40
-0.6
 41
-30.0
 62
     5
 63
     7
 74
     2
 91
        2
 64
     7
 65
   257
 75
     1
175
     1
 42
179.0
 92
        8
 66
     7
 43
1.0
 76
     1
 77
     6
 78
     2
 67
     7
 79
     3
170
     0
171
     0
290
     0
174
     0
 93
        1
 44
0.0
173
     0
291
     0
 45
0.0
1001
ACAD
1000
AcDbSavedByObjectVersion
1070
     0
  0
VISUALSTYLE
  5
9E94
102
{ACAD_XDICTIONARY
360
9EF7
102
}
102
{ACAD_REACTORS
330
9E89
102
}
330
9E89
100
AcDbVisualStyle
  2
Dim
 70
    11
 71
     2
 72
     2
 73
     0
 90
        0
 40
-0.6
 41
-30.0
 62
     5
 63
     7
 74
     1
 91
        4
 64
     7
 65
   257
 75
     1
175
     1
 42
1.0
 92
        8
 66
     7
 43
1.0
 76
     1
 77
     6
 78
     2
 67
     7
 79
     5
170
     0
171
     0
290
     0
174
     0
 93
        1
 44
-50.0
173
     0
291
     1
 45
0.0
1001
ACAD
1000
AcDbSavedByObjectVersion
1070
     0
  0
VISUALSTYLE
  5
9EA1
102
{ACAD_XDICTIONARY
360
9F11
102
}
102
{ACAD_REACTORS
330
9E89
102
}
330
9E89
100
AcDbVisualStyle
  2
EdgeColorOff
 70
    22
 71
     2
 72
     2
 73
     0
 90
        0
 40
-0.6
 41
-30.0
 62
     5
 63
     7
 74
     1
 91
        4
 64
     7
 65
   257
 75
     1
175
     1
 42
1.0
 92
        8
 66
     7
 43
1.0
 76
     1
 77
     6
 78
     2
 67
     7
 79
     5
170
     0
171
     0
290
     0
174
     0
 93
        1
 44
0.0
173
     0
291
     1
 45
0.0
1001
ACAD
1000
AcDbSavedByObjectVersion
1070
     0
  0
VISUALSTYLE
  5
9E98
102
{ACAD_XDICTIONARY
360
9EFF
102
}
102
{ACAD_REACTORS
330
9E89
102
}
330
9E89
100
AcDbVisualStyle
  2
Facepattern
 70
    15
 71
     2
 72
     2
 73
     0
 90
        0
 40
-0.6
 41
-30.0
 62
     5
 63
     7
 74
     1
 91
        4
 64
     7
 65
   257
 75
     1
175
     1
 42
1.0
 92
        8
 66
     7
 43
1.0
 76
     1
 77
     6
 78
     2
 67
     7
 79
     5
170
     0
171
     0
290
     0
174
     0
 93
        1
 44
0.0
173
     0
291
     1
 45
0.0
1001
ACAD
1000
AcDbSavedByObjectVersion
1070
     0
  0
VISUALSTYLE
  5
9E8A
102
{ACAD_XDICTIONARY
360
9EE3
102
}
102
{ACAD_REACTORS
330
9E89
102
}
330
9E89
100
AcDbVisualStyle
  2
Flat
 70
     0
 71
     2
 72
     1
 73
     1
 90
        2
 40
-0.6
 41
30.0
 62
     5
 63
     7
 74
     0
 91
        0
 64
     7
 65
   257
 75
     1
175
     1
 42
1.0
 92
        8
 66
     7
 43
1.0
 76
     1
 77
     6
 78
     2
 67
     7
 79
     5
170
     0
171
     0
290
     0
174
     0
 93
       13
 44
0.0
173
     0
291
     1
 45
0.0
1001
ACAD
1000
AcDbSavedByObjectVersion
1070
     0
  0
VISUALSTYLE
  5
9E8B
102
{ACAD_XDICTIONARY
360
9EE5
102
}
102
{ACAD_REACTORS
330
9E89
102
}
330
9E89
100
AcDbVisualStyle
  2
FlatWithEdges
 70
     1
 71
     2
 72
     1
 73
     1
 90
        2
 40
-0.6
 41
30.0
 62
     5
 63
     7
 74
     1
 91
        0
 64
     7
 65
   257
 75
     1
175
     1
 42
1.0
 92
        0
 66
   257
 43
1.0
 76
     1
 77
     6
 78
     2
 67
     7
 79
     5
170
     0
171
     0
290
     0
174
     0
 93
       13
 44
0.0
173
     0
291
     1
 45
0.0
1001
ACAD
1000
AcDbSavedByObjectVersion
1070
     0
  0
VISUALSTYLE
  5
9E8C
102
{ACAD_XDICTIONARY
360
9EE7
102
}
102
{ACAD_REACTORS
330
9E89
102
}
330
9E89
100
AcDbVisualStyle
  2
Gouraud
 70
     2
 71
     2
 72
     2
 73
     1
 90
        2
 40
-0.6
 41
30.0
 62
     5
 63
     7
 74
     0
 91
        0
 64
     7
 65
   257
 75
     1
175
     1
 42
1.0
 92
        0
 66
     7
 43
1.0
 76
     1
 77
     6
 78
     2
 67
     7
 79
     5
170
     0
171
     0
290
     0
174
     0
 93
       13
 44
0.0
173
     0
291
     1
 45
0.0
1001
ACAD
1000
AcDbSavedByObjectVersion
1070
     0
  0
VISUALSTYLE
  5
9E8D
102
{ACAD_XDICTIONARY
360
9EE9
102
}
102
{ACAD_REACTORS
330
9E89
102
}
330
9E89
100
AcDbVisualStyle
  2
GouraudWithEdges
 70
     3
 71
     2
 72
     2
 73
     1
 90
        2
 40
-0.6
 41
30.0
 62
     5
 63
     7
 74
     1
 91
        0
 64
     7
 65
   257
 75
     1
175
     1
 42
1.0
 92
        0
 66
   257
 43
1.0
 76
     1
 77
     6
 78
     2
 67
     7
 79
     5
170
     0
171
     0
290
     0
174
     0
 93
       13
 44
0.0
173
     0
291
     1
 45
0.0
1001
ACAD
1000
AcDbSavedByObjectVersion
1070
     0
  0
VISUALSTYLE
  5
9E91
102
{ACAD_XDICTIONARY
360
9EF1
102
}
102
{ACAD_REACTORS
330
9E89
102
}
330
9E89
100
AcDbVisualStyle
  2
Hidden
 70
     6
 71
     1
 72
     2
 73
     2
 90
        0
 40
-0.6
 41
-30.0
 62
     5
 63
     7
 74
     2
 91
        2
 64
     7
 65
   257
 75
     2
175
     1
 42
40.0
 92
        0
 66
   257
 43
1.0
 76
     1
 77
     6
 78
     2
 67
     7
 79
     3
170
     0
171
     0
290
     0
174
     0
 93
        1
 44
0.0
173
     0
291
     0
 45
0.0
1001
ACAD
1000
AcDbSavedByObjectVersion
1070
     0
  0
VISUALSTYLE
  5
9E9F
102
{ACAD_XDICTIONARY
360
9F0D
102
}
102
{ACAD_REACTORS
330
9E89
102
}
330
9E89
100
AcDbVisualStyle
  2
JitterOff
 70
    20
 71
     2
 72
     2
 73
     0
 90
        0
 40
-0.6
 41
-30.0
 62
     5
 63
     7
 74
     1
 91
        4
 64
     7
 65
   257
 75
     1
175
     1
 42
1.0
 92
       10
 66
     7
 43
1.0
 76
     1
 77
     6
 78
     2
 67
     7
 79
     5
170
     0
171
     0
290
     0
174
     0
 93
        1
 44
0.0
173
     0
291
     1
 45
0.0
1001
ACAD
1000
AcDbSavedByObjectVersion
1070
     0
  0
VISUALSTYLE
  5
9E97
102
{ACAD_XDICTIONARY
360
9EFD
102
}
102
{ACAD_REACTORS
330
9E89
102
}
330
9E89
100
AcDbVisualStyle
  2
Linepattern
 70
    14
 71
     2
 72
     2
 73
     0
 90
        0
 40
-0.6
 41
-30.0
 62
     5
 63
     7
 74
     1
 91
        4
 64
     7
 65
   257
 75
     7
175
     7
 42
1.0
 92
        8
 66
     7
 43
1.0
 76
     1
 77
     6
 78
     2
 67
     7
 79
     5
170
     0
171
     0
290
     0
174
     0
 93
        1
 44
0.0
173
     0
291
     1
 45
0.0
1001
ACAD
1000
AcDbSavedByObjectVersion
1070
     0
  0
VISUALSTYLE
  5
9EA0
102
{ACAD_XDICTIONARY
360
9F0F
102
}
102
{ACAD_REACTORS
330
9E89
102
}
330
9E89
100
AcDbVisualStyle
  2
OverhangOff
 70
    21
 71
     2
 72
     2
 73
     0
 90
        0
 40
-0.6
 41
-30.0
 62
     5
 63
     7
 74
     1
 91
        4
 64
     7
 65
   257
 75
     1
175
     1
 42
1.0
 92
        9
 66
     7
 43
1.0
 76
     1
 77
     6
 78
     2
 67
     7
 79
     5
170
     0
171
     0
290
     0
174
     0
 93
        1
 44
0.0
173
     0
291
     1
 45
0.0
1001
ACAD
1000
AcDbSavedByObjectVersion
1070
     0
  0
VISUALSTYLE
  5
9E93
102
{ACAD_XDICTIONARY
360
9EF5
102
}
102
{ACAD_REACTORS
330
9E89
102
}
330
9E89
100
AcDbVisualStyle
  2
Realistic
 70
     8
 71
     2
 72
     3
 73
     0
 90
        2
 40
-0.6
 41
30.0
 62
     5
 63
     7
 74
     0
 91
        0
 64
     7
 65
   257
 75
     1
175
     1
 42
1.0
 92
        8
 66
   257
 43
1.0
 76
     1
 77
     6
 78
     2
 67
     7
 79
     3
170
     0
171
     0
290
     0
174
     0
 93
       13
 44
0.0
173
     0
291
     0
 45
0.0
1001
ACAD
1000
AcDbSavedByObjectVersion
1070
     0
  0
VISUALSTYLE
  5
9E9E
102
{ACAD_XDICTIONARY
360
9F0B
102
}
102
{ACAD_REACTORS
330
9E89
102
}
330
9E89
100
AcDbVisualStyle
  2
Shaded
 70
    27
 71
     2
 72
     2
 73
     1
 90
        2
 40
-0.6
 41
30.0
 62
     5
 63
     7
 74
     0
 91
        4
 64
     7
 65
   257
 75
     1
175
     1
 42
1.0
 92
        8
 66
   257
 43
1.0
 76
     1
 77
     6
 78
     2
 67
     8
 79
     3
170
     0
171
     0
290
     0
174
     0
 93
        5
 44
0.0
173
     0
291
     0
 45
0.0
1001
ACAD
1000
AcDbSavedByObjectVersion
1070
     0
  0
VISUALSTYLE
  5
9E9D
102
{ACAD_XDICTIONARY
360
9F09
102
}
102
{ACAD_REACTORS
330
9E89
102
}
330
9E89
100
AcDbVisualStyle
  2
Shaded with edges
 70
    26
 71
     2
 72
     2
 73
     1
 90
        2
 40
-0.6
 41
30.0
 62
     5
 63
     7
 74
     1
 91
       10
 64
     7
 65
   257
 75
     2
175
     1
 42
1.0
 92
        8
 66
   257
 43
1.0
 76
     1
 77
     6
 78
     2
 67
     7
 79
     3
170
     0
171
     0
290
     0
174
     0
 93
        5
 44
0.0
173
     0
291
     0
 45
0.0
1001
ACAD
1000
AcDbSavedByObjectVersion
1070
     0
  0
VISUALSTYLE
  5
9E9A
102
{ACAD_XDICTIONARY
360
9F03
102
}
102
{ACAD_REACTORS
330
9E89
102
}
330
9E89
100
AcDbVisualStyle
  2
Shades of Gray
 70
    23
 71
     2
 72
     2
 73
     3
 90
        0
 40
-0.6
 41
-30.0
 62
     5
 63
     7
 74
     2
 91
        2
 64
     7
 65
     7
 75
     1
175
     1
 42
40.0
 92
        8
 66
     7
 43
1.0
 76
     1
 77
     6
 78
     2
 67
     7
 79
     3
170
     0
171
     0
290
     0
174
     0
 93
        1
 44
0.0
173
     0
291
     0
 45
0.0
1001
ACAD
1000
AcDbSavedByObjectVersion
1070
     0
  0
VISUALSTYLE
  5
9E9B
102
{ACAD_XDICTIONARY
360
9F05
102
}
102
{ACAD_REACTORS
330
9E89
102
}
330
9E89
100
AcDbVisualStyle
  2
Sketchy
 70
    24
 71
     1
 72
     2
 73
     2
 90
        0
 40
-0.6
 41
-30.0
 62
     5
 63
     7
 74
     2
 91
        2
 64
     7
 65
     7
 75
     1
175
     1
 42
40.0
 92
       11
 66
     7
 43
1.0
 76
     1
 77
     6
 78
     2
 67
     7
 79
     6
170
     0
171
     0
290
     0
174
     0
 93
        1
 44
0.0
173
     0
291
     0
 45
0.0
1001
ACAD
1000
AcDbSavedByObjectVersion
1070
     0
  0
VISUALSTYLE
  5
9E96
102
{ACAD_XDICTIONARY
360
9EFB
102
}
102
{ACAD_REACTORS
330
9E89
102
}
330
9E89
100
AcDbVisualStyle
  2
Thicken
 70
    13
 71
     2
 72
     2
 73
     0
 90
        0
 40
-0.6
 41
-30.0
 62
     5
 63
     7
 74
     1
 91
        4
 64
     7
 65
   257
 75
     1
175
     1
 42
1.0
 92
       12
 66
     7
 43
1.0
 76
     1
 77
     6
 78
     2
 67
     7
 79
     5
170
     0
171
     0
290
     0
174
     0
 93
        1
 44
0.0
173
     0
291
     1
 45
0.0
1001
ACAD
1000
AcDbSavedByObjectVersion
1070
     0
  0
VISUALSTYLE
  5
9E90
102
{ACAD_XDICTIONARY
360
9EEF
102
}
102
{ACAD_REACTORS
330
9E89
102
}
330
9E89
100
AcDbVisualStyle
  2
Wireframe
 70
     5
 71
     0
 72
     2
 73
     0
 90
        0
 40
-0.6
 41
-30.0
 62
     5
 63
     7
 74
     1
 91
        4
 64
     7
 65
   257
 75
     1
175
     1
 42
1.0
 92
        0
 66
   257
 43
1.0
 76
     1
 77
     6
 78
     2
 67
     7
 79
     3
170
     0
171
     0
290
     0
174
     0
 93
        1
 44
0.0
173
     0
291
     0
 45
0.0
1001
ACAD
1000
AcDbSavedByObjectVersion
1070
     0
  0
VISUALSTYLE
  5
9E9C
102
{ACAD_XDICTIONARY
360
9F07
102
}
102
{ACAD_REACTORS
330
9E89
102
}
330
9E89
100
AcDbVisualStyle
  2
X-Ray
 70
    25
 71
     2
 72
     2
 73
     1
 90
        1
 40
0.5
 41
-30.0
 62
     5
 63
     7
 74
     1
 91
        0
 64
     7
 65
   257
 75
     1
175
     1
 42
1.0
 92
        8
 66
     7
 43
1.0
 76
     1
 77
     6
 78
     2
 67
     7
 79
     3
170
     0
171
     0
290
     0
174
     0
 93
       13
 44
0.0
173
     0
291
     0
 45
0.0
1001
ACAD
1000
AcDbSavedByObjectVersion
1070
     0
  0
DICTIONARYVAR
  5
9ED6
102
{ACAD_REACTORS
330
9ED1
102
}
330
9ED1
100
DictionaryVariables
280
     0
  1
1:1
  0
DICTIONARYVAR
  5
9ED3
102
{ACAD_REACTORS
330
9ED1
102
}
330
9ED1
100
DictionaryVariables
280
     0
  1
STANDARD
  0
DICTIONARYVAR
  5
9ED2
102
{ACAD_REACTORS
330
9ED1
102
}
330
9ED1
100
DictionaryVariables
280
     0
  1
STANDARD
  0
DICTIONARYVAR
  5
9ED4
102
{ACAD_REACTORS
330
9ED1
102
}
330
9ED1
100
DictionaryVariables
280
     0
  1
Imperial24
  0
DICTIONARYVAR
  5
9ED5
102
{ACAD_REACTORS
330
9ED1
102
}
330
9ED1
100
DictionaryVariables
280
     0
  1
Imperial24
  0
DICTIONARYVAR
  5
9ED9
102
{ACAD_REACTORS
330
9ED1
102
}
330
9ED1
100
DictionaryVariables
280
     0
  1
1
  0
DICTIONARYVAR
  5
9ED8
102
{ACAD_REACTORS
330
9ED1
102
}
330
9ED1
100
DictionaryVariables
280
     0
  1
0
  0
DICTIONARYVAR
  5
9ED7
102
{ACAD_REACTORS
330
9ED1
102
}
330
9ED1
100
DictionaryVariables
280
     0
  1
127
  0
DICTIONARYVAR
  5
9EDA
102
{ACAD_REACTORS
330
9ED1
102
}
330
9ED1
100
DictionaryVariables
280
     0
  1
2
  0
DICTIONARY
  5
9F17
330
9EBC
100
AcDbDictionary
280
     1
281
     1
  3
ACAD_XREC_ROUNDTRIP
360
9F18
  0
DICTIONARY
  5
9F19
330
9EBD
100
AcDbDictionary
280
     1
281
     1
  3
ACAD_XREC_ROUNDTRIP
360
9F1A
  0
DICTIONARY
  5
9F1B
330
9EBE
100
AcDbDictionary
280
     1
281
     1
  3
ACAD_XREC_ROUNDTRIP
360
9F1C
  0
DICTIONARY
  5
9E7A
330
9E79
100
AcDbDictionary
280
     1
281
     1
  3
ACAD_XREC_ROUNDTRIP
360
9EE1
  3
BUMPTILE
360
9E7C
  3
DIFFUSETILE
360
9E7B
  3
OPACITYTILE
360
9E7F
  3
REFLECTIONTILE
360
9E7E
  3
REFRACTIONTILE
360
9E80
  3
SPECULARTILE
360
9E7D
  0
DICTIONARY
  5
9E72
330
9E71
100
AcDbDictionary
280
     1
281
     1
  3
ACAD_XREC_ROUNDTRIP
360
9EE0
  3
BUMPTILE
360
9E74
  3
DIFFUSETILE
360
9E73
  3
OPACITYTILE
360
9E77
  3
REFLECTIONTILE
360
9E76
  3
REFRACTIONTILE
360
9E78
  3
SPECULARTILE
360
9E75
  0
DICTIONARY
  5
9E82
330
9E81
100
AcDbDictionary
280
     1
281
     1
  3
ACAD_XREC_ROUNDTRIP
360
9EE2
  3
BUMPTILE
360
9E84
  3
DIFFUSETILE
360
9E83
  3
OPACITYTILE
360
9E87
  3
REFLECTIONTILE
360
9E86
  3
REFRACTIONTILE
360
9E88
  3
SPECULARTILE
360
9E85
  0
DICTIONARY
  5
9F15
330
9EBA
100
AcDbDictionary
280
     1
281
     1
  3
ACAD_XREC_ROUNDTRIP
360
9F16
  0
DICTIONARY
  5
9EDC
330
9EA4
100
AcDbDictionary
280
     1
281
     1
  3
ACAD_ROUNDTRIP_2008_TABLESTYLE_CELLSTYLEMAP
360
9EDD
  3
ACAD_XREC_ROUNDTRIP
360
9F13
  0
DICTIONARY
  5
9EED
330
9E8F
100
AcDbDictionary
280
     1
281
     1
  3
ACAD_XREC_ROUNDTRIP
360
9EEE
  0
DICTIONARY
  5
9EEB
330
9E8E
100
AcDbDictionary
280
     1
281
     1
  3
ACAD_XREC_ROUNDTRIP
360
9EEC
  0
DICTIONARY
  5
9EF9
330
9E95
100
AcDbDictionary
280
     1
281
     1
  3
ACAD_XREC_ROUNDTRIP
360
9EFA
  0
DICTIONARY
  5
9F01
330
9E99
100
AcDbDictionary
280
     1
281
     1
  3
ACAD_XREC_ROUNDTRIP
360
9F02
  0
DICTIONARY
  5
9EF3
330
9E92
100
AcDbDictionary
280
     1
281
     1
  3
ACAD_XREC_ROUNDTRIP
360
9EF4
  0
DICTIONARY
  5
9EF7
330
9E94
100
AcDbDictionary
280
     1
281
     1
  3
ACAD_XREC_ROUNDTRIP
360
9EF8
  0
DICTIONARY
  5
9F11
330
9EA1
100
AcDbDictionary
280
     1
281
     1
  3
ACAD_XREC_ROUNDTRIP
360
9F12
  0
DICTIONARY
  5
9EFF
330
9E98
100
AcDbDictionary
280
     1
281
     1
  3
ACAD_XREC_ROUNDTRIP
360
9F00
  0
DICTIONARY
  5
9EE3
330
9E8A
100
AcDbDictionary
280
     1
281
     1
  3
ACAD_XREC_ROUNDTRIP
360
9EE4
  0
DICTIONARY
  5
9EE5
330
9E8B
100
AcDbDictionary
280
     1
281
     1
  3
ACAD_XREC_ROUNDTRIP
360
9EE6
  0
DICTIONARY
  5
9EE7
330
9E8C
100
AcDbDictionary
280
     1
281
     1
  3
ACAD_XREC_ROUNDTRIP
360
9EE8
  0
DICTIONARY
  5
9EE9
330
9E8D
100
AcDbDictionary
280
     1
281
     1
  3
ACAD_XREC_ROUNDTRIP
360
9EEA
  0
DICTIONARY
  5
9EF1
330
9E91
100
AcDbDictionary
280
     1
281
     1
  3
ACAD_XREC_ROUNDTRIP
360
9EF2
  0
DICTIONARY
  5
9F0D
330
9E9F
100
AcDbDictionary
280
     1
281
     1
  3
ACAD_XREC_ROUNDTRIP
360
9F0E
  0
DICTIONARY
  5
9EFD
330
9E97
100
AcDbDictionary
280
     1
281
     1
  3
ACAD_XREC_ROUNDTRIP
360
9EFE
  0
DICTIONARY
  5
9F0F
330
9EA0
100
AcDbDictionary
280
     1
281
     1
  3
ACAD_XREC_ROUNDTRIP
360
9F10
  0
DICTIONARY
  5
9EF5
330
9E93
100
AcDbDictionary
280
     1
281
     1
  3
ACAD_XREC_ROUNDTRIP
360
9EF6
  0
DICTIONARY
  5
9F0B
330
9E9E
100
AcDbDictionary
280
     1
281
     1
  3
ACAD_XREC_ROUNDTRIP
360
9F0C
  0
DICTIONARY
  5
9F09
330
9E9D
100
AcDbDictionary
280
     1
281
     1
  3
ACAD_XREC_ROUNDTRIP
360
9F0A
  0
DICTIONARY
  5
9F03
330
9E9A
100
AcDbDictionary
280
     1
281
     1
  3
ACAD_XREC_ROUNDTRIP
360
9F04
  0
DICTIONARY
  5
9F05
330
9E9B
100
AcDbDictionary
280
     1
281
     1
  3
ACAD_XREC_ROUNDTRIP
360
9F06
  0
DICTIONARY
  5
9EFB
330
9E96
100
AcDbDictionary
280
     1
281
     1
  3
ACAD_XREC_ROUNDTRIP
360
9EFC
  0
DICTIONARY
  5
9EEF
330
9E90
100
AcDbDictionary
280
     1
281
     1
  3
ACAD_XREC_ROUNDTRIP
360
9EF0
  0
DICTIONARY
  5
9F07
330
9E9C
100
AcDbDictionary
280
     1
281
     1
  3
ACAD_XREC_ROUNDTRIP
360
9F08
  0
XRECORD
  5
9F18
102
{ACAD_REACTORS
330
9F17
102
}
330
9F17
100
AcDbXrecord
280
     1
102
DISPLAYNAME
  1
Imperial24
102
FLAGS
 90
        0
  0
XRECORD
  5
9F1A
102
{ACAD_REACTORS
330
9F19
102
}
330
9F19
100
AcDbXrecord
280
     1
102
SHADEPLOT
 70
     0
102
SHADEPLOTRESLEVEL
 70
     2
102
SHADEPLOTCUSTOMDPI
 70
   300
  0
XRECORD
  5
9F1C
102
{ACAD_REACTORS
330
9F1B
102
}
330
9F1B
100
AcDbXrecord
280
     1
102
SHADEPLOT
 70
     0
102
SHADEPLOTRESLEVEL
 70
     2
102
SHADEPLOTCUSTOMDPI
 70
   300
  0
XRECORD
  5
9EE1
102
{ACAD_REACTORS
330
9E7A
102
}
330
9E7A
100
AcDbXrecord
280
     1
102
MATERIAL
148
0.0
149
0.0
149
0.0
 93
        0
 94
      127
282
     0
 72
     0
 77
     0
171
     0
175
     0
179
     0
273
     0
  0
XRECORD
  5
9E7C
102
{ACAD_REACTORS
330
9E7A
102
}
330
9E7A
100
AcDbXrecord
280
     1
270
     1
271
     1
  0
XRECORD
  5
9E7B
102
{ACAD_REACTORS
330
9E7A
102
}
330
9E7A
100
AcDbXrecord
280
     1
270
     1
271
     1
  0
XRECORD
  5
9E7F
102
{ACAD_REACTORS
330
9E7A
102
}
330
9E7A
100
AcDbXrecord
280
     1
270
     1
271
     1
  0
XRECORD
  5
9E7E
102
{ACAD_REACTORS
330
9E7A
102
}
330
9E7A
100
AcDbXrecord
280
     1
270
     1
271
     1
  0
XRECORD
  5
9E80
102
{ACAD_REACTORS
330
9E7A
102
}
330
9E7A
100
AcDbXrecord
280
     1
270
     1
271
     1
  0
XRECORD
  5
9E7D
102
{ACAD_REACTORS
330
9E7A
102
}
330
9E7A
100
AcDbXrecord
280
     1
270
     1
271
     1
  0
XRECORD
  5
9EE0
102
{ACAD_REACTORS
330
9E72
102
}
330
9E72
100
AcDbXrecord
280
     1
102
MATERIAL
148
0.0
149
0.0
149
0.0
 93
        0
 94
      127
282
     0
 72
     0
 77
     0
171
     0
175
     0
179
     0
273
     0
  0
XRECORD
  5
9E74
102
{ACAD_REACTORS
330
9E72
102
}
330
9E72
100
AcDbXrecord
280
     1
270
     1
271
     1
  0
XRECORD
  5
9E73
102
{ACAD_REACTORS
330
9E72
102
}
330
9E72
100
AcDbXrecord
280
     1
270
     1
271
     1
  0
XRECORD
  5
9E77
102
{ACAD_REACTORS
330
9E72
102
}
330
9E72
100
AcDbXrecord
280
     1
270
     1
271
     1
  0
XRECORD
  5
9E76
102
{ACAD_REACTORS
330
9E72
102
}
330
9E72
100
AcDbXrecord
280
     1
270
     1
271
     1
  0
XRECORD
  5
9E78
102
{ACAD_REACTORS
330
9E72
102
}
330
9E72
100
AcDbXrecord
280
     1
270
     1
271
     1
  0
XRECORD
  5
9E75
102
{ACAD_REACTORS
330
9E72
102
}
330
9E72
100
AcDbXrecord
280
     1
270
     1
271
     1
  0
XRECORD
  5
9EE2
102
{ACAD_REACTORS
330
9E82
102
}
330
9E82
100
AcDbXrecord
280
     1
102
MATERIAL
148
0.0
149
0.0
149
0.0
 93
        0
 94
      127
282
     0
 72
     0
 77
     0
171
     0
175
     0
179
     0
273
     0
  0
XRECORD
  5
9E84
102
{ACAD_REACTORS
330
9E82
102
}
330
9E82
100
AcDbXrecord
280
     1
270
     1
271
     1
  0
XRECORD
  5
9E83
102
{ACAD_REACTORS
330
9E82
102
}
330
9E82
100
AcDbXrecord
280
     1
270
     1
271
     1
  0
XRECORD
  5
9E87
102
{ACAD_REACTORS
330
9E82
102
}
330
9E82
100
AcDbXrecord
280
     1
270
     1
271
     1
  0
XRECORD
  5
9E86
102
{ACAD_REACTORS
330
9E82
102
}
330
9E82
100
AcDbXrecord
280
     1
270
     1
271
     1
  0
XRECORD
  5
9E88
102
{ACAD_REACTORS
330
9E82
102
}
330
9E82
100
AcDbXrecord
280
     1
270
     1
271
     1
  0
XRECORD
  5
9E85
102
{ACAD_REACTORS
330
9E82
102
}
330
9E82
100
AcDbXrecord
280
     1
270
     1
271
     1
  0
XRECORD
  5
9F16
102
{ACAD_REACTORS
330
9F15
102
}
330
9F15
100
AcDbXrecord
280
     1
102
DISPLAYNAME
  1
Imperial24
102
FLAGS
 90
        0
  0
CELLSTYLEMAP
  5
9EDD
102
{ACAD_REACTORS
330
9EDC
102
}
330
9EDC
100
AcDbCellStyleMap
 90
        3
300
CELLSTYLE
  1
TABLEFORMAT_BEGIN
 90
        5
170
     1
 91
        0
 92
    32768
 62
   257
 93
        1
300
CONTENTFORMAT
  1
CONTENTFORMAT_BEGIN
 90
        0
 91
        0
 92
      512
 93
        0
300

 40
0.0
140
1.0
 94
        5
 62
     0
340
9C9A
144
0.25
309
CONTENTFORMAT_END
171
     0
 94
        0
309
TABLEFORMAT_END
  1
CELLSTYLE_BEGIN
 90
        1
 91
        1
300
_TITLE
309
CELLSTYLE_END
300
CELLSTYLE
  1
TABLEFORMAT_BEGIN
 90
        5
170
     1
 91
        0
 92
        0
 62
   257
 93
        1
300
CONTENTFORMAT
  1
CONTENTFORMAT_BEGIN
 90
        0
 91
        0
 92
      512
 93
        0
300

 40
0.0
140
1.0
 94
        5
 62
     0
340
9C9A
144
0.18
309
CONTENTFORMAT_END
171
     0
 94
        0
309
TABLEFORMAT_END
  1
CELLSTYLE_BEGIN
 90
        2
 91
        1
300
_HEADER
309
CELLSTYLE_END
300
CELLSTYLE
  1
TABLEFORMAT_BEGIN
 90
        5
170
     1
 91
        0
 92
        0
 62
   257
 93
        1
300
CONTENTFORMAT
  1
CONTENTFORMAT_BEGIN
 90
        0
 91
        0
 92
      512
 93
        0
300

 40
0.0
140
1.0
 94
        2
 62
     0
340
9C9A
144
0.18
309
CONTENTFORMAT_END
171
     0
 94
        0
309
TABLEFORMAT_END
  1
CELLSTYLE_BEGIN
 90
        3
 91
        2
300
_DATA
309
CELLSTYLE_END
  0
XRECORD
  5
9F13
102
{ACAD_REACTORS
330
9EDC
102
}
330
9EDC
100
AcDbXrecord
280
     1
102
ACAD_ROUNDTRIP_PRE2007_TABLESTYLE
 90
      512
 91
        0
  1

 92
      512
 93
        0
  2

 94
      512
 95
        0
  3

  0
XRECORD
  5
9EEE
102
{ACAD_REACTORS
330
9EED
102
}
330
9EED
100
AcDbXrecord
280
     1
102
RTVSPost2010Prop28
280
     1
102
RTVSPost2010PropOp28
 70
     1
102
RTVSPost2010Prop29
280
     1
102
RTVSPost2010PropOp29
 70
     1
102
RTVSPost2010Prop30
280
     0
102
RTVSPost2010PropOp30
 70
     1
102
RTVSPost2010Prop31
280
     0
102
RTVSPost2010PropOp31
 70
     1
102
RTVSPost2010Prop32
280
     0
102
RTVSPost2010PropOp32
 70
     1
102
RTVSPost2010Prop33
280
     0
102
RTVSPost2010PropOp33
 70
     1
102
RTVSPost2010Prop34
280
     0
102
RTVSPost2010PropOp34
 70
     1
102
RTVSPost2010Prop35
280
     0
102
RTVSPost2010PropOp35
 70
     1
102
RTVSPost2010Prop36
280
     0
102
RTVSPost2010PropOp36
 70
     1
102
RTVSPost2010Prop37
 90
       50
102
RTVSPost2010PropOp37
 70
     1
102
RTVSPost2010Prop38
140
0.0
102
RTVSPost2010PropOp38
 70
     1
102
RTVSPost2010Prop39
140
1.0
102
RTVSPost2010PropOp39
 70
     1
102
RTVSPost2010Prop40
 90
        0
102
RTVSPost2010PropOp40
 70
     1
102
RTVSPost2010Prop41ColorIndex
 90
       18
102
RTVSPost2010Prop41ColorRGB
 90
        0
102
RTVSPost2010PropOp41
 70
     1
102
RTVSPost2010Prop42
 90
       50
102
RTVSPost2010PropOp42
 70
     1
102
RTVSPost2010Prop43
 90
        3
102
RTVSPost2010PropOp43
 70
     1
102
RTVSPost2010Prop44ColorIndex
 90
        5
102
RTVSPost2010Prop44ColorRGB
 90
      255
102
RTVSPost2010PropOp44
 70
     1
102
RTVSPost2010Prop45
280
     0
102
RTVSPost2010PropOp45
 70
     1
102
RTVSPost2010Prop46
 90
       50
102
RTVSPost2010PropOp46
 70
     1
102
RTVSPost2010Prop47
 90
       50
102
RTVSPost2010PropOp47
 70
     1
102
RTVSPost2010Prop48
 90
       50
102
RTVSPost2010PropOp48
 70
     1
102
RTVSPost2010Prop49
280
     0
102
RTVSPost2010PropOp49
 70
     1
102
RTVSPost2010Prop50
 90
       50
102
RTVSPost2010PropOp50
 70
     1
102
RTVSPost2010Prop51ColorIndex
 90
      256
102
RTVSPost2010Prop51ColorRGB
 90
-16777216
102
RTVSPost2010PropOp51
 70
     0
102
RTVSPost2010Prop52
140
1.0
102
RTVSPost2010PropOp52
 70
     0
102
RTVSPost2010Prop53
 90
        2
102
RTVSPost2010PropOp53
 70
     1
102
RTVSPost2010Prop54
  1
strokes_ogs.tif
102
RTVSPost2010PropOp54
 70
     1
102
RTVSPost2010Prop55
280
     0
102
RTVSPost2010PropOp55
 70
     1
102
RTVSPost2010Prop56
140
1.0
102
RTVSPost2010PropOp56
 70
     1
102
RTVSPost2010Prop57
140
1.0
102
RTVSPost2010PropOp57
 70
     1
102
RTVSPropertyOp0
 70
     1
102
RTVSPropertyOp1
 70
     1
102
RTVSPropertyOp2
 70
     1
102
RTVSPropertyOp3
 70
     1
102
RTVSPropertyOp4
 70
     1
102
RTVSPropertyOp5
 70
     1
102
RTVSPropertyOp6
 70
     1
102
RTVSPropertyOp7
 70
     1
102
RTVSPropertyOp8
 70
     1
102
RTVSPropertyOp9
 70
     1
102
RTVSPropertyOp10
 70
     1
102
RTVSPropertyOp11
 70
     1
102
RTVSPropertyOp12
 70
     1
102
RTVSPropertyOp13
 70
     1
102
RTVSPropertyOp14
 70
     1
102
RTVSPropertyOp15
 70
     1
102
RTVSPropertyOp16
 70
     1
102
RTVSPropertyOp17
 70
     1
102
RTVSPropertyOp18
 70
     1
102
RTVSPropertyOp19
 70
     1
102
RTVSPropertyOp20
 70
     1
102
RTVSPropertyOp21
 70
     1
102
RTVSPropertyOp22
 70
     1
102
RTVSPropertyOp23
 70
     1
102
RTVSPropertyOp24
 70
     1
102
RTVSPropertyOp25
 70
     1
102
RTVSPropertyOp26
 70
     1
102
RTVSPropertyOp27
 70
     1
102
RTVSPropertyOp28
 70
     1
102
RTVSPropertyOp29
 70
     1
102
RTVSPropertyOp30
 70
     1
102
RTVSPropertyOp31
 70
     1
102
RTVSPropertyOp32
 70
     1
102
RTVSPropertyOp33
 70
     1
102
RTVSPropertyOp34
 70
     1
102
RTVSPropertyOp35
 70
     1
102
RTVSPropertyOp36
 70
     1
102
RTVSPropertyOp37
 70
     1
102
RTVSPropertyOp38
 70
     1
102
RTVSPropertyOp39
 70
     1
102
RTVSPropertyOp40
 70
     1
102
RTVSPropertyOp41
 70
     1
102
RTVSPropertyOp42
 70
     1
102
RTVSPropertyOp43
 70
     1
102
RTVSPropertyOp44
 70
     1
102
RTVSPropertyOp45
 70
     1
102
RTVSPropertyOp46
 70
     1
102
RTVSPropertyOp47
 70
     1
102
RTVSPropertyOp48
 70
     1
102
RTVSPropertyOp49
 70
     1
102
RTVSPropertyOp50
 70
     1
102
RTVSPropertyOp51
 70
     0
102
RTVSPropertyOp52
 70
     0
102
RTVSPropertyOp53
 70
     1
102
RTVSPropertyOp54
 70
     1
102
RTVSPropertyOp55
 70
     1
102
RTVSPropertyOp56
 70
     1
102
RTVSPropertyOp57
 70
     1
102
RTVSPropertyOp58
 70
     1
102
RTVSPropertyOp59
 70
     1
102
RTVSPropertyOp60
 70
     1
102
RTVSPropertyOp61
 70
     1
102
RTVSPropertyOp62
 70
     1
  0
XRECORD
  5
9EEC
102
{ACAD_REACTORS
330
9EEB
102
}
330
9EEB
100
AcDbXrecord
280
     1
102
RTVSPost2010Prop28
280
     0
102
RTVSPost2010PropOp28
 70
     1
102
RTVSPost2010Prop29
280
     1
102
RTVSPost2010PropOp29
 70
     1
102
RTVSPost2010Prop30
280
     1
102
RTVSPost2010PropOp30
 70
     1
102
RTVSPost2010Prop31
280
     0
102
RTVSPost2010PropOp31
 70
     1
102
RTVSPost2010Prop32
280
     0
102
RTVSPost2010PropOp32
 70
     1
102
RTVSPost2010Prop33
280
     0
102
RTVSPost2010PropOp33
 70
     1
102
RTVSPost2010Prop34
280
     0
102
RTVSPost2010PropOp34
 70
     1
102
RTVSPost2010Prop35
280
     0
102
RTVSPost2010PropOp35
 70
     1
102
RTVSPost2010Prop36
280
     0
102
RTVSPost2010PropOp36
 70
     1
102
RTVSPost2010Prop37
 90
       50
102
RTVSPost2010PropOp37
 70
     1
102
RTVSPost2010Prop38
140
0.0
102
RTVSPost2010PropOp38
 70
     1
102
RTVSPost2010Prop39
140
1.0
102
RTVSPost2010PropOp39
 70
     1
102
RTVSPost2010Prop40
 90
        0
102
RTVSPost2010PropOp40
 70
     1
102
RTVSPost2010Prop41ColorIndex
 90
       18
102
RTVSPost2010Prop41ColorRGB
 90
        0
102
RTVSPost2010PropOp41
 70
     1
102
RTVSPost2010Prop42
 90
       50
102
RTVSPost2010PropOp42
 70
     1
102
RTVSPost2010Prop43
 90
        3
102
RTVSPost2010PropOp43
 70
     1
102
RTVSPost2010Prop44ColorIndex
 90
        5
102
RTVSPost2010Prop44ColorRGB
 90
      255
102
RTVSPost2010PropOp44
 70
     1
102
RTVSPost2010Prop45
280
     0
102
RTVSPost2010PropOp45
 70
     1
102
RTVSPost2010Prop46
 90
       50
102
RTVSPost2010PropOp46
 70
     1
102
RTVSPost2010Prop47
 90
       50
102
RTVSPost2010PropOp47
 70
     1
102
RTVSPost2010Prop48
 90
       50
102
RTVSPost2010PropOp48
 70
     1
102
RTVSPost2010Prop49
280
     0
102
RTVSPost2010PropOp49
 70
     1
102
RTVSPost2010Prop50
 90
       50
102
RTVSPost2010PropOp50
 70
     1
102
RTVSPost2010Prop51ColorIndex
 90
      256
102
RTVSPost2010Prop51ColorRGB
 90
-16777216
102
RTVSPost2010PropOp51
 70
     0
102
RTVSPost2010Prop52
140
1.0
102
RTVSPost2010PropOp52
 70
     0
102
RTVSPost2010Prop53
 90
        2
102
RTVSPost2010PropOp53
 70
     1
102
RTVSPost2010Prop54
  1
strokes_ogs.tif
102
RTVSPost2010PropOp54
 70
     1
102
RTVSPost2010Prop55
280
     0
102
RTVSPost2010PropOp55
 70
     1
102
RTVSPost2010Prop56
140
1.0
102
RTVSPost2010PropOp56
 70
     1
102
RTVSPost2010Prop57
140
1.0
102
RTVSPost2010PropOp57
 70
     1
102
RTVSPropertyOp0
 70
     1
102
RTVSPropertyOp1
 70
     1
102
RTVSPropertyOp2
 70
     1
102
RTVSPropertyOp3
 70
     1
102
RTVSPropertyOp4
 70
     1
102
RTVSPropertyOp5
 70
     1
102
RTVSPropertyOp6
 70
     1
102
RTVSPropertyOp7
 70
     1
102
RTVSPropertyOp8
 70
     1
102
RTVSPropertyOp9
 70
     1
102
RTVSPropertyOp10
 70
     1
102
RTVSPropertyOp11
 70
     1
102
RTVSPropertyOp12
 70
     1
102
RTVSPropertyOp13
 70
     1
102
RTVSPropertyOp14
 70
     1
102
RTVSPropertyOp15
 70
     1
102
RTVSPropertyOp16
 70
     1
102
RTVSPropertyOp17
 70
     1
102
RTVSPropertyOp18
 70
     1
102
RTVSPropertyOp19
 70
     1
102
RTVSPropertyOp20
 70
     1
102
RTVSPropertyOp21
 70
     1
102
RTVSPropertyOp22
 70
     1
102
RTVSPropertyOp23
 70
     1
102
RTVSPropertyOp24
 70
     1
102
RTVSPropertyOp25
 70
     1
102
RTVSPropertyOp26
 70
     1
102
RTVSPropertyOp27
 70
     1
102
RTVSPropertyOp28
 70
     1
102
RTVSPropertyOp29
 70
     1
102
RTVSPropertyOp30
 70
     1
102
RTVSPropertyOp31
 70
     1
102
RTVSPropertyOp32
 70
     1
102
RTVSPropertyOp33
 70
     1
102
RTVSPropertyOp34
 70
     1
102
RTVSPropertyOp35
 70
     1
102
RTVSPropertyOp36
 70
     1
102
RTVSPropertyOp37
 70
     1
102
RTVSPropertyOp38
 70
     1
102
RTVSPropertyOp39
 70
     1
102
RTVSPropertyOp40
 70
     1
102
RTVSPropertyOp41
 70
     1
102
RTVSPropertyOp42
 70
     1
102
RTVSPropertyOp43
 70
     1
102
RTVSPropertyOp44
 70
     1
102
RTVSPropertyOp45
 70
     1
102
RTVSPropertyOp46
 70
     1
102
RTVSPropertyOp47
 70
     1
102
RTVSPropertyOp48
 70
     1
102
RTVSPropertyOp49
 70
     1
102
RTVSPropertyOp50
 70
     1
102
RTVSPropertyOp51
 70
     0
102
RTVSPropertyOp52
 70
     0
102
RTVSPropertyOp53
 70
     1
102
RTVSPropertyOp54
 70
     1
102
RTVSPropertyOp55
 70
     1
102
RTVSPropertyOp56
 70
     1
102
RTVSPropertyOp57
 70
     1
102
RTVSPropertyOp58
 70
     1
102
RTVSPropertyOp59
 70
     1
102
RTVSPropertyOp60
 70
     1
102
RTVSPropertyOp61
 70
     1
102
RTVSPropertyOp62
 70
     1
  0
XRECORD
  5
9EFA
102
{ACAD_REACTORS
330
9EF9
102
}
330
9EF9
100
AcDbXrecord
280
     1
102
RTVSPost2010Prop28
280
     0
102
RTVSPost2010PropOp28
 70
     1
102
RTVSPost2010Prop29
280
     1
102
RTVSPost2010PropOp29
 70
     1
102
RTVSPost2010Prop30
280
     1
102
RTVSPost2010PropOp30
 70
     1
102
RTVSPost2010Prop31
280
     0
102
RTVSPost2010PropOp31
 70
     1
102
RTVSPost2010Prop32
280
     0
102
RTVSPost2010PropOp32
 70
     1
102
RTVSPost2010Prop33
280
     0
102
RTVSPost2010PropOp33
 70
     1
102
RTVSPost2010Prop34
280
     0
102
RTVSPost2010PropOp34
 70
     1
102
RTVSPost2010Prop35
280
     0
102
RTVSPost2010PropOp35
 70
     1
102
RTVSPost2010Prop36
280
     0
102
RTVSPost2010PropOp36
 70
     1
102
RTVSPost2010Prop37
 90
       50
102
RTVSPost2010PropOp37
 70
     1
102
RTVSPost2010Prop38
140
0.0
102
RTVSPost2010PropOp38
 70
     1
102
RTVSPost2010Prop39
140
1.0
102
RTVSPost2010PropOp39
 70
     1
102
RTVSPost2010Prop40
 90
        0
102
RTVSPost2010PropOp40
 70
     1
102
RTVSPost2010Prop41ColorIndex
 90
       18
102
RTVSPost2010Prop41ColorRGB
 90
        0
102
RTVSPost2010PropOp41
 70
     1
102
RTVSPost2010Prop42
 90
       50
102
RTVSPost2010PropOp42
 70
     1
102
RTVSPost2010Prop43
 90
        3
102
RTVSPost2010PropOp43
 70
     1
102
RTVSPost2010Prop44ColorIndex
 90
        5
102
RTVSPost2010Prop44ColorRGB
 90
      255
102
RTVSPost2010PropOp44
 70
     1
102
RTVSPost2010Prop45
280
     0
102
RTVSPost2010PropOp45
 70
     1
102
RTVSPost2010Prop46
 90
       50
102
RTVSPost2010PropOp46
 70
     1
102
RTVSPost2010Prop47
 90
       50
102
RTVSPost2010PropOp47
 70
     1
102
RTVSPost2010Prop48
 90
       50
102
RTVSPost2010PropOp48
 70
     1
102
RTVSPost2010Prop49
280
     0
102
RTVSPost2010PropOp49
 70
     1
102
RTVSPost2010Prop50
 90
       50
102
RTVSPost2010PropOp50
 70
     1
102
RTVSPost2010Prop51ColorIndex
 90
      256
102
RTVSPost2010Prop51ColorRGB
 90
-16777216
102
RTVSPost2010PropOp51
 70
     0
102
RTVSPost2010Prop52
140
1.0
102
RTVSPost2010PropOp52
 70
     0
102
RTVSPost2010Prop53
 90
        2
102
RTVSPost2010PropOp53
 70
     1
102
RTVSPost2010Prop54
  1
strokes_ogs.tif
102
RTVSPost2010PropOp54
 70
     1
102
RTVSPost2010Prop55
280
     0
102
RTVSPost2010PropOp55
 70
     1
102
RTVSPost2010Prop56
140
1.0
102
RTVSPost2010PropOp56
 70
     1
102
RTVSPost2010Prop57
140
1.0
102
RTVSPost2010PropOp57
 70
     1
102
RTVSPropertyOp0
 70
     1
102
RTVSPropertyOp1
 70
     1
102
RTVSPropertyOp2
 70
     1
102
RTVSPropertyOp3
 70
     1
102
RTVSPropertyOp4
 70
     1
102
RTVSPropertyOp5
 70
     1
102
RTVSPropertyOp6
 70
     1
102
RTVSPropertyOp7
 70
     1
102
RTVSPropertyOp8
 70
     1
102
RTVSPropertyOp9
 70
     1
102
RTVSPropertyOp10
 70
     1
102
RTVSPropertyOp11
 70
     1
102
RTVSPropertyOp12
 70
     1
102
RTVSPropertyOp13
 70
     1
102
RTVSPropertyOp14
 70
     1
102
RTVSPropertyOp15
 70
     1
102
RTVSPropertyOp16
 70
     1
102
RTVSPropertyOp17
 70
     1
102
RTVSPropertyOp18
 70
     1
102
RTVSPropertyOp19
 70
     1
102
RTVSPropertyOp20
 70
     1
102
RTVSPropertyOp21
 70
     1
102
RTVSPropertyOp22
 70
     1
102
RTVSPropertyOp23
 70
     1
102
RTVSPropertyOp24
 70
     1
102
RTVSPropertyOp25
 70
     1
102
RTVSPropertyOp26
 70
     1
102
RTVSPropertyOp27
 70
     1
102
RTVSPropertyOp28
 70
     1
102
RTVSPropertyOp29
 70
     1
102
RTVSPropertyOp30
 70
     1
102
RTVSPropertyOp31
 70
     1
102
RTVSPropertyOp32
 70
     1
102
RTVSPropertyOp33
 70
     1
102
RTVSPropertyOp34
 70
     1
102
RTVSPropertyOp35
 70
     1
102
RTVSPropertyOp36
 70
     1
102
RTVSPropertyOp37
 70
     1
102
RTVSPropertyOp38
 70
     1
102
RTVSPropertyOp39
 70
     1
102
RTVSPropertyOp40
 70
     1
102
RTVSPropertyOp41
 70
     1
102
RTVSPropertyOp42
 70
     1
102
RTVSPropertyOp43
 70
     1
102
RTVSPropertyOp44
 70
     1
102
RTVSPropertyOp45
 70
     1
102
RTVSPropertyOp46
 70
     1
102
RTVSPropertyOp47
 70
     1
102
RTVSPropertyOp48
 70
     1
102
RTVSPropertyOp49
 70
     1
102
RTVSPropertyOp50
 70
     1
102
RTVSPropertyOp51
 70
     0
102
RTVSPropertyOp52
 70
     0
102
RTVSPropertyOp53
 70
     1
102
RTVSPropertyOp54
 70
     1
102
RTVSPropertyOp55
 70
     1
102
RTVSPropertyOp56
 70
     1
102
RTVSPropertyOp57
 70
     1
102
RTVSPropertyOp58
 70
     1
102
RTVSPropertyOp59
 70
     1
102
RTVSPropertyOp60
 70
     1
102
RTVSPropertyOp61
 70
     1
102
RTVSPropertyOp62
 70
     1
  0
XRECORD
  5
9F02
102
{ACAD_REACTORS
330
9F01
102
}
330
9F01
100
AcDbXrecord
280
     1
102
RTVSPost2010Prop28
280
     0
102
RTVSPost2010PropOp28
 70
     1
102
RTVSPost2010Prop29
280
     1
102
RTVSPost2010PropOp29
 70
     1
102
RTVSPost2010Prop30
280
     1
102
RTVSPost2010PropOp30
 70
     1
102
RTVSPost2010Prop31
280
     0
102
RTVSPost2010PropOp31
 70
     1
102
RTVSPost2010Prop32
280
     0
102
RTVSPost2010PropOp32
 70
     1
102
RTVSPost2010Prop33
280
     0
102
RTVSPost2010PropOp33
 70
     1
102
RTVSPost2010Prop34
280
     0
102
RTVSPost2010PropOp34
 70
     1
102
RTVSPost2010Prop35
280
     0
102
RTVSPost2010PropOp35
 70
     1
102
RTVSPost2010Prop36
280
     0
102
RTVSPost2010PropOp36
 70
     1
102
RTVSPost2010Prop37
 90
       50
102
RTVSPost2010PropOp37
 70
     1
102
RTVSPost2010Prop38
140
0.0
102
RTVSPost2010PropOp38
 70
     1
102
RTVSPost2010Prop39
140
1.0
102
RTVSPost2010PropOp39
 70
     1
102
RTVSPost2010Prop40
 90
        0
102
RTVSPost2010PropOp40
 70
     1
102
RTVSPost2010Prop41ColorIndex
 90
       18
102
RTVSPost2010Prop41ColorRGB
 90
        0
102
RTVSPost2010PropOp41
 70
     1
102
RTVSPost2010Prop42
 90
       50
102
RTVSPost2010PropOp42
 70
     1
102
RTVSPost2010Prop43
 90
        3
102
RTVSPost2010PropOp43
 70
     1
102
RTVSPost2010Prop44ColorIndex
 90
        5
102
RTVSPost2010Prop44ColorRGB
 90
      255
102
RTVSPost2010PropOp44
 70
     1
102
RTVSPost2010Prop45
280
     0
102
RTVSPost2010PropOp45
 70
     1
102
RTVSPost2010Prop46
 90
       50
102
RTVSPost2010PropOp46
 70
     1
102
RTVSPost2010Prop47
 90
       50
102
RTVSPost2010PropOp47
 70
     1
102
RTVSPost2010Prop48
 90
       50
102
RTVSPost2010PropOp48
 70
     1
102
RTVSPost2010Prop49
280
     0
102
RTVSPost2010PropOp49
 70
     1
102
RTVSPost2010Prop50
 90
       50
102
RTVSPost2010PropOp50
 70
     1
102
RTVSPost2010Prop51ColorIndex
 90
      256
102
RTVSPost2010Prop51ColorRGB
 90
-16777216
102
RTVSPost2010PropOp51
 70
     0
102
RTVSPost2010Prop52
140
1.0
102
RTVSPost2010PropOp52
 70
     0
102
RTVSPost2010Prop53
 90
        2
102
RTVSPost2010PropOp53
 70
     1
102
RTVSPost2010Prop54
  1
strokes_ogs.tif
102
RTVSPost2010PropOp54
 70
     1
102
RTVSPost2010Prop55
280
     0
102
RTVSPost2010PropOp55
 70
     1
102
RTVSPost2010Prop56
140
1.0
102
RTVSPost2010PropOp56
 70
     1
102
RTVSPost2010Prop57
140
1.0
102
RTVSPost2010PropOp57
 70
     1
102
RTVSPropertyOp0
 70
     1
102
RTVSPropertyOp1
 70
     1
102
RTVSPropertyOp2
 70
     1
102
RTVSPropertyOp3
 70
     1
102
RTVSPropertyOp4
 70
     1
102
RTVSPropertyOp5
 70
     1
102
RTVSPropertyOp6
 70
     1
102
RTVSPropertyOp7
 70
     1
102
RTVSPropertyOp8
 70
     1
102
RTVSPropertyOp9
 70
     1
102
RTVSPropertyOp10
 70
     1
102
RTVSPropertyOp11
 70
     1
102
RTVSPropertyOp12
 70
     1
102
RTVSPropertyOp13
 70
     1
102
RTVSPropertyOp14
 70
     1
102
RTVSPropertyOp15
 70
     1
102
RTVSPropertyOp16
 70
     1
102
RTVSPropertyOp17
 70
     1
102
RTVSPropertyOp18
 70
     1
102
RTVSPropertyOp19
 70
     1
102
RTVSPropertyOp20
 70
     1
102
RTVSPropertyOp21
 70
     1
102
RTVSPropertyOp22
 70
     1
102
RTVSPropertyOp23
 70
     1
102
RTVSPropertyOp24
 70
     1
102
RTVSPropertyOp25
 70
     1
102
RTVSPropertyOp26
 70
     1
102
RTVSPropertyOp27
 70
     1
102
RTVSPropertyOp28
 70
     1
102
RTVSPropertyOp29
 70
     1
102
RTVSPropertyOp30
 70
     1
102
RTVSPropertyOp31
 70
     1
102
RTVSPropertyOp32
 70
     1
102
RTVSPropertyOp33
 70
     1
102
RTVSPropertyOp34
 70
     1
102
RTVSPropertyOp35
 70
     1
102
RTVSPropertyOp36
 70
     1
102
RTVSPropertyOp37
 70
     1
102
RTVSPropertyOp38
 70
     1
102
RTVSPropertyOp39
 70
     1
102
RTVSPropertyOp40
 70
     1
102
RTVSPropertyOp41
 70
     1
102
RTVSPropertyOp42
 70
     1
102
RTVSPropertyOp43
 70
     1
102
RTVSPropertyOp44
 70
     1
102
RTVSPropertyOp45
 70
     1
102
RTVSPropertyOp46
 70
     1
102
RTVSPropertyOp47
 70
     1
102
RTVSPropertyOp48
 70
     1
102
RTVSPropertyOp49
 70
     1
102
RTVSPropertyOp50
 70
     1
102
RTVSPropertyOp51
 70
     0
102
RTVSPropertyOp52
 70
     0
102
RTVSPropertyOp53
 70
     1
102
RTVSPropertyOp54
 70
     1
102
RTVSPropertyOp55
 70
     1
102
RTVSPropertyOp56
 70
     1
102
RTVSPropertyOp57
 70
     1
102
RTVSPropertyOp58
 70
     1
102
RTVSPropertyOp59
 70
     1
102
RTVSPropertyOp60
 70
     1
102
RTVSPropertyOp61
 70
     1
102
RTVSPropertyOp62
 70
     1
  0
XRECORD
  5
9EF4
102
{ACAD_REACTORS
330
9EF3
102
}
330
9EF3
100
AcDbXrecord
280
     1
102
RTVSPost2010Prop28
280
     0
102
RTVSPost2010PropOp28
 70
     1
102
RTVSPost2010Prop29
280
     1
102
RTVSPost2010PropOp29
 70
     1
102
RTVSPost2010Prop30
280
     1
102
RTVSPost2010PropOp30
 70
     1
102
RTVSPost2010Prop31
280
     0
102
RTVSPost2010PropOp31
 70
     1
102
RTVSPost2010Prop32
280
     0
102
RTVSPost2010PropOp32
 70
     1
102
RTVSPost2010Prop33
280
     0
102
RTVSPost2010PropOp33
 70
     1
102
RTVSPost2010Prop34
280
     0
102
RTVSPost2010PropOp34
 70
     1
102
RTVSPost2010Prop35
280
     0
102
RTVSPost2010PropOp35
 70
     1
102
RTVSPost2010Prop36
280
     0
102
RTVSPost2010PropOp36
 70
     1
102
RTVSPost2010Prop37
 90
       50
102
RTVSPost2010PropOp37
 70
     1
102
RTVSPost2010Prop38
140
0.0
102
RTVSPost2010PropOp38
 70
     1
102
RTVSPost2010Prop39
140
1.0
102
RTVSPost2010PropOp39
 70
     1
102
RTVSPost2010Prop40
 90
        0
102
RTVSPost2010PropOp40
 70
     1
102
RTVSPost2010Prop41ColorIndex
 90
       18
102
RTVSPost2010Prop41ColorRGB
 90
        0
102
RTVSPost2010PropOp41
 70
     1
102
RTVSPost2010Prop42
 90
       50
102
RTVSPost2010PropOp42
 70
     1
102
RTVSPost2010Prop43
 90
        3
102
RTVSPost2010PropOp43
 70
     1
102
RTVSPost2010Prop44ColorIndex
 90
        5
102
RTVSPost2010Prop44ColorRGB
 90
      255
102
RTVSPost2010PropOp44
 70
     1
102
RTVSPost2010Prop45
280
     0
102
RTVSPost2010PropOp45
 70
     1
102
RTVSPost2010Prop46
 90
       50
102
RTVSPost2010PropOp46
 70
     1
102
RTVSPost2010Prop47
 90
       50
102
RTVSPost2010PropOp47
 70
     1
102
RTVSPost2010Prop48
 90
       50
102
RTVSPost2010PropOp48
 70
     1
102
RTVSPost2010Prop49
280
     0
102
RTVSPost2010PropOp49
 70
     1
102
RTVSPost2010Prop50
 90
       50
102
RTVSPost2010PropOp50
 70
     1
102
RTVSPost2010Prop51ColorIndex
 90
      256
102
RTVSPost2010Prop51ColorRGB
 90
-16777216
102
RTVSPost2010PropOp51
 70
     0
102
RTVSPost2010Prop52
140
1.0
102
RTVSPost2010PropOp52
 70
     0
102
RTVSPost2010Prop53
 90
        2
102
RTVSPost2010PropOp53
 70
     1
102
RTVSPost2010Prop54
  1
strokes_ogs.tif
102
RTVSPost2010PropOp54
 70
     1
102
RTVSPost2010Prop55
280
     0
102
RTVSPost2010PropOp55
 70
     1
102
RTVSPost2010Prop56
140
1.0
102
RTVSPost2010PropOp56
 70
     1
102
RTVSPost2010Prop57
140
1.0
102
RTVSPost2010PropOp57
 70
     1
102
RTVSPropertyOp0
 70
     1
102
RTVSPropertyOp1
 70
     1
102
RTVSPropertyOp2
 70
     1
102
RTVSPropertyOp3
 70
     1
102
RTVSPropertyOp4
 70
     1
102
RTVSPropertyOp5
 70
     1
102
RTVSPropertyOp6
 70
     1
102
RTVSPropertyOp7
 70
     1
102
RTVSPropertyOp8
 70
     1
102
RTVSPropertyOp9
 70
     1
102
RTVSPropertyOp10
 70
     1
102
RTVSPropertyOp11
 70
     1
102
RTVSPropertyOp12
 70
     1
102
RTVSPropertyOp13
 70
     1
102
RTVSPropertyOp14
 70
     1
102
RTVSPropertyOp15
 70
     1
102
RTVSPropertyOp16
 70
     1
102
RTVSPropertyOp17
 70
     1
102
RTVSPropertyOp18
 70
     1
102
RTVSPropertyOp19
 70
     1
102
RTVSPropertyOp20
 70
     1
102
RTVSPropertyOp21
 70
     1
102
RTVSPropertyOp22
 70
     1
102
RTVSPropertyOp23
 70
     1
102
RTVSPropertyOp24
 70
     1
102
RTVSPropertyOp25
 70
     1
102
RTVSPropertyOp26
 70
     1
102
RTVSPropertyOp27
 70
     1
102
RTVSPropertyOp28
 70
     1
102
RTVSPropertyOp29
 70
     1
102
RTVSPropertyOp30
 70
     1
102
RTVSPropertyOp31
 70
     1
102
RTVSPropertyOp32
 70
     1
102
RTVSPropertyOp33
 70
     1
102
RTVSPropertyOp34
 70
     1
102
RTVSPropertyOp35
 70
     1
102
RTVSPropertyOp36
 70
     1
102
RTVSPropertyOp37
 70
     1
102
RTVSPropertyOp38
 70
     1
102
RTVSPropertyOp39
 70
     1
102
RTVSPropertyOp40
 70
     1
102
RTVSPropertyOp41
 70
     1
102
RTVSPropertyOp42
 70
     1
102
RTVSPropertyOp43
 70
     1
102
RTVSPropertyOp44
 70
     1
102
RTVSPropertyOp45
 70
     1
102
RTVSPropertyOp46
 70
     1
102
RTVSPropertyOp47
 70
     1
102
RTVSPropertyOp48
 70
     1
102
RTVSPropertyOp49
 70
     1
102
RTVSPropertyOp50
 70
     1
102
RTVSPropertyOp51
 70
     0
102
RTVSPropertyOp52
 70
     0
102
RTVSPropertyOp53
 70
     1
102
RTVSPropertyOp54
 70
     1
102
RTVSPropertyOp55
 70
     1
102
RTVSPropertyOp56
 70
     1
102
RTVSPropertyOp57
 70
     1
102
RTVSPropertyOp58
 70
     1
102
RTVSPropertyOp59
 70
     1
102
RTVSPropertyOp60
 70
     1
102
RTVSPropertyOp61
 70
     1
102
RTVSPropertyOp62
 70
     1
  0
XRECORD
  5
9EF8
102
{ACAD_REACTORS
330
9EF7
102
}
330
9EF7
100
AcDbXrecord
280
     1
102
RTVSPost2010Prop28
280
     0
102
RTVSPost2010PropOp28
 70
     1
102
RTVSPost2010Prop29
280
     1
102
RTVSPost2010PropOp29
 70
     1
102
RTVSPost2010Prop30
280
     1
102
RTVSPost2010PropOp30
 70
     1
102
RTVSPost2010Prop31
280
     0
102
RTVSPost2010PropOp31
 70
     1
102
RTVSPost2010Prop32
280
     0
102
RTVSPost2010PropOp32
 70
     1
102
RTVSPost2010Prop33
280
     0
102
RTVSPost2010PropOp33
 70
     1
102
RTVSPost2010Prop34
280
     0
102
RTVSPost2010PropOp34
 70
     1
102
RTVSPost2010Prop35
280
     0
102
RTVSPost2010PropOp35
 70
     1
102
RTVSPost2010Prop36
280
     0
102
RTVSPost2010PropOp36
 70
     1
102
RTVSPost2010Prop37
 90
       50
102
RTVSPost2010PropOp37
 70
     1
102
RTVSPost2010Prop38
140
0.0
102
RTVSPost2010PropOp38
 70
     1
102
RTVSPost2010Prop39
140
1.0
102
RTVSPost2010PropOp39
 70
     1
102
RTVSPost2010Prop40
 90
        0
102
RTVSPost2010PropOp40
 70
     1
102
RTVSPost2010Prop41ColorIndex
 90
       18
102
RTVSPost2010Prop41ColorRGB
 90
        0
102
RTVSPost2010PropOp41
 70
     1
102
RTVSPost2010Prop42
 90
       50
102
RTVSPost2010PropOp42
 70
     1
102
RTVSPost2010Prop43
 90
        3
102
RTVSPost2010PropOp43
 70
     1
102
RTVSPost2010Prop44ColorIndex
 90
        5
102
RTVSPost2010Prop44ColorRGB
 90
      255
102
RTVSPost2010PropOp44
 70
     1
102
RTVSPost2010Prop45
280
     0
102
RTVSPost2010PropOp45
 70
     1
102
RTVSPost2010Prop46
 90
       50
102
RTVSPost2010PropOp46
 70
     1
102
RTVSPost2010Prop47
 90
       50
102
RTVSPost2010PropOp47
 70
     1
102
RTVSPost2010Prop48
 90
       50
102
RTVSPost2010PropOp48
 70
     1
102
RTVSPost2010Prop49
280
     0
102
RTVSPost2010PropOp49
 70
     1
102
RTVSPost2010Prop50
 90
       50
102
RTVSPost2010PropOp50
 70
     1
102
RTVSPost2010Prop51ColorIndex
 90
      256
102
RTVSPost2010Prop51ColorRGB
 90
-16777216
102
RTVSPost2010PropOp51
 70
     0
102
RTVSPost2010Prop52
140
1.0
102
RTVSPost2010PropOp52
 70
     0
102
RTVSPost2010Prop53
 90
        2
102
RTVSPost2010PropOp53
 70
     1
102
RTVSPost2010Prop54
  1
strokes_ogs.tif
102
RTVSPost2010PropOp54
 70
     1
102
RTVSPost2010Prop55
280
     0
102
RTVSPost2010PropOp55
 70
     1
102
RTVSPost2010Prop56
140
1.0
102
RTVSPost2010PropOp56
 70
     1
102
RTVSPost2010Prop57
140
1.0
102
RTVSPost2010PropOp57
 70
     1
102
RTVSPropertyOp0
 70
     1
102
RTVSPropertyOp1
 70
     1
102
RTVSPropertyOp2
 70
     1
102
RTVSPropertyOp3
 70
     1
102
RTVSPropertyOp4
 70
     1
102
RTVSPropertyOp5
 70
     1
102
RTVSPropertyOp6
 70
     1
102
RTVSPropertyOp7
 70
     1
102
RTVSPropertyOp8
 70
     1
102
RTVSPropertyOp9
 70
     1
102
RTVSPropertyOp10
 70
     1
102
RTVSPropertyOp11
 70
     1
102
RTVSPropertyOp12
 70
     1
102
RTVSPropertyOp13
 70
     1
102
RTVSPropertyOp14
 70
     1
102
RTVSPropertyOp15
 70
     1
102
RTVSPropertyOp16
 70
     1
102
RTVSPropertyOp17
 70
     1
102
RTVSPropertyOp18
 70
     1
102
RTVSPropertyOp19
 70
     1
102
RTVSPropertyOp20
 70
     1
102
RTVSPropertyOp21
 70
     1
102
RTVSPropertyOp22
 70
     1
102
RTVSPropertyOp23
 70
     1
102
RTVSPropertyOp24
 70
     1
102
RTVSPropertyOp25
 70
     1
102
RTVSPropertyOp26
 70
     1
102
RTVSPropertyOp27
 70
     1
102
RTVSPropertyOp28
 70
     1
102
RTVSPropertyOp29
 70
     1
102
RTVSPropertyOp30
 70
     1
102
RTVSPropertyOp31
 70
     1
102
RTVSPropertyOp32
 70
     1
102
RTVSPropertyOp33
 70
     1
102
RTVSPropertyOp34
 70
     1
102
RTVSPropertyOp35
 70
     1
102
RTVSPropertyOp36
 70
     1
102
RTVSPropertyOp37
 70
     1
102
RTVSPropertyOp38
 70
     1
102
RTVSPropertyOp39
 70
     1
102
RTVSPropertyOp40
 70
     1
102
RTVSPropertyOp41
 70
     1
102
RTVSPropertyOp42
 70
     1
102
RTVSPropertyOp43
 70
     1
102
RTVSPropertyOp44
 70
     1
102
RTVSPropertyOp45
 70
     1
102
RTVSPropertyOp46
 70
     1
102
RTVSPropertyOp47
 70
     1
102
RTVSPropertyOp48
 70
     1
102
RTVSPropertyOp49
 70
     1
102
RTVSPropertyOp50
 70
     1
102
RTVSPropertyOp51
 70
     0
102
RTVSPropertyOp52
 70
     0
102
RTVSPropertyOp53
 70
     1
102
RTVSPropertyOp54
 70
     1
102
RTVSPropertyOp55
 70
     1
102
RTVSPropertyOp56
 70
     1
102
RTVSPropertyOp57
 70
     1
102
RTVSPropertyOp58
 70
     1
102
RTVSPropertyOp59
 70
     1
102
RTVSPropertyOp60
 70
     1
102
RTVSPropertyOp61
 70
     1
102
RTVSPropertyOp62
 70
     1
  0
XRECORD
  5
9F12
102
{ACAD_REACTORS
330
9F11
102
}
330
9F11
100
AcDbXrecord
280
     1
102
RTVSPost2010Prop28
280
     0
102
RTVSPost2010PropOp28
 70
     1
102
RTVSPost2010Prop29
280
     1
102
RTVSPost2010PropOp29
 70
     1
102
RTVSPost2010Prop30
280
     1
102
RTVSPost2010PropOp30
 70
     1
102
RTVSPost2010Prop31
280
     0
102
RTVSPost2010PropOp31
 70
     1
102
RTVSPost2010Prop32
280
     0
102
RTVSPost2010PropOp32
 70
     1
102
RTVSPost2010Prop33
280
     0
102
RTVSPost2010PropOp33
 70
     1
102
RTVSPost2010Prop34
280
     0
102
RTVSPost2010PropOp34
 70
     1
102
RTVSPost2010Prop35
280
     0
102
RTVSPost2010PropOp35
 70
     1
102
RTVSPost2010Prop36
280
     0
102
RTVSPost2010PropOp36
 70
     1
102
RTVSPost2010Prop37
 90
       50
102
RTVSPost2010PropOp37
 70
     0
102
RTVSPost2010Prop38
140
0.0
102
RTVSPost2010PropOp38
 70
     0
102
RTVSPost2010Prop39
140
1.0
102
RTVSPost2010PropOp39
 70
     0
102
RTVSPost2010Prop40
 90
        0
102
RTVSPost2010PropOp40
 70
     0
102
RTVSPost2010Prop41ColorIndex
 90
       18
102
RTVSPost2010Prop41ColorRGB
 90
        0
102
RTVSPost2010PropOp41
 70
     0
102
RTVSPost2010Prop42
 90
       50
102
RTVSPost2010PropOp42
 70
     0
102
RTVSPost2010Prop43
 90
        3
102
RTVSPost2010PropOp43
 70
     0
102
RTVSPost2010Prop44ColorIndex
 90
        5
102
RTVSPost2010Prop44ColorRGB
 90
      255
102
RTVSPost2010PropOp44
 70
     0
102
RTVSPost2010Prop45
280
     0
102
RTVSPost2010PropOp45
 70
     1
102
RTVSPost2010Prop46
 90
       50
102
RTVSPost2010PropOp46
 70
     0
102
RTVSPost2010Prop47
 90
       50
102
RTVSPost2010PropOp47
 70
     0
102
RTVSPost2010Prop48
 90
       50
102
RTVSPost2010PropOp48
 70
     0
102
RTVSPost2010Prop49
280
     0
102
RTVSPost2010PropOp49
 70
     1
102
RTVSPost2010Prop50
 90
       50
102
RTVSPost2010PropOp50
 70
     0
102
RTVSPost2010Prop51ColorIndex
 90
      256
102
RTVSPost2010Prop51ColorRGB
 90
-16777216
102
RTVSPost2010PropOp51
 70
     0
102
RTVSPost2010Prop52
140
1.0
102
RTVSPost2010PropOp52
 70
     0
102
RTVSPost2010Prop53
 90
        2
102
RTVSPost2010PropOp53
 70
     0
102
RTVSPost2010Prop54
  1
strokes_ogs.tif
102
RTVSPost2010PropOp54
 70
     0
102
RTVSPost2010Prop55
280
     0
102
RTVSPost2010PropOp55
 70
     1
102
RTVSPost2010Prop56
140
1.0
102
RTVSPost2010PropOp56
 70
     0
102
RTVSPost2010Prop57
140
1.0
102
RTVSPost2010PropOp57
 70
     0
102
RTVSPropertyOp0
 70
     0
102
RTVSPropertyOp1
 70
     0
102
RTVSPropertyOp2
 70
     0
102
RTVSPropertyOp3
 70
     0
102
RTVSPropertyOp4
 70
     0
102
RTVSPropertyOp5
 70
     0
102
RTVSPropertyOp6
 70
     0
102
RTVSPropertyOp7
 70
     0
102
RTVSPropertyOp8
 70
     0
102
RTVSPropertyOp9
 70
     0
102
RTVSPropertyOp10
 70
     0
102
RTVSPropertyOp11
 70
     0
102
RTVSPropertyOp12
 70
     0
102
RTVSPropertyOp13
 70
     0
102
RTVSPropertyOp14
 70
     2
102
RTVSPropertyOp15
 70
     0
102
RTVSPropertyOp16
 70
     0
102
RTVSPropertyOp17
 70
     0
102
RTVSPropertyOp18
 70
     0
102
RTVSPropertyOp19
 70
     0
102
RTVSPropertyOp20
 70
     0
102
RTVSPropertyOp21
 70
     0
102
RTVSPropertyOp22
 70
     0
102
RTVSPropertyOp23
 70
     0
102
RTVSPropertyOp24
 70
     0
102
RTVSPropertyOp25
 70
     0
102
RTVSPropertyOp26
 70
     0
102
RTVSPropertyOp27
 70
     0
102
RTVSPropertyOp28
 70
     1
102
RTVSPropertyOp29
 70
     1
102
RTVSPropertyOp30
 70
     1
102
RTVSPropertyOp31
 70
     1
102
RTVSPropertyOp32
 70
     1
102
RTVSPropertyOp33
 70
     1
102
RTVSPropertyOp34
 70
     1
102
RTVSPropertyOp35
 70
     1
102
RTVSPropertyOp36
 70
     1
102
RTVSPropertyOp37
 70
     0
102
RTVSPropertyOp38
 70
     0
102
RTVSPropertyOp39
 70
     0
102
RTVSPropertyOp40
 70
     0
102
RTVSPropertyOp41
 70
     0
102
RTVSPropertyOp42
 70
     0
102
RTVSPropertyOp43
 70
     0
102
RTVSPropertyOp44
 70
     0
102
RTVSPropertyOp45
 70
     1
102
RTVSPropertyOp46
 70
     0
102
RTVSPropertyOp47
 70
     0
102
RTVSPropertyOp48
 70
     0
102
RTVSPropertyOp49
 70
     1
102
RTVSPropertyOp50
 70
     0
102
RTVSPropertyOp51
 70
     0
102
RTVSPropertyOp52
 70
     0
102
RTVSPropertyOp53
 70
     0
102
RTVSPropertyOp54
 70
     0
102
RTVSPropertyOp55
 70
     1
102
RTVSPropertyOp56
 70
     0
102
RTVSPropertyOp57
 70
     0
102
RTVSPropertyOp58
 70
     0
102
RTVSPropertyOp59
 70
     0
102
RTVSPropertyOp60
 70
     0
102
RTVSPropertyOp61
 70
     0
102
RTVSPropertyOp62
 70
     0
  0
XRECORD
  5
9F00
102
{ACAD_REACTORS
330
9EFF
102
}
330
9EFF
100
AcDbXrecord
280
     1
102
RTVSPost2010Prop28
280
     0
102
RTVSPost2010PropOp28
 70
     1
102
RTVSPost2010Prop29
280
     1
102
RTVSPost2010PropOp29
 70
     1
102
RTVSPost2010Prop30
280
     1
102
RTVSPost2010PropOp30
 70
     1
102
RTVSPost2010Prop31
280
     0
102
RTVSPost2010PropOp31
 70
     1
102
RTVSPost2010Prop32
280
     0
102
RTVSPost2010PropOp32
 70
     1
102
RTVSPost2010Prop33
280
     0
102
RTVSPost2010PropOp33
 70
     1
102
RTVSPost2010Prop34
280
     0
102
RTVSPost2010PropOp34
 70
     1
102
RTVSPost2010Prop35
280
     0
102
RTVSPost2010PropOp35
 70
     1
102
RTVSPost2010Prop36
280
     0
102
RTVSPost2010PropOp36
 70
     1
102
RTVSPost2010Prop37
 90
       50
102
RTVSPost2010PropOp37
 70
     1
102
RTVSPost2010Prop38
140
0.0
102
RTVSPost2010PropOp38
 70
     1
102
RTVSPost2010Prop39
140
1.0
102
RTVSPost2010PropOp39
 70
     1
102
RTVSPost2010Prop40
 90
        0
102
RTVSPost2010PropOp40
 70
     1
102
RTVSPost2010Prop41ColorIndex
 90
       18
102
RTVSPost2010Prop41ColorRGB
 90
        0
102
RTVSPost2010PropOp41
 70
     1
102
RTVSPost2010Prop42
 90
       50
102
RTVSPost2010PropOp42
 70
     1
102
RTVSPost2010Prop43
 90
        3
102
RTVSPost2010PropOp43
 70
     1
102
RTVSPost2010Prop44ColorIndex
 90
        5
102
RTVSPost2010Prop44ColorRGB
 90
      255
102
RTVSPost2010PropOp44
 70
     1
102
RTVSPost2010Prop45
280
     0
102
RTVSPost2010PropOp45
 70
     1
102
RTVSPost2010Prop46
 90
       50
102
RTVSPost2010PropOp46
 70
     1
102
RTVSPost2010Prop47
 90
       50
102
RTVSPost2010PropOp47
 70
     1
102
RTVSPost2010Prop48
 90
       50
102
RTVSPost2010PropOp48
 70
     1
102
RTVSPost2010Prop49
280
     0
102
RTVSPost2010PropOp49
 70
     1
102
RTVSPost2010Prop50
 90
       50
102
RTVSPost2010PropOp50
 70
     1
102
RTVSPost2010Prop51ColorIndex
 90
      256
102
RTVSPost2010Prop51ColorRGB
 90
-16777216
102
RTVSPost2010PropOp51
 70
     0
102
RTVSPost2010Prop52
140
1.0
102
RTVSPost2010PropOp52
 70
     0
102
RTVSPost2010Prop53
 90
        2
102
RTVSPost2010PropOp53
 70
     1
102
RTVSPost2010Prop54
  1
strokes_ogs.tif
102
RTVSPost2010PropOp54
 70
     1
102
RTVSPost2010Prop55
280
     0
102
RTVSPost2010PropOp55
 70
     1
102
RTVSPost2010Prop56
140
1.0
102
RTVSPost2010PropOp56
 70
     1
102
RTVSPost2010Prop57
140
1.0
102
RTVSPost2010PropOp57
 70
     1
102
RTVSPropertyOp0
 70
     1
102
RTVSPropertyOp1
 70
     1
102
RTVSPropertyOp2
 70
     1
102
RTVSPropertyOp3
 70
     1
102
RTVSPropertyOp4
 70
     1
102
RTVSPropertyOp5
 70
     1
102
RTVSPropertyOp6
 70
     1
102
RTVSPropertyOp7
 70
     1
102
RTVSPropertyOp8
 70
     1
102
RTVSPropertyOp9
 70
     1
102
RTVSPropertyOp10
 70
     1
102
RTVSPropertyOp11
 70
     1
102
RTVSPropertyOp12
 70
     1
102
RTVSPropertyOp13
 70
     1
102
RTVSPropertyOp14
 70
     1
102
RTVSPropertyOp15
 70
     1
102
RTVSPropertyOp16
 70
     1
102
RTVSPropertyOp17
 70
     1
102
RTVSPropertyOp18
 70
     1
102
RTVSPropertyOp19
 70
     1
102
RTVSPropertyOp20
 70
     1
102
RTVSPropertyOp21
 70
     1
102
RTVSPropertyOp22
 70
     1
102
RTVSPropertyOp23
 70
     1
102
RTVSPropertyOp24
 70
     1
102
RTVSPropertyOp25
 70
     1
102
RTVSPropertyOp26
 70
     1
102
RTVSPropertyOp27
 70
     1
102
RTVSPropertyOp28
 70
     1
102
RTVSPropertyOp29
 70
     1
102
RTVSPropertyOp30
 70
     1
102
RTVSPropertyOp31
 70
     1
102
RTVSPropertyOp32
 70
     1
102
RTVSPropertyOp33
 70
     1
102
RTVSPropertyOp34
 70
     1
102
RTVSPropertyOp35
 70
     1
102
RTVSPropertyOp36
 70
     1
102
RTVSPropertyOp37
 70
     1
102
RTVSPropertyOp38
 70
     1
102
RTVSPropertyOp39
 70
     1
102
RTVSPropertyOp40
 70
     1
102
RTVSPropertyOp41
 70
     1
102
RTVSPropertyOp42
 70
     1
102
RTVSPropertyOp43
 70
     1
102
RTVSPropertyOp44
 70
     1
102
RTVSPropertyOp45
 70
     1
102
RTVSPropertyOp46
 70
     1
102
RTVSPropertyOp47
 70
     1
102
RTVSPropertyOp48
 70
     1
102
RTVSPropertyOp49
 70
     1
102
RTVSPropertyOp50
 70
     1
102
RTVSPropertyOp51
 70
     0
102
RTVSPropertyOp52
 70
     0
102
RTVSPropertyOp53
 70
     1
102
RTVSPropertyOp54
 70
     1
102
RTVSPropertyOp55
 70
     1
102
RTVSPropertyOp56
 70
     1
102
RTVSPropertyOp57
 70
     1
102
RTVSPropertyOp58
 70
     1
102
RTVSPropertyOp59
 70
     1
102
RTVSPropertyOp60
 70
     1
102
RTVSPropertyOp61
 70
     1
102
RTVSPropertyOp62
 70
     1
  0
XRECORD
  5
9EE4
102
{ACAD_REACTORS
330
9EE3
102
}
330
9EE3
100
AcDbXrecord
280
     1
102
RTVSPost2010Prop28
280
     0
102
RTVSPost2010PropOp28
 70
     1
102
RTVSPost2010Prop29
280
     1
102
RTVSPost2010PropOp29
 70
     1
102
RTVSPost2010Prop30
280
     1
102
RTVSPost2010PropOp30
 70
     1
102
RTVSPost2010Prop31
280
     0
102
RTVSPost2010PropOp31
 70
     1
102
RTVSPost2010Prop32
280
     0
102
RTVSPost2010PropOp32
 70
     1
102
RTVSPost2010Prop33
280
     0
102
RTVSPost2010PropOp33
 70
     1
102
RTVSPost2010Prop34
280
     0
102
RTVSPost2010PropOp34
 70
     1
102
RTVSPost2010Prop35
280
     0
102
RTVSPost2010PropOp35
 70
     1
102
RTVSPost2010Prop36
280
     0
102
RTVSPost2010PropOp36
 70
     1
102
RTVSPost2010Prop37
 90
       50
102
RTVSPost2010PropOp37
 70
     1
102
RTVSPost2010Prop38
140
0.0
102
RTVSPost2010PropOp38
 70
     1
102
RTVSPost2010Prop39
140
1.0
102
RTVSPost2010PropOp39
 70
     1
102
RTVSPost2010Prop40
 90
        0
102
RTVSPost2010PropOp40
 70
     1
102
RTVSPost2010Prop41ColorIndex
 90
       18
102
RTVSPost2010Prop41ColorRGB
 90
        0
102
RTVSPost2010PropOp41
 70
     1
102
RTVSPost2010Prop42
 90
       50
102
RTVSPost2010PropOp42
 70
     1
102
RTVSPost2010Prop43
 90
        3
102
RTVSPost2010PropOp43
 70
     1
102
RTVSPost2010Prop44ColorIndex
 90
        5
102
RTVSPost2010Prop44ColorRGB
 90
      255
102
RTVSPost2010PropOp44
 70
     1
102
RTVSPost2010Prop45
280
     0
102
RTVSPost2010PropOp45
 70
     1
102
RTVSPost2010Prop46
 90
       50
102
RTVSPost2010PropOp46
 70
     1
102
RTVSPost2010Prop47
 90
       50
102
RTVSPost2010PropOp47
 70
     1
102
RTVSPost2010Prop48
 90
       50
102
RTVSPost2010PropOp48
 70
     1
102
RTVSPost2010Prop49
280
     0
102
RTVSPost2010PropOp49
 70
     1
102
RTVSPost2010Prop50
 90
       50
102
RTVSPost2010PropOp50
 70
     1
102
RTVSPost2010Prop51ColorIndex
 90
      256
102
RTVSPost2010Prop51ColorRGB
 90
-16777216
102
RTVSPost2010PropOp51
 70
     0
102
RTVSPost2010Prop52
140
1.0
102
RTVSPost2010PropOp52
 70
     0
102
RTVSPost2010Prop53
 90
        2
102
RTVSPost2010PropOp53
 70
     1
102
RTVSPost2010Prop54
  1
strokes_ogs.tif
102
RTVSPost2010PropOp54
 70
     1
102
RTVSPost2010Prop55
280
     0
102
RTVSPost2010PropOp55
 70
     1
102
RTVSPost2010Prop56
140
1.0
102
RTVSPost2010PropOp56
 70
     1
102
RTVSPost2010Prop57
140
1.0
102
RTVSPost2010PropOp57
 70
     1
102
RTVSPropertyOp0
 70
     1
102
RTVSPropertyOp1
 70
     1
102
RTVSPropertyOp2
 70
     1
102
RTVSPropertyOp3
 70
     1
102
RTVSPropertyOp4
 70
     1
102
RTVSPropertyOp5
 70
     1
102
RTVSPropertyOp6
 70
     1
102
RTVSPropertyOp7
 70
     1
102
RTVSPropertyOp8
 70
     1
102
RTVSPropertyOp9
 70
     1
102
RTVSPropertyOp10
 70
     1
102
RTVSPropertyOp11
 70
     1
102
RTVSPropertyOp12
 70
     1
102
RTVSPropertyOp13
 70
     1
102
RTVSPropertyOp14
 70
     1
102
RTVSPropertyOp15
 70
     1
102
RTVSPropertyOp16
 70
     1
102
RTVSPropertyOp17
 70
     1
102
RTVSPropertyOp18
 70
     1
102
RTVSPropertyOp19
 70
     1
102
RTVSPropertyOp20
 70
     1
102
RTVSPropertyOp21
 70
     1
102
RTVSPropertyOp22
 70
     1
102
RTVSPropertyOp23
 70
     1
102
RTVSPropertyOp24
 70
     1
102
RTVSPropertyOp25
 70
     1
102
RTVSPropertyOp26
 70
     1
102
RTVSPropertyOp27
 70
     1
102
RTVSPropertyOp28
 70
     1
102
RTVSPropertyOp29
 70
     1
102
RTVSPropertyOp30
 70
     1
102
RTVSPropertyOp31
 70
     1
102
RTVSPropertyOp32
 70
     1
102
RTVSPropertyOp33
 70
     1
102
RTVSPropertyOp34
 70
     1
102
RTVSPropertyOp35
 70
     1
102
RTVSPropertyOp36
 70
     1
102
RTVSPropertyOp37
 70
     1
102
RTVSPropertyOp38
 70
     1
102
RTVSPropertyOp39
 70
     1
102
RTVSPropertyOp40
 70
     1
102
RTVSPropertyOp41
 70
     1
102
RTVSPropertyOp42
 70
     1
102
RTVSPropertyOp43
 70
     1
102
RTVSPropertyOp44
 70
     1
102
RTVSPropertyOp45
 70
     1
102
RTVSPropertyOp46
 70
     1
102
RTVSPropertyOp47
 70
     1
102
RTVSPropertyOp48
 70
     1
102
RTVSPropertyOp49
 70
     1
102
RTVSPropertyOp50
 70
     1
102
RTVSPropertyOp51
 70
     0
102
RTVSPropertyOp52
 70
     0
102
RTVSPropertyOp53
 70
     1
102
RTVSPropertyOp54
 70
     1
102
RTVSPropertyOp55
 70
     1
102
RTVSPropertyOp56
 70
     1
102
RTVSPropertyOp57
 70
     1
102
RTVSPropertyOp58
 70
     1
102
RTVSPropertyOp59
 70
     1
102
RTVSPropertyOp60
 70
     1
102
RTVSPropertyOp61
 70
     1
102
RTVSPropertyOp62
 70
     1
  0
XRECORD
  5
9EE6
102
{ACAD_REACTORS
330
9EE5
102
}
330
9EE5
100
AcDbXrecord
280
     1
102
RTVSPost2010Prop28
280
     0
102
RTVSPost2010PropOp28
 70
     1
102
RTVSPost2010Prop29
280
     1
102
RTVSPost2010PropOp29
 70
     1
102
RTVSPost2010Prop30
280
     1
102
RTVSPost2010PropOp30
 70
     1
102
RTVSPost2010Prop31
280
     0
102
RTVSPost2010PropOp31
 70
     1
102
RTVSPost2010Prop32
280
     0
102
RTVSPost2010PropOp32
 70
     1
102
RTVSPost2010Prop33
280
     0
102
RTVSPost2010PropOp33
 70
     1
102
RTVSPost2010Prop34
280
     0
102
RTVSPost2010PropOp34
 70
     1
102
RTVSPost2010Prop35
280
     0
102
RTVSPost2010PropOp35
 70
     1
102
RTVSPost2010Prop36
280
     0
102
RTVSPost2010PropOp36
 70
     1
102
RTVSPost2010Prop37
 90
       50
102
RTVSPost2010PropOp37
 70
     1
102
RTVSPost2010Prop38
140
0.0
102
RTVSPost2010PropOp38
 70
     1
102
RTVSPost2010Prop39
140
1.0
102
RTVSPost2010PropOp39
 70
     1
102
RTVSPost2010Prop40
 90
        0
102
RTVSPost2010PropOp40
 70
     1
102
RTVSPost2010Prop41ColorIndex
 90
       18
102
RTVSPost2010Prop41ColorRGB
 90
        0
102
RTVSPost2010PropOp41
 70
     1
102
RTVSPost2010Prop42
 90
       50
102
RTVSPost2010PropOp42
 70
     1
102
RTVSPost2010Prop43
 90
        3
102
RTVSPost2010PropOp43
 70
     1
102
RTVSPost2010Prop44ColorIndex
 90
        5
102
RTVSPost2010Prop44ColorRGB
 90
      255
102
RTVSPost2010PropOp44
 70
     1
102
RTVSPost2010Prop45
280
     0
102
RTVSPost2010PropOp45
 70
     1
102
RTVSPost2010Prop46
 90
       50
102
RTVSPost2010PropOp46
 70
     1
102
RTVSPost2010Prop47
 90
       50
102
RTVSPost2010PropOp47
 70
     1
102
RTVSPost2010Prop48
 90
       50
102
RTVSPost2010PropOp48
 70
     1
102
RTVSPost2010Prop49
280
     0
102
RTVSPost2010PropOp49
 70
     1
102
RTVSPost2010Prop50
 90
       50
102
RTVSPost2010PropOp50
 70
     1
102
RTVSPost2010Prop51ColorIndex
 90
      256
102
RTVSPost2010Prop51ColorRGB
 90
-16777216
102
RTVSPost2010PropOp51
 70
     0
102
RTVSPost2010Prop52
140
1.0
102
RTVSPost2010PropOp52
 70
     0
102
RTVSPost2010Prop53
 90
        2
102
RTVSPost2010PropOp53
 70
     1
102
RTVSPost2010Prop54
  1
strokes_ogs.tif
102
RTVSPost2010PropOp54
 70
     1
102
RTVSPost2010Prop55
280
     0
102
RTVSPost2010PropOp55
 70
     1
102
RTVSPost2010Prop56
140
1.0
102
RTVSPost2010PropOp56
 70
     1
102
RTVSPost2010Prop57
140
1.0
102
RTVSPost2010PropOp57
 70
     1
102
RTVSPropertyOp0
 70
     1
102
RTVSPropertyOp1
 70
     1
102
RTVSPropertyOp2
 70
     1
102
RTVSPropertyOp3
 70
     1
102
RTVSPropertyOp4
 70
     1
102
RTVSPropertyOp5
 70
     1
102
RTVSPropertyOp6
 70
     1
102
RTVSPropertyOp7
 70
     1
102
RTVSPropertyOp8
 70
     1
102
RTVSPropertyOp9
 70
     1
102
RTVSPropertyOp10
 70
     1
102
RTVSPropertyOp11
 70
     1
102
RTVSPropertyOp12
 70
     1
102
RTVSPropertyOp13
 70
     1
102
RTVSPropertyOp14
 70
     1
102
RTVSPropertyOp15
 70
     1
102
RTVSPropertyOp16
 70
     1
102
RTVSPropertyOp17
 70
     1
102
RTVSPropertyOp18
 70
     1
102
RTVSPropertyOp19
 70
     1
102
RTVSPropertyOp20
 70
     1
102
RTVSPropertyOp21
 70
     1
102
RTVSPropertyOp22
 70
     1
102
RTVSPropertyOp23
 70
     1
102
RTVSPropertyOp24
 70
     1
102
RTVSPropertyOp25
 70
     1
102
RTVSPropertyOp26
 70
     1
102
RTVSPropertyOp27
 70
     1
102
RTVSPropertyOp28
 70
     1
102
RTVSPropertyOp29
 70
     1
102
RTVSPropertyOp30
 70
     1
102
RTVSPropertyOp31
 70
     1
102
RTVSPropertyOp32
 70
     1
102
RTVSPropertyOp33
 70
     1
102
RTVSPropertyOp34
 70
     1
102
RTVSPropertyOp35
 70
     1
102
RTVSPropertyOp36
 70
     1
102
RTVSPropertyOp37
 70
     1
102
RTVSPropertyOp38
 70
     1
102
RTVSPropertyOp39
 70
     1
102
RTVSPropertyOp40
 70
     1
102
RTVSPropertyOp41
 70
     1
102
RTVSPropertyOp42
 70
     1
102
RTVSPropertyOp43
 70
     1
102
RTVSPropertyOp44
 70
     1
102
RTVSPropertyOp45
 70
     1
102
RTVSPropertyOp46
 70
     1
102
RTVSPropertyOp47
 70
     1
102
RTVSPropertyOp48
 70
     1
102
RTVSPropertyOp49
 70
     1
102
RTVSPropertyOp50
 70
     1
102
RTVSPropertyOp51
 70
     0
102
RTVSPropertyOp52
 70
     0
102
RTVSPropertyOp53
 70
     1
102
RTVSPropertyOp54
 70
     1
102
RTVSPropertyOp55
 70
     1
102
RTVSPropertyOp56
 70
     1
102
RTVSPropertyOp57
 70
     1
102
RTVSPropertyOp58
 70
     1
102
RTVSPropertyOp59
 70
     1
102
RTVSPropertyOp60
 70
     1
102
RTVSPropertyOp61
 70
     1
102
RTVSPropertyOp62
 70
     1
  0
XRECORD
  5
9EE8
102
{ACAD_REACTORS
330
9EE7
102
}
330
9EE7
100
AcDbXrecord
280
     1
102
RTVSPost2010Prop28
280
     0
102
RTVSPost2010PropOp28
 70
     1
102
RTVSPost2010Prop29
280
     1
102
RTVSPost2010PropOp29
 70
     1
102
RTVSPost2010Prop30
280
     1
102
RTVSPost2010PropOp30
 70
     1
102
RTVSPost2010Prop31
280
     0
102
RTVSPost2010PropOp31
 70
     1
102
RTVSPost2010Prop32
280
     0
102
RTVSPost2010PropOp32
 70
     1
102
RTVSPost2010Prop33
280
     0
102
RTVSPost2010PropOp33
 70
     1
102
RTVSPost2010Prop34
280
     0
102
RTVSPost2010PropOp34
 70
     1
102
RTVSPost2010Prop35
280
     0
102
RTVSPost2010PropOp35
 70
     1
102
RTVSPost2010Prop36
280
     0
102
RTVSPost2010PropOp36
 70
     1
102
RTVSPost2010Prop37
 90
       50
102
RTVSPost2010PropOp37
 70
     1
102
RTVSPost2010Prop38
140
0.0
102
RTVSPost2010PropOp38
 70
     1
102
RTVSPost2010Prop39
140
1.0
102
RTVSPost2010PropOp39
 70
     1
102
RTVSPost2010Prop40
 90
        0
102
RTVSPost2010PropOp40
 70
     1
102
RTVSPost2010Prop41ColorIndex
 90
       18
102
RTVSPost2010Prop41ColorRGB
 90
        0
102
RTVSPost2010PropOp41
 70
     1
102
RTVSPost2010Prop42
 90
       50
102
RTVSPost2010PropOp42
 70
     1
102
RTVSPost2010Prop43
 90
        3
102
RTVSPost2010PropOp43
 70
     1
102
RTVSPost2010Prop44ColorIndex
 90
        5
102
RTVSPost2010Prop44ColorRGB
 90
      255
102
RTVSPost2010PropOp44
 70
     1
102
RTVSPost2010Prop45
280
     0
102
RTVSPost2010PropOp45
 70
     1
102
RTVSPost2010Prop46
 90
       50
102
RTVSPost2010PropOp46
 70
     1
102
RTVSPost2010Prop47
 90
       50
102
RTVSPost2010PropOp47
 70
     1
102
RTVSPost2010Prop48
 90
       50
102
RTVSPost2010PropOp48
 70
     1
102
RTVSPost2010Prop49
280
     0
102
RTVSPost2010PropOp49
 70
     1
102
RTVSPost2010Prop50
 90
       50
102
RTVSPost2010PropOp50
 70
     1
102
RTVSPost2010Prop51ColorIndex
 90
      256
102
RTVSPost2010Prop51ColorRGB
 90
-16777216
102
RTVSPost2010PropOp51
 70
     0
102
RTVSPost2010Prop52
140
1.0
102
RTVSPost2010PropOp52
 70
     0
102
RTVSPost2010Prop53
 90
        2
102
RTVSPost2010PropOp53
 70
     1
102
RTVSPost2010Prop54
  1
strokes_ogs.tif
102
RTVSPost2010PropOp54
 70
     1
102
RTVSPost2010Prop55
280
     0
102
RTVSPost2010PropOp55
 70
     1
102
RTVSPost2010Prop56
140
1.0
102
RTVSPost2010PropOp56
 70
     1
102
RTVSPost2010Prop57
140
1.0
102
RTVSPost2010PropOp57
 70
     1
102
RTVSPropertyOp0
 70
     1
102
RTVSPropertyOp1
 70
     1
102
RTVSPropertyOp2
 70
     1
102
RTVSPropertyOp3
 70
     1
102
RTVSPropertyOp4
 70
     1
102
RTVSPropertyOp5
 70
     1
102
RTVSPropertyOp6
 70
     1
102
RTVSPropertyOp7
 70
     1
102
RTVSPropertyOp8
 70
     1
102
RTVSPropertyOp9
 70
     1
102
RTVSPropertyOp10
 70
     1
102
RTVSPropertyOp11
 70
     1
102
RTVSPropertyOp12
 70
     1
102
RTVSPropertyOp13
 70
     1
102
RTVSPropertyOp14
 70
     1
102
RTVSPropertyOp15
 70
     1
102
RTVSPropertyOp16
 70
     1
102
RTVSPropertyOp17
 70
     1
102
RTVSPropertyOp18
 70
     1
102
RTVSPropertyOp19
 70
     1
102
RTVSPropertyOp20
 70
     1
102
RTVSPropertyOp21
 70
     1
102
RTVSPropertyOp22
 70
     1
102
RTVSPropertyOp23
 70
     1
102
RTVSPropertyOp24
 70
     1
102
RTVSPropertyOp25
 70
     1
102
RTVSPropertyOp26
 70
     1
102
RTVSPropertyOp27
 70
     1
102
RTVSPropertyOp28
 70
     1
102
RTVSPropertyOp29
 70
     1
102
RTVSPropertyOp30
 70
     1
102
RTVSPropertyOp31
 70
     1
102
RTVSPropertyOp32
 70
     1
102
RTVSPropertyOp33
 70
     1
102
RTVSPropertyOp34
 70
     1
102
RTVSPropertyOp35
 70
     1
102
RTVSPropertyOp36
 70
     1
102
RTVSPropertyOp37
 70
     1
102
RTVSPropertyOp38
 70
     1
102
RTVSPropertyOp39
 70
     1
102
RTVSPropertyOp40
 70
     1
102
RTVSPropertyOp41
 70
     1
102
RTVSPropertyOp42
 70
     1
102
RTVSPropertyOp43
 70
     1
102
RTVSPropertyOp44
 70
     1
102
RTVSPropertyOp45
 70
     1
102
RTVSPropertyOp46
 70
     1
102
RTVSPropertyOp47
 70
     1
102
RTVSPropertyOp48
 70
     1
102
RTVSPropertyOp49
 70
     1
102
RTVSPropertyOp50
 70
     1
102
RTVSPropertyOp51
 70
     0
102
RTVSPropertyOp52
 70
     0
102
RTVSPropertyOp53
 70
     1
102
RTVSPropertyOp54
 70
     1
102
RTVSPropertyOp55
 70
     1
102
RTVSPropertyOp56
 70
     1
102
RTVSPropertyOp57
 70
     1
102
RTVSPropertyOp58
 70
     1
102
RTVSPropertyOp59
 70
     1
102
RTVSPropertyOp60
 70
     1
102
RTVSPropertyOp61
 70
     1
102
RTVSPropertyOp62
 70
     1
  0
XRECORD
  5
9EEA
102
{ACAD_REACTORS
330
9EE9
102
}
330
9EE9
100
AcDbXrecord
280
     1
102
RTVSPost2010Prop28
280
     0
102
RTVSPost2010PropOp28
 70
     1
102
RTVSPost2010Prop29
280
     1
102
RTVSPost2010PropOp29
 70
     1
102
RTVSPost2010Prop30
280
     1
102
RTVSPost2010PropOp30
 70
     1
102
RTVSPost2010Prop31
280
     0
102
RTVSPost2010PropOp31
 70
     1
102
RTVSPost2010Prop32
280
     0
102
RTVSPost2010PropOp32
 70
     1
102
RTVSPost2010Prop33
280
     0
102
RTVSPost2010PropOp33
 70
     1
102
RTVSPost2010Prop34
280
     0
102
RTVSPost2010PropOp34
 70
     1
102
RTVSPost2010Prop35
280
     0
102
RTVSPost2010PropOp35
 70
     1
102
RTVSPost2010Prop36
280
     0
102
RTVSPost2010PropOp36
 70
     1
102
RTVSPost2010Prop37
 90
       50
102
RTVSPost2010PropOp37
 70
     1
102
RTVSPost2010Prop38
140
0.0
102
RTVSPost2010PropOp38
 70
     1
102
RTVSPost2010Prop39
140
1.0
102
RTVSPost2010PropOp39
 70
     1
102
RTVSPost2010Prop40
 90
        0
102
RTVSPost2010PropOp40
 70
     1
102
RTVSPost2010Prop41ColorIndex
 90
       18
102
RTVSPost2010Prop41ColorRGB
 90
        0
102
RTVSPost2010PropOp41
 70
     1
102
RTVSPost2010Prop42
 90
       50
102
RTVSPost2010PropOp42
 70
     1
102
RTVSPost2010Prop43
 90
        3
102
RTVSPost2010PropOp43
 70
     1
102
RTVSPost2010Prop44ColorIndex
 90
        5
102
RTVSPost2010Prop44ColorRGB
 90
      255
102
RTVSPost2010PropOp44
 70
     1
102
RTVSPost2010Prop45
280
     0
102
RTVSPost2010PropOp45
 70
     1
102
RTVSPost2010Prop46
 90
       50
102
RTVSPost2010PropOp46
 70
     1
102
RTVSPost2010Prop47
 90
       50
102
RTVSPost2010PropOp47
 70
     1
102
RTVSPost2010Prop48
 90
       50
102
RTVSPost2010PropOp48
 70
     1
102
RTVSPost2010Prop49
280
     0
102
RTVSPost2010PropOp49
 70
     1
102
RTVSPost2010Prop50
 90
       50
102
RTVSPost2010PropOp50
 70
     1
102
RTVSPost2010Prop51ColorIndex
 90
      256
102
RTVSPost2010Prop51ColorRGB
 90
-16777216
102
RTVSPost2010PropOp51
 70
     0
102
RTVSPost2010Prop52
140
1.0
102
RTVSPost2010PropOp52
 70
     0
102
RTVSPost2010Prop53
 90
        2
102
RTVSPost2010PropOp53
 70
     1
102
RTVSPost2010Prop54
  1
strokes_ogs.tif
102
RTVSPost2010PropOp54
 70
     1
102
RTVSPost2010Prop55
280
     0
102
RTVSPost2010PropOp55
 70
     1
102
RTVSPost2010Prop56
140
1.0
102
RTVSPost2010PropOp56
 70
     1
102
RTVSPost2010Prop57
140
1.0
102
RTVSPost2010PropOp57
 70
     1
102
RTVSPropertyOp0
 70
     1
102
RTVSPropertyOp1
 70
     1
102
RTVSPropertyOp2
 70
     1
102
RTVSPropertyOp3
 70
     1
102
RTVSPropertyOp4
 70
     1
102
RTVSPropertyOp5
 70
     1
102
RTVSPropertyOp6
 70
     1
102
RTVSPropertyOp7
 70
     1
102
RTVSPropertyOp8
 70
     1
102
RTVSPropertyOp9
 70
     1
102
RTVSPropertyOp10
 70
     1
102
RTVSPropertyOp11
 70
     1
102
RTVSPropertyOp12
 70
     1
102
RTVSPropertyOp13
 70
     1
102
RTVSPropertyOp14
 70
     1
102
RTVSPropertyOp15
 70
     1
102
RTVSPropertyOp16
 70
     1
102
RTVSPropertyOp17
 70
     1
102
RTVSPropertyOp18
 70
     1
102
RTVSPropertyOp19
 70
     1
102
RTVSPropertyOp20
 70
     1
102
RTVSPropertyOp21
 70
     1
102
RTVSPropertyOp22
 70
     1
102
RTVSPropertyOp23
 70
     1
102
RTVSPropertyOp24
 70
     1
102
RTVSPropertyOp25
 70
     1
102
RTVSPropertyOp26
 70
     1
102
RTVSPropertyOp27
 70
     1
102
RTVSPropertyOp28
 70
     1
102
RTVSPropertyOp29
 70
     1
102
RTVSPropertyOp30
 70
     1
102
RTVSPropertyOp31
 70
     1
102
RTVSPropertyOp32
 70
     1
102
RTVSPropertyOp33
 70
     1
102
RTVSPropertyOp34
 70
     1
102
RTVSPropertyOp35
 70
     1
102
RTVSPropertyOp36
 70
     1
102
RTVSPropertyOp37
 70
     1
102
RTVSPropertyOp38
 70
     1
102
RTVSPropertyOp39
 70
     1
102
RTVSPropertyOp40
 70
     1
102
RTVSPropertyOp41
 70
     1
102
RTVSPropertyOp42
 70
     1
102
RTVSPropertyOp43
 70
     1
102
RTVSPropertyOp44
 70
     1
102
RTVSPropertyOp45
 70
     1
102
RTVSPropertyOp46
 70
     1
102
RTVSPropertyOp47
 70
     1
102
RTVSPropertyOp48
 70
     1
102
RTVSPropertyOp49
 70
     1
102
RTVSPropertyOp50
 70
     1
102
RTVSPropertyOp51
 70
     0
102
RTVSPropertyOp52
 70
     0
102
RTVSPropertyOp53
 70
     1
102
RTVSPropertyOp54
 70
     1
102
RTVSPropertyOp55
 70
     1
102
RTVSPropertyOp56
 70
     1
102
RTVSPropertyOp57
 70
     1
102
RTVSPropertyOp58
 70
     1
102
RTVSPropertyOp59
 70
     1
102
RTVSPropertyOp60
 70
     1
102
RTVSPropertyOp61
 70
     1
102
RTVSPropertyOp62
 70
     1
  0
XRECORD
  5
9EF2
102
{ACAD_REACTORS
330
9EF1
102
}
330
9EF1
100
AcDbXrecord
280
     1
102
RTVSPost2010Prop28
280
     0
102
RTVSPost2010PropOp28
 70
     1
102
RTVSPost2010Prop29
280
     1
102
RTVSPost2010PropOp29
 70
     1
102
RTVSPost2010Prop30
280
     1
102
RTVSPost2010PropOp30
 70
     1
102
RTVSPost2010Prop31
280
     0
102
RTVSPost2010PropOp31
 70
     1
102
RTVSPost2010Prop32
280
     0
102
RTVSPost2010PropOp32
 70
     1
102
RTVSPost2010Prop33
280
     0
102
RTVSPost2010PropOp33
 70
     1
102
RTVSPost2010Prop34
280
     0
102
RTVSPost2010PropOp34
 70
     1
102
RTVSPost2010Prop35
280
     0
102
RTVSPost2010PropOp35
 70
     1
102
RTVSPost2010Prop36
280
     0
102
RTVSPost2010PropOp36
 70
     1
102
RTVSPost2010Prop37
 90
       50
102
RTVSPost2010PropOp37
 70
     1
102
RTVSPost2010Prop38
140
0.0
102
RTVSPost2010PropOp38
 70
     1
102
RTVSPost2010Prop39
140
1.0
102
RTVSPost2010PropOp39
 70
     1
102
RTVSPost2010Prop40
 90
        0
102
RTVSPost2010PropOp40
 70
     1
102
RTVSPost2010Prop41ColorIndex
 90
       18
102
RTVSPost2010Prop41ColorRGB
 90
        0
102
RTVSPost2010PropOp41
 70
     1
102
RTVSPost2010Prop42
 90
       50
102
RTVSPost2010PropOp42
 70
     1
102
RTVSPost2010Prop43
 90
        3
102
RTVSPost2010PropOp43
 70
     1
102
RTVSPost2010Prop44ColorIndex
 90
        5
102
RTVSPost2010Prop44ColorRGB
 90
      255
102
RTVSPost2010PropOp44
 70
     1
102
RTVSPost2010Prop45
280
     0
102
RTVSPost2010PropOp45
 70
     1
102
RTVSPost2010Prop46
 90
       50
102
RTVSPost2010PropOp46
 70
     1
102
RTVSPost2010Prop47
 90
       50
102
RTVSPost2010PropOp47
 70
     1
102
RTVSPost2010Prop48
 90
       50
102
RTVSPost2010PropOp48
 70
     1
102
RTVSPost2010Prop49
280
     0
102
RTVSPost2010PropOp49
 70
     1
102
RTVSPost2010Prop50
 90
       50
102
RTVSPost2010PropOp50
 70
     1
102
RTVSPost2010Prop51ColorIndex
 90
      256
102
RTVSPost2010Prop51ColorRGB
 90
-16777216
102
RTVSPost2010PropOp51
 70
     0
102
RTVSPost2010Prop52
140
1.0
102
RTVSPost2010PropOp52
 70
     0
102
RTVSPost2010Prop53
 90
        2
102
RTVSPost2010PropOp53
 70
     1
102
RTVSPost2010Prop54
  1
strokes_ogs.tif
102
RTVSPost2010PropOp54
 70
     1
102
RTVSPost2010Prop55
280
     0
102
RTVSPost2010PropOp55
 70
     1
102
RTVSPost2010Prop56
140
1.0
102
RTVSPost2010PropOp56
 70
     1
102
RTVSPost2010Prop57
140
1.0
102
RTVSPost2010PropOp57
 70
     1
102
RTVSPropertyOp0
 70
     1
102
RTVSPropertyOp1
 70
     1
102
RTVSPropertyOp2
 70
     1
102
RTVSPropertyOp3
 70
     1
102
RTVSPropertyOp4
 70
     1
102
RTVSPropertyOp5
 70
     1
102
RTVSPropertyOp6
 70
     1
102
RTVSPropertyOp7
 70
     1
102
RTVSPropertyOp8
 70
     1
102
RTVSPropertyOp9
 70
     1
102
RTVSPropertyOp10
 70
     1
102
RTVSPropertyOp11
 70
     1
102
RTVSPropertyOp12
 70
     1
102
RTVSPropertyOp13
 70
     1
102
RTVSPropertyOp14
 70
     1
102
RTVSPropertyOp15
 70
     1
102
RTVSPropertyOp16
 70
     1
102
RTVSPropertyOp17
 70
     1
102
RTVSPropertyOp18
 70
     1
102
RTVSPropertyOp19
 70
     1
102
RTVSPropertyOp20
 70
     1
102
RTVSPropertyOp21
 70
     1
102
RTVSPropertyOp22
 70
     1
102
RTVSPropertyOp23
 70
     1
102
RTVSPropertyOp24
 70
     1
102
RTVSPropertyOp25
 70
     1
102
RTVSPropertyOp26
 70
     1
102
RTVSPropertyOp27
 70
     1
102
RTVSPropertyOp28
 70
     1
102
RTVSPropertyOp29
 70
     1
102
RTVSPropertyOp30
 70
     1
102
RTVSPropertyOp31
 70
     1
102
RTVSPropertyOp32
 70
     1
102
RTVSPropertyOp33
 70
     1
102
RTVSPropertyOp34
 70
     1
102
RTVSPropertyOp35
 70
     1
102
RTVSPropertyOp36
 70
     1
102
RTVSPropertyOp37
 70
     1
102
RTVSPropertyOp38
 70
     1
102
RTVSPropertyOp39
 70
     1
102
RTVSPropertyOp40
 70
     1
102
RTVSPropertyOp41
 70
     1
102
RTVSPropertyOp42
 70
     1
102
RTVSPropertyOp43
 70
     1
102
RTVSPropertyOp44
 70
     1
102
RTVSPropertyOp45
 70
     1
102
RTVSPropertyOp46
 70
     1
102
RTVSPropertyOp47
 70
     1
102
RTVSPropertyOp48
 70
     1
102
RTVSPropertyOp49
 70
     1
102
RTVSPropertyOp50
 70
     1
102
RTVSPropertyOp51
 70
     0
102
RTVSPropertyOp52
 70
     0
102
RTVSPropertyOp53
 70
     1
102
RTVSPropertyOp54
 70
     1
102
RTVSPropertyOp55
 70
     1
102
RTVSPropertyOp56
 70
     1
102
RTVSPropertyOp57
 70
     1
102
RTVSPropertyOp58
 70
     1
102
RTVSPropertyOp59
 70
     1
102
RTVSPropertyOp60
 70
     1
102
RTVSPropertyOp61
 70
     1
102
RTVSPropertyOp62
 70
     1
  0
XRECORD
  5
9F0E
102
{ACAD_REACTORS
330
9F0D
102
}
330
9F0D
100
AcDbXrecord
280
     1
102
RTVSPost2010Prop28
280
     0
102
RTVSPost2010PropOp28
 70
     1
102
RTVSPost2010Prop29
280
     1
102
RTVSPost2010PropOp29
 70
     1
102
RTVSPost2010Prop30
280
     1
102
RTVSPost2010PropOp30
 70
     1
102
RTVSPost2010Prop31
280
     0
102
RTVSPost2010PropOp31
 70
     1
102
RTVSPost2010Prop32
280
     0
102
RTVSPost2010PropOp32
 70
     1
102
RTVSPost2010Prop33
280
     0
102
RTVSPost2010PropOp33
 70
     1
102
RTVSPost2010Prop34
280
     0
102
RTVSPost2010PropOp34
 70
     1
102
RTVSPost2010Prop35
280
     0
102
RTVSPost2010PropOp35
 70
     1
102
RTVSPost2010Prop36
280
     0
102
RTVSPost2010PropOp36
 70
     1
102
RTVSPost2010Prop37
 90
       50
102
RTVSPost2010PropOp37
 70
     0
102
RTVSPost2010Prop38
140
0.0
102
RTVSPost2010PropOp38
 70
     0
102
RTVSPost2010Prop39
140
1.0
102
RTVSPost2010PropOp39
 70
     0
102
RTVSPost2010Prop40
 90
        0
102
RTVSPost2010PropOp40
 70
     0
102
RTVSPost2010Prop41ColorIndex
 90
       18
102
RTVSPost2010Prop41ColorRGB
 90
        0
102
RTVSPost2010PropOp41
 70
     0
102
RTVSPost2010Prop42
 90
       50
102
RTVSPost2010PropOp42
 70
     0
102
RTVSPost2010Prop43
 90
        3
102
RTVSPost2010PropOp43
 70
     0
102
RTVSPost2010Prop44ColorIndex
 90
        5
102
RTVSPost2010Prop44ColorRGB
 90
      255
102
RTVSPost2010PropOp44
 70
     0
102
RTVSPost2010Prop45
280
     0
102
RTVSPost2010PropOp45
 70
     1
102
RTVSPost2010Prop46
 90
       50
102
RTVSPost2010PropOp46
 70
     0
102
RTVSPost2010Prop47
 90
       50
102
RTVSPost2010PropOp47
 70
     0
102
RTVSPost2010Prop48
 90
       50
102
RTVSPost2010PropOp48
 70
     0
102
RTVSPost2010Prop49
280
     0
102
RTVSPost2010PropOp49
 70
     1
102
RTVSPost2010Prop50
 90
       50
102
RTVSPost2010PropOp50
 70
     0
102
RTVSPost2010Prop51ColorIndex
 90
      256
102
RTVSPost2010Prop51ColorRGB
 90
-16777216
102
RTVSPost2010PropOp51
 70
     0
102
RTVSPost2010Prop52
140
1.0
102
RTVSPost2010PropOp52
 70
     0
102
RTVSPost2010Prop53
 90
        2
102
RTVSPost2010PropOp53
 70
     0
102
RTVSPost2010Prop54
  1
strokes_ogs.tif
102
RTVSPost2010PropOp54
 70
     0
102
RTVSPost2010Prop55
280
     0
102
RTVSPost2010PropOp55
 70
     1
102
RTVSPost2010Prop56
140
1.0
102
RTVSPost2010PropOp56
 70
     0
102
RTVSPost2010Prop57
140
1.0
102
RTVSPost2010PropOp57
 70
     0
102
RTVSPropertyOp0
 70
     0
102
RTVSPropertyOp1
 70
     0
102
RTVSPropertyOp2
 70
     0
102
RTVSPropertyOp3
 70
     0
102
RTVSPropertyOp4
 70
     0
102
RTVSPropertyOp5
 70
     0
102
RTVSPropertyOp6
 70
     0
102
RTVSPropertyOp7
 70
     0
102
RTVSPropertyOp8
 70
     0
102
RTVSPropertyOp9
 70
     0
102
RTVSPropertyOp10
 70
     0
102
RTVSPropertyOp11
 70
     0
102
RTVSPropertyOp12
 70
     0
102
RTVSPropertyOp13
 70
     0
102
RTVSPropertyOp14
 70
     2
102
RTVSPropertyOp15
 70
     0
102
RTVSPropertyOp16
 70
     0
102
RTVSPropertyOp17
 70
     0
102
RTVSPropertyOp18
 70
     0
102
RTVSPropertyOp19
 70
     0
102
RTVSPropertyOp20
 70
     0
102
RTVSPropertyOp21
 70
     0
102
RTVSPropertyOp22
 70
     0
102
RTVSPropertyOp23
 70
     0
102
RTVSPropertyOp24
 70
     0
102
RTVSPropertyOp25
 70
     0
102
RTVSPropertyOp26
 70
     0
102
RTVSPropertyOp27
 70
     0
102
RTVSPropertyOp28
 70
     1
102
RTVSPropertyOp29
 70
     1
102
RTVSPropertyOp30
 70
     1
102
RTVSPropertyOp31
 70
     1
102
RTVSPropertyOp32
 70
     1
102
RTVSPropertyOp33
 70
     1
102
RTVSPropertyOp34
 70
     1
102
RTVSPropertyOp35
 70
     1
102
RTVSPropertyOp36
 70
     1
102
RTVSPropertyOp37
 70
     0
102
RTVSPropertyOp38
 70
     0
102
RTVSPropertyOp39
 70
     0
102
RTVSPropertyOp40
 70
     0
102
RTVSPropertyOp41
 70
     0
102
RTVSPropertyOp42
 70
     0
102
RTVSPropertyOp43
 70
     0
102
RTVSPropertyOp44
 70
     0
102
RTVSPropertyOp45
 70
     1
102
RTVSPropertyOp46
 70
     0
102
RTVSPropertyOp47
 70
     0
102
RTVSPropertyOp48
 70
     0
102
RTVSPropertyOp49
 70
     1
102
RTVSPropertyOp50
 70
     0
102
RTVSPropertyOp51
 70
     0
102
RTVSPropertyOp52
 70
     0
102
RTVSPropertyOp53
 70
     0
102
RTVSPropertyOp54
 70
     0
102
RTVSPropertyOp55
 70
     1
102
RTVSPropertyOp56
 70
     0
102
RTVSPropertyOp57
 70
     0
102
RTVSPropertyOp58
 70
     0
102
RTVSPropertyOp59
 70
     0
102
RTVSPropertyOp60
 70
     0
102
RTVSPropertyOp61
 70
     0
102
RTVSPropertyOp62
 70
     0
  0
XRECORD
  5
9EFE
102
{ACAD_REACTORS
330
9EFD
102
}
330
9EFD
100
AcDbXrecord
280
     1
102
RTVSPost2010Prop28
280
     0
102
RTVSPost2010PropOp28
 70
     1
102
RTVSPost2010Prop29
280
     1
102
RTVSPost2010PropOp29
 70
     1
102
RTVSPost2010Prop30
280
     1
102
RTVSPost2010PropOp30
 70
     1
102
RTVSPost2010Prop31
280
     0
102
RTVSPost2010PropOp31
 70
     1
102
RTVSPost2010Prop32
280
     0
102
RTVSPost2010PropOp32
 70
     1
102
RTVSPost2010Prop33
280
     0
102
RTVSPost2010PropOp33
 70
     1
102
RTVSPost2010Prop34
280
     0
102
RTVSPost2010PropOp34
 70
     1
102
RTVSPost2010Prop35
280
     0
102
RTVSPost2010PropOp35
 70
     1
102
RTVSPost2010Prop36
280
     0
102
RTVSPost2010PropOp36
 70
     1
102
RTVSPost2010Prop37
 90
       50
102
RTVSPost2010PropOp37
 70
     1
102
RTVSPost2010Prop38
140
0.0
102
RTVSPost2010PropOp38
 70
     1
102
RTVSPost2010Prop39
140
1.0
102
RTVSPost2010PropOp39
 70
     1
102
RTVSPost2010Prop40
 90
        0
102
RTVSPost2010PropOp40
 70
     1
102
RTVSPost2010Prop41ColorIndex
 90
       18
102
RTVSPost2010Prop41ColorRGB
 90
        0
102
RTVSPost2010PropOp41
 70
     1
102
RTVSPost2010Prop42
 90
       50
102
RTVSPost2010PropOp42
 70
     1
102
RTVSPost2010Prop43
 90
        3
102
RTVSPost2010PropOp43
 70
     1
102
RTVSPost2010Prop44ColorIndex
 90
        5
102
RTVSPost2010Prop44ColorRGB
 90
      255
102
RTVSPost2010PropOp44
 70
     1
102
RTVSPost2010Prop45
280
     0
102
RTVSPost2010PropOp45
 70
     1
102
RTVSPost2010Prop46
 90
       50
102
RTVSPost2010PropOp46
 70
     1
102
RTVSPost2010Prop47
 90
       50
102
RTVSPost2010PropOp47
 70
     1
102
RTVSPost2010Prop48
 90
       50
102
RTVSPost2010PropOp48
 70
     1
102
RTVSPost2010Prop49
280
     0
102
RTVSPost2010PropOp49
 70
     1
102
RTVSPost2010Prop50
 90
       50
102
RTVSPost2010PropOp50
 70
     1
102
RTVSPost2010Prop51ColorIndex
 90
      256
102
RTVSPost2010Prop51ColorRGB
 90
-16777216
102
RTVSPost2010PropOp51
 70
     0
102
RTVSPost2010Prop52
140
1.0
102
RTVSPost2010PropOp52
 70
     0
102
RTVSPost2010Prop53
 90
        2
102
RTVSPost2010PropOp53
 70
     1
102
RTVSPost2010Prop54
  1
strokes_ogs.tif
102
RTVSPost2010PropOp54
 70
     1
102
RTVSPost2010Prop55
280
     0
102
RTVSPost2010PropOp55
 70
     1
102
RTVSPost2010Prop56
140
1.0
102
RTVSPost2010PropOp56
 70
     1
102
RTVSPost2010Prop57
140
1.0
102
RTVSPost2010PropOp57
 70
     1
102
RTVSPropertyOp0
 70
     1
102
RTVSPropertyOp1
 70
     1
102
RTVSPropertyOp2
 70
     1
102
RTVSPropertyOp3
 70
     1
102
RTVSPropertyOp4
 70
     1
102
RTVSPropertyOp5
 70
     1
102
RTVSPropertyOp6
 70
     1
102
RTVSPropertyOp7
 70
     1
102
RTVSPropertyOp8
 70
     1
102
RTVSPropertyOp9
 70
     1
102
RTVSPropertyOp10
 70
     1
102
RTVSPropertyOp11
 70
     1
102
RTVSPropertyOp12
 70
     1
102
RTVSPropertyOp13
 70
     1
102
RTVSPropertyOp14
 70
     1
102
RTVSPropertyOp15
 70
     1
102
RTVSPropertyOp16
 70
     1
102
RTVSPropertyOp17
 70
     1
102
RTVSPropertyOp18
 70
     1
102
RTVSPropertyOp19
 70
     1
102
RTVSPropertyOp20
 70
     1
102
RTVSPropertyOp21
 70
     1
102
RTVSPropertyOp22
 70
     1
102
RTVSPropertyOp23
 70
     1
102
RTVSPropertyOp24
 70
     1
102
RTVSPropertyOp25
 70
     1
102
RTVSPropertyOp26
 70
     1
102
RTVSPropertyOp27
 70
     1
102
RTVSPropertyOp28
 70
     1
102
RTVSPropertyOp29
 70
     1
102
RTVSPropertyOp30
 70
     1
102
RTVSPropertyOp31
 70
     1
102
RTVSPropertyOp32
 70
     1
102
RTVSPropertyOp33
 70
     1
102
RTVSPropertyOp34
 70
     1
102
RTVSPropertyOp35
 70
     1
102
RTVSPropertyOp36
 70
     1
102
RTVSPropertyOp37
 70
     1
102
RTVSPropertyOp38
 70
     1
102
RTVSPropertyOp39
 70
     1
102
RTVSPropertyOp40
 70
     1
102
RTVSPropertyOp41
 70
     1
102
RTVSPropertyOp42
 70
     1
102
RTVSPropertyOp43
 70
     1
102
RTVSPropertyOp44
 70
     1
102
RTVSPropertyOp45
 70
     1
102
RTVSPropertyOp46
 70
     1
102
RTVSPropertyOp47
 70
     1
102
RTVSPropertyOp48
 70
     1
102
RTVSPropertyOp49
 70
     1
102
RTVSPropertyOp50
 70
     1
102
RTVSPropertyOp51
 70
     0
102
RTVSPropertyOp52
 70
     0
102
RTVSPropertyOp53
 70
     1
102
RTVSPropertyOp54
 70
     1
102
RTVSPropertyOp55
 70
     1
102
RTVSPropertyOp56
 70
     1
102
RTVSPropertyOp57
 70
     1
102
RTVSPropertyOp58
 70
     1
102
RTVSPropertyOp59
 70
     1
102
RTVSPropertyOp60
 70
     1
102
RTVSPropertyOp61
 70
     1
102
RTVSPropertyOp62
 70
     1
  0
XRECORD
  5
9F10
102
{ACAD_REACTORS
330
9F0F
102
}
330
9F0F
100
AcDbXrecord
280
     1
102
RTVSPost2010Prop28
280
     0
102
RTVSPost2010PropOp28
 70
     1
102
RTVSPost2010Prop29
280
     1
102
RTVSPost2010PropOp29
 70
     1
102
RTVSPost2010Prop30
280
     1
102
RTVSPost2010PropOp30
 70
     1
102
RTVSPost2010Prop31
280
     0
102
RTVSPost2010PropOp31
 70
     1
102
RTVSPost2010Prop32
280
     0
102
RTVSPost2010PropOp32
 70
     1
102
RTVSPost2010Prop33
280
     0
102
RTVSPost2010PropOp33
 70
     1
102
RTVSPost2010Prop34
280
     0
102
RTVSPost2010PropOp34
 70
     1
102
RTVSPost2010Prop35
280
     0
102
RTVSPost2010PropOp35
 70
     1
102
RTVSPost2010Prop36
280
     0
102
RTVSPost2010PropOp36
 70
     1
102
RTVSPost2010Prop37
 90
       50
102
RTVSPost2010PropOp37
 70
     0
102
RTVSPost2010Prop38
140
0.0
102
RTVSPost2010PropOp38
 70
     0
102
RTVSPost2010Prop39
140
1.0
102
RTVSPost2010PropOp39
 70
     0
102
RTVSPost2010Prop40
 90
        0
102
RTVSPost2010PropOp40
 70
     0
102
RTVSPost2010Prop41ColorIndex
 90
       18
102
RTVSPost2010Prop41ColorRGB
 90
        0
102
RTVSPost2010PropOp41
 70
     0
102
RTVSPost2010Prop42
 90
       50
102
RTVSPost2010PropOp42
 70
     0
102
RTVSPost2010Prop43
 90
        3
102
RTVSPost2010PropOp43
 70
     0
102
RTVSPost2010Prop44ColorIndex
 90
        5
102
RTVSPost2010Prop44ColorRGB
 90
      255
102
RTVSPost2010PropOp44
 70
     0
102
RTVSPost2010Prop45
280
     0
102
RTVSPost2010PropOp45
 70
     1
102
RTVSPost2010Prop46
 90
       50
102
RTVSPost2010PropOp46
 70
     0
102
RTVSPost2010Prop47
 90
       50
102
RTVSPost2010PropOp47
 70
     0
102
RTVSPost2010Prop48
 90
       50
102
RTVSPost2010PropOp48
 70
     0
102
RTVSPost2010Prop49
280
     0
102
RTVSPost2010PropOp49
 70
     1
102
RTVSPost2010Prop50
 90
       50
102
RTVSPost2010PropOp50
 70
     0
102
RTVSPost2010Prop51ColorIndex
 90
      256
102
RTVSPost2010Prop51ColorRGB
 90
-16777216
102
RTVSPost2010PropOp51
 70
     0
102
RTVSPost2010Prop52
140
1.0
102
RTVSPost2010PropOp52
 70
     0
102
RTVSPost2010Prop53
 90
        2
102
RTVSPost2010PropOp53
 70
     0
102
RTVSPost2010Prop54
  1
strokes_ogs.tif
102
RTVSPost2010PropOp54
 70
     0
102
RTVSPost2010Prop55
280
     0
102
RTVSPost2010PropOp55
 70
     1
102
RTVSPost2010Prop56
140
1.0
102
RTVSPost2010PropOp56
 70
     0
102
RTVSPost2010Prop57
140
1.0
102
RTVSPost2010PropOp57
 70
     0
102
RTVSPropertyOp0
 70
     0
102
RTVSPropertyOp1
 70
     0
102
RTVSPropertyOp2
 70
     0
102
RTVSPropertyOp3
 70
     0
102
RTVSPropertyOp4
 70
     0
102
RTVSPropertyOp5
 70
     0
102
RTVSPropertyOp6
 70
     0
102
RTVSPropertyOp7
 70
     0
102
RTVSPropertyOp8
 70
     0
102
RTVSPropertyOp9
 70
     0
102
RTVSPropertyOp10
 70
     0
102
RTVSPropertyOp11
 70
     0
102
RTVSPropertyOp12
 70
     0
102
RTVSPropertyOp13
 70
     0
102
RTVSPropertyOp14
 70
     2
102
RTVSPropertyOp15
 70
     0
102
RTVSPropertyOp16
 70
     0
102
RTVSPropertyOp17
 70
     0
102
RTVSPropertyOp18
 70
     0
102
RTVSPropertyOp19
 70
     0
102
RTVSPropertyOp20
 70
     0
102
RTVSPropertyOp21
 70
     0
102
RTVSPropertyOp22
 70
     0
102
RTVSPropertyOp23
 70
     0
102
RTVSPropertyOp24
 70
     0
102
RTVSPropertyOp25
 70
     0
102
RTVSPropertyOp26
 70
     0
102
RTVSPropertyOp27
 70
     0
102
RTVSPropertyOp28
 70
     1
102
RTVSPropertyOp29
 70
     1
102
RTVSPropertyOp30
 70
     1
102
RTVSPropertyOp31
 70
     1
102
RTVSPropertyOp32
 70
     1
102
RTVSPropertyOp33
 70
     1
102
RTVSPropertyOp34
 70
     1
102
RTVSPropertyOp35
 70
     1
102
RTVSPropertyOp36
 70
     1
102
RTVSPropertyOp37
 70
     0
102
RTVSPropertyOp38
 70
     0
102
RTVSPropertyOp39
 70
     0
102
RTVSPropertyOp40
 70
     0
102
RTVSPropertyOp41
 70
     0
102
RTVSPropertyOp42
 70
     0
102
RTVSPropertyOp43
 70
     0
102
RTVSPropertyOp44
 70
     0
102
RTVSPropertyOp45
 70
     1
102
RTVSPropertyOp46
 70
     0
102
RTVSPropertyOp47
 70
     0
102
RTVSPropertyOp48
 70
     0
102
RTVSPropertyOp49
 70
     1
102
RTVSPropertyOp50
 70
     0
102
RTVSPropertyOp51
 70
     0
102
RTVSPropertyOp52
 70
     0
102
RTVSPropertyOp53
 70
     0
102
RTVSPropertyOp54
 70
     0
102
RTVSPropertyOp55
 70
     1
102
RTVSPropertyOp56
 70
     0
102
RTVSPropertyOp57
 70
     0
102
RTVSPropertyOp58
 70
     0
102
RTVSPropertyOp59
 70
     0
102
RTVSPropertyOp60
 70
     0
102
RTVSPropertyOp61
 70
     0
102
RTVSPropertyOp62
 70
     0
  0
XRECORD
  5
9EF6
102
{ACAD_REACTORS
330
9EF5
102
}
330
9EF5
100
AcDbXrecord
280
     1
102
RTVSPost2010Prop28
280
     0
102
RTVSPost2010PropOp28
 70
     1
102
RTVSPost2010Prop29
280
     1
102
RTVSPost2010PropOp29
 70
     1
102
RTVSPost2010Prop30
280
     1
102
RTVSPost2010PropOp30
 70
     1
102
RTVSPost2010Prop31
280
     0
102
RTVSPost2010PropOp31
 70
     1
102
RTVSPost2010Prop32
280
     0
102
RTVSPost2010PropOp32
 70
     1
102
RTVSPost2010Prop33
280
     0
102
RTVSPost2010PropOp33
 70
     1
102
RTVSPost2010Prop34
280
     0
102
RTVSPost2010PropOp34
 70
     1
102
RTVSPost2010Prop35
280
     0
102
RTVSPost2010PropOp35
 70
     1
102
RTVSPost2010Prop36
280
     0
102
RTVSPost2010PropOp36
 70
     1
102
RTVSPost2010Prop37
 90
       50
102
RTVSPost2010PropOp37
 70
     1
102
RTVSPost2010Prop38
140
0.0
102
RTVSPost2010PropOp38
 70
     1
102
RTVSPost2010Prop39
140
1.0
102
RTVSPost2010PropOp39
 70
     1
102
RTVSPost2010Prop40
 90
        0
102
RTVSPost2010PropOp40
 70
     1
102
RTVSPost2010Prop41ColorIndex
 90
       18
102
RTVSPost2010Prop41ColorRGB
 90
        0
102
RTVSPost2010PropOp41
 70
     1
102
RTVSPost2010Prop42
 90
       50
102
RTVSPost2010PropOp42
 70
     1
102
RTVSPost2010Prop43
 90
        3
102
RTVSPost2010PropOp43
 70
     1
102
RTVSPost2010Prop44ColorIndex
 90
        5
102
RTVSPost2010Prop44ColorRGB
 90
      255
102
RTVSPost2010PropOp44
 70
     1
102
RTVSPost2010Prop45
280
     0
102
RTVSPost2010PropOp45
 70
     1
102
RTVSPost2010Prop46
 90
       50
102
RTVSPost2010PropOp46
 70
     1
102
RTVSPost2010Prop47
 90
       50
102
RTVSPost2010PropOp47
 70
     1
102
RTVSPost2010Prop48
 90
       50
102
RTVSPost2010PropOp48
 70
     1
102
RTVSPost2010Prop49
280
     0
102
RTVSPost2010PropOp49
 70
     1
102
RTVSPost2010Prop50
 90
       50
102
RTVSPost2010PropOp50
 70
     1
102
RTVSPost2010Prop51ColorIndex
 90
      256
102
RTVSPost2010Prop51ColorRGB
 90
-16777216
102
RTVSPost2010PropOp51
 70
     0
102
RTVSPost2010Prop52
140
1.0
102
RTVSPost2010PropOp52
 70
     0
102
RTVSPost2010Prop53
 90
        2
102
RTVSPost2010PropOp53
 70
     1
102
RTVSPost2010Prop54
  1
strokes_ogs.tif
102
RTVSPost2010PropOp54
 70
     1
102
RTVSPost2010Prop55
280
     0
102
RTVSPost2010PropOp55
 70
     1
102
RTVSPost2010Prop56
140
1.0
102
RTVSPost2010PropOp56
 70
     1
102
RTVSPost2010Prop57
140
1.0
102
RTVSPost2010PropOp57
 70
     1
102
RTVSPropertyOp0
 70
     1
102
RTVSPropertyOp1
 70
     1
102
RTVSPropertyOp2
 70
     1
102
RTVSPropertyOp3
 70
     1
102
RTVSPropertyOp4
 70
     1
102
RTVSPropertyOp5
 70
     1
102
RTVSPropertyOp6
 70
     1
102
RTVSPropertyOp7
 70
     1
102
RTVSPropertyOp8
 70
     1
102
RTVSPropertyOp9
 70
     1
102
RTVSPropertyOp10
 70
     1
102
RTVSPropertyOp11
 70
     1
102
RTVSPropertyOp12
 70
     1
102
RTVSPropertyOp13
 70
     1
102
RTVSPropertyOp14
 70
     1
102
RTVSPropertyOp15
 70
     1
102
RTVSPropertyOp16
 70
     1
102
RTVSPropertyOp17
 70
     1
102
RTVSPropertyOp18
 70
     1
102
RTVSPropertyOp19
 70
     1
102
RTVSPropertyOp20
 70
     1
102
RTVSPropertyOp21
 70
     1
102
RTVSPropertyOp22
 70
     1
102
RTVSPropertyOp23
 70
     1
102
RTVSPropertyOp24
 70
     1
102
RTVSPropertyOp25
 70
     1
102
RTVSPropertyOp26
 70
     1
102
RTVSPropertyOp27
 70
     1
102
RTVSPropertyOp28
 70
     1
102
RTVSPropertyOp29
 70
     1
102
RTVSPropertyOp30
 70
     1
102
RTVSPropertyOp31
 70
     1
102
RTVSPropertyOp32
 70
     1
102
RTVSPropertyOp33
 70
     1
102
RTVSPropertyOp34
 70
     1
102
RTVSPropertyOp35
 70
     1
102
RTVSPropertyOp36
 70
     1
102
RTVSPropertyOp37
 70
     1
102
RTVSPropertyOp38
 70
     1
102
RTVSPropertyOp39
 70
     1
102
RTVSPropertyOp40
 70
     1
102
RTVSPropertyOp41
 70
     1
102
RTVSPropertyOp42
 70
     1
102
RTVSPropertyOp43
 70
     1
102
RTVSPropertyOp44
 70
     1
102
RTVSPropertyOp45
 70
     1
102
RTVSPropertyOp46
 70
     1
102
RTVSPropertyOp47
 70
     1
102
RTVSPropertyOp48
 70
     1
102
RTVSPropertyOp49
 70
     1
102
RTVSPropertyOp50
 70
     1
102
RTVSPropertyOp51
 70
     0
102
RTVSPropertyOp52
 70
     0
102
RTVSPropertyOp53
 70
     1
102
RTVSPropertyOp54
 70
     1
102
RTVSPropertyOp55
 70
     1
102
RTVSPropertyOp56
 70
     1
102
RTVSPropertyOp57
 70
     1
102
RTVSPropertyOp58
 70
     1
102
RTVSPropertyOp59
 70
     1
102
RTVSPropertyOp60
 70
     1
102
RTVSPropertyOp61
 70
     1
102
RTVSPropertyOp62
 70
     1
  0
XRECORD
  5
9F0C
102
{ACAD_REACTORS
330
9F0B
102
}
330
9F0B
100
AcDbXrecord
280
     1
102
RTVSPost2010Prop28
280
     0
102
RTVSPost2010PropOp28
 70
     1
102
RTVSPost2010Prop29
280
     1
102
RTVSPost2010PropOp29
 70
     1
102
RTVSPost2010Prop30
280
     1
102
RTVSPost2010PropOp30
 70
     1
102
RTVSPost2010Prop31
280
     0
102
RTVSPost2010PropOp31
 70
     1
102
RTVSPost2010Prop32
280
     0
102
RTVSPost2010PropOp32
 70
     1
102
RTVSPost2010Prop33
280
     0
102
RTVSPost2010PropOp33
 70
     1
102
RTVSPost2010Prop34
280
     0
102
RTVSPost2010PropOp34
 70
     1
102
RTVSPost2010Prop35
280
     0
102
RTVSPost2010PropOp35
 70
     1
102
RTVSPost2010Prop36
280
     0
102
RTVSPost2010PropOp36
 70
     1
102
RTVSPost2010Prop37
 90
       50
102
RTVSPost2010PropOp37
 70
     1
102
RTVSPost2010Prop38
140
0.0
102
RTVSPost2010PropOp38
 70
     1
102
RTVSPost2010Prop39
140
1.0
102
RTVSPost2010PropOp39
 70
     1
102
RTVSPost2010Prop40
 90
        0
102
RTVSPost2010PropOp40
 70
     1
102
RTVSPost2010Prop41ColorIndex
 90
       18
102
RTVSPost2010Prop41ColorRGB
 90
        0
102
RTVSPost2010PropOp41
 70
     1
102
RTVSPost2010Prop42
 90
       50
102
RTVSPost2010PropOp42
 70
     1
102
RTVSPost2010Prop43
 90
        3
102
RTVSPost2010PropOp43
 70
     1
102
RTVSPost2010Prop44ColorIndex
 90
        5
102
RTVSPost2010Prop44ColorRGB
 90
      255
102
RTVSPost2010PropOp44
 70
     1
102
RTVSPost2010Prop45
280
     0
102
RTVSPost2010PropOp45
 70
     1
102
RTVSPost2010Prop46
 90
       50
102
RTVSPost2010PropOp46
 70
     1
102
RTVSPost2010Prop47
 90
       50
102
RTVSPost2010PropOp47
 70
     1
102
RTVSPost2010Prop48
 90
       50
102
RTVSPost2010PropOp48
 70
     1
102
RTVSPost2010Prop49
280
     0
102
RTVSPost2010PropOp49
 70
     1
102
RTVSPost2010Prop50
 90
       50
102
RTVSPost2010PropOp50
 70
     1
102
RTVSPost2010Prop51ColorIndex
 90
      256
102
RTVSPost2010Prop51ColorRGB
 90
-16777216
102
RTVSPost2010PropOp51
 70
     0
102
RTVSPost2010Prop52
140
1.0
102
RTVSPost2010PropOp52
 70
     0
102
RTVSPost2010Prop53
 90
        2
102
RTVSPost2010PropOp53
 70
     1
102
RTVSPost2010Prop54
  1
strokes_ogs.tif
102
RTVSPost2010PropOp54
 70
     1
102
RTVSPost2010Prop55
280
     0
102
RTVSPost2010PropOp55
 70
     1
102
RTVSPost2010Prop56
140
1.0
102
RTVSPost2010PropOp56
 70
     1
102
RTVSPost2010Prop57
140
1.0
102
RTVSPost2010PropOp57
 70
     1
102
RTVSPropertyOp0
 70
     1
102
RTVSPropertyOp1
 70
     1
102
RTVSPropertyOp2
 70
     1
102
RTVSPropertyOp3
 70
     1
102
RTVSPropertyOp4
 70
     1
102
RTVSPropertyOp5
 70
     1
102
RTVSPropertyOp6
 70
     1
102
RTVSPropertyOp7
 70
     1
102
RTVSPropertyOp8
 70
     1
102
RTVSPropertyOp9
 70
     1
102
RTVSPropertyOp10
 70
     1
102
RTVSPropertyOp11
 70
     1
102
RTVSPropertyOp12
 70
     1
102
RTVSPropertyOp13
 70
     1
102
RTVSPropertyOp14
 70
     1
102
RTVSPropertyOp15
 70
     1
102
RTVSPropertyOp16
 70
     1
102
RTVSPropertyOp17
 70
     1
102
RTVSPropertyOp18
 70
     1
102
RTVSPropertyOp19
 70
     1
102
RTVSPropertyOp20
 70
     1
102
RTVSPropertyOp21
 70
     1
102
RTVSPropertyOp22
 70
     1
102
RTVSPropertyOp23
 70
     1
102
RTVSPropertyOp24
 70
     1
102
RTVSPropertyOp25
 70
     1
102
RTVSPropertyOp26
 70
     1
102
RTVSPropertyOp27
 70
     1
102
RTVSPropertyOp28
 70
     1
102
RTVSPropertyOp29
 70
     1
102
RTVSPropertyOp30
 70
     1
102
RTVSPropertyOp31
 70
     1
102
RTVSPropertyOp32
 70
     1
102
RTVSPropertyOp33
 70
     1
102
RTVSPropertyOp34
 70
     1
102
RTVSPropertyOp35
 70
     1
102
RTVSPropertyOp36
 70
     1
102
RTVSPropertyOp37
 70
     1
102
RTVSPropertyOp38
 70
     1
102
RTVSPropertyOp39
 70
     1
102
RTVSPropertyOp40
 70
     1
102
RTVSPropertyOp41
 70
     1
102
RTVSPropertyOp42
 70
     1
102
RTVSPropertyOp43
 70
     1
102
RTVSPropertyOp44
 70
     1
102
RTVSPropertyOp45
 70
     1
102
RTVSPropertyOp46
 70
     1
102
RTVSPropertyOp47
 70
     1
102
RTVSPropertyOp48
 70
     1
102
RTVSPropertyOp49
 70
     1
102
RTVSPropertyOp50
 70
     1
102
RTVSPropertyOp51
 70
     0
102
RTVSPropertyOp52
 70
     0
102
RTVSPropertyOp53
 70
     1
102
RTVSPropertyOp54
 70
     1
102
RTVSPropertyOp55
 70
     1
102
RTVSPropertyOp56
 70
     1
102
RTVSPropertyOp57
 70
     1
102
RTVSPropertyOp58
 70
     1
102
RTVSPropertyOp59
 70
     1
102
RTVSPropertyOp60
 70
     1
102
RTVSPropertyOp61
 70
     1
102
RTVSPropertyOp62
 70
     1
  0
XRECORD
  5
9F0A
102
{ACAD_REACTORS
330
9F09
102
}
330
9F09
100
AcDbXrecord
280
     1
102
RTVSPost2010Prop28
280
     0
102
RTVSPost2010PropOp28
 70
     1
102
RTVSPost2010Prop29
280
     1
102
RTVSPost2010PropOp29
 70
     1
102
RTVSPost2010Prop30
280
     1
102
RTVSPost2010PropOp30
 70
     1
102
RTVSPost2010Prop31
280
     0
102
RTVSPost2010PropOp31
 70
     1
102
RTVSPost2010Prop32
280
     0
102
RTVSPost2010PropOp32
 70
     1
102
RTVSPost2010Prop33
280
     0
102
RTVSPost2010PropOp33
 70
     1
102
RTVSPost2010Prop34
280
     0
102
RTVSPost2010PropOp34
 70
     1
102
RTVSPost2010Prop35
280
     0
102
RTVSPost2010PropOp35
 70
     1
102
RTVSPost2010Prop36
280
     0
102
RTVSPost2010PropOp36
 70
     1
102
RTVSPost2010Prop37
 90
       50
102
RTVSPost2010PropOp37
 70
     1
102
RTVSPost2010Prop38
140
0.0
102
RTVSPost2010PropOp38
 70
     1
102
RTVSPost2010Prop39
140
1.0
102
RTVSPost2010PropOp39
 70
     1
102
RTVSPost2010Prop40
 90
        0
102
RTVSPost2010PropOp40
 70
     1
102
RTVSPost2010Prop41ColorIndex
 90
       18
102
RTVSPost2010Prop41ColorRGB
 90
        0
102
RTVSPost2010PropOp41
 70
     1
102
RTVSPost2010Prop42
 90
       50
102
RTVSPost2010PropOp42
 70
     1
102
RTVSPost2010Prop43
 90
        3
102
RTVSPost2010PropOp43
 70
     1
102
RTVSPost2010Prop44ColorIndex
 90
        5
102
RTVSPost2010Prop44ColorRGB
 90
      255
102
RTVSPost2010PropOp44
 70
     1
102
RTVSPost2010Prop45
280
     0
102
RTVSPost2010PropOp45
 70
     1
102
RTVSPost2010Prop46
 90
       50
102
RTVSPost2010PropOp46
 70
     1
102
RTVSPost2010Prop47
 90
       50
102
RTVSPost2010PropOp47
 70
     1
102
RTVSPost2010Prop48
 90
       50
102
RTVSPost2010PropOp48
 70
     1
102
RTVSPost2010Prop49
280
     0
102
RTVSPost2010PropOp49
 70
     1
102
RTVSPost2010Prop50
 90
       50
102
RTVSPost2010PropOp50
 70
     1
102
RTVSPost2010Prop51ColorIndex
 90
      256
102
RTVSPost2010Prop51ColorRGB
 90
-16777216
102
RTVSPost2010PropOp51
 70
     0
102
RTVSPost2010Prop52
140
1.0
102
RTVSPost2010PropOp52
 70
     0
102
RTVSPost2010Prop53
 90
        2
102
RTVSPost2010PropOp53
 70
     1
102
RTVSPost2010Prop54
  1
strokes_ogs.tif
102
RTVSPost2010PropOp54
 70
     1
102
RTVSPost2010Prop55
280
     0
102
RTVSPost2010PropOp55
 70
     1
102
RTVSPost2010Prop56
140
1.0
102
RTVSPost2010PropOp56
 70
     1
102
RTVSPost2010Prop57
140
1.0
102
RTVSPost2010PropOp57
 70
     1
102
RTVSPropertyOp0
 70
     1
102
RTVSPropertyOp1
 70
     1
102
RTVSPropertyOp2
 70
     1
102
RTVSPropertyOp3
 70
     1
102
RTVSPropertyOp4
 70
     1
102
RTVSPropertyOp5
 70
     1
102
RTVSPropertyOp6
 70
     1
102
RTVSPropertyOp7
 70
     1
102
RTVSPropertyOp8
 70
     1
102
RTVSPropertyOp9
 70
     1
102
RTVSPropertyOp10
 70
     1
102
RTVSPropertyOp11
 70
     1
102
RTVSPropertyOp12
 70
     1
102
RTVSPropertyOp13
 70
     1
102
RTVSPropertyOp14
 70
     1
102
RTVSPropertyOp15
 70
     1
102
RTVSPropertyOp16
 70
     1
102
RTVSPropertyOp17
 70
     1
102
RTVSPropertyOp18
 70
     1
102
RTVSPropertyOp19
 70
     1
102
RTVSPropertyOp20
 70
     1
102
RTVSPropertyOp21
 70
     1
102
RTVSPropertyOp22
 70
     1
102
RTVSPropertyOp23
 70
     1
102
RTVSPropertyOp24
 70
     1
102
RTVSPropertyOp25
 70
     1
102
RTVSPropertyOp26
 70
     1
102
RTVSPropertyOp27
 70
     1
102
RTVSPropertyOp28
 70
     1
102
RTVSPropertyOp29
 70
     1
102
RTVSPropertyOp30
 70
     1
102
RTVSPropertyOp31
 70
     1
102
RTVSPropertyOp32
 70
     1
102
RTVSPropertyOp33
 70
     1
102
RTVSPropertyOp34
 70
     1
102
RTVSPropertyOp35
 70
     1
102
RTVSPropertyOp36
 70
     1
102
RTVSPropertyOp37
 70
     1
102
RTVSPropertyOp38
 70
     1
102
RTVSPropertyOp39
 70
     1
102
RTVSPropertyOp40
 70
     1
102
RTVSPropertyOp41
 70
     1
102
RTVSPropertyOp42
 70
     1
102
RTVSPropertyOp43
 70
     1
102
RTVSPropertyOp44
 70
     1
102
RTVSPropertyOp45
 70
     1
102
RTVSPropertyOp46
 70
     1
102
RTVSPropertyOp47
 70
     1
102
RTVSPropertyOp48
 70
     1
102
RTVSPropertyOp49
 70
     1
102
RTVSPropertyOp50
 70
     1
102
RTVSPropertyOp51
 70
     0
102
RTVSPropertyOp52
 70
     0
102
RTVSPropertyOp53
 70
     1
102
RTVSPropertyOp54
 70
     1
102
RTVSPropertyOp55
 70
     1
102
RTVSPropertyOp56
 70
     1
102
RTVSPropertyOp57
 70
     1
102
RTVSPropertyOp58
 70
     1
102
RTVSPropertyOp59
 70
     1
102
RTVSPropertyOp60
 70
     1
102
RTVSPropertyOp61
 70
     1
102
RTVSPropertyOp62
 70
     1
  0
XRECORD
  5
9F04
102
{ACAD_REACTORS
330
9F03
102
}
330
9F03
100
AcDbXrecord
280
     1
102
RTVSPost2010Prop28
280
     0
102
RTVSPost2010PropOp28
 70
     1
102
RTVSPost2010Prop29
280
     1
102
RTVSPost2010PropOp29
 70
     1
102
RTVSPost2010Prop30
280
     1
102
RTVSPost2010PropOp30
 70
     1
102
RTVSPost2010Prop31
280
     0
102
RTVSPost2010PropOp31
 70
     1
102
RTVSPost2010Prop32
280
     0
102
RTVSPost2010PropOp32
 70
     1
102
RTVSPost2010Prop33
280
     0
102
RTVSPost2010PropOp33
 70
     1
102
RTVSPost2010Prop34
280
     0
102
RTVSPost2010PropOp34
 70
     1
102
RTVSPost2010Prop35
280
     0
102
RTVSPost2010PropOp35
 70
     1
102
RTVSPost2010Prop36
280
     0
102
RTVSPost2010PropOp36
 70
     1
102
RTVSPost2010Prop37
 90
       50
102
RTVSPost2010PropOp37
 70
     1
102
RTVSPost2010Prop38
140
0.0
102
RTVSPost2010PropOp38
 70
     1
102
RTVSPost2010Prop39
140
1.0
102
RTVSPost2010PropOp39
 70
     1
102
RTVSPost2010Prop40
 90
        0
102
RTVSPost2010PropOp40
 70
     1
102
RTVSPost2010Prop41ColorIndex
 90
       18
102
RTVSPost2010Prop41ColorRGB
 90
        0
102
RTVSPost2010PropOp41
 70
     1
102
RTVSPost2010Prop42
 90
       50
102
RTVSPost2010PropOp42
 70
     1
102
RTVSPost2010Prop43
 90
        3
102
RTVSPost2010PropOp43
 70
     1
102
RTVSPost2010Prop44ColorIndex
 90
        5
102
RTVSPost2010Prop44ColorRGB
 90
      255
102
RTVSPost2010PropOp44
 70
     1
102
RTVSPost2010Prop45
280
     0
102
RTVSPost2010PropOp45
 70
     1
102
RTVSPost2010Prop46
 90
       50
102
RTVSPost2010PropOp46
 70
     1
102
RTVSPost2010Prop47
 90
       50
102
RTVSPost2010PropOp47
 70
     1
102
RTVSPost2010Prop48
 90
       50
102
RTVSPost2010PropOp48
 70
     1
102
RTVSPost2010Prop49
280
     0
102
RTVSPost2010PropOp49
 70
     1
102
RTVSPost2010Prop50
 90
       50
102
RTVSPost2010PropOp50
 70
     1
102
RTVSPost2010Prop51ColorIndex
 90
      256
102
RTVSPost2010Prop51ColorRGB
 90
-16777216
102
RTVSPost2010PropOp51
 70
     0
102
RTVSPost2010Prop52
140
1.0
102
RTVSPost2010PropOp52
 70
     0
102
RTVSPost2010Prop53
 90
        2
102
RTVSPost2010PropOp53
 70
     1
102
RTVSPost2010Prop54
  1
strokes_ogs.tif
102
RTVSPost2010PropOp54
 70
     1
102
RTVSPost2010Prop55
280
     0
102
RTVSPost2010PropOp55
 70
     1
102
RTVSPost2010Prop56
140
1.0
102
RTVSPost2010PropOp56
 70
     1
102
RTVSPost2010Prop57
140
1.0
102
RTVSPost2010PropOp57
 70
     1
102
RTVSPropertyOp0
 70
     1
102
RTVSPropertyOp1
 70
     1
102
RTVSPropertyOp2
 70
     1
102
RTVSPropertyOp3
 70
     1
102
RTVSPropertyOp4
 70
     1
102
RTVSPropertyOp5
 70
     1
102
RTVSPropertyOp6
 70
     1
102
RTVSPropertyOp7
 70
     1
102
RTVSPropertyOp8
 70
     1
102
RTVSPropertyOp9
 70
     1
102
RTVSPropertyOp10
 70
     1
102
RTVSPropertyOp11
 70
     1
102
RTVSPropertyOp12
 70
     1
102
RTVSPropertyOp13
 70
     1
102
RTVSPropertyOp14
 70
     1
102
RTVSPropertyOp15
 70
     1
102
RTVSPropertyOp16
 70
     1
102
RTVSPropertyOp17
 70
     1
102
RTVSPropertyOp18
 70
     1
102
RTVSPropertyOp19
 70
     1
102
RTVSPropertyOp20
 70
     1
102
RTVSPropertyOp21
 70
     1
102
RTVSPropertyOp22
 70
     1
102
RTVSPropertyOp23
 70
     1
102
RTVSPropertyOp24
 70
     1
102
RTVSPropertyOp25
 70
     1
102
RTVSPropertyOp26
 70
     1
102
RTVSPropertyOp27
 70
     1
102
RTVSPropertyOp28
 70
     1
102
RTVSPropertyOp29
 70
     1
102
RTVSPropertyOp30
 70
     1
102
RTVSPropertyOp31
 70
     1
102
RTVSPropertyOp32
 70
     1
102
RTVSPropertyOp33
 70
     1
102
RTVSPropertyOp34
 70
     1
102
RTVSPropertyOp35
 70
     1
102
RTVSPropertyOp36
 70
     1
102
RTVSPropertyOp37
 70
     1
102
RTVSPropertyOp38
 70
     1
102
RTVSPropertyOp39
 70
     1
102
RTVSPropertyOp40
 70
     1
102
RTVSPropertyOp41
 70
     1
102
RTVSPropertyOp42
 70
     1
102
RTVSPropertyOp43
 70
     1
102
RTVSPropertyOp44
 70
     1
102
RTVSPropertyOp45
 70
     1
102
RTVSPropertyOp46
 70
     1
102
RTVSPropertyOp47
 70
     1
102
RTVSPropertyOp48
 70
     1
102
RTVSPropertyOp49
 70
     1
102
RTVSPropertyOp50
 70
     1
102
RTVSPropertyOp51
 70
     0
102
RTVSPropertyOp52
 70
     0
102
RTVSPropertyOp53
 70
     1
102
RTVSPropertyOp54
 70
     1
102
RTVSPropertyOp55
 70
     1
102
RTVSPropertyOp56
 70
     1
102
RTVSPropertyOp57
 70
     1
102
RTVSPropertyOp58
 70
     1
102
RTVSPropertyOp59
 70
     1
102
RTVSPropertyOp60
 70
     1
102
RTVSPropertyOp61
 70
     1
102
RTVSPropertyOp62
 70
     1
  0
XRECORD
  5
9F06
102
{ACAD_REACTORS
330
9F05
102
}
330
9F05
100
AcDbXrecord
280
     1
102
RTVSPost2010Prop28
280
     0
102
RTVSPost2010PropOp28
 70
     1
102
RTVSPost2010Prop29
280
     1
102
RTVSPost2010PropOp29
 70
     1
102
RTVSPost2010Prop30
280
     1
102
RTVSPost2010PropOp30
 70
     1
102
RTVSPost2010Prop31
280
     0
102
RTVSPost2010PropOp31
 70
     1
102
RTVSPost2010Prop32
280
     0
102
RTVSPost2010PropOp32
 70
     1
102
RTVSPost2010Prop33
280
     0
102
RTVSPost2010PropOp33
 70
     1
102
RTVSPost2010Prop34
280
     0
102
RTVSPost2010PropOp34
 70
     1
102
RTVSPost2010Prop35
280
     0
102
RTVSPost2010PropOp35
 70
     1
102
RTVSPost2010Prop36
280
     0
102
RTVSPost2010PropOp36
 70
     1
102
RTVSPost2010Prop37
 90
       50
102
RTVSPost2010PropOp37
 70
     1
102
RTVSPost2010Prop38
140
0.0
102
RTVSPost2010PropOp38
 70
     1
102
RTVSPost2010Prop39
140
1.0
102
RTVSPost2010PropOp39
 70
     1
102
RTVSPost2010Prop40
 90
        0
102
RTVSPost2010PropOp40
 70
     1
102
RTVSPost2010Prop41ColorIndex
 90
       18
102
RTVSPost2010Prop41ColorRGB
 90
        0
102
RTVSPost2010PropOp41
 70
     1
102
RTVSPost2010Prop42
 90
       50
102
RTVSPost2010PropOp42
 70
     1
102
RTVSPost2010Prop43
 90
        3
102
RTVSPost2010PropOp43
 70
     1
102
RTVSPost2010Prop44ColorIndex
 90
        5
102
RTVSPost2010Prop44ColorRGB
 90
      255
102
RTVSPost2010PropOp44
 70
     1
102
RTVSPost2010Prop45
280
     0
102
RTVSPost2010PropOp45
 70
     1
102
RTVSPost2010Prop46
 90
       50
102
RTVSPost2010PropOp46
 70
     1
102
RTVSPost2010Prop47
 90
       50
102
RTVSPost2010PropOp47
 70
     1
102
RTVSPost2010Prop48
 90
       50
102
RTVSPost2010PropOp48
 70
     1
102
RTVSPost2010Prop49
280
     0
102
RTVSPost2010PropOp49
 70
     1
102
RTVSPost2010Prop50
 90
       50
102
RTVSPost2010PropOp50
 70
     1
102
RTVSPost2010Prop51ColorIndex
 90
      256
102
RTVSPost2010Prop51ColorRGB
 90
-16777216
102
RTVSPost2010PropOp51
 70
     0
102
RTVSPost2010Prop52
140
1.0
102
RTVSPost2010PropOp52
 70
     0
102
RTVSPost2010Prop53
 90
        2
102
RTVSPost2010PropOp53
 70
     1
102
RTVSPost2010Prop54
  1
strokes_ogs.tif
102
RTVSPost2010PropOp54
 70
     1
102
RTVSPost2010Prop55
280
     0
102
RTVSPost2010PropOp55
 70
     1
102
RTVSPost2010Prop56
140
1.0
102
RTVSPost2010PropOp56
 70
     1
102
RTVSPost2010Prop57
140
1.0
102
RTVSPost2010PropOp57
 70
     1
102
RTVSPropertyOp0
 70
     1
102
RTVSPropertyOp1
 70
     1
102
RTVSPropertyOp2
 70
     1
102
RTVSPropertyOp3
 70
     1
102
RTVSPropertyOp4
 70
     1
102
RTVSPropertyOp5
 70
     1
102
RTVSPropertyOp6
 70
     1
102
RTVSPropertyOp7
 70
     1
102
RTVSPropertyOp8
 70
     1
102
RTVSPropertyOp9
 70
     1
102
RTVSPropertyOp10
 70
     1
102
RTVSPropertyOp11
 70
     1
102
RTVSPropertyOp12
 70
     1
102
RTVSPropertyOp13
 70
     1
102
RTVSPropertyOp14
 70
     1
102
RTVSPropertyOp15
 70
     1
102
RTVSPropertyOp16
 70
     1
102
RTVSPropertyOp17
 70
     1
102
RTVSPropertyOp18
 70
     1
102
RTVSPropertyOp19
 70
     1
102
RTVSPropertyOp20
 70
     1
102
RTVSPropertyOp21
 70
     1
102
RTVSPropertyOp22
 70
     1
102
RTVSPropertyOp23
 70
     1
102
RTVSPropertyOp24
 70
     1
102
RTVSPropertyOp25
 70
     1
102
RTVSPropertyOp26
 70
     1
102
RTVSPropertyOp27
 70
     1
102
RTVSPropertyOp28
 70
     1
102
RTVSPropertyOp29
 70
     1
102
RTVSPropertyOp30
 70
     1
102
RTVSPropertyOp31
 70
     1
102
RTVSPropertyOp32
 70
     1
102
RTVSPropertyOp33
 70
     1
102
RTVSPropertyOp34
 70
     1
102
RTVSPropertyOp35
 70
     1
102
RTVSPropertyOp36
 70
     1
102
RTVSPropertyOp37
 70
     1
102
RTVSPropertyOp38
 70
     1
102
RTVSPropertyOp39
 70
     1
102
RTVSPropertyOp40
 70
     1
102
RTVSPropertyOp41
 70
     1
102
RTVSPropertyOp42
 70
     1
102
RTVSPropertyOp43
 70
     1
102
RTVSPropertyOp44
 70
     1
102
RTVSPropertyOp45
 70
     1
102
RTVSPropertyOp46
 70
     1
102
RTVSPropertyOp47
 70
     1
102
RTVSPropertyOp48
 70
     1
102
RTVSPropertyOp49
 70
     1
102
RTVSPropertyOp50
 70
     1
102
RTVSPropertyOp51
 70
     0
102
RTVSPropertyOp52
 70
     0
102
RTVSPropertyOp53
 70
     1
102
RTVSPropertyOp54
 70
     1
102
RTVSPropertyOp55
 70
     1
102
RTVSPropertyOp56
 70
     1
102
RTVSPropertyOp57
 70
     1
102
RTVSPropertyOp58
 70
     1
102
RTVSPropertyOp59
 70
     1
102
RTVSPropertyOp60
 70
     1
102
RTVSPropertyOp61
 70
     1
102
RTVSPropertyOp62
 70
     1
  0
XRECORD
  5
9EFC
102
{ACAD_REACTORS
330
9EFB
102
}
330
9EFB
100
AcDbXrecord
280
     1
102
RTVSPost2010Prop28
280
     0
102
RTVSPost2010PropOp28
 70
     1
102
RTVSPost2010Prop29
280
     1
102
RTVSPost2010PropOp29
 70
     1
102
RTVSPost2010Prop30
280
     1
102
RTVSPost2010PropOp30
 70
     1
102
RTVSPost2010Prop31
280
     0
102
RTVSPost2010PropOp31
 70
     1
102
RTVSPost2010Prop32
280
     0
102
RTVSPost2010PropOp32
 70
     1
102
RTVSPost2010Prop33
280
     0
102
RTVSPost2010PropOp33
 70
     1
102
RTVSPost2010Prop34
280
     0
102
RTVSPost2010PropOp34
 70
     1
102
RTVSPost2010Prop35
280
     0
102
RTVSPost2010PropOp35
 70
     1
102
RTVSPost2010Prop36
280
     0
102
RTVSPost2010PropOp36
 70
     1
102
RTVSPost2010Prop37
 90
       50
102
RTVSPost2010PropOp37
 70
     1
102
RTVSPost2010Prop38
140
0.0
102
RTVSPost2010PropOp38
 70
     1
102
RTVSPost2010Prop39
140
1.0
102
RTVSPost2010PropOp39
 70
     1
102
RTVSPost2010Prop40
 90
        0
102
RTVSPost2010PropOp40
 70
     1
102
RTVSPost2010Prop41ColorIndex
 90
       18
102
RTVSPost2010Prop41ColorRGB
 90
        0
102
RTVSPost2010PropOp41
 70
     1
102
RTVSPost2010Prop42
 90
       50
102
RTVSPost2010PropOp42
 70
     1
102
RTVSPost2010Prop43
 90
        3
102
RTVSPost2010PropOp43
 70
     1
102
RTVSPost2010Prop44ColorIndex
 90
        5
102
RTVSPost2010Prop44ColorRGB
 90
      255
102
RTVSPost2010PropOp44
 70
     1
102
RTVSPost2010Prop45
280
     0
102
RTVSPost2010PropOp45
 70
     1
102
RTVSPost2010Prop46
 90
       50
102
RTVSPost2010PropOp46
 70
     1
102
RTVSPost2010Prop47
 90
       50
102
RTVSPost2010PropOp47
 70
     1
102
RTVSPost2010Prop48
 90
       50
102
RTVSPost2010PropOp48
 70
     1
102
RTVSPost2010Prop49
280
     0
102
RTVSPost2010PropOp49
 70
     1
102
RTVSPost2010Prop50
 90
       50
102
RTVSPost2010PropOp50
 70
     1
102
RTVSPost2010Prop51ColorIndex
 90
      256
102
RTVSPost2010Prop51ColorRGB
 90
-16777216
102
RTVSPost2010PropOp51
 70
     0
102
RTVSPost2010Prop52
140
1.0
102
RTVSPost2010PropOp52
 70
     0
102
RTVSPost2010Prop53
 90
        2
102
RTVSPost2010PropOp53
 70
     1
102
RTVSPost2010Prop54
  1
strokes_ogs.tif
102
RTVSPost2010PropOp54
 70
     1
102
RTVSPost2010Prop55
280
     0
102
RTVSPost2010PropOp55
 70
     1
102
RTVSPost2010Prop56
140
1.0
102
RTVSPost2010PropOp56
 70
     1
102
RTVSPost2010Prop57
140
1.0
102
RTVSPost2010PropOp57
 70
     1
102
RTVSPropertyOp0
 70
     1
102
RTVSPropertyOp1
 70
     1
102
RTVSPropertyOp2
 70
     1
102
RTVSPropertyOp3
 70
     1
102
RTVSPropertyOp4
 70
     1
102
RTVSPropertyOp5
 70
     1
102
RTVSPropertyOp6
 70
     1
102
RTVSPropertyOp7
 70
     1
102
RTVSPropertyOp8
 70
     1
102
RTVSPropertyOp9
 70
     1
102
RTVSPropertyOp10
 70
     1
102
RTVSPropertyOp11
 70
     1
102
RTVSPropertyOp12
 70
     1
102
RTVSPropertyOp13
 70
     1
102
RTVSPropertyOp14
 70
     1
102
RTVSPropertyOp15
 70
     1
102
RTVSPropertyOp16
 70
     1
102
RTVSPropertyOp17
 70
     1
102
RTVSPropertyOp18
 70
     1
102
RTVSPropertyOp19
 70
     1
102
RTVSPropertyOp20
 70
     1
102
RTVSPropertyOp21
 70
     1
102
RTVSPropertyOp22
 70
     1
102
RTVSPropertyOp23
 70
     1
102
RTVSPropertyOp24
 70
     1
102
RTVSPropertyOp25
 70
     1
102
RTVSPropertyOp26
 70
     1
102
RTVSPropertyOp27
 70
     1
102
RTVSPropertyOp28
 70
     1
102
RTVSPropertyOp29
 70
     1
102
RTVSPropertyOp30
 70
     1
102
RTVSPropertyOp31
 70
     1
102
RTVSPropertyOp32
 70
     1
102
RTVSPropertyOp33
 70
     1
102
RTVSPropertyOp34
 70
     1
102
RTVSPropertyOp35
 70
     1
102
RTVSPropertyOp36
 70
     1
102
RTVSPropertyOp37
 70
     1
102
RTVSPropertyOp38
 70
     1
102
RTVSPropertyOp39
 70
     1
102
RTVSPropertyOp40
 70
     1
102
RTVSPropertyOp41
 70
     1
102
RTVSPropertyOp42
 70
     1
102
RTVSPropertyOp43
 70
     1
102
RTVSPropertyOp44
 70
     1
102
RTVSPropertyOp45
 70
     1
102
RTVSPropertyOp46
 70
     1
102
RTVSPropertyOp47
 70
     1
102
RTVSPropertyOp48
 70
     1
102
RTVSPropertyOp49
 70
     1
102
RTVSPropertyOp50
 70
     1
102
RTVSPropertyOp51
 70
     0
102
RTVSPropertyOp52
 70
     0
102
RTVSPropertyOp53
 70
     1
102
RTVSPropertyOp54
 70
     1
102
RTVSPropertyOp55
 70
     1
102
RTVSPropertyOp56
 70
     1
102
RTVSPropertyOp57
 70
     1
102
RTVSPropertyOp58
 70
     1
102
RTVSPropertyOp59
 70
     1
102
RTVSPropertyOp60
 70
     1
102
RTVSPropertyOp61
 70
     1
102
RTVSPropertyOp62
 70
     1
  0
XRECORD
  5
9EF0
102
{ACAD_REACTORS
330
9EEF
102
}
330
9EEF
100
AcDbXrecord
280
     1
102
RTVSPost2010Prop28
280
     0
102
RTVSPost2010PropOp28
 70
     1
102
RTVSPost2010Prop29
280
     1
102
RTVSPost2010PropOp29
 70
     1
102
RTVSPost2010Prop30
280
     1
102
RTVSPost2010PropOp30
 70
     1
102
RTVSPost2010Prop31
280
     0
102
RTVSPost2010PropOp31
 70
     1
102
RTVSPost2010Prop32
280
     0
102
RTVSPost2010PropOp32
 70
     1
102
RTVSPost2010Prop33
280
     0
102
RTVSPost2010PropOp33
 70
     1
102
RTVSPost2010Prop34
280
     0
102
RTVSPost2010PropOp34
 70
     1
102
RTVSPost2010Prop35
280
     0
102
RTVSPost2010PropOp35
 70
     1
102
RTVSPost2010Prop36
280
     0
102
RTVSPost2010PropOp36
 70
     1
102
RTVSPost2010Prop37
 90
       50
102
RTVSPost2010PropOp37
 70
     1
102
RTVSPost2010Prop38
140
0.0
102
RTVSPost2010PropOp38
 70
     1
102
RTVSPost2010Prop39
140
1.0
102
RTVSPost2010PropOp39
 70
     1
102
RTVSPost2010Prop40
 90
        0
102
RTVSPost2010PropOp40
 70
     1
102
RTVSPost2010Prop41ColorIndex
 90
       18
102
RTVSPost2010Prop41ColorRGB
 90
        0
102
RTVSPost2010PropOp41
 70
     1
102
RTVSPost2010Prop42
 90
       50
102
RTVSPost2010PropOp42
 70
     1
102
RTVSPost2010Prop43
 90
        3
102
RTVSPost2010PropOp43
 70
     1
102
RTVSPost2010Prop44ColorIndex
 90
        5
102
RTVSPost2010Prop44ColorRGB
 90
      255
102
RTVSPost2010PropOp44
 70
     1
102
RTVSPost2010Prop45
280
     0
102
RTVSPost2010PropOp45
 70
     1
102
RTVSPost2010Prop46
 90
       50
102
RTVSPost2010PropOp46
 70
     1
102
RTVSPost2010Prop47
 90
       50
102
RTVSPost2010PropOp47
 70
     1
102
RTVSPost2010Prop48
 90
       50
102
RTVSPost2010PropOp48
 70
     1
102
RTVSPost2010Prop49
280
     0
102
RTVSPost2010PropOp49
 70
     1
102
RTVSPost2010Prop50
 90
       50
102
RTVSPost2010PropOp50
 70
     1
102
RTVSPost2010Prop51ColorIndex
 90
      256
102
RTVSPost2010Prop51ColorRGB
 90
-16777216
102
RTVSPost2010PropOp51
 70
     0
102
RTVSPost2010Prop52
140
1.0
102
RTVSPost2010PropOp52
 70
     0
102
RTVSPost2010Prop53
 90
        2
102
RTVSPost2010PropOp53
 70
     1
102
RTVSPost2010Prop54
  1
strokes_ogs.tif
102
RTVSPost2010PropOp54
 70
     1
102
RTVSPost2010Prop55
280
     0
102
RTVSPost2010PropOp55
 70
     1
102
RTVSPost2010Prop56
140
1.0
102
RTVSPost2010PropOp56
 70
     1
102
RTVSPost2010Prop57
140
1.0
102
RTVSPost2010PropOp57
 70
     1
102
RTVSPropertyOp0
 70
     1
102
RTVSPropertyOp1
 70
     1
102
RTVSPropertyOp2
 70
     1
102
RTVSPropertyOp3
 70
     1
102
RTVSPropertyOp4
 70
     1
102
RTVSPropertyOp5
 70
     1
102
RTVSPropertyOp6
 70
     1
102
RTVSPropertyOp7
 70
     1
102
RTVSPropertyOp8
 70
     1
102
RTVSPropertyOp9
 70
     1
102
RTVSPropertyOp10
 70
     1
102
RTVSPropertyOp11
 70
     1
102
RTVSPropertyOp12
 70
     1
102
RTVSPropertyOp13
 70
     1
102
RTVSPropertyOp14
 70
     1
102
RTVSPropertyOp15
 70
     1
102
RTVSPropertyOp16
 70
     1
102
RTVSPropertyOp17
 70
     1
102
RTVSPropertyOp18
 70
     1
102
RTVSPropertyOp19
 70
     1
102
RTVSPropertyOp20
 70
     1
102
RTVSPropertyOp21
 70
     1
102
RTVSPropertyOp22
 70
     1
102
RTVSPropertyOp23
 70
     1
102
RTVSPropertyOp24
 70
     1
102
RTVSPropertyOp25
 70
     1
102
RTVSPropertyOp26
 70
     1
102
RTVSPropertyOp27
 70
     1
102
RTVSPropertyOp28
 70
     1
102
RTVSPropertyOp29
 70
     1
102
RTVSPropertyOp30
 70
     1
102
RTVSPropertyOp31
 70
     1
102
RTVSPropertyOp32
 70
     1
102
RTVSPropertyOp33
 70
     1
102
RTVSPropertyOp34
 70
     1
102
RTVSPropertyOp35
 70
     1
102
RTVSPropertyOp36
 70
     1
102
RTVSPropertyOp37
 70
     1
102
RTVSPropertyOp38
 70
     1
102
RTVSPropertyOp39
 70
     1
102
RTVSPropertyOp40
 70
     1
102
RTVSPropertyOp41
 70
     1
102
RTVSPropertyOp42
 70
     1
102
RTVSPropertyOp43
 70
     1
102
RTVSPropertyOp44
 70
     1
102
RTVSPropertyOp45
 70
     1
102
RTVSPropertyOp46
 70
     1
102
RTVSPropertyOp47
 70
     1
102
RTVSPropertyOp48
 70
     1
102
RTVSPropertyOp49
 70
     1
102
RTVSPropertyOp50
 70
     1
102
RTVSPropertyOp51
 70
     0
102
RTVSPropertyOp52
 70
     0
102
RTVSPropertyOp53
 70
     1
102
RTVSPropertyOp54
 70
     1
102
RTVSPropertyOp55
 70
     1
102
RTVSPropertyOp56
 70
     1
102
RTVSPropertyOp57
 70
     1
102
RTVSPropertyOp58
 70
     1
102
RTVSPropertyOp59
 70
     1
102
RTVSPropertyOp60
 70
     1
102
RTVSPropertyOp61
 70
     1
102
RTVSPropertyOp62
 70
     1
  0
XRECORD
  5
9F08
102
{ACAD_REACTORS
330
9F07
102
}
330
9F07
100
AcDbXrecord
280
     1
102
RTVSPost2010Prop28
280
     0
102
RTVSPost2010PropOp28
 70
     1
102
RTVSPost2010Prop29
280
     1
102
RTVSPost2010PropOp29
 70
     1
102
RTVSPost2010Prop30
280
     1
102
RTVSPost2010PropOp30
 70
     1
102
RTVSPost2010Prop31
280
     0
102
RTVSPost2010PropOp31
 70
     1
102
RTVSPost2010Prop32
280
     0
102
RTVSPost2010PropOp32
 70
     1
102
RTVSPost2010Prop33
280
     0
102
RTVSPost2010PropOp33
 70
     1
102
RTVSPost2010Prop34
280
     0
102
RTVSPost2010PropOp34
 70
     1
102
RTVSPost2010Prop35
280
     0
102
RTVSPost2010PropOp35
 70
     1
102
RTVSPost2010Prop36
280
     0
102
RTVSPost2010PropOp36
 70
     1
102
RTVSPost2010Prop37
 90
       50
102
RTVSPost2010PropOp37
 70
     1
102
RTVSPost2010Prop38
140
0.0
102
RTVSPost2010PropOp38
 70
     1
102
RTVSPost2010Prop39
140
1.0
102
RTVSPost2010PropOp39
 70
     1
102
RTVSPost2010Prop40
 90
        0
102
RTVSPost2010PropOp40
 70
     1
102
RTVSPost2010Prop41ColorIndex
 90
       18
102
RTVSPost2010Prop41ColorRGB
 90
        0
102
RTVSPost2010PropOp41
 70
     1
102
RTVSPost2010Prop42
 90
       50
102
RTVSPost2010PropOp42
 70
     1
102
RTVSPost2010Prop43
 90
        3
102
RTVSPost2010PropOp43
 70
     1
102
RTVSPost2010Prop44ColorIndex
 90
        5
102
RTVSPost2010Prop44ColorRGB
 90
      255
102
RTVSPost2010PropOp44
 70
     1
102
RTVSPost2010Prop45
280
     0
102
RTVSPost2010PropOp45
 70
     1
102
RTVSPost2010Prop46
 90
       50
102
RTVSPost2010PropOp46
 70
     1
102
RTVSPost2010Prop47
 90
       50
102
RTVSPost2010PropOp47
 70
     1
102
RTVSPost2010Prop48
 90
       50
102
RTVSPost2010PropOp48
 70
     1
102
RTVSPost2010Prop49
280
     0
102
RTVSPost2010PropOp49
 70
     1
102
RTVSPost2010Prop50
 90
       50
102
RTVSPost2010PropOp50
 70
     1
102
RTVSPost2010Prop51ColorIndex
 90
      256
102
RTVSPost2010Prop51ColorRGB
 90
-16777216
102
RTVSPost2010PropOp51
 70
     0
102
RTVSPost2010Prop52
140
1.0
102
RTVSPost2010PropOp52
 70
     0
102
RTVSPost2010Prop53
 90
        2
102
RTVSPost2010PropOp53
 70
     1
102
RTVSPost2010Prop54
  1
strokes_ogs.tif
102
RTVSPost2010PropOp54
 70
     1
102
RTVSPost2010Prop55
280
     0
102
RTVSPost2010PropOp55
 70
     1
102
RTVSPost2010Prop56
140
1.0
102
RTVSPost2010PropOp56
 70
     1
102
RTVSPost2010Prop57
140
1.0
102
RTVSPost2010PropOp57
 70
     1
102
RTVSPropertyOp0
 70
     1
102
RTVSPropertyOp1
 70
     1
102
RTVSPropertyOp2
 70
     1
102
RTVSPropertyOp3
 70
     1
102
RTVSPropertyOp4
 70
     1
102
RTVSPropertyOp5
 70
     1
102
RTVSPropertyOp6
 70
     1
102
RTVSPropertyOp7
 70
     1
102
RTVSPropertyOp8
 70
     1
102
RTVSPropertyOp9
 70
     1
102
RTVSPropertyOp10
 70
     1
102
RTVSPropertyOp11
 70
     1
102
RTVSPropertyOp12
 70
     1
102
RTVSPropertyOp13
 70
     1
102
RTVSPropertyOp14
 70
     1
102
RTVSPropertyOp15
 70
     1
102
RTVSPropertyOp16
 70
     1
102
RTVSPropertyOp17
 70
     1
102
RTVSPropertyOp18
 70
     1
102
RTVSPropertyOp19
 70
     1
102
RTVSPropertyOp20
 70
     1
102
RTVSPropertyOp21
 70
     1
102
RTVSPropertyOp22
 70
     1
102
RTVSPropertyOp23
 70
     1
102
RTVSPropertyOp24
 70
     1
102
RTVSPropertyOp25
 70
     1
102
RTVSPropertyOp26
 70
     1
102
RTVSPropertyOp27
 70
     1
102
RTVSPropertyOp28
 70
     1
102
RTVSPropertyOp29
 70
     1
102
RTVSPropertyOp30
 70
     1
102
RTVSPropertyOp31
 70
     1
102
RTVSPropertyOp32
 70
     1
102
RTVSPropertyOp33
 70
     1
102
RTVSPropertyOp34
 70
     1
102
RTVSPropertyOp35
 70
     1
102
RTVSPropertyOp36
 70
     1
102
RTVSPropertyOp37
 70
     1
102
RTVSPropertyOp38
 70
     1
102
RTVSPropertyOp39
 70
     1
102
RTVSPropertyOp40
 70
     1
102
RTVSPropertyOp41
 70
     1
102
RTVSPropertyOp42
 70
     1
102
RTVSPropertyOp43
 70
     1
102
RTVSPropertyOp44
 70
     1
102
RTVSPropertyOp45
 70
     1
102
RTVSPropertyOp46
 70
     1
102
RTVSPropertyOp47
 70
     1
102
RTVSPropertyOp48
 70
     1
102
RTVSPropertyOp49
 70
     1
102
RTVSPropertyOp50
 70
     1
102
RTVSPropertyOp51
 70
     0
102
RTVSPropertyOp52
 70
     0
102
RTVSPropertyOp53
 70
     1
102
RTVSPropertyOp54
 70
     1
102
RTVSPropertyOp55
 70
     1
102
RTVSPropertyOp56
 70
     1
102
RTVSPropertyOp57
 70
     1
102
RTVSPropertyOp58
 70
     1
102
RTVSPropertyOp59
 70
     1
102
RTVSPropertyOp60
 70
     1
102
RTVSPropertyOp61
 70
     1
102
RTVSPropertyOp62
 70
     1
  0
ENDSEC
  0
EOF
