  0
SECTION
  2
HEADER
  9
$ACADVER
  1
AC1015
  9
$ACADMAINTVER
 70
    20
  9
$DWGCODEPAGE
  3
ANSI_932
  9
$INSBASE
 10
0.0
 20
0.0
 30
0.0
  9
$EXTMIN
 10
10.0
 20
9.999999999999998
 30
0.0
  9
$EXTMAX
 10
322.3459669999998
 20
241.804173
 30
0.0
  9
$LIMMIN
 10
0.0
 20
0.0
  9
$LIMMAX
 10
396.0
 20
273.0
  9
$ORTHOMODE
 70
     0
  9
$REGENMODE
 70
     1
  9
$FILLMODE
 70
     1
  9
$QTEXTMODE
 70
     0
  9
$MIRRTEXT
 70
     1
  9
$LTSCALE
 40
20.0
  9
$ATTMODE
 70
     1
  9
$TEXTSIZE
 40
5.0
  9
$TRACEWID
 40
1.0
  9
$TEXTSTYLE
  7
STANDARD
  9
$CLAYER
  8
0
  9
$CELTYPE
  6
BYLAYER
  9
$CECOLOR
 62
   256
  9
$CELTSCALE
 40
1.0
  9
$DISPSILH
 70
     0
  9
$DIMSCALE
 40
1.0
  9
$DIMASZ
 40
2.5
  9
$DIMEXO
 40
1.0
  9
$DIMDLI
 40
10.0
  9
$DIMRND
 40
0.0
  9
$DIMDLE
 40
0.0
  9
$DIMEXE
 40
1.0
  9
$DIMTP
 40
0.0
  9
$DIMTM
 40
0.0
  9
$DIMTXT
 40
3.2
  9
$DIMCEN
 40
0.0
  9
$DIMTSZ
 40
0.0
  9
$DIMTOL
 70
     0
  9
$DIMLIM
 70
     0
  9
$DIMTIH
 70
     0
  9
$DIMTOH
 70
     0
  9
$DIMSE1
 70
     0
  9
$DIMSE2
 70
     0
  9
$DIMTAD
 70
     3
  9
$DIMZIN
 70
     8
  9
$DIMBLK
  1

  9
$DIMASO
 70
     1
  9
$DIMSHO
 70
     1
  9
$DIMPOST
  1

  9
$DIMAPOST
  1

  9
$DIMALT
 70
     0
  9
$DIMALTD
 70
     2
  9
$DIMALTF
 40
25.4
  9
$DIMLFAC
 40
1.0
  9
$DIMTOFL
 70
     1
  9
$DIMTVP
 40
0.0
  9
$DIMTIX
 70
     0
  9
$DIMSOXD
 70
     0
  9
$DIMSAH
 70
     1
  9
$DIMBLK1
  1

  9
$DIMBLK2
  1

  9
$DIMSTYLE
  2
STANDARD
  9
$DIMCLRD
 70
     0
  9
$DIMCLRE
 70
     0
  9
$DIMCLRT
 70
     0
  9
$DIMTFAC
 40
1.0
  9
$DIMGAP
 40
1.0
  9
$DIMJUST
 70
     0
  9
$DIMSD1
 70
     0
  9
$DIMSD2
 70
     0
  9
$DIMTOLJ
 70
     1
  9
$DIMTZIN
 70
     0
  9
$DIMALTZ
 70
     0
  9
$DIMALTTZ
 70
     0
  9
$DIMUPT
 70
     0
  9
$DIMDEC
 70
     4
  9
$DIMTDEC
 70
     4
  9
$DIMALTU
 70
     2
  9
$DIMALTTD
 70
     2
  9
$DIMTXSTY
  7
STANDARD
  9
$DIMAUNIT
 70
     0
  9
$DIMADEC
 70
     0
  9
$DIMALTRND
 40
0.0
  9
$DIMAZIN
 70
     0
  9
$DIMDSEP
 70
    46
  9
$DIMATFIT
 70
     3
  9
$DIMFRAC
 70
     0
  9
$DIMLDRBLK
  1

  9
$DIMLUNIT
 70
     2
  9
$DIMLWD
 70
    -2
  9
$DIMLWE
 70
    -2
  9
$DIMTMOVE
 70
     0
  9
$LUNITS
 70
     2
  9
$LUPREC
 70
     4
  9
$SKETCHINC
 40
1.0
  9
$FILLETRAD
 40
2.0
  9
$AUNITS
 70
     0
  9
$AUPREC
 70
     2
  9
$MENU
  1
.
  9
$ELEVATION
 40
0.0
  9
$PELEVATION
 40
0.0
  9
$THICKNESS
 40
0.0
  9
$LIMCHECK
 70
     0
  9
$CHAMFERA
 40
10.0
  9
$CHAMFERB
 40
10.0
  9
$CHAMFERC
 40
0.0
  9
$CHAMFERD
 40
0.0
  9
$SKPOLY
 70
     0
  9
$TDCREATE
 40
2451301.461060070
  9
$TDUCREATE
 40
2451301.086060070
  9
$TDUPDATE
 40
2457192.690446493
  9
$TDUUPDATE
 40
2457192.315446493
  9
$TDINDWG
 40
0.1004871296
  9
$TDUSRTIMER
 40
0.1004868171
  9
$USRTIMER
 70
     1
  9
$ANGBASE
 50
0.0
  9
$ANGDIR
 70
     0
  9
$PDMODE
 70
     0
  9
$PDSIZE
 40
0.0
  9
$PLINEWID
 40
0.0
  9
$SPLFRAME
 70
     0
  9
$SPLINETYPE
 70
     6
  9
$SPLINESEGS
 70
     8
  9
$HANDSEED
  5
A575
  9
$SURFTAB1
 70
     6
  9
$SURFTAB2
 70
     6
  9
$SURFTYPE
 70
     6
  9
$SURFU
 70
     6
  9
$SURFV
 70
     6
  9
$UCSBASE
  2

  9
$UCSNAME
  2

  9
$UCSORG
 10
0.0
 20
0.0
 30
0.0
  9
$UCSXDIR
 10
1.0
 20
0.0
 30
0.0
  9
$UCSYDIR
 10
0.0
 20
1.0
 30
0.0
  9
$UCSORTHOREF
  2

  9
$UCSORTHOVIEW
 70
     0
  9
$UCSORGTOP
 10
0.0
 20
0.0
 30
0.0
  9
$UCSORGBOTTOM
 10
0.0
 20
0.0
 30
0.0
  9
$UCSORGLEFT
 10
0.0
 20
0.0
 30
0.0
  9
$UCSORGRIGHT
 10
0.0
 20
0.0
 30
0.0
  9
$UCSORGFRONT
 10
0.0
 20
0.0
 30
0.0
  9
$UCSORGBACK
 10
0.0
 20
0.0
 30
0.0
  9
$PUCSBASE
  2

  9
$PUCSNAME
  2

  9
$PUCSORG
 10
0.0
 20
0.0
 30
0.0
  9
$PUCSXDIR
 10
1.0
 20
0.0
 30
0.0
  9
$PUCSYDIR
 10
0.0
 20
1.0
 30
0.0
  9
$PUCSORTHOREF
  2

  9
$PUCSORTHOVIEW
 70
     0
  9
$PUCSORGTOP
 10
0.0
 20
0.0
 30
0.0
  9
$PUCSORGBOTTOM
 10
0.0
 20
0.0
 30
0.0
  9
$PUCSORGLEFT
 10
0.0
 20
0.0
 30
0.0
  9
$PUCSORGRIGHT
 10
0.0
 20
0.0
 30
0.0
  9
$PUCSORGFRONT
 10
0.0
 20
0.0
 30
0.0
  9
$PUCSORGBACK
 10
0.0
 20
0.0
 30
0.0
  9
$USERI1
 70
     0
  9
$USERI2
 70
     0
  9
$USERI3
 70
     0
  9
$USERI4
 70
     0
  9
$USERI5
 70
     0
  9
$USERR1
 40
0.0
  9
$USERR2
 40
0.0
  9
$USERR3
 40
0.0
  9
$USERR4
 40
0.0
  9
$USERR5
 40
0.0
  9
$WORLDVIEW
 70
     1
  9
$SHADEDGE
 70
     3
  9
$SHADEDIF
 70
    70
  9
$TILEMODE
 70
     1
  9
$MAXACTVP
 70
    16
  9
$PINSBASE
 10
0.0
 20
0.0
 30
0.0
  9
$PLIMCHECK
 70
     0
  9
$PEXTMIN
 10
1.000000000000000E+20
 20
1.000000000000000E+20
 30
1.000000000000000E+20
  9
$PEXTMAX
 10
-1.000000000000000E+20
 20
-1.000000000000000E+20
 30
-1.000000000000000E+20
  9
$PLIMMIN
 10
0.0
 20
0.0
  9
$PLIMMAX
 10
420.0
 20
297.0
  9
$UNITMODE
 70
     0
  9
$VISRETAIN
 70
     0
  9
$PLINEGEN
 70
     0
  9
$PSLTSCALE
 70
     0
  9
$TREEDEPTH
 70
  3020
  9
$CMLSTYLE
  2
STANDARD
  9
$CMLJUST
 70
     0
  9
$CMLSCALE
 40
1.0
  9
$PROXYGRAPHICS
 70
     1
  9
$MEASUREMENT
 70
     0
  9
$CELWEIGHT
370
    -1
  9
$ENDCAPS
280
     0
  9
$JOINSTYLE
280
     0
  9
$LWDISPLAY
290
     0
  9
$INSUNITS
 70
     0
  9
$HYPERLINKBASE
  1

  9
$STYLESHEET
  1

  9
$XEDIT
290
     1
  9
$CEPSNTYPE
380
     0
  9
$PSTYLEMODE
290
     1
  9
$FINGERPRINTGUID
  2
{46E65F40-359B-4A26-B7CB-49F3DCB4DAA2}
  9
$VERSIONGUID
  2
{37BE2462-CB9D-49EF-AB53-286335906228}
  9
$EXTNAMES
290
     1
  9
$PSVPSCALE
 40
0.0
  9
$OLESTARTUP
290
     0
  0
ENDSEC
  0
SECTION
  2
CLASSES
  0
CLASS
  1
ACDBDICTIONARYWDFLT
  2
AcDbDictionaryWithDefault
  3
ObjectDBX Classes
 90
        0
280
     0
281
     0
  0
CLASS
  1
ACDBPLACEHOLDER
  2
AcDbPlaceHolder
  3
ObjectDBX Classes
 90
        0
280
     0
281
     0
  0
CLASS
  1
LAYOUT
  2
AcDbLayout
  3
ObjectDBX Classes
 90
        0
280
     0
281
     0
  0
CLASS
  1
DICTIONARYVAR
  2
AcDbDictionaryVar
  3
ObjectDBX Classes
 90
        0
280
     0
281
     0
  0
CLASS
  1
MATERIAL
  2
AcDbMaterial
  3
ObjectDBX Classes
 90
     1153
280
     0
281
     0
  0
CLASS
  1
VISUALSTYLE
  2
AcDbVisualStyle
  3
ObjectDBX Classes
 90
     4095
280
     0
281
     0
  0
CLASS
  1
TABLESTYLE
  2
AcDbTableStyle
  3
ObjectDBX Classes
 90
     4095
280
     0
281
     0
  0
CLASS
  1
SCALE
  2
AcDbScale
  3
ObjectDBX Classes
 90
     1153
280
     0
281
     0
  0
CLASS
  1
MLEADERSTYLE
  2
AcDbMLeaderStyle
  3
ACDB_MLEADERSTYLE_CLASS
 90
     4095
280
     0
281
     0
  0
CLASS
  1
ACDBSECTIONVIEWSTYLE
  2
AcDbSectionViewStyle
  3
ObjectDBX Classes
 90
     1025
280
     0
281
     0
  0
CLASS
  1
ACDBDETAILVIEWSTYLE
  2
AcDbDetailViewStyle
  3
ObjectDBX Classes
 90
     1025
280
     0
281
     0
  0
CLASS
  1
CELLSTYLEMAP
  2
AcDbCellStyleMap
  3
ObjectDBX Classes
 90
     1152
280
     0
281
     0
  0
ENDSEC
  0
SECTION
  2
TABLES
  0
TABLE
  2
VPORT
  5
A2E2
330
0
100
AcDbSymbolTable
 70
     1
  0
VPORT
  5
A4C0
330
A2E2
100
AcDbSymbolTableRecord
100
AcDbViewportTableRecord
  2
*ACTIVE
 70
     0
 10
0.0
 20
0.0
 11
1.0
 21
1.0
 12
255.3979060438625
 22
125.8984228644967
 13
0.0
 23
0.0
 14
10.0
 24
10.0
 15
10.0
 25
10.0
 16
0.0
 26
0.0
 36
1.0
 17
0.0
 27
0.0
 37
0.0
 40
233.6485350276205
 41
2.35006605019815
 42
50.0
 43
0.0
 44
0.0
 50
0.0
 51
0.0
 71
     0
 72
   100
 73
     1
 74
     0
 75
     0
 76
     0
 77
     0
 78
     0
281
     0
 65
     1
110
0.0
120
0.0
130
0.0
111
1.0
121
0.0
131
0.0
112
0.0
122
1.0
132
0.0
 79
     0
146
0.0
1001
ACAD_NAV_VCDISPLAY
1070
     3
  0
ENDTAB
  0
TABLE
  2
LTYPE
  5
A2DF
330
0
100
AcDbSymbolTable
 70
     4
  0
LTYPE
  5
A2ED
330
A2DF
100
AcDbSymbolTableRecord
100
AcDbLinetypeTableRecord
  2
BYBLOCK
 70
     0
  3

 72
    65
 73
     0
 40
0.0
  0
LTYPE
  5
A2EE
330
A2DF
100
AcDbSymbolTableRecord
100
AcDbLinetypeTableRecord
  2
BYLAYER
 70
     0
  3

 72
    65
 73
     0
 40
0.0
  0
LTYPE
  5
A2EF
330
A2DF
100
AcDbSymbolTableRecord
100
AcDbLinetypeTableRecord
  2
CONTINUOUS
 70
     0
  3
Solid line
 72
    65
 73
     0
 40
0.0
  0
LTYPE
  5
A2FD
330
A2DF
100
AcDbSymbolTableRecord
100
AcDbLinetypeTableRecord
  2
DASHED
 70
     0
  3
__ __ __ __ __ __ __ __ __ __ __ __ __ __ __ __
 72
    65
 73
     2
 40
0.75
 49
0.5
 74
     0
 49
-0.25
 74
     0
  0
LTYPE
  5
A2FE
330
A2DF
100
AcDbSymbolTableRecord
100
AcDbLinetypeTableRecord
  2
CENTER
 70
     0
  3
____ _ ____ _ ____ _ ____ _ ____ _ ____ _ ____ 
 72
    65
 73
     4
 40
2.0
 49
1.25
 74
     0
 49
-0.25
 74
     0
 49
0.25
 74
     0
 49
-0.25
 74
     0
  0
LTYPE
  5
A2FF
330
A2DF
100
AcDbSymbolTableRecord
100
AcDbLinetypeTableRecord
  2
PHANTOM
 70
     0
  3
______  __  __  ______  __  __  ______  __  __ 
 72
    65
 73
     6
 40
2.5
 49
1.25
 74
     0
 49
-0.25
 74
     0
 49
0.25
 74
     0
 49
-0.25
 74
     0
 49
0.25
 74
     0
 49
-0.25
 74
     0
  0
ENDTAB
  0
TABLE
  2
LAYER
  5
A2DC
330
0
100
AcDbSymbolTable
 70
     8
  0
LAYER
  5
A2EA
102
{ACAD_XDICTIONARY
360
A519
102
}
330
A2DC
100
AcDbSymbolTableRecord
100
AcDbLayerTableRecord
  2
0
 70
     0
 62
     7
  6
CONTINUOUS
370
    -3
390
A4C7
  0
LAYER
  5
A300
102
{ACAD_XDICTIONARY
360
A51B
102
}
330
A2DC
100
AcDbSymbolTableRecord
100
AcDbLayerTableRecord
  2
4
 70
     0
 62
     1
  6
CENTER
370
    -3
390
A4C7
  0
LAYER
  5
A301
102
{ACAD_XDICTIONARY
360
A51D
102
}
330
A2DC
100
AcDbSymbolTableRecord
100
AcDbLayerTableRecord
  2
5
 70
     0
 62
     6
  6
PHANTOM
370
    -3
390
A4C7
  0
LAYER
  5
A302
102
{ACAD_XDICTIONARY
360
A51F
102
}
330
A2DC
100
AcDbSymbolTableRecord
100
AcDbLayerTableRecord
  2
1
 70
     0
 62
     7
  6
CONTINUOUS
370
    -3
390
A4C7
  0
LAYER
  5
A303
102
{ACAD_XDICTIONARY
360
A521
102
}
330
A2DC
100
AcDbSymbolTableRecord
100
AcDbLayerTableRecord
  2
2
 70
     0
 62
     4
  6
CONTINUOUS
370
    -3
390
A4C7
  0
LAYER
  5
A304
102
{ACAD_XDICTIONARY
360
A523
102
}
330
A2DC
100
AcDbSymbolTableRecord
100
AcDbLayerTableRecord
  2
3
 70
     0
 62
     2
  6
DASHED
370
    -3
390
A4C7
  0
LAYER
  5
A305
102
{ACAD_XDICTIONARY
360
A525
102
}
330
A2DC
100
AcDbSymbolTableRecord
100
AcDbLayerTableRecord
  2
6
 70
     0
 62
     5
  6
CONTINUOUS
370
    -3
390
A4C7
  0
LAYER
  5
A306
102
{ACAD_XDICTIONARY
360
A527
102
}
330
A2DC
100
AcDbSymbolTableRecord
100
AcDbLayerTableRecord
  2
7
 70
     0
 62
     3
  6
CONTINUOUS
370
    -3
390
A4C7
  0
ENDTAB
  0
TABLE
  2
STYLE
  5
A2DD
330
0
100
AcDbSymbolTable
 70
     1
  0
STYLE
  5
A2EB
330
A2DD
100
AcDbSymbolTableRecord
100
AcDbTextStyleTableRecord
  2
STANDARD
 70
     0
 40
0.0
 41
1.0
 50
0.0
 71
     0
 42
5.0
  3
txt
  4

  0
ENDTAB
  0
TABLE
  2
VIEW
  5
A2E0
330
0
100
AcDbSymbolTable
 70
     0
  0
ENDTAB
  0
TABLE
  2
UCS
  5
A2E1
330
0
100
AcDbSymbolTable
 70
     0
  0
ENDTAB
  0
TABLE
  2
APPID
  5
A2E3
330
0
100
AcDbSymbolTable
 70
     3
  0
APPID
  5
A2EC
330
A2E3
100
AcDbSymbolTableRecord
100
AcDbRegAppTableRecord
  2
ACAD
 70
     0
  0
APPID
  5
A533
330
A2E3
100
AcDbSymbolTableRecord
100
AcDbRegAppTableRecord
  2
ACAD_NAV_VCDISPLAY
 70
     0
  0
APPID
  5
A56C
330
A2E3
100
AcDbSymbolTableRecord
100
AcDbRegAppTableRecord
  2
ACAD_MLEADERVER
 70
     0
  0
ENDTAB
  0
TABLE
  2
DIMSTYLE
  5
A2E4
330
0
100
AcDbSymbolTable
 70
     1
100
AcDbDimStyleTable
 71
     0
  0
DIMSTYLE
105
A308
330
A2E4
100
AcDbSymbolTableRecord
100
AcDbDimStyleTableRecord
  2
STANDARD
 70
     0
 41
2.5
 42
1.0
 43
10.0
 44
1.0
 73
     0
 74
     0
 77
     3
 78
     8
140
3.2
141
0.0
147
1.0
172
     1
173
     1
284
     8
285
     8
286
     8
340
A2EB
  0
ENDTAB
  0
TABLE
  2
BLOCK_RECORD
  5
A2DB
330
0
100
AcDbSymbolTable
 70
     0
  0
BLOCK_RECORD
  5
A2F8
102
{ACAD_XDICTIONARY
360
A4A5
102
}
330
A2DB
100
AcDbSymbolTableRecord
100
AcDbBlockTableRecord
  2
*MODEL_SPACE
340
A515
  0
BLOCK_RECORD
  5
A2F4
102
{ACAD_XDICTIONARY
360
A4A3
102
}
330
A2DB
100
AcDbSymbolTableRecord
100
AcDbBlockTableRecord
  2
*PAPER_SPACE
340
A516
  0
ENDTAB
  0
ENDSEC
  0
SECTION
  2
BLOCKS
  0
BLOCK
  5
A2F9
330
A2F8
100
AcDbEntity
  8
0
100
AcDbBlockBegin
  2
*MODEL_SPACE
 70
     0
 10
0.0
 20
0.0
 30
0.0
  3
*MODEL_SPACE
  1

  0
ENDBLK
  5
A2FA
330
A2F8
100
AcDbEntity
  8
0
100
AcDbBlockEnd
  0
BLOCK
  5
A2F5
330
A2F4
100
AcDbEntity
 67
     1
  8
0
100
AcDbBlockBegin
  2
*PAPER_SPACE
 70
     0
 10
0.0
 20
0.0
 30
0.0
  3
*PAPER_SPACE
  1

  0
ENDBLK
  5
A2F6
330
A2F4
100
AcDbEntity
 67
     1
  8
0
100
AcDbBlockEnd
  0
ENDSEC
  0
SECTION
  2
ENTITIES
  0
TEXT
  5
A310
330
A2F8
100
AcDbEntity
  8
7
  6
Continuous
100
AcDbText
 10
10.0
 20
18.0
 30
0.0
 40
3.0
  1
TYPE No.TCA-420G-N32
100
AcDbText
  0
TEXT
  5
A311
330
A2F8
100
AcDbEntity
  8
7
  6
Continuous
100
AcDbText
 10
10.0
 20
26.0
 30
0.0
 40
3.0
  1
CODE No.9714
100
AcDbText
  0
TEXT
  5
A312
330
A2F8
100
AcDbEntity
  8
1
  6
Continuous
100
AcDbText
 10
10.0
 20
10.0
 30
0.0
 40
1.399999999999999
  1
LAYER
100
AcDbText
  0
TEXT
  5
A313
330
A2F8
100
AcDbEntity
  8
1
  6
Continuous
100
AcDbText
 10
17.97951099999998
 20
10.04873699999998
 30
0.0
 40
1.399999999999999
  1
1
100
AcDbText
  0
TEXT
  5
A314
330
A2F8
100
AcDbEntity
  8
7
  6
Continuous
100
AcDbText
 10
29.97951099999999
 20
10.04873699999998
 30
0.0
 40
1.399999999999999
  1
7
100
AcDbText
  0
TEXT
  5
A315
330
A2F8
100
AcDbEntity
  8
4
  6
CENTER
100
AcDbText
 10
23.97951099999999
 20
10.04873699999998
 30
0.0
 40
1.399999999999999
  1
4
100
AcDbText
  0
TEXT
  5
A316
330
A2F8
100
AcDbEntity
  8
3
  6
DASHED
100
AcDbText
 10
21.979511
 20
10.04873699999998
 30
0.0
 40
1.399999999999999
  1
3
100
AcDbText
  0
TEXT
  5
A317
330
A2F8
100
AcDbEntity
  8
2
  6
Continuous
100
AcDbText
 10
19.97951099999998
 20
10.04873699999998
 30
0.0
 40
1.399999999999999
  1
2
100
AcDbText
  0
TEXT
  5
A318
330
A2F8
100
AcDbEntity
  8
6
  6
Continuous
100
AcDbText
 10
27.979511
 20
10.04873699999998
 30
0.0
 40
1.399999999999999
  1
6
100
AcDbText
  0
TEXT
  5
A319
330
A2F8
100
AcDbEntity
  8
5
  6
PHANTOM
100
AcDbText
 10
25.97951099999999
 20
10.04873699999998
 30
0.0
 40
1.399999999999999
  1
5
100
AcDbText
  0
LINE
  5
A31A
330
A2F8
100
AcDbEntity
  8
4
  6
CENTER
 48
0.5
100
AcDbLine
 10
132.345967
 20
241.804173
 30
0.0
 11
132.345967
 21
199.8041729999999
 31
0.0
  0
LINE
  5
A31B
330
A2F8
100
AcDbEntity
  8
4
  6
CENTER
 48
0.5
100
AcDbLine
 10
100.345967
 20
220.804173
 30
0.0
 11
154.260251
 21
220.804173
 31
0.0
  0
LINE
  5
A31C
330
A2F8
100
AcDbEntity
  8
1
  6
Continuous
100
AcDbLine
 10
29.345967
 20
160.804173
 30
0.0
 11
61.345967
 21
160.804173
 31
0.0
  0
LINE
  5
A31D
330
A2F8
100
AcDbEntity
  8
1
  6
Continuous
100
AcDbLine
 10
29.345967
 20
159.4041729999998
 30
0.0
 11
61.345967
 21
159.4041729999998
 31
0.0
  0
LINE
  5
A31E
330
A2F8
100
AcDbEntity
  8
1
  6
Continuous
100
AcDbLine
 10
29.345967
 20
160.804173
 30
0.0
 11
29.345967
 21
159.4041729999998
 31
0.0
  0
LINE
  5
A31F
330
A2F8
100
AcDbEntity
  8
1
  6
Continuous
100
AcDbLine
 10
61.345967
 20
160.804173
 30
0.0
 11
61.345967
 21
159.4041729999998
 31
0.0
  0
LINE
  5
A320
330
A2F8
100
AcDbEntity
  8
4
  6
CENTER
 48
0.5
100
AcDbLine
 10
45.345967
 20
165.8041729999998
 30
0.0
 11
45.345967
 21
113.8041729999999
 31
0.0
  0
LINE
  5
A321
330
A2F8
100
AcDbEntity
  8
4
  6
CENTER
 48
0.5
100
AcDbLine
 10
33.345967
 20
163.8041729999998
 30
0.0
 11
33.345967
 21
156.4041729999999
 31
0.0
  0
LINE
  5
A322
330
A2F8
100
AcDbEntity
  8
4
  6
CENTER
 48
0.5
100
AcDbLine
 10
57.345967
 20
163.8041729999998
 30
0.0
 11
57.345967
 21
156.4041729999999
 31
0.0
  0
LINE
  5
A323
330
A2F8
100
AcDbEntity
  8
1
  6
Continuous
100
AcDbLine
 10
36.845967
 20
132.4041709999999
 30
0.0
 11
37.345967
 21
132.4041709999999
 31
0.0
  0
LINE
  5
A324
330
A2F8
100
AcDbEntity
  8
1
  6
Continuous
100
AcDbLine
 10
36.845967
 20
137.2041749999999
 30
0.0
 11
37.345967
 21
137.2041749999999
 31
0.0
  0
LINE
  5
A325
330
A2F8
100
AcDbEntity
  8
4
  6
CENTER
 48
0.5
100
AcDbLine
 10
100.345967
 20
134.804173
 30
0.0
 11
142.3459669999997
 21
134.804173
 31
0.0
  0
LINE
  5
A326
330
A2F8
100
AcDbEntity
  8
4
  6
CENTER
 48
0.5
100
AcDbLine
 10
121.3459669999999
 20
152.8606019999998
 30
0.0
 11
121.3459669999999
 21
113.8041729999999
 31
0.0
  0
LINE
  5
A327
330
A2F8
100
AcDbEntity
  8
1
  6
Continuous
100
AcDbLine
 10
132.345967
 20
224.3041729999999
 30
0.0
 11
132.345967
 21
217.304173
 31
0.0
  0
LINE
  5
A328
330
A2F8
100
AcDbEntity
  8
1
  6
Continuous
100
AcDbLine
 10
128.8459669999997
 20
220.804173
 30
0.0
 11
135.845967
 21
220.804173
 31
0.0
  0
LINE
  5
A329
330
A2F8
100
AcDbEntity
  8
1
  6
Continuous
100
AcDbLine
 10
135.172066
 20
220.204171
 30
0.0
 11
132.9459649999997
 21
220.204171
 31
0.0
  0
LINE
  5
A32A
330
A2F8
100
AcDbEntity
  8
1
  6
Continuous
100
AcDbLine
 10
132.9459689999999
 20
220.2041749999999
 30
0.0
 11
132.9459689999999
 21
217.9780739999999
 31
0.0
  0
LINE
  5
A32B
330
A2F8
100
AcDbEntity
  8
1
  6
Continuous
100
AcDbLine
 10
132.3459589999999
 20
220.8041619999999
 30
0.0
 11
132.9459579999999
 21
220.204163
 31
0.0
  0
LINE
  5
A32C
330
A2F8
100
AcDbEntity
  8
1
  6
Continuous
100
AcDbLine
 10
132.3459589999999
 20
217.30415
 30
0.0
 11
133.595956
 21
216.742135
 31
0.0
  0
LINE
  5
A32D
330
A2F8
100
AcDbEntity
  8
1
  6
Continuous
100
AcDbLine
 10
136.407994
 20
219.5541809999999
 30
0.0
 11
135.845978
 21
220.804181
 31
0.0
  0
LINE
  5
A32E
330
A2F8
100
AcDbEntity
  8
1
  6
Continuous
100
AcDbLine
 10
132.9459649999997
 20
223.6302719999999
 30
0.0
 11
132.9459649999997
 21
221.404171
 31
0.0
  0
LINE
  5
A32F
330
A2F8
100
AcDbEntity
  8
1
  6
Continuous
100
AcDbLine
 10
132.9459649999997
 20
221.404171
 30
0.0
 11
135.172066
 21
221.404171
 31
0.0
  0
LINE
  5
A330
330
A2F8
100
AcDbEntity
  8
1
  6
Continuous
100
AcDbLine
 10
132.345967
 20
220.804173
 30
0.0
 11
132.9459649999997
 21
221.404171
 31
0.0
  0
LINE
  5
A331
330
A2F8
100
AcDbEntity
  8
1
  6
Continuous
100
AcDbLine
 10
135.845967
 20
220.804173
 30
0.0
 11
136.407983
 21
222.054169
 31
0.0
  0
LINE
  5
A332
330
A2F8
100
AcDbEntity
  8
1
  6
Continuous
100
AcDbLine
 10
133.595967
 20
224.866189
 30
0.0
 11
132.345967
 21
224.3041729999999
 31
0.0
  0
LINE
  5
A333
330
A2F8
100
AcDbEntity
  8
1
  6
Continuous
100
AcDbLine
 10
129.519868
 20
221.404168
 30
0.0
 11
131.7459689999997
 21
221.404168
 31
0.0
  0
LINE
  5
A334
330
A2F8
100
AcDbEntity
  8
1
  6
Continuous
100
AcDbLine
 10
131.7459649999999
 20
221.404171
 30
0.0
 11
131.7459649999999
 21
223.6302719999999
 31
0.0
  0
LINE
  5
A335
330
A2F8
100
AcDbEntity
  8
1
  6
Continuous
100
AcDbLine
 10
132.345967
 20
220.804173
 30
0.0
 11
131.7459689999997
 21
221.404171
 31
0.0
  0
LINE
  5
A336
330
A2F8
100
AcDbEntity
  8
1
  6
Continuous
100
AcDbLine
 10
132.345952
 20
224.304162
 30
0.0
 11
131.0959589999999
 21
224.866177
 31
0.0
  0
LINE
  5
A337
330
A2F8
100
AcDbEntity
  8
1
  6
Continuous
100
AcDbLine
 10
128.283955
 20
222.0541729999999
 30
0.0
 11
128.845975
 21
220.804173
 31
0.0
  0
LINE
  5
A338
330
A2F8
100
AcDbEntity
  8
1
  6
Continuous
100
AcDbLine
 10
131.7459689999997
 20
217.9780739999999
 30
0.0
 11
131.7459689999997
 21
220.2041749999999
 31
0.0
  0
LINE
  5
A339
330
A2F8
100
AcDbEntity
  8
1
  6
Continuous
100
AcDbLine
 10
131.7459689999997
 20
220.2041669999999
 30
0.0
 11
129.519868
 21
220.2041669999999
 31
0.0
  0
LINE
  5
A33A
330
A2F8
100
AcDbEntity
  8
1
  6
Continuous
100
AcDbLine
 10
132.3459629999997
 20
220.8041689999999
 30
0.0
 11
131.7459649999999
 21
220.204171
 31
0.0
  0
LINE
  5
A33B
330
A2F8
100
AcDbEntity
  8
1
  6
Continuous
100
AcDbLine
 10
128.8459669999997
 20
220.8041619999999
 30
0.0
 11
128.283948
 21
219.554165
 31
0.0
  0
LINE
  5
A33C
330
A2F8
100
AcDbEntity
  8
1
  6
Continuous
100
AcDbLine
 10
131.0959709999999
 20
216.742165
 30
0.0
 11
132.345967
 21
217.3041839999999
 31
0.0
  0
LINE
  5
A33D
330
A2F8
100
AcDbEntity
  8
1
  6
Continuous
100
AcDbLine
 10
116.8459669999997
 20
236.8041729999999
 30
0.0
 11
147.845967
 21
236.8041729999999
 31
0.0
  0
LINE
  5
A33E
330
A2F8
100
AcDbEntity
  8
4
  6
CENTER
 48
0.5
100
AcDbLine
 10
117.3459669999999
 20
235.804173
 30
0.0
 11
117.3459669999999
 21
229.804173
 31
0.0
  0
LINE
  5
A33F
330
A2F8
100
AcDbEntity
  8
4
  6
CENTER
 48
0.5
100
AcDbLine
 10
114.3459669999999
 20
232.8041729999999
 30
0.0
 11
120.3459669999999
 21
232.8041729999999
 31
0.0
  0
LINE
  5
A340
330
A2F8
100
AcDbEntity
  8
4
  6
CENTER
 48
0.5
100
AcDbLine
 10
147.3459669999997
 20
235.804173
 30
0.0
 11
147.3459669999997
 21
229.804173
 31
0.0
  0
LINE
  5
A341
330
A2F8
100
AcDbEntity
  8
4
  6
CENTER
 48
0.5
100
AcDbLine
 10
150.3459669999998
 20
232.8041729999999
 30
0.0
 11
144.345967
 21
232.8041729999999
 31
0.0
  0
LINE
  5
A342
330
A2F8
100
AcDbEntity
  8
1
  6
Continuous
100
AcDbLine
 10
116.8459669999997
 20
204.804173
 30
0.0
 11
147.845967
 21
204.804173
 31
0.0
  0
LINE
  5
A343
330
A2F8
100
AcDbEntity
  8
4
  6
CENTER
 48
0.5
100
AcDbLine
 10
117.3459669999999
 20
205.8041729999999
 30
0.0
 11
117.3459669999999
 21
211.8041729999999
 31
0.0
  0
LINE
  5
A344
330
A2F8
100
AcDbEntity
  8
4
  6
CENTER
 48
0.5
100
AcDbLine
 10
114.3459669999999
 20
208.804173
 30
0.0
 11
120.3459669999999
 21
208.804173
 31
0.0
  0
LINE
  5
A345
330
A2F8
100
AcDbEntity
  8
4
  6
CENTER
 48
0.5
100
AcDbLine
 10
147.3459669999997
 20
205.8041729999999
 30
0.0
 11
147.3459669999997
 21
211.8041729999999
 31
0.0
  0
LINE
  5
A346
330
A2F8
100
AcDbEntity
  8
4
  6
CENTER
 48
0.5
100
AcDbLine
 10
150.3459669999998
 20
208.804173
 30
0.0
 11
144.345967
 21
208.804173
 31
0.0
  0
LINE
  5
A347
330
A2F8
100
AcDbEntity
  8
1
  6
Continuous
100
AcDbLine
 10
151.345967
 20
159.404169
 30
0.0
 11
151.345967
 21
160.804173
 31
0.0
  0
LINE
  5
A348
330
A2F8
100
AcDbEntity
  8
1
  6
Continuous
100
AcDbLine
 10
146.8459629999999
 20
159.40417
 30
0.0
 11
145.434952
 21
157.7273999999999
 31
0.0
  0
LINE
  5
A349
330
A2F8
100
AcDbEntity
  8
1
  6
Continuous
100
AcDbLine
 10
151.345967
 20
160.804173
 30
0.0
 11
113.3459669999999
 21
160.804173
 31
0.0
  0
LINE
  5
A34A
330
A2F8
100
AcDbEntity
  8
1
  6
Continuous
100
AcDbLine
 10
113.3459669999999
 20
159.404174
 30
0.0
 11
113.3459669999999
 21
160.804176
 31
0.0
  0
LINE
  5
A34B
330
A2F8
100
AcDbEntity
  8
1
  6
Continuous
100
AcDbLine
 10
151.345967
 20
159.4041709999999
 30
0.0
 11
113.3459669999999
 21
159.4041709999999
 31
0.0
  0
LINE
  5
A34C
330
A2F8
100
AcDbEntity
  8
1
  6
Continuous
100
AcDbLine
 10
144.0986129999997
 20
157.104172
 30
0.0
 11
120.5959669999999
 21
157.104172
 31
0.0
  0
LINE
  5
A34D
330
A2F8
100
AcDbEntity
  8
1
  6
Continuous
100
AcDbLine
 10
117.8459669999997
 20
159.4041729999998
 30
0.0
 11
119.256978
 21
157.7274049999997
 31
0.0
  0
LINE
  5
A34E
330
A2F8
100
AcDbEntity
  8
4
  6
CENTER
 48
0.5
100
AcDbLine
 10
117.3459669999999
 20
156.4041709999998
 30
0.0
 11
117.3459669999999
 21
163.8041729999998
 31
0.0
  0
LINE
  5
A34F
330
A2F8
100
AcDbEntity
  8
4
  6
CENTER
 48
0.5
100
AcDbLine
 10
147.3459669999997
 20
156.4041709999998
 30
0.0
 11
147.3459669999997
 21
163.8041729999998
 31
0.0
  0
LINE
  5
A350
330
A2F8
100
AcDbEntity
  8
1
  6
Continuous
100
AcDbLine
 10
59.845967
 20
159.40417
 30
0.0
 11
58.434956
 21
157.7273999999999
 31
0.0
  0
LINE
  5
A351
330
A2F8
100
AcDbEntity
  8
1
  6
Continuous
100
AcDbLine
 10
57.098613
 20
157.104172
 30
0.0
 11
33.595967
 21
157.104172
 31
0.0
  0
LINE
  5
A352
330
A2F8
100
AcDbEntity
  8
1
  6
Continuous
100
AcDbLine
 10
30.845967
 20
159.404175
 30
0.0
 11
32.25697799999998
 21
157.727406
 31
0.0
  0
LINE
  5
A353
330
A2F8
100
AcDbEntity
  8
4
  6
CENTER
 48
0.5
100
AcDbLine
 10
132.345967
 20
165.8041729999998
 30
0.0
 11
132.345967
 21
138.275853
 31
0.0
  0
LINE
  5
A354
330
A2F8
100
AcDbEntity
  8
1
  6
Continuous
100
AcDbLine
 10
143.6459639999999
 20
151.9041729999998
 30
0.0
 11
145.595967
 21
151.9041729999998
 31
0.0
  0
LINE
  5
A355
330
A2F8
100
AcDbEntity
  8
1
  6
Continuous
100
AcDbLine
 10
126.2220239999999
 20
132.2724879999997
 30
0.0
 11
139.66773
 21
149.9329769999999
 31
0.0
  0
LINE
  5
A356
330
A2F8
100
AcDbEntity
  8
1
  6
Continuous
100
AcDbLine
 10
123.5459679999999
 20
152.278952
 30
0.0
 11
123.5459679999999
 21
143.3042889999998
 31
0.0
  0
LINE
  5
A357
330
A2F8
100
AcDbEntity
  8
1
  6
Continuous
100
AcDbLine
 10
118.2459649999999
 20
154.404175
 30
0.0
 11
119.7666539999999
 21
155.8524509999998
 31
0.0
  0
LINE
  5
A358
330
A2F8
100
AcDbEntity
  8
1
  6
Continuous
100
AcDbLine
 10
118.2459689999999
 20
154.404173
 30
0.0
 11
119.1459679999999
 21
152.804171
 31
0.0
  0
LINE
  5
A359
330
A2F8
100
AcDbEntity
  8
1
  6
Continuous
100
AcDbLine
 10
119.1459639999999
 20
152.804177
 30
0.0
 11
116.4212959999999
 21
136.5113489999999
 31
0.0
  0
LINE
  5
A35A
330
A2F8
100
AcDbEntity
  8
1
  6
Continuous
100
AcDbLine
 10
119.1459659999999
 20
152.804179
 30
0.0
 11
119.1459659999999
 21
154.4041769999997
 31
0.0
  0
LINE
  5
A35B
330
A2F8
100
AcDbEntity
  8
1
  6
Continuous
100
AcDbLine
 10
121.1459659999997
 20
156.4041729999999
 30
0.0
 11
143.2959669999999
 21
156.4041729999999
 31
0.0
  0
LINE
  5
A35C
330
A2F8
100
AcDbEntity
  8
1
  6
Continuous
100
AcDbLine
 10
58.595967
 20
154.104174
 30
0.0
 11
58.595967
 21
140.3698949999999
 31
0.0
  0
LINE
  5
A35D
330
A2F8
100
AcDbEntity
  8
1
  6
Continuous
100
AcDbLine
 10
50.545964
 20
155.044364
 30
0.0
 11
50.545964
 21
151.9041729999998
 31
0.0
  0
LINE
  5
A35E
330
A2F8
100
AcDbEntity
  8
1
  6
Continuous
100
AcDbLine
 10
53.845967
 20
152.8041729999999
 30
0.0
 11
51.21762499999999
 21
152.010827
 31
0.0
  0
LINE
  5
A35F
330
A2F8
100
AcDbEntity
  8
1
  6
Continuous
100
AcDbLine
 10
32.095967
 20
154.104174
 30
0.0
 11
32.095967
 21
140.3698949999999
 31
0.0
  0
LINE
  5
A360
330
A2F8
100
AcDbEntity
  8
1
  6
Continuous
100
AcDbLine
 10
40.19673599999999
 20
151.9041729999998
 30
0.0
 11
50.49519799999998
 21
151.9041729999998
 31
0.0
  0
LINE
  5
A361
330
A2F8
100
AcDbEntity
  8
1
  6
Continuous
100
AcDbLine
 10
40.14597
 20
155.044364
 30
0.0
 11
40.14597
 21
151.9041729999998
 31
0.0
  0
LINE
  5
A362
330
A2F8
100
AcDbEntity
  8
1
  6
Continuous
100
AcDbLine
 10
36.845967
 20
152.8041809999997
 30
0.0
 11
39.47432399999997
 21
152.010832
 31
0.0
  0
LINE
  5
A363
330
A2F8
100
AcDbEntity
  8
1
  6
Continuous
100
AcDbLine
 10
35.445965
 20
130.1041759999999
 30
0.0
 11
36.845967
 21
130.1041759999999
 31
0.0
  0
LINE
  5
A364
330
A2F8
100
AcDbEntity
  8
1
  6
Continuous
100
AcDbLine
 10
34.39597
 20
156.4041729999999
 30
0.0
 11
56.298113
 21
156.4041729999999
 31
0.0
  0
LINE
  5
A365
330
A2F8
100
AcDbEntity
  8
1
  6
Continuous
100
AcDbLine
 10
36.845967
 20
152.804179
 30
0.0
 11
36.845967
 21
130.1041759999999
 31
0.0
  0
LINE
  5
A366
330
A2F8
100
AcDbEntity
  8
1
  6
Continuous
100
AcDbLine
 10
35.445965
 20
153.451285
 30
0.0
 11
35.445965
 21
130.1041759999999
 31
0.0
  0
LINE
  5
A367
330
A2F8
100
AcDbEntity
  8
4
  6
CENTER
 48
0.5
100
AcDbLine
 10
28.951964
 20
134.804173
 30
0.0
 11
61.83799200000001
 21
134.804173
 31
0.0
  0
LINE
  5
A368
330
A2F8
100
AcDbEntity
  8
1
  6
Continuous
100
AcDbLine
 10
53.845967
 20
152.804179
 30
0.0
 11
53.845967
 21
130.1041759999999
 31
0.0
  0
LINE
  5
A369
330
A2F8
100
AcDbEntity
  8
1
  6
Continuous
100
AcDbLine
 10
55.24596899999998
 20
153.451285
 30
0.0
 11
55.24596899999998
 21
130.1041759999999
 31
0.0
  0
LINE
  5
A36A
330
A2F8
100
AcDbEntity
  8
1
  6
Continuous
100
AcDbLine
 10
55.24596899999998
 20
130.1041759999999
 30
0.0
 11
53.845967
 21
130.1041759999999
 31
0.0
  0
LINE
  5
A36B
330
A2F8
100
AcDbEntity
  8
1
  6
Continuous
100
AcDbLine
 10
56.84130500000001
 20
133.558259
 30
0.0
 11
56.83462200000001
 21
136.0582589999999
 31
0.0
  0
LINE
  5
A36C
330
A2F8
100
AcDbEntity
  8
1
  6
Continuous
100
AcDbLine
 10
34.544926
 20
132.160073
 30
0.0
 11
34.55906399999999
 21
137.4489179999999
 31
0.0
  0
LINE
  5
A36D
330
A2F8
100
AcDbEntity
  8
1
  6
Continuous
100
AcDbLine
 10
35.44597299999999
 20
132.5541729999999
 30
0.0
 11
34.737225
 21
132.1610149999999
 31
0.0
  0
LINE
  5
A36E
330
A2F8
100
AcDbEntity
  8
1
  6
Continuous
100
AcDbLine
 10
34.750996
 20
137.4475329999998
 30
0.0
 11
35.45799699999999
 21
137.054173
 31
0.0
  0
LINE
  5
A36F
330
A2F8
100
AcDbEntity
  8
1
  6
Continuous
100
AcDbLine
 10
53.345967
 20
137.2041749999999
 30
0.0
 11
53.845967
 21
137.2041749999999
 31
0.0
  0
LINE
  5
A370
330
A2F8
100
AcDbEntity
  8
1
  6
Continuous
100
AcDbLine
 10
53.345967
 20
132.4041709999999
 30
0.0
 11
53.845967
 21
132.4041709999999
 31
0.0
  0
ARC
  5
A371
330
A2F8
100
AcDbEntity
  8
1
  6
Continuous
100
AcDbCircle
 10
129.519868
 20
218.704175
 30
0.0
 40
1.5
100
AcDbArc
 50
90.00000900000001
 51
145.48158
  0
ARC
  5
A372
330
A2F8
100
AcDbEntity
  8
1
  6
Continuous
100
AcDbCircle
 10
132.345967
 20
220.804173
 30
0.0
 40
4.25
100
AcDbArc
 50
197.1046499999999
 51
252.89537
  0
ARC
  5
A373
330
A2F8
100
AcDbEntity
  8
1
  6
Continuous
100
AcDbCircle
 10
130.245969
 20
217.9780739999999
 30
0.0
 40
1.5
100
AcDbArc
 50
304.5182199999998
 51
359.9999599999999
  0
ARC
  5
A374
330
A2F8
100
AcDbEntity
  8
1
  6
Continuous
100
AcDbCircle
 10
132.345967
 20
220.804173
 30
0.0
 40
4.25
100
AcDbArc
 50
287.10464
 51
342.8953599999998
  0
ARC
  5
A375
330
A2F8
100
AcDbEntity
  8
1
  6
Continuous
100
AcDbCircle
 10
135.172066
 20
218.704175
 30
0.0
 40
1.5
100
AcDbArc
 50
34.518219
 51
89.999955
  0
ARC
  5
A376
330
A2F8
100
AcDbEntity
  8
1
  6
Continuous
100
AcDbCircle
 10
134.445965
 20
217.9780739999999
 30
0.0
 40
1.5
100
AcDbArc
 50
180.00001
 51
235.4815899999999
  0
ARC
  5
A377
330
A2F8
100
AcDbEntity
  8
1
  6
Continuous
100
AcDbCircle
 10
135.172066
 20
222.904171
 30
0.0
 40
1.5
100
AcDbArc
 50
270.00002
 51
325.48159
  0
ARC
  5
A378
330
A2F8
100
AcDbEntity
  8
1
  6
Continuous
100
AcDbCircle
 10
132.345967
 20
220.804173
 30
0.0
 40
4.25
100
AcDbArc
 50
17.104634
 51
72.895365
  0
ARC
  5
A379
330
A2F8
100
AcDbEntity
  8
1
  6
Continuous
100
AcDbCircle
 10
134.445965
 20
223.6302719999999
 30
0.0
 40
1.5
100
AcDbArc
 50
124.51821
 51
179.9999599999999
  0
ARC
  5
A37A
330
A2F8
100
AcDbEntity
  8
1
  6
Continuous
100
AcDbCircle
 10
130.245969
 20
223.6302719999999
 30
0.0
 40
1.5
100
AcDbArc
 50
0.000014
 51
55.481586
  0
ARC
  5
A37B
330
A2F8
100
AcDbEntity
  8
1
  6
Continuous
100
AcDbCircle
 10
132.345967
 20
220.804173
 30
0.0
 40
4.25
100
AcDbArc
 50
107.10463
 51
162.8953699999998
  0
ARC
  5
A37C
330
A2F8
100
AcDbEntity
  8
1
  6
Continuous
100
AcDbCircle
 10
129.519868
 20
222.904171
 30
0.0
 40
1.5
100
AcDbArc
 50
214.51823
 51
269.9999599999998
  0
CIRCLE
  5
A37D
330
A2F8
100
AcDbEntity
  8
1
  6
Continuous
100
AcDbCircle
 10
132.345967
 20
220.804173
 30
0.0
 40
5.4
  0
ARC
  5
A37E
330
A2F8
100
AcDbEntity
  8
1
  6
Continuous
100
AcDbCircle
 10
116.8459669999997
 20
233.304173
 30
0.0
 40
3.5
100
AcDbArc
 50
89.99998199999996
 51
198.94588
  0
CIRCLE
  5
A37F
330
A2F8
100
AcDbEntity
  8
1
  6
Continuous
100
AcDbCircle
 10
117.3459669999999
 20
232.8041729999999
 30
0.0
 40
2.1
  0
ARC
  5
A380
330
A2F8
100
AcDbEntity
  8
1
  6
Continuous
100
AcDbCircle
 10
147.845967
 20
233.304173
 30
0.0
 40
3.5
100
AcDbArc
 50
341.0540899999998
 51
89.99998199999996
  0
CIRCLE
  5
A381
330
A2F8
100
AcDbEntity
  8
1
  6
Continuous
100
AcDbCircle
 10
147.3459669999997
 20
232.8041729999999
 30
0.0
 40
2.1
  0
ARC
  5
A382
330
A2F8
100
AcDbEntity
  8
1
  6
Continuous
100
AcDbCircle
 10
116.8459669999997
 20
208.304173
 30
0.0
 40
3.5
100
AcDbArc
 50
161.0541
 51
269.99995
  0
CIRCLE
  5
A383
330
A2F8
100
AcDbEntity
  8
1
  6
Continuous
100
AcDbCircle
 10
117.3459669999999
 20
208.804173
 30
0.0
 40
2.1
  0
ARC
  5
A384
330
A2F8
100
AcDbEntity
  8
1
  6
Continuous
100
AcDbCircle
 10
147.845967
 20
208.304173
 30
0.0
 40
3.5
100
AcDbArc
 50
269.9999599999998
 51
18.94591
  0
CIRCLE
  5
A385
330
A2F8
100
AcDbEntity
  8
1
  6
Continuous
100
AcDbCircle
 10
147.3459669999997
 20
208.804173
 30
0.0
 40
2.1
  0
ARC
  5
A386
330
A2F8
100
AcDbEntity
  8
1
  6
Continuous
100
AcDbCircle
 10
80.43168299999997
 20
220.804173
 30
0.0
 40
35.0
100
AcDbArc
 50
341.0541
 51
18.945903
  0
ARC
  5
A387
330
A2F8
100
AcDbEntity
  8
1
  6
Continuous
100
AcDbCircle
 10
184.260251
 20
220.804173
 30
0.0
 40
35.0
100
AcDbArc
 50
161.05411
 51
198.9458699999999
  0
CIRCLE
  5
A388
330
A2F8
100
AcDbEntity
  8
1
  6
Continuous
100
AcDbCircle
 10
132.345967
 20
220.804173
 30
0.0
 40
12.25
  0
CIRCLE
  5
A389
330
A2F8
100
AcDbEntity
  8
1
  6
Continuous
100
AcDbCircle
 10
132.345967
 20
220.804173
 30
0.0
 40
11.25
  0
ARC
  5
A38A
330
A2F8
100
AcDbEntity
  8
1
  6
Continuous
100
AcDbCircle
 10
144.0959669999998
 20
158.8541699999999
 30
0.0
 40
1.75
100
AcDbArc
 50
270.00002
 51
319.91917
  0
ARC
  5
A38B
330
A2F8
100
AcDbEntity
  8
1
  6
Continuous
100
AcDbCircle
 10
120.5959669999999
 20
158.854174
 30
0.0
 40
1.75
100
AcDbArc
 50
220.08084
 51
270.00002
  0
ARC
  5
A38C
330
A2F8
100
AcDbEntity
  8
1
  6
Continuous
100
AcDbCircle
 10
132.345967
 20
157.1886729999999
 30
0.0
 40
1.984499999999996
100
AcDbArc
 50
182.4403799999998
 51
203.2854799999999
  0
ARC
  5
A38D
330
A2F8
100
AcDbEntity
  8
1
  6
Continuous
100
AcDbCircle
 10
136.211644
 20
157.1886729999999
 30
0.0
 40
1.984499999999996
100
AcDbArc
 50
193.1020699999996
 51
203.2854799999999
  0
ARC
  5
A38E
330
A2F8
100
AcDbEntity
  8
1
  6
Continuous
100
AcDbCircle
 10
139.2099839999999
 20
157.1886729999999
 30
0.0
 40
1.984499999999996
100
AcDbArc
 50
336.71451
 51
357.5595999999999
  0
ARC
  5
A38F
330
A2F8
100
AcDbEntity
  8
1
  6
Continuous
100
AcDbCircle
 10
140.745969
 20
157.1886729999999
 30
0.0
 40
1.984499999999996
100
AcDbArc
 50
336.71451
 51
357.5595999999999
  0
ARC
  5
A390
330
A2F8
100
AcDbEntity
  8
1
  6
Continuous
100
AcDbCircle
 10
128.48029
 20
157.1886729999999
 30
0.0
 40
1.984499999999996
100
AcDbArc
 50
182.4403799999998
 51
203.2854799999999
  0
ARC
  5
A391
330
A2F8
100
AcDbEntity
  8
1
  6
Continuous
100
AcDbCircle
 10
125.4819499999999
 20
157.1886729999999
 30
0.0
 40
1.984499999999996
100
AcDbArc
 50
182.4403799999998
 51
203.2855
  0
ARC
  5
A392
330
A2F8
100
AcDbEntity
  8
1
  6
Continuous
100
AcDbCircle
 10
123.945967
 20
157.1886729999999
 30
0.0
 40
1.984499999999996
100
AcDbArc
 50
182.4403799999998
 51
203.2855
  0
ARC
  5
A393
330
A2F8
100
AcDbEntity
  8
1
  6
Continuous
100
AcDbCircle
 10
57.095967
 20
158.8541699999999
 30
0.0
 40
1.75
100
AcDbArc
 50
270.00002
 51
319.91917
  0
ARC
  5
A394
330
A2F8
100
AcDbEntity
  8
1
  6
Continuous
100
AcDbCircle
 10
33.595967
 20
158.854174
 30
0.0
 40
1.75
100
AcDbArc
 50
220.08084
 51
270.00002
  0
ARC
  5
A395
330
A2F8
100
AcDbEntity
  8
1
  6
Continuous
100
AcDbCircle
 10
45.345967
 20
157.1886729999999
 30
0.0
 40
1.984499999999996
100
AcDbArc
 50
182.4403799999998
 51
203.2855199999999
  0
ARC
  5
A396
330
A2F8
100
AcDbEntity
  8
1
  6
Continuous
100
AcDbCircle
 10
49.211644
 20
157.1886729999999
 30
0.0
 40
1.984499999999996
100
AcDbArc
 50
193.1020699999996
 51
203.2855199999999
  0
ARC
  5
A397
330
A2F8
100
AcDbEntity
  8
1
  6
Continuous
100
AcDbCircle
 10
52.209984
 20
157.1886729999999
 30
0.0
 40
1.984499999999996
100
AcDbArc
 50
336.71451
 51
357.5595999999999
  0
ARC
  5
A398
330
A2F8
100
AcDbEntity
  8
1
  6
Continuous
100
AcDbCircle
 10
53.745969
 20
157.1886729999999
 30
0.0
 40
1.984499999999996
100
AcDbArc
 50
336.71451
 51
357.5595999999999
  0
ARC
  5
A399
330
A2F8
100
AcDbEntity
  8
1
  6
Continuous
100
AcDbCircle
 10
41.48029
 20
157.1886729999999
 30
0.0
 40
1.984499999999996
100
AcDbArc
 50
182.4403799999998
 51
203.2855199999999
  0
ARC
  5
A39A
330
A2F8
100
AcDbEntity
  8
1
  6
Continuous
100
AcDbCircle
 10
38.481953
 20
157.1886729999999
 30
0.0
 40
1.984499999999996
100
AcDbArc
 50
182.4403799999998
 51
203.2855199999999
  0
ARC
  5
A39B
330
A2F8
100
AcDbEntity
  8
1
  6
Continuous
100
AcDbCircle
 10
36.945965
 20
157.1886729999999
 30
0.0
 40
1.984499999999996
100
AcDbArc
 50
182.4403799999998
 51
203.2855199999999
  0
ARC
  5
A39C
330
A2F8
100
AcDbEntity
  8
1
  6
Continuous
100
AcDbCircle
 10
121.8459669999997
 20
135.6041759999999
 30
0.0
 40
5.5
100
AcDbArc
 50
170.5062299999999
 51
322.7163799999999
  0
ARC
  5
A39D
330
A2F8
100
AcDbEntity
  8
1
  6
Continuous
100
AcDbCircle
 10
121.1459659999997
 20
154.404173
 30
0.0
 40
2.0
100
AcDbArc
 50
89.99998199999996
 51
179.9999599999999
  0
ARC
  5
A39E
330
A2F8
100
AcDbEntity
  8
1
  6
Continuous
100
AcDbCircle
 10
130.545968
 20
143.3042889999998
 30
0.0
 40
7.0
100
AcDbArc
 50
179.9999799999999
 51
260.30925
  0
ARC
  5
A39F
330
A2F8
100
AcDbEntity
  8
1
  6
Continuous
100
AcDbCircle
 10
136.211644
 20
157.1886729999999
 30
0.0
 40
1.984499999999996
100
AcDbArc
 50
336.71451
 51
357.5595999999999
  0
ARC
  5
A3A0
330
A2F8
100
AcDbEntity
  8
1
  6
Continuous
100
AcDbCircle
 10
132.345967
 20
157.1886729999999
 30
0.0
 40
1.984499999999996
100
AcDbArc
 50
336.71451
 51
357.5595999999999
  0
ARC
  5
A3A1
330
A2F8
100
AcDbEntity
  8
1
  6
Continuous
100
AcDbCircle
 10
128.48029
 20
157.1886729999999
 30
0.0
 40
1.984499999999996
100
AcDbArc
 50
336.71451
 51
346.8978399999999
  0
ARC
  5
A3A2
330
A2F8
100
AcDbEntity
  8
1
  6
Continuous
100
AcDbCircle
 10
41.48029
 20
157.1886729999999
 30
0.0
 40
1.984499999999996
100
AcDbArc
 50
336.7144599999998
 51
346.89791
  0
ARC
  5
A3A3
330
A2F8
100
AcDbEntity
  8
1
  6
Continuous
100
AcDbCircle
 10
45.345967
 20
157.1886729999999
 30
0.0
 40
1.984499999999996
100
AcDbArc
 50
336.7144599999998
 51
357.5595999999999
  0
ARC
  5
A3A4
330
A2F8
100
AcDbEntity
  8
1
  6
Continuous
100
AcDbCircle
 10
49.211644
 20
157.1886729999999
 30
0.0
 40
1.984499999999996
100
AcDbArc
 50
336.7144599999998
 51
357.5595999999999
  0
CIRCLE
  5
A3A5
330
A2F8
100
AcDbEntity
  8
1
  6
Continuous
100
AcDbCircle
 10
121.3459669999999
 20
134.804173
 30
0.0
 40
1.25
  0
CIRCLE
  5
A3A6
330
A2F8
100
AcDbEntity
  8
1
  6
Continuous
100
AcDbCircle
 10
121.3459669999999
 20
134.804173
 30
0.0
 40
3.25
  0
ARC
  5
A3A7
330
A2F8
100
AcDbEntity
  8
1
  6
Continuous
100
AcDbCircle
 10
36.84262499999999
 20
152.9041729999998
 30
0.0
 40
1.5
100
AcDbArc
 50
16.601499
 51
158.60839
  0
ARC
  5
A3A8
330
A2F8
100
AcDbEntity
  8
1
  6
Continuous
100
AcDbCircle
 10
34.39597
 20
154.104174
 30
0.0
 40
2.299999999999998
100
AcDbArc
 50
89.99998199999996
 51
179.9999599999999
  0
ARC
  5
A3A9
330
A2F8
100
AcDbEntity
  8
1
  6
Continuous
100
AcDbCircle
 10
40.19673599999999
 20
154.404173
 30
0.0
 40
2.5
100
AcDbArc
 50
253.2039000000001
 51
269.9999599999998
  0
ARC
  5
A3AA
330
A2F8
100
AcDbEntity
  8
1
  6
Continuous
100
AcDbCircle
 10
36.29562099999999
 20
140.3698949999999
 30
0.0
 40
4.2
100
AcDbArc
 50
179.9999599999999
 51
240.65723
  0
ARC
  5
A3AB
330
A2F8
100
AcDbEntity
  8
1
  6
Continuous
100
AcDbCircle
 10
40.19673599999999
 20
153.9041729999999
 30
0.0
 40
2.0
100
AcDbArc
 50
196.60152
 51
269.9999599999998
  0
ARC
  5
A3AC
330
A2F8
100
AcDbEntity
  8
1
  6
Continuous
100
AcDbCircle
 10
54.396313
 20
140.3698949999999
 30
0.0
 40
4.2
100
AcDbArc
 50
299.7028
 51
0.0
  0
ARC
  5
A3AD
330
A2F8
100
AcDbEntity
  8
1
  6
Continuous
100
AcDbCircle
 10
56.295968
 20
154.104174
 30
0.0
 40
2.299999999999998
100
AcDbArc
 50
0.0
 51
89.99998199999996
  0
ARC
  5
A3AE
330
A2F8
100
AcDbEntity
  8
1
  6
Continuous
100
AcDbCircle
 10
53.84930500000001
 20
152.9041729999998
 30
0.0
 40
1.5
100
AcDbArc
 50
21.39162999999999
 51
163.39847
  0
ARC
  5
A3AF
330
A2F8
100
AcDbEntity
  8
1
  6
Continuous
100
AcDbCircle
 10
50.49519799999998
 20
153.9041729999999
 30
0.0
 40
2.0
100
AcDbArc
 50
270.00002
 51
343.39846
  0
ARC
  5
A3B0
330
A2F8
100
AcDbEntity
  8
1
  6
Continuous
100
AcDbCircle
 10
50.49519799999998
 20
154.404173
 30
0.0
 40
2.5
100
AcDbArc
 50
270.00002
 51
286.7960799999999
  0
ARC
  5
A3B1
330
A2F8
100
AcDbEntity
  8
1
  6
Continuous
100
AcDbCircle
 10
53.710385
 20
134.804173
 30
0.0
 40
3.366532999999998
100
AcDbArc
 50
21.870985
 51
62.862199
  0
ARC
  5
A3B2
330
A2F8
100
AcDbEntity
  8
1
  6
Continuous
100
AcDbCircle
 10
53.710385
 20
134.804173
 30
0.0
 40
3.366532999999998
100
AcDbArc
 50
297.1377899999998
 51
338.43532
  0
ARC
  5
A3B3
330
A2F8
100
AcDbEntity
  8
1
  6
Continuous
100
AcDbCircle
 10
40.554082
 20
134.7881279999997
 30
0.0
 40
6.602128999999997
100
AcDbArc
 50
157.1639899999999
 51
202.52161
  0
ARC
  5
A3B4
330
A2F8
100
AcDbEntity
  8
1
  6
Continuous
100
AcDbCircle
 10
34.64020999999998
 20
132.3359039999999
 30
0.0
 40
0.2
100
AcDbArc
 50
202.52183
 51
299.01873
  0
ARC
  5
A3B5
330
A2F8
100
AcDbEntity
  8
1
  6
Continuous
100
AcDbCircle
 10
34.65375199999999
 20
137.2727629999999
 30
0.0
 40
0.2
100
AcDbArc
 50
60.909838
 51
157.16369
  0
LINE
  5
A3B6
330
A2F8
100
AcDbEntity
  8
4
  6
CENTER
 48
0.5
100
AcDbLine
 10
121.3459669999999
 20
239.804173
 30
0.0
 11
121.3459669999999
 21
201.8041729999999
 31
0.0
  0
LINE
  5
A3B7
330
A2F8
100
AcDbEntity
  8
4
  6
CENTER
 48
0.5
100
AcDbLine
 10
100.345967
 20
58.804173
 30
0.0
 11
154.260251
 21
58.804173
 31
0.0
  0
LINE
  5
A3B8
330
A2F8
100
AcDbEntity
  8
1
  6
Continuous
100
AcDbLine
 10
116.8459669999997
 20
74.80417299999998
 30
0.0
 11
147.845967
 21
74.80417299999998
 31
0.0
  0
LINE
  5
A3B9
330
A2F8
100
AcDbEntity
  8
1
  6
Continuous
100
AcDbLine
 10
116.8459669999997
 20
42.80417299999998
 30
0.0
 11
147.845967
 21
42.80417299999998
 31
0.0
  0
LINE
  5
A3BA
330
A2F8
100
AcDbEntity
  8
4
  6
CENTER
 48
0.5
100
AcDbLine
 10
121.3459669999999
 20
39.80417299999999
 30
0.0
 11
121.3459669999999
 21
77.80417299999998
 31
0.0
  0
ARC
  5
A3BB
330
A2F8
100
AcDbEntity
  8
1
  6
Continuous
100
AcDbCircle
 10
80.43168299999997
 20
58.804173
 30
0.0
 40
35.0
100
AcDbArc
 50
341.054097
 51
348.4630409999998
  0
ARC
  5
A3BC
330
A2F8
100
AcDbEntity
  8
1
  6
Continuous
100
AcDbCircle
 10
116.8459669999997
 20
71.30417299999997
 30
0.0
 40
3.5
100
AcDbArc
 50
90.00004999999999
 51
198.9459
  0
ARC
  5
A3BD
330
A2F8
100
AcDbEntity
  8
1
  6
Continuous
100
AcDbCircle
 10
117.3459669999999
 20
70.80417299999997
 30
0.0
 40
2.1
100
AcDbArc
 50
328.6169919999998
 51
306.8478919999999
  0
LINE
  5
A3BE
330
A2F8
100
AcDbEntity
  8
4
  6
CENTER
 48
0.5
100
AcDbLine
 10
117.3459669999999
 20
73.80417299999997
 30
0.0
 11
117.3459669999999
 21
67.80417299999999
 31
0.0
  0
LINE
  5
A3BF
330
A2F8
100
AcDbEntity
  8
4
  6
CENTER
 48
0.5
100
AcDbLine
 10
114.3459669999999
 20
70.80417299999997
 30
0.0
 11
120.3459669999999
 21
70.80417299999997
 31
0.0
  0
ARC
  5
A3C0
330
A2F8
100
AcDbEntity
  8
1
  6
Continuous
100
AcDbCircle
 10
116.8459669999997
 20
46.304173
 30
0.0
 40
3.5
100
AcDbArc
 50
161.0541199999999
 51
270.0000179999999
  0
ARC
  5
A3C1
330
A2F8
100
AcDbEntity
  8
1
  6
Continuous
100
AcDbCircle
 10
117.3459669999999
 20
46.804173
 30
0.0
 40
2.1
100
AcDbArc
 50
47.06814
 51
27.40053599999999
  0
LINE
  5
A3C2
330
A2F8
100
AcDbEntity
  8
4
  6
CENTER
 48
0.5
100
AcDbLine
 10
117.3459669999999
 20
43.804173
 30
0.0
 11
117.3459669999999
 21
49.804173
 31
0.0
  0
LINE
  5
A3C3
330
A2F8
100
AcDbEntity
  8
4
  6
CENTER
 48
0.5
100
AcDbLine
 10
114.3459669999999
 20
46.804173
 30
0.0
 11
120.3459669999999
 21
46.804173
 31
0.0
  0
LINE
  5
A3C4
330
A2F8
100
AcDbEntity
  8
4
  6
CENTER
 48
0.5
100
AcDbLine
 10
132.345967
 20
37.80417299999999
 30
0.0
 11
132.345967
 21
79.80417299999998
 31
0.0
  0
ARC
  5
A3C5
330
A2F8
100
AcDbEntity
  8
1
  6
Continuous
100
AcDbCircle
 10
184.260251
 20
58.804173
 30
0.0
 40
35.0
100
AcDbArc
 50
161.0541299999999
 51
198.9458899999999
  0
ARC
  5
A3C6
330
A2F8
100
AcDbEntity
  8
1
  6
Continuous
100
AcDbCircle
 10
147.845967
 20
71.30417299999997
 30
0.0
 40
3.5
100
AcDbArc
 50
341.0540899999998
 51
90.00004000000002
  0
CIRCLE
  5
A3C7
330
A2F8
100
AcDbEntity
  8
1
  6
Continuous
100
AcDbCircle
 10
147.3459669999997
 20
70.80417299999997
 30
0.0
 40
2.1
  0
LINE
  5
A3C8
330
A2F8
100
AcDbEntity
  8
4
  6
CENTER
 48
0.5
100
AcDbLine
 10
150.3459669999998
 20
70.80417299999997
 30
0.0
 11
144.345967
 21
70.80417299999997
 31
0.0
  0
LINE
  5
A3C9
330
A2F8
100
AcDbEntity
  8
4
  6
CENTER
 48
0.5
100
AcDbLine
 10
147.3459669999997
 20
73.80417299999997
 30
0.0
 11
147.3459669999997
 21
67.80417299999999
 31
0.0
  0
ARC
  5
A3CA
330
A2F8
100
AcDbEntity
  8
1
  6
Continuous
100
AcDbCircle
 10
147.845967
 20
46.304173
 30
0.0
 40
3.5
100
AcDbArc
 50
270.0000179999999
 51
18.94591
  0
CIRCLE
  5
A3CB
330
A2F8
100
AcDbEntity
  8
1
  6
Continuous
100
AcDbCircle
 10
147.3459669999997
 20
46.804173
 30
0.0
 40
2.1
  0
LINE
  5
A3CC
330
A2F8
100
AcDbEntity
  8
4
  6
CENTER
 48
0.5
100
AcDbLine
 10
147.3459669999997
 20
43.804173
 30
0.0
 11
147.3459669999997
 21
49.804173
 31
0.0
  0
LINE
  5
A3CD
330
A2F8
100
AcDbEntity
  8
4
  6
CENTER
 48
0.5
100
AcDbLine
 10
150.3459669999998
 20
46.804173
 30
0.0
 11
144.345967
 21
46.804173
 31
0.0
  0
LINE
  5
A3CE
330
A2F8
100
AcDbEntity
  8
1
  6
Continuous
100
AcDbLine
 10
116.40446
 20
48.904171
 30
0.0
 11
128.4175859999997
 21
48.904171
 31
0.0
  0
LINE
  5
A3CF
330
A2F8
100
AcDbEntity
  8
1
  6
Continuous
100
AcDbLine
 10
116.40446
 20
50.30417299999999
 30
0.0
 11
127.6676579999999
 21
50.30417299999999
 31
0.0
  0
LINE
  5
A3D0
330
A2F8
100
AcDbEntity
  8
1
  6
Continuous
100
AcDbLine
 10
123.9900669999999
 20
48.003132
 30
0.0
 11
118.7012219999999
 21
48.01727
 31
0.0
  0
ARC
  5
A3D1
330
A2F8
100
AcDbEntity
  8
1
  6
Continuous
100
AcDbCircle
 10
121.3620119999999
 20
54.012288
 30
0.0
 40
6.602128999999997
100
AcDbArc
 50
247.16399
 51
292.52161
  0
LINE
  5
A3D2
330
A2F8
100
AcDbEntity
  8
1
  6
Continuous
100
AcDbLine
 10
118.9459649999997
 20
50.30417299999999
 30
0.0
 11
118.9459649999997
 21
50.804173
 31
0.0
  0
LINE
  5
A3D3
330
A2F8
100
AcDbEntity
  8
1
  6
Continuous
100
AcDbLine
 10
118.7026069999999
 20
48.20920199999999
 30
0.0
 11
119.0959669999999
 21
48.916203
 31
0.0
  0
ARC
  5
A3D4
330
A2F8
100
AcDbEntity
  8
1
  6
Continuous
100
AcDbCircle
 10
118.877377
 20
48.111958
 30
0.0
 40
0.2
100
AcDbArc
 50
150.9098379999998
 51
247.16369
  0
LINE
  5
A3D5
330
A2F8
100
AcDbEntity
  8
1
  6
Continuous
100
AcDbLine
 10
123.7459689999999
 20
50.30417299999999
 30
0.0
 11
123.7459689999999
 21
50.804173
 31
0.0
  0
LINE
  5
A3D6
330
A2F8
100
AcDbEntity
  8
1
  6
Continuous
100
AcDbLine
 10
123.5959669999999
 20
48.904179
 30
0.0
 11
123.989125
 21
48.195431
 31
0.0
  0
ARC
  5
A3D7
330
A2F8
100
AcDbEntity
  8
1
  6
Continuous
100
AcDbCircle
 10
123.8142359999999
 20
48.098416
 30
0.0
 40
0.2
100
AcDbArc
 50
292.5218299999999
 51
29.01873
  0
LINE
  5
A3D8
330
A2F8
100
AcDbEntity
  8
1
  6
Continuous
100
AcDbLine
 10
116.40446
 20
68.70417500000001
 30
0.0
 11
128.4175859999997
 21
68.70417500000001
 31
0.0
  0
LINE
  5
A3D9
330
A2F8
100
AcDbEntity
  8
1
  6
Continuous
100
AcDbLine
 10
116.40446
 20
67.30417299999999
 30
0.0
 11
127.6676579999999
 21
67.30417299999999
 31
0.0
  0
ARC
  5
A3DA
330
A2F8
100
AcDbEntity
  8
1
  6
Continuous
100
AcDbCircle
 10
121.3459669999999
 20
67.168591
 30
0.0
 40
3.366532999999998
100
AcDbArc
 50
111.8709849999999
 51
152.8621989999997
  0
LINE
  5
A3DB
330
A2F8
100
AcDbEntity
  8
1
  6
Continuous
100
AcDbLine
 10
118.9459649999997
 20
66.80417299999999
 30
0.0
 11
118.9459649999997
 21
67.30417299999999
 31
0.0
  0
ARC
  5
A3DC
330
A2F8
100
AcDbEntity
  8
1
  6
Continuous
100
AcDbCircle
 10
121.3459669999999
 20
67.168591
 30
0.0
 40
3.366532999999998
100
AcDbArc
 50
27.13779000000001
 51
68.435793
  0
LINE
  5
A3DD
330
A2F8
100
AcDbEntity
  8
1
  6
Continuous
100
AcDbLine
 10
123.7459689999999
 20
66.80417299999999
 30
0.0
 11
123.7459689999999
 21
67.30417299999999
 31
0.0
  0
LINE
  5
A3DE
330
A2F8
100
AcDbEntity
  8
1
  6
Continuous
100
AcDbLine
 10
122.5833149999999
 20
70.29948799999999
 30
0.0
 11
120.091881
 21
70.292828
 31
0.0
  0
ARC
  5
A3DF
330
A2F8
100
AcDbEntity
  8
1
  6
Continuous
100
AcDbCircle
 10
80.43168299999997
 20
58.804173
 30
0.0
 40
35.0
100
AcDbArc
 50
11.53695899999999
 51
18.9459
  0
LINE
  5
A3E0
330
A2F8
100
AcDbEntity
  8
1
  6
Continuous
100
AcDbLine
 10
116.40446
 20
68.70417500000001
 30
0.0
 11
116.40446
 21
67.30417299999999
 31
0.0
  0
LINE
  5
A3E1
330
A2F8
100
AcDbEntity
  8
1
  6
Continuous
100
AcDbLine
 10
116.40446
 20
50.30417299999999
 30
0.0
 11
116.40446
 21
48.904171
 31
0.0
  0
ARC
  5
A3E2
330
A2F8
100
AcDbEntity
  8
1
  6
Continuous
100
AcDbCircle
 10
132.345967
 20
58.804173
 30
0.0
 40
10.099999
100
AcDbArc
 50
255.338654
 51
104.6613459999999
  0
ARC
  5
A3E3
330
A2F8
100
AcDbEntity
  8
1
  6
Continuous
100
AcDbCircle
 10
132.345967
 20
58.804173
 30
0.0
 40
6.599999
100
AcDbArc
 50
314.8699189999998
 51
45.13008099999999
  0
ARC
  5
A3E4
330
A2F8
100
AcDbEntity
  8
1
  6
Continuous
100
AcDbCircle
 10
132.345967
 20
58.804173
 30
0.0
 40
14.499997
100
AcDbArc
 50
230.3431339999999
 51
129.375484
  0
LINE
  5
A3E5
330
A2F8
100
AcDbEntity
  8
4
  6
CENTER
 48
0.5
100
AcDbLine
 10
211.345967
 20
165.8041729999998
 30
0.0
 11
211.345967
 21
113.8041729999999
 31
0.0
  0
LINE
  5
A3E6
330
A2F8
100
AcDbEntity
  8
1
  6
Continuous
100
AcDbLine
 10
221.245969
 20
135.5227439999999
 30
0.0
 11
221.245969
 21
130.1041759999999
 31
0.0
  0
LINE
  5
A3E7
330
A2F8
100
AcDbEntity
  8
1
  6
Continuous
100
AcDbLine
 10
224.5959669999999
 20
154.104174
 30
0.0
 11
224.5959669999999
 21
140.3160839999999
 31
0.0
  0
LINE
  5
A3E8
330
A2F8
100
AcDbEntity
  8
1
  6
Continuous
100
AcDbLine
 10
201.445965
 20
135.5227439999999
 30
0.0
 11
201.445965
 21
130.1041759999999
 31
0.0
  0
LINE
  5
A3E9
330
A2F8
100
AcDbEntity
  8
1
  6
Continuous
100
AcDbLine
 10
198.095967
 20
154.104174
 30
0.0
 11
198.095967
 21
140.3698949999999
 31
0.0
  0
LINE
  5
A3EA
330
A2F8
100
AcDbEntity
  8
4
  6
CENTER
 48
0.5
100
AcDbLine
 10
227.73997
 20
134.804173
 30
0.0
 11
194.853941
 21
134.804173
 31
0.0
  0
LINE
  5
A3EB
330
A2F8
100
AcDbEntity
  8
1
  6
Continuous
100
AcDbLine
 10
202.845967
 20
151.421559
 30
0.0
 11
202.845967
 21
130.1041759999999
 31
0.0
  0
LINE
  5
A3EC
330
A2F8
100
AcDbEntity
  8
1
  6
Continuous
100
AcDbLine
 10
219.845967
 20
151.421559
 30
0.0
 11
219.845967
 21
130.1041759999999
 31
0.0
  0
LINE
  5
A3ED
330
A2F8
100
AcDbEntity
  8
1
  6
Continuous
100
AcDbLine
 10
221.245969
 20
130.1041759999999
 30
0.0
 11
219.845967
 21
130.1041759999999
 31
0.0
  0
LINE
  5
A3EE
330
A2F8
100
AcDbEntity
  8
1
  6
Continuous
100
AcDbLine
 10
201.445965
 20
130.1041759999999
 30
0.0
 11
202.845967
 21
130.1041759999999
 31
0.0
  0
ARC
  5
A3EF
330
A2F8
100
AcDbEntity
  8
1
  6
Continuous
100
AcDbCircle
 10
222.0517239999999
 20
132.3359039999999
 30
0.0
 40
0.2
100
AcDbArc
 50
240.9812699999999
 51
337.4781699999998
  0
ARC
  5
A3F0
330
A2F8
100
AcDbEntity
  8
1
  6
Continuous
100
AcDbCircle
 10
216.1378519999999
 20
134.7881279999997
 30
0.0
 40
6.602128999999997
100
AcDbArc
 50
337.47839
 51
16.299494
  0
LINE
  5
A3F1
330
A2F8
100
AcDbEntity
  8
1
  6
Continuous
100
AcDbLine
 10
221.2459609999999
 20
132.5541729999999
 30
0.0
 11
221.9547089999998
 21
132.1610149999999
 31
0.0
  0
LINE
  5
A3F2
330
A2F8
100
AcDbEntity
  8
1
  6
Continuous
100
AcDbLine
 10
222.147008
 20
132.160073
 30
0.0
 11
222.1356629999999
 21
136.404174
 31
0.0
  0
LINE
  5
A3F3
330
A2F8
100
AcDbEntity
  8
1
  6
Continuous
100
AcDbLine
 10
219.845967
 20
137.2041749999999
 30
0.0
 11
219.345967
 21
137.2041749999999
 31
0.0
  0
LINE
  5
A3F4
330
A2F8
100
AcDbEntity
  8
1
  6
Continuous
100
AcDbLine
 10
219.845967
 20
132.4041709999999
 30
0.0
 11
219.345967
 21
132.4041709999999
 31
0.0
  0
ARC
  5
A3F5
330
A2F8
100
AcDbEntity
  8
1
  6
Continuous
100
AcDbCircle
 10
202.9815489999998
 20
134.804173
 30
0.0
 40
3.366532999999998
100
AcDbArc
 50
146.5601389999999
 51
158.1290149999998
  0
LINE
  5
A3F6
330
A2F8
100
AcDbEntity
  8
1
  6
Continuous
100
AcDbLine
 10
203.345967
 20
132.4041709999999
 30
0.0
 11
202.845967
 21
132.4041709999999
 31
0.0
  0
LINE
  5
A3F7
330
A2F8
100
AcDbEntity
  8
1
  6
Continuous
100
AcDbLine
 10
203.345967
 20
137.2041749999999
 30
0.0
 11
202.845967
 21
137.2041749999999
 31
0.0
  0
ARC
  5
A3F8
330
A2F8
100
AcDbEntity
  8
1
  6
Continuous
100
AcDbCircle
 10
202.9815489999998
 20
134.804173
 30
0.0
 40
3.366532999999998
100
AcDbArc
 50
201.56468
 51
242.86221
  0
LINE
  5
A3F9
330
A2F8
100
AcDbEntity
  8
1
  6
Continuous
100
AcDbLine
 10
199.850629
 20
133.558259
 30
0.0
 11
199.857312
 21
136.0582589999999
 31
0.0
  0
LINE
  5
A3FA
330
A2F8
100
AcDbEntity
  8
1
  6
Continuous
100
AcDbLine
 10
227.345967
 20
159.4041729999998
 30
0.0
 11
195.3459669999998
 21
159.4041729999998
 31
0.0
  0
LINE
  5
A3FB
330
A2F8
100
AcDbEntity
  8
1
  6
Continuous
100
AcDbLine
 10
227.345967
 20
160.804173
 30
0.0
 11
195.3459669999998
 21
160.804173
 31
0.0
  0
ARC
  5
A3FC
330
A2F8
100
AcDbEntity
  8
1
  6
Continuous
100
AcDbCircle
 10
222.295964
 20
154.104174
 30
0.0
 40
2.299999999999998
100
AcDbArc
 50
0.00004
 51
90.00001800000005
  0
LINE
  5
A3FD
330
A2F8
100
AcDbEntity
  8
1
  6
Continuous
100
AcDbLine
 10
225.845967
 20
159.404175
 30
0.0
 11
224.4349559999998
 21
157.727406
 31
0.0
  0
LINE
  5
A3FE
330
A2F8
100
AcDbEntity
  8
1
  6
Continuous
100
AcDbLine
 10
227.345967
 20
160.804173
 30
0.0
 11
227.345967
 21
159.4041729999998
 31
0.0
  0
LINE
  5
A3FF
330
A2F8
100
AcDbEntity
  8
1
  6
Continuous
100
AcDbLine
 10
222.295964
 20
156.4041729999999
 30
0.0
 11
200.393821
 21
156.4041729999999
 31
0.0
  0
LINE
  5
A400
330
A2F8
100
AcDbEntity
  8
1
  6
Continuous
100
AcDbLine
 10
199.593321
 20
157.104172
 30
0.0
 11
223.095967
 21
157.104172
 31
0.0
  0
LINE
  5
A401
330
A2F8
100
AcDbEntity
  8
4
  6
CENTER
 48
0.5
100
AcDbLine
 10
223.345967
 20
163.8041729999998
 30
0.0
 11
223.345967
 21
156.4041729999999
 31
0.0
  0
ARC
  5
A402
330
A2F8
100
AcDbEntity
  8
1
  6
Continuous
100
AcDbCircle
 10
219.745969
 20
157.1886729999999
 30
0.0
 40
1.984499999999996
100
AcDbArc
 50
336.7144799999998
 51
357.55962
  0
ARC
  5
A403
330
A2F8
100
AcDbEntity
  8
1
  6
Continuous
100
AcDbCircle
 10
218.2099809999999
 20
157.1886729999999
 30
0.0
 40
1.984499999999996
100
AcDbArc
 50
336.7144799999998
 51
357.55962
  0
ARC
  5
A404
330
A2F8
100
AcDbEntity
  8
1
  6
Continuous
100
AcDbCircle
 10
223.095967
 20
158.854174
 30
0.0
 40
1.75
100
AcDbArc
 50
269.99998
 51
319.9191599999998
  0
ARC
  5
A405
330
A2F8
100
AcDbEntity
  8
1
  6
Continuous
100
AcDbCircle
 10
211.345967
 20
157.1886729999999
 30
0.0
 40
1.984499999999996
100
AcDbArc
 50
182.4404
 51
203.2855399999998
  0
ARC
  5
A406
330
A2F8
100
AcDbEntity
  8
1
  6
Continuous
100
AcDbCircle
 10
215.2116439999999
 20
157.1886729999999
 30
0.0
 40
1.984499999999996
100
AcDbArc
 50
193.10209
 51
203.2855399999998
  0
ARC
  5
A407
330
A2F8
100
AcDbEntity
  8
1
  6
Continuous
100
AcDbCircle
 10
215.2116439999999
 20
157.1886729999999
 30
0.0
 40
1.984499999999996
100
AcDbArc
 50
336.7144799999998
 51
357.55962
  0
ARC
  5
A408
330
A2F8
100
AcDbEntity
  8
1
  6
Continuous
100
AcDbCircle
 10
207.4802899999999
 20
157.1886729999999
 30
0.0
 40
1.984499999999996
100
AcDbArc
 50
336.7144799999998
 51
346.8979299999999
  0
ARC
  5
A409
330
A2F8
100
AcDbEntity
  8
1
  6
Continuous
100
AcDbCircle
 10
211.345967
 20
157.1886729999999
 30
0.0
 40
1.984499999999996
100
AcDbArc
 50
336.7144799999998
 51
357.55962
  0
LINE
  5
A40A
330
A2F8
100
AcDbEntity
  8
4
  6
CENTER
 48
0.5
100
AcDbLine
 10
199.345967
 20
163.8041729999998
 30
0.0
 11
199.345967
 21
156.4041729999999
 31
0.0
  0
ARC
  5
A40B
330
A2F8
100
AcDbEntity
  8
1
  6
Continuous
100
AcDbCircle
 10
207.4802899999999
 20
157.1886729999999
 30
0.0
 40
1.984499999999996
100
AcDbArc
 50
182.4404
 51
203.2855399999998
  0
ARC
  5
A40C
330
A2F8
100
AcDbEntity
  8
1
  6
Continuous
100
AcDbCircle
 10
204.48195
 20
157.1886729999999
 30
0.0
 40
1.984499999999996
100
AcDbArc
 50
182.4404
 51
203.2854899999999
  0
ARC
  5
A40D
330
A2F8
100
AcDbEntity
  8
1
  6
Continuous
100
AcDbCircle
 10
200.395966
 20
154.104174
 30
0.0
 40
2.299999999999998
100
AcDbArc
 50
90.00001800000005
 51
180.0
  0
ARC
  5
A40E
330
A2F8
100
AcDbEntity
  8
1
  6
Continuous
100
AcDbCircle
 10
202.945965
 20
157.1886729999999
 30
0.0
 40
1.984499999999996
100
AcDbArc
 50
182.4404
 51
203.2854899999999
  0
ARC
  5
A40F
330
A2F8
100
AcDbEntity
  8
1
  6
Continuous
100
AcDbCircle
 10
199.5959669999997
 20
158.8541699999999
 30
0.0
 40
1.75
100
AcDbArc
 50
220.0808299999999
 51
269.99998
  0
LINE
  5
A410
330
A2F8
100
AcDbEntity
  8
1
  6
Continuous
100
AcDbLine
 10
196.845967
 20
159.40417
 30
0.0
 11
198.256978
 21
157.7273999999999
 31
0.0
  0
LINE
  5
A411
330
A2F8
100
AcDbEntity
  8
1
  6
Continuous
100
AcDbLine
 10
195.3459669999998
 20
160.804173
 30
0.0
 11
195.3459669999998
 21
159.4041729999998
 31
0.0
  0
ARC
  5
A412
330
A2F8
100
AcDbEntity
  8
1
  6
Continuous
100
AcDbCircle
 10
143.6459639999999
 20
146.9041729999998
 30
0.0
 40
5.0
100
AcDbArc
 50
90.0
 51
142.7163889999999
  0
LINE
  5
A413
330
A2F8
100
AcDbEntity
  8
1
  6
Continuous
100
AcDbLine
 10
202.618592
 20
151.9041729999998
 30
0.0
 11
220.073342
 21
151.9041729999998
 31
0.0
  0
LINE
  5
A414
330
A2F8
100
AcDbEntity
  8
1
  6
Continuous
100
AcDbLine
 10
145.595967
 20
154.104173
 30
0.0
 11
145.595967
 21
151.9041729999998
 31
0.0
  0
ARC
  5
A415
330
A2F8
100
AcDbEntity
  8
1
  6
Continuous
100
AcDbCircle
 10
143.2959669999999
 20
154.104173
 30
0.0
 40
2.299999999999998
100
AcDbArc
 50
0.0
 51
90.0
  0
ARC
  5
A416
330
A2F8
100
AcDbEntity
  8
1
  6
Continuous
100
AcDbCircle
 10
203.113268
 20
140.3160839999999
 30
0.0
 40
21.482699
100
AcDbArc
 50
358.224191
 51
29.48090699999999
  0
ARC
  5
A417
330
A2F8
100
AcDbEntity
  8
1
  6
Continuous
100
AcDbCircle
 10
219.578665
 20
140.3160839999999
 30
0.0
 40
21.482699
100
AcDbArc
 50
150.5190929999999
 51
181.775809
  0
ARC
  5
A418
330
A2F8
100
AcDbEntity
  8
1
  6
Continuous
100
AcDbCircle
 10
203.113268
 20
140.3160839999999
 30
0.0
 40
20.08269899999998
100
AcDbArc
 50
358.224191
 51
35.241112
  0
ARC
  5
A419
330
A2F8
100
AcDbEntity
  8
1
  6
Continuous
100
AcDbCircle
 10
219.578665
 20
140.3160839999999
 30
0.0
 40
20.08269899999998
100
AcDbArc
 50
144.7588879999998
 51
181.775809
  0
ARC
  5
A41A
330
A2F8
100
AcDbEntity
  8
1
  6
Continuous
100
AcDbCircle
 10
132.345967
 20
58.804173
 30
0.0
 40
13.25
100
AcDbArc
 50
228.980108
 51
128.6654249999999
  0
ARC
  5
A41B
330
A2F8
100
AcDbEntity
  8
1
  6
Continuous
100
AcDbCircle
 10
132.345967
 20
58.804173
 30
0.0
 40
11.85
100
AcDbArc
 50
270.0
 51
90.0
  0
LINE
  5
A41C
330
A2F8
100
AcDbEntity
  8
1
  6
Continuous
100
AcDbLine
 10
296.46991
 20
132.2724879999997
 30
0.0
 11
283.0242039999999
 21
149.9329769999999
 31
0.0
  0
LINE
  5
A41D
330
A2F8
100
AcDbEntity
  8
1
  6
Continuous
100
AcDbLine
 10
301.545968
 20
156.4041729999999
 30
0.0
 11
279.395967
 21
156.4041729999999
 31
0.0
  0
LINE
  5
A41E
330
A2F8
100
AcDbEntity
  8
1
  6
Continuous
100
AcDbLine
 10
271.3459669999999
 20
160.804173
 30
0.0
 11
309.3459669999998
 21
160.804173
 31
0.0
  0
LINE
  5
A41F
330
A2F8
100
AcDbEntity
  8
1
  6
Continuous
100
AcDbLine
 10
271.3459669999999
 20
159.4041709999999
 30
0.0
 11
309.3459669999998
 21
159.4041709999999
 31
0.0
  0
LINE
  5
A420
330
A2F8
100
AcDbEntity
  8
1
  6
Continuous
100
AcDbLine
 10
278.593321
 20
157.104172
 30
0.0
 11
302.0959669999998
 21
157.104172
 31
0.0
  0
LINE
  5
A421
330
A2F8
100
AcDbEntity
  8
4
  6
CENTER
 48
0.5
100
AcDbLine
 10
322.3459669999998
 20
134.804173
 30
0.0
 11
280.3459669999999
 21
134.804173
 31
0.0
  0
ARC
  5
A422
330
A2F8
100
AcDbEntity
  8
1
  6
Continuous
100
AcDbCircle
 10
292.145966
 20
143.3042889999998
 30
0.0
 40
7.0
100
AcDbArc
 50
279.6907499999999
 51
0.00002
  0
LINE
  5
A423
330
A2F8
100
AcDbEntity
  8
4
  6
CENTER
 48
0.5
100
AcDbLine
 10
301.3459669999998
 20
152.8606019999998
 30
0.0
 11
301.3459669999998
 21
113.8041729999999
 31
0.0
  0
ARC
  5
A424
330
A2F8
100
AcDbEntity
  8
1
  6
Continuous
100
AcDbCircle
 10
300.8459669999998
 20
135.6041759999999
 30
0.0
 40
5.5
100
AcDbArc
 50
217.28362
 51
9.493769999999999
  0
LINE
  5
A425
330
A2F8
100
AcDbEntity
  8
1
  6
Continuous
100
AcDbLine
 10
299.1459659999998
 20
152.278952
 30
0.0
 11
299.1459659999998
 21
143.3042889999998
 31
0.0
  0
LINE
  5
A426
330
A2F8
100
AcDbEntity
  8
1
  6
Continuous
100
AcDbLine
 10
303.54597
 20
152.804177
 30
0.0
 11
306.2706379999998
 21
136.5113489999999
 31
0.0
  0
CIRCLE
  5
A427
330
A2F8
100
AcDbEntity
  8
1
  6
Continuous
100
AcDbCircle
 10
301.3459669999998
 20
134.804173
 30
0.0
 40
3.25
  0
LINE
  5
A428
330
A2F8
100
AcDbEntity
  8
1
  6
Continuous
100
AcDbLine
 10
309.3459669999998
 20
159.404174
 30
0.0
 11
309.3459669999998
 21
160.804176
 31
0.0
  0
LINE
  5
A429
330
A2F8
100
AcDbEntity
  8
1
  6
Continuous
100
AcDbLine
 10
304.8459669999998
 20
159.4041729999998
 30
0.0
 11
303.4349559999999
 21
157.7274049999997
 31
0.0
  0
LINE
  5
A42A
330
A2F8
100
AcDbEntity
  8
4
  6
CENTER
 48
0.5
100
AcDbLine
 10
305.3459669999998
 20
156.4041709999998
 30
0.0
 11
305.3459669999998
 21
163.8041729999998
 31
0.0
  0
LINE
  5
A42B
330
A2F8
100
AcDbEntity
  8
1
  6
Continuous
100
AcDbLine
 10
304.445969
 20
154.404175
 30
0.0
 11
302.92528
 21
155.8524509999998
 31
0.0
  0
ARC
  5
A42C
330
A2F8
100
AcDbEntity
  8
1
  6
Continuous
100
AcDbCircle
 10
302.0959669999998
 20
158.854174
 30
0.0
 40
1.75
100
AcDbArc
 50
269.99998
 51
319.9191599999998
  0
ARC
  5
A42D
330
A2F8
100
AcDbEntity
  8
1
  6
Continuous
100
AcDbCircle
 10
294.2116439999998
 20
157.1886729999999
 30
0.0
 40
1.984499999999996
100
AcDbArc
 50
336.7145199999999
 51
357.55962
  0
ARC
  5
A42E
330
A2F8
100
AcDbEntity
  8
1
  6
Continuous
100
AcDbCircle
 10
297.2099839999998
 20
157.1886729999999
 30
0.0
 40
1.984499999999996
100
AcDbArc
 50
336.7144999999999
 51
357.55962
  0
ARC
  5
A42F
330
A2F8
100
AcDbEntity
  8
1
  6
Continuous
100
AcDbCircle
 10
298.745967
 20
157.1886729999999
 30
0.0
 40
1.984499999999996
100
AcDbArc
 50
336.7144999999999
 51
357.55962
  0
ARC
  5
A430
330
A2F8
100
AcDbEntity
  8
1
  6
Continuous
100
AcDbCircle
 10
301.545968
 20
154.404173
 30
0.0
 40
2.0
100
AcDbArc
 50
0.00004
 51
90.00001800000005
  0
LINE
  5
A431
330
A2F8
100
AcDbEntity
  8
1
  6
Continuous
100
AcDbLine
 10
304.445965
 20
154.404173
 30
0.0
 11
303.545966
 21
152.804171
 31
0.0
  0
LINE
  5
A432
330
A2F8
100
AcDbEntity
  8
1
  6
Continuous
100
AcDbLine
 10
303.545968
 20
152.804179
 30
0.0
 11
303.545968
 21
154.4041769999997
 31
0.0
  0
ARC
  5
A433
330
A2F8
100
AcDbEntity
  8
1
  6
Continuous
100
AcDbCircle
 10
279.0459699999999
 20
146.9041729999998
 30
0.0
 40
5.0
100
AcDbArc
 50
37.283611
 51
90.0
  0
LINE
  5
A434
330
A2F8
100
AcDbEntity
  8
4
  6
CENTER
 48
0.5
100
AcDbLine
 10
290.3459669999998
 20
165.8041729999998
 30
0.0
 11
290.3459669999998
 21
138.275853
 31
0.0
  0
ARC
  5
A435
330
A2F8
100
AcDbEntity
  8
1
  6
Continuous
100
AcDbCircle
 10
279.395967
 20
154.104173
 30
0.0
 40
2.299999999999998
100
AcDbArc
 50
90.0
 51
180.0
  0
ARC
  5
A436
330
A2F8
100
AcDbEntity
  8
1
  6
Continuous
100
AcDbCircle
 10
290.3459669999998
 20
157.1886729999999
 30
0.0
 40
1.984499999999996
100
AcDbArc
 50
336.7145199999999
 51
357.55962
  0
ARC
  5
A437
330
A2F8
100
AcDbEntity
  8
1
  6
Continuous
100
AcDbCircle
 10
286.4802899999999
 20
157.1886729999999
 30
0.0
 40
1.984499999999996
100
AcDbArc
 50
336.7145199999999
 51
346.8979299999999
  0
ARC
  5
A438
330
A2F8
100
AcDbEntity
  8
1
  6
Continuous
100
AcDbCircle
 10
283.48195
 20
157.1886729999999
 30
0.0
 40
1.984499999999996
100
AcDbArc
 50
182.4404
 51
203.2854899999999
  0
ARC
  5
A439
330
A2F8
100
AcDbEntity
  8
1
  6
Continuous
100
AcDbCircle
 10
281.945965
 20
157.1886729999999
 30
0.0
 40
1.984499999999996
100
AcDbArc
 50
182.4404
 51
203.2854899999999
  0
ARC
  5
A43A
330
A2F8
100
AcDbEntity
  8
1
  6
Continuous
100
AcDbCircle
 10
286.4802899999999
 20
157.1886729999999
 30
0.0
 40
1.984499999999996
100
AcDbArc
 50
182.4404
 51
203.2854899999999
  0
ARC
  5
A43B
330
A2F8
100
AcDbEntity
  8
1
  6
Continuous
100
AcDbCircle
 10
290.3459669999998
 20
157.1886729999999
 30
0.0
 40
1.984499999999996
100
AcDbArc
 50
182.4404
 51
203.2854899999999
  0
ARC
  5
A43C
330
A2F8
100
AcDbEntity
  8
1
  6
Continuous
100
AcDbCircle
 10
294.2116439999998
 20
157.1886729999999
 30
0.0
 40
1.984499999999996
100
AcDbArc
 50
193.10216
 51
203.2854899999999
  0
LINE
  5
A43D
330
A2F8
100
AcDbEntity
  8
1
  6
Continuous
100
AcDbLine
 10
277.0959669999999
 20
154.104173
 30
0.0
 11
277.0959669999999
 21
151.9041729999998
 31
0.0
  0
LINE
  5
A43E
330
A2F8
100
AcDbEntity
  8
1
  6
Continuous
100
AcDbLine
 10
279.0459699999999
 20
151.9041729999998
 30
0.0
 11
277.0959669999999
 21
151.9041729999998
 31
0.0
  0
LINE
  5
A43F
330
A2F8
100
AcDbEntity
  8
1
  6
Continuous
100
AcDbLine
 10
271.3459669999999
 20
159.404169
 30
0.0
 11
271.3459669999999
 21
160.804173
 31
0.0
  0
LINE
  5
A440
330
A2F8
100
AcDbEntity
  8
1
  6
Continuous
100
AcDbLine
 10
275.845971
 20
159.40417
 30
0.0
 11
277.256982
 21
157.7273999999999
 31
0.0
  0
LINE
  5
A441
330
A2F8
100
AcDbEntity
  8
4
  6
CENTER
 48
0.5
100
AcDbLine
 10
275.3459669999999
 20
156.4041709999998
 30
0.0
 11
275.3459669999999
 21
163.8041729999998
 31
0.0
  0
ARC
  5
A442
330
A2F8
100
AcDbEntity
  8
1
  6
Continuous
100
AcDbCircle
 10
278.5959669999999
 20
158.8541699999999
 30
0.0
 40
1.75
100
AcDbArc
 50
220.0808299999999
 51
269.99998
  0
ARC
  5
A448
330
A2F8
100
AcDbEntity
  8
1
  6
Continuous
100
AcDbCircle
 10
201.454675
 20
139.754174
 30
0.0
 40
3.35
100
AcDbArc
 50
181.775809
 51
256.5917789999999
  0
ARC
  5
A449
330
A2F8
100
AcDbEntity
  8
1
  6
Continuous
100
AcDbCircle
 10
201.454675
 20
139.754174
 30
0.0
 40
1.95
100
AcDbArc
 50
181.775809
 51
256.591806
  0
ARC
  5
A44A
330
A2F8
100
AcDbEntity
  8
1
  6
Continuous
100
AcDbCircle
 10
200.445965
 20
135.5227439999999
 30
0.0
 40
1.0
100
AcDbArc
 50
0.0
 51
76.591779
  0
ARC
  5
A44B
330
A2F8
100
AcDbEntity
  8
1
  6
Continuous
100
AcDbCircle
 10
200.445967
 20
135.522743
 30
0.0
 40
2.399999999999999
100
AcDbArc
 50
0.0
 51
76.591806
  0
ARC
  5
A44C
330
A2F8
100
AcDbEntity
  8
1
  6
Continuous
100
AcDbCircle
 10
221.2372579999999
 20
139.754174
 30
0.0
 40
3.35
100
AcDbArc
 50
283.4082209999999
 51
358.224191
  0
ARC
  5
A44D
330
A2F8
100
AcDbEntity
  8
1
  6
Continuous
100
AcDbCircle
 10
221.2372579999999
 20
139.754174
 30
0.0
 40
1.95
100
AcDbArc
 50
283.4081939999998
 51
358.224191
  0
ARC
  5
A44E
330
A2F8
100
AcDbEntity
  8
1
  6
Continuous
100
AcDbCircle
 10
222.2459669999998
 20
135.522743
 30
0.0
 40
2.399999999999999
100
AcDbArc
 50
103.4081939999999
 51
180.0
  0
ARC
  5
A44F
330
A2F8
100
AcDbEntity
  8
1
  6
Continuous
100
AcDbCircle
 10
222.2459689999999
 20
135.5227439999999
 30
0.0
 40
1.0
100
AcDbArc
 50
103.408221
 51
180.0
  0
ARC
  5
A450
330
A2F8
100
AcDbEntity
  8
1
  6
Continuous
100
AcDbCircle
 10
132.3459579999999
 20
69.075873
 30
0.0
 40
2.978299999999998
100
AcDbArc
 50
90.0
 51
170.913101
  0
ARC
  5
A451
330
A2F8
100
AcDbEntity
  8
1
  6
Continuous
100
AcDbCircle
 10
128.4175859999997
 20
69.704175
 30
0.0
 40
1.0
100
AcDbArc
 50
270.0
 51
350.9131009999999
  0
ARC
  5
A452
330
A2F8
100
AcDbEntity
  8
1
  6
Continuous
100
AcDbCircle
 10
132.3459579999999
 20
69.075873
 30
0.0
 40
1.5783
100
AcDbArc
 50
90.0
 51
126.886048
  0
ARC
  5
A453
330
A2F8
100
AcDbEntity
  8
1
  6
Continuous
100
AcDbCircle
 10
127.6676579999999
 20
69.704173
 30
0.0
 40
2.399999999999999
100
AcDbArc
 50
270.0
 51
329.335122
  0
ARC
  5
A454
330
A2F8
100
AcDbEntity
  8
1
  6
Continuous
100
AcDbCircle
 10
135.2468869999998
 20
65.210237
 30
0.0
 40
6.411366
100
AcDbArc
 50
126.886048
 51
149.3351219999999
  0
ARC
  5
A455
330
A2F8
100
AcDbEntity
  8
1
  6
Continuous
100
AcDbCircle
 10
127.6676579999999
 20
47.904173
 30
0.0
 40
2.399999999999999
100
AcDbArc
 50
30.664878
 51
90.0
  0
ARC
  5
A456
330
A2F8
100
AcDbEntity
  8
1
  6
Continuous
100
AcDbCircle
 10
135.2468869999998
 20
52.398108
 30
0.0
 40
6.411366
100
AcDbArc
 50
210.6648779999999
 51
233.113952
  0
ARC
  5
A457
330
A2F8
100
AcDbEntity
  8
1
  6
Continuous
100
AcDbCircle
 10
128.4175859999997
 20
47.90417099999999
 30
0.0
 40
1.0
100
AcDbArc
 50
9.086899
 51
90.0
  0
ARC
  5
A458
330
A2F8
100
AcDbEntity
  8
1
  6
Continuous
100
AcDbCircle
 10
132.3459579999999
 20
48.53247299999999
 30
0.0
 40
2.978299999999998
100
AcDbArc
 50
189.0868989999999
 51
270.0
  0
ARC
  5
A459
330
A2F8
100
AcDbEntity
  8
1
  6
Continuous
100
AcDbCircle
 10
132.3459579999999
 20
48.53247299999999
 30
0.0
 40
1.5783
100
AcDbArc
 50
233.113952
 51
270.0
  0
ARC
  5
A45A
330
A2F8
100
AcDbEntity
  8
1
  6
Continuous
100
AcDbCircle
 10
220.073342
 20
149.9041729999999
 30
0.0
 40
2.0
100
AcDbArc
 50
29.48090699999999
 51
90.0
  0
ARC
  5
A45B
330
A2F8
100
AcDbEntity
  8
1
  6
Continuous
100
AcDbCircle
 10
202.618592
 20
149.9041729999999
 30
0.0
 40
2.0
100
AcDbArc
 50
90.0
 51
150.5190929999999
  0
LINE
  5
A45C
330
A2F8
100
AcDbEntity
  8
1
  6
Continuous
100
AcDbLine
 10
114.7245389999997
 20
213.8041729999999
 30
0.0
 11
106.8102689999999
 21
213.8041729999999
 31
0.0
  0
LINE
  5
A45D
330
A2F8
100
AcDbEntity
  8
1
  6
Continuous
100
AcDbLine
 10
114.7245389999997
 20
227.8041729999999
 30
0.0
 11
106.8102689999999
 21
227.8041729999999
 31
0.0
  0
ARC
  5
A45E
330
A2F8
100
AcDbEntity
  8
1
  6
Continuous
100
AcDbCircle
 10
145.3459669999998
 20
220.804173
 30
0.0
 40
40.0
100
AcDbArc
 50
171.1490689999999
 51
188.8499539999999
  0
ARC
  5
A45F
330
A2F8
100
AcDbEntity
  8
1
  6
Continuous
100
AcDbCircle
 10
106.8102689999999
 20
214.804173
 30
0.0
 40
1.0
100
AcDbArc
 50
188.8499669999999
 51
270.00002
  0
ARC
  5
A460
330
A2F8
100
AcDbEntity
  8
1
  6
Continuous
100
AcDbCircle
 10
106.8102689999999
 20
226.8041729999999
 30
0.0
 40
1.0
100
AcDbArc
 50
90.00005499999994
 51
171.1501059999999
  0
ARC
  5
A461
330
A2F8
100
AcDbEntity
  8
1
  6
Continuous
100
AcDbCircle
 10
121.3459669999999
 20
134.804173
 30
0.0
 40
11.75
100
AcDbArc
 50
106.4408129999999
 51
25.284159
  0
ARC
  5
A462
330
A2F8
100
AcDbEntity
  8
1
  6
Continuous
100
AcDbCircle
 10
121.3459669999999
 20
134.804173
 30
0.0
 40
16.0
100
AcDbArc
 50
99.240223
 51
32.941476
  0
LINE
  5
A463
330
A2F8
100
AcDbEntity
  8
1
  6
Continuous
100
AcDbLine
 10
53.345967
 20
130.3041729999999
 30
0.0
 11
53.345967
 21
139.3041729999999
 31
0.0
  0
LINE
  5
A464
330
A2F8
100
AcDbEntity
  8
1
  6
Continuous
100
AcDbLine
 10
37.345967
 20
130.3041729999999
 30
0.0
 11
37.345967
 21
139.3041729999999
 31
0.0
  0
LINE
  5
A465
330
A2F8
100
AcDbEntity
  8
1
  6
Continuous
100
AcDbLine
 10
38.345967
 20
120.2684749999999
 30
0.0
 11
38.345967
 21
149.3398709999999
 31
0.0
  0
LINE
  5
A466
330
A2F8
100
AcDbEntity
  8
1
  6
Continuous
100
AcDbLine
 10
52.345967
 20
120.2684749999999
 30
0.0
 11
52.345967
 21
149.3398709999999
 31
0.0
  0
ARC
  5
A467
330
A2F8
100
AcDbEntity
  8
1
  6
Continuous
100
AcDbCircle
 10
45.345967
 20
158.804173
 30
0.0
 40
40.0
100
AcDbArc
 50
261.1500459999999
 51
278.850931
  0
ARC
  5
A468
330
A2F8
100
AcDbEntity
  8
1
  6
Continuous
100
AcDbCircle
 10
37.845967
 20
130.3041729999999
 30
0.0
 40
0.5
100
AcDbArc
 50
179.9999799999999
 51
263.4329399999999
  0
LINE
  5
A469
330
A2F8
100
AcDbEntity
  8
1
  6
Continuous
100
AcDbLine
 10
37.78878499999999
 20
129.8074539999997
 30
0.0
 11
38.345967
 21
129.7433129999997
 31
0.0
  0
ARC
  5
A46A
330
A2F8
100
AcDbEntity
  8
1
  6
Continuous
100
AcDbCircle
 10
39.345967
 20
120.2684749999999
 30
0.0
 40
1.0
100
AcDbArc
 50
179.9999799999999
 51
261.15004
  0
ARC
  5
A46B
330
A2F8
100
AcDbEntity
  8
1
  6
Continuous
100
AcDbCircle
 10
52.845967
 20
130.3041729999999
 30
0.0
 40
0.5
100
AcDbArc
 50
276.5669799999999
 51
359.99995
  0
LINE
  5
A46C
330
A2F8
100
AcDbEntity
  8
1
  6
Continuous
100
AcDbLine
 10
52.903149
 20
129.8074539999997
 30
0.0
 11
52.345967
 21
129.7433129999997
 31
0.0
  0
ARC
  5
A46D
330
A2F8
100
AcDbEntity
  8
1
  6
Continuous
100
AcDbCircle
 10
51.345967
 20
120.2684749999999
 30
0.0
 40
1.0
100
AcDbArc
 50
278.84989
 51
359.99995
  0
ARC
  5
A46E
330
A2F8
100
AcDbEntity
  8
1
  6
Continuous
100
AcDbCircle
 10
45.345967
 20
110.8041729999999
 30
0.0
 40
40.0
100
AcDbArc
 50
81.14906899999999
 51
98.84995400000001
  0
ARC
  5
A46F
330
A2F8
100
AcDbEntity
  8
1
  6
Continuous
100
AcDbCircle
 10
39.345967
 20
149.3398709999999
 30
0.0
 40
1.0
100
AcDbArc
 50
98.84996700000002
 51
180.00002
  0
ARC
  5
A470
330
A2F8
100
AcDbEntity
  8
1
  6
Continuous
100
AcDbCircle
 10
37.845967
 20
139.3041729999999
 30
0.0
 40
0.5
100
AcDbArc
 50
96.56705200000001
 51
180.00002
  0
LINE
  5
A471
330
A2F8
100
AcDbEntity
  8
1
  6
Continuous
100
AcDbLine
 10
37.78878499999999
 20
139.800892
 30
0.0
 11
38.345967
 21
139.865032
 31
0.0
  0
ARC
  5
A472
330
A2F8
100
AcDbEntity
  8
1
  6
Continuous
100
AcDbCircle
 10
52.845967
 20
139.3041729999999
 30
0.0
 40
0.5
100
AcDbArc
 50
0.000055
 51
83.43302199999998
  0
ARC
  5
A473
330
A2F8
100
AcDbEntity
  8
1
  6
Continuous
100
AcDbCircle
 10
51.345967
 20
149.3398709999999
 30
0.0
 40
1.0
100
AcDbArc
 50
0.000055
 51
81.15010599999996
  0
LINE
  5
A474
330
A2F8
100
AcDbEntity
  8
1
  6
Continuous
100
AcDbLine
 10
52.903149
 20
139.800892
 30
0.0
 11
52.345967
 21
139.865032
 31
0.0
  0
LINE
  5
A475
330
A2F8
100
AcDbEntity
  8
1
  6
Continuous
100
AcDbLine
 10
218.3459669999999
 20
120.2684749999999
 30
0.0
 11
218.3459669999999
 21
149.3398709999999
 31
0.0
  0
LINE
  5
A476
330
A2F8
100
AcDbEntity
  8
1
  6
Continuous
100
AcDbLine
 10
204.3459669999998
 20
120.2684749999999
 30
0.0
 11
204.3459669999998
 21
149.3398709999999
 31
0.0
  0
LINE
  5
A477
330
A2F8
100
AcDbEntity
  8
1
  6
Continuous
100
AcDbLine
 10
203.345967
 20
130.3041729999999
 30
0.0
 11
203.345967
 21
139.3041729999999
 31
0.0
  0
LINE
  5
A478
330
A2F8
100
AcDbEntity
  8
1
  6
Continuous
100
AcDbLine
 10
219.345967
 20
130.3041729999999
 30
0.0
 11
219.345967
 21
139.3041729999999
 31
0.0
  0
ARC
  5
A479
330
A2F8
100
AcDbEntity
  8
1
  6
Continuous
100
AcDbCircle
 10
211.345967
 20
158.804173
 30
0.0
 40
40.0
100
AcDbArc
 50
261.1500459999999
 51
278.850931
  0
ARC
  5
A47A
330
A2F8
100
AcDbEntity
  8
1
  6
Continuous
100
AcDbCircle
 10
205.345967
 20
120.2684749999999
 30
0.0
 40
1.0
100
AcDbArc
 50
179.9999799999999
 51
261.15004
  0
LINE
  5
A47B
330
A2F8
100
AcDbEntity
  8
1
  6
Continuous
100
AcDbLine
 10
203.7887849999999
 20
129.8074539999997
 30
0.0
 11
204.3459669999998
 21
129.7433129999997
 31
0.0
  0
ARC
  5
A47C
330
A2F8
100
AcDbEntity
  8
1
  6
Continuous
100
AcDbCircle
 10
203.8459669999999
 20
130.3041729999999
 30
0.0
 40
0.5
100
AcDbArc
 50
179.9999799999999
 51
263.4329399999999
  0
ARC
  5
A47D
330
A2F8
100
AcDbEntity
  8
1
  6
Continuous
100
AcDbCircle
 10
217.345967
 20
120.2684749999999
 30
0.0
 40
1.0
100
AcDbArc
 50
278.84989
 51
359.99995
  0
LINE
  5
A47E
330
A2F8
100
AcDbEntity
  8
1
  6
Continuous
100
AcDbLine
 10
218.903149
 20
129.8074539999997
 30
0.0
 11
218.3459669999999
 21
129.7433129999997
 31
0.0
  0
ARC
  5
A47F
330
A2F8
100
AcDbEntity
  8
1
  6
Continuous
100
AcDbCircle
 10
218.8459669999998
 20
130.3041729999999
 30
0.0
 40
0.5
100
AcDbArc
 50
276.5669799999999
 51
359.99995
  0
ARC
  5
A480
330
A2F8
100
AcDbEntity
  8
1
  6
Continuous
100
AcDbCircle
 10
211.345967
 20
110.8041729999999
 30
0.0
 40
40.0
100
AcDbArc
 50
81.14906899999999
 51
98.84995400000001
  0
LINE
  5
A481
330
A2F8
100
AcDbEntity
  8
1
  6
Continuous
100
AcDbLine
 10
203.7887849999999
 20
139.800892
 30
0.0
 11
204.3459669999998
 21
139.865032
 31
0.0
  0
ARC
  5
A482
330
A2F8
100
AcDbEntity
  8
1
  6
Continuous
100
AcDbCircle
 10
203.8459669999999
 20
139.3041729999999
 30
0.0
 40
0.5
100
AcDbArc
 50
96.56705200000001
 51
180.00002
  0
ARC
  5
A483
330
A2F8
100
AcDbEntity
  8
1
  6
Continuous
100
AcDbCircle
 10
205.345967
 20
149.3398709999999
 30
0.0
 40
1.0
100
AcDbArc
 50
98.84996700000002
 51
180.00002
  0
LINE
  5
A484
330
A2F8
100
AcDbEntity
  8
1
  6
Continuous
100
AcDbLine
 10
218.903149
 20
139.800892
 30
0.0
 11
218.3459669999999
 21
139.865032
 31
0.0
  0
ARC
  5
A485
330
A2F8
100
AcDbEntity
  8
1
  6
Continuous
100
AcDbCircle
 10
217.345967
 20
149.3398709999999
 30
0.0
 40
1.0
100
AcDbArc
 50
0.000055
 51
81.15010599999996
  0
ARC
  5
A486
330
A2F8
100
AcDbEntity
  8
1
  6
Continuous
100
AcDbCircle
 10
218.8459669999998
 20
139.3041729999999
 30
0.0
 40
0.5
100
AcDbArc
 50
0.000055
 51
83.43302199999998
  0
LINE
  5
A487
330
A2F8
100
AcDbEntity
  8
1
  6
Continuous
100
AcDbLine
 10
135.881665
 20
65.80417299999999
 30
0.0
 11
106.8102689999999
 21
65.80417299999999
 31
0.0
  0
LINE
  5
A488
330
A2F8
100
AcDbEntity
  8
1
  6
Continuous
100
AcDbLine
 10
135.881665
 20
51.804173
 30
0.0
 11
106.8102689999999
 21
51.804173
 31
0.0
  0
LINE
  5
A489
330
A2F8
100
AcDbEntity
  8
1
  6
Continuous
100
AcDbLine
 10
125.8459669999999
 20
66.80417299999999
 30
0.0
 11
116.8459669999997
 21
66.80417299999999
 31
0.0
  0
LINE
  5
A48A
330
A2F8
100
AcDbEntity
  8
1
  6
Continuous
100
AcDbLine
 10
125.8459669999999
 20
50.804173
 30
0.0
 11
116.8459669999997
 21
50.804173
 31
0.0
  0
ARC
  5
A48B
330
A2F8
100
AcDbEntity
  8
1
  6
Continuous
100
AcDbCircle
 10
106.8102689999999
 20
64.80417299999999
 30
0.0
 40
1.0
100
AcDbArc
 50
90.00005499999994
 51
171.1501059999999
  0
ARC
  5
A48C
330
A2F8
100
AcDbEntity
  8
1
  6
Continuous
100
AcDbCircle
 10
106.8102689999999
 20
52.80417299999999
 30
0.0
 40
1.0
100
AcDbArc
 50
188.8499669999999
 51
270.00002
  0
ARC
  5
A48D
330
A2F8
100
AcDbEntity
  8
1
  6
Continuous
100
AcDbCircle
 10
145.3459669999998
 20
58.804173
 30
0.0
 40
40.0
100
AcDbArc
 50
171.1490689999999
 51
188.8499539999999
  0
LINE
  5
A48E
330
A2F8
100
AcDbEntity
  8
1
  6
Continuous
100
AcDbLine
 10
116.349248
 20
66.361355
 30
0.0
 11
116.285107
 21
65.80417299999999
 31
0.0
  0
ARC
  5
A48F
330
A2F8
100
AcDbEntity
  8
1
  6
Continuous
100
AcDbCircle
 10
116.8459669999997
 20
66.30417299999999
 30
0.0
 40
0.5
100
AcDbArc
 50
90.00005499999994
 51
173.4330219999999
  0
LINE
  5
A490
330
A2F8
100
AcDbEntity
  8
1
  6
Continuous
100
AcDbLine
 10
116.349248
 20
51.24699099999999
 30
0.0
 11
116.285107
 21
51.804173
 31
0.0
  0
ARC
  5
A491
330
A2F8
100
AcDbEntity
  8
1
  6
Continuous
100
AcDbCircle
 10
116.8459669999997
 20
51.304173
 30
0.0
 40
0.5
100
AcDbArc
 50
186.5670519999999
 51
270.00002
  0
LINE
  5
A492
330
A2F8
100
AcDbEntity
  8
1
  6
Continuous
100
AcDbLine
 10
126.342686
 20
66.361355
 30
0.0
 11
126.4068259999999
 21
65.80417299999999
 31
0.0
  0
ARC
  5
A493
330
A2F8
100
AcDbEntity
  8
1
  6
Continuous
100
AcDbCircle
 10
125.8459669999999
 20
66.30417299999999
 30
0.0
 40
0.5
100
AcDbArc
 50
6.56698
 51
89.99995000000001
  0
LINE
  5
A494
330
A2F8
100
AcDbEntity
  8
1
  6
Continuous
100
AcDbLine
 10
126.342686
 20
51.24699099999999
 30
0.0
 11
126.4068259999999
 21
51.804173
 31
0.0
  0
ARC
  5
A495
330
A2F8
100
AcDbEntity
  8
1
  6
Continuous
100
AcDbCircle
 10
125.8459669999999
 20
51.304173
 30
0.0
 40
0.5
100
AcDbArc
 50
269.99998
 51
353.4329399999998
  0
ARC
  5
A496
330
A2F8
100
AcDbEntity
  8
1
  6
Continuous
100
AcDbCircle
 10
135.881665
 20
64.80417299999999
 30
0.0
 40
1.0
100
AcDbArc
 50
8.84989
 51
89.99995000000001
  0
ARC
  5
A497
330
A2F8
100
AcDbEntity
  8
1
  6
Continuous
100
AcDbCircle
 10
135.881665
 20
52.80417299999999
 30
0.0
 40
1.0
100
AcDbArc
 50
269.99998
 51
351.15004
  0
ARC
  5
A498
330
A2F8
100
AcDbEntity
  8
1
  6
Continuous
100
AcDbCircle
 10
97.345967
 20
58.804173
 30
0.0
 40
40.0
100
AcDbArc
 50
351.1500459999999
 51
8.850930999999997
  0
ARC
  5
A499
330
A2F8
100
AcDbEntity
  8
1
  6
Continuous
100
AcDbCircle
 10
301.3459669999998
 20
134.804173
 30
0.0
 40
16.0
100
AcDbArc
 50
147.058524
 51
80.75977700000001
  0
ARC
  5
A49A
330
A2F8
100
AcDbEntity
  8
1
  6
Continuous
100
AcDbCircle
 10
301.3459669999998
 20
134.804173
 30
0.0
 40
11.75
100
AcDbArc
 50
154.7158409999999
 51
73.55918699999998
  0
ENDSEC
  0
SECTION
  2
OBJECTS
  0
DICTIONARY
  5
A2E6
330
0
100
AcDbDictionary
281
     1
  3
ACAD_CIP_PREVIOUS_PRODUCT_INFO
350
A518
  3
ACAD_COLOR
350
A4FA
  3
ACAD_DETAILVIEWSTYLE
350
A513
  3
ACAD_GROUP
350
A2E7
  3
ACAD_LAYOUT
350
A2F3
  3
ACAD_MATERIAL
350
A4C8
  3
ACAD_MLEADERSTYLE
350
A50F
  3
ACAD_MLINESTYLE
350
A2F0
  3
ACAD_PLOTSETTINGS
350
A2F2
  3
ACAD_PLOTSTYLENAME
350
A4C6
  3
ACAD_SCALELIST
350
A4FD
  3
ACAD_SECTIONVIEWSTYLE
350
A511
  3
ACAD_TABLESTYLE
350
A4FB
  3
ACAD_VISUALSTYLE
350
A4E1
  3
ACDB_RECOMPOSE_DATA
350
A536
  3
AcDbVariableDictionary
350
A529
  3
DWGPROPS
350
A537
  0
DICTIONARY
  5
A519
330
A2EA
100
AcDbDictionary
280
     1
281
     1
  3
ADSK_XREC_LAYER_RECONCILED
360
A51A
  0
DICTIONARY
  5
A51B
330
A300
100
AcDbDictionary
280
     1
281
     1
  3
ADSK_XREC_LAYER_RECONCILED
360
A51C
  0
DICTIONARY
  5
A51D
330
A301
100
AcDbDictionary
280
     1
281
     1
  3
ADSK_XREC_LAYER_RECONCILED
360
A51E
  0
DICTIONARY
  5
A51F
330
A302
100
AcDbDictionary
280
     1
281
     1
  3
ADSK_XREC_LAYER_RECONCILED
360
A520
  0
DICTIONARY
  5
A521
330
A303
100
AcDbDictionary
280
     1
281
     1
  3
ADSK_XREC_LAYER_RECONCILED
360
A522
  0
DICTIONARY
  5
A523
330
A304
100
AcDbDictionary
280
     1
281
     1
  3
ADSK_XREC_LAYER_RECONCILED
360
A524
  0
DICTIONARY
  5
A525
330
A305
100
AcDbDictionary
280
     1
281
     1
  3
ADSK_XREC_LAYER_RECONCILED
360
A526
  0
DICTIONARY
  5
A527
330
A306
100
AcDbDictionary
280
     1
281
     1
  3
ADSK_XREC_LAYER_RECONCILED
360
A528
  0
DICTIONARY
  5
A4A5
330
A2F8
100
AcDbDictionary
281
     1
  3
ACAD_LAYOUTSELFREF
350
A4C2
  0
DICTIONARY
  5
A4A3
330
A2F4
100
AcDbDictionary
281
     1
  3
ACAD_LAYOUTSELFREF
350
A4C1
  0
XRECORD
  5
A518
102
{ACAD_REACTORS
330
A2E6
102
}
330
A2E6
100
AcDbXrecord
280
     1
300
ACDLT
300
2014
300
ACDLT_F_S
  0
DICTIONARY
  5
A4FA
102
{ACAD_REACTORS
330
A2E6
102
}
330
A2E6
100
AcDbDictionary
281
     1
  0
DICTIONARY
  5
A513
102
{ACAD_REACTORS
330
A2E6
102
}
330
A2E6
100
AcDbDictionary
281
     1
  3
Imperial24
350
A514
  0
DICTIONARY
  5
A2E7
102
{ACAD_REACTORS
330
A2E6
102
}
330
A2E6
100
AcDbDictionary
281
     1
  0
DICTIONARY
  5
A2F3
102
{ACAD_REACTORS
330
A2E6
102
}
330
A2E6
100
AcDbDictionary
281
     1
  3
Model
350
A515
  3
レイアウト1
350
A516
  0
DICTIONARY
  5
A4C8
102
{ACAD_REACTORS
330
A2E6
102
}
330
A2E6
100
AcDbDictionary
281
     1
  3
ByBlock
350
A4D1
  3
ByLayer
350
A4C9
  3
Global
350
A4D9
  0
DICTIONARY
  5
A50F
102
{ACAD_REACTORS
330
A2E6
102
}
330
A2E6
100
AcDbDictionary
281
     1
  3
Standard
350
A510
  0
DICTIONARY
  5
A2F0
102
{ACAD_REACTORS
330
A2E6
102
}
330
A2E6
100
AcDbDictionary
281
     1
  3
STANDARD
350
A2F1
  0
DICTIONARY
  5
A2F2
102
{ACAD_REACTORS
330
A2E6
102
}
330
A2E6
100
AcDbDictionary
281
     1
  0
ACDBDICTIONARYWDFLT
  5
A4C6
102
{ACAD_REACTORS
330
A2E6
102
}
330
A2E6
100
AcDbDictionary
281
     1
  3
Normal
350
A4C7
100
AcDbDictionaryWithDefault
340
A4C7
  0
DICTIONARY
  5
A4FD
102
{ACAD_REACTORS
330
A2E6
102
}
330
A2E6
100
AcDbDictionary
281
     1
  3
A0
350
A4FE
  3
A1
350
A4FF
  3
A2
350
A500
  3
A3
350
A501
  3
A4
350
A502
  3
A5
350
A503
  3
A6
350
A504
  3
A7
350
A505
  3
A8
350
A506
  3
A9
350
A507
  3
B0
350
A508
  3
B1
350
A509
  3
B2
350
A50A
  3
B3
350
A50B
  3
B4
350
A50C
  3
B5
350
A50D
  3
B6
350
A50E
  0
DICTIONARY
  5
A511
102
{ACAD_REACTORS
330
A2E6
102
}
330
A2E6
100
AcDbDictionary
281
     1
  3
Imperial24
350
A512
  0
DICTIONARY
  5
A4FB
102
{ACAD_REACTORS
330
A2E6
102
}
330
A2E6
100
AcDbDictionary
281
     1
  3
Standard
350
A4FC
  0
DICTIONARY
  5
A4E1
102
{ACAD_REACTORS
330
A2E6
102
}
330
A2E6
100
AcDbDictionary
281
     1
  3
2dWireframe
350
A4E7
  3
Basic
350
A4E6
  3
Brighten
350
A4ED
  3
ColorChange
350
A4F1
  3
Conceptual
350
A4EA
  3
Dim
350
A4EC
  3
EdgeColorOff
350
A4F9
  3
Facepattern
350
A4F0
  3
Flat
350
A4E2
  3
FlatWithEdges
350
A4E3
  3
Gouraud
350
A4E4
  3
GouraudWithEdges
350
A4E5
  3
Hidden
350
A4E9
  3
JitterOff
350
A4F7
  3
Linepattern
350
A4EF
  3
OverhangOff
350
A4F8
  3
Realistic
350
A4EB
  3
Shaded
350
A4F6
  3
Shaded with edges
350
A4F5
  3
Shades of Gray
350
A4F2
  3
Sketchy
350
A4F3
  3
Thicken
350
A4EE
  3
Wireframe
350
A4E8
  3
X-Ray
350
A4F4
  0
XRECORD
  5
A536
102
{ACAD_REACTORS
330
A2E6
102
}
330
A2E6
100
AcDbXrecord
280
     1
 90
        1
330
A4FC
  0
DICTIONARY
  5
A529
102
{ACAD_REACTORS
330
A2E6
102
}
330
A2E6
100
AcDbDictionary
281
     1
  3
CANNOSCALE
350
A52E
  3
CMLEADERSTYLE
350
A52B
  3
CTABLESTYLE
350
A52A
  3
CVIEWDETAILSTYLE
350
A52C
  3
CVIEWSECTIONSTYLE
350
A52D
  3
DIMASSOC
350
A531
  3
INDEXCTL
350
A530
  3
SORTENTS
350
A52F
  3
XCLIPFRAME
350
A532
  0
XRECORD
  5
A537
102
{ACAD_REACTORS
330
A2E6
102
}
330
A2E6
100
AcDbXrecord
280
     1
  1
DWGPROPS COOKIE
  2

  3

  4

  6

  7

  8
Yoshitsune
  9

300
=
301
=
302
=
303
=
304
=
305
=
306
=
307
=
308
=
309
=
 40
0.1004864699074074
 41
2451301.46106007
 42
2457192.690446493
  1

 90
        0
  0
XRECORD
  5
A51A
102
{ACAD_REACTORS
330
A519
102
}
330
A519
100
AcDbXrecord
280
     1
290
     1
  0
XRECORD
  5
A51C
102
{ACAD_REACTORS
330
A51B
102
}
330
A51B
100
AcDbXrecord
280
     1
290
     1
  0
XRECORD
  5
A51E
102
{ACAD_REACTORS
330
A51D
102
}
330
A51D
100
AcDbXrecord
280
     1
290
     1
  0
XRECORD
  5
A520
102
{ACAD_REACTORS
330
A51F
102
}
330
A51F
100
AcDbXrecord
280
     1
290
     1
  0
XRECORD
  5
A522
102
{ACAD_REACTORS
330
A521
102
}
330
A521
100
AcDbXrecord
280
     1
290
     1
  0
XRECORD
  5
A524
102
{ACAD_REACTORS
330
A523
102
}
330
A523
100
AcDbXrecord
280
     1
290
     1
  0
XRECORD
  5
A526
102
{ACAD_REACTORS
330
A525
102
}
330
A525
100
AcDbXrecord
280
     1
290
     1
  0
XRECORD
  5
A528
102
{ACAD_REACTORS
330
A527
102
}
330
A527
100
AcDbXrecord
280
     1
290
     1
  0
XRECORD
  5
A4C2
102
{ACAD_REACTORS
330
A4A5
102
}
330
A4A5
100
AcDbXrecord
280
     1
340
A2F8
  0
XRECORD
  5
A4C1
102
{ACAD_REACTORS
330
A4A3
102
}
330
A4A3
100
AcDbXrecord
280
     1
340
A2F4
  0
ACDBDETAILVIEWSTYLE
  5
A514
102
{ACAD_XDICTIONARY
360
A56F
102
}
102
{ACAD_REACTORS
330
A513
102
}
330
A513
100
AcDbModelDocViewStyle
 70
     0
  3
Imperial24
290
     0
100
AcDbDetailViewStyle
 70
     0
 71
     0
 90
        3
 71
     1
340
A2EB
 40
0.24
340
0
 40
0.24
300

 40
0.36
280
     3
 71
     2
340
A2EF
 90
       25
 71
     3
340
A2EB
 40
0.24
 90
        1
 40
0.75
 90
        1
300
%<\AcVar ViewType \f "%tc1">% %<\AcVar ViewDetailId>%\PSCALE %<\AcVar ViewScale \f "%sn">%
 71
     4
340
A2EF
 90
       25
340
A2EF
 90
       25
280
     0
  0
LAYOUT
  5
A515
102
{ACAD_XDICTIONARY
360
A571
102
}
102
{ACAD_REACTORS
330
A2F3
102
}
330
A2F3
100
AcDbPlotSettings
  1

  2
Canon LBP9100C
  4

  6

 40
0.0
 41
0.0
 42
0.0
 43
0.0
 44
0.0
 45
0.0
 46
0.0
 47
0.0
 48
0.0
 49
0.0
140
0.0
141
0.0
142
1.0
143
1.0
 70
  1712
 72
     0
 73
     0
 74
     0
  7

 75
     0
147
1.0
148
0.0
149
0.0
100
AcDbLayout
  1
Model
 70
     1
 71
     0
 10
0.0
 20
0.0
 11
12.0
 21
9.0
 12
0.0
 22
0.0
 32
0.0
 14
0.0
 24
0.0
 34
0.0
 15
0.0
 25
0.0
 35
0.0
146
0.0
 13
0.0
 23
0.0
 33
0.0
 16
1.0
 26
0.0
 36
0.0
 17
0.0
 27
1.0
 37
0.0
 76
     0
330
A2F8
331
A4C0
  0
LAYOUT
  5
A516
102
{ACAD_XDICTIONARY
360
A573
102
}
102
{ACAD_REACTORS
330
A2F3
102
}
330
A2F3
100
AcDbPlotSettings
  1

  2
Canon LBP9100C
  4

  6

 40
0.0
 41
0.0
 42
0.0
 43
0.0
 44
0.0
 45
0.0
 46
0.0
 47
0.0
 48
0.0
 49
0.0
140
0.0
141
0.0
142
1.0
143
1.0
 70
   688
 72
     0
 73
     0
 74
     5
  7

 75
    16
147
1.0
148
0.0
149
0.0
100
AcDbLayout
  1
レイアウト1
 70
     0
 71
     1
 10
0.0
 20
0.0
 11
420.0
 21
297.0
 12
0.0
 22
0.0
 32
0.0
 14
1.000000000000000E+20
 24
1.000000000000000E+20
 34
1.000000000000000E+20
 15
-1.000000000000000E+20
 25
-1.000000000000000E+20
 35
-1.000000000000000E+20
146
0.0
 13
0.0
 23
0.0
 33
0.0
 16
1.0
 26
0.0
 36
0.0
 17
0.0
 27
1.0
 37
0.0
 76
     0
330
A2F4
  0
MATERIAL
  5
A4D1
102
{ACAD_XDICTIONARY
360
A4D2
102
}
102
{ACAD_REACTORS
330
A4C8
102
}
330
A4C8
100
AcDbMaterial
  1
ByBlock
 72
     0
 43
0.0208333333333333
 43
0.0
 43
0.0
 43
0.0
 43
0.0
 43
0.0208333333333333
 43
0.0
 43
0.0
 43
0.0
 43
0.0
 43
1.0
 43
0.0
 43
0.0
 43
0.0
 43
0.0
 43
1.0
 77
     0
 47
0.0208333333333333
 47
0.0
 47
0.0
 47
0.0
 47
0.0
 47
0.0208333333333333
 47
0.0
 47
0.0
 47
0.0
 47
0.0
 47
1.0
 47
0.0
 47
0.0
 47
0.0
 47
0.0
 47
1.0
171
     0
 49
0.0208333333333333
 49
0.0
 49
0.0
 49
0.0
 49
0.0
 49
0.0208333333333333
 49
0.0
 49
0.0
 49
0.0
 49
0.0
 49
1.0
 49
0.0
 49
0.0
 49
0.0
 49
0.0
 49
1.0
175
     0
142
0.0208333333333333
142
0.0
142
0.0
142
0.0
142
0.0
142
0.0208333333333333
142
0.0
142
0.0
142
0.0
142
0.0
142
1.0
142
0.0
142
0.0
142
0.0
142
0.0
142
1.0
179
     0
144
0.0208333333333333
144
0.0
144
0.0
144
0.0
144
0.0
144
0.0208333333333333
144
0.0
144
0.0
144
0.0
144
0.0
144
1.0
144
0.0
144
0.0
144
0.0
144
0.0
144
1.0
147
0.0208333333333333
147
0.0
147
0.0
147
0.0
147
0.0
147
0.0208333333333333
147
0.0
147
0.0
147
0.0
147
0.0
147
1.0
147
0.0
147
0.0
147
0.0
147
0.0
147
1.0
  0
MATERIAL
  5
A4C9
102
{ACAD_XDICTIONARY
360
A4CA
102
}
102
{ACAD_REACTORS
330
A4C8
102
}
330
A4C8
100
AcDbMaterial
  1
ByLayer
 72
     0
 43
0.0208333333333333
 43
0.0
 43
0.0
 43
0.0
 43
0.0
 43
0.0208333333333333
 43
0.0
 43
0.0
 43
0.0
 43
0.0
 43
1.0
 43
0.0
 43
0.0
 43
0.0
 43
0.0
 43
1.0
 77
     0
 47
0.0208333333333333
 47
0.0
 47
0.0
 47
0.0
 47
0.0
 47
0.0208333333333333
 47
0.0
 47
0.0
 47
0.0
 47
0.0
 47
1.0
 47
0.0
 47
0.0
 47
0.0
 47
0.0
 47
1.0
171
     0
 49
0.0208333333333333
 49
0.0
 49
0.0
 49
0.0
 49
0.0
 49
0.0208333333333333
 49
0.0
 49
0.0
 49
0.0
 49
0.0
 49
1.0
 49
0.0
 49
0.0
 49
0.0
 49
0.0
 49
1.0
175
     0
142
0.0208333333333333
142
0.0
142
0.0
142
0.0
142
0.0
142
0.0208333333333333
142
0.0
142
0.0
142
0.0
142
0.0
142
1.0
142
0.0
142
0.0
142
0.0
142
0.0
142
1.0
179
     0
144
0.0208333333333333
144
0.0
144
0.0
144
0.0
144
0.0
144
0.0208333333333333
144
0.0
144
0.0
144
0.0
144
0.0
144
1.0
144
0.0
144
0.0
144
0.0
144
0.0
144
1.0
147
0.0208333333333333
147
0.0
147
0.0
147
0.0
147
0.0
147
0.0208333333333333
147
0.0
147
0.0
147
0.0
147
0.0
147
1.0
147
0.0
147
0.0
147
0.0
147
0.0
147
1.0
  0
MATERIAL
  5
A4D9
102
{ACAD_XDICTIONARY
360
A4DA
102
}
102
{ACAD_REACTORS
330
A4C8
102
}
330
A4C8
100
AcDbMaterial
  1
Global
 72
     0
 43
0.0208333333333333
 43
0.0
 43
0.0
 43
0.0
 43
0.0
 43
0.0208333333333333
 43
0.0
 43
0.0
 43
0.0
 43
0.0
 43
1.0
 43
0.0
 43
0.0
 43
0.0
 43
0.0
 43
1.0
 77
     0
 47
0.0208333333333333
 47
0.0
 47
0.0
 47
0.0
 47
0.0
 47
0.0208333333333333
 47
0.0
 47
0.0
 47
0.0
 47
0.0
 47
1.0
 47
0.0
 47
0.0
 47
0.0
 47
0.0
 47
1.0
171
     0
 49
0.0208333333333333
 49
0.0
 49
0.0
 49
0.0
 49
0.0
 49
0.0208333333333333
 49
0.0
 49
0.0
 49
0.0
 49
0.0
 49
1.0
 49
0.0
 49
0.0
 49
0.0
 49
0.0
 49
1.0
175
     0
142
0.0208333333333333
142
0.0
142
0.0
142
0.0
142
0.0
142
0.0208333333333333
142
0.0
142
0.0
142
0.0
142
0.0
142
1.0
142
0.0
142
0.0
142
0.0
142
0.0
142
1.0
179
     0
144
0.0208333333333333
144
0.0
144
0.0
144
0.0
144
0.0
144
0.0208333333333333
144
0.0
144
0.0
144
0.0
144
0.0
144
1.0
144
0.0
144
0.0
144
0.0
144
0.0
144
1.0
147
0.0208333333333333
147
0.0
147
0.0
147
0.0
147
0.0
147
0.0208333333333333
147
0.0
147
0.0
147
0.0
147
0.0
147
1.0
147
0.0
147
0.0
147
0.0
147
0.0
147
1.0
  0
MLEADERSTYLE
  5
A510
102
{ACAD_REACTORS
330
A50F
102
}
330
A50F
100
AcDbMLeaderStyle
170
     2
171
     1
172
     0
 90
        2
 40
0.0
 41
0.0
173
     1
 91
-1056964608
340
A2ED
 92
       -2
290
     1
 42
0.09
291
     1
 43
0.36
  3
Standard
 44
0.18
300

342
A2EB
174
     1
178
     6
175
     1
176
     0
 93
-1056964608
 45
0.18
292
     0
297
     0
 46
0.18
 94
-1056964608
 47
1.0
 49
1.0
140
1.0
293
     1
141
0.0
294
     1
177
     0
142
1.0
295
     0
296
     0
143
0.125
1001
ACAD_MLEADERVER
1070
     2
  0
MLINESTYLE
  5
A2F1
102
{ACAD_REACTORS
330
A2F0
102
}
330
A2F0
100
AcDbMlineStyle
  2
STANDARD
 70
     0
  3

 62
   256
 51
90.0
 52
90.0
 71
     2
 49
0.5
 62
   256
  6
BYLAYER
 49
-0.5
 62
   256
  6
BYLAYER
  0
ACDBPLACEHOLDER
  5
A4C7
102
{ACAD_REACTORS
330
A4C6
102
}
330
A4C6
  0
SCALE
  5
A4FE
102
{ACAD_REACTORS
330
A4FD
102
}
330
A4FD
100
AcDbScale
 70
     0
300
1:1
140
1.0
141
1.0
290
     1
  0
SCALE
  5
A4FF
102
{ACAD_REACTORS
330
A4FD
102
}
330
A4FD
100
AcDbScale
 70
     0
300
1/128" = 1'-0"
140
0.0078125
141
12.0
290
     0
  0
SCALE
  5
A500
102
{ACAD_REACTORS
330
A4FD
102
}
330
A4FD
100
AcDbScale
 70
     0
300
1/64" = 1'-0"
140
0.015625
141
12.0
290
     0
  0
SCALE
  5
A501
102
{ACAD_REACTORS
330
A4FD
102
}
330
A4FD
100
AcDbScale
 70
     0
300
1/32" = 1'-0"
140
0.03125
141
12.0
290
     0
  0
SCALE
  5
A502
102
{ACAD_REACTORS
330
A4FD
102
}
330
A4FD
100
AcDbScale
 70
     0
300
1/16" = 1'-0"
140
0.0625
141
12.0
290
     0
  0
SCALE
  5
A503
102
{ACAD_REACTORS
330
A4FD
102
}
330
A4FD
100
AcDbScale
 70
     0
300
3/32" = 1'-0"
140
0.09375
141
12.0
290
     0
  0
SCALE
  5
A504
102
{ACAD_REACTORS
330
A4FD
102
}
330
A4FD
100
AcDbScale
 70
     0
300
1/8" = 1'-0"
140
0.125
141
12.0
290
     0
  0
SCALE
  5
A505
102
{ACAD_REACTORS
330
A4FD
102
}
330
A4FD
100
AcDbScale
 70
     0
300
3/16" = 1'-0"
140
0.1875
141
12.0
290
     0
  0
SCALE
  5
A506
102
{ACAD_REACTORS
330
A4FD
102
}
330
A4FD
100
AcDbScale
 70
     0
300
1/4" = 1'-0"
140
0.25
141
12.0
290
     0
  0
SCALE
  5
A507
102
{ACAD_REACTORS
330
A4FD
102
}
330
A4FD
100
AcDbScale
 70
     0
300
3/8" = 1'-0"
140
0.375
141
12.0
290
     0
  0
SCALE
  5
A508
102
{ACAD_REACTORS
330
A4FD
102
}
330
A4FD
100
AcDbScale
 70
     0
300
1/2" = 1'-0"
140
0.5
141
12.0
290
     0
  0
SCALE
  5
A509
102
{ACAD_REACTORS
330
A4FD
102
}
330
A4FD
100
AcDbScale
 70
     0
300
3/4" = 1'-0"
140
0.75
141
12.0
290
     0
  0
SCALE
  5
A50A
102
{ACAD_REACTORS
330
A4FD
102
}
330
A4FD
100
AcDbScale
 70
     0
300
1" = 1'-0"
140
1.0
141
12.0
290
     0
  0
SCALE
  5
A50B
102
{ACAD_REACTORS
330
A4FD
102
}
330
A4FD
100
AcDbScale
 70
     0
300
1-1/2" = 1'-0"
140
1.5
141
12.0
290
     0
  0
SCALE
  5
A50C
102
{ACAD_REACTORS
330
A4FD
102
}
330
A4FD
100
AcDbScale
 70
     0
300
3" = 1'-0"
140
3.0
141
12.0
290
     0
  0
SCALE
  5
A50D
102
{ACAD_REACTORS
330
A4FD
102
}
330
A4FD
100
AcDbScale
 70
     0
300
6" = 1'-0"
140
6.0
141
12.0
290
     0
  0
SCALE
  5
A50E
102
{ACAD_REACTORS
330
A4FD
102
}
330
A4FD
100
AcDbScale
 70
     0
300
1'-0" = 1'-0"
140
12.0
141
12.0
290
     0
  0
ACDBSECTIONVIEWSTYLE
  5
A512
102
{ACAD_XDICTIONARY
360
A56D
102
}
102
{ACAD_REACTORS
330
A511
102
}
330
A511
100
AcDbModelDocViewStyle
 70
     0
  3
Imperial24
290
     0
100
AcDbSectionViewStyle
 70
     0
 71
     0
 90
       78
 71
     1
340
A2EB
 40
0.24
340
0
340
0
 40
0.24
300
I, O, Q, S, X, Z
 40
0.48
 90
        3
 40
0.18
 90
        1
 71
     2
340
A2EF
 90
       25
340
A2EF
 90
       50
 40
0.24
 40
0.0
 40
0.24
 71
     3
340
A2EB
 40
0.24
 90
        1
 40
0.75
 90
        1
300
%<\AcVar ViewType \f "%tc1">% %<\AcVar ViewSectionStartId>%-%<\AcVar ViewSectionEndId>%\PSCALE %<\AcVar ViewScale \f "%sn">%
 71
     4
300
ANSI31
 40
1.0
 90
        0
290
     0
290
     0
 90
        6
 40
0.0
 40
1.570796326794896
 40
0.2617993877991494
 40
1.308996938995747
 40
-0.2617993877991494
 40
1.832595714594046
  0
TABLESTYLE
  5
A4FC
102
{ACAD_XDICTIONARY
360
A534
102
}
102
{ACAD_REACTORS
330
A4FB
102
}
330
A4FB
100
AcDbTableStyle
  3
Standard
 70
     0
 71
     0
 40
0.06
 41
0.06
280
     0
281
     0
  7
STANDARD
140
0.18
170
     2
 62
     0
 63
     7
283
     0
274
    -2
284
     1
 64
     0
275
    -2
285
     1
 65
     0
276
    -2
286
     1
 66
     0
277
    -2
287
     1
 67
     0
278
    -2
288
     1
 68
     0
279
    -2
289
     1
 69
     0
  7
STANDARD
140
0.25
170
     5
 62
     0
 63
     7
283
     0
274
    -2
284
     1
 64
     0
275
    -2
285
     1
 65
     0
276
    -2
286
     1
 66
     0
277
    -2
287
     1
 67
     0
278
    -2
288
     1
 68
     0
279
    -2
289
     1
 69
     0
  7
STANDARD
140
0.18
170
     5
 62
     0
 63
     7
283
     0
274
    -2
284
     1
 64
     0
275
    -2
285
     1
 65
     0
276
    -2
286
     1
 66
     0
277
    -2
287
     1
 67
     0
278
    -2
288
     1
 68
     0
279
    -2
289
     1
 69
     0
  0
VISUALSTYLE
  5
A4E7
102
{ACAD_XDICTIONARY
360
A545
102
}
102
{ACAD_REACTORS
330
A4E1
102
}
330
A4E1
100
AcDbVisualStyle
  2
2dWireframe
 70
     4
 71
     0
 72
     2
 73
     0
 90
        0
 40
-0.6
 41
-30.0
 62
     5
 63
     7
 74
     1
 91
        4
 64
     7
 65
   257
 75
     1
175
     1
 42
1.0
 92
        0
 66
   257
 43
1.0
 76
     1
 77
     6
 78
     2
 67
     7
 79
     5
170
     0
171
     0
290
     0
174
     0
 93
        1
 44
0.0
173
     0
291
     0
 45
0.0
1001
ACAD
1000
AcDbSavedByObjectVersion
1070
     0
  0
VISUALSTYLE
  5
A4E6
102
{ACAD_XDICTIONARY
360
A543
102
}
102
{ACAD_REACTORS
330
A4E1
102
}
330
A4E1
100
AcDbVisualStyle
  2
Basic
 70
     7
 71
     1
 72
     0
 73
     1
 90
        0
 40
-0.6
 41
-30.0
 62
     5
 63
     7
 74
     0
 91
        4
 64
     7
 65
   257
 75
     1
175
     1
 42
1.0
 92
        8
 66
     7
 43
1.0
 76
     1
 77
     6
 78
     2
 67
     7
 79
     5
170
     0
171
     0
290
     0
174
     0
 93
        1
 44
0.0
173
     0
291
     1
 45
0.0
1001
ACAD
1000
AcDbSavedByObjectVersion
1070
     0
  0
VISUALSTYLE
  5
A4ED
102
{ACAD_XDICTIONARY
360
A551
102
}
102
{ACAD_REACTORS
330
A4E1
102
}
330
A4E1
100
AcDbVisualStyle
  2
Brighten
 70
    12
 71
     2
 72
     2
 73
     0
 90
        0
 40
-0.6
 41
-30.0
 62
     5
 63
     7
 74
     1
 91
        4
 64
     7
 65
   257
 75
     1
175
     1
 42
1.0
 92
        8
 66
     7
 43
1.0
 76
     1
 77
     6
 78
     2
 67
     7
 79
     5
170
     0
171
     0
290
     0
174
     0
 93
        1
 44
50.0
173
     0
291
     1
 45
0.0
1001
ACAD
1000
AcDbSavedByObjectVersion
1070
     0
  0
VISUALSTYLE
  5
A4F1
102
{ACAD_XDICTIONARY
360
A559
102
}
102
{ACAD_REACTORS
330
A4E1
102
}
330
A4E1
100
AcDbVisualStyle
  2
ColorChange
 70
    16
 71
     2
 72
     2
 73
     3
 90
        0
 40
-0.6
 41
-30.0
 62
     5
 63
     8
 74
     1
 91
        4
 64
     7
 65
   257
 75
     1
175
     1
 42
1.0
 92
        8
 66
     8
 43
1.0
 76
     1
 77
     6
 78
     2
 67
     7
 79
     5
170
     0
171
     0
290
     0
174
     0
 93
        1
 44
0.0
173
     0
291
     1
 45
0.0
1001
ACAD
1000
AcDbSavedByObjectVersion
1070
     0
  0
VISUALSTYLE
  5
A4EA
102
{ACAD_XDICTIONARY
360
A54B
102
}
102
{ACAD_REACTORS
330
A4E1
102
}
330
A4E1
100
AcDbVisualStyle
  2
Conceptual
 70
     9
 71
     3
 72
     2
 73
     0
 90
        0
 40
-0.6
 41
-30.0
 62
     5
 63
     7
 74
     2
 91
        2
 64
     7
 65
   257
 75
     1
175
     1
 42
179.0
 92
        8
 66
     7
 43
1.0
 76
     1
 77
     6
 78
     2
 67
     7
 79
     3
170
     0
171
     0
290
     0
174
     0
 93
        1
 44
0.0
173
     0
291
     0
 45
0.0
1001
ACAD
1000
AcDbSavedByObjectVersion
1070
     0
  0
VISUALSTYLE
  5
A4EC
102
{ACAD_XDICTIONARY
360
A54F
102
}
102
{ACAD_REACTORS
330
A4E1
102
}
330
A4E1
100
AcDbVisualStyle
  2
Dim
 70
    11
 71
     2
 72
     2
 73
     0
 90
        0
 40
-0.6
 41
-30.0
 62
     5
 63
     7
 74
     1
 91
        4
 64
     7
 65
   257
 75
     1
175
     1
 42
1.0
 92
        8
 66
     7
 43
1.0
 76
     1
 77
     6
 78
     2
 67
     7
 79
     5
170
     0
171
     0
290
     0
174
     0
 93
        1
 44
-50.0
173
     0
291
     1
 45
0.0
1001
ACAD
1000
AcDbSavedByObjectVersion
1070
     0
  0
VISUALSTYLE
  5
A4F9
102
{ACAD_XDICTIONARY
360
A569
102
}
102
{ACAD_REACTORS
330
A4E1
102
}
330
A4E1
100
AcDbVisualStyle
  2
EdgeColorOff
 70
    22
 71
     2
 72
     2
 73
     0
 90
        0
 40
-0.6
 41
-30.0
 62
     5
 63
     7
 74
     1
 91
        4
 64
     7
 65
   257
 75
     1
175
     1
 42
1.0
 92
        8
 66
     7
 43
1.0
 76
     1
 77
     6
 78
     2
 67
     7
 79
     5
170
     0
171
     0
290
     0
174
     0
 93
        1
 44
0.0
173
     0
291
     1
 45
0.0
1001
ACAD
1000
AcDbSavedByObjectVersion
1070
     0
  0
VISUALSTYLE
  5
A4F0
102
{ACAD_XDICTIONARY
360
A557
102
}
102
{ACAD_REACTORS
330
A4E1
102
}
330
A4E1
100
AcDbVisualStyle
  2
Facepattern
 70
    15
 71
     2
 72
     2
 73
     0
 90
        0
 40
-0.6
 41
-30.0
 62
     5
 63
     7
 74
     1
 91
        4
 64
     7
 65
   257
 75
     1
175
     1
 42
1.0
 92
        8
 66
     7
 43
1.0
 76
     1
 77
     6
 78
     2
 67
     7
 79
     5
170
     0
171
     0
290
     0
174
     0
 93
        1
 44
0.0
173
     0
291
     1
 45
0.0
1001
ACAD
1000
AcDbSavedByObjectVersion
1070
     0
  0
VISUALSTYLE
  5
A4E2
102
{ACAD_XDICTIONARY
360
A53B
102
}
102
{ACAD_REACTORS
330
A4E1
102
}
330
A4E1
100
AcDbVisualStyle
  2
Flat
 70
     0
 71
     2
 72
     1
 73
     1
 90
        2
 40
-0.6
 41
30.0
 62
     5
 63
     7
 74
     0
 91
        0
 64
     7
 65
   257
 75
     1
175
     1
 42
1.0
 92
        8
 66
     7
 43
1.0
 76
     1
 77
     6
 78
     2
 67
     7
 79
     5
170
     0
171
     0
290
     0
174
     0
 93
       13
 44
0.0
173
     0
291
     1
 45
0.0
1001
ACAD
1000
AcDbSavedByObjectVersion
1070
     0
  0
VISUALSTYLE
  5
A4E3
102
{ACAD_XDICTIONARY
360
A53D
102
}
102
{ACAD_REACTORS
330
A4E1
102
}
330
A4E1
100
AcDbVisualStyle
  2
FlatWithEdges
 70
     1
 71
     2
 72
     1
 73
     1
 90
        2
 40
-0.6
 41
30.0
 62
     5
 63
     7
 74
     1
 91
        0
 64
     7
 65
   257
 75
     1
175
     1
 42
1.0
 92
        0
 66
   257
 43
1.0
 76
     1
 77
     6
 78
     2
 67
     7
 79
     5
170
     0
171
     0
290
     0
174
     0
 93
       13
 44
0.0
173
     0
291
     1
 45
0.0
1001
ACAD
1000
AcDbSavedByObjectVersion
1070
     0
  0
VISUALSTYLE
  5
A4E4
102
{ACAD_XDICTIONARY
360
A53F
102
}
102
{ACAD_REACTORS
330
A4E1
102
}
330
A4E1
100
AcDbVisualStyle
  2
Gouraud
 70
     2
 71
     2
 72
     2
 73
     1
 90
        2
 40
-0.6
 41
30.0
 62
     5
 63
     7
 74
     0
 91
        0
 64
     7
 65
   257
 75
     1
175
     1
 42
1.0
 92
        0
 66
     7
 43
1.0
 76
     1
 77
     6
 78
     2
 67
     7
 79
     5
170
     0
171
     0
290
     0
174
     0
 93
       13
 44
0.0
173
     0
291
     1
 45
0.0
1001
ACAD
1000
AcDbSavedByObjectVersion
1070
     0
  0
VISUALSTYLE
  5
A4E5
102
{ACAD_XDICTIONARY
360
A541
102
}
102
{ACAD_REACTORS
330
A4E1
102
}
330
A4E1
100
AcDbVisualStyle
  2
GouraudWithEdges
 70
     3
 71
     2
 72
     2
 73
     1
 90
        2
 40
-0.6
 41
30.0
 62
     5
 63
     7
 74
     1
 91
        0
 64
     7
 65
   257
 75
     1
175
     1
 42
1.0
 92
        0
 66
   257
 43
1.0
 76
     1
 77
     6
 78
     2
 67
     7
 79
     5
170
     0
171
     0
290
     0
174
     0
 93
       13
 44
0.0
173
     0
291
     1
 45
0.0
1001
ACAD
1000
AcDbSavedByObjectVersion
1070
     0
  0
VISUALSTYLE
  5
A4E9
102
{ACAD_XDICTIONARY
360
A549
102
}
102
{ACAD_REACTORS
330
A4E1
102
}
330
A4E1
100
AcDbVisualStyle
  2
Hidden
 70
     6
 71
     1
 72
     2
 73
     2
 90
        0
 40
-0.6
 41
-30.0
 62
     5
 63
     7
 74
     2
 91
        2
 64
     7
 65
   257
 75
     2
175
     1
 42
40.0
 92
        0
 66
   257
 43
1.0
 76
     1
 77
     6
 78
     2
 67
     7
 79
     3
170
     0
171
     0
290
     0
174
     0
 93
        1
 44
0.0
173
     0
291
     0
 45
0.0
1001
ACAD
1000
AcDbSavedByObjectVersion
1070
     0
  0
VISUALSTYLE
  5
A4F7
102
{ACAD_XDICTIONARY
360
A565
102
}
102
{ACAD_REACTORS
330
A4E1
102
}
330
A4E1
100
AcDbVisualStyle
  2
JitterOff
 70
    20
 71
     2
 72
     2
 73
     0
 90
        0
 40
-0.6
 41
-30.0
 62
     5
 63
     7
 74
     1
 91
        4
 64
     7
 65
   257
 75
     1
175
     1
 42
1.0
 92
       10
 66
     7
 43
1.0
 76
     1
 77
     6
 78
     2
 67
     7
 79
     5
170
     0
171
     0
290
     0
174
     0
 93
        1
 44
0.0
173
     0
291
     1
 45
0.0
1001
ACAD
1000
AcDbSavedByObjectVersion
1070
     0
  0
VISUALSTYLE
  5
A4EF
102
{ACAD_XDICTIONARY
360
A555
102
}
102
{ACAD_REACTORS
330
A4E1
102
}
330
A4E1
100
AcDbVisualStyle
  2
Linepattern
 70
    14
 71
     2
 72
     2
 73
     0
 90
        0
 40
-0.6
 41
-30.0
 62
     5
 63
     7
 74
     1
 91
        4
 64
     7
 65
   257
 75
     7
175
     7
 42
1.0
 92
        8
 66
     7
 43
1.0
 76
     1
 77
     6
 78
     2
 67
     7
 79
     5
170
     0
171
     0
290
     0
174
     0
 93
        1
 44
0.0
173
     0
291
     1
 45
0.0
1001
ACAD
1000
AcDbSavedByObjectVersion
1070
     0
  0
VISUALSTYLE
  5
A4F8
102
{ACAD_XDICTIONARY
360
A567
102
}
102
{ACAD_REACTORS
330
A4E1
102
}
330
A4E1
100
AcDbVisualStyle
  2
OverhangOff
 70
    21
 71
     2
 72
     2
 73
     0
 90
        0
 40
-0.6
 41
-30.0
 62
     5
 63
     7
 74
     1
 91
        4
 64
     7
 65
   257
 75
     1
175
     1
 42
1.0
 92
        9
 66
     7
 43
1.0
 76
     1
 77
     6
 78
     2
 67
     7
 79
     5
170
     0
171
     0
290
     0
174
     0
 93
        1
 44
0.0
173
     0
291
     1
 45
0.0
1001
ACAD
1000
AcDbSavedByObjectVersion
1070
     0
  0
VISUALSTYLE
  5
A4EB
102
{ACAD_XDICTIONARY
360
A54D
102
}
102
{ACAD_REACTORS
330
A4E1
102
}
330
A4E1
100
AcDbVisualStyle
  2
Realistic
 70
     8
 71
     2
 72
     3
 73
     0
 90
        2
 40
-0.6
 41
30.0
 62
     5
 63
     7
 74
     0
 91
        0
 64
     7
 65
   257
 75
     1
175
     1
 42
1.0
 92
        8
 66
   257
 43
1.0
 76
     1
 77
     6
 78
     2
 67
     7
 79
     3
170
     0
171
     0
290
     0
174
     0
 93
       13
 44
0.0
173
     0
291
     0
 45
0.0
1001
ACAD
1000
AcDbSavedByObjectVersion
1070
     0
  0
VISUALSTYLE
  5
A4F6
102
{ACAD_XDICTIONARY
360
A563
102
}
102
{ACAD_REACTORS
330
A4E1
102
}
330
A4E1
100
AcDbVisualStyle
  2
Shaded
 70
    27
 71
     2
 72
     2
 73
     1
 90
        2
 40
-0.6
 41
30.0
 62
     5
 63
     7
 74
     0
 91
        4
 64
     7
 65
   257
 75
     1
175
     1
 42
1.0
 92
        8
 66
   257
 43
1.0
 76
     1
 77
     6
 78
     2
 67
     8
 79
     3
170
     0
171
     0
290
     0
174
     0
 93
        5
 44
0.0
173
     0
291
     0
 45
0.0
1001
ACAD
1000
AcDbSavedByObjectVersion
1070
     0
  0
VISUALSTYLE
  5
A4F5
102
{ACAD_XDICTIONARY
360
A561
102
}
102
{ACAD_REACTORS
330
A4E1
102
}
330
A4E1
100
AcDbVisualStyle
  2
Shaded with edges
 70
    26
 71
     2
 72
     2
 73
     1
 90
        2
 40
-0.6
 41
30.0
 62
     5
 63
     7
 74
     1
 91
       10
 64
     7
 65
   257
 75
     2
175
     1
 42
1.0
 92
        8
 66
   257
 43
1.0
 76
     1
 77
     6
 78
     2
 67
     7
 79
     3
170
     0
171
     0
290
     0
174
     0
 93
        5
 44
0.0
173
     0
291
     0
 45
0.0
1001
ACAD
1000
AcDbSavedByObjectVersion
1070
     0
  0
VISUALSTYLE
  5
A4F2
102
{ACAD_XDICTIONARY
360
A55B
102
}
102
{ACAD_REACTORS
330
A4E1
102
}
330
A4E1
100
AcDbVisualStyle
  2
Shades of Gray
 70
    23
 71
     2
 72
     2
 73
     3
 90
        0
 40
-0.6
 41
-30.0
 62
     5
 63
     7
 74
     2
 91
        2
 64
     7
 65
     7
 75
     1
175
     1
 42
40.0
 92
        8
 66
     7
 43
1.0
 76
     1
 77
     6
 78
     2
 67
     7
 79
     3
170
     0
171
     0
290
     0
174
     0
 93
        1
 44
0.0
173
     0
291
     0
 45
0.0
1001
ACAD
1000
AcDbSavedByObjectVersion
1070
     0
  0
VISUALSTYLE
  5
A4F3
102
{ACAD_XDICTIONARY
360
A55D
102
}
102
{ACAD_REACTORS
330
A4E1
102
}
330
A4E1
100
AcDbVisualStyle
  2
Sketchy
 70
    24
 71
     1
 72
     2
 73
     2
 90
        0
 40
-0.6
 41
-30.0
 62
     5
 63
     7
 74
     2
 91
        2
 64
     7
 65
     7
 75
     1
175
     1
 42
40.0
 92
       11
 66
     7
 43
1.0
 76
     1
 77
     6
 78
     2
 67
     7
 79
     6
170
     0
171
     0
290
     0
174
     0
 93
        1
 44
0.0
173
     0
291
     0
 45
0.0
1001
ACAD
1000
AcDbSavedByObjectVersion
1070
     0
  0
VISUALSTYLE
  5
A4EE
102
{ACAD_XDICTIONARY
360
A553
102
}
102
{ACAD_REACTORS
330
A4E1
102
}
330
A4E1
100
AcDbVisualStyle
  2
Thicken
 70
    13
 71
     2
 72
     2
 73
     0
 90
        0
 40
-0.6
 41
-30.0
 62
     5
 63
     7
 74
     1
 91
        4
 64
     7
 65
   257
 75
     1
175
     1
 42
1.0
 92
       12
 66
     7
 43
1.0
 76
     1
 77
     6
 78
     2
 67
     7
 79
     5
170
     0
171
     0
290
     0
174
     0
 93
        1
 44
0.0
173
     0
291
     1
 45
0.0
1001
ACAD
1000
AcDbSavedByObjectVersion
1070
     0
  0
VISUALSTYLE
  5
A4E8
102
{ACAD_XDICTIONARY
360
A547
102
}
102
{ACAD_REACTORS
330
A4E1
102
}
330
A4E1
100
AcDbVisualStyle
  2
Wireframe
 70
     5
 71
     0
 72
     2
 73
     0
 90
        0
 40
-0.6
 41
-30.0
 62
     5
 63
     7
 74
     1
 91
        4
 64
     7
 65
   257
 75
     1
175
     1
 42
1.0
 92
        0
 66
   257
 43
1.0
 76
     1
 77
     6
 78
     2
 67
     7
 79
     3
170
     0
171
     0
290
     0
174
     0
 93
        1
 44
0.0
173
     0
291
     0
 45
0.0
1001
ACAD
1000
AcDbSavedByObjectVersion
1070
     0
  0
VISUALSTYLE
  5
A4F4
102
{ACAD_XDICTIONARY
360
A55F
102
}
102
{ACAD_REACTORS
330
A4E1
102
}
330
A4E1
100
AcDbVisualStyle
  2
X-Ray
 70
    25
 71
     2
 72
     2
 73
     1
 90
        1
 40
0.5
 41
-30.0
 62
     5
 63
     7
 74
     1
 91
        0
 64
     7
 65
   257
 75
     1
175
     1
 42
1.0
 92
        8
 66
     7
 43
1.0
 76
     1
 77
     6
 78
     2
 67
     7
 79
     3
170
     0
171
     0
290
     0
174
     0
 93
       13
 44
0.0
173
     0
291
     0
 45
0.0
1001
ACAD
1000
AcDbSavedByObjectVersion
1070
     0
  0
DICTIONARYVAR
  5
A52E
102
{ACAD_REACTORS
330
A529
102
}
330
A529
100
DictionaryVariables
280
     0
  1
1:1
  0
DICTIONARYVAR
  5
A52B
102
{ACAD_REACTORS
330
A529
102
}
330
A529
100
DictionaryVariables
280
     0
  1
STANDARD
  0
DICTIONARYVAR
  5
A52A
102
{ACAD_REACTORS
330
A529
102
}
330
A529
100
DictionaryVariables
280
     0
  1
STANDARD
  0
DICTIONARYVAR
  5
A52C
102
{ACAD_REACTORS
330
A529
102
}
330
A529
100
DictionaryVariables
280
     0
  1
Imperial24
  0
DICTIONARYVAR
  5
A52D
102
{ACAD_REACTORS
330
A529
102
}
330
A529
100
DictionaryVariables
280
     0
  1
Imperial24
  0
DICTIONARYVAR
  5
A531
102
{ACAD_REACTORS
330
A529
102
}
330
A529
100
DictionaryVariables
280
     0
  1
1
  0
DICTIONARYVAR
  5
A530
102
{ACAD_REACTORS
330
A529
102
}
330
A529
100
DictionaryVariables
280
     0
  1
0
  0
DICTIONARYVAR
  5
A52F
102
{ACAD_REACTORS
330
A529
102
}
330
A529
100
DictionaryVariables
280
     0
  1
127
  0
DICTIONARYVAR
  5
A532
102
{ACAD_REACTORS
330
A529
102
}
330
A529
100
DictionaryVariables
280
     0
  1
2
  0
DICTIONARY
  5
A56F
330
A514
100
AcDbDictionary
280
     1
281
     1
  3
ACAD_XREC_ROUNDTRIP
360
A570
  0
DICTIONARY
  5
A571
330
A515
100
AcDbDictionary
280
     1
281
     1
  3
ACAD_XREC_ROUNDTRIP
360
A572
  0
DICTIONARY
  5
A573
330
A516
100
AcDbDictionary
280
     1
281
     1
  3
ACAD_XREC_ROUNDTRIP
360
A574
  0
DICTIONARY
  5
A4D2
330
A4D1
100
AcDbDictionary
280
     1
281
     1
  3
ACAD_XREC_ROUNDTRIP
360
A539
  3
BUMPTILE
360
A4D4
  3
DIFFUSETILE
360
A4D3
  3
OPACITYTILE
360
A4D7
  3
REFLECTIONTILE
360
A4D6
  3
REFRACTIONTILE
360
A4D8
  3
SPECULARTILE
360
A4D5
  0
DICTIONARY
  5
A4CA
330
A4C9
100
AcDbDictionary
280
     1
281
     1
  3
ACAD_XREC_ROUNDTRIP
360
A538
  3
BUMPTILE
360
A4CC
  3
DIFFUSETILE
360
A4CB
  3
OPACITYTILE
360
A4CF
  3
REFLECTIONTILE
360
A4CE
  3
REFRACTIONTILE
360
A4D0
  3
SPECULARTILE
360
A4CD
  0
DICTIONARY
  5
A4DA
330
A4D9
100
AcDbDictionary
280
     1
281
     1
  3
ACAD_XREC_ROUNDTRIP
360
A53A
  3
BUMPTILE
360
A4DC
  3
DIFFUSETILE
360
A4DB
  3
OPACITYTILE
360
A4DF
  3
REFLECTIONTILE
360
A4DE
  3
REFRACTIONTILE
360
A4E0
  3
SPECULARTILE
360
A4DD
  0
DICTIONARY
  5
A56D
330
A512
100
AcDbDictionary
280
     1
281
     1
  3
ACAD_XREC_ROUNDTRIP
360
A56E
  0
DICTIONARY
  5
A534
330
A4FC
100
AcDbDictionary
280
     1
281
     1
  3
ACAD_ROUNDTRIP_2008_TABLESTYLE_CELLSTYLEMAP
360
A535
  3
ACAD_XREC_ROUNDTRIP
360
A56B
  0
DICTIONARY
  5
A545
330
A4E7
100
AcDbDictionary
280
     1
281
     1
  3
ACAD_XREC_ROUNDTRIP
360
A546
  0
DICTIONARY
  5
A543
330
A4E6
100
AcDbDictionary
280
     1
281
     1
  3
ACAD_XREC_ROUNDTRIP
360
A544
  0
DICTIONARY
  5
A551
330
A4ED
100
AcDbDictionary
280
     1
281
     1
  3
ACAD_XREC_ROUNDTRIP
360
A552
  0
DICTIONARY
  5
A559
330
A4F1
100
AcDbDictionary
280
     1
281
     1
  3
ACAD_XREC_ROUNDTRIP
360
A55A
  0
DICTIONARY
  5
A54B
330
A4EA
100
AcDbDictionary
280
     1
281
     1
  3
ACAD_XREC_ROUNDTRIP
360
A54C
  0
DICTIONARY
  5
A54F
330
A4EC
100
AcDbDictionary
280
     1
281
     1
  3
ACAD_XREC_ROUNDTRIP
360
A550
  0
DICTIONARY
  5
A569
330
A4F9
100
AcDbDictionary
280
     1
281
     1
  3
ACAD_XREC_ROUNDTRIP
360
A56A
  0
DICTIONARY
  5
A557
330
A4F0
100
AcDbDictionary
280
     1
281
     1
  3
ACAD_XREC_ROUNDTRIP
360
A558
  0
DICTIONARY
  5
A53B
330
A4E2
100
AcDbDictionary
280
     1
281
     1
  3
ACAD_XREC_ROUNDTRIP
360
A53C
  0
DICTIONARY
  5
A53D
330
A4E3
100
AcDbDictionary
280
     1
281
     1
  3
ACAD_XREC_ROUNDTRIP
360
A53E
  0
DICTIONARY
  5
A53F
330
A4E4
100
AcDbDictionary
280
     1
281
     1
  3
ACAD_XREC_ROUNDTRIP
360
A540
  0
DICTIONARY
  5
A541
330
A4E5
100
AcDbDictionary
280
     1
281
     1
  3
ACAD_XREC_ROUNDTRIP
360
A542
  0
DICTIONARY
  5
A549
330
A4E9
100
AcDbDictionary
280
     1
281
     1
  3
ACAD_XREC_ROUNDTRIP
360
A54A
  0
DICTIONARY
  5
A565
330
A4F7
100
AcDbDictionary
280
     1
281
     1
  3
ACAD_XREC_ROUNDTRIP
360
A566
  0
DICTIONARY
  5
A555
330
A4EF
100
AcDbDictionary
280
     1
281
     1
  3
ACAD_XREC_ROUNDTRIP
360
A556
  0
DICTIONARY
  5
A567
330
A4F8
100
AcDbDictionary
280
     1
281
     1
  3
ACAD_XREC_ROUNDTRIP
360
A568
  0
DICTIONARY
  5
A54D
330
A4EB
100
AcDbDictionary
280
     1
281
     1
  3
ACAD_XREC_ROUNDTRIP
360
A54E
  0
DICTIONARY
  5
A563
330
A4F6
100
AcDbDictionary
280
     1
281
     1
  3
ACAD_XREC_ROUNDTRIP
360
A564
  0
DICTIONARY
  5
A561
330
A4F5
100
AcDbDictionary
280
     1
281
     1
  3
ACAD_XREC_ROUNDTRIP
360
A562
  0
DICTIONARY
  5
A55B
330
A4F2
100
AcDbDictionary
280
     1
281
     1
  3
ACAD_XREC_ROUNDTRIP
360
A55C
  0
DICTIONARY
  5
A55D
330
A4F3
100
AcDbDictionary
280
     1
281
     1
  3
ACAD_XREC_ROUNDTRIP
360
A55E
  0
DICTIONARY
  5
A553
330
A4EE
100
AcDbDictionary
280
     1
281
     1
  3
ACAD_XREC_ROUNDTRIP
360
A554
  0
DICTIONARY
  5
A547
330
A4E8
100
AcDbDictionary
280
     1
281
     1
  3
ACAD_XREC_ROUNDTRIP
360
A548
  0
DICTIONARY
  5
A55F
330
A4F4
100
AcDbDictionary
280
     1
281
     1
  3
ACAD_XREC_ROUNDTRIP
360
A560
  0
XRECORD
  5
A570
102
{ACAD_REACTORS
330
A56F
102
}
330
A56F
100
AcDbXrecord
280
     1
102
DISPLAYNAME
  1
Imperial24
102
FLAGS
 90
        0
  0
XRECORD
  5
A572
102
{ACAD_REACTORS
330
A571
102
}
330
A571
100
AcDbXrecord
280
     1
102
SHADEPLOT
 70
     0
102
SHADEPLOTRESLEVEL
 70
     2
102
SHADEPLOTCUSTOMDPI
 70
   300
  0
XRECORD
  5
A574
102
{ACAD_REACTORS
330
A573
102
}
330
A573
100
AcDbXrecord
280
     1
102
SHADEPLOT
 70
     0
102
SHADEPLOTRESLEVEL
 70
     2
102
SHADEPLOTCUSTOMDPI
 70
   300
  0
XRECORD
  5
A539
102
{ACAD_REACTORS
330
A4D2
102
}
330
A4D2
100
AcDbXrecord
280
     1
102
MATERIAL
148
0.0
149
0.0
149
0.0
 93
        0
 94
      127
282
     0
 72
     0
 77
     0
171
     0
175
     0
179
     0
273
     0
  0
XRECORD
  5
A4D4
102
{ACAD_REACTORS
330
A4D2
102
}
330
A4D2
100
AcDbXrecord
280
     1
270
     1
271
     1
  0
XRECORD
  5
A4D3
102
{ACAD_REACTORS
330
A4D2
102
}
330
A4D2
100
AcDbXrecord
280
     1
270
     1
271
     1
  0
XRECORD
  5
A4D7
102
{ACAD_REACTORS
330
A4D2
102
}
330
A4D2
100
AcDbXrecord
280
     1
270
     1
271
     1
  0
XRECORD
  5
A4D6
102
{ACAD_REACTORS
330
A4D2
102
}
330
A4D2
100
AcDbXrecord
280
     1
270
     1
271
     1
  0
XRECORD
  5
A4D8
102
{ACAD_REACTORS
330
A4D2
102
}
330
A4D2
100
AcDbXrecord
280
     1
270
     1
271
     1
  0
XRECORD
  5
A4D5
102
{ACAD_REACTORS
330
A4D2
102
}
330
A4D2
100
AcDbXrecord
280
     1
270
     1
271
     1
  0
XRECORD
  5
A538
102
{ACAD_REACTORS
330
A4CA
102
}
330
A4CA
100
AcDbXrecord
280
     1
102
MATERIAL
148
0.0
149
0.0
149
0.0
 93
        0
 94
      127
282
     0
 72
     0
 77
     0
171
     0
175
     0
179
     0
273
     0
  0
XRECORD
  5
A4CC
102
{ACAD_REACTORS
330
A4CA
102
}
330
A4CA
100
AcDbXrecord
280
     1
270
     1
271
     1
  0
XRECORD
  5
A4CB
102
{ACAD_REACTORS
330
A4CA
102
}
330
A4CA
100
AcDbXrecord
280
     1
270
     1
271
     1
  0
XRECORD
  5
A4CF
102
{ACAD_REACTORS
330
A4CA
102
}
330
A4CA
100
AcDbXrecord
280
     1
270
     1
271
     1
  0
XRECORD
  5
A4CE
102
{ACAD_REACTORS
330
A4CA
102
}
330
A4CA
100
AcDbXrecord
280
     1
270
     1
271
     1
  0
XRECORD
  5
A4D0
102
{ACAD_REACTORS
330
A4CA
102
}
330
A4CA
100
AcDbXrecord
280
     1
270
     1
271
     1
  0
XRECORD
  5
A4CD
102
{ACAD_REACTORS
330
A4CA
102
}
330
A4CA
100
AcDbXrecord
280
     1
270
     1
271
     1
  0
XRECORD
  5
A53A
102
{ACAD_REACTORS
330
A4DA
102
}
330
A4DA
100
AcDbXrecord
280
     1
102
MATERIAL
148
0.0
149
0.0
149
0.0
 93
        0
 94
      127
282
     0
 72
     0
 77
     0
171
     0
175
     0
179
     0
273
     0
  0
XRECORD
  5
A4DC
102
{ACAD_REACTORS
330
A4DA
102
}
330
A4DA
100
AcDbXrecord
280
     1
270
     1
271
     1
  0
XRECORD
  5
A4DB
102
{ACAD_REACTORS
330
A4DA
102
}
330
A4DA
100
AcDbXrecord
280
     1
270
     1
271
     1
  0
XRECORD
  5
A4DF
102
{ACAD_REACTORS
330
A4DA
102
}
330
A4DA
100
AcDbXrecord
280
     1
270
     1
271
     1
  0
XRECORD
  5
A4DE
102
{ACAD_REACTORS
330
A4DA
102
}
330
A4DA
100
AcDbXrecord
280
     1
270
     1
271
     1
  0
XRECORD
  5
A4E0
102
{ACAD_REACTORS
330
A4DA
102
}
330
A4DA
100
AcDbXrecord
280
     1
270
     1
271
     1
  0
XRECORD
  5
A4DD
102
{ACAD_REACTORS
330
A4DA
102
}
330
A4DA
100
AcDbXrecord
280
     1
270
     1
271
     1
  0
XRECORD
  5
A56E
102
{ACAD_REACTORS
330
A56D
102
}
330
A56D
100
AcDbXrecord
280
     1
102
DISPLAYNAME
  1
Imperial24
102
FLAGS
 90
        0
  0
CELLSTYLEMAP
  5
A535
102
{ACAD_REACTORS
330
A534
102
}
330
A534
100
AcDbCellStyleMap
 90
        3
300
CELLSTYLE
  1
TABLEFORMAT_BEGIN
 90
        5
170
     1
 91
        0
 92
    32768
 62
   257
 93
        1
300
CONTENTFORMAT
  1
CONTENTFORMAT_BEGIN
 90
        0
 91
        0
 92
      512
 93
        0
300

 40
0.0
140
1.0
 94
        5
 62
     0
340
A2EB
144
0.25
309
CONTENTFORMAT_END
171
     0
 94
        0
309
TABLEFORMAT_END
  1
CELLSTYLE_BEGIN
 90
        1
 91
        1
300
_TITLE
309
CELLSTYLE_END
300
CELLSTYLE
  1
TABLEFORMAT_BEGIN
 90
        5
170
     1
 91
        0
 92
        0
 62
   257
 93
        1
300
CONTENTFORMAT
  1
CONTENTFORMAT_BEGIN
 90
        0
 91
        0
 92
      512
 93
        0
300

 40
0.0
140
1.0
 94
        5
 62
     0
340
A2EB
144
0.18
309
CONTENTFORMAT_END
171
     0
 94
        0
309
TABLEFORMAT_END
  1
CELLSTYLE_BEGIN
 90
        2
 91
        1
300
_HEADER
309
CELLSTYLE_END
300
CELLSTYLE
  1
TABLEFORMAT_BEGIN
 90
        5
170
     1
 91
        0
 92
        0
 62
   257
 93
        1
300
CONTENTFORMAT
  1
CONTENTFORMAT_BEGIN
 90
        0
 91
        0
 92
      512
 93
        0
300

 40
0.0
140
1.0
 94
        2
 62
     0
340
A2EB
144
0.18
309
CONTENTFORMAT_END
171
     0
 94
        0
309
TABLEFORMAT_END
  1
CELLSTYLE_BEGIN
 90
        3
 91
        2
300
_DATA
309
CELLSTYLE_END
  0
XRECORD
  5
A56B
102
{ACAD_REACTORS
330
A534
102
}
330
A534
100
AcDbXrecord
280
     1
102
ACAD_ROUNDTRIP_PRE2007_TABLESTYLE
 90
      512
 91
        0
  1

 92
      512
 93
        0
  2

 94
      512
 95
        0
  3

  0
XRECORD
  5
A546
102
{ACAD_REACTORS
330
A545
102
}
330
A545
100
AcDbXrecord
280
     1
102
RTVSPost2010Prop28
280
     1
102
RTVSPost2010PropOp28
 70
     1
102
RTVSPost2010Prop29
280
     1
102
RTVSPost2010PropOp29
 70
     1
102
RTVSPost2010Prop30
280
     0
102
RTVSPost2010PropOp30
 70
     1
102
RTVSPost2010Prop31
280
     0
102
RTVSPost2010PropOp31
 70
     1
102
RTVSPost2010Prop32
280
     0
102
RTVSPost2010PropOp32
 70
     1
102
RTVSPost2010Prop33
280
     0
102
RTVSPost2010PropOp33
 70
     1
102
RTVSPost2010Prop34
280
     0
102
RTVSPost2010PropOp34
 70
     1
102
RTVSPost2010Prop35
280
     0
102
RTVSPost2010PropOp35
 70
     1
102
RTVSPost2010Prop36
280
     0
102
RTVSPost2010PropOp36
 70
     1
102
RTVSPost2010Prop37
 90
       50
102
RTVSPost2010PropOp37
 70
     1
102
RTVSPost2010Prop38
140
0.0
102
RTVSPost2010PropOp38
 70
     1
102
RTVSPost2010Prop39
140
1.0
102
RTVSPost2010PropOp39
 70
     1
102
RTVSPost2010Prop40
 90
        0
102
RTVSPost2010PropOp40
 70
     1
102
RTVSPost2010Prop41ColorIndex
 90
       18
102
RTVSPost2010Prop41ColorRGB
 90
        0
102
RTVSPost2010PropOp41
 70
     1
102
RTVSPost2010Prop42
 90
       50
102
RTVSPost2010PropOp42
 70
     1
102
RTVSPost2010Prop43
 90
        3
102
RTVSPost2010PropOp43
 70
     1
102
RTVSPost2010Prop44ColorIndex
 90
        5
102
RTVSPost2010Prop44ColorRGB
 90
      255
102
RTVSPost2010PropOp44
 70
     1
102
RTVSPost2010Prop45
280
     0
102
RTVSPost2010PropOp45
 70
     1
102
RTVSPost2010Prop46
 90
       50
102
RTVSPost2010PropOp46
 70
     1
102
RTVSPost2010Prop47
 90
       50
102
RTVSPost2010PropOp47
 70
     1
102
RTVSPost2010Prop48
 90
       50
102
RTVSPost2010PropOp48
 70
     1
102
RTVSPost2010Prop49
280
     0
102
RTVSPost2010PropOp49
 70
     1
102
RTVSPost2010Prop50
 90
       50
102
RTVSPost2010PropOp50
 70
     1
102
RTVSPost2010Prop51ColorIndex
 90
      256
102
RTVSPost2010Prop51ColorRGB
 90
-16777216
102
RTVSPost2010PropOp51
 70
     0
102
RTVSPost2010Prop52
140
1.0
102
RTVSPost2010PropOp52
 70
     0
102
RTVSPost2010Prop53
 90
        2
102
RTVSPost2010PropOp53
 70
     1
102
RTVSPost2010Prop54
  1
strokes_ogs.tif
102
RTVSPost2010PropOp54
 70
     1
102
RTVSPost2010Prop55
280
     0
102
RTVSPost2010PropOp55
 70
     1
102
RTVSPost2010Prop56
140
1.0
102
RTVSPost2010PropOp56
 70
     1
102
RTVSPost2010Prop57
140
1.0
102
RTVSPost2010PropOp57
 70
     1
102
RTVSPropertyOp0
 70
     1
102
RTVSPropertyOp1
 70
     1
102
RTVSPropertyOp2
 70
     1
102
RTVSPropertyOp3
 70
     1
102
RTVSPropertyOp4
 70
     1
102
RTVSPropertyOp5
 70
     1
102
RTVSPropertyOp6
 70
     1
102
RTVSPropertyOp7
 70
     1
102
RTVSPropertyOp8
 70
     1
102
RTVSPropertyOp9
 70
     1
102
RTVSPropertyOp10
 70
     1
102
RTVSPropertyOp11
 70
     1
102
RTVSPropertyOp12
 70
     1
102
RTVSPropertyOp13
 70
     1
102
RTVSPropertyOp14
 70
     1
102
RTVSPropertyOp15
 70
     1
102
RTVSPropertyOp16
 70
     1
102
RTVSPropertyOp17
 70
     1
102
RTVSPropertyOp18
 70
     1
102
RTVSPropertyOp19
 70
     1
102
RTVSPropertyOp20
 70
     1
102
RTVSPropertyOp21
 70
     1
102
RTVSPropertyOp22
 70
     1
102
RTVSPropertyOp23
 70
     1
102
RTVSPropertyOp24
 70
     1
102
RTVSPropertyOp25
 70
     1
102
RTVSPropertyOp26
 70
     1
102
RTVSPropertyOp27
 70
     1
102
RTVSPropertyOp28
 70
     1
102
RTVSPropertyOp29
 70
     1
102
RTVSPropertyOp30
 70
     1
102
RTVSPropertyOp31
 70
     1
102
RTVSPropertyOp32
 70
     1
102
RTVSPropertyOp33
 70
     1
102
RTVSPropertyOp34
 70
     1
102
RTVSPropertyOp35
 70
     1
102
RTVSPropertyOp36
 70
     1
102
RTVSPropertyOp37
 70
     1
102
RTVSPropertyOp38
 70
     1
102
RTVSPropertyOp39
 70
     1
102
RTVSPropertyOp40
 70
     1
102
RTVSPropertyOp41
 70
     1
102
RTVSPropertyOp42
 70
     1
102
RTVSPropertyOp43
 70
     1
102
RTVSPropertyOp44
 70
     1
102
RTVSPropertyOp45
 70
     1
102
RTVSPropertyOp46
 70
     1
102
RTVSPropertyOp47
 70
     1
102
RTVSPropertyOp48
 70
     1
102
RTVSPropertyOp49
 70
     1
102
RTVSPropertyOp50
 70
     1
102
RTVSPropertyOp51
 70
     0
102
RTVSPropertyOp52
 70
     0
102
RTVSPropertyOp53
 70
     1
102
RTVSPropertyOp54
 70
     1
102
RTVSPropertyOp55
 70
     1
102
RTVSPropertyOp56
 70
     1
102
RTVSPropertyOp57
 70
     1
102
RTVSPropertyOp58
 70
     1
102
RTVSPropertyOp59
 70
     1
102
RTVSPropertyOp60
 70
     1
102
RTVSPropertyOp61
 70
     1
102
RTVSPropertyOp62
 70
     1
  0
XRECORD
  5
A544
102
{ACAD_REACTORS
330
A543
102
}
330
A543
100
AcDbXrecord
280
     1
102
RTVSPost2010Prop28
280
     0
102
RTVSPost2010PropOp28
 70
     1
102
RTVSPost2010Prop29
280
     1
102
RTVSPost2010PropOp29
 70
     1
102
RTVSPost2010Prop30
280
     1
102
RTVSPost2010PropOp30
 70
     1
102
RTVSPost2010Prop31
280
     0
102
RTVSPost2010PropOp31
 70
     1
102
RTVSPost2010Prop32
280
     0
102
RTVSPost2010PropOp32
 70
     1
102
RTVSPost2010Prop33
280
     0
102
RTVSPost2010PropOp33
 70
     1
102
RTVSPost2010Prop34
280
     0
102
RTVSPost2010PropOp34
 70
     1
102
RTVSPost2010Prop35
280
     0
102
RTVSPost2010PropOp35
 70
     1
102
RTVSPost2010Prop36
280
     0
102
RTVSPost2010PropOp36
 70
     1
102
RTVSPost2010Prop37
 90
       50
102
RTVSPost2010PropOp37
 70
     1
102
RTVSPost2010Prop38
140
0.0
102
RTVSPost2010PropOp38
 70
     1
102
RTVSPost2010Prop39
140
1.0
102
RTVSPost2010PropOp39
 70
     1
102
RTVSPost2010Prop40
 90
        0
102
RTVSPost2010PropOp40
 70
     1
102
RTVSPost2010Prop41ColorIndex
 90
       18
102
RTVSPost2010Prop41ColorRGB
 90
        0
102
RTVSPost2010PropOp41
 70
     1
102
RTVSPost2010Prop42
 90
       50
102
RTVSPost2010PropOp42
 70
     1
102
RTVSPost2010Prop43
 90
        3
102
RTVSPost2010PropOp43
 70
     1
102
RTVSPost2010Prop44ColorIndex
 90
        5
102
RTVSPost2010Prop44ColorRGB
 90
      255
102
RTVSPost2010PropOp44
 70
     1
102
RTVSPost2010Prop45
280
     0
102
RTVSPost2010PropOp45
 70
     1
102
RTVSPost2010Prop46
 90
       50
102
RTVSPost2010PropOp46
 70
     1
102
RTVSPost2010Prop47
 90
       50
102
RTVSPost2010PropOp47
 70
     1
102
RTVSPost2010Prop48
 90
       50
102
RTVSPost2010PropOp48
 70
     1
102
RTVSPost2010Prop49
280
     0
102
RTVSPost2010PropOp49
 70
     1
102
RTVSPost2010Prop50
 90
       50
102
RTVSPost2010PropOp50
 70
     1
102
RTVSPost2010Prop51ColorIndex
 90
      256
102
RTVSPost2010Prop51ColorRGB
 90
-16777216
102
RTVSPost2010PropOp51
 70
     0
102
RTVSPost2010Prop52
140
1.0
102
RTVSPost2010PropOp52
 70
     0
102
RTVSPost2010Prop53
 90
        2
102
RTVSPost2010PropOp53
 70
     1
102
RTVSPost2010Prop54
  1
strokes_ogs.tif
102
RTVSPost2010PropOp54
 70
     1
102
RTVSPost2010Prop55
280
     0
102
RTVSPost2010PropOp55
 70
     1
102
RTVSPost2010Prop56
140
1.0
102
RTVSPost2010PropOp56
 70
     1
102
RTVSPost2010Prop57
140
1.0
102
RTVSPost2010PropOp57
 70
     1
102
RTVSPropertyOp0
 70
     1
102
RTVSPropertyOp1
 70
     1
102
RTVSPropertyOp2
 70
     1
102
RTVSPropertyOp3
 70
     1
102
RTVSPropertyOp4
 70
     1
102
RTVSPropertyOp5
 70
     1
102
RTVSPropertyOp6
 70
     1
102
RTVSPropertyOp7
 70
     1
102
RTVSPropertyOp8
 70
     1
102
RTVSPropertyOp9
 70
     1
102
RTVSPropertyOp10
 70
     1
102
RTVSPropertyOp11
 70
     1
102
RTVSPropertyOp12
 70
     1
102
RTVSPropertyOp13
 70
     1
102
RTVSPropertyOp14
 70
     1
102
RTVSPropertyOp15
 70
     1
102
RTVSPropertyOp16
 70
     1
102
RTVSPropertyOp17
 70
     1
102
RTVSPropertyOp18
 70
     1
102
RTVSPropertyOp19
 70
     1
102
RTVSPropertyOp20
 70
     1
102
RTVSPropertyOp21
 70
     1
102
RTVSPropertyOp22
 70
     1
102
RTVSPropertyOp23
 70
     1
102
RTVSPropertyOp24
 70
     1
102
RTVSPropertyOp25
 70
     1
102
RTVSPropertyOp26
 70
     1
102
RTVSPropertyOp27
 70
     1
102
RTVSPropertyOp28
 70
     1
102
RTVSPropertyOp29
 70
     1
102
RTVSPropertyOp30
 70
     1
102
RTVSPropertyOp31
 70
     1
102
RTVSPropertyOp32
 70
     1
102
RTVSPropertyOp33
 70
     1
102
RTVSPropertyOp34
 70
     1
102
RTVSPropertyOp35
 70
     1
102
RTVSPropertyOp36
 70
     1
102
RTVSPropertyOp37
 70
     1
102
RTVSPropertyOp38
 70
     1
102
RTVSPropertyOp39
 70
     1
102
RTVSPropertyOp40
 70
     1
102
RTVSPropertyOp41
 70
     1
102
RTVSPropertyOp42
 70
     1
102
RTVSPropertyOp43
 70
     1
102
RTVSPropertyOp44
 70
     1
102
RTVSPropertyOp45
 70
     1
102
RTVSPropertyOp46
 70
     1
102
RTVSPropertyOp47
 70
     1
102
RTVSPropertyOp48
 70
     1
102
RTVSPropertyOp49
 70
     1
102
RTVSPropertyOp50
 70
     1
102
RTVSPropertyOp51
 70
     0
102
RTVSPropertyOp52
 70
     0
102
RTVSPropertyOp53
 70
     1
102
RTVSPropertyOp54
 70
     1
102
RTVSPropertyOp55
 70
     1
102
RTVSPropertyOp56
 70
     1
102
RTVSPropertyOp57
 70
     1
102
RTVSPropertyOp58
 70
     1
102
RTVSPropertyOp59
 70
     1
102
RTVSPropertyOp60
 70
     1
102
RTVSPropertyOp61
 70
     1
102
RTVSPropertyOp62
 70
     1
  0
XRECORD
  5
A552
102
{ACAD_REACTORS
330
A551
102
}
330
A551
100
AcDbXrecord
280
     1
102
RTVSPost2010Prop28
280
     0
102
RTVSPost2010PropOp28
 70
     1
102
RTVSPost2010Prop29
280
     1
102
RTVSPost2010PropOp29
 70
     1
102
RTVSPost2010Prop30
280
     1
102
RTVSPost2010PropOp30
 70
     1
102
RTVSPost2010Prop31
280
     0
102
RTVSPost2010PropOp31
 70
     1
102
RTVSPost2010Prop32
280
     0
102
RTVSPost2010PropOp32
 70
     1
102
RTVSPost2010Prop33
280
     0
102
RTVSPost2010PropOp33
 70
     1
102
RTVSPost2010Prop34
280
     0
102
RTVSPost2010PropOp34
 70
     1
102
RTVSPost2010Prop35
280
     0
102
RTVSPost2010PropOp35
 70
     1
102
RTVSPost2010Prop36
280
     0
102
RTVSPost2010PropOp36
 70
     1
102
RTVSPost2010Prop37
 90
       50
102
RTVSPost2010PropOp37
 70
     1
102
RTVSPost2010Prop38
140
0.0
102
RTVSPost2010PropOp38
 70
     1
102
RTVSPost2010Prop39
140
1.0
102
RTVSPost2010PropOp39
 70
     1
102
RTVSPost2010Prop40
 90
        0
102
RTVSPost2010PropOp40
 70
     1
102
RTVSPost2010Prop41ColorIndex
 90
       18
102
RTVSPost2010Prop41ColorRGB
 90
        0
102
RTVSPost2010PropOp41
 70
     1
102
RTVSPost2010Prop42
 90
       50
102
RTVSPost2010PropOp42
 70
     1
102
RTVSPost2010Prop43
 90
        3
102
RTVSPost2010PropOp43
 70
     1
102
RTVSPost2010Prop44ColorIndex
 90
        5
102
RTVSPost2010Prop44ColorRGB
 90
      255
102
RTVSPost2010PropOp44
 70
     1
102
RTVSPost2010Prop45
280
     0
102
RTVSPost2010PropOp45
 70
     1
102
RTVSPost2010Prop46
 90
       50
102
RTVSPost2010PropOp46
 70
     1
102
RTVSPost2010Prop47
 90
       50
102
RTVSPost2010PropOp47
 70
     1
102
RTVSPost2010Prop48
 90
       50
102
RTVSPost2010PropOp48
 70
     1
102
RTVSPost2010Prop49
280
     0
102
RTVSPost2010PropOp49
 70
     1
102
RTVSPost2010Prop50
 90
       50
102
RTVSPost2010PropOp50
 70
     1
102
RTVSPost2010Prop51ColorIndex
 90
      256
102
RTVSPost2010Prop51ColorRGB
 90
-16777216
102
RTVSPost2010PropOp51
 70
     0
102
RTVSPost2010Prop52
140
1.0
102
RTVSPost2010PropOp52
 70
     0
102
RTVSPost2010Prop53
 90
        2
102
RTVSPost2010PropOp53
 70
     1
102
RTVSPost2010Prop54
  1
strokes_ogs.tif
102
RTVSPost2010PropOp54
 70
     1
102
RTVSPost2010Prop55
280
     0
102
RTVSPost2010PropOp55
 70
     1
102
RTVSPost2010Prop56
140
1.0
102
RTVSPost2010PropOp56
 70
     1
102
RTVSPost2010Prop57
140
1.0
102
RTVSPost2010PropOp57
 70
     1
102
RTVSPropertyOp0
 70
     1
102
RTVSPropertyOp1
 70
     1
102
RTVSPropertyOp2
 70
     1
102
RTVSPropertyOp3
 70
     1
102
RTVSPropertyOp4
 70
     1
102
RTVSPropertyOp5
 70
     1
102
RTVSPropertyOp6
 70
     1
102
RTVSPropertyOp7
 70
     1
102
RTVSPropertyOp8
 70
     1
102
RTVSPropertyOp9
 70
     1
102
RTVSPropertyOp10
 70
     1
102
RTVSPropertyOp11
 70
     1
102
RTVSPropertyOp12
 70
     1
102
RTVSPropertyOp13
 70
     1
102
RTVSPropertyOp14
 70
     1
102
RTVSPropertyOp15
 70
     1
102
RTVSPropertyOp16
 70
     1
102
RTVSPropertyOp17
 70
     1
102
RTVSPropertyOp18
 70
     1
102
RTVSPropertyOp19
 70
     1
102
RTVSPropertyOp20
 70
     1
102
RTVSPropertyOp21
 70
     1
102
RTVSPropertyOp22
 70
     1
102
RTVSPropertyOp23
 70
     1
102
RTVSPropertyOp24
 70
     1
102
RTVSPropertyOp25
 70
     1
102
RTVSPropertyOp26
 70
     1
102
RTVSPropertyOp27
 70
     1
102
RTVSPropertyOp28
 70
     1
102
RTVSPropertyOp29
 70
     1
102
RTVSPropertyOp30
 70
     1
102
RTVSPropertyOp31
 70
     1
102
RTVSPropertyOp32
 70
     1
102
RTVSPropertyOp33
 70
     1
102
RTVSPropertyOp34
 70
     1
102
RTVSPropertyOp35
 70
     1
102
RTVSPropertyOp36
 70
     1
102
RTVSPropertyOp37
 70
     1
102
RTVSPropertyOp38
 70
     1
102
RTVSPropertyOp39
 70
     1
102
RTVSPropertyOp40
 70
     1
102
RTVSPropertyOp41
 70
     1
102
RTVSPropertyOp42
 70
     1
102
RTVSPropertyOp43
 70
     1
102
RTVSPropertyOp44
 70
     1
102
RTVSPropertyOp45
 70
     1
102
RTVSPropertyOp46
 70
     1
102
RTVSPropertyOp47
 70
     1
102
RTVSPropertyOp48
 70
     1
102
RTVSPropertyOp49
 70
     1
102
RTVSPropertyOp50
 70
     1
102
RTVSPropertyOp51
 70
     0
102
RTVSPropertyOp52
 70
     0
102
RTVSPropertyOp53
 70
     1
102
RTVSPropertyOp54
 70
     1
102
RTVSPropertyOp55
 70
     1
102
RTVSPropertyOp56
 70
     1
102
RTVSPropertyOp57
 70
     1
102
RTVSPropertyOp58
 70
     1
102
RTVSPropertyOp59
 70
     1
102
RTVSPropertyOp60
 70
     1
102
RTVSPropertyOp61
 70
     1
102
RTVSPropertyOp62
 70
     1
  0
XRECORD
  5
A55A
102
{ACAD_REACTORS
330
A559
102
}
330
A559
100
AcDbXrecord
280
     1
102
RTVSPost2010Prop28
280
     0
102
RTVSPost2010PropOp28
 70
     1
102
RTVSPost2010Prop29
280
     1
102
RTVSPost2010PropOp29
 70
     1
102
RTVSPost2010Prop30
280
     1
102
RTVSPost2010PropOp30
 70
     1
102
RTVSPost2010Prop31
280
     0
102
RTVSPost2010PropOp31
 70
     1
102
RTVSPost2010Prop32
280
     0
102
RTVSPost2010PropOp32
 70
     1
102
RTVSPost2010Prop33
280
     0
102
RTVSPost2010PropOp33
 70
     1
102
RTVSPost2010Prop34
280
     0
102
RTVSPost2010PropOp34
 70
     1
102
RTVSPost2010Prop35
280
     0
102
RTVSPost2010PropOp35
 70
     1
102
RTVSPost2010Prop36
280
     0
102
RTVSPost2010PropOp36
 70
     1
102
RTVSPost2010Prop37
 90
       50
102
RTVSPost2010PropOp37
 70
     1
102
RTVSPost2010Prop38
140
0.0
102
RTVSPost2010PropOp38
 70
     1
102
RTVSPost2010Prop39
140
1.0
102
RTVSPost2010PropOp39
 70
     1
102
RTVSPost2010Prop40
 90
        0
102
RTVSPost2010PropOp40
 70
     1
102
RTVSPost2010Prop41ColorIndex
 90
       18
102
RTVSPost2010Prop41ColorRGB
 90
        0
102
RTVSPost2010PropOp41
 70
     1
102
RTVSPost2010Prop42
 90
       50
102
RTVSPost2010PropOp42
 70
     1
102
RTVSPost2010Prop43
 90
        3
102
RTVSPost2010PropOp43
 70
     1
102
RTVSPost2010Prop44ColorIndex
 90
        5
102
RTVSPost2010Prop44ColorRGB
 90
      255
102
RTVSPost2010PropOp44
 70
     1
102
RTVSPost2010Prop45
280
     0
102
RTVSPost2010PropOp45
 70
     1
102
RTVSPost2010Prop46
 90
       50
102
RTVSPost2010PropOp46
 70
     1
102
RTVSPost2010Prop47
 90
       50
102
RTVSPost2010PropOp47
 70
     1
102
RTVSPost2010Prop48
 90
       50
102
RTVSPost2010PropOp48
 70
     1
102
RTVSPost2010Prop49
280
     0
102
RTVSPost2010PropOp49
 70
     1
102
RTVSPost2010Prop50
 90
       50
102
RTVSPost2010PropOp50
 70
     1
102
RTVSPost2010Prop51ColorIndex
 90
      256
102
RTVSPost2010Prop51ColorRGB
 90
-16777216
102
RTVSPost2010PropOp51
 70
     0
102
RTVSPost2010Prop52
140
1.0
102
RTVSPost2010PropOp52
 70
     0
102
RTVSPost2010Prop53
 90
        2
102
RTVSPost2010PropOp53
 70
     1
102
RTVSPost2010Prop54
  1
strokes_ogs.tif
102
RTVSPost2010PropOp54
 70
     1
102
RTVSPost2010Prop55
280
     0
102
RTVSPost2010PropOp55
 70
     1
102
RTVSPost2010Prop56
140
1.0
102
RTVSPost2010PropOp56
 70
     1
102
RTVSPost2010Prop57
140
1.0
102
RTVSPost2010PropOp57
 70
     1
102
RTVSPropertyOp0
 70
     1
102
RTVSPropertyOp1
 70
     1
102
RTVSPropertyOp2
 70
     1
102
RTVSPropertyOp3
 70
     1
102
RTVSPropertyOp4
 70
     1
102
RTVSPropertyOp5
 70
     1
102
RTVSPropertyOp6
 70
     1
102
RTVSPropertyOp7
 70
     1
102
RTVSPropertyOp8
 70
     1
102
RTVSPropertyOp9
 70
     1
102
RTVSPropertyOp10
 70
     1
102
RTVSPropertyOp11
 70
     1
102
RTVSPropertyOp12
 70
     1
102
RTVSPropertyOp13
 70
     1
102
RTVSPropertyOp14
 70
     1
102
RTVSPropertyOp15
 70
     1
102
RTVSPropertyOp16
 70
     1
102
RTVSPropertyOp17
 70
     1
102
RTVSPropertyOp18
 70
     1
102
RTVSPropertyOp19
 70
     1
102
RTVSPropertyOp20
 70
     1
102
RTVSPropertyOp21
 70
     1
102
RTVSPropertyOp22
 70
     1
102
RTVSPropertyOp23
 70
     1
102
RTVSPropertyOp24
 70
     1
102
RTVSPropertyOp25
 70
     1
102
RTVSPropertyOp26
 70
     1
102
RTVSPropertyOp27
 70
     1
102
RTVSPropertyOp28
 70
     1
102
RTVSPropertyOp29
 70
     1
102
RTVSPropertyOp30
 70
     1
102
RTVSPropertyOp31
 70
     1
102
RTVSPropertyOp32
 70
     1
102
RTVSPropertyOp33
 70
     1
102
RTVSPropertyOp34
 70
     1
102
RTVSPropertyOp35
 70
     1
102
RTVSPropertyOp36
 70
     1
102
RTVSPropertyOp37
 70
     1
102
RTVSPropertyOp38
 70
     1
102
RTVSPropertyOp39
 70
     1
102
RTVSPropertyOp40
 70
     1
102
RTVSPropertyOp41
 70
     1
102
RTVSPropertyOp42
 70
     1
102
RTVSPropertyOp43
 70
     1
102
RTVSPropertyOp44
 70
     1
102
RTVSPropertyOp45
 70
     1
102
RTVSPropertyOp46
 70
     1
102
RTVSPropertyOp47
 70
     1
102
RTVSPropertyOp48
 70
     1
102
RTVSPropertyOp49
 70
     1
102
RTVSPropertyOp50
 70
     1
102
RTVSPropertyOp51
 70
     0
102
RTVSPropertyOp52
 70
     0
102
RTVSPropertyOp53
 70
     1
102
RTVSPropertyOp54
 70
     1
102
RTVSPropertyOp55
 70
     1
102
RTVSPropertyOp56
 70
     1
102
RTVSPropertyOp57
 70
     1
102
RTVSPropertyOp58
 70
     1
102
RTVSPropertyOp59
 70
     1
102
RTVSPropertyOp60
 70
     1
102
RTVSPropertyOp61
 70
     1
102
RTVSPropertyOp62
 70
     1
  0
XRECORD
  5
A54C
102
{ACAD_REACTORS
330
A54B
102
}
330
A54B
100
AcDbXrecord
280
     1
102
RTVSPost2010Prop28
280
     0
102
RTVSPost2010PropOp28
 70
     1
102
RTVSPost2010Prop29
280
     1
102
RTVSPost2010PropOp29
 70
     1
102
RTVSPost2010Prop30
280
     1
102
RTVSPost2010PropOp30
 70
     1
102
RTVSPost2010Prop31
280
     0
102
RTVSPost2010PropOp31
 70
     1
102
RTVSPost2010Prop32
280
     0
102
RTVSPost2010PropOp32
 70
     1
102
RTVSPost2010Prop33
280
     0
102
RTVSPost2010PropOp33
 70
     1
102
RTVSPost2010Prop34
280
     0
102
RTVSPost2010PropOp34
 70
     1
102
RTVSPost2010Prop35
280
     0
102
RTVSPost2010PropOp35
 70
     1
102
RTVSPost2010Prop36
280
     0
102
RTVSPost2010PropOp36
 70
     1
102
RTVSPost2010Prop37
 90
       50
102
RTVSPost2010PropOp37
 70
     1
102
RTVSPost2010Prop38
140
0.0
102
RTVSPost2010PropOp38
 70
     1
102
RTVSPost2010Prop39
140
1.0
102
RTVSPost2010PropOp39
 70
     1
102
RTVSPost2010Prop40
 90
        0
102
RTVSPost2010PropOp40
 70
     1
102
RTVSPost2010Prop41ColorIndex
 90
       18
102
RTVSPost2010Prop41ColorRGB
 90
        0
102
RTVSPost2010PropOp41
 70
     1
102
RTVSPost2010Prop42
 90
       50
102
RTVSPost2010PropOp42
 70
     1
102
RTVSPost2010Prop43
 90
        3
102
RTVSPost2010PropOp43
 70
     1
102
RTVSPost2010Prop44ColorIndex
 90
        5
102
RTVSPost2010Prop44ColorRGB
 90
      255
102
RTVSPost2010PropOp44
 70
     1
102
RTVSPost2010Prop45
280
     0
102
RTVSPost2010PropOp45
 70
     1
102
RTVSPost2010Prop46
 90
       50
102
RTVSPost2010PropOp46
 70
     1
102
RTVSPost2010Prop47
 90
       50
102
RTVSPost2010PropOp47
 70
     1
102
RTVSPost2010Prop48
 90
       50
102
RTVSPost2010PropOp48
 70
     1
102
RTVSPost2010Prop49
280
     0
102
RTVSPost2010PropOp49
 70
     1
102
RTVSPost2010Prop50
 90
       50
102
RTVSPost2010PropOp50
 70
     1
102
RTVSPost2010Prop51ColorIndex
 90
      256
102
RTVSPost2010Prop51ColorRGB
 90
-16777216
102
RTVSPost2010PropOp51
 70
     0
102
RTVSPost2010Prop52
140
1.0
102
RTVSPost2010PropOp52
 70
     0
102
RTVSPost2010Prop53
 90
        2
102
RTVSPost2010PropOp53
 70
     1
102
RTVSPost2010Prop54
  1
strokes_ogs.tif
102
RTVSPost2010PropOp54
 70
     1
102
RTVSPost2010Prop55
280
     0
102
RTVSPost2010PropOp55
 70
     1
102
RTVSPost2010Prop56
140
1.0
102
RTVSPost2010PropOp56
 70
     1
102
RTVSPost2010Prop57
140
1.0
102
RTVSPost2010PropOp57
 70
     1
102
RTVSPropertyOp0
 70
     1
102
RTVSPropertyOp1
 70
     1
102
RTVSPropertyOp2
 70
     1
102
RTVSPropertyOp3
 70
     1
102
RTVSPropertyOp4
 70
     1
102
RTVSPropertyOp5
 70
     1
102
RTVSPropertyOp6
 70
     1
102
RTVSPropertyOp7
 70
     1
102
RTVSPropertyOp8
 70
     1
102
RTVSPropertyOp9
 70
     1
102
RTVSPropertyOp10
 70
     1
102
RTVSPropertyOp11
 70
     1
102
RTVSPropertyOp12
 70
     1
102
RTVSPropertyOp13
 70
     1
102
RTVSPropertyOp14
 70
     1
102
RTVSPropertyOp15
 70
     1
102
RTVSPropertyOp16
 70
     1
102
RTVSPropertyOp17
 70
     1
102
RTVSPropertyOp18
 70
     1
102
RTVSPropertyOp19
 70
     1
102
RTVSPropertyOp20
 70
     1
102
RTVSPropertyOp21
 70
     1
102
RTVSPropertyOp22
 70
     1
102
RTVSPropertyOp23
 70
     1
102
RTVSPropertyOp24
 70
     1
102
RTVSPropertyOp25
 70
     1
102
RTVSPropertyOp26
 70
     1
102
RTVSPropertyOp27
 70
     1
102
RTVSPropertyOp28
 70
     1
102
RTVSPropertyOp29
 70
     1
102
RTVSPropertyOp30
 70
     1
102
RTVSPropertyOp31
 70
     1
102
RTVSPropertyOp32
 70
     1
102
RTVSPropertyOp33
 70
     1
102
RTVSPropertyOp34
 70
     1
102
RTVSPropertyOp35
 70
     1
102
RTVSPropertyOp36
 70
     1
102
RTVSPropertyOp37
 70
     1
102
RTVSPropertyOp38
 70
     1
102
RTVSPropertyOp39
 70
     1
102
RTVSPropertyOp40
 70
     1
102
RTVSPropertyOp41
 70
     1
102
RTVSPropertyOp42
 70
     1
102
RTVSPropertyOp43
 70
     1
102
RTVSPropertyOp44
 70
     1
102
RTVSPropertyOp45
 70
     1
102
RTVSPropertyOp46
 70
     1
102
RTVSPropertyOp47
 70
     1
102
RTVSPropertyOp48
 70
     1
102
RTVSPropertyOp49
 70
     1
102
RTVSPropertyOp50
 70
     1
102
RTVSPropertyOp51
 70
     0
102
RTVSPropertyOp52
 70
     0
102
RTVSPropertyOp53
 70
     1
102
RTVSPropertyOp54
 70
     1
102
RTVSPropertyOp55
 70
     1
102
RTVSPropertyOp56
 70
     1
102
RTVSPropertyOp57
 70
     1
102
RTVSPropertyOp58
 70
     1
102
RTVSPropertyOp59
 70
     1
102
RTVSPropertyOp60
 70
     1
102
RTVSPropertyOp61
 70
     1
102
RTVSPropertyOp62
 70
     1
  0
XRECORD
  5
A550
102
{ACAD_REACTORS
330
A54F
102
}
330
A54F
100
AcDbXrecord
280
     1
102
RTVSPost2010Prop28
280
     0
102
RTVSPost2010PropOp28
 70
     1
102
RTVSPost2010Prop29
280
     1
102
RTVSPost2010PropOp29
 70
     1
102
RTVSPost2010Prop30
280
     1
102
RTVSPost2010PropOp30
 70
     1
102
RTVSPost2010Prop31
280
     0
102
RTVSPost2010PropOp31
 70
     1
102
RTVSPost2010Prop32
280
     0
102
RTVSPost2010PropOp32
 70
     1
102
RTVSPost2010Prop33
280
     0
102
RTVSPost2010PropOp33
 70
     1
102
RTVSPost2010Prop34
280
     0
102
RTVSPost2010PropOp34
 70
     1
102
RTVSPost2010Prop35
280
     0
102
RTVSPost2010PropOp35
 70
     1
102
RTVSPost2010Prop36
280
     0
102
RTVSPost2010PropOp36
 70
     1
102
RTVSPost2010Prop37
 90
       50
102
RTVSPost2010PropOp37
 70
     1
102
RTVSPost2010Prop38
140
0.0
102
RTVSPost2010PropOp38
 70
     1
102
RTVSPost2010Prop39
140
1.0
102
RTVSPost2010PropOp39
 70
     1
102
RTVSPost2010Prop40
 90
        0
102
RTVSPost2010PropOp40
 70
     1
102
RTVSPost2010Prop41ColorIndex
 90
       18
102
RTVSPost2010Prop41ColorRGB
 90
        0
102
RTVSPost2010PropOp41
 70
     1
102
RTVSPost2010Prop42
 90
       50
102
RTVSPost2010PropOp42
 70
     1
102
RTVSPost2010Prop43
 90
        3
102
RTVSPost2010PropOp43
 70
     1
102
RTVSPost2010Prop44ColorIndex
 90
        5
102
RTVSPost2010Prop44ColorRGB
 90
      255
102
RTVSPost2010PropOp44
 70
     1
102
RTVSPost2010Prop45
280
     0
102
RTVSPost2010PropOp45
 70
     1
102
RTVSPost2010Prop46
 90
       50
102
RTVSPost2010PropOp46
 70
     1
102
RTVSPost2010Prop47
 90
       50
102
RTVSPost2010PropOp47
 70
     1
102
RTVSPost2010Prop48
 90
       50
102
RTVSPost2010PropOp48
 70
     1
102
RTVSPost2010Prop49
280
     0
102
RTVSPost2010PropOp49
 70
     1
102
RTVSPost2010Prop50
 90
       50
102
RTVSPost2010PropOp50
 70
     1
102
RTVSPost2010Prop51ColorIndex
 90
      256
102
RTVSPost2010Prop51ColorRGB
 90
-16777216
102
RTVSPost2010PropOp51
 70
     0
102
RTVSPost2010Prop52
140
1.0
102
RTVSPost2010PropOp52
 70
     0
102
RTVSPost2010Prop53
 90
        2
102
RTVSPost2010PropOp53
 70
     1
102
RTVSPost2010Prop54
  1
strokes_ogs.tif
102
RTVSPost2010PropOp54
 70
     1
102
RTVSPost2010Prop55
280
     0
102
RTVSPost2010PropOp55
 70
     1
102
RTVSPost2010Prop56
140
1.0
102
RTVSPost2010PropOp56
 70
     1
102
RTVSPost2010Prop57
140
1.0
102
RTVSPost2010PropOp57
 70
     1
102
RTVSPropertyOp0
 70
     1
102
RTVSPropertyOp1
 70
     1
102
RTVSPropertyOp2
 70
     1
102
RTVSPropertyOp3
 70
     1
102
RTVSPropertyOp4
 70
     1
102
RTVSPropertyOp5
 70
     1
102
RTVSPropertyOp6
 70
     1
102
RTVSPropertyOp7
 70
     1
102
RTVSPropertyOp8
 70
     1
102
RTVSPropertyOp9
 70
     1
102
RTVSPropertyOp10
 70
     1
102
RTVSPropertyOp11
 70
     1
102
RTVSPropertyOp12
 70
     1
102
RTVSPropertyOp13
 70
     1
102
RTVSPropertyOp14
 70
     1
102
RTVSPropertyOp15
 70
     1
102
RTVSPropertyOp16
 70
     1
102
RTVSPropertyOp17
 70
     1
102
RTVSPropertyOp18
 70
     1
102
RTVSPropertyOp19
 70
     1
102
RTVSPropertyOp20
 70
     1
102
RTVSPropertyOp21
 70
     1
102
RTVSPropertyOp22
 70
     1
102
RTVSPropertyOp23
 70
     1
102
RTVSPropertyOp24
 70
     1
102
RTVSPropertyOp25
 70
     1
102
RTVSPropertyOp26
 70
     1
102
RTVSPropertyOp27
 70
     1
102
RTVSPropertyOp28
 70
     1
102
RTVSPropertyOp29
 70
     1
102
RTVSPropertyOp30
 70
     1
102
RTVSPropertyOp31
 70
     1
102
RTVSPropertyOp32
 70
     1
102
RTVSPropertyOp33
 70
     1
102
RTVSPropertyOp34
 70
     1
102
RTVSPropertyOp35
 70
     1
102
RTVSPropertyOp36
 70
     1
102
RTVSPropertyOp37
 70
     1
102
RTVSPropertyOp38
 70
     1
102
RTVSPropertyOp39
 70
     1
102
RTVSPropertyOp40
 70
     1
102
RTVSPropertyOp41
 70
     1
102
RTVSPropertyOp42
 70
     1
102
RTVSPropertyOp43
 70
     1
102
RTVSPropertyOp44
 70
     1
102
RTVSPropertyOp45
 70
     1
102
RTVSPropertyOp46
 70
     1
102
RTVSPropertyOp47
 70
     1
102
RTVSPropertyOp48
 70
     1
102
RTVSPropertyOp49
 70
     1
102
RTVSPropertyOp50
 70
     1
102
RTVSPropertyOp51
 70
     0
102
RTVSPropertyOp52
 70
     0
102
RTVSPropertyOp53
 70
     1
102
RTVSPropertyOp54
 70
     1
102
RTVSPropertyOp55
 70
     1
102
RTVSPropertyOp56
 70
     1
102
RTVSPropertyOp57
 70
     1
102
RTVSPropertyOp58
 70
     1
102
RTVSPropertyOp59
 70
     1
102
RTVSPropertyOp60
 70
     1
102
RTVSPropertyOp61
 70
     1
102
RTVSPropertyOp62
 70
     1
  0
XRECORD
  5
A56A
102
{ACAD_REACTORS
330
A569
102
}
330
A569
100
AcDbXrecord
280
     1
102
RTVSPost2010Prop28
280
     0
102
RTVSPost2010PropOp28
 70
     1
102
RTVSPost2010Prop29
280
     1
102
RTVSPost2010PropOp29
 70
     1
102
RTVSPost2010Prop30
280
     1
102
RTVSPost2010PropOp30
 70
     1
102
RTVSPost2010Prop31
280
     0
102
RTVSPost2010PropOp31
 70
     1
102
RTVSPost2010Prop32
280
     0
102
RTVSPost2010PropOp32
 70
     1
102
RTVSPost2010Prop33
280
     0
102
RTVSPost2010PropOp33
 70
     1
102
RTVSPost2010Prop34
280
     0
102
RTVSPost2010PropOp34
 70
     1
102
RTVSPost2010Prop35
280
     0
102
RTVSPost2010PropOp35
 70
     1
102
RTVSPost2010Prop36
280
     0
102
RTVSPost2010PropOp36
 70
     1
102
RTVSPost2010Prop37
 90
       50
102
RTVSPost2010PropOp37
 70
     0
102
RTVSPost2010Prop38
140
0.0
102
RTVSPost2010PropOp38
 70
     0
102
RTVSPost2010Prop39
140
1.0
102
RTVSPost2010PropOp39
 70
     0
102
RTVSPost2010Prop40
 90
        0
102
RTVSPost2010PropOp40
 70
     0
102
RTVSPost2010Prop41ColorIndex
 90
       18
102
RTVSPost2010Prop41ColorRGB
 90
        0
102
RTVSPost2010PropOp41
 70
     0
102
RTVSPost2010Prop42
 90
       50
102
RTVSPost2010PropOp42
 70
     0
102
RTVSPost2010Prop43
 90
        3
102
RTVSPost2010PropOp43
 70
     0
102
RTVSPost2010Prop44ColorIndex
 90
        5
102
RTVSPost2010Prop44ColorRGB
 90
      255
102
RTVSPost2010PropOp44
 70
     0
102
RTVSPost2010Prop45
280
     0
102
RTVSPost2010PropOp45
 70
     1
102
RTVSPost2010Prop46
 90
       50
102
RTVSPost2010PropOp46
 70
     0
102
RTVSPost2010Prop47
 90
       50
102
RTVSPost2010PropOp47
 70
     0
102
RTVSPost2010Prop48
 90
       50
102
RTVSPost2010PropOp48
 70
     0
102
RTVSPost2010Prop49
280
     0
102
RTVSPost2010PropOp49
 70
     1
102
RTVSPost2010Prop50
 90
       50
102
RTVSPost2010PropOp50
 70
     0
102
RTVSPost2010Prop51ColorIndex
 90
      256
102
RTVSPost2010Prop51ColorRGB
 90
-16777216
102
RTVSPost2010PropOp51
 70
     0
102
RTVSPost2010Prop52
140
1.0
102
RTVSPost2010PropOp52
 70
     0
102
RTVSPost2010Prop53
 90
        2
102
RTVSPost2010PropOp53
 70
     0
102
RTVSPost2010Prop54
  1
strokes_ogs.tif
102
RTVSPost2010PropOp54
 70
     0
102
RTVSPost2010Prop55
280
     0
102
RTVSPost2010PropOp55
 70
     1
102
RTVSPost2010Prop56
140
1.0
102
RTVSPost2010PropOp56
 70
     0
102
RTVSPost2010Prop57
140
1.0
102
RTVSPost2010PropOp57
 70
     0
102
RTVSPropertyOp0
 70
     0
102
RTVSPropertyOp1
 70
     0
102
RTVSPropertyOp2
 70
     0
102
RTVSPropertyOp3
 70
     0
102
RTVSPropertyOp4
 70
     0
102
RTVSPropertyOp5
 70
     0
102
RTVSPropertyOp6
 70
     0
102
RTVSPropertyOp7
 70
     0
102
RTVSPropertyOp8
 70
     0
102
RTVSPropertyOp9
 70
     0
102
RTVSPropertyOp10
 70
     0
102
RTVSPropertyOp11
 70
     0
102
RTVSPropertyOp12
 70
     0
102
RTVSPropertyOp13
 70
     0
102
RTVSPropertyOp14
 70
     2
102
RTVSPropertyOp15
 70
     0
102
RTVSPropertyOp16
 70
     0
102
RTVSPropertyOp17
 70
     0
102
RTVSPropertyOp18
 70
     0
102
RTVSPropertyOp19
 70
     0
102
RTVSPropertyOp20
 70
     0
102
RTVSPropertyOp21
 70
     0
102
RTVSPropertyOp22
 70
     0
102
RTVSPropertyOp23
 70
     0
102
RTVSPropertyOp24
 70
     0
102
RTVSPropertyOp25
 70
     0
102
RTVSPropertyOp26
 70
     0
102
RTVSPropertyOp27
 70
     0
102
RTVSPropertyOp28
 70
     1
102
RTVSPropertyOp29
 70
     1
102
RTVSPropertyOp30
 70
     1
102
RTVSPropertyOp31
 70
     1
102
RTVSPropertyOp32
 70
     1
102
RTVSPropertyOp33
 70
     1
102
RTVSPropertyOp34
 70
     1
102
RTVSPropertyOp35
 70
     1
102
RTVSPropertyOp36
 70
     1
102
RTVSPropertyOp37
 70
     0
102
RTVSPropertyOp38
 70
     0
102
RTVSPropertyOp39
 70
     0
102
RTVSPropertyOp40
 70
     0
102
RTVSPropertyOp41
 70
     0
102
RTVSPropertyOp42
 70
     0
102
RTVSPropertyOp43
 70
     0
102
RTVSPropertyOp44
 70
     0
102
RTVSPropertyOp45
 70
     1
102
RTVSPropertyOp46
 70
     0
102
RTVSPropertyOp47
 70
     0
102
RTVSPropertyOp48
 70
     0
102
RTVSPropertyOp49
 70
     1
102
RTVSPropertyOp50
 70
     0
102
RTVSPropertyOp51
 70
     0
102
RTVSPropertyOp52
 70
     0
102
RTVSPropertyOp53
 70
     0
102
RTVSPropertyOp54
 70
     0
102
RTVSPropertyOp55
 70
     1
102
RTVSPropertyOp56
 70
     0
102
RTVSPropertyOp57
 70
     0
102
RTVSPropertyOp58
 70
     0
102
RTVSPropertyOp59
 70
     0
102
RTVSPropertyOp60
 70
     0
102
RTVSPropertyOp61
 70
     0
102
RTVSPropertyOp62
 70
     0
  0
XRECORD
  5
A558
102
{ACAD_REACTORS
330
A557
102
}
330
A557
100
AcDbXrecord
280
     1
102
RTVSPost2010Prop28
280
     0
102
RTVSPost2010PropOp28
 70
     1
102
RTVSPost2010Prop29
280
     1
102
RTVSPost2010PropOp29
 70
     1
102
RTVSPost2010Prop30
280
     1
102
RTVSPost2010PropOp30
 70
     1
102
RTVSPost2010Prop31
280
     0
102
RTVSPost2010PropOp31
 70
     1
102
RTVSPost2010Prop32
280
     0
102
RTVSPost2010PropOp32
 70
     1
102
RTVSPost2010Prop33
280
     0
102
RTVSPost2010PropOp33
 70
     1
102
RTVSPost2010Prop34
280
     0
102
RTVSPost2010PropOp34
 70
     1
102
RTVSPost2010Prop35
280
     0
102
RTVSPost2010PropOp35
 70
     1
102
RTVSPost2010Prop36
280
     0
102
RTVSPost2010PropOp36
 70
     1
102
RTVSPost2010Prop37
 90
       50
102
RTVSPost2010PropOp37
 70
     1
102
RTVSPost2010Prop38
140
0.0
102
RTVSPost2010PropOp38
 70
     1
102
RTVSPost2010Prop39
140
1.0
102
RTVSPost2010PropOp39
 70
     1
102
RTVSPost2010Prop40
 90
        0
102
RTVSPost2010PropOp40
 70
     1
102
RTVSPost2010Prop41ColorIndex
 90
       18
102
RTVSPost2010Prop41ColorRGB
 90
        0
102
RTVSPost2010PropOp41
 70
     1
102
RTVSPost2010Prop42
 90
       50
102
RTVSPost2010PropOp42
 70
     1
102
RTVSPost2010Prop43
 90
        3
102
RTVSPost2010PropOp43
 70
     1
102
RTVSPost2010Prop44ColorIndex
 90
        5
102
RTVSPost2010Prop44ColorRGB
 90
      255
102
RTVSPost2010PropOp44
 70
     1
102
RTVSPost2010Prop45
280
     0
102
RTVSPost2010PropOp45
 70
     1
102
RTVSPost2010Prop46
 90
       50
102
RTVSPost2010PropOp46
 70
     1
102
RTVSPost2010Prop47
 90
       50
102
RTVSPost2010PropOp47
 70
     1
102
RTVSPost2010Prop48
 90
       50
102
RTVSPost2010PropOp48
 70
     1
102
RTVSPost2010Prop49
280
     0
102
RTVSPost2010PropOp49
 70
     1
102
RTVSPost2010Prop50
 90
       50
102
RTVSPost2010PropOp50
 70
     1
102
RTVSPost2010Prop51ColorIndex
 90
      256
102
RTVSPost2010Prop51ColorRGB
 90
-16777216
102
RTVSPost2010PropOp51
 70
     0
102
RTVSPost2010Prop52
140
1.0
102
RTVSPost2010PropOp52
 70
     0
102
RTVSPost2010Prop53
 90
        2
102
RTVSPost2010PropOp53
 70
     1
102
RTVSPost2010Prop54
  1
strokes_ogs.tif
102
RTVSPost2010PropOp54
 70
     1
102
RTVSPost2010Prop55
280
     0
102
RTVSPost2010PropOp55
 70
     1
102
RTVSPost2010Prop56
140
1.0
102
RTVSPost2010PropOp56
 70
     1
102
RTVSPost2010Prop57
140
1.0
102
RTVSPost2010PropOp57
 70
     1
102
RTVSPropertyOp0
 70
     1
102
RTVSPropertyOp1
 70
     1
102
RTVSPropertyOp2
 70
     1
102
RTVSPropertyOp3
 70
     1
102
RTVSPropertyOp4
 70
     1
102
RTVSPropertyOp5
 70
     1
102
RTVSPropertyOp6
 70
     1
102
RTVSPropertyOp7
 70
     1
102
RTVSPropertyOp8
 70
     1
102
RTVSPropertyOp9
 70
     1
102
RTVSPropertyOp10
 70
     1
102
RTVSPropertyOp11
 70
     1
102
RTVSPropertyOp12
 70
     1
102
RTVSPropertyOp13
 70
     1
102
RTVSPropertyOp14
 70
     1
102
RTVSPropertyOp15
 70
     1
102
RTVSPropertyOp16
 70
     1
102
RTVSPropertyOp17
 70
     1
102
RTVSPropertyOp18
 70
     1
102
RTVSPropertyOp19
 70
     1
102
RTVSPropertyOp20
 70
     1
102
RTVSPropertyOp21
 70
     1
102
RTVSPropertyOp22
 70
     1
102
RTVSPropertyOp23
 70
     1
102
RTVSPropertyOp24
 70
     1
102
RTVSPropertyOp25
 70
     1
102
RTVSPropertyOp26
 70
     1
102
RTVSPropertyOp27
 70
     1
102
RTVSPropertyOp28
 70
     1
102
RTVSPropertyOp29
 70
     1
102
RTVSPropertyOp30
 70
     1
102
RTVSPropertyOp31
 70
     1
102
RTVSPropertyOp32
 70
     1
102
RTVSPropertyOp33
 70
     1
102
RTVSPropertyOp34
 70
     1
102
RTVSPropertyOp35
 70
     1
102
RTVSPropertyOp36
 70
     1
102
RTVSPropertyOp37
 70
     1
102
RTVSPropertyOp38
 70
     1
102
RTVSPropertyOp39
 70
     1
102
RTVSPropertyOp40
 70
     1
102
RTVSPropertyOp41
 70
     1
102
RTVSPropertyOp42
 70
     1
102
RTVSPropertyOp43
 70
     1
102
RTVSPropertyOp44
 70
     1
102
RTVSPropertyOp45
 70
     1
102
RTVSPropertyOp46
 70
     1
102
RTVSPropertyOp47
 70
     1
102
RTVSPropertyOp48
 70
     1
102
RTVSPropertyOp49
 70
     1
102
RTVSPropertyOp50
 70
     1
102
RTVSPropertyOp51
 70
     0
102
RTVSPropertyOp52
 70
     0
102
RTVSPropertyOp53
 70
     1
102
RTVSPropertyOp54
 70
     1
102
RTVSPropertyOp55
 70
     1
102
RTVSPropertyOp56
 70
     1
102
RTVSPropertyOp57
 70
     1
102
RTVSPropertyOp58
 70
     1
102
RTVSPropertyOp59
 70
     1
102
RTVSPropertyOp60
 70
     1
102
RTVSPropertyOp61
 70
     1
102
RTVSPropertyOp62
 70
     1
  0
XRECORD
  5
A53C
102
{ACAD_REACTORS
330
A53B
102
}
330
A53B
100
AcDbXrecord
280
     1
102
RTVSPost2010Prop28
280
     0
102
RTVSPost2010PropOp28
 70
     1
102
RTVSPost2010Prop29
280
     1
102
RTVSPost2010PropOp29
 70
     1
102
RTVSPost2010Prop30
280
     1
102
RTVSPost2010PropOp30
 70
     1
102
RTVSPost2010Prop31
280
     0
102
RTVSPost2010PropOp31
 70
     1
102
RTVSPost2010Prop32
280
     0
102
RTVSPost2010PropOp32
 70
     1
102
RTVSPost2010Prop33
280
     0
102
RTVSPost2010PropOp33
 70
     1
102
RTVSPost2010Prop34
280
     0
102
RTVSPost2010PropOp34
 70
     1
102
RTVSPost2010Prop35
280
     0
102
RTVSPost2010PropOp35
 70
     1
102
RTVSPost2010Prop36
280
     0
102
RTVSPost2010PropOp36
 70
     1
102
RTVSPost2010Prop37
 90
       50
102
RTVSPost2010PropOp37
 70
     1
102
RTVSPost2010Prop38
140
0.0
102
RTVSPost2010PropOp38
 70
     1
102
RTVSPost2010Prop39
140
1.0
102
RTVSPost2010PropOp39
 70
     1
102
RTVSPost2010Prop40
 90
        0
102
RTVSPost2010PropOp40
 70
     1
102
RTVSPost2010Prop41ColorIndex
 90
       18
102
RTVSPost2010Prop41ColorRGB
 90
        0
102
RTVSPost2010PropOp41
 70
     1
102
RTVSPost2010Prop42
 90
       50
102
RTVSPost2010PropOp42
 70
     1
102
RTVSPost2010Prop43
 90
        3
102
RTVSPost2010PropOp43
 70
     1
102
RTVSPost2010Prop44ColorIndex
 90
        5
102
RTVSPost2010Prop44ColorRGB
 90
      255
102
RTVSPost2010PropOp44
 70
     1
102
RTVSPost2010Prop45
280
     0
102
RTVSPost2010PropOp45
 70
     1
102
RTVSPost2010Prop46
 90
       50
102
RTVSPost2010PropOp46
 70
     1
102
RTVSPost2010Prop47
 90
       50
102
RTVSPost2010PropOp47
 70
     1
102
RTVSPost2010Prop48
 90
       50
102
RTVSPost2010PropOp48
 70
     1
102
RTVSPost2010Prop49
280
     0
102
RTVSPost2010PropOp49
 70
     1
102
RTVSPost2010Prop50
 90
       50
102
RTVSPost2010PropOp50
 70
     1
102
RTVSPost2010Prop51ColorIndex
 90
      256
102
RTVSPost2010Prop51ColorRGB
 90
-16777216
102
RTVSPost2010PropOp51
 70
     0
102
RTVSPost2010Prop52
140
1.0
102
RTVSPost2010PropOp52
 70
     0
102
RTVSPost2010Prop53
 90
        2
102
RTVSPost2010PropOp53
 70
     1
102
RTVSPost2010Prop54
  1
strokes_ogs.tif
102
RTVSPost2010PropOp54
 70
     1
102
RTVSPost2010Prop55
280
     0
102
RTVSPost2010PropOp55
 70
     1
102
RTVSPost2010Prop56
140
1.0
102
RTVSPost2010PropOp56
 70
     1
102
RTVSPost2010Prop57
140
1.0
102
RTVSPost2010PropOp57
 70
     1
102
RTVSPropertyOp0
 70
     1
102
RTVSPropertyOp1
 70
     1
102
RTVSPropertyOp2
 70
     1
102
RTVSPropertyOp3
 70
     1
102
RTVSPropertyOp4
 70
     1
102
RTVSPropertyOp5
 70
     1
102
RTVSPropertyOp6
 70
     1
102
RTVSPropertyOp7
 70
     1
102
RTVSPropertyOp8
 70
     1
102
RTVSPropertyOp9
 70
     1
102
RTVSPropertyOp10
 70
     1
102
RTVSPropertyOp11
 70
     1
102
RTVSPropertyOp12
 70
     1
102
RTVSPropertyOp13
 70
     1
102
RTVSPropertyOp14
 70
     1
102
RTVSPropertyOp15
 70
     1
102
RTVSPropertyOp16
 70
     1
102
RTVSPropertyOp17
 70
     1
102
RTVSPropertyOp18
 70
     1
102
RTVSPropertyOp19
 70
     1
102
RTVSPropertyOp20
 70
     1
102
RTVSPropertyOp21
 70
     1
102
RTVSPropertyOp22
 70
     1
102
RTVSPropertyOp23
 70
     1
102
RTVSPropertyOp24
 70
     1
102
RTVSPropertyOp25
 70
     1
102
RTVSPropertyOp26
 70
     1
102
RTVSPropertyOp27
 70
     1
102
RTVSPropertyOp28
 70
     1
102
RTVSPropertyOp29
 70
     1
102
RTVSPropertyOp30
 70
     1
102
RTVSPropertyOp31
 70
     1
102
RTVSPropertyOp32
 70
     1
102
RTVSPropertyOp33
 70
     1
102
RTVSPropertyOp34
 70
     1
102
RTVSPropertyOp35
 70
     1
102
RTVSPropertyOp36
 70
     1
102
RTVSPropertyOp37
 70
     1
102
RTVSPropertyOp38
 70
     1
102
RTVSPropertyOp39
 70
     1
102
RTVSPropertyOp40
 70
     1
102
RTVSPropertyOp41
 70
     1
102
RTVSPropertyOp42
 70
     1
102
RTVSPropertyOp43
 70
     1
102
RTVSPropertyOp44
 70
     1
102
RTVSPropertyOp45
 70
     1
102
RTVSPropertyOp46
 70
     1
102
RTVSPropertyOp47
 70
     1
102
RTVSPropertyOp48
 70
     1
102
RTVSPropertyOp49
 70
     1
102
RTVSPropertyOp50
 70
     1
102
RTVSPropertyOp51
 70
     0
102
RTVSPropertyOp52
 70
     0
102
RTVSPropertyOp53
 70
     1
102
RTVSPropertyOp54
 70
     1
102
RTVSPropertyOp55
 70
     1
102
RTVSPropertyOp56
 70
     1
102
RTVSPropertyOp57
 70
     1
102
RTVSPropertyOp58
 70
     1
102
RTVSPropertyOp59
 70
     1
102
RTVSPropertyOp60
 70
     1
102
RTVSPropertyOp61
 70
     1
102
RTVSPropertyOp62
 70
     1
  0
XRECORD
  5
A53E
102
{ACAD_REACTORS
330
A53D
102
}
330
A53D
100
AcDbXrecord
280
     1
102
RTVSPost2010Prop28
280
     0
102
RTVSPost2010PropOp28
 70
     1
102
RTVSPost2010Prop29
280
     1
102
RTVSPost2010PropOp29
 70
     1
102
RTVSPost2010Prop30
280
     1
102
RTVSPost2010PropOp30
 70
     1
102
RTVSPost2010Prop31
280
     0
102
RTVSPost2010PropOp31
 70
     1
102
RTVSPost2010Prop32
280
     0
102
RTVSPost2010PropOp32
 70
     1
102
RTVSPost2010Prop33
280
     0
102
RTVSPost2010PropOp33
 70
     1
102
RTVSPost2010Prop34
280
     0
102
RTVSPost2010PropOp34
 70
     1
102
RTVSPost2010Prop35
280
     0
102
RTVSPost2010PropOp35
 70
     1
102
RTVSPost2010Prop36
280
     0
102
RTVSPost2010PropOp36
 70
     1
102
RTVSPost2010Prop37
 90
       50
102
RTVSPost2010PropOp37
 70
     1
102
RTVSPost2010Prop38
140
0.0
102
RTVSPost2010PropOp38
 70
     1
102
RTVSPost2010Prop39
140
1.0
102
RTVSPost2010PropOp39
 70
     1
102
RTVSPost2010Prop40
 90
        0
102
RTVSPost2010PropOp40
 70
     1
102
RTVSPost2010Prop41ColorIndex
 90
       18
102
RTVSPost2010Prop41ColorRGB
 90
        0
102
RTVSPost2010PropOp41
 70
     1
102
RTVSPost2010Prop42
 90
       50
102
RTVSPost2010PropOp42
 70
     1
102
RTVSPost2010Prop43
 90
        3
102
RTVSPost2010PropOp43
 70
     1
102
RTVSPost2010Prop44ColorIndex
 90
        5
102
RTVSPost2010Prop44ColorRGB
 90
      255
102
RTVSPost2010PropOp44
 70
     1
102
RTVSPost2010Prop45
280
     0
102
RTVSPost2010PropOp45
 70
     1
102
RTVSPost2010Prop46
 90
       50
102
RTVSPost2010PropOp46
 70
     1
102
RTVSPost2010Prop47
 90
       50
102
RTVSPost2010PropOp47
 70
     1
102
RTVSPost2010Prop48
 90
       50
102
RTVSPost2010PropOp48
 70
     1
102
RTVSPost2010Prop49
280
     0
102
RTVSPost2010PropOp49
 70
     1
102
RTVSPost2010Prop50
 90
       50
102
RTVSPost2010PropOp50
 70
     1
102
RTVSPost2010Prop51ColorIndex
 90
      256
102
RTVSPost2010Prop51ColorRGB
 90
-16777216
102
RTVSPost2010PropOp51
 70
     0
102
RTVSPost2010Prop52
140
1.0
102
RTVSPost2010PropOp52
 70
     0
102
RTVSPost2010Prop53
 90
        2
102
RTVSPost2010PropOp53
 70
     1
102
RTVSPost2010Prop54
  1
strokes_ogs.tif
102
RTVSPost2010PropOp54
 70
     1
102
RTVSPost2010Prop55
280
     0
102
RTVSPost2010PropOp55
 70
     1
102
RTVSPost2010Prop56
140
1.0
102
RTVSPost2010PropOp56
 70
     1
102
RTVSPost2010Prop57
140
1.0
102
RTVSPost2010PropOp57
 70
     1
102
RTVSPropertyOp0
 70
     1
102
RTVSPropertyOp1
 70
     1
102
RTVSPropertyOp2
 70
     1
102
RTVSPropertyOp3
 70
     1
102
RTVSPropertyOp4
 70
     1
102
RTVSPropertyOp5
 70
     1
102
RTVSPropertyOp6
 70
     1
102
RTVSPropertyOp7
 70
     1
102
RTVSPropertyOp8
 70
     1
102
RTVSPropertyOp9
 70
     1
102
RTVSPropertyOp10
 70
     1
102
RTVSPropertyOp11
 70
     1
102
RTVSPropertyOp12
 70
     1
102
RTVSPropertyOp13
 70
     1
102
RTVSPropertyOp14
 70
     1
102
RTVSPropertyOp15
 70
     1
102
RTVSPropertyOp16
 70
     1
102
RTVSPropertyOp17
 70
     1
102
RTVSPropertyOp18
 70
     1
102
RTVSPropertyOp19
 70
     1
102
RTVSPropertyOp20
 70
     1
102
RTVSPropertyOp21
 70
     1
102
RTVSPropertyOp22
 70
     1
102
RTVSPropertyOp23
 70
     1
102
RTVSPropertyOp24
 70
     1
102
RTVSPropertyOp25
 70
     1
102
RTVSPropertyOp26
 70
     1
102
RTVSPropertyOp27
 70
     1
102
RTVSPropertyOp28
 70
     1
102
RTVSPropertyOp29
 70
     1
102
RTVSPropertyOp30
 70
     1
102
RTVSPropertyOp31
 70
     1
102
RTVSPropertyOp32
 70
     1
102
RTVSPropertyOp33
 70
     1
102
RTVSPropertyOp34
 70
     1
102
RTVSPropertyOp35
 70
     1
102
RTVSPropertyOp36
 70
     1
102
RTVSPropertyOp37
 70
     1
102
RTVSPropertyOp38
 70
     1
102
RTVSPropertyOp39
 70
     1
102
RTVSPropertyOp40
 70
     1
102
RTVSPropertyOp41
 70
     1
102
RTVSPropertyOp42
 70
     1
102
RTVSPropertyOp43
 70
     1
102
RTVSPropertyOp44
 70
     1
102
RTVSPropertyOp45
 70
     1
102
RTVSPropertyOp46
 70
     1
102
RTVSPropertyOp47
 70
     1
102
RTVSPropertyOp48
 70
     1
102
RTVSPropertyOp49
 70
     1
102
RTVSPropertyOp50
 70
     1
102
RTVSPropertyOp51
 70
     0
102
RTVSPropertyOp52
 70
     0
102
RTVSPropertyOp53
 70
     1
102
RTVSPropertyOp54
 70
     1
102
RTVSPropertyOp55
 70
     1
102
RTVSPropertyOp56
 70
     1
102
RTVSPropertyOp57
 70
     1
102
RTVSPropertyOp58
 70
     1
102
RTVSPropertyOp59
 70
     1
102
RTVSPropertyOp60
 70
     1
102
RTVSPropertyOp61
 70
     1
102
RTVSPropertyOp62
 70
     1
  0
XRECORD
  5
A540
102
{ACAD_REACTORS
330
A53F
102
}
330
A53F
100
AcDbXrecord
280
     1
102
RTVSPost2010Prop28
280
     0
102
RTVSPost2010PropOp28
 70
     1
102
RTVSPost2010Prop29
280
     1
102
RTVSPost2010PropOp29
 70
     1
102
RTVSPost2010Prop30
280
     1
102
RTVSPost2010PropOp30
 70
     1
102
RTVSPost2010Prop31
280
     0
102
RTVSPost2010PropOp31
 70
     1
102
RTVSPost2010Prop32
280
     0
102
RTVSPost2010PropOp32
 70
     1
102
RTVSPost2010Prop33
280
     0
102
RTVSPost2010PropOp33
 70
     1
102
RTVSPost2010Prop34
280
     0
102
RTVSPost2010PropOp34
 70
     1
102
RTVSPost2010Prop35
280
     0
102
RTVSPost2010PropOp35
 70
     1
102
RTVSPost2010Prop36
280
     0
102
RTVSPost2010PropOp36
 70
     1
102
RTVSPost2010Prop37
 90
       50
102
RTVSPost2010PropOp37
 70
     1
102
RTVSPost2010Prop38
140
0.0
102
RTVSPost2010PropOp38
 70
     1
102
RTVSPost2010Prop39
140
1.0
102
RTVSPost2010PropOp39
 70
     1
102
RTVSPost2010Prop40
 90
        0
102
RTVSPost2010PropOp40
 70
     1
102
RTVSPost2010Prop41ColorIndex
 90
       18
102
RTVSPost2010Prop41ColorRGB
 90
        0
102
RTVSPost2010PropOp41
 70
     1
102
RTVSPost2010Prop42
 90
       50
102
RTVSPost2010PropOp42
 70
     1
102
RTVSPost2010Prop43
 90
        3
102
RTVSPost2010PropOp43
 70
     1
102
RTVSPost2010Prop44ColorIndex
 90
        5
102
RTVSPost2010Prop44ColorRGB
 90
      255
102
RTVSPost2010PropOp44
 70
     1
102
RTVSPost2010Prop45
280
     0
102
RTVSPost2010PropOp45
 70
     1
102
RTVSPost2010Prop46
 90
       50
102
RTVSPost2010PropOp46
 70
     1
102
RTVSPost2010Prop47
 90
       50
102
RTVSPost2010PropOp47
 70
     1
102
RTVSPost2010Prop48
 90
       50
102
RTVSPost2010PropOp48
 70
     1
102
RTVSPost2010Prop49
280
     0
102
RTVSPost2010PropOp49
 70
     1
102
RTVSPost2010Prop50
 90
       50
102
RTVSPost2010PropOp50
 70
     1
102
RTVSPost2010Prop51ColorIndex
 90
      256
102
RTVSPost2010Prop51ColorRGB
 90
-16777216
102
RTVSPost2010PropOp51
 70
     0
102
RTVSPost2010Prop52
140
1.0
102
RTVSPost2010PropOp52
 70
     0
102
RTVSPost2010Prop53
 90
        2
102
RTVSPost2010PropOp53
 70
     1
102
RTVSPost2010Prop54
  1
strokes_ogs.tif
102
RTVSPost2010PropOp54
 70
     1
102
RTVSPost2010Prop55
280
     0
102
RTVSPost2010PropOp55
 70
     1
102
RTVSPost2010Prop56
140
1.0
102
RTVSPost2010PropOp56
 70
     1
102
RTVSPost2010Prop57
140
1.0
102
RTVSPost2010PropOp57
 70
     1
102
RTVSPropertyOp0
 70
     1
102
RTVSPropertyOp1
 70
     1
102
RTVSPropertyOp2
 70
     1
102
RTVSPropertyOp3
 70
     1
102
RTVSPropertyOp4
 70
     1
102
RTVSPropertyOp5
 70
     1
102
RTVSPropertyOp6
 70
     1
102
RTVSPropertyOp7
 70
     1
102
RTVSPropertyOp8
 70
     1
102
RTVSPropertyOp9
 70
     1
102
RTVSPropertyOp10
 70
     1
102
RTVSPropertyOp11
 70
     1
102
RTVSPropertyOp12
 70
     1
102
RTVSPropertyOp13
 70
     1
102
RTVSPropertyOp14
 70
     1
102
RTVSPropertyOp15
 70
     1
102
RTVSPropertyOp16
 70
     1
102
RTVSPropertyOp17
 70
     1
102
RTVSPropertyOp18
 70
     1
102
RTVSPropertyOp19
 70
     1
102
RTVSPropertyOp20
 70
     1
102
RTVSPropertyOp21
 70
     1
102
RTVSPropertyOp22
 70
     1
102
RTVSPropertyOp23
 70
     1
102
RTVSPropertyOp24
 70
     1
102
RTVSPropertyOp25
 70
     1
102
RTVSPropertyOp26
 70
     1
102
RTVSPropertyOp27
 70
     1
102
RTVSPropertyOp28
 70
     1
102
RTVSPropertyOp29
 70
     1
102
RTVSPropertyOp30
 70
     1
102
RTVSPropertyOp31
 70
     1
102
RTVSPropertyOp32
 70
     1
102
RTVSPropertyOp33
 70
     1
102
RTVSPropertyOp34
 70
     1
102
RTVSPropertyOp35
 70
     1
102
RTVSPropertyOp36
 70
     1
102
RTVSPropertyOp37
 70
     1
102
RTVSPropertyOp38
 70
     1
102
RTVSPropertyOp39
 70
     1
102
RTVSPropertyOp40
 70
     1
102
RTVSPropertyOp41
 70
     1
102
RTVSPropertyOp42
 70
     1
102
RTVSPropertyOp43
 70
     1
102
RTVSPropertyOp44
 70
     1
102
RTVSPropertyOp45
 70
     1
102
RTVSPropertyOp46
 70
     1
102
RTVSPropertyOp47
 70
     1
102
RTVSPropertyOp48
 70
     1
102
RTVSPropertyOp49
 70
     1
102
RTVSPropertyOp50
 70
     1
102
RTVSPropertyOp51
 70
     0
102
RTVSPropertyOp52
 70
     0
102
RTVSPropertyOp53
 70
     1
102
RTVSPropertyOp54
 70
     1
102
RTVSPropertyOp55
 70
     1
102
RTVSPropertyOp56
 70
     1
102
RTVSPropertyOp57
 70
     1
102
RTVSPropertyOp58
 70
     1
102
RTVSPropertyOp59
 70
     1
102
RTVSPropertyOp60
 70
     1
102
RTVSPropertyOp61
 70
     1
102
RTVSPropertyOp62
 70
     1
  0
XRECORD
  5
A542
102
{ACAD_REACTORS
330
A541
102
}
330
A541
100
AcDbXrecord
280
     1
102
RTVSPost2010Prop28
280
     0
102
RTVSPost2010PropOp28
 70
     1
102
RTVSPost2010Prop29
280
     1
102
RTVSPost2010PropOp29
 70
     1
102
RTVSPost2010Prop30
280
     1
102
RTVSPost2010PropOp30
 70
     1
102
RTVSPost2010Prop31
280
     0
102
RTVSPost2010PropOp31
 70
     1
102
RTVSPost2010Prop32
280
     0
102
RTVSPost2010PropOp32
 70
     1
102
RTVSPost2010Prop33
280
     0
102
RTVSPost2010PropOp33
 70
     1
102
RTVSPost2010Prop34
280
     0
102
RTVSPost2010PropOp34
 70
     1
102
RTVSPost2010Prop35
280
     0
102
RTVSPost2010PropOp35
 70
     1
102
RTVSPost2010Prop36
280
     0
102
RTVSPost2010PropOp36
 70
     1
102
RTVSPost2010Prop37
 90
       50
102
RTVSPost2010PropOp37
 70
     1
102
RTVSPost2010Prop38
140
0.0
102
RTVSPost2010PropOp38
 70
     1
102
RTVSPost2010Prop39
140
1.0
102
RTVSPost2010PropOp39
 70
     1
102
RTVSPost2010Prop40
 90
        0
102
RTVSPost2010PropOp40
 70
     1
102
RTVSPost2010Prop41ColorIndex
 90
       18
102
RTVSPost2010Prop41ColorRGB
 90
        0
102
RTVSPost2010PropOp41
 70
     1
102
RTVSPost2010Prop42
 90
       50
102
RTVSPost2010PropOp42
 70
     1
102
RTVSPost2010Prop43
 90
        3
102
RTVSPost2010PropOp43
 70
     1
102
RTVSPost2010Prop44ColorIndex
 90
        5
102
RTVSPost2010Prop44ColorRGB
 90
      255
102
RTVSPost2010PropOp44
 70
     1
102
RTVSPost2010Prop45
280
     0
102
RTVSPost2010PropOp45
 70
     1
102
RTVSPost2010Prop46
 90
       50
102
RTVSPost2010PropOp46
 70
     1
102
RTVSPost2010Prop47
 90
       50
102
RTVSPost2010PropOp47
 70
     1
102
RTVSPost2010Prop48
 90
       50
102
RTVSPost2010PropOp48
 70
     1
102
RTVSPost2010Prop49
280
     0
102
RTVSPost2010PropOp49
 70
     1
102
RTVSPost2010Prop50
 90
       50
102
RTVSPost2010PropOp50
 70
     1
102
RTVSPost2010Prop51ColorIndex
 90
      256
102
RTVSPost2010Prop51ColorRGB
 90
-16777216
102
RTVSPost2010PropOp51
 70
     0
102
RTVSPost2010Prop52
140
1.0
102
RTVSPost2010PropOp52
 70
     0
102
RTVSPost2010Prop53
 90
        2
102
RTVSPost2010PropOp53
 70
     1
102
RTVSPost2010Prop54
  1
strokes_ogs.tif
102
RTVSPost2010PropOp54
 70
     1
102
RTVSPost2010Prop55
280
     0
102
RTVSPost2010PropOp55
 70
     1
102
RTVSPost2010Prop56
140
1.0
102
RTVSPost2010PropOp56
 70
     1
102
RTVSPost2010Prop57
140
1.0
102
RTVSPost2010PropOp57
 70
     1
102
RTVSPropertyOp0
 70
     1
102
RTVSPropertyOp1
 70
     1
102
RTVSPropertyOp2
 70
     1
102
RTVSPropertyOp3
 70
     1
102
RTVSPropertyOp4
 70
     1
102
RTVSPropertyOp5
 70
     1
102
RTVSPropertyOp6
 70
     1
102
RTVSPropertyOp7
 70
     1
102
RTVSPropertyOp8
 70
     1
102
RTVSPropertyOp9
 70
     1
102
RTVSPropertyOp10
 70
     1
102
RTVSPropertyOp11
 70
     1
102
RTVSPropertyOp12
 70
     1
102
RTVSPropertyOp13
 70
     1
102
RTVSPropertyOp14
 70
     1
102
RTVSPropertyOp15
 70
     1
102
RTVSPropertyOp16
 70
     1
102
RTVSPropertyOp17
 70
     1
102
RTVSPropertyOp18
 70
     1
102
RTVSPropertyOp19
 70
     1
102
RTVSPropertyOp20
 70
     1
102
RTVSPropertyOp21
 70
     1
102
RTVSPropertyOp22
 70
     1
102
RTVSPropertyOp23
 70
     1
102
RTVSPropertyOp24
 70
     1
102
RTVSPropertyOp25
 70
     1
102
RTVSPropertyOp26
 70
     1
102
RTVSPropertyOp27
 70
     1
102
RTVSPropertyOp28
 70
     1
102
RTVSPropertyOp29
 70
     1
102
RTVSPropertyOp30
 70
     1
102
RTVSPropertyOp31
 70
     1
102
RTVSPropertyOp32
 70
     1
102
RTVSPropertyOp33
 70
     1
102
RTVSPropertyOp34
 70
     1
102
RTVSPropertyOp35
 70
     1
102
RTVSPropertyOp36
 70
     1
102
RTVSPropertyOp37
 70
     1
102
RTVSPropertyOp38
 70
     1
102
RTVSPropertyOp39
 70
     1
102
RTVSPropertyOp40
 70
     1
102
RTVSPropertyOp41
 70
     1
102
RTVSPropertyOp42
 70
     1
102
RTVSPropertyOp43
 70
     1
102
RTVSPropertyOp44
 70
     1
102
RTVSPropertyOp45
 70
     1
102
RTVSPropertyOp46
 70
     1
102
RTVSPropertyOp47
 70
     1
102
RTVSPropertyOp48
 70
     1
102
RTVSPropertyOp49
 70
     1
102
RTVSPropertyOp50
 70
     1
102
RTVSPropertyOp51
 70
     0
102
RTVSPropertyOp52
 70
     0
102
RTVSPropertyOp53
 70
     1
102
RTVSPropertyOp54
 70
     1
102
RTVSPropertyOp55
 70
     1
102
RTVSPropertyOp56
 70
     1
102
RTVSPropertyOp57
 70
     1
102
RTVSPropertyOp58
 70
     1
102
RTVSPropertyOp59
 70
     1
102
RTVSPropertyOp60
 70
     1
102
RTVSPropertyOp61
 70
     1
102
RTVSPropertyOp62
 70
     1
  0
XRECORD
  5
A54A
102
{ACAD_REACTORS
330
A549
102
}
330
A549
100
AcDbXrecord
280
     1
102
RTVSPost2010Prop28
280
     0
102
RTVSPost2010PropOp28
 70
     1
102
RTVSPost2010Prop29
280
     1
102
RTVSPost2010PropOp29
 70
     1
102
RTVSPost2010Prop30
280
     1
102
RTVSPost2010PropOp30
 70
     1
102
RTVSPost2010Prop31
280
     0
102
RTVSPost2010PropOp31
 70
     1
102
RTVSPost2010Prop32
280
     0
102
RTVSPost2010PropOp32
 70
     1
102
RTVSPost2010Prop33
280
     0
102
RTVSPost2010PropOp33
 70
     1
102
RTVSPost2010Prop34
280
     0
102
RTVSPost2010PropOp34
 70
     1
102
RTVSPost2010Prop35
280
     0
102
RTVSPost2010PropOp35
 70
     1
102
RTVSPost2010Prop36
280
     0
102
RTVSPost2010PropOp36
 70
     1
102
RTVSPost2010Prop37
 90
       50
102
RTVSPost2010PropOp37
 70
     1
102
RTVSPost2010Prop38
140
0.0
102
RTVSPost2010PropOp38
 70
     1
102
RTVSPost2010Prop39
140
1.0
102
RTVSPost2010PropOp39
 70
     1
102
RTVSPost2010Prop40
 90
        0
102
RTVSPost2010PropOp40
 70
     1
102
RTVSPost2010Prop41ColorIndex
 90
       18
102
RTVSPost2010Prop41ColorRGB
 90
        0
102
RTVSPost2010PropOp41
 70
     1
102
RTVSPost2010Prop42
 90
       50
102
RTVSPost2010PropOp42
 70
     1
102
RTVSPost2010Prop43
 90
        3
102
RTVSPost2010PropOp43
 70
     1
102
RTVSPost2010Prop44ColorIndex
 90
        5
102
RTVSPost2010Prop44ColorRGB
 90
      255
102
RTVSPost2010PropOp44
 70
     1
102
RTVSPost2010Prop45
280
     0
102
RTVSPost2010PropOp45
 70
     1
102
RTVSPost2010Prop46
 90
       50
102
RTVSPost2010PropOp46
 70
     1
102
RTVSPost2010Prop47
 90
       50
102
RTVSPost2010PropOp47
 70
     1
102
RTVSPost2010Prop48
 90
       50
102
RTVSPost2010PropOp48
 70
     1
102
RTVSPost2010Prop49
280
     0
102
RTVSPost2010PropOp49
 70
     1
102
RTVSPost2010Prop50
 90
       50
102
RTVSPost2010PropOp50
 70
     1
102
RTVSPost2010Prop51ColorIndex
 90
      256
102
RTVSPost2010Prop51ColorRGB
 90
-16777216
102
RTVSPost2010PropOp51
 70
     0
102
RTVSPost2010Prop52
140
1.0
102
RTVSPost2010PropOp52
 70
     0
102
RTVSPost2010Prop53
 90
        2
102
RTVSPost2010PropOp53
 70
     1
102
RTVSPost2010Prop54
  1
strokes_ogs.tif
102
RTVSPost2010PropOp54
 70
     1
102
RTVSPost2010Prop55
280
     0
102
RTVSPost2010PropOp55
 70
     1
102
RTVSPost2010Prop56
140
1.0
102
RTVSPost2010PropOp56
 70
     1
102
RTVSPost2010Prop57
140
1.0
102
RTVSPost2010PropOp57
 70
     1
102
RTVSPropertyOp0
 70
     1
102
RTVSPropertyOp1
 70
     1
102
RTVSPropertyOp2
 70
     1
102
RTVSPropertyOp3
 70
     1
102
RTVSPropertyOp4
 70
     1
102
RTVSPropertyOp5
 70
     1
102
RTVSPropertyOp6
 70
     1
102
RTVSPropertyOp7
 70
     1
102
RTVSPropertyOp8
 70
     1
102
RTVSPropertyOp9
 70
     1
102
RTVSPropertyOp10
 70
     1
102
RTVSPropertyOp11
 70
     1
102
RTVSPropertyOp12
 70
     1
102
RTVSPropertyOp13
 70
     1
102
RTVSPropertyOp14
 70
     1
102
RTVSPropertyOp15
 70
     1
102
RTVSPropertyOp16
 70
     1
102
RTVSPropertyOp17
 70
     1
102
RTVSPropertyOp18
 70
     1
102
RTVSPropertyOp19
 70
     1
102
RTVSPropertyOp20
 70
     1
102
RTVSPropertyOp21
 70
     1
102
RTVSPropertyOp22
 70
     1
102
RTVSPropertyOp23
 70
     1
102
RTVSPropertyOp24
 70
     1
102
RTVSPropertyOp25
 70
     1
102
RTVSPropertyOp26
 70
     1
102
RTVSPropertyOp27
 70
     1
102
RTVSPropertyOp28
 70
     1
102
RTVSPropertyOp29
 70
     1
102
RTVSPropertyOp30
 70
     1
102
RTVSPropertyOp31
 70
     1
102
RTVSPropertyOp32
 70
     1
102
RTVSPropertyOp33
 70
     1
102
RTVSPropertyOp34
 70
     1
102
RTVSPropertyOp35
 70
     1
102
RTVSPropertyOp36
 70
     1
102
RTVSPropertyOp37
 70
     1
102
RTVSPropertyOp38
 70
     1
102
RTVSPropertyOp39
 70
     1
102
RTVSPropertyOp40
 70
     1
102
RTVSPropertyOp41
 70
     1
102
RTVSPropertyOp42
 70
     1
102
RTVSPropertyOp43
 70
     1
102
RTVSPropertyOp44
 70
     1
102
RTVSPropertyOp45
 70
     1
102
RTVSPropertyOp46
 70
     1
102
RTVSPropertyOp47
 70
     1
102
RTVSPropertyOp48
 70
     1
102
RTVSPropertyOp49
 70
     1
102
RTVSPropertyOp50
 70
     1
102
RTVSPropertyOp51
 70
     0
102
RTVSPropertyOp52
 70
     0
102
RTVSPropertyOp53
 70
     1
102
RTVSPropertyOp54
 70
     1
102
RTVSPropertyOp55
 70
     1
102
RTVSPropertyOp56
 70
     1
102
RTVSPropertyOp57
 70
     1
102
RTVSPropertyOp58
 70
     1
102
RTVSPropertyOp59
 70
     1
102
RTVSPropertyOp60
 70
     1
102
RTVSPropertyOp61
 70
     1
102
RTVSPropertyOp62
 70
     1
  0
XRECORD
  5
A566
102
{ACAD_REACTORS
330
A565
102
}
330
A565
100
AcDbXrecord
280
     1
102
RTVSPost2010Prop28
280
     0
102
RTVSPost2010PropOp28
 70
     1
102
RTVSPost2010Prop29
280
     1
102
RTVSPost2010PropOp29
 70
     1
102
RTVSPost2010Prop30
280
     1
102
RTVSPost2010PropOp30
 70
     1
102
RTVSPost2010Prop31
280
     0
102
RTVSPost2010PropOp31
 70
     1
102
RTVSPost2010Prop32
280
     0
102
RTVSPost2010PropOp32
 70
     1
102
RTVSPost2010Prop33
280
     0
102
RTVSPost2010PropOp33
 70
     1
102
RTVSPost2010Prop34
280
     0
102
RTVSPost2010PropOp34
 70
     1
102
RTVSPost2010Prop35
280
     0
102
RTVSPost2010PropOp35
 70
     1
102
RTVSPost2010Prop36
280
     0
102
RTVSPost2010PropOp36
 70
     1
102
RTVSPost2010Prop37
 90
       50
102
RTVSPost2010PropOp37
 70
     0
102
RTVSPost2010Prop38
140
0.0
102
RTVSPost2010PropOp38
 70
     0
102
RTVSPost2010Prop39
140
1.0
102
RTVSPost2010PropOp39
 70
     0
102
RTVSPost2010Prop40
 90
        0
102
RTVSPost2010PropOp40
 70
     0
102
RTVSPost2010Prop41ColorIndex
 90
       18
102
RTVSPost2010Prop41ColorRGB
 90
        0
102
RTVSPost2010PropOp41
 70
     0
102
RTVSPost2010Prop42
 90
       50
102
RTVSPost2010PropOp42
 70
     0
102
RTVSPost2010Prop43
 90
        3
102
RTVSPost2010PropOp43
 70
     0
102
RTVSPost2010Prop44ColorIndex
 90
        5
102
RTVSPost2010Prop44ColorRGB
 90
      255
102
RTVSPost2010PropOp44
 70
     0
102
RTVSPost2010Prop45
280
     0
102
RTVSPost2010PropOp45
 70
     1
102
RTVSPost2010Prop46
 90
       50
102
RTVSPost2010PropOp46
 70
     0
102
RTVSPost2010Prop47
 90
       50
102
RTVSPost2010PropOp47
 70
     0
102
RTVSPost2010Prop48
 90
       50
102
RTVSPost2010PropOp48
 70
     0
102
RTVSPost2010Prop49
280
     0
102
RTVSPost2010PropOp49
 70
     1
102
RTVSPost2010Prop50
 90
       50
102
RTVSPost2010PropOp50
 70
     0
102
RTVSPost2010Prop51ColorIndex
 90
      256
102
RTVSPost2010Prop51ColorRGB
 90
-16777216
102
RTVSPost2010PropOp51
 70
     0
102
RTVSPost2010Prop52
140
1.0
102
RTVSPost2010PropOp52
 70
     0
102
RTVSPost2010Prop53
 90
        2
102
RTVSPost2010PropOp53
 70
     0
102
RTVSPost2010Prop54
  1
strokes_ogs.tif
102
RTVSPost2010PropOp54
 70
     0
102
RTVSPost2010Prop55
280
     0
102
RTVSPost2010PropOp55
 70
     1
102
RTVSPost2010Prop56
140
1.0
102
RTVSPost2010PropOp56
 70
     0
102
RTVSPost2010Prop57
140
1.0
102
RTVSPost2010PropOp57
 70
     0
102
RTVSPropertyOp0
 70
     0
102
RTVSPropertyOp1
 70
     0
102
RTVSPropertyOp2
 70
     0
102
RTVSPropertyOp3
 70
     0
102
RTVSPropertyOp4
 70
     0
102
RTVSPropertyOp5
 70
     0
102
RTVSPropertyOp6
 70
     0
102
RTVSPropertyOp7
 70
     0
102
RTVSPropertyOp8
 70
     0
102
RTVSPropertyOp9
 70
     0
102
RTVSPropertyOp10
 70
     0
102
RTVSPropertyOp11
 70
     0
102
RTVSPropertyOp12
 70
     0
102
RTVSPropertyOp13
 70
     0
102
RTVSPropertyOp14
 70
     2
102
RTVSPropertyOp15
 70
     0
102
RTVSPropertyOp16
 70
     0
102
RTVSPropertyOp17
 70
     0
102
RTVSPropertyOp18
 70
     0
102
RTVSPropertyOp19
 70
     0
102
RTVSPropertyOp20
 70
     0
102
RTVSPropertyOp21
 70
     0
102
RTVSPropertyOp22
 70
     0
102
RTVSPropertyOp23
 70
     0
102
RTVSPropertyOp24
 70
     0
102
RTVSPropertyOp25
 70
     0
102
RTVSPropertyOp26
 70
     0
102
RTVSPropertyOp27
 70
     0
102
RTVSPropertyOp28
 70
     1
102
RTVSPropertyOp29
 70
     1
102
RTVSPropertyOp30
 70
     1
102
RTVSPropertyOp31
 70
     1
102
RTVSPropertyOp32
 70
     1
102
RTVSPropertyOp33
 70
     1
102
RTVSPropertyOp34
 70
     1
102
RTVSPropertyOp35
 70
     1
102
RTVSPropertyOp36
 70
     1
102
RTVSPropertyOp37
 70
     0
102
RTVSPropertyOp38
 70
     0
102
RTVSPropertyOp39
 70
     0
102
RTVSPropertyOp40
 70
     0
102
RTVSPropertyOp41
 70
     0
102
RTVSPropertyOp42
 70
     0
102
RTVSPropertyOp43
 70
     0
102
RTVSPropertyOp44
 70
     0
102
RTVSPropertyOp45
 70
     1
102
RTVSPropertyOp46
 70
     0
102
RTVSPropertyOp47
 70
     0
102
RTVSPropertyOp48
 70
     0
102
RTVSPropertyOp49
 70
     1
102
RTVSPropertyOp50
 70
     0
102
RTVSPropertyOp51
 70
     0
102
RTVSPropertyOp52
 70
     0
102
RTVSPropertyOp53
 70
     0
102
RTVSPropertyOp54
 70
     0
102
RTVSPropertyOp55
 70
     1
102
RTVSPropertyOp56
 70
     0
102
RTVSPropertyOp57
 70
     0
102
RTVSPropertyOp58
 70
     0
102
RTVSPropertyOp59
 70
     0
102
RTVSPropertyOp60
 70
     0
102
RTVSPropertyOp61
 70
     0
102
RTVSPropertyOp62
 70
     0
  0
XRECORD
  5
A556
102
{ACAD_REACTORS
330
A555
102
}
330
A555
100
AcDbXrecord
280
     1
102
RTVSPost2010Prop28
280
     0
102
RTVSPost2010PropOp28
 70
     1
102
RTVSPost2010Prop29
280
     1
102
RTVSPost2010PropOp29
 70
     1
102
RTVSPost2010Prop30
280
     1
102
RTVSPost2010PropOp30
 70
     1
102
RTVSPost2010Prop31
280
     0
102
RTVSPost2010PropOp31
 70
     1
102
RTVSPost2010Prop32
280
     0
102
RTVSPost2010PropOp32
 70
     1
102
RTVSPost2010Prop33
280
     0
102
RTVSPost2010PropOp33
 70
     1
102
RTVSPost2010Prop34
280
     0
102
RTVSPost2010PropOp34
 70
     1
102
RTVSPost2010Prop35
280
     0
102
RTVSPost2010PropOp35
 70
     1
102
RTVSPost2010Prop36
280
     0
102
RTVSPost2010PropOp36
 70
     1
102
RTVSPost2010Prop37
 90
       50
102
RTVSPost2010PropOp37
 70
     1
102
RTVSPost2010Prop38
140
0.0
102
RTVSPost2010PropOp38
 70
     1
102
RTVSPost2010Prop39
140
1.0
102
RTVSPost2010PropOp39
 70
     1
102
RTVSPost2010Prop40
 90
        0
102
RTVSPost2010PropOp40
 70
     1
102
RTVSPost2010Prop41ColorIndex
 90
       18
102
RTVSPost2010Prop41ColorRGB
 90
        0
102
RTVSPost2010PropOp41
 70
     1
102
RTVSPost2010Prop42
 90
       50
102
RTVSPost2010PropOp42
 70
     1
102
RTVSPost2010Prop43
 90
        3
102
RTVSPost2010PropOp43
 70
     1
102
RTVSPost2010Prop44ColorIndex
 90
        5
102
RTVSPost2010Prop44ColorRGB
 90
      255
102
RTVSPost2010PropOp44
 70
     1
102
RTVSPost2010Prop45
280
     0
102
RTVSPost2010PropOp45
 70
     1
102
RTVSPost2010Prop46
 90
       50
102
RTVSPost2010PropOp46
 70
     1
102
RTVSPost2010Prop47
 90
       50
102
RTVSPost2010PropOp47
 70
     1
102
RTVSPost2010Prop48
 90
       50
102
RTVSPost2010PropOp48
 70
     1
102
RTVSPost2010Prop49
280
     0
102
RTVSPost2010PropOp49
 70
     1
102
RTVSPost2010Prop50
 90
       50
102
RTVSPost2010PropOp50
 70
     1
102
RTVSPost2010Prop51ColorIndex
 90
      256
102
RTVSPost2010Prop51ColorRGB
 90
-16777216
102
RTVSPost2010PropOp51
 70
     0
102
RTVSPost2010Prop52
140
1.0
102
RTVSPost2010PropOp52
 70
     0
102
RTVSPost2010Prop53
 90
        2
102
RTVSPost2010PropOp53
 70
     1
102
RTVSPost2010Prop54
  1
strokes_ogs.tif
102
RTVSPost2010PropOp54
 70
     1
102
RTVSPost2010Prop55
280
     0
102
RTVSPost2010PropOp55
 70
     1
102
RTVSPost2010Prop56
140
1.0
102
RTVSPost2010PropOp56
 70
     1
102
RTVSPost2010Prop57
140
1.0
102
RTVSPost2010PropOp57
 70
     1
102
RTVSPropertyOp0
 70
     1
102
RTVSPropertyOp1
 70
     1
102
RTVSPropertyOp2
 70
     1
102
RTVSPropertyOp3
 70
     1
102
RTVSPropertyOp4
 70
     1
102
RTVSPropertyOp5
 70
     1
102
RTVSPropertyOp6
 70
     1
102
RTVSPropertyOp7
 70
     1
102
RTVSPropertyOp8
 70
     1
102
RTVSPropertyOp9
 70
     1
102
RTVSPropertyOp10
 70
     1
102
RTVSPropertyOp11
 70
     1
102
RTVSPropertyOp12
 70
     1
102
RTVSPropertyOp13
 70
     1
102
RTVSPropertyOp14
 70
     1
102
RTVSPropertyOp15
 70
     1
102
RTVSPropertyOp16
 70
     1
102
RTVSPropertyOp17
 70
     1
102
RTVSPropertyOp18
 70
     1
102
RTVSPropertyOp19
 70
     1
102
RTVSPropertyOp20
 70
     1
102
RTVSPropertyOp21
 70
     1
102
RTVSPropertyOp22
 70
     1
102
RTVSPropertyOp23
 70
     1
102
RTVSPropertyOp24
 70
     1
102
RTVSPropertyOp25
 70
     1
102
RTVSPropertyOp26
 70
     1
102
RTVSPropertyOp27
 70
     1
102
RTVSPropertyOp28
 70
     1
102
RTVSPropertyOp29
 70
     1
102
RTVSPropertyOp30
 70
     1
102
RTVSPropertyOp31
 70
     1
102
RTVSPropertyOp32
 70
     1
102
RTVSPropertyOp33
 70
     1
102
RTVSPropertyOp34
 70
     1
102
RTVSPropertyOp35
 70
     1
102
RTVSPropertyOp36
 70
     1
102
RTVSPropertyOp37
 70
     1
102
RTVSPropertyOp38
 70
     1
102
RTVSPropertyOp39
 70
     1
102
RTVSPropertyOp40
 70
     1
102
RTVSPropertyOp41
 70
     1
102
RTVSPropertyOp42
 70
     1
102
RTVSPropertyOp43
 70
     1
102
RTVSPropertyOp44
 70
     1
102
RTVSPropertyOp45
 70
     1
102
RTVSPropertyOp46
 70
     1
102
RTVSPropertyOp47
 70
     1
102
RTVSPropertyOp48
 70
     1
102
RTVSPropertyOp49
 70
     1
102
RTVSPropertyOp50
 70
     1
102
RTVSPropertyOp51
 70
     0
102
RTVSPropertyOp52
 70
     0
102
RTVSPropertyOp53
 70
     1
102
RTVSPropertyOp54
 70
     1
102
RTVSPropertyOp55
 70
     1
102
RTVSPropertyOp56
 70
     1
102
RTVSPropertyOp57
 70
     1
102
RTVSPropertyOp58
 70
     1
102
RTVSPropertyOp59
 70
     1
102
RTVSPropertyOp60
 70
     1
102
RTVSPropertyOp61
 70
     1
102
RTVSPropertyOp62
 70
     1
  0
XRECORD
  5
A568
102
{ACAD_REACTORS
330
A567
102
}
330
A567
100
AcDbXrecord
280
     1
102
RTVSPost2010Prop28
280
     0
102
RTVSPost2010PropOp28
 70
     1
102
RTVSPost2010Prop29
280
     1
102
RTVSPost2010PropOp29
 70
     1
102
RTVSPost2010Prop30
280
     1
102
RTVSPost2010PropOp30
 70
     1
102
RTVSPost2010Prop31
280
     0
102
RTVSPost2010PropOp31
 70
     1
102
RTVSPost2010Prop32
280
     0
102
RTVSPost2010PropOp32
 70
     1
102
RTVSPost2010Prop33
280
     0
102
RTVSPost2010PropOp33
 70
     1
102
RTVSPost2010Prop34
280
     0
102
RTVSPost2010PropOp34
 70
     1
102
RTVSPost2010Prop35
280
     0
102
RTVSPost2010PropOp35
 70
     1
102
RTVSPost2010Prop36
280
     0
102
RTVSPost2010PropOp36
 70
     1
102
RTVSPost2010Prop37
 90
       50
102
RTVSPost2010PropOp37
 70
     0
102
RTVSPost2010Prop38
140
0.0
102
RTVSPost2010PropOp38
 70
     0
102
RTVSPost2010Prop39
140
1.0
102
RTVSPost2010PropOp39
 70
     0
102
RTVSPost2010Prop40
 90
        0
102
RTVSPost2010PropOp40
 70
     0
102
RTVSPost2010Prop41ColorIndex
 90
       18
102
RTVSPost2010Prop41ColorRGB
 90
        0
102
RTVSPost2010PropOp41
 70
     0
102
RTVSPost2010Prop42
 90
       50
102
RTVSPost2010PropOp42
 70
     0
102
RTVSPost2010Prop43
 90
        3
102
RTVSPost2010PropOp43
 70
     0
102
RTVSPost2010Prop44ColorIndex
 90
        5
102
RTVSPost2010Prop44ColorRGB
 90
      255
102
RTVSPost2010PropOp44
 70
     0
102
RTVSPost2010Prop45
280
     0
102
RTVSPost2010PropOp45
 70
     1
102
RTVSPost2010Prop46
 90
       50
102
RTVSPost2010PropOp46
 70
     0
102
RTVSPost2010Prop47
 90
       50
102
RTVSPost2010PropOp47
 70
     0
102
RTVSPost2010Prop48
 90
       50
102
RTVSPost2010PropOp48
 70
     0
102
RTVSPost2010Prop49
280
     0
102
RTVSPost2010PropOp49
 70
     1
102
RTVSPost2010Prop50
 90
       50
102
RTVSPost2010PropOp50
 70
     0
102
RTVSPost2010Prop51ColorIndex
 90
      256
102
RTVSPost2010Prop51ColorRGB
 90
-16777216
102
RTVSPost2010PropOp51
 70
     0
102
RTVSPost2010Prop52
140
1.0
102
RTVSPost2010PropOp52
 70
     0
102
RTVSPost2010Prop53
 90
        2
102
RTVSPost2010PropOp53
 70
     0
102
RTVSPost2010Prop54
  1
strokes_ogs.tif
102
RTVSPost2010PropOp54
 70
     0
102
RTVSPost2010Prop55
280
     0
102
RTVSPost2010PropOp55
 70
     1
102
RTVSPost2010Prop56
140
1.0
102
RTVSPost2010PropOp56
 70
     0
102
RTVSPost2010Prop57
140
1.0
102
RTVSPost2010PropOp57
 70
     0
102
RTVSPropertyOp0
 70
     0
102
RTVSPropertyOp1
 70
     0
102
RTVSPropertyOp2
 70
     0
102
RTVSPropertyOp3
 70
     0
102
RTVSPropertyOp4
 70
     0
102
RTVSPropertyOp5
 70
     0
102
RTVSPropertyOp6
 70
     0
102
RTVSPropertyOp7
 70
     0
102
RTVSPropertyOp8
 70
     0
102
RTVSPropertyOp9
 70
     0
102
RTVSPropertyOp10
 70
     0
102
RTVSPropertyOp11
 70
     0
102
RTVSPropertyOp12
 70
     0
102
RTVSPropertyOp13
 70
     0
102
RTVSPropertyOp14
 70
     2
102
RTVSPropertyOp15
 70
     0
102
RTVSPropertyOp16
 70
     0
102
RTVSPropertyOp17
 70
     0
102
RTVSPropertyOp18
 70
     0
102
RTVSPropertyOp19
 70
     0
102
RTVSPropertyOp20
 70
     0
102
RTVSPropertyOp21
 70
     0
102
RTVSPropertyOp22
 70
     0
102
RTVSPropertyOp23
 70
     0
102
RTVSPropertyOp24
 70
     0
102
RTVSPropertyOp25
 70
     0
102
RTVSPropertyOp26
 70
     0
102
RTVSPropertyOp27
 70
     0
102
RTVSPropertyOp28
 70
     1
102
RTVSPropertyOp29
 70
     1
102
RTVSPropertyOp30
 70
     1
102
RTVSPropertyOp31
 70
     1
102
RTVSPropertyOp32
 70
     1
102
RTVSPropertyOp33
 70
     1
102
RTVSPropertyOp34
 70
     1
102
RTVSPropertyOp35
 70
     1
102
RTVSPropertyOp36
 70
     1
102
RTVSPropertyOp37
 70
     0
102
RTVSPropertyOp38
 70
     0
102
RTVSPropertyOp39
 70
     0
102
RTVSPropertyOp40
 70
     0
102
RTVSPropertyOp41
 70
     0
102
RTVSPropertyOp42
 70
     0
102
RTVSPropertyOp43
 70
     0
102
RTVSPropertyOp44
 70
     0
102
RTVSPropertyOp45
 70
     1
102
RTVSPropertyOp46
 70
     0
102
RTVSPropertyOp47
 70
     0
102
RTVSPropertyOp48
 70
     0
102
RTVSPropertyOp49
 70
     1
102
RTVSPropertyOp50
 70
     0
102
RTVSPropertyOp51
 70
     0
102
RTVSPropertyOp52
 70
     0
102
RTVSPropertyOp53
 70
     0
102
RTVSPropertyOp54
 70
     0
102
RTVSPropertyOp55
 70
     1
102
RTVSPropertyOp56
 70
     0
102
RTVSPropertyOp57
 70
     0
102
RTVSPropertyOp58
 70
     0
102
RTVSPropertyOp59
 70
     0
102
RTVSPropertyOp60
 70
     0
102
RTVSPropertyOp61
 70
     0
102
RTVSPropertyOp62
 70
     0
  0
XRECORD
  5
A54E
102
{ACAD_REACTORS
330
A54D
102
}
330
A54D
100
AcDbXrecord
280
     1
102
RTVSPost2010Prop28
280
     0
102
RTVSPost2010PropOp28
 70
     1
102
RTVSPost2010Prop29
280
     1
102
RTVSPost2010PropOp29
 70
     1
102
RTVSPost2010Prop30
280
     1
102
RTVSPost2010PropOp30
 70
     1
102
RTVSPost2010Prop31
280
     0
102
RTVSPost2010PropOp31
 70
     1
102
RTVSPost2010Prop32
280
     0
102
RTVSPost2010PropOp32
 70
     1
102
RTVSPost2010Prop33
280
     0
102
RTVSPost2010PropOp33
 70
     1
102
RTVSPost2010Prop34
280
     0
102
RTVSPost2010PropOp34
 70
     1
102
RTVSPost2010Prop35
280
     0
102
RTVSPost2010PropOp35
 70
     1
102
RTVSPost2010Prop36
280
     0
102
RTVSPost2010PropOp36
 70
     1
102
RTVSPost2010Prop37
 90
       50
102
RTVSPost2010PropOp37
 70
     1
102
RTVSPost2010Prop38
140
0.0
102
RTVSPost2010PropOp38
 70
     1
102
RTVSPost2010Prop39
140
1.0
102
RTVSPost2010PropOp39
 70
     1
102
RTVSPost2010Prop40
 90
        0
102
RTVSPost2010PropOp40
 70
     1
102
RTVSPost2010Prop41ColorIndex
 90
       18
102
RTVSPost2010Prop41ColorRGB
 90
        0
102
RTVSPost2010PropOp41
 70
     1
102
RTVSPost2010Prop42
 90
       50
102
RTVSPost2010PropOp42
 70
     1
102
RTVSPost2010Prop43
 90
        3
102
RTVSPost2010PropOp43
 70
     1
102
RTVSPost2010Prop44ColorIndex
 90
        5
102
RTVSPost2010Prop44ColorRGB
 90
      255
102
RTVSPost2010PropOp44
 70
     1
102
RTVSPost2010Prop45
280
     0
102
RTVSPost2010PropOp45
 70
     1
102
RTVSPost2010Prop46
 90
       50
102
RTVSPost2010PropOp46
 70
     1
102
RTVSPost2010Prop47
 90
       50
102
RTVSPost2010PropOp47
 70
     1
102
RTVSPost2010Prop48
 90
       50
102
RTVSPost2010PropOp48
 70
     1
102
RTVSPost2010Prop49
280
     0
102
RTVSPost2010PropOp49
 70
     1
102
RTVSPost2010Prop50
 90
       50
102
RTVSPost2010PropOp50
 70
     1
102
RTVSPost2010Prop51ColorIndex
 90
      256
102
RTVSPost2010Prop51ColorRGB
 90
-16777216
102
RTVSPost2010PropOp51
 70
     0
102
RTVSPost2010Prop52
140
1.0
102
RTVSPost2010PropOp52
 70
     0
102
RTVSPost2010Prop53
 90
        2
102
RTVSPost2010PropOp53
 70
     1
102
RTVSPost2010Prop54
  1
strokes_ogs.tif
102
RTVSPost2010PropOp54
 70
     1
102
RTVSPost2010Prop55
280
     0
102
RTVSPost2010PropOp55
 70
     1
102
RTVSPost2010Prop56
140
1.0
102
RTVSPost2010PropOp56
 70
     1
102
RTVSPost2010Prop57
140
1.0
102
RTVSPost2010PropOp57
 70
     1
102
RTVSPropertyOp0
 70
     1
102
RTVSPropertyOp1
 70
     1
102
RTVSPropertyOp2
 70
     1
102
RTVSPropertyOp3
 70
     1
102
RTVSPropertyOp4
 70
     1
102
RTVSPropertyOp5
 70
     1
102
RTVSPropertyOp6
 70
     1
102
RTVSPropertyOp7
 70
     1
102
RTVSPropertyOp8
 70
     1
102
RTVSPropertyOp9
 70
     1
102
RTVSPropertyOp10
 70
     1
102
RTVSPropertyOp11
 70
     1
102
RTVSPropertyOp12
 70
     1
102
RTVSPropertyOp13
 70
     1
102
RTVSPropertyOp14
 70
     1
102
RTVSPropertyOp15
 70
     1
102
RTVSPropertyOp16
 70
     1
102
RTVSPropertyOp17
 70
     1
102
RTVSPropertyOp18
 70
     1
102
RTVSPropertyOp19
 70
     1
102
RTVSPropertyOp20
 70
     1
102
RTVSPropertyOp21
 70
     1
102
RTVSPropertyOp22
 70
     1
102
RTVSPropertyOp23
 70
     1
102
RTVSPropertyOp24
 70
     1
102
RTVSPropertyOp25
 70
     1
102
RTVSPropertyOp26
 70
     1
102
RTVSPropertyOp27
 70
     1
102
RTVSPropertyOp28
 70
     1
102
RTVSPropertyOp29
 70
     1
102
RTVSPropertyOp30
 70
     1
102
RTVSPropertyOp31
 70
     1
102
RTVSPropertyOp32
 70
     1
102
RTVSPropertyOp33
 70
     1
102
RTVSPropertyOp34
 70
     1
102
RTVSPropertyOp35
 70
     1
102
RTVSPropertyOp36
 70
     1
102
RTVSPropertyOp37
 70
     1
102
RTVSPropertyOp38
 70
     1
102
RTVSPropertyOp39
 70
     1
102
RTVSPropertyOp40
 70
     1
102
RTVSPropertyOp41
 70
     1
102
RTVSPropertyOp42
 70
     1
102
RTVSPropertyOp43
 70
     1
102
RTVSPropertyOp44
 70
     1
102
RTVSPropertyOp45
 70
     1
102
RTVSPropertyOp46
 70
     1
102
RTVSPropertyOp47
 70
     1
102
RTVSPropertyOp48
 70
     1
102
RTVSPropertyOp49
 70
     1
102
RTVSPropertyOp50
 70
     1
102
RTVSPropertyOp51
 70
     0
102
RTVSPropertyOp52
 70
     0
102
RTVSPropertyOp53
 70
     1
102
RTVSPropertyOp54
 70
     1
102
RTVSPropertyOp55
 70
     1
102
RTVSPropertyOp56
 70
     1
102
RTVSPropertyOp57
 70
     1
102
RTVSPropertyOp58
 70
     1
102
RTVSPropertyOp59
 70
     1
102
RTVSPropertyOp60
 70
     1
102
RTVSPropertyOp61
 70
     1
102
RTVSPropertyOp62
 70
     1
  0
XRECORD
  5
A564
102
{ACAD_REACTORS
330
A563
102
}
330
A563
100
AcDbXrecord
280
     1
102
RTVSPost2010Prop28
280
     0
102
RTVSPost2010PropOp28
 70
     1
102
RTVSPost2010Prop29
280
     1
102
RTVSPost2010PropOp29
 70
     1
102
RTVSPost2010Prop30
280
     1
102
RTVSPost2010PropOp30
 70
     1
102
RTVSPost2010Prop31
280
     0
102
RTVSPost2010PropOp31
 70
     1
102
RTVSPost2010Prop32
280
     0
102
RTVSPost2010PropOp32
 70
     1
102
RTVSPost2010Prop33
280
     0
102
RTVSPost2010PropOp33
 70
     1
102
RTVSPost2010Prop34
280
     0
102
RTVSPost2010PropOp34
 70
     1
102
RTVSPost2010Prop35
280
     0
102
RTVSPost2010PropOp35
 70
     1
102
RTVSPost2010Prop36
280
     0
102
RTVSPost2010PropOp36
 70
     1
102
RTVSPost2010Prop37
 90
       50
102
RTVSPost2010PropOp37
 70
     1
102
RTVSPost2010Prop38
140
0.0
102
RTVSPost2010PropOp38
 70
     1
102
RTVSPost2010Prop39
140
1.0
102
RTVSPost2010PropOp39
 70
     1
102
RTVSPost2010Prop40
 90
        0
102
RTVSPost2010PropOp40
 70
     1
102
RTVSPost2010Prop41ColorIndex
 90
       18
102
RTVSPost2010Prop41ColorRGB
 90
        0
102
RTVSPost2010PropOp41
 70
     1
102
RTVSPost2010Prop42
 90
       50
102
RTVSPost2010PropOp42
 70
     1
102
RTVSPost2010Prop43
 90
        3
102
RTVSPost2010PropOp43
 70
     1
102
RTVSPost2010Prop44ColorIndex
 90
        5
102
RTVSPost2010Prop44ColorRGB
 90
      255
102
RTVSPost2010PropOp44
 70
     1
102
RTVSPost2010Prop45
280
     0
102
RTVSPost2010PropOp45
 70
     1
102
RTVSPost2010Prop46
 90
       50
102
RTVSPost2010PropOp46
 70
     1
102
RTVSPost2010Prop47
 90
       50
102
RTVSPost2010PropOp47
 70
     1
102
RTVSPost2010Prop48
 90
       50
102
RTVSPost2010PropOp48
 70
     1
102
RTVSPost2010Prop49
280
     0
102
RTVSPost2010PropOp49
 70
     1
102
RTVSPost2010Prop50
 90
       50
102
RTVSPost2010PropOp50
 70
     1
102
RTVSPost2010Prop51ColorIndex
 90
      256
102
RTVSPost2010Prop51ColorRGB
 90
-16777216
102
RTVSPost2010PropOp51
 70
     0
102
RTVSPost2010Prop52
140
1.0
102
RTVSPost2010PropOp52
 70
     0
102
RTVSPost2010Prop53
 90
        2
102
RTVSPost2010PropOp53
 70
     1
102
RTVSPost2010Prop54
  1
strokes_ogs.tif
102
RTVSPost2010PropOp54
 70
     1
102
RTVSPost2010Prop55
280
     0
102
RTVSPost2010PropOp55
 70
     1
102
RTVSPost2010Prop56
140
1.0
102
RTVSPost2010PropOp56
 70
     1
102
RTVSPost2010Prop57
140
1.0
102
RTVSPost2010PropOp57
 70
     1
102
RTVSPropertyOp0
 70
     1
102
RTVSPropertyOp1
 70
     1
102
RTVSPropertyOp2
 70
     1
102
RTVSPropertyOp3
 70
     1
102
RTVSPropertyOp4
 70
     1
102
RTVSPropertyOp5
 70
     1
102
RTVSPropertyOp6
 70
     1
102
RTVSPropertyOp7
 70
     1
102
RTVSPropertyOp8
 70
     1
102
RTVSPropertyOp9
 70
     1
102
RTVSPropertyOp10
 70
     1
102
RTVSPropertyOp11
 70
     1
102
RTVSPropertyOp12
 70
     1
102
RTVSPropertyOp13
 70
     1
102
RTVSPropertyOp14
 70
     1
102
RTVSPropertyOp15
 70
     1
102
RTVSPropertyOp16
 70
     1
102
RTVSPropertyOp17
 70
     1
102
RTVSPropertyOp18
 70
     1
102
RTVSPropertyOp19
 70
     1
102
RTVSPropertyOp20
 70
     1
102
RTVSPropertyOp21
 70
     1
102
RTVSPropertyOp22
 70
     1
102
RTVSPropertyOp23
 70
     1
102
RTVSPropertyOp24
 70
     1
102
RTVSPropertyOp25
 70
     1
102
RTVSPropertyOp26
 70
     1
102
RTVSPropertyOp27
 70
     1
102
RTVSPropertyOp28
 70
     1
102
RTVSPropertyOp29
 70
     1
102
RTVSPropertyOp30
 70
     1
102
RTVSPropertyOp31
 70
     1
102
RTVSPropertyOp32
 70
     1
102
RTVSPropertyOp33
 70
     1
102
RTVSPropertyOp34
 70
     1
102
RTVSPropertyOp35
 70
     1
102
RTVSPropertyOp36
 70
     1
102
RTVSPropertyOp37
 70
     1
102
RTVSPropertyOp38
 70
     1
102
RTVSPropertyOp39
 70
     1
102
RTVSPropertyOp40
 70
     1
102
RTVSPropertyOp41
 70
     1
102
RTVSPropertyOp42
 70
     1
102
RTVSPropertyOp43
 70
     1
102
RTVSPropertyOp44
 70
     1
102
RTVSPropertyOp45
 70
     1
102
RTVSPropertyOp46
 70
     1
102
RTVSPropertyOp47
 70
     1
102
RTVSPropertyOp48
 70
     1
102
RTVSPropertyOp49
 70
     1
102
RTVSPropertyOp50
 70
     1
102
RTVSPropertyOp51
 70
     0
102
RTVSPropertyOp52
 70
     0
102
RTVSPropertyOp53
 70
     1
102
RTVSPropertyOp54
 70
     1
102
RTVSPropertyOp55
 70
     1
102
RTVSPropertyOp56
 70
     1
102
RTVSPropertyOp57
 70
     1
102
RTVSPropertyOp58
 70
     1
102
RTVSPropertyOp59
 70
     1
102
RTVSPropertyOp60
 70
     1
102
RTVSPropertyOp61
 70
     1
102
RTVSPropertyOp62
 70
     1
  0
XRECORD
  5
A562
102
{ACAD_REACTORS
330
A561
102
}
330
A561
100
AcDbXrecord
280
     1
102
RTVSPost2010Prop28
280
     0
102
RTVSPost2010PropOp28
 70
     1
102
RTVSPost2010Prop29
280
     1
102
RTVSPost2010PropOp29
 70
     1
102
RTVSPost2010Prop30
280
     1
102
RTVSPost2010PropOp30
 70
     1
102
RTVSPost2010Prop31
280
     0
102
RTVSPost2010PropOp31
 70
     1
102
RTVSPost2010Prop32
280
     0
102
RTVSPost2010PropOp32
 70
     1
102
RTVSPost2010Prop33
280
     0
102
RTVSPost2010PropOp33
 70
     1
102
RTVSPost2010Prop34
280
     0
102
RTVSPost2010PropOp34
 70
     1
102
RTVSPost2010Prop35
280
     0
102
RTVSPost2010PropOp35
 70
     1
102
RTVSPost2010Prop36
280
     0
102
RTVSPost2010PropOp36
 70
     1
102
RTVSPost2010Prop37
 90
       50
102
RTVSPost2010PropOp37
 70
     1
102
RTVSPost2010Prop38
140
0.0
102
RTVSPost2010PropOp38
 70
     1
102
RTVSPost2010Prop39
140
1.0
102
RTVSPost2010PropOp39
 70
     1
102
RTVSPost2010Prop40
 90
        0
102
RTVSPost2010PropOp40
 70
     1
102
RTVSPost2010Prop41ColorIndex
 90
       18
102
RTVSPost2010Prop41ColorRGB
 90
        0
102
RTVSPost2010PropOp41
 70
     1
102
RTVSPost2010Prop42
 90
       50
102
RTVSPost2010PropOp42
 70
     1
102
RTVSPost2010Prop43
 90
        3
102
RTVSPost2010PropOp43
 70
     1
102
RTVSPost2010Prop44ColorIndex
 90
        5
102
RTVSPost2010Prop44ColorRGB
 90
      255
102
RTVSPost2010PropOp44
 70
     1
102
RTVSPost2010Prop45
280
     0
102
RTVSPost2010PropOp45
 70
     1
102
RTVSPost2010Prop46
 90
       50
102
RTVSPost2010PropOp46
 70
     1
102
RTVSPost2010Prop47
 90
       50
102
RTVSPost2010PropOp47
 70
     1
102
RTVSPost2010Prop48
 90
       50
102
RTVSPost2010PropOp48
 70
     1
102
RTVSPost2010Prop49
280
     0
102
RTVSPost2010PropOp49
 70
     1
102
RTVSPost2010Prop50
 90
       50
102
RTVSPost2010PropOp50
 70
     1
102
RTVSPost2010Prop51ColorIndex
 90
      256
102
RTVSPost2010Prop51ColorRGB
 90
-16777216
102
RTVSPost2010PropOp51
 70
     0
102
RTVSPost2010Prop52
140
1.0
102
RTVSPost2010PropOp52
 70
     0
102
RTVSPost2010Prop53
 90
        2
102
RTVSPost2010PropOp53
 70
     1
102
RTVSPost2010Prop54
  1
strokes_ogs.tif
102
RTVSPost2010PropOp54
 70
     1
102
RTVSPost2010Prop55
280
     0
102
RTVSPost2010PropOp55
 70
     1
102
RTVSPost2010Prop56
140
1.0
102
RTVSPost2010PropOp56
 70
     1
102
RTVSPost2010Prop57
140
1.0
102
RTVSPost2010PropOp57
 70
     1
102
RTVSPropertyOp0
 70
     1
102
RTVSPropertyOp1
 70
     1
102
RTVSPropertyOp2
 70
     1
102
RTVSPropertyOp3
 70
     1
102
RTVSPropertyOp4
 70
     1
102
RTVSPropertyOp5
 70
     1
102
RTVSPropertyOp6
 70
     1
102
RTVSPropertyOp7
 70
     1
102
RTVSPropertyOp8
 70
     1
102
RTVSPropertyOp9
 70
     1
102
RTVSPropertyOp10
 70
     1
102
RTVSPropertyOp11
 70
     1
102
RTVSPropertyOp12
 70
     1
102
RTVSPropertyOp13
 70
     1
102
RTVSPropertyOp14
 70
     1
102
RTVSPropertyOp15
 70
     1
102
RTVSPropertyOp16
 70
     1
102
RTVSPropertyOp17
 70
     1
102
RTVSPropertyOp18
 70
     1
102
RTVSPropertyOp19
 70
     1
102
RTVSPropertyOp20
 70
     1
102
RTVSPropertyOp21
 70
     1
102
RTVSPropertyOp22
 70
     1
102
RTVSPropertyOp23
 70
     1
102
RTVSPropertyOp24
 70
     1
102
RTVSPropertyOp25
 70
     1
102
RTVSPropertyOp26
 70
     1
102
RTVSPropertyOp27
 70
     1
102
RTVSPropertyOp28
 70
     1
102
RTVSPropertyOp29
 70
     1
102
RTVSPropertyOp30
 70
     1
102
RTVSPropertyOp31
 70
     1
102
RTVSPropertyOp32
 70
     1
102
RTVSPropertyOp33
 70
     1
102
RTVSPropertyOp34
 70
     1
102
RTVSPropertyOp35
 70
     1
102
RTVSPropertyOp36
 70
     1
102
RTVSPropertyOp37
 70
     1
102
RTVSPropertyOp38
 70
     1
102
RTVSPropertyOp39
 70
     1
102
RTVSPropertyOp40
 70
     1
102
RTVSPropertyOp41
 70
     1
102
RTVSPropertyOp42
 70
     1
102
RTVSPropertyOp43
 70
     1
102
RTVSPropertyOp44
 70
     1
102
RTVSPropertyOp45
 70
     1
102
RTVSPropertyOp46
 70
     1
102
RTVSPropertyOp47
 70
     1
102
RTVSPropertyOp48
 70
     1
102
RTVSPropertyOp49
 70
     1
102
RTVSPropertyOp50
 70
     1
102
RTVSPropertyOp51
 70
     0
102
RTVSPropertyOp52
 70
     0
102
RTVSPropertyOp53
 70
     1
102
RTVSPropertyOp54
 70
     1
102
RTVSPropertyOp55
 70
     1
102
RTVSPropertyOp56
 70
     1
102
RTVSPropertyOp57
 70
     1
102
RTVSPropertyOp58
 70
     1
102
RTVSPropertyOp59
 70
     1
102
RTVSPropertyOp60
 70
     1
102
RTVSPropertyOp61
 70
     1
102
RTVSPropertyOp62
 70
     1
  0
XRECORD
  5
A55C
102
{ACAD_REACTORS
330
A55B
102
}
330
A55B
100
AcDbXrecord
280
     1
102
RTVSPost2010Prop28
280
     0
102
RTVSPost2010PropOp28
 70
     1
102
RTVSPost2010Prop29
280
     1
102
RTVSPost2010PropOp29
 70
     1
102
RTVSPost2010Prop30
280
     1
102
RTVSPost2010PropOp30
 70
     1
102
RTVSPost2010Prop31
280
     0
102
RTVSPost2010PropOp31
 70
     1
102
RTVSPost2010Prop32
280
     0
102
RTVSPost2010PropOp32
 70
     1
102
RTVSPost2010Prop33
280
     0
102
RTVSPost2010PropOp33
 70
     1
102
RTVSPost2010Prop34
280
     0
102
RTVSPost2010PropOp34
 70
     1
102
RTVSPost2010Prop35
280
     0
102
RTVSPost2010PropOp35
 70
     1
102
RTVSPost2010Prop36
280
     0
102
RTVSPost2010PropOp36
 70
     1
102
RTVSPost2010Prop37
 90
       50
102
RTVSPost2010PropOp37
 70
     1
102
RTVSPost2010Prop38
140
0.0
102
RTVSPost2010PropOp38
 70
     1
102
RTVSPost2010Prop39
140
1.0
102
RTVSPost2010PropOp39
 70
     1
102
RTVSPost2010Prop40
 90
        0
102
RTVSPost2010PropOp40
 70
     1
102
RTVSPost2010Prop41ColorIndex
 90
       18
102
RTVSPost2010Prop41ColorRGB
 90
        0
102
RTVSPost2010PropOp41
 70
     1
102
RTVSPost2010Prop42
 90
       50
102
RTVSPost2010PropOp42
 70
     1
102
RTVSPost2010Prop43
 90
        3
102
RTVSPost2010PropOp43
 70
     1
102
RTVSPost2010Prop44ColorIndex
 90
        5
102
RTVSPost2010Prop44ColorRGB
 90
      255
102
RTVSPost2010PropOp44
 70
     1
102
RTVSPost2010Prop45
280
     0
102
RTVSPost2010PropOp45
 70
     1
102
RTVSPost2010Prop46
 90
       50
102
RTVSPost2010PropOp46
 70
     1
102
RTVSPost2010Prop47
 90
       50
102
RTVSPost2010PropOp47
 70
     1
102
RTVSPost2010Prop48
 90
       50
102
RTVSPost2010PropOp48
 70
     1
102
RTVSPost2010Prop49
280
     0
102
RTVSPost2010PropOp49
 70
     1
102
RTVSPost2010Prop50
 90
       50
102
RTVSPost2010PropOp50
 70
     1
102
RTVSPost2010Prop51ColorIndex
 90
      256
102
RTVSPost2010Prop51ColorRGB
 90
-16777216
102
RTVSPost2010PropOp51
 70
     0
102
RTVSPost2010Prop52
140
1.0
102
RTVSPost2010PropOp52
 70
     0
102
RTVSPost2010Prop53
 90
        2
102
RTVSPost2010PropOp53
 70
     1
102
RTVSPost2010Prop54
  1
strokes_ogs.tif
102
RTVSPost2010PropOp54
 70
     1
102
RTVSPost2010Prop55
280
     0
102
RTVSPost2010PropOp55
 70
     1
102
RTVSPost2010Prop56
140
1.0
102
RTVSPost2010PropOp56
 70
     1
102
RTVSPost2010Prop57
140
1.0
102
RTVSPost2010PropOp57
 70
     1
102
RTVSPropertyOp0
 70
     1
102
RTVSPropertyOp1
 70
     1
102
RTVSPropertyOp2
 70
     1
102
RTVSPropertyOp3
 70
     1
102
RTVSPropertyOp4
 70
     1
102
RTVSPropertyOp5
 70
     1
102
RTVSPropertyOp6
 70
     1
102
RTVSPropertyOp7
 70
     1
102
RTVSPropertyOp8
 70
     1
102
RTVSPropertyOp9
 70
     1
102
RTVSPropertyOp10
 70
     1
102
RTVSPropertyOp11
 70
     1
102
RTVSPropertyOp12
 70
     1
102
RTVSPropertyOp13
 70
     1
102
RTVSPropertyOp14
 70
     1
102
RTVSPropertyOp15
 70
     1
102
RTVSPropertyOp16
 70
     1
102
RTVSPropertyOp17
 70
     1
102
RTVSPropertyOp18
 70
     1
102
RTVSPropertyOp19
 70
     1
102
RTVSPropertyOp20
 70
     1
102
RTVSPropertyOp21
 70
     1
102
RTVSPropertyOp22
 70
     1
102
RTVSPropertyOp23
 70
     1
102
RTVSPropertyOp24
 70
     1
102
RTVSPropertyOp25
 70
     1
102
RTVSPropertyOp26
 70
     1
102
RTVSPropertyOp27
 70
     1
102
RTVSPropertyOp28
 70
     1
102
RTVSPropertyOp29
 70
     1
102
RTVSPropertyOp30
 70
     1
102
RTVSPropertyOp31
 70
     1
102
RTVSPropertyOp32
 70
     1
102
RTVSPropertyOp33
 70
     1
102
RTVSPropertyOp34
 70
     1
102
RTVSPropertyOp35
 70
     1
102
RTVSPropertyOp36
 70
     1
102
RTVSPropertyOp37
 70
     1
102
RTVSPropertyOp38
 70
     1
102
RTVSPropertyOp39
 70
     1
102
RTVSPropertyOp40
 70
     1
102
RTVSPropertyOp41
 70
     1
102
RTVSPropertyOp42
 70
     1
102
RTVSPropertyOp43
 70
     1
102
RTVSPropertyOp44
 70
     1
102
RTVSPropertyOp45
 70
     1
102
RTVSPropertyOp46
 70
     1
102
RTVSPropertyOp47
 70
     1
102
RTVSPropertyOp48
 70
     1
102
RTVSPropertyOp49
 70
     1
102
RTVSPropertyOp50
 70
     1
102
RTVSPropertyOp51
 70
     0
102
RTVSPropertyOp52
 70
     0
102
RTVSPropertyOp53
 70
     1
102
RTVSPropertyOp54
 70
     1
102
RTVSPropertyOp55
 70
     1
102
RTVSPropertyOp56
 70
     1
102
RTVSPropertyOp57
 70
     1
102
RTVSPropertyOp58
 70
     1
102
RTVSPropertyOp59
 70
     1
102
RTVSPropertyOp60
 70
     1
102
RTVSPropertyOp61
 70
     1
102
RTVSPropertyOp62
 70
     1
  0
XRECORD
  5
A55E
102
{ACAD_REACTORS
330
A55D
102
}
330
A55D
100
AcDbXrecord
280
     1
102
RTVSPost2010Prop28
280
     0
102
RTVSPost2010PropOp28
 70
     1
102
RTVSPost2010Prop29
280
     1
102
RTVSPost2010PropOp29
 70
     1
102
RTVSPost2010Prop30
280
     1
102
RTVSPost2010PropOp30
 70
     1
102
RTVSPost2010Prop31
280
     0
102
RTVSPost2010PropOp31
 70
     1
102
RTVSPost2010Prop32
280
     0
102
RTVSPost2010PropOp32
 70
     1
102
RTVSPost2010Prop33
280
     0
102
RTVSPost2010PropOp33
 70
     1
102
RTVSPost2010Prop34
280
     0
102
RTVSPost2010PropOp34
 70
     1
102
RTVSPost2010Prop35
280
     0
102
RTVSPost2010PropOp35
 70
     1
102
RTVSPost2010Prop36
280
     0
102
RTVSPost2010PropOp36
 70
     1
102
RTVSPost2010Prop37
 90
       50
102
RTVSPost2010PropOp37
 70
     1
102
RTVSPost2010Prop38
140
0.0
102
RTVSPost2010PropOp38
 70
     1
102
RTVSPost2010Prop39
140
1.0
102
RTVSPost2010PropOp39
 70
     1
102
RTVSPost2010Prop40
 90
        0
102
RTVSPost2010PropOp40
 70
     1
102
RTVSPost2010Prop41ColorIndex
 90
       18
102
RTVSPost2010Prop41ColorRGB
 90
        0
102
RTVSPost2010PropOp41
 70
     1
102
RTVSPost2010Prop42
 90
       50
102
RTVSPost2010PropOp42
 70
     1
102
RTVSPost2010Prop43
 90
        3
102
RTVSPost2010PropOp43
 70
     1
102
RTVSPost2010Prop44ColorIndex
 90
        5
102
RTVSPost2010Prop44ColorRGB
 90
      255
102
RTVSPost2010PropOp44
 70
     1
102
RTVSPost2010Prop45
280
     0
102
RTVSPost2010PropOp45
 70
     1
102
RTVSPost2010Prop46
 90
       50
102
RTVSPost2010PropOp46
 70
     1
102
RTVSPost2010Prop47
 90
       50
102
RTVSPost2010PropOp47
 70
     1
102
RTVSPost2010Prop48
 90
       50
102
RTVSPost2010PropOp48
 70
     1
102
RTVSPost2010Prop49
280
     0
102
RTVSPost2010PropOp49
 70
     1
102
RTVSPost2010Prop50
 90
       50
102
RTVSPost2010PropOp50
 70
     1
102
RTVSPost2010Prop51ColorIndex
 90
      256
102
RTVSPost2010Prop51ColorRGB
 90
-16777216
102
RTVSPost2010PropOp51
 70
     0
102
RTVSPost2010Prop52
140
1.0
102
RTVSPost2010PropOp52
 70
     0
102
RTVSPost2010Prop53
 90
        2
102
RTVSPost2010PropOp53
 70
     1
102
RTVSPost2010Prop54
  1
strokes_ogs.tif
102
RTVSPost2010PropOp54
 70
     1
102
RTVSPost2010Prop55
280
     0
102
RTVSPost2010PropOp55
 70
     1
102
RTVSPost2010Prop56
140
1.0
102
RTVSPost2010PropOp56
 70
     1
102
RTVSPost2010Prop57
140
1.0
102
RTVSPost2010PropOp57
 70
     1
102
RTVSPropertyOp0
 70
     1
102
RTVSPropertyOp1
 70
     1
102
RTVSPropertyOp2
 70
     1
102
RTVSPropertyOp3
 70
     1
102
RTVSPropertyOp4
 70
     1
102
RTVSPropertyOp5
 70
     1
102
RTVSPropertyOp6
 70
     1
102
RTVSPropertyOp7
 70
     1
102
RTVSPropertyOp8
 70
     1
102
RTVSPropertyOp9
 70
     1
102
RTVSPropertyOp10
 70
     1
102
RTVSPropertyOp11
 70
     1
102
RTVSPropertyOp12
 70
     1
102
RTVSPropertyOp13
 70
     1
102
RTVSPropertyOp14
 70
     1
102
RTVSPropertyOp15
 70
     1
102
RTVSPropertyOp16
 70
     1
102
RTVSPropertyOp17
 70
     1
102
RTVSPropertyOp18
 70
     1
102
RTVSPropertyOp19
 70
     1
102
RTVSPropertyOp20
 70
     1
102
RTVSPropertyOp21
 70
     1
102
RTVSPropertyOp22
 70
     1
102
RTVSPropertyOp23
 70
     1
102
RTVSPropertyOp24
 70
     1
102
RTVSPropertyOp25
 70
     1
102
RTVSPropertyOp26
 70
     1
102
RTVSPropertyOp27
 70
     1
102
RTVSPropertyOp28
 70
     1
102
RTVSPropertyOp29
 70
     1
102
RTVSPropertyOp30
 70
     1
102
RTVSPropertyOp31
 70
     1
102
RTVSPropertyOp32
 70
     1
102
RTVSPropertyOp33
 70
     1
102
RTVSPropertyOp34
 70
     1
102
RTVSPropertyOp35
 70
     1
102
RTVSPropertyOp36
 70
     1
102
RTVSPropertyOp37
 70
     1
102
RTVSPropertyOp38
 70
     1
102
RTVSPropertyOp39
 70
     1
102
RTVSPropertyOp40
 70
     1
102
RTVSPropertyOp41
 70
     1
102
RTVSPropertyOp42
 70
     1
102
RTVSPropertyOp43
 70
     1
102
RTVSPropertyOp44
 70
     1
102
RTVSPropertyOp45
 70
     1
102
RTVSPropertyOp46
 70
     1
102
RTVSPropertyOp47
 70
     1
102
RTVSPropertyOp48
 70
     1
102
RTVSPropertyOp49
 70
     1
102
RTVSPropertyOp50
 70
     1
102
RTVSPropertyOp51
 70
     0
102
RTVSPropertyOp52
 70
     0
102
RTVSPropertyOp53
 70
     1
102
RTVSPropertyOp54
 70
     1
102
RTVSPropertyOp55
 70
     1
102
RTVSPropertyOp56
 70
     1
102
RTVSPropertyOp57
 70
     1
102
RTVSPropertyOp58
 70
     1
102
RTVSPropertyOp59
 70
     1
102
RTVSPropertyOp60
 70
     1
102
RTVSPropertyOp61
 70
     1
102
RTVSPropertyOp62
 70
     1
  0
XRECORD
  5
A554
102
{ACAD_REACTORS
330
A553
102
}
330
A553
100
AcDbXrecord
280
     1
102
RTVSPost2010Prop28
280
     0
102
RTVSPost2010PropOp28
 70
     1
102
RTVSPost2010Prop29
280
     1
102
RTVSPost2010PropOp29
 70
     1
102
RTVSPost2010Prop30
280
     1
102
RTVSPost2010PropOp30
 70
     1
102
RTVSPost2010Prop31
280
     0
102
RTVSPost2010PropOp31
 70
     1
102
RTVSPost2010Prop32
280
     0
102
RTVSPost2010PropOp32
 70
     1
102
RTVSPost2010Prop33
280
     0
102
RTVSPost2010PropOp33
 70
     1
102
RTVSPost2010Prop34
280
     0
102
RTVSPost2010PropOp34
 70
     1
102
RTVSPost2010Prop35
280
     0
102
RTVSPost2010PropOp35
 70
     1
102
RTVSPost2010Prop36
280
     0
102
RTVSPost2010PropOp36
 70
     1
102
RTVSPost2010Prop37
 90
       50
102
RTVSPost2010PropOp37
 70
     1
102
RTVSPost2010Prop38
140
0.0
102
RTVSPost2010PropOp38
 70
     1
102
RTVSPost2010Prop39
140
1.0
102
RTVSPost2010PropOp39
 70
     1
102
RTVSPost2010Prop40
 90
        0
102
RTVSPost2010PropOp40
 70
     1
102
RTVSPost2010Prop41ColorIndex
 90
       18
102
RTVSPost2010Prop41ColorRGB
 90
        0
102
RTVSPost2010PropOp41
 70
     1
102
RTVSPost2010Prop42
 90
       50
102
RTVSPost2010PropOp42
 70
     1
102
RTVSPost2010Prop43
 90
        3
102
RTVSPost2010PropOp43
 70
     1
102
RTVSPost2010Prop44ColorIndex
 90
        5
102
RTVSPost2010Prop44ColorRGB
 90
      255
102
RTVSPost2010PropOp44
 70
     1
102
RTVSPost2010Prop45
280
     0
102
RTVSPost2010PropOp45
 70
     1
102
RTVSPost2010Prop46
 90
       50
102
RTVSPost2010PropOp46
 70
     1
102
RTVSPost2010Prop47
 90
       50
102
RTVSPost2010PropOp47
 70
     1
102
RTVSPost2010Prop48
 90
       50
102
RTVSPost2010PropOp48
 70
     1
102
RTVSPost2010Prop49
280
     0
102
RTVSPost2010PropOp49
 70
     1
102
RTVSPost2010Prop50
 90
       50
102
RTVSPost2010PropOp50
 70
     1
102
RTVSPost2010Prop51ColorIndex
 90
      256
102
RTVSPost2010Prop51ColorRGB
 90
-16777216
102
RTVSPost2010PropOp51
 70
     0
102
RTVSPost2010Prop52
140
1.0
102
RTVSPost2010PropOp52
 70
     0
102
RTVSPost2010Prop53
 90
        2
102
RTVSPost2010PropOp53
 70
     1
102
RTVSPost2010Prop54
  1
strokes_ogs.tif
102
RTVSPost2010PropOp54
 70
     1
102
RTVSPost2010Prop55
280
     0
102
RTVSPost2010PropOp55
 70
     1
102
RTVSPost2010Prop56
140
1.0
102
RTVSPost2010PropOp56
 70
     1
102
RTVSPost2010Prop57
140
1.0
102
RTVSPost2010PropOp57
 70
     1
102
RTVSPropertyOp0
 70
     1
102
RTVSPropertyOp1
 70
     1
102
RTVSPropertyOp2
 70
     1
102
RTVSPropertyOp3
 70
     1
102
RTVSPropertyOp4
 70
     1
102
RTVSPropertyOp5
 70
     1
102
RTVSPropertyOp6
 70
     1
102
RTVSPropertyOp7
 70
     1
102
RTVSPropertyOp8
 70
     1
102
RTVSPropertyOp9
 70
     1
102
RTVSPropertyOp10
 70
     1
102
RTVSPropertyOp11
 70
     1
102
RTVSPropertyOp12
 70
     1
102
RTVSPropertyOp13
 70
     1
102
RTVSPropertyOp14
 70
     1
102
RTVSPropertyOp15
 70
     1
102
RTVSPropertyOp16
 70
     1
102
RTVSPropertyOp17
 70
     1
102
RTVSPropertyOp18
 70
     1
102
RTVSPropertyOp19
 70
     1
102
RTVSPropertyOp20
 70
     1
102
RTVSPropertyOp21
 70
     1
102
RTVSPropertyOp22
 70
     1
102
RTVSPropertyOp23
 70
     1
102
RTVSPropertyOp24
 70
     1
102
RTVSPropertyOp25
 70
     1
102
RTVSPropertyOp26
 70
     1
102
RTVSPropertyOp27
 70
     1
102
RTVSPropertyOp28
 70
     1
102
RTVSPropertyOp29
 70
     1
102
RTVSPropertyOp30
 70
     1
102
RTVSPropertyOp31
 70
     1
102
RTVSPropertyOp32
 70
     1
102
RTVSPropertyOp33
 70
     1
102
RTVSPropertyOp34
 70
     1
102
RTVSPropertyOp35
 70
     1
102
RTVSPropertyOp36
 70
     1
102
RTVSPropertyOp37
 70
     1
102
RTVSPropertyOp38
 70
     1
102
RTVSPropertyOp39
 70
     1
102
RTVSPropertyOp40
 70
     1
102
RTVSPropertyOp41
 70
     1
102
RTVSPropertyOp42
 70
     1
102
RTVSPropertyOp43
 70
     1
102
RTVSPropertyOp44
 70
     1
102
RTVSPropertyOp45
 70
     1
102
RTVSPropertyOp46
 70
     1
102
RTVSPropertyOp47
 70
     1
102
RTVSPropertyOp48
 70
     1
102
RTVSPropertyOp49
 70
     1
102
RTVSPropertyOp50
 70
     1
102
RTVSPropertyOp51
 70
     0
102
RTVSPropertyOp52
 70
     0
102
RTVSPropertyOp53
 70
     1
102
RTVSPropertyOp54
 70
     1
102
RTVSPropertyOp55
 70
     1
102
RTVSPropertyOp56
 70
     1
102
RTVSPropertyOp57
 70
     1
102
RTVSPropertyOp58
 70
     1
102
RTVSPropertyOp59
 70
     1
102
RTVSPropertyOp60
 70
     1
102
RTVSPropertyOp61
 70
     1
102
RTVSPropertyOp62
 70
     1
  0
XRECORD
  5
A548
102
{ACAD_REACTORS
330
A547
102
}
330
A547
100
AcDbXrecord
280
     1
102
RTVSPost2010Prop28
280
     0
102
RTVSPost2010PropOp28
 70
     1
102
RTVSPost2010Prop29
280
     1
102
RTVSPost2010PropOp29
 70
     1
102
RTVSPost2010Prop30
280
     1
102
RTVSPost2010PropOp30
 70
     1
102
RTVSPost2010Prop31
280
     0
102
RTVSPost2010PropOp31
 70
     1
102
RTVSPost2010Prop32
280
     0
102
RTVSPost2010PropOp32
 70
     1
102
RTVSPost2010Prop33
280
     0
102
RTVSPost2010PropOp33
 70
     1
102
RTVSPost2010Prop34
280
     0
102
RTVSPost2010PropOp34
 70
     1
102
RTVSPost2010Prop35
280
     0
102
RTVSPost2010PropOp35
 70
     1
102
RTVSPost2010Prop36
280
     0
102
RTVSPost2010PropOp36
 70
     1
102
RTVSPost2010Prop37
 90
       50
102
RTVSPost2010PropOp37
 70
     1
102
RTVSPost2010Prop38
140
0.0
102
RTVSPost2010PropOp38
 70
     1
102
RTVSPost2010Prop39
140
1.0
102
RTVSPost2010PropOp39
 70
     1
102
RTVSPost2010Prop40
 90
        0
102
RTVSPost2010PropOp40
 70
     1
102
RTVSPost2010Prop41ColorIndex
 90
       18
102
RTVSPost2010Prop41ColorRGB
 90
        0
102
RTVSPost2010PropOp41
 70
     1
102
RTVSPost2010Prop42
 90
       50
102
RTVSPost2010PropOp42
 70
     1
102
RTVSPost2010Prop43
 90
        3
102
RTVSPost2010PropOp43
 70
     1
102
RTVSPost2010Prop44ColorIndex
 90
        5
102
RTVSPost2010Prop44ColorRGB
 90
      255
102
RTVSPost2010PropOp44
 70
     1
102
RTVSPost2010Prop45
280
     0
102
RTVSPost2010PropOp45
 70
     1
102
RTVSPost2010Prop46
 90
       50
102
RTVSPost2010PropOp46
 70
     1
102
RTVSPost2010Prop47
 90
       50
102
RTVSPost2010PropOp47
 70
     1
102
RTVSPost2010Prop48
 90
       50
102
RTVSPost2010PropOp48
 70
     1
102
RTVSPost2010Prop49
280
     0
102
RTVSPost2010PropOp49
 70
     1
102
RTVSPost2010Prop50
 90
       50
102
RTVSPost2010PropOp50
 70
     1
102
RTVSPost2010Prop51ColorIndex
 90
      256
102
RTVSPost2010Prop51ColorRGB
 90
-16777216
102
RTVSPost2010PropOp51
 70
     0
102
RTVSPost2010Prop52
140
1.0
102
RTVSPost2010PropOp52
 70
     0
102
RTVSPost2010Prop53
 90
        2
102
RTVSPost2010PropOp53
 70
     1
102
RTVSPost2010Prop54
  1
strokes_ogs.tif
102
RTVSPost2010PropOp54
 70
     1
102
RTVSPost2010Prop55
280
     0
102
RTVSPost2010PropOp55
 70
     1
102
RTVSPost2010Prop56
140
1.0
102
RTVSPost2010PropOp56
 70
     1
102
RTVSPost2010Prop57
140
1.0
102
RTVSPost2010PropOp57
 70
     1
102
RTVSPropertyOp0
 70
     1
102
RTVSPropertyOp1
 70
     1
102
RTVSPropertyOp2
 70
     1
102
RTVSPropertyOp3
 70
     1
102
RTVSPropertyOp4
 70
     1
102
RTVSPropertyOp5
 70
     1
102
RTVSPropertyOp6
 70
     1
102
RTVSPropertyOp7
 70
     1
102
RTVSPropertyOp8
 70
     1
102
RTVSPropertyOp9
 70
     1
102
RTVSPropertyOp10
 70
     1
102
RTVSPropertyOp11
 70
     1
102
RTVSPropertyOp12
 70
     1
102
RTVSPropertyOp13
 70
     1
102
RTVSPropertyOp14
 70
     1
102
RTVSPropertyOp15
 70
     1
102
RTVSPropertyOp16
 70
     1
102
RTVSPropertyOp17
 70
     1
102
RTVSPropertyOp18
 70
     1
102
RTVSPropertyOp19
 70
     1
102
RTVSPropertyOp20
 70
     1
102
RTVSPropertyOp21
 70
     1
102
RTVSPropertyOp22
 70
     1
102
RTVSPropertyOp23
 70
     1
102
RTVSPropertyOp24
 70
     1
102
RTVSPropertyOp25
 70
     1
102
RTVSPropertyOp26
 70
     1
102
RTVSPropertyOp27
 70
     1
102
RTVSPropertyOp28
 70
     1
102
RTVSPropertyOp29
 70
     1
102
RTVSPropertyOp30
 70
     1
102
RTVSPropertyOp31
 70
     1
102
RTVSPropertyOp32
 70
     1
102
RTVSPropertyOp33
 70
     1
102
RTVSPropertyOp34
 70
     1
102
RTVSPropertyOp35
 70
     1
102
RTVSPropertyOp36
 70
     1
102
RTVSPropertyOp37
 70
     1
102
RTVSPropertyOp38
 70
     1
102
RTVSPropertyOp39
 70
     1
102
RTVSPropertyOp40
 70
     1
102
RTVSPropertyOp41
 70
     1
102
RTVSPropertyOp42
 70
     1
102
RTVSPropertyOp43
 70
     1
102
RTVSPropertyOp44
 70
     1
102
RTVSPropertyOp45
 70
     1
102
RTVSPropertyOp46
 70
     1
102
RTVSPropertyOp47
 70
     1
102
RTVSPropertyOp48
 70
     1
102
RTVSPropertyOp49
 70
     1
102
RTVSPropertyOp50
 70
     1
102
RTVSPropertyOp51
 70
     0
102
RTVSPropertyOp52
 70
     0
102
RTVSPropertyOp53
 70
     1
102
RTVSPropertyOp54
 70
     1
102
RTVSPropertyOp55
 70
     1
102
RTVSPropertyOp56
 70
     1
102
RTVSPropertyOp57
 70
     1
102
RTVSPropertyOp58
 70
     1
102
RTVSPropertyOp59
 70
     1
102
RTVSPropertyOp60
 70
     1
102
RTVSPropertyOp61
 70
     1
102
RTVSPropertyOp62
 70
     1
  0
XRECORD
  5
A560
102
{ACAD_REACTORS
330
A55F
102
}
330
A55F
100
AcDbXrecord
280
     1
102
RTVSPost2010Prop28
280
     0
102
RTVSPost2010PropOp28
 70
     1
102
RTVSPost2010Prop29
280
     1
102
RTVSPost2010PropOp29
 70
     1
102
RTVSPost2010Prop30
280
     1
102
RTVSPost2010PropOp30
 70
     1
102
RTVSPost2010Prop31
280
     0
102
RTVSPost2010PropOp31
 70
     1
102
RTVSPost2010Prop32
280
     0
102
RTVSPost2010PropOp32
 70
     1
102
RTVSPost2010Prop33
280
     0
102
RTVSPost2010PropOp33
 70
     1
102
RTVSPost2010Prop34
280
     0
102
RTVSPost2010PropOp34
 70
     1
102
RTVSPost2010Prop35
280
     0
102
RTVSPost2010PropOp35
 70
     1
102
RTVSPost2010Prop36
280
     0
102
RTVSPost2010PropOp36
 70
     1
102
RTVSPost2010Prop37
 90
       50
102
RTVSPost2010PropOp37
 70
     1
102
RTVSPost2010Prop38
140
0.0
102
RTVSPost2010PropOp38
 70
     1
102
RTVSPost2010Prop39
140
1.0
102
RTVSPost2010PropOp39
 70
     1
102
RTVSPost2010Prop40
 90
        0
102
RTVSPost2010PropOp40
 70
     1
102
RTVSPost2010Prop41ColorIndex
 90
       18
102
RTVSPost2010Prop41ColorRGB
 90
        0
102
RTVSPost2010PropOp41
 70
     1
102
RTVSPost2010Prop42
 90
       50
102
RTVSPost2010PropOp42
 70
     1
102
RTVSPost2010Prop43
 90
        3
102
RTVSPost2010PropOp43
 70
     1
102
RTVSPost2010Prop44ColorIndex
 90
        5
102
RTVSPost2010Prop44ColorRGB
 90
      255
102
RTVSPost2010PropOp44
 70
     1
102
RTVSPost2010Prop45
280
     0
102
RTVSPost2010PropOp45
 70
     1
102
RTVSPost2010Prop46
 90
       50
102
RTVSPost2010PropOp46
 70
     1
102
RTVSPost2010Prop47
 90
       50
102
RTVSPost2010PropOp47
 70
     1
102
RTVSPost2010Prop48
 90
       50
102
RTVSPost2010PropOp48
 70
     1
102
RTVSPost2010Prop49
280
     0
102
RTVSPost2010PropOp49
 70
     1
102
RTVSPost2010Prop50
 90
       50
102
RTVSPost2010PropOp50
 70
     1
102
RTVSPost2010Prop51ColorIndex
 90
      256
102
RTVSPost2010Prop51ColorRGB
 90
-16777216
102
RTVSPost2010PropOp51
 70
     0
102
RTVSPost2010Prop52
140
1.0
102
RTVSPost2010PropOp52
 70
     0
102
RTVSPost2010Prop53
 90
        2
102
RTVSPost2010PropOp53
 70
     1
102
RTVSPost2010Prop54
  1
strokes_ogs.tif
102
RTVSPost2010PropOp54
 70
     1
102
RTVSPost2010Prop55
280
     0
102
RTVSPost2010PropOp55
 70
     1
102
RTVSPost2010Prop56
140
1.0
102
RTVSPost2010PropOp56
 70
     1
102
RTVSPost2010Prop57
140
1.0
102
RTVSPost2010PropOp57
 70
     1
102
RTVSPropertyOp0
 70
     1
102
RTVSPropertyOp1
 70
     1
102
RTVSPropertyOp2
 70
     1
102
RTVSPropertyOp3
 70
     1
102
RTVSPropertyOp4
 70
     1
102
RTVSPropertyOp5
 70
     1
102
RTVSPropertyOp6
 70
     1
102
RTVSPropertyOp7
 70
     1
102
RTVSPropertyOp8
 70
     1
102
RTVSPropertyOp9
 70
     1
102
RTVSPropertyOp10
 70
     1
102
RTVSPropertyOp11
 70
     1
102
RTVSPropertyOp12
 70
     1
102
RTVSPropertyOp13
 70
     1
102
RTVSPropertyOp14
 70
     1
102
RTVSPropertyOp15
 70
     1
102
RTVSPropertyOp16
 70
     1
102
RTVSPropertyOp17
 70
     1
102
RTVSPropertyOp18
 70
     1
102
RTVSPropertyOp19
 70
     1
102
RTVSPropertyOp20
 70
     1
102
RTVSPropertyOp21
 70
     1
102
RTVSPropertyOp22
 70
     1
102
RTVSPropertyOp23
 70
     1
102
RTVSPropertyOp24
 70
     1
102
RTVSPropertyOp25
 70
     1
102
RTVSPropertyOp26
 70
     1
102
RTVSPropertyOp27
 70
     1
102
RTVSPropertyOp28
 70
     1
102
RTVSPropertyOp29
 70
     1
102
RTVSPropertyOp30
 70
     1
102
RTVSPropertyOp31
 70
     1
102
RTVSPropertyOp32
 70
     1
102
RTVSPropertyOp33
 70
     1
102
RTVSPropertyOp34
 70
     1
102
RTVSPropertyOp35
 70
     1
102
RTVSPropertyOp36
 70
     1
102
RTVSPropertyOp37
 70
     1
102
RTVSPropertyOp38
 70
     1
102
RTVSPropertyOp39
 70
     1
102
RTVSPropertyOp40
 70
     1
102
RTVSPropertyOp41
 70
     1
102
RTVSPropertyOp42
 70
     1
102
RTVSPropertyOp43
 70
     1
102
RTVSPropertyOp44
 70
     1
102
RTVSPropertyOp45
 70
     1
102
RTVSPropertyOp46
 70
     1
102
RTVSPropertyOp47
 70
     1
102
RTVSPropertyOp48
 70
     1
102
RTVSPropertyOp49
 70
     1
102
RTVSPropertyOp50
 70
     1
102
RTVSPropertyOp51
 70
     0
102
RTVSPropertyOp52
 70
     0
102
RTVSPropertyOp53
 70
     1
102
RTVSPropertyOp54
 70
     1
102
RTVSPropertyOp55
 70
     1
102
RTVSPropertyOp56
 70
     1
102
RTVSPropertyOp57
 70
     1
102
RTVSPropertyOp58
 70
     1
102
RTVSPropertyOp59
 70
     1
102
RTVSPropertyOp60
 70
     1
102
RTVSPropertyOp61
 70
     1
102
RTVSPropertyOp62
 70
     1
  0
ENDSEC
  0
EOF
