  0
SECTION
  2
HEADER
  9
$ACADVER
  1
AC1015
  9
$ACADMAINTVER
 70
    20
  9
$DWGCODEPAGE
  3
ANSI_932
  9
$INSBASE
 10
0.0
 20
0.0
 30
0.0
  9
$EXTMIN
 10
10.0
 20
9.999999999999998
 30
0.0
  9
$EXTMAX
 10
336.778529
 20
253.802617
 30
0.0
  9
$LIMMIN
 10
0.0
 20
0.0
  9
$LIMMAX
 10
396.0
 20
273.0
  9
$ORTHOMODE
 70
     1
  9
$REGENMODE
 70
     1
  9
$FILLMODE
 70
     1
  9
$QTEXTMODE
 70
     0
  9
$MIRRTEXT
 70
     1
  9
$LTSCALE
 40
20.0
  9
$ATTMODE
 70
     1
  9
$TEXTSIZE
 40
5.0
  9
$TRACEWID
 40
1.0
  9
$TEXTSTYLE
  7
STANDARD
  9
$CLAYER
  8
0
  9
$CELTYPE
  6
BYLAYER
  9
$CECOLOR
 62
   256
  9
$CELTSCALE
 40
1.0
  9
$DISPSILH
 70
     0
  9
$DIMSCALE
 40
1.0
  9
$DIMASZ
 40
2.5
  9
$DIMEXO
 40
1.0
  9
$DIMDLI
 40
10.0
  9
$DIMRND
 40
0.0
  9
$DIMDLE
 40
0.0
  9
$DIMEXE
 40
1.0
  9
$DIMTP
 40
0.0
  9
$DIMTM
 40
0.0
  9
$DIMTXT
 40
3.2
  9
$DIMCEN
 40
0.0
  9
$DIMTSZ
 40
0.0
  9
$DIMTOL
 70
     0
  9
$DIMLIM
 70
     0
  9
$DIMTIH
 70
     0
  9
$DIMTOH
 70
     0
  9
$DIMSE1
 70
     0
  9
$DIMSE2
 70
     0
  9
$DIMTAD
 70
     3
  9
$DIMZIN
 70
     8
  9
$DIMBLK
  1

  9
$DIMASO
 70
     1
  9
$DIMSHO
 70
     1
  9
$DIMPOST
  1

  9
$DIMAPOST
  1

  9
$DIMALT
 70
     0
  9
$DIMALTD
 70
     2
  9
$DIMALTF
 40
25.4
  9
$DIMLFAC
 40
1.0
  9
$DIMTOFL
 70
     1
  9
$DIMTVP
 40
0.0
  9
$DIMTIX
 70
     0
  9
$DIMSOXD
 70
     0
  9
$DIMSAH
 70
     1
  9
$DIMBLK1
  1

  9
$DIMBLK2
  1

  9
$DIMSTYLE
  2
STANDARD
  9
$DIMCLRD
 70
     0
  9
$DIMCLRE
 70
     0
  9
$DIMCLRT
 70
     0
  9
$DIMTFAC
 40
1.0
  9
$DIMGAP
 40
1.0
  9
$DIMJUST
 70
     0
  9
$DIMSD1
 70
     0
  9
$DIMSD2
 70
     0
  9
$DIMTOLJ
 70
     1
  9
$DIMTZIN
 70
     0
  9
$DIMALTZ
 70
     0
  9
$DIMALTTZ
 70
     0
  9
$DIMUPT
 70
     0
  9
$DIMDEC
 70
     4
  9
$DIMTDEC
 70
     4
  9
$DIMALTU
 70
     2
  9
$DIMALTTD
 70
     2
  9
$DIMTXSTY
  7
STANDARD
  9
$DIMAUNIT
 70
     0
  9
$DIMADEC
 70
     0
  9
$DIMALTRND
 40
0.0
  9
$DIMAZIN
 70
     0
  9
$DIMDSEP
 70
    46
  9
$DIMATFIT
 70
     3
  9
$DIMFRAC
 70
     0
  9
$DIMLDRBLK
  1

  9
$DIMLUNIT
 70
     2
  9
$DIMLWD
 70
    -2
  9
$DIMLWE
 70
    -2
  9
$DIMTMOVE
 70
     0
  9
$LUNITS
 70
     2
  9
$LUPREC
 70
     4
  9
$SKETCHINC
 40
1.0
  9
$FILLETRAD
 40
2.0
  9
$AUNITS
 70
     0
  9
$AUPREC
 70
     2
  9
$MENU
  1
.
  9
$ELEVATION
 40
0.0
  9
$PELEVATION
 40
0.0
  9
$THICKNESS
 40
0.0
  9
$LIMCHECK
 70
     0
  9
$CHAMFERA
 40
10.0
  9
$CHAMFERB
 40
10.0
  9
$CHAMFERC
 40
0.0
  9
$CHAMFERD
 40
0.0
  9
$SKPOLY
 70
     0
  9
$TDCREATE
 40
2451301.461503820
  9
$TDUCREATE
 40
2451301.086503820
  9
$TDUPDATE
 40
2457192.690456528
  9
$TDUUPDATE
 40
2457192.315456528
  9
$TDINDWG
 40
0.0992247917
  9
$TDUSRTIMER
 40
0.0992243056
  9
$USRTIMER
 70
     1
  9
$ANGBASE
 50
0.0
  9
$ANGDIR
 70
     0
  9
$PDMODE
 70
     0
  9
$PDSIZE
 40
0.0
  9
$PLINEWID
 40
0.0
  9
$SPLFRAME
 70
     0
  9
$SPLINETYPE
 70
     6
  9
$SPLINESEGS
 70
     8
  9
$HANDSEED
  5
B133
  9
$SURFTAB1
 70
     6
  9
$SURFTAB2
 70
     6
  9
$SURFTYPE
 70
     6
  9
$SURFU
 70
     6
  9
$SURFV
 70
     6
  9
$UCSBASE
  2

  9
$UCSNAME
  2

  9
$UCSORG
 10
0.0
 20
0.0
 30
0.0
  9
$UCSXDIR
 10
1.0
 20
0.0
 30
0.0
  9
$UCSYDIR
 10
0.0
 20
1.0
 30
0.0
  9
$UCSORTHOREF
  2

  9
$UCSORTHOVIEW
 70
     0
  9
$UCSORGTOP
 10
0.0
 20
0.0
 30
0.0
  9
$UCSORGBOTTOM
 10
0.0
 20
0.0
 30
0.0
  9
$UCSORGLEFT
 10
0.0
 20
0.0
 30
0.0
  9
$UCSORGRIGHT
 10
0.0
 20
0.0
 30
0.0
  9
$UCSORGFRONT
 10
0.0
 20
0.0
 30
0.0
  9
$UCSORGBACK
 10
0.0
 20
0.0
 30
0.0
  9
$PUCSBASE
  2

  9
$PUCSNAME
  2

  9
$PUCSORG
 10
0.0
 20
0.0
 30
0.0
  9
$PUCSXDIR
 10
1.0
 20
0.0
 30
0.0
  9
$PUCSYDIR
 10
0.0
 20
1.0
 30
0.0
  9
$PUCSORTHOREF
  2

  9
$PUCSORTHOVIEW
 70
     0
  9
$PUCSORGTOP
 10
0.0
 20
0.0
 30
0.0
  9
$PUCSORGBOTTOM
 10
0.0
 20
0.0
 30
0.0
  9
$PUCSORGLEFT
 10
0.0
 20
0.0
 30
0.0
  9
$PUCSORGRIGHT
 10
0.0
 20
0.0
 30
0.0
  9
$PUCSORGFRONT
 10
0.0
 20
0.0
 30
0.0
  9
$PUCSORGBACK
 10
0.0
 20
0.0
 30
0.0
  9
$USERI1
 70
     0
  9
$USERI2
 70
     0
  9
$USERI3
 70
     0
  9
$USERI4
 70
     0
  9
$USERI5
 70
     0
  9
$USERR1
 40
0.0
  9
$USERR2
 40
0.0
  9
$USERR3
 40
0.0
  9
$USERR4
 40
0.0
  9
$USERR5
 40
0.0
  9
$WORLDVIEW
 70
     1
  9
$SHADEDGE
 70
     3
  9
$SHADEDIF
 70
    70
  9
$TILEMODE
 70
     1
  9
$MAXACTVP
 70
    16
  9
$PINSBASE
 10
0.0
 20
0.0
 30
0.0
  9
$PLIMCHECK
 70
     0
  9
$PEXTMIN
 10
1.000000000000000E+20
 20
1.000000000000000E+20
 30
1.000000000000000E+20
  9
$PEXTMAX
 10
-1.000000000000000E+20
 20
-1.000000000000000E+20
 30
-1.000000000000000E+20
  9
$PLIMMIN
 10
0.0
 20
0.0
  9
$PLIMMAX
 10
420.0
 20
297.0
  9
$UNITMODE
 70
     0
  9
$VISRETAIN
 70
     0
  9
$PLINEGEN
 70
     0
  9
$PSLTSCALE
 70
     0
  9
$TREEDEPTH
 70
  3020
  9
$CMLSTYLE
  2
STANDARD
  9
$CMLJUST
 70
     0
  9
$CMLSCALE
 40
1.0
  9
$PROXYGRAPHICS
 70
     1
  9
$MEASUREMENT
 70
     0
  9
$CELWEIGHT
370
    -1
  9
$ENDCAPS
280
     0
  9
$JOINSTYLE
280
     0
  9
$LWDISPLAY
290
     0
  9
$INSUNITS
 70
     0
  9
$HYPERLINKBASE
  1

  9
$STYLESHEET
  1

  9
$XEDIT
290
     1
  9
$CEPSNTYPE
380
     0
  9
$PSTYLEMODE
290
     1
  9
$FINGERPRINTGUID
  2
{85BBE8DE-4803-4EBE-A8E9-018BDB17B88A}
  9
$VERSIONGUID
  2
{144D783D-105F-4A32-A898-9A9228032B33}
  9
$EXTNAMES
290
     1
  9
$PSVPSCALE
 40
0.0
  9
$OLESTARTUP
290
     0
  0
ENDSEC
  0
SECTION
  2
CLASSES
  0
CLASS
  1
ACDBDICTIONARYWDFLT
  2
AcDbDictionaryWithDefault
  3
ObjectDBX Classes
 90
        0
280
     0
281
     0
  0
CLASS
  1
ACDBPLACEHOLDER
  2
AcDbPlaceHolder
  3
ObjectDBX Classes
 90
        0
280
     0
281
     0
  0
CLASS
  1
LAYOUT
  2
AcDbLayout
  3
ObjectDBX Classes
 90
        0
280
     0
281
     0
  0
CLASS
  1
DICTIONARYVAR
  2
AcDbDictionaryVar
  3
ObjectDBX Classes
 90
        0
280
     0
281
     0
  0
CLASS
  1
MATERIAL
  2
AcDbMaterial
  3
ObjectDBX Classes
 90
     1153
280
     0
281
     0
  0
CLASS
  1
VISUALSTYLE
  2
AcDbVisualStyle
  3
ObjectDBX Classes
 90
     4095
280
     0
281
     0
  0
CLASS
  1
TABLESTYLE
  2
AcDbTableStyle
  3
ObjectDBX Classes
 90
     4095
280
     0
281
     0
  0
CLASS
  1
SCALE
  2
AcDbScale
  3
ObjectDBX Classes
 90
     1153
280
     0
281
     0
  0
CLASS
  1
MLEADERSTYLE
  2
AcDbMLeaderStyle
  3
ACDB_MLEADERSTYLE_CLASS
 90
     4095
280
     0
281
     0
  0
CLASS
  1
ACDBSECTIONVIEWSTYLE
  2
AcDbSectionViewStyle
  3
ObjectDBX Classes
 90
     1025
280
     0
281
     0
  0
CLASS
  1
ACDBDETAILVIEWSTYLE
  2
AcDbDetailViewStyle
  3
ObjectDBX Classes
 90
     1025
280
     0
281
     0
  0
CLASS
  1
CELLSTYLEMAP
  2
AcDbCellStyleMap
  3
ObjectDBX Classes
 90
     1152
280
     0
281
     0
  0
ENDSEC
  0
SECTION
  2
TABLES
  0
TABLE
  2
VPORT
  5
AE7C
330
0
100
AcDbSymbolTable
 70
     1
  0
VPORT
  5
B07E
330
AE7C
100
AcDbSymbolTableRecord
100
AcDbViewportTableRecord
  2
*ACTIVE
 70
     0
 10
0.0
 20
0.0
 11
1.0
 21
1.0
 12
267.2363308218242
 22
131.8969580277299
 13
0.0
 23
0.0
 14
10.0
 24
10.0
 15
10.0
 25
10.0
 16
0.0
 26
0.0
 36
1.0
 17
0.0
 27
0.0
 37
0.0
 40
245.7403190671905
 41
2.35006605019815
 42
50.0
 43
0.0
 44
0.0
 50
0.0
 51
0.0
 71
     0
 72
   100
 73
     1
 74
     0
 75
     0
 76
     0
 77
     0
 78
     0
281
     0
 65
     1
110
0.0
120
0.0
130
0.0
111
1.0
121
0.0
131
0.0
112
0.0
122
1.0
132
0.0
 79
     0
146
0.0
1001
ACAD_NAV_VCDISPLAY
1070
     3
  0
ENDTAB
  0
TABLE
  2
LTYPE
  5
AE79
330
0
100
AcDbSymbolTable
 70
     4
  0
LTYPE
  5
AE87
330
AE79
100
AcDbSymbolTableRecord
100
AcDbLinetypeTableRecord
  2
BYBLOCK
 70
     0
  3

 72
    65
 73
     0
 40
0.0
  0
LTYPE
  5
AE88
330
AE79
100
AcDbSymbolTableRecord
100
AcDbLinetypeTableRecord
  2
BYLAYER
 70
     0
  3

 72
    65
 73
     0
 40
0.0
  0
LTYPE
  5
AE89
330
AE79
100
AcDbSymbolTableRecord
100
AcDbLinetypeTableRecord
  2
CONTINUOUS
 70
     0
  3
Solid line
 72
    65
 73
     0
 40
0.0
  0
LTYPE
  5
AE97
330
AE79
100
AcDbSymbolTableRecord
100
AcDbLinetypeTableRecord
  2
DASHED
 70
     0
  3
__ __ __ __ __ __ __ __ __ __ __ __ __ __ __ __
 72
    65
 73
     2
 40
0.75
 49
0.5
 74
     0
 49
-0.25
 74
     0
  0
LTYPE
  5
AE98
330
AE79
100
AcDbSymbolTableRecord
100
AcDbLinetypeTableRecord
  2
CENTER
 70
     0
  3
____ _ ____ _ ____ _ ____ _ ____ _ ____ _ ____ 
 72
    65
 73
     4
 40
2.0
 49
1.25
 74
     0
 49
-0.25
 74
     0
 49
0.25
 74
     0
 49
-0.25
 74
     0
  0
LTYPE
  5
AE99
330
AE79
100
AcDbSymbolTableRecord
100
AcDbLinetypeTableRecord
  2
PHANTOM
 70
     0
  3
______  __  __  ______  __  __  ______  __  __ 
 72
    65
 73
     6
 40
2.5
 49
1.25
 74
     0
 49
-0.25
 74
     0
 49
0.25
 74
     0
 49
-0.25
 74
     0
 49
0.25
 74
     0
 49
-0.25
 74
     0
  0
ENDTAB
  0
TABLE
  2
LAYER
  5
AE76
330
0
100
AcDbSymbolTable
 70
     8
  0
LAYER
  5
AE84
102
{ACAD_XDICTIONARY
360
B0D7
102
}
330
AE76
100
AcDbSymbolTableRecord
100
AcDbLayerTableRecord
  2
0
 70
     0
 62
     7
  6
CONTINUOUS
370
    -3
390
B085
  0
LAYER
  5
AE9A
102
{ACAD_XDICTIONARY
360
B0D9
102
}
330
AE76
100
AcDbSymbolTableRecord
100
AcDbLayerTableRecord
  2
4
 70
     0
 62
     1
  6
CENTER
370
    -3
390
B085
  0
LAYER
  5
AE9B
102
{ACAD_XDICTIONARY
360
B0DB
102
}
330
AE76
100
AcDbSymbolTableRecord
100
AcDbLayerTableRecord
  2
5
 70
     0
 62
     6
  6
PHANTOM
370
    -3
390
B085
  0
LAYER
  5
AE9C
102
{ACAD_XDICTIONARY
360
B0DD
102
}
330
AE76
100
AcDbSymbolTableRecord
100
AcDbLayerTableRecord
  2
1
 70
     0
 62
     7
  6
CONTINUOUS
370
    -3
390
B085
  0
LAYER
  5
AE9D
102
{ACAD_XDICTIONARY
360
B0DF
102
}
330
AE76
100
AcDbSymbolTableRecord
100
AcDbLayerTableRecord
  2
2
 70
     0
 62
     4
  6
CONTINUOUS
370
    -3
390
B085
  0
LAYER
  5
AE9E
102
{ACAD_XDICTIONARY
360
B0E1
102
}
330
AE76
100
AcDbSymbolTableRecord
100
AcDbLayerTableRecord
  2
3
 70
     0
 62
     2
  6
DASHED
370
    -3
390
B085
  0
LAYER
  5
AE9F
102
{ACAD_XDICTIONARY
360
B0E3
102
}
330
AE76
100
AcDbSymbolTableRecord
100
AcDbLayerTableRecord
  2
6
 70
     0
 62
     5
  6
CONTINUOUS
370
    -3
390
B085
  0
LAYER
  5
AEA0
102
{ACAD_XDICTIONARY
360
B0E5
102
}
330
AE76
100
AcDbSymbolTableRecord
100
AcDbLayerTableRecord
  2
7
 70
     0
 62
     3
  6
CONTINUOUS
370
    -3
390
B085
  0
ENDTAB
  0
TABLE
  2
STYLE
  5
AE77
330
0
100
AcDbSymbolTable
 70
     1
  0
STYLE
  5
AE85
330
AE77
100
AcDbSymbolTableRecord
100
AcDbTextStyleTableRecord
  2
STANDARD
 70
     0
 40
0.0
 41
1.0
 50
0.0
 71
     0
 42
5.0
  3
txt
  4

  0
ENDTAB
  0
TABLE
  2
VIEW
  5
AE7A
330
0
100
AcDbSymbolTable
 70
     0
  0
ENDTAB
  0
TABLE
  2
UCS
  5
AE7B
330
0
100
AcDbSymbolTable
 70
     0
  0
ENDTAB
  0
TABLE
  2
APPID
  5
AE7D
330
0
100
AcDbSymbolTable
 70
     3
  0
APPID
  5
AE86
330
AE7D
100
AcDbSymbolTableRecord
100
AcDbRegAppTableRecord
  2
ACAD
 70
     0
  0
APPID
  5
B0F1
330
AE7D
100
AcDbSymbolTableRecord
100
AcDbRegAppTableRecord
  2
ACAD_NAV_VCDISPLAY
 70
     0
  0
APPID
  5
B12A
330
AE7D
100
AcDbSymbolTableRecord
100
AcDbRegAppTableRecord
  2
ACAD_MLEADERVER
 70
     0
  0
ENDTAB
  0
TABLE
  2
DIMSTYLE
  5
AE7E
330
0
100
AcDbSymbolTable
 70
     1
100
AcDbDimStyleTable
 71
     0
  0
DIMSTYLE
105
AEA2
330
AE7E
100
AcDbSymbolTableRecord
100
AcDbDimStyleTableRecord
  2
STANDARD
 70
     0
 41
2.5
 42
1.0
 43
10.0
 44
1.0
 73
     0
 74
     0
 77
     3
 78
     8
140
3.2
141
0.0
147
1.0
172
     1
173
     1
284
     8
285
     8
286
     8
340
AE85
  0
ENDTAB
  0
TABLE
  2
BLOCK_RECORD
  5
AE75
330
0
100
AcDbSymbolTable
 70
     0
  0
BLOCK_RECORD
  5
AE92
102
{ACAD_XDICTIONARY
360
B05C
102
}
330
AE75
100
AcDbSymbolTableRecord
100
AcDbBlockTableRecord
  2
*MODEL_SPACE
340
B0D3
  0
BLOCK_RECORD
  5
AE8E
102
{ACAD_XDICTIONARY
360
B05A
102
}
330
AE75
100
AcDbSymbolTableRecord
100
AcDbBlockTableRecord
  2
*PAPER_SPACE
340
B0D4
  0
ENDTAB
  0
ENDSEC
  0
SECTION
  2
BLOCKS
  0
BLOCK
  5
AE93
330
AE92
100
AcDbEntity
  8
0
100
AcDbBlockBegin
  2
*MODEL_SPACE
 70
     0
 10
0.0
 20
0.0
 30
0.0
  3
*MODEL_SPACE
  1

  0
ENDBLK
  5
AE94
330
AE92
100
AcDbEntity
  8
0
100
AcDbBlockEnd
  0
BLOCK
  5
AE8F
330
AE8E
100
AcDbEntity
 67
     1
  8
0
100
AcDbBlockBegin
  2
*PAPER_SPACE
 70
     0
 10
0.0
 20
0.0
 30
0.0
  3
*PAPER_SPACE
  1

  0
ENDBLK
  5
AE90
330
AE8E
100
AcDbEntity
 67
     1
  8
0
100
AcDbBlockEnd
  0
ENDSEC
  0
SECTION
  2
ENTITIES
  0
TEXT
  5
AEAA
330
AE92
100
AcDbEntity
  8
7
  6
Continuous
100
AcDbText
 10
10.0
 20
18.0
 30
0.0
 40
3.0
  1
TYPE No.TCA-420G-N38
100
AcDbText
  0
TEXT
  5
AEAB
330
AE92
100
AcDbEntity
  8
7
  6
Continuous
100
AcDbText
 10
10.0
 20
26.0
 30
0.0
 40
3.0
  1
CODE No.9715
100
AcDbText
  0
TEXT
  5
AEAC
330
AE92
100
AcDbEntity
  8
1
  6
Continuous
100
AcDbText
 10
10.0
 20
10.0
 30
0.0
 40
1.399999999999999
  1
LAYER
100
AcDbText
  0
TEXT
  5
AEAD
330
AE92
100
AcDbEntity
  8
1
  6
Continuous
100
AcDbText
 10
17.97951099999998
 20
10.04873699999998
 30
0.0
 40
1.399999999999999
  1
1
100
AcDbText
  0
TEXT
  5
AEAE
330
AE92
100
AcDbEntity
  8
7
  6
Continuous
100
AcDbText
 10
29.97951099999999
 20
10.04873699999998
 30
0.0
 40
1.399999999999999
  1
7
100
AcDbText
  0
TEXT
  5
AEAF
330
AE92
100
AcDbEntity
  8
4
  6
CENTER
100
AcDbText
 10
23.97951099999999
 20
10.04873699999998
 30
0.0
 40
1.399999999999999
  1
4
100
AcDbText
  0
TEXT
  5
AEB0
330
AE92
100
AcDbEntity
  8
3
  6
DASHED
100
AcDbText
 10
21.979511
 20
10.04873699999998
 30
0.0
 40
1.399999999999999
  1
3
100
AcDbText
  0
TEXT
  5
AEB1
330
AE92
100
AcDbEntity
  8
2
  6
Continuous
100
AcDbText
 10
19.97951099999998
 20
10.04873699999998
 30
0.0
 40
1.399999999999999
  1
2
100
AcDbText
  0
TEXT
  5
AEB2
330
AE92
100
AcDbEntity
  8
6
  6
Continuous
100
AcDbText
 10
27.979511
 20
10.04873699999998
 30
0.0
 40
1.399999999999999
  1
6
100
AcDbText
  0
TEXT
  5
AEB3
330
AE92
100
AcDbEntity
  8
5
  6
PHANTOM
100
AcDbText
 10
25.97951099999999
 20
10.04873699999998
 30
0.0
 40
1.399999999999999
  1
5
100
AcDbText
  0
LINE
  5
AEB4
330
AE92
100
AcDbEntity
  8
1
  6
Continuous
100
AcDbLine
 10
25.77853
 20
170.752805
 30
0.0
 11
63.77853
 21
170.752805
 31
0.0
  0
LINE
  5
AEB5
330
AE92
100
AcDbEntity
  8
1
  6
Continuous
100
AcDbLine
 10
25.77853
 20
169.152805
 30
0.0
 11
63.77853
 21
169.152805
 31
0.0
  0
LINE
  5
AEB6
330
AE92
100
AcDbEntity
  8
1
  6
Continuous
100
AcDbLine
 10
25.77853
 20
170.752805
 30
0.0
 11
25.77853
 21
169.152805
 31
0.0
  0
LINE
  5
AEB7
330
AE92
100
AcDbEntity
  8
1
  6
Continuous
100
AcDbLine
 10
63.77853
 20
170.752805
 30
0.0
 11
63.77853
 21
169.152805
 31
0.0
  0
LINE
  5
AEB8
330
AE92
100
AcDbEntity
  8
4
  6
CENTER
 48
0.5
100
AcDbLine
 10
44.77852999999998
 20
174.452805
 30
0.0
 11
44.77852999999998
 21
115.7336169999999
 31
0.0
  0
LINE
  5
AEB9
330
AE92
100
AcDbEntity
  8
4
  6
CENTER
 48
0.5
100
AcDbLine
 10
28.69245499999999
 20
139.7526169999999
 30
0.0
 11
61.07575999999999
 21
139.7526169999999
 31
0.0
  0
LINE
  5
AEBA
330
AE92
100
AcDbEntity
  8
1
  6
Continuous
100
AcDbLine
 10
112.7785299999999
 20
170.7526169999999
 30
0.0
 11
158.7785299999999
 21
170.7526169999999
 31
0.0
  0
LINE
  5
AEBB
330
AE92
100
AcDbEntity
  8
1
  6
Continuous
100
AcDbLine
 10
112.7785299999999
 20
169.1526169999999
 30
0.0
 11
158.7785299999999
 21
169.1526169999999
 31
0.0
  0
LINE
  5
AEBC
330
AE92
100
AcDbEntity
  8
1
  6
Continuous
100
AcDbLine
 10
112.7785299999999
 20
170.7526169999999
 30
0.0
 11
112.7785299999999
 21
169.1526169999999
 31
0.0
  0
LINE
  5
AEBD
330
AE92
100
AcDbEntity
  8
1
  6
Continuous
100
AcDbLine
 10
158.7785299999999
 20
170.7526169999999
 30
0.0
 11
158.7785299999999
 21
169.1526169999999
 31
0.0
  0
LINE
  5
AEBE
330
AE92
100
AcDbEntity
  8
4
  6
CENTER
 48
0.5
100
AcDbLine
 10
135.7785299999999
 20
174.1026169999999
 30
0.0
 11
135.7785299999999
 21
141.7526169999999
 31
0.0
  0
LINE
  5
AEBF
330
AE92
100
AcDbEntity
  8
4
  6
CENTER
 48
0.5
100
AcDbLine
 10
117.77853
 20
174.452617
 30
0.0
 11
117.77853
 21
165.452617
 31
0.0
  0
LINE
  5
AEC0
330
AE92
100
AcDbEntity
  8
4
  6
CENTER
 48
0.5
100
AcDbLine
 10
153.7785299999999
 20
174.452617
 30
0.0
 11
153.7785299999999
 21
165.452617
 31
0.0
  0
LINE
  5
AEC1
330
AE92
100
AcDbEntity
  8
4
  6
CENTER
 48
0.5
100
AcDbLine
 10
135.7785299999999
 20
253.802617
 30
0.0
 11
135.7785299999999
 21
205.802617
 31
0.0
  0
LINE
  5
AEC2
330
AE92
100
AcDbEntity
  8
4
  6
CENTER
 48
0.5
100
AcDbLine
 10
98.77851500000002
 20
229.8026169999999
 30
0.0
 11
159.7785299999999
 21
229.8026169999999
 31
0.0
  0
LINE
  5
AEC3
330
AE92
100
AcDbEntity
  8
1
  6
Continuous
100
AcDbLine
 10
117.77853
 20
248.8026169999999
 30
0.0
 11
153.7785299999999
 21
248.8026169999999
 31
0.0
  0
LINE
  5
AEC4
330
AE92
100
AcDbEntity
  8
4
  6
CENTER
 48
0.5
100
AcDbLine
 10
121.77853
 20
243.802617
 30
0.0
 11
113.7785299999999
 21
243.802617
 31
0.0
  0
LINE
  5
AEC5
330
AE92
100
AcDbEntity
  8
4
  6
CENTER
 48
0.5
100
AcDbLine
 10
117.77853
 20
247.802617
 30
0.0
 11
117.77853
 21
239.802617
 31
0.0
  0
LINE
  5
AEC6
330
AE92
100
AcDbEntity
  8
4
  6
CENTER
 48
0.5
100
AcDbLine
 10
149.7785299999998
 20
243.802617
 30
0.0
 11
157.7785299999999
 21
243.802617
 31
0.0
  0
LINE
  5
AEC7
330
AE92
100
AcDbEntity
  8
4
  6
CENTER
 48
0.5
100
AcDbLine
 10
153.7785299999999
 20
247.802617
 30
0.0
 11
153.7785299999999
 21
239.802617
 31
0.0
  0
LINE
  5
AEC8
330
AE92
100
AcDbEntity
  8
1
  6
Continuous
100
AcDbLine
 10
117.77853
 20
210.802617
 30
0.0
 11
153.7785299999999
 21
210.802617
 31
0.0
  0
LINE
  5
AEC9
330
AE92
100
AcDbEntity
  8
4
  6
CENTER
 48
0.5
100
AcDbLine
 10
121.77853
 20
215.8026169999998
 30
0.0
 11
113.7785299999999
 21
215.8026169999998
 31
0.0
  0
LINE
  5
AECA
330
AE92
100
AcDbEntity
  8
4
  6
CENTER
 48
0.5
100
AcDbLine
 10
117.77853
 20
211.8026169999999
 30
0.0
 11
117.77853
 21
219.8026169999999
 31
0.0
  0
LINE
  5
AECB
330
AE92
100
AcDbEntity
  8
4
  6
CENTER
 48
0.5
100
AcDbLine
 10
149.7785299999998
 20
215.8026169999998
 30
0.0
 11
157.7785299999999
 21
215.8026169999998
 31
0.0
  0
LINE
  5
AECC
330
AE92
100
AcDbEntity
  8
4
  6
CENTER
 48
0.5
100
AcDbLine
 10
153.7785299999999
 20
211.8026169999999
 30
0.0
 11
153.7785299999999
 21
219.8026169999999
 31
0.0
  0
LINE
  5
AECD
330
AE92
100
AcDbEntity
  8
1
  6
Continuous
100
AcDbLine
 10
135.7785299999999
 20
234.352616
 30
0.0
 11
135.7785299999999
 21
225.2525719999999
 31
0.0
  0
LINE
  5
AECE
330
AE92
100
AcDbEntity
  8
1
  6
Continuous
100
AcDbLine
 10
131.2285379999997
 20
229.8026169999999
 30
0.0
 11
140.32856
 21
229.8026169999999
 31
0.0
  0
LINE
  5
AECF
330
AE92
100
AcDbEntity
  8
1
  6
Continuous
100
AcDbLine
 10
139.654629
 20
229.2026149999998
 30
0.0
 11
136.3785279999997
 21
229.2026149999998
 31
0.0
  0
LINE
  5
AED0
330
AE92
100
AcDbEntity
  8
1
  6
Continuous
100
AcDbLine
 10
136.378532
 20
229.202619
 30
0.0
 11
136.378532
 21
225.9265179999999
 31
0.0
  0
LINE
  5
AED1
330
AE92
100
AcDbEntity
  8
1
  6
Continuous
100
AcDbLine
 10
135.7785149999999
 20
229.802602
 30
0.0
 11
136.3785129999999
 21
229.2026029999999
 31
0.0
  0
LINE
  5
AED2
330
AE92
100
AcDbEntity
  8
1
  6
Continuous
100
AcDbLine
 10
135.778511
 20
225.2525719999999
 30
0.0
 11
137.028503
 21
224.690556
 31
0.0
  0
LINE
  5
AED3
330
AE92
100
AcDbEntity
  8
1
  6
Continuous
100
AcDbLine
 10
140.890575
 20
228.5526319999999
 30
0.0
 11
140.328556
 21
229.8026319999999
 31
0.0
  0
LINE
  5
AED4
330
AE92
100
AcDbEntity
  8
1
  6
Continuous
100
AcDbLine
 10
136.3785279999997
 20
233.678716
 30
0.0
 11
136.3785279999997
 21
230.4026149999998
 31
0.0
  0
LINE
  5
AED5
330
AE92
100
AcDbEntity
  8
1
  6
Continuous
100
AcDbLine
 10
136.3785279999997
 20
230.4026149999998
 30
0.0
 11
139.654629
 21
230.4026149999998
 31
0.0
  0
LINE
  5
AED6
330
AE92
100
AcDbEntity
  8
1
  6
Continuous
100
AcDbLine
 10
135.7785299999999
 20
229.8026169999999
 30
0.0
 11
136.3785279999997
 21
230.4026149999998
 31
0.0
  0
LINE
  5
AED7
330
AE92
100
AcDbEntity
  8
1
  6
Continuous
100
AcDbLine
 10
140.328529
 20
229.8026169999999
 30
0.0
 11
140.8905449999998
 21
231.052617
 31
0.0
  0
LINE
  5
AED8
330
AE92
100
AcDbEntity
  8
1
  6
Continuous
100
AcDbLine
 10
137.0285299999999
 20
234.914632
 30
0.0
 11
135.7785299999999
 21
234.3526119999999
 31
0.0
  0
LINE
  5
AED9
330
AE92
100
AcDbEntity
  8
1
  6
Continuous
100
AcDbLine
 10
131.902431
 20
230.402612
 30
0.0
 11
135.1785319999999
 21
230.402612
 31
0.0
  0
LINE
  5
AEDA
330
AE92
100
AcDbEntity
  8
1
  6
Continuous
100
AcDbLine
 10
135.178528
 20
230.4026149999998
 30
0.0
 11
135.178528
 21
233.678716
 31
0.0
  0
LINE
  5
AEDB
330
AE92
100
AcDbEntity
  8
1
  6
Continuous
100
AcDbLine
 10
135.7785299999999
 20
229.8026169999999
 30
0.0
 11
135.1785319999999
 21
230.4026149999998
 31
0.0
  0
LINE
  5
AEDC
330
AE92
100
AcDbEntity
  8
1
  6
Continuous
100
AcDbLine
 10
135.778507
 20
234.352593
 30
0.0
 11
134.528515
 21
234.914609
 31
0.0
  0
LINE
  5
AEDD
330
AE92
100
AcDbEntity
  8
1
  6
Continuous
100
AcDbLine
 10
130.666515
 20
231.0526209999999
 30
0.0
 11
131.228535
 21
229.8026209999999
 31
0.0
  0
LINE
  5
AEDE
330
AE92
100
AcDbEntity
  8
1
  6
Continuous
100
AcDbLine
 10
135.1785319999999
 20
225.9265179999999
 30
0.0
 11
135.1785319999999
 21
229.202619
 31
0.0
  0
LINE
  5
AEDF
330
AE92
100
AcDbEntity
  8
1
  6
Continuous
100
AcDbLine
 10
135.1785319999999
 20
229.202611
 30
0.0
 11
131.902431
 21
229.202611
 31
0.0
  0
LINE
  5
AEE0
330
AE92
100
AcDbEntity
  8
1
  6
Continuous
100
AcDbLine
 10
135.778522
 20
229.802609
 30
0.0
 11
135.178524
 21
229.202611
 31
0.0
  0
LINE
  5
AEE1
330
AE92
100
AcDbEntity
  8
1
  6
Continuous
100
AcDbLine
 10
131.228527
 20
229.802606
 30
0.0
 11
130.666511
 21
228.5526089999999
 31
0.0
  0
LINE
  5
AEE2
330
AE92
100
AcDbEntity
  8
1
  6
Continuous
100
AcDbLine
 10
134.52853
 20
224.6906099999999
 30
0.0
 11
135.7785299999999
 21
225.252629
 31
0.0
  0
LINE
  5
AEE3
330
AE92
100
AcDbEntity
  8
1
  6
Continuous
100
AcDbLine
 10
153.1582069999998
 20
168.8249899999999
 30
0.0
 11
152.9252699999998
 21
168.1907449999999
 31
0.0
  0
LINE
  5
AEE4
330
AE92
100
AcDbEntity
  8
1
  6
Continuous
100
AcDbLine
 10
150.5816949999999
 20
166.5526159999997
 30
0.0
 11
120.978527
 21
166.5526159999997
 31
0.0
  0
LINE
  5
AEE5
330
AE92
100
AcDbEntity
  8
1
  6
Continuous
100
AcDbLine
 10
118.398855
 20
168.824994
 30
0.0
 11
118.6317899999999
 21
168.1907479999999
 31
0.0
  0
LINE
  5
AEE6
330
AE92
100
AcDbEntity
  8
1
  6
Continuous
100
AcDbLine
 10
62.158207
 20
168.8251779999999
 30
0.0
 11
61.92527
 21
168.190933
 31
0.0
  0
LINE
  5
AEE7
330
AE92
100
AcDbEntity
  8
1
  6
Continuous
100
AcDbLine
 10
59.581695
 20
166.552804
 30
0.0
 11
29.97852700000001
 21
166.552804
 31
0.0
  0
LINE
  5
AEE8
330
AE92
100
AcDbEntity
  8
1
  6
Continuous
100
AcDbLine
 10
27.398853
 20
168.825183
 30
0.0
 11
27.631794
 21
168.190938
 31
0.0
  0
LINE
  5
AEE9
330
AE92
100
AcDbEntity
  8
4
  6
CENTER
 48
0.5
100
AcDbLine
 10
58.77853
 20
174.452805
 30
0.0
 11
58.77853
 21
165.452805
 31
0.0
  0
LINE
  5
AEEA
330
AE92
100
AcDbEntity
  8
4
  6
CENTER
 48
0.5
100
AcDbLine
 10
30.77853
 20
174.452805
 30
0.0
 11
30.77853
 21
165.452805
 31
0.0
  0
LINE
  5
AEEB
330
AE92
100
AcDbEntity
  8
1
  6
Continuous
100
AcDbLine
 10
122.2785299999999
 20
165.7526149999999
 30
0.0
 11
149.2785299999999
 21
165.7526149999999
 31
0.0
  0
LINE
  5
AEEC
330
AE92
100
AcDbEntity
  8
1
  6
Continuous
100
AcDbLine
 10
119.27853
 20
160.0526139999998
 30
0.0
 11
120.5349409999999
 21
160.0526139999998
 31
0.0
  0
LINE
  5
AEED
330
AE92
100
AcDbEntity
  8
1
  6
Continuous
100
AcDbLine
 10
151.7785299999999
 20
160.3116719999999
 30
0.0
 11
149.3086779999998
 21
160.1094189999997
 31
0.0
  0
LINE
  5
AEEE
330
AE92
100
AcDbEntity
  8
1
  6
Continuous
100
AcDbLine
 10
123.77853
 20
164.1448709999997
 30
0.0
 11
123.77853
 21
146.077217
 31
0.0
  0
LINE
  5
AEEF
330
AE92
100
AcDbEntity
  8
1
  6
Continuous
100
AcDbLine
 10
118.278282
 20
162.5526139999998
 30
0.0
 11
121.7187989999999
 21
164.7213689999998
 31
0.0
  0
LINE
  5
AEF0
330
AE92
100
AcDbEntity
  8
4
  6
CENTER
 48
0.5
100
AcDbLine
 10
122.778531
 20
160.7526169999998
 30
0.0
 11
122.778531
 21
115.7526169999999
 31
0.0
  0
LINE
  5
AEF1
330
AE92
100
AcDbEntity
  8
4
  6
CENTER
 48
0.5
100
AcDbLine
 10
98.77853100000001
 20
139.7526169999999
 30
0.0
 11
146.7785309999999
 21
139.7526169999999
 31
0.0
  0
LINE
  5
AEF2
330
AE92
100
AcDbEntity
  8
1
  6
Continuous
100
AcDbLine
 10
31.27852999999999
 20
165.7528029999998
 30
0.0
 11
58.27853000000001
 21
165.7528029999998
 31
0.0
  0
LINE
  5
AEF3
330
AE92
100
AcDbEntity
  8
1
  6
Continuous
100
AcDbLine
 10
28.77852999999999
 20
163.252803
 30
0.0
 11
28.77852999999999
 21
146.1247789999999
 31
0.0
  0
LINE
  5
AEF4
330
AE92
100
AcDbEntity
  8
1
  6
Continuous
100
AcDbLine
 10
38.52852999999999
 20
163.024482
 30
0.0
 11
38.52852999999999
 21
159.852802
 31
0.0
  0
LINE
  5
AEF5
330
AE92
100
AcDbEntity
  8
1
  6
Continuous
100
AcDbLine
 10
60.77853000000001
 20
163.252803
 30
0.0
 11
60.77853000000001
 21
146.1247789999999
 31
0.0
  0
LINE
  5
AEF6
330
AE92
100
AcDbEntity
  8
1
  6
Continuous
100
AcDbLine
 10
51.02852999999999
 20
163.024482
 30
0.0
 11
51.02852999999999
 21
159.852802
 31
0.0
  0
LINE
  5
AEF7
330
AE92
100
AcDbEntity
  8
1
  6
Continuous
100
AcDbLine
 10
34.27852999999998
 20
160.373477
 30
0.0
 11
34.27852999999998
 21
133.729805
 31
0.0
  0
LINE
  5
AEF8
330
AE92
100
AcDbEntity
  8
1
  6
Continuous
100
AcDbLine
 10
55.27853
 20
160.373477
 30
0.0
 11
55.27853
 21
133.729805
 31
0.0
  0
LINE
  5
AEF9
330
AE92
100
AcDbEntity
  8
1
  6
Continuous
100
AcDbLine
 10
56.878528
 20
133.729805
 30
0.0
 11
55.27853
 21
133.729805
 31
0.0
  0
LINE
  5
AEFA
330
AE92
100
AcDbEntity
  8
1
  6
Continuous
100
AcDbLine
 10
34.27852999999998
 20
133.729805
 30
0.0
 11
32.67853199999999
 21
133.729805
 31
0.0
  0
LINE
  5
AEFB
330
AE92
100
AcDbEntity
  8
1
  6
Continuous
100
AcDbLine
 10
56.878528
 20
161.309579
 30
0.0
 11
56.878528
 21
133.729805
 31
0.0
  0
LINE
  5
AEFC
330
AE92
100
AcDbEntity
  8
1
  6
Continuous
100
AcDbLine
 10
32.67853199999999
 20
161.309591
 30
0.0
 11
32.67853199999999
 21
133.729805
 31
0.0
  0
LINE
  5
AEFD
330
AE92
100
AcDbEntity
  8
1
  6
Continuous
100
AcDbLine
 10
56.878528
 20
143.7526169999999
 30
0.0
 11
57.478527
 21
143.7526169999999
 31
0.0
  0
LINE
  5
AEFE
330
AE92
100
AcDbEntity
  8
1
  6
Continuous
100
AcDbLine
 10
56.878528
 20
135.7526169999997
 30
0.0
 11
57.478527
 21
135.7526169999997
 31
0.0
  0
LINE
  5
AEFF
330
AE92
100
AcDbEntity
  8
1
  6
Continuous
100
AcDbLine
 10
59.178528
 20
140.852608
 30
0.0
 11
59.178528
 21
138.6526259999999
 31
0.0
  0
LINE
  5
AF00
330
AE92
100
AcDbEntity
  8
1
  6
Continuous
100
AcDbLine
 10
57.478527
 20
143.7526169999999
 30
0.0
 11
57.478527
 21
135.7526169999997
 31
0.0
  0
LINE
  5
AF01
330
AE92
100
AcDbEntity
  8
1
  6
Continuous
100
AcDbLine
 10
30.47853499999999
 20
142.5728189999998
 30
0.0
 11
30.47853499999999
 21
136.9324149999999
 31
0.0
  0
LINE
  5
AF02
330
AE92
100
AcDbEntity
  8
1
  6
Continuous
100
AcDbLine
 10
31.278538
 20
143.552612
 30
0.0
 11
31.278538
 21
135.952618
 31
0.0
  0
LINE
  5
AF03
330
AE92
100
AcDbEntity
  8
1
  6
Continuous
100
AcDbLine
 10
31.278545
 20
135.952621
 30
0.0
 11
32.678539
 21
136.729809
 31
0.0
  0
LINE
  5
AF04
330
AE92
100
AcDbEntity
  8
1
  6
Continuous
100
AcDbLine
 10
32.67853199999999
 20
142.729801
 30
0.0
 11
31.278538
 21
143.552612
 31
0.0
  0
ARC
  5
AF05
330
AE92
100
AcDbEntity
  8
1
  6
Continuous
100
AcDbCircle
 10
181.43716
 20
229.8026169999999
 30
0.0
 40
26.0
100
AcDbArc
 50
153.1528
 51
206.84718
  0
CIRCLE
  5
AF06
330
AE92
100
AcDbEntity
  8
1
  6
Continuous
100
AcDbCircle
 10
135.7785299999999
 20
229.8026169999999
 30
0.0
 40
15.7
  0
CIRCLE
  5
AF07
330
AE92
100
AcDbEntity
  8
1
  6
Continuous
100
AcDbCircle
 10
135.7785299999999
 20
229.8026169999999
 30
0.0
 40
6.7
  0
CIRCLE
  5
AF08
330
AE92
100
AcDbEntity
  8
1
  6
Continuous
100
AcDbCircle
 10
135.7785299999999
 20
229.8026169999999
 30
0.0
 40
13.9
  0
ARC
  5
AF09
330
AE92
100
AcDbEntity
  8
1
  6
Continuous
100
AcDbCircle
 10
117.77853
 20
243.802617
 30
0.0
 40
5.0
100
AcDbArc
 50
89.99998199999996
 51
206.8471699999999
  0
CIRCLE
  5
AF0A
330
AE92
100
AcDbEntity
  8
1
  6
Continuous
100
AcDbCircle
 10
117.77853
 20
243.802617
 30
0.0
 40
2.649999999999999
  0
ARC
  5
AF0B
330
AE92
100
AcDbEntity
  8
1
  6
Continuous
100
AcDbCircle
 10
153.7785299999999
 20
243.802617
 30
0.0
 40
5.0
100
AcDbArc
 50
333.1527899999998
 51
89.99998199999996
  0
CIRCLE
  5
AF0C
330
AE92
100
AcDbEntity
  8
1
  6
Continuous
100
AcDbCircle
 10
153.7785299999999
 20
243.802617
 30
0.0
 40
2.649999999999999
  0
ARC
  5
AF0D
330
AE92
100
AcDbEntity
  8
1
  6
Continuous
100
AcDbCircle
 10
117.77853
 20
215.8026169999998
 30
0.0
 40
5.0
100
AcDbArc
 50
153.1528099999999
 51
269.99995
  0
CIRCLE
  5
AF0E
330
AE92
100
AcDbEntity
  8
1
  6
Continuous
100
AcDbCircle
 10
117.77853
 20
215.8026169999998
 30
0.0
 40
2.649999999999999
  0
ARC
  5
AF0F
330
AE92
100
AcDbEntity
  8
1
  6
Continuous
100
AcDbCircle
 10
153.7785299999999
 20
215.8026169999998
 30
0.0
 40
5.0
100
AcDbArc
 50
269.9999599999998
 51
26.847209
  0
CIRCLE
  5
AF10
330
AE92
100
AcDbEntity
  8
1
  6
Continuous
100
AcDbCircle
 10
153.7785299999999
 20
215.8026169999998
 30
0.0
 40
2.649999999999999
  0
ARC
  5
AF11
330
AE92
100
AcDbEntity
  8
1
  6
Continuous
100
AcDbCircle
 10
90.119895
 20
229.8026169999999
 30
0.0
 40
26.0
100
AcDbArc
 50
333.1527899999998
 51
26.847215
  0
ARC
  5
AF12
330
AE92
100
AcDbEntity
  8
1
  6
Continuous
100
AcDbCircle
 10
135.7785299999999
 20
229.8026169999999
 30
0.0
 40
5.299999999999998
100
AcDbArc
 50
14.255605
 51
75.74442799999999
  0
ARC
  5
AF13
330
AE92
100
AcDbEntity
  8
1
  6
Continuous
100
AcDbCircle
 10
131.902431
 20
231.902615
 30
0.0
 40
1.5
100
AcDbArc
 50
214.51823
 51
269.9999599999998
  0
ARC
  5
AF14
330
AE92
100
AcDbEntity
  8
1
  6
Continuous
100
AcDbCircle
 10
131.902431
 20
227.7026189999999
 30
0.0
 40
1.5
100
AcDbArc
 50
90.00000900000001
 51
145.48158
  0
ARC
  5
AF15
330
AE92
100
AcDbEntity
  8
1
  6
Continuous
100
AcDbCircle
 10
133.6785319999999
 20
225.9265179999999
 30
0.0
 40
1.5
100
AcDbArc
 50
304.5182199999998
 51
359.9999599999999
  0
ARC
  5
AF16
330
AE92
100
AcDbEntity
  8
1
  6
Continuous
100
AcDbCircle
 10
139.654629
 20
227.7026189999999
 30
0.0
 40
1.5
100
AcDbArc
 50
34.518219
 51
89.999955
  0
ARC
  5
AF17
330
AE92
100
AcDbEntity
  8
1
  6
Continuous
100
AcDbCircle
 10
137.878528
 20
225.9265179999999
 30
0.0
 40
1.5
100
AcDbArc
 50
180.00001
 51
235.4815899999999
  0
ARC
  5
AF18
330
AE92
100
AcDbEntity
  8
1
  6
Continuous
100
AcDbCircle
 10
139.654629
 20
231.902615
 30
0.0
 40
1.5
100
AcDbArc
 50
270.00002
 51
325.48159
  0
ARC
  5
AF19
330
AE92
100
AcDbEntity
  8
1
  6
Continuous
100
AcDbCircle
 10
137.878528
 20
233.678716
 30
0.0
 40
1.5
100
AcDbArc
 50
124.51821
 51
179.9999599999999
  0
ARC
  5
AF1A
330
AE92
100
AcDbEntity
  8
1
  6
Continuous
100
AcDbCircle
 10
133.6785319999999
 20
233.678716
 30
0.0
 40
1.5
100
AcDbArc
 50
0.000014
 51
55.481586
  0
ARC
  5
AF1B
330
AE92
100
AcDbEntity
  8
1
  6
Continuous
100
AcDbCircle
 10
135.7785299999999
 20
229.8026169999999
 30
0.0
 40
5.299999999999998
100
AcDbArc
 50
104.25605
 51
165.74435
  0
ARC
  5
AF1C
330
AE92
100
AcDbEntity
  8
1
  6
Continuous
100
AcDbCircle
 10
135.7785299999999
 20
229.8026169999999
 30
0.0
 40
5.299999999999998
100
AcDbArc
 50
194.25556
 51
255.7441999999999
  0
ARC
  5
AF1D
330
AE92
100
AcDbEntity
  8
1
  6
Continuous
100
AcDbCircle
 10
135.7785299999999
 20
229.8026169999999
 30
0.0
 40
5.299999999999998
100
AcDbArc
 50
284.2548299999999
 51
345.74491
  0
ARC
  5
AF1E
330
AE92
100
AcDbEntity
  8
1
  6
Continuous
100
AcDbCircle
 10
150.5785329999999
 20
169.0526139999998
 30
0.0
 40
2.5
100
AcDbArc
 50
270.00002
 51
339.83362
  0
ARC
  5
AF1F
330
AE92
100
AcDbEntity
  8
1
  6
Continuous
100
AcDbCircle
 10
153.627552
 20
168.6526159999999
 30
0.0
 40
0.5
100
AcDbArc
 50
90.000023
 51
159.83356
  0
ARC
  5
AF20
330
AE92
100
AcDbEntity
  8
1
  6
Continuous
100
AcDbCircle
 10
120.9785289999999
 20
169.0526179999999
 30
0.0
 40
2.5
100
AcDbArc
 50
200.1663699999999
 51
270.00002
  0
ARC
  5
AF21
330
AE92
100
AcDbEntity
  8
1
  6
Continuous
100
AcDbCircle
 10
117.929506
 20
168.6526209999998
 30
0.0
 40
0.5
100
AcDbArc
 50
20.16642
 51
89.99996199999998
  0
ARC
  5
AF22
330
AE92
100
AcDbEntity
  8
1
  6
Continuous
100
AcDbCircle
 10
135.7785299999999
 20
166.5341149999999
 30
0.0
 40
2.381499999999999
100
AcDbArc
 50
340.8432
 51
0.0
  0
ARC
  5
AF23
330
AE92
100
AcDbEntity
  8
1
  6
Continuous
100
AcDbCircle
 10
140.4197689999998
 20
166.5341149999999
 30
0.0
 40
2.381499999999999
100
AcDbArc
 50
192.9830899999998
 51
199.15678
  0
ARC
  5
AF24
330
AE92
100
AcDbEntity
  8
1
  6
Continuous
100
AcDbCircle
 10
144.123917
 20
166.5341149999999
 30
0.0
 40
2.381499999999999
100
AcDbArc
 50
340.8432
 51
0.0
  0
ARC
  5
AF25
330
AE92
100
AcDbEntity
  8
1
  6
Continuous
100
AcDbCircle
 10
146.14307
 20
166.5341149999999
 30
0.0
 40
2.381499999999999
100
AcDbArc
 50
340.8432
 51
0.0
  0
ARC
  5
AF26
330
AE92
100
AcDbEntity
  8
1
  6
Continuous
100
AcDbCircle
 10
135.7785299999999
 20
166.5341149999999
 30
0.0
 40
2.381499999999999
100
AcDbArc
 50
180.0000399999998
 51
199.15678
  0
ARC
  5
AF27
330
AE92
100
AcDbEntity
  8
1
  6
Continuous
100
AcDbCircle
 10
131.137291
 20
166.5341149999999
 30
0.0
 40
2.381499999999999
100
AcDbArc
 50
180.0000399999998
 51
199.15678
  0
ARC
  5
AF28
330
AE92
100
AcDbEntity
  8
1
  6
Continuous
100
AcDbCircle
 10
127.4331429999999
 20
166.5341149999999
 30
0.0
 40
2.381499999999999
100
AcDbArc
 50
180.0000399999998
 51
199.15678
  0
ARC
  5
AF29
330
AE92
100
AcDbEntity
  8
1
  6
Continuous
100
AcDbCircle
 10
125.4139919999998
 20
166.5341149999999
 30
0.0
 40
2.381499999999999
100
AcDbArc
 50
180.0000399999998
 51
199.15678
  0
ARC
  5
AF2A
330
AE92
100
AcDbEntity
  8
1
  6
Continuous
100
AcDbCircle
 10
59.578533
 20
169.052802
 30
0.0
 40
2.5
100
AcDbArc
 50
270.00002
 51
339.83362
  0
ARC
  5
AF2B
330
AE92
100
AcDbEntity
  8
1
  6
Continuous
100
AcDbCircle
 10
62.627552
 20
168.6528039999998
 30
0.0
 40
0.5
100
AcDbArc
 50
90.000023
 51
159.83356
  0
ARC
  5
AF2C
330
AE92
100
AcDbEntity
  8
1
  6
Continuous
100
AcDbCircle
 10
29.97852700000001
 20
169.052806
 30
0.0
 40
2.5
100
AcDbArc
 50
200.1663699999999
 51
270.00002
  0
ARC
  5
AF2D
330
AE92
100
AcDbEntity
  8
1
  6
Continuous
100
AcDbCircle
 10
26.929508
 20
168.6528089999999
 30
0.0
 40
0.5
100
AcDbArc
 50
20.16642
 51
89.99996199999998
  0
ARC
  5
AF2E
330
AE92
100
AcDbEntity
  8
1
  6
Continuous
100
AcDbCircle
 10
44.77852999999998
 20
166.534303
 30
0.0
 40
2.381499999999999
100
AcDbArc
 50
340.8431699999998
 51
0.0
  0
ARC
  5
AF2F
330
AE92
100
AcDbEntity
  8
1
  6
Continuous
100
AcDbCircle
 10
49.419773
 20
166.534303
 30
0.0
 40
2.381499999999999
100
AcDbArc
 50
192.9830899999998
 51
199.15675
  0
ARC
  5
AF30
330
AE92
100
AcDbEntity
  8
1
  6
Continuous
100
AcDbCircle
 10
53.123917
 20
166.534303
 30
0.0
 40
2.381499999999999
100
AcDbArc
 50
340.8432
 51
0.0
  0
ARC
  5
AF31
330
AE92
100
AcDbEntity
  8
1
  6
Continuous
100
AcDbCircle
 10
55.14306999999998
 20
166.534303
 30
0.0
 40
2.381499999999999
100
AcDbArc
 50
340.8432
 51
0.0
  0
ARC
  5
AF32
330
AE92
100
AcDbEntity
  8
1
  6
Continuous
100
AcDbCircle
 10
44.77852999999998
 20
166.534303
 30
0.0
 40
2.381499999999999
100
AcDbArc
 50
180.0000399999998
 51
199.1568
  0
ARC
  5
AF33
330
AE92
100
AcDbEntity
  8
1
  6
Continuous
100
AcDbCircle
 10
40.137287
 20
166.534303
 30
0.0
 40
2.381499999999999
100
AcDbArc
 50
180.0000399999998
 51
199.15675
  0
ARC
  5
AF34
330
AE92
100
AcDbEntity
  8
1
  6
Continuous
100
AcDbCircle
 10
36.43314699999999
 20
166.534303
 30
0.0
 40
2.381499999999999
100
AcDbArc
 50
180.0000399999998
 51
199.1568
  0
ARC
  5
AF35
330
AE92
100
AcDbEntity
  8
1
  6
Continuous
100
AcDbCircle
 10
34.41399
 20
166.534303
 30
0.0
 40
2.381499999999999
100
AcDbArc
 50
180.0000399999998
 51
199.15675
  0
ARC
  5
AF36
330
AE92
100
AcDbEntity
  8
1
  6
Continuous
100
AcDbCircle
 10
140.4197689999998
 20
166.5341149999999
 30
0.0
 40
2.381499999999999
100
AcDbArc
 50
340.8432
 51
0.445121
  0
ARC
  5
AF37
330
AE92
100
AcDbEntity
  8
1
  6
Continuous
100
AcDbCircle
 10
131.137291
 20
166.5341149999999
 30
0.0
 40
2.381499999999999
100
AcDbArc
 50
340.8432
 51
347.0169399999999
  0
ARC
  5
AF38
330
AE92
100
AcDbEntity
  8
1
  6
Continuous
100
AcDbCircle
 10
40.137287
 20
166.534303
 30
0.0
 40
2.381499999999999
100
AcDbArc
 50
340.84323
 51
347.0169399999999
  0
ARC
  5
AF39
330
AE92
100
AcDbEntity
  8
1
  6
Continuous
100
AcDbCircle
 10
49.419773
 20
166.534303
 30
0.0
 40
2.381499999999999
100
AcDbArc
 50
340.8432
 51
0.0
  0
ARC
  5
AF3A
330
AE92
100
AcDbEntity
  8
1
  6
Continuous
100
AcDbCircle
 10
122.57853
 20
139.7526169999999
 30
0.0
 40
6.0
100
AcDbArc
 50
168.647377
 51
319.6098769999998
  0
ARC
  5
AF3B
330
AE92
100
AcDbEntity
  8
1
  6
Continuous
100
AcDbCircle
 10
135.550385
 20
153.6124969999999
 30
0.0
 40
12.0
100
AcDbArc
 50
221.26059
 51
254.7659769999999
  0
ARC
  5
AF3C
330
AE92
100
AcDbEntity
  8
1
  6
Continuous
100
AcDbCircle
 10
123.249172
 20
163.0913639999999
 30
0.0
 40
5.0
100
AcDbArc
 50
186.1856099999999
 51
217.4269699999999
  0
ARC
  5
AF3D
330
AE92
100
AcDbEntity
  8
1
  6
Continuous
100
AcDbCircle
 10
117.0592889999997
 20
157.9783749999998
 30
0.0
 40
5.0
100
AcDbArc
 50
41.79275599999999
 51
66.18413699999999
  0
CIRCLE
  5
AF3E
330
AE92
100
AcDbEntity
  8
1
  6
Continuous
100
AcDbCircle
 10
122.778531
 20
139.7526169999999
 30
0.0
 40
1.1
  0
CIRCLE
  5
AF3F
330
AE92
100
AcDbEntity
  8
1
  6
Continuous
100
AcDbCircle
 10
122.778531
 20
139.7526169999999
 30
0.0
 40
4.0
  0
ARC
  5
AF40
330
AE92
100
AcDbEntity
  8
1
  6
Continuous
100
AcDbCircle
 10
31.27852999999999
 20
163.252803
 30
0.0
 40
2.5
100
AcDbArc
 50
89.99998199999996
 51
179.9999599999999
  0
ARC
  5
AF41
330
AE92
100
AcDbEntity
  8
1
  6
Continuous
100
AcDbCircle
 10
34.17852399999999
 20
160.752803
 30
0.0
 40
1.599998999999999
100
AcDbArc
 50
30.64817599999999
 51
159.63544
  0
ARC
  5
AF42
330
AE92
100
AcDbEntity
  8
1
  6
Continuous
100
AcDbCircle
 10
38.566128
 20
163.352599
 30
0.0
 40
3.5
100
AcDbArc
 50
210.64809
 51
270.00002
  0
ARC
  5
AF43
330
AE92
100
AcDbEntity
  8
1
  6
Continuous
100
AcDbCircle
 10
38.52852999999999
 20
164.852802
 30
0.0
 40
5.0
100
AcDbArc
 50
235.7834299999999
 51
270.00002
  0
ARC
  5
AF44
330
AE92
100
AcDbEntity
  8
1
  6
Continuous
100
AcDbCircle
 10
35.154598
 20
159.89129
 30
0.0
 40
1.0
100
AcDbArc
 50
55.78356899999999
 51
151.1716599999997
  0
ARC
  5
AF45
330
AE92
100
AcDbEntity
  8
1
  6
Continuous
100
AcDbCircle
 10
33.17837100000001
 20
146.1247789999999
 30
0.0
 40
4.4
100
AcDbArc
 50
179.9999799999999
 51
232.1967099999999
  0
ARC
  5
AF46
330
AE92
100
AcDbEntity
  8
1
  6
Continuous
100
AcDbCircle
 10
44.850338
 20
60.05283499999999
 30
0.0
 40
100.0
100
AcDbArc
 50
90.04116099999995
 51
93.624565
  0
ARC
  5
AF47
330
AE92
100
AcDbEntity
  8
1
  6
Continuous
100
AcDbCircle
 10
58.27853000000001
 20
163.252803
 30
0.0
 40
2.5
100
AcDbArc
 50
0.0
 51
89.99998199999996
  0
ARC
  5
AF48
330
AE92
100
AcDbEntity
  8
1
  6
Continuous
100
AcDbCircle
 10
55.37853199999999
 20
160.752803
 30
0.0
 40
1.599998999999999
100
AcDbArc
 50
20.364178
 51
149.35179
  0
ARC
  5
AF49
330
AE92
100
AcDbEntity
  8
1
  6
Continuous
100
AcDbCircle
 10
50.990932
 20
163.352599
 30
0.0
 40
3.5
100
AcDbArc
 50
269.9999599999998
 51
329.3518899999999
  0
ARC
  5
AF4A
330
AE92
100
AcDbEntity
  8
1
  6
Continuous
100
AcDbCircle
 10
51.02852999999999
 20
164.852802
 30
0.0
 40
5.0
100
AcDbArc
 50
269.9999599999998
 51
304.2165499999998
  0
ARC
  5
AF4B
330
AE92
100
AcDbEntity
  8
1
  6
Continuous
100
AcDbCircle
 10
54.402462
 20
159.89129
 30
0.0
 40
1.0
100
AcDbArc
 50
28.828357
 51
124.2163899999999
  0
ARC
  5
AF4C
330
AE92
100
AcDbEntity
  8
1
  6
Continuous
100
AcDbCircle
 10
56.378689
 20
146.1247789999999
 30
0.0
 40
4.4
100
AcDbArc
 50
300.64805
 51
0.0
  0
ARC
  5
AF4D
330
AE92
100
AcDbEntity
  8
1
  6
Continuous
100
AcDbCircle
 10
44.706722
 20
60.05283499999999
 30
0.0
 40
100.0
100
AcDbArc
 50
86.37539900000001
 51
89.95880300000001
  0
ARC
  5
AF4E
330
AE92
100
AcDbEntity
  8
1
  6
Continuous
100
AcDbCircle
 10
53.978527
 20
139.7526169999999
 30
0.0
 40
5.315071999999998
100
AcDbArc
 50
11.94407899999999
 51
48.814075
  0
ARC
  5
AF4F
330
AE92
100
AcDbEntity
  8
1
  6
Continuous
100
AcDbCircle
 10
53.978527
 20
139.7526169999999
 30
0.0
 40
5.315071999999998
100
AcDbArc
 50
311.1859299999998
 51
348.0558299999998
  0
ARC
  5
AF50
330
AE92
100
AcDbEntity
  8
1
  6
Continuous
100
AcDbCircle
 10
31.478535
 20
142.5728189999998
 30
0.0
 40
1.0
100
AcDbArc
 50
101.5367899999999
 51
179.9999599999999
  0
ARC
  5
AF51
330
AE92
100
AcDbEntity
  8
1
  6
Continuous
100
AcDbCircle
 10
31.478535
 20
136.9324149999999
 30
0.0
 40
1.0
100
AcDbArc
 50
179.9999799999999
 51
258.4632099999998
  0
ARC
  5
AF52
330
AE92
100
AcDbEntity
  8
1
  6
Continuous
100
AcDbCircle
 10
122.778531
 20
139.7526169999999
 30
0.0
 40
19.0
100
AcDbArc
 50
97.68020800000002
 51
31.68486099999999
  0
ARC
  5
AF53
330
AE92
100
AcDbEntity
  8
1
  6
Continuous
100
AcDbCircle
 10
149.635141
 20
156.1227629999999
 30
0.0
 40
4.0
100
AcDbArc
 50
94.681446
 51
139.609877
  0
ARC
  5
AF54
330
AE92
100
AcDbEntity
  8
1
  6
Continuous
100
AcDbCircle
 10
90.119895
 20
61.70261700000001
 30
0.0
 40
26.0
100
AcDbArc
 50
333.152785
 51
342.079787
  0
ARC
  5
AF55
330
AE92
100
AcDbEntity
  8
1
  6
Continuous
100
AcDbCircle
 10
181.43716
 20
61.70261700000001
 30
0.0
 40
26.0
100
AcDbArc
 50
153.1528199999999
 51
206.8471999999999
  0
LINE
  5
AF56
330
AE92
100
AcDbEntity
  8
4
  6
CENTER
 48
0.5
100
AcDbLine
 10
135.7785299999999
 20
37.70261699999997
 30
0.0
 11
135.7785299999999
 21
85.70261700000001
 31
0.0
  0
LINE
  5
AF57
330
AE92
100
AcDbEntity
  8
1
  6
Continuous
100
AcDbLine
 10
117.77853
 20
80.70261700000001
 30
0.0
 11
153.7785299999999
 21
80.70261700000001
 31
0.0
  0
ARC
  5
AF58
330
AE92
100
AcDbEntity
  8
1
  6
Continuous
100
AcDbCircle
 10
117.77853
 20
75.702617
 30
0.0
 40
2.649999999999999
100
AcDbArc
 50
359.291514
 51
243.07459
  0
ARC
  5
AF59
330
AE92
100
AcDbEntity
  8
1
  6
Continuous
100
AcDbCircle
 10
117.77853
 20
75.702617
 30
0.0
 40
5.0
100
AcDbArc
 50
90.00004999999999
 51
206.84719
  0
LINE
  5
AF5A
330
AE92
100
AcDbEntity
  8
4
  6
CENTER
 48
0.5
100
AcDbLine
 10
120.77853
 20
75.702617
 30
0.0
 11
112.7785299999999
 21
75.702617
 31
0.0
  0
LINE
  5
AF5B
330
AE92
100
AcDbEntity
  8
4
  6
CENTER
 48
0.5
100
AcDbLine
 10
117.77853
 20
79.702617
 30
0.0
 11
117.77853
 21
71.70261700000001
 31
0.0
  0
ARC
  5
AF5C
330
AE92
100
AcDbEntity
  8
1
  6
Continuous
100
AcDbCircle
 10
153.7785299999999
 20
75.702617
 30
0.0
 40
5.0
100
AcDbArc
 50
333.1527909999998
 51
90.00004000000002
  0
LINE
  5
AF5D
330
AE92
100
AcDbEntity
  8
4
  6
CENTER
 48
0.5
100
AcDbLine
 10
149.7785299999998
 20
75.702617
 30
0.0
 11
157.7785299999999
 21
75.702617
 31
0.0
  0
CIRCLE
  5
AF5E
330
AE92
100
AcDbEntity
  8
1
  6
Continuous
100
AcDbCircle
 10
153.7785299999999
 20
75.702617
 30
0.0
 40
2.649999999999999
  0
LINE
  5
AF5F
330
AE92
100
AcDbEntity
  8
4
  6
CENTER
 48
0.5
100
AcDbLine
 10
153.7785299999999
 20
79.702617
 30
0.0
 11
153.7785299999999
 21
71.70261700000001
 31
0.0
  0
LINE
  5
AF60
330
AE92
100
AcDbEntity
  8
4
  6
CENTER
 48
0.5
100
AcDbLine
 10
98.77853000000001
 20
61.70261700000001
 30
0.0
 11
158.7785299999999
 21
61.70261700000001
 31
0.0
  0
LINE
  5
AF61
330
AE92
100
AcDbEntity
  8
1
  6
Continuous
100
AcDbLine
 10
117.77853
 20
42.70261699999998
 30
0.0
 11
153.7785299999999
 21
42.70261699999998
 31
0.0
  0
ARC
  5
AF62
330
AE92
100
AcDbEntity
  8
1
  6
Continuous
100
AcDbCircle
 10
117.77853
 20
47.70261699999998
 30
0.0
 40
2.649999999999999
100
AcDbArc
 50
116.92541
 51
353.4998589999998
  0
ARC
  5
AF63
330
AE92
100
AcDbEntity
  8
1
  6
Continuous
100
AcDbCircle
 10
117.77853
 20
47.70261699999998
 30
0.0
 40
5.0
100
AcDbArc
 50
153.15283
 51
270.0000179999999
  0
LINE
  5
AF64
330
AE92
100
AcDbEntity
  8
4
  6
CENTER
 48
0.5
100
AcDbLine
 10
117.77853
 20
43.70261699999999
 30
0.0
 11
117.77853
 21
51.702617
 31
0.0
  0
LINE
  5
AF65
330
AE92
100
AcDbEntity
  8
4
  6
CENTER
 48
0.5
100
AcDbLine
 10
121.77853
 20
47.70261699999998
 30
0.0
 11
113.7785299999999
 21
47.70261699999998
 31
0.0
  0
CIRCLE
  5
AF66
330
AE92
100
AcDbEntity
  8
1
  6
Continuous
100
AcDbCircle
 10
153.7785299999999
 20
47.70261699999998
 30
0.0
 40
2.649999999999999
  0
ARC
  5
AF67
330
AE92
100
AcDbEntity
  8
1
  6
Continuous
100
AcDbCircle
 10
153.7785299999999
 20
47.70261699999998
 30
0.0
 40
5.0
100
AcDbArc
 50
270.0000179999999
 51
26.84720999999999
  0
LINE
  5
AF68
330
AE92
100
AcDbEntity
  8
4
  6
CENTER
 48
0.5
100
AcDbLine
 10
153.7785299999999
 20
43.70261699999999
 30
0.0
 11
153.7785299999999
 21
51.702617
 31
0.0
  0
LINE
  5
AF69
330
AE92
100
AcDbEntity
  8
4
  6
CENTER
 48
0.5
100
AcDbLine
 10
149.7785299999998
 20
47.70261699999998
 30
0.0
 11
157.7785299999999
 21
47.70261699999998
 31
0.0
  0
LINE
  5
AF6A
330
AE92
100
AcDbEntity
  8
4
  6
CENTER
 48
0.5
100
AcDbLine
 10
122.77853
 20
39.70261699999998
 30
0.0
 11
122.77853
 21
83.70261700000002
 31
0.0
  0
LINE
  5
AF6B
330
AE92
100
AcDbEntity
  8
1
  6
Continuous
100
AcDbLine
 10
132.1910509999999
 20
49.60261899999999
 30
0.0
 11
116.57853
 21
49.60261899999999
 31
0.0
  0
LINE
  5
AF6C
330
AE92
100
AcDbEntity
  8
1
  6
Continuous
100
AcDbLine
 10
131.3785289999999
 20
51.202617
 30
0.0
 11
116.57853
 21
51.202617
 31
0.0
  0
ARC
  5
AF6D
330
AE92
100
AcDbEntity
  8
1
  6
Continuous
100
AcDbCircle
 10
119.9583279999999
 20
48.40262199999999
 30
0.0
 40
1.0
100
AcDbArc
 50
191.536784
 51
269.9999599999998
  0
LINE
  5
AF6E
330
AE92
100
AcDbEntity
  8
1
  6
Continuous
100
AcDbLine
 10
119.801346
 20
49.60261899999999
 30
0.0
 11
118.9785349999999
 21
48.202625
 31
0.0
  0
ARC
  5
AF6F
330
AE92
100
AcDbEntity
  8
1
  6
Continuous
100
AcDbCircle
 10
125.598732
 20
48.40262199999999
 30
0.0
 40
1.0
100
AcDbArc
 50
269.99998
 51
348.46321
  0
LINE
  5
AF70
330
AE92
100
AcDbEntity
  8
1
  6
Continuous
100
AcDbLine
 10
126.5785259999999
 20
48.202632
 30
0.0
 11
125.8013379999999
 21
49.602626
 31
0.0
  0
LINE
  5
AF71
330
AE92
100
AcDbEntity
  8
1
  6
Continuous
100
AcDbLine
 10
119.9583279999999
 20
47.40262199999999
 30
0.0
 11
125.598732
 21
47.40262199999999
 31
0.0
  0
LINE
  5
AF72
330
AE92
100
AcDbEntity
  8
1
  6
Continuous
100
AcDbLine
 10
118.9785309999999
 20
48.202625
 30
0.0
 11
126.5785289999999
 21
48.202625
 31
0.0
  0
LINE
  5
AF73
330
AE92
100
AcDbEntity
  8
1
  6
Continuous
100
AcDbLine
 10
131.3785289999999
 20
72.202617
 30
0.0
 11
116.57853
 21
72.202617
 31
0.0
  0
LINE
  5
AF74
330
AE92
100
AcDbEntity
  8
1
  6
Continuous
100
AcDbLine
 10
132.1910509999999
 20
73.802615
 30
0.0
 11
116.57853
 21
73.802615
 31
0.0
  0
LINE
  5
AF75
330
AE92
100
AcDbEntity
  8
1
  6
Continuous
100
AcDbLine
 10
118.77853
 20
73.802615
 30
0.0
 11
118.77853
 21
74.402614
 31
0.0
  0
LINE
  5
AF76
330
AE92
100
AcDbEntity
  8
1
  6
Continuous
100
AcDbLine
 10
126.77853
 20
73.802615
 30
0.0
 11
126.77853
 21
74.402614
 31
0.0
  0
LINE
  5
AF77
330
AE92
100
AcDbEntity
  8
1
  6
Continuous
100
AcDbLine
 10
121.6785389999997
 20
76.102615
 30
0.0
 11
123.8785209999999
 21
76.102615
 31
0.0
  0
ARC
  5
AF78
330
AE92
100
AcDbEntity
  8
1
  6
Continuous
100
AcDbCircle
 10
122.77853
 20
70.902614
 30
0.0
 40
5.315071999999998
100
AcDbArc
 50
41.18592999999999
 51
78.05583
  0
LINE
  5
AF79
330
AE92
100
AcDbEntity
  8
1
  6
Continuous
100
AcDbLine
 10
118.77853
 20
74.402614
 30
0.0
 11
126.77853
 21
74.402614
 31
0.0
  0
ARC
  5
AF7A
330
AE92
100
AcDbEntity
  8
1
  6
Continuous
100
AcDbCircle
 10
122.77853
 20
70.902614
 30
0.0
 40
5.315071999999998
100
AcDbArc
 50
101.9440789999999
 51
138.8140629999997
  0
ARC
  5
AF7B
330
AE92
100
AcDbEntity
  8
1
  6
Continuous
100
AcDbCircle
 10
90.119895
 20
61.70261700000001
 30
0.0
 40
26.0
100
AcDbArc
 50
17.920213
 51
26.84720999999999
  0
LINE
  5
AF7C
330
AE92
100
AcDbEntity
  8
1
  6
Continuous
100
AcDbLine
 10
116.57853
 20
51.202617
 30
0.0
 11
116.57853
 21
49.60261899999999
 31
0.0
  0
LINE
  5
AF7D
330
AE92
100
AcDbEntity
  8
1
  6
Continuous
100
AcDbLine
 10
116.57853
 20
73.802615
 30
0.0
 11
116.57853
 21
72.202617
 31
0.0
  0
ARC
  5
AF7E
330
AE92
100
AcDbEntity
  8
1
  6
Continuous
100
AcDbCircle
 10
135.7785299999999
 20
61.70261700000001
 30
0.0
 40
8.899995999999998
100
AcDbArc
 50
244.010819
 51
295.989181
  0
ARC
  5
AF7F
330
AE92
100
AcDbEntity
  8
1
  6
Continuous
100
AcDbCircle
 10
135.7785299999999
 20
61.70261700000001
 30
0.0
 40
8.899995999999998
100
AcDbArc
 50
64.010819
 51
115.9891809999999
  0
ARC
  5
AF80
330
AE92
100
AcDbEntity
  8
1
  6
Continuous
100
AcDbCircle
 10
135.7785299999999
 20
61.70261700000001
 30
0.0
 40
8.899995999999998
100
AcDbArc
 50
308.9913779999998
 51
51.00862199999999
  0
LINE
  5
AF81
330
AE92
100
AcDbEntity
  8
4
  6
CENTER
 48
0.5
100
AcDbLine
 10
122.77853
 20
251.802617
 30
0.0
 11
122.77853
 21
207.802617
 31
0.0
  0
LINE
  5
AF89
330
AE92
100
AcDbEntity
  8
4
  6
CENTER
 48
0.5
100
AcDbLine
 10
217.77853
 20
174.452805
 30
0.0
 11
217.77853
 21
115.7336169999999
 31
0.0
  0
LINE
  5
AF8A
330
AE92
100
AcDbEntity
  8
1
  6
Continuous
100
AcDbLine
 10
233.7785299999999
 20
163.252803
 30
0.0
 11
233.7785299999999
 21
145.977149
 31
0.0
  0
LINE
  5
AF8B
330
AE92
100
AcDbEntity
  8
1
  6
Continuous
100
AcDbLine
 10
231.2785149999999
 20
135.952621
 30
0.0
 11
229.878521
 21
136.729809
 31
0.0
  0
LINE
  5
AF8C
330
AE92
100
AcDbEntity
  8
4
  6
CENTER
 48
0.5
100
AcDbLine
 10
233.8646049999999
 20
139.7526169999999
 30
0.0
 11
201.4813
 21
139.7526169999999
 31
0.0
  0
ARC
  5
AF8D
330
AE92
100
AcDbEntity
  8
1
  6
Continuous
100
AcDbCircle
 10
231.078525
 20
136.9324149999999
 30
0.0
 40
1.0
100
AcDbArc
 50
281.53679
 51
0.00002
  0
LINE
  5
AF8E
330
AE92
100
AcDbEntity
  8
1
  6
Continuous
100
AcDbLine
 10
231.278522
 20
142.3370909999998
 30
0.0
 11
231.278522
 21
135.952618
 31
0.0
  0
LINE
  5
AF8F
330
AE92
100
AcDbEntity
  8
1
  6
Continuous
100
AcDbLine
 10
232.078525
 20
142.756897
 30
0.0
 11
232.078525
 21
136.9324149999999
 31
0.0
  0
LINE
  5
AF90
330
AE92
100
AcDbEntity
  8
1
  6
Continuous
100
AcDbLine
 10
228.27853
 20
133.729805
 30
0.0
 11
229.878528
 21
133.729805
 31
0.0
  0
LINE
  5
AF91
330
AE92
100
AcDbEntity
  8
1
  6
Continuous
100
AcDbLine
 10
205.6785319999999
 20
133.729805
 30
0.0
 11
207.27853
 21
133.729805
 31
0.0
  0
ARC
  5
AF92
330
AE92
100
AcDbEntity
  8
1
  6
Continuous
100
AcDbCircle
 10
208.5785329999999
 20
139.7526169999999
 30
0.0
 40
5.315071999999998
100
AcDbArc
 50
191.9441699999999
 51
228.81407
  0
ARC
  5
AF93
330
AE92
100
AcDbEntity
  8
1
  6
Continuous
100
AcDbCircle
 10
208.5785329999999
 20
139.7526169999999
 30
0.0
 40
5.315071999999998
100
AcDbArc
 50
149.375121
 51
168.055921
  0
LINE
  5
AF94
330
AE92
100
AcDbEntity
  8
1
  6
Continuous
100
AcDbLine
 10
205.078533
 20
142.125436
 30
0.0
 11
205.078533
 21
135.7526169999997
 31
0.0
  0
LINE
  5
AF95
330
AE92
100
AcDbEntity
  8
1
  6
Continuous
100
AcDbLine
 10
203.378532
 20
140.852608
 30
0.0
 11
203.378532
 21
138.6526259999999
 31
0.0
  0
LINE
  5
AF96
330
AE92
100
AcDbEntity
  8
1
  6
Continuous
100
AcDbLine
 10
205.6785319999999
 20
135.7526169999997
 30
0.0
 11
205.078533
 21
135.7526169999997
 31
0.0
  0
LINE
  5
AF97
330
AE92
100
AcDbEntity
  8
1
  6
Continuous
100
AcDbLine
 10
231.2785299999999
 20
165.7528029999998
 30
0.0
 11
204.2785299999999
 21
165.7528029999998
 31
0.0
  0
LINE
  5
AF98
330
AE92
100
AcDbEntity
  8
1
  6
Continuous
100
AcDbLine
 10
202.975364
 20
166.552804
 30
0.0
 11
232.5785329999999
 21
166.552804
 31
0.0
  0
LINE
  5
AF99
330
AE92
100
AcDbEntity
  8
1
  6
Continuous
100
AcDbLine
 10
236.7785299999999
 20
170.752805
 30
0.0
 11
198.7785299999999
 21
170.752805
 31
0.0
  0
LINE
  5
AF9A
330
AE92
100
AcDbEntity
  8
1
  6
Continuous
100
AcDbLine
 10
236.7785299999999
 20
169.152805
 30
0.0
 11
198.7785299999999
 21
169.152805
 31
0.0
  0
ARC
  5
AF9B
330
AE92
100
AcDbEntity
  8
1
  6
Continuous
100
AcDbCircle
 10
231.2785299999999
 20
163.252803
 30
0.0
 40
2.5
100
AcDbArc
 50
0.00004
 51
90.00001800000005
  0
LINE
  5
AF9C
330
AE92
100
AcDbEntity
  8
4
  6
CENTER
 48
0.5
100
AcDbLine
 10
231.77853
 20
174.452805
 30
0.0
 11
231.77853
 21
165.452805
 31
0.0
  0
LINE
  5
AF9D
330
AE92
100
AcDbEntity
  8
1
  6
Continuous
100
AcDbLine
 10
235.1582069999998
 20
168.825183
 30
0.0
 11
234.9252659999999
 21
168.190938
 31
0.0
  0
ARC
  5
AF9E
330
AE92
100
AcDbEntity
  8
1
  6
Continuous
100
AcDbCircle
 10
235.627552
 20
168.6528089999999
 30
0.0
 40
0.5
100
AcDbArc
 50
90.00003799999998
 51
159.83358
  0
ARC
  5
AF9F
330
AE92
100
AcDbEntity
  8
1
  6
Continuous
100
AcDbCircle
 10
232.5785329999999
 20
169.052806
 30
0.0
 40
2.5
100
AcDbArc
 50
269.99998
 51
339.8336299999998
  0
LINE
  5
AFA0
330
AE92
100
AcDbEntity
  8
1
  6
Continuous
100
AcDbLine
 10
236.7785299999999
 20
170.752805
 30
0.0
 11
236.7785299999999
 21
169.152805
 31
0.0
  0
ARC
  5
AFA1
330
AE92
100
AcDbEntity
  8
1
  6
Continuous
100
AcDbCircle
 10
213.1372869999999
 20
166.534303
 30
0.0
 40
2.381499999999999
100
AcDbArc
 50
340.8432499999999
 51
347.01691
  0
ARC
  5
AFA2
330
AE92
100
AcDbEntity
  8
1
  6
Continuous
100
AcDbCircle
 10
222.4197729999999
 20
166.534303
 30
0.0
 40
2.381499999999999
100
AcDbArc
 50
192.98306
 51
199.15677
  0
ARC
  5
AFA3
330
AE92
100
AcDbEntity
  8
1
  6
Continuous
100
AcDbCircle
 10
228.14307
 20
166.534303
 30
0.0
 40
2.381499999999999
100
AcDbArc
 50
340.8432499999999
 51
359.9999599999999
  0
ARC
  5
AFA4
330
AE92
100
AcDbEntity
  8
1
  6
Continuous
100
AcDbCircle
 10
226.1239129999999
 20
166.534303
 30
0.0
 40
2.381499999999999
100
AcDbArc
 50
340.8432
 51
359.9999599999999
  0
ARC
  5
AFA5
330
AE92
100
AcDbEntity
  8
1
  6
Continuous
100
AcDbCircle
 10
222.4197729999999
 20
166.534303
 30
0.0
 40
2.381499999999999
100
AcDbArc
 50
340.8432499999999
 51
359.9999599999999
  0
ARC
  5
AFA6
330
AE92
100
AcDbEntity
  8
1
  6
Continuous
100
AcDbCircle
 10
217.77853
 20
166.534303
 30
0.0
 40
2.381499999999999
100
AcDbArc
 50
340.8432
 51
359.9999599999999
  0
ARC
  5
AFA7
330
AE92
100
AcDbEntity
  8
1
  6
Continuous
100
AcDbCircle
 10
217.77853
 20
166.534303
 30
0.0
 40
2.381499999999999
100
AcDbArc
 50
180.0
 51
199.15683
  0
ARC
  5
AFA8
330
AE92
100
AcDbEntity
  8
1
  6
Continuous
100
AcDbCircle
 10
204.2785299999999
 20
163.252803
 30
0.0
 40
2.5
100
AcDbArc
 50
90.00001800000005
 51
180.0
  0
LINE
  5
AFA9
330
AE92
100
AcDbEntity
  8
4
  6
CENTER
 48
0.5
100
AcDbLine
 10
203.7785299999999
 20
174.452805
 30
0.0
 11
203.7785299999999
 21
165.452805
 31
0.0
  0
ARC
  5
AFAA
330
AE92
100
AcDbEntity
  8
1
  6
Continuous
100
AcDbCircle
 10
213.1372869999999
 20
166.534303
 30
0.0
 40
2.381499999999999
100
AcDbArc
 50
180.0
 51
199.1568
  0
ARC
  5
AFAB
330
AE92
100
AcDbEntity
  8
1
  6
Continuous
100
AcDbCircle
 10
207.41399
 20
166.534303
 30
0.0
 40
2.381499999999999
100
AcDbArc
 50
180.0
 51
199.1568
  0
ARC
  5
AFAC
330
AE92
100
AcDbEntity
  8
1
  6
Continuous
100
AcDbCircle
 10
209.4331429999999
 20
166.534303
 30
0.0
 40
2.381499999999999
100
AcDbArc
 50
180.0
 51
199.1568
  0
LINE
  5
AFAD
330
AE92
100
AcDbEntity
  8
1
  6
Continuous
100
AcDbLine
 10
200.3988529999999
 20
168.8251779999999
 30
0.0
 11
200.6317899999999
 21
168.190933
 31
0.0
  0
ARC
  5
AFAE
330
AE92
100
AcDbEntity
  8
1
  6
Continuous
100
AcDbCircle
 10
199.9295079999999
 20
168.6528039999998
 30
0.0
 40
0.5
100
AcDbArc
 50
20.16643999999998
 51
89.99997699999999
  0
ARC
  5
AFAF
330
AE92
100
AcDbEntity
  8
1
  6
Continuous
100
AcDbCircle
 10
202.978527
 20
169.052802
 30
0.0
 40
2.5
100
AcDbArc
 50
200.16638
 51
269.99998
  0
LINE
  5
AFB0
330
AE92
100
AcDbEntity
  8
1
  6
Continuous
100
AcDbLine
 10
198.7785299999999
 20
170.752805
 30
0.0
 11
198.7785299999999
 21
169.152805
 31
0.0
  0
LINE
  5
AFB1
330
AE92
100
AcDbEntity
  8
1
  6
Continuous
100
AcDbLine
 10
229.878528
 20
141.1802749999999
 30
0.0
 11
229.878528
 21
133.729805
 31
0.0
  0
LINE
  5
AFB2
330
AE92
100
AcDbEntity
  8
1
  6
Continuous
100
AcDbLine
 10
228.27853
 20
157.724037
 30
0.0
 11
228.27853
 21
133.729805
 31
0.0
  0
LINE
  5
AFB3
330
AE92
100
AcDbEntity
  8
1
  6
Continuous
100
AcDbLine
 10
208.2214830030528
 20
160.333805
 30
0.0
 11
227.335575996947
 21
160.333805
 31
0.0
  0
LINE
  5
AFB4
330
AE92
100
AcDbEntity
  8
1
  6
Continuous
100
AcDbLine
 10
205.6785319999999
 20
141.1802749999999
 30
0.0
 11
205.6785319999999
 21
133.729805
 31
0.0
  0
LINE
  5
AFB5
330
AE92
100
AcDbEntity
  8
1
  6
Continuous
100
AcDbLine
 10
207.27853
 20
157.724037
 30
0.0
 11
207.27853
 21
142.729805
 31
0.0
  0
LINE
  5
AFB6
330
AE92
100
AcDbEntity
  8
1
  6
Continuous
100
AcDbLine
 10
207.278532
 20
157.7240399999998
 30
0.0
 11
207.278532
 21
133.729805
 31
0.0
  0
ARC
  5
AFB7
330
AE92
100
AcDbEntity
  8
1
  6
Continuous
100
AcDbCircle
 10
135.7785299999999
 20
61.70261700000001
 30
0.0
 40
13.4
100
AcDbArc
 50
264.3036259999997
 51
95.69637400000001
  0
ARC
  5
AFB8
330
AE92
100
AcDbEntity
  8
1
  6
Continuous
100
AcDbCircle
 10
135.7785299999999
 20
61.70261700000001
 30
0.0
 40
17.37967699999999
100
AcDbArc
 50
235.3660559999999
 51
127.0366379999999
  0
LINE
  5
AFB9
330
AE92
100
AcDbEntity
  8
1
  6
Continuous
100
AcDbLine
 10
151.7785299999999
 20
163.2526149999999
 30
0.0
 11
151.7785299999999
 21
160.3116719999999
 31
0.0
  0
ARC
  5
AFBA
330
AE92
100
AcDbEntity
  8
1
  6
Continuous
100
AcDbCircle
 10
149.2785299999999
 20
163.2526149999999
 30
0.0
 40
2.5
100
AcDbArc
 50
0.0
 51
90.0
  0
ARC
  5
AFBB
330
AE92
100
AcDbEntity
  8
1
  6
Continuous
100
AcDbCircle
 10
122.2785299999999
 20
163.2526149999999
 30
0.0
 40
2.5
100
AcDbArc
 50
90.0
 51
174.172479
  0
ARC
  5
AFBD
330
AE92
100
AcDbEntity
  8
1
  6
Continuous
100
AcDbCircle
 10
210.438193
 20
145.2996809999999
 30
0.0
 40
23.34033599999999
100
AcDbArc
 50
1.180668999999997
 51
37.64549476116818
  0
ARC
  5
AFBE
330
AE92
100
AcDbEntity
  8
1
  6
Continuous
100
AcDbCircle
 10
210.438193
 20
145.2996809999999
 30
0.0
 40
21.740336
100
AcDbArc
 50
1.347553999999999
 51
43.751448
  0
ARC
  5
AFBF
330
AE92
100
AcDbEntity
  8
1
  6
Continuous
100
AcDbCircle
 10
225.118866
 20
145.2996809999999
 30
0.0
 40
21.740336
100
AcDbArc
 50
136.2485519999999
 51
178.652446
  0
ARC
  5
AFC0
330
AE92
100
AcDbEntity
  8
1
  6
Continuous
100
AcDbCircle
 10
225.118866
 20
145.2996809999999
 30
0.0
 40
23.34033599999999
100
AcDbArc
 50
142.3545052388321
 51
178.819331
  0
LINE
  5
AFC1
330
AE92
100
AcDbEntity
  8
1
  6
Continuous
100
AcDbLine
 10
201.7785299999999
 20
163.252803
 30
0.0
 11
201.7785299999999
 21
145.977149
 31
0.0
  0
ARC
  5
AFC2
330
AE92
100
AcDbEntity
  8
1
  6
Continuous
100
AcDbCircle
 10
135.7785299999999
 20
61.70261700000001
 30
0.0
 40
16.0
100
AcDbArc
 50
233.2174509999999
 51
125.5485699999999
  0
ARC
  5
AFC3
330
AE92
100
AcDbEntity
  8
1
  6
Continuous
100
AcDbCircle
 10
135.7785299999999
 20
61.70261700000001
 30
0.0
 40
14.4
100
AcDbArc
 50
269.9999959999999
 51
90.0
  0
CIRCLE
  5
AFC4
330
AE92
100
AcDbEntity
  8
1
  6
Continuous
100
AcDbCircle
 10
312.7785289999998
 20
139.7526169999999
 30
0.0
 40
4.0
  0
ARC
  5
AFC5
330
AE92
100
AcDbEntity
  8
1
  6
Continuous
100
AcDbCircle
 10
205.67853
 20
145.977149
 30
0.0
 40
3.9
100
AcDbArc
 50
180.0
 51
258.2242799999999
  0
ARC
  5
AFC6
330
AE92
100
AcDbEntity
  8
1
  6
Continuous
100
AcDbCircle
 10
205.67853
 20
145.977149
 30
0.0
 40
2.299999999999998
100
AcDbArc
 50
184.143813
 51
258.2242799999999
  0
ARC
  5
AFC7
330
AE92
100
AcDbEntity
  8
1
  6
Continuous
100
AcDbCircle
 10
204.678532
 20
141.1802749999999
 30
0.0
 40
1.0
100
AcDbArc
 50
0.0
 51
78.22427999999998
  0
ARC
  5
AFC8
330
AE92
100
AcDbEntity
  8
1
  6
Continuous
100
AcDbCircle
 10
204.678532
 20
141.1802749999999
 30
0.0
 40
2.6
100
AcDbArc
 50
0.0
 51
78.22427999999998
  0
ARC
  5
AFC9
330
AE92
100
AcDbEntity
  8
1
  6
Continuous
100
AcDbCircle
 10
229.87853
 20
145.977149
 30
0.0
 40
2.299999999999998
100
AcDbArc
 50
281.7757199999998
 51
355.8561870000001
  0
ARC
  5
AFCA
330
AE92
100
AcDbEntity
  8
1
  6
Continuous
100
AcDbCircle
 10
230.8785279999999
 20
141.1802749999999
 30
0.0
 40
2.6
100
AcDbArc
 50
101.7757199999997
 51
180.0
  0
ARC
  5
AFCB
330
AE92
100
AcDbEntity
  8
1
  6
Continuous
100
AcDbCircle
 10
229.87853
 20
145.977149
 30
0.0
 40
3.9
100
AcDbArc
 50
281.7757199999998
 51
0.0
  0
ARC
  5
AFCC
330
AE92
100
AcDbEntity
  8
1
  6
Continuous
100
AcDbCircle
 10
230.8785279999999
 20
141.1802749999999
 30
0.0
 40
1.0
100
AcDbArc
 50
101.7757199999997
 51
180.0
  0
ARC
  5
AFCD
330
AE92
100
AcDbEntity
  8
1
  6
Continuous
100
AcDbCircle
 10
135.778529
 20
75.10261699999998
 30
0.0
 40
2.6
100
AcDbArc
 50
90.0
 51
184.780224
  0
ARC
  5
AFCE
330
AE92
100
AcDbEntity
  8
1
  6
Continuous
100
AcDbCircle
 10
131.3785289999999
 20
74.80261699999998
 30
0.0
 40
2.6
100
AcDbArc
 50
270.0
 51
337.4971049999998
  0
ARC
  5
AFCF
330
AE92
100
AcDbEntity
  8
1
  6
Continuous
100
AcDbCircle
 10
135.778529
 20
75.10261699999998
 30
0.0
 40
1.0
100
AcDbArc
 50
90.0
 51
137.2502069999999
  0
ARC
  5
AFD0
330
AE92
100
AcDbEntity
  8
1
  6
Continuous
100
AcDbCircle
 10
139.939976
 20
71.255842
 30
0.0
 40
6.667037999999998
100
AcDbArc
 50
137.2502069999999
 51
157.497105
  0
ARC
  5
AFD1
330
AE92
100
AcDbEntity
  8
1
  6
Continuous
100
AcDbCircle
 10
132.1910509999999
 20
74.80261500000001
 30
0.0
 40
1.0
100
AcDbArc
 50
270.0
 51
4.780223999999998
  0
ARC
  5
AFD2
330
AE92
100
AcDbEntity
  8
1
  6
Continuous
100
AcDbCircle
 10
135.778529
 20
48.302617
 30
0.0
 40
2.6
100
AcDbArc
 50
175.219776
 51
270.0
  0
ARC
  5
AFD3
330
AE92
100
AcDbEntity
  8
1
  6
Continuous
100
AcDbCircle
 10
132.1910509999999
 20
48.602619
 30
0.0
 40
1.0
100
AcDbArc
 50
355.2197759999998
 51
90.0
  0
ARC
  5
AFD4
330
AE92
100
AcDbEntity
  8
1
  6
Continuous
100
AcDbCircle
 10
131.3785289999999
 20
48.60261699999998
 30
0.0
 40
2.6
100
AcDbArc
 50
22.502895
 51
90.0
  0
ARC
  5
AFD5
330
AE92
100
AcDbEntity
  8
1
  6
Continuous
100
AcDbCircle
 10
139.939976
 20
52.14939099999998
 30
0.0
 40
6.667037999999998
100
AcDbArc
 50
202.5028949999998
 51
222.749793
  0
ARC
  5
AFD6
330
AE92
100
AcDbEntity
  8
1
  6
Continuous
100
AcDbCircle
 10
135.778529
 20
48.302617
 30
0.0
 40
1.0
100
AcDbArc
 50
222.749793
 51
270.0
  0
LINE
  5
AFD7
330
AE92
100
AcDbEntity
  8
1
  6
Continuous
100
AcDbLine
 10
146.588541
 20
158.714718
 30
0.0
 11
127.14843
 21
135.864685
 31
0.0
  0
LINE
  5
AFD8
330
AE92
100
AcDbEntity
  8
1
  6
Continuous
100
AcDbLine
 10
116.695924
 20
140.933697
 30
0.0
 11
120.7870899999999
 21
161.3105659999999
 31
0.0
  0
ARC
  5
AFD9
330
AE92
100
AcDbEntity
  8
1
  6
Continuous
100
AcDbCircle
 10
312.7785289999998
 20
139.7526169999999
 30
0.0
 40
19.0
100
AcDbArc
 50
148.3151389999999
 51
82.31979200000003
  0
LINE
  5
AFDA
330
AE92
100
AcDbEntity
  8
1
  6
Continuous
100
AcDbLine
 10
313.27853
 20
165.7526149999999
 30
0.0
 11
286.27853
 21
165.7526149999999
 31
0.0
  0
ARC
  5
AFDB
330
AE92
100
AcDbEntity
  8
1
  6
Continuous
100
AcDbCircle
 10
300.0066749999998
 20
153.6124969999999
 30
0.0
 40
12.0
100
AcDbArc
 50
285.2340229999999
 51
318.73941
  0
LINE
  5
AFDC
330
AE92
100
AcDbEntity
  8
1
  6
Continuous
100
AcDbLine
 10
288.968519
 20
158.714718
 30
0.0
 11
308.4086299999999
 21
135.864685
 31
0.0
  0
LINE
  5
AFDD
330
AE92
100
AcDbEntity
  8
1
  6
Continuous
100
AcDbLine
 10
322.7785299999998
 20
170.7526169999999
 30
0.0
 11
276.7785299999999
 21
170.7526169999999
 31
0.0
  0
LINE
  5
AFDE
330
AE92
100
AcDbEntity
  8
1
  6
Continuous
100
AcDbLine
 10
322.7785299999998
 20
169.1526169999999
 30
0.0
 11
276.7785299999999
 21
169.1526169999999
 31
0.0
  0
LINE
  5
AFDF
330
AE92
100
AcDbEntity
  8
1
  6
Continuous
100
AcDbLine
 10
284.975364
 20
166.5526159999997
 30
0.0
 11
314.5785329999998
 21
166.5526159999997
 31
0.0
  0
LINE
  5
AFE0
330
AE92
100
AcDbEntity
  8
4
  6
CENTER
 48
0.5
100
AcDbLine
 10
336.778529
 20
139.7526169999999
 30
0.0
 11
288.778529
 21
139.7526169999999
 31
0.0
  0
ARC
  5
AFE1
330
AE92
100
AcDbEntity
  8
1
  6
Continuous
100
AcDbCircle
 10
312.9785299999998
 20
139.7526169999999
 30
0.0
 40
6.0
100
AcDbArc
 50
220.390123
 51
11.35262299999999
  0
LINE
  5
AFE2
330
AE92
100
AcDbEntity
  8
1
  6
Continuous
100
AcDbLine
 10
318.8611349999998
 20
140.933697
 30
0.0
 11
314.769969
 21
161.3105659999999
 31
0.0
  0
LINE
  5
AFE3
330
AE92
100
AcDbEntity
  8
1
  6
Continuous
100
AcDbLine
 10
316.2785299999999
 20
160.0526139999998
 30
0.0
 11
315.0221179999998
 21
160.0526139999998
 31
0.0
  0
LINE
  5
AFE4
330
AE92
100
AcDbEntity
  8
4
  6
CENTER
 48
0.5
100
AcDbLine
 10
317.77853
 20
174.452617
 30
0.0
 11
317.77853
 21
165.452617
 31
0.0
  0
LINE
  5
AFE5
330
AE92
100
AcDbEntity
  8
1
  6
Continuous
100
AcDbLine
 10
311.7785299999998
 20
164.1448709999997
 30
0.0
 11
311.7785299999998
 21
146.077217
 31
0.0
  0
LINE
  5
AFE6
330
AE92
100
AcDbEntity
  8
1
  6
Continuous
100
AcDbLine
 10
322.7785299999998
 20
170.7526169999999
 30
0.0
 11
322.7785299999998
 21
169.1526169999999
 31
0.0
  0
LINE
  5
AFE7
330
AE92
100
AcDbEntity
  8
1
  6
Continuous
100
AcDbLine
 10
317.158205
 20
168.824994
 30
0.0
 11
316.92527
 21
168.1907479999999
 31
0.0
  0
LINE
  5
AFE8
330
AE92
100
AcDbEntity
  8
1
  6
Continuous
100
AcDbLine
 10
317.278778
 20
162.5526139999998
 30
0.0
 11
313.8382609999998
 21
164.7213689999998
 31
0.0
  0
ARC
  5
AFE9
330
AE92
100
AcDbEntity
  8
1
  6
Continuous
100
AcDbCircle
 10
314.5785309999999
 20
169.0526179999999
 30
0.0
 40
2.5
100
AcDbArc
 50
269.99998
 51
339.8336299999998
  0
ARC
  5
AFEA
330
AE92
100
AcDbEntity
  8
1
  6
Continuous
100
AcDbCircle
 10
317.6275539999998
 20
168.6526209999998
 30
0.0
 40
0.5
100
AcDbArc
 50
90.00003799999998
 51
159.83358
  0
ARC
  5
AFEB
330
AE92
100
AcDbEntity
  8
1
  6
Continuous
100
AcDbCircle
 10
308.1239169999999
 20
166.5341149999999
 30
0.0
 40
2.381499999999999
100
AcDbArc
 50
340.84322
 51
359.9999599999999
  0
ARC
  5
AFEC
330
AE92
100
AcDbEntity
  8
1
  6
Continuous
100
AcDbCircle
 10
310.143068
 20
166.5341149999999
 30
0.0
 40
2.381499999999999
100
AcDbArc
 50
340.84322
 51
359.9999599999999
  0
ARC
  5
AFED
330
AE92
100
AcDbEntity
  8
1
  6
Continuous
100
AcDbCircle
 10
312.307888
 20
163.0913639999999
 30
0.0
 40
5.0
100
AcDbArc
 50
322.5730299999999
 51
353.81439
  0
ARC
  5
AFEE
330
AE92
100
AcDbEntity
  8
1
  6
Continuous
100
AcDbCircle
 10
318.497771
 20
157.9783749999998
 30
0.0
 40
5.0
100
AcDbArc
 50
113.8158629999999
 51
138.2072439999998
  0
ARC
  5
AFEF
330
AE92
100
AcDbEntity
  8
1
  6
Continuous
100
AcDbCircle
 10
313.27853
 20
163.2526149999999
 30
0.0
 40
2.5
100
AcDbArc
 50
5.827520999999999
 51
90.0
  0
LINE
  5
AFF0
330
AE92
100
AcDbEntity
  8
4
  6
CENTER
 48
0.5
100
AcDbLine
 10
312.7785289999998
 20
160.7526169999998
 30
0.0
 11
312.7785289999998
 21
115.7526169999999
 31
0.0
  0
LINE
  5
AFF1
330
AE92
100
AcDbEntity
  8
4
  6
CENTER
 48
0.5
100
AcDbLine
 10
299.7785299999998
 20
174.1026169999999
 30
0.0
 11
299.7785299999998
 21
141.7526169999999
 31
0.0
  0
ARC
  5
AFF2
330
AE92
100
AcDbEntity
  8
1
  6
Continuous
100
AcDbCircle
 10
299.7785299999998
 20
166.5341149999999
 30
0.0
 40
2.381499999999999
100
AcDbArc
 50
180.0
 51
199.1568
  0
ARC
  5
AFF3
330
AE92
100
AcDbEntity
  8
1
  6
Continuous
100
AcDbCircle
 10
295.1372909999999
 20
166.5341149999999
 30
0.0
 40
2.381499999999999
100
AcDbArc
 50
340.84322
 51
347.01691
  0
ARC
  5
AFF4
330
AE92
100
AcDbEntity
  8
1
  6
Continuous
100
AcDbCircle
 10
299.7785299999998
 20
166.5341149999999
 30
0.0
 40
2.381499999999999
100
AcDbArc
 50
340.84322
 51
359.9999599999999
  0
ARC
  5
AFF5
330
AE92
100
AcDbEntity
  8
1
  6
Continuous
100
AcDbCircle
 10
304.4197689999998
 20
166.5341149999999
 30
0.0
 40
2.381499999999999
100
AcDbArc
 50
340.84322
 51
359.9999599999999
  0
ARC
  5
AFF6
330
AE92
100
AcDbEntity
  8
1
  6
Continuous
100
AcDbCircle
 10
295.1372909999999
 20
166.5341149999999
 30
0.0
 40
2.381499999999999
100
AcDbArc
 50
179.5548789999998
 51
199.1568
  0
ARC
  5
AFF7
330
AE92
100
AcDbEntity
  8
1
  6
Continuous
100
AcDbCircle
 10
304.4197689999998
 20
166.5341149999999
 30
0.0
 40
2.381499999999999
100
AcDbArc
 50
192.98306
 51
199.1568
  0
ARC
  5
AFF8
330
AE92
100
AcDbEntity
  8
1
  6
Continuous
100
AcDbCircle
 10
285.921919
 20
156.1227629999999
 30
0.0
 40
4.0
100
AcDbArc
 50
40.39012299999996
 51
85.31855400000003
  0
LINE
  5
AFF9
330
AE92
100
AcDbEntity
  8
4
  6
CENTER
 48
0.5
100
AcDbLine
 10
281.77853
 20
174.452617
 30
0.0
 11
281.77853
 21
165.452617
 31
0.0
  0
LINE
  5
AFFA
330
AE92
100
AcDbEntity
  8
1
  6
Continuous
100
AcDbLine
 10
276.7785299999999
 20
170.7526169999999
 30
0.0
 11
276.7785299999999
 21
169.1526169999999
 31
0.0
  0
LINE
  5
AFFB
330
AE92
100
AcDbEntity
  8
1
  6
Continuous
100
AcDbLine
 10
282.3988529999998
 20
168.8249899999999
 30
0.0
 11
282.6317899999999
 21
168.1907449999999
 31
0.0
  0
LINE
  5
AFFC
330
AE92
100
AcDbEntity
  8
1
  6
Continuous
100
AcDbLine
 10
283.7785299999998
 20
160.3116719999999
 30
0.0
 11
286.2483819999998
 21
160.1094189999997
 31
0.0
  0
ARC
  5
AFFD
330
AE92
100
AcDbEntity
  8
1
  6
Continuous
100
AcDbCircle
 10
284.9785269999998
 20
169.0526139999998
 30
0.0
 40
2.5
100
AcDbArc
 50
200.16638
 51
269.99998
  0
ARC
  5
AFFE
330
AE92
100
AcDbEntity
  8
1
  6
Continuous
100
AcDbCircle
 10
281.9295079999998
 20
168.6526159999999
 30
0.0
 40
0.5
100
AcDbArc
 50
20.16643999999998
 51
89.99997699999999
  0
ARC
  5
AFFF
330
AE92
100
AcDbEntity
  8
1
  6
Continuous
100
AcDbCircle
 10
291.4331429999998
 20
166.5341149999999
 30
0.0
 40
2.381499999999999
100
AcDbArc
 50
180.0
 51
199.1568
  0
ARC
  5
B000
330
AE92
100
AcDbEntity
  8
1
  6
Continuous
100
AcDbCircle
 10
289.41399
 20
166.5341149999999
 30
0.0
 40
2.381499999999999
100
AcDbArc
 50
180.0
 51
199.1568
  0
LINE
  5
B001
330
AE92
100
AcDbEntity
  8
1
  6
Continuous
100
AcDbLine
 10
283.7785299999998
 20
163.2526149999999
 30
0.0
 11
283.7785299999998
 21
160.3116719999999
 31
0.0
  0
ARC
  5
B002
330
AE92
100
AcDbEntity
  8
1
  6
Continuous
100
AcDbCircle
 10
286.27853
 20
163.2526149999999
 30
0.0
 40
2.5
100
AcDbArc
 50
90.0
 51
180.0
  0
LINE
  5
B007
330
AE92
100
AcDbEntity
  8
1
  6
Continuous
100
AcDbLine
 10
34.27852999999998
 20
136.729805
 30
0.0
 11
34.77852999999999
 21
136.729805
 31
0.0
  0
LINE
  5
B008
330
AE92
100
AcDbEntity
  8
1
  6
Continuous
100
AcDbLine
 10
34.27852999999998
 20
142.729805
 30
0.0
 11
34.77852999999999
 21
142.729805
 31
0.0
  0
LINE
  5
B009
330
AE92
100
AcDbEntity
  8
1
  6
Continuous
100
AcDbLine
 10
54.77853
 20
142.729805
 30
0.0
 11
55.27853
 21
142.729805
 31
0.0
  0
LINE
  5
B00A
330
AE92
100
AcDbEntity
  8
1
  6
Continuous
100
AcDbLine
 10
54.77853
 20
136.729805
 30
0.0
 11
55.27853
 21
136.729805
 31
0.0
  0
LINE
  5
B00B
330
AE92
100
AcDbEntity
  8
1
  6
Continuous
100
AcDbLine
 10
119.8013419999998
 20
51.202617
 30
0.0
 11
119.8013419999998
 21
51.702617
 31
0.0
  0
LINE
  5
B00C
330
AE92
100
AcDbEntity
  8
1
  6
Continuous
100
AcDbLine
 10
125.8013419999999
 20
51.202617
 30
0.0
 11
125.8013419999999
 21
51.702617
 31
0.0
  0
LINE
  5
B00D
330
AE92
100
AcDbEntity
  8
1
  6
Continuous
100
AcDbLine
 10
119.8013419999998
 20
71.70261700000001
 30
0.0
 11
119.8013419999998
 21
72.202617
 31
0.0
  0
LINE
  5
B00E
330
AE92
100
AcDbEntity
  8
1
  6
Continuous
100
AcDbLine
 10
125.8013419999999
 20
71.70261700000001
 30
0.0
 11
125.8013419999999
 21
72.202617
 31
0.0
  0
LINE
  5
B00F
330
AE92
100
AcDbEntity
  8
1
  6
Continuous
100
AcDbLine
 10
228.27853
 20
142.729805
 30
0.0
 11
227.77853
 21
142.729805
 31
0.0
  0
LINE
  5
B010
330
AE92
100
AcDbEntity
  8
1
  6
Continuous
100
AcDbLine
 10
228.27853
 20
136.729805
 30
0.0
 11
227.77853
 21
136.729805
 31
0.0
  0
LINE
  5
B011
330
AE92
100
AcDbEntity
  8
1
  6
Continuous
100
AcDbLine
 10
207.7785299999999
 20
136.729805
 30
0.0
 11
207.27853
 21
136.729805
 31
0.0
  0
LINE
  5
B012
330
AE92
100
AcDbEntity
  8
1
  6
Continuous
100
AcDbLine
 10
207.7785299999999
 20
142.729805
 30
0.0
 11
207.27853
 21
142.729805
 31
0.0
  0
LINE
  5
B013
330
AE92
100
AcDbEntity
  8
1
  6
Continuous
100
AcDbLine
 10
105.1952549999999
 20
221.8026169999999
 30
0.0
 11
114.8585289999999
 21
221.8026169999999
 31
0.0
  0
LINE
  5
B014
330
AE92
100
AcDbEntity
  8
1
  6
Continuous
100
AcDbLine
 10
105.1952549999999
 20
237.802617
 30
0.0
 11
114.8585289999999
 21
237.802617
 31
0.0
  0
ARC
  5
B015
330
AE92
100
AcDbEntity
  8
1
  6
Continuous
100
AcDbCircle
 10
122.778531
 20
139.7526169999999
 30
0.0
 40
14.5
100
AcDbArc
 50
103.94475
 51
25.82601799999999
  0
ARC
  5
B016
330
AE92
100
AcDbEntity
  8
1
  6
Continuous
100
AcDbCircle
 10
163.7785299999999
 20
229.8026169999999
 30
0.0
 40
60.0
100
AcDbArc
 50
173.184833
 51
186.813929
  0
ARC
  5
B017
330
AE92
100
AcDbEntity
  8
1
  6
Continuous
100
AcDbCircle
 10
105.1952549999999
 20
222.802617
 30
0.0
 40
1.0
100
AcDbArc
 50
186.813949
 51
270.00002
  0
ARC
  5
B018
330
AE92
100
AcDbEntity
  8
1
  6
Continuous
100
AcDbCircle
 10
105.1952549999999
 20
236.8026169999999
 30
0.0
 40
1.0
100
AcDbArc
 50
90.00005499999994
 51
173.186124
  0
ARC
  5
B019
330
AE92
100
AcDbEntity
  8
1
  6
Continuous
100
AcDbCircle
 10
122.778531
 20
139.7526169999999
 30
0.0
 40
6.5
100
AcDbArc
 50
151.0575389999999
 51
345.498904
  0
ARC
  5
B01A
330
AE92
100
AcDbEntity
  8
1
  6
Continuous
100
AcDbCircle
 10
44.77852999999998
 20
180.7526169999999
 30
0.0
 40
60.0
100
AcDbArc
 50
263.1860699999999
 51
276.8151669999999
  0
ARC
  5
B01B
330
AE92
100
AcDbEntity
  8
1
  6
Continuous
100
AcDbCircle
 10
44.77852999999998
 20
98.75261700000001
 30
0.0
 40
60.0
100
AcDbArc
 50
83.18483300000002
 51
96.813929
  0
LINE
  5
B01C
330
AE92
100
AcDbEntity
  8
1
  6
Continuous
100
AcDbLine
 10
36.77852999999997
 20
157.3358919999997
 30
0.0
 11
36.77852999999997
 21
122.1693409999997
 31
0.0
  0
ARC
  5
B01D
330
AE92
100
AcDbEntity
  8
1
  6
Continuous
100
AcDbCircle
 10
37.77852999999999
 20
122.1693419999999
 30
0.0
 40
1.0
100
AcDbArc
 50
179.9999799999999
 51
263.1860399999998
  0
ARC
  5
B01E
330
AE92
100
AcDbEntity
  8
1
  6
Continuous
100
AcDbCircle
 10
37.77852999999999
 20
157.3358919999997
 30
0.0
 40
1.0
100
AcDbArc
 50
96.813949
 51
180.00002
  0
LINE
  5
B01F
330
AE92
100
AcDbEntity
  8
1
  6
Continuous
100
AcDbLine
 10
34.77852999999999
 20
145.7526169999999
 30
0.0
 11
34.77852999999999
 21
133.7526159999999
 31
0.0
  0
ARC
  5
B020
330
AE92
100
AcDbEntity
  8
1
  6
Continuous
100
AcDbCircle
 10
35.27852999999999
 20
145.7526169999999
 30
0.0
 40
0.5
100
AcDbArc
 50
96.68938699999999
 51
180.00002
  0
ARC
  5
B021
330
AE92
100
AcDbEntity
  8
1
  6
Continuous
100
AcDbCircle
 10
35.27852999999999
 20
133.7526169999997
 30
0.0
 40
0.5
100
AcDbArc
 50
179.9999799999999
 51
263.3106199999999
  0
LINE
  5
B022
330
AE92
100
AcDbEntity
  8
1
  6
Continuous
100
AcDbLine
 10
36.77852999999997
 20
146.4319769999999
 30
0.0
 11
35.22027999999997
 21
146.249212
 31
0.0
  0
LINE
  5
B023
330
AE92
100
AcDbEntity
  8
1
  6
Continuous
100
AcDbLine
 10
36.77852999999997
 20
133.0732559999999
 30
0.0
 11
35.22027999999997
 21
133.256021
 31
0.0
  0
ARC
  5
B024
330
AE92
100
AcDbEntity
  8
1
  6
Continuous
100
AcDbCircle
 10
54.27853
 20
133.7526169999997
 30
0.0
 40
0.5
100
AcDbArc
 50
276.6893099999999
 51
359.99995
  0
ARC
  5
B025
330
AE92
100
AcDbEntity
  8
1
  6
Continuous
100
AcDbCircle
 10
54.27853
 20
145.7526169999999
 30
0.0
 40
0.5
100
AcDbArc
 50
0.000055
 51
83.31068600000001
  0
LINE
  5
B026
330
AE92
100
AcDbEntity
  8
1
  6
Continuous
100
AcDbLine
 10
52.77853
 20
157.3358919999997
 30
0.0
 11
52.77853
 21
122.1693409999997
 31
0.0
  0
LINE
  5
B027
330
AE92
100
AcDbEntity
  8
1
  6
Continuous
100
AcDbLine
 10
52.77853
 20
133.073255
 30
0.0
 11
54.336777
 21
133.2560189999999
 31
0.0
  0
LINE
  5
B028
330
AE92
100
AcDbEntity
  8
1
  6
Continuous
100
AcDbLine
 10
52.77853
 20
146.4319779999998
 30
0.0
 11
54.336777
 21
146.2492139999999
 31
0.0
  0
ARC
  5
B029
330
AE92
100
AcDbEntity
  8
1
  6
Continuous
100
AcDbCircle
 10
51.77852999999998
 20
122.1693419999999
 30
0.0
 40
1.0
100
AcDbArc
 50
276.81388
 51
359.99995
  0
ARC
  5
B02A
330
AE92
100
AcDbEntity
  8
1
  6
Continuous
100
AcDbCircle
 10
51.77852999999998
 20
157.3358919999997
 30
0.0
 40
1.0
100
AcDbArc
 50
0.000055
 51
83.18612399999997
  0
LINE
  5
B02B
330
AE92
100
AcDbEntity
  8
1
  6
Continuous
100
AcDbLine
 10
54.77853
 20
145.7526169999999
 30
0.0
 11
54.77853
 21
133.7526159999999
 31
0.0
  0
ARC
  5
B02C
330
AE92
100
AcDbEntity
  8
1
  6
Continuous
100
AcDbCircle
 10
217.77853
 20
98.75261700000001
 30
0.0
 40
60.0
100
AcDbArc
 50
83.18483300000002
 51
96.813929
  0
ARC
  5
B02D
330
AE92
100
AcDbEntity
  8
1
  6
Continuous
100
AcDbCircle
 10
217.77853
 20
180.7526169999999
 30
0.0
 40
60.0
100
AcDbArc
 50
263.1860699999999
 51
276.8151669999999
  0
LINE
  5
B02E
330
AE92
100
AcDbEntity
  8
1
  6
Continuous
100
AcDbLine
 10
209.7785299999999
 20
133.0732559999999
 30
0.0
 11
208.22028
 21
133.256021
 31
0.0
  0
LINE
  5
B02F
330
AE92
100
AcDbEntity
  8
1
  6
Continuous
100
AcDbLine
 10
209.7785299999999
 20
146.4319769999999
 30
0.0
 11
208.22028
 21
146.249212
 31
0.0
  0
ARC
  5
B030
330
AE92
100
AcDbEntity
  8
1
  6
Continuous
100
AcDbCircle
 10
208.2785299999999
 20
133.7526169999997
 30
0.0
 40
0.5
100
AcDbArc
 50
179.9999799999999
 51
263.3106199999999
  0
ARC
  5
B031
330
AE92
100
AcDbEntity
  8
1
  6
Continuous
100
AcDbCircle
 10
208.2785299999999
 20
145.7526169999999
 30
0.0
 40
0.5
100
AcDbArc
 50
96.68938699999999
 51
180.00002
  0
LINE
  5
B032
330
AE92
100
AcDbEntity
  8
1
  6
Continuous
100
AcDbLine
 10
207.7785299999999
 20
145.7526169999999
 30
0.0
 11
207.7785299999999
 21
133.7526159999999
 31
0.0
  0
ARC
  5
B033
330
AE92
100
AcDbEntity
  8
1
  6
Continuous
100
AcDbCircle
 10
210.7785299999999
 20
157.3358919999997
 30
0.0
 40
1.0
100
AcDbArc
 50
96.813949
 51
180.00002
  0
ARC
  5
B034
330
AE92
100
AcDbEntity
  8
1
  6
Continuous
100
AcDbCircle
 10
210.7785299999999
 20
122.1693419999999
 30
0.0
 40
1.0
100
AcDbArc
 50
179.9999799999999
 51
263.1860399999998
  0
LINE
  5
B035
330
AE92
100
AcDbEntity
  8
1
  6
Continuous
100
AcDbLine
 10
209.7785299999999
 20
157.3358919999997
 30
0.0
 11
209.7785299999999
 21
122.1693409999997
 31
0.0
  0
LINE
  5
B036
330
AE92
100
AcDbEntity
  8
1
  6
Continuous
100
AcDbLine
 10
227.77853
 20
145.7526169999999
 30
0.0
 11
227.77853
 21
133.7526159999999
 31
0.0
  0
ARC
  5
B037
330
AE92
100
AcDbEntity
  8
1
  6
Continuous
100
AcDbCircle
 10
224.7785299999999
 20
157.3358919999997
 30
0.0
 40
1.0
100
AcDbArc
 50
0.000055
 51
83.18612399999997
  0
ARC
  5
B038
330
AE92
100
AcDbEntity
  8
1
  6
Continuous
100
AcDbCircle
 10
224.7785299999999
 20
122.1693419999999
 30
0.0
 40
1.0
100
AcDbArc
 50
276.81388
 51
359.99995
  0
LINE
  5
B039
330
AE92
100
AcDbEntity
  8
1
  6
Continuous
100
AcDbLine
 10
225.77853
 20
146.4319779999998
 30
0.0
 11
227.336777
 21
146.2492139999999
 31
0.0
  0
LINE
  5
B03A
330
AE92
100
AcDbEntity
  8
1
  6
Continuous
100
AcDbLine
 10
225.77853
 20
133.073255
 30
0.0
 11
227.336777
 21
133.2560189999999
 31
0.0
  0
LINE
  5
B03B
330
AE92
100
AcDbEntity
  8
1
  6
Continuous
100
AcDbLine
 10
225.77853
 20
157.3358919999997
 30
0.0
 11
225.77853
 21
122.1693409999997
 31
0.0
  0
ARC
  5
B03C
330
AE92
100
AcDbEntity
  8
1
  6
Continuous
100
AcDbCircle
 10
227.2785299999999
 20
145.7526169999999
 30
0.0
 40
0.5
100
AcDbArc
 50
0.000055
 51
83.31068600000001
  0
ARC
  5
B03D
330
AE92
100
AcDbEntity
  8
1
  6
Continuous
100
AcDbCircle
 10
227.2785299999999
 20
133.7526169999997
 30
0.0
 40
0.5
100
AcDbArc
 50
276.6893099999999
 51
359.99995
  0
LINE
  5
B03E
330
AE92
100
AcDbEntity
  8
1
  6
Continuous
100
AcDbLine
 10
105.1952549999999
 20
69.702617
 30
0.0
 11
140.361806
 21
69.702617
 31
0.0
  0
LINE
  5
B03F
330
AE92
100
AcDbEntity
  8
1
  6
Continuous
100
AcDbLine
 10
116.0991679999999
 20
69.702617
 30
0.0
 11
116.281932
 21
71.260864
 31
0.0
  0
LINE
  5
B040
330
AE92
100
AcDbEntity
  8
1
  6
Continuous
100
AcDbLine
 10
116.0991689999999
 20
53.702617
 30
0.0
 11
116.281934
 21
52.144367
 31
0.0
  0
LINE
  5
B041
330
AE92
100
AcDbEntity
  8
1
  6
Continuous
100
AcDbLine
 10
105.1952549999999
 20
53.702617
 30
0.0
 11
140.361806
 21
53.702617
 31
0.0
  0
ARC
  5
B042
330
AE92
100
AcDbEntity
  8
1
  6
Continuous
100
AcDbCircle
 10
105.1952549999999
 20
68.702617
 30
0.0
 40
1.0
100
AcDbArc
 50
90.00005499999994
 51
173.186124
  0
ARC
  5
B043
330
AE92
100
AcDbEntity
  8
1
  6
Continuous
100
AcDbCircle
 10
105.1952549999999
 20
54.702617
 30
0.0
 40
1.0
100
AcDbArc
 50
186.813949
 51
270.00002
  0
ARC
  5
B044
330
AE92
100
AcDbEntity
  8
1
  6
Continuous
100
AcDbCircle
 10
163.7785299999999
 20
61.70261700000001
 30
0.0
 40
60.0
100
AcDbArc
 50
173.184833
 51
186.813929
  0
LINE
  5
B045
330
AE92
100
AcDbEntity
  8
1
  6
Continuous
100
AcDbLine
 10
116.77853
 20
71.70261700000001
 30
0.0
 11
128.7785299999999
 21
71.70261700000001
 31
0.0
  0
ARC
  5
B046
330
AE92
100
AcDbEntity
  8
1
  6
Continuous
100
AcDbCircle
 10
116.77853
 20
71.202617
 30
0.0
 40
0.5
100
AcDbArc
 50
90.00005499999994
 51
173.310686
  0
ARC
  5
B047
330
AE92
100
AcDbEntity
  8
1
  6
Continuous
100
AcDbCircle
 10
128.7785299999999
 20
71.202617
 30
0.0
 40
0.5
100
AcDbArc
 50
6.689309999999997
 51
89.99995000000001
  0
LINE
  5
B048
330
AE92
100
AcDbEntity
  8
1
  6
Continuous
100
AcDbLine
 10
129.457891
 20
69.702617
 30
0.0
 11
129.2751269999999
 21
71.260864
 31
0.0
  0
LINE
  5
B049
330
AE92
100
AcDbEntity
  8
1
  6
Continuous
100
AcDbLine
 10
129.4578899999999
 20
53.702617
 30
0.0
 11
129.2751259999997
 21
52.144367
 31
0.0
  0
ARC
  5
B04A
330
AE92
100
AcDbEntity
  8
1
  6
Continuous
100
AcDbCircle
 10
128.7785299999999
 20
52.202617
 30
0.0
 40
0.5
100
AcDbArc
 50
269.99998
 51
353.3106199999999
  0
ARC
  5
B04B
330
AE92
100
AcDbEntity
  8
1
  6
Continuous
100
AcDbCircle
 10
116.77853
 20
52.202617
 30
0.0
 40
0.5
100
AcDbArc
 50
186.689387
 51
270.00002
  0
LINE
  5
B04C
330
AE92
100
AcDbEntity
  8
1
  6
Continuous
100
AcDbLine
 10
116.77853
 20
51.702617
 30
0.0
 11
128.7785299999999
 21
51.702617
 31
0.0
  0
ARC
  5
B04D
330
AE92
100
AcDbEntity
  8
1
  6
Continuous
100
AcDbCircle
 10
140.361805
 20
68.702617
 30
0.0
 40
1.0
100
AcDbArc
 50
6.81388
 51
89.99995000000001
  0
ARC
  5
B04E
330
AE92
100
AcDbEntity
  8
1
  6
Continuous
100
AcDbCircle
 10
140.361805
 20
54.702617
 30
0.0
 40
1.0
100
AcDbArc
 50
269.99998
 51
353.1860399999998
  0
ARC
  5
B04F
330
AE92
100
AcDbEntity
  8
1
  6
Continuous
100
AcDbCircle
 10
81.77853
 20
61.70261700000001
 30
0.0
 40
60.0
100
AcDbArc
 50
353.1860699999999
 51
6.815166999999999
  0
ARC
  5
B050
330
AE92
100
AcDbEntity
  8
1
  6
Continuous
100
AcDbCircle
 10
312.7785289999998
 20
139.7526169999999
 30
0.0
 40
6.5
100
AcDbArc
 50
194.5010959999999
 51
28.942461
  0
ARC
  5
B051
330
AE92
100
AcDbEntity
  8
1
  6
Continuous
100
AcDbCircle
 10
312.7785289999998
 20
139.7526169999999
 30
0.0
 40
14.5
100
AcDbArc
 50
154.173982
 51
76.05525
  0
ARC
  5
B075
330
AE92
100
AcDbEntity
  8
1
  6
Continuous
100
AcDbCircle
 10
208.2214830030526
 20
158.333805
 30
0.0
 40
2.0
100
AcDbArc
 50
89.9999999999992
 51
142.354505238832
  0
ARC
  5
B076
330
AE92
100
AcDbEntity
  8
1
  6
Continuous
100
AcDbCircle
 10
227.335575996947
 20
158.333805
 30
0.0
 40
2.0
100
AcDbArc
 50
37.64549476116852
 51
90.0
  0
ENDSEC
  0
SECTION
  2
OBJECTS
  0
DICTIONARY
  5
AE80
330
0
100
AcDbDictionary
281
     1
  3
ACAD_CIP_PREVIOUS_PRODUCT_INFO
350
B0D6
  3
ACAD_COLOR
350
B0B8
  3
ACAD_DETAILVIEWSTYLE
350
B0D1
  3
ACAD_GROUP
350
AE81
  3
ACAD_LAYOUT
350
AE8D
  3
ACAD_MATERIAL
350
B086
  3
ACAD_MLEADERSTYLE
350
B0CD
  3
ACAD_MLINESTYLE
350
AE8A
  3
ACAD_PLOTSETTINGS
350
AE8C
  3
ACAD_PLOTSTYLENAME
350
B084
  3
ACAD_SCALELIST
350
B0BB
  3
ACAD_SECTIONVIEWSTYLE
350
B0CF
  3
ACAD_TABLESTYLE
350
B0B9
  3
ACAD_VISUALSTYLE
350
B09F
  3
ACDB_RECOMPOSE_DATA
350
B0F4
  3
AcDbVariableDictionary
350
B0E7
  3
DWGPROPS
350
B0F5
  0
DICTIONARY
  5
B0D7
330
AE84
100
AcDbDictionary
280
     1
281
     1
  3
ADSK_XREC_LAYER_RECONCILED
360
B0D8
  0
DICTIONARY
  5
B0D9
330
AE9A
100
AcDbDictionary
280
     1
281
     1
  3
ADSK_XREC_LAYER_RECONCILED
360
B0DA
  0
DICTIONARY
  5
B0DB
330
AE9B
100
AcDbDictionary
280
     1
281
     1
  3
ADSK_XREC_LAYER_RECONCILED
360
B0DC
  0
DICTIONARY
  5
B0DD
330
AE9C
100
AcDbDictionary
280
     1
281
     1
  3
ADSK_XREC_LAYER_RECONCILED
360
B0DE
  0
DICTIONARY
  5
B0DF
330
AE9D
100
AcDbDictionary
280
     1
281
     1
  3
ADSK_XREC_LAYER_RECONCILED
360
B0E0
  0
DICTIONARY
  5
B0E1
330
AE9E
100
AcDbDictionary
280
     1
281
     1
  3
ADSK_XREC_LAYER_RECONCILED
360
B0E2
  0
DICTIONARY
  5
B0E3
330
AE9F
100
AcDbDictionary
280
     1
281
     1
  3
ADSK_XREC_LAYER_RECONCILED
360
B0E4
  0
DICTIONARY
  5
B0E5
330
AEA0
100
AcDbDictionary
280
     1
281
     1
  3
ADSK_XREC_LAYER_RECONCILED
360
B0E6
  0
DICTIONARY
  5
B05C
330
AE92
100
AcDbDictionary
281
     1
  3
ACAD_LAYOUTSELFREF
350
B080
  0
DICTIONARY
  5
B05A
330
AE8E
100
AcDbDictionary
281
     1
  3
ACAD_LAYOUTSELFREF
350
B07F
  0
XRECORD
  5
B0D6
102
{ACAD_REACTORS
330
AE80
102
}
330
AE80
100
AcDbXrecord
280
     1
300
ACDLT
300
2014
300
ACDLT_F_S
  0
DICTIONARY
  5
B0B8
102
{ACAD_REACTORS
330
AE80
102
}
330
AE80
100
AcDbDictionary
281
     1
  0
DICTIONARY
  5
B0D1
102
{ACAD_REACTORS
330
AE80
102
}
330
AE80
100
AcDbDictionary
281
     1
  3
Imperial24
350
B0D2
  0
DICTIONARY
  5
AE81
102
{ACAD_REACTORS
330
AE80
102
}
330
AE80
100
AcDbDictionary
281
     1
  0
DICTIONARY
  5
AE8D
102
{ACAD_REACTORS
330
AE80
102
}
330
AE80
100
AcDbDictionary
281
     1
  3
Model
350
B0D3
  3
レイアウト1
350
B0D4
  0
DICTIONARY
  5
B086
102
{ACAD_REACTORS
330
AE80
102
}
330
AE80
100
AcDbDictionary
281
     1
  3
ByBlock
350
B08F
  3
ByLayer
350
B087
  3
Global
350
B097
  0
DICTIONARY
  5
B0CD
102
{ACAD_REACTORS
330
AE80
102
}
330
AE80
100
AcDbDictionary
281
     1
  3
Standard
350
B0CE
  0
DICTIONARY
  5
AE8A
102
{ACAD_REACTORS
330
AE80
102
}
330
AE80
100
AcDbDictionary
281
     1
  3
STANDARD
350
AE8B
  0
DICTIONARY
  5
AE8C
102
{ACAD_REACTORS
330
AE80
102
}
330
AE80
100
AcDbDictionary
281
     1
  0
ACDBDICTIONARYWDFLT
  5
B084
102
{ACAD_REACTORS
330
AE80
102
}
330
AE80
100
AcDbDictionary
281
     1
  3
Normal
350
B085
100
AcDbDictionaryWithDefault
340
B085
  0
DICTIONARY
  5
B0BB
102
{ACAD_REACTORS
330
AE80
102
}
330
AE80
100
AcDbDictionary
281
     1
  3
A0
350
B0BC
  3
A1
350
B0BD
  3
A2
350
B0BE
  3
A3
350
B0BF
  3
A4
350
B0C0
  3
A5
350
B0C1
  3
A6
350
B0C2
  3
A7
350
B0C3
  3
A8
350
B0C4
  3
A9
350
B0C5
  3
B0
350
B0C6
  3
B1
350
B0C7
  3
B2
350
B0C8
  3
B3
350
B0C9
  3
B4
350
B0CA
  3
B5
350
B0CB
  3
B6
350
B0CC
  0
DICTIONARY
  5
B0CF
102
{ACAD_REACTORS
330
AE80
102
}
330
AE80
100
AcDbDictionary
281
     1
  3
Imperial24
350
B0D0
  0
DICTIONARY
  5
B0B9
102
{ACAD_REACTORS
330
AE80
102
}
330
AE80
100
AcDbDictionary
281
     1
  3
Standard
350
B0BA
  0
DICTIONARY
  5
B09F
102
{ACAD_REACTORS
330
AE80
102
}
330
AE80
100
AcDbDictionary
281
     1
  3
2dWireframe
350
B0A5
  3
Basic
350
B0A4
  3
Brighten
350
B0AB
  3
ColorChange
350
B0AF
  3
Conceptual
350
B0A8
  3
Dim
350
B0AA
  3
EdgeColorOff
350
B0B7
  3
Facepattern
350
B0AE
  3
Flat
350
B0A0
  3
FlatWithEdges
350
B0A1
  3
Gouraud
350
B0A2
  3
GouraudWithEdges
350
B0A3
  3
Hidden
350
B0A7
  3
JitterOff
350
B0B5
  3
Linepattern
350
B0AD
  3
OverhangOff
350
B0B6
  3
Realistic
350
B0A9
  3
Shaded
350
B0B4
  3
Shaded with edges
350
B0B3
  3
Shades of Gray
350
B0B0
  3
Sketchy
350
B0B1
  3
Thicken
350
B0AC
  3
Wireframe
350
B0A6
  3
X-Ray
350
B0B2
  0
XRECORD
  5
B0F4
102
{ACAD_REACTORS
330
AE80
102
}
330
AE80
100
AcDbXrecord
280
     1
 90
        1
330
B0BA
  0
DICTIONARY
  5
B0E7
102
{ACAD_REACTORS
330
AE80
102
}
330
AE80
100
AcDbDictionary
281
     1
  3
CANNOSCALE
350
B0EC
  3
CMLEADERSTYLE
350
B0E9
  3
CTABLESTYLE
350
B0E8
  3
CVIEWDETAILSTYLE
350
B0EA
  3
CVIEWSECTIONSTYLE
350
B0EB
  3
DIMASSOC
350
B0EF
  3
INDEXCTL
350
B0EE
  3
SORTENTS
350
B0ED
  3
XCLIPFRAME
350
B0F0
  0
XRECORD
  5
B0F5
102
{ACAD_REACTORS
330
AE80
102
}
330
AE80
100
AcDbXrecord
280
     1
  1
DWGPROPS COOKIE
  2

  3

  4

  6

  7

  8
Yoshitsune
  9

300
=
301
=
302
=
303
=
304
=
305
=
306
=
307
=
308
=
309
=
 40
0.0992241087962963
 41
2451301.46150382
 42
2457192.690456528
  1

 90
        0
  0
XRECORD
  5
B0D8
102
{ACAD_REACTORS
330
B0D7
102
}
330
B0D7
100
AcDbXrecord
280
     1
290
     1
  0
XRECORD
  5
B0DA
102
{ACAD_REACTORS
330
B0D9
102
}
330
B0D9
100
AcDbXrecord
280
     1
290
     1
  0
XRECORD
  5
B0DC
102
{ACAD_REACTORS
330
B0DB
102
}
330
B0DB
100
AcDbXrecord
280
     1
290
     1
  0
XRECORD
  5
B0DE
102
{ACAD_REACTORS
330
B0DD
102
}
330
B0DD
100
AcDbXrecord
280
     1
290
     1
  0
XRECORD
  5
B0E0
102
{ACAD_REACTORS
330
B0DF
102
}
330
B0DF
100
AcDbXrecord
280
     1
290
     1
  0
XRECORD
  5
B0E2
102
{ACAD_REACTORS
330
B0E1
102
}
330
B0E1
100
AcDbXrecord
280
     1
290
     1
  0
XRECORD
  5
B0E4
102
{ACAD_REACTORS
330
B0E3
102
}
330
B0E3
100
AcDbXrecord
280
     1
290
     1
  0
XRECORD
  5
B0E6
102
{ACAD_REACTORS
330
B0E5
102
}
330
B0E5
100
AcDbXrecord
280
     1
290
     1
  0
XRECORD
  5
B080
102
{ACAD_REACTORS
330
B05C
102
}
330
B05C
100
AcDbXrecord
280
     1
340
AE92
  0
XRECORD
  5
B07F
102
{ACAD_REACTORS
330
B05A
102
}
330
B05A
100
AcDbXrecord
280
     1
340
AE8E
  0
ACDBDETAILVIEWSTYLE
  5
B0D2
102
{ACAD_XDICTIONARY
360
B12D
102
}
102
{ACAD_REACTORS
330
B0D1
102
}
330
B0D1
100
AcDbModelDocViewStyle
 70
     0
  3
Imperial24
290
     0
100
AcDbDetailViewStyle
 70
     0
 71
     0
 90
        3
 71
     1
340
AE85
 40
0.24
340
0
 40
0.24
300

 40
0.36
280
     3
 71
     2
340
AE89
 90
       25
 71
     3
340
AE85
 40
0.24
 90
        1
 40
0.75
 90
        1
300
%<\AcVar ViewType \f "%tc1">% %<\AcVar ViewDetailId>%\PSCALE %<\AcVar ViewScale \f "%sn">%
 71
     4
340
AE89
 90
       25
340
AE89
 90
       25
280
     0
  0
LAYOUT
  5
B0D3
102
{ACAD_XDICTIONARY
360
B12F
102
}
102
{ACAD_REACTORS
330
AE8D
102
}
330
AE8D
100
AcDbPlotSettings
  1

  2
Canon LBP9100C
  4

  6

 40
0.0
 41
0.0
 42
0.0
 43
0.0
 44
0.0
 45
0.0
 46
0.0
 47
0.0
 48
0.0
 49
0.0
140
0.0
141
0.0
142
1.0
143
1.0
 70
  1712
 72
     0
 73
     0
 74
     0
  7

 75
     0
147
1.0
148
0.0
149
0.0
100
AcDbLayout
  1
Model
 70
     1
 71
     0
 10
0.0
 20
0.0
 11
12.0
 21
9.0
 12
0.0
 22
0.0
 32
0.0
 14
0.0
 24
0.0
 34
0.0
 15
0.0
 25
0.0
 35
0.0
146
0.0
 13
0.0
 23
0.0
 33
0.0
 16
1.0
 26
0.0
 36
0.0
 17
0.0
 27
1.0
 37
0.0
 76
     0
330
AE92
331
B07E
  0
LAYOUT
  5
B0D4
102
{ACAD_XDICTIONARY
360
B131
102
}
102
{ACAD_REACTORS
330
AE8D
102
}
330
AE8D
100
AcDbPlotSettings
  1

  2
Canon LBP9100C
  4

  6

 40
0.0
 41
0.0
 42
0.0
 43
0.0
 44
0.0
 45
0.0
 46
0.0
 47
0.0
 48
0.0
 49
0.0
140
0.0
141
0.0
142
1.0
143
1.0
 70
   688
 72
     0
 73
     0
 74
     5
  7

 75
    16
147
1.0
148
0.0
149
0.0
100
AcDbLayout
  1
レイアウト1
 70
     0
 71
     1
 10
0.0
 20
0.0
 11
420.0
 21
297.0
 12
0.0
 22
0.0
 32
0.0
 14
1.000000000000000E+20
 24
1.000000000000000E+20
 34
1.000000000000000E+20
 15
-1.000000000000000E+20
 25
-1.000000000000000E+20
 35
-1.000000000000000E+20
146
0.0
 13
0.0
 23
0.0
 33
0.0
 16
1.0
 26
0.0
 36
0.0
 17
0.0
 27
1.0
 37
0.0
 76
     0
330
AE8E
  0
MATERIAL
  5
B08F
102
{ACAD_XDICTIONARY
360
B090
102
}
102
{ACAD_REACTORS
330
B086
102
}
330
B086
100
AcDbMaterial
  1
ByBlock
 72
     0
 43
0.0208333333333333
 43
0.0
 43
0.0
 43
0.0
 43
0.0
 43
0.0208333333333333
 43
0.0
 43
0.0
 43
0.0
 43
0.0
 43
1.0
 43
0.0
 43
0.0
 43
0.0
 43
0.0
 43
1.0
 77
     0
 47
0.0208333333333333
 47
0.0
 47
0.0
 47
0.0
 47
0.0
 47
0.0208333333333333
 47
0.0
 47
0.0
 47
0.0
 47
0.0
 47
1.0
 47
0.0
 47
0.0
 47
0.0
 47
0.0
 47
1.0
171
     0
 49
0.0208333333333333
 49
0.0
 49
0.0
 49
0.0
 49
0.0
 49
0.0208333333333333
 49
0.0
 49
0.0
 49
0.0
 49
0.0
 49
1.0
 49
0.0
 49
0.0
 49
0.0
 49
0.0
 49
1.0
175
     0
142
0.0208333333333333
142
0.0
142
0.0
142
0.0
142
0.0
142
0.0208333333333333
142
0.0
142
0.0
142
0.0
142
0.0
142
1.0
142
0.0
142
0.0
142
0.0
142
0.0
142
1.0
179
     0
144
0.0208333333333333
144
0.0
144
0.0
144
0.0
144
0.0
144
0.0208333333333333
144
0.0
144
0.0
144
0.0
144
0.0
144
1.0
144
0.0
144
0.0
144
0.0
144
0.0
144
1.0
147
0.0208333333333333
147
0.0
147
0.0
147
0.0
147
0.0
147
0.0208333333333333
147
0.0
147
0.0
147
0.0
147
0.0
147
1.0
147
0.0
147
0.0
147
0.0
147
0.0
147
1.0
  0
MATERIAL
  5
B087
102
{ACAD_XDICTIONARY
360
B088
102
}
102
{ACAD_REACTORS
330
B086
102
}
330
B086
100
AcDbMaterial
  1
ByLayer
 72
     0
 43
0.0208333333333333
 43
0.0
 43
0.0
 43
0.0
 43
0.0
 43
0.0208333333333333
 43
0.0
 43
0.0
 43
0.0
 43
0.0
 43
1.0
 43
0.0
 43
0.0
 43
0.0
 43
0.0
 43
1.0
 77
     0
 47
0.0208333333333333
 47
0.0
 47
0.0
 47
0.0
 47
0.0
 47
0.0208333333333333
 47
0.0
 47
0.0
 47
0.0
 47
0.0
 47
1.0
 47
0.0
 47
0.0
 47
0.0
 47
0.0
 47
1.0
171
     0
 49
0.0208333333333333
 49
0.0
 49
0.0
 49
0.0
 49
0.0
 49
0.0208333333333333
 49
0.0
 49
0.0
 49
0.0
 49
0.0
 49
1.0
 49
0.0
 49
0.0
 49
0.0
 49
0.0
 49
1.0
175
     0
142
0.0208333333333333
142
0.0
142
0.0
142
0.0
142
0.0
142
0.0208333333333333
142
0.0
142
0.0
142
0.0
142
0.0
142
1.0
142
0.0
142
0.0
142
0.0
142
0.0
142
1.0
179
     0
144
0.0208333333333333
144
0.0
144
0.0
144
0.0
144
0.0
144
0.0208333333333333
144
0.0
144
0.0
144
0.0
144
0.0
144
1.0
144
0.0
144
0.0
144
0.0
144
0.0
144
1.0
147
0.0208333333333333
147
0.0
147
0.0
147
0.0
147
0.0
147
0.0208333333333333
147
0.0
147
0.0
147
0.0
147
0.0
147
1.0
147
0.0
147
0.0
147
0.0
147
0.0
147
1.0
  0
MATERIAL
  5
B097
102
{ACAD_XDICTIONARY
360
B098
102
}
102
{ACAD_REACTORS
330
B086
102
}
330
B086
100
AcDbMaterial
  1
Global
 72
     0
 43
0.0208333333333333
 43
0.0
 43
0.0
 43
0.0
 43
0.0
 43
0.0208333333333333
 43
0.0
 43
0.0
 43
0.0
 43
0.0
 43
1.0
 43
0.0
 43
0.0
 43
0.0
 43
0.0
 43
1.0
 77
     0
 47
0.0208333333333333
 47
0.0
 47
0.0
 47
0.0
 47
0.0
 47
0.0208333333333333
 47
0.0
 47
0.0
 47
0.0
 47
0.0
 47
1.0
 47
0.0
 47
0.0
 47
0.0
 47
0.0
 47
1.0
171
     0
 49
0.0208333333333333
 49
0.0
 49
0.0
 49
0.0
 49
0.0
 49
0.0208333333333333
 49
0.0
 49
0.0
 49
0.0
 49
0.0
 49
1.0
 49
0.0
 49
0.0
 49
0.0
 49
0.0
 49
1.0
175
     0
142
0.0208333333333333
142
0.0
142
0.0
142
0.0
142
0.0
142
0.0208333333333333
142
0.0
142
0.0
142
0.0
142
0.0
142
1.0
142
0.0
142
0.0
142
0.0
142
0.0
142
1.0
179
     0
144
0.0208333333333333
144
0.0
144
0.0
144
0.0
144
0.0
144
0.0208333333333333
144
0.0
144
0.0
144
0.0
144
0.0
144
1.0
144
0.0
144
0.0
144
0.0
144
0.0
144
1.0
147
0.0208333333333333
147
0.0
147
0.0
147
0.0
147
0.0
147
0.0208333333333333
147
0.0
147
0.0
147
0.0
147
0.0
147
1.0
147
0.0
147
0.0
147
0.0
147
0.0
147
1.0
  0
MLEADERSTYLE
  5
B0CE
102
{ACAD_REACTORS
330
B0CD
102
}
330
B0CD
100
AcDbMLeaderStyle
170
     2
171
     1
172
     0
 90
        2
 40
0.0
 41
0.0
173
     1
 91
-1056964608
340
AE87
 92
       -2
290
     1
 42
0.09
291
     1
 43
0.36
  3
Standard
 44
0.18
300

342
AE85
174
     1
178
     6
175
     1
176
     0
 93
-1056964608
 45
0.18
292
     0
297
     0
 46
0.18
 94
-1056964608
 47
1.0
 49
1.0
140
1.0
293
     1
141
0.0
294
     1
177
     0
142
1.0
295
     0
296
     0
143
0.125
1001
ACAD_MLEADERVER
1070
     2
  0
MLINESTYLE
  5
AE8B
102
{ACAD_REACTORS
330
AE8A
102
}
330
AE8A
100
AcDbMlineStyle
  2
STANDARD
 70
     0
  3

 62
   256
 51
90.0
 52
90.0
 71
     2
 49
0.5
 62
   256
  6
BYLAYER
 49
-0.5
 62
   256
  6
BYLAYER
  0
ACDBPLACEHOLDER
  5
B085
102
{ACAD_REACTORS
330
B084
102
}
330
B084
  0
SCALE
  5
B0BC
102
{ACAD_REACTORS
330
B0BB
102
}
330
B0BB
100
AcDbScale
 70
     0
300
1:1
140
1.0
141
1.0
290
     1
  0
SCALE
  5
B0BD
102
{ACAD_REACTORS
330
B0BB
102
}
330
B0BB
100
AcDbScale
 70
     0
300
1/128" = 1'-0"
140
0.0078125
141
12.0
290
     0
  0
SCALE
  5
B0BE
102
{ACAD_REACTORS
330
B0BB
102
}
330
B0BB
100
AcDbScale
 70
     0
300
1/64" = 1'-0"
140
0.015625
141
12.0
290
     0
  0
SCALE
  5
B0BF
102
{ACAD_REACTORS
330
B0BB
102
}
330
B0BB
100
AcDbScale
 70
     0
300
1/32" = 1'-0"
140
0.03125
141
12.0
290
     0
  0
SCALE
  5
B0C0
102
{ACAD_REACTORS
330
B0BB
102
}
330
B0BB
100
AcDbScale
 70
     0
300
1/16" = 1'-0"
140
0.0625
141
12.0
290
     0
  0
SCALE
  5
B0C1
102
{ACAD_REACTORS
330
B0BB
102
}
330
B0BB
100
AcDbScale
 70
     0
300
3/32" = 1'-0"
140
0.09375
141
12.0
290
     0
  0
SCALE
  5
B0C2
102
{ACAD_REACTORS
330
B0BB
102
}
330
B0BB
100
AcDbScale
 70
     0
300
1/8" = 1'-0"
140
0.125
141
12.0
290
     0
  0
SCALE
  5
B0C3
102
{ACAD_REACTORS
330
B0BB
102
}
330
B0BB
100
AcDbScale
 70
     0
300
3/16" = 1'-0"
140
0.1875
141
12.0
290
     0
  0
SCALE
  5
B0C4
102
{ACAD_REACTORS
330
B0BB
102
}
330
B0BB
100
AcDbScale
 70
     0
300
1/4" = 1'-0"
140
0.25
141
12.0
290
     0
  0
SCALE
  5
B0C5
102
{ACAD_REACTORS
330
B0BB
102
}
330
B0BB
100
AcDbScale
 70
     0
300
3/8" = 1'-0"
140
0.375
141
12.0
290
     0
  0
SCALE
  5
B0C6
102
{ACAD_REACTORS
330
B0BB
102
}
330
B0BB
100
AcDbScale
 70
     0
300
1/2" = 1'-0"
140
0.5
141
12.0
290
     0
  0
SCALE
  5
B0C7
102
{ACAD_REACTORS
330
B0BB
102
}
330
B0BB
100
AcDbScale
 70
     0
300
3/4" = 1'-0"
140
0.75
141
12.0
290
     0
  0
SCALE
  5
B0C8
102
{ACAD_REACTORS
330
B0BB
102
}
330
B0BB
100
AcDbScale
 70
     0
300
1" = 1'-0"
140
1.0
141
12.0
290
     0
  0
SCALE
  5
B0C9
102
{ACAD_REACTORS
330
B0BB
102
}
330
B0BB
100
AcDbScale
 70
     0
300
1-1/2" = 1'-0"
140
1.5
141
12.0
290
     0
  0
SCALE
  5
B0CA
102
{ACAD_REACTORS
330
B0BB
102
}
330
B0BB
100
AcDbScale
 70
     0
300
3" = 1'-0"
140
3.0
141
12.0
290
     0
  0
SCALE
  5
B0CB
102
{ACAD_REACTORS
330
B0BB
102
}
330
B0BB
100
AcDbScale
 70
     0
300
6" = 1'-0"
140
6.0
141
12.0
290
     0
  0
SCALE
  5
B0CC
102
{ACAD_REACTORS
330
B0BB
102
}
330
B0BB
100
AcDbScale
 70
     0
300
1'-0" = 1'-0"
140
12.0
141
12.0
290
     0
  0
ACDBSECTIONVIEWSTYLE
  5
B0D0
102
{ACAD_XDICTIONARY
360
B12B
102
}
102
{ACAD_REACTORS
330
B0CF
102
}
330
B0CF
100
AcDbModelDocViewStyle
 70
     0
  3
Imperial24
290
     0
100
AcDbSectionViewStyle
 70
     0
 71
     0
 90
       78
 71
     1
340
AE85
 40
0.24
340
0
340
0
 40
0.24
300
I, O, Q, S, X, Z
 40
0.48
 90
        3
 40
0.18
 90
        1
 71
     2
340
AE89
 90
       25
340
AE89
 90
       50
 40
0.24
 40
0.0
 40
0.24
 71
     3
340
AE85
 40
0.24
 90
        1
 40
0.75
 90
        1
300
%<\AcVar ViewType \f "%tc1">% %<\AcVar ViewSectionStartId>%-%<\AcVar ViewSectionEndId>%\PSCALE %<\AcVar ViewScale \f "%sn">%
 71
     4
300
ANSI31
 40
1.0
 90
        0
290
     0
290
     0
 90
        6
 40
0.0
 40
1.570796326794896
 40
0.2617993877991494
 40
1.308996938995747
 40
-0.2617993877991494
 40
1.832595714594046
  0
TABLESTYLE
  5
B0BA
102
{ACAD_XDICTIONARY
360
B0F2
102
}
102
{ACAD_REACTORS
330
B0B9
102
}
330
B0B9
100
AcDbTableStyle
  3
Standard
 70
     0
 71
     0
 40
0.06
 41
0.06
280
     0
281
     0
  7
STANDARD
140
0.18
170
     2
 62
     0
 63
     7
283
     0
274
    -2
284
     1
 64
     0
275
    -2
285
     1
 65
     0
276
    -2
286
     1
 66
     0
277
    -2
287
     1
 67
     0
278
    -2
288
     1
 68
     0
279
    -2
289
     1
 69
     0
  7
STANDARD
140
0.25
170
     5
 62
     0
 63
     7
283
     0
274
    -2
284
     1
 64
     0
275
    -2
285
     1
 65
     0
276
    -2
286
     1
 66
     0
277
    -2
287
     1
 67
     0
278
    -2
288
     1
 68
     0
279
    -2
289
     1
 69
     0
  7
STANDARD
140
0.18
170
     5
 62
     0
 63
     7
283
     0
274
    -2
284
     1
 64
     0
275
    -2
285
     1
 65
     0
276
    -2
286
     1
 66
     0
277
    -2
287
     1
 67
     0
278
    -2
288
     1
 68
     0
279
    -2
289
     1
 69
     0
  0
VISUALSTYLE
  5
B0A5
102
{ACAD_XDICTIONARY
360
B103
102
}
102
{ACAD_REACTORS
330
B09F
102
}
330
B09F
100
AcDbVisualStyle
  2
2dWireframe
 70
     4
 71
     0
 72
     2
 73
     0
 90
        0
 40
-0.6
 41
-30.0
 62
     5
 63
     7
 74
     1
 91
        4
 64
     7
 65
   257
 75
     1
175
     1
 42
1.0
 92
        0
 66
   257
 43
1.0
 76
     1
 77
     6
 78
     2
 67
     7
 79
     5
170
     0
171
     0
290
     0
174
     0
 93
        1
 44
0.0
173
     0
291
     0
 45
0.0
1001
ACAD
1000
AcDbSavedByObjectVersion
1070
     0
  0
VISUALSTYLE
  5
B0A4
102
{ACAD_XDICTIONARY
360
B101
102
}
102
{ACAD_REACTORS
330
B09F
102
}
330
B09F
100
AcDbVisualStyle
  2
Basic
 70
     7
 71
     1
 72
     0
 73
     1
 90
        0
 40
-0.6
 41
-30.0
 62
     5
 63
     7
 74
     0
 91
        4
 64
     7
 65
   257
 75
     1
175
     1
 42
1.0
 92
        8
 66
     7
 43
1.0
 76
     1
 77
     6
 78
     2
 67
     7
 79
     5
170
     0
171
     0
290
     0
174
     0
 93
        1
 44
0.0
173
     0
291
     1
 45
0.0
1001
ACAD
1000
AcDbSavedByObjectVersion
1070
     0
  0
VISUALSTYLE
  5
B0AB
102
{ACAD_XDICTIONARY
360
B10F
102
}
102
{ACAD_REACTORS
330
B09F
102
}
330
B09F
100
AcDbVisualStyle
  2
Brighten
 70
    12
 71
     2
 72
     2
 73
     0
 90
        0
 40
-0.6
 41
-30.0
 62
     5
 63
     7
 74
     1
 91
        4
 64
     7
 65
   257
 75
     1
175
     1
 42
1.0
 92
        8
 66
     7
 43
1.0
 76
     1
 77
     6
 78
     2
 67
     7
 79
     5
170
     0
171
     0
290
     0
174
     0
 93
        1
 44
50.0
173
     0
291
     1
 45
0.0
1001
ACAD
1000
AcDbSavedByObjectVersion
1070
     0
  0
VISUALSTYLE
  5
B0AF
102
{ACAD_XDICTIONARY
360
B117
102
}
102
{ACAD_REACTORS
330
B09F
102
}
330
B09F
100
AcDbVisualStyle
  2
ColorChange
 70
    16
 71
     2
 72
     2
 73
     3
 90
        0
 40
-0.6
 41
-30.0
 62
     5
 63
     8
 74
     1
 91
        4
 64
     7
 65
   257
 75
     1
175
     1
 42
1.0
 92
        8
 66
     8
 43
1.0
 76
     1
 77
     6
 78
     2
 67
     7
 79
     5
170
     0
171
     0
290
     0
174
     0
 93
        1
 44
0.0
173
     0
291
     1
 45
0.0
1001
ACAD
1000
AcDbSavedByObjectVersion
1070
     0
  0
VISUALSTYLE
  5
B0A8
102
{ACAD_XDICTIONARY
360
B109
102
}
102
{ACAD_REACTORS
330
B09F
102
}
330
B09F
100
AcDbVisualStyle
  2
Conceptual
 70
     9
 71
     3
 72
     2
 73
     0
 90
        0
 40
-0.6
 41
-30.0
 62
     5
 63
     7
 74
     2
 91
        2
 64
     7
 65
   257
 75
     1
175
     1
 42
179.0
 92
        8
 66
     7
 43
1.0
 76
     1
 77
     6
 78
     2
 67
     7
 79
     3
170
     0
171
     0
290
     0
174
     0
 93
        1
 44
0.0
173
     0
291
     0
 45
0.0
1001
ACAD
1000
AcDbSavedByObjectVersion
1070
     0
  0
VISUALSTYLE
  5
B0AA
102
{ACAD_XDICTIONARY
360
B10D
102
}
102
{ACAD_REACTORS
330
B09F
102
}
330
B09F
100
AcDbVisualStyle
  2
Dim
 70
    11
 71
     2
 72
     2
 73
     0
 90
        0
 40
-0.6
 41
-30.0
 62
     5
 63
     7
 74
     1
 91
        4
 64
     7
 65
   257
 75
     1
175
     1
 42
1.0
 92
        8
 66
     7
 43
1.0
 76
     1
 77
     6
 78
     2
 67
     7
 79
     5
170
     0
171
     0
290
     0
174
     0
 93
        1
 44
-50.0
173
     0
291
     1
 45
0.0
1001
ACAD
1000
AcDbSavedByObjectVersion
1070
     0
  0
VISUALSTYLE
  5
B0B7
102
{ACAD_XDICTIONARY
360
B127
102
}
102
{ACAD_REACTORS
330
B09F
102
}
330
B09F
100
AcDbVisualStyle
  2
EdgeColorOff
 70
    22
 71
     2
 72
     2
 73
     0
 90
        0
 40
-0.6
 41
-30.0
 62
     5
 63
     7
 74
     1
 91
        4
 64
     7
 65
   257
 75
     1
175
     1
 42
1.0
 92
        8
 66
     7
 43
1.0
 76
     1
 77
     6
 78
     2
 67
     7
 79
     5
170
     0
171
     0
290
     0
174
     0
 93
        1
 44
0.0
173
     0
291
     1
 45
0.0
1001
ACAD
1000
AcDbSavedByObjectVersion
1070
     0
  0
VISUALSTYLE
  5
B0AE
102
{ACAD_XDICTIONARY
360
B115
102
}
102
{ACAD_REACTORS
330
B09F
102
}
330
B09F
100
AcDbVisualStyle
  2
Facepattern
 70
    15
 71
     2
 72
     2
 73
     0
 90
        0
 40
-0.6
 41
-30.0
 62
     5
 63
     7
 74
     1
 91
        4
 64
     7
 65
   257
 75
     1
175
     1
 42
1.0
 92
        8
 66
     7
 43
1.0
 76
     1
 77
     6
 78
     2
 67
     7
 79
     5
170
     0
171
     0
290
     0
174
     0
 93
        1
 44
0.0
173
     0
291
     1
 45
0.0
1001
ACAD
1000
AcDbSavedByObjectVersion
1070
     0
  0
VISUALSTYLE
  5
B0A0
102
{ACAD_XDICTIONARY
360
B0F9
102
}
102
{ACAD_REACTORS
330
B09F
102
}
330
B09F
100
AcDbVisualStyle
  2
Flat
 70
     0
 71
     2
 72
     1
 73
     1
 90
        2
 40
-0.6
 41
30.0
 62
     5
 63
     7
 74
     0
 91
        0
 64
     7
 65
   257
 75
     1
175
     1
 42
1.0
 92
        8
 66
     7
 43
1.0
 76
     1
 77
     6
 78
     2
 67
     7
 79
     5
170
     0
171
     0
290
     0
174
     0
 93
       13
 44
0.0
173
     0
291
     1
 45
0.0
1001
ACAD
1000
AcDbSavedByObjectVersion
1070
     0
  0
VISUALSTYLE
  5
B0A1
102
{ACAD_XDICTIONARY
360
B0FB
102
}
102
{ACAD_REACTORS
330
B09F
102
}
330
B09F
100
AcDbVisualStyle
  2
FlatWithEdges
 70
     1
 71
     2
 72
     1
 73
     1
 90
        2
 40
-0.6
 41
30.0
 62
     5
 63
     7
 74
     1
 91
        0
 64
     7
 65
   257
 75
     1
175
     1
 42
1.0
 92
        0
 66
   257
 43
1.0
 76
     1
 77
     6
 78
     2
 67
     7
 79
     5
170
     0
171
     0
290
     0
174
     0
 93
       13
 44
0.0
173
     0
291
     1
 45
0.0
1001
ACAD
1000
AcDbSavedByObjectVersion
1070
     0
  0
VISUALSTYLE
  5
B0A2
102
{ACAD_XDICTIONARY
360
B0FD
102
}
102
{ACAD_REACTORS
330
B09F
102
}
330
B09F
100
AcDbVisualStyle
  2
Gouraud
 70
     2
 71
     2
 72
     2
 73
     1
 90
        2
 40
-0.6
 41
30.0
 62
     5
 63
     7
 74
     0
 91
        0
 64
     7
 65
   257
 75
     1
175
     1
 42
1.0
 92
        0
 66
     7
 43
1.0
 76
     1
 77
     6
 78
     2
 67
     7
 79
     5
170
     0
171
     0
290
     0
174
     0
 93
       13
 44
0.0
173
     0
291
     1
 45
0.0
1001
ACAD
1000
AcDbSavedByObjectVersion
1070
     0
  0
VISUALSTYLE
  5
B0A3
102
{ACAD_XDICTIONARY
360
B0FF
102
}
102
{ACAD_REACTORS
330
B09F
102
}
330
B09F
100
AcDbVisualStyle
  2
GouraudWithEdges
 70
     3
 71
     2
 72
     2
 73
     1
 90
        2
 40
-0.6
 41
30.0
 62
     5
 63
     7
 74
     1
 91
        0
 64
     7
 65
   257
 75
     1
175
     1
 42
1.0
 92
        0
 66
   257
 43
1.0
 76
     1
 77
     6
 78
     2
 67
     7
 79
     5
170
     0
171
     0
290
     0
174
     0
 93
       13
 44
0.0
173
     0
291
     1
 45
0.0
1001
ACAD
1000
AcDbSavedByObjectVersion
1070
     0
  0
VISUALSTYLE
  5
B0A7
102
{ACAD_XDICTIONARY
360
B107
102
}
102
{ACAD_REACTORS
330
B09F
102
}
330
B09F
100
AcDbVisualStyle
  2
Hidden
 70
     6
 71
     1
 72
     2
 73
     2
 90
        0
 40
-0.6
 41
-30.0
 62
     5
 63
     7
 74
     2
 91
        2
 64
     7
 65
   257
 75
     2
175
     1
 42
40.0
 92
        0
 66
   257
 43
1.0
 76
     1
 77
     6
 78
     2
 67
     7
 79
     3
170
     0
171
     0
290
     0
174
     0
 93
        1
 44
0.0
173
     0
291
     0
 45
0.0
1001
ACAD
1000
AcDbSavedByObjectVersion
1070
     0
  0
VISUALSTYLE
  5
B0B5
102
{ACAD_XDICTIONARY
360
B123
102
}
102
{ACAD_REACTORS
330
B09F
102
}
330
B09F
100
AcDbVisualStyle
  2
JitterOff
 70
    20
 71
     2
 72
     2
 73
     0
 90
        0
 40
-0.6
 41
-30.0
 62
     5
 63
     7
 74
     1
 91
        4
 64
     7
 65
   257
 75
     1
175
     1
 42
1.0
 92
       10
 66
     7
 43
1.0
 76
     1
 77
     6
 78
     2
 67
     7
 79
     5
170
     0
171
     0
290
     0
174
     0
 93
        1
 44
0.0
173
     0
291
     1
 45
0.0
1001
ACAD
1000
AcDbSavedByObjectVersion
1070
     0
  0
VISUALSTYLE
  5
B0AD
102
{ACAD_XDICTIONARY
360
B113
102
}
102
{ACAD_REACTORS
330
B09F
102
}
330
B09F
100
AcDbVisualStyle
  2
Linepattern
 70
    14
 71
     2
 72
     2
 73
     0
 90
        0
 40
-0.6
 41
-30.0
 62
     5
 63
     7
 74
     1
 91
        4
 64
     7
 65
   257
 75
     7
175
     7
 42
1.0
 92
        8
 66
     7
 43
1.0
 76
     1
 77
     6
 78
     2
 67
     7
 79
     5
170
     0
171
     0
290
     0
174
     0
 93
        1
 44
0.0
173
     0
291
     1
 45
0.0
1001
ACAD
1000
AcDbSavedByObjectVersion
1070
     0
  0
VISUALSTYLE
  5
B0B6
102
{ACAD_XDICTIONARY
360
B125
102
}
102
{ACAD_REACTORS
330
B09F
102
}
330
B09F
100
AcDbVisualStyle
  2
OverhangOff
 70
    21
 71
     2
 72
     2
 73
     0
 90
        0
 40
-0.6
 41
-30.0
 62
     5
 63
     7
 74
     1
 91
        4
 64
     7
 65
   257
 75
     1
175
     1
 42
1.0
 92
        9
 66
     7
 43
1.0
 76
     1
 77
     6
 78
     2
 67
     7
 79
     5
170
     0
171
     0
290
     0
174
     0
 93
        1
 44
0.0
173
     0
291
     1
 45
0.0
1001
ACAD
1000
AcDbSavedByObjectVersion
1070
     0
  0
VISUALSTYLE
  5
B0A9
102
{ACAD_XDICTIONARY
360
B10B
102
}
102
{ACAD_REACTORS
330
B09F
102
}
330
B09F
100
AcDbVisualStyle
  2
Realistic
 70
     8
 71
     2
 72
     3
 73
     0
 90
        2
 40
-0.6
 41
30.0
 62
     5
 63
     7
 74
     0
 91
        0
 64
     7
 65
   257
 75
     1
175
     1
 42
1.0
 92
        8
 66
   257
 43
1.0
 76
     1
 77
     6
 78
     2
 67
     7
 79
     3
170
     0
171
     0
290
     0
174
     0
 93
       13
 44
0.0
173
     0
291
     0
 45
0.0
1001
ACAD
1000
AcDbSavedByObjectVersion
1070
     0
  0
VISUALSTYLE
  5
B0B4
102
{ACAD_XDICTIONARY
360
B121
102
}
102
{ACAD_REACTORS
330
B09F
102
}
330
B09F
100
AcDbVisualStyle
  2
Shaded
 70
    27
 71
     2
 72
     2
 73
     1
 90
        2
 40
-0.6
 41
30.0
 62
     5
 63
     7
 74
     0
 91
        4
 64
     7
 65
   257
 75
     1
175
     1
 42
1.0
 92
        8
 66
   257
 43
1.0
 76
     1
 77
     6
 78
     2
 67
     8
 79
     3
170
     0
171
     0
290
     0
174
     0
 93
        5
 44
0.0
173
     0
291
     0
 45
0.0
1001
ACAD
1000
AcDbSavedByObjectVersion
1070
     0
  0
VISUALSTYLE
  5
B0B3
102
{ACAD_XDICTIONARY
360
B11F
102
}
102
{ACAD_REACTORS
330
B09F
102
}
330
B09F
100
AcDbVisualStyle
  2
Shaded with edges
 70
    26
 71
     2
 72
     2
 73
     1
 90
        2
 40
-0.6
 41
30.0
 62
     5
 63
     7
 74
     1
 91
       10
 64
     7
 65
   257
 75
     2
175
     1
 42
1.0
 92
        8
 66
   257
 43
1.0
 76
     1
 77
     6
 78
     2
 67
     7
 79
     3
170
     0
171
     0
290
     0
174
     0
 93
        5
 44
0.0
173
     0
291
     0
 45
0.0
1001
ACAD
1000
AcDbSavedByObjectVersion
1070
     0
  0
VISUALSTYLE
  5
B0B0
102
{ACAD_XDICTIONARY
360
B119
102
}
102
{ACAD_REACTORS
330
B09F
102
}
330
B09F
100
AcDbVisualStyle
  2
Shades of Gray
 70
    23
 71
     2
 72
     2
 73
     3
 90
        0
 40
-0.6
 41
-30.0
 62
     5
 63
     7
 74
     2
 91
        2
 64
     7
 65
     7
 75
     1
175
     1
 42
40.0
 92
        8
 66
     7
 43
1.0
 76
     1
 77
     6
 78
     2
 67
     7
 79
     3
170
     0
171
     0
290
     0
174
     0
 93
        1
 44
0.0
173
     0
291
     0
 45
0.0
1001
ACAD
1000
AcDbSavedByObjectVersion
1070
     0
  0
VISUALSTYLE
  5
B0B1
102
{ACAD_XDICTIONARY
360
B11B
102
}
102
{ACAD_REACTORS
330
B09F
102
}
330
B09F
100
AcDbVisualStyle
  2
Sketchy
 70
    24
 71
     1
 72
     2
 73
     2
 90
        0
 40
-0.6
 41
-30.0
 62
     5
 63
     7
 74
     2
 91
        2
 64
     7
 65
     7
 75
     1
175
     1
 42
40.0
 92
       11
 66
     7
 43
1.0
 76
     1
 77
     6
 78
     2
 67
     7
 79
     6
170
     0
171
     0
290
     0
174
     0
 93
        1
 44
0.0
173
     0
291
     0
 45
0.0
1001
ACAD
1000
AcDbSavedByObjectVersion
1070
     0
  0
VISUALSTYLE
  5
B0AC
102
{ACAD_XDICTIONARY
360
B111
102
}
102
{ACAD_REACTORS
330
B09F
102
}
330
B09F
100
AcDbVisualStyle
  2
Thicken
 70
    13
 71
     2
 72
     2
 73
     0
 90
        0
 40
-0.6
 41
-30.0
 62
     5
 63
     7
 74
     1
 91
        4
 64
     7
 65
   257
 75
     1
175
     1
 42
1.0
 92
       12
 66
     7
 43
1.0
 76
     1
 77
     6
 78
     2
 67
     7
 79
     5
170
     0
171
     0
290
     0
174
     0
 93
        1
 44
0.0
173
     0
291
     1
 45
0.0
1001
ACAD
1000
AcDbSavedByObjectVersion
1070
     0
  0
VISUALSTYLE
  5
B0A6
102
{ACAD_XDICTIONARY
360
B105
102
}
102
{ACAD_REACTORS
330
B09F
102
}
330
B09F
100
AcDbVisualStyle
  2
Wireframe
 70
     5
 71
     0
 72
     2
 73
     0
 90
        0
 40
-0.6
 41
-30.0
 62
     5
 63
     7
 74
     1
 91
        4
 64
     7
 65
   257
 75
     1
175
     1
 42
1.0
 92
        0
 66
   257
 43
1.0
 76
     1
 77
     6
 78
     2
 67
     7
 79
     3
170
     0
171
     0
290
     0
174
     0
 93
        1
 44
0.0
173
     0
291
     0
 45
0.0
1001
ACAD
1000
AcDbSavedByObjectVersion
1070
     0
  0
VISUALSTYLE
  5
B0B2
102
{ACAD_XDICTIONARY
360
B11D
102
}
102
{ACAD_REACTORS
330
B09F
102
}
330
B09F
100
AcDbVisualStyle
  2
X-Ray
 70
    25
 71
     2
 72
     2
 73
     1
 90
        1
 40
0.5
 41
-30.0
 62
     5
 63
     7
 74
     1
 91
        0
 64
     7
 65
   257
 75
     1
175
     1
 42
1.0
 92
        8
 66
     7
 43
1.0
 76
     1
 77
     6
 78
     2
 67
     7
 79
     3
170
     0
171
     0
290
     0
174
     0
 93
       13
 44
0.0
173
     0
291
     0
 45
0.0
1001
ACAD
1000
AcDbSavedByObjectVersion
1070
     0
  0
DICTIONARYVAR
  5
B0EC
102
{ACAD_REACTORS
330
B0E7
102
}
330
B0E7
100
DictionaryVariables
280
     0
  1
1:1
  0
DICTIONARYVAR
  5
B0E9
102
{ACAD_REACTORS
330
B0E7
102
}
330
B0E7
100
DictionaryVariables
280
     0
  1
STANDARD
  0
DICTIONARYVAR
  5
B0E8
102
{ACAD_REACTORS
330
B0E7
102
}
330
B0E7
100
DictionaryVariables
280
     0
  1
STANDARD
  0
DICTIONARYVAR
  5
B0EA
102
{ACAD_REACTORS
330
B0E7
102
}
330
B0E7
100
DictionaryVariables
280
     0
  1
Imperial24
  0
DICTIONARYVAR
  5
B0EB
102
{ACAD_REACTORS
330
B0E7
102
}
330
B0E7
100
DictionaryVariables
280
     0
  1
Imperial24
  0
DICTIONARYVAR
  5
B0EF
102
{ACAD_REACTORS
330
B0E7
102
}
330
B0E7
100
DictionaryVariables
280
     0
  1
1
  0
DICTIONARYVAR
  5
B0EE
102
{ACAD_REACTORS
330
B0E7
102
}
330
B0E7
100
DictionaryVariables
280
     0
  1
0
  0
DICTIONARYVAR
  5
B0ED
102
{ACAD_REACTORS
330
B0E7
102
}
330
B0E7
100
DictionaryVariables
280
     0
  1
127
  0
DICTIONARYVAR
  5
B0F0
102
{ACAD_REACTORS
330
B0E7
102
}
330
B0E7
100
DictionaryVariables
280
     0
  1
2
  0
DICTIONARY
  5
B12D
330
B0D2
100
AcDbDictionary
280
     1
281
     1
  3
ACAD_XREC_ROUNDTRIP
360
B12E
  0
DICTIONARY
  5
B12F
330
B0D3
100
AcDbDictionary
280
     1
281
     1
  3
ACAD_XREC_ROUNDTRIP
360
B130
  0
DICTIONARY
  5
B131
330
B0D4
100
AcDbDictionary
280
     1
281
     1
  3
ACAD_XREC_ROUNDTRIP
360
B132
  0
DICTIONARY
  5
B090
330
B08F
100
AcDbDictionary
280
     1
281
     1
  3
ACAD_XREC_ROUNDTRIP
360
B0F7
  3
BUMPTILE
360
B092
  3
DIFFUSETILE
360
B091
  3
OPACITYTILE
360
B095
  3
REFLECTIONTILE
360
B094
  3
REFRACTIONTILE
360
B096
  3
SPECULARTILE
360
B093
  0
DICTIONARY
  5
B088
330
B087
100
AcDbDictionary
280
     1
281
     1
  3
ACAD_XREC_ROUNDTRIP
360
B0F6
  3
BUMPTILE
360
B08A
  3
DIFFUSETILE
360
B089
  3
OPACITYTILE
360
B08D
  3
REFLECTIONTILE
360
B08C
  3
REFRACTIONTILE
360
B08E
  3
SPECULARTILE
360
B08B
  0
DICTIONARY
  5
B098
330
B097
100
AcDbDictionary
280
     1
281
     1
  3
ACAD_XREC_ROUNDTRIP
360
B0F8
  3
BUMPTILE
360
B09A
  3
DIFFUSETILE
360
B099
  3
OPACITYTILE
360
B09D
  3
REFLECTIONTILE
360
B09C
  3
REFRACTIONTILE
360
B09E
  3
SPECULARTILE
360
B09B
  0
DICTIONARY
  5
B12B
330
B0D0
100
AcDbDictionary
280
     1
281
     1
  3
ACAD_XREC_ROUNDTRIP
360
B12C
  0
DICTIONARY
  5
B0F2
330
B0BA
100
AcDbDictionary
280
     1
281
     1
  3
ACAD_ROUNDTRIP_2008_TABLESTYLE_CELLSTYLEMAP
360
B0F3
  3
ACAD_XREC_ROUNDTRIP
360
B129
  0
DICTIONARY
  5
B103
330
B0A5
100
AcDbDictionary
280
     1
281
     1
  3
ACAD_XREC_ROUNDTRIP
360
B104
  0
DICTIONARY
  5
B101
330
B0A4
100
AcDbDictionary
280
     1
281
     1
  3
ACAD_XREC_ROUNDTRIP
360
B102
  0
DICTIONARY
  5
B10F
330
B0AB
100
AcDbDictionary
280
     1
281
     1
  3
ACAD_XREC_ROUNDTRIP
360
B110
  0
DICTIONARY
  5
B117
330
B0AF
100
AcDbDictionary
280
     1
281
     1
  3
ACAD_XREC_ROUNDTRIP
360
B118
  0
DICTIONARY
  5
B109
330
B0A8
100
AcDbDictionary
280
     1
281
     1
  3
ACAD_XREC_ROUNDTRIP
360
B10A
  0
DICTIONARY
  5
B10D
330
B0AA
100
AcDbDictionary
280
     1
281
     1
  3
ACAD_XREC_ROUNDTRIP
360
B10E
  0
DICTIONARY
  5
B127
330
B0B7
100
AcDbDictionary
280
     1
281
     1
  3
ACAD_XREC_ROUNDTRIP
360
B128
  0
DICTIONARY
  5
B115
330
B0AE
100
AcDbDictionary
280
     1
281
     1
  3
ACAD_XREC_ROUNDTRIP
360
B116
  0
DICTIONARY
  5
B0F9
330
B0A0
100
AcDbDictionary
280
     1
281
     1
  3
ACAD_XREC_ROUNDTRIP
360
B0FA
  0
DICTIONARY
  5
B0FB
330
B0A1
100
AcDbDictionary
280
     1
281
     1
  3
ACAD_XREC_ROUNDTRIP
360
B0FC
  0
DICTIONARY
  5
B0FD
330
B0A2
100
AcDbDictionary
280
     1
281
     1
  3
ACAD_XREC_ROUNDTRIP
360
B0FE
  0
DICTIONARY
  5
B0FF
330
B0A3
100
AcDbDictionary
280
     1
281
     1
  3
ACAD_XREC_ROUNDTRIP
360
B100
  0
DICTIONARY
  5
B107
330
B0A7
100
AcDbDictionary
280
     1
281
     1
  3
ACAD_XREC_ROUNDTRIP
360
B108
  0
DICTIONARY
  5
B123
330
B0B5
100
AcDbDictionary
280
     1
281
     1
  3
ACAD_XREC_ROUNDTRIP
360
B124
  0
DICTIONARY
  5
B113
330
B0AD
100
AcDbDictionary
280
     1
281
     1
  3
ACAD_XREC_ROUNDTRIP
360
B114
  0
DICTIONARY
  5
B125
330
B0B6
100
AcDbDictionary
280
     1
281
     1
  3
ACAD_XREC_ROUNDTRIP
360
B126
  0
DICTIONARY
  5
B10B
330
B0A9
100
AcDbDictionary
280
     1
281
     1
  3
ACAD_XREC_ROUNDTRIP
360
B10C
  0
DICTIONARY
  5
B121
330
B0B4
100
AcDbDictionary
280
     1
281
     1
  3
ACAD_XREC_ROUNDTRIP
360
B122
  0
DICTIONARY
  5
B11F
330
B0B3
100
AcDbDictionary
280
     1
281
     1
  3
ACAD_XREC_ROUNDTRIP
360
B120
  0
DICTIONARY
  5
B119
330
B0B0
100
AcDbDictionary
280
     1
281
     1
  3
ACAD_XREC_ROUNDTRIP
360
B11A
  0
DICTIONARY
  5
B11B
330
B0B1
100
AcDbDictionary
280
     1
281
     1
  3
ACAD_XREC_ROUNDTRIP
360
B11C
  0
DICTIONARY
  5
B111
330
B0AC
100
AcDbDictionary
280
     1
281
     1
  3
ACAD_XREC_ROUNDTRIP
360
B112
  0
DICTIONARY
  5
B105
330
B0A6
100
AcDbDictionary
280
     1
281
     1
  3
ACAD_XREC_ROUNDTRIP
360
B106
  0
DICTIONARY
  5
B11D
330
B0B2
100
AcDbDictionary
280
     1
281
     1
  3
ACAD_XREC_ROUNDTRIP
360
B11E
  0
XRECORD
  5
B12E
102
{ACAD_REACTORS
330
B12D
102
}
330
B12D
100
AcDbXrecord
280
     1
102
DISPLAYNAME
  1
Imperial24
102
FLAGS
 90
        0
  0
XRECORD
  5
B130
102
{ACAD_REACTORS
330
B12F
102
}
330
B12F
100
AcDbXrecord
280
     1
102
SHADEPLOT
 70
     0
102
SHADEPLOTRESLEVEL
 70
     2
102
SHADEPLOTCUSTOMDPI
 70
   300
  0
XRECORD
  5
B132
102
{ACAD_REACTORS
330
B131
102
}
330
B131
100
AcDbXrecord
280
     1
102
SHADEPLOT
 70
     0
102
SHADEPLOTRESLEVEL
 70
     2
102
SHADEPLOTCUSTOMDPI
 70
   300
  0
XRECORD
  5
B0F7
102
{ACAD_REACTORS
330
B090
102
}
330
B090
100
AcDbXrecord
280
     1
102
MATERIAL
148
0.0
149
0.0
149
0.0
 93
        0
 94
      127
282
     0
 72
     0
 77
     0
171
     0
175
     0
179
     0
273
     0
  0
XRECORD
  5
B092
102
{ACAD_REACTORS
330
B090
102
}
330
B090
100
AcDbXrecord
280
     1
270
     1
271
     1
  0
XRECORD
  5
B091
102
{ACAD_REACTORS
330
B090
102
}
330
B090
100
AcDbXrecord
280
     1
270
     1
271
     1
  0
XRECORD
  5
B095
102
{ACAD_REACTORS
330
B090
102
}
330
B090
100
AcDbXrecord
280
     1
270
     1
271
     1
  0
XRECORD
  5
B094
102
{ACAD_REACTORS
330
B090
102
}
330
B090
100
AcDbXrecord
280
     1
270
     1
271
     1
  0
XRECORD
  5
B096
102
{ACAD_REACTORS
330
B090
102
}
330
B090
100
AcDbXrecord
280
     1
270
     1
271
     1
  0
XRECORD
  5
B093
102
{ACAD_REACTORS
330
B090
102
}
330
B090
100
AcDbXrecord
280
     1
270
     1
271
     1
  0
XRECORD
  5
B0F6
102
{ACAD_REACTORS
330
B088
102
}
330
B088
100
AcDbXrecord
280
     1
102
MATERIAL
148
0.0
149
0.0
149
0.0
 93
        0
 94
      127
282
     0
 72
     0
 77
     0
171
     0
175
     0
179
     0
273
     0
  0
XRECORD
  5
B08A
102
{ACAD_REACTORS
330
B088
102
}
330
B088
100
AcDbXrecord
280
     1
270
     1
271
     1
  0
XRECORD
  5
B089
102
{ACAD_REACTORS
330
B088
102
}
330
B088
100
AcDbXrecord
280
     1
270
     1
271
     1
  0
XRECORD
  5
B08D
102
{ACAD_REACTORS
330
B088
102
}
330
B088
100
AcDbXrecord
280
     1
270
     1
271
     1
  0
XRECORD
  5
B08C
102
{ACAD_REACTORS
330
B088
102
}
330
B088
100
AcDbXrecord
280
     1
270
     1
271
     1
  0
XRECORD
  5
B08E
102
{ACAD_REACTORS
330
B088
102
}
330
B088
100
AcDbXrecord
280
     1
270
     1
271
     1
  0
XRECORD
  5
B08B
102
{ACAD_REACTORS
330
B088
102
}
330
B088
100
AcDbXrecord
280
     1
270
     1
271
     1
  0
XRECORD
  5
B0F8
102
{ACAD_REACTORS
330
B098
102
}
330
B098
100
AcDbXrecord
280
     1
102
MATERIAL
148
0.0
149
0.0
149
0.0
 93
        0
 94
      127
282
     0
 72
     0
 77
     0
171
     0
175
     0
179
     0
273
     0
  0
XRECORD
  5
B09A
102
{ACAD_REACTORS
330
B098
102
}
330
B098
100
AcDbXrecord
280
     1
270
     1
271
     1
  0
XRECORD
  5
B099
102
{ACAD_REACTORS
330
B098
102
}
330
B098
100
AcDbXrecord
280
     1
270
     1
271
     1
  0
XRECORD
  5
B09D
102
{ACAD_REACTORS
330
B098
102
}
330
B098
100
AcDbXrecord
280
     1
270
     1
271
     1
  0
XRECORD
  5
B09C
102
{ACAD_REACTORS
330
B098
102
}
330
B098
100
AcDbXrecord
280
     1
270
     1
271
     1
  0
XRECORD
  5
B09E
102
{ACAD_REACTORS
330
B098
102
}
330
B098
100
AcDbXrecord
280
     1
270
     1
271
     1
  0
XRECORD
  5
B09B
102
{ACAD_REACTORS
330
B098
102
}
330
B098
100
AcDbXrecord
280
     1
270
     1
271
     1
  0
XRECORD
  5
B12C
102
{ACAD_REACTORS
330
B12B
102
}
330
B12B
100
AcDbXrecord
280
     1
102
DISPLAYNAME
  1
Imperial24
102
FLAGS
 90
        0
  0
CELLSTYLEMAP
  5
B0F3
102
{ACAD_REACTORS
330
B0F2
102
}
330
B0F2
100
AcDbCellStyleMap
 90
        3
300
CELLSTYLE
  1
TABLEFORMAT_BEGIN
 90
        5
170
     1
 91
        0
 92
    32768
 62
   257
 93
        1
300
CONTENTFORMAT
  1
CONTENTFORMAT_BEGIN
 90
        0
 91
        0
 92
      512
 93
        0
300

 40
0.0
140
1.0
 94
        5
 62
     0
340
AE85
144
0.25
309
CONTENTFORMAT_END
171
     0
 94
        0
309
TABLEFORMAT_END
  1
CELLSTYLE_BEGIN
 90
        1
 91
        1
300
_TITLE
309
CELLSTYLE_END
300
CELLSTYLE
  1
TABLEFORMAT_BEGIN
 90
        5
170
     1
 91
        0
 92
        0
 62
   257
 93
        1
300
CONTENTFORMAT
  1
CONTENTFORMAT_BEGIN
 90
        0
 91
        0
 92
      512
 93
        0
300

 40
0.0
140
1.0
 94
        5
 62
     0
340
AE85
144
0.18
309
CONTENTFORMAT_END
171
     0
 94
        0
309
TABLEFORMAT_END
  1
CELLSTYLE_BEGIN
 90
        2
 91
        1
300
_HEADER
309
CELLSTYLE_END
300
CELLSTYLE
  1
TABLEFORMAT_BEGIN
 90
        5
170
     1
 91
        0
 92
        0
 62
   257
 93
        1
300
CONTENTFORMAT
  1
CONTENTFORMAT_BEGIN
 90
        0
 91
        0
 92
      512
 93
        0
300

 40
0.0
140
1.0
 94
        2
 62
     0
340
AE85
144
0.18
309
CONTENTFORMAT_END
171
     0
 94
        0
309
TABLEFORMAT_END
  1
CELLSTYLE_BEGIN
 90
        3
 91
        2
300
_DATA
309
CELLSTYLE_END
  0
XRECORD
  5
B129
102
{ACAD_REACTORS
330
B0F2
102
}
330
B0F2
100
AcDbXrecord
280
     1
102
ACAD_ROUNDTRIP_PRE2007_TABLESTYLE
 90
      512
 91
        0
  1

 92
      512
 93
        0
  2

 94
      512
 95
        0
  3

  0
XRECORD
  5
B104
102
{ACAD_REACTORS
330
B103
102
}
330
B103
100
AcDbXrecord
280
     1
102
RTVSPost2010Prop28
280
     1
102
RTVSPost2010PropOp28
 70
     1
102
RTVSPost2010Prop29
280
     1
102
RTVSPost2010PropOp29
 70
     1
102
RTVSPost2010Prop30
280
     0
102
RTVSPost2010PropOp30
 70
     1
102
RTVSPost2010Prop31
280
     0
102
RTVSPost2010PropOp31
 70
     1
102
RTVSPost2010Prop32
280
     0
102
RTVSPost2010PropOp32
 70
     1
102
RTVSPost2010Prop33
280
     0
102
RTVSPost2010PropOp33
 70
     1
102
RTVSPost2010Prop34
280
     0
102
RTVSPost2010PropOp34
 70
     1
102
RTVSPost2010Prop35
280
     0
102
RTVSPost2010PropOp35
 70
     1
102
RTVSPost2010Prop36
280
     0
102
RTVSPost2010PropOp36
 70
     1
102
RTVSPost2010Prop37
 90
       50
102
RTVSPost2010PropOp37
 70
     1
102
RTVSPost2010Prop38
140
0.0
102
RTVSPost2010PropOp38
 70
     1
102
RTVSPost2010Prop39
140
1.0
102
RTVSPost2010PropOp39
 70
     1
102
RTVSPost2010Prop40
 90
        0
102
RTVSPost2010PropOp40
 70
     1
102
RTVSPost2010Prop41ColorIndex
 90
       18
102
RTVSPost2010Prop41ColorRGB
 90
        0
102
RTVSPost2010PropOp41
 70
     1
102
RTVSPost2010Prop42
 90
       50
102
RTVSPost2010PropOp42
 70
     1
102
RTVSPost2010Prop43
 90
        3
102
RTVSPost2010PropOp43
 70
     1
102
RTVSPost2010Prop44ColorIndex
 90
        5
102
RTVSPost2010Prop44ColorRGB
 90
      255
102
RTVSPost2010PropOp44
 70
     1
102
RTVSPost2010Prop45
280
     0
102
RTVSPost2010PropOp45
 70
     1
102
RTVSPost2010Prop46
 90
       50
102
RTVSPost2010PropOp46
 70
     1
102
RTVSPost2010Prop47
 90
       50
102
RTVSPost2010PropOp47
 70
     1
102
RTVSPost2010Prop48
 90
       50
102
RTVSPost2010PropOp48
 70
     1
102
RTVSPost2010Prop49
280
     0
102
RTVSPost2010PropOp49
 70
     1
102
RTVSPost2010Prop50
 90
       50
102
RTVSPost2010PropOp50
 70
     1
102
RTVSPost2010Prop51ColorIndex
 90
      256
102
RTVSPost2010Prop51ColorRGB
 90
-16777216
102
RTVSPost2010PropOp51
 70
     0
102
RTVSPost2010Prop52
140
1.0
102
RTVSPost2010PropOp52
 70
     0
102
RTVSPost2010Prop53
 90
        2
102
RTVSPost2010PropOp53
 70
     1
102
RTVSPost2010Prop54
  1
strokes_ogs.tif
102
RTVSPost2010PropOp54
 70
     1
102
RTVSPost2010Prop55
280
     0
102
RTVSPost2010PropOp55
 70
     1
102
RTVSPost2010Prop56
140
1.0
102
RTVSPost2010PropOp56
 70
     1
102
RTVSPost2010Prop57
140
1.0
102
RTVSPost2010PropOp57
 70
     1
102
RTVSPropertyOp0
 70
     1
102
RTVSPropertyOp1
 70
     1
102
RTVSPropertyOp2
 70
     1
102
RTVSPropertyOp3
 70
     1
102
RTVSPropertyOp4
 70
     1
102
RTVSPropertyOp5
 70
     1
102
RTVSPropertyOp6
 70
     1
102
RTVSPropertyOp7
 70
     1
102
RTVSPropertyOp8
 70
     1
102
RTVSPropertyOp9
 70
     1
102
RTVSPropertyOp10
 70
     1
102
RTVSPropertyOp11
 70
     1
102
RTVSPropertyOp12
 70
     1
102
RTVSPropertyOp13
 70
     1
102
RTVSPropertyOp14
 70
     1
102
RTVSPropertyOp15
 70
     1
102
RTVSPropertyOp16
 70
     1
102
RTVSPropertyOp17
 70
     1
102
RTVSPropertyOp18
 70
     1
102
RTVSPropertyOp19
 70
     1
102
RTVSPropertyOp20
 70
     1
102
RTVSPropertyOp21
 70
     1
102
RTVSPropertyOp22
 70
     1
102
RTVSPropertyOp23
 70
     1
102
RTVSPropertyOp24
 70
     1
102
RTVSPropertyOp25
 70
     1
102
RTVSPropertyOp26
 70
     1
102
RTVSPropertyOp27
 70
     1
102
RTVSPropertyOp28
 70
     1
102
RTVSPropertyOp29
 70
     1
102
RTVSPropertyOp30
 70
     1
102
RTVSPropertyOp31
 70
     1
102
RTVSPropertyOp32
 70
     1
102
RTVSPropertyOp33
 70
     1
102
RTVSPropertyOp34
 70
     1
102
RTVSPropertyOp35
 70
     1
102
RTVSPropertyOp36
 70
     1
102
RTVSPropertyOp37
 70
     1
102
RTVSPropertyOp38
 70
     1
102
RTVSPropertyOp39
 70
     1
102
RTVSPropertyOp40
 70
     1
102
RTVSPropertyOp41
 70
     1
102
RTVSPropertyOp42
 70
     1
102
RTVSPropertyOp43
 70
     1
102
RTVSPropertyOp44
 70
     1
102
RTVSPropertyOp45
 70
     1
102
RTVSPropertyOp46
 70
     1
102
RTVSPropertyOp47
 70
     1
102
RTVSPropertyOp48
 70
     1
102
RTVSPropertyOp49
 70
     1
102
RTVSPropertyOp50
 70
     1
102
RTVSPropertyOp51
 70
     0
102
RTVSPropertyOp52
 70
     0
102
RTVSPropertyOp53
 70
     1
102
RTVSPropertyOp54
 70
     1
102
RTVSPropertyOp55
 70
     1
102
RTVSPropertyOp56
 70
     1
102
RTVSPropertyOp57
 70
     1
102
RTVSPropertyOp58
 70
     1
102
RTVSPropertyOp59
 70
     1
102
RTVSPropertyOp60
 70
     1
102
RTVSPropertyOp61
 70
     1
102
RTVSPropertyOp62
 70
     1
  0
XRECORD
  5
B102
102
{ACAD_REACTORS
330
B101
102
}
330
B101
100
AcDbXrecord
280
     1
102
RTVSPost2010Prop28
280
     0
102
RTVSPost2010PropOp28
 70
     1
102
RTVSPost2010Prop29
280
     1
102
RTVSPost2010PropOp29
 70
     1
102
RTVSPost2010Prop30
280
     1
102
RTVSPost2010PropOp30
 70
     1
102
RTVSPost2010Prop31
280
     0
102
RTVSPost2010PropOp31
 70
     1
102
RTVSPost2010Prop32
280
     0
102
RTVSPost2010PropOp32
 70
     1
102
RTVSPost2010Prop33
280
     0
102
RTVSPost2010PropOp33
 70
     1
102
RTVSPost2010Prop34
280
     0
102
RTVSPost2010PropOp34
 70
     1
102
RTVSPost2010Prop35
280
     0
102
RTVSPost2010PropOp35
 70
     1
102
RTVSPost2010Prop36
280
     0
102
RTVSPost2010PropOp36
 70
     1
102
RTVSPost2010Prop37
 90
       50
102
RTVSPost2010PropOp37
 70
     1
102
RTVSPost2010Prop38
140
0.0
102
RTVSPost2010PropOp38
 70
     1
102
RTVSPost2010Prop39
140
1.0
102
RTVSPost2010PropOp39
 70
     1
102
RTVSPost2010Prop40
 90
        0
102
RTVSPost2010PropOp40
 70
     1
102
RTVSPost2010Prop41ColorIndex
 90
       18
102
RTVSPost2010Prop41ColorRGB
 90
        0
102
RTVSPost2010PropOp41
 70
     1
102
RTVSPost2010Prop42
 90
       50
102
RTVSPost2010PropOp42
 70
     1
102
RTVSPost2010Prop43
 90
        3
102
RTVSPost2010PropOp43
 70
     1
102
RTVSPost2010Prop44ColorIndex
 90
        5
102
RTVSPost2010Prop44ColorRGB
 90
      255
102
RTVSPost2010PropOp44
 70
     1
102
RTVSPost2010Prop45
280
     0
102
RTVSPost2010PropOp45
 70
     1
102
RTVSPost2010Prop46
 90
       50
102
RTVSPost2010PropOp46
 70
     1
102
RTVSPost2010Prop47
 90
       50
102
RTVSPost2010PropOp47
 70
     1
102
RTVSPost2010Prop48
 90
       50
102
RTVSPost2010PropOp48
 70
     1
102
RTVSPost2010Prop49
280
     0
102
RTVSPost2010PropOp49
 70
     1
102
RTVSPost2010Prop50
 90
       50
102
RTVSPost2010PropOp50
 70
     1
102
RTVSPost2010Prop51ColorIndex
 90
      256
102
RTVSPost2010Prop51ColorRGB
 90
-16777216
102
RTVSPost2010PropOp51
 70
     0
102
RTVSPost2010Prop52
140
1.0
102
RTVSPost2010PropOp52
 70
     0
102
RTVSPost2010Prop53
 90
        2
102
RTVSPost2010PropOp53
 70
     1
102
RTVSPost2010Prop54
  1
strokes_ogs.tif
102
RTVSPost2010PropOp54
 70
     1
102
RTVSPost2010Prop55
280
     0
102
RTVSPost2010PropOp55
 70
     1
102
RTVSPost2010Prop56
140
1.0
102
RTVSPost2010PropOp56
 70
     1
102
RTVSPost2010Prop57
140
1.0
102
RTVSPost2010PropOp57
 70
     1
102
RTVSPropertyOp0
 70
     1
102
RTVSPropertyOp1
 70
     1
102
RTVSPropertyOp2
 70
     1
102
RTVSPropertyOp3
 70
     1
102
RTVSPropertyOp4
 70
     1
102
RTVSPropertyOp5
 70
     1
102
RTVSPropertyOp6
 70
     1
102
RTVSPropertyOp7
 70
     1
102
RTVSPropertyOp8
 70
     1
102
RTVSPropertyOp9
 70
     1
102
RTVSPropertyOp10
 70
     1
102
RTVSPropertyOp11
 70
     1
102
RTVSPropertyOp12
 70
     1
102
RTVSPropertyOp13
 70
     1
102
RTVSPropertyOp14
 70
     1
102
RTVSPropertyOp15
 70
     1
102
RTVSPropertyOp16
 70
     1
102
RTVSPropertyOp17
 70
     1
102
RTVSPropertyOp18
 70
     1
102
RTVSPropertyOp19
 70
     1
102
RTVSPropertyOp20
 70
     1
102
RTVSPropertyOp21
 70
     1
102
RTVSPropertyOp22
 70
     1
102
RTVSPropertyOp23
 70
     1
102
RTVSPropertyOp24
 70
     1
102
RTVSPropertyOp25
 70
     1
102
RTVSPropertyOp26
 70
     1
102
RTVSPropertyOp27
 70
     1
102
RTVSPropertyOp28
 70
     1
102
RTVSPropertyOp29
 70
     1
102
RTVSPropertyOp30
 70
     1
102
RTVSPropertyOp31
 70
     1
102
RTVSPropertyOp32
 70
     1
102
RTVSPropertyOp33
 70
     1
102
RTVSPropertyOp34
 70
     1
102
RTVSPropertyOp35
 70
     1
102
RTVSPropertyOp36
 70
     1
102
RTVSPropertyOp37
 70
     1
102
RTVSPropertyOp38
 70
     1
102
RTVSPropertyOp39
 70
     1
102
RTVSPropertyOp40
 70
     1
102
RTVSPropertyOp41
 70
     1
102
RTVSPropertyOp42
 70
     1
102
RTVSPropertyOp43
 70
     1
102
RTVSPropertyOp44
 70
     1
102
RTVSPropertyOp45
 70
     1
102
RTVSPropertyOp46
 70
     1
102
RTVSPropertyOp47
 70
     1
102
RTVSPropertyOp48
 70
     1
102
RTVSPropertyOp49
 70
     1
102
RTVSPropertyOp50
 70
     1
102
RTVSPropertyOp51
 70
     0
102
RTVSPropertyOp52
 70
     0
102
RTVSPropertyOp53
 70
     1
102
RTVSPropertyOp54
 70
     1
102
RTVSPropertyOp55
 70
     1
102
RTVSPropertyOp56
 70
     1
102
RTVSPropertyOp57
 70
     1
102
RTVSPropertyOp58
 70
     1
102
RTVSPropertyOp59
 70
     1
102
RTVSPropertyOp60
 70
     1
102
RTVSPropertyOp61
 70
     1
102
RTVSPropertyOp62
 70
     1
  0
XRECORD
  5
B110
102
{ACAD_REACTORS
330
B10F
102
}
330
B10F
100
AcDbXrecord
280
     1
102
RTVSPost2010Prop28
280
     0
102
RTVSPost2010PropOp28
 70
     1
102
RTVSPost2010Prop29
280
     1
102
RTVSPost2010PropOp29
 70
     1
102
RTVSPost2010Prop30
280
     1
102
RTVSPost2010PropOp30
 70
     1
102
RTVSPost2010Prop31
280
     0
102
RTVSPost2010PropOp31
 70
     1
102
RTVSPost2010Prop32
280
     0
102
RTVSPost2010PropOp32
 70
     1
102
RTVSPost2010Prop33
280
     0
102
RTVSPost2010PropOp33
 70
     1
102
RTVSPost2010Prop34
280
     0
102
RTVSPost2010PropOp34
 70
     1
102
RTVSPost2010Prop35
280
     0
102
RTVSPost2010PropOp35
 70
     1
102
RTVSPost2010Prop36
280
     0
102
RTVSPost2010PropOp36
 70
     1
102
RTVSPost2010Prop37
 90
       50
102
RTVSPost2010PropOp37
 70
     1
102
RTVSPost2010Prop38
140
0.0
102
RTVSPost2010PropOp38
 70
     1
102
RTVSPost2010Prop39
140
1.0
102
RTVSPost2010PropOp39
 70
     1
102
RTVSPost2010Prop40
 90
        0
102
RTVSPost2010PropOp40
 70
     1
102
RTVSPost2010Prop41ColorIndex
 90
       18
102
RTVSPost2010Prop41ColorRGB
 90
        0
102
RTVSPost2010PropOp41
 70
     1
102
RTVSPost2010Prop42
 90
       50
102
RTVSPost2010PropOp42
 70
     1
102
RTVSPost2010Prop43
 90
        3
102
RTVSPost2010PropOp43
 70
     1
102
RTVSPost2010Prop44ColorIndex
 90
        5
102
RTVSPost2010Prop44ColorRGB
 90
      255
102
RTVSPost2010PropOp44
 70
     1
102
RTVSPost2010Prop45
280
     0
102
RTVSPost2010PropOp45
 70
     1
102
RTVSPost2010Prop46
 90
       50
102
RTVSPost2010PropOp46
 70
     1
102
RTVSPost2010Prop47
 90
       50
102
RTVSPost2010PropOp47
 70
     1
102
RTVSPost2010Prop48
 90
       50
102
RTVSPost2010PropOp48
 70
     1
102
RTVSPost2010Prop49
280
     0
102
RTVSPost2010PropOp49
 70
     1
102
RTVSPost2010Prop50
 90
       50
102
RTVSPost2010PropOp50
 70
     1
102
RTVSPost2010Prop51ColorIndex
 90
      256
102
RTVSPost2010Prop51ColorRGB
 90
-16777216
102
RTVSPost2010PropOp51
 70
     0
102
RTVSPost2010Prop52
140
1.0
102
RTVSPost2010PropOp52
 70
     0
102
RTVSPost2010Prop53
 90
        2
102
RTVSPost2010PropOp53
 70
     1
102
RTVSPost2010Prop54
  1
strokes_ogs.tif
102
RTVSPost2010PropOp54
 70
     1
102
RTVSPost2010Prop55
280
     0
102
RTVSPost2010PropOp55
 70
     1
102
RTVSPost2010Prop56
140
1.0
102
RTVSPost2010PropOp56
 70
     1
102
RTVSPost2010Prop57
140
1.0
102
RTVSPost2010PropOp57
 70
     1
102
RTVSPropertyOp0
 70
     1
102
RTVSPropertyOp1
 70
     1
102
RTVSPropertyOp2
 70
     1
102
RTVSPropertyOp3
 70
     1
102
RTVSPropertyOp4
 70
     1
102
RTVSPropertyOp5
 70
     1
102
RTVSPropertyOp6
 70
     1
102
RTVSPropertyOp7
 70
     1
102
RTVSPropertyOp8
 70
     1
102
RTVSPropertyOp9
 70
     1
102
RTVSPropertyOp10
 70
     1
102
RTVSPropertyOp11
 70
     1
102
RTVSPropertyOp12
 70
     1
102
RTVSPropertyOp13
 70
     1
102
RTVSPropertyOp14
 70
     1
102
RTVSPropertyOp15
 70
     1
102
RTVSPropertyOp16
 70
     1
102
RTVSPropertyOp17
 70
     1
102
RTVSPropertyOp18
 70
     1
102
RTVSPropertyOp19
 70
     1
102
RTVSPropertyOp20
 70
     1
102
RTVSPropertyOp21
 70
     1
102
RTVSPropertyOp22
 70
     1
102
RTVSPropertyOp23
 70
     1
102
RTVSPropertyOp24
 70
     1
102
RTVSPropertyOp25
 70
     1
102
RTVSPropertyOp26
 70
     1
102
RTVSPropertyOp27
 70
     1
102
RTVSPropertyOp28
 70
     1
102
RTVSPropertyOp29
 70
     1
102
RTVSPropertyOp30
 70
     1
102
RTVSPropertyOp31
 70
     1
102
RTVSPropertyOp32
 70
     1
102
RTVSPropertyOp33
 70
     1
102
RTVSPropertyOp34
 70
     1
102
RTVSPropertyOp35
 70
     1
102
RTVSPropertyOp36
 70
     1
102
RTVSPropertyOp37
 70
     1
102
RTVSPropertyOp38
 70
     1
102
RTVSPropertyOp39
 70
     1
102
RTVSPropertyOp40
 70
     1
102
RTVSPropertyOp41
 70
     1
102
RTVSPropertyOp42
 70
     1
102
RTVSPropertyOp43
 70
     1
102
RTVSPropertyOp44
 70
     1
102
RTVSPropertyOp45
 70
     1
102
RTVSPropertyOp46
 70
     1
102
RTVSPropertyOp47
 70
     1
102
RTVSPropertyOp48
 70
     1
102
RTVSPropertyOp49
 70
     1
102
RTVSPropertyOp50
 70
     1
102
RTVSPropertyOp51
 70
     0
102
RTVSPropertyOp52
 70
     0
102
RTVSPropertyOp53
 70
     1
102
RTVSPropertyOp54
 70
     1
102
RTVSPropertyOp55
 70
     1
102
RTVSPropertyOp56
 70
     1
102
RTVSPropertyOp57
 70
     1
102
RTVSPropertyOp58
 70
     1
102
RTVSPropertyOp59
 70
     1
102
RTVSPropertyOp60
 70
     1
102
RTVSPropertyOp61
 70
     1
102
RTVSPropertyOp62
 70
     1
  0
XRECORD
  5
B118
102
{ACAD_REACTORS
330
B117
102
}
330
B117
100
AcDbXrecord
280
     1
102
RTVSPost2010Prop28
280
     0
102
RTVSPost2010PropOp28
 70
     1
102
RTVSPost2010Prop29
280
     1
102
RTVSPost2010PropOp29
 70
     1
102
RTVSPost2010Prop30
280
     1
102
RTVSPost2010PropOp30
 70
     1
102
RTVSPost2010Prop31
280
     0
102
RTVSPost2010PropOp31
 70
     1
102
RTVSPost2010Prop32
280
     0
102
RTVSPost2010PropOp32
 70
     1
102
RTVSPost2010Prop33
280
     0
102
RTVSPost2010PropOp33
 70
     1
102
RTVSPost2010Prop34
280
     0
102
RTVSPost2010PropOp34
 70
     1
102
RTVSPost2010Prop35
280
     0
102
RTVSPost2010PropOp35
 70
     1
102
RTVSPost2010Prop36
280
     0
102
RTVSPost2010PropOp36
 70
     1
102
RTVSPost2010Prop37
 90
       50
102
RTVSPost2010PropOp37
 70
     1
102
RTVSPost2010Prop38
140
0.0
102
RTVSPost2010PropOp38
 70
     1
102
RTVSPost2010Prop39
140
1.0
102
RTVSPost2010PropOp39
 70
     1
102
RTVSPost2010Prop40
 90
        0
102
RTVSPost2010PropOp40
 70
     1
102
RTVSPost2010Prop41ColorIndex
 90
       18
102
RTVSPost2010Prop41ColorRGB
 90
        0
102
RTVSPost2010PropOp41
 70
     1
102
RTVSPost2010Prop42
 90
       50
102
RTVSPost2010PropOp42
 70
     1
102
RTVSPost2010Prop43
 90
        3
102
RTVSPost2010PropOp43
 70
     1
102
RTVSPost2010Prop44ColorIndex
 90
        5
102
RTVSPost2010Prop44ColorRGB
 90
      255
102
RTVSPost2010PropOp44
 70
     1
102
RTVSPost2010Prop45
280
     0
102
RTVSPost2010PropOp45
 70
     1
102
RTVSPost2010Prop46
 90
       50
102
RTVSPost2010PropOp46
 70
     1
102
RTVSPost2010Prop47
 90
       50
102
RTVSPost2010PropOp47
 70
     1
102
RTVSPost2010Prop48
 90
       50
102
RTVSPost2010PropOp48
 70
     1
102
RTVSPost2010Prop49
280
     0
102
RTVSPost2010PropOp49
 70
     1
102
RTVSPost2010Prop50
 90
       50
102
RTVSPost2010PropOp50
 70
     1
102
RTVSPost2010Prop51ColorIndex
 90
      256
102
RTVSPost2010Prop51ColorRGB
 90
-16777216
102
RTVSPost2010PropOp51
 70
     0
102
RTVSPost2010Prop52
140
1.0
102
RTVSPost2010PropOp52
 70
     0
102
RTVSPost2010Prop53
 90
        2
102
RTVSPost2010PropOp53
 70
     1
102
RTVSPost2010Prop54
  1
strokes_ogs.tif
102
RTVSPost2010PropOp54
 70
     1
102
RTVSPost2010Prop55
280
     0
102
RTVSPost2010PropOp55
 70
     1
102
RTVSPost2010Prop56
140
1.0
102
RTVSPost2010PropOp56
 70
     1
102
RTVSPost2010Prop57
140
1.0
102
RTVSPost2010PropOp57
 70
     1
102
RTVSPropertyOp0
 70
     1
102
RTVSPropertyOp1
 70
     1
102
RTVSPropertyOp2
 70
     1
102
RTVSPropertyOp3
 70
     1
102
RTVSPropertyOp4
 70
     1
102
RTVSPropertyOp5
 70
     1
102
RTVSPropertyOp6
 70
     1
102
RTVSPropertyOp7
 70
     1
102
RTVSPropertyOp8
 70
     1
102
RTVSPropertyOp9
 70
     1
102
RTVSPropertyOp10
 70
     1
102
RTVSPropertyOp11
 70
     1
102
RTVSPropertyOp12
 70
     1
102
RTVSPropertyOp13
 70
     1
102
RTVSPropertyOp14
 70
     1
102
RTVSPropertyOp15
 70
     1
102
RTVSPropertyOp16
 70
     1
102
RTVSPropertyOp17
 70
     1
102
RTVSPropertyOp18
 70
     1
102
RTVSPropertyOp19
 70
     1
102
RTVSPropertyOp20
 70
     1
102
RTVSPropertyOp21
 70
     1
102
RTVSPropertyOp22
 70
     1
102
RTVSPropertyOp23
 70
     1
102
RTVSPropertyOp24
 70
     1
102
RTVSPropertyOp25
 70
     1
102
RTVSPropertyOp26
 70
     1
102
RTVSPropertyOp27
 70
     1
102
RTVSPropertyOp28
 70
     1
102
RTVSPropertyOp29
 70
     1
102
RTVSPropertyOp30
 70
     1
102
RTVSPropertyOp31
 70
     1
102
RTVSPropertyOp32
 70
     1
102
RTVSPropertyOp33
 70
     1
102
RTVSPropertyOp34
 70
     1
102
RTVSPropertyOp35
 70
     1
102
RTVSPropertyOp36
 70
     1
102
RTVSPropertyOp37
 70
     1
102
RTVSPropertyOp38
 70
     1
102
RTVSPropertyOp39
 70
     1
102
RTVSPropertyOp40
 70
     1
102
RTVSPropertyOp41
 70
     1
102
RTVSPropertyOp42
 70
     1
102
RTVSPropertyOp43
 70
     1
102
RTVSPropertyOp44
 70
     1
102
RTVSPropertyOp45
 70
     1
102
RTVSPropertyOp46
 70
     1
102
RTVSPropertyOp47
 70
     1
102
RTVSPropertyOp48
 70
     1
102
RTVSPropertyOp49
 70
     1
102
RTVSPropertyOp50
 70
     1
102
RTVSPropertyOp51
 70
     0
102
RTVSPropertyOp52
 70
     0
102
RTVSPropertyOp53
 70
     1
102
RTVSPropertyOp54
 70
     1
102
RTVSPropertyOp55
 70
     1
102
RTVSPropertyOp56
 70
     1
102
RTVSPropertyOp57
 70
     1
102
RTVSPropertyOp58
 70
     1
102
RTVSPropertyOp59
 70
     1
102
RTVSPropertyOp60
 70
     1
102
RTVSPropertyOp61
 70
     1
102
RTVSPropertyOp62
 70
     1
  0
XRECORD
  5
B10A
102
{ACAD_REACTORS
330
B109
102
}
330
B109
100
AcDbXrecord
280
     1
102
RTVSPost2010Prop28
280
     0
102
RTVSPost2010PropOp28
 70
     1
102
RTVSPost2010Prop29
280
     1
102
RTVSPost2010PropOp29
 70
     1
102
RTVSPost2010Prop30
280
     1
102
RTVSPost2010PropOp30
 70
     1
102
RTVSPost2010Prop31
280
     0
102
RTVSPost2010PropOp31
 70
     1
102
RTVSPost2010Prop32
280
     0
102
RTVSPost2010PropOp32
 70
     1
102
RTVSPost2010Prop33
280
     0
102
RTVSPost2010PropOp33
 70
     1
102
RTVSPost2010Prop34
280
     0
102
RTVSPost2010PropOp34
 70
     1
102
RTVSPost2010Prop35
280
     0
102
RTVSPost2010PropOp35
 70
     1
102
RTVSPost2010Prop36
280
     0
102
RTVSPost2010PropOp36
 70
     1
102
RTVSPost2010Prop37
 90
       50
102
RTVSPost2010PropOp37
 70
     1
102
RTVSPost2010Prop38
140
0.0
102
RTVSPost2010PropOp38
 70
     1
102
RTVSPost2010Prop39
140
1.0
102
RTVSPost2010PropOp39
 70
     1
102
RTVSPost2010Prop40
 90
        0
102
RTVSPost2010PropOp40
 70
     1
102
RTVSPost2010Prop41ColorIndex
 90
       18
102
RTVSPost2010Prop41ColorRGB
 90
        0
102
RTVSPost2010PropOp41
 70
     1
102
RTVSPost2010Prop42
 90
       50
102
RTVSPost2010PropOp42
 70
     1
102
RTVSPost2010Prop43
 90
        3
102
RTVSPost2010PropOp43
 70
     1
102
RTVSPost2010Prop44ColorIndex
 90
        5
102
RTVSPost2010Prop44ColorRGB
 90
      255
102
RTVSPost2010PropOp44
 70
     1
102
RTVSPost2010Prop45
280
     0
102
RTVSPost2010PropOp45
 70
     1
102
RTVSPost2010Prop46
 90
       50
102
RTVSPost2010PropOp46
 70
     1
102
RTVSPost2010Prop47
 90
       50
102
RTVSPost2010PropOp47
 70
     1
102
RTVSPost2010Prop48
 90
       50
102
RTVSPost2010PropOp48
 70
     1
102
RTVSPost2010Prop49
280
     0
102
RTVSPost2010PropOp49
 70
     1
102
RTVSPost2010Prop50
 90
       50
102
RTVSPost2010PropOp50
 70
     1
102
RTVSPost2010Prop51ColorIndex
 90
      256
102
RTVSPost2010Prop51ColorRGB
 90
-16777216
102
RTVSPost2010PropOp51
 70
     0
102
RTVSPost2010Prop52
140
1.0
102
RTVSPost2010PropOp52
 70
     0
102
RTVSPost2010Prop53
 90
        2
102
RTVSPost2010PropOp53
 70
     1
102
RTVSPost2010Prop54
  1
strokes_ogs.tif
102
RTVSPost2010PropOp54
 70
     1
102
RTVSPost2010Prop55
280
     0
102
RTVSPost2010PropOp55
 70
     1
102
RTVSPost2010Prop56
140
1.0
102
RTVSPost2010PropOp56
 70
     1
102
RTVSPost2010Prop57
140
1.0
102
RTVSPost2010PropOp57
 70
     1
102
RTVSPropertyOp0
 70
     1
102
RTVSPropertyOp1
 70
     1
102
RTVSPropertyOp2
 70
     1
102
RTVSPropertyOp3
 70
     1
102
RTVSPropertyOp4
 70
     1
102
RTVSPropertyOp5
 70
     1
102
RTVSPropertyOp6
 70
     1
102
RTVSPropertyOp7
 70
     1
102
RTVSPropertyOp8
 70
     1
102
RTVSPropertyOp9
 70
     1
102
RTVSPropertyOp10
 70
     1
102
RTVSPropertyOp11
 70
     1
102
RTVSPropertyOp12
 70
     1
102
RTVSPropertyOp13
 70
     1
102
RTVSPropertyOp14
 70
     1
102
RTVSPropertyOp15
 70
     1
102
RTVSPropertyOp16
 70
     1
102
RTVSPropertyOp17
 70
     1
102
RTVSPropertyOp18
 70
     1
102
RTVSPropertyOp19
 70
     1
102
RTVSPropertyOp20
 70
     1
102
RTVSPropertyOp21
 70
     1
102
RTVSPropertyOp22
 70
     1
102
RTVSPropertyOp23
 70
     1
102
RTVSPropertyOp24
 70
     1
102
RTVSPropertyOp25
 70
     1
102
RTVSPropertyOp26
 70
     1
102
RTVSPropertyOp27
 70
     1
102
RTVSPropertyOp28
 70
     1
102
RTVSPropertyOp29
 70
     1
102
RTVSPropertyOp30
 70
     1
102
RTVSPropertyOp31
 70
     1
102
RTVSPropertyOp32
 70
     1
102
RTVSPropertyOp33
 70
     1
102
RTVSPropertyOp34
 70
     1
102
RTVSPropertyOp35
 70
     1
102
RTVSPropertyOp36
 70
     1
102
RTVSPropertyOp37
 70
     1
102
RTVSPropertyOp38
 70
     1
102
RTVSPropertyOp39
 70
     1
102
RTVSPropertyOp40
 70
     1
102
RTVSPropertyOp41
 70
     1
102
RTVSPropertyOp42
 70
     1
102
RTVSPropertyOp43
 70
     1
102
RTVSPropertyOp44
 70
     1
102
RTVSPropertyOp45
 70
     1
102
RTVSPropertyOp46
 70
     1
102
RTVSPropertyOp47
 70
     1
102
RTVSPropertyOp48
 70
     1
102
RTVSPropertyOp49
 70
     1
102
RTVSPropertyOp50
 70
     1
102
RTVSPropertyOp51
 70
     0
102
RTVSPropertyOp52
 70
     0
102
RTVSPropertyOp53
 70
     1
102
RTVSPropertyOp54
 70
     1
102
RTVSPropertyOp55
 70
     1
102
RTVSPropertyOp56
 70
     1
102
RTVSPropertyOp57
 70
     1
102
RTVSPropertyOp58
 70
     1
102
RTVSPropertyOp59
 70
     1
102
RTVSPropertyOp60
 70
     1
102
RTVSPropertyOp61
 70
     1
102
RTVSPropertyOp62
 70
     1
  0
XRECORD
  5
B10E
102
{ACAD_REACTORS
330
B10D
102
}
330
B10D
100
AcDbXrecord
280
     1
102
RTVSPost2010Prop28
280
     0
102
RTVSPost2010PropOp28
 70
     1
102
RTVSPost2010Prop29
280
     1
102
RTVSPost2010PropOp29
 70
     1
102
RTVSPost2010Prop30
280
     1
102
RTVSPost2010PropOp30
 70
     1
102
RTVSPost2010Prop31
280
     0
102
RTVSPost2010PropOp31
 70
     1
102
RTVSPost2010Prop32
280
     0
102
RTVSPost2010PropOp32
 70
     1
102
RTVSPost2010Prop33
280
     0
102
RTVSPost2010PropOp33
 70
     1
102
RTVSPost2010Prop34
280
     0
102
RTVSPost2010PropOp34
 70
     1
102
RTVSPost2010Prop35
280
     0
102
RTVSPost2010PropOp35
 70
     1
102
RTVSPost2010Prop36
280
     0
102
RTVSPost2010PropOp36
 70
     1
102
RTVSPost2010Prop37
 90
       50
102
RTVSPost2010PropOp37
 70
     1
102
RTVSPost2010Prop38
140
0.0
102
RTVSPost2010PropOp38
 70
     1
102
RTVSPost2010Prop39
140
1.0
102
RTVSPost2010PropOp39
 70
     1
102
RTVSPost2010Prop40
 90
        0
102
RTVSPost2010PropOp40
 70
     1
102
RTVSPost2010Prop41ColorIndex
 90
       18
102
RTVSPost2010Prop41ColorRGB
 90
        0
102
RTVSPost2010PropOp41
 70
     1
102
RTVSPost2010Prop42
 90
       50
102
RTVSPost2010PropOp42
 70
     1
102
RTVSPost2010Prop43
 90
        3
102
RTVSPost2010PropOp43
 70
     1
102
RTVSPost2010Prop44ColorIndex
 90
        5
102
RTVSPost2010Prop44ColorRGB
 90
      255
102
RTVSPost2010PropOp44
 70
     1
102
RTVSPost2010Prop45
280
     0
102
RTVSPost2010PropOp45
 70
     1
102
RTVSPost2010Prop46
 90
       50
102
RTVSPost2010PropOp46
 70
     1
102
RTVSPost2010Prop47
 90
       50
102
RTVSPost2010PropOp47
 70
     1
102
RTVSPost2010Prop48
 90
       50
102
RTVSPost2010PropOp48
 70
     1
102
RTVSPost2010Prop49
280
     0
102
RTVSPost2010PropOp49
 70
     1
102
RTVSPost2010Prop50
 90
       50
102
RTVSPost2010PropOp50
 70
     1
102
RTVSPost2010Prop51ColorIndex
 90
      256
102
RTVSPost2010Prop51ColorRGB
 90
-16777216
102
RTVSPost2010PropOp51
 70
     0
102
RTVSPost2010Prop52
140
1.0
102
RTVSPost2010PropOp52
 70
     0
102
RTVSPost2010Prop53
 90
        2
102
RTVSPost2010PropOp53
 70
     1
102
RTVSPost2010Prop54
  1
strokes_ogs.tif
102
RTVSPost2010PropOp54
 70
     1
102
RTVSPost2010Prop55
280
     0
102
RTVSPost2010PropOp55
 70
     1
102
RTVSPost2010Prop56
140
1.0
102
RTVSPost2010PropOp56
 70
     1
102
RTVSPost2010Prop57
140
1.0
102
RTVSPost2010PropOp57
 70
     1
102
RTVSPropertyOp0
 70
     1
102
RTVSPropertyOp1
 70
     1
102
RTVSPropertyOp2
 70
     1
102
RTVSPropertyOp3
 70
     1
102
RTVSPropertyOp4
 70
     1
102
RTVSPropertyOp5
 70
     1
102
RTVSPropertyOp6
 70
     1
102
RTVSPropertyOp7
 70
     1
102
RTVSPropertyOp8
 70
     1
102
RTVSPropertyOp9
 70
     1
102
RTVSPropertyOp10
 70
     1
102
RTVSPropertyOp11
 70
     1
102
RTVSPropertyOp12
 70
     1
102
RTVSPropertyOp13
 70
     1
102
RTVSPropertyOp14
 70
     1
102
RTVSPropertyOp15
 70
     1
102
RTVSPropertyOp16
 70
     1
102
RTVSPropertyOp17
 70
     1
102
RTVSPropertyOp18
 70
     1
102
RTVSPropertyOp19
 70
     1
102
RTVSPropertyOp20
 70
     1
102
RTVSPropertyOp21
 70
     1
102
RTVSPropertyOp22
 70
     1
102
RTVSPropertyOp23
 70
     1
102
RTVSPropertyOp24
 70
     1
102
RTVSPropertyOp25
 70
     1
102
RTVSPropertyOp26
 70
     1
102
RTVSPropertyOp27
 70
     1
102
RTVSPropertyOp28
 70
     1
102
RTVSPropertyOp29
 70
     1
102
RTVSPropertyOp30
 70
     1
102
RTVSPropertyOp31
 70
     1
102
RTVSPropertyOp32
 70
     1
102
RTVSPropertyOp33
 70
     1
102
RTVSPropertyOp34
 70
     1
102
RTVSPropertyOp35
 70
     1
102
RTVSPropertyOp36
 70
     1
102
RTVSPropertyOp37
 70
     1
102
RTVSPropertyOp38
 70
     1
102
RTVSPropertyOp39
 70
     1
102
RTVSPropertyOp40
 70
     1
102
RTVSPropertyOp41
 70
     1
102
RTVSPropertyOp42
 70
     1
102
RTVSPropertyOp43
 70
     1
102
RTVSPropertyOp44
 70
     1
102
RTVSPropertyOp45
 70
     1
102
RTVSPropertyOp46
 70
     1
102
RTVSPropertyOp47
 70
     1
102
RTVSPropertyOp48
 70
     1
102
RTVSPropertyOp49
 70
     1
102
RTVSPropertyOp50
 70
     1
102
RTVSPropertyOp51
 70
     0
102
RTVSPropertyOp52
 70
     0
102
RTVSPropertyOp53
 70
     1
102
RTVSPropertyOp54
 70
     1
102
RTVSPropertyOp55
 70
     1
102
RTVSPropertyOp56
 70
     1
102
RTVSPropertyOp57
 70
     1
102
RTVSPropertyOp58
 70
     1
102
RTVSPropertyOp59
 70
     1
102
RTVSPropertyOp60
 70
     1
102
RTVSPropertyOp61
 70
     1
102
RTVSPropertyOp62
 70
     1
  0
XRECORD
  5
B128
102
{ACAD_REACTORS
330
B127
102
}
330
B127
100
AcDbXrecord
280
     1
102
RTVSPost2010Prop28
280
     0
102
RTVSPost2010PropOp28
 70
     1
102
RTVSPost2010Prop29
280
     1
102
RTVSPost2010PropOp29
 70
     1
102
RTVSPost2010Prop30
280
     1
102
RTVSPost2010PropOp30
 70
     1
102
RTVSPost2010Prop31
280
     0
102
RTVSPost2010PropOp31
 70
     1
102
RTVSPost2010Prop32
280
     0
102
RTVSPost2010PropOp32
 70
     1
102
RTVSPost2010Prop33
280
     0
102
RTVSPost2010PropOp33
 70
     1
102
RTVSPost2010Prop34
280
     0
102
RTVSPost2010PropOp34
 70
     1
102
RTVSPost2010Prop35
280
     0
102
RTVSPost2010PropOp35
 70
     1
102
RTVSPost2010Prop36
280
     0
102
RTVSPost2010PropOp36
 70
     1
102
RTVSPost2010Prop37
 90
       50
102
RTVSPost2010PropOp37
 70
     0
102
RTVSPost2010Prop38
140
0.0
102
RTVSPost2010PropOp38
 70
     0
102
RTVSPost2010Prop39
140
1.0
102
RTVSPost2010PropOp39
 70
     0
102
RTVSPost2010Prop40
 90
        0
102
RTVSPost2010PropOp40
 70
     0
102
RTVSPost2010Prop41ColorIndex
 90
       18
102
RTVSPost2010Prop41ColorRGB
 90
        0
102
RTVSPost2010PropOp41
 70
     0
102
RTVSPost2010Prop42
 90
       50
102
RTVSPost2010PropOp42
 70
     0
102
RTVSPost2010Prop43
 90
        3
102
RTVSPost2010PropOp43
 70
     0
102
RTVSPost2010Prop44ColorIndex
 90
        5
102
RTVSPost2010Prop44ColorRGB
 90
      255
102
RTVSPost2010PropOp44
 70
     0
102
RTVSPost2010Prop45
280
     0
102
RTVSPost2010PropOp45
 70
     1
102
RTVSPost2010Prop46
 90
       50
102
RTVSPost2010PropOp46
 70
     0
102
RTVSPost2010Prop47
 90
       50
102
RTVSPost2010PropOp47
 70
     0
102
RTVSPost2010Prop48
 90
       50
102
RTVSPost2010PropOp48
 70
     0
102
RTVSPost2010Prop49
280
     0
102
RTVSPost2010PropOp49
 70
     1
102
RTVSPost2010Prop50
 90
       50
102
RTVSPost2010PropOp50
 70
     0
102
RTVSPost2010Prop51ColorIndex
 90
      256
102
RTVSPost2010Prop51ColorRGB
 90
-16777216
102
RTVSPost2010PropOp51
 70
     0
102
RTVSPost2010Prop52
140
1.0
102
RTVSPost2010PropOp52
 70
     0
102
RTVSPost2010Prop53
 90
        2
102
RTVSPost2010PropOp53
 70
     0
102
RTVSPost2010Prop54
  1
strokes_ogs.tif
102
RTVSPost2010PropOp54
 70
     0
102
RTVSPost2010Prop55
280
     0
102
RTVSPost2010PropOp55
 70
     1
102
RTVSPost2010Prop56
140
1.0
102
RTVSPost2010PropOp56
 70
     0
102
RTVSPost2010Prop57
140
1.0
102
RTVSPost2010PropOp57
 70
     0
102
RTVSPropertyOp0
 70
     0
102
RTVSPropertyOp1
 70
     0
102
RTVSPropertyOp2
 70
     0
102
RTVSPropertyOp3
 70
     0
102
RTVSPropertyOp4
 70
     0
102
RTVSPropertyOp5
 70
     0
102
RTVSPropertyOp6
 70
     0
102
RTVSPropertyOp7
 70
     0
102
RTVSPropertyOp8
 70
     0
102
RTVSPropertyOp9
 70
     0
102
RTVSPropertyOp10
 70
     0
102
RTVSPropertyOp11
 70
     0
102
RTVSPropertyOp12
 70
     0
102
RTVSPropertyOp13
 70
     0
102
RTVSPropertyOp14
 70
     2
102
RTVSPropertyOp15
 70
     0
102
RTVSPropertyOp16
 70
     0
102
RTVSPropertyOp17
 70
     0
102
RTVSPropertyOp18
 70
     0
102
RTVSPropertyOp19
 70
     0
102
RTVSPropertyOp20
 70
     0
102
RTVSPropertyOp21
 70
     0
102
RTVSPropertyOp22
 70
     0
102
RTVSPropertyOp23
 70
     0
102
RTVSPropertyOp24
 70
     0
102
RTVSPropertyOp25
 70
     0
102
RTVSPropertyOp26
 70
     0
102
RTVSPropertyOp27
 70
     0
102
RTVSPropertyOp28
 70
     1
102
RTVSPropertyOp29
 70
     1
102
RTVSPropertyOp30
 70
     1
102
RTVSPropertyOp31
 70
     1
102
RTVSPropertyOp32
 70
     1
102
RTVSPropertyOp33
 70
     1
102
RTVSPropertyOp34
 70
     1
102
RTVSPropertyOp35
 70
     1
102
RTVSPropertyOp36
 70
     1
102
RTVSPropertyOp37
 70
     0
102
RTVSPropertyOp38
 70
     0
102
RTVSPropertyOp39
 70
     0
102
RTVSPropertyOp40
 70
     0
102
RTVSPropertyOp41
 70
     0
102
RTVSPropertyOp42
 70
     0
102
RTVSPropertyOp43
 70
     0
102
RTVSPropertyOp44
 70
     0
102
RTVSPropertyOp45
 70
     1
102
RTVSPropertyOp46
 70
     0
102
RTVSPropertyOp47
 70
     0
102
RTVSPropertyOp48
 70
     0
102
RTVSPropertyOp49
 70
     1
102
RTVSPropertyOp50
 70
     0
102
RTVSPropertyOp51
 70
     0
102
RTVSPropertyOp52
 70
     0
102
RTVSPropertyOp53
 70
     0
102
RTVSPropertyOp54
 70
     0
102
RTVSPropertyOp55
 70
     1
102
RTVSPropertyOp56
 70
     0
102
RTVSPropertyOp57
 70
     0
102
RTVSPropertyOp58
 70
     0
102
RTVSPropertyOp59
 70
     0
102
RTVSPropertyOp60
 70
     0
102
RTVSPropertyOp61
 70
     0
102
RTVSPropertyOp62
 70
     0
  0
XRECORD
  5
B116
102
{ACAD_REACTORS
330
B115
102
}
330
B115
100
AcDbXrecord
280
     1
102
RTVSPost2010Prop28
280
     0
102
RTVSPost2010PropOp28
 70
     1
102
RTVSPost2010Prop29
280
     1
102
RTVSPost2010PropOp29
 70
     1
102
RTVSPost2010Prop30
280
     1
102
RTVSPost2010PropOp30
 70
     1
102
RTVSPost2010Prop31
280
     0
102
RTVSPost2010PropOp31
 70
     1
102
RTVSPost2010Prop32
280
     0
102
RTVSPost2010PropOp32
 70
     1
102
RTVSPost2010Prop33
280
     0
102
RTVSPost2010PropOp33
 70
     1
102
RTVSPost2010Prop34
280
     0
102
RTVSPost2010PropOp34
 70
     1
102
RTVSPost2010Prop35
280
     0
102
RTVSPost2010PropOp35
 70
     1
102
RTVSPost2010Prop36
280
     0
102
RTVSPost2010PropOp36
 70
     1
102
RTVSPost2010Prop37
 90
       50
102
RTVSPost2010PropOp37
 70
     1
102
RTVSPost2010Prop38
140
0.0
102
RTVSPost2010PropOp38
 70
     1
102
RTVSPost2010Prop39
140
1.0
102
RTVSPost2010PropOp39
 70
     1
102
RTVSPost2010Prop40
 90
        0
102
RTVSPost2010PropOp40
 70
     1
102
RTVSPost2010Prop41ColorIndex
 90
       18
102
RTVSPost2010Prop41ColorRGB
 90
        0
102
RTVSPost2010PropOp41
 70
     1
102
RTVSPost2010Prop42
 90
       50
102
RTVSPost2010PropOp42
 70
     1
102
RTVSPost2010Prop43
 90
        3
102
RTVSPost2010PropOp43
 70
     1
102
RTVSPost2010Prop44ColorIndex
 90
        5
102
RTVSPost2010Prop44ColorRGB
 90
      255
102
RTVSPost2010PropOp44
 70
     1
102
RTVSPost2010Prop45
280
     0
102
RTVSPost2010PropOp45
 70
     1
102
RTVSPost2010Prop46
 90
       50
102
RTVSPost2010PropOp46
 70
     1
102
RTVSPost2010Prop47
 90
       50
102
RTVSPost2010PropOp47
 70
     1
102
RTVSPost2010Prop48
 90
       50
102
RTVSPost2010PropOp48
 70
     1
102
RTVSPost2010Prop49
280
     0
102
RTVSPost2010PropOp49
 70
     1
102
RTVSPost2010Prop50
 90
       50
102
RTVSPost2010PropOp50
 70
     1
102
RTVSPost2010Prop51ColorIndex
 90
      256
102
RTVSPost2010Prop51ColorRGB
 90
-16777216
102
RTVSPost2010PropOp51
 70
     0
102
RTVSPost2010Prop52
140
1.0
102
RTVSPost2010PropOp52
 70
     0
102
RTVSPost2010Prop53
 90
        2
102
RTVSPost2010PropOp53
 70
     1
102
RTVSPost2010Prop54
  1
strokes_ogs.tif
102
RTVSPost2010PropOp54
 70
     1
102
RTVSPost2010Prop55
280
     0
102
RTVSPost2010PropOp55
 70
     1
102
RTVSPost2010Prop56
140
1.0
102
RTVSPost2010PropOp56
 70
     1
102
RTVSPost2010Prop57
140
1.0
102
RTVSPost2010PropOp57
 70
     1
102
RTVSPropertyOp0
 70
     1
102
RTVSPropertyOp1
 70
     1
102
RTVSPropertyOp2
 70
     1
102
RTVSPropertyOp3
 70
     1
102
RTVSPropertyOp4
 70
     1
102
RTVSPropertyOp5
 70
     1
102
RTVSPropertyOp6
 70
     1
102
RTVSPropertyOp7
 70
     1
102
RTVSPropertyOp8
 70
     1
102
RTVSPropertyOp9
 70
     1
102
RTVSPropertyOp10
 70
     1
102
RTVSPropertyOp11
 70
     1
102
RTVSPropertyOp12
 70
     1
102
RTVSPropertyOp13
 70
     1
102
RTVSPropertyOp14
 70
     1
102
RTVSPropertyOp15
 70
     1
102
RTVSPropertyOp16
 70
     1
102
RTVSPropertyOp17
 70
     1
102
RTVSPropertyOp18
 70
     1
102
RTVSPropertyOp19
 70
     1
102
RTVSPropertyOp20
 70
     1
102
RTVSPropertyOp21
 70
     1
102
RTVSPropertyOp22
 70
     1
102
RTVSPropertyOp23
 70
     1
102
RTVSPropertyOp24
 70
     1
102
RTVSPropertyOp25
 70
     1
102
RTVSPropertyOp26
 70
     1
102
RTVSPropertyOp27
 70
     1
102
RTVSPropertyOp28
 70
     1
102
RTVSPropertyOp29
 70
     1
102
RTVSPropertyOp30
 70
     1
102
RTVSPropertyOp31
 70
     1
102
RTVSPropertyOp32
 70
     1
102
RTVSPropertyOp33
 70
     1
102
RTVSPropertyOp34
 70
     1
102
RTVSPropertyOp35
 70
     1
102
RTVSPropertyOp36
 70
     1
102
RTVSPropertyOp37
 70
     1
102
RTVSPropertyOp38
 70
     1
102
RTVSPropertyOp39
 70
     1
102
RTVSPropertyOp40
 70
     1
102
RTVSPropertyOp41
 70
     1
102
RTVSPropertyOp42
 70
     1
102
RTVSPropertyOp43
 70
     1
102
RTVSPropertyOp44
 70
     1
102
RTVSPropertyOp45
 70
     1
102
RTVSPropertyOp46
 70
     1
102
RTVSPropertyOp47
 70
     1
102
RTVSPropertyOp48
 70
     1
102
RTVSPropertyOp49
 70
     1
102
RTVSPropertyOp50
 70
     1
102
RTVSPropertyOp51
 70
     0
102
RTVSPropertyOp52
 70
     0
102
RTVSPropertyOp53
 70
     1
102
RTVSPropertyOp54
 70
     1
102
RTVSPropertyOp55
 70
     1
102
RTVSPropertyOp56
 70
     1
102
RTVSPropertyOp57
 70
     1
102
RTVSPropertyOp58
 70
     1
102
RTVSPropertyOp59
 70
     1
102
RTVSPropertyOp60
 70
     1
102
RTVSPropertyOp61
 70
     1
102
RTVSPropertyOp62
 70
     1
  0
XRECORD
  5
B0FA
102
{ACAD_REACTORS
330
B0F9
102
}
330
B0F9
100
AcDbXrecord
280
     1
102
RTVSPost2010Prop28
280
     0
102
RTVSPost2010PropOp28
 70
     1
102
RTVSPost2010Prop29
280
     1
102
RTVSPost2010PropOp29
 70
     1
102
RTVSPost2010Prop30
280
     1
102
RTVSPost2010PropOp30
 70
     1
102
RTVSPost2010Prop31
280
     0
102
RTVSPost2010PropOp31
 70
     1
102
RTVSPost2010Prop32
280
     0
102
RTVSPost2010PropOp32
 70
     1
102
RTVSPost2010Prop33
280
     0
102
RTVSPost2010PropOp33
 70
     1
102
RTVSPost2010Prop34
280
     0
102
RTVSPost2010PropOp34
 70
     1
102
RTVSPost2010Prop35
280
     0
102
RTVSPost2010PropOp35
 70
     1
102
RTVSPost2010Prop36
280
     0
102
RTVSPost2010PropOp36
 70
     1
102
RTVSPost2010Prop37
 90
       50
102
RTVSPost2010PropOp37
 70
     1
102
RTVSPost2010Prop38
140
0.0
102
RTVSPost2010PropOp38
 70
     1
102
RTVSPost2010Prop39
140
1.0
102
RTVSPost2010PropOp39
 70
     1
102
RTVSPost2010Prop40
 90
        0
102
RTVSPost2010PropOp40
 70
     1
102
RTVSPost2010Prop41ColorIndex
 90
       18
102
RTVSPost2010Prop41ColorRGB
 90
        0
102
RTVSPost2010PropOp41
 70
     1
102
RTVSPost2010Prop42
 90
       50
102
RTVSPost2010PropOp42
 70
     1
102
RTVSPost2010Prop43
 90
        3
102
RTVSPost2010PropOp43
 70
     1
102
RTVSPost2010Prop44ColorIndex
 90
        5
102
RTVSPost2010Prop44ColorRGB
 90
      255
102
RTVSPost2010PropOp44
 70
     1
102
RTVSPost2010Prop45
280
     0
102
RTVSPost2010PropOp45
 70
     1
102
RTVSPost2010Prop46
 90
       50
102
RTVSPost2010PropOp46
 70
     1
102
RTVSPost2010Prop47
 90
       50
102
RTVSPost2010PropOp47
 70
     1
102
RTVSPost2010Prop48
 90
       50
102
RTVSPost2010PropOp48
 70
     1
102
RTVSPost2010Prop49
280
     0
102
RTVSPost2010PropOp49
 70
     1
102
RTVSPost2010Prop50
 90
       50
102
RTVSPost2010PropOp50
 70
     1
102
RTVSPost2010Prop51ColorIndex
 90
      256
102
RTVSPost2010Prop51ColorRGB
 90
-16777216
102
RTVSPost2010PropOp51
 70
     0
102
RTVSPost2010Prop52
140
1.0
102
RTVSPost2010PropOp52
 70
     0
102
RTVSPost2010Prop53
 90
        2
102
RTVSPost2010PropOp53
 70
     1
102
RTVSPost2010Prop54
  1
strokes_ogs.tif
102
RTVSPost2010PropOp54
 70
     1
102
RTVSPost2010Prop55
280
     0
102
RTVSPost2010PropOp55
 70
     1
102
RTVSPost2010Prop56
140
1.0
102
RTVSPost2010PropOp56
 70
     1
102
RTVSPost2010Prop57
140
1.0
102
RTVSPost2010PropOp57
 70
     1
102
RTVSPropertyOp0
 70
     1
102
RTVSPropertyOp1
 70
     1
102
RTVSPropertyOp2
 70
     1
102
RTVSPropertyOp3
 70
     1
102
RTVSPropertyOp4
 70
     1
102
RTVSPropertyOp5
 70
     1
102
RTVSPropertyOp6
 70
     1
102
RTVSPropertyOp7
 70
     1
102
RTVSPropertyOp8
 70
     1
102
RTVSPropertyOp9
 70
     1
102
RTVSPropertyOp10
 70
     1
102
RTVSPropertyOp11
 70
     1
102
RTVSPropertyOp12
 70
     1
102
RTVSPropertyOp13
 70
     1
102
RTVSPropertyOp14
 70
     1
102
RTVSPropertyOp15
 70
     1
102
RTVSPropertyOp16
 70
     1
102
RTVSPropertyOp17
 70
     1
102
RTVSPropertyOp18
 70
     1
102
RTVSPropertyOp19
 70
     1
102
RTVSPropertyOp20
 70
     1
102
RTVSPropertyOp21
 70
     1
102
RTVSPropertyOp22
 70
     1
102
RTVSPropertyOp23
 70
     1
102
RTVSPropertyOp24
 70
     1
102
RTVSPropertyOp25
 70
     1
102
RTVSPropertyOp26
 70
     1
102
RTVSPropertyOp27
 70
     1
102
RTVSPropertyOp28
 70
     1
102
RTVSPropertyOp29
 70
     1
102
RTVSPropertyOp30
 70
     1
102
RTVSPropertyOp31
 70
     1
102
RTVSPropertyOp32
 70
     1
102
RTVSPropertyOp33
 70
     1
102
RTVSPropertyOp34
 70
     1
102
RTVSPropertyOp35
 70
     1
102
RTVSPropertyOp36
 70
     1
102
RTVSPropertyOp37
 70
     1
102
RTVSPropertyOp38
 70
     1
102
RTVSPropertyOp39
 70
     1
102
RTVSPropertyOp40
 70
     1
102
RTVSPropertyOp41
 70
     1
102
RTVSPropertyOp42
 70
     1
102
RTVSPropertyOp43
 70
     1
102
RTVSPropertyOp44
 70
     1
102
RTVSPropertyOp45
 70
     1
102
RTVSPropertyOp46
 70
     1
102
RTVSPropertyOp47
 70
     1
102
RTVSPropertyOp48
 70
     1
102
RTVSPropertyOp49
 70
     1
102
RTVSPropertyOp50
 70
     1
102
RTVSPropertyOp51
 70
     0
102
RTVSPropertyOp52
 70
     0
102
RTVSPropertyOp53
 70
     1
102
RTVSPropertyOp54
 70
     1
102
RTVSPropertyOp55
 70
     1
102
RTVSPropertyOp56
 70
     1
102
RTVSPropertyOp57
 70
     1
102
RTVSPropertyOp58
 70
     1
102
RTVSPropertyOp59
 70
     1
102
RTVSPropertyOp60
 70
     1
102
RTVSPropertyOp61
 70
     1
102
RTVSPropertyOp62
 70
     1
  0
XRECORD
  5
B0FC
102
{ACAD_REACTORS
330
B0FB
102
}
330
B0FB
100
AcDbXrecord
280
     1
102
RTVSPost2010Prop28
280
     0
102
RTVSPost2010PropOp28
 70
     1
102
RTVSPost2010Prop29
280
     1
102
RTVSPost2010PropOp29
 70
     1
102
RTVSPost2010Prop30
280
     1
102
RTVSPost2010PropOp30
 70
     1
102
RTVSPost2010Prop31
280
     0
102
RTVSPost2010PropOp31
 70
     1
102
RTVSPost2010Prop32
280
     0
102
RTVSPost2010PropOp32
 70
     1
102
RTVSPost2010Prop33
280
     0
102
RTVSPost2010PropOp33
 70
     1
102
RTVSPost2010Prop34
280
     0
102
RTVSPost2010PropOp34
 70
     1
102
RTVSPost2010Prop35
280
     0
102
RTVSPost2010PropOp35
 70
     1
102
RTVSPost2010Prop36
280
     0
102
RTVSPost2010PropOp36
 70
     1
102
RTVSPost2010Prop37
 90
       50
102
RTVSPost2010PropOp37
 70
     1
102
RTVSPost2010Prop38
140
0.0
102
RTVSPost2010PropOp38
 70
     1
102
RTVSPost2010Prop39
140
1.0
102
RTVSPost2010PropOp39
 70
     1
102
RTVSPost2010Prop40
 90
        0
102
RTVSPost2010PropOp40
 70
     1
102
RTVSPost2010Prop41ColorIndex
 90
       18
102
RTVSPost2010Prop41ColorRGB
 90
        0
102
RTVSPost2010PropOp41
 70
     1
102
RTVSPost2010Prop42
 90
       50
102
RTVSPost2010PropOp42
 70
     1
102
RTVSPost2010Prop43
 90
        3
102
RTVSPost2010PropOp43
 70
     1
102
RTVSPost2010Prop44ColorIndex
 90
        5
102
RTVSPost2010Prop44ColorRGB
 90
      255
102
RTVSPost2010PropOp44
 70
     1
102
RTVSPost2010Prop45
280
     0
102
RTVSPost2010PropOp45
 70
     1
102
RTVSPost2010Prop46
 90
       50
102
RTVSPost2010PropOp46
 70
     1
102
RTVSPost2010Prop47
 90
       50
102
RTVSPost2010PropOp47
 70
     1
102
RTVSPost2010Prop48
 90
       50
102
RTVSPost2010PropOp48
 70
     1
102
RTVSPost2010Prop49
280
     0
102
RTVSPost2010PropOp49
 70
     1
102
RTVSPost2010Prop50
 90
       50
102
RTVSPost2010PropOp50
 70
     1
102
RTVSPost2010Prop51ColorIndex
 90
      256
102
RTVSPost2010Prop51ColorRGB
 90
-16777216
102
RTVSPost2010PropOp51
 70
     0
102
RTVSPost2010Prop52
140
1.0
102
RTVSPost2010PropOp52
 70
     0
102
RTVSPost2010Prop53
 90
        2
102
RTVSPost2010PropOp53
 70
     1
102
RTVSPost2010Prop54
  1
strokes_ogs.tif
102
RTVSPost2010PropOp54
 70
     1
102
RTVSPost2010Prop55
280
     0
102
RTVSPost2010PropOp55
 70
     1
102
RTVSPost2010Prop56
140
1.0
102
RTVSPost2010PropOp56
 70
     1
102
RTVSPost2010Prop57
140
1.0
102
RTVSPost2010PropOp57
 70
     1
102
RTVSPropertyOp0
 70
     1
102
RTVSPropertyOp1
 70
     1
102
RTVSPropertyOp2
 70
     1
102
RTVSPropertyOp3
 70
     1
102
RTVSPropertyOp4
 70
     1
102
RTVSPropertyOp5
 70
     1
102
RTVSPropertyOp6
 70
     1
102
RTVSPropertyOp7
 70
     1
102
RTVSPropertyOp8
 70
     1
102
RTVSPropertyOp9
 70
     1
102
RTVSPropertyOp10
 70
     1
102
RTVSPropertyOp11
 70
     1
102
RTVSPropertyOp12
 70
     1
102
RTVSPropertyOp13
 70
     1
102
RTVSPropertyOp14
 70
     1
102
RTVSPropertyOp15
 70
     1
102
RTVSPropertyOp16
 70
     1
102
RTVSPropertyOp17
 70
     1
102
RTVSPropertyOp18
 70
     1
102
RTVSPropertyOp19
 70
     1
102
RTVSPropertyOp20
 70
     1
102
RTVSPropertyOp21
 70
     1
102
RTVSPropertyOp22
 70
     1
102
RTVSPropertyOp23
 70
     1
102
RTVSPropertyOp24
 70
     1
102
RTVSPropertyOp25
 70
     1
102
RTVSPropertyOp26
 70
     1
102
RTVSPropertyOp27
 70
     1
102
RTVSPropertyOp28
 70
     1
102
RTVSPropertyOp29
 70
     1
102
RTVSPropertyOp30
 70
     1
102
RTVSPropertyOp31
 70
     1
102
RTVSPropertyOp32
 70
     1
102
RTVSPropertyOp33
 70
     1
102
RTVSPropertyOp34
 70
     1
102
RTVSPropertyOp35
 70
     1
102
RTVSPropertyOp36
 70
     1
102
RTVSPropertyOp37
 70
     1
102
RTVSPropertyOp38
 70
     1
102
RTVSPropertyOp39
 70
     1
102
RTVSPropertyOp40
 70
     1
102
RTVSPropertyOp41
 70
     1
102
RTVSPropertyOp42
 70
     1
102
RTVSPropertyOp43
 70
     1
102
RTVSPropertyOp44
 70
     1
102
RTVSPropertyOp45
 70
     1
102
RTVSPropertyOp46
 70
     1
102
RTVSPropertyOp47
 70
     1
102
RTVSPropertyOp48
 70
     1
102
RTVSPropertyOp49
 70
     1
102
RTVSPropertyOp50
 70
     1
102
RTVSPropertyOp51
 70
     0
102
RTVSPropertyOp52
 70
     0
102
RTVSPropertyOp53
 70
     1
102
RTVSPropertyOp54
 70
     1
102
RTVSPropertyOp55
 70
     1
102
RTVSPropertyOp56
 70
     1
102
RTVSPropertyOp57
 70
     1
102
RTVSPropertyOp58
 70
     1
102
RTVSPropertyOp59
 70
     1
102
RTVSPropertyOp60
 70
     1
102
RTVSPropertyOp61
 70
     1
102
RTVSPropertyOp62
 70
     1
  0
XRECORD
  5
B0FE
102
{ACAD_REACTORS
330
B0FD
102
}
330
B0FD
100
AcDbXrecord
280
     1
102
RTVSPost2010Prop28
280
     0
102
RTVSPost2010PropOp28
 70
     1
102
RTVSPost2010Prop29
280
     1
102
RTVSPost2010PropOp29
 70
     1
102
RTVSPost2010Prop30
280
     1
102
RTVSPost2010PropOp30
 70
     1
102
RTVSPost2010Prop31
280
     0
102
RTVSPost2010PropOp31
 70
     1
102
RTVSPost2010Prop32
280
     0
102
RTVSPost2010PropOp32
 70
     1
102
RTVSPost2010Prop33
280
     0
102
RTVSPost2010PropOp33
 70
     1
102
RTVSPost2010Prop34
280
     0
102
RTVSPost2010PropOp34
 70
     1
102
RTVSPost2010Prop35
280
     0
102
RTVSPost2010PropOp35
 70
     1
102
RTVSPost2010Prop36
280
     0
102
RTVSPost2010PropOp36
 70
     1
102
RTVSPost2010Prop37
 90
       50
102
RTVSPost2010PropOp37
 70
     1
102
RTVSPost2010Prop38
140
0.0
102
RTVSPost2010PropOp38
 70
     1
102
RTVSPost2010Prop39
140
1.0
102
RTVSPost2010PropOp39
 70
     1
102
RTVSPost2010Prop40
 90
        0
102
RTVSPost2010PropOp40
 70
     1
102
RTVSPost2010Prop41ColorIndex
 90
       18
102
RTVSPost2010Prop41ColorRGB
 90
        0
102
RTVSPost2010PropOp41
 70
     1
102
RTVSPost2010Prop42
 90
       50
102
RTVSPost2010PropOp42
 70
     1
102
RTVSPost2010Prop43
 90
        3
102
RTVSPost2010PropOp43
 70
     1
102
RTVSPost2010Prop44ColorIndex
 90
        5
102
RTVSPost2010Prop44ColorRGB
 90
      255
102
RTVSPost2010PropOp44
 70
     1
102
RTVSPost2010Prop45
280
     0
102
RTVSPost2010PropOp45
 70
     1
102
RTVSPost2010Prop46
 90
       50
102
RTVSPost2010PropOp46
 70
     1
102
RTVSPost2010Prop47
 90
       50
102
RTVSPost2010PropOp47
 70
     1
102
RTVSPost2010Prop48
 90
       50
102
RTVSPost2010PropOp48
 70
     1
102
RTVSPost2010Prop49
280
     0
102
RTVSPost2010PropOp49
 70
     1
102
RTVSPost2010Prop50
 90
       50
102
RTVSPost2010PropOp50
 70
     1
102
RTVSPost2010Prop51ColorIndex
 90
      256
102
RTVSPost2010Prop51ColorRGB
 90
-16777216
102
RTVSPost2010PropOp51
 70
     0
102
RTVSPost2010Prop52
140
1.0
102
RTVSPost2010PropOp52
 70
     0
102
RTVSPost2010Prop53
 90
        2
102
RTVSPost2010PropOp53
 70
     1
102
RTVSPost2010Prop54
  1
strokes_ogs.tif
102
RTVSPost2010PropOp54
 70
     1
102
RTVSPost2010Prop55
280
     0
102
RTVSPost2010PropOp55
 70
     1
102
RTVSPost2010Prop56
140
1.0
102
RTVSPost2010PropOp56
 70
     1
102
RTVSPost2010Prop57
140
1.0
102
RTVSPost2010PropOp57
 70
     1
102
RTVSPropertyOp0
 70
     1
102
RTVSPropertyOp1
 70
     1
102
RTVSPropertyOp2
 70
     1
102
RTVSPropertyOp3
 70
     1
102
RTVSPropertyOp4
 70
     1
102
RTVSPropertyOp5
 70
     1
102
RTVSPropertyOp6
 70
     1
102
RTVSPropertyOp7
 70
     1
102
RTVSPropertyOp8
 70
     1
102
RTVSPropertyOp9
 70
     1
102
RTVSPropertyOp10
 70
     1
102
RTVSPropertyOp11
 70
     1
102
RTVSPropertyOp12
 70
     1
102
RTVSPropertyOp13
 70
     1
102
RTVSPropertyOp14
 70
     1
102
RTVSPropertyOp15
 70
     1
102
RTVSPropertyOp16
 70
     1
102
RTVSPropertyOp17
 70
     1
102
RTVSPropertyOp18
 70
     1
102
RTVSPropertyOp19
 70
     1
102
RTVSPropertyOp20
 70
     1
102
RTVSPropertyOp21
 70
     1
102
RTVSPropertyOp22
 70
     1
102
RTVSPropertyOp23
 70
     1
102
RTVSPropertyOp24
 70
     1
102
RTVSPropertyOp25
 70
     1
102
RTVSPropertyOp26
 70
     1
102
RTVSPropertyOp27
 70
     1
102
RTVSPropertyOp28
 70
     1
102
RTVSPropertyOp29
 70
     1
102
RTVSPropertyOp30
 70
     1
102
RTVSPropertyOp31
 70
     1
102
RTVSPropertyOp32
 70
     1
102
RTVSPropertyOp33
 70
     1
102
RTVSPropertyOp34
 70
     1
102
RTVSPropertyOp35
 70
     1
102
RTVSPropertyOp36
 70
     1
102
RTVSPropertyOp37
 70
     1
102
RTVSPropertyOp38
 70
     1
102
RTVSPropertyOp39
 70
     1
102
RTVSPropertyOp40
 70
     1
102
RTVSPropertyOp41
 70
     1
102
RTVSPropertyOp42
 70
     1
102
RTVSPropertyOp43
 70
     1
102
RTVSPropertyOp44
 70
     1
102
RTVSPropertyOp45
 70
     1
102
RTVSPropertyOp46
 70
     1
102
RTVSPropertyOp47
 70
     1
102
RTVSPropertyOp48
 70
     1
102
RTVSPropertyOp49
 70
     1
102
RTVSPropertyOp50
 70
     1
102
RTVSPropertyOp51
 70
     0
102
RTVSPropertyOp52
 70
     0
102
RTVSPropertyOp53
 70
     1
102
RTVSPropertyOp54
 70
     1
102
RTVSPropertyOp55
 70
     1
102
RTVSPropertyOp56
 70
     1
102
RTVSPropertyOp57
 70
     1
102
RTVSPropertyOp58
 70
     1
102
RTVSPropertyOp59
 70
     1
102
RTVSPropertyOp60
 70
     1
102
RTVSPropertyOp61
 70
     1
102
RTVSPropertyOp62
 70
     1
  0
XRECORD
  5
B100
102
{ACAD_REACTORS
330
B0FF
102
}
330
B0FF
100
AcDbXrecord
280
     1
102
RTVSPost2010Prop28
280
     0
102
RTVSPost2010PropOp28
 70
     1
102
RTVSPost2010Prop29
280
     1
102
RTVSPost2010PropOp29
 70
     1
102
RTVSPost2010Prop30
280
     1
102
RTVSPost2010PropOp30
 70
     1
102
RTVSPost2010Prop31
280
     0
102
RTVSPost2010PropOp31
 70
     1
102
RTVSPost2010Prop32
280
     0
102
RTVSPost2010PropOp32
 70
     1
102
RTVSPost2010Prop33
280
     0
102
RTVSPost2010PropOp33
 70
     1
102
RTVSPost2010Prop34
280
     0
102
RTVSPost2010PropOp34
 70
     1
102
RTVSPost2010Prop35
280
     0
102
RTVSPost2010PropOp35
 70
     1
102
RTVSPost2010Prop36
280
     0
102
RTVSPost2010PropOp36
 70
     1
102
RTVSPost2010Prop37
 90
       50
102
RTVSPost2010PropOp37
 70
     1
102
RTVSPost2010Prop38
140
0.0
102
RTVSPost2010PropOp38
 70
     1
102
RTVSPost2010Prop39
140
1.0
102
RTVSPost2010PropOp39
 70
     1
102
RTVSPost2010Prop40
 90
        0
102
RTVSPost2010PropOp40
 70
     1
102
RTVSPost2010Prop41ColorIndex
 90
       18
102
RTVSPost2010Prop41ColorRGB
 90
        0
102
RTVSPost2010PropOp41
 70
     1
102
RTVSPost2010Prop42
 90
       50
102
RTVSPost2010PropOp42
 70
     1
102
RTVSPost2010Prop43
 90
        3
102
RTVSPost2010PropOp43
 70
     1
102
RTVSPost2010Prop44ColorIndex
 90
        5
102
RTVSPost2010Prop44ColorRGB
 90
      255
102
RTVSPost2010PropOp44
 70
     1
102
RTVSPost2010Prop45
280
     0
102
RTVSPost2010PropOp45
 70
     1
102
RTVSPost2010Prop46
 90
       50
102
RTVSPost2010PropOp46
 70
     1
102
RTVSPost2010Prop47
 90
       50
102
RTVSPost2010PropOp47
 70
     1
102
RTVSPost2010Prop48
 90
       50
102
RTVSPost2010PropOp48
 70
     1
102
RTVSPost2010Prop49
280
     0
102
RTVSPost2010PropOp49
 70
     1
102
RTVSPost2010Prop50
 90
       50
102
RTVSPost2010PropOp50
 70
     1
102
RTVSPost2010Prop51ColorIndex
 90
      256
102
RTVSPost2010Prop51ColorRGB
 90
-16777216
102
RTVSPost2010PropOp51
 70
     0
102
RTVSPost2010Prop52
140
1.0
102
RTVSPost2010PropOp52
 70
     0
102
RTVSPost2010Prop53
 90
        2
102
RTVSPost2010PropOp53
 70
     1
102
RTVSPost2010Prop54
  1
strokes_ogs.tif
102
RTVSPost2010PropOp54
 70
     1
102
RTVSPost2010Prop55
280
     0
102
RTVSPost2010PropOp55
 70
     1
102
RTVSPost2010Prop56
140
1.0
102
RTVSPost2010PropOp56
 70
     1
102
RTVSPost2010Prop57
140
1.0
102
RTVSPost2010PropOp57
 70
     1
102
RTVSPropertyOp0
 70
     1
102
RTVSPropertyOp1
 70
     1
102
RTVSPropertyOp2
 70
     1
102
RTVSPropertyOp3
 70
     1
102
RTVSPropertyOp4
 70
     1
102
RTVSPropertyOp5
 70
     1
102
RTVSPropertyOp6
 70
     1
102
RTVSPropertyOp7
 70
     1
102
RTVSPropertyOp8
 70
     1
102
RTVSPropertyOp9
 70
     1
102
RTVSPropertyOp10
 70
     1
102
RTVSPropertyOp11
 70
     1
102
RTVSPropertyOp12
 70
     1
102
RTVSPropertyOp13
 70
     1
102
RTVSPropertyOp14
 70
     1
102
RTVSPropertyOp15
 70
     1
102
RTVSPropertyOp16
 70
     1
102
RTVSPropertyOp17
 70
     1
102
RTVSPropertyOp18
 70
     1
102
RTVSPropertyOp19
 70
     1
102
RTVSPropertyOp20
 70
     1
102
RTVSPropertyOp21
 70
     1
102
RTVSPropertyOp22
 70
     1
102
RTVSPropertyOp23
 70
     1
102
RTVSPropertyOp24
 70
     1
102
RTVSPropertyOp25
 70
     1
102
RTVSPropertyOp26
 70
     1
102
RTVSPropertyOp27
 70
     1
102
RTVSPropertyOp28
 70
     1
102
RTVSPropertyOp29
 70
     1
102
RTVSPropertyOp30
 70
     1
102
RTVSPropertyOp31
 70
     1
102
RTVSPropertyOp32
 70
     1
102
RTVSPropertyOp33
 70
     1
102
RTVSPropertyOp34
 70
     1
102
RTVSPropertyOp35
 70
     1
102
RTVSPropertyOp36
 70
     1
102
RTVSPropertyOp37
 70
     1
102
RTVSPropertyOp38
 70
     1
102
RTVSPropertyOp39
 70
     1
102
RTVSPropertyOp40
 70
     1
102
RTVSPropertyOp41
 70
     1
102
RTVSPropertyOp42
 70
     1
102
RTVSPropertyOp43
 70
     1
102
RTVSPropertyOp44
 70
     1
102
RTVSPropertyOp45
 70
     1
102
RTVSPropertyOp46
 70
     1
102
RTVSPropertyOp47
 70
     1
102
RTVSPropertyOp48
 70
     1
102
RTVSPropertyOp49
 70
     1
102
RTVSPropertyOp50
 70
     1
102
RTVSPropertyOp51
 70
     0
102
RTVSPropertyOp52
 70
     0
102
RTVSPropertyOp53
 70
     1
102
RTVSPropertyOp54
 70
     1
102
RTVSPropertyOp55
 70
     1
102
RTVSPropertyOp56
 70
     1
102
RTVSPropertyOp57
 70
     1
102
RTVSPropertyOp58
 70
     1
102
RTVSPropertyOp59
 70
     1
102
RTVSPropertyOp60
 70
     1
102
RTVSPropertyOp61
 70
     1
102
RTVSPropertyOp62
 70
     1
  0
XRECORD
  5
B108
102
{ACAD_REACTORS
330
B107
102
}
330
B107
100
AcDbXrecord
280
     1
102
RTVSPost2010Prop28
280
     0
102
RTVSPost2010PropOp28
 70
     1
102
RTVSPost2010Prop29
280
     1
102
RTVSPost2010PropOp29
 70
     1
102
RTVSPost2010Prop30
280
     1
102
RTVSPost2010PropOp30
 70
     1
102
RTVSPost2010Prop31
280
     0
102
RTVSPost2010PropOp31
 70
     1
102
RTVSPost2010Prop32
280
     0
102
RTVSPost2010PropOp32
 70
     1
102
RTVSPost2010Prop33
280
     0
102
RTVSPost2010PropOp33
 70
     1
102
RTVSPost2010Prop34
280
     0
102
RTVSPost2010PropOp34
 70
     1
102
RTVSPost2010Prop35
280
     0
102
RTVSPost2010PropOp35
 70
     1
102
RTVSPost2010Prop36
280
     0
102
RTVSPost2010PropOp36
 70
     1
102
RTVSPost2010Prop37
 90
       50
102
RTVSPost2010PropOp37
 70
     1
102
RTVSPost2010Prop38
140
0.0
102
RTVSPost2010PropOp38
 70
     1
102
RTVSPost2010Prop39
140
1.0
102
RTVSPost2010PropOp39
 70
     1
102
RTVSPost2010Prop40
 90
        0
102
RTVSPost2010PropOp40
 70
     1
102
RTVSPost2010Prop41ColorIndex
 90
       18
102
RTVSPost2010Prop41ColorRGB
 90
        0
102
RTVSPost2010PropOp41
 70
     1
102
RTVSPost2010Prop42
 90
       50
102
RTVSPost2010PropOp42
 70
     1
102
RTVSPost2010Prop43
 90
        3
102
RTVSPost2010PropOp43
 70
     1
102
RTVSPost2010Prop44ColorIndex
 90
        5
102
RTVSPost2010Prop44ColorRGB
 90
      255
102
RTVSPost2010PropOp44
 70
     1
102
RTVSPost2010Prop45
280
     0
102
RTVSPost2010PropOp45
 70
     1
102
RTVSPost2010Prop46
 90
       50
102
RTVSPost2010PropOp46
 70
     1
102
RTVSPost2010Prop47
 90
       50
102
RTVSPost2010PropOp47
 70
     1
102
RTVSPost2010Prop48
 90
       50
102
RTVSPost2010PropOp48
 70
     1
102
RTVSPost2010Prop49
280
     0
102
RTVSPost2010PropOp49
 70
     1
102
RTVSPost2010Prop50
 90
       50
102
RTVSPost2010PropOp50
 70
     1
102
RTVSPost2010Prop51ColorIndex
 90
      256
102
RTVSPost2010Prop51ColorRGB
 90
-16777216
102
RTVSPost2010PropOp51
 70
     0
102
RTVSPost2010Prop52
140
1.0
102
RTVSPost2010PropOp52
 70
     0
102
RTVSPost2010Prop53
 90
        2
102
RTVSPost2010PropOp53
 70
     1
102
RTVSPost2010Prop54
  1
strokes_ogs.tif
102
RTVSPost2010PropOp54
 70
     1
102
RTVSPost2010Prop55
280
     0
102
RTVSPost2010PropOp55
 70
     1
102
RTVSPost2010Prop56
140
1.0
102
RTVSPost2010PropOp56
 70
     1
102
RTVSPost2010Prop57
140
1.0
102
RTVSPost2010PropOp57
 70
     1
102
RTVSPropertyOp0
 70
     1
102
RTVSPropertyOp1
 70
     1
102
RTVSPropertyOp2
 70
     1
102
RTVSPropertyOp3
 70
     1
102
RTVSPropertyOp4
 70
     1
102
RTVSPropertyOp5
 70
     1
102
RTVSPropertyOp6
 70
     1
102
RTVSPropertyOp7
 70
     1
102
RTVSPropertyOp8
 70
     1
102
RTVSPropertyOp9
 70
     1
102
RTVSPropertyOp10
 70
     1
102
RTVSPropertyOp11
 70
     1
102
RTVSPropertyOp12
 70
     1
102
RTVSPropertyOp13
 70
     1
102
RTVSPropertyOp14
 70
     1
102
RTVSPropertyOp15
 70
     1
102
RTVSPropertyOp16
 70
     1
102
RTVSPropertyOp17
 70
     1
102
RTVSPropertyOp18
 70
     1
102
RTVSPropertyOp19
 70
     1
102
RTVSPropertyOp20
 70
     1
102
RTVSPropertyOp21
 70
     1
102
RTVSPropertyOp22
 70
     1
102
RTVSPropertyOp23
 70
     1
102
RTVSPropertyOp24
 70
     1
102
RTVSPropertyOp25
 70
     1
102
RTVSPropertyOp26
 70
     1
102
RTVSPropertyOp27
 70
     1
102
RTVSPropertyOp28
 70
     1
102
RTVSPropertyOp29
 70
     1
102
RTVSPropertyOp30
 70
     1
102
RTVSPropertyOp31
 70
     1
102
RTVSPropertyOp32
 70
     1
102
RTVSPropertyOp33
 70
     1
102
RTVSPropertyOp34
 70
     1
102
RTVSPropertyOp35
 70
     1
102
RTVSPropertyOp36
 70
     1
102
RTVSPropertyOp37
 70
     1
102
RTVSPropertyOp38
 70
     1
102
RTVSPropertyOp39
 70
     1
102
RTVSPropertyOp40
 70
     1
102
RTVSPropertyOp41
 70
     1
102
RTVSPropertyOp42
 70
     1
102
RTVSPropertyOp43
 70
     1
102
RTVSPropertyOp44
 70
     1
102
RTVSPropertyOp45
 70
     1
102
RTVSPropertyOp46
 70
     1
102
RTVSPropertyOp47
 70
     1
102
RTVSPropertyOp48
 70
     1
102
RTVSPropertyOp49
 70
     1
102
RTVSPropertyOp50
 70
     1
102
RTVSPropertyOp51
 70
     0
102
RTVSPropertyOp52
 70
     0
102
RTVSPropertyOp53
 70
     1
102
RTVSPropertyOp54
 70
     1
102
RTVSPropertyOp55
 70
     1
102
RTVSPropertyOp56
 70
     1
102
RTVSPropertyOp57
 70
     1
102
RTVSPropertyOp58
 70
     1
102
RTVSPropertyOp59
 70
     1
102
RTVSPropertyOp60
 70
     1
102
RTVSPropertyOp61
 70
     1
102
RTVSPropertyOp62
 70
     1
  0
XRECORD
  5
B124
102
{ACAD_REACTORS
330
B123
102
}
330
B123
100
AcDbXrecord
280
     1
102
RTVSPost2010Prop28
280
     0
102
RTVSPost2010PropOp28
 70
     1
102
RTVSPost2010Prop29
280
     1
102
RTVSPost2010PropOp29
 70
     1
102
RTVSPost2010Prop30
280
     1
102
RTVSPost2010PropOp30
 70
     1
102
RTVSPost2010Prop31
280
     0
102
RTVSPost2010PropOp31
 70
     1
102
RTVSPost2010Prop32
280
     0
102
RTVSPost2010PropOp32
 70
     1
102
RTVSPost2010Prop33
280
     0
102
RTVSPost2010PropOp33
 70
     1
102
RTVSPost2010Prop34
280
     0
102
RTVSPost2010PropOp34
 70
     1
102
RTVSPost2010Prop35
280
     0
102
RTVSPost2010PropOp35
 70
     1
102
RTVSPost2010Prop36
280
     0
102
RTVSPost2010PropOp36
 70
     1
102
RTVSPost2010Prop37
 90
       50
102
RTVSPost2010PropOp37
 70
     0
102
RTVSPost2010Prop38
140
0.0
102
RTVSPost2010PropOp38
 70
     0
102
RTVSPost2010Prop39
140
1.0
102
RTVSPost2010PropOp39
 70
     0
102
RTVSPost2010Prop40
 90
        0
102
RTVSPost2010PropOp40
 70
     0
102
RTVSPost2010Prop41ColorIndex
 90
       18
102
RTVSPost2010Prop41ColorRGB
 90
        0
102
RTVSPost2010PropOp41
 70
     0
102
RTVSPost2010Prop42
 90
       50
102
RTVSPost2010PropOp42
 70
     0
102
RTVSPost2010Prop43
 90
        3
102
RTVSPost2010PropOp43
 70
     0
102
RTVSPost2010Prop44ColorIndex
 90
        5
102
RTVSPost2010Prop44ColorRGB
 90
      255
102
RTVSPost2010PropOp44
 70
     0
102
RTVSPost2010Prop45
280
     0
102
RTVSPost2010PropOp45
 70
     1
102
RTVSPost2010Prop46
 90
       50
102
RTVSPost2010PropOp46
 70
     0
102
RTVSPost2010Prop47
 90
       50
102
RTVSPost2010PropOp47
 70
     0
102
RTVSPost2010Prop48
 90
       50
102
RTVSPost2010PropOp48
 70
     0
102
RTVSPost2010Prop49
280
     0
102
RTVSPost2010PropOp49
 70
     1
102
RTVSPost2010Prop50
 90
       50
102
RTVSPost2010PropOp50
 70
     0
102
RTVSPost2010Prop51ColorIndex
 90
      256
102
RTVSPost2010Prop51ColorRGB
 90
-16777216
102
RTVSPost2010PropOp51
 70
     0
102
RTVSPost2010Prop52
140
1.0
102
RTVSPost2010PropOp52
 70
     0
102
RTVSPost2010Prop53
 90
        2
102
RTVSPost2010PropOp53
 70
     0
102
RTVSPost2010Prop54
  1
strokes_ogs.tif
102
RTVSPost2010PropOp54
 70
     0
102
RTVSPost2010Prop55
280
     0
102
RTVSPost2010PropOp55
 70
     1
102
RTVSPost2010Prop56
140
1.0
102
RTVSPost2010PropOp56
 70
     0
102
RTVSPost2010Prop57
140
1.0
102
RTVSPost2010PropOp57
 70
     0
102
RTVSPropertyOp0
 70
     0
102
RTVSPropertyOp1
 70
     0
102
RTVSPropertyOp2
 70
     0
102
RTVSPropertyOp3
 70
     0
102
RTVSPropertyOp4
 70
     0
102
RTVSPropertyOp5
 70
     0
102
RTVSPropertyOp6
 70
     0
102
RTVSPropertyOp7
 70
     0
102
RTVSPropertyOp8
 70
     0
102
RTVSPropertyOp9
 70
     0
102
RTVSPropertyOp10
 70
     0
102
RTVSPropertyOp11
 70
     0
102
RTVSPropertyOp12
 70
     0
102
RTVSPropertyOp13
 70
     0
102
RTVSPropertyOp14
 70
     2
102
RTVSPropertyOp15
 70
     0
102
RTVSPropertyOp16
 70
     0
102
RTVSPropertyOp17
 70
     0
102
RTVSPropertyOp18
 70
     0
102
RTVSPropertyOp19
 70
     0
102
RTVSPropertyOp20
 70
     0
102
RTVSPropertyOp21
 70
     0
102
RTVSPropertyOp22
 70
     0
102
RTVSPropertyOp23
 70
     0
102
RTVSPropertyOp24
 70
     0
102
RTVSPropertyOp25
 70
     0
102
RTVSPropertyOp26
 70
     0
102
RTVSPropertyOp27
 70
     0
102
RTVSPropertyOp28
 70
     1
102
RTVSPropertyOp29
 70
     1
102
RTVSPropertyOp30
 70
     1
102
RTVSPropertyOp31
 70
     1
102
RTVSPropertyOp32
 70
     1
102
RTVSPropertyOp33
 70
     1
102
RTVSPropertyOp34
 70
     1
102
RTVSPropertyOp35
 70
     1
102
RTVSPropertyOp36
 70
     1
102
RTVSPropertyOp37
 70
     0
102
RTVSPropertyOp38
 70
     0
102
RTVSPropertyOp39
 70
     0
102
RTVSPropertyOp40
 70
     0
102
RTVSPropertyOp41
 70
     0
102
RTVSPropertyOp42
 70
     0
102
RTVSPropertyOp43
 70
     0
102
RTVSPropertyOp44
 70
     0
102
RTVSPropertyOp45
 70
     1
102
RTVSPropertyOp46
 70
     0
102
RTVSPropertyOp47
 70
     0
102
RTVSPropertyOp48
 70
     0
102
RTVSPropertyOp49
 70
     1
102
RTVSPropertyOp50
 70
     0
102
RTVSPropertyOp51
 70
     0
102
RTVSPropertyOp52
 70
     0
102
RTVSPropertyOp53
 70
     0
102
RTVSPropertyOp54
 70
     0
102
RTVSPropertyOp55
 70
     1
102
RTVSPropertyOp56
 70
     0
102
RTVSPropertyOp57
 70
     0
102
RTVSPropertyOp58
 70
     0
102
RTVSPropertyOp59
 70
     0
102
RTVSPropertyOp60
 70
     0
102
RTVSPropertyOp61
 70
     0
102
RTVSPropertyOp62
 70
     0
  0
XRECORD
  5
B114
102
{ACAD_REACTORS
330
B113
102
}
330
B113
100
AcDbXrecord
280
     1
102
RTVSPost2010Prop28
280
     0
102
RTVSPost2010PropOp28
 70
     1
102
RTVSPost2010Prop29
280
     1
102
RTVSPost2010PropOp29
 70
     1
102
RTVSPost2010Prop30
280
     1
102
RTVSPost2010PropOp30
 70
     1
102
RTVSPost2010Prop31
280
     0
102
RTVSPost2010PropOp31
 70
     1
102
RTVSPost2010Prop32
280
     0
102
RTVSPost2010PropOp32
 70
     1
102
RTVSPost2010Prop33
280
     0
102
RTVSPost2010PropOp33
 70
     1
102
RTVSPost2010Prop34
280
     0
102
RTVSPost2010PropOp34
 70
     1
102
RTVSPost2010Prop35
280
     0
102
RTVSPost2010PropOp35
 70
     1
102
RTVSPost2010Prop36
280
     0
102
RTVSPost2010PropOp36
 70
     1
102
RTVSPost2010Prop37
 90
       50
102
RTVSPost2010PropOp37
 70
     1
102
RTVSPost2010Prop38
140
0.0
102
RTVSPost2010PropOp38
 70
     1
102
RTVSPost2010Prop39
140
1.0
102
RTVSPost2010PropOp39
 70
     1
102
RTVSPost2010Prop40
 90
        0
102
RTVSPost2010PropOp40
 70
     1
102
RTVSPost2010Prop41ColorIndex
 90
       18
102
RTVSPost2010Prop41ColorRGB
 90
        0
102
RTVSPost2010PropOp41
 70
     1
102
RTVSPost2010Prop42
 90
       50
102
RTVSPost2010PropOp42
 70
     1
102
RTVSPost2010Prop43
 90
        3
102
RTVSPost2010PropOp43
 70
     1
102
RTVSPost2010Prop44ColorIndex
 90
        5
102
RTVSPost2010Prop44ColorRGB
 90
      255
102
RTVSPost2010PropOp44
 70
     1
102
RTVSPost2010Prop45
280
     0
102
RTVSPost2010PropOp45
 70
     1
102
RTVSPost2010Prop46
 90
       50
102
RTVSPost2010PropOp46
 70
     1
102
RTVSPost2010Prop47
 90
       50
102
RTVSPost2010PropOp47
 70
     1
102
RTVSPost2010Prop48
 90
       50
102
RTVSPost2010PropOp48
 70
     1
102
RTVSPost2010Prop49
280
     0
102
RTVSPost2010PropOp49
 70
     1
102
RTVSPost2010Prop50
 90
       50
102
RTVSPost2010PropOp50
 70
     1
102
RTVSPost2010Prop51ColorIndex
 90
      256
102
RTVSPost2010Prop51ColorRGB
 90
-16777216
102
RTVSPost2010PropOp51
 70
     0
102
RTVSPost2010Prop52
140
1.0
102
RTVSPost2010PropOp52
 70
     0
102
RTVSPost2010Prop53
 90
        2
102
RTVSPost2010PropOp53
 70
     1
102
RTVSPost2010Prop54
  1
strokes_ogs.tif
102
RTVSPost2010PropOp54
 70
     1
102
RTVSPost2010Prop55
280
     0
102
RTVSPost2010PropOp55
 70
     1
102
RTVSPost2010Prop56
140
1.0
102
RTVSPost2010PropOp56
 70
     1
102
RTVSPost2010Prop57
140
1.0
102
RTVSPost2010PropOp57
 70
     1
102
RTVSPropertyOp0
 70
     1
102
RTVSPropertyOp1
 70
     1
102
RTVSPropertyOp2
 70
     1
102
RTVSPropertyOp3
 70
     1
102
RTVSPropertyOp4
 70
     1
102
RTVSPropertyOp5
 70
     1
102
RTVSPropertyOp6
 70
     1
102
RTVSPropertyOp7
 70
     1
102
RTVSPropertyOp8
 70
     1
102
RTVSPropertyOp9
 70
     1
102
RTVSPropertyOp10
 70
     1
102
RTVSPropertyOp11
 70
     1
102
RTVSPropertyOp12
 70
     1
102
RTVSPropertyOp13
 70
     1
102
RTVSPropertyOp14
 70
     1
102
RTVSPropertyOp15
 70
     1
102
RTVSPropertyOp16
 70
     1
102
RTVSPropertyOp17
 70
     1
102
RTVSPropertyOp18
 70
     1
102
RTVSPropertyOp19
 70
     1
102
RTVSPropertyOp20
 70
     1
102
RTVSPropertyOp21
 70
     1
102
RTVSPropertyOp22
 70
     1
102
RTVSPropertyOp23
 70
     1
102
RTVSPropertyOp24
 70
     1
102
RTVSPropertyOp25
 70
     1
102
RTVSPropertyOp26
 70
     1
102
RTVSPropertyOp27
 70
     1
102
RTVSPropertyOp28
 70
     1
102
RTVSPropertyOp29
 70
     1
102
RTVSPropertyOp30
 70
     1
102
RTVSPropertyOp31
 70
     1
102
RTVSPropertyOp32
 70
     1
102
RTVSPropertyOp33
 70
     1
102
RTVSPropertyOp34
 70
     1
102
RTVSPropertyOp35
 70
     1
102
RTVSPropertyOp36
 70
     1
102
RTVSPropertyOp37
 70
     1
102
RTVSPropertyOp38
 70
     1
102
RTVSPropertyOp39
 70
     1
102
RTVSPropertyOp40
 70
     1
102
RTVSPropertyOp41
 70
     1
102
RTVSPropertyOp42
 70
     1
102
RTVSPropertyOp43
 70
     1
102
RTVSPropertyOp44
 70
     1
102
RTVSPropertyOp45
 70
     1
102
RTVSPropertyOp46
 70
     1
102
RTVSPropertyOp47
 70
     1
102
RTVSPropertyOp48
 70
     1
102
RTVSPropertyOp49
 70
     1
102
RTVSPropertyOp50
 70
     1
102
RTVSPropertyOp51
 70
     0
102
RTVSPropertyOp52
 70
     0
102
RTVSPropertyOp53
 70
     1
102
RTVSPropertyOp54
 70
     1
102
RTVSPropertyOp55
 70
     1
102
RTVSPropertyOp56
 70
     1
102
RTVSPropertyOp57
 70
     1
102
RTVSPropertyOp58
 70
     1
102
RTVSPropertyOp59
 70
     1
102
RTVSPropertyOp60
 70
     1
102
RTVSPropertyOp61
 70
     1
102
RTVSPropertyOp62
 70
     1
  0
XRECORD
  5
B126
102
{ACAD_REACTORS
330
B125
102
}
330
B125
100
AcDbXrecord
280
     1
102
RTVSPost2010Prop28
280
     0
102
RTVSPost2010PropOp28
 70
     1
102
RTVSPost2010Prop29
280
     1
102
RTVSPost2010PropOp29
 70
     1
102
RTVSPost2010Prop30
280
     1
102
RTVSPost2010PropOp30
 70
     1
102
RTVSPost2010Prop31
280
     0
102
RTVSPost2010PropOp31
 70
     1
102
RTVSPost2010Prop32
280
     0
102
RTVSPost2010PropOp32
 70
     1
102
RTVSPost2010Prop33
280
     0
102
RTVSPost2010PropOp33
 70
     1
102
RTVSPost2010Prop34
280
     0
102
RTVSPost2010PropOp34
 70
     1
102
RTVSPost2010Prop35
280
     0
102
RTVSPost2010PropOp35
 70
     1
102
RTVSPost2010Prop36
280
     0
102
RTVSPost2010PropOp36
 70
     1
102
RTVSPost2010Prop37
 90
       50
102
RTVSPost2010PropOp37
 70
     0
102
RTVSPost2010Prop38
140
0.0
102
RTVSPost2010PropOp38
 70
     0
102
RTVSPost2010Prop39
140
1.0
102
RTVSPost2010PropOp39
 70
     0
102
RTVSPost2010Prop40
 90
        0
102
RTVSPost2010PropOp40
 70
     0
102
RTVSPost2010Prop41ColorIndex
 90
       18
102
RTVSPost2010Prop41ColorRGB
 90
        0
102
RTVSPost2010PropOp41
 70
     0
102
RTVSPost2010Prop42
 90
       50
102
RTVSPost2010PropOp42
 70
     0
102
RTVSPost2010Prop43
 90
        3
102
RTVSPost2010PropOp43
 70
     0
102
RTVSPost2010Prop44ColorIndex
 90
        5
102
RTVSPost2010Prop44ColorRGB
 90
      255
102
RTVSPost2010PropOp44
 70
     0
102
RTVSPost2010Prop45
280
     0
102
RTVSPost2010PropOp45
 70
     1
102
RTVSPost2010Prop46
 90
       50
102
RTVSPost2010PropOp46
 70
     0
102
RTVSPost2010Prop47
 90
       50
102
RTVSPost2010PropOp47
 70
     0
102
RTVSPost2010Prop48
 90
       50
102
RTVSPost2010PropOp48
 70
     0
102
RTVSPost2010Prop49
280
     0
102
RTVSPost2010PropOp49
 70
     1
102
RTVSPost2010Prop50
 90
       50
102
RTVSPost2010PropOp50
 70
     0
102
RTVSPost2010Prop51ColorIndex
 90
      256
102
RTVSPost2010Prop51ColorRGB
 90
-16777216
102
RTVSPost2010PropOp51
 70
     0
102
RTVSPost2010Prop52
140
1.0
102
RTVSPost2010PropOp52
 70
     0
102
RTVSPost2010Prop53
 90
        2
102
RTVSPost2010PropOp53
 70
     0
102
RTVSPost2010Prop54
  1
strokes_ogs.tif
102
RTVSPost2010PropOp54
 70
     0
102
RTVSPost2010Prop55
280
     0
102
RTVSPost2010PropOp55
 70
     1
102
RTVSPost2010Prop56
140
1.0
102
RTVSPost2010PropOp56
 70
     0
102
RTVSPost2010Prop57
140
1.0
102
RTVSPost2010PropOp57
 70
     0
102
RTVSPropertyOp0
 70
     0
102
RTVSPropertyOp1
 70
     0
102
RTVSPropertyOp2
 70
     0
102
RTVSPropertyOp3
 70
     0
102
RTVSPropertyOp4
 70
     0
102
RTVSPropertyOp5
 70
     0
102
RTVSPropertyOp6
 70
     0
102
RTVSPropertyOp7
 70
     0
102
RTVSPropertyOp8
 70
     0
102
RTVSPropertyOp9
 70
     0
102
RTVSPropertyOp10
 70
     0
102
RTVSPropertyOp11
 70
     0
102
RTVSPropertyOp12
 70
     0
102
RTVSPropertyOp13
 70
     0
102
RTVSPropertyOp14
 70
     2
102
RTVSPropertyOp15
 70
     0
102
RTVSPropertyOp16
 70
     0
102
RTVSPropertyOp17
 70
     0
102
RTVSPropertyOp18
 70
     0
102
RTVSPropertyOp19
 70
     0
102
RTVSPropertyOp20
 70
     0
102
RTVSPropertyOp21
 70
     0
102
RTVSPropertyOp22
 70
     0
102
RTVSPropertyOp23
 70
     0
102
RTVSPropertyOp24
 70
     0
102
RTVSPropertyOp25
 70
     0
102
RTVSPropertyOp26
 70
     0
102
RTVSPropertyOp27
 70
     0
102
RTVSPropertyOp28
 70
     1
102
RTVSPropertyOp29
 70
     1
102
RTVSPropertyOp30
 70
     1
102
RTVSPropertyOp31
 70
     1
102
RTVSPropertyOp32
 70
     1
102
RTVSPropertyOp33
 70
     1
102
RTVSPropertyOp34
 70
     1
102
RTVSPropertyOp35
 70
     1
102
RTVSPropertyOp36
 70
     1
102
RTVSPropertyOp37
 70
     0
102
RTVSPropertyOp38
 70
     0
102
RTVSPropertyOp39
 70
     0
102
RTVSPropertyOp40
 70
     0
102
RTVSPropertyOp41
 70
     0
102
RTVSPropertyOp42
 70
     0
102
RTVSPropertyOp43
 70
     0
102
RTVSPropertyOp44
 70
     0
102
RTVSPropertyOp45
 70
     1
102
RTVSPropertyOp46
 70
     0
102
RTVSPropertyOp47
 70
     0
102
RTVSPropertyOp48
 70
     0
102
RTVSPropertyOp49
 70
     1
102
RTVSPropertyOp50
 70
     0
102
RTVSPropertyOp51
 70
     0
102
RTVSPropertyOp52
 70
     0
102
RTVSPropertyOp53
 70
     0
102
RTVSPropertyOp54
 70
     0
102
RTVSPropertyOp55
 70
     1
102
RTVSPropertyOp56
 70
     0
102
RTVSPropertyOp57
 70
     0
102
RTVSPropertyOp58
 70
     0
102
RTVSPropertyOp59
 70
     0
102
RTVSPropertyOp60
 70
     0
102
RTVSPropertyOp61
 70
     0
102
RTVSPropertyOp62
 70
     0
  0
XRECORD
  5
B10C
102
{ACAD_REACTORS
330
B10B
102
}
330
B10B
100
AcDbXrecord
280
     1
102
RTVSPost2010Prop28
280
     0
102
RTVSPost2010PropOp28
 70
     1
102
RTVSPost2010Prop29
280
     1
102
RTVSPost2010PropOp29
 70
     1
102
RTVSPost2010Prop30
280
     1
102
RTVSPost2010PropOp30
 70
     1
102
RTVSPost2010Prop31
280
     0
102
RTVSPost2010PropOp31
 70
     1
102
RTVSPost2010Prop32
280
     0
102
RTVSPost2010PropOp32
 70
     1
102
RTVSPost2010Prop33
280
     0
102
RTVSPost2010PropOp33
 70
     1
102
RTVSPost2010Prop34
280
     0
102
RTVSPost2010PropOp34
 70
     1
102
RTVSPost2010Prop35
280
     0
102
RTVSPost2010PropOp35
 70
     1
102
RTVSPost2010Prop36
280
     0
102
RTVSPost2010PropOp36
 70
     1
102
RTVSPost2010Prop37
 90
       50
102
RTVSPost2010PropOp37
 70
     1
102
RTVSPost2010Prop38
140
0.0
102
RTVSPost2010PropOp38
 70
     1
102
RTVSPost2010Prop39
140
1.0
102
RTVSPost2010PropOp39
 70
     1
102
RTVSPost2010Prop40
 90
        0
102
RTVSPost2010PropOp40
 70
     1
102
RTVSPost2010Prop41ColorIndex
 90
       18
102
RTVSPost2010Prop41ColorRGB
 90
        0
102
RTVSPost2010PropOp41
 70
     1
102
RTVSPost2010Prop42
 90
       50
102
RTVSPost2010PropOp42
 70
     1
102
RTVSPost2010Prop43
 90
        3
102
RTVSPost2010PropOp43
 70
     1
102
RTVSPost2010Prop44ColorIndex
 90
        5
102
RTVSPost2010Prop44ColorRGB
 90
      255
102
RTVSPost2010PropOp44
 70
     1
102
RTVSPost2010Prop45
280
     0
102
RTVSPost2010PropOp45
 70
     1
102
RTVSPost2010Prop46
 90
       50
102
RTVSPost2010PropOp46
 70
     1
102
RTVSPost2010Prop47
 90
       50
102
RTVSPost2010PropOp47
 70
     1
102
RTVSPost2010Prop48
 90
       50
102
RTVSPost2010PropOp48
 70
     1
102
RTVSPost2010Prop49
280
     0
102
RTVSPost2010PropOp49
 70
     1
102
RTVSPost2010Prop50
 90
       50
102
RTVSPost2010PropOp50
 70
     1
102
RTVSPost2010Prop51ColorIndex
 90
      256
102
RTVSPost2010Prop51ColorRGB
 90
-16777216
102
RTVSPost2010PropOp51
 70
     0
102
RTVSPost2010Prop52
140
1.0
102
RTVSPost2010PropOp52
 70
     0
102
RTVSPost2010Prop53
 90
        2
102
RTVSPost2010PropOp53
 70
     1
102
RTVSPost2010Prop54
  1
strokes_ogs.tif
102
RTVSPost2010PropOp54
 70
     1
102
RTVSPost2010Prop55
280
     0
102
RTVSPost2010PropOp55
 70
     1
102
RTVSPost2010Prop56
140
1.0
102
RTVSPost2010PropOp56
 70
     1
102
RTVSPost2010Prop57
140
1.0
102
RTVSPost2010PropOp57
 70
     1
102
RTVSPropertyOp0
 70
     1
102
RTVSPropertyOp1
 70
     1
102
RTVSPropertyOp2
 70
     1
102
RTVSPropertyOp3
 70
     1
102
RTVSPropertyOp4
 70
     1
102
RTVSPropertyOp5
 70
     1
102
RTVSPropertyOp6
 70
     1
102
RTVSPropertyOp7
 70
     1
102
RTVSPropertyOp8
 70
     1
102
RTVSPropertyOp9
 70
     1
102
RTVSPropertyOp10
 70
     1
102
RTVSPropertyOp11
 70
     1
102
RTVSPropertyOp12
 70
     1
102
RTVSPropertyOp13
 70
     1
102
RTVSPropertyOp14
 70
     1
102
RTVSPropertyOp15
 70
     1
102
RTVSPropertyOp16
 70
     1
102
RTVSPropertyOp17
 70
     1
102
RTVSPropertyOp18
 70
     1
102
RTVSPropertyOp19
 70
     1
102
RTVSPropertyOp20
 70
     1
102
RTVSPropertyOp21
 70
     1
102
RTVSPropertyOp22
 70
     1
102
RTVSPropertyOp23
 70
     1
102
RTVSPropertyOp24
 70
     1
102
RTVSPropertyOp25
 70
     1
102
RTVSPropertyOp26
 70
     1
102
RTVSPropertyOp27
 70
     1
102
RTVSPropertyOp28
 70
     1
102
RTVSPropertyOp29
 70
     1
102
RTVSPropertyOp30
 70
     1
102
RTVSPropertyOp31
 70
     1
102
RTVSPropertyOp32
 70
     1
102
RTVSPropertyOp33
 70
     1
102
RTVSPropertyOp34
 70
     1
102
RTVSPropertyOp35
 70
     1
102
RTVSPropertyOp36
 70
     1
102
RTVSPropertyOp37
 70
     1
102
RTVSPropertyOp38
 70
     1
102
RTVSPropertyOp39
 70
     1
102
RTVSPropertyOp40
 70
     1
102
RTVSPropertyOp41
 70
     1
102
RTVSPropertyOp42
 70
     1
102
RTVSPropertyOp43
 70
     1
102
RTVSPropertyOp44
 70
     1
102
RTVSPropertyOp45
 70
     1
102
RTVSPropertyOp46
 70
     1
102
RTVSPropertyOp47
 70
     1
102
RTVSPropertyOp48
 70
     1
102
RTVSPropertyOp49
 70
     1
102
RTVSPropertyOp50
 70
     1
102
RTVSPropertyOp51
 70
     0
102
RTVSPropertyOp52
 70
     0
102
RTVSPropertyOp53
 70
     1
102
RTVSPropertyOp54
 70
     1
102
RTVSPropertyOp55
 70
     1
102
RTVSPropertyOp56
 70
     1
102
RTVSPropertyOp57
 70
     1
102
RTVSPropertyOp58
 70
     1
102
RTVSPropertyOp59
 70
     1
102
RTVSPropertyOp60
 70
     1
102
RTVSPropertyOp61
 70
     1
102
RTVSPropertyOp62
 70
     1
  0
XRECORD
  5
B122
102
{ACAD_REACTORS
330
B121
102
}
330
B121
100
AcDbXrecord
280
     1
102
RTVSPost2010Prop28
280
     0
102
RTVSPost2010PropOp28
 70
     1
102
RTVSPost2010Prop29
280
     1
102
RTVSPost2010PropOp29
 70
     1
102
RTVSPost2010Prop30
280
     1
102
RTVSPost2010PropOp30
 70
     1
102
RTVSPost2010Prop31
280
     0
102
RTVSPost2010PropOp31
 70
     1
102
RTVSPost2010Prop32
280
     0
102
RTVSPost2010PropOp32
 70
     1
102
RTVSPost2010Prop33
280
     0
102
RTVSPost2010PropOp33
 70
     1
102
RTVSPost2010Prop34
280
     0
102
RTVSPost2010PropOp34
 70
     1
102
RTVSPost2010Prop35
280
     0
102
RTVSPost2010PropOp35
 70
     1
102
RTVSPost2010Prop36
280
     0
102
RTVSPost2010PropOp36
 70
     1
102
RTVSPost2010Prop37
 90
       50
102
RTVSPost2010PropOp37
 70
     1
102
RTVSPost2010Prop38
140
0.0
102
RTVSPost2010PropOp38
 70
     1
102
RTVSPost2010Prop39
140
1.0
102
RTVSPost2010PropOp39
 70
     1
102
RTVSPost2010Prop40
 90
        0
102
RTVSPost2010PropOp40
 70
     1
102
RTVSPost2010Prop41ColorIndex
 90
       18
102
RTVSPost2010Prop41ColorRGB
 90
        0
102
RTVSPost2010PropOp41
 70
     1
102
RTVSPost2010Prop42
 90
       50
102
RTVSPost2010PropOp42
 70
     1
102
RTVSPost2010Prop43
 90
        3
102
RTVSPost2010PropOp43
 70
     1
102
RTVSPost2010Prop44ColorIndex
 90
        5
102
RTVSPost2010Prop44ColorRGB
 90
      255
102
RTVSPost2010PropOp44
 70
     1
102
RTVSPost2010Prop45
280
     0
102
RTVSPost2010PropOp45
 70
     1
102
RTVSPost2010Prop46
 90
       50
102
RTVSPost2010PropOp46
 70
     1
102
RTVSPost2010Prop47
 90
       50
102
RTVSPost2010PropOp47
 70
     1
102
RTVSPost2010Prop48
 90
       50
102
RTVSPost2010PropOp48
 70
     1
102
RTVSPost2010Prop49
280
     0
102
RTVSPost2010PropOp49
 70
     1
102
RTVSPost2010Prop50
 90
       50
102
RTVSPost2010PropOp50
 70
     1
102
RTVSPost2010Prop51ColorIndex
 90
      256
102
RTVSPost2010Prop51ColorRGB
 90
-16777216
102
RTVSPost2010PropOp51
 70
     0
102
RTVSPost2010Prop52
140
1.0
102
RTVSPost2010PropOp52
 70
     0
102
RTVSPost2010Prop53
 90
        2
102
RTVSPost2010PropOp53
 70
     1
102
RTVSPost2010Prop54
  1
strokes_ogs.tif
102
RTVSPost2010PropOp54
 70
     1
102
RTVSPost2010Prop55
280
     0
102
RTVSPost2010PropOp55
 70
     1
102
RTVSPost2010Prop56
140
1.0
102
RTVSPost2010PropOp56
 70
     1
102
RTVSPost2010Prop57
140
1.0
102
RTVSPost2010PropOp57
 70
     1
102
RTVSPropertyOp0
 70
     1
102
RTVSPropertyOp1
 70
     1
102
RTVSPropertyOp2
 70
     1
102
RTVSPropertyOp3
 70
     1
102
RTVSPropertyOp4
 70
     1
102
RTVSPropertyOp5
 70
     1
102
RTVSPropertyOp6
 70
     1
102
RTVSPropertyOp7
 70
     1
102
RTVSPropertyOp8
 70
     1
102
RTVSPropertyOp9
 70
     1
102
RTVSPropertyOp10
 70
     1
102
RTVSPropertyOp11
 70
     1
102
RTVSPropertyOp12
 70
     1
102
RTVSPropertyOp13
 70
     1
102
RTVSPropertyOp14
 70
     1
102
RTVSPropertyOp15
 70
     1
102
RTVSPropertyOp16
 70
     1
102
RTVSPropertyOp17
 70
     1
102
RTVSPropertyOp18
 70
     1
102
RTVSPropertyOp19
 70
     1
102
RTVSPropertyOp20
 70
     1
102
RTVSPropertyOp21
 70
     1
102
RTVSPropertyOp22
 70
     1
102
RTVSPropertyOp23
 70
     1
102
RTVSPropertyOp24
 70
     1
102
RTVSPropertyOp25
 70
     1
102
RTVSPropertyOp26
 70
     1
102
RTVSPropertyOp27
 70
     1
102
RTVSPropertyOp28
 70
     1
102
RTVSPropertyOp29
 70
     1
102
RTVSPropertyOp30
 70
     1
102
RTVSPropertyOp31
 70
     1
102
RTVSPropertyOp32
 70
     1
102
RTVSPropertyOp33
 70
     1
102
RTVSPropertyOp34
 70
     1
102
RTVSPropertyOp35
 70
     1
102
RTVSPropertyOp36
 70
     1
102
RTVSPropertyOp37
 70
     1
102
RTVSPropertyOp38
 70
     1
102
RTVSPropertyOp39
 70
     1
102
RTVSPropertyOp40
 70
     1
102
RTVSPropertyOp41
 70
     1
102
RTVSPropertyOp42
 70
     1
102
RTVSPropertyOp43
 70
     1
102
RTVSPropertyOp44
 70
     1
102
RTVSPropertyOp45
 70
     1
102
RTVSPropertyOp46
 70
     1
102
RTVSPropertyOp47
 70
     1
102
RTVSPropertyOp48
 70
     1
102
RTVSPropertyOp49
 70
     1
102
RTVSPropertyOp50
 70
     1
102
RTVSPropertyOp51
 70
     0
102
RTVSPropertyOp52
 70
     0
102
RTVSPropertyOp53
 70
     1
102
RTVSPropertyOp54
 70
     1
102
RTVSPropertyOp55
 70
     1
102
RTVSPropertyOp56
 70
     1
102
RTVSPropertyOp57
 70
     1
102
RTVSPropertyOp58
 70
     1
102
RTVSPropertyOp59
 70
     1
102
RTVSPropertyOp60
 70
     1
102
RTVSPropertyOp61
 70
     1
102
RTVSPropertyOp62
 70
     1
  0
XRECORD
  5
B120
102
{ACAD_REACTORS
330
B11F
102
}
330
B11F
100
AcDbXrecord
280
     1
102
RTVSPost2010Prop28
280
     0
102
RTVSPost2010PropOp28
 70
     1
102
RTVSPost2010Prop29
280
     1
102
RTVSPost2010PropOp29
 70
     1
102
RTVSPost2010Prop30
280
     1
102
RTVSPost2010PropOp30
 70
     1
102
RTVSPost2010Prop31
280
     0
102
RTVSPost2010PropOp31
 70
     1
102
RTVSPost2010Prop32
280
     0
102
RTVSPost2010PropOp32
 70
     1
102
RTVSPost2010Prop33
280
     0
102
RTVSPost2010PropOp33
 70
     1
102
RTVSPost2010Prop34
280
     0
102
RTVSPost2010PropOp34
 70
     1
102
RTVSPost2010Prop35
280
     0
102
RTVSPost2010PropOp35
 70
     1
102
RTVSPost2010Prop36
280
     0
102
RTVSPost2010PropOp36
 70
     1
102
RTVSPost2010Prop37
 90
       50
102
RTVSPost2010PropOp37
 70
     1
102
RTVSPost2010Prop38
140
0.0
102
RTVSPost2010PropOp38
 70
     1
102
RTVSPost2010Prop39
140
1.0
102
RTVSPost2010PropOp39
 70
     1
102
RTVSPost2010Prop40
 90
        0
102
RTVSPost2010PropOp40
 70
     1
102
RTVSPost2010Prop41ColorIndex
 90
       18
102
RTVSPost2010Prop41ColorRGB
 90
        0
102
RTVSPost2010PropOp41
 70
     1
102
RTVSPost2010Prop42
 90
       50
102
RTVSPost2010PropOp42
 70
     1
102
RTVSPost2010Prop43
 90
        3
102
RTVSPost2010PropOp43
 70
     1
102
RTVSPost2010Prop44ColorIndex
 90
        5
102
RTVSPost2010Prop44ColorRGB
 90
      255
102
RTVSPost2010PropOp44
 70
     1
102
RTVSPost2010Prop45
280
     0
102
RTVSPost2010PropOp45
 70
     1
102
RTVSPost2010Prop46
 90
       50
102
RTVSPost2010PropOp46
 70
     1
102
RTVSPost2010Prop47
 90
       50
102
RTVSPost2010PropOp47
 70
     1
102
RTVSPost2010Prop48
 90
       50
102
RTVSPost2010PropOp48
 70
     1
102
RTVSPost2010Prop49
280
     0
102
RTVSPost2010PropOp49
 70
     1
102
RTVSPost2010Prop50
 90
       50
102
RTVSPost2010PropOp50
 70
     1
102
RTVSPost2010Prop51ColorIndex
 90
      256
102
RTVSPost2010Prop51ColorRGB
 90
-16777216
102
RTVSPost2010PropOp51
 70
     0
102
RTVSPost2010Prop52
140
1.0
102
RTVSPost2010PropOp52
 70
     0
102
RTVSPost2010Prop53
 90
        2
102
RTVSPost2010PropOp53
 70
     1
102
RTVSPost2010Prop54
  1
strokes_ogs.tif
102
RTVSPost2010PropOp54
 70
     1
102
RTVSPost2010Prop55
280
     0
102
RTVSPost2010PropOp55
 70
     1
102
RTVSPost2010Prop56
140
1.0
102
RTVSPost2010PropOp56
 70
     1
102
RTVSPost2010Prop57
140
1.0
102
RTVSPost2010PropOp57
 70
     1
102
RTVSPropertyOp0
 70
     1
102
RTVSPropertyOp1
 70
     1
102
RTVSPropertyOp2
 70
     1
102
RTVSPropertyOp3
 70
     1
102
RTVSPropertyOp4
 70
     1
102
RTVSPropertyOp5
 70
     1
102
RTVSPropertyOp6
 70
     1
102
RTVSPropertyOp7
 70
     1
102
RTVSPropertyOp8
 70
     1
102
RTVSPropertyOp9
 70
     1
102
RTVSPropertyOp10
 70
     1
102
RTVSPropertyOp11
 70
     1
102
RTVSPropertyOp12
 70
     1
102
RTVSPropertyOp13
 70
     1
102
RTVSPropertyOp14
 70
     1
102
RTVSPropertyOp15
 70
     1
102
RTVSPropertyOp16
 70
     1
102
RTVSPropertyOp17
 70
     1
102
RTVSPropertyOp18
 70
     1
102
RTVSPropertyOp19
 70
     1
102
RTVSPropertyOp20
 70
     1
102
RTVSPropertyOp21
 70
     1
102
RTVSPropertyOp22
 70
     1
102
RTVSPropertyOp23
 70
     1
102
RTVSPropertyOp24
 70
     1
102
RTVSPropertyOp25
 70
     1
102
RTVSPropertyOp26
 70
     1
102
RTVSPropertyOp27
 70
     1
102
RTVSPropertyOp28
 70
     1
102
RTVSPropertyOp29
 70
     1
102
RTVSPropertyOp30
 70
     1
102
RTVSPropertyOp31
 70
     1
102
RTVSPropertyOp32
 70
     1
102
RTVSPropertyOp33
 70
     1
102
RTVSPropertyOp34
 70
     1
102
RTVSPropertyOp35
 70
     1
102
RTVSPropertyOp36
 70
     1
102
RTVSPropertyOp37
 70
     1
102
RTVSPropertyOp38
 70
     1
102
RTVSPropertyOp39
 70
     1
102
RTVSPropertyOp40
 70
     1
102
RTVSPropertyOp41
 70
     1
102
RTVSPropertyOp42
 70
     1
102
RTVSPropertyOp43
 70
     1
102
RTVSPropertyOp44
 70
     1
102
RTVSPropertyOp45
 70
     1
102
RTVSPropertyOp46
 70
     1
102
RTVSPropertyOp47
 70
     1
102
RTVSPropertyOp48
 70
     1
102
RTVSPropertyOp49
 70
     1
102
RTVSPropertyOp50
 70
     1
102
RTVSPropertyOp51
 70
     0
102
RTVSPropertyOp52
 70
     0
102
RTVSPropertyOp53
 70
     1
102
RTVSPropertyOp54
 70
     1
102
RTVSPropertyOp55
 70
     1
102
RTVSPropertyOp56
 70
     1
102
RTVSPropertyOp57
 70
     1
102
RTVSPropertyOp58
 70
     1
102
RTVSPropertyOp59
 70
     1
102
RTVSPropertyOp60
 70
     1
102
RTVSPropertyOp61
 70
     1
102
RTVSPropertyOp62
 70
     1
  0
XRECORD
  5
B11A
102
{ACAD_REACTORS
330
B119
102
}
330
B119
100
AcDbXrecord
280
     1
102
RTVSPost2010Prop28
280
     0
102
RTVSPost2010PropOp28
 70
     1
102
RTVSPost2010Prop29
280
     1
102
RTVSPost2010PropOp29
 70
     1
102
RTVSPost2010Prop30
280
     1
102
RTVSPost2010PropOp30
 70
     1
102
RTVSPost2010Prop31
280
     0
102
RTVSPost2010PropOp31
 70
     1
102
RTVSPost2010Prop32
280
     0
102
RTVSPost2010PropOp32
 70
     1
102
RTVSPost2010Prop33
280
     0
102
RTVSPost2010PropOp33
 70
     1
102
RTVSPost2010Prop34
280
     0
102
RTVSPost2010PropOp34
 70
     1
102
RTVSPost2010Prop35
280
     0
102
RTVSPost2010PropOp35
 70
     1
102
RTVSPost2010Prop36
280
     0
102
RTVSPost2010PropOp36
 70
     1
102
RTVSPost2010Prop37
 90
       50
102
RTVSPost2010PropOp37
 70
     1
102
RTVSPost2010Prop38
140
0.0
102
RTVSPost2010PropOp38
 70
     1
102
RTVSPost2010Prop39
140
1.0
102
RTVSPost2010PropOp39
 70
     1
102
RTVSPost2010Prop40
 90
        0
102
RTVSPost2010PropOp40
 70
     1
102
RTVSPost2010Prop41ColorIndex
 90
       18
102
RTVSPost2010Prop41ColorRGB
 90
        0
102
RTVSPost2010PropOp41
 70
     1
102
RTVSPost2010Prop42
 90
       50
102
RTVSPost2010PropOp42
 70
     1
102
RTVSPost2010Prop43
 90
        3
102
RTVSPost2010PropOp43
 70
     1
102
RTVSPost2010Prop44ColorIndex
 90
        5
102
RTVSPost2010Prop44ColorRGB
 90
      255
102
RTVSPost2010PropOp44
 70
     1
102
RTVSPost2010Prop45
280
     0
102
RTVSPost2010PropOp45
 70
     1
102
RTVSPost2010Prop46
 90
       50
102
RTVSPost2010PropOp46
 70
     1
102
RTVSPost2010Prop47
 90
       50
102
RTVSPost2010PropOp47
 70
     1
102
RTVSPost2010Prop48
 90
       50
102
RTVSPost2010PropOp48
 70
     1
102
RTVSPost2010Prop49
280
     0
102
RTVSPost2010PropOp49
 70
     1
102
RTVSPost2010Prop50
 90
       50
102
RTVSPost2010PropOp50
 70
     1
102
RTVSPost2010Prop51ColorIndex
 90
      256
102
RTVSPost2010Prop51ColorRGB
 90
-16777216
102
RTVSPost2010PropOp51
 70
     0
102
RTVSPost2010Prop52
140
1.0
102
RTVSPost2010PropOp52
 70
     0
102
RTVSPost2010Prop53
 90
        2
102
RTVSPost2010PropOp53
 70
     1
102
RTVSPost2010Prop54
  1
strokes_ogs.tif
102
RTVSPost2010PropOp54
 70
     1
102
RTVSPost2010Prop55
280
     0
102
RTVSPost2010PropOp55
 70
     1
102
RTVSPost2010Prop56
140
1.0
102
RTVSPost2010PropOp56
 70
     1
102
RTVSPost2010Prop57
140
1.0
102
RTVSPost2010PropOp57
 70
     1
102
RTVSPropertyOp0
 70
     1
102
RTVSPropertyOp1
 70
     1
102
RTVSPropertyOp2
 70
     1
102
RTVSPropertyOp3
 70
     1
102
RTVSPropertyOp4
 70
     1
102
RTVSPropertyOp5
 70
     1
102
RTVSPropertyOp6
 70
     1
102
RTVSPropertyOp7
 70
     1
102
RTVSPropertyOp8
 70
     1
102
RTVSPropertyOp9
 70
     1
102
RTVSPropertyOp10
 70
     1
102
RTVSPropertyOp11
 70
     1
102
RTVSPropertyOp12
 70
     1
102
RTVSPropertyOp13
 70
     1
102
RTVSPropertyOp14
 70
     1
102
RTVSPropertyOp15
 70
     1
102
RTVSPropertyOp16
 70
     1
102
RTVSPropertyOp17
 70
     1
102
RTVSPropertyOp18
 70
     1
102
RTVSPropertyOp19
 70
     1
102
RTVSPropertyOp20
 70
     1
102
RTVSPropertyOp21
 70
     1
102
RTVSPropertyOp22
 70
     1
102
RTVSPropertyOp23
 70
     1
102
RTVSPropertyOp24
 70
     1
102
RTVSPropertyOp25
 70
     1
102
RTVSPropertyOp26
 70
     1
102
RTVSPropertyOp27
 70
     1
102
RTVSPropertyOp28
 70
     1
102
RTVSPropertyOp29
 70
     1
102
RTVSPropertyOp30
 70
     1
102
RTVSPropertyOp31
 70
     1
102
RTVSPropertyOp32
 70
     1
102
RTVSPropertyOp33
 70
     1
102
RTVSPropertyOp34
 70
     1
102
RTVSPropertyOp35
 70
     1
102
RTVSPropertyOp36
 70
     1
102
RTVSPropertyOp37
 70
     1
102
RTVSPropertyOp38
 70
     1
102
RTVSPropertyOp39
 70
     1
102
RTVSPropertyOp40
 70
     1
102
RTVSPropertyOp41
 70
     1
102
RTVSPropertyOp42
 70
     1
102
RTVSPropertyOp43
 70
     1
102
RTVSPropertyOp44
 70
     1
102
RTVSPropertyOp45
 70
     1
102
RTVSPropertyOp46
 70
     1
102
RTVSPropertyOp47
 70
     1
102
RTVSPropertyOp48
 70
     1
102
RTVSPropertyOp49
 70
     1
102
RTVSPropertyOp50
 70
     1
102
RTVSPropertyOp51
 70
     0
102
RTVSPropertyOp52
 70
     0
102
RTVSPropertyOp53
 70
     1
102
RTVSPropertyOp54
 70
     1
102
RTVSPropertyOp55
 70
     1
102
RTVSPropertyOp56
 70
     1
102
RTVSPropertyOp57
 70
     1
102
RTVSPropertyOp58
 70
     1
102
RTVSPropertyOp59
 70
     1
102
RTVSPropertyOp60
 70
     1
102
RTVSPropertyOp61
 70
     1
102
RTVSPropertyOp62
 70
     1
  0
XRECORD
  5
B11C
102
{ACAD_REACTORS
330
B11B
102
}
330
B11B
100
AcDbXrecord
280
     1
102
RTVSPost2010Prop28
280
     0
102
RTVSPost2010PropOp28
 70
     1
102
RTVSPost2010Prop29
280
     1
102
RTVSPost2010PropOp29
 70
     1
102
RTVSPost2010Prop30
280
     1
102
RTVSPost2010PropOp30
 70
     1
102
RTVSPost2010Prop31
280
     0
102
RTVSPost2010PropOp31
 70
     1
102
RTVSPost2010Prop32
280
     0
102
RTVSPost2010PropOp32
 70
     1
102
RTVSPost2010Prop33
280
     0
102
RTVSPost2010PropOp33
 70
     1
102
RTVSPost2010Prop34
280
     0
102
RTVSPost2010PropOp34
 70
     1
102
RTVSPost2010Prop35
280
     0
102
RTVSPost2010PropOp35
 70
     1
102
RTVSPost2010Prop36
280
     0
102
RTVSPost2010PropOp36
 70
     1
102
RTVSPost2010Prop37
 90
       50
102
RTVSPost2010PropOp37
 70
     1
102
RTVSPost2010Prop38
140
0.0
102
RTVSPost2010PropOp38
 70
     1
102
RTVSPost2010Prop39
140
1.0
102
RTVSPost2010PropOp39
 70
     1
102
RTVSPost2010Prop40
 90
        0
102
RTVSPost2010PropOp40
 70
     1
102
RTVSPost2010Prop41ColorIndex
 90
       18
102
RTVSPost2010Prop41ColorRGB
 90
        0
102
RTVSPost2010PropOp41
 70
     1
102
RTVSPost2010Prop42
 90
       50
102
RTVSPost2010PropOp42
 70
     1
102
RTVSPost2010Prop43
 90
        3
102
RTVSPost2010PropOp43
 70
     1
102
RTVSPost2010Prop44ColorIndex
 90
        5
102
RTVSPost2010Prop44ColorRGB
 90
      255
102
RTVSPost2010PropOp44
 70
     1
102
RTVSPost2010Prop45
280
     0
102
RTVSPost2010PropOp45
 70
     1
102
RTVSPost2010Prop46
 90
       50
102
RTVSPost2010PropOp46
 70
     1
102
RTVSPost2010Prop47
 90
       50
102
RTVSPost2010PropOp47
 70
     1
102
RTVSPost2010Prop48
 90
       50
102
RTVSPost2010PropOp48
 70
     1
102
RTVSPost2010Prop49
280
     0
102
RTVSPost2010PropOp49
 70
     1
102
RTVSPost2010Prop50
 90
       50
102
RTVSPost2010PropOp50
 70
     1
102
RTVSPost2010Prop51ColorIndex
 90
      256
102
RTVSPost2010Prop51ColorRGB
 90
-16777216
102
RTVSPost2010PropOp51
 70
     0
102
RTVSPost2010Prop52
140
1.0
102
RTVSPost2010PropOp52
 70
     0
102
RTVSPost2010Prop53
 90
        2
102
RTVSPost2010PropOp53
 70
     1
102
RTVSPost2010Prop54
  1
strokes_ogs.tif
102
RTVSPost2010PropOp54
 70
     1
102
RTVSPost2010Prop55
280
     0
102
RTVSPost2010PropOp55
 70
     1
102
RTVSPost2010Prop56
140
1.0
102
RTVSPost2010PropOp56
 70
     1
102
RTVSPost2010Prop57
140
1.0
102
RTVSPost2010PropOp57
 70
     1
102
RTVSPropertyOp0
 70
     1
102
RTVSPropertyOp1
 70
     1
102
RTVSPropertyOp2
 70
     1
102
RTVSPropertyOp3
 70
     1
102
RTVSPropertyOp4
 70
     1
102
RTVSPropertyOp5
 70
     1
102
RTVSPropertyOp6
 70
     1
102
RTVSPropertyOp7
 70
     1
102
RTVSPropertyOp8
 70
     1
102
RTVSPropertyOp9
 70
     1
102
RTVSPropertyOp10
 70
     1
102
RTVSPropertyOp11
 70
     1
102
RTVSPropertyOp12
 70
     1
102
RTVSPropertyOp13
 70
     1
102
RTVSPropertyOp14
 70
     1
102
RTVSPropertyOp15
 70
     1
102
RTVSPropertyOp16
 70
     1
102
RTVSPropertyOp17
 70
     1
102
RTVSPropertyOp18
 70
     1
102
RTVSPropertyOp19
 70
     1
102
RTVSPropertyOp20
 70
     1
102
RTVSPropertyOp21
 70
     1
102
RTVSPropertyOp22
 70
     1
102
RTVSPropertyOp23
 70
     1
102
RTVSPropertyOp24
 70
     1
102
RTVSPropertyOp25
 70
     1
102
RTVSPropertyOp26
 70
     1
102
RTVSPropertyOp27
 70
     1
102
RTVSPropertyOp28
 70
     1
102
RTVSPropertyOp29
 70
     1
102
RTVSPropertyOp30
 70
     1
102
RTVSPropertyOp31
 70
     1
102
RTVSPropertyOp32
 70
     1
102
RTVSPropertyOp33
 70
     1
102
RTVSPropertyOp34
 70
     1
102
RTVSPropertyOp35
 70
     1
102
RTVSPropertyOp36
 70
     1
102
RTVSPropertyOp37
 70
     1
102
RTVSPropertyOp38
 70
     1
102
RTVSPropertyOp39
 70
     1
102
RTVSPropertyOp40
 70
     1
102
RTVSPropertyOp41
 70
     1
102
RTVSPropertyOp42
 70
     1
102
RTVSPropertyOp43
 70
     1
102
RTVSPropertyOp44
 70
     1
102
RTVSPropertyOp45
 70
     1
102
RTVSPropertyOp46
 70
     1
102
RTVSPropertyOp47
 70
     1
102
RTVSPropertyOp48
 70
     1
102
RTVSPropertyOp49
 70
     1
102
RTVSPropertyOp50
 70
     1
102
RTVSPropertyOp51
 70
     0
102
RTVSPropertyOp52
 70
     0
102
RTVSPropertyOp53
 70
     1
102
RTVSPropertyOp54
 70
     1
102
RTVSPropertyOp55
 70
     1
102
RTVSPropertyOp56
 70
     1
102
RTVSPropertyOp57
 70
     1
102
RTVSPropertyOp58
 70
     1
102
RTVSPropertyOp59
 70
     1
102
RTVSPropertyOp60
 70
     1
102
RTVSPropertyOp61
 70
     1
102
RTVSPropertyOp62
 70
     1
  0
XRECORD
  5
B112
102
{ACAD_REACTORS
330
B111
102
}
330
B111
100
AcDbXrecord
280
     1
102
RTVSPost2010Prop28
280
     0
102
RTVSPost2010PropOp28
 70
     1
102
RTVSPost2010Prop29
280
     1
102
RTVSPost2010PropOp29
 70
     1
102
RTVSPost2010Prop30
280
     1
102
RTVSPost2010PropOp30
 70
     1
102
RTVSPost2010Prop31
280
     0
102
RTVSPost2010PropOp31
 70
     1
102
RTVSPost2010Prop32
280
     0
102
RTVSPost2010PropOp32
 70
     1
102
RTVSPost2010Prop33
280
     0
102
RTVSPost2010PropOp33
 70
     1
102
RTVSPost2010Prop34
280
     0
102
RTVSPost2010PropOp34
 70
     1
102
RTVSPost2010Prop35
280
     0
102
RTVSPost2010PropOp35
 70
     1
102
RTVSPost2010Prop36
280
     0
102
RTVSPost2010PropOp36
 70
     1
102
RTVSPost2010Prop37
 90
       50
102
RTVSPost2010PropOp37
 70
     1
102
RTVSPost2010Prop38
140
0.0
102
RTVSPost2010PropOp38
 70
     1
102
RTVSPost2010Prop39
140
1.0
102
RTVSPost2010PropOp39
 70
     1
102
RTVSPost2010Prop40
 90
        0
102
RTVSPost2010PropOp40
 70
     1
102
RTVSPost2010Prop41ColorIndex
 90
       18
102
RTVSPost2010Prop41ColorRGB
 90
        0
102
RTVSPost2010PropOp41
 70
     1
102
RTVSPost2010Prop42
 90
       50
102
RTVSPost2010PropOp42
 70
     1
102
RTVSPost2010Prop43
 90
        3
102
RTVSPost2010PropOp43
 70
     1
102
RTVSPost2010Prop44ColorIndex
 90
        5
102
RTVSPost2010Prop44ColorRGB
 90
      255
102
RTVSPost2010PropOp44
 70
     1
102
RTVSPost2010Prop45
280
     0
102
RTVSPost2010PropOp45
 70
     1
102
RTVSPost2010Prop46
 90
       50
102
RTVSPost2010PropOp46
 70
     1
102
RTVSPost2010Prop47
 90
       50
102
RTVSPost2010PropOp47
 70
     1
102
RTVSPost2010Prop48
 90
       50
102
RTVSPost2010PropOp48
 70
     1
102
RTVSPost2010Prop49
280
     0
102
RTVSPost2010PropOp49
 70
     1
102
RTVSPost2010Prop50
 90
       50
102
RTVSPost2010PropOp50
 70
     1
102
RTVSPost2010Prop51ColorIndex
 90
      256
102
RTVSPost2010Prop51ColorRGB
 90
-16777216
102
RTVSPost2010PropOp51
 70
     0
102
RTVSPost2010Prop52
140
1.0
102
RTVSPost2010PropOp52
 70
     0
102
RTVSPost2010Prop53
 90
        2
102
RTVSPost2010PropOp53
 70
     1
102
RTVSPost2010Prop54
  1
strokes_ogs.tif
102
RTVSPost2010PropOp54
 70
     1
102
RTVSPost2010Prop55
280
     0
102
RTVSPost2010PropOp55
 70
     1
102
RTVSPost2010Prop56
140
1.0
102
RTVSPost2010PropOp56
 70
     1
102
RTVSPost2010Prop57
140
1.0
102
RTVSPost2010PropOp57
 70
     1
102
RTVSPropertyOp0
 70
     1
102
RTVSPropertyOp1
 70
     1
102
RTVSPropertyOp2
 70
     1
102
RTVSPropertyOp3
 70
     1
102
RTVSPropertyOp4
 70
     1
102
RTVSPropertyOp5
 70
     1
102
RTVSPropertyOp6
 70
     1
102
RTVSPropertyOp7
 70
     1
102
RTVSPropertyOp8
 70
     1
102
RTVSPropertyOp9
 70
     1
102
RTVSPropertyOp10
 70
     1
102
RTVSPropertyOp11
 70
     1
102
RTVSPropertyOp12
 70
     1
102
RTVSPropertyOp13
 70
     1
102
RTVSPropertyOp14
 70
     1
102
RTVSPropertyOp15
 70
     1
102
RTVSPropertyOp16
 70
     1
102
RTVSPropertyOp17
 70
     1
102
RTVSPropertyOp18
 70
     1
102
RTVSPropertyOp19
 70
     1
102
RTVSPropertyOp20
 70
     1
102
RTVSPropertyOp21
 70
     1
102
RTVSPropertyOp22
 70
     1
102
RTVSPropertyOp23
 70
     1
102
RTVSPropertyOp24
 70
     1
102
RTVSPropertyOp25
 70
     1
102
RTVSPropertyOp26
 70
     1
102
RTVSPropertyOp27
 70
     1
102
RTVSPropertyOp28
 70
     1
102
RTVSPropertyOp29
 70
     1
102
RTVSPropertyOp30
 70
     1
102
RTVSPropertyOp31
 70
     1
102
RTVSPropertyOp32
 70
     1
102
RTVSPropertyOp33
 70
     1
102
RTVSPropertyOp34
 70
     1
102
RTVSPropertyOp35
 70
     1
102
RTVSPropertyOp36
 70
     1
102
RTVSPropertyOp37
 70
     1
102
RTVSPropertyOp38
 70
     1
102
RTVSPropertyOp39
 70
     1
102
RTVSPropertyOp40
 70
     1
102
RTVSPropertyOp41
 70
     1
102
RTVSPropertyOp42
 70
     1
102
RTVSPropertyOp43
 70
     1
102
RTVSPropertyOp44
 70
     1
102
RTVSPropertyOp45
 70
     1
102
RTVSPropertyOp46
 70
     1
102
RTVSPropertyOp47
 70
     1
102
RTVSPropertyOp48
 70
     1
102
RTVSPropertyOp49
 70
     1
102
RTVSPropertyOp50
 70
     1
102
RTVSPropertyOp51
 70
     0
102
RTVSPropertyOp52
 70
     0
102
RTVSPropertyOp53
 70
     1
102
RTVSPropertyOp54
 70
     1
102
RTVSPropertyOp55
 70
     1
102
RTVSPropertyOp56
 70
     1
102
RTVSPropertyOp57
 70
     1
102
RTVSPropertyOp58
 70
     1
102
RTVSPropertyOp59
 70
     1
102
RTVSPropertyOp60
 70
     1
102
RTVSPropertyOp61
 70
     1
102
RTVSPropertyOp62
 70
     1
  0
XRECORD
  5
B106
102
{ACAD_REACTORS
330
B105
102
}
330
B105
100
AcDbXrecord
280
     1
102
RTVSPost2010Prop28
280
     0
102
RTVSPost2010PropOp28
 70
     1
102
RTVSPost2010Prop29
280
     1
102
RTVSPost2010PropOp29
 70
     1
102
RTVSPost2010Prop30
280
     1
102
RTVSPost2010PropOp30
 70
     1
102
RTVSPost2010Prop31
280
     0
102
RTVSPost2010PropOp31
 70
     1
102
RTVSPost2010Prop32
280
     0
102
RTVSPost2010PropOp32
 70
     1
102
RTVSPost2010Prop33
280
     0
102
RTVSPost2010PropOp33
 70
     1
102
RTVSPost2010Prop34
280
     0
102
RTVSPost2010PropOp34
 70
     1
102
RTVSPost2010Prop35
280
     0
102
RTVSPost2010PropOp35
 70
     1
102
RTVSPost2010Prop36
280
     0
102
RTVSPost2010PropOp36
 70
     1
102
RTVSPost2010Prop37
 90
       50
102
RTVSPost2010PropOp37
 70
     1
102
RTVSPost2010Prop38
140
0.0
102
RTVSPost2010PropOp38
 70
     1
102
RTVSPost2010Prop39
140
1.0
102
RTVSPost2010PropOp39
 70
     1
102
RTVSPost2010Prop40
 90
        0
102
RTVSPost2010PropOp40
 70
     1
102
RTVSPost2010Prop41ColorIndex
 90
       18
102
RTVSPost2010Prop41ColorRGB
 90
        0
102
RTVSPost2010PropOp41
 70
     1
102
RTVSPost2010Prop42
 90
       50
102
RTVSPost2010PropOp42
 70
     1
102
RTVSPost2010Prop43
 90
        3
102
RTVSPost2010PropOp43
 70
     1
102
RTVSPost2010Prop44ColorIndex
 90
        5
102
RTVSPost2010Prop44ColorRGB
 90
      255
102
RTVSPost2010PropOp44
 70
     1
102
RTVSPost2010Prop45
280
     0
102
RTVSPost2010PropOp45
 70
     1
102
RTVSPost2010Prop46
 90
       50
102
RTVSPost2010PropOp46
 70
     1
102
RTVSPost2010Prop47
 90
       50
102
RTVSPost2010PropOp47
 70
     1
102
RTVSPost2010Prop48
 90
       50
102
RTVSPost2010PropOp48
 70
     1
102
RTVSPost2010Prop49
280
     0
102
RTVSPost2010PropOp49
 70
     1
102
RTVSPost2010Prop50
 90
       50
102
RTVSPost2010PropOp50
 70
     1
102
RTVSPost2010Prop51ColorIndex
 90
      256
102
RTVSPost2010Prop51ColorRGB
 90
-16777216
102
RTVSPost2010PropOp51
 70
     0
102
RTVSPost2010Prop52
140
1.0
102
RTVSPost2010PropOp52
 70
     0
102
RTVSPost2010Prop53
 90
        2
102
RTVSPost2010PropOp53
 70
     1
102
RTVSPost2010Prop54
  1
strokes_ogs.tif
102
RTVSPost2010PropOp54
 70
     1
102
RTVSPost2010Prop55
280
     0
102
RTVSPost2010PropOp55
 70
     1
102
RTVSPost2010Prop56
140
1.0
102
RTVSPost2010PropOp56
 70
     1
102
RTVSPost2010Prop57
140
1.0
102
RTVSPost2010PropOp57
 70
     1
102
RTVSPropertyOp0
 70
     1
102
RTVSPropertyOp1
 70
     1
102
RTVSPropertyOp2
 70
     1
102
RTVSPropertyOp3
 70
     1
102
RTVSPropertyOp4
 70
     1
102
RTVSPropertyOp5
 70
     1
102
RTVSPropertyOp6
 70
     1
102
RTVSPropertyOp7
 70
     1
102
RTVSPropertyOp8
 70
     1
102
RTVSPropertyOp9
 70
     1
102
RTVSPropertyOp10
 70
     1
102
RTVSPropertyOp11
 70
     1
102
RTVSPropertyOp12
 70
     1
102
RTVSPropertyOp13
 70
     1
102
RTVSPropertyOp14
 70
     1
102
RTVSPropertyOp15
 70
     1
102
RTVSPropertyOp16
 70
     1
102
RTVSPropertyOp17
 70
     1
102
RTVSPropertyOp18
 70
     1
102
RTVSPropertyOp19
 70
     1
102
RTVSPropertyOp20
 70
     1
102
RTVSPropertyOp21
 70
     1
102
RTVSPropertyOp22
 70
     1
102
RTVSPropertyOp23
 70
     1
102
RTVSPropertyOp24
 70
     1
102
RTVSPropertyOp25
 70
     1
102
RTVSPropertyOp26
 70
     1
102
RTVSPropertyOp27
 70
     1
102
RTVSPropertyOp28
 70
     1
102
RTVSPropertyOp29
 70
     1
102
RTVSPropertyOp30
 70
     1
102
RTVSPropertyOp31
 70
     1
102
RTVSPropertyOp32
 70
     1
102
RTVSPropertyOp33
 70
     1
102
RTVSPropertyOp34
 70
     1
102
RTVSPropertyOp35
 70
     1
102
RTVSPropertyOp36
 70
     1
102
RTVSPropertyOp37
 70
     1
102
RTVSPropertyOp38
 70
     1
102
RTVSPropertyOp39
 70
     1
102
RTVSPropertyOp40
 70
     1
102
RTVSPropertyOp41
 70
     1
102
RTVSPropertyOp42
 70
     1
102
RTVSPropertyOp43
 70
     1
102
RTVSPropertyOp44
 70
     1
102
RTVSPropertyOp45
 70
     1
102
RTVSPropertyOp46
 70
     1
102
RTVSPropertyOp47
 70
     1
102
RTVSPropertyOp48
 70
     1
102
RTVSPropertyOp49
 70
     1
102
RTVSPropertyOp50
 70
     1
102
RTVSPropertyOp51
 70
     0
102
RTVSPropertyOp52
 70
     0
102
RTVSPropertyOp53
 70
     1
102
RTVSPropertyOp54
 70
     1
102
RTVSPropertyOp55
 70
     1
102
RTVSPropertyOp56
 70
     1
102
RTVSPropertyOp57
 70
     1
102
RTVSPropertyOp58
 70
     1
102
RTVSPropertyOp59
 70
     1
102
RTVSPropertyOp60
 70
     1
102
RTVSPropertyOp61
 70
     1
102
RTVSPropertyOp62
 70
     1
  0
XRECORD
  5
B11E
102
{ACAD_REACTORS
330
B11D
102
}
330
B11D
100
AcDbXrecord
280
     1
102
RTVSPost2010Prop28
280
     0
102
RTVSPost2010PropOp28
 70
     1
102
RTVSPost2010Prop29
280
     1
102
RTVSPost2010PropOp29
 70
     1
102
RTVSPost2010Prop30
280
     1
102
RTVSPost2010PropOp30
 70
     1
102
RTVSPost2010Prop31
280
     0
102
RTVSPost2010PropOp31
 70
     1
102
RTVSPost2010Prop32
280
     0
102
RTVSPost2010PropOp32
 70
     1
102
RTVSPost2010Prop33
280
     0
102
RTVSPost2010PropOp33
 70
     1
102
RTVSPost2010Prop34
280
     0
102
RTVSPost2010PropOp34
 70
     1
102
RTVSPost2010Prop35
280
     0
102
RTVSPost2010PropOp35
 70
     1
102
RTVSPost2010Prop36
280
     0
102
RTVSPost2010PropOp36
 70
     1
102
RTVSPost2010Prop37
 90
       50
102
RTVSPost2010PropOp37
 70
     1
102
RTVSPost2010Prop38
140
0.0
102
RTVSPost2010PropOp38
 70
     1
102
RTVSPost2010Prop39
140
1.0
102
RTVSPost2010PropOp39
 70
     1
102
RTVSPost2010Prop40
 90
        0
102
RTVSPost2010PropOp40
 70
     1
102
RTVSPost2010Prop41ColorIndex
 90
       18
102
RTVSPost2010Prop41ColorRGB
 90
        0
102
RTVSPost2010PropOp41
 70
     1
102
RTVSPost2010Prop42
 90
       50
102
RTVSPost2010PropOp42
 70
     1
102
RTVSPost2010Prop43
 90
        3
102
RTVSPost2010PropOp43
 70
     1
102
RTVSPost2010Prop44ColorIndex
 90
        5
102
RTVSPost2010Prop44ColorRGB
 90
      255
102
RTVSPost2010PropOp44
 70
     1
102
RTVSPost2010Prop45
280
     0
102
RTVSPost2010PropOp45
 70
     1
102
RTVSPost2010Prop46
 90
       50
102
RTVSPost2010PropOp46
 70
     1
102
RTVSPost2010Prop47
 90
       50
102
RTVSPost2010PropOp47
 70
     1
102
RTVSPost2010Prop48
 90
       50
102
RTVSPost2010PropOp48
 70
     1
102
RTVSPost2010Prop49
280
     0
102
RTVSPost2010PropOp49
 70
     1
102
RTVSPost2010Prop50
 90
       50
102
RTVSPost2010PropOp50
 70
     1
102
RTVSPost2010Prop51ColorIndex
 90
      256
102
RTVSPost2010Prop51ColorRGB
 90
-16777216
102
RTVSPost2010PropOp51
 70
     0
102
RTVSPost2010Prop52
140
1.0
102
RTVSPost2010PropOp52
 70
     0
102
RTVSPost2010Prop53
 90
        2
102
RTVSPost2010PropOp53
 70
     1
102
RTVSPost2010Prop54
  1
strokes_ogs.tif
102
RTVSPost2010PropOp54
 70
     1
102
RTVSPost2010Prop55
280
     0
102
RTVSPost2010PropOp55
 70
     1
102
RTVSPost2010Prop56
140
1.0
102
RTVSPost2010PropOp56
 70
     1
102
RTVSPost2010Prop57
140
1.0
102
RTVSPost2010PropOp57
 70
     1
102
RTVSPropertyOp0
 70
     1
102
RTVSPropertyOp1
 70
     1
102
RTVSPropertyOp2
 70
     1
102
RTVSPropertyOp3
 70
     1
102
RTVSPropertyOp4
 70
     1
102
RTVSPropertyOp5
 70
     1
102
RTVSPropertyOp6
 70
     1
102
RTVSPropertyOp7
 70
     1
102
RTVSPropertyOp8
 70
     1
102
RTVSPropertyOp9
 70
     1
102
RTVSPropertyOp10
 70
     1
102
RTVSPropertyOp11
 70
     1
102
RTVSPropertyOp12
 70
     1
102
RTVSPropertyOp13
 70
     1
102
RTVSPropertyOp14
 70
     1
102
RTVSPropertyOp15
 70
     1
102
RTVSPropertyOp16
 70
     1
102
RTVSPropertyOp17
 70
     1
102
RTVSPropertyOp18
 70
     1
102
RTVSPropertyOp19
 70
     1
102
RTVSPropertyOp20
 70
     1
102
RTVSPropertyOp21
 70
     1
102
RTVSPropertyOp22
 70
     1
102
RTVSPropertyOp23
 70
     1
102
RTVSPropertyOp24
 70
     1
102
RTVSPropertyOp25
 70
     1
102
RTVSPropertyOp26
 70
     1
102
RTVSPropertyOp27
 70
     1
102
RTVSPropertyOp28
 70
     1
102
RTVSPropertyOp29
 70
     1
102
RTVSPropertyOp30
 70
     1
102
RTVSPropertyOp31
 70
     1
102
RTVSPropertyOp32
 70
     1
102
RTVSPropertyOp33
 70
     1
102
RTVSPropertyOp34
 70
     1
102
RTVSPropertyOp35
 70
     1
102
RTVSPropertyOp36
 70
     1
102
RTVSPropertyOp37
 70
     1
102
RTVSPropertyOp38
 70
     1
102
RTVSPropertyOp39
 70
     1
102
RTVSPropertyOp40
 70
     1
102
RTVSPropertyOp41
 70
     1
102
RTVSPropertyOp42
 70
     1
102
RTVSPropertyOp43
 70
     1
102
RTVSPropertyOp44
 70
     1
102
RTVSPropertyOp45
 70
     1
102
RTVSPropertyOp46
 70
     1
102
RTVSPropertyOp47
 70
     1
102
RTVSPropertyOp48
 70
     1
102
RTVSPropertyOp49
 70
     1
102
RTVSPropertyOp50
 70
     1
102
RTVSPropertyOp51
 70
     0
102
RTVSPropertyOp52
 70
     0
102
RTVSPropertyOp53
 70
     1
102
RTVSPropertyOp54
 70
     1
102
RTVSPropertyOp55
 70
     1
102
RTVSPropertyOp56
 70
     1
102
RTVSPropertyOp57
 70
     1
102
RTVSPropertyOp58
 70
     1
102
RTVSPropertyOp59
 70
     1
102
RTVSPropertyOp60
 70
     1
102
RTVSPropertyOp61
 70
     1
102
RTVSPropertyOp62
 70
     1
  0
ENDSEC
  0
EOF
