  0
SECTION
  2
HEADER
  9
$ACADVER
  1
AC1015
  9
$ACADMAINTVER
 70
    20
  9
$DWGCODEPAGE
  3
ANSI_932
  9
$INSBASE
 10
0.0
 20
0.0
 30
0.0
  9
$EXTMIN
 10
10.0
 20
9.999999999999998
 30
0.0
  9
$EXTMAX
 10
421.3855049999998
 20
302.729622
 30
0.0
  9
$LIMMIN
 10
0.0
 20
0.0
  9
$LIMMAX
 10
495.0
 20
341.25
  9
$ORTHOMODE
 70
     1
  9
$REGENMODE
 70
     1
  9
$FILLMODE
 70
     1
  9
$QTEXTMODE
 70
     0
  9
$MIRRTEXT
 70
     1
  9
$LTSCALE
 40
20.0
  9
$ATTMODE
 70
     1
  9
$TEXTSIZE
 40
5.0
  9
$TRACEWID
 40
1.0
  9
$TEXTSTYLE
  7
STANDARD
  9
$CLAYER
  8
0
  9
$CELTYPE
  6
BYLAYER
  9
$CECOLOR
 62
   256
  9
$CELTSCALE
 40
1.0
  9
$DISPSILH
 70
     0
  9
$DIMSCALE
 40
1.0
  9
$DIMASZ
 40
2.5
  9
$DIMEXO
 40
1.0
  9
$DIMDLI
 40
10.0
  9
$DIMRND
 40
0.0
  9
$DIMDLE
 40
0.0
  9
$DIMEXE
 40
1.0
  9
$DIMTP
 40
0.0
  9
$DIMTM
 40
0.0
  9
$DIMTXT
 40
3.2
  9
$DIMCEN
 40
0.0
  9
$DIMTSZ
 40
0.0
  9
$DIMTOL
 70
     0
  9
$DIMLIM
 70
     0
  9
$DIMTIH
 70
     0
  9
$DIMTOH
 70
     0
  9
$DIMSE1
 70
     0
  9
$DIMSE2
 70
     0
  9
$DIMTAD
 70
     3
  9
$DIMZIN
 70
     8
  9
$DIMBLK
  1

  9
$DIMASO
 70
     1
  9
$DIMSHO
 70
     1
  9
$DIMPOST
  1

  9
$DIMAPOST
  1

  9
$DIMALT
 70
     0
  9
$DIMALTD
 70
     2
  9
$DIMALTF
 40
25.4
  9
$DIMLFAC
 40
1.0
  9
$DIMTOFL
 70
     1
  9
$DIMTVP
 40
0.0
  9
$DIMTIX
 70
     0
  9
$DIMSOXD
 70
     0
  9
$DIMSAH
 70
     1
  9
$DIMBLK1
  1

  9
$DIMBLK2
  1

  9
$DIMSTYLE
  2
STANDARD
  9
$DIMCLRD
 70
     0
  9
$DIMCLRE
 70
     0
  9
$DIMCLRT
 70
     0
  9
$DIMTFAC
 40
1.0
  9
$DIMGAP
 40
1.0
  9
$DIMJUST
 70
     0
  9
$DIMSD1
 70
     0
  9
$DIMSD2
 70
     0
  9
$DIMTOLJ
 70
     1
  9
$DIMTZIN
 70
     0
  9
$DIMALTZ
 70
     0
  9
$DIMALTTZ
 70
     0
  9
$DIMUPT
 70
     0
  9
$DIMDEC
 70
     4
  9
$DIMTDEC
 70
     4
  9
$DIMALTU
 70
     2
  9
$DIMALTTD
 70
     2
  9
$DIMTXSTY
  7
STANDARD
  9
$DIMAUNIT
 70
     0
  9
$DIMADEC
 70
     0
  9
$DIMALTRND
 40
0.0
  9
$DIMAZIN
 70
     0
  9
$DIMDSEP
 70
    46
  9
$DIMATFIT
 70
     3
  9
$DIMFRAC
 70
     0
  9
$DIMLDRBLK
  1

  9
$DIMLUNIT
 70
     2
  9
$DIMLWD
 70
    -2
  9
$DIMLWE
 70
    -2
  9
$DIMTMOVE
 70
     0
  9
$LUNITS
 70
     2
  9
$LUPREC
 70
     4
  9
$SKETCHINC
 40
1.0
  9
$FILLETRAD
 40
2.0
  9
$AUNITS
 70
     0
  9
$AUPREC
 70
     2
  9
$MENU
  1
.
  9
$ELEVATION
 40
0.0
  9
$PELEVATION
 40
0.0
  9
$THICKNESS
 40
0.0
  9
$LIMCHECK
 70
     0
  9
$CHAMFERA
 40
10.0
  9
$CHAMFERB
 40
10.0
  9
$CHAMFERC
 40
0.0
  9
$CHAMFERD
 40
0.0
  9
$SKPOLY
 70
     0
  9
$TDCREATE
 40
2451301.461993172
  9
$TDUCREATE
 40
2451301.086993172
  9
$TDUPDATE
 40
2457192.690469017
  9
$TDUUPDATE
 40
2457192.315469017
  9
$TDINDWG
 40
0.0979881829
  9
$TDUSRTIMER
 40
0.0979878588
  9
$USRTIMER
 70
     1
  9
$ANGBASE
 50
0.0
  9
$ANGDIR
 70
     0
  9
$PDMODE
 70
     0
  9
$PDSIZE
 40
0.0
  9
$PLINEWID
 40
0.0
  9
$SPLFRAME
 70
     0
  9
$SPLINETYPE
 70
     6
  9
$SPLINESEGS
 70
     8
  9
$HANDSEED
  5
A244
  9
$SURFTAB1
 70
     6
  9
$SURFTAB2
 70
     6
  9
$SURFTYPE
 70
     6
  9
$SURFU
 70
     6
  9
$SURFV
 70
     6
  9
$UCSBASE
  2

  9
$UCSNAME
  2

  9
$UCSORG
 10
0.0
 20
0.0
 30
0.0
  9
$UCSXDIR
 10
1.0
 20
0.0
 30
0.0
  9
$UCSYDIR
 10
0.0
 20
1.0
 30
0.0
  9
$UCSORTHOREF
  2

  9
$UCSORTHOVIEW
 70
     0
  9
$UCSORGTOP
 10
0.0
 20
0.0
 30
0.0
  9
$UCSORGBOTTOM
 10
0.0
 20
0.0
 30
0.0
  9
$UCSORGLEFT
 10
0.0
 20
0.0
 30
0.0
  9
$UCSORGRIGHT
 10
0.0
 20
0.0
 30
0.0
  9
$UCSORGFRONT
 10
0.0
 20
0.0
 30
0.0
  9
$UCSORGBACK
 10
0.0
 20
0.0
 30
0.0
  9
$PUCSBASE
  2

  9
$PUCSNAME
  2

  9
$PUCSORG
 10
0.0
 20
0.0
 30
0.0
  9
$PUCSXDIR
 10
1.0
 20
0.0
 30
0.0
  9
$PUCSYDIR
 10
0.0
 20
1.0
 30
0.0
  9
$PUCSORTHOREF
  2

  9
$PUCSORTHOVIEW
 70
     0
  9
$PUCSORGTOP
 10
0.0
 20
0.0
 30
0.0
  9
$PUCSORGBOTTOM
 10
0.0
 20
0.0
 30
0.0
  9
$PUCSORGLEFT
 10
0.0
 20
0.0
 30
0.0
  9
$PUCSORGRIGHT
 10
0.0
 20
0.0
 30
0.0
  9
$PUCSORGFRONT
 10
0.0
 20
0.0
 30
0.0
  9
$PUCSORGBACK
 10
0.0
 20
0.0
 30
0.0
  9
$USERI1
 70
     0
  9
$USERI2
 70
     0
  9
$USERI3
 70
     0
  9
$USERI4
 70
     0
  9
$USERI5
 70
     0
  9
$USERR1
 40
0.0
  9
$USERR2
 40
0.0
  9
$USERR3
 40
0.0
  9
$USERR4
 40
0.0
  9
$USERR5
 40
0.0
  9
$WORLDVIEW
 70
     1
  9
$SHADEDGE
 70
     3
  9
$SHADEDIF
 70
    70
  9
$TILEMODE
 70
     1
  9
$MAXACTVP
 70
    16
  9
$PINSBASE
 10
0.0
 20
0.0
 30
0.0
  9
$PLIMCHECK
 70
     0
  9
$PEXTMIN
 10
1.000000000000000E+20
 20
1.000000000000000E+20
 30
1.000000000000000E+20
  9
$PEXTMAX
 10
-1.000000000000000E+20
 20
-1.000000000000000E+20
 30
-1.000000000000000E+20
  9
$PLIMMIN
 10
0.0
 20
0.0
  9
$PLIMMAX
 10
420.0
 20
297.0
  9
$UNITMODE
 70
     0
  9
$VISRETAIN
 70
     0
  9
$PLINEGEN
 70
     0
  9
$PSLTSCALE
 70
     0
  9
$TREEDEPTH
 70
  3020
  9
$CMLSTYLE
  2
STANDARD
  9
$CMLJUST
 70
     0
  9
$CMLSCALE
 40
1.0
  9
$PROXYGRAPHICS
 70
     1
  9
$MEASUREMENT
 70
     0
  9
$CELWEIGHT
370
    -1
  9
$ENDCAPS
280
     0
  9
$JOINSTYLE
280
     0
  9
$LWDISPLAY
290
     0
  9
$INSUNITS
 70
     0
  9
$HYPERLINKBASE
  1

  9
$STYLESHEET
  1

  9
$XEDIT
290
     1
  9
$CEPSNTYPE
380
     0
  9
$PSTYLEMODE
290
     1
  9
$FINGERPRINTGUID
  2
{7BACBEFA-C989-4987-8289-972109862DD9}
  9
$VERSIONGUID
  2
{8D85EA41-5B8F-4E72-9A6E-0C11DA122787}
  9
$EXTNAMES
290
     1
  9
$PSVPSCALE
 40
0.0
  9
$OLESTARTUP
290
     0
  0
ENDSEC
  0
SECTION
  2
CLASSES
  0
CLASS
  1
ACDBDICTIONARYWDFLT
  2
AcDbDictionaryWithDefault
  3
ObjectDBX Classes
 90
        0
280
     0
281
     0
  0
CLASS
  1
ACDBPLACEHOLDER
  2
AcDbPlaceHolder
  3
ObjectDBX Classes
 90
        0
280
     0
281
     0
  0
CLASS
  1
LAYOUT
  2
AcDbLayout
  3
ObjectDBX Classes
 90
        0
280
     0
281
     0
  0
CLASS
  1
DICTIONARYVAR
  2
AcDbDictionaryVar
  3
ObjectDBX Classes
 90
        0
280
     0
281
     0
  0
CLASS
  1
MATERIAL
  2
AcDbMaterial
  3
ObjectDBX Classes
 90
     1153
280
     0
281
     0
  0
CLASS
  1
VISUALSTYLE
  2
AcDbVisualStyle
  3
ObjectDBX Classes
 90
     4095
280
     0
281
     0
  0
CLASS
  1
TABLESTYLE
  2
AcDbTableStyle
  3
ObjectDBX Classes
 90
     4095
280
     0
281
     0
  0
CLASS
  1
SCALE
  2
AcDbScale
  3
ObjectDBX Classes
 90
     1153
280
     0
281
     0
  0
CLASS
  1
MLEADERSTYLE
  2
AcDbMLeaderStyle
  3
ACDB_MLEADERSTYLE_CLASS
 90
     4095
280
     0
281
     0
  0
CLASS
  1
ACDBSECTIONVIEWSTYLE
  2
AcDbSectionViewStyle
  3
ObjectDBX Classes
 90
     1025
280
     0
281
     0
  0
CLASS
  1
ACDBDETAILVIEWSTYLE
  2
AcDbDetailViewStyle
  3
ObjectDBX Classes
 90
     1025
280
     0
281
     0
  0
CLASS
  1
CELLSTYLEMAP
  2
AcDbCellStyleMap
  3
ObjectDBX Classes
 90
     1152
280
     0
281
     0
  0
ENDSEC
  0
SECTION
  2
TABLES
  0
TABLE
  2
VPORT
  5
9F83
330
0
100
AcDbSymbolTable
 70
     1
  0
VPORT
  5
A18F
330
9F83
100
AcDbSymbolTableRecord
100
AcDbViewportTableRecord
  2
*ACTIVE
 70
     0
 10
0.0
 20
0.0
 11
1.0
 21
1.0
 12
328.3871973931324
 22
156.3706691891951
 13
0.0
 23
0.0
 14
10.0
 24
10.0
 15
10.0
 25
10.0
 16
0.0
 26
0.0
 36
1.0
 17
0.0
 27
0.0
 37
0.0
 40
295.0783666242618
 41
2.35006605019815
 42
50.0
 43
0.0
 44
0.0
 50
0.0
 51
0.0
 71
     0
 72
   100
 73
     1
 74
     0
 75
     0
 76
     0
 77
     0
 78
     0
281
     0
 65
     1
110
0.0
120
0.0
130
0.0
111
1.0
121
0.0
131
0.0
112
0.0
122
1.0
132
0.0
 79
     0
146
0.0
1001
ACAD_NAV_VCDISPLAY
1070
     3
  0
ENDTAB
  0
TABLE
  2
LTYPE
  5
9F80
330
0
100
AcDbSymbolTable
 70
     4
  0
LTYPE
  5
9F8E
330
9F80
100
AcDbSymbolTableRecord
100
AcDbLinetypeTableRecord
  2
BYBLOCK
 70
     0
  3

 72
    65
 73
     0
 40
0.0
  0
LTYPE
  5
9F8F
330
9F80
100
AcDbSymbolTableRecord
100
AcDbLinetypeTableRecord
  2
BYLAYER
 70
     0
  3

 72
    65
 73
     0
 40
0.0
  0
LTYPE
  5
9F90
330
9F80
100
AcDbSymbolTableRecord
100
AcDbLinetypeTableRecord
  2
CONTINUOUS
 70
     0
  3
Solid line
 72
    65
 73
     0
 40
0.0
  0
LTYPE
  5
9F9E
330
9F80
100
AcDbSymbolTableRecord
100
AcDbLinetypeTableRecord
  2
DASHED
 70
     0
  3
__ __ __ __ __ __ __ __ __ __ __ __ __ __ __ __
 72
    65
 73
     2
 40
0.75
 49
0.5
 74
     0
 49
-0.25
 74
     0
  0
LTYPE
  5
9F9F
330
9F80
100
AcDbSymbolTableRecord
100
AcDbLinetypeTableRecord
  2
CENTER
 70
     0
  3
____ _ ____ _ ____ _ ____ _ ____ _ ____ _ ____ 
 72
    65
 73
     4
 40
2.0
 49
1.25
 74
     0
 49
-0.25
 74
     0
 49
0.25
 74
     0
 49
-0.25
 74
     0
  0
LTYPE
  5
9FA0
330
9F80
100
AcDbSymbolTableRecord
100
AcDbLinetypeTableRecord
  2
PHANTOM
 70
     0
  3
______  __  __  ______  __  __  ______  __  __ 
 72
    65
 73
     6
 40
2.5
 49
1.25
 74
     0
 49
-0.25
 74
     0
 49
0.25
 74
     0
 49
-0.25
 74
     0
 49
0.25
 74
     0
 49
-0.25
 74
     0
  0
ENDTAB
  0
TABLE
  2
LAYER
  5
9F7D
330
0
100
AcDbSymbolTable
 70
     8
  0
LAYER
  5
9F8B
102
{ACAD_XDICTIONARY
360
A1E8
102
}
330
9F7D
100
AcDbSymbolTableRecord
100
AcDbLayerTableRecord
  2
0
 70
     0
 62
     7
  6
CONTINUOUS
370
    -3
390
A196
  0
LAYER
  5
9FA1
102
{ACAD_XDICTIONARY
360
A1EA
102
}
330
9F7D
100
AcDbSymbolTableRecord
100
AcDbLayerTableRecord
  2
4
 70
     0
 62
     1
  6
CENTER
370
    -3
390
A196
  0
LAYER
  5
9FA2
102
{ACAD_XDICTIONARY
360
A1EC
102
}
330
9F7D
100
AcDbSymbolTableRecord
100
AcDbLayerTableRecord
  2
5
 70
     0
 62
     6
  6
PHANTOM
370
    -3
390
A196
  0
LAYER
  5
9FA3
102
{ACAD_XDICTIONARY
360
A1EE
102
}
330
9F7D
100
AcDbSymbolTableRecord
100
AcDbLayerTableRecord
  2
1
 70
     0
 62
     7
  6
CONTINUOUS
370
    -3
390
A196
  0
LAYER
  5
9FA4
102
{ACAD_XDICTIONARY
360
A1F0
102
}
330
9F7D
100
AcDbSymbolTableRecord
100
AcDbLayerTableRecord
  2
2
 70
     0
 62
     4
  6
CONTINUOUS
370
    -3
390
A196
  0
LAYER
  5
9FA5
102
{ACAD_XDICTIONARY
360
A1F2
102
}
330
9F7D
100
AcDbSymbolTableRecord
100
AcDbLayerTableRecord
  2
3
 70
     0
 62
     2
  6
DASHED
370
    -3
390
A196
  0
LAYER
  5
9FA6
102
{ACAD_XDICTIONARY
360
A1F4
102
}
330
9F7D
100
AcDbSymbolTableRecord
100
AcDbLayerTableRecord
  2
6
 70
     0
 62
     5
  6
CONTINUOUS
370
    -3
390
A196
  0
LAYER
  5
9FA7
102
{ACAD_XDICTIONARY
360
A1F6
102
}
330
9F7D
100
AcDbSymbolTableRecord
100
AcDbLayerTableRecord
  2
7
 70
     0
 62
     3
  6
CONTINUOUS
370
    -3
390
A196
  0
ENDTAB
  0
TABLE
  2
STYLE
  5
9F7E
330
0
100
AcDbSymbolTable
 70
     1
  0
STYLE
  5
9F8C
330
9F7E
100
AcDbSymbolTableRecord
100
AcDbTextStyleTableRecord
  2
STANDARD
 70
     0
 40
0.0
 41
1.0
 50
0.0
 71
     0
 42
5.0
  3
txt
  4

  0
ENDTAB
  0
TABLE
  2
VIEW
  5
9F81
330
0
100
AcDbSymbolTable
 70
     0
  0
ENDTAB
  0
TABLE
  2
UCS
  5
9F82
330
0
100
AcDbSymbolTable
 70
     0
  0
ENDTAB
  0
TABLE
  2
APPID
  5
9F84
330
0
100
AcDbSymbolTable
 70
     3
  0
APPID
  5
9F8D
330
9F84
100
AcDbSymbolTableRecord
100
AcDbRegAppTableRecord
  2
ACAD
 70
     0
  0
APPID
  5
A202
330
9F84
100
AcDbSymbolTableRecord
100
AcDbRegAppTableRecord
  2
ACAD_NAV_VCDISPLAY
 70
     0
  0
APPID
  5
A23B
330
9F84
100
AcDbSymbolTableRecord
100
AcDbRegAppTableRecord
  2
ACAD_MLEADERVER
 70
     0
  0
ENDTAB
  0
TABLE
  2
DIMSTYLE
  5
9F85
330
0
100
AcDbSymbolTable
 70
     1
100
AcDbDimStyleTable
 71
     0
  0
DIMSTYLE
105
9FA9
330
9F85
100
AcDbSymbolTableRecord
100
AcDbDimStyleTableRecord
  2
STANDARD
 70
     0
 41
2.5
 42
1.0
 43
10.0
 44
1.0
 73
     0
 74
     0
 77
     3
 78
     8
140
3.2
141
0.0
147
1.0
172
     1
173
     1
284
     8
285
     8
286
     8
340
9F8C
  0
ENDTAB
  0
TABLE
  2
BLOCK_RECORD
  5
9F7C
330
0
100
AcDbSymbolTable
 70
     0
  0
BLOCK_RECORD
  5
9F99
102
{ACAD_XDICTIONARY
360
A174
102
}
330
9F7C
100
AcDbSymbolTableRecord
100
AcDbBlockTableRecord
  2
*MODEL_SPACE
340
A1E4
  0
BLOCK_RECORD
  5
9F95
102
{ACAD_XDICTIONARY
360
A172
102
}
330
9F7C
100
AcDbSymbolTableRecord
100
AcDbBlockTableRecord
  2
*PAPER_SPACE
340
A1E5
  0
ENDTAB
  0
ENDSEC
  0
SECTION
  2
BLOCKS
  0
BLOCK
  5
9F9A
330
9F99
100
AcDbEntity
  8
0
100
AcDbBlockBegin
  2
*MODEL_SPACE
 70
     0
 10
0.0
 20
0.0
 30
0.0
  3
*MODEL_SPACE
  1

  0
ENDBLK
  5
9F9B
330
9F99
100
AcDbEntity
  8
0
100
AcDbBlockEnd
  0
BLOCK
  5
9F96
330
9F95
100
AcDbEntity
 67
     1
  8
0
100
AcDbBlockBegin
  2
*PAPER_SPACE
 70
     0
 10
0.0
 20
0.0
 30
0.0
  3
*PAPER_SPACE
  1

  0
ENDBLK
  5
9F97
330
9F95
100
AcDbEntity
 67
     1
  8
0
100
AcDbBlockEnd
  0
ENDSEC
  0
SECTION
  2
ENTITIES
  0
TEXT
  5
9FB1
330
9F99
100
AcDbEntity
  8
7
  6
Continuous
100
AcDbText
 10
10.0
 20
18.0
 30
0.0
 40
3.0
  1
TYPE No.TCA-420G-N50
100
AcDbText
  0
TEXT
  5
9FB2
330
9F99
100
AcDbEntity
  8
7
  6
Continuous
100
AcDbText
 10
10.0
 20
26.0
 30
0.0
 40
3.0
  1
CODE No.9716
100
AcDbText
  0
TEXT
  5
9FB3
330
9F99
100
AcDbEntity
  8
1
  6
Continuous
100
AcDbText
 10
10.0
 20
10.0
 30
0.0
 40
1.399999999999999
  1
LAYER
100
AcDbText
  0
TEXT
  5
9FB4
330
9F99
100
AcDbEntity
  8
1
  6
Continuous
100
AcDbText
 10
17.97951099999998
 20
10.04873699999998
 30
0.0
 40
1.399999999999999
  1
1
100
AcDbText
  0
TEXT
  5
9FB5
330
9F99
100
AcDbEntity
  8
7
  6
Continuous
100
AcDbText
 10
29.97951099999999
 20
10.04873699999998
 30
0.0
 40
1.399999999999999
  1
7
100
AcDbText
  0
TEXT
  5
9FB6
330
9F99
100
AcDbEntity
  8
4
  6
CENTER
100
AcDbText
 10
23.97951099999999
 20
10.04873699999998
 30
0.0
 40
1.399999999999999
  1
4
100
AcDbText
  0
TEXT
  5
9FB7
330
9F99
100
AcDbEntity
  8
3
  6
DASHED
100
AcDbText
 10
21.979511
 20
10.04873699999998
 30
0.0
 40
1.399999999999999
  1
3
100
AcDbText
  0
TEXT
  5
9FB8
330
9F99
100
AcDbEntity
  8
2
  6
Continuous
100
AcDbText
 10
19.97951099999998
 20
10.04873699999998
 30
0.0
 40
1.399999999999999
  1
2
100
AcDbText
  0
TEXT
  5
9FB9
330
9F99
100
AcDbEntity
  8
6
  6
Continuous
100
AcDbText
 10
27.979511
 20
10.04873699999998
 30
0.0
 40
1.399999999999999
  1
6
100
AcDbText
  0
TEXT
  5
9FBA
330
9F99
100
AcDbEntity
  8
5
  6
PHANTOM
100
AcDbText
 10
25.97951099999999
 20
10.04873699999998
 30
0.0
 40
1.399999999999999
  1
5
100
AcDbText
  0
LINE
  5
9FBB
330
9F99
100
AcDbEntity
  8
4
  6
CENTER
 48
0.5
100
AcDbLine
 10
49.885505
 20
205.229622
 30
0.0
 11
49.885505
 21
130.229622
 31
0.0
  0
LINE
  5
9FBC
330
9F99
100
AcDbEntity
  8
4
  6
CENTER
 48
0.5
100
AcDbLine
 10
166.385505
 20
205.229622
 30
0.0
 11
166.385505
 21
169.459281
 31
0.0
  0
LINE
  5
9FBD
330
9F99
100
AcDbEntity
  8
1
  6
Continuous
100
AcDbLine
 10
166.385505
 20
279.729614
 30
0.0
 11
166.385505
 21
268.729561
 31
0.0
  0
LINE
  5
9FBE
330
9F99
100
AcDbEntity
  8
1
  6
Continuous
100
AcDbLine
 10
160.885505
 20
274.229622
 30
0.0
 11
171.8855429999999
 21
274.229622
 31
0.0
  0
LINE
  5
9FBF
330
9F99
100
AcDbEntity
  8
1
  6
Continuous
100
AcDbLine
 10
171.2116039999999
 20
273.6296199999999
 30
0.0
 11
167.985507
 21
273.6296199999999
 31
0.0
  0
LINE
  5
9FC0
330
9F99
100
AcDbEntity
  8
1
  6
Continuous
100
AcDbLine
 10
166.985507
 20
272.6296199999999
 30
0.0
 11
166.985507
 21
269.403523
 31
0.0
  0
LINE
  5
9FC1
330
9F99
100
AcDbEntity
  8
1
  6
Continuous
100
AcDbLine
 10
166.38549
 20
274.229607
 30
0.0
 11
167.2783839999999
 21
273.336712
 31
0.0
  0
LINE
  5
9FC2
330
9F99
100
AcDbEntity
  8
1
  6
Continuous
100
AcDbLine
 10
166.385482
 20
268.7295649999999
 30
0.0
 11
167.6354739999998
 21
268.1675489999999
 31
0.0
  0
LINE
  5
9FC3
330
9F99
100
AcDbEntity
  8
1
  6
Continuous
100
AcDbLine
 10
172.447559
 20
272.979641
 30
0.0
 11
171.8855389999999
 21
274.229637
 31
0.0
  0
LINE
  5
9FC4
330
9F99
100
AcDbEntity
  8
1
  6
Continuous
100
AcDbLine
 10
166.9855029999999
 20
279.055721
 30
0.0
 11
166.9855029999999
 21
275.8296199999999
 31
0.0
  0
LINE
  5
9FC5
330
9F99
100
AcDbEntity
  8
1
  6
Continuous
100
AcDbLine
 10
167.9855029999997
 20
274.8296199999999
 30
0.0
 11
171.2116039999999
 21
274.8296199999999
 31
0.0
  0
LINE
  5
9FC6
330
9F99
100
AcDbEntity
  8
1
  6
Continuous
100
AcDbLine
 10
166.385505
 20
274.229622
 30
0.0
 11
167.2783959999998
 21
275.1225129999999
 31
0.0
  0
LINE
  5
9FC7
330
9F99
100
AcDbEntity
  8
1
  6
Continuous
100
AcDbLine
 10
171.885501
 20
274.229622
 30
0.0
 11
172.447521
 21
275.4796259999998
 31
0.0
  0
LINE
  5
9FC8
330
9F99
100
AcDbEntity
  8
1
  6
Continuous
100
AcDbLine
 10
167.6355009999998
 20
280.2916339999999
 30
0.0
 11
166.3854969999999
 21
279.729614
 31
0.0
  0
LINE
  5
9FC9
330
9F99
100
AcDbEntity
  8
1
  6
Continuous
100
AcDbLine
 10
161.559406
 20
274.8296169999999
 30
0.0
 11
164.785503
 21
274.8296169999999
 31
0.0
  0
LINE
  5
9FCA
330
9F99
100
AcDbEntity
  8
1
  6
Continuous
100
AcDbLine
 10
165.785503
 20
275.8296169999999
 30
0.0
 11
165.785503
 21
279.055721
 31
0.0
  0
LINE
  5
9FCB
330
9F99
100
AcDbEntity
  8
1
  6
Continuous
100
AcDbLine
 10
166.385505
 20
274.229622
 30
0.0
 11
165.492614
 21
275.122517
 31
0.0
  0
LINE
  5
9FCC
330
9F99
100
AcDbEntity
  8
1
  6
Continuous
100
AcDbLine
 10
166.385471
 20
279.7295759999999
 30
0.0
 11
165.1354739999999
 21
280.2915919999999
 31
0.0
  0
LINE
  5
9FCD
330
9F99
100
AcDbEntity
  8
1
  6
Continuous
100
AcDbLine
 10
160.3234889999999
 20
275.4796259999998
 30
0.0
 11
160.885509
 21
274.229622
 31
0.0
  0
LINE
  5
9FCE
330
9F99
100
AcDbEntity
  8
1
  6
Continuous
100
AcDbLine
 10
165.785507
 20
269.403523
 30
0.0
 11
165.785507
 21
272.6296159999999
 31
0.0
  0
LINE
  5
9FCF
330
9F99
100
AcDbEntity
  8
1
  6
Continuous
100
AcDbLine
 10
164.785507
 20
273.629616
 30
0.0
 11
161.559406
 21
273.629616
 31
0.0
  0
LINE
  5
9FD0
330
9F99
100
AcDbEntity
  8
1
  6
Continuous
100
AcDbLine
 10
166.3854969999999
 20
274.229614
 30
0.0
 11
165.49261
 21
273.336727
 31
0.0
  0
LINE
  5
9FD1
330
9F99
100
AcDbEntity
  8
1
  6
Continuous
100
AcDbLine
 10
160.8854969999998
 20
274.229614
 30
0.0
 11
160.323482
 21
272.979618
 31
0.0
  0
LINE
  5
9FD2
330
9F99
100
AcDbEntity
  8
1
  6
Continuous
100
AcDbLine
 10
165.135505
 20
268.167618
 30
0.0
 11
166.385505
 21
268.729637
 31
0.0
  0
LINE
  5
9FD3
330
9F99
100
AcDbEntity
  8
4
  6
CENTER
 48
0.5
100
AcDbLine
 10
189.3855049999999
 20
252.729624
 30
0.0
 11
189.3855049999999
 21
260.729622
 31
0.0
  0
LINE
  5
9FD4
330
9F99
100
AcDbEntity
  8
4
  6
CENTER
 48
0.5
100
AcDbLine
 10
193.385505
 20
256.729622
 30
0.0
 11
185.3855049999999
 21
256.729622
 31
0.0
  0
LINE
  5
9FD5
330
9F99
100
AcDbEntity
  8
4
  6
CENTER
 48
0.5
100
AcDbLine
 10
189.3855049999999
 20
295.7296219999999
 30
0.0
 11
189.3855049999999
 21
287.729622
 31
0.0
  0
LINE
  5
9FD6
330
9F99
100
AcDbEntity
  8
4
  6
CENTER
 48
0.5
100
AcDbLine
 10
193.385505
 20
291.729622
 30
0.0
 11
185.3855049999999
 21
291.729622
 31
0.0
  0
LINE
  5
9FD7
330
9F99
100
AcDbEntity
  8
1
  6
Continuous
100
AcDbLine
 10
143.3855069999999
 20
250.729622
 30
0.0
 11
189.3855049999999
 21
250.729622
 31
0.0
  0
LINE
  5
9FD8
330
9F99
100
AcDbEntity
  8
4
  6
CENTER
 48
0.5
100
AcDbLine
 10
143.385505
 20
252.72962
 30
0.0
 11
143.385505
 21
260.729622
 31
0.0
  0
LINE
  5
9FD9
330
9F99
100
AcDbEntity
  8
4
  6
CENTER
 48
0.5
100
AcDbLine
 10
139.3855069999998
 20
256.729622
 30
0.0
 11
147.3855069999999
 21
256.729622
 31
0.0
  0
LINE
  5
9FDA
330
9F99
100
AcDbEntity
  8
1
  6
Continuous
100
AcDbLine
 10
143.3855029999998
 20
297.7296219999999
 30
0.0
 11
189.3855049999999
 21
297.7296219999999
 31
0.0
  0
LINE
  5
9FDB
330
9F99
100
AcDbEntity
  8
4
  6
CENTER
 48
0.5
100
AcDbLine
 10
143.385505
 20
295.7296219999999
 30
0.0
 11
143.385505
 21
287.729622
 31
0.0
  0
LINE
  5
9FDC
330
9F99
100
AcDbEntity
  8
4
  6
CENTER
 48
0.5
100
AcDbLine
 10
139.385503
 20
291.729622
 30
0.0
 11
147.3855029999997
 21
291.729622
 31
0.0
  0
LINE
  5
9FDD
330
9F99
100
AcDbEntity
  8
4
  6
CENTER
 48
0.5
100
AcDbLine
 10
120.385505
 20
274.229622
 30
0.0
 11
198.315005
 21
274.229622
 31
0.0
  0
LINE
  5
9FDE
330
9F99
100
AcDbEntity
  8
4
  6
CENTER
 48
0.5
100
AcDbLine
 10
166.385505
 20
302.729622
 30
0.0
 11
166.385505
 21
245.7296219999999
 31
0.0
  0
LINE
  5
9FDF
330
9F99
100
AcDbEntity
  8
1
  6
Continuous
100
AcDbLine
 10
136.885505
 20
200.229622
 30
0.0
 11
195.885505
 21
200.229622
 31
0.0
  0
LINE
  5
9FE0
330
9F99
100
AcDbEntity
  8
1
  6
Continuous
100
AcDbLine
 10
136.885505
 20
198.4296229999999
 30
0.0
 11
195.885505
 21
198.4296229999999
 31
0.0
  0
LINE
  5
9FE1
330
9F99
100
AcDbEntity
  8
1
  6
Continuous
100
AcDbLine
 10
147.2438389999998
 20
195.4296219999999
 30
0.0
 11
185.530635
 21
195.4296219999999
 31
0.0
  0
LINE
  5
9FE2
330
9F99
100
AcDbEntity
  8
1
  6
Continuous
100
AcDbLine
 10
136.885505
 20
198.4296249999999
 30
0.0
 11
136.885505
 21
200.229624
 31
0.0
  0
LINE
  5
9FE3
330
9F99
100
AcDbEntity
  8
1
  6
Continuous
100
AcDbLine
 10
195.885505
 20
198.429621
 30
0.0
 11
195.885505
 21
200.229622
 31
0.0
  0
LINE
  5
9FE4
330
9F99
100
AcDbEntity
  8
1
  6
Continuous
100
AcDbLine
 10
30.74384199999999
 20
195.4296219999999
 30
0.0
 11
69.030635
 21
195.4296219999999
 31
0.0
  0
LINE
  5
9FE5
330
9F99
100
AcDbEntity
  8
1
  6
Continuous
100
AcDbLine
 10
73.38550500000002
 20
200.229622
 30
0.0
 11
73.38550500000002
 21
198.4296229999999
 31
0.0
  0
LINE
  5
9FE6
330
9F99
100
AcDbEntity
  8
4
  6
CENTER
 48
0.5
100
AcDbLine
 10
67.38550500000001
 20
205.229622
 30
0.0
 11
67.38550500000001
 21
193.4296229999999
 31
0.0
  0
LINE
  5
9FE7
330
9F99
100
AcDbEntity
  8
1
  6
Continuous
100
AcDbLine
 10
26.385505
 20
200.229622
 30
0.0
 11
73.38550500000002
 21
200.229622
 31
0.0
  0
LINE
  5
9FE8
330
9F99
100
AcDbEntity
  8
1
  6
Continuous
100
AcDbLine
 10
26.385505
 20
198.4296229999999
 30
0.0
 11
73.38550500000002
 21
198.4296229999999
 31
0.0
  0
LINE
  5
9FE9
330
9F99
100
AcDbEntity
  8
4
  6
CENTER
 48
0.5
100
AcDbLine
 10
32.385505
 20
205.229622
 30
0.0
 11
32.385505
 21
193.4296229999999
 31
0.0
  0
LINE
  5
9FEA
330
9F99
100
AcDbEntity
  8
1
  6
Continuous
100
AcDbLine
 10
26.385505
 20
200.229622
 30
0.0
 11
26.385505
 21
198.4296229999999
 31
0.0
  0
LINE
  5
9FEB
330
9F99
100
AcDbEntity
  8
1
  6
Continuous
100
AcDbLine
 10
145.6355049999999
 20
191.129627
 30
0.0
 11
145.6355049999999
 21
190.812225
 31
0.0
  0
LINE
  5
9FEC
330
9F99
100
AcDbEntity
  8
1
  6
Continuous
100
AcDbLine
 10
156.989879
 20
155.7148929999998
 30
0.0
 11
176.1196239999999
 21
183.698835
 31
0.0
  0
LINE
  5
9FED
330
9F99
100
AcDbEntity
  8
1
  6
Continuous
100
AcDbLine
 10
150.885505
 20
190.047253
 30
0.0
 11
150.885505
 21
167.552502
 31
0.0
  0
LINE
  5
9FEE
330
9F99
100
AcDbEntity
  8
1
  6
Continuous
100
AcDbLine
 10
145.9332499999999
 20
187.9987679999999
 30
0.0
 11
144.748399
 21
189.0939099999999
 31
0.0
  0
LINE
  5
9FEF
330
9F99
100
AcDbEntity
  8
1
  6
Continuous
100
AcDbLine
 10
144.716922
 20
189.796452
 30
0.0
 11
148.635509
 21
194.12962
 31
0.0
  0
LINE
  5
9FF0
330
9F99
100
AcDbEntity
  8
1
  6
Continuous
100
AcDbLine
 10
145.9332399999999
 20
187.99877
 30
0.0
 11
142.452449
 21
161.262425
 31
0.0
  0
LINE
  5
9FF1
330
9F99
100
AcDbEntity
  8
1
  6
Continuous
100
AcDbLine
 10
148.635505
 20
194.129627
 30
0.0
 11
184.1355049999999
 21
194.129627
 31
0.0
  0
LINE
  5
9FF2
330
9F99
100
AcDbEntity
  8
4
  6
CENTER
 48
0.5
100
AcDbLine
 10
150.385505
 20
189.229622
 30
0.0
 11
150.385505
 21
131.2296139999999
 31
0.0
  0
LINE
  5
9FF3
330
9F99
100
AcDbEntity
  8
4
  6
CENTER
 48
0.5
100
AcDbLine
 10
121.385505
 20
160.229622
 30
0.0
 11
179.3855049999999
 21
160.229622
 31
0.0
  0
LINE
  5
9FF4
330
9F99
100
AcDbEntity
  8
1
  6
Continuous
100
AcDbLine
 10
32.135505
 20
194.129627
 30
0.0
 11
67.635505
 21
194.129627
 31
0.0
  0
LINE
  5
9FF5
330
9F99
100
AcDbEntity
  8
1
  6
Continuous
100
AcDbLine
 10
29.13550499999999
 20
191.129627
 30
0.0
 11
29.13550499999999
 21
169.459339
 31
0.0
  0
LINE
  5
9FF6
330
9F99
100
AcDbEntity
  8
1
  6
Continuous
100
AcDbLine
 10
41.885505
 20
191.303227
 30
0.0
 11
41.885505
 21
186.7296259999999
 31
0.0
  0
LINE
  5
9FF7
330
9F99
100
AcDbEntity
  8
1
  6
Continuous
100
AcDbLine
 10
70.63550500000002
 20
191.129627
 30
0.0
 11
70.63550500000002
 21
169.459339
 31
0.0
  0
LINE
  5
9FF8
330
9F99
100
AcDbEntity
  8
1
  6
Continuous
100
AcDbLine
 10
57.885505
 20
191.303227
 30
0.0
 11
57.885505
 21
186.7296259999999
 31
0.0
  0
LINE
  5
9FF9
330
9F99
100
AcDbEntity
  8
1
  6
Continuous
100
AcDbLine
 10
36.885505
 20
186.950756
 30
0.0
 11
36.885505
 21
152.229626
 31
0.0
  0
LINE
  5
9FFA
330
9F99
100
AcDbEntity
  8
1
  6
Continuous
100
AcDbLine
 10
62.885505
 20
186.950756
 30
0.0
 11
62.885505
 21
152.229626
 31
0.0
  0
LINE
  5
9FFB
330
9F99
100
AcDbEntity
  8
1
  6
Continuous
100
AcDbLine
 10
34.885505
 20
152.229626
 30
0.0
 11
36.885505
 21
152.229626
 31
0.0
  0
LINE
  5
9FFC
330
9F99
100
AcDbEntity
  8
1
  6
Continuous
100
AcDbLine
 10
64.88550500000001
 20
187.629627
 30
0.0
 11
64.88550500000001
 21
152.229626
 31
0.0
  0
LINE
  5
9FFD
330
9F99
100
AcDbEntity
  8
1
  6
Continuous
100
AcDbLine
 10
34.885505
 20
187.629627
 30
0.0
 11
34.885505
 21
152.229626
 31
0.0
  0
LINE
  5
9FFE
330
9F99
100
AcDbEntity
  8
1
  6
Continuous
100
AcDbLine
 10
62.885505
 20
152.229626
 30
0.0
 11
64.88550500000001
 21
152.229626
 31
0.0
  0
LINE
  5
9FFF
330
9F99
100
AcDbEntity
  8
4
  6
CENTER
 48
0.5
100
AcDbLine
 10
27.68550799999999
 20
160.229622
 30
0.0
 11
72.48550299999998
 21
160.229622
 31
0.0
  0
LINE
  5
A000
330
9F99
100
AcDbEntity
  8
1
  6
Continuous
100
AcDbLine
 10
67.48550300000001
 20
161.32962
 30
0.0
 11
67.48550300000001
 21
159.129624
 31
0.0
  0
LINE
  5
A001
330
9F99
100
AcDbEntity
  8
1
  6
Continuous
100
AcDbLine
 10
36.885505
 20
156.979622
 30
0.0
 11
37.885505
 21
156.979622
 31
0.0
  0
LINE
  5
A002
330
9F99
100
AcDbEntity
  8
1
  6
Continuous
100
AcDbLine
 10
36.885505
 20
163.479622
 30
0.0
 11
37.885505
 21
163.479622
 31
0.0
  0
LINE
  5
A003
330
9F99
100
AcDbEntity
  8
1
  6
Continuous
100
AcDbLine
 10
34.58550199999999
 20
164.502941
 30
0.0
 11
34.58550199999999
 21
155.9563029999999
 31
0.0
  0
LINE
  5
A004
330
9F99
100
AcDbEntity
  8
1
  6
Continuous
100
AcDbLine
 10
33.885505
 20
198.4296289999998
 30
0.0
 11
35.885238
 21
196.993122
 31
0.0
  0
LINE
  5
A005
330
9F99
100
AcDbEntity
  8
1
  6
Continuous
100
AcDbLine
 10
39.38548200000001
 20
198.4296359999999
 30
0.0
 11
38.49702399999999
 21
196.9219439999999
 31
0.0
  0
LINE
  5
A006
330
9F99
100
AcDbEntity
  8
1
  6
Continuous
100
AcDbLine
 10
65.885497
 20
198.4296309999997
 30
0.0
 11
63.885764
 21
196.993124
 31
0.0
  0
LINE
  5
A007
330
9F99
100
AcDbEntity
  8
1
  6
Continuous
100
AcDbLine
 10
60.385501
 20
198.429611
 30
0.0
 11
61.273963
 21
196.921919
 31
0.0
  0
LINE
  5
A008
330
9F99
100
AcDbEntity
  8
1
  6
Continuous
100
AcDbLine
 10
151.08551
 20
198.429619
 30
0.0
 11
150.8691149999999
 21
197.2492909999998
 31
0.0
  0
LINE
  5
A009
330
9F99
100
AcDbEntity
  8
1
  6
Continuous
100
AcDbLine
 10
146.885509
 20
198.429619
 30
0.0
 11
148.552175
 21
196.938906
 31
0.0
  0
LINE
  5
A00A
330
9F99
100
AcDbEntity
  8
1
  6
Continuous
100
AcDbLine
 10
181.6855119999999
 20
198.4296249999999
 30
0.0
 11
181.9019079999999
 21
197.2492959999999
 31
0.0
  0
LINE
  5
A00B
330
9F99
100
AcDbEntity
  8
1
  6
Continuous
100
AcDbLine
 10
185.885516
 20
198.4296139999999
 30
0.0
 11
184.218849
 21
196.938902
 31
0.0
  0
LINE
  5
A00C
330
9F99
100
AcDbEntity
  8
1
  6
Continuous
100
AcDbLine
 10
61.885505
 20
163.479622
 30
0.0
 11
62.885505
 21
163.479622
 31
0.0
  0
LINE
  5
A00D
330
9F99
100
AcDbEntity
  8
1
  6
Continuous
100
AcDbLine
 10
61.885505
 20
156.979622
 30
0.0
 11
62.885505
 21
156.979622
 31
0.0
  0
LINE
  5
A00E
330
9F99
100
AcDbEntity
  8
4
  6
CENTER
 48
0.5
100
AcDbLine
 10
189.3855049999999
 20
205.229622
 30
0.0
 11
189.3855049999999
 21
193.4296229999999
 31
0.0
  0
LINE
  5
A00F
330
9F99
100
AcDbEntity
  8
4
  6
CENTER
 48
0.5
100
AcDbLine
 10
143.385505
 20
205.229622
 30
0.0
 11
143.385505
 21
193.4296229999999
 31
0.0
  0
ARC
  5
A010
330
9F99
100
AcDbEntity
  8
1
  6
Continuous
100
AcDbCircle
 10
161.559406
 20
276.3296199999999
 30
0.0
 40
1.5
100
AcDbArc
 50
214.51823
 51
269.9999599999998
  0
ARC
  5
A011
330
9F99
100
AcDbEntity
  8
1
  6
Continuous
100
AcDbCircle
 10
161.559406
 20
272.129624
 30
0.0
 40
1.5
100
AcDbArc
 50
90.00000900000001
 51
145.48158
  0
ARC
  5
A012
330
9F99
100
AcDbEntity
  8
1
  6
Continuous
100
AcDbCircle
 10
164.2855069999999
 20
269.403523
 30
0.0
 40
1.5
100
AcDbArc
 50
304.5182199999998
 51
359.9999599999999
  0
ARC
  5
A013
330
9F99
100
AcDbEntity
  8
1
  6
Continuous
100
AcDbCircle
 10
171.2116039999999
 20
272.129624
 30
0.0
 40
1.5
100
AcDbArc
 50
34.518219
 51
89.999955
  0
ARC
  5
A014
330
9F99
100
AcDbEntity
  8
1
  6
Continuous
100
AcDbCircle
 10
168.485503
 20
269.403523
 30
0.0
 40
1.5
100
AcDbArc
 50
180.00001
 51
235.4815899999999
  0
ARC
  5
A015
330
9F99
100
AcDbEntity
  8
1
  6
Continuous
100
AcDbCircle
 10
171.2116039999999
 20
276.3296199999999
 30
0.0
 40
1.5
100
AcDbArc
 50
270.00002
 51
325.48159
  0
ARC
  5
A016
330
9F99
100
AcDbEntity
  8
1
  6
Continuous
100
AcDbCircle
 10
168.485503
 20
279.055721
 30
0.0
 40
1.5
100
AcDbArc
 50
124.51821
 51
179.9999599999999
  0
ARC
  5
A017
330
9F99
100
AcDbEntity
  8
1
  6
Continuous
100
AcDbCircle
 10
164.2855069999999
 20
279.055721
 30
0.0
 40
1.5
100
AcDbArc
 50
0.000014
 51
55.481586
  0
ARC
  5
A018
330
9F99
100
AcDbEntity
  8
1
  6
Continuous
100
AcDbCircle
 10
166.385505
 20
274.229622
 30
0.0
 40
6.25
100
AcDbArc
 50
12.41090699999999
 51
77.58905699999998
  0
ARC
  5
A019
330
9F99
100
AcDbEntity
  8
1
  6
Continuous
100
AcDbCircle
 10
189.3855049999999
 20
257.229622
 30
0.0
 40
6.5
100
AcDbArc
 50
270.0
 51
17.19667499999999
  0
ARC
  5
A01A
330
9F99
100
AcDbEntity
  8
1
  6
Continuous
100
AcDbCircle
 10
244.3150049999999
 20
274.22963
 30
0.0
 40
51.0
100
AcDbArc
 50
162.797179
 51
197.19666
  0
CIRCLE
  5
A01B
330
9F99
100
AcDbEntity
  8
1
  6
Continuous
100
AcDbCircle
 10
189.3855049999999
 20
256.729622
 30
0.0
 40
3.25
  0
ARC
  5
A01C
330
9F99
100
AcDbEntity
  8
1
  6
Continuous
100
AcDbCircle
 10
189.3855049999999
 20
291.2296219999999
 30
0.0
 40
6.5
100
AcDbArc
 50
342.8032999999998
 51
89.99996800000003
  0
CIRCLE
  5
A01D
330
9F99
100
AcDbEntity
  8
1
  6
Continuous
100
AcDbCircle
 10
189.3855049999999
 20
291.729622
 30
0.0
 40
3.25
  0
ARC
  5
A01E
330
9F99
100
AcDbEntity
  8
1
  6
Continuous
100
AcDbCircle
 10
143.3855069999999
 20
257.229622
 30
0.0
 40
6.5
100
AcDbArc
 50
162.80327
 51
269.99995
  0
CIRCLE
  5
A01F
330
9F99
100
AcDbEntity
  8
1
  6
Continuous
100
AcDbCircle
 10
143.3855069999999
 20
256.729622
 30
0.0
 40
3.25
  0
ARC
  5
A020
330
9F99
100
AcDbEntity
  8
1
  6
Continuous
100
AcDbCircle
 10
143.3855029999998
 20
291.2296219999999
 30
0.0
 40
6.5
100
AcDbArc
 50
89.99998199999996
 51
197.1965999999999
  0
CIRCLE
  5
A021
330
9F99
100
AcDbEntity
  8
1
  6
Continuous
100
AcDbCircle
 10
143.3855029999998
 20
291.729622
 30
0.0
 40
3.25
  0
CIRCLE
  5
A022
330
9F99
100
AcDbEntity
  8
1
  6
Continuous
100
AcDbCircle
 10
166.385505
 20
274.229622
 30
0.0
 40
9.5
  0
CIRCLE
  5
A023
330
9F99
100
AcDbEntity
  8
1
  6
Continuous
100
AcDbCircle
 10
166.385505
 20
274.229622
 30
0.0
 40
19.75
  0
CIRCLE
  5
A024
330
9F99
100
AcDbEntity
  8
1
  6
Continuous
100
AcDbCircle
 10
166.385505
 20
274.229622
 30
0.0
 40
18.25
  0
ARC
  5
A025
330
9F99
100
AcDbEntity
  8
1
  6
Continuous
100
AcDbCircle
 10
166.385505
 20
274.229622
 30
0.0
 40
6.25
100
AcDbArc
 50
102.41171
 51
167.7883399999998
  0
ARC
  5
A026
330
9F99
100
AcDbEntity
  8
1
  6
Continuous
100
AcDbCircle
 10
166.385505
 20
274.229622
 30
0.0
 40
6.25
100
AcDbArc
 50
192.4108199999998
 51
257.58893
  0
ARC
  5
A027
330
9F99
100
AcDbEntity
  8
1
  6
Continuous
100
AcDbCircle
 10
166.385505
 20
274.229622
 30
0.0
 40
6.25
100
AcDbArc
 50
282.41001
 51
347.58966
  0
ARC
  5
A028
330
9F99
100
AcDbEntity
  8
1
  6
Continuous
100
AcDbCircle
 10
167.9855029999997
 20
275.8296199999999
 30
0.0
 40
1.0
100
AcDbArc
 50
179.9999799999999
 51
270.0000299999999
  0
ARC
  5
A029
330
9F99
100
AcDbEntity
  8
1
  6
Continuous
100
AcDbCircle
 10
167.985507
 20
272.6296199999999
 30
0.0
 40
1.0
100
AcDbArc
 50
89.99998199999996
 51
179.9999599999999
  0
ARC
  5
A02A
330
9F99
100
AcDbEntity
  8
1
  6
Continuous
100
AcDbCircle
 10
164.785507
 20
272.6296159999999
 30
0.0
 40
1.0
100
AcDbArc
 50
0.0
 51
89.99998199999996
  0
ARC
  5
A02B
330
9F99
100
AcDbEntity
  8
1
  6
Continuous
100
AcDbCircle
 10
164.785503
 20
275.8296169999999
 30
0.0
 40
1.0
100
AcDbArc
 50
270.00002
 51
0.0
  0
ARC
  5
A02C
330
9F99
100
AcDbEntity
  8
1
  6
Continuous
100
AcDbCircle
 10
143.3246549999998
 20
197.4296249999999
 30
0.0
 40
1.0
100
AcDbArc
 50
11.537002
 51
89.99999599999998
  0
ARC
  5
A02D
330
9F99
100
AcDbEntity
  8
1
  6
Continuous
100
AcDbCircle
 10
147.064674
 20
198.253881
 30
0.0
 40
2.829934
100
AcDbArc
 50
192.7437319999999
 51
273.629812
  0
ARC
  5
A02E
330
9F99
100
AcDbEntity
  8
1
  6
Continuous
100
AcDbCircle
 10
189.446357
 20
197.429621
 30
0.0
 40
1.0
100
AcDbArc
 50
89.999941
 51
168.46293
  0
ARC
  5
A02F
330
9F99
100
AcDbEntity
  8
1
  6
Continuous
100
AcDbCircle
 10
185.7063349999999
 20
198.2538769999999
 30
0.0
 40
2.829934999999998
100
AcDbArc
 50
266.3701279999999
 51
347.2562149999998
  0
ARC
  5
A030
330
9F99
100
AcDbEntity
  8
1
  6
Continuous
100
AcDbCircle
 10
178.830287
 20
195.4297099999998
 30
0.0
 40
3.821803
100
AcDbArc
 50
340.11244
 51
0.028687
  0
ARC
  5
A031
330
9F99
100
AcDbEntity
  8
1
  6
Continuous
100
AcDbCircle
 10
165.3417029999999
 20
195.4297109999999
 30
0.0
 40
3.821801999999998
100
AcDbArc
 50
340.112418
 51
0.028687
  0
ARC
  5
A032
330
9F99
100
AcDbEntity
  8
1
  6
Continuous
100
AcDbCircle
 10
171.822585
 20
195.231625
 30
0.0
 40
2.778
100
AcDbArc
 50
191.87571
 51
203.371264
  0
ARC
  5
A033
330
9F99
100
AcDbEntity
  8
1
  6
Continuous
100
AcDbCircle
 10
175.2949499999997
 20
195.4297109999999
 30
0.0
 40
3.821801999999998
100
AcDbArc
 50
340.112418
 51
0.028687
  0
ARC
  5
A034
330
9F99
100
AcDbEntity
  8
1
  6
Continuous
100
AcDbCircle
 10
178.1252609999999
 20
195.4297109999999
 30
0.0
 40
3.821801999999998
100
AcDbArc
 50
340.112418
 51
0.028687
  0
ARC
  5
A035
330
9F99
100
AcDbEntity
  8
1
  6
Continuous
100
AcDbCircle
 10
153.940721
 20
195.4297099999998
 30
0.0
 40
3.821801999999998
100
AcDbArc
 50
179.971279
 51
199.887565
  0
ARC
  5
A036
330
9F99
100
AcDbEntity
  8
1
  6
Continuous
100
AcDbCircle
 10
167.4293049999999
 20
195.4297109999999
 30
0.0
 40
3.821799999999998
100
AcDbArc
 50
179.971279
 51
199.887587
  0
ARC
  5
A037
330
9F99
100
AcDbEntity
  8
1
  6
Continuous
100
AcDbCircle
 10
161.994168
 20
195.430048
 30
0.0
 40
3.823742999999998
100
AcDbArc
 50
180.0063729999999
 51
199.8824319999999
  0
ARC
  5
A038
330
9F99
100
AcDbEntity
  8
1
  6
Continuous
100
AcDbCircle
 10
157.4760599999999
 20
195.4297109999999
 30
0.0
 40
3.821799999999998
100
AcDbArc
 50
179.971279
 51
199.887587
  0
ARC
  5
A039
330
9F99
100
AcDbEntity
  8
1
  6
Continuous
100
AcDbCircle
 10
154.645747
 20
195.4297109999999
 30
0.0
 40
3.821799999999998
100
AcDbArc
 50
179.971279
 51
199.887587
  0
ARC
  5
A03A
330
9F99
100
AcDbEntity
  8
1
  6
Continuous
100
AcDbCircle
 10
26.824653
 20
197.4296249999999
 30
0.0
 40
1.0
100
AcDbArc
 50
11.537002
 51
89.99999599999998
  0
ARC
  5
A03B
330
9F99
100
AcDbEntity
  8
1
  6
Continuous
100
AcDbCircle
 10
30.56467700000001
 20
198.253881
 30
0.0
 40
2.829934
100
AcDbArc
 50
192.7437319999999
 51
273.629812
  0
ARC
  5
A03C
330
9F99
100
AcDbEntity
  8
1
  6
Continuous
100
AcDbCircle
 10
72.94635699999997
 20
197.429621
 30
0.0
 40
1.0
100
AcDbArc
 50
89.999941
 51
168.46293
  0
ARC
  5
A03D
330
9F99
100
AcDbEntity
  8
1
  6
Continuous
100
AcDbCircle
 10
69.206335
 20
198.2538769999999
 30
0.0
 40
2.829934999999998
100
AcDbArc
 50
266.3701279999999
 51
347.2562149999998
  0
ARC
  5
A03E
330
9F99
100
AcDbEntity
  8
1
  6
Continuous
100
AcDbCircle
 10
62.330287
 20
195.4297099999998
 30
0.0
 40
3.821803
100
AcDbArc
 50
340.11244
 51
0.028687
  0
ARC
  5
A03F
330
9F99
100
AcDbEntity
  8
1
  6
Continuous
100
AcDbCircle
 10
48.841703
 20
195.4297109999999
 30
0.0
 40
3.821801999999998
100
AcDbArc
 50
340.112418
 51
0.028687
  0
ARC
  5
A040
330
9F99
100
AcDbEntity
  8
1
  6
Continuous
100
AcDbCircle
 10
57.58034099999999
 20
195.6232599999999
 30
0.0
 40
5.034498999999998
100
AcDbArc
 50
188.720667
 51
197.2582749999999
  0
ARC
  5
A041
330
9F99
100
AcDbEntity
  8
1
  6
Continuous
100
AcDbCircle
 10
58.79495
 20
195.4297109999999
 30
0.0
 40
3.821801999999998
100
AcDbArc
 50
340.112418
 51
0.028687
  0
ARC
  5
A042
330
9F99
100
AcDbEntity
  8
1
  6
Continuous
100
AcDbCircle
 10
61.625261
 20
195.4297109999999
 30
0.0
 40
3.821801999999998
100
AcDbArc
 50
340.112418
 51
0.028687
  0
ARC
  5
A043
330
9F99
100
AcDbEntity
  8
1
  6
Continuous
100
AcDbCircle
 10
37.44072
 20
195.4297099999998
 30
0.0
 40
3.821801999999998
100
AcDbArc
 50
179.971279
 51
199.887565
  0
ARC
  5
A044
330
9F99
100
AcDbEntity
  8
1
  6
Continuous
100
AcDbCircle
 10
50.929305
 20
195.4297109999999
 30
0.0
 40
3.821799999999998
100
AcDbArc
 50
179.971279
 51
199.887587
  0
ARC
  5
A045
330
9F99
100
AcDbEntity
  8
1
  6
Continuous
100
AcDbCircle
 10
45.494168
 20
195.430048
 30
0.0
 40
3.823742999999998
100
AcDbArc
 50
180.0063729999999
 51
199.8824319999999
  0
ARC
  5
A046
330
9F99
100
AcDbEntity
  8
1
  6
Continuous
100
AcDbCircle
 10
40.976058
 20
195.4297109999999
 30
0.0
 40
3.821799999999998
100
AcDbArc
 50
179.971279
 51
199.887587
  0
ARC
  5
A047
330
9F99
100
AcDbEntity
  8
1
  6
Continuous
100
AcDbCircle
 10
38.14575099999998
 20
195.4297109999999
 30
0.0
 40
3.821799999999998
100
AcDbArc
 50
179.971279
 51
199.887587
  0
ARC
  5
A048
330
9F99
100
AcDbEntity
  8
1
  6
Continuous
100
AcDbCircle
 10
181.8855049999999
 20
179.7296259999999
 30
0.0
 40
7.0
100
AcDbArc
 50
85.62877699999999
 51
145.64362
  0
ARC
  5
A049
330
9F99
100
AcDbEntity
  8
1
  6
Continuous
100
AcDbCircle
 10
150.385505
 20
160.229622
 30
0.0
 40
8.0
100
AcDbArc
 50
172.58243
 51
325.6435799999998
  0
ARC
  5
A04A
330
9F99
100
AcDbEntity
  8
1
  6
Continuous
100
AcDbCircle
 10
165.8855049999999
 20
176.556759
 30
0.0
 40
15.0
100
AcDbArc
 50
210.4019899999999
 51
252.7735999999999
  0
ARC
  5
A04B
330
9F99
100
AcDbEntity
  8
1
  6
Continuous
100
AcDbCircle
 10
160.9484249999999
 20
195.231625
 30
0.0
 40
2.778
100
AcDbArc
 50
336.628736
 51
348.12427
  0
ARC
  5
A04C
330
9F99
100
AcDbEntity
  8
1
  6
Continuous
100
AcDbCircle
 10
170.7768399999999
 20
195.430048
 30
0.0
 40
3.823743999999998
100
AcDbArc
 50
340.1175709999999
 51
359.9936099999998
  0
CIRCLE
  5
A04D
330
9F99
100
AcDbEntity
  8
1
  6
Continuous
100
AcDbCircle
 10
150.385505
 20
160.229622
 30
0.0
 40
1.1
  0
CIRCLE
  5
A04E
330
9F99
100
AcDbEntity
  8
1
  6
Continuous
100
AcDbCircle
 10
150.385505
 20
160.229622
 30
0.0
 40
4.4
  0
ARC
  5
A04F
330
9F99
100
AcDbEntity
  8
1
  6
Continuous
100
AcDbCircle
 10
145.08777
 20
189.461086
 30
0.0
 40
0.5
100
AcDbArc
 50
137.87617
 51
227.25326
  0
ARC
  5
A050
330
9F99
100
AcDbEntity
  8
1
  6
Continuous
100
AcDbCircle
 10
32.135505
 20
191.129627
 30
0.0
 40
3.0
100
AcDbArc
 50
89.99998199999996
 51
179.9999599999999
  0
ARC
  5
A051
330
9F99
100
AcDbEntity
  8
1
  6
Continuous
100
AcDbCircle
 10
36.73480899999999
 20
169.356533
 30
0.0
 40
7.599999999999997
100
AcDbArc
 50
179.9999799999999
 51
241.0016099999999
  0
ARC
  5
A052
330
9F99
100
AcDbEntity
  8
1
  6
Continuous
100
AcDbCircle
 10
49.875503
 20
266.329624
 30
0.0
 40
80.0
100
AcDbArc
 50
262.82645
 51
277.520401
  0
ARC
  5
A053
330
9F99
100
AcDbEntity
  8
1
  6
Continuous
100
AcDbCircle
 10
36.879295
 20
187.429627
 30
0.0
 40
2.0
100
AcDbArc
 50
17.23653399999999
 51
178.2202199999999
  0
ARC
  5
A054
330
9F99
100
AcDbEntity
  8
1
  6
Continuous
100
AcDbCircle
 10
40.317619
 20
188.496369
 30
0.0
 40
1.6
100
AcDbArc
 50
197.2365099999999
 51
254.3314899999999
  0
ARC
  5
A055
330
9F99
100
AcDbEntity
  8
1
  6
Continuous
100
AcDbCircle
 10
41.65531099999999
 20
201.8510469999999
 30
0.0
 40
15.0
100
AcDbArc
 50
254.0098799999999
 51
263.2240299999998
  0
ARC
  5
A056
330
9F99
100
AcDbEntity
  8
1
  6
Continuous
100
AcDbCircle
 10
58.115699
 20
201.8510469999999
 30
0.0
 40
15.0
100
AcDbArc
 50
276.77595
 51
285.99011
  0
ARC
  5
A057
330
9F99
100
AcDbEntity
  8
1
  6
Continuous
100
AcDbCircle
 10
67.635505
 20
191.129627
 30
0.0
 40
3.0
100
AcDbArc
 50
0.0
 51
89.99998199999996
  0
ARC
  5
A058
330
9F99
100
AcDbEntity
  8
1
  6
Continuous
100
AcDbCircle
 10
63.03620099999999
 20
169.356533
 30
0.0
 40
7.599999999999997
100
AcDbArc
 50
300.41006
 51
0.000007
  0
ARC
  5
A059
330
9F99
100
AcDbEntity
  8
1
  6
Continuous
100
AcDbCircle
 10
62.89171500000001
 20
187.429627
 30
0.0
 40
2.0
100
AcDbArc
 50
1.779741999999999
 51
162.76344
  0
ARC
  5
A05A
330
9F99
100
AcDbEntity
  8
1
  6
Continuous
100
AcDbCircle
 10
59.453391
 20
188.496369
 30
0.0
 40
1.6
100
AcDbArc
 50
285.6685
 51
342.7634799999998
  0
ARC
  5
A05B
330
9F99
100
AcDbEntity
  8
1
  6
Continuous
100
AcDbCircle
 10
37.385505
 20
186.950756
 30
0.0
 40
0.5
100
AcDbArc
 50
74.009949
 51
179.9999599999999
  0
ARC
  5
A05C
330
9F99
100
AcDbEntity
  8
1
  6
Continuous
100
AcDbCircle
 10
62.385505
 20
186.950756
 30
0.0
 40
0.5
100
AcDbArc
 50
0.0
 51
105.9900699999999
  0
ARC
  5
A05D
330
9F99
100
AcDbEntity
  8
1
  6
Continuous
100
AcDbCircle
 10
42.19066399999999
 20
195.6232599999999
 30
0.0
 40
5.034504
100
AcDbArc
 50
342.741733
 51
351.2793219999999
  0
ARC
  5
A05E
330
9F99
100
AcDbEntity
  8
1
  6
Continuous
100
AcDbCircle
 10
54.27684
 20
195.430048
 30
0.0
 40
3.823743999999998
100
AcDbArc
 50
340.1175709999999
 51
359.9936099999998
  0
ARC
  5
A05F
330
9F99
100
AcDbEntity
  8
1
  6
Continuous
100
AcDbCircle
 10
62.695113
 20
160.229622
 30
0.0
 40
4.915059999999998
100
AcDbArc
 50
296.4648799999998
 51
347.0675700000001
  0
ARC
  5
A060
330
9F99
100
AcDbEntity
  8
1
  6
Continuous
100
AcDbCircle
 10
62.695113
 20
160.229622
 30
0.0
 40
4.915059999999998
100
AcDbArc
 50
12.932425
 51
63.535116
  0
ARC
  5
A061
330
9F99
100
AcDbEntity
  8
1
  6
Continuous
100
AcDbCircle
 10
41.29269299999999
 20
160.229622
 30
0.0
 40
8.607184
100
AcDbArc
 50
156.7328599999999
 51
203.26713
  0
ARC
  5
A062
330
9F99
100
AcDbEntity
  8
1
  6
Continuous
100
AcDbCircle
 10
34.885505
 20
162.82962
 30
0.0
 40
1.7
100
AcDbArc
 50
89.99998199999996
 51
151.92744
  0
ARC
  5
A063
330
9F99
100
AcDbEntity
  8
1
  6
Continuous
100
AcDbCircle
 10
34.885505
 20
157.629624
 30
0.0
 40
1.7
100
AcDbArc
 50
208.07244
 51
270.00002
  0
ARC
  5
A064
330
9F99
100
AcDbEntity
  8
1
  6
Continuous
100
AcDbCircle
 10
62.135505
 20
197.429623
 30
0.0
 40
1.0
100
AcDbArc
 50
210.51012
 51
269.9999599999998
  0
ARC
  5
A065
330
9F99
100
AcDbEntity
  8
1
  6
Continuous
100
AcDbCircle
 10
37.635505
 20
199.4296229999999
 30
0.0
 40
3.0
100
AcDbArc
 50
234.30839
 51
270.00002
  0
ARC
  5
A066
330
9F99
100
AcDbEntity
  8
1
  6
Continuous
100
AcDbCircle
 10
37.635505
 20
197.429623
 30
0.0
 40
1.0
100
AcDbArc
 50
270.00002
 51
329.48986
  0
ARC
  5
A067
330
9F99
100
AcDbEntity
  8
1
  6
Continuous
100
AcDbCircle
 10
62.135505
 20
199.4296229999999
 30
0.0
 40
3.0
100
AcDbArc
 50
269.9999599999998
 51
305.6915899999999
  0
ARC
  5
A068
330
9F99
100
AcDbEntity
  8
1
  6
Continuous
100
AcDbCircle
 10
182.8855049999999
 20
197.429623
 30
0.0
 40
1.0
100
AcDbArc
 50
190.38886
 51
269.9999599999998
  0
ARC
  5
A069
330
9F99
100
AcDbEntity
  8
1
  6
Continuous
100
AcDbCircle
 10
182.8855049999999
 20
198.4296229999999
 30
0.0
 40
2.0
100
AcDbArc
 50
269.9999599999998
 51
311.8103399999999
  0
ARC
  5
A06A
330
9F99
100
AcDbEntity
  8
1
  6
Continuous
100
AcDbCircle
 10
149.8855049999999
 20
197.429623
 30
0.0
 40
1.0
100
AcDbArc
 50
270.00002
 51
349.61111
  0
ARC
  5
A06B
330
9F99
100
AcDbEntity
  8
1
  6
Continuous
100
AcDbCircle
 10
149.8855049999999
 20
198.4296229999999
 30
0.0
 40
2.0
100
AcDbArc
 50
228.1896399999999
 51
270.00002
  0
ARC
  5
A06C
330
9F99
100
AcDbEntity
  8
1
  6
Continuous
100
AcDbCircle
 10
88.45600500000001
 20
274.22963
 30
0.0
 40
51.0
100
AcDbArc
 50
342.8033399999999
 51
17.202821
  0
LINE
  5
A06D
330
9F99
100
AcDbEntity
  8
4
  6
CENTER
 48
0.5
100
AcDbLine
 10
166.385505
 20
37.729622
 30
0.0
 11
166.385505
 21
94.72962200000001
 31
0.0
  0
LINE
  5
A06E
330
9F99
100
AcDbEntity
  8
4
  6
CENTER
 48
0.5
100
AcDbLine
 10
120.385505
 20
66.22962199999999
 30
0.0
 11
198.315005
 21
66.22962199999999
 31
0.0
  0
ARC
  5
A06F
330
9F99
100
AcDbEntity
  8
1
  6
Continuous
100
AcDbCircle
 10
189.3855049999999
 20
49.229622
 30
0.0
 40
6.5
100
AcDbArc
 50
270.000032
 51
17.19669999999998
  0
ARC
  5
A070
330
9F99
100
AcDbEntity
  8
1
  6
Continuous
100
AcDbCircle
 10
143.3855029999998
 20
49.229622
 30
0.0
 40
6.5
100
AcDbArc
 50
162.8034
 51
270.0000179999999
  0
ARC
  5
A071
330
9F99
100
AcDbEntity
  8
1
  6
Continuous
100
AcDbCircle
 10
143.3855029999998
 20
48.72962199999999
 30
0.0
 40
3.25
100
AcDbArc
 50
107.9201759999999
 51
50.28486299999999
  0
CIRCLE
  5
A072
330
9F99
100
AcDbEntity
  8
1
  6
Continuous
100
AcDbCircle
 10
189.3855049999999
 20
48.72962199999999
 30
0.0
 40
3.25
  0
LINE
  5
A073
330
9F99
100
AcDbEntity
  8
4
  6
CENTER
 48
0.5
100
AcDbLine
 10
143.385505
 20
44.729622
 30
0.0
 11
143.385505
 21
52.729622
 31
0.0
  0
LINE
  5
A074
330
9F99
100
AcDbEntity
  8
4
  6
CENTER
 48
0.5
100
AcDbLine
 10
189.3855049999999
 20
44.729622
 30
0.0
 11
189.3855049999999
 21
52.729622
 31
0.0
  0
LINE
  5
A075
330
9F99
100
AcDbEntity
  8
1
  6
Continuous
100
AcDbLine
 10
143.3855069999999
 20
89.72962199999996
 30
0.0
 11
189.3855049999999
 21
89.72962199999996
 31
0.0
  0
ARC
  5
A076
330
9F99
100
AcDbEntity
  8
1
  6
Continuous
100
AcDbCircle
 10
88.45600500000001
 20
66.229614
 30
0.0
 40
51.0
100
AcDbArc
 50
342.797179
 51
348.118853
  0
ARC
  5
A077
330
9F99
100
AcDbEntity
  8
1
  6
Continuous
100
AcDbCircle
 10
143.3855069999999
 20
83.22962199999997
 30
0.0
 40
6.5
100
AcDbArc
 50
90.00004999999999
 51
197.19673
  0
ARC
  5
A078
330
9F99
100
AcDbEntity
  8
1
  6
Continuous
100
AcDbCircle
 10
143.3855069999999
 20
83.72962199999998
 30
0.0
 40
3.25
100
AcDbArc
 50
309.7151370000001
 51
252.07975
  0
LINE
  5
A079
330
9F99
100
AcDbEntity
  8
4
  6
CENTER
 48
0.5
100
AcDbLine
 10
143.385505
 20
87.729624
 30
0.0
 11
143.385505
 21
79.72962199999997
 31
0.0
  0
LINE
  5
A07A
330
9F99
100
AcDbEntity
  8
4
  6
CENTER
 48
0.5
100
AcDbLine
 10
139.3855069999998
 20
83.72962199999998
 30
0.0
 11
147.3855069999999
 21
83.72962199999998
 31
0.0
  0
ARC
  5
A07B
330
9F99
100
AcDbEntity
  8
1
  6
Continuous
100
AcDbCircle
 10
244.3150049999999
 20
66.229614
 30
0.0
 40
51.0
100
AcDbArc
 50
162.8033399999999
 51
197.2028209999997
  0
ARC
  5
A07C
330
9F99
100
AcDbEntity
  8
1
  6
Continuous
100
AcDbCircle
 10
189.3855049999999
 20
83.22962199999997
 30
0.0
 40
6.5
100
AcDbArc
 50
342.8033249999999
 51
90.0
  0
CIRCLE
  5
A07D
330
9F99
100
AcDbEntity
  8
1
  6
Continuous
100
AcDbCircle
 10
189.3855049999999
 20
83.72962199999998
 30
0.0
 40
3.25
  0
LINE
  5
A07E
330
9F99
100
AcDbEntity
  8
4
  6
CENTER
 48
0.5
100
AcDbLine
 10
189.3855049999999
 20
87.72961999999997
 30
0.0
 11
189.3855049999999
 21
79.72962199999997
 31
0.0
  0
LINE
  5
A07F
330
9F99
100
AcDbEntity
  8
4
  6
CENTER
 48
0.5
100
AcDbLine
 10
193.385505
 20
83.72962199999998
 30
0.0
 11
185.3855049999999
 21
83.72962199999998
 31
0.0
  0
LINE
  5
A080
330
9F99
100
AcDbEntity
  8
1
  6
Continuous
100
AcDbLine
 10
143.3855029999998
 20
42.729622
 30
0.0
 11
189.3855049999999
 21
42.729622
 31
0.0
  0
LINE
  5
A081
330
9F99
100
AcDbEntity
  8
4
  6
CENTER
 48
0.5
100
AcDbLine
 10
139.385503
 20
48.72962199999999
 30
0.0
 11
147.3855029999997
 21
48.72962199999999
 31
0.0
  0
LINE
  5
A082
330
9F99
100
AcDbEntity
  8
4
  6
CENTER
 48
0.5
100
AcDbLine
 10
193.385505
 20
48.72962199999999
 30
0.0
 11
185.3855049999999
 21
48.72962199999999
 31
0.0
  0
LINE
  5
A083
330
9F99
100
AcDbEntity
  8
4
  6
CENTER
 48
0.5
100
AcDbLine
 10
150.385505
 20
300.729622
 30
0.0
 11
150.385505
 21
247.7296219999999
 31
0.0
  0
LINE
  5
A084
330
9F99
100
AcDbEntity
  8
4
  6
CENTER
 48
0.5
100
AcDbLine
 10
150.385505
 20
39.72962199999999
 30
0.0
 11
150.385505
 21
92.729622
 31
0.0
  0
LINE
  5
A085
330
9F99
100
AcDbEntity
  8
1
  6
Continuous
100
AcDbLine
 10
142.385505
 20
51.22962199999999
 30
0.0
 11
160.4463909999997
 21
51.22962199999999
 31
0.0
  0
LINE
  5
A086
330
9F99
100
AcDbEntity
  8
1
  6
Continuous
100
AcDbLine
 10
142.385505
 20
53.229622
 30
0.0
 11
159.443282
 21
53.229622
 31
0.0
  0
ARC
  5
A087
330
9F99
100
AcDbEntity
  8
1
  6
Continuous
100
AcDbCircle
 10
147.7855069999999
 20
51.22962199999999
 30
0.0
 40
1.7
100
AcDbArc
 50
179.999982
 51
241.9274399999999
  0
ARC
  5
A088
330
9F99
100
AcDbEntity
  8
1
  6
Continuous
100
AcDbCircle
 10
150.385505
 20
57.63681
 30
0.0
 40
8.607184
100
AcDbArc
 50
246.73286
 51
293.2671299999999
  0
LINE
  5
A089
330
9F99
100
AcDbEntity
  8
1
  6
Continuous
100
AcDbLine
 10
146.112186
 20
50.929619
 30
0.0
 11
154.658824
 21
50.929619
 31
0.0
  0
LINE
  5
A08A
330
9F99
100
AcDbEntity
  8
1
  6
Continuous
100
AcDbLine
 10
147.1355049999999
 20
53.229622
 30
0.0
 11
147.1355049999999
 21
54.229622
 31
0.0
  0
LINE
  5
A08B
330
9F99
100
AcDbEntity
  8
1
  6
Continuous
100
AcDbLine
 10
153.635505
 20
53.229622
 30
0.0
 11
153.635505
 21
54.229622
 31
0.0
  0
ARC
  5
A08C
330
9F99
100
AcDbEntity
  8
1
  6
Continuous
100
AcDbCircle
 10
152.985503
 20
51.22962199999999
 30
0.0
 40
1.7
100
AcDbArc
 50
298.0724399999998
 51
0.00002
  0
LINE
  5
A08D
330
9F99
100
AcDbEntity
  8
1
  6
Continuous
100
AcDbLine
 10
142.385505
 20
81.22962199999998
 30
0.0
 11
160.4463909999997
 21
81.22962199999998
 31
0.0
  0
LINE
  5
A08E
330
9F99
100
AcDbEntity
  8
1
  6
Continuous
100
AcDbLine
 10
142.385505
 20
79.22962199999997
 30
0.0
 11
159.443282
 21
79.22962199999997
 31
0.0
  0
ARC
  5
A08F
330
9F99
100
AcDbEntity
  8
1
  6
Continuous
100
AcDbCircle
 10
150.385505
 20
79.03923
 30
0.0
 40
4.915059999999998
100
AcDbArc
 50
102.9324249999999
 51
153.5351159999999
  0
ARC
  5
A090
330
9F99
100
AcDbEntity
  8
1
  6
Continuous
100
AcDbCircle
 10
150.385505
 20
79.03923
 30
0.0
 40
4.915059999999998
100
AcDbArc
 50
26.46487999999999
 51
77.06756999999997
  0
LINE
  5
A091
330
9F99
100
AcDbEntity
  8
1
  6
Continuous
100
AcDbLine
 10
153.635505
 20
78.22962199999998
 30
0.0
 11
153.635505
 21
79.22962199999997
 31
0.0
  0
LINE
  5
A092
330
9F99
100
AcDbEntity
  8
1
  6
Continuous
100
AcDbLine
 10
147.1355049999999
 20
78.22962199999998
 30
0.0
 11
147.1355049999999
 21
79.22962199999997
 31
0.0
  0
LINE
  5
A093
330
9F99
100
AcDbEntity
  8
1
  6
Continuous
100
AcDbLine
 10
149.285507
 20
83.82961999999997
 30
0.0
 11
151.4855029999999
 21
83.82961999999997
 31
0.0
  0
ARC
  5
A094
330
9F99
100
AcDbEntity
  8
1
  6
Continuous
100
AcDbCircle
 10
88.45600500000001
 20
66.229614
 30
0.0
 40
51.0
100
AcDbArc
 50
11.881165
 51
17.19666
  0
LINE
  5
A095
330
9F99
100
AcDbEntity
  8
1
  6
Continuous
100
AcDbLine
 10
142.385505
 20
81.22962199999998
 30
0.0
 11
142.385505
 21
79.22962199999997
 31
0.0
  0
LINE
  5
A096
330
9F99
100
AcDbEntity
  8
1
  6
Continuous
100
AcDbLine
 10
142.385505
 20
53.229622
 30
0.0
 11
142.385505
 21
51.22962199999999
 31
0.0
  0
ARC
  5
A097
330
9F99
100
AcDbEntity
  8
1
  6
Continuous
100
AcDbCircle
 10
166.385505
 20
66.22962199999999
 30
0.0
 40
16.99998499999999
100
AcDbArc
 50
259.2719049999999
 51
100.7280949999999
  0
ARC
  5
A098
330
9F99
100
AcDbEntity
  8
1
  6
Continuous
100
AcDbCircle
 10
166.385505
 20
66.22962199999999
 30
0.0
 40
23.060853
100
AcDbArc
 50
228.150559
 51
130.2530519999999
  0
LINE
  5
A099
330
9F99
100
AcDbEntity
  8
4
  6
CENTER
 48
0.5
100
AcDbLine
 10
271.3855049999998
 20
205.229622
 30
0.0
 11
271.3855049999998
 21
130.229622
 31
0.0
  0
LINE
  5
A09A
330
9F99
100
AcDbEntity
  8
1
  6
Continuous
100
AcDbLine
 10
286.3855049999999
 20
161.30883
 30
0.0
 11
286.3855049999999
 21
152.229626
 31
0.0
  0
LINE
  5
A09B
330
9F99
100
AcDbEntity
  8
1
  6
Continuous
100
AcDbLine
 10
284.3855049999999
 20
186.329637
 30
0.0
 11
284.3855049999999
 21
152.229626
 31
0.0
  0
LINE
  5
A09C
330
9F99
100
AcDbEntity
  8
1
  6
Continuous
100
AcDbLine
 10
256.3855049999999
 20
161.30883
 30
0.0
 11
256.3855049999999
 21
152.229626
 31
0.0
  0
LINE
  5
A09D
330
9F99
100
AcDbEntity
  8
1
  6
Continuous
100
AcDbLine
 10
258.3855049999999
 20
186.329637
 30
0.0
 11
258.3855049999999
 21
152.229626
 31
0.0
  0
LINE
  5
A09E
330
9F99
100
AcDbEntity
  8
1
  6
Continuous
100
AcDbLine
 10
258.3855049999999
 20
152.229626
 30
0.0
 11
256.3855049999999
 21
152.229626
 31
0.0
  0
LINE
  5
A09F
330
9F99
100
AcDbEntity
  8
1
  6
Continuous
100
AcDbLine
 10
286.3855049999999
 20
152.229626
 30
0.0
 11
284.3855049999999
 21
152.229626
 31
0.0
  0
LINE
  5
A0A0
330
9F99
100
AcDbEntity
  8
4
  6
CENTER
 48
0.5
100
AcDbLine
 10
293.5855009999999
 20
160.229622
 30
0.0
 11
248.785507
 21
160.229622
 31
0.0
  0
LINE
  5
A0A1
330
9F99
100
AcDbEntity
  8
1
  6
Continuous
100
AcDbLine
 10
289.1355049999999
 20
194.129627
 30
0.0
 11
253.635505
 21
194.129627
 31
0.0
  0
LINE
  5
A0A2
330
9F99
100
AcDbEntity
  8
1
  6
Continuous
100
AcDbLine
 10
290.527168
 20
195.4296219999999
 30
0.0
 11
252.2403740000001
 21
195.4296219999999
 31
0.0
  0
LINE
  5
A0A3
330
9F99
100
AcDbEntity
  8
1
  6
Continuous
100
AcDbLine
 10
294.8855049999999
 20
200.229622
 30
0.0
 11
247.8855049999999
 21
200.229622
 31
0.0
  0
LINE
  5
A0A4
330
9F99
100
AcDbEntity
  8
1
  6
Continuous
100
AcDbLine
 10
294.8855049999999
 20
198.4296229999999
 30
0.0
 11
247.8855049999999
 21
198.4296229999999
 31
0.0
  0
ARC
  5
A0A5
330
9F99
100
AcDbEntity
  8
1
  6
Continuous
100
AcDbCircle
 10
259.1355049999999
 20
199.4296229999999
 30
0.0
 40
3.0
100
AcDbArc
 50
234.30841
 51
270.0000399999999
  0
LINE
  5
A0A6
330
9F99
100
AcDbEntity
  8
4
  6
CENTER
 48
0.5
100
AcDbLine
 10
288.8855049999999
 20
205.229622
 30
0.0
 11
288.8855049999999
 21
193.4296229999999
 31
0.0
  0
ARC
  5
A0A7
330
9F99
100
AcDbEntity
  8
1
  6
Continuous
100
AcDbCircle
 10
290.7063319999998
 20
198.253881
 30
0.0
 40
2.829934
100
AcDbArc
 50
266.370188
 51
347.2562679999999
  0
LINE
  5
A0A8
330
9F99
100
AcDbEntity
  8
1
  6
Continuous
100
AcDbLine
 10
281.8855279999999
 20
198.4296359999999
 30
0.0
 11
282.7739859999998
 21
196.9219439999999
 31
0.0
  0
LINE
  5
A0A9
330
9F99
100
AcDbEntity
  8
1
  6
Continuous
100
AcDbLine
 10
287.3855049999999
 20
198.4296289999998
 30
0.0
 11
285.3857719999998
 21
196.993122
 31
0.0
  0
LINE
  5
A0AA
330
9F99
100
AcDbEntity
  8
1
  6
Continuous
100
AcDbLine
 10
260.885509
 20
198.429611
 30
0.0
 11
259.997047
 21
196.921919
 31
0.0
  0
ARC
  5
A0AB
330
9F99
100
AcDbEntity
  8
1
  6
Continuous
100
AcDbCircle
 10
289.1355049999999
 20
191.129627
 30
0.0
 40
3.0
100
AcDbArc
 50
0.00004
 51
90.00001800000005
  0
LINE
  5
A0AC
330
9F99
100
AcDbEntity
  8
1
  6
Continuous
100
AcDbLine
 10
292.1355049999998
 20
191.129627
 30
0.0
 11
292.1355049999998
 21
169.459281
 31
0.0
  0
ARC
  5
A0AD
330
9F99
100
AcDbEntity
  8
1
  6
Continuous
100
AcDbCircle
 10
286.3855049999999
 20
157.629624
 30
0.0
 40
1.7
100
AcDbArc
 50
269.99998
 51
331.92756
  0
ARC
  5
A0AE
330
9F99
100
AcDbEntity
  8
1
  6
Continuous
100
AcDbCircle
 10
279.9783169999999
 20
160.229622
 30
0.0
 40
8.607184
100
AcDbArc
 50
336.73287
 51
15.68332
  0
LINE
  5
A0AF
330
9F99
100
AcDbEntity
  8
1
  6
Continuous
100
AcDbLine
 10
286.685508
 20
162.0229759999998
 30
0.0
 11
286.685508
 21
155.9563029999999
 31
0.0
  0
LINE
  5
A0B0
330
9F99
100
AcDbEntity
  8
1
  6
Continuous
100
AcDbLine
 10
284.3855049999999
 20
163.479622
 30
0.0
 11
283.385505
 21
163.479622
 31
0.0
  0
LINE
  5
A0B1
330
9F99
100
AcDbEntity
  8
1
  6
Continuous
100
AcDbLine
 10
284.3855049999999
 20
156.979622
 30
0.0
 11
283.385505
 21
156.979622
 31
0.0
  0
LINE
  5
A0B2
330
9F99
100
AcDbEntity
  8
1
  6
Continuous
100
AcDbLine
 10
259.3855049999999
 20
156.979622
 30
0.0
 11
258.3855049999999
 21
156.979622
 31
0.0
  0
LINE
  5
A0B3
330
9F99
100
AcDbEntity
  8
1
  6
Continuous
100
AcDbLine
 10
259.3855049999999
 20
163.479622
 30
0.0
 11
258.3855049999999
 21
163.479622
 31
0.0
  0
ARC
  5
A0B4
330
9F99
100
AcDbEntity
  8
1
  6
Continuous
100
AcDbCircle
 10
283.6355049999998
 20
199.4296229999999
 30
0.0
 40
3.0
100
AcDbArc
 50
269.99998
 51
305.69161
  0
ARC
  5
A0B5
330
9F99
100
AcDbEntity
  8
1
  6
Continuous
100
AcDbCircle
 10
283.6355049999998
 20
197.429623
 30
0.0
 40
1.0
100
AcDbArc
 50
210.5101399999997
 51
269.99998
  0
ARC
  5
A0B6
330
9F99
100
AcDbEntity
  8
1
  6
Continuous
100
AcDbCircle
 10
283.2056109999998
 20
195.42941
 30
0.0
 40
3.741448
100
AcDbArc
 50
338.425289
 51
0.033944
  0
ARC
  5
A0B7
330
9F99
100
AcDbEntity
  8
1
  6
Continuous
100
AcDbCircle
 10
280.375304
 20
195.42941
 30
0.0
 40
3.741448
100
AcDbArc
 50
338.425289
 51
0.033944
  0
ARC
  5
A0B8
330
9F99
100
AcDbEntity
  8
1
  6
Continuous
100
AcDbCircle
 10
275.857483
 20
195.4297219999999
 30
0.0
 40
3.7431
100
AcDbArc
 50
338.43015
 51
359.998487
  0
ARC
  5
A0B9
330
9F99
100
AcDbEntity
  8
1
  6
Continuous
100
AcDbCircle
 10
283.910643
 20
195.4294089999999
 30
0.0
 40
3.741448
100
AcDbArc
 50
338.425299
 51
0.033944
  0
ARC
  5
A0BA
330
9F99
100
AcDbEntity
  8
1
  6
Continuous
100
AcDbCircle
 10
279.080345
 20
195.6232599999999
 30
0.0
 40
5.034504
100
AcDbArc
 50
188.7206779999999
 51
197.2582669999999
  0
ARC
  5
A0BB
330
9F99
100
AcDbEntity
  8
1
  6
Continuous
100
AcDbCircle
 10
270.341704
 20
195.4297109999999
 30
0.0
 40
3.821799999999998
100
AcDbArc
 50
340.1124129999999
 51
0.028721
  0
ARC
  5
A0BC
330
9F99
100
AcDbEntity
  8
1
  6
Continuous
100
AcDbCircle
 10
259.1355049999999
 20
197.429623
 30
0.0
 40
1.0
100
AcDbArc
 50
270.0000399999999
 51
329.4898799999998
  0
ARC
  5
A0BD
330
9F99
100
AcDbEntity
  8
1
  6
Continuous
100
AcDbCircle
 10
266.9941689999999
 20
195.430048
 30
0.0
 40
3.823743999999998
100
AcDbArc
 50
180.0063899999999
 51
199.882429
  0
ARC
  5
A0BE
330
9F99
100
AcDbEntity
  8
1
  6
Continuous
100
AcDbCircle
 10
263.690668
 20
195.6232599999999
 30
0.0
 40
5.034498999999998
100
AcDbArc
 50
342.7417249999998
 51
351.279333
  0
ARC
  5
A0BF
330
9F99
100
AcDbEntity
  8
1
  6
Continuous
100
AcDbCircle
 10
272.4293069999998
 20
195.4297109999999
 30
0.0
 40
3.821801999999998
100
AcDbArc
 50
179.9713129999999
 51
199.887582
  0
ARC
  5
A0C0
330
9F99
100
AcDbEntity
  8
1
  6
Continuous
100
AcDbCircle
 10
262.47606
 20
195.4297109999999
 30
0.0
 40
3.821801999999998
100
AcDbArc
 50
179.9713129999999
 51
199.887582
  0
ARC
  5
A0C1
330
9F99
100
AcDbEntity
  8
1
  6
Continuous
100
AcDbCircle
 10
294.4463569999998
 20
197.4296249999999
 30
0.0
 40
1.0
100
AcDbArc
 50
90.00000400000002
 51
168.4629979999999
  0
LINE
  5
A0C2
330
9F99
100
AcDbEntity
  8
1
  6
Continuous
100
AcDbLine
 10
294.8855049999999
 20
200.229622
 30
0.0
 11
294.8855049999999
 21
198.4296229999999
 31
0.0
  0
LINE
  5
A0C3
330
9F99
100
AcDbEntity
  8
4
  6
CENTER
 48
0.5
100
AcDbLine
 10
253.885505
 20
205.229622
 30
0.0
 11
253.885505
 21
193.4296229999999
 31
0.0
  0
ARC
  5
A0C4
330
9F99
100
AcDbEntity
  8
1
  6
Continuous
100
AcDbCircle
 10
252.064674
 20
198.2538769999999
 30
0.0
 40
2.829934999999998
100
AcDbArc
 50
192.743785
 51
273.6298719999999
  0
LINE
  5
A0C5
330
9F99
100
AcDbEntity
  8
1
  6
Continuous
100
AcDbLine
 10
255.3855129999998
 20
198.4296309999997
 30
0.0
 11
257.3852459999999
 21
196.993124
 31
0.0
  0
LINE
  5
A0C6
330
9F99
100
AcDbEntity
  8
1
  6
Continuous
100
AcDbLine
 10
250.6355049999999
 20
191.129627
 30
0.0
 11
250.6355049999999
 21
169.459281
 31
0.0
  0
ARC
  5
A0C7
330
9F99
100
AcDbEntity
  8
1
  6
Continuous
100
AcDbCircle
 10
258.575897
 20
160.229622
 30
0.0
 40
4.915059999999998
100
AcDbArc
 50
192.93243
 51
243.5351199999999
  0
LINE
  5
A0C8
330
9F99
100
AcDbEntity
  8
1
  6
Continuous
100
AcDbLine
 10
253.7855069999999
 20
162.866862
 30
0.0
 11
253.7855069999999
 21
159.129624
 31
0.0
  0
ARC
  5
A0C9
330
9F99
100
AcDbEntity
  8
1
  6
Continuous
100
AcDbCircle
 10
253.635505
 20
191.129627
 30
0.0
 40
3.0
100
AcDbArc
 50
90.00001800000005
 51
180.0
  0
ARC
  5
A0CA
330
9F99
100
AcDbEntity
  8
1
  6
Continuous
100
AcDbCircle
 10
259.645749
 20
195.4297109999999
 30
0.0
 40
3.821801999999998
100
AcDbArc
 50
179.9713129999999
 51
199.887582
  0
ARC
  5
A0CB
330
9F99
100
AcDbEntity
  8
1
  6
Continuous
100
AcDbCircle
 10
258.940722
 20
195.4297099999998
 30
0.0
 40
3.821803
100
AcDbArc
 50
179.9713129999999
 51
199.88756
  0
ARC
  5
A0CC
330
9F99
100
AcDbEntity
  8
1
  6
Continuous
100
AcDbCircle
 10
248.3246529999999
 20
197.429621
 30
0.0
 40
1.0
100
AcDbArc
 50
11.53706999999998
 51
90.00005899999996
  0
LINE
  5
A0CD
330
9F99
100
AcDbEntity
  8
1
  6
Continuous
100
AcDbLine
 10
247.8855049999999
 20
200.229622
 30
0.0
 11
247.8855049999999
 21
198.4296229999999
 31
0.0
  0
LINE
  5
A0CE
330
9F99
100
AcDbEntity
  8
1
  6
Continuous
100
AcDbLine
 10
255.574753
 20
186.329637
 30
0.0
 11
287.196256
 21
186.329637
 31
0.0
  0
LINE
  5
A0CF
330
9F99
100
AcDbEntity
  8
1
  6
Continuous
100
AcDbLine
 10
187.135505
 20
191.129627
 30
0.0
 11
187.135505
 21
186.329622
 31
0.0
  0
ARC
  5
A0D0
330
9F99
100
AcDbEntity
  8
1
  6
Continuous
100
AcDbCircle
 10
184.1355049999999
 20
191.129627
 30
0.0
 40
3.0
100
AcDbArc
 50
0.0
 51
90.0
  0
ARC
  5
A0D1
330
9F99
100
AcDbEntity
  8
1
  6
Continuous
100
AcDbCircle
 10
148.635505
 20
191.129627
 30
0.0
 40
3.0
100
AcDbArc
 50
90.0
 51
180.0
  0
LINE
  5
A0D2
330
9F99
100
AcDbEntity
  8
4
  6
CENTER
 48
0.5
100
AcDbLine
 10
392.3855049999998
 20
189.229622
 30
0.0
 11
392.3855049999998
 21
131.2296139999999
 31
0.0
  0
LINE
  5
A0D3
330
9F99
100
AcDbEntity
  8
1
  6
Continuous
100
AcDbLine
 10
396.8377699999999
 20
187.99877
 30
0.0
 11
400.318561
 21
161.262425
 31
0.0
  0
LINE
  5
A0D4
330
9F99
100
AcDbEntity
  8
1
  6
Continuous
100
AcDbLine
 10
391.8855049999999
 20
190.047253
 30
0.0
 11
391.8855049999999
 21
167.552502
 31
0.0
  0
LINE
  5
A0D5
330
9F99
100
AcDbEntity
  8
1
  6
Continuous
100
AcDbLine
 10
385.781131
 20
155.7148929999998
 30
0.0
 11
366.651385
 21
183.698835
 31
0.0
  0
LINE
  5
A0D6
330
9F99
100
AcDbEntity
  8
4
  6
CENTER
 48
0.5
100
AcDbLine
 10
376.3855049999999
 20
205.229622
 30
0.0
 11
376.3855049999999
 21
169.459281
 31
0.0
  0
LINE
  5
A0D7
330
9F99
100
AcDbEntity
  8
4
  6
CENTER
 48
0.5
100
AcDbLine
 10
421.3855049999998
 20
160.229622
 30
0.0
 11
363.3855049999998
 21
160.229622
 31
0.0
  0
ARC
  5
A0D8
330
9F99
100
AcDbEntity
  8
1
  6
Continuous
100
AcDbCircle
 10
392.3855049999998
 20
160.229622
 30
0.0
 40
8.0
100
AcDbArc
 50
214.35642
 51
7.417569999999998
  0
CIRCLE
  5
A0D9
330
9F99
100
AcDbEntity
  8
1
  6
Continuous
100
AcDbCircle
 10
392.3855049999998
 20
160.229622
 30
0.0
 40
4.4
  0
ARC
  5
A0DA
330
9F99
100
AcDbEntity
  8
1
  6
Continuous
100
AcDbCircle
 10
376.8855049999999
 20
176.556759
 30
0.0
 40
15.0
100
AcDbArc
 50
287.2264
 51
329.5980099999998
  0
LINE
  5
A0DB
330
9F99
100
AcDbEntity
  8
1
  6
Continuous
100
AcDbLine
 10
394.1355049999998
 20
194.129627
 30
0.0
 11
358.6355049999998
 21
194.129627
 31
0.0
  0
LINE
  5
A0DC
330
9F99
100
AcDbEntity
  8
1
  6
Continuous
100
AcDbLine
 10
395.527171
 20
195.4296219999999
 30
0.0
 11
357.2403739999999
 21
195.4296219999999
 31
0.0
  0
LINE
  5
A0DD
330
9F99
100
AcDbEntity
  8
1
  6
Continuous
100
AcDbLine
 10
405.885505
 20
198.4296229999999
 30
0.0
 11
346.8855049999998
 21
198.4296229999999
 31
0.0
  0
LINE
  5
A0DE
330
9F99
100
AcDbEntity
  8
1
  6
Continuous
100
AcDbLine
 10
405.885505
 20
200.229622
 30
0.0
 11
346.8855049999998
 21
200.229622
 31
0.0
  0
ARC
  5
A0DF
330
9F99
100
AcDbEntity
  8
1
  6
Continuous
100
AcDbCircle
 10
399.4463549999999
 20
197.4296249999999
 30
0.0
 40
1.0
100
AcDbArc
 50
90.00000400000002
 51
168.4629979999999
  0
LINE
  5
A0E0
330
9F99
100
AcDbEntity
  8
4
  6
CENTER
 48
0.5
100
AcDbLine
 10
399.3855049999999
 20
205.229622
 30
0.0
 11
399.3855049999999
 21
193.4296229999999
 31
0.0
  0
LINE
  5
A0E1
330
9F99
100
AcDbEntity
  8
1
  6
Continuous
100
AcDbLine
 10
395.8855009999999
 20
198.429619
 30
0.0
 11
394.218835
 21
196.938906
 31
0.0
  0
LINE
  5
A0E2
330
9F99
100
AcDbEntity
  8
1
  6
Continuous
100
AcDbLine
 10
391.6854999999998
 20
198.429619
 30
0.0
 11
391.901895
 21
197.2492909999998
 31
0.0
  0
ARC
  5
A0E3
330
9F99
100
AcDbEntity
  8
1
  6
Continuous
100
AcDbCircle
 10
388.8302879999998
 20
195.4297099999998
 30
0.0
 40
3.821801999999998
100
AcDbArc
 50
340.1124349999999
 51
0.028721
  0
ARC
  5
A0E4
330
9F99
100
AcDbEntity
  8
1
  6
Continuous
100
AcDbCircle
 10
392.8855049999999
 20
197.429623
 30
0.0
 40
1.0
100
AcDbArc
 50
190.38889
 51
269.99998
  0
ARC
  5
A0E5
330
9F99
100
AcDbEntity
  8
1
  6
Continuous
100
AcDbCircle
 10
394.1355049999998
 20
191.129627
 30
0.0
 40
3.0
100
AcDbArc
 50
0.0
 51
90.0
  0
ARC
  5
A0E6
330
9F99
100
AcDbEntity
  8
1
  6
Continuous
100
AcDbCircle
 10
392.8855049999999
 20
198.4296229999999
 30
0.0
 40
2.0
100
AcDbArc
 50
269.99998
 51
311.8103599999999
  0
ARC
  5
A0E7
330
9F99
100
AcDbEntity
  8
1
  6
Continuous
100
AcDbCircle
 10
397.68324
 20
189.461086
 30
0.0
 40
0.5
100
AcDbArc
 50
312.74674
 51
42.12382999999999
  0
ARC
  5
A0E8
330
9F99
100
AcDbEntity
  8
1
  6
Continuous
100
AcDbCircle
 10
395.706335
 20
198.253881
 30
0.0
 40
2.829934
100
AcDbArc
 50
266.370188
 51
347.2562679999999
  0
LINE
  5
A0E9
330
9F99
100
AcDbEntity
  8
1
  6
Continuous
100
AcDbLine
 10
398.0540879999999
 20
189.796452
 30
0.0
 11
394.1355009999999
 21
194.12962
 31
0.0
  0
LINE
  5
A0EA
330
9F99
100
AcDbEntity
  8
1
  6
Continuous
100
AcDbLine
 10
396.83776
 20
187.9987679999999
 30
0.0
 11
398.0226109999999
 21
189.0939099999999
 31
0.0
  0
LINE
  5
A0EB
330
9F99
100
AcDbEntity
  8
1
  6
Continuous
100
AcDbLine
 10
397.1355049999999
 20
191.129627
 30
0.0
 11
397.1355049999999
 21
190.812225
 31
0.0
  0
ARC
  5
A0EC
330
9F99
100
AcDbEntity
  8
1
  6
Continuous
100
AcDbCircle
 10
388.125262
 20
195.4297109999999
 30
0.0
 40
3.821799999999998
100
AcDbArc
 50
340.1124129999999
 51
0.028721
  0
ARC
  5
A0ED
330
9F99
100
AcDbEntity
  8
1
  6
Continuous
100
AcDbCircle
 10
385.2949489999998
 20
195.4297109999999
 30
0.0
 40
3.821799999999998
100
AcDbArc
 50
340.1124129999999
 51
0.028721
  0
ARC
  5
A0EE
330
9F99
100
AcDbEntity
  8
1
  6
Continuous
100
AcDbCircle
 10
380.7768409999998
 20
195.430048
 30
0.0
 40
3.823742999999998
100
AcDbArc
 50
340.117568
 51
359.993627
  0
ARC
  5
A0EF
330
9F99
100
AcDbEntity
  8
1
  6
Continuous
100
AcDbCircle
 10
384.080345
 20
195.6232599999999
 30
0.0
 40
5.034504
100
AcDbArc
 50
188.7206779999999
 51
197.2582669999999
  0
ARC
  5
A0F0
330
9F99
100
AcDbEntity
  8
1
  6
Continuous
100
AcDbCircle
 10
375.3417039999998
 20
195.4297109999999
 30
0.0
 40
3.821799999999998
100
AcDbArc
 50
340.1124129999999
 51
0.028721
  0
LINE
  5
A0F1
330
9F99
100
AcDbEntity
  8
1
  6
Continuous
100
AcDbLine
 10
405.885505
 20
198.4296249999999
 30
0.0
 11
405.885505
 21
200.229624
 31
0.0
  0
ARC
  5
A0F2
330
9F99
100
AcDbEntity
  8
1
  6
Continuous
100
AcDbCircle
 10
353.3246529999999
 20
197.429621
 30
0.0
 40
1.0
100
AcDbArc
 50
11.53706999999998
 51
90.00005899999996
  0
LINE
  5
A0F3
330
9F99
100
AcDbEntity
  8
4
  6
CENTER
 48
0.5
100
AcDbLine
 10
353.3855049999999
 20
205.229622
 30
0.0
 11
353.3855049999999
 21
193.4296229999999
 31
0.0
  0
LINE
  5
A0F4
330
9F99
100
AcDbEntity
  8
1
  6
Continuous
100
AcDbLine
 10
356.885494
 20
198.4296139999999
 30
0.0
 11
358.552161
 21
196.938902
 31
0.0
  0
LINE
  5
A0F5
330
9F99
100
AcDbEntity
  8
1
  6
Continuous
100
AcDbLine
 10
361.0854979999999
 20
198.4296249999999
 30
0.0
 11
360.869102
 21
197.2492959999999
 31
0.0
  0
ARC
  5
A0F6
330
9F99
100
AcDbEntity
  8
1
  6
Continuous
100
AcDbCircle
 10
359.8855049999999
 20
197.429623
 30
0.0
 40
1.0
100
AcDbArc
 50
270.0000399999999
 51
349.6111399999999
  0
ARC
  5
A0F7
330
9F99
100
AcDbEntity
  8
1
  6
Continuous
100
AcDbCircle
 10
360.8855049999998
 20
179.7296259999999
 30
0.0
 40
7.0
100
AcDbArc
 50
34.35638
 51
94.37122300000002
  0
ARC
  5
A0F8
330
9F99
100
AcDbEntity
  8
1
  6
Continuous
100
AcDbCircle
 10
364.645749
 20
195.4297109999999
 30
0.0
 40
3.821801999999998
100
AcDbArc
 50
179.9713129999999
 51
199.887582
  0
ARC
  5
A0F9
330
9F99
100
AcDbEntity
  8
1
  6
Continuous
100
AcDbCircle
 10
367.47606
 20
195.4297109999999
 30
0.0
 40
3.821801999999998
100
AcDbArc
 50
179.9713129999999
 51
199.887582
  0
ARC
  5
A0FA
330
9F99
100
AcDbEntity
  8
1
  6
Continuous
100
AcDbCircle
 10
371.994169
 20
195.430048
 30
0.0
 40
3.823743999999998
100
AcDbArc
 50
180.0063899999999
 51
199.882429
  0
ARC
  5
A0FB
330
9F99
100
AcDbEntity
  8
1
  6
Continuous
100
AcDbCircle
 10
377.429307
 20
195.4297109999999
 30
0.0
 40
3.821801999999998
100
AcDbArc
 50
179.9713129999999
 51
199.887582
  0
ARC
  5
A0FC
330
9F99
100
AcDbEntity
  8
1
  6
Continuous
100
AcDbCircle
 10
368.690668
 20
195.6232599999999
 30
0.0
 40
5.034498999999998
100
AcDbArc
 50
342.7417249999998
 51
351.279333
  0
ARC
  5
A0FD
330
9F99
100
AcDbEntity
  8
1
  6
Continuous
100
AcDbCircle
 10
363.9407219999998
 20
195.4297099999998
 30
0.0
 40
3.821803
100
AcDbArc
 50
179.9713129999999
 51
199.88756
  0
LINE
  5
A0FE
330
9F99
100
AcDbEntity
  8
1
  6
Continuous
100
AcDbLine
 10
355.6355049999999
 20
191.129627
 30
0.0
 11
355.6355049999999
 21
186.329622
 31
0.0
  0
ARC
  5
A0FF
330
9F99
100
AcDbEntity
  8
1
  6
Continuous
100
AcDbCircle
 10
358.6355049999998
 20
191.129627
 30
0.0
 40
3.0
100
AcDbArc
 50
90.0
 51
180.0
  0
ARC
  5
A100
330
9F99
100
AcDbEntity
  8
1
  6
Continuous
100
AcDbCircle
 10
359.8855049999999
 20
198.4296229999999
 30
0.0
 40
2.0
100
AcDbArc
 50
228.18966
 51
270.0000399999999
  0
ARC
  5
A101
330
9F99
100
AcDbEntity
  8
1
  6
Continuous
100
AcDbCircle
 10
357.064674
 20
198.2538769999999
 30
0.0
 40
2.829934999999998
100
AcDbArc
 50
192.743785
 51
273.6298719999999
  0
LINE
  5
A102
330
9F99
100
AcDbEntity
  8
1
  6
Continuous
100
AcDbLine
 10
346.8855049999998
 20
198.429621
 30
0.0
 11
346.8855049999998
 21
200.229622
 31
0.0
  0
ARC
  5
A103
330
9F99
100
AcDbEntity
  8
1
  6
Continuous
100
AcDbCircle
 10
291.721456
 20
169.459281
 30
0.0
 40
41.085951
100
AcDbArc
 50
157.638274
 51
182.399897
  0
ARC
  5
A104
330
9F99
100
AcDbEntity
  8
1
  6
Continuous
100
AcDbCircle
 10
251.0495529999999
 20
169.459281
 30
0.0
 40
41.085951
100
AcDbArc
 50
357.600103
 51
22.361726
  0
ARC
  5
A105
330
9F99
100
AcDbEntity
  8
1
  6
Continuous
100
AcDbCircle
 10
251.0495529999999
 20
169.459281
 30
0.0
 40
39.085951
100
AcDbArc
 50
357.600103
 51
25.570538
  0
ARC
  5
A106
330
9F99
100
AcDbEntity
  8
1
  6
Continuous
100
AcDbCircle
 10
291.721456
 20
169.459281
 30
0.0
 40
39.085951
100
AcDbArc
 50
154.429462
 51
182.399897
  0
ARC
  5
A107
330
9F99
100
AcDbEntity
  8
1
  6
Continuous
100
AcDbCircle
 10
166.385505
 20
66.22962199999999
 30
0.0
 40
20.75
100
AcDbArc
 50
232.646807
 51
127.649561
  0
ARC
  5
A108
330
9F99
100
AcDbEntity
  8
1
  6
Continuous
100
AcDbCircle
 10
166.385505
 20
66.22962199999999
 30
0.0
 40
18.75
100
AcDbArc
 50
270.0
 51
90.0
  0
ARC
  5
A10D
330
9F99
100
AcDbEntity
  8
1
  6
Continuous
100
AcDbCircle
 10
256.416498
 20
167.9796289999998
 30
0.0
 40
5.75
100
AcDbArc
 50
182.399897
 51
261.21427
  0
ARC
  5
A10E
330
9F99
100
AcDbEntity
  8
1
  6
Continuous
100
AcDbCircle
 10
255.385505
 20
161.30883
 30
0.0
 40
1.0
100
AcDbArc
 50
0.0
 51
81.21427
  0
ARC
  5
A10F
330
9F99
100
AcDbEntity
  8
1
  6
Continuous
100
AcDbCircle
 10
256.416498
 20
167.9796289999998
 30
0.0
 40
3.75
100
AcDbArc
 50
182.399897
 51
261.21427
  0
ARC
  5
A110
330
9F99
100
AcDbEntity
  8
1
  6
Continuous
100
AcDbCircle
 10
255.385505
 20
161.30883
 30
0.0
 40
3.0
100
AcDbArc
 50
0.0
 51
81.21427
  0
ARC
  5
A111
330
9F99
100
AcDbEntity
  8
1
  6
Continuous
100
AcDbCircle
 10
287.3855049999999
 20
161.30883
 30
0.0
 40
1.0
100
AcDbArc
 50
98.78573000000002
 51
180.0
  0
ARC
  5
A112
330
9F99
100
AcDbEntity
  8
1
  6
Continuous
100
AcDbCircle
 10
287.3855049999999
 20
161.30883
 30
0.0
 40
3.0
100
AcDbArc
 50
98.78573000000002
 51
180.0
  0
ARC
  5
A113
330
9F99
100
AcDbEntity
  8
1
  6
Continuous
100
AcDbCircle
 10
286.3545119999999
 20
167.9796289999998
 30
0.0
 40
5.75
100
AcDbArc
 50
278.78573
 51
357.600103
  0
ARC
  5
A114
330
9F99
100
AcDbEntity
  8
1
  6
Continuous
100
AcDbCircle
 10
286.3545119999999
 20
167.9796289999998
 30
0.0
 40
3.75
100
AcDbArc
 50
278.78573
 51
357.600103
  0
ARC
  5
A115
330
9F99
100
AcDbEntity
  8
1
  6
Continuous
100
AcDbCircle
 10
166.385482
 20
82.03742199999998
 30
0.0
 40
4.942199999999997
100
AcDbArc
 50
90.0
 51
178.1464489999999
  0
ARC
  5
A116
330
9F99
100
AcDbEntity
  8
1
  6
Continuous
100
AcDbCircle
 10
160.4463909999997
 20
82.22962199999997
 30
0.0
 40
1.0
100
AcDbArc
 50
270.0
 51
358.146449
  0
ARC
  5
A117
330
9F99
100
AcDbEntity
  8
1
  6
Continuous
100
AcDbCircle
 10
159.443282
 20
82.22962199999997
 30
0.0
 40
3.0
100
AcDbArc
 50
270.0
 51
338.78154
  0
ARC
  5
A118
330
9F99
100
AcDbEntity
  8
1
  6
Continuous
100
AcDbCircle
 10
166.385482
 20
82.03742199999998
 30
0.0
 40
2.9422
100
AcDbArc
 50
90.0
 51
129.9898489999999
  0
ARC
  5
A119
330
9F99
100
AcDbEntity
  8
1
  6
Continuous
100
AcDbCircle
 10
169.4990019999998
 20
78.32553699999998
 30
0.0
 40
7.787000999999997
100
AcDbArc
 50
129.9898489999999
 51
158.7815399999998
  0
ARC
  5
A11A
330
9F99
100
AcDbEntity
  8
1
  6
Continuous
100
AcDbCircle
 10
160.4463909999997
 20
50.229622
 30
0.0
 40
1.0
100
AcDbArc
 50
1.853550999999999
 51
90.0
  0
ARC
  5
A11B
330
9F99
100
AcDbEntity
  8
1
  6
Continuous
100
AcDbCircle
 10
166.385482
 20
50.421822
 30
0.0
 40
4.942199999999997
100
AcDbArc
 50
181.853551
 51
270.0
  0
ARC
  5
A11C
330
9F99
100
AcDbEntity
  8
1
  6
Continuous
100
AcDbCircle
 10
166.385482
 20
50.421822
 30
0.0
 40
2.9422
100
AcDbArc
 50
230.010151
 51
270.0
  0
ARC
  5
A11D
330
9F99
100
AcDbEntity
  8
1
  6
Continuous
100
AcDbCircle
 10
169.4990019999998
 20
54.133706
 30
0.0
 40
7.787000999999997
100
AcDbArc
 50
201.2184599999998
 51
230.010151
  0
ARC
  5
A11E
330
9F99
100
AcDbEntity
  8
1
  6
Continuous
100
AcDbCircle
 10
159.443282
 20
50.229622
 30
0.0
 40
3.0
100
AcDbArc
 50
21.21846
 51
90.0
  0
ARC
  5
A11F
330
9F99
100
AcDbEntity
  8
1
  6
Continuous
100
AcDbCircle
 10
287.196256
 20
184.329637
 30
0.0
 40
2.0
100
AcDbArc
 50
22.361726
 51
90.0
  0
ARC
  5
A120
330
9F99
100
AcDbEntity
  8
1
  6
Continuous
100
AcDbCircle
 10
255.574753
 20
184.329637
 30
0.0
 40
2.0
100
AcDbArc
 50
90.0
 51
157.638274
  0
LINE
  5
A121
330
9F99
100
AcDbEntity
  8
1
  6
Continuous
100
AcDbLine
 10
128.144103
 20
263.729622
 30
0.0
 11
138.363417
 21
263.729622
 31
0.0
  0
LINE
  5
A122
330
9F99
100
AcDbEntity
  8
1
  6
Continuous
100
AcDbLine
 10
128.144103
 20
284.729622
 30
0.0
 11
138.3634209999997
 21
284.729622
 31
0.0
  0
ARC
  5
A123
330
9F99
100
AcDbEntity
  8
1
  6
Continuous
100
AcDbCircle
 10
150.385505
 20
160.229622
 30
0.0
 40
25.0
100
AcDbArc
 50
101.2453459999999
 51
36.980591
  0
ARC
  5
A124
330
9F99
100
AcDbEntity
  8
1
  6
Continuous
100
AcDbCircle
 10
150.385505
 20
160.229622
 30
0.0
 40
20.450001
100
AcDbArc
 50
105.611488
 51
32.61442999999999
  0
LINE
  5
A125
330
9F99
100
AcDbEntity
  8
1
  6
Continuous
100
AcDbLine
 10
167.2980189999998
 20
148.7331189999999
 30
0.0
 11
156.440833
 21
155.001524
 31
0.0
  0
LINE
  5
A126
330
9F99
100
AcDbEntity
  8
1
  6
Continuous
100
AcDbLine
 10
131.9729869999999
 20
151.331205
 30
0.0
 11
142.8301749999999
 21
157.5996029999997
 31
0.0
  0
LINE
  5
A127
330
9F99
100
AcDbEntity
  8
1
  6
Continuous
100
AcDbLine
 10
133.4729869999998
 20
148.7331299999999
 30
0.0
 11
144.330175
 21
155.001527
 31
0.0
  0
LINE
  5
A128
330
9F99
100
AcDbEntity
  8
1
  6
Continuous
100
AcDbLine
 10
168.7980109999998
 20
151.331199
 30
0.0
 11
158.1827719999997
 21
157.4599159999999
 31
0.0
  0
ARC
  5
A129
330
9F99
100
AcDbEntity
  8
1
  6
Continuous
100
AcDbCircle
 10
175.385505
 20
274.229622
 30
0.0
 40
50.0
100
AcDbArc
 50
169.7981879999999
 51
190.1999899999999
  0
ARC
  5
A12A
330
9F99
100
AcDbEntity
  8
1
  6
Continuous
100
AcDbCircle
 10
128.144103
 20
265.729622
 30
0.0
 40
2.0
100
AcDbArc
 50
190.1999299999999
 51
270.00002
  0
ARC
  5
A12B
330
9F99
100
AcDbEntity
  8
1
  6
Continuous
100
AcDbCircle
 10
128.144103
 20
282.729622
 30
0.0
 40
2.0
100
AcDbArc
 50
90.00005499999994
 51
169.80014
  0
ARC
  5
A12C
330
9F99
100
AcDbEntity
  8
1
  6
Continuous
100
AcDbCircle
 10
49.885505
 20
135.229622
 30
0.0
 40
50.0
100
AcDbArc
 50
79.79818799999998
 51
100.1999899999999
  0
ARC
  5
A12D
330
9F99
100
AcDbEntity
  8
1
  6
Continuous
100
AcDbCircle
 10
49.885505
 20
185.229622
 30
0.0
 40
50.0
100
AcDbArc
 50
259.8000099999998
 51
280.2018119999999
  0
LINE
  5
A12E
330
9F99
100
AcDbEntity
  8
1
  6
Continuous
100
AcDbLine
 10
39.385505
 20
182.4710239999998
 30
0.0
 11
39.385505
 21
137.9882179999997
 31
0.0
  0
ARC
  5
A12F
330
9F99
100
AcDbEntity
  8
1
  6
Continuous
100
AcDbCircle
 10
41.385505
 20
137.9882199999999
 30
0.0
 40
2.0
100
AcDbArc
 50
179.9999799999999
 51
259.80007
  0
LINE
  5
A130
330
9F99
100
AcDbEntity
  8
1
  6
Continuous
100
AcDbLine
 10
37.885505
 20
166.2296219999998
 30
0.0
 11
37.885505
 21
154.229621
 31
0.0
  0
ARC
  5
A131
330
9F99
100
AcDbEntity
  8
1
  6
Continuous
100
AcDbCircle
 10
38.385505
 20
154.229622
 30
0.0
 40
0.5
100
AcDbArc
 50
179.9999799999999
 51
269.99997
  0
LINE
  5
A132
330
9F99
100
AcDbEntity
  8
1
  6
Continuous
100
AcDbLine
 10
38.30025399999997
 20
153.736941
 30
0.0
 11
39.385505
 21
153.549161
 31
0.0
  0
ARC
  5
A133
330
9F99
100
AcDbEntity
  8
1
  6
Continuous
100
AcDbCircle
 10
38.385505
 20
166.2296219999998
 30
0.0
 40
0.5
100
AcDbArc
 50
90.000037
 51
180.00002
  0
LINE
  5
A134
330
9F99
100
AcDbEntity
  8
1
  6
Continuous
100
AcDbLine
 10
38.30025399999997
 20
166.722302
 30
0.0
 11
39.385505
 21
166.9100819999998
 31
0.0
  0
ARC
  5
A135
330
9F99
100
AcDbEntity
  8
1
  6
Continuous
100
AcDbCircle
 10
41.385505
 20
182.4710239999998
 30
0.0
 40
2.0
100
AcDbArc
 50
100.19993
 51
180.00002
  0
LINE
  5
A136
330
9F99
100
AcDbEntity
  8
1
  6
Continuous
100
AcDbLine
 10
60.385505
 20
182.4710239999998
 30
0.0
 11
60.385505
 21
137.9882179999997
 31
0.0
  0
ARC
  5
A137
330
9F99
100
AcDbEntity
  8
1
  6
Continuous
100
AcDbCircle
 10
58.385505
 20
137.9882199999999
 30
0.0
 40
2.0
100
AcDbArc
 50
280.19986
 51
359.99995
  0
LINE
  5
A138
330
9F99
100
AcDbEntity
  8
1
  6
Continuous
100
AcDbLine
 10
61.885505
 20
166.2296219999998
 30
0.0
 11
61.885505
 21
154.229621
 31
0.0
  0
ARC
  5
A139
330
9F99
100
AcDbEntity
  8
1
  6
Continuous
100
AcDbCircle
 10
61.385505
 20
154.229622
 30
0.0
 40
0.5
100
AcDbArc
 50
269.9999599999998
 51
359.99995
  0
LINE
  5
A13A
330
9F99
100
AcDbEntity
  8
1
  6
Continuous
100
AcDbLine
 10
61.470756
 20
153.736943
 30
0.0
 11
60.385501
 21
153.549162
 31
0.0
  0
ARC
  5
A13B
330
9F99
100
AcDbEntity
  8
1
  6
Continuous
100
AcDbCircle
 10
61.385505
 20
166.2296219999998
 30
0.0
 40
0.5
100
AcDbArc
 50
0.000055
 51
90.000037
  0
LINE
  5
A13C
330
9F99
100
AcDbEntity
  8
1
  6
Continuous
100
AcDbLine
 10
61.470756
 20
166.7223009999998
 30
0.0
 11
60.385501
 21
166.9100809999999
 31
0.0
  0
ARC
  5
A13D
330
9F99
100
AcDbEntity
  8
1
  6
Continuous
100
AcDbCircle
 10
58.385505
 20
182.4710239999998
 30
0.0
 40
2.0
100
AcDbArc
 50
0.000055
 51
79.80014
  0
LINE
  5
A13E
330
9F99
100
AcDbEntity
  8
1
  6
Continuous
100
AcDbLine
 10
281.8855049999999
 20
182.4710239999998
 30
0.0
 11
281.8855049999999
 21
137.9882179999997
 31
0.0
  0
LINE
  5
A13F
330
9F99
100
AcDbEntity
  8
1
  6
Continuous
100
AcDbLine
 10
260.8855049999998
 20
182.4710239999998
 30
0.0
 11
260.8855049999998
 21
137.9882179999997
 31
0.0
  0
ARC
  5
A140
330
9F99
100
AcDbEntity
  8
1
  6
Continuous
100
AcDbCircle
 10
271.3855049999998
 20
185.229622
 30
0.0
 40
50.0
100
AcDbArc
 50
259.8000099999998
 51
280.2018119999999
  0
ARC
  5
A141
330
9F99
100
AcDbEntity
  8
1
  6
Continuous
100
AcDbCircle
 10
262.8855049999998
 20
137.9882199999999
 30
0.0
 40
2.0
100
AcDbArc
 50
179.9999799999999
 51
259.80007
  0
LINE
  5
A142
330
9F99
100
AcDbEntity
  8
1
  6
Continuous
100
AcDbLine
 10
259.8002539999999
 20
166.722302
 30
0.0
 11
260.8855049999998
 21
166.9100819999998
 31
0.0
  0
ARC
  5
A143
330
9F99
100
AcDbEntity
  8
1
  6
Continuous
100
AcDbCircle
 10
259.8855049999999
 20
166.2296219999998
 30
0.0
 40
0.5
100
AcDbArc
 50
90.000037
 51
180.00002
  0
LINE
  5
A144
330
9F99
100
AcDbEntity
  8
1
  6
Continuous
100
AcDbLine
 10
259.8002539999999
 20
153.736941
 30
0.0
 11
260.8855049999998
 21
153.549161
 31
0.0
  0
ARC
  5
A145
330
9F99
100
AcDbEntity
  8
1
  6
Continuous
100
AcDbCircle
 10
259.8855049999999
 20
154.229622
 30
0.0
 40
0.5
100
AcDbArc
 50
179.9999799999999
 51
269.99997
  0
LINE
  5
A146
330
9F99
100
AcDbEntity
  8
1
  6
Continuous
100
AcDbLine
 10
259.3855049999999
 20
166.2296219999998
 30
0.0
 11
259.3855049999999
 21
154.229621
 31
0.0
  0
ARC
  5
A147
330
9F99
100
AcDbEntity
  8
1
  6
Continuous
100
AcDbCircle
 10
279.8855049999999
 20
137.9882199999999
 30
0.0
 40
2.0
100
AcDbArc
 50
280.19986
 51
359.99995
  0
LINE
  5
A148
330
9F99
100
AcDbEntity
  8
1
  6
Continuous
100
AcDbLine
 10
282.970756
 20
166.7223009999998
 30
0.0
 11
281.8855009999998
 21
166.9100809999999
 31
0.0
  0
ARC
  5
A149
330
9F99
100
AcDbEntity
  8
1
  6
Continuous
100
AcDbCircle
 10
282.8855049999999
 20
166.2296219999998
 30
0.0
 40
0.5
100
AcDbArc
 50
0.000055
 51
90.000037
  0
LINE
  5
A14A
330
9F99
100
AcDbEntity
  8
1
  6
Continuous
100
AcDbLine
 10
282.970756
 20
153.736943
 30
0.0
 11
281.8855009999998
 21
153.549162
 31
0.0
  0
ARC
  5
A14B
330
9F99
100
AcDbEntity
  8
1
  6
Continuous
100
AcDbCircle
 10
282.8855049999999
 20
154.229622
 30
0.0
 40
0.5
100
AcDbArc
 50
269.9999599999998
 51
359.99995
  0
LINE
  5
A14C
330
9F99
100
AcDbEntity
  8
1
  6
Continuous
100
AcDbLine
 10
283.385505
 20
166.2296219999998
 30
0.0
 11
283.385505
 21
154.229621
 31
0.0
  0
ARC
  5
A14D
330
9F99
100
AcDbEntity
  8
1
  6
Continuous
100
AcDbCircle
 10
271.3855049999998
 20
135.229622
 30
0.0
 40
50.0
100
AcDbArc
 50
79.79818799999998
 51
100.1999899999999
  0
ARC
  5
A14E
330
9F99
100
AcDbEntity
  8
1
  6
Continuous
100
AcDbCircle
 10
262.8855049999998
 20
182.4710239999998
 30
0.0
 40
2.0
100
AcDbArc
 50
100.19993
 51
180.00002
  0
ARC
  5
A14F
330
9F99
100
AcDbEntity
  8
1
  6
Continuous
100
AcDbCircle
 10
279.8855049999999
 20
182.4710239999998
 30
0.0
 40
2.0
100
AcDbArc
 50
0.000055
 51
79.80014
  0
ARC
  5
A150
330
9F99
100
AcDbEntity
  8
1
  6
Continuous
100
AcDbCircle
 10
175.385505
 20
66.22962199999999
 30
0.0
 40
50.0
100
AcDbArc
 50
169.7981879999999
 51
190.1999899999999
  0
ARC
  5
A151
330
9F99
100
AcDbEntity
  8
1
  6
Continuous
100
AcDbCircle
 10
125.385505
 20
66.22962199999999
 30
0.0
 40
50.0
100
AcDbArc
 50
349.80001
 51
10.201812
  0
LINE
  5
A152
330
9F99
100
AcDbEntity
  8
1
  6
Continuous
100
AcDbLine
 10
144.3855049999999
 20
54.229622
 30
0.0
 11
156.3855049999999
 21
54.229622
 31
0.0
  0
LINE
  5
A153
330
9F99
100
AcDbEntity
  8
1
  6
Continuous
100
AcDbLine
 10
128.144103
 20
55.729622
 30
0.0
 11
172.6269079999999
 21
55.729622
 31
0.0
  0
ARC
  5
A154
330
9F99
100
AcDbEntity
  8
1
  6
Continuous
100
AcDbCircle
 10
128.144103
 20
57.729622
 30
0.0
 40
2.0
100
AcDbArc
 50
190.1999299999999
 51
270.00002
  0
LINE
  5
A155
330
9F99
100
AcDbEntity
  8
1
  6
Continuous
100
AcDbLine
 10
143.8928239999999
 20
54.644371
 30
0.0
 11
143.7050439999999
 21
55.729622
 31
0.0
  0
ARC
  5
A156
330
9F99
100
AcDbEntity
  8
1
  6
Continuous
100
AcDbCircle
 10
144.3855049999999
 20
54.729622
 30
0.0
 40
0.5
100
AcDbArc
 50
180.000037
 51
270.00002
  0
LINE
  5
A157
330
9F99
100
AcDbEntity
  8
1
  6
Continuous
100
AcDbLine
 10
156.878185
 20
54.644371
 30
0.0
 11
157.0659649999998
 21
55.729622
 31
0.0
  0
ARC
  5
A158
330
9F99
100
AcDbEntity
  8
1
  6
Continuous
100
AcDbCircle
 10
156.3855049999999
 20
54.729622
 30
0.0
 40
0.5
100
AcDbArc
 50
269.99998
 51
359.99997
  0
ARC
  5
A159
330
9F99
100
AcDbEntity
  8
1
  6
Continuous
100
AcDbCircle
 10
172.6269069999999
 20
57.729622
 30
0.0
 40
2.0
100
AcDbArc
 50
269.99998
 51
349.8000699999999
  0
LINE
  5
A15A
330
9F99
100
AcDbEntity
  8
1
  6
Continuous
100
AcDbLine
 10
144.3855049999999
 20
78.22962199999998
 30
0.0
 11
156.3855049999999
 21
78.22962199999998
 31
0.0
  0
LINE
  5
A15B
330
9F99
100
AcDbEntity
  8
1
  6
Continuous
100
AcDbLine
 10
128.144103
 20
76.72962199999997
 30
0.0
 11
172.6269079999999
 21
76.72962199999997
 31
0.0
  0
ARC
  5
A15C
330
9F99
100
AcDbEntity
  8
1
  6
Continuous
100
AcDbCircle
 10
128.144103
 20
74.72962199999997
 30
0.0
 40
2.0
100
AcDbArc
 50
90.00005499999994
 51
169.80014
  0
LINE
  5
A15D
330
9F99
100
AcDbEntity
  8
1
  6
Continuous
100
AcDbLine
 10
143.8928249999999
 20
77.81487299999998
 30
0.0
 11
143.7050449999999
 21
76.729618
 31
0.0
  0
ARC
  5
A15E
330
9F99
100
AcDbEntity
  8
1
  6
Continuous
100
AcDbCircle
 10
144.3855049999999
 20
77.72962199999998
 30
0.0
 40
0.5
100
AcDbArc
 50
90.00005499999994
 51
180.000037
  0
LINE
  5
A15F
330
9F99
100
AcDbEntity
  8
1
  6
Continuous
100
AcDbLine
 10
156.8781839999997
 20
77.81487299999998
 30
0.0
 11
157.0659639999998
 21
76.729618
 31
0.0
  0
ARC
  5
A160
330
9F99
100
AcDbEntity
  8
1
  6
Continuous
100
AcDbCircle
 10
156.3855049999999
 20
77.72962199999998
 30
0.0
 40
0.5
100
AcDbArc
 50
359.9999599999999
 51
89.99995000000001
  0
ARC
  5
A161
330
9F99
100
AcDbEntity
  8
1
  6
Continuous
100
AcDbCircle
 10
172.6269069999999
 20
74.72962199999997
 30
0.0
 40
2.0
100
AcDbArc
 50
10.19986
 51
89.99995000000001
  0
ARC
  5
A162
330
9F99
100
AcDbEntity
  8
1
  6
Continuous
100
AcDbCircle
 10
392.3855049999998
 20
160.229622
 30
0.0
 40
25.0
100
AcDbArc
 50
143.019409
 51
78.754654
  0
ARC
  5
A163
330
9F99
100
AcDbEntity
  8
1
  6
Continuous
100
AcDbCircle
 10
392.3855049999998
 20
160.229622
 30
0.0
 40
20.450001
100
AcDbArc
 50
147.38557
 51
74.38851200000001
  0
LINE
  5
A164
330
9F99
100
AcDbEntity
  8
1
  6
Continuous
100
AcDbLine
 10
409.298019
 20
148.7331189999999
 30
0.0
 11
398.4408329999998
 21
155.001524
 31
0.0
  0
LINE
  5
A165
330
9F99
100
AcDbEntity
  8
1
  6
Continuous
100
AcDbLine
 10
410.7980109999998
 20
151.331199
 30
0.0
 11
400.1827719999998
 21
157.4599159999999
 31
0.0
  0
LINE
  5
A166
330
9F99
100
AcDbEntity
  8
1
  6
Continuous
100
AcDbLine
 10
373.972987
 20
151.331205
 30
0.0
 11
384.830175
 21
157.5996029999997
 31
0.0
  0
LINE
  5
A167
330
9F99
100
AcDbEntity
  8
1
  6
Continuous
100
AcDbLine
 10
375.4729869999999
 20
148.7331299999999
 30
0.0
 11
386.330175
 21
155.001527
 31
0.0
  0
LINE
  5
A168
330
9F99
100
AcDbEntity
  8
1
  6
Continuous
100
AcDbLine
 10
182.4190319999999
 20
186.7092639999999
 30
0.0
 11
187.135505
 21
186.329622
 31
0.0
  0
LINE
  5
A169
330
9F99
100
AcDbEntity
  8
1
  6
Continuous
100
AcDbLine
 10
360.3519769999999
 20
186.7092639999999
 30
0.0
 11
355.6355049999999
 21
186.329622
 31
0.0
  0
ENDSEC
  0
SECTION
  2
OBJECTS
  0
DICTIONARY
  5
9F87
330
0
100
AcDbDictionary
281
     1
  3
ACAD_CIP_PREVIOUS_PRODUCT_INFO
350
A1E7
  3
ACAD_COLOR
350
A1C9
  3
ACAD_DETAILVIEWSTYLE
350
A1E2
  3
ACAD_GROUP
350
9F88
  3
ACAD_LAYOUT
350
9F94
  3
ACAD_MATERIAL
350
A197
  3
ACAD_MLEADERSTYLE
350
A1DE
  3
ACAD_MLINESTYLE
350
9F91
  3
ACAD_PLOTSETTINGS
350
9F93
  3
ACAD_PLOTSTYLENAME
350
A195
  3
ACAD_SCALELIST
350
A1CC
  3
ACAD_SECTIONVIEWSTYLE
350
A1E0
  3
ACAD_TABLESTYLE
350
A1CA
  3
ACAD_VISUALSTYLE
350
A1B0
  3
ACDB_RECOMPOSE_DATA
350
A205
  3
AcDbVariableDictionary
350
A1F8
  3
DWGPROPS
350
A206
  0
DICTIONARY
  5
A1E8
330
9F8B
100
AcDbDictionary
280
     1
281
     1
  3
ADSK_XREC_LAYER_RECONCILED
360
A1E9
  0
DICTIONARY
  5
A1EA
330
9FA1
100
AcDbDictionary
280
     1
281
     1
  3
ADSK_XREC_LAYER_RECONCILED
360
A1EB
  0
DICTIONARY
  5
A1EC
330
9FA2
100
AcDbDictionary
280
     1
281
     1
  3
ADSK_XREC_LAYER_RECONCILED
360
A1ED
  0
DICTIONARY
  5
A1EE
330
9FA3
100
AcDbDictionary
280
     1
281
     1
  3
ADSK_XREC_LAYER_RECONCILED
360
A1EF
  0
DICTIONARY
  5
A1F0
330
9FA4
100
AcDbDictionary
280
     1
281
     1
  3
ADSK_XREC_LAYER_RECONCILED
360
A1F1
  0
DICTIONARY
  5
A1F2
330
9FA5
100
AcDbDictionary
280
     1
281
     1
  3
ADSK_XREC_LAYER_RECONCILED
360
A1F3
  0
DICTIONARY
  5
A1F4
330
9FA6
100
AcDbDictionary
280
     1
281
     1
  3
ADSK_XREC_LAYER_RECONCILED
360
A1F5
  0
DICTIONARY
  5
A1F6
330
9FA7
100
AcDbDictionary
280
     1
281
     1
  3
ADSK_XREC_LAYER_RECONCILED
360
A1F7
  0
DICTIONARY
  5
A174
330
9F99
100
AcDbDictionary
281
     1
  3
ACAD_LAYOUTSELFREF
350
A191
  0
DICTIONARY
  5
A172
330
9F95
100
AcDbDictionary
281
     1
  3
ACAD_LAYOUTSELFREF
350
A190
  0
XRECORD
  5
A1E7
102
{ACAD_REACTORS
330
9F87
102
}
330
9F87
100
AcDbXrecord
280
     1
300
ACDLT
300
2014
300
ACDLT_F_S
  0
DICTIONARY
  5
A1C9
102
{ACAD_REACTORS
330
9F87
102
}
330
9F87
100
AcDbDictionary
281
     1
  0
DICTIONARY
  5
A1E2
102
{ACAD_REACTORS
330
9F87
102
}
330
9F87
100
AcDbDictionary
281
     1
  3
Imperial24
350
A1E3
  0
DICTIONARY
  5
9F88
102
{ACAD_REACTORS
330
9F87
102
}
330
9F87
100
AcDbDictionary
281
     1
  0
DICTIONARY
  5
9F94
102
{ACAD_REACTORS
330
9F87
102
}
330
9F87
100
AcDbDictionary
281
     1
  3
Model
350
A1E4
  3
レイアウト1
350
A1E5
  0
DICTIONARY
  5
A197
102
{ACAD_REACTORS
330
9F87
102
}
330
9F87
100
AcDbDictionary
281
     1
  3
ByBlock
350
A1A0
  3
ByLayer
350
A198
  3
Global
350
A1A8
  0
DICTIONARY
  5
A1DE
102
{ACAD_REACTORS
330
9F87
102
}
330
9F87
100
AcDbDictionary
281
     1
  3
Standard
350
A1DF
  0
DICTIONARY
  5
9F91
102
{ACAD_REACTORS
330
9F87
102
}
330
9F87
100
AcDbDictionary
281
     1
  3
STANDARD
350
9F92
  0
DICTIONARY
  5
9F93
102
{ACAD_REACTORS
330
9F87
102
}
330
9F87
100
AcDbDictionary
281
     1
  0
ACDBDICTIONARYWDFLT
  5
A195
102
{ACAD_REACTORS
330
9F87
102
}
330
9F87
100
AcDbDictionary
281
     1
  3
Normal
350
A196
100
AcDbDictionaryWithDefault
340
A196
  0
DICTIONARY
  5
A1CC
102
{ACAD_REACTORS
330
9F87
102
}
330
9F87
100
AcDbDictionary
281
     1
  3
A0
350
A1CD
  3
A1
350
A1CE
  3
A2
350
A1CF
  3
A3
350
A1D0
  3
A4
350
A1D1
  3
A5
350
A1D2
  3
A6
350
A1D3
  3
A7
350
A1D4
  3
A8
350
A1D5
  3
A9
350
A1D6
  3
B0
350
A1D7
  3
B1
350
A1D8
  3
B2
350
A1D9
  3
B3
350
A1DA
  3
B4
350
A1DB
  3
B5
350
A1DC
  3
B6
350
A1DD
  0
DICTIONARY
  5
A1E0
102
{ACAD_REACTORS
330
9F87
102
}
330
9F87
100
AcDbDictionary
281
     1
  3
Imperial24
350
A1E1
  0
DICTIONARY
  5
A1CA
102
{ACAD_REACTORS
330
9F87
102
}
330
9F87
100
AcDbDictionary
281
     1
  3
Standard
350
A1CB
  0
DICTIONARY
  5
A1B0
102
{ACAD_REACTORS
330
9F87
102
}
330
9F87
100
AcDbDictionary
281
     1
  3
2dWireframe
350
A1B6
  3
Basic
350
A1B5
  3
Brighten
350
A1BC
  3
ColorChange
350
A1C0
  3
Conceptual
350
A1B9
  3
Dim
350
A1BB
  3
EdgeColorOff
350
A1C8
  3
Facepattern
350
A1BF
  3
Flat
350
A1B1
  3
FlatWithEdges
350
A1B2
  3
Gouraud
350
A1B3
  3
GouraudWithEdges
350
A1B4
  3
Hidden
350
A1B8
  3
JitterOff
350
A1C6
  3
Linepattern
350
A1BE
  3
OverhangOff
350
A1C7
  3
Realistic
350
A1BA
  3
Shaded
350
A1C5
  3
Shaded with edges
350
A1C4
  3
Shades of Gray
350
A1C1
  3
Sketchy
350
A1C2
  3
Thicken
350
A1BD
  3
Wireframe
350
A1B7
  3
X-Ray
350
A1C3
  0
XRECORD
  5
A205
102
{ACAD_REACTORS
330
9F87
102
}
330
9F87
100
AcDbXrecord
280
     1
 90
        1
330
A1CB
  0
DICTIONARY
  5
A1F8
102
{ACAD_REACTORS
330
9F87
102
}
330
9F87
100
AcDbDictionary
281
     1
  3
CANNOSCALE
350
A1FD
  3
CMLEADERSTYLE
350
A1FA
  3
CTABLESTYLE
350
A1F9
  3
CVIEWDETAILSTYLE
350
A1FB
  3
CVIEWSECTIONSTYLE
350
A1FC
  3
DIMASSOC
350
A200
  3
INDEXCTL
350
A1FF
  3
SORTENTS
350
A1FE
  3
XCLIPFRAME
350
A201
  0
XRECORD
  5
A206
102
{ACAD_REACTORS
330
9F87
102
}
330
9F87
100
AcDbXrecord
280
     1
  1
DWGPROPS COOKIE
  2

  3

  4

  6

  7

  8
Yoshitsune
  9

300
=
301
=
302
=
303
=
304
=
305
=
306
=
307
=
308
=
309
=
 40
0.0979875231481482
 41
2451301.461993172
 42
2457192.690469017
  1

 90
        0
  0
XRECORD
  5
A1E9
102
{ACAD_REACTORS
330
A1E8
102
}
330
A1E8
100
AcDbXrecord
280
     1
290
     1
  0
XRECORD
  5
A1EB
102
{ACAD_REACTORS
330
A1EA
102
}
330
A1EA
100
AcDbXrecord
280
     1
290
     1
  0
XRECORD
  5
A1ED
102
{ACAD_REACTORS
330
A1EC
102
}
330
A1EC
100
AcDbXrecord
280
     1
290
     1
  0
XRECORD
  5
A1EF
102
{ACAD_REACTORS
330
A1EE
102
}
330
A1EE
100
AcDbXrecord
280
     1
290
     1
  0
XRECORD
  5
A1F1
102
{ACAD_REACTORS
330
A1F0
102
}
330
A1F0
100
AcDbXrecord
280
     1
290
     1
  0
XRECORD
  5
A1F3
102
{ACAD_REACTORS
330
A1F2
102
}
330
A1F2
100
AcDbXrecord
280
     1
290
     1
  0
XRECORD
  5
A1F5
102
{ACAD_REACTORS
330
A1F4
102
}
330
A1F4
100
AcDbXrecord
280
     1
290
     1
  0
XRECORD
  5
A1F7
102
{ACAD_REACTORS
330
A1F6
102
}
330
A1F6
100
AcDbXrecord
280
     1
290
     1
  0
XRECORD
  5
A191
102
{ACAD_REACTORS
330
A174
102
}
330
A174
100
AcDbXrecord
280
     1
340
9F99
  0
XRECORD
  5
A190
102
{ACAD_REACTORS
330
A172
102
}
330
A172
100
AcDbXrecord
280
     1
340
9F95
  0
ACDBDETAILVIEWSTYLE
  5
A1E3
102
{ACAD_XDICTIONARY
360
A23E
102
}
102
{ACAD_REACTORS
330
A1E2
102
}
330
A1E2
100
AcDbModelDocViewStyle
 70
     0
  3
Imperial24
290
     0
100
AcDbDetailViewStyle
 70
     0
 71
     0
 90
        3
 71
     1
340
9F8C
 40
0.24
340
0
 40
0.24
300

 40
0.36
280
     3
 71
     2
340
9F90
 90
       25
 71
     3
340
9F8C
 40
0.24
 90
        1
 40
0.75
 90
        1
300
%<\AcVar ViewType \f "%tc1">% %<\AcVar ViewDetailId>%\PSCALE %<\AcVar ViewScale \f "%sn">%
 71
     4
340
9F90
 90
       25
340
9F90
 90
       25
280
     0
  0
LAYOUT
  5
A1E4
102
{ACAD_XDICTIONARY
360
A240
102
}
102
{ACAD_REACTORS
330
9F94
102
}
330
9F94
100
AcDbPlotSettings
  1

  2
Canon LBP9100C
  4

  6

 40
0.0
 41
0.0
 42
0.0
 43
0.0
 44
0.0
 45
0.0
 46
0.0
 47
0.0
 48
0.0
 49
0.0
140
0.0
141
0.0
142
1.0
143
1.0
 70
  1712
 72
     0
 73
     0
 74
     0
  7

 75
     0
147
1.0
148
0.0
149
0.0
100
AcDbLayout
  1
Model
 70
     1
 71
     0
 10
0.0
 20
0.0
 11
12.0
 21
9.0
 12
0.0
 22
0.0
 32
0.0
 14
0.0
 24
0.0
 34
0.0
 15
0.0
 25
0.0
 35
0.0
146
0.0
 13
0.0
 23
0.0
 33
0.0
 16
1.0
 26
0.0
 36
0.0
 17
0.0
 27
1.0
 37
0.0
 76
     0
330
9F99
331
A18F
  0
LAYOUT
  5
A1E5
102
{ACAD_XDICTIONARY
360
A242
102
}
102
{ACAD_REACTORS
330
9F94
102
}
330
9F94
100
AcDbPlotSettings
  1

  2
Canon LBP9100C
  4

  6

 40
0.0
 41
0.0
 42
0.0
 43
0.0
 44
0.0
 45
0.0
 46
0.0
 47
0.0
 48
0.0
 49
0.0
140
0.0
141
0.0
142
1.0
143
1.0
 70
   688
 72
     0
 73
     0
 74
     5
  7

 75
    16
147
1.0
148
0.0
149
0.0
100
AcDbLayout
  1
レイアウト1
 70
     0
 71
     1
 10
0.0
 20
0.0
 11
420.0
 21
297.0
 12
0.0
 22
0.0
 32
0.0
 14
1.000000000000000E+20
 24
1.000000000000000E+20
 34
1.000000000000000E+20
 15
-1.000000000000000E+20
 25
-1.000000000000000E+20
 35
-1.000000000000000E+20
146
0.0
 13
0.0
 23
0.0
 33
0.0
 16
1.0
 26
0.0
 36
0.0
 17
0.0
 27
1.0
 37
0.0
 76
     0
330
9F95
  0
MATERIAL
  5
A1A0
102
{ACAD_XDICTIONARY
360
A1A1
102
}
102
{ACAD_REACTORS
330
A197
102
}
330
A197
100
AcDbMaterial
  1
ByBlock
 72
     0
 43
0.0208333333333333
 43
0.0
 43
0.0
 43
0.0
 43
0.0
 43
0.0208333333333333
 43
0.0
 43
0.0
 43
0.0
 43
0.0
 43
1.0
 43
0.0
 43
0.0
 43
0.0
 43
0.0
 43
1.0
 77
     0
 47
0.0208333333333333
 47
0.0
 47
0.0
 47
0.0
 47
0.0
 47
0.0208333333333333
 47
0.0
 47
0.0
 47
0.0
 47
0.0
 47
1.0
 47
0.0
 47
0.0
 47
0.0
 47
0.0
 47
1.0
171
     0
 49
0.0208333333333333
 49
0.0
 49
0.0
 49
0.0
 49
0.0
 49
0.0208333333333333
 49
0.0
 49
0.0
 49
0.0
 49
0.0
 49
1.0
 49
0.0
 49
0.0
 49
0.0
 49
0.0
 49
1.0
175
     0
142
0.0208333333333333
142
0.0
142
0.0
142
0.0
142
0.0
142
0.0208333333333333
142
0.0
142
0.0
142
0.0
142
0.0
142
1.0
142
0.0
142
0.0
142
0.0
142
0.0
142
1.0
179
     0
144
0.0208333333333333
144
0.0
144
0.0
144
0.0
144
0.0
144
0.0208333333333333
144
0.0
144
0.0
144
0.0
144
0.0
144
1.0
144
0.0
144
0.0
144
0.0
144
0.0
144
1.0
147
0.0208333333333333
147
0.0
147
0.0
147
0.0
147
0.0
147
0.0208333333333333
147
0.0
147
0.0
147
0.0
147
0.0
147
1.0
147
0.0
147
0.0
147
0.0
147
0.0
147
1.0
  0
MATERIAL
  5
A198
102
{ACAD_XDICTIONARY
360
A199
102
}
102
{ACAD_REACTORS
330
A197
102
}
330
A197
100
AcDbMaterial
  1
ByLayer
 72
     0
 43
0.0208333333333333
 43
0.0
 43
0.0
 43
0.0
 43
0.0
 43
0.0208333333333333
 43
0.0
 43
0.0
 43
0.0
 43
0.0
 43
1.0
 43
0.0
 43
0.0
 43
0.0
 43
0.0
 43
1.0
 77
     0
 47
0.0208333333333333
 47
0.0
 47
0.0
 47
0.0
 47
0.0
 47
0.0208333333333333
 47
0.0
 47
0.0
 47
0.0
 47
0.0
 47
1.0
 47
0.0
 47
0.0
 47
0.0
 47
0.0
 47
1.0
171
     0
 49
0.0208333333333333
 49
0.0
 49
0.0
 49
0.0
 49
0.0
 49
0.0208333333333333
 49
0.0
 49
0.0
 49
0.0
 49
0.0
 49
1.0
 49
0.0
 49
0.0
 49
0.0
 49
0.0
 49
1.0
175
     0
142
0.0208333333333333
142
0.0
142
0.0
142
0.0
142
0.0
142
0.0208333333333333
142
0.0
142
0.0
142
0.0
142
0.0
142
1.0
142
0.0
142
0.0
142
0.0
142
0.0
142
1.0
179
     0
144
0.0208333333333333
144
0.0
144
0.0
144
0.0
144
0.0
144
0.0208333333333333
144
0.0
144
0.0
144
0.0
144
0.0
144
1.0
144
0.0
144
0.0
144
0.0
144
0.0
144
1.0
147
0.0208333333333333
147
0.0
147
0.0
147
0.0
147
0.0
147
0.0208333333333333
147
0.0
147
0.0
147
0.0
147
0.0
147
1.0
147
0.0
147
0.0
147
0.0
147
0.0
147
1.0
  0
MATERIAL
  5
A1A8
102
{ACAD_XDICTIONARY
360
A1A9
102
}
102
{ACAD_REACTORS
330
A197
102
}
330
A197
100
AcDbMaterial
  1
Global
 72
     0
 43
0.0208333333333333
 43
0.0
 43
0.0
 43
0.0
 43
0.0
 43
0.0208333333333333
 43
0.0
 43
0.0
 43
0.0
 43
0.0
 43
1.0
 43
0.0
 43
0.0
 43
0.0
 43
0.0
 43
1.0
 77
     0
 47
0.0208333333333333
 47
0.0
 47
0.0
 47
0.0
 47
0.0
 47
0.0208333333333333
 47
0.0
 47
0.0
 47
0.0
 47
0.0
 47
1.0
 47
0.0
 47
0.0
 47
0.0
 47
0.0
 47
1.0
171
     0
 49
0.0208333333333333
 49
0.0
 49
0.0
 49
0.0
 49
0.0
 49
0.0208333333333333
 49
0.0
 49
0.0
 49
0.0
 49
0.0
 49
1.0
 49
0.0
 49
0.0
 49
0.0
 49
0.0
 49
1.0
175
     0
142
0.0208333333333333
142
0.0
142
0.0
142
0.0
142
0.0
142
0.0208333333333333
142
0.0
142
0.0
142
0.0
142
0.0
142
1.0
142
0.0
142
0.0
142
0.0
142
0.0
142
1.0
179
     0
144
0.0208333333333333
144
0.0
144
0.0
144
0.0
144
0.0
144
0.0208333333333333
144
0.0
144
0.0
144
0.0
144
0.0
144
1.0
144
0.0
144
0.0
144
0.0
144
0.0
144
1.0
147
0.0208333333333333
147
0.0
147
0.0
147
0.0
147
0.0
147
0.0208333333333333
147
0.0
147
0.0
147
0.0
147
0.0
147
1.0
147
0.0
147
0.0
147
0.0
147
0.0
147
1.0
  0
MLEADERSTYLE
  5
A1DF
102
{ACAD_REACTORS
330
A1DE
102
}
330
A1DE
100
AcDbMLeaderStyle
170
     2
171
     1
172
     0
 90
        2
 40
0.0
 41
0.0
173
     1
 91
-1056964608
340
9F8E
 92
       -2
290
     1
 42
0.09
291
     1
 43
0.36
  3
Standard
 44
0.18
300

342
9F8C
174
     1
178
     6
175
     1
176
     0
 93
-1056964608
 45
0.18
292
     0
297
     0
 46
0.18
 94
-1056964608
 47
1.0
 49
1.0
140
1.0
293
     1
141
0.0
294
     1
177
     0
142
1.0
295
     0
296
     0
143
0.125
1001
ACAD_MLEADERVER
1070
     2
  0
MLINESTYLE
  5
9F92
102
{ACAD_REACTORS
330
9F91
102
}
330
9F91
100
AcDbMlineStyle
  2
STANDARD
 70
     0
  3

 62
   256
 51
90.0
 52
90.0
 71
     2
 49
0.5
 62
   256
  6
BYLAYER
 49
-0.5
 62
   256
  6
BYLAYER
  0
ACDBPLACEHOLDER
  5
A196
102
{ACAD_REACTORS
330
A195
102
}
330
A195
  0
SCALE
  5
A1CD
102
{ACAD_REACTORS
330
A1CC
102
}
330
A1CC
100
AcDbScale
 70
     0
300
1:1
140
1.0
141
1.0
290
     1
  0
SCALE
  5
A1CE
102
{ACAD_REACTORS
330
A1CC
102
}
330
A1CC
100
AcDbScale
 70
     0
300
1/128" = 1'-0"
140
0.0078125
141
12.0
290
     0
  0
SCALE
  5
A1CF
102
{ACAD_REACTORS
330
A1CC
102
}
330
A1CC
100
AcDbScale
 70
     0
300
1/64" = 1'-0"
140
0.015625
141
12.0
290
     0
  0
SCALE
  5
A1D0
102
{ACAD_REACTORS
330
A1CC
102
}
330
A1CC
100
AcDbScale
 70
     0
300
1/32" = 1'-0"
140
0.03125
141
12.0
290
     0
  0
SCALE
  5
A1D1
102
{ACAD_REACTORS
330
A1CC
102
}
330
A1CC
100
AcDbScale
 70
     0
300
1/16" = 1'-0"
140
0.0625
141
12.0
290
     0
  0
SCALE
  5
A1D2
102
{ACAD_REACTORS
330
A1CC
102
}
330
A1CC
100
AcDbScale
 70
     0
300
3/32" = 1'-0"
140
0.09375
141
12.0
290
     0
  0
SCALE
  5
A1D3
102
{ACAD_REACTORS
330
A1CC
102
}
330
A1CC
100
AcDbScale
 70
     0
300
1/8" = 1'-0"
140
0.125
141
12.0
290
     0
  0
SCALE
  5
A1D4
102
{ACAD_REACTORS
330
A1CC
102
}
330
A1CC
100
AcDbScale
 70
     0
300
3/16" = 1'-0"
140
0.1875
141
12.0
290
     0
  0
SCALE
  5
A1D5
102
{ACAD_REACTORS
330
A1CC
102
}
330
A1CC
100
AcDbScale
 70
     0
300
1/4" = 1'-0"
140
0.25
141
12.0
290
     0
  0
SCALE
  5
A1D6
102
{ACAD_REACTORS
330
A1CC
102
}
330
A1CC
100
AcDbScale
 70
     0
300
3/8" = 1'-0"
140
0.375
141
12.0
290
     0
  0
SCALE
  5
A1D7
102
{ACAD_REACTORS
330
A1CC
102
}
330
A1CC
100
AcDbScale
 70
     0
300
1/2" = 1'-0"
140
0.5
141
12.0
290
     0
  0
SCALE
  5
A1D8
102
{ACAD_REACTORS
330
A1CC
102
}
330
A1CC
100
AcDbScale
 70
     0
300
3/4" = 1'-0"
140
0.75
141
12.0
290
     0
  0
SCALE
  5
A1D9
102
{ACAD_REACTORS
330
A1CC
102
}
330
A1CC
100
AcDbScale
 70
     0
300
1" = 1'-0"
140
1.0
141
12.0
290
     0
  0
SCALE
  5
A1DA
102
{ACAD_REACTORS
330
A1CC
102
}
330
A1CC
100
AcDbScale
 70
     0
300
1-1/2" = 1'-0"
140
1.5
141
12.0
290
     0
  0
SCALE
  5
A1DB
102
{ACAD_REACTORS
330
A1CC
102
}
330
A1CC
100
AcDbScale
 70
     0
300
3" = 1'-0"
140
3.0
141
12.0
290
     0
  0
SCALE
  5
A1DC
102
{ACAD_REACTORS
330
A1CC
102
}
330
A1CC
100
AcDbScale
 70
     0
300
6" = 1'-0"
140
6.0
141
12.0
290
     0
  0
SCALE
  5
A1DD
102
{ACAD_REACTORS
330
A1CC
102
}
330
A1CC
100
AcDbScale
 70
     0
300
1'-0" = 1'-0"
140
12.0
141
12.0
290
     0
  0
ACDBSECTIONVIEWSTYLE
  5
A1E1
102
{ACAD_XDICTIONARY
360
A23C
102
}
102
{ACAD_REACTORS
330
A1E0
102
}
330
A1E0
100
AcDbModelDocViewStyle
 70
     0
  3
Imperial24
290
     0
100
AcDbSectionViewStyle
 70
     0
 71
     0
 90
       78
 71
     1
340
9F8C
 40
0.24
340
0
340
0
 40
0.24
300
I, O, Q, S, X, Z
 40
0.48
 90
        3
 40
0.18
 90
        1
 71
     2
340
9F90
 90
       25
340
9F90
 90
       50
 40
0.24
 40
0.0
 40
0.24
 71
     3
340
9F8C
 40
0.24
 90
        1
 40
0.75
 90
        1
300
%<\AcVar ViewType \f "%tc1">% %<\AcVar ViewSectionStartId>%-%<\AcVar ViewSectionEndId>%\PSCALE %<\AcVar ViewScale \f "%sn">%
 71
     4
300
ANSI31
 40
1.0
 90
        0
290
     0
290
     0
 90
        6
 40
0.0
 40
1.570796326794896
 40
0.2617993877991494
 40
1.308996938995747
 40
-0.2617993877991494
 40
1.832595714594046
  0
TABLESTYLE
  5
A1CB
102
{ACAD_XDICTIONARY
360
A203
102
}
102
{ACAD_REACTORS
330
A1CA
102
}
330
A1CA
100
AcDbTableStyle
  3
Standard
 70
     0
 71
     0
 40
0.06
 41
0.06
280
     0
281
     0
  7
STANDARD
140
0.18
170
     2
 62
     0
 63
     7
283
     0
274
    -2
284
     1
 64
     0
275
    -2
285
     1
 65
     0
276
    -2
286
     1
 66
     0
277
    -2
287
     1
 67
     0
278
    -2
288
     1
 68
     0
279
    -2
289
     1
 69
     0
  7
STANDARD
140
0.25
170
     5
 62
     0
 63
     7
283
     0
274
    -2
284
     1
 64
     0
275
    -2
285
     1
 65
     0
276
    -2
286
     1
 66
     0
277
    -2
287
     1
 67
     0
278
    -2
288
     1
 68
     0
279
    -2
289
     1
 69
     0
  7
STANDARD
140
0.18
170
     5
 62
     0
 63
     7
283
     0
274
    -2
284
     1
 64
     0
275
    -2
285
     1
 65
     0
276
    -2
286
     1
 66
     0
277
    -2
287
     1
 67
     0
278
    -2
288
     1
 68
     0
279
    -2
289
     1
 69
     0
  0
VISUALSTYLE
  5
A1B6
102
{ACAD_XDICTIONARY
360
A214
102
}
102
{ACAD_REACTORS
330
A1B0
102
}
330
A1B0
100
AcDbVisualStyle
  2
2dWireframe
 70
     4
 71
     0
 72
     2
 73
     0
 90
        0
 40
-0.6
 41
-30.0
 62
     5
 63
     7
 74
     1
 91
        4
 64
     7
 65
   257
 75
     1
175
     1
 42
1.0
 92
        0
 66
   257
 43
1.0
 76
     1
 77
     6
 78
     2
 67
     7
 79
     5
170
     0
171
     0
290
     0
174
     0
 93
        1
 44
0.0
173
     0
291
     0
 45
0.0
1001
ACAD
1000
AcDbSavedByObjectVersion
1070
     0
  0
VISUALSTYLE
  5
A1B5
102
{ACAD_XDICTIONARY
360
A212
102
}
102
{ACAD_REACTORS
330
A1B0
102
}
330
A1B0
100
AcDbVisualStyle
  2
Basic
 70
     7
 71
     1
 72
     0
 73
     1
 90
        0
 40
-0.6
 41
-30.0
 62
     5
 63
     7
 74
     0
 91
        4
 64
     7
 65
   257
 75
     1
175
     1
 42
1.0
 92
        8
 66
     7
 43
1.0
 76
     1
 77
     6
 78
     2
 67
     7
 79
     5
170
     0
171
     0
290
     0
174
     0
 93
        1
 44
0.0
173
     0
291
     1
 45
0.0
1001
ACAD
1000
AcDbSavedByObjectVersion
1070
     0
  0
VISUALSTYLE
  5
A1BC
102
{ACAD_XDICTIONARY
360
A220
102
}
102
{ACAD_REACTORS
330
A1B0
102
}
330
A1B0
100
AcDbVisualStyle
  2
Brighten
 70
    12
 71
     2
 72
     2
 73
     0
 90
        0
 40
-0.6
 41
-30.0
 62
     5
 63
     7
 74
     1
 91
        4
 64
     7
 65
   257
 75
     1
175
     1
 42
1.0
 92
        8
 66
     7
 43
1.0
 76
     1
 77
     6
 78
     2
 67
     7
 79
     5
170
     0
171
     0
290
     0
174
     0
 93
        1
 44
50.0
173
     0
291
     1
 45
0.0
1001
ACAD
1000
AcDbSavedByObjectVersion
1070
     0
  0
VISUALSTYLE
  5
A1C0
102
{ACAD_XDICTIONARY
360
A228
102
}
102
{ACAD_REACTORS
330
A1B0
102
}
330
A1B0
100
AcDbVisualStyle
  2
ColorChange
 70
    16
 71
     2
 72
     2
 73
     3
 90
        0
 40
-0.6
 41
-30.0
 62
     5
 63
     8
 74
     1
 91
        4
 64
     7
 65
   257
 75
     1
175
     1
 42
1.0
 92
        8
 66
     8
 43
1.0
 76
     1
 77
     6
 78
     2
 67
     7
 79
     5
170
     0
171
     0
290
     0
174
     0
 93
        1
 44
0.0
173
     0
291
     1
 45
0.0
1001
ACAD
1000
AcDbSavedByObjectVersion
1070
     0
  0
VISUALSTYLE
  5
A1B9
102
{ACAD_XDICTIONARY
360
A21A
102
}
102
{ACAD_REACTORS
330
A1B0
102
}
330
A1B0
100
AcDbVisualStyle
  2
Conceptual
 70
     9
 71
     3
 72
     2
 73
     0
 90
        0
 40
-0.6
 41
-30.0
 62
     5
 63
     7
 74
     2
 91
        2
 64
     7
 65
   257
 75
     1
175
     1
 42
179.0
 92
        8
 66
     7
 43
1.0
 76
     1
 77
     6
 78
     2
 67
     7
 79
     3
170
     0
171
     0
290
     0
174
     0
 93
        1
 44
0.0
173
     0
291
     0
 45
0.0
1001
ACAD
1000
AcDbSavedByObjectVersion
1070
     0
  0
VISUALSTYLE
  5
A1BB
102
{ACAD_XDICTIONARY
360
A21E
102
}
102
{ACAD_REACTORS
330
A1B0
102
}
330
A1B0
100
AcDbVisualStyle
  2
Dim
 70
    11
 71
     2
 72
     2
 73
     0
 90
        0
 40
-0.6
 41
-30.0
 62
     5
 63
     7
 74
     1
 91
        4
 64
     7
 65
   257
 75
     1
175
     1
 42
1.0
 92
        8
 66
     7
 43
1.0
 76
     1
 77
     6
 78
     2
 67
     7
 79
     5
170
     0
171
     0
290
     0
174
     0
 93
        1
 44
-50.0
173
     0
291
     1
 45
0.0
1001
ACAD
1000
AcDbSavedByObjectVersion
1070
     0
  0
VISUALSTYLE
  5
A1C8
102
{ACAD_XDICTIONARY
360
A238
102
}
102
{ACAD_REACTORS
330
A1B0
102
}
330
A1B0
100
AcDbVisualStyle
  2
EdgeColorOff
 70
    22
 71
     2
 72
     2
 73
     0
 90
        0
 40
-0.6
 41
-30.0
 62
     5
 63
     7
 74
     1
 91
        4
 64
     7
 65
   257
 75
     1
175
     1
 42
1.0
 92
        8
 66
     7
 43
1.0
 76
     1
 77
     6
 78
     2
 67
     7
 79
     5
170
     0
171
     0
290
     0
174
     0
 93
        1
 44
0.0
173
     0
291
     1
 45
0.0
1001
ACAD
1000
AcDbSavedByObjectVersion
1070
     0
  0
VISUALSTYLE
  5
A1BF
102
{ACAD_XDICTIONARY
360
A226
102
}
102
{ACAD_REACTORS
330
A1B0
102
}
330
A1B0
100
AcDbVisualStyle
  2
Facepattern
 70
    15
 71
     2
 72
     2
 73
     0
 90
        0
 40
-0.6
 41
-30.0
 62
     5
 63
     7
 74
     1
 91
        4
 64
     7
 65
   257
 75
     1
175
     1
 42
1.0
 92
        8
 66
     7
 43
1.0
 76
     1
 77
     6
 78
     2
 67
     7
 79
     5
170
     0
171
     0
290
     0
174
     0
 93
        1
 44
0.0
173
     0
291
     1
 45
0.0
1001
ACAD
1000
AcDbSavedByObjectVersion
1070
     0
  0
VISUALSTYLE
  5
A1B1
102
{ACAD_XDICTIONARY
360
A20A
102
}
102
{ACAD_REACTORS
330
A1B0
102
}
330
A1B0
100
AcDbVisualStyle
  2
Flat
 70
     0
 71
     2
 72
     1
 73
     1
 90
        2
 40
-0.6
 41
30.0
 62
     5
 63
     7
 74
     0
 91
        0
 64
     7
 65
   257
 75
     1
175
     1
 42
1.0
 92
        8
 66
     7
 43
1.0
 76
     1
 77
     6
 78
     2
 67
     7
 79
     5
170
     0
171
     0
290
     0
174
     0
 93
       13
 44
0.0
173
     0
291
     1
 45
0.0
1001
ACAD
1000
AcDbSavedByObjectVersion
1070
     0
  0
VISUALSTYLE
  5
A1B2
102
{ACAD_XDICTIONARY
360
A20C
102
}
102
{ACAD_REACTORS
330
A1B0
102
}
330
A1B0
100
AcDbVisualStyle
  2
FlatWithEdges
 70
     1
 71
     2
 72
     1
 73
     1
 90
        2
 40
-0.6
 41
30.0
 62
     5
 63
     7
 74
     1
 91
        0
 64
     7
 65
   257
 75
     1
175
     1
 42
1.0
 92
        0
 66
   257
 43
1.0
 76
     1
 77
     6
 78
     2
 67
     7
 79
     5
170
     0
171
     0
290
     0
174
     0
 93
       13
 44
0.0
173
     0
291
     1
 45
0.0
1001
ACAD
1000
AcDbSavedByObjectVersion
1070
     0
  0
VISUALSTYLE
  5
A1B3
102
{ACAD_XDICTIONARY
360
A20E
102
}
102
{ACAD_REACTORS
330
A1B0
102
}
330
A1B0
100
AcDbVisualStyle
  2
Gouraud
 70
     2
 71
     2
 72
     2
 73
     1
 90
        2
 40
-0.6
 41
30.0
 62
     5
 63
     7
 74
     0
 91
        0
 64
     7
 65
   257
 75
     1
175
     1
 42
1.0
 92
        0
 66
     7
 43
1.0
 76
     1
 77
     6
 78
     2
 67
     7
 79
     5
170
     0
171
     0
290
     0
174
     0
 93
       13
 44
0.0
173
     0
291
     1
 45
0.0
1001
ACAD
1000
AcDbSavedByObjectVersion
1070
     0
  0
VISUALSTYLE
  5
A1B4
102
{ACAD_XDICTIONARY
360
A210
102
}
102
{ACAD_REACTORS
330
A1B0
102
}
330
A1B0
100
AcDbVisualStyle
  2
GouraudWithEdges
 70
     3
 71
     2
 72
     2
 73
     1
 90
        2
 40
-0.6
 41
30.0
 62
     5
 63
     7
 74
     1
 91
        0
 64
     7
 65
   257
 75
     1
175
     1
 42
1.0
 92
        0
 66
   257
 43
1.0
 76
     1
 77
     6
 78
     2
 67
     7
 79
     5
170
     0
171
     0
290
     0
174
     0
 93
       13
 44
0.0
173
     0
291
     1
 45
0.0
1001
ACAD
1000
AcDbSavedByObjectVersion
1070
     0
  0
VISUALSTYLE
  5
A1B8
102
{ACAD_XDICTIONARY
360
A218
102
}
102
{ACAD_REACTORS
330
A1B0
102
}
330
A1B0
100
AcDbVisualStyle
  2
Hidden
 70
     6
 71
     1
 72
     2
 73
     2
 90
        0
 40
-0.6
 41
-30.0
 62
     5
 63
     7
 74
     2
 91
        2
 64
     7
 65
   257
 75
     2
175
     1
 42
40.0
 92
        0
 66
   257
 43
1.0
 76
     1
 77
     6
 78
     2
 67
     7
 79
     3
170
     0
171
     0
290
     0
174
     0
 93
        1
 44
0.0
173
     0
291
     0
 45
0.0
1001
ACAD
1000
AcDbSavedByObjectVersion
1070
     0
  0
VISUALSTYLE
  5
A1C6
102
{ACAD_XDICTIONARY
360
A234
102
}
102
{ACAD_REACTORS
330
A1B0
102
}
330
A1B0
100
AcDbVisualStyle
  2
JitterOff
 70
    20
 71
     2
 72
     2
 73
     0
 90
        0
 40
-0.6
 41
-30.0
 62
     5
 63
     7
 74
     1
 91
        4
 64
     7
 65
   257
 75
     1
175
     1
 42
1.0
 92
       10
 66
     7
 43
1.0
 76
     1
 77
     6
 78
     2
 67
     7
 79
     5
170
     0
171
     0
290
     0
174
     0
 93
        1
 44
0.0
173
     0
291
     1
 45
0.0
1001
ACAD
1000
AcDbSavedByObjectVersion
1070
     0
  0
VISUALSTYLE
  5
A1BE
102
{ACAD_XDICTIONARY
360
A224
102
}
102
{ACAD_REACTORS
330
A1B0
102
}
330
A1B0
100
AcDbVisualStyle
  2
Linepattern
 70
    14
 71
     2
 72
     2
 73
     0
 90
        0
 40
-0.6
 41
-30.0
 62
     5
 63
     7
 74
     1
 91
        4
 64
     7
 65
   257
 75
     7
175
     7
 42
1.0
 92
        8
 66
     7
 43
1.0
 76
     1
 77
     6
 78
     2
 67
     7
 79
     5
170
     0
171
     0
290
     0
174
     0
 93
        1
 44
0.0
173
     0
291
     1
 45
0.0
1001
ACAD
1000
AcDbSavedByObjectVersion
1070
     0
  0
VISUALSTYLE
  5
A1C7
102
{ACAD_XDICTIONARY
360
A236
102
}
102
{ACAD_REACTORS
330
A1B0
102
}
330
A1B0
100
AcDbVisualStyle
  2
OverhangOff
 70
    21
 71
     2
 72
     2
 73
     0
 90
        0
 40
-0.6
 41
-30.0
 62
     5
 63
     7
 74
     1
 91
        4
 64
     7
 65
   257
 75
     1
175
     1
 42
1.0
 92
        9
 66
     7
 43
1.0
 76
     1
 77
     6
 78
     2
 67
     7
 79
     5
170
     0
171
     0
290
     0
174
     0
 93
        1
 44
0.0
173
     0
291
     1
 45
0.0
1001
ACAD
1000
AcDbSavedByObjectVersion
1070
     0
  0
VISUALSTYLE
  5
A1BA
102
{ACAD_XDICTIONARY
360
A21C
102
}
102
{ACAD_REACTORS
330
A1B0
102
}
330
A1B0
100
AcDbVisualStyle
  2
Realistic
 70
     8
 71
     2
 72
     3
 73
     0
 90
        2
 40
-0.6
 41
30.0
 62
     5
 63
     7
 74
     0
 91
        0
 64
     7
 65
   257
 75
     1
175
     1
 42
1.0
 92
        8
 66
   257
 43
1.0
 76
     1
 77
     6
 78
     2
 67
     7
 79
     3
170
     0
171
     0
290
     0
174
     0
 93
       13
 44
0.0
173
     0
291
     0
 45
0.0
1001
ACAD
1000
AcDbSavedByObjectVersion
1070
     0
  0
VISUALSTYLE
  5
A1C5
102
{ACAD_XDICTIONARY
360
A232
102
}
102
{ACAD_REACTORS
330
A1B0
102
}
330
A1B0
100
AcDbVisualStyle
  2
Shaded
 70
    27
 71
     2
 72
     2
 73
     1
 90
        2
 40
-0.6
 41
30.0
 62
     5
 63
     7
 74
     0
 91
        4
 64
     7
 65
   257
 75
     1
175
     1
 42
1.0
 92
        8
 66
   257
 43
1.0
 76
     1
 77
     6
 78
     2
 67
     8
 79
     3
170
     0
171
     0
290
     0
174
     0
 93
        5
 44
0.0
173
     0
291
     0
 45
0.0
1001
ACAD
1000
AcDbSavedByObjectVersion
1070
     0
  0
VISUALSTYLE
  5
A1C4
102
{ACAD_XDICTIONARY
360
A230
102
}
102
{ACAD_REACTORS
330
A1B0
102
}
330
A1B0
100
AcDbVisualStyle
  2
Shaded with edges
 70
    26
 71
     2
 72
     2
 73
     1
 90
        2
 40
-0.6
 41
30.0
 62
     5
 63
     7
 74
     1
 91
       10
 64
     7
 65
   257
 75
     2
175
     1
 42
1.0
 92
        8
 66
   257
 43
1.0
 76
     1
 77
     6
 78
     2
 67
     7
 79
     3
170
     0
171
     0
290
     0
174
     0
 93
        5
 44
0.0
173
     0
291
     0
 45
0.0
1001
ACAD
1000
AcDbSavedByObjectVersion
1070
     0
  0
VISUALSTYLE
  5
A1C1
102
{ACAD_XDICTIONARY
360
A22A
102
}
102
{ACAD_REACTORS
330
A1B0
102
}
330
A1B0
100
AcDbVisualStyle
  2
Shades of Gray
 70
    23
 71
     2
 72
     2
 73
     3
 90
        0
 40
-0.6
 41
-30.0
 62
     5
 63
     7
 74
     2
 91
        2
 64
     7
 65
     7
 75
     1
175
     1
 42
40.0
 92
        8
 66
     7
 43
1.0
 76
     1
 77
     6
 78
     2
 67
     7
 79
     3
170
     0
171
     0
290
     0
174
     0
 93
        1
 44
0.0
173
     0
291
     0
 45
0.0
1001
ACAD
1000
AcDbSavedByObjectVersion
1070
     0
  0
VISUALSTYLE
  5
A1C2
102
{ACAD_XDICTIONARY
360
A22C
102
}
102
{ACAD_REACTORS
330
A1B0
102
}
330
A1B0
100
AcDbVisualStyle
  2
Sketchy
 70
    24
 71
     1
 72
     2
 73
     2
 90
        0
 40
-0.6
 41
-30.0
 62
     5
 63
     7
 74
     2
 91
        2
 64
     7
 65
     7
 75
     1
175
     1
 42
40.0
 92
       11
 66
     7
 43
1.0
 76
     1
 77
     6
 78
     2
 67
     7
 79
     6
170
     0
171
     0
290
     0
174
     0
 93
        1
 44
0.0
173
     0
291
     0
 45
0.0
1001
ACAD
1000
AcDbSavedByObjectVersion
1070
     0
  0
VISUALSTYLE
  5
A1BD
102
{ACAD_XDICTIONARY
360
A222
102
}
102
{ACAD_REACTORS
330
A1B0
102
}
330
A1B0
100
AcDbVisualStyle
  2
Thicken
 70
    13
 71
     2
 72
     2
 73
     0
 90
        0
 40
-0.6
 41
-30.0
 62
     5
 63
     7
 74
     1
 91
        4
 64
     7
 65
   257
 75
     1
175
     1
 42
1.0
 92
       12
 66
     7
 43
1.0
 76
     1
 77
     6
 78
     2
 67
     7
 79
     5
170
     0
171
     0
290
     0
174
     0
 93
        1
 44
0.0
173
     0
291
     1
 45
0.0
1001
ACAD
1000
AcDbSavedByObjectVersion
1070
     0
  0
VISUALSTYLE
  5
A1B7
102
{ACAD_XDICTIONARY
360
A216
102
}
102
{ACAD_REACTORS
330
A1B0
102
}
330
A1B0
100
AcDbVisualStyle
  2
Wireframe
 70
     5
 71
     0
 72
     2
 73
     0
 90
        0
 40
-0.6
 41
-30.0
 62
     5
 63
     7
 74
     1
 91
        4
 64
     7
 65
   257
 75
     1
175
     1
 42
1.0
 92
        0
 66
   257
 43
1.0
 76
     1
 77
     6
 78
     2
 67
     7
 79
     3
170
     0
171
     0
290
     0
174
     0
 93
        1
 44
0.0
173
     0
291
     0
 45
0.0
1001
ACAD
1000
AcDbSavedByObjectVersion
1070
     0
  0
VISUALSTYLE
  5
A1C3
102
{ACAD_XDICTIONARY
360
A22E
102
}
102
{ACAD_REACTORS
330
A1B0
102
}
330
A1B0
100
AcDbVisualStyle
  2
X-Ray
 70
    25
 71
     2
 72
     2
 73
     1
 90
        1
 40
0.5
 41
-30.0
 62
     5
 63
     7
 74
     1
 91
        0
 64
     7
 65
   257
 75
     1
175
     1
 42
1.0
 92
        8
 66
     7
 43
1.0
 76
     1
 77
     6
 78
     2
 67
     7
 79
     3
170
     0
171
     0
290
     0
174
     0
 93
       13
 44
0.0
173
     0
291
     0
 45
0.0
1001
ACAD
1000
AcDbSavedByObjectVersion
1070
     0
  0
DICTIONARYVAR
  5
A1FD
102
{ACAD_REACTORS
330
A1F8
102
}
330
A1F8
100
DictionaryVariables
280
     0
  1
1:1
  0
DICTIONARYVAR
  5
A1FA
102
{ACAD_REACTORS
330
A1F8
102
}
330
A1F8
100
DictionaryVariables
280
     0
  1
STANDARD
  0
DICTIONARYVAR
  5
A1F9
102
{ACAD_REACTORS
330
A1F8
102
}
330
A1F8
100
DictionaryVariables
280
     0
  1
STANDARD
  0
DICTIONARYVAR
  5
A1FB
102
{ACAD_REACTORS
330
A1F8
102
}
330
A1F8
100
DictionaryVariables
280
     0
  1
Imperial24
  0
DICTIONARYVAR
  5
A1FC
102
{ACAD_REACTORS
330
A1F8
102
}
330
A1F8
100
DictionaryVariables
280
     0
  1
Imperial24
  0
DICTIONARYVAR
  5
A200
102
{ACAD_REACTORS
330
A1F8
102
}
330
A1F8
100
DictionaryVariables
280
     0
  1
1
  0
DICTIONARYVAR
  5
A1FF
102
{ACAD_REACTORS
330
A1F8
102
}
330
A1F8
100
DictionaryVariables
280
     0
  1
0
  0
DICTIONARYVAR
  5
A1FE
102
{ACAD_REACTORS
330
A1F8
102
}
330
A1F8
100
DictionaryVariables
280
     0
  1
127
  0
DICTIONARYVAR
  5
A201
102
{ACAD_REACTORS
330
A1F8
102
}
330
A1F8
100
DictionaryVariables
280
     0
  1
2
  0
DICTIONARY
  5
A23E
330
A1E3
100
AcDbDictionary
280
     1
281
     1
  3
ACAD_XREC_ROUNDTRIP
360
A23F
  0
DICTIONARY
  5
A240
330
A1E4
100
AcDbDictionary
280
     1
281
     1
  3
ACAD_XREC_ROUNDTRIP
360
A241
  0
DICTIONARY
  5
A242
330
A1E5
100
AcDbDictionary
280
     1
281
     1
  3
ACAD_XREC_ROUNDTRIP
360
A243
  0
DICTIONARY
  5
A1A1
330
A1A0
100
AcDbDictionary
280
     1
281
     1
  3
ACAD_XREC_ROUNDTRIP
360
A208
  3
BUMPTILE
360
A1A3
  3
DIFFUSETILE
360
A1A2
  3
OPACITYTILE
360
A1A6
  3
REFLECTIONTILE
360
A1A5
  3
REFRACTIONTILE
360
A1A7
  3
SPECULARTILE
360
A1A4
  0
DICTIONARY
  5
A199
330
A198
100
AcDbDictionary
280
     1
281
     1
  3
ACAD_XREC_ROUNDTRIP
360
A207
  3
BUMPTILE
360
A19B
  3
DIFFUSETILE
360
A19A
  3
OPACITYTILE
360
A19E
  3
REFLECTIONTILE
360
A19D
  3
REFRACTIONTILE
360
A19F
  3
SPECULARTILE
360
A19C
  0
DICTIONARY
  5
A1A9
330
A1A8
100
AcDbDictionary
280
     1
281
     1
  3
ACAD_XREC_ROUNDTRIP
360
A209
  3
BUMPTILE
360
A1AB
  3
DIFFUSETILE
360
A1AA
  3
OPACITYTILE
360
A1AE
  3
REFLECTIONTILE
360
A1AD
  3
REFRACTIONTILE
360
A1AF
  3
SPECULARTILE
360
A1AC
  0
DICTIONARY
  5
A23C
330
A1E1
100
AcDbDictionary
280
     1
281
     1
  3
ACAD_XREC_ROUNDTRIP
360
A23D
  0
DICTIONARY
  5
A203
330
A1CB
100
AcDbDictionary
280
     1
281
     1
  3
ACAD_ROUNDTRIP_2008_TABLESTYLE_CELLSTYLEMAP
360
A204
  3
ACAD_XREC_ROUNDTRIP
360
A23A
  0
DICTIONARY
  5
A214
330
A1B6
100
AcDbDictionary
280
     1
281
     1
  3
ACAD_XREC_ROUNDTRIP
360
A215
  0
DICTIONARY
  5
A212
330
A1B5
100
AcDbDictionary
280
     1
281
     1
  3
ACAD_XREC_ROUNDTRIP
360
A213
  0
DICTIONARY
  5
A220
330
A1BC
100
AcDbDictionary
280
     1
281
     1
  3
ACAD_XREC_ROUNDTRIP
360
A221
  0
DICTIONARY
  5
A228
330
A1C0
100
AcDbDictionary
280
     1
281
     1
  3
ACAD_XREC_ROUNDTRIP
360
A229
  0
DICTIONARY
  5
A21A
330
A1B9
100
AcDbDictionary
280
     1
281
     1
  3
ACAD_XREC_ROUNDTRIP
360
A21B
  0
DICTIONARY
  5
A21E
330
A1BB
100
AcDbDictionary
280
     1
281
     1
  3
ACAD_XREC_ROUNDTRIP
360
A21F
  0
DICTIONARY
  5
A238
330
A1C8
100
AcDbDictionary
280
     1
281
     1
  3
ACAD_XREC_ROUNDTRIP
360
A239
  0
DICTIONARY
  5
A226
330
A1BF
100
AcDbDictionary
280
     1
281
     1
  3
ACAD_XREC_ROUNDTRIP
360
A227
  0
DICTIONARY
  5
A20A
330
A1B1
100
AcDbDictionary
280
     1
281
     1
  3
ACAD_XREC_ROUNDTRIP
360
A20B
  0
DICTIONARY
  5
A20C
330
A1B2
100
AcDbDictionary
280
     1
281
     1
  3
ACAD_XREC_ROUNDTRIP
360
A20D
  0
DICTIONARY
  5
A20E
330
A1B3
100
AcDbDictionary
280
     1
281
     1
  3
ACAD_XREC_ROUNDTRIP
360
A20F
  0
DICTIONARY
  5
A210
330
A1B4
100
AcDbDictionary
280
     1
281
     1
  3
ACAD_XREC_ROUNDTRIP
360
A211
  0
DICTIONARY
  5
A218
330
A1B8
100
AcDbDictionary
280
     1
281
     1
  3
ACAD_XREC_ROUNDTRIP
360
A219
  0
DICTIONARY
  5
A234
330
A1C6
100
AcDbDictionary
280
     1
281
     1
  3
ACAD_XREC_ROUNDTRIP
360
A235
  0
DICTIONARY
  5
A224
330
A1BE
100
AcDbDictionary
280
     1
281
     1
  3
ACAD_XREC_ROUNDTRIP
360
A225
  0
DICTIONARY
  5
A236
330
A1C7
100
AcDbDictionary
280
     1
281
     1
  3
ACAD_XREC_ROUNDTRIP
360
A237
  0
DICTIONARY
  5
A21C
330
A1BA
100
AcDbDictionary
280
     1
281
     1
  3
ACAD_XREC_ROUNDTRIP
360
A21D
  0
DICTIONARY
  5
A232
330
A1C5
100
AcDbDictionary
280
     1
281
     1
  3
ACAD_XREC_ROUNDTRIP
360
A233
  0
DICTIONARY
  5
A230
330
A1C4
100
AcDbDictionary
280
     1
281
     1
  3
ACAD_XREC_ROUNDTRIP
360
A231
  0
DICTIONARY
  5
A22A
330
A1C1
100
AcDbDictionary
280
     1
281
     1
  3
ACAD_XREC_ROUNDTRIP
360
A22B
  0
DICTIONARY
  5
A22C
330
A1C2
100
AcDbDictionary
280
     1
281
     1
  3
ACAD_XREC_ROUNDTRIP
360
A22D
  0
DICTIONARY
  5
A222
330
A1BD
100
AcDbDictionary
280
     1
281
     1
  3
ACAD_XREC_ROUNDTRIP
360
A223
  0
DICTIONARY
  5
A216
330
A1B7
100
AcDbDictionary
280
     1
281
     1
  3
ACAD_XREC_ROUNDTRIP
360
A217
  0
DICTIONARY
  5
A22E
330
A1C3
100
AcDbDictionary
280
     1
281
     1
  3
ACAD_XREC_ROUNDTRIP
360
A22F
  0
XRECORD
  5
A23F
102
{ACAD_REACTORS
330
A23E
102
}
330
A23E
100
AcDbXrecord
280
     1
102
DISPLAYNAME
  1
Imperial24
102
FLAGS
 90
        0
  0
XRECORD
  5
A241
102
{ACAD_REACTORS
330
A240
102
}
330
A240
100
AcDbXrecord
280
     1
102
SHADEPLOT
 70
     0
102
SHADEPLOTRESLEVEL
 70
     2
102
SHADEPLOTCUSTOMDPI
 70
   300
  0
XRECORD
  5
A243
102
{ACAD_REACTORS
330
A242
102
}
330
A242
100
AcDbXrecord
280
     1
102
SHADEPLOT
 70
     0
102
SHADEPLOTRESLEVEL
 70
     2
102
SHADEPLOTCUSTOMDPI
 70
   300
  0
XRECORD
  5
A208
102
{ACAD_REACTORS
330
A1A1
102
}
330
A1A1
100
AcDbXrecord
280
     1
102
MATERIAL
148
0.0
149
0.0
149
0.0
 93
        0
 94
      127
282
     0
 72
     0
 77
     0
171
     0
175
     0
179
     0
273
     0
  0
XRECORD
  5
A1A3
102
{ACAD_REACTORS
330
A1A1
102
}
330
A1A1
100
AcDbXrecord
280
     1
270
     1
271
     1
  0
XRECORD
  5
A1A2
102
{ACAD_REACTORS
330
A1A1
102
}
330
A1A1
100
AcDbXrecord
280
     1
270
     1
271
     1
  0
XRECORD
  5
A1A6
102
{ACAD_REACTORS
330
A1A1
102
}
330
A1A1
100
AcDbXrecord
280
     1
270
     1
271
     1
  0
XRECORD
  5
A1A5
102
{ACAD_REACTORS
330
A1A1
102
}
330
A1A1
100
AcDbXrecord
280
     1
270
     1
271
     1
  0
XRECORD
  5
A1A7
102
{ACAD_REACTORS
330
A1A1
102
}
330
A1A1
100
AcDbXrecord
280
     1
270
     1
271
     1
  0
XRECORD
  5
A1A4
102
{ACAD_REACTORS
330
A1A1
102
}
330
A1A1
100
AcDbXrecord
280
     1
270
     1
271
     1
  0
XRECORD
  5
A207
102
{ACAD_REACTORS
330
A199
102
}
330
A199
100
AcDbXrecord
280
     1
102
MATERIAL
148
0.0
149
0.0
149
0.0
 93
        0
 94
      127
282
     0
 72
     0
 77
     0
171
     0
175
     0
179
     0
273
     0
  0
XRECORD
  5
A19B
102
{ACAD_REACTORS
330
A199
102
}
330
A199
100
AcDbXrecord
280
     1
270
     1
271
     1
  0
XRECORD
  5
A19A
102
{ACAD_REACTORS
330
A199
102
}
330
A199
100
AcDbXrecord
280
     1
270
     1
271
     1
  0
XRECORD
  5
A19E
102
{ACAD_REACTORS
330
A199
102
}
330
A199
100
AcDbXrecord
280
     1
270
     1
271
     1
  0
XRECORD
  5
A19D
102
{ACAD_REACTORS
330
A199
102
}
330
A199
100
AcDbXrecord
280
     1
270
     1
271
     1
  0
XRECORD
  5
A19F
102
{ACAD_REACTORS
330
A199
102
}
330
A199
100
AcDbXrecord
280
     1
270
     1
271
     1
  0
XRECORD
  5
A19C
102
{ACAD_REACTORS
330
A199
102
}
330
A199
100
AcDbXrecord
280
     1
270
     1
271
     1
  0
XRECORD
  5
A209
102
{ACAD_REACTORS
330
A1A9
102
}
330
A1A9
100
AcDbXrecord
280
     1
102
MATERIAL
148
0.0
149
0.0
149
0.0
 93
        0
 94
      127
282
     0
 72
     0
 77
     0
171
     0
175
     0
179
     0
273
     0
  0
XRECORD
  5
A1AB
102
{ACAD_REACTORS
330
A1A9
102
}
330
A1A9
100
AcDbXrecord
280
     1
270
     1
271
     1
  0
XRECORD
  5
A1AA
102
{ACAD_REACTORS
330
A1A9
102
}
330
A1A9
100
AcDbXrecord
280
     1
270
     1
271
     1
  0
XRECORD
  5
A1AE
102
{ACAD_REACTORS
330
A1A9
102
}
330
A1A9
100
AcDbXrecord
280
     1
270
     1
271
     1
  0
XRECORD
  5
A1AD
102
{ACAD_REACTORS
330
A1A9
102
}
330
A1A9
100
AcDbXrecord
280
     1
270
     1
271
     1
  0
XRECORD
  5
A1AF
102
{ACAD_REACTORS
330
A1A9
102
}
330
A1A9
100
AcDbXrecord
280
     1
270
     1
271
     1
  0
XRECORD
  5
A1AC
102
{ACAD_REACTORS
330
A1A9
102
}
330
A1A9
100
AcDbXrecord
280
     1
270
     1
271
     1
  0
XRECORD
  5
A23D
102
{ACAD_REACTORS
330
A23C
102
}
330
A23C
100
AcDbXrecord
280
     1
102
DISPLAYNAME
  1
Imperial24
102
FLAGS
 90
        0
  0
CELLSTYLEMAP
  5
A204
102
{ACAD_REACTORS
330
A203
102
}
330
A203
100
AcDbCellStyleMap
 90
        3
300
CELLSTYLE
  1
TABLEFORMAT_BEGIN
 90
        5
170
     1
 91
        0
 92
    32768
 62
   257
 93
        1
300
CONTENTFORMAT
  1
CONTENTFORMAT_BEGIN
 90
        0
 91
        0
 92
      512
 93
        0
300

 40
0.0
140
1.0
 94
        5
 62
     0
340
9F8C
144
0.25
309
CONTENTFORMAT_END
171
     0
 94
        0
309
TABLEFORMAT_END
  1
CELLSTYLE_BEGIN
 90
        1
 91
        1
300
_TITLE
309
CELLSTYLE_END
300
CELLSTYLE
  1
TABLEFORMAT_BEGIN
 90
        5
170
     1
 91
        0
 92
        0
 62
   257
 93
        1
300
CONTENTFORMAT
  1
CONTENTFORMAT_BEGIN
 90
        0
 91
        0
 92
      512
 93
        0
300

 40
0.0
140
1.0
 94
        5
 62
     0
340
9F8C
144
0.18
309
CONTENTFORMAT_END
171
     0
 94
        0
309
TABLEFORMAT_END
  1
CELLSTYLE_BEGIN
 90
        2
 91
        1
300
_HEADER
309
CELLSTYLE_END
300
CELLSTYLE
  1
TABLEFORMAT_BEGIN
 90
        5
170
     1
 91
        0
 92
        0
 62
   257
 93
        1
300
CONTENTFORMAT
  1
CONTENTFORMAT_BEGIN
 90
        0
 91
        0
 92
      512
 93
        0
300

 40
0.0
140
1.0
 94
        2
 62
     0
340
9F8C
144
0.18
309
CONTENTFORMAT_END
171
     0
 94
        0
309
TABLEFORMAT_END
  1
CELLSTYLE_BEGIN
 90
        3
 91
        2
300
_DATA
309
CELLSTYLE_END
  0
XRECORD
  5
A23A
102
{ACAD_REACTORS
330
A203
102
}
330
A203
100
AcDbXrecord
280
     1
102
ACAD_ROUNDTRIP_PRE2007_TABLESTYLE
 90
      512
 91
        0
  1

 92
      512
 93
        0
  2

 94
      512
 95
        0
  3

  0
XRECORD
  5
A215
102
{ACAD_REACTORS
330
A214
102
}
330
A214
100
AcDbXrecord
280
     1
102
RTVSPost2010Prop28
280
     1
102
RTVSPost2010PropOp28
 70
     1
102
RTVSPost2010Prop29
280
     1
102
RTVSPost2010PropOp29
 70
     1
102
RTVSPost2010Prop30
280
     0
102
RTVSPost2010PropOp30
 70
     1
102
RTVSPost2010Prop31
280
     0
102
RTVSPost2010PropOp31
 70
     1
102
RTVSPost2010Prop32
280
     0
102
RTVSPost2010PropOp32
 70
     1
102
RTVSPost2010Prop33
280
     0
102
RTVSPost2010PropOp33
 70
     1
102
RTVSPost2010Prop34
280
     0
102
RTVSPost2010PropOp34
 70
     1
102
RTVSPost2010Prop35
280
     0
102
RTVSPost2010PropOp35
 70
     1
102
RTVSPost2010Prop36
280
     0
102
RTVSPost2010PropOp36
 70
     1
102
RTVSPost2010Prop37
 90
       50
102
RTVSPost2010PropOp37
 70
     1
102
RTVSPost2010Prop38
140
0.0
102
RTVSPost2010PropOp38
 70
     1
102
RTVSPost2010Prop39
140
1.0
102
RTVSPost2010PropOp39
 70
     1
102
RTVSPost2010Prop40
 90
        0
102
RTVSPost2010PropOp40
 70
     1
102
RTVSPost2010Prop41ColorIndex
 90
       18
102
RTVSPost2010Prop41ColorRGB
 90
        0
102
RTVSPost2010PropOp41
 70
     1
102
RTVSPost2010Prop42
 90
       50
102
RTVSPost2010PropOp42
 70
     1
102
RTVSPost2010Prop43
 90
        3
102
RTVSPost2010PropOp43
 70
     1
102
RTVSPost2010Prop44ColorIndex
 90
        5
102
RTVSPost2010Prop44ColorRGB
 90
      255
102
RTVSPost2010PropOp44
 70
     1
102
RTVSPost2010Prop45
280
     0
102
RTVSPost2010PropOp45
 70
     1
102
RTVSPost2010Prop46
 90
       50
102
RTVSPost2010PropOp46
 70
     1
102
RTVSPost2010Prop47
 90
       50
102
RTVSPost2010PropOp47
 70
     1
102
RTVSPost2010Prop48
 90
       50
102
RTVSPost2010PropOp48
 70
     1
102
RTVSPost2010Prop49
280
     0
102
RTVSPost2010PropOp49
 70
     1
102
RTVSPost2010Prop50
 90
       50
102
RTVSPost2010PropOp50
 70
     1
102
RTVSPost2010Prop51ColorIndex
 90
      256
102
RTVSPost2010Prop51ColorRGB
 90
-16777216
102
RTVSPost2010PropOp51
 70
     0
102
RTVSPost2010Prop52
140
1.0
102
RTVSPost2010PropOp52
 70
     0
102
RTVSPost2010Prop53
 90
        2
102
RTVSPost2010PropOp53
 70
     1
102
RTVSPost2010Prop54
  1
strokes_ogs.tif
102
RTVSPost2010PropOp54
 70
     1
102
RTVSPost2010Prop55
280
     0
102
RTVSPost2010PropOp55
 70
     1
102
RTVSPost2010Prop56
140
1.0
102
RTVSPost2010PropOp56
 70
     1
102
RTVSPost2010Prop57
140
1.0
102
RTVSPost2010PropOp57
 70
     1
102
RTVSPropertyOp0
 70
     1
102
RTVSPropertyOp1
 70
     1
102
RTVSPropertyOp2
 70
     1
102
RTVSPropertyOp3
 70
     1
102
RTVSPropertyOp4
 70
     1
102
RTVSPropertyOp5
 70
     1
102
RTVSPropertyOp6
 70
     1
102
RTVSPropertyOp7
 70
     1
102
RTVSPropertyOp8
 70
     1
102
RTVSPropertyOp9
 70
     1
102
RTVSPropertyOp10
 70
     1
102
RTVSPropertyOp11
 70
     1
102
RTVSPropertyOp12
 70
     1
102
RTVSPropertyOp13
 70
     1
102
RTVSPropertyOp14
 70
     1
102
RTVSPropertyOp15
 70
     1
102
RTVSPropertyOp16
 70
     1
102
RTVSPropertyOp17
 70
     1
102
RTVSPropertyOp18
 70
     1
102
RTVSPropertyOp19
 70
     1
102
RTVSPropertyOp20
 70
     1
102
RTVSPropertyOp21
 70
     1
102
RTVSPropertyOp22
 70
     1
102
RTVSPropertyOp23
 70
     1
102
RTVSPropertyOp24
 70
     1
102
RTVSPropertyOp25
 70
     1
102
RTVSPropertyOp26
 70
     1
102
RTVSPropertyOp27
 70
     1
102
RTVSPropertyOp28
 70
     1
102
RTVSPropertyOp29
 70
     1
102
RTVSPropertyOp30
 70
     1
102
RTVSPropertyOp31
 70
     1
102
RTVSPropertyOp32
 70
     1
102
RTVSPropertyOp33
 70
     1
102
RTVSPropertyOp34
 70
     1
102
RTVSPropertyOp35
 70
     1
102
RTVSPropertyOp36
 70
     1
102
RTVSPropertyOp37
 70
     1
102
RTVSPropertyOp38
 70
     1
102
RTVSPropertyOp39
 70
     1
102
RTVSPropertyOp40
 70
     1
102
RTVSPropertyOp41
 70
     1
102
RTVSPropertyOp42
 70
     1
102
RTVSPropertyOp43
 70
     1
102
RTVSPropertyOp44
 70
     1
102
RTVSPropertyOp45
 70
     1
102
RTVSPropertyOp46
 70
     1
102
RTVSPropertyOp47
 70
     1
102
RTVSPropertyOp48
 70
     1
102
RTVSPropertyOp49
 70
     1
102
RTVSPropertyOp50
 70
     1
102
RTVSPropertyOp51
 70
     0
102
RTVSPropertyOp52
 70
     0
102
RTVSPropertyOp53
 70
     1
102
RTVSPropertyOp54
 70
     1
102
RTVSPropertyOp55
 70
     1
102
RTVSPropertyOp56
 70
     1
102
RTVSPropertyOp57
 70
     1
102
RTVSPropertyOp58
 70
     1
102
RTVSPropertyOp59
 70
     1
102
RTVSPropertyOp60
 70
     1
102
RTVSPropertyOp61
 70
     1
102
RTVSPropertyOp62
 70
     1
  0
XRECORD
  5
A213
102
{ACAD_REACTORS
330
A212
102
}
330
A212
100
AcDbXrecord
280
     1
102
RTVSPost2010Prop28
280
     0
102
RTVSPost2010PropOp28
 70
     1
102
RTVSPost2010Prop29
280
     1
102
RTVSPost2010PropOp29
 70
     1
102
RTVSPost2010Prop30
280
     1
102
RTVSPost2010PropOp30
 70
     1
102
RTVSPost2010Prop31
280
     0
102
RTVSPost2010PropOp31
 70
     1
102
RTVSPost2010Prop32
280
     0
102
RTVSPost2010PropOp32
 70
     1
102
RTVSPost2010Prop33
280
     0
102
RTVSPost2010PropOp33
 70
     1
102
RTVSPost2010Prop34
280
     0
102
RTVSPost2010PropOp34
 70
     1
102
RTVSPost2010Prop35
280
     0
102
RTVSPost2010PropOp35
 70
     1
102
RTVSPost2010Prop36
280
     0
102
RTVSPost2010PropOp36
 70
     1
102
RTVSPost2010Prop37
 90
       50
102
RTVSPost2010PropOp37
 70
     1
102
RTVSPost2010Prop38
140
0.0
102
RTVSPost2010PropOp38
 70
     1
102
RTVSPost2010Prop39
140
1.0
102
RTVSPost2010PropOp39
 70
     1
102
RTVSPost2010Prop40
 90
        0
102
RTVSPost2010PropOp40
 70
     1
102
RTVSPost2010Prop41ColorIndex
 90
       18
102
RTVSPost2010Prop41ColorRGB
 90
        0
102
RTVSPost2010PropOp41
 70
     1
102
RTVSPost2010Prop42
 90
       50
102
RTVSPost2010PropOp42
 70
     1
102
RTVSPost2010Prop43
 90
        3
102
RTVSPost2010PropOp43
 70
     1
102
RTVSPost2010Prop44ColorIndex
 90
        5
102
RTVSPost2010Prop44ColorRGB
 90
      255
102
RTVSPost2010PropOp44
 70
     1
102
RTVSPost2010Prop45
280
     0
102
RTVSPost2010PropOp45
 70
     1
102
RTVSPost2010Prop46
 90
       50
102
RTVSPost2010PropOp46
 70
     1
102
RTVSPost2010Prop47
 90
       50
102
RTVSPost2010PropOp47
 70
     1
102
RTVSPost2010Prop48
 90
       50
102
RTVSPost2010PropOp48
 70
     1
102
RTVSPost2010Prop49
280
     0
102
RTVSPost2010PropOp49
 70
     1
102
RTVSPost2010Prop50
 90
       50
102
RTVSPost2010PropOp50
 70
     1
102
RTVSPost2010Prop51ColorIndex
 90
      256
102
RTVSPost2010Prop51ColorRGB
 90
-16777216
102
RTVSPost2010PropOp51
 70
     0
102
RTVSPost2010Prop52
140
1.0
102
RTVSPost2010PropOp52
 70
     0
102
RTVSPost2010Prop53
 90
        2
102
RTVSPost2010PropOp53
 70
     1
102
RTVSPost2010Prop54
  1
strokes_ogs.tif
102
RTVSPost2010PropOp54
 70
     1
102
RTVSPost2010Prop55
280
     0
102
RTVSPost2010PropOp55
 70
     1
102
RTVSPost2010Prop56
140
1.0
102
RTVSPost2010PropOp56
 70
     1
102
RTVSPost2010Prop57
140
1.0
102
RTVSPost2010PropOp57
 70
     1
102
RTVSPropertyOp0
 70
     1
102
RTVSPropertyOp1
 70
     1
102
RTVSPropertyOp2
 70
     1
102
RTVSPropertyOp3
 70
     1
102
RTVSPropertyOp4
 70
     1
102
RTVSPropertyOp5
 70
     1
102
RTVSPropertyOp6
 70
     1
102
RTVSPropertyOp7
 70
     1
102
RTVSPropertyOp8
 70
     1
102
RTVSPropertyOp9
 70
     1
102
RTVSPropertyOp10
 70
     1
102
RTVSPropertyOp11
 70
     1
102
RTVSPropertyOp12
 70
     1
102
RTVSPropertyOp13
 70
     1
102
RTVSPropertyOp14
 70
     1
102
RTVSPropertyOp15
 70
     1
102
RTVSPropertyOp16
 70
     1
102
RTVSPropertyOp17
 70
     1
102
RTVSPropertyOp18
 70
     1
102
RTVSPropertyOp19
 70
     1
102
RTVSPropertyOp20
 70
     1
102
RTVSPropertyOp21
 70
     1
102
RTVSPropertyOp22
 70
     1
102
RTVSPropertyOp23
 70
     1
102
RTVSPropertyOp24
 70
     1
102
RTVSPropertyOp25
 70
     1
102
RTVSPropertyOp26
 70
     1
102
RTVSPropertyOp27
 70
     1
102
RTVSPropertyOp28
 70
     1
102
RTVSPropertyOp29
 70
     1
102
RTVSPropertyOp30
 70
     1
102
RTVSPropertyOp31
 70
     1
102
RTVSPropertyOp32
 70
     1
102
RTVSPropertyOp33
 70
     1
102
RTVSPropertyOp34
 70
     1
102
RTVSPropertyOp35
 70
     1
102
RTVSPropertyOp36
 70
     1
102
RTVSPropertyOp37
 70
     1
102
RTVSPropertyOp38
 70
     1
102
RTVSPropertyOp39
 70
     1
102
RTVSPropertyOp40
 70
     1
102
RTVSPropertyOp41
 70
     1
102
RTVSPropertyOp42
 70
     1
102
RTVSPropertyOp43
 70
     1
102
RTVSPropertyOp44
 70
     1
102
RTVSPropertyOp45
 70
     1
102
RTVSPropertyOp46
 70
     1
102
RTVSPropertyOp47
 70
     1
102
RTVSPropertyOp48
 70
     1
102
RTVSPropertyOp49
 70
     1
102
RTVSPropertyOp50
 70
     1
102
RTVSPropertyOp51
 70
     0
102
RTVSPropertyOp52
 70
     0
102
RTVSPropertyOp53
 70
     1
102
RTVSPropertyOp54
 70
     1
102
RTVSPropertyOp55
 70
     1
102
RTVSPropertyOp56
 70
     1
102
RTVSPropertyOp57
 70
     1
102
RTVSPropertyOp58
 70
     1
102
RTVSPropertyOp59
 70
     1
102
RTVSPropertyOp60
 70
     1
102
RTVSPropertyOp61
 70
     1
102
RTVSPropertyOp62
 70
     1
  0
XRECORD
  5
A221
102
{ACAD_REACTORS
330
A220
102
}
330
A220
100
AcDbXrecord
280
     1
102
RTVSPost2010Prop28
280
     0
102
RTVSPost2010PropOp28
 70
     1
102
RTVSPost2010Prop29
280
     1
102
RTVSPost2010PropOp29
 70
     1
102
RTVSPost2010Prop30
280
     1
102
RTVSPost2010PropOp30
 70
     1
102
RTVSPost2010Prop31
280
     0
102
RTVSPost2010PropOp31
 70
     1
102
RTVSPost2010Prop32
280
     0
102
RTVSPost2010PropOp32
 70
     1
102
RTVSPost2010Prop33
280
     0
102
RTVSPost2010PropOp33
 70
     1
102
RTVSPost2010Prop34
280
     0
102
RTVSPost2010PropOp34
 70
     1
102
RTVSPost2010Prop35
280
     0
102
RTVSPost2010PropOp35
 70
     1
102
RTVSPost2010Prop36
280
     0
102
RTVSPost2010PropOp36
 70
     1
102
RTVSPost2010Prop37
 90
       50
102
RTVSPost2010PropOp37
 70
     1
102
RTVSPost2010Prop38
140
0.0
102
RTVSPost2010PropOp38
 70
     1
102
RTVSPost2010Prop39
140
1.0
102
RTVSPost2010PropOp39
 70
     1
102
RTVSPost2010Prop40
 90
        0
102
RTVSPost2010PropOp40
 70
     1
102
RTVSPost2010Prop41ColorIndex
 90
       18
102
RTVSPost2010Prop41ColorRGB
 90
        0
102
RTVSPost2010PropOp41
 70
     1
102
RTVSPost2010Prop42
 90
       50
102
RTVSPost2010PropOp42
 70
     1
102
RTVSPost2010Prop43
 90
        3
102
RTVSPost2010PropOp43
 70
     1
102
RTVSPost2010Prop44ColorIndex
 90
        5
102
RTVSPost2010Prop44ColorRGB
 90
      255
102
RTVSPost2010PropOp44
 70
     1
102
RTVSPost2010Prop45
280
     0
102
RTVSPost2010PropOp45
 70
     1
102
RTVSPost2010Prop46
 90
       50
102
RTVSPost2010PropOp46
 70
     1
102
RTVSPost2010Prop47
 90
       50
102
RTVSPost2010PropOp47
 70
     1
102
RTVSPost2010Prop48
 90
       50
102
RTVSPost2010PropOp48
 70
     1
102
RTVSPost2010Prop49
280
     0
102
RTVSPost2010PropOp49
 70
     1
102
RTVSPost2010Prop50
 90
       50
102
RTVSPost2010PropOp50
 70
     1
102
RTVSPost2010Prop51ColorIndex
 90
      256
102
RTVSPost2010Prop51ColorRGB
 90
-16777216
102
RTVSPost2010PropOp51
 70
     0
102
RTVSPost2010Prop52
140
1.0
102
RTVSPost2010PropOp52
 70
     0
102
RTVSPost2010Prop53
 90
        2
102
RTVSPost2010PropOp53
 70
     1
102
RTVSPost2010Prop54
  1
strokes_ogs.tif
102
RTVSPost2010PropOp54
 70
     1
102
RTVSPost2010Prop55
280
     0
102
RTVSPost2010PropOp55
 70
     1
102
RTVSPost2010Prop56
140
1.0
102
RTVSPost2010PropOp56
 70
     1
102
RTVSPost2010Prop57
140
1.0
102
RTVSPost2010PropOp57
 70
     1
102
RTVSPropertyOp0
 70
     1
102
RTVSPropertyOp1
 70
     1
102
RTVSPropertyOp2
 70
     1
102
RTVSPropertyOp3
 70
     1
102
RTVSPropertyOp4
 70
     1
102
RTVSPropertyOp5
 70
     1
102
RTVSPropertyOp6
 70
     1
102
RTVSPropertyOp7
 70
     1
102
RTVSPropertyOp8
 70
     1
102
RTVSPropertyOp9
 70
     1
102
RTVSPropertyOp10
 70
     1
102
RTVSPropertyOp11
 70
     1
102
RTVSPropertyOp12
 70
     1
102
RTVSPropertyOp13
 70
     1
102
RTVSPropertyOp14
 70
     1
102
RTVSPropertyOp15
 70
     1
102
RTVSPropertyOp16
 70
     1
102
RTVSPropertyOp17
 70
     1
102
RTVSPropertyOp18
 70
     1
102
RTVSPropertyOp19
 70
     1
102
RTVSPropertyOp20
 70
     1
102
RTVSPropertyOp21
 70
     1
102
RTVSPropertyOp22
 70
     1
102
RTVSPropertyOp23
 70
     1
102
RTVSPropertyOp24
 70
     1
102
RTVSPropertyOp25
 70
     1
102
RTVSPropertyOp26
 70
     1
102
RTVSPropertyOp27
 70
     1
102
RTVSPropertyOp28
 70
     1
102
RTVSPropertyOp29
 70
     1
102
RTVSPropertyOp30
 70
     1
102
RTVSPropertyOp31
 70
     1
102
RTVSPropertyOp32
 70
     1
102
RTVSPropertyOp33
 70
     1
102
RTVSPropertyOp34
 70
     1
102
RTVSPropertyOp35
 70
     1
102
RTVSPropertyOp36
 70
     1
102
RTVSPropertyOp37
 70
     1
102
RTVSPropertyOp38
 70
     1
102
RTVSPropertyOp39
 70
     1
102
RTVSPropertyOp40
 70
     1
102
RTVSPropertyOp41
 70
     1
102
RTVSPropertyOp42
 70
     1
102
RTVSPropertyOp43
 70
     1
102
RTVSPropertyOp44
 70
     1
102
RTVSPropertyOp45
 70
     1
102
RTVSPropertyOp46
 70
     1
102
RTVSPropertyOp47
 70
     1
102
RTVSPropertyOp48
 70
     1
102
RTVSPropertyOp49
 70
     1
102
RTVSPropertyOp50
 70
     1
102
RTVSPropertyOp51
 70
     0
102
RTVSPropertyOp52
 70
     0
102
RTVSPropertyOp53
 70
     1
102
RTVSPropertyOp54
 70
     1
102
RTVSPropertyOp55
 70
     1
102
RTVSPropertyOp56
 70
     1
102
RTVSPropertyOp57
 70
     1
102
RTVSPropertyOp58
 70
     1
102
RTVSPropertyOp59
 70
     1
102
RTVSPropertyOp60
 70
     1
102
RTVSPropertyOp61
 70
     1
102
RTVSPropertyOp62
 70
     1
  0
XRECORD
  5
A229
102
{ACAD_REACTORS
330
A228
102
}
330
A228
100
AcDbXrecord
280
     1
102
RTVSPost2010Prop28
280
     0
102
RTVSPost2010PropOp28
 70
     1
102
RTVSPost2010Prop29
280
     1
102
RTVSPost2010PropOp29
 70
     1
102
RTVSPost2010Prop30
280
     1
102
RTVSPost2010PropOp30
 70
     1
102
RTVSPost2010Prop31
280
     0
102
RTVSPost2010PropOp31
 70
     1
102
RTVSPost2010Prop32
280
     0
102
RTVSPost2010PropOp32
 70
     1
102
RTVSPost2010Prop33
280
     0
102
RTVSPost2010PropOp33
 70
     1
102
RTVSPost2010Prop34
280
     0
102
RTVSPost2010PropOp34
 70
     1
102
RTVSPost2010Prop35
280
     0
102
RTVSPost2010PropOp35
 70
     1
102
RTVSPost2010Prop36
280
     0
102
RTVSPost2010PropOp36
 70
     1
102
RTVSPost2010Prop37
 90
       50
102
RTVSPost2010PropOp37
 70
     1
102
RTVSPost2010Prop38
140
0.0
102
RTVSPost2010PropOp38
 70
     1
102
RTVSPost2010Prop39
140
1.0
102
RTVSPost2010PropOp39
 70
     1
102
RTVSPost2010Prop40
 90
        0
102
RTVSPost2010PropOp40
 70
     1
102
RTVSPost2010Prop41ColorIndex
 90
       18
102
RTVSPost2010Prop41ColorRGB
 90
        0
102
RTVSPost2010PropOp41
 70
     1
102
RTVSPost2010Prop42
 90
       50
102
RTVSPost2010PropOp42
 70
     1
102
RTVSPost2010Prop43
 90
        3
102
RTVSPost2010PropOp43
 70
     1
102
RTVSPost2010Prop44ColorIndex
 90
        5
102
RTVSPost2010Prop44ColorRGB
 90
      255
102
RTVSPost2010PropOp44
 70
     1
102
RTVSPost2010Prop45
280
     0
102
RTVSPost2010PropOp45
 70
     1
102
RTVSPost2010Prop46
 90
       50
102
RTVSPost2010PropOp46
 70
     1
102
RTVSPost2010Prop47
 90
       50
102
RTVSPost2010PropOp47
 70
     1
102
RTVSPost2010Prop48
 90
       50
102
RTVSPost2010PropOp48
 70
     1
102
RTVSPost2010Prop49
280
     0
102
RTVSPost2010PropOp49
 70
     1
102
RTVSPost2010Prop50
 90
       50
102
RTVSPost2010PropOp50
 70
     1
102
RTVSPost2010Prop51ColorIndex
 90
      256
102
RTVSPost2010Prop51ColorRGB
 90
-16777216
102
RTVSPost2010PropOp51
 70
     0
102
RTVSPost2010Prop52
140
1.0
102
RTVSPost2010PropOp52
 70
     0
102
RTVSPost2010Prop53
 90
        2
102
RTVSPost2010PropOp53
 70
     1
102
RTVSPost2010Prop54
  1
strokes_ogs.tif
102
RTVSPost2010PropOp54
 70
     1
102
RTVSPost2010Prop55
280
     0
102
RTVSPost2010PropOp55
 70
     1
102
RTVSPost2010Prop56
140
1.0
102
RTVSPost2010PropOp56
 70
     1
102
RTVSPost2010Prop57
140
1.0
102
RTVSPost2010PropOp57
 70
     1
102
RTVSPropertyOp0
 70
     1
102
RTVSPropertyOp1
 70
     1
102
RTVSPropertyOp2
 70
     1
102
RTVSPropertyOp3
 70
     1
102
RTVSPropertyOp4
 70
     1
102
RTVSPropertyOp5
 70
     1
102
RTVSPropertyOp6
 70
     1
102
RTVSPropertyOp7
 70
     1
102
RTVSPropertyOp8
 70
     1
102
RTVSPropertyOp9
 70
     1
102
RTVSPropertyOp10
 70
     1
102
RTVSPropertyOp11
 70
     1
102
RTVSPropertyOp12
 70
     1
102
RTVSPropertyOp13
 70
     1
102
RTVSPropertyOp14
 70
     1
102
RTVSPropertyOp15
 70
     1
102
RTVSPropertyOp16
 70
     1
102
RTVSPropertyOp17
 70
     1
102
RTVSPropertyOp18
 70
     1
102
RTVSPropertyOp19
 70
     1
102
RTVSPropertyOp20
 70
     1
102
RTVSPropertyOp21
 70
     1
102
RTVSPropertyOp22
 70
     1
102
RTVSPropertyOp23
 70
     1
102
RTVSPropertyOp24
 70
     1
102
RTVSPropertyOp25
 70
     1
102
RTVSPropertyOp26
 70
     1
102
RTVSPropertyOp27
 70
     1
102
RTVSPropertyOp28
 70
     1
102
RTVSPropertyOp29
 70
     1
102
RTVSPropertyOp30
 70
     1
102
RTVSPropertyOp31
 70
     1
102
RTVSPropertyOp32
 70
     1
102
RTVSPropertyOp33
 70
     1
102
RTVSPropertyOp34
 70
     1
102
RTVSPropertyOp35
 70
     1
102
RTVSPropertyOp36
 70
     1
102
RTVSPropertyOp37
 70
     1
102
RTVSPropertyOp38
 70
     1
102
RTVSPropertyOp39
 70
     1
102
RTVSPropertyOp40
 70
     1
102
RTVSPropertyOp41
 70
     1
102
RTVSPropertyOp42
 70
     1
102
RTVSPropertyOp43
 70
     1
102
RTVSPropertyOp44
 70
     1
102
RTVSPropertyOp45
 70
     1
102
RTVSPropertyOp46
 70
     1
102
RTVSPropertyOp47
 70
     1
102
RTVSPropertyOp48
 70
     1
102
RTVSPropertyOp49
 70
     1
102
RTVSPropertyOp50
 70
     1
102
RTVSPropertyOp51
 70
     0
102
RTVSPropertyOp52
 70
     0
102
RTVSPropertyOp53
 70
     1
102
RTVSPropertyOp54
 70
     1
102
RTVSPropertyOp55
 70
     1
102
RTVSPropertyOp56
 70
     1
102
RTVSPropertyOp57
 70
     1
102
RTVSPropertyOp58
 70
     1
102
RTVSPropertyOp59
 70
     1
102
RTVSPropertyOp60
 70
     1
102
RTVSPropertyOp61
 70
     1
102
RTVSPropertyOp62
 70
     1
  0
XRECORD
  5
A21B
102
{ACAD_REACTORS
330
A21A
102
}
330
A21A
100
AcDbXrecord
280
     1
102
RTVSPost2010Prop28
280
     0
102
RTVSPost2010PropOp28
 70
     1
102
RTVSPost2010Prop29
280
     1
102
RTVSPost2010PropOp29
 70
     1
102
RTVSPost2010Prop30
280
     1
102
RTVSPost2010PropOp30
 70
     1
102
RTVSPost2010Prop31
280
     0
102
RTVSPost2010PropOp31
 70
     1
102
RTVSPost2010Prop32
280
     0
102
RTVSPost2010PropOp32
 70
     1
102
RTVSPost2010Prop33
280
     0
102
RTVSPost2010PropOp33
 70
     1
102
RTVSPost2010Prop34
280
     0
102
RTVSPost2010PropOp34
 70
     1
102
RTVSPost2010Prop35
280
     0
102
RTVSPost2010PropOp35
 70
     1
102
RTVSPost2010Prop36
280
     0
102
RTVSPost2010PropOp36
 70
     1
102
RTVSPost2010Prop37
 90
       50
102
RTVSPost2010PropOp37
 70
     1
102
RTVSPost2010Prop38
140
0.0
102
RTVSPost2010PropOp38
 70
     1
102
RTVSPost2010Prop39
140
1.0
102
RTVSPost2010PropOp39
 70
     1
102
RTVSPost2010Prop40
 90
        0
102
RTVSPost2010PropOp40
 70
     1
102
RTVSPost2010Prop41ColorIndex
 90
       18
102
RTVSPost2010Prop41ColorRGB
 90
        0
102
RTVSPost2010PropOp41
 70
     1
102
RTVSPost2010Prop42
 90
       50
102
RTVSPost2010PropOp42
 70
     1
102
RTVSPost2010Prop43
 90
        3
102
RTVSPost2010PropOp43
 70
     1
102
RTVSPost2010Prop44ColorIndex
 90
        5
102
RTVSPost2010Prop44ColorRGB
 90
      255
102
RTVSPost2010PropOp44
 70
     1
102
RTVSPost2010Prop45
280
     0
102
RTVSPost2010PropOp45
 70
     1
102
RTVSPost2010Prop46
 90
       50
102
RTVSPost2010PropOp46
 70
     1
102
RTVSPost2010Prop47
 90
       50
102
RTVSPost2010PropOp47
 70
     1
102
RTVSPost2010Prop48
 90
       50
102
RTVSPost2010PropOp48
 70
     1
102
RTVSPost2010Prop49
280
     0
102
RTVSPost2010PropOp49
 70
     1
102
RTVSPost2010Prop50
 90
       50
102
RTVSPost2010PropOp50
 70
     1
102
RTVSPost2010Prop51ColorIndex
 90
      256
102
RTVSPost2010Prop51ColorRGB
 90
-16777216
102
RTVSPost2010PropOp51
 70
     0
102
RTVSPost2010Prop52
140
1.0
102
RTVSPost2010PropOp52
 70
     0
102
RTVSPost2010Prop53
 90
        2
102
RTVSPost2010PropOp53
 70
     1
102
RTVSPost2010Prop54
  1
strokes_ogs.tif
102
RTVSPost2010PropOp54
 70
     1
102
RTVSPost2010Prop55
280
     0
102
RTVSPost2010PropOp55
 70
     1
102
RTVSPost2010Prop56
140
1.0
102
RTVSPost2010PropOp56
 70
     1
102
RTVSPost2010Prop57
140
1.0
102
RTVSPost2010PropOp57
 70
     1
102
RTVSPropertyOp0
 70
     1
102
RTVSPropertyOp1
 70
     1
102
RTVSPropertyOp2
 70
     1
102
RTVSPropertyOp3
 70
     1
102
RTVSPropertyOp4
 70
     1
102
RTVSPropertyOp5
 70
     1
102
RTVSPropertyOp6
 70
     1
102
RTVSPropertyOp7
 70
     1
102
RTVSPropertyOp8
 70
     1
102
RTVSPropertyOp9
 70
     1
102
RTVSPropertyOp10
 70
     1
102
RTVSPropertyOp11
 70
     1
102
RTVSPropertyOp12
 70
     1
102
RTVSPropertyOp13
 70
     1
102
RTVSPropertyOp14
 70
     1
102
RTVSPropertyOp15
 70
     1
102
RTVSPropertyOp16
 70
     1
102
RTVSPropertyOp17
 70
     1
102
RTVSPropertyOp18
 70
     1
102
RTVSPropertyOp19
 70
     1
102
RTVSPropertyOp20
 70
     1
102
RTVSPropertyOp21
 70
     1
102
RTVSPropertyOp22
 70
     1
102
RTVSPropertyOp23
 70
     1
102
RTVSPropertyOp24
 70
     1
102
RTVSPropertyOp25
 70
     1
102
RTVSPropertyOp26
 70
     1
102
RTVSPropertyOp27
 70
     1
102
RTVSPropertyOp28
 70
     1
102
RTVSPropertyOp29
 70
     1
102
RTVSPropertyOp30
 70
     1
102
RTVSPropertyOp31
 70
     1
102
RTVSPropertyOp32
 70
     1
102
RTVSPropertyOp33
 70
     1
102
RTVSPropertyOp34
 70
     1
102
RTVSPropertyOp35
 70
     1
102
RTVSPropertyOp36
 70
     1
102
RTVSPropertyOp37
 70
     1
102
RTVSPropertyOp38
 70
     1
102
RTVSPropertyOp39
 70
     1
102
RTVSPropertyOp40
 70
     1
102
RTVSPropertyOp41
 70
     1
102
RTVSPropertyOp42
 70
     1
102
RTVSPropertyOp43
 70
     1
102
RTVSPropertyOp44
 70
     1
102
RTVSPropertyOp45
 70
     1
102
RTVSPropertyOp46
 70
     1
102
RTVSPropertyOp47
 70
     1
102
RTVSPropertyOp48
 70
     1
102
RTVSPropertyOp49
 70
     1
102
RTVSPropertyOp50
 70
     1
102
RTVSPropertyOp51
 70
     0
102
RTVSPropertyOp52
 70
     0
102
RTVSPropertyOp53
 70
     1
102
RTVSPropertyOp54
 70
     1
102
RTVSPropertyOp55
 70
     1
102
RTVSPropertyOp56
 70
     1
102
RTVSPropertyOp57
 70
     1
102
RTVSPropertyOp58
 70
     1
102
RTVSPropertyOp59
 70
     1
102
RTVSPropertyOp60
 70
     1
102
RTVSPropertyOp61
 70
     1
102
RTVSPropertyOp62
 70
     1
  0
XRECORD
  5
A21F
102
{ACAD_REACTORS
330
A21E
102
}
330
A21E
100
AcDbXrecord
280
     1
102
RTVSPost2010Prop28
280
     0
102
RTVSPost2010PropOp28
 70
     1
102
RTVSPost2010Prop29
280
     1
102
RTVSPost2010PropOp29
 70
     1
102
RTVSPost2010Prop30
280
     1
102
RTVSPost2010PropOp30
 70
     1
102
RTVSPost2010Prop31
280
     0
102
RTVSPost2010PropOp31
 70
     1
102
RTVSPost2010Prop32
280
     0
102
RTVSPost2010PropOp32
 70
     1
102
RTVSPost2010Prop33
280
     0
102
RTVSPost2010PropOp33
 70
     1
102
RTVSPost2010Prop34
280
     0
102
RTVSPost2010PropOp34
 70
     1
102
RTVSPost2010Prop35
280
     0
102
RTVSPost2010PropOp35
 70
     1
102
RTVSPost2010Prop36
280
     0
102
RTVSPost2010PropOp36
 70
     1
102
RTVSPost2010Prop37
 90
       50
102
RTVSPost2010PropOp37
 70
     1
102
RTVSPost2010Prop38
140
0.0
102
RTVSPost2010PropOp38
 70
     1
102
RTVSPost2010Prop39
140
1.0
102
RTVSPost2010PropOp39
 70
     1
102
RTVSPost2010Prop40
 90
        0
102
RTVSPost2010PropOp40
 70
     1
102
RTVSPost2010Prop41ColorIndex
 90
       18
102
RTVSPost2010Prop41ColorRGB
 90
        0
102
RTVSPost2010PropOp41
 70
     1
102
RTVSPost2010Prop42
 90
       50
102
RTVSPost2010PropOp42
 70
     1
102
RTVSPost2010Prop43
 90
        3
102
RTVSPost2010PropOp43
 70
     1
102
RTVSPost2010Prop44ColorIndex
 90
        5
102
RTVSPost2010Prop44ColorRGB
 90
      255
102
RTVSPost2010PropOp44
 70
     1
102
RTVSPost2010Prop45
280
     0
102
RTVSPost2010PropOp45
 70
     1
102
RTVSPost2010Prop46
 90
       50
102
RTVSPost2010PropOp46
 70
     1
102
RTVSPost2010Prop47
 90
       50
102
RTVSPost2010PropOp47
 70
     1
102
RTVSPost2010Prop48
 90
       50
102
RTVSPost2010PropOp48
 70
     1
102
RTVSPost2010Prop49
280
     0
102
RTVSPost2010PropOp49
 70
     1
102
RTVSPost2010Prop50
 90
       50
102
RTVSPost2010PropOp50
 70
     1
102
RTVSPost2010Prop51ColorIndex
 90
      256
102
RTVSPost2010Prop51ColorRGB
 90
-16777216
102
RTVSPost2010PropOp51
 70
     0
102
RTVSPost2010Prop52
140
1.0
102
RTVSPost2010PropOp52
 70
     0
102
RTVSPost2010Prop53
 90
        2
102
RTVSPost2010PropOp53
 70
     1
102
RTVSPost2010Prop54
  1
strokes_ogs.tif
102
RTVSPost2010PropOp54
 70
     1
102
RTVSPost2010Prop55
280
     0
102
RTVSPost2010PropOp55
 70
     1
102
RTVSPost2010Prop56
140
1.0
102
RTVSPost2010PropOp56
 70
     1
102
RTVSPost2010Prop57
140
1.0
102
RTVSPost2010PropOp57
 70
     1
102
RTVSPropertyOp0
 70
     1
102
RTVSPropertyOp1
 70
     1
102
RTVSPropertyOp2
 70
     1
102
RTVSPropertyOp3
 70
     1
102
RTVSPropertyOp4
 70
     1
102
RTVSPropertyOp5
 70
     1
102
RTVSPropertyOp6
 70
     1
102
RTVSPropertyOp7
 70
     1
102
RTVSPropertyOp8
 70
     1
102
RTVSPropertyOp9
 70
     1
102
RTVSPropertyOp10
 70
     1
102
RTVSPropertyOp11
 70
     1
102
RTVSPropertyOp12
 70
     1
102
RTVSPropertyOp13
 70
     1
102
RTVSPropertyOp14
 70
     1
102
RTVSPropertyOp15
 70
     1
102
RTVSPropertyOp16
 70
     1
102
RTVSPropertyOp17
 70
     1
102
RTVSPropertyOp18
 70
     1
102
RTVSPropertyOp19
 70
     1
102
RTVSPropertyOp20
 70
     1
102
RTVSPropertyOp21
 70
     1
102
RTVSPropertyOp22
 70
     1
102
RTVSPropertyOp23
 70
     1
102
RTVSPropertyOp24
 70
     1
102
RTVSPropertyOp25
 70
     1
102
RTVSPropertyOp26
 70
     1
102
RTVSPropertyOp27
 70
     1
102
RTVSPropertyOp28
 70
     1
102
RTVSPropertyOp29
 70
     1
102
RTVSPropertyOp30
 70
     1
102
RTVSPropertyOp31
 70
     1
102
RTVSPropertyOp32
 70
     1
102
RTVSPropertyOp33
 70
     1
102
RTVSPropertyOp34
 70
     1
102
RTVSPropertyOp35
 70
     1
102
RTVSPropertyOp36
 70
     1
102
RTVSPropertyOp37
 70
     1
102
RTVSPropertyOp38
 70
     1
102
RTVSPropertyOp39
 70
     1
102
RTVSPropertyOp40
 70
     1
102
RTVSPropertyOp41
 70
     1
102
RTVSPropertyOp42
 70
     1
102
RTVSPropertyOp43
 70
     1
102
RTVSPropertyOp44
 70
     1
102
RTVSPropertyOp45
 70
     1
102
RTVSPropertyOp46
 70
     1
102
RTVSPropertyOp47
 70
     1
102
RTVSPropertyOp48
 70
     1
102
RTVSPropertyOp49
 70
     1
102
RTVSPropertyOp50
 70
     1
102
RTVSPropertyOp51
 70
     0
102
RTVSPropertyOp52
 70
     0
102
RTVSPropertyOp53
 70
     1
102
RTVSPropertyOp54
 70
     1
102
RTVSPropertyOp55
 70
     1
102
RTVSPropertyOp56
 70
     1
102
RTVSPropertyOp57
 70
     1
102
RTVSPropertyOp58
 70
     1
102
RTVSPropertyOp59
 70
     1
102
RTVSPropertyOp60
 70
     1
102
RTVSPropertyOp61
 70
     1
102
RTVSPropertyOp62
 70
     1
  0
XRECORD
  5
A239
102
{ACAD_REACTORS
330
A238
102
}
330
A238
100
AcDbXrecord
280
     1
102
RTVSPost2010Prop28
280
     0
102
RTVSPost2010PropOp28
 70
     1
102
RTVSPost2010Prop29
280
     1
102
RTVSPost2010PropOp29
 70
     1
102
RTVSPost2010Prop30
280
     1
102
RTVSPost2010PropOp30
 70
     1
102
RTVSPost2010Prop31
280
     0
102
RTVSPost2010PropOp31
 70
     1
102
RTVSPost2010Prop32
280
     0
102
RTVSPost2010PropOp32
 70
     1
102
RTVSPost2010Prop33
280
     0
102
RTVSPost2010PropOp33
 70
     1
102
RTVSPost2010Prop34
280
     0
102
RTVSPost2010PropOp34
 70
     1
102
RTVSPost2010Prop35
280
     0
102
RTVSPost2010PropOp35
 70
     1
102
RTVSPost2010Prop36
280
     0
102
RTVSPost2010PropOp36
 70
     1
102
RTVSPost2010Prop37
 90
       50
102
RTVSPost2010PropOp37
 70
     0
102
RTVSPost2010Prop38
140
0.0
102
RTVSPost2010PropOp38
 70
     0
102
RTVSPost2010Prop39
140
1.0
102
RTVSPost2010PropOp39
 70
     0
102
RTVSPost2010Prop40
 90
        0
102
RTVSPost2010PropOp40
 70
     0
102
RTVSPost2010Prop41ColorIndex
 90
       18
102
RTVSPost2010Prop41ColorRGB
 90
        0
102
RTVSPost2010PropOp41
 70
     0
102
RTVSPost2010Prop42
 90
       50
102
RTVSPost2010PropOp42
 70
     0
102
RTVSPost2010Prop43
 90
        3
102
RTVSPost2010PropOp43
 70
     0
102
RTVSPost2010Prop44ColorIndex
 90
        5
102
RTVSPost2010Prop44ColorRGB
 90
      255
102
RTVSPost2010PropOp44
 70
     0
102
RTVSPost2010Prop45
280
     0
102
RTVSPost2010PropOp45
 70
     1
102
RTVSPost2010Prop46
 90
       50
102
RTVSPost2010PropOp46
 70
     0
102
RTVSPost2010Prop47
 90
       50
102
RTVSPost2010PropOp47
 70
     0
102
RTVSPost2010Prop48
 90
       50
102
RTVSPost2010PropOp48
 70
     0
102
RTVSPost2010Prop49
280
     0
102
RTVSPost2010PropOp49
 70
     1
102
RTVSPost2010Prop50
 90
       50
102
RTVSPost2010PropOp50
 70
     0
102
RTVSPost2010Prop51ColorIndex
 90
      256
102
RTVSPost2010Prop51ColorRGB
 90
-16777216
102
RTVSPost2010PropOp51
 70
     0
102
RTVSPost2010Prop52
140
1.0
102
RTVSPost2010PropOp52
 70
     0
102
RTVSPost2010Prop53
 90
        2
102
RTVSPost2010PropOp53
 70
     0
102
RTVSPost2010Prop54
  1
strokes_ogs.tif
102
RTVSPost2010PropOp54
 70
     0
102
RTVSPost2010Prop55
280
     0
102
RTVSPost2010PropOp55
 70
     1
102
RTVSPost2010Prop56
140
1.0
102
RTVSPost2010PropOp56
 70
     0
102
RTVSPost2010Prop57
140
1.0
102
RTVSPost2010PropOp57
 70
     0
102
RTVSPropertyOp0
 70
     0
102
RTVSPropertyOp1
 70
     0
102
RTVSPropertyOp2
 70
     0
102
RTVSPropertyOp3
 70
     0
102
RTVSPropertyOp4
 70
     0
102
RTVSPropertyOp5
 70
     0
102
RTVSPropertyOp6
 70
     0
102
RTVSPropertyOp7
 70
     0
102
RTVSPropertyOp8
 70
     0
102
RTVSPropertyOp9
 70
     0
102
RTVSPropertyOp10
 70
     0
102
RTVSPropertyOp11
 70
     0
102
RTVSPropertyOp12
 70
     0
102
RTVSPropertyOp13
 70
     0
102
RTVSPropertyOp14
 70
     2
102
RTVSPropertyOp15
 70
     0
102
RTVSPropertyOp16
 70
     0
102
RTVSPropertyOp17
 70
     0
102
RTVSPropertyOp18
 70
     0
102
RTVSPropertyOp19
 70
     0
102
RTVSPropertyOp20
 70
     0
102
RTVSPropertyOp21
 70
     0
102
RTVSPropertyOp22
 70
     0
102
RTVSPropertyOp23
 70
     0
102
RTVSPropertyOp24
 70
     0
102
RTVSPropertyOp25
 70
     0
102
RTVSPropertyOp26
 70
     0
102
RTVSPropertyOp27
 70
     0
102
RTVSPropertyOp28
 70
     1
102
RTVSPropertyOp29
 70
     1
102
RTVSPropertyOp30
 70
     1
102
RTVSPropertyOp31
 70
     1
102
RTVSPropertyOp32
 70
     1
102
RTVSPropertyOp33
 70
     1
102
RTVSPropertyOp34
 70
     1
102
RTVSPropertyOp35
 70
     1
102
RTVSPropertyOp36
 70
     1
102
RTVSPropertyOp37
 70
     0
102
RTVSPropertyOp38
 70
     0
102
RTVSPropertyOp39
 70
     0
102
RTVSPropertyOp40
 70
     0
102
RTVSPropertyOp41
 70
     0
102
RTVSPropertyOp42
 70
     0
102
RTVSPropertyOp43
 70
     0
102
RTVSPropertyOp44
 70
     0
102
RTVSPropertyOp45
 70
     1
102
RTVSPropertyOp46
 70
     0
102
RTVSPropertyOp47
 70
     0
102
RTVSPropertyOp48
 70
     0
102
RTVSPropertyOp49
 70
     1
102
RTVSPropertyOp50
 70
     0
102
RTVSPropertyOp51
 70
     0
102
RTVSPropertyOp52
 70
     0
102
RTVSPropertyOp53
 70
     0
102
RTVSPropertyOp54
 70
     0
102
RTVSPropertyOp55
 70
     1
102
RTVSPropertyOp56
 70
     0
102
RTVSPropertyOp57
 70
     0
102
RTVSPropertyOp58
 70
     0
102
RTVSPropertyOp59
 70
     0
102
RTVSPropertyOp60
 70
     0
102
RTVSPropertyOp61
 70
     0
102
RTVSPropertyOp62
 70
     0
  0
XRECORD
  5
A227
102
{ACAD_REACTORS
330
A226
102
}
330
A226
100
AcDbXrecord
280
     1
102
RTVSPost2010Prop28
280
     0
102
RTVSPost2010PropOp28
 70
     1
102
RTVSPost2010Prop29
280
     1
102
RTVSPost2010PropOp29
 70
     1
102
RTVSPost2010Prop30
280
     1
102
RTVSPost2010PropOp30
 70
     1
102
RTVSPost2010Prop31
280
     0
102
RTVSPost2010PropOp31
 70
     1
102
RTVSPost2010Prop32
280
     0
102
RTVSPost2010PropOp32
 70
     1
102
RTVSPost2010Prop33
280
     0
102
RTVSPost2010PropOp33
 70
     1
102
RTVSPost2010Prop34
280
     0
102
RTVSPost2010PropOp34
 70
     1
102
RTVSPost2010Prop35
280
     0
102
RTVSPost2010PropOp35
 70
     1
102
RTVSPost2010Prop36
280
     0
102
RTVSPost2010PropOp36
 70
     1
102
RTVSPost2010Prop37
 90
       50
102
RTVSPost2010PropOp37
 70
     1
102
RTVSPost2010Prop38
140
0.0
102
RTVSPost2010PropOp38
 70
     1
102
RTVSPost2010Prop39
140
1.0
102
RTVSPost2010PropOp39
 70
     1
102
RTVSPost2010Prop40
 90
        0
102
RTVSPost2010PropOp40
 70
     1
102
RTVSPost2010Prop41ColorIndex
 90
       18
102
RTVSPost2010Prop41ColorRGB
 90
        0
102
RTVSPost2010PropOp41
 70
     1
102
RTVSPost2010Prop42
 90
       50
102
RTVSPost2010PropOp42
 70
     1
102
RTVSPost2010Prop43
 90
        3
102
RTVSPost2010PropOp43
 70
     1
102
RTVSPost2010Prop44ColorIndex
 90
        5
102
RTVSPost2010Prop44ColorRGB
 90
      255
102
RTVSPost2010PropOp44
 70
     1
102
RTVSPost2010Prop45
280
     0
102
RTVSPost2010PropOp45
 70
     1
102
RTVSPost2010Prop46
 90
       50
102
RTVSPost2010PropOp46
 70
     1
102
RTVSPost2010Prop47
 90
       50
102
RTVSPost2010PropOp47
 70
     1
102
RTVSPost2010Prop48
 90
       50
102
RTVSPost2010PropOp48
 70
     1
102
RTVSPost2010Prop49
280
     0
102
RTVSPost2010PropOp49
 70
     1
102
RTVSPost2010Prop50
 90
       50
102
RTVSPost2010PropOp50
 70
     1
102
RTVSPost2010Prop51ColorIndex
 90
      256
102
RTVSPost2010Prop51ColorRGB
 90
-16777216
102
RTVSPost2010PropOp51
 70
     0
102
RTVSPost2010Prop52
140
1.0
102
RTVSPost2010PropOp52
 70
     0
102
RTVSPost2010Prop53
 90
        2
102
RTVSPost2010PropOp53
 70
     1
102
RTVSPost2010Prop54
  1
strokes_ogs.tif
102
RTVSPost2010PropOp54
 70
     1
102
RTVSPost2010Prop55
280
     0
102
RTVSPost2010PropOp55
 70
     1
102
RTVSPost2010Prop56
140
1.0
102
RTVSPost2010PropOp56
 70
     1
102
RTVSPost2010Prop57
140
1.0
102
RTVSPost2010PropOp57
 70
     1
102
RTVSPropertyOp0
 70
     1
102
RTVSPropertyOp1
 70
     1
102
RTVSPropertyOp2
 70
     1
102
RTVSPropertyOp3
 70
     1
102
RTVSPropertyOp4
 70
     1
102
RTVSPropertyOp5
 70
     1
102
RTVSPropertyOp6
 70
     1
102
RTVSPropertyOp7
 70
     1
102
RTVSPropertyOp8
 70
     1
102
RTVSPropertyOp9
 70
     1
102
RTVSPropertyOp10
 70
     1
102
RTVSPropertyOp11
 70
     1
102
RTVSPropertyOp12
 70
     1
102
RTVSPropertyOp13
 70
     1
102
RTVSPropertyOp14
 70
     1
102
RTVSPropertyOp15
 70
     1
102
RTVSPropertyOp16
 70
     1
102
RTVSPropertyOp17
 70
     1
102
RTVSPropertyOp18
 70
     1
102
RTVSPropertyOp19
 70
     1
102
RTVSPropertyOp20
 70
     1
102
RTVSPropertyOp21
 70
     1
102
RTVSPropertyOp22
 70
     1
102
RTVSPropertyOp23
 70
     1
102
RTVSPropertyOp24
 70
     1
102
RTVSPropertyOp25
 70
     1
102
RTVSPropertyOp26
 70
     1
102
RTVSPropertyOp27
 70
     1
102
RTVSPropertyOp28
 70
     1
102
RTVSPropertyOp29
 70
     1
102
RTVSPropertyOp30
 70
     1
102
RTVSPropertyOp31
 70
     1
102
RTVSPropertyOp32
 70
     1
102
RTVSPropertyOp33
 70
     1
102
RTVSPropertyOp34
 70
     1
102
RTVSPropertyOp35
 70
     1
102
RTVSPropertyOp36
 70
     1
102
RTVSPropertyOp37
 70
     1
102
RTVSPropertyOp38
 70
     1
102
RTVSPropertyOp39
 70
     1
102
RTVSPropertyOp40
 70
     1
102
RTVSPropertyOp41
 70
     1
102
RTVSPropertyOp42
 70
     1
102
RTVSPropertyOp43
 70
     1
102
RTVSPropertyOp44
 70
     1
102
RTVSPropertyOp45
 70
     1
102
RTVSPropertyOp46
 70
     1
102
RTVSPropertyOp47
 70
     1
102
RTVSPropertyOp48
 70
     1
102
RTVSPropertyOp49
 70
     1
102
RTVSPropertyOp50
 70
     1
102
RTVSPropertyOp51
 70
     0
102
RTVSPropertyOp52
 70
     0
102
RTVSPropertyOp53
 70
     1
102
RTVSPropertyOp54
 70
     1
102
RTVSPropertyOp55
 70
     1
102
RTVSPropertyOp56
 70
     1
102
RTVSPropertyOp57
 70
     1
102
RTVSPropertyOp58
 70
     1
102
RTVSPropertyOp59
 70
     1
102
RTVSPropertyOp60
 70
     1
102
RTVSPropertyOp61
 70
     1
102
RTVSPropertyOp62
 70
     1
  0
XRECORD
  5
A20B
102
{ACAD_REACTORS
330
A20A
102
}
330
A20A
100
AcDbXrecord
280
     1
102
RTVSPost2010Prop28
280
     0
102
RTVSPost2010PropOp28
 70
     1
102
RTVSPost2010Prop29
280
     1
102
RTVSPost2010PropOp29
 70
     1
102
RTVSPost2010Prop30
280
     1
102
RTVSPost2010PropOp30
 70
     1
102
RTVSPost2010Prop31
280
     0
102
RTVSPost2010PropOp31
 70
     1
102
RTVSPost2010Prop32
280
     0
102
RTVSPost2010PropOp32
 70
     1
102
RTVSPost2010Prop33
280
     0
102
RTVSPost2010PropOp33
 70
     1
102
RTVSPost2010Prop34
280
     0
102
RTVSPost2010PropOp34
 70
     1
102
RTVSPost2010Prop35
280
     0
102
RTVSPost2010PropOp35
 70
     1
102
RTVSPost2010Prop36
280
     0
102
RTVSPost2010PropOp36
 70
     1
102
RTVSPost2010Prop37
 90
       50
102
RTVSPost2010PropOp37
 70
     1
102
RTVSPost2010Prop38
140
0.0
102
RTVSPost2010PropOp38
 70
     1
102
RTVSPost2010Prop39
140
1.0
102
RTVSPost2010PropOp39
 70
     1
102
RTVSPost2010Prop40
 90
        0
102
RTVSPost2010PropOp40
 70
     1
102
RTVSPost2010Prop41ColorIndex
 90
       18
102
RTVSPost2010Prop41ColorRGB
 90
        0
102
RTVSPost2010PropOp41
 70
     1
102
RTVSPost2010Prop42
 90
       50
102
RTVSPost2010PropOp42
 70
     1
102
RTVSPost2010Prop43
 90
        3
102
RTVSPost2010PropOp43
 70
     1
102
RTVSPost2010Prop44ColorIndex
 90
        5
102
RTVSPost2010Prop44ColorRGB
 90
      255
102
RTVSPost2010PropOp44
 70
     1
102
RTVSPost2010Prop45
280
     0
102
RTVSPost2010PropOp45
 70
     1
102
RTVSPost2010Prop46
 90
       50
102
RTVSPost2010PropOp46
 70
     1
102
RTVSPost2010Prop47
 90
       50
102
RTVSPost2010PropOp47
 70
     1
102
RTVSPost2010Prop48
 90
       50
102
RTVSPost2010PropOp48
 70
     1
102
RTVSPost2010Prop49
280
     0
102
RTVSPost2010PropOp49
 70
     1
102
RTVSPost2010Prop50
 90
       50
102
RTVSPost2010PropOp50
 70
     1
102
RTVSPost2010Prop51ColorIndex
 90
      256
102
RTVSPost2010Prop51ColorRGB
 90
-16777216
102
RTVSPost2010PropOp51
 70
     0
102
RTVSPost2010Prop52
140
1.0
102
RTVSPost2010PropOp52
 70
     0
102
RTVSPost2010Prop53
 90
        2
102
RTVSPost2010PropOp53
 70
     1
102
RTVSPost2010Prop54
  1
strokes_ogs.tif
102
RTVSPost2010PropOp54
 70
     1
102
RTVSPost2010Prop55
280
     0
102
RTVSPost2010PropOp55
 70
     1
102
RTVSPost2010Prop56
140
1.0
102
RTVSPost2010PropOp56
 70
     1
102
RTVSPost2010Prop57
140
1.0
102
RTVSPost2010PropOp57
 70
     1
102
RTVSPropertyOp0
 70
     1
102
RTVSPropertyOp1
 70
     1
102
RTVSPropertyOp2
 70
     1
102
RTVSPropertyOp3
 70
     1
102
RTVSPropertyOp4
 70
     1
102
RTVSPropertyOp5
 70
     1
102
RTVSPropertyOp6
 70
     1
102
RTVSPropertyOp7
 70
     1
102
RTVSPropertyOp8
 70
     1
102
RTVSPropertyOp9
 70
     1
102
RTVSPropertyOp10
 70
     1
102
RTVSPropertyOp11
 70
     1
102
RTVSPropertyOp12
 70
     1
102
RTVSPropertyOp13
 70
     1
102
RTVSPropertyOp14
 70
     1
102
RTVSPropertyOp15
 70
     1
102
RTVSPropertyOp16
 70
     1
102
RTVSPropertyOp17
 70
     1
102
RTVSPropertyOp18
 70
     1
102
RTVSPropertyOp19
 70
     1
102
RTVSPropertyOp20
 70
     1
102
RTVSPropertyOp21
 70
     1
102
RTVSPropertyOp22
 70
     1
102
RTVSPropertyOp23
 70
     1
102
RTVSPropertyOp24
 70
     1
102
RTVSPropertyOp25
 70
     1
102
RTVSPropertyOp26
 70
     1
102
RTVSPropertyOp27
 70
     1
102
RTVSPropertyOp28
 70
     1
102
RTVSPropertyOp29
 70
     1
102
RTVSPropertyOp30
 70
     1
102
RTVSPropertyOp31
 70
     1
102
RTVSPropertyOp32
 70
     1
102
RTVSPropertyOp33
 70
     1
102
RTVSPropertyOp34
 70
     1
102
RTVSPropertyOp35
 70
     1
102
RTVSPropertyOp36
 70
     1
102
RTVSPropertyOp37
 70
     1
102
RTVSPropertyOp38
 70
     1
102
RTVSPropertyOp39
 70
     1
102
RTVSPropertyOp40
 70
     1
102
RTVSPropertyOp41
 70
     1
102
RTVSPropertyOp42
 70
     1
102
RTVSPropertyOp43
 70
     1
102
RTVSPropertyOp44
 70
     1
102
RTVSPropertyOp45
 70
     1
102
RTVSPropertyOp46
 70
     1
102
RTVSPropertyOp47
 70
     1
102
RTVSPropertyOp48
 70
     1
102
RTVSPropertyOp49
 70
     1
102
RTVSPropertyOp50
 70
     1
102
RTVSPropertyOp51
 70
     0
102
RTVSPropertyOp52
 70
     0
102
RTVSPropertyOp53
 70
     1
102
RTVSPropertyOp54
 70
     1
102
RTVSPropertyOp55
 70
     1
102
RTVSPropertyOp56
 70
     1
102
RTVSPropertyOp57
 70
     1
102
RTVSPropertyOp58
 70
     1
102
RTVSPropertyOp59
 70
     1
102
RTVSPropertyOp60
 70
     1
102
RTVSPropertyOp61
 70
     1
102
RTVSPropertyOp62
 70
     1
  0
XRECORD
  5
A20D
102
{ACAD_REACTORS
330
A20C
102
}
330
A20C
100
AcDbXrecord
280
     1
102
RTVSPost2010Prop28
280
     0
102
RTVSPost2010PropOp28
 70
     1
102
RTVSPost2010Prop29
280
     1
102
RTVSPost2010PropOp29
 70
     1
102
RTVSPost2010Prop30
280
     1
102
RTVSPost2010PropOp30
 70
     1
102
RTVSPost2010Prop31
280
     0
102
RTVSPost2010PropOp31
 70
     1
102
RTVSPost2010Prop32
280
     0
102
RTVSPost2010PropOp32
 70
     1
102
RTVSPost2010Prop33
280
     0
102
RTVSPost2010PropOp33
 70
     1
102
RTVSPost2010Prop34
280
     0
102
RTVSPost2010PropOp34
 70
     1
102
RTVSPost2010Prop35
280
     0
102
RTVSPost2010PropOp35
 70
     1
102
RTVSPost2010Prop36
280
     0
102
RTVSPost2010PropOp36
 70
     1
102
RTVSPost2010Prop37
 90
       50
102
RTVSPost2010PropOp37
 70
     1
102
RTVSPost2010Prop38
140
0.0
102
RTVSPost2010PropOp38
 70
     1
102
RTVSPost2010Prop39
140
1.0
102
RTVSPost2010PropOp39
 70
     1
102
RTVSPost2010Prop40
 90
        0
102
RTVSPost2010PropOp40
 70
     1
102
RTVSPost2010Prop41ColorIndex
 90
       18
102
RTVSPost2010Prop41ColorRGB
 90
        0
102
RTVSPost2010PropOp41
 70
     1
102
RTVSPost2010Prop42
 90
       50
102
RTVSPost2010PropOp42
 70
     1
102
RTVSPost2010Prop43
 90
        3
102
RTVSPost2010PropOp43
 70
     1
102
RTVSPost2010Prop44ColorIndex
 90
        5
102
RTVSPost2010Prop44ColorRGB
 90
      255
102
RTVSPost2010PropOp44
 70
     1
102
RTVSPost2010Prop45
280
     0
102
RTVSPost2010PropOp45
 70
     1
102
RTVSPost2010Prop46
 90
       50
102
RTVSPost2010PropOp46
 70
     1
102
RTVSPost2010Prop47
 90
       50
102
RTVSPost2010PropOp47
 70
     1
102
RTVSPost2010Prop48
 90
       50
102
RTVSPost2010PropOp48
 70
     1
102
RTVSPost2010Prop49
280
     0
102
RTVSPost2010PropOp49
 70
     1
102
RTVSPost2010Prop50
 90
       50
102
RTVSPost2010PropOp50
 70
     1
102
RTVSPost2010Prop51ColorIndex
 90
      256
102
RTVSPost2010Prop51ColorRGB
 90
-16777216
102
RTVSPost2010PropOp51
 70
     0
102
RTVSPost2010Prop52
140
1.0
102
RTVSPost2010PropOp52
 70
     0
102
RTVSPost2010Prop53
 90
        2
102
RTVSPost2010PropOp53
 70
     1
102
RTVSPost2010Prop54
  1
strokes_ogs.tif
102
RTVSPost2010PropOp54
 70
     1
102
RTVSPost2010Prop55
280
     0
102
RTVSPost2010PropOp55
 70
     1
102
RTVSPost2010Prop56
140
1.0
102
RTVSPost2010PropOp56
 70
     1
102
RTVSPost2010Prop57
140
1.0
102
RTVSPost2010PropOp57
 70
     1
102
RTVSPropertyOp0
 70
     1
102
RTVSPropertyOp1
 70
     1
102
RTVSPropertyOp2
 70
     1
102
RTVSPropertyOp3
 70
     1
102
RTVSPropertyOp4
 70
     1
102
RTVSPropertyOp5
 70
     1
102
RTVSPropertyOp6
 70
     1
102
RTVSPropertyOp7
 70
     1
102
RTVSPropertyOp8
 70
     1
102
RTVSPropertyOp9
 70
     1
102
RTVSPropertyOp10
 70
     1
102
RTVSPropertyOp11
 70
     1
102
RTVSPropertyOp12
 70
     1
102
RTVSPropertyOp13
 70
     1
102
RTVSPropertyOp14
 70
     1
102
RTVSPropertyOp15
 70
     1
102
RTVSPropertyOp16
 70
     1
102
RTVSPropertyOp17
 70
     1
102
RTVSPropertyOp18
 70
     1
102
RTVSPropertyOp19
 70
     1
102
RTVSPropertyOp20
 70
     1
102
RTVSPropertyOp21
 70
     1
102
RTVSPropertyOp22
 70
     1
102
RTVSPropertyOp23
 70
     1
102
RTVSPropertyOp24
 70
     1
102
RTVSPropertyOp25
 70
     1
102
RTVSPropertyOp26
 70
     1
102
RTVSPropertyOp27
 70
     1
102
RTVSPropertyOp28
 70
     1
102
RTVSPropertyOp29
 70
     1
102
RTVSPropertyOp30
 70
     1
102
RTVSPropertyOp31
 70
     1
102
RTVSPropertyOp32
 70
     1
102
RTVSPropertyOp33
 70
     1
102
RTVSPropertyOp34
 70
     1
102
RTVSPropertyOp35
 70
     1
102
RTVSPropertyOp36
 70
     1
102
RTVSPropertyOp37
 70
     1
102
RTVSPropertyOp38
 70
     1
102
RTVSPropertyOp39
 70
     1
102
RTVSPropertyOp40
 70
     1
102
RTVSPropertyOp41
 70
     1
102
RTVSPropertyOp42
 70
     1
102
RTVSPropertyOp43
 70
     1
102
RTVSPropertyOp44
 70
     1
102
RTVSPropertyOp45
 70
     1
102
RTVSPropertyOp46
 70
     1
102
RTVSPropertyOp47
 70
     1
102
RTVSPropertyOp48
 70
     1
102
RTVSPropertyOp49
 70
     1
102
RTVSPropertyOp50
 70
     1
102
RTVSPropertyOp51
 70
     0
102
RTVSPropertyOp52
 70
     0
102
RTVSPropertyOp53
 70
     1
102
RTVSPropertyOp54
 70
     1
102
RTVSPropertyOp55
 70
     1
102
RTVSPropertyOp56
 70
     1
102
RTVSPropertyOp57
 70
     1
102
RTVSPropertyOp58
 70
     1
102
RTVSPropertyOp59
 70
     1
102
RTVSPropertyOp60
 70
     1
102
RTVSPropertyOp61
 70
     1
102
RTVSPropertyOp62
 70
     1
  0
XRECORD
  5
A20F
102
{ACAD_REACTORS
330
A20E
102
}
330
A20E
100
AcDbXrecord
280
     1
102
RTVSPost2010Prop28
280
     0
102
RTVSPost2010PropOp28
 70
     1
102
RTVSPost2010Prop29
280
     1
102
RTVSPost2010PropOp29
 70
     1
102
RTVSPost2010Prop30
280
     1
102
RTVSPost2010PropOp30
 70
     1
102
RTVSPost2010Prop31
280
     0
102
RTVSPost2010PropOp31
 70
     1
102
RTVSPost2010Prop32
280
     0
102
RTVSPost2010PropOp32
 70
     1
102
RTVSPost2010Prop33
280
     0
102
RTVSPost2010PropOp33
 70
     1
102
RTVSPost2010Prop34
280
     0
102
RTVSPost2010PropOp34
 70
     1
102
RTVSPost2010Prop35
280
     0
102
RTVSPost2010PropOp35
 70
     1
102
RTVSPost2010Prop36
280
     0
102
RTVSPost2010PropOp36
 70
     1
102
RTVSPost2010Prop37
 90
       50
102
RTVSPost2010PropOp37
 70
     1
102
RTVSPost2010Prop38
140
0.0
102
RTVSPost2010PropOp38
 70
     1
102
RTVSPost2010Prop39
140
1.0
102
RTVSPost2010PropOp39
 70
     1
102
RTVSPost2010Prop40
 90
        0
102
RTVSPost2010PropOp40
 70
     1
102
RTVSPost2010Prop41ColorIndex
 90
       18
102
RTVSPost2010Prop41ColorRGB
 90
        0
102
RTVSPost2010PropOp41
 70
     1
102
RTVSPost2010Prop42
 90
       50
102
RTVSPost2010PropOp42
 70
     1
102
RTVSPost2010Prop43
 90
        3
102
RTVSPost2010PropOp43
 70
     1
102
RTVSPost2010Prop44ColorIndex
 90
        5
102
RTVSPost2010Prop44ColorRGB
 90
      255
102
RTVSPost2010PropOp44
 70
     1
102
RTVSPost2010Prop45
280
     0
102
RTVSPost2010PropOp45
 70
     1
102
RTVSPost2010Prop46
 90
       50
102
RTVSPost2010PropOp46
 70
     1
102
RTVSPost2010Prop47
 90
       50
102
RTVSPost2010PropOp47
 70
     1
102
RTVSPost2010Prop48
 90
       50
102
RTVSPost2010PropOp48
 70
     1
102
RTVSPost2010Prop49
280
     0
102
RTVSPost2010PropOp49
 70
     1
102
RTVSPost2010Prop50
 90
       50
102
RTVSPost2010PropOp50
 70
     1
102
RTVSPost2010Prop51ColorIndex
 90
      256
102
RTVSPost2010Prop51ColorRGB
 90
-16777216
102
RTVSPost2010PropOp51
 70
     0
102
RTVSPost2010Prop52
140
1.0
102
RTVSPost2010PropOp52
 70
     0
102
RTVSPost2010Prop53
 90
        2
102
RTVSPost2010PropOp53
 70
     1
102
RTVSPost2010Prop54
  1
strokes_ogs.tif
102
RTVSPost2010PropOp54
 70
     1
102
RTVSPost2010Prop55
280
     0
102
RTVSPost2010PropOp55
 70
     1
102
RTVSPost2010Prop56
140
1.0
102
RTVSPost2010PropOp56
 70
     1
102
RTVSPost2010Prop57
140
1.0
102
RTVSPost2010PropOp57
 70
     1
102
RTVSPropertyOp0
 70
     1
102
RTVSPropertyOp1
 70
     1
102
RTVSPropertyOp2
 70
     1
102
RTVSPropertyOp3
 70
     1
102
RTVSPropertyOp4
 70
     1
102
RTVSPropertyOp5
 70
     1
102
RTVSPropertyOp6
 70
     1
102
RTVSPropertyOp7
 70
     1
102
RTVSPropertyOp8
 70
     1
102
RTVSPropertyOp9
 70
     1
102
RTVSPropertyOp10
 70
     1
102
RTVSPropertyOp11
 70
     1
102
RTVSPropertyOp12
 70
     1
102
RTVSPropertyOp13
 70
     1
102
RTVSPropertyOp14
 70
     1
102
RTVSPropertyOp15
 70
     1
102
RTVSPropertyOp16
 70
     1
102
RTVSPropertyOp17
 70
     1
102
RTVSPropertyOp18
 70
     1
102
RTVSPropertyOp19
 70
     1
102
RTVSPropertyOp20
 70
     1
102
RTVSPropertyOp21
 70
     1
102
RTVSPropertyOp22
 70
     1
102
RTVSPropertyOp23
 70
     1
102
RTVSPropertyOp24
 70
     1
102
RTVSPropertyOp25
 70
     1
102
RTVSPropertyOp26
 70
     1
102
RTVSPropertyOp27
 70
     1
102
RTVSPropertyOp28
 70
     1
102
RTVSPropertyOp29
 70
     1
102
RTVSPropertyOp30
 70
     1
102
RTVSPropertyOp31
 70
     1
102
RTVSPropertyOp32
 70
     1
102
RTVSPropertyOp33
 70
     1
102
RTVSPropertyOp34
 70
     1
102
RTVSPropertyOp35
 70
     1
102
RTVSPropertyOp36
 70
     1
102
RTVSPropertyOp37
 70
     1
102
RTVSPropertyOp38
 70
     1
102
RTVSPropertyOp39
 70
     1
102
RTVSPropertyOp40
 70
     1
102
RTVSPropertyOp41
 70
     1
102
RTVSPropertyOp42
 70
     1
102
RTVSPropertyOp43
 70
     1
102
RTVSPropertyOp44
 70
     1
102
RTVSPropertyOp45
 70
     1
102
RTVSPropertyOp46
 70
     1
102
RTVSPropertyOp47
 70
     1
102
RTVSPropertyOp48
 70
     1
102
RTVSPropertyOp49
 70
     1
102
RTVSPropertyOp50
 70
     1
102
RTVSPropertyOp51
 70
     0
102
RTVSPropertyOp52
 70
     0
102
RTVSPropertyOp53
 70
     1
102
RTVSPropertyOp54
 70
     1
102
RTVSPropertyOp55
 70
     1
102
RTVSPropertyOp56
 70
     1
102
RTVSPropertyOp57
 70
     1
102
RTVSPropertyOp58
 70
     1
102
RTVSPropertyOp59
 70
     1
102
RTVSPropertyOp60
 70
     1
102
RTVSPropertyOp61
 70
     1
102
RTVSPropertyOp62
 70
     1
  0
XRECORD
  5
A211
102
{ACAD_REACTORS
330
A210
102
}
330
A210
100
AcDbXrecord
280
     1
102
RTVSPost2010Prop28
280
     0
102
RTVSPost2010PropOp28
 70
     1
102
RTVSPost2010Prop29
280
     1
102
RTVSPost2010PropOp29
 70
     1
102
RTVSPost2010Prop30
280
     1
102
RTVSPost2010PropOp30
 70
     1
102
RTVSPost2010Prop31
280
     0
102
RTVSPost2010PropOp31
 70
     1
102
RTVSPost2010Prop32
280
     0
102
RTVSPost2010PropOp32
 70
     1
102
RTVSPost2010Prop33
280
     0
102
RTVSPost2010PropOp33
 70
     1
102
RTVSPost2010Prop34
280
     0
102
RTVSPost2010PropOp34
 70
     1
102
RTVSPost2010Prop35
280
     0
102
RTVSPost2010PropOp35
 70
     1
102
RTVSPost2010Prop36
280
     0
102
RTVSPost2010PropOp36
 70
     1
102
RTVSPost2010Prop37
 90
       50
102
RTVSPost2010PropOp37
 70
     1
102
RTVSPost2010Prop38
140
0.0
102
RTVSPost2010PropOp38
 70
     1
102
RTVSPost2010Prop39
140
1.0
102
RTVSPost2010PropOp39
 70
     1
102
RTVSPost2010Prop40
 90
        0
102
RTVSPost2010PropOp40
 70
     1
102
RTVSPost2010Prop41ColorIndex
 90
       18
102
RTVSPost2010Prop41ColorRGB
 90
        0
102
RTVSPost2010PropOp41
 70
     1
102
RTVSPost2010Prop42
 90
       50
102
RTVSPost2010PropOp42
 70
     1
102
RTVSPost2010Prop43
 90
        3
102
RTVSPost2010PropOp43
 70
     1
102
RTVSPost2010Prop44ColorIndex
 90
        5
102
RTVSPost2010Prop44ColorRGB
 90
      255
102
RTVSPost2010PropOp44
 70
     1
102
RTVSPost2010Prop45
280
     0
102
RTVSPost2010PropOp45
 70
     1
102
RTVSPost2010Prop46
 90
       50
102
RTVSPost2010PropOp46
 70
     1
102
RTVSPost2010Prop47
 90
       50
102
RTVSPost2010PropOp47
 70
     1
102
RTVSPost2010Prop48
 90
       50
102
RTVSPost2010PropOp48
 70
     1
102
RTVSPost2010Prop49
280
     0
102
RTVSPost2010PropOp49
 70
     1
102
RTVSPost2010Prop50
 90
       50
102
RTVSPost2010PropOp50
 70
     1
102
RTVSPost2010Prop51ColorIndex
 90
      256
102
RTVSPost2010Prop51ColorRGB
 90
-16777216
102
RTVSPost2010PropOp51
 70
     0
102
RTVSPost2010Prop52
140
1.0
102
RTVSPost2010PropOp52
 70
     0
102
RTVSPost2010Prop53
 90
        2
102
RTVSPost2010PropOp53
 70
     1
102
RTVSPost2010Prop54
  1
strokes_ogs.tif
102
RTVSPost2010PropOp54
 70
     1
102
RTVSPost2010Prop55
280
     0
102
RTVSPost2010PropOp55
 70
     1
102
RTVSPost2010Prop56
140
1.0
102
RTVSPost2010PropOp56
 70
     1
102
RTVSPost2010Prop57
140
1.0
102
RTVSPost2010PropOp57
 70
     1
102
RTVSPropertyOp0
 70
     1
102
RTVSPropertyOp1
 70
     1
102
RTVSPropertyOp2
 70
     1
102
RTVSPropertyOp3
 70
     1
102
RTVSPropertyOp4
 70
     1
102
RTVSPropertyOp5
 70
     1
102
RTVSPropertyOp6
 70
     1
102
RTVSPropertyOp7
 70
     1
102
RTVSPropertyOp8
 70
     1
102
RTVSPropertyOp9
 70
     1
102
RTVSPropertyOp10
 70
     1
102
RTVSPropertyOp11
 70
     1
102
RTVSPropertyOp12
 70
     1
102
RTVSPropertyOp13
 70
     1
102
RTVSPropertyOp14
 70
     1
102
RTVSPropertyOp15
 70
     1
102
RTVSPropertyOp16
 70
     1
102
RTVSPropertyOp17
 70
     1
102
RTVSPropertyOp18
 70
     1
102
RTVSPropertyOp19
 70
     1
102
RTVSPropertyOp20
 70
     1
102
RTVSPropertyOp21
 70
     1
102
RTVSPropertyOp22
 70
     1
102
RTVSPropertyOp23
 70
     1
102
RTVSPropertyOp24
 70
     1
102
RTVSPropertyOp25
 70
     1
102
RTVSPropertyOp26
 70
     1
102
RTVSPropertyOp27
 70
     1
102
RTVSPropertyOp28
 70
     1
102
RTVSPropertyOp29
 70
     1
102
RTVSPropertyOp30
 70
     1
102
RTVSPropertyOp31
 70
     1
102
RTVSPropertyOp32
 70
     1
102
RTVSPropertyOp33
 70
     1
102
RTVSPropertyOp34
 70
     1
102
RTVSPropertyOp35
 70
     1
102
RTVSPropertyOp36
 70
     1
102
RTVSPropertyOp37
 70
     1
102
RTVSPropertyOp38
 70
     1
102
RTVSPropertyOp39
 70
     1
102
RTVSPropertyOp40
 70
     1
102
RTVSPropertyOp41
 70
     1
102
RTVSPropertyOp42
 70
     1
102
RTVSPropertyOp43
 70
     1
102
RTVSPropertyOp44
 70
     1
102
RTVSPropertyOp45
 70
     1
102
RTVSPropertyOp46
 70
     1
102
RTVSPropertyOp47
 70
     1
102
RTVSPropertyOp48
 70
     1
102
RTVSPropertyOp49
 70
     1
102
RTVSPropertyOp50
 70
     1
102
RTVSPropertyOp51
 70
     0
102
RTVSPropertyOp52
 70
     0
102
RTVSPropertyOp53
 70
     1
102
RTVSPropertyOp54
 70
     1
102
RTVSPropertyOp55
 70
     1
102
RTVSPropertyOp56
 70
     1
102
RTVSPropertyOp57
 70
     1
102
RTVSPropertyOp58
 70
     1
102
RTVSPropertyOp59
 70
     1
102
RTVSPropertyOp60
 70
     1
102
RTVSPropertyOp61
 70
     1
102
RTVSPropertyOp62
 70
     1
  0
XRECORD
  5
A219
102
{ACAD_REACTORS
330
A218
102
}
330
A218
100
AcDbXrecord
280
     1
102
RTVSPost2010Prop28
280
     0
102
RTVSPost2010PropOp28
 70
     1
102
RTVSPost2010Prop29
280
     1
102
RTVSPost2010PropOp29
 70
     1
102
RTVSPost2010Prop30
280
     1
102
RTVSPost2010PropOp30
 70
     1
102
RTVSPost2010Prop31
280
     0
102
RTVSPost2010PropOp31
 70
     1
102
RTVSPost2010Prop32
280
     0
102
RTVSPost2010PropOp32
 70
     1
102
RTVSPost2010Prop33
280
     0
102
RTVSPost2010PropOp33
 70
     1
102
RTVSPost2010Prop34
280
     0
102
RTVSPost2010PropOp34
 70
     1
102
RTVSPost2010Prop35
280
     0
102
RTVSPost2010PropOp35
 70
     1
102
RTVSPost2010Prop36
280
     0
102
RTVSPost2010PropOp36
 70
     1
102
RTVSPost2010Prop37
 90
       50
102
RTVSPost2010PropOp37
 70
     1
102
RTVSPost2010Prop38
140
0.0
102
RTVSPost2010PropOp38
 70
     1
102
RTVSPost2010Prop39
140
1.0
102
RTVSPost2010PropOp39
 70
     1
102
RTVSPost2010Prop40
 90
        0
102
RTVSPost2010PropOp40
 70
     1
102
RTVSPost2010Prop41ColorIndex
 90
       18
102
RTVSPost2010Prop41ColorRGB
 90
        0
102
RTVSPost2010PropOp41
 70
     1
102
RTVSPost2010Prop42
 90
       50
102
RTVSPost2010PropOp42
 70
     1
102
RTVSPost2010Prop43
 90
        3
102
RTVSPost2010PropOp43
 70
     1
102
RTVSPost2010Prop44ColorIndex
 90
        5
102
RTVSPost2010Prop44ColorRGB
 90
      255
102
RTVSPost2010PropOp44
 70
     1
102
RTVSPost2010Prop45
280
     0
102
RTVSPost2010PropOp45
 70
     1
102
RTVSPost2010Prop46
 90
       50
102
RTVSPost2010PropOp46
 70
     1
102
RTVSPost2010Prop47
 90
       50
102
RTVSPost2010PropOp47
 70
     1
102
RTVSPost2010Prop48
 90
       50
102
RTVSPost2010PropOp48
 70
     1
102
RTVSPost2010Prop49
280
     0
102
RTVSPost2010PropOp49
 70
     1
102
RTVSPost2010Prop50
 90
       50
102
RTVSPost2010PropOp50
 70
     1
102
RTVSPost2010Prop51ColorIndex
 90
      256
102
RTVSPost2010Prop51ColorRGB
 90
-16777216
102
RTVSPost2010PropOp51
 70
     0
102
RTVSPost2010Prop52
140
1.0
102
RTVSPost2010PropOp52
 70
     0
102
RTVSPost2010Prop53
 90
        2
102
RTVSPost2010PropOp53
 70
     1
102
RTVSPost2010Prop54
  1
strokes_ogs.tif
102
RTVSPost2010PropOp54
 70
     1
102
RTVSPost2010Prop55
280
     0
102
RTVSPost2010PropOp55
 70
     1
102
RTVSPost2010Prop56
140
1.0
102
RTVSPost2010PropOp56
 70
     1
102
RTVSPost2010Prop57
140
1.0
102
RTVSPost2010PropOp57
 70
     1
102
RTVSPropertyOp0
 70
     1
102
RTVSPropertyOp1
 70
     1
102
RTVSPropertyOp2
 70
     1
102
RTVSPropertyOp3
 70
     1
102
RTVSPropertyOp4
 70
     1
102
RTVSPropertyOp5
 70
     1
102
RTVSPropertyOp6
 70
     1
102
RTVSPropertyOp7
 70
     1
102
RTVSPropertyOp8
 70
     1
102
RTVSPropertyOp9
 70
     1
102
RTVSPropertyOp10
 70
     1
102
RTVSPropertyOp11
 70
     1
102
RTVSPropertyOp12
 70
     1
102
RTVSPropertyOp13
 70
     1
102
RTVSPropertyOp14
 70
     1
102
RTVSPropertyOp15
 70
     1
102
RTVSPropertyOp16
 70
     1
102
RTVSPropertyOp17
 70
     1
102
RTVSPropertyOp18
 70
     1
102
RTVSPropertyOp19
 70
     1
102
RTVSPropertyOp20
 70
     1
102
RTVSPropertyOp21
 70
     1
102
RTVSPropertyOp22
 70
     1
102
RTVSPropertyOp23
 70
     1
102
RTVSPropertyOp24
 70
     1
102
RTVSPropertyOp25
 70
     1
102
RTVSPropertyOp26
 70
     1
102
RTVSPropertyOp27
 70
     1
102
RTVSPropertyOp28
 70
     1
102
RTVSPropertyOp29
 70
     1
102
RTVSPropertyOp30
 70
     1
102
RTVSPropertyOp31
 70
     1
102
RTVSPropertyOp32
 70
     1
102
RTVSPropertyOp33
 70
     1
102
RTVSPropertyOp34
 70
     1
102
RTVSPropertyOp35
 70
     1
102
RTVSPropertyOp36
 70
     1
102
RTVSPropertyOp37
 70
     1
102
RTVSPropertyOp38
 70
     1
102
RTVSPropertyOp39
 70
     1
102
RTVSPropertyOp40
 70
     1
102
RTVSPropertyOp41
 70
     1
102
RTVSPropertyOp42
 70
     1
102
RTVSPropertyOp43
 70
     1
102
RTVSPropertyOp44
 70
     1
102
RTVSPropertyOp45
 70
     1
102
RTVSPropertyOp46
 70
     1
102
RTVSPropertyOp47
 70
     1
102
RTVSPropertyOp48
 70
     1
102
RTVSPropertyOp49
 70
     1
102
RTVSPropertyOp50
 70
     1
102
RTVSPropertyOp51
 70
     0
102
RTVSPropertyOp52
 70
     0
102
RTVSPropertyOp53
 70
     1
102
RTVSPropertyOp54
 70
     1
102
RTVSPropertyOp55
 70
     1
102
RTVSPropertyOp56
 70
     1
102
RTVSPropertyOp57
 70
     1
102
RTVSPropertyOp58
 70
     1
102
RTVSPropertyOp59
 70
     1
102
RTVSPropertyOp60
 70
     1
102
RTVSPropertyOp61
 70
     1
102
RTVSPropertyOp62
 70
     1
  0
XRECORD
  5
A235
102
{ACAD_REACTORS
330
A234
102
}
330
A234
100
AcDbXrecord
280
     1
102
RTVSPost2010Prop28
280
     0
102
RTVSPost2010PropOp28
 70
     1
102
RTVSPost2010Prop29
280
     1
102
RTVSPost2010PropOp29
 70
     1
102
RTVSPost2010Prop30
280
     1
102
RTVSPost2010PropOp30
 70
     1
102
RTVSPost2010Prop31
280
     0
102
RTVSPost2010PropOp31
 70
     1
102
RTVSPost2010Prop32
280
     0
102
RTVSPost2010PropOp32
 70
     1
102
RTVSPost2010Prop33
280
     0
102
RTVSPost2010PropOp33
 70
     1
102
RTVSPost2010Prop34
280
     0
102
RTVSPost2010PropOp34
 70
     1
102
RTVSPost2010Prop35
280
     0
102
RTVSPost2010PropOp35
 70
     1
102
RTVSPost2010Prop36
280
     0
102
RTVSPost2010PropOp36
 70
     1
102
RTVSPost2010Prop37
 90
       50
102
RTVSPost2010PropOp37
 70
     0
102
RTVSPost2010Prop38
140
0.0
102
RTVSPost2010PropOp38
 70
     0
102
RTVSPost2010Prop39
140
1.0
102
RTVSPost2010PropOp39
 70
     0
102
RTVSPost2010Prop40
 90
        0
102
RTVSPost2010PropOp40
 70
     0
102
RTVSPost2010Prop41ColorIndex
 90
       18
102
RTVSPost2010Prop41ColorRGB
 90
        0
102
RTVSPost2010PropOp41
 70
     0
102
RTVSPost2010Prop42
 90
       50
102
RTVSPost2010PropOp42
 70
     0
102
RTVSPost2010Prop43
 90
        3
102
RTVSPost2010PropOp43
 70
     0
102
RTVSPost2010Prop44ColorIndex
 90
        5
102
RTVSPost2010Prop44ColorRGB
 90
      255
102
RTVSPost2010PropOp44
 70
     0
102
RTVSPost2010Prop45
280
     0
102
RTVSPost2010PropOp45
 70
     1
102
RTVSPost2010Prop46
 90
       50
102
RTVSPost2010PropOp46
 70
     0
102
RTVSPost2010Prop47
 90
       50
102
RTVSPost2010PropOp47
 70
     0
102
RTVSPost2010Prop48
 90
       50
102
RTVSPost2010PropOp48
 70
     0
102
RTVSPost2010Prop49
280
     0
102
RTVSPost2010PropOp49
 70
     1
102
RTVSPost2010Prop50
 90
       50
102
RTVSPost2010PropOp50
 70
     0
102
RTVSPost2010Prop51ColorIndex
 90
      256
102
RTVSPost2010Prop51ColorRGB
 90
-16777216
102
RTVSPost2010PropOp51
 70
     0
102
RTVSPost2010Prop52
140
1.0
102
RTVSPost2010PropOp52
 70
     0
102
RTVSPost2010Prop53
 90
        2
102
RTVSPost2010PropOp53
 70
     0
102
RTVSPost2010Prop54
  1
strokes_ogs.tif
102
RTVSPost2010PropOp54
 70
     0
102
RTVSPost2010Prop55
280
     0
102
RTVSPost2010PropOp55
 70
     1
102
RTVSPost2010Prop56
140
1.0
102
RTVSPost2010PropOp56
 70
     0
102
RTVSPost2010Prop57
140
1.0
102
RTVSPost2010PropOp57
 70
     0
102
RTVSPropertyOp0
 70
     0
102
RTVSPropertyOp1
 70
     0
102
RTVSPropertyOp2
 70
     0
102
RTVSPropertyOp3
 70
     0
102
RTVSPropertyOp4
 70
     0
102
RTVSPropertyOp5
 70
     0
102
RTVSPropertyOp6
 70
     0
102
RTVSPropertyOp7
 70
     0
102
RTVSPropertyOp8
 70
     0
102
RTVSPropertyOp9
 70
     0
102
RTVSPropertyOp10
 70
     0
102
RTVSPropertyOp11
 70
     0
102
RTVSPropertyOp12
 70
     0
102
RTVSPropertyOp13
 70
     0
102
RTVSPropertyOp14
 70
     2
102
RTVSPropertyOp15
 70
     0
102
RTVSPropertyOp16
 70
     0
102
RTVSPropertyOp17
 70
     0
102
RTVSPropertyOp18
 70
     0
102
RTVSPropertyOp19
 70
     0
102
RTVSPropertyOp20
 70
     0
102
RTVSPropertyOp21
 70
     0
102
RTVSPropertyOp22
 70
     0
102
RTVSPropertyOp23
 70
     0
102
RTVSPropertyOp24
 70
     0
102
RTVSPropertyOp25
 70
     0
102
RTVSPropertyOp26
 70
     0
102
RTVSPropertyOp27
 70
     0
102
RTVSPropertyOp28
 70
     1
102
RTVSPropertyOp29
 70
     1
102
RTVSPropertyOp30
 70
     1
102
RTVSPropertyOp31
 70
     1
102
RTVSPropertyOp32
 70
     1
102
RTVSPropertyOp33
 70
     1
102
RTVSPropertyOp34
 70
     1
102
RTVSPropertyOp35
 70
     1
102
RTVSPropertyOp36
 70
     1
102
RTVSPropertyOp37
 70
     0
102
RTVSPropertyOp38
 70
     0
102
RTVSPropertyOp39
 70
     0
102
RTVSPropertyOp40
 70
     0
102
RTVSPropertyOp41
 70
     0
102
RTVSPropertyOp42
 70
     0
102
RTVSPropertyOp43
 70
     0
102
RTVSPropertyOp44
 70
     0
102
RTVSPropertyOp45
 70
     1
102
RTVSPropertyOp46
 70
     0
102
RTVSPropertyOp47
 70
     0
102
RTVSPropertyOp48
 70
     0
102
RTVSPropertyOp49
 70
     1
102
RTVSPropertyOp50
 70
     0
102
RTVSPropertyOp51
 70
     0
102
RTVSPropertyOp52
 70
     0
102
RTVSPropertyOp53
 70
     0
102
RTVSPropertyOp54
 70
     0
102
RTVSPropertyOp55
 70
     1
102
RTVSPropertyOp56
 70
     0
102
RTVSPropertyOp57
 70
     0
102
RTVSPropertyOp58
 70
     0
102
RTVSPropertyOp59
 70
     0
102
RTVSPropertyOp60
 70
     0
102
RTVSPropertyOp61
 70
     0
102
RTVSPropertyOp62
 70
     0
  0
XRECORD
  5
A225
102
{ACAD_REACTORS
330
A224
102
}
330
A224
100
AcDbXrecord
280
     1
102
RTVSPost2010Prop28
280
     0
102
RTVSPost2010PropOp28
 70
     1
102
RTVSPost2010Prop29
280
     1
102
RTVSPost2010PropOp29
 70
     1
102
RTVSPost2010Prop30
280
     1
102
RTVSPost2010PropOp30
 70
     1
102
RTVSPost2010Prop31
280
     0
102
RTVSPost2010PropOp31
 70
     1
102
RTVSPost2010Prop32
280
     0
102
RTVSPost2010PropOp32
 70
     1
102
RTVSPost2010Prop33
280
     0
102
RTVSPost2010PropOp33
 70
     1
102
RTVSPost2010Prop34
280
     0
102
RTVSPost2010PropOp34
 70
     1
102
RTVSPost2010Prop35
280
     0
102
RTVSPost2010PropOp35
 70
     1
102
RTVSPost2010Prop36
280
     0
102
RTVSPost2010PropOp36
 70
     1
102
RTVSPost2010Prop37
 90
       50
102
RTVSPost2010PropOp37
 70
     1
102
RTVSPost2010Prop38
140
0.0
102
RTVSPost2010PropOp38
 70
     1
102
RTVSPost2010Prop39
140
1.0
102
RTVSPost2010PropOp39
 70
     1
102
RTVSPost2010Prop40
 90
        0
102
RTVSPost2010PropOp40
 70
     1
102
RTVSPost2010Prop41ColorIndex
 90
       18
102
RTVSPost2010Prop41ColorRGB
 90
        0
102
RTVSPost2010PropOp41
 70
     1
102
RTVSPost2010Prop42
 90
       50
102
RTVSPost2010PropOp42
 70
     1
102
RTVSPost2010Prop43
 90
        3
102
RTVSPost2010PropOp43
 70
     1
102
RTVSPost2010Prop44ColorIndex
 90
        5
102
RTVSPost2010Prop44ColorRGB
 90
      255
102
RTVSPost2010PropOp44
 70
     1
102
RTVSPost2010Prop45
280
     0
102
RTVSPost2010PropOp45
 70
     1
102
RTVSPost2010Prop46
 90
       50
102
RTVSPost2010PropOp46
 70
     1
102
RTVSPost2010Prop47
 90
       50
102
RTVSPost2010PropOp47
 70
     1
102
RTVSPost2010Prop48
 90
       50
102
RTVSPost2010PropOp48
 70
     1
102
RTVSPost2010Prop49
280
     0
102
RTVSPost2010PropOp49
 70
     1
102
RTVSPost2010Prop50
 90
       50
102
RTVSPost2010PropOp50
 70
     1
102
RTVSPost2010Prop51ColorIndex
 90
      256
102
RTVSPost2010Prop51ColorRGB
 90
-16777216
102
RTVSPost2010PropOp51
 70
     0
102
RTVSPost2010Prop52
140
1.0
102
RTVSPost2010PropOp52
 70
     0
102
RTVSPost2010Prop53
 90
        2
102
RTVSPost2010PropOp53
 70
     1
102
RTVSPost2010Prop54
  1
strokes_ogs.tif
102
RTVSPost2010PropOp54
 70
     1
102
RTVSPost2010Prop55
280
     0
102
RTVSPost2010PropOp55
 70
     1
102
RTVSPost2010Prop56
140
1.0
102
RTVSPost2010PropOp56
 70
     1
102
RTVSPost2010Prop57
140
1.0
102
RTVSPost2010PropOp57
 70
     1
102
RTVSPropertyOp0
 70
     1
102
RTVSPropertyOp1
 70
     1
102
RTVSPropertyOp2
 70
     1
102
RTVSPropertyOp3
 70
     1
102
RTVSPropertyOp4
 70
     1
102
RTVSPropertyOp5
 70
     1
102
RTVSPropertyOp6
 70
     1
102
RTVSPropertyOp7
 70
     1
102
RTVSPropertyOp8
 70
     1
102
RTVSPropertyOp9
 70
     1
102
RTVSPropertyOp10
 70
     1
102
RTVSPropertyOp11
 70
     1
102
RTVSPropertyOp12
 70
     1
102
RTVSPropertyOp13
 70
     1
102
RTVSPropertyOp14
 70
     1
102
RTVSPropertyOp15
 70
     1
102
RTVSPropertyOp16
 70
     1
102
RTVSPropertyOp17
 70
     1
102
RTVSPropertyOp18
 70
     1
102
RTVSPropertyOp19
 70
     1
102
RTVSPropertyOp20
 70
     1
102
RTVSPropertyOp21
 70
     1
102
RTVSPropertyOp22
 70
     1
102
RTVSPropertyOp23
 70
     1
102
RTVSPropertyOp24
 70
     1
102
RTVSPropertyOp25
 70
     1
102
RTVSPropertyOp26
 70
     1
102
RTVSPropertyOp27
 70
     1
102
RTVSPropertyOp28
 70
     1
102
RTVSPropertyOp29
 70
     1
102
RTVSPropertyOp30
 70
     1
102
RTVSPropertyOp31
 70
     1
102
RTVSPropertyOp32
 70
     1
102
RTVSPropertyOp33
 70
     1
102
RTVSPropertyOp34
 70
     1
102
RTVSPropertyOp35
 70
     1
102
RTVSPropertyOp36
 70
     1
102
RTVSPropertyOp37
 70
     1
102
RTVSPropertyOp38
 70
     1
102
RTVSPropertyOp39
 70
     1
102
RTVSPropertyOp40
 70
     1
102
RTVSPropertyOp41
 70
     1
102
RTVSPropertyOp42
 70
     1
102
RTVSPropertyOp43
 70
     1
102
RTVSPropertyOp44
 70
     1
102
RTVSPropertyOp45
 70
     1
102
RTVSPropertyOp46
 70
     1
102
RTVSPropertyOp47
 70
     1
102
RTVSPropertyOp48
 70
     1
102
RTVSPropertyOp49
 70
     1
102
RTVSPropertyOp50
 70
     1
102
RTVSPropertyOp51
 70
     0
102
RTVSPropertyOp52
 70
     0
102
RTVSPropertyOp53
 70
     1
102
RTVSPropertyOp54
 70
     1
102
RTVSPropertyOp55
 70
     1
102
RTVSPropertyOp56
 70
     1
102
RTVSPropertyOp57
 70
     1
102
RTVSPropertyOp58
 70
     1
102
RTVSPropertyOp59
 70
     1
102
RTVSPropertyOp60
 70
     1
102
RTVSPropertyOp61
 70
     1
102
RTVSPropertyOp62
 70
     1
  0
XRECORD
  5
A237
102
{ACAD_REACTORS
330
A236
102
}
330
A236
100
AcDbXrecord
280
     1
102
RTVSPost2010Prop28
280
     0
102
RTVSPost2010PropOp28
 70
     1
102
RTVSPost2010Prop29
280
     1
102
RTVSPost2010PropOp29
 70
     1
102
RTVSPost2010Prop30
280
     1
102
RTVSPost2010PropOp30
 70
     1
102
RTVSPost2010Prop31
280
     0
102
RTVSPost2010PropOp31
 70
     1
102
RTVSPost2010Prop32
280
     0
102
RTVSPost2010PropOp32
 70
     1
102
RTVSPost2010Prop33
280
     0
102
RTVSPost2010PropOp33
 70
     1
102
RTVSPost2010Prop34
280
     0
102
RTVSPost2010PropOp34
 70
     1
102
RTVSPost2010Prop35
280
     0
102
RTVSPost2010PropOp35
 70
     1
102
RTVSPost2010Prop36
280
     0
102
RTVSPost2010PropOp36
 70
     1
102
RTVSPost2010Prop37
 90
       50
102
RTVSPost2010PropOp37
 70
     0
102
RTVSPost2010Prop38
140
0.0
102
RTVSPost2010PropOp38
 70
     0
102
RTVSPost2010Prop39
140
1.0
102
RTVSPost2010PropOp39
 70
     0
102
RTVSPost2010Prop40
 90
        0
102
RTVSPost2010PropOp40
 70
     0
102
RTVSPost2010Prop41ColorIndex
 90
       18
102
RTVSPost2010Prop41ColorRGB
 90
        0
102
RTVSPost2010PropOp41
 70
     0
102
RTVSPost2010Prop42
 90
       50
102
RTVSPost2010PropOp42
 70
     0
102
RTVSPost2010Prop43
 90
        3
102
RTVSPost2010PropOp43
 70
     0
102
RTVSPost2010Prop44ColorIndex
 90
        5
102
RTVSPost2010Prop44ColorRGB
 90
      255
102
RTVSPost2010PropOp44
 70
     0
102
RTVSPost2010Prop45
280
     0
102
RTVSPost2010PropOp45
 70
     1
102
RTVSPost2010Prop46
 90
       50
102
RTVSPost2010PropOp46
 70
     0
102
RTVSPost2010Prop47
 90
       50
102
RTVSPost2010PropOp47
 70
     0
102
RTVSPost2010Prop48
 90
       50
102
RTVSPost2010PropOp48
 70
     0
102
RTVSPost2010Prop49
280
     0
102
RTVSPost2010PropOp49
 70
     1
102
RTVSPost2010Prop50
 90
       50
102
RTVSPost2010PropOp50
 70
     0
102
RTVSPost2010Prop51ColorIndex
 90
      256
102
RTVSPost2010Prop51ColorRGB
 90
-16777216
102
RTVSPost2010PropOp51
 70
     0
102
RTVSPost2010Prop52
140
1.0
102
RTVSPost2010PropOp52
 70
     0
102
RTVSPost2010Prop53
 90
        2
102
RTVSPost2010PropOp53
 70
     0
102
RTVSPost2010Prop54
  1
strokes_ogs.tif
102
RTVSPost2010PropOp54
 70
     0
102
RTVSPost2010Prop55
280
     0
102
RTVSPost2010PropOp55
 70
     1
102
RTVSPost2010Prop56
140
1.0
102
RTVSPost2010PropOp56
 70
     0
102
RTVSPost2010Prop57
140
1.0
102
RTVSPost2010PropOp57
 70
     0
102
RTVSPropertyOp0
 70
     0
102
RTVSPropertyOp1
 70
     0
102
RTVSPropertyOp2
 70
     0
102
RTVSPropertyOp3
 70
     0
102
RTVSPropertyOp4
 70
     0
102
RTVSPropertyOp5
 70
     0
102
RTVSPropertyOp6
 70
     0
102
RTVSPropertyOp7
 70
     0
102
RTVSPropertyOp8
 70
     0
102
RTVSPropertyOp9
 70
     0
102
RTVSPropertyOp10
 70
     0
102
RTVSPropertyOp11
 70
     0
102
RTVSPropertyOp12
 70
     0
102
RTVSPropertyOp13
 70
     0
102
RTVSPropertyOp14
 70
     2
102
RTVSPropertyOp15
 70
     0
102
RTVSPropertyOp16
 70
     0
102
RTVSPropertyOp17
 70
     0
102
RTVSPropertyOp18
 70
     0
102
RTVSPropertyOp19
 70
     0
102
RTVSPropertyOp20
 70
     0
102
RTVSPropertyOp21
 70
     0
102
RTVSPropertyOp22
 70
     0
102
RTVSPropertyOp23
 70
     0
102
RTVSPropertyOp24
 70
     0
102
RTVSPropertyOp25
 70
     0
102
RTVSPropertyOp26
 70
     0
102
RTVSPropertyOp27
 70
     0
102
RTVSPropertyOp28
 70
     1
102
RTVSPropertyOp29
 70
     1
102
RTVSPropertyOp30
 70
     1
102
RTVSPropertyOp31
 70
     1
102
RTVSPropertyOp32
 70
     1
102
RTVSPropertyOp33
 70
     1
102
RTVSPropertyOp34
 70
     1
102
RTVSPropertyOp35
 70
     1
102
RTVSPropertyOp36
 70
     1
102
RTVSPropertyOp37
 70
     0
102
RTVSPropertyOp38
 70
     0
102
RTVSPropertyOp39
 70
     0
102
RTVSPropertyOp40
 70
     0
102
RTVSPropertyOp41
 70
     0
102
RTVSPropertyOp42
 70
     0
102
RTVSPropertyOp43
 70
     0
102
RTVSPropertyOp44
 70
     0
102
RTVSPropertyOp45
 70
     1
102
RTVSPropertyOp46
 70
     0
102
RTVSPropertyOp47
 70
     0
102
RTVSPropertyOp48
 70
     0
102
RTVSPropertyOp49
 70
     1
102
RTVSPropertyOp50
 70
     0
102
RTVSPropertyOp51
 70
     0
102
RTVSPropertyOp52
 70
     0
102
RTVSPropertyOp53
 70
     0
102
RTVSPropertyOp54
 70
     0
102
RTVSPropertyOp55
 70
     1
102
RTVSPropertyOp56
 70
     0
102
RTVSPropertyOp57
 70
     0
102
RTVSPropertyOp58
 70
     0
102
RTVSPropertyOp59
 70
     0
102
RTVSPropertyOp60
 70
     0
102
RTVSPropertyOp61
 70
     0
102
RTVSPropertyOp62
 70
     0
  0
XRECORD
  5
A21D
102
{ACAD_REACTORS
330
A21C
102
}
330
A21C
100
AcDbXrecord
280
     1
102
RTVSPost2010Prop28
280
     0
102
RTVSPost2010PropOp28
 70
     1
102
RTVSPost2010Prop29
280
     1
102
RTVSPost2010PropOp29
 70
     1
102
RTVSPost2010Prop30
280
     1
102
RTVSPost2010PropOp30
 70
     1
102
RTVSPost2010Prop31
280
     0
102
RTVSPost2010PropOp31
 70
     1
102
RTVSPost2010Prop32
280
     0
102
RTVSPost2010PropOp32
 70
     1
102
RTVSPost2010Prop33
280
     0
102
RTVSPost2010PropOp33
 70
     1
102
RTVSPost2010Prop34
280
     0
102
RTVSPost2010PropOp34
 70
     1
102
RTVSPost2010Prop35
280
     0
102
RTVSPost2010PropOp35
 70
     1
102
RTVSPost2010Prop36
280
     0
102
RTVSPost2010PropOp36
 70
     1
102
RTVSPost2010Prop37
 90
       50
102
RTVSPost2010PropOp37
 70
     1
102
RTVSPost2010Prop38
140
0.0
102
RTVSPost2010PropOp38
 70
     1
102
RTVSPost2010Prop39
140
1.0
102
RTVSPost2010PropOp39
 70
     1
102
RTVSPost2010Prop40
 90
        0
102
RTVSPost2010PropOp40
 70
     1
102
RTVSPost2010Prop41ColorIndex
 90
       18
102
RTVSPost2010Prop41ColorRGB
 90
        0
102
RTVSPost2010PropOp41
 70
     1
102
RTVSPost2010Prop42
 90
       50
102
RTVSPost2010PropOp42
 70
     1
102
RTVSPost2010Prop43
 90
        3
102
RTVSPost2010PropOp43
 70
     1
102
RTVSPost2010Prop44ColorIndex
 90
        5
102
RTVSPost2010Prop44ColorRGB
 90
      255
102
RTVSPost2010PropOp44
 70
     1
102
RTVSPost2010Prop45
280
     0
102
RTVSPost2010PropOp45
 70
     1
102
RTVSPost2010Prop46
 90
       50
102
RTVSPost2010PropOp46
 70
     1
102
RTVSPost2010Prop47
 90
       50
102
RTVSPost2010PropOp47
 70
     1
102
RTVSPost2010Prop48
 90
       50
102
RTVSPost2010PropOp48
 70
     1
102
RTVSPost2010Prop49
280
     0
102
RTVSPost2010PropOp49
 70
     1
102
RTVSPost2010Prop50
 90
       50
102
RTVSPost2010PropOp50
 70
     1
102
RTVSPost2010Prop51ColorIndex
 90
      256
102
RTVSPost2010Prop51ColorRGB
 90
-16777216
102
RTVSPost2010PropOp51
 70
     0
102
RTVSPost2010Prop52
140
1.0
102
RTVSPost2010PropOp52
 70
     0
102
RTVSPost2010Prop53
 90
        2
102
RTVSPost2010PropOp53
 70
     1
102
RTVSPost2010Prop54
  1
strokes_ogs.tif
102
RTVSPost2010PropOp54
 70
     1
102
RTVSPost2010Prop55
280
     0
102
RTVSPost2010PropOp55
 70
     1
102
RTVSPost2010Prop56
140
1.0
102
RTVSPost2010PropOp56
 70
     1
102
RTVSPost2010Prop57
140
1.0
102
RTVSPost2010PropOp57
 70
     1
102
RTVSPropertyOp0
 70
     1
102
RTVSPropertyOp1
 70
     1
102
RTVSPropertyOp2
 70
     1
102
RTVSPropertyOp3
 70
     1
102
RTVSPropertyOp4
 70
     1
102
RTVSPropertyOp5
 70
     1
102
RTVSPropertyOp6
 70
     1
102
RTVSPropertyOp7
 70
     1
102
RTVSPropertyOp8
 70
     1
102
RTVSPropertyOp9
 70
     1
102
RTVSPropertyOp10
 70
     1
102
RTVSPropertyOp11
 70
     1
102
RTVSPropertyOp12
 70
     1
102
RTVSPropertyOp13
 70
     1
102
RTVSPropertyOp14
 70
     1
102
RTVSPropertyOp15
 70
     1
102
RTVSPropertyOp16
 70
     1
102
RTVSPropertyOp17
 70
     1
102
RTVSPropertyOp18
 70
     1
102
RTVSPropertyOp19
 70
     1
102
RTVSPropertyOp20
 70
     1
102
RTVSPropertyOp21
 70
     1
102
RTVSPropertyOp22
 70
     1
102
RTVSPropertyOp23
 70
     1
102
RTVSPropertyOp24
 70
     1
102
RTVSPropertyOp25
 70
     1
102
RTVSPropertyOp26
 70
     1
102
RTVSPropertyOp27
 70
     1
102
RTVSPropertyOp28
 70
     1
102
RTVSPropertyOp29
 70
     1
102
RTVSPropertyOp30
 70
     1
102
RTVSPropertyOp31
 70
     1
102
RTVSPropertyOp32
 70
     1
102
RTVSPropertyOp33
 70
     1
102
RTVSPropertyOp34
 70
     1
102
RTVSPropertyOp35
 70
     1
102
RTVSPropertyOp36
 70
     1
102
RTVSPropertyOp37
 70
     1
102
RTVSPropertyOp38
 70
     1
102
RTVSPropertyOp39
 70
     1
102
RTVSPropertyOp40
 70
     1
102
RTVSPropertyOp41
 70
     1
102
RTVSPropertyOp42
 70
     1
102
RTVSPropertyOp43
 70
     1
102
RTVSPropertyOp44
 70
     1
102
RTVSPropertyOp45
 70
     1
102
RTVSPropertyOp46
 70
     1
102
RTVSPropertyOp47
 70
     1
102
RTVSPropertyOp48
 70
     1
102
RTVSPropertyOp49
 70
     1
102
RTVSPropertyOp50
 70
     1
102
RTVSPropertyOp51
 70
     0
102
RTVSPropertyOp52
 70
     0
102
RTVSPropertyOp53
 70
     1
102
RTVSPropertyOp54
 70
     1
102
RTVSPropertyOp55
 70
     1
102
RTVSPropertyOp56
 70
     1
102
RTVSPropertyOp57
 70
     1
102
RTVSPropertyOp58
 70
     1
102
RTVSPropertyOp59
 70
     1
102
RTVSPropertyOp60
 70
     1
102
RTVSPropertyOp61
 70
     1
102
RTVSPropertyOp62
 70
     1
  0
XRECORD
  5
A233
102
{ACAD_REACTORS
330
A232
102
}
330
A232
100
AcDbXrecord
280
     1
102
RTVSPost2010Prop28
280
     0
102
RTVSPost2010PropOp28
 70
     1
102
RTVSPost2010Prop29
280
     1
102
RTVSPost2010PropOp29
 70
     1
102
RTVSPost2010Prop30
280
     1
102
RTVSPost2010PropOp30
 70
     1
102
RTVSPost2010Prop31
280
     0
102
RTVSPost2010PropOp31
 70
     1
102
RTVSPost2010Prop32
280
     0
102
RTVSPost2010PropOp32
 70
     1
102
RTVSPost2010Prop33
280
     0
102
RTVSPost2010PropOp33
 70
     1
102
RTVSPost2010Prop34
280
     0
102
RTVSPost2010PropOp34
 70
     1
102
RTVSPost2010Prop35
280
     0
102
RTVSPost2010PropOp35
 70
     1
102
RTVSPost2010Prop36
280
     0
102
RTVSPost2010PropOp36
 70
     1
102
RTVSPost2010Prop37
 90
       50
102
RTVSPost2010PropOp37
 70
     1
102
RTVSPost2010Prop38
140
0.0
102
RTVSPost2010PropOp38
 70
     1
102
RTVSPost2010Prop39
140
1.0
102
RTVSPost2010PropOp39
 70
     1
102
RTVSPost2010Prop40
 90
        0
102
RTVSPost2010PropOp40
 70
     1
102
RTVSPost2010Prop41ColorIndex
 90
       18
102
RTVSPost2010Prop41ColorRGB
 90
        0
102
RTVSPost2010PropOp41
 70
     1
102
RTVSPost2010Prop42
 90
       50
102
RTVSPost2010PropOp42
 70
     1
102
RTVSPost2010Prop43
 90
        3
102
RTVSPost2010PropOp43
 70
     1
102
RTVSPost2010Prop44ColorIndex
 90
        5
102
RTVSPost2010Prop44ColorRGB
 90
      255
102
RTVSPost2010PropOp44
 70
     1
102
RTVSPost2010Prop45
280
     0
102
RTVSPost2010PropOp45
 70
     1
102
RTVSPost2010Prop46
 90
       50
102
RTVSPost2010PropOp46
 70
     1
102
RTVSPost2010Prop47
 90
       50
102
RTVSPost2010PropOp47
 70
     1
102
RTVSPost2010Prop48
 90
       50
102
RTVSPost2010PropOp48
 70
     1
102
RTVSPost2010Prop49
280
     0
102
RTVSPost2010PropOp49
 70
     1
102
RTVSPost2010Prop50
 90
       50
102
RTVSPost2010PropOp50
 70
     1
102
RTVSPost2010Prop51ColorIndex
 90
      256
102
RTVSPost2010Prop51ColorRGB
 90
-16777216
102
RTVSPost2010PropOp51
 70
     0
102
RTVSPost2010Prop52
140
1.0
102
RTVSPost2010PropOp52
 70
     0
102
RTVSPost2010Prop53
 90
        2
102
RTVSPost2010PropOp53
 70
     1
102
RTVSPost2010Prop54
  1
strokes_ogs.tif
102
RTVSPost2010PropOp54
 70
     1
102
RTVSPost2010Prop55
280
     0
102
RTVSPost2010PropOp55
 70
     1
102
RTVSPost2010Prop56
140
1.0
102
RTVSPost2010PropOp56
 70
     1
102
RTVSPost2010Prop57
140
1.0
102
RTVSPost2010PropOp57
 70
     1
102
RTVSPropertyOp0
 70
     1
102
RTVSPropertyOp1
 70
     1
102
RTVSPropertyOp2
 70
     1
102
RTVSPropertyOp3
 70
     1
102
RTVSPropertyOp4
 70
     1
102
RTVSPropertyOp5
 70
     1
102
RTVSPropertyOp6
 70
     1
102
RTVSPropertyOp7
 70
     1
102
RTVSPropertyOp8
 70
     1
102
RTVSPropertyOp9
 70
     1
102
RTVSPropertyOp10
 70
     1
102
RTVSPropertyOp11
 70
     1
102
RTVSPropertyOp12
 70
     1
102
RTVSPropertyOp13
 70
     1
102
RTVSPropertyOp14
 70
     1
102
RTVSPropertyOp15
 70
     1
102
RTVSPropertyOp16
 70
     1
102
RTVSPropertyOp17
 70
     1
102
RTVSPropertyOp18
 70
     1
102
RTVSPropertyOp19
 70
     1
102
RTVSPropertyOp20
 70
     1
102
RTVSPropertyOp21
 70
     1
102
RTVSPropertyOp22
 70
     1
102
RTVSPropertyOp23
 70
     1
102
RTVSPropertyOp24
 70
     1
102
RTVSPropertyOp25
 70
     1
102
RTVSPropertyOp26
 70
     1
102
RTVSPropertyOp27
 70
     1
102
RTVSPropertyOp28
 70
     1
102
RTVSPropertyOp29
 70
     1
102
RTVSPropertyOp30
 70
     1
102
RTVSPropertyOp31
 70
     1
102
RTVSPropertyOp32
 70
     1
102
RTVSPropertyOp33
 70
     1
102
RTVSPropertyOp34
 70
     1
102
RTVSPropertyOp35
 70
     1
102
RTVSPropertyOp36
 70
     1
102
RTVSPropertyOp37
 70
     1
102
RTVSPropertyOp38
 70
     1
102
RTVSPropertyOp39
 70
     1
102
RTVSPropertyOp40
 70
     1
102
RTVSPropertyOp41
 70
     1
102
RTVSPropertyOp42
 70
     1
102
RTVSPropertyOp43
 70
     1
102
RTVSPropertyOp44
 70
     1
102
RTVSPropertyOp45
 70
     1
102
RTVSPropertyOp46
 70
     1
102
RTVSPropertyOp47
 70
     1
102
RTVSPropertyOp48
 70
     1
102
RTVSPropertyOp49
 70
     1
102
RTVSPropertyOp50
 70
     1
102
RTVSPropertyOp51
 70
     0
102
RTVSPropertyOp52
 70
     0
102
RTVSPropertyOp53
 70
     1
102
RTVSPropertyOp54
 70
     1
102
RTVSPropertyOp55
 70
     1
102
RTVSPropertyOp56
 70
     1
102
RTVSPropertyOp57
 70
     1
102
RTVSPropertyOp58
 70
     1
102
RTVSPropertyOp59
 70
     1
102
RTVSPropertyOp60
 70
     1
102
RTVSPropertyOp61
 70
     1
102
RTVSPropertyOp62
 70
     1
  0
XRECORD
  5
A231
102
{ACAD_REACTORS
330
A230
102
}
330
A230
100
AcDbXrecord
280
     1
102
RTVSPost2010Prop28
280
     0
102
RTVSPost2010PropOp28
 70
     1
102
RTVSPost2010Prop29
280
     1
102
RTVSPost2010PropOp29
 70
     1
102
RTVSPost2010Prop30
280
     1
102
RTVSPost2010PropOp30
 70
     1
102
RTVSPost2010Prop31
280
     0
102
RTVSPost2010PropOp31
 70
     1
102
RTVSPost2010Prop32
280
     0
102
RTVSPost2010PropOp32
 70
     1
102
RTVSPost2010Prop33
280
     0
102
RTVSPost2010PropOp33
 70
     1
102
RTVSPost2010Prop34
280
     0
102
RTVSPost2010PropOp34
 70
     1
102
RTVSPost2010Prop35
280
     0
102
RTVSPost2010PropOp35
 70
     1
102
RTVSPost2010Prop36
280
     0
102
RTVSPost2010PropOp36
 70
     1
102
RTVSPost2010Prop37
 90
       50
102
RTVSPost2010PropOp37
 70
     1
102
RTVSPost2010Prop38
140
0.0
102
RTVSPost2010PropOp38
 70
     1
102
RTVSPost2010Prop39
140
1.0
102
RTVSPost2010PropOp39
 70
     1
102
RTVSPost2010Prop40
 90
        0
102
RTVSPost2010PropOp40
 70
     1
102
RTVSPost2010Prop41ColorIndex
 90
       18
102
RTVSPost2010Prop41ColorRGB
 90
        0
102
RTVSPost2010PropOp41
 70
     1
102
RTVSPost2010Prop42
 90
       50
102
RTVSPost2010PropOp42
 70
     1
102
RTVSPost2010Prop43
 90
        3
102
RTVSPost2010PropOp43
 70
     1
102
RTVSPost2010Prop44ColorIndex
 90
        5
102
RTVSPost2010Prop44ColorRGB
 90
      255
102
RTVSPost2010PropOp44
 70
     1
102
RTVSPost2010Prop45
280
     0
102
RTVSPost2010PropOp45
 70
     1
102
RTVSPost2010Prop46
 90
       50
102
RTVSPost2010PropOp46
 70
     1
102
RTVSPost2010Prop47
 90
       50
102
RTVSPost2010PropOp47
 70
     1
102
RTVSPost2010Prop48
 90
       50
102
RTVSPost2010PropOp48
 70
     1
102
RTVSPost2010Prop49
280
     0
102
RTVSPost2010PropOp49
 70
     1
102
RTVSPost2010Prop50
 90
       50
102
RTVSPost2010PropOp50
 70
     1
102
RTVSPost2010Prop51ColorIndex
 90
      256
102
RTVSPost2010Prop51ColorRGB
 90
-16777216
102
RTVSPost2010PropOp51
 70
     0
102
RTVSPost2010Prop52
140
1.0
102
RTVSPost2010PropOp52
 70
     0
102
RTVSPost2010Prop53
 90
        2
102
RTVSPost2010PropOp53
 70
     1
102
RTVSPost2010Prop54
  1
strokes_ogs.tif
102
RTVSPost2010PropOp54
 70
     1
102
RTVSPost2010Prop55
280
     0
102
RTVSPost2010PropOp55
 70
     1
102
RTVSPost2010Prop56
140
1.0
102
RTVSPost2010PropOp56
 70
     1
102
RTVSPost2010Prop57
140
1.0
102
RTVSPost2010PropOp57
 70
     1
102
RTVSPropertyOp0
 70
     1
102
RTVSPropertyOp1
 70
     1
102
RTVSPropertyOp2
 70
     1
102
RTVSPropertyOp3
 70
     1
102
RTVSPropertyOp4
 70
     1
102
RTVSPropertyOp5
 70
     1
102
RTVSPropertyOp6
 70
     1
102
RTVSPropertyOp7
 70
     1
102
RTVSPropertyOp8
 70
     1
102
RTVSPropertyOp9
 70
     1
102
RTVSPropertyOp10
 70
     1
102
RTVSPropertyOp11
 70
     1
102
RTVSPropertyOp12
 70
     1
102
RTVSPropertyOp13
 70
     1
102
RTVSPropertyOp14
 70
     1
102
RTVSPropertyOp15
 70
     1
102
RTVSPropertyOp16
 70
     1
102
RTVSPropertyOp17
 70
     1
102
RTVSPropertyOp18
 70
     1
102
RTVSPropertyOp19
 70
     1
102
RTVSPropertyOp20
 70
     1
102
RTVSPropertyOp21
 70
     1
102
RTVSPropertyOp22
 70
     1
102
RTVSPropertyOp23
 70
     1
102
RTVSPropertyOp24
 70
     1
102
RTVSPropertyOp25
 70
     1
102
RTVSPropertyOp26
 70
     1
102
RTVSPropertyOp27
 70
     1
102
RTVSPropertyOp28
 70
     1
102
RTVSPropertyOp29
 70
     1
102
RTVSPropertyOp30
 70
     1
102
RTVSPropertyOp31
 70
     1
102
RTVSPropertyOp32
 70
     1
102
RTVSPropertyOp33
 70
     1
102
RTVSPropertyOp34
 70
     1
102
RTVSPropertyOp35
 70
     1
102
RTVSPropertyOp36
 70
     1
102
RTVSPropertyOp37
 70
     1
102
RTVSPropertyOp38
 70
     1
102
RTVSPropertyOp39
 70
     1
102
RTVSPropertyOp40
 70
     1
102
RTVSPropertyOp41
 70
     1
102
RTVSPropertyOp42
 70
     1
102
RTVSPropertyOp43
 70
     1
102
RTVSPropertyOp44
 70
     1
102
RTVSPropertyOp45
 70
     1
102
RTVSPropertyOp46
 70
     1
102
RTVSPropertyOp47
 70
     1
102
RTVSPropertyOp48
 70
     1
102
RTVSPropertyOp49
 70
     1
102
RTVSPropertyOp50
 70
     1
102
RTVSPropertyOp51
 70
     0
102
RTVSPropertyOp52
 70
     0
102
RTVSPropertyOp53
 70
     1
102
RTVSPropertyOp54
 70
     1
102
RTVSPropertyOp55
 70
     1
102
RTVSPropertyOp56
 70
     1
102
RTVSPropertyOp57
 70
     1
102
RTVSPropertyOp58
 70
     1
102
RTVSPropertyOp59
 70
     1
102
RTVSPropertyOp60
 70
     1
102
RTVSPropertyOp61
 70
     1
102
RTVSPropertyOp62
 70
     1
  0
XRECORD
  5
A22B
102
{ACAD_REACTORS
330
A22A
102
}
330
A22A
100
AcDbXrecord
280
     1
102
RTVSPost2010Prop28
280
     0
102
RTVSPost2010PropOp28
 70
     1
102
RTVSPost2010Prop29
280
     1
102
RTVSPost2010PropOp29
 70
     1
102
RTVSPost2010Prop30
280
     1
102
RTVSPost2010PropOp30
 70
     1
102
RTVSPost2010Prop31
280
     0
102
RTVSPost2010PropOp31
 70
     1
102
RTVSPost2010Prop32
280
     0
102
RTVSPost2010PropOp32
 70
     1
102
RTVSPost2010Prop33
280
     0
102
RTVSPost2010PropOp33
 70
     1
102
RTVSPost2010Prop34
280
     0
102
RTVSPost2010PropOp34
 70
     1
102
RTVSPost2010Prop35
280
     0
102
RTVSPost2010PropOp35
 70
     1
102
RTVSPost2010Prop36
280
     0
102
RTVSPost2010PropOp36
 70
     1
102
RTVSPost2010Prop37
 90
       50
102
RTVSPost2010PropOp37
 70
     1
102
RTVSPost2010Prop38
140
0.0
102
RTVSPost2010PropOp38
 70
     1
102
RTVSPost2010Prop39
140
1.0
102
RTVSPost2010PropOp39
 70
     1
102
RTVSPost2010Prop40
 90
        0
102
RTVSPost2010PropOp40
 70
     1
102
RTVSPost2010Prop41ColorIndex
 90
       18
102
RTVSPost2010Prop41ColorRGB
 90
        0
102
RTVSPost2010PropOp41
 70
     1
102
RTVSPost2010Prop42
 90
       50
102
RTVSPost2010PropOp42
 70
     1
102
RTVSPost2010Prop43
 90
        3
102
RTVSPost2010PropOp43
 70
     1
102
RTVSPost2010Prop44ColorIndex
 90
        5
102
RTVSPost2010Prop44ColorRGB
 90
      255
102
RTVSPost2010PropOp44
 70
     1
102
RTVSPost2010Prop45
280
     0
102
RTVSPost2010PropOp45
 70
     1
102
RTVSPost2010Prop46
 90
       50
102
RTVSPost2010PropOp46
 70
     1
102
RTVSPost2010Prop47
 90
       50
102
RTVSPost2010PropOp47
 70
     1
102
RTVSPost2010Prop48
 90
       50
102
RTVSPost2010PropOp48
 70
     1
102
RTVSPost2010Prop49
280
     0
102
RTVSPost2010PropOp49
 70
     1
102
RTVSPost2010Prop50
 90
       50
102
RTVSPost2010PropOp50
 70
     1
102
RTVSPost2010Prop51ColorIndex
 90
      256
102
RTVSPost2010Prop51ColorRGB
 90
-16777216
102
RTVSPost2010PropOp51
 70
     0
102
RTVSPost2010Prop52
140
1.0
102
RTVSPost2010PropOp52
 70
     0
102
RTVSPost2010Prop53
 90
        2
102
RTVSPost2010PropOp53
 70
     1
102
RTVSPost2010Prop54
  1
strokes_ogs.tif
102
RTVSPost2010PropOp54
 70
     1
102
RTVSPost2010Prop55
280
     0
102
RTVSPost2010PropOp55
 70
     1
102
RTVSPost2010Prop56
140
1.0
102
RTVSPost2010PropOp56
 70
     1
102
RTVSPost2010Prop57
140
1.0
102
RTVSPost2010PropOp57
 70
     1
102
RTVSPropertyOp0
 70
     1
102
RTVSPropertyOp1
 70
     1
102
RTVSPropertyOp2
 70
     1
102
RTVSPropertyOp3
 70
     1
102
RTVSPropertyOp4
 70
     1
102
RTVSPropertyOp5
 70
     1
102
RTVSPropertyOp6
 70
     1
102
RTVSPropertyOp7
 70
     1
102
RTVSPropertyOp8
 70
     1
102
RTVSPropertyOp9
 70
     1
102
RTVSPropertyOp10
 70
     1
102
RTVSPropertyOp11
 70
     1
102
RTVSPropertyOp12
 70
     1
102
RTVSPropertyOp13
 70
     1
102
RTVSPropertyOp14
 70
     1
102
RTVSPropertyOp15
 70
     1
102
RTVSPropertyOp16
 70
     1
102
RTVSPropertyOp17
 70
     1
102
RTVSPropertyOp18
 70
     1
102
RTVSPropertyOp19
 70
     1
102
RTVSPropertyOp20
 70
     1
102
RTVSPropertyOp21
 70
     1
102
RTVSPropertyOp22
 70
     1
102
RTVSPropertyOp23
 70
     1
102
RTVSPropertyOp24
 70
     1
102
RTVSPropertyOp25
 70
     1
102
RTVSPropertyOp26
 70
     1
102
RTVSPropertyOp27
 70
     1
102
RTVSPropertyOp28
 70
     1
102
RTVSPropertyOp29
 70
     1
102
RTVSPropertyOp30
 70
     1
102
RTVSPropertyOp31
 70
     1
102
RTVSPropertyOp32
 70
     1
102
RTVSPropertyOp33
 70
     1
102
RTVSPropertyOp34
 70
     1
102
RTVSPropertyOp35
 70
     1
102
RTVSPropertyOp36
 70
     1
102
RTVSPropertyOp37
 70
     1
102
RTVSPropertyOp38
 70
     1
102
RTVSPropertyOp39
 70
     1
102
RTVSPropertyOp40
 70
     1
102
RTVSPropertyOp41
 70
     1
102
RTVSPropertyOp42
 70
     1
102
RTVSPropertyOp43
 70
     1
102
RTVSPropertyOp44
 70
     1
102
RTVSPropertyOp45
 70
     1
102
RTVSPropertyOp46
 70
     1
102
RTVSPropertyOp47
 70
     1
102
RTVSPropertyOp48
 70
     1
102
RTVSPropertyOp49
 70
     1
102
RTVSPropertyOp50
 70
     1
102
RTVSPropertyOp51
 70
     0
102
RTVSPropertyOp52
 70
     0
102
RTVSPropertyOp53
 70
     1
102
RTVSPropertyOp54
 70
     1
102
RTVSPropertyOp55
 70
     1
102
RTVSPropertyOp56
 70
     1
102
RTVSPropertyOp57
 70
     1
102
RTVSPropertyOp58
 70
     1
102
RTVSPropertyOp59
 70
     1
102
RTVSPropertyOp60
 70
     1
102
RTVSPropertyOp61
 70
     1
102
RTVSPropertyOp62
 70
     1
  0
XRECORD
  5
A22D
102
{ACAD_REACTORS
330
A22C
102
}
330
A22C
100
AcDbXrecord
280
     1
102
RTVSPost2010Prop28
280
     0
102
RTVSPost2010PropOp28
 70
     1
102
RTVSPost2010Prop29
280
     1
102
RTVSPost2010PropOp29
 70
     1
102
RTVSPost2010Prop30
280
     1
102
RTVSPost2010PropOp30
 70
     1
102
RTVSPost2010Prop31
280
     0
102
RTVSPost2010PropOp31
 70
     1
102
RTVSPost2010Prop32
280
     0
102
RTVSPost2010PropOp32
 70
     1
102
RTVSPost2010Prop33
280
     0
102
RTVSPost2010PropOp33
 70
     1
102
RTVSPost2010Prop34
280
     0
102
RTVSPost2010PropOp34
 70
     1
102
RTVSPost2010Prop35
280
     0
102
RTVSPost2010PropOp35
 70
     1
102
RTVSPost2010Prop36
280
     0
102
RTVSPost2010PropOp36
 70
     1
102
RTVSPost2010Prop37
 90
       50
102
RTVSPost2010PropOp37
 70
     1
102
RTVSPost2010Prop38
140
0.0
102
RTVSPost2010PropOp38
 70
     1
102
RTVSPost2010Prop39
140
1.0
102
RTVSPost2010PropOp39
 70
     1
102
RTVSPost2010Prop40
 90
        0
102
RTVSPost2010PropOp40
 70
     1
102
RTVSPost2010Prop41ColorIndex
 90
       18
102
RTVSPost2010Prop41ColorRGB
 90
        0
102
RTVSPost2010PropOp41
 70
     1
102
RTVSPost2010Prop42
 90
       50
102
RTVSPost2010PropOp42
 70
     1
102
RTVSPost2010Prop43
 90
        3
102
RTVSPost2010PropOp43
 70
     1
102
RTVSPost2010Prop44ColorIndex
 90
        5
102
RTVSPost2010Prop44ColorRGB
 90
      255
102
RTVSPost2010PropOp44
 70
     1
102
RTVSPost2010Prop45
280
     0
102
RTVSPost2010PropOp45
 70
     1
102
RTVSPost2010Prop46
 90
       50
102
RTVSPost2010PropOp46
 70
     1
102
RTVSPost2010Prop47
 90
       50
102
RTVSPost2010PropOp47
 70
     1
102
RTVSPost2010Prop48
 90
       50
102
RTVSPost2010PropOp48
 70
     1
102
RTVSPost2010Prop49
280
     0
102
RTVSPost2010PropOp49
 70
     1
102
RTVSPost2010Prop50
 90
       50
102
RTVSPost2010PropOp50
 70
     1
102
RTVSPost2010Prop51ColorIndex
 90
      256
102
RTVSPost2010Prop51ColorRGB
 90
-16777216
102
RTVSPost2010PropOp51
 70
     0
102
RTVSPost2010Prop52
140
1.0
102
RTVSPost2010PropOp52
 70
     0
102
RTVSPost2010Prop53
 90
        2
102
RTVSPost2010PropOp53
 70
     1
102
RTVSPost2010Prop54
  1
strokes_ogs.tif
102
RTVSPost2010PropOp54
 70
     1
102
RTVSPost2010Prop55
280
     0
102
RTVSPost2010PropOp55
 70
     1
102
RTVSPost2010Prop56
140
1.0
102
RTVSPost2010PropOp56
 70
     1
102
RTVSPost2010Prop57
140
1.0
102
RTVSPost2010PropOp57
 70
     1
102
RTVSPropertyOp0
 70
     1
102
RTVSPropertyOp1
 70
     1
102
RTVSPropertyOp2
 70
     1
102
RTVSPropertyOp3
 70
     1
102
RTVSPropertyOp4
 70
     1
102
RTVSPropertyOp5
 70
     1
102
RTVSPropertyOp6
 70
     1
102
RTVSPropertyOp7
 70
     1
102
RTVSPropertyOp8
 70
     1
102
RTVSPropertyOp9
 70
     1
102
RTVSPropertyOp10
 70
     1
102
RTVSPropertyOp11
 70
     1
102
RTVSPropertyOp12
 70
     1
102
RTVSPropertyOp13
 70
     1
102
RTVSPropertyOp14
 70
     1
102
RTVSPropertyOp15
 70
     1
102
RTVSPropertyOp16
 70
     1
102
RTVSPropertyOp17
 70
     1
102
RTVSPropertyOp18
 70
     1
102
RTVSPropertyOp19
 70
     1
102
RTVSPropertyOp20
 70
     1
102
RTVSPropertyOp21
 70
     1
102
RTVSPropertyOp22
 70
     1
102
RTVSPropertyOp23
 70
     1
102
RTVSPropertyOp24
 70
     1
102
RTVSPropertyOp25
 70
     1
102
RTVSPropertyOp26
 70
     1
102
RTVSPropertyOp27
 70
     1
102
RTVSPropertyOp28
 70
     1
102
RTVSPropertyOp29
 70
     1
102
RTVSPropertyOp30
 70
     1
102
RTVSPropertyOp31
 70
     1
102
RTVSPropertyOp32
 70
     1
102
RTVSPropertyOp33
 70
     1
102
RTVSPropertyOp34
 70
     1
102
RTVSPropertyOp35
 70
     1
102
RTVSPropertyOp36
 70
     1
102
RTVSPropertyOp37
 70
     1
102
RTVSPropertyOp38
 70
     1
102
RTVSPropertyOp39
 70
     1
102
RTVSPropertyOp40
 70
     1
102
RTVSPropertyOp41
 70
     1
102
RTVSPropertyOp42
 70
     1
102
RTVSPropertyOp43
 70
     1
102
RTVSPropertyOp44
 70
     1
102
RTVSPropertyOp45
 70
     1
102
RTVSPropertyOp46
 70
     1
102
RTVSPropertyOp47
 70
     1
102
RTVSPropertyOp48
 70
     1
102
RTVSPropertyOp49
 70
     1
102
RTVSPropertyOp50
 70
     1
102
RTVSPropertyOp51
 70
     0
102
RTVSPropertyOp52
 70
     0
102
RTVSPropertyOp53
 70
     1
102
RTVSPropertyOp54
 70
     1
102
RTVSPropertyOp55
 70
     1
102
RTVSPropertyOp56
 70
     1
102
RTVSPropertyOp57
 70
     1
102
RTVSPropertyOp58
 70
     1
102
RTVSPropertyOp59
 70
     1
102
RTVSPropertyOp60
 70
     1
102
RTVSPropertyOp61
 70
     1
102
RTVSPropertyOp62
 70
     1
  0
XRECORD
  5
A223
102
{ACAD_REACTORS
330
A222
102
}
330
A222
100
AcDbXrecord
280
     1
102
RTVSPost2010Prop28
280
     0
102
RTVSPost2010PropOp28
 70
     1
102
RTVSPost2010Prop29
280
     1
102
RTVSPost2010PropOp29
 70
     1
102
RTVSPost2010Prop30
280
     1
102
RTVSPost2010PropOp30
 70
     1
102
RTVSPost2010Prop31
280
     0
102
RTVSPost2010PropOp31
 70
     1
102
RTVSPost2010Prop32
280
     0
102
RTVSPost2010PropOp32
 70
     1
102
RTVSPost2010Prop33
280
     0
102
RTVSPost2010PropOp33
 70
     1
102
RTVSPost2010Prop34
280
     0
102
RTVSPost2010PropOp34
 70
     1
102
RTVSPost2010Prop35
280
     0
102
RTVSPost2010PropOp35
 70
     1
102
RTVSPost2010Prop36
280
     0
102
RTVSPost2010PropOp36
 70
     1
102
RTVSPost2010Prop37
 90
       50
102
RTVSPost2010PropOp37
 70
     1
102
RTVSPost2010Prop38
140
0.0
102
RTVSPost2010PropOp38
 70
     1
102
RTVSPost2010Prop39
140
1.0
102
RTVSPost2010PropOp39
 70
     1
102
RTVSPost2010Prop40
 90
        0
102
RTVSPost2010PropOp40
 70
     1
102
RTVSPost2010Prop41ColorIndex
 90
       18
102
RTVSPost2010Prop41ColorRGB
 90
        0
102
RTVSPost2010PropOp41
 70
     1
102
RTVSPost2010Prop42
 90
       50
102
RTVSPost2010PropOp42
 70
     1
102
RTVSPost2010Prop43
 90
        3
102
RTVSPost2010PropOp43
 70
     1
102
RTVSPost2010Prop44ColorIndex
 90
        5
102
RTVSPost2010Prop44ColorRGB
 90
      255
102
RTVSPost2010PropOp44
 70
     1
102
RTVSPost2010Prop45
280
     0
102
RTVSPost2010PropOp45
 70
     1
102
RTVSPost2010Prop46
 90
       50
102
RTVSPost2010PropOp46
 70
     1
102
RTVSPost2010Prop47
 90
       50
102
RTVSPost2010PropOp47
 70
     1
102
RTVSPost2010Prop48
 90
       50
102
RTVSPost2010PropOp48
 70
     1
102
RTVSPost2010Prop49
280
     0
102
RTVSPost2010PropOp49
 70
     1
102
RTVSPost2010Prop50
 90
       50
102
RTVSPost2010PropOp50
 70
     1
102
RTVSPost2010Prop51ColorIndex
 90
      256
102
RTVSPost2010Prop51ColorRGB
 90
-16777216
102
RTVSPost2010PropOp51
 70
     0
102
RTVSPost2010Prop52
140
1.0
102
RTVSPost2010PropOp52
 70
     0
102
RTVSPost2010Prop53
 90
        2
102
RTVSPost2010PropOp53
 70
     1
102
RTVSPost2010Prop54
  1
strokes_ogs.tif
102
RTVSPost2010PropOp54
 70
     1
102
RTVSPost2010Prop55
280
     0
102
RTVSPost2010PropOp55
 70
     1
102
RTVSPost2010Prop56
140
1.0
102
RTVSPost2010PropOp56
 70
     1
102
RTVSPost2010Prop57
140
1.0
102
RTVSPost2010PropOp57
 70
     1
102
RTVSPropertyOp0
 70
     1
102
RTVSPropertyOp1
 70
     1
102
RTVSPropertyOp2
 70
     1
102
RTVSPropertyOp3
 70
     1
102
RTVSPropertyOp4
 70
     1
102
RTVSPropertyOp5
 70
     1
102
RTVSPropertyOp6
 70
     1
102
RTVSPropertyOp7
 70
     1
102
RTVSPropertyOp8
 70
     1
102
RTVSPropertyOp9
 70
     1
102
RTVSPropertyOp10
 70
     1
102
RTVSPropertyOp11
 70
     1
102
RTVSPropertyOp12
 70
     1
102
RTVSPropertyOp13
 70
     1
102
RTVSPropertyOp14
 70
     1
102
RTVSPropertyOp15
 70
     1
102
RTVSPropertyOp16
 70
     1
102
RTVSPropertyOp17
 70
     1
102
RTVSPropertyOp18
 70
     1
102
RTVSPropertyOp19
 70
     1
102
RTVSPropertyOp20
 70
     1
102
RTVSPropertyOp21
 70
     1
102
RTVSPropertyOp22
 70
     1
102
RTVSPropertyOp23
 70
     1
102
RTVSPropertyOp24
 70
     1
102
RTVSPropertyOp25
 70
     1
102
RTVSPropertyOp26
 70
     1
102
RTVSPropertyOp27
 70
     1
102
RTVSPropertyOp28
 70
     1
102
RTVSPropertyOp29
 70
     1
102
RTVSPropertyOp30
 70
     1
102
RTVSPropertyOp31
 70
     1
102
RTVSPropertyOp32
 70
     1
102
RTVSPropertyOp33
 70
     1
102
RTVSPropertyOp34
 70
     1
102
RTVSPropertyOp35
 70
     1
102
RTVSPropertyOp36
 70
     1
102
RTVSPropertyOp37
 70
     1
102
RTVSPropertyOp38
 70
     1
102
RTVSPropertyOp39
 70
     1
102
RTVSPropertyOp40
 70
     1
102
RTVSPropertyOp41
 70
     1
102
RTVSPropertyOp42
 70
     1
102
RTVSPropertyOp43
 70
     1
102
RTVSPropertyOp44
 70
     1
102
RTVSPropertyOp45
 70
     1
102
RTVSPropertyOp46
 70
     1
102
RTVSPropertyOp47
 70
     1
102
RTVSPropertyOp48
 70
     1
102
RTVSPropertyOp49
 70
     1
102
RTVSPropertyOp50
 70
     1
102
RTVSPropertyOp51
 70
     0
102
RTVSPropertyOp52
 70
     0
102
RTVSPropertyOp53
 70
     1
102
RTVSPropertyOp54
 70
     1
102
RTVSPropertyOp55
 70
     1
102
RTVSPropertyOp56
 70
     1
102
RTVSPropertyOp57
 70
     1
102
RTVSPropertyOp58
 70
     1
102
RTVSPropertyOp59
 70
     1
102
RTVSPropertyOp60
 70
     1
102
RTVSPropertyOp61
 70
     1
102
RTVSPropertyOp62
 70
     1
  0
XRECORD
  5
A217
102
{ACAD_REACTORS
330
A216
102
}
330
A216
100
AcDbXrecord
280
     1
102
RTVSPost2010Prop28
280
     0
102
RTVSPost2010PropOp28
 70
     1
102
RTVSPost2010Prop29
280
     1
102
RTVSPost2010PropOp29
 70
     1
102
RTVSPost2010Prop30
280
     1
102
RTVSPost2010PropOp30
 70
     1
102
RTVSPost2010Prop31
280
     0
102
RTVSPost2010PropOp31
 70
     1
102
RTVSPost2010Prop32
280
     0
102
RTVSPost2010PropOp32
 70
     1
102
RTVSPost2010Prop33
280
     0
102
RTVSPost2010PropOp33
 70
     1
102
RTVSPost2010Prop34
280
     0
102
RTVSPost2010PropOp34
 70
     1
102
RTVSPost2010Prop35
280
     0
102
RTVSPost2010PropOp35
 70
     1
102
RTVSPost2010Prop36
280
     0
102
RTVSPost2010PropOp36
 70
     1
102
RTVSPost2010Prop37
 90
       50
102
RTVSPost2010PropOp37
 70
     1
102
RTVSPost2010Prop38
140
0.0
102
RTVSPost2010PropOp38
 70
     1
102
RTVSPost2010Prop39
140
1.0
102
RTVSPost2010PropOp39
 70
     1
102
RTVSPost2010Prop40
 90
        0
102
RTVSPost2010PropOp40
 70
     1
102
RTVSPost2010Prop41ColorIndex
 90
       18
102
RTVSPost2010Prop41ColorRGB
 90
        0
102
RTVSPost2010PropOp41
 70
     1
102
RTVSPost2010Prop42
 90
       50
102
RTVSPost2010PropOp42
 70
     1
102
RTVSPost2010Prop43
 90
        3
102
RTVSPost2010PropOp43
 70
     1
102
RTVSPost2010Prop44ColorIndex
 90
        5
102
RTVSPost2010Prop44ColorRGB
 90
      255
102
RTVSPost2010PropOp44
 70
     1
102
RTVSPost2010Prop45
280
     0
102
RTVSPost2010PropOp45
 70
     1
102
RTVSPost2010Prop46
 90
       50
102
RTVSPost2010PropOp46
 70
     1
102
RTVSPost2010Prop47
 90
       50
102
RTVSPost2010PropOp47
 70
     1
102
RTVSPost2010Prop48
 90
       50
102
RTVSPost2010PropOp48
 70
     1
102
RTVSPost2010Prop49
280
     0
102
RTVSPost2010PropOp49
 70
     1
102
RTVSPost2010Prop50
 90
       50
102
RTVSPost2010PropOp50
 70
     1
102
RTVSPost2010Prop51ColorIndex
 90
      256
102
RTVSPost2010Prop51ColorRGB
 90
-16777216
102
RTVSPost2010PropOp51
 70
     0
102
RTVSPost2010Prop52
140
1.0
102
RTVSPost2010PropOp52
 70
     0
102
RTVSPost2010Prop53
 90
        2
102
RTVSPost2010PropOp53
 70
     1
102
RTVSPost2010Prop54
  1
strokes_ogs.tif
102
RTVSPost2010PropOp54
 70
     1
102
RTVSPost2010Prop55
280
     0
102
RTVSPost2010PropOp55
 70
     1
102
RTVSPost2010Prop56
140
1.0
102
RTVSPost2010PropOp56
 70
     1
102
RTVSPost2010Prop57
140
1.0
102
RTVSPost2010PropOp57
 70
     1
102
RTVSPropertyOp0
 70
     1
102
RTVSPropertyOp1
 70
     1
102
RTVSPropertyOp2
 70
     1
102
RTVSPropertyOp3
 70
     1
102
RTVSPropertyOp4
 70
     1
102
RTVSPropertyOp5
 70
     1
102
RTVSPropertyOp6
 70
     1
102
RTVSPropertyOp7
 70
     1
102
RTVSPropertyOp8
 70
     1
102
RTVSPropertyOp9
 70
     1
102
RTVSPropertyOp10
 70
     1
102
RTVSPropertyOp11
 70
     1
102
RTVSPropertyOp12
 70
     1
102
RTVSPropertyOp13
 70
     1
102
RTVSPropertyOp14
 70
     1
102
RTVSPropertyOp15
 70
     1
102
RTVSPropertyOp16
 70
     1
102
RTVSPropertyOp17
 70
     1
102
RTVSPropertyOp18
 70
     1
102
RTVSPropertyOp19
 70
     1
102
RTVSPropertyOp20
 70
     1
102
RTVSPropertyOp21
 70
     1
102
RTVSPropertyOp22
 70
     1
102
RTVSPropertyOp23
 70
     1
102
RTVSPropertyOp24
 70
     1
102
RTVSPropertyOp25
 70
     1
102
RTVSPropertyOp26
 70
     1
102
RTVSPropertyOp27
 70
     1
102
RTVSPropertyOp28
 70
     1
102
RTVSPropertyOp29
 70
     1
102
RTVSPropertyOp30
 70
     1
102
RTVSPropertyOp31
 70
     1
102
RTVSPropertyOp32
 70
     1
102
RTVSPropertyOp33
 70
     1
102
RTVSPropertyOp34
 70
     1
102
RTVSPropertyOp35
 70
     1
102
RTVSPropertyOp36
 70
     1
102
RTVSPropertyOp37
 70
     1
102
RTVSPropertyOp38
 70
     1
102
RTVSPropertyOp39
 70
     1
102
RTVSPropertyOp40
 70
     1
102
RTVSPropertyOp41
 70
     1
102
RTVSPropertyOp42
 70
     1
102
RTVSPropertyOp43
 70
     1
102
RTVSPropertyOp44
 70
     1
102
RTVSPropertyOp45
 70
     1
102
RTVSPropertyOp46
 70
     1
102
RTVSPropertyOp47
 70
     1
102
RTVSPropertyOp48
 70
     1
102
RTVSPropertyOp49
 70
     1
102
RTVSPropertyOp50
 70
     1
102
RTVSPropertyOp51
 70
     0
102
RTVSPropertyOp52
 70
     0
102
RTVSPropertyOp53
 70
     1
102
RTVSPropertyOp54
 70
     1
102
RTVSPropertyOp55
 70
     1
102
RTVSPropertyOp56
 70
     1
102
RTVSPropertyOp57
 70
     1
102
RTVSPropertyOp58
 70
     1
102
RTVSPropertyOp59
 70
     1
102
RTVSPropertyOp60
 70
     1
102
RTVSPropertyOp61
 70
     1
102
RTVSPropertyOp62
 70
     1
  0
XRECORD
  5
A22F
102
{ACAD_REACTORS
330
A22E
102
}
330
A22E
100
AcDbXrecord
280
     1
102
RTVSPost2010Prop28
280
     0
102
RTVSPost2010PropOp28
 70
     1
102
RTVSPost2010Prop29
280
     1
102
RTVSPost2010PropOp29
 70
     1
102
RTVSPost2010Prop30
280
     1
102
RTVSPost2010PropOp30
 70
     1
102
RTVSPost2010Prop31
280
     0
102
RTVSPost2010PropOp31
 70
     1
102
RTVSPost2010Prop32
280
     0
102
RTVSPost2010PropOp32
 70
     1
102
RTVSPost2010Prop33
280
     0
102
RTVSPost2010PropOp33
 70
     1
102
RTVSPost2010Prop34
280
     0
102
RTVSPost2010PropOp34
 70
     1
102
RTVSPost2010Prop35
280
     0
102
RTVSPost2010PropOp35
 70
     1
102
RTVSPost2010Prop36
280
     0
102
RTVSPost2010PropOp36
 70
     1
102
RTVSPost2010Prop37
 90
       50
102
RTVSPost2010PropOp37
 70
     1
102
RTVSPost2010Prop38
140
0.0
102
RTVSPost2010PropOp38
 70
     1
102
RTVSPost2010Prop39
140
1.0
102
RTVSPost2010PropOp39
 70
     1
102
RTVSPost2010Prop40
 90
        0
102
RTVSPost2010PropOp40
 70
     1
102
RTVSPost2010Prop41ColorIndex
 90
       18
102
RTVSPost2010Prop41ColorRGB
 90
        0
102
RTVSPost2010PropOp41
 70
     1
102
RTVSPost2010Prop42
 90
       50
102
RTVSPost2010PropOp42
 70
     1
102
RTVSPost2010Prop43
 90
        3
102
RTVSPost2010PropOp43
 70
     1
102
RTVSPost2010Prop44ColorIndex
 90
        5
102
RTVSPost2010Prop44ColorRGB
 90
      255
102
RTVSPost2010PropOp44
 70
     1
102
RTVSPost2010Prop45
280
     0
102
RTVSPost2010PropOp45
 70
     1
102
RTVSPost2010Prop46
 90
       50
102
RTVSPost2010PropOp46
 70
     1
102
RTVSPost2010Prop47
 90
       50
102
RTVSPost2010PropOp47
 70
     1
102
RTVSPost2010Prop48
 90
       50
102
RTVSPost2010PropOp48
 70
     1
102
RTVSPost2010Prop49
280
     0
102
RTVSPost2010PropOp49
 70
     1
102
RTVSPost2010Prop50
 90
       50
102
RTVSPost2010PropOp50
 70
     1
102
RTVSPost2010Prop51ColorIndex
 90
      256
102
RTVSPost2010Prop51ColorRGB
 90
-16777216
102
RTVSPost2010PropOp51
 70
     0
102
RTVSPost2010Prop52
140
1.0
102
RTVSPost2010PropOp52
 70
     0
102
RTVSPost2010Prop53
 90
        2
102
RTVSPost2010PropOp53
 70
     1
102
RTVSPost2010Prop54
  1
strokes_ogs.tif
102
RTVSPost2010PropOp54
 70
     1
102
RTVSPost2010Prop55
280
     0
102
RTVSPost2010PropOp55
 70
     1
102
RTVSPost2010Prop56
140
1.0
102
RTVSPost2010PropOp56
 70
     1
102
RTVSPost2010Prop57
140
1.0
102
RTVSPost2010PropOp57
 70
     1
102
RTVSPropertyOp0
 70
     1
102
RTVSPropertyOp1
 70
     1
102
RTVSPropertyOp2
 70
     1
102
RTVSPropertyOp3
 70
     1
102
RTVSPropertyOp4
 70
     1
102
RTVSPropertyOp5
 70
     1
102
RTVSPropertyOp6
 70
     1
102
RTVSPropertyOp7
 70
     1
102
RTVSPropertyOp8
 70
     1
102
RTVSPropertyOp9
 70
     1
102
RTVSPropertyOp10
 70
     1
102
RTVSPropertyOp11
 70
     1
102
RTVSPropertyOp12
 70
     1
102
RTVSPropertyOp13
 70
     1
102
RTVSPropertyOp14
 70
     1
102
RTVSPropertyOp15
 70
     1
102
RTVSPropertyOp16
 70
     1
102
RTVSPropertyOp17
 70
     1
102
RTVSPropertyOp18
 70
     1
102
RTVSPropertyOp19
 70
     1
102
RTVSPropertyOp20
 70
     1
102
RTVSPropertyOp21
 70
     1
102
RTVSPropertyOp22
 70
     1
102
RTVSPropertyOp23
 70
     1
102
RTVSPropertyOp24
 70
     1
102
RTVSPropertyOp25
 70
     1
102
RTVSPropertyOp26
 70
     1
102
RTVSPropertyOp27
 70
     1
102
RTVSPropertyOp28
 70
     1
102
RTVSPropertyOp29
 70
     1
102
RTVSPropertyOp30
 70
     1
102
RTVSPropertyOp31
 70
     1
102
RTVSPropertyOp32
 70
     1
102
RTVSPropertyOp33
 70
     1
102
RTVSPropertyOp34
 70
     1
102
RTVSPropertyOp35
 70
     1
102
RTVSPropertyOp36
 70
     1
102
RTVSPropertyOp37
 70
     1
102
RTVSPropertyOp38
 70
     1
102
RTVSPropertyOp39
 70
     1
102
RTVSPropertyOp40
 70
     1
102
RTVSPropertyOp41
 70
     1
102
RTVSPropertyOp42
 70
     1
102
RTVSPropertyOp43
 70
     1
102
RTVSPropertyOp44
 70
     1
102
RTVSPropertyOp45
 70
     1
102
RTVSPropertyOp46
 70
     1
102
RTVSPropertyOp47
 70
     1
102
RTVSPropertyOp48
 70
     1
102
RTVSPropertyOp49
 70
     1
102
RTVSPropertyOp50
 70
     1
102
RTVSPropertyOp51
 70
     0
102
RTVSPropertyOp52
 70
     0
102
RTVSPropertyOp53
 70
     1
102
RTVSPropertyOp54
 70
     1
102
RTVSPropertyOp55
 70
     1
102
RTVSPropertyOp56
 70
     1
102
RTVSPropertyOp57
 70
     1
102
RTVSPropertyOp58
 70
     1
102
RTVSPropertyOp59
 70
     1
102
RTVSPropertyOp60
 70
     1
102
RTVSPropertyOp61
 70
     1
102
RTVSPropertyOp62
 70
     1
  0
ENDSEC
  0
EOF
