  0
SECTION
  2
HEADER
  9
$ACADVER
  1
AC1015
  9
$ACADMAINTVER
 70
    20
  9
$DWGCODEPAGE
  3
ANSI_932
  9
$INSBASE
 10
0.0
 20
0.0
 30
0.0
  9
$EXTMIN
 10
10.0
 20
9.999999999999998
 30
0.0
  9
$EXTMAX
 10
482.6314869999998
 20
347.8915799999999
 30
0.0
  9
$LIMMIN
 10
0.0
 20
0.0
  9
$LIMMAX
 10
543.4709999999999
 20
374.665614
  9
$ORTHOMODE
 70
     1
  9
$REGENMODE
 70
     1
  9
$FILLMODE
 70
     1
  9
$QTEXTMODE
 70
     0
  9
$MIRRTEXT
 70
     1
  9
$LTSCALE
 40
20.0
  9
$ATTMODE
 70
     1
  9
$TEXTSIZE
 40
5.0
  9
$TRACEWID
 40
1.0
  9
$TEXTSTYLE
  7
STANDARD
  9
$CLAYER
  8
0
  9
$CELTYPE
  6
BYLAYER
  9
$CECOLOR
 62
   256
  9
$CELTSCALE
 40
1.0
  9
$DISPSILH
 70
     0
  9
$DIMSCALE
 40
1.0
  9
$DIMASZ
 40
2.5
  9
$DIMEXO
 40
1.0
  9
$DIMDLI
 40
10.0
  9
$DIMRND
 40
0.0
  9
$DIMDLE
 40
0.0
  9
$DIMEXE
 40
1.0
  9
$DIMTP
 40
0.0
  9
$DIMTM
 40
0.0
  9
$DIMTXT
 40
3.2
  9
$DIMCEN
 40
0.0
  9
$DIMTSZ
 40
0.0
  9
$DIMTOL
 70
     0
  9
$DIMLIM
 70
     0
  9
$DIMTIH
 70
     0
  9
$DIMTOH
 70
     0
  9
$DIMSE1
 70
     0
  9
$DIMSE2
 70
     0
  9
$DIMTAD
 70
     3
  9
$DIMZIN
 70
     8
  9
$DIMBLK
  1

  9
$DIMASO
 70
     1
  9
$DIMSHO
 70
     1
  9
$DIMPOST
  1

  9
$DIMAPOST
  1

  9
$DIMALT
 70
     0
  9
$DIMALTD
 70
     2
  9
$DIMALTF
 40
25.4
  9
$DIMLFAC
 40
1.0
  9
$DIMTOFL
 70
     1
  9
$DIMTVP
 40
0.0
  9
$DIMTIX
 70
     0
  9
$DIMSOXD
 70
     0
  9
$DIMSAH
 70
     1
  9
$DIMBLK1
  1

  9
$DIMBLK2
  1

  9
$DIMSTYLE
  2
STANDARD
  9
$DIMCLRD
 70
     0
  9
$DIMCLRE
 70
     0
  9
$DIMCLRT
 70
     0
  9
$DIMTFAC
 40
1.0
  9
$DIMGAP
 40
1.0
  9
$DIMJUST
 70
     0
  9
$DIMSD1
 70
     0
  9
$DIMSD2
 70
     0
  9
$DIMTOLJ
 70
     1
  9
$DIMTZIN
 70
     0
  9
$DIMALTZ
 70
     0
  9
$DIMALTTZ
 70
     0
  9
$DIMUPT
 70
     0
  9
$DIMDEC
 70
     4
  9
$DIMTDEC
 70
     4
  9
$DIMALTU
 70
     2
  9
$DIMALTTD
 70
     2
  9
$DIMTXSTY
  7
STANDARD
  9
$DIMAUNIT
 70
     0
  9
$DIMADEC
 70
     0
  9
$DIMALTRND
 40
0.0
  9
$DIMAZIN
 70
     0
  9
$DIMDSEP
 70
    46
  9
$DIMATFIT
 70
     3
  9
$DIMFRAC
 70
     0
  9
$DIMLDRBLK
  1

  9
$DIMLUNIT
 70
     2
  9
$DIMLWD
 70
    -2
  9
$DIMLWE
 70
    -2
  9
$DIMTMOVE
 70
     0
  9
$LUNITS
 70
     2
  9
$LUPREC
 70
     4
  9
$SKETCHINC
 40
1.0
  9
$FILLETRAD
 40
2.0
  9
$AUNITS
 70
     0
  9
$AUPREC
 70
     2
  9
$MENU
  1
.
  9
$ELEVATION
 40
0.0
  9
$PELEVATION
 40
0.0
  9
$THICKNESS
 40
0.0
  9
$LIMCHECK
 70
     0
  9
$CHAMFERA
 40
10.0
  9
$CHAMFERB
 40
10.0
  9
$CHAMFERC
 40
0.0
  9
$CHAMFERD
 40
0.0
  9
$SKPOLY
 70
     0
  9
$TDCREATE
 40
2451301.462480440
  9
$TDUCREATE
 40
2451301.087480440
  9
$TDUPDATE
 40
2457192.690479132
  9
$TDUUPDATE
 40
2457192.315479132
  9
$TDINDWG
 40
0.0970711921
  9
$TDUSRTIMER
 40
0.0970707060
  9
$USRTIMER
 70
     1
  9
$ANGBASE
 50
0.0
  9
$ANGDIR
 70
     0
  9
$PDMODE
 70
     0
  9
$PDSIZE
 40
0.0
  9
$PLINEWID
 40
0.0
  9
$SPLFRAME
 70
     0
  9
$SPLINETYPE
 70
     6
  9
$SPLINESEGS
 70
     8
  9
$HANDSEED
  5
A52C
  9
$SURFTAB1
 70
     6
  9
$SURFTAB2
 70
     6
  9
$SURFTYPE
 70
     6
  9
$SURFU
 70
     6
  9
$SURFV
 70
     6
  9
$UCSBASE
  2

  9
$UCSNAME
  2

  9
$UCSORG
 10
0.0
 20
0.0
 30
0.0
  9
$UCSXDIR
 10
1.0
 20
0.0
 30
0.0
  9
$UCSYDIR
 10
0.0
 20
1.0
 30
0.0
  9
$UCSORTHOREF
  2

  9
$UCSORTHOVIEW
 70
     0
  9
$UCSORGTOP
 10
0.0
 20
0.0
 30
0.0
  9
$UCSORGBOTTOM
 10
0.0
 20
0.0
 30
0.0
  9
$UCSORGLEFT
 10
0.0
 20
0.0
 30
0.0
  9
$UCSORGRIGHT
 10
0.0
 20
0.0
 30
0.0
  9
$UCSORGFRONT
 10
0.0
 20
0.0
 30
0.0
  9
$UCSORGBACK
 10
0.0
 20
0.0
 30
0.0
  9
$PUCSBASE
  2

  9
$PUCSNAME
  2

  9
$PUCSORG
 10
0.0
 20
0.0
 30
0.0
  9
$PUCSXDIR
 10
1.0
 20
0.0
 30
0.0
  9
$PUCSYDIR
 10
0.0
 20
1.0
 30
0.0
  9
$PUCSORTHOREF
  2

  9
$PUCSORTHOVIEW
 70
     0
  9
$PUCSORGTOP
 10
0.0
 20
0.0
 30
0.0
  9
$PUCSORGBOTTOM
 10
0.0
 20
0.0
 30
0.0
  9
$PUCSORGLEFT
 10
0.0
 20
0.0
 30
0.0
  9
$PUCSORGRIGHT
 10
0.0
 20
0.0
 30
0.0
  9
$PUCSORGFRONT
 10
0.0
 20
0.0
 30
0.0
  9
$PUCSORGBACK
 10
0.0
 20
0.0
 30
0.0
  9
$USERI1
 70
     0
  9
$USERI2
 70
     0
  9
$USERI3
 70
     0
  9
$USERI4
 70
     0
  9
$USERI5
 70
     0
  9
$USERR1
 40
0.0
  9
$USERR2
 40
0.0
  9
$USERR3
 40
0.0
  9
$USERR4
 40
0.0
  9
$USERR5
 40
0.0
  9
$WORLDVIEW
 70
     1
  9
$SHADEDGE
 70
     3
  9
$SHADEDIF
 70
    70
  9
$TILEMODE
 70
     1
  9
$MAXACTVP
 70
    16
  9
$PINSBASE
 10
0.0
 20
0.0
 30
0.0
  9
$PLIMCHECK
 70
     0
  9
$PEXTMIN
 10
1.000000000000000E+20
 20
1.000000000000000E+20
 30
1.000000000000000E+20
  9
$PEXTMAX
 10
-1.000000000000000E+20
 20
-1.000000000000000E+20
 30
-1.000000000000000E+20
  9
$PLIMMIN
 10
0.0
 20
0.0
  9
$PLIMMAX
 10
420.0
 20
297.0
  9
$UNITMODE
 70
     0
  9
$VISRETAIN
 70
     0
  9
$PLINEGEN
 70
     0
  9
$PSLTSCALE
 70
     0
  9
$TREEDEPTH
 70
  3020
  9
$CMLSTYLE
  2
STANDARD
  9
$CMLJUST
 70
     0
  9
$CMLSCALE
 40
1.0
  9
$PROXYGRAPHICS
 70
     1
  9
$MEASUREMENT
 70
     0
  9
$CELWEIGHT
370
    -1
  9
$ENDCAPS
280
     0
  9
$JOINSTYLE
280
     0
  9
$LWDISPLAY
290
     0
  9
$INSUNITS
 70
     0
  9
$HYPERLINKBASE
  1

  9
$STYLESHEET
  1

  9
$XEDIT
290
     1
  9
$CEPSNTYPE
380
     0
  9
$PSTYLEMODE
290
     1
  9
$FINGERPRINTGUID
  2
{C5C273ED-F36D-47E2-9997-87A7100548A9}
  9
$VERSIONGUID
  2
{1E10B093-A99B-40D1-A90E-E7B73091A7F8}
  9
$EXTNAMES
290
     1
  9
$PSVPSCALE
 40
0.0
  9
$OLESTARTUP
290
     0
  0
ENDSEC
  0
SECTION
  2
CLASSES
  0
CLASS
  1
ACDBDICTIONARYWDFLT
  2
AcDbDictionaryWithDefault
  3
ObjectDBX Classes
 90
        0
280
     0
281
     0
  0
CLASS
  1
ACDBPLACEHOLDER
  2
AcDbPlaceHolder
  3
ObjectDBX Classes
 90
        0
280
     0
281
     0
  0
CLASS
  1
LAYOUT
  2
AcDbLayout
  3
ObjectDBX Classes
 90
        0
280
     0
281
     0
  0
CLASS
  1
DICTIONARYVAR
  2
AcDbDictionaryVar
  3
ObjectDBX Classes
 90
        0
280
     0
281
     0
  0
CLASS
  1
MATERIAL
  2
AcDbMaterial
  3
ObjectDBX Classes
 90
     1153
280
     0
281
     0
  0
CLASS
  1
VISUALSTYLE
  2
AcDbVisualStyle
  3
ObjectDBX Classes
 90
     4095
280
     0
281
     0
  0
CLASS
  1
TABLESTYLE
  2
AcDbTableStyle
  3
ObjectDBX Classes
 90
     4095
280
     0
281
     0
  0
CLASS
  1
SCALE
  2
AcDbScale
  3
ObjectDBX Classes
 90
     1153
280
     0
281
     0
  0
CLASS
  1
MLEADERSTYLE
  2
AcDbMLeaderStyle
  3
ACDB_MLEADERSTYLE_CLASS
 90
     4095
280
     0
281
     0
  0
CLASS
  1
ACDBSECTIONVIEWSTYLE
  2
AcDbSectionViewStyle
  3
ObjectDBX Classes
 90
     1025
280
     0
281
     0
  0
CLASS
  1
ACDBDETAILVIEWSTYLE
  2
AcDbDetailViewStyle
  3
ObjectDBX Classes
 90
     1025
280
     0
281
     0
  0
CLASS
  1
CELLSTYLEMAP
  2
AcDbCellStyleMap
  3
ObjectDBX Classes
 90
     1152
280
     0
281
     0
  0
ENDSEC
  0
SECTION
  2
TABLES
  0
TABLE
  2
VPORT
  5
A258
330
0
100
AcDbSymbolTable
 70
     1
  0
VPORT
  5
A477
330
A258
100
AcDbSymbolTableRecord
100
AcDbViewportTableRecord
  2
*ACTIVE
 70
     0
 10
0.0
 20
0.0
 11
1.0
 21
1.0
 12
376.3757065674544
 22
178.9431931691949
 13
0.0
 23
0.0
 14
10.0
 24
10.0
 15
10.0
 25
10.0
 16
0.0
 26
0.0
 36
1.0
 17
0.0
 27
0.0
 37
0.0
 40
340.5675810221902
 41
2.35006605019815
 42
50.0
 43
0.0
 44
0.0
 50
0.0
 51
0.0
 71
     0
 72
   100
 73
     1
 74
     0
 75
     0
 76
     0
 77
     0
 78
     0
281
     0
 65
     1
110
0.0
120
0.0
130
0.0
111
1.0
121
0.0
131
0.0
112
0.0
122
1.0
132
0.0
 79
     0
146
0.0
1001
ACAD_NAV_VCDISPLAY
1070
     3
  0
ENDTAB
  0
TABLE
  2
LTYPE
  5
A255
330
0
100
AcDbSymbolTable
 70
     4
  0
LTYPE
  5
A263
330
A255
100
AcDbSymbolTableRecord
100
AcDbLinetypeTableRecord
  2
BYBLOCK
 70
     0
  3

 72
    65
 73
     0
 40
0.0
  0
LTYPE
  5
A264
330
A255
100
AcDbSymbolTableRecord
100
AcDbLinetypeTableRecord
  2
BYLAYER
 70
     0
  3

 72
    65
 73
     0
 40
0.0
  0
LTYPE
  5
A265
330
A255
100
AcDbSymbolTableRecord
100
AcDbLinetypeTableRecord
  2
CONTINUOUS
 70
     0
  3
Solid line
 72
    65
 73
     0
 40
0.0
  0
LTYPE
  5
A273
330
A255
100
AcDbSymbolTableRecord
100
AcDbLinetypeTableRecord
  2
DASHED
 70
     0
  3
__ __ __ __ __ __ __ __ __ __ __ __ __ __ __ __
 72
    65
 73
     2
 40
0.75
 49
0.5
 74
     0
 49
-0.25
 74
     0
  0
LTYPE
  5
A274
330
A255
100
AcDbSymbolTableRecord
100
AcDbLinetypeTableRecord
  2
CENTER
 70
     0
  3
____ _ ____ _ ____ _ ____ _ ____ _ ____ _ ____ 
 72
    65
 73
     4
 40
2.0
 49
1.25
 74
     0
 49
-0.25
 74
     0
 49
0.25
 74
     0
 49
-0.25
 74
     0
  0
LTYPE
  5
A275
330
A255
100
AcDbSymbolTableRecord
100
AcDbLinetypeTableRecord
  2
PHANTOM
 70
     0
  3
______  __  __  ______  __  __  ______  __  __ 
 72
    65
 73
     6
 40
2.5
 49
1.25
 74
     0
 49
-0.25
 74
     0
 49
0.25
 74
     0
 49
-0.25
 74
     0
 49
0.25
 74
     0
 49
-0.25
 74
     0
  0
ENDTAB
  0
TABLE
  2
LAYER
  5
A252
330
0
100
AcDbSymbolTable
 70
     8
  0
LAYER
  5
A260
102
{ACAD_XDICTIONARY
360
A4D0
102
}
330
A252
100
AcDbSymbolTableRecord
100
AcDbLayerTableRecord
  2
0
 70
     0
 62
     7
  6
CONTINUOUS
370
    -3
390
A47E
  0
LAYER
  5
A276
102
{ACAD_XDICTIONARY
360
A4D2
102
}
330
A252
100
AcDbSymbolTableRecord
100
AcDbLayerTableRecord
  2
4
 70
     0
 62
     1
  6
CENTER
370
    -3
390
A47E
  0
LAYER
  5
A277
102
{ACAD_XDICTIONARY
360
A4D4
102
}
330
A252
100
AcDbSymbolTableRecord
100
AcDbLayerTableRecord
  2
5
 70
     0
 62
     6
  6
PHANTOM
370
    -3
390
A47E
  0
LAYER
  5
A278
102
{ACAD_XDICTIONARY
360
A4D6
102
}
330
A252
100
AcDbSymbolTableRecord
100
AcDbLayerTableRecord
  2
1
 70
     0
 62
     7
  6
CONTINUOUS
370
    -3
390
A47E
  0
LAYER
  5
A279
102
{ACAD_XDICTIONARY
360
A4D8
102
}
330
A252
100
AcDbSymbolTableRecord
100
AcDbLayerTableRecord
  2
2
 70
     0
 62
     4
  6
CONTINUOUS
370
    -3
390
A47E
  0
LAYER
  5
A27A
102
{ACAD_XDICTIONARY
360
A4DA
102
}
330
A252
100
AcDbSymbolTableRecord
100
AcDbLayerTableRecord
  2
3
 70
     0
 62
     2
  6
DASHED
370
    -3
390
A47E
  0
LAYER
  5
A27B
102
{ACAD_XDICTIONARY
360
A4DC
102
}
330
A252
100
AcDbSymbolTableRecord
100
AcDbLayerTableRecord
  2
6
 70
     0
 62
     5
  6
CONTINUOUS
370
    -3
390
A47E
  0
LAYER
  5
A27C
102
{ACAD_XDICTIONARY
360
A4DE
102
}
330
A252
100
AcDbSymbolTableRecord
100
AcDbLayerTableRecord
  2
7
 70
     0
 62
     3
  6
CONTINUOUS
370
    -3
390
A47E
  0
ENDTAB
  0
TABLE
  2
STYLE
  5
A253
330
0
100
AcDbSymbolTable
 70
     1
  0
STYLE
  5
A261
330
A253
100
AcDbSymbolTableRecord
100
AcDbTextStyleTableRecord
  2
STANDARD
 70
     0
 40
0.0
 41
1.0
 50
0.0
 71
     0
 42
5.0
  3
txt
  4

  0
ENDTAB
  0
TABLE
  2
VIEW
  5
A256
330
0
100
AcDbSymbolTable
 70
     0
  0
ENDTAB
  0
TABLE
  2
UCS
  5
A257
330
0
100
AcDbSymbolTable
 70
     0
  0
ENDTAB
  0
TABLE
  2
APPID
  5
A259
330
0
100
AcDbSymbolTable
 70
     3
  0
APPID
  5
A262
330
A259
100
AcDbSymbolTableRecord
100
AcDbRegAppTableRecord
  2
ACAD
 70
     0
  0
APPID
  5
A4EA
330
A259
100
AcDbSymbolTableRecord
100
AcDbRegAppTableRecord
  2
ACAD_NAV_VCDISPLAY
 70
     0
  0
APPID
  5
A523
330
A259
100
AcDbSymbolTableRecord
100
AcDbRegAppTableRecord
  2
ACAD_MLEADERVER
 70
     0
  0
ENDTAB
  0
TABLE
  2
DIMSTYLE
  5
A25A
330
0
100
AcDbSymbolTable
 70
     1
100
AcDbDimStyleTable
 71
     0
  0
DIMSTYLE
105
A27E
330
A25A
100
AcDbSymbolTableRecord
100
AcDbDimStyleTableRecord
  2
STANDARD
 70
     0
 41
2.5
 42
1.0
 43
10.0
 44
1.0
 73
     0
 74
     0
 77
     3
 78
     8
140
3.2
141
0.0
147
1.0
172
     1
173
     1
284
     8
285
     8
286
     8
340
A261
  0
ENDTAB
  0
TABLE
  2
BLOCK_RECORD
  5
A251
330
0
100
AcDbSymbolTable
 70
     0
  0
BLOCK_RECORD
  5
A26E
102
{ACAD_XDICTIONARY
360
A45D
102
}
330
A251
100
AcDbSymbolTableRecord
100
AcDbBlockTableRecord
  2
*MODEL_SPACE
340
A4CC
  0
BLOCK_RECORD
  5
A26A
102
{ACAD_XDICTIONARY
360
A45B
102
}
330
A251
100
AcDbSymbolTableRecord
100
AcDbBlockTableRecord
  2
*PAPER_SPACE
340
A4CD
  0
ENDTAB
  0
ENDSEC
  0
SECTION
  2
BLOCKS
  0
BLOCK
  5
A26F
330
A26E
100
AcDbEntity
  8
0
100
AcDbBlockBegin
  2
*MODEL_SPACE
 70
     0
 10
0.0
 20
0.0
 30
0.0
  3
*MODEL_SPACE
  1

  0
ENDBLK
  5
A270
330
A26E
100
AcDbEntity
  8
0
100
AcDbBlockEnd
  0
BLOCK
  5
A26B
330
A26A
100
AcDbEntity
 67
     1
  8
0
100
AcDbBlockBegin
  2
*PAPER_SPACE
 70
     0
 10
0.0
 20
0.0
 30
0.0
  3
*PAPER_SPACE
  1

  0
ENDBLK
  5
A26C
330
A26A
100
AcDbEntity
 67
     1
  8
0
100
AcDbBlockEnd
  0
ENDSEC
  0
SECTION
  2
ENTITIES
  0
TEXT
  5
A286
330
A26E
100
AcDbEntity
  8
7
  6
Continuous
100
AcDbText
 10
10.0
 20
18.0
 30
0.0
 40
3.0
  1
TYPE No.TCA-420G-N65
100
AcDbText
  0
TEXT
  5
A287
330
A26E
100
AcDbEntity
  8
7
  6
Continuous
100
AcDbText
 10
10.0
 20
26.0
 30
0.0
 40
3.0
  1
CODE No.9717
100
AcDbText
  0
TEXT
  5
A288
330
A26E
100
AcDbEntity
  8
1
  6
Continuous
100
AcDbText
 10
10.0
 20
10.0
 30
0.0
 40
1.399999999999999
  1
LAYER
100
AcDbText
  0
TEXT
  5
A289
330
A26E
100
AcDbEntity
  8
1
  6
Continuous
100
AcDbText
 10
17.97951099999998
 20
10.04873699999998
 30
0.0
 40
1.399999999999999
  1
1
100
AcDbText
  0
TEXT
  5
A28A
330
A26E
100
AcDbEntity
  8
7
  6
Continuous
100
AcDbText
 10
29.97951099999999
 20
10.04873699999998
 30
0.0
 40
1.399999999999999
  1
7
100
AcDbText
  0
TEXT
  5
A28B
330
A26E
100
AcDbEntity
  8
4
  6
CENTER
100
AcDbText
 10
23.97951099999999
 20
10.04873699999998
 30
0.0
 40
1.399999999999999
  1
4
100
AcDbText
  0
TEXT
  5
A28C
330
A26E
100
AcDbEntity
  8
3
  6
DASHED
100
AcDbText
 10
21.979511
 20
10.04873699999998
 30
0.0
 40
1.399999999999999
  1
3
100
AcDbText
  0
TEXT
  5
A28D
330
A26E
100
AcDbEntity
  8
2
  6
Continuous
100
AcDbText
 10
19.97951099999998
 20
10.04873699999998
 30
0.0
 40
1.399999999999999
  1
2
100
AcDbText
  0
TEXT
  5
A28E
330
A26E
100
AcDbEntity
  8
6
  6
Continuous
100
AcDbText
 10
27.979511
 20
10.04873699999998
 30
0.0
 40
1.399999999999999
  1
6
100
AcDbText
  0
TEXT
  5
A28F
330
A26E
100
AcDbEntity
  8
5
  6
PHANTOM
100
AcDbText
 10
25.97951099999999
 20
10.04873699999998
 30
0.0
 40
1.399999999999999
  1
5
100
AcDbText
  0
LINE
  5
A290
330
A26E
100
AcDbEntity
  8
4
  6
CENTER
 48
0.8
100
AcDbLine
 10
56.13148699999999
 20
237.3915799999998
 30
0.0
 11
56.13148699999999
 21
147.39158
 31
0.0
  0
LINE
  5
A291
330
A26E
100
AcDbEntity
  8
1
  6
Continuous
100
AcDbLine
 10
35.13149699999999
 20
224.9915779999998
 30
0.0
 11
77.13148699999995
 21
224.9915779999998
 31
0.0
  0
LINE
  5
A292
330
A26E
100
AcDbEntity
  8
4
  6
CENTER
 48
0.8
100
AcDbLine
 10
30.831487
 20
184.89158
 30
0.0
 11
82.63147899999998
 21
184.89158
 31
0.0
  0
LINE
  5
A293
330
A26E
100
AcDbEntity
  8
1
  6
Continuous
100
AcDbLine
 10
80.63148699999997
 20
221.4915779999997
 30
0.0
 11
80.63148699999997
 21
198.476632
 31
0.0
  0
LINE
  5
A294
330
A26E
100
AcDbEntity
  8
1
  6
Continuous
100
AcDbLine
 10
40.131487
 20
180.89158
 30
0.0
 11
41.13148699999999
 21
180.89158
 31
0.0
  0
LINE
  5
A295
330
A26E
100
AcDbEntity
  8
1
  6
Continuous
100
AcDbLine
 10
40.131487
 20
188.89158
 30
0.0
 11
41.13148699999999
 21
188.89158
 31
0.0
  0
LINE
  5
A296
330
A26E
100
AcDbEntity
  8
1
  6
Continuous
100
AcDbLine
 10
66.13148699999999
 20
222.77115
 30
0.0
 11
66.13148699999999
 21
220.06949
 31
0.0
  0
LINE
  5
A297
330
A26E
100
AcDbEntity
  8
1
  6
Continuous
100
AcDbLine
 10
67.13148699999999
 20
222.77115
 30
0.0
 11
67.13148699999999
 21
220.0695909999998
 31
0.0
  0
LINE
  5
A298
330
A26E
100
AcDbEntity
  8
1
  6
Continuous
100
AcDbLine
 10
46.13148699999999
 20
222.77115
 30
0.0
 11
46.13148699999999
 21
219.9785279999999
 31
0.0
  0
LINE
  5
A299
330
A26E
100
AcDbEntity
  8
1
  6
Continuous
100
AcDbLine
 10
45.131487
 20
222.77115
 30
0.0
 11
45.131487
 21
220.0687349999999
 31
0.0
  0
LINE
  5
A29A
330
A26E
100
AcDbEntity
  8
1
  6
Continuous
100
AcDbLine
 10
37.382477
 20
190.56727
 30
0.0
 11
37.831477
 21
188.8915879999999
 31
0.0
  0
LINE
  5
A29B
330
A26E
100
AcDbEntity
  8
1
  6
Continuous
100
AcDbLine
 10
37.382497
 20
179.2159059999999
 30
0.0
 11
37.831487
 21
180.89158
 31
0.0
  0
LINE
  5
A29C
330
A26E
100
AcDbEntity
  8
1
  6
Continuous
100
AcDbLine
 10
74.43148199999997
 20
190.89158
 30
0.0
 11
75.631479
 21
190.89158
 31
0.0
  0
LINE
  5
A29D
330
A26E
100
AcDbEntity
  8
1
  6
Continuous
100
AcDbLine
 10
74.43148199999997
 20
178.89158
 30
0.0
 11
75.631479
 21
178.89158
 31
0.0
  0
LINE
  5
A29E
330
A26E
100
AcDbEntity
  8
1
  6
Continuous
100
AcDbLine
 10
77.63147899999998
 20
188.89158
 30
0.0
 11
77.63147899999998
 21
180.89158
 31
0.0
  0
LINE
  5
A29F
330
A26E
100
AcDbEntity
  8
1
  6
Continuous
100
AcDbLine
 10
35.83148700000001
 20
189.068147
 30
0.0
 11
35.83148700000001
 21
180.7150359999999
 31
0.0
  0
LINE
  5
A2A0
330
A26E
100
AcDbEntity
  8
1
  6
Continuous
100
AcDbLine
 10
37.382457
 20
179.215898
 30
0.0
 11
37.382457
 21
190.5672769999999
 31
0.0
  0
LINE
  5
A2A1
330
A26E
100
AcDbEntity
  8
4
  6
CENTER
 48
0.8
100
AcDbLine
 10
191.1314869999999
 20
237.3915799999998
 30
0.0
 11
191.1314869999999
 21
191.2811979999999
 31
0.0
  0
LINE
  5
A2A2
330
A26E
100
AcDbEntity
  8
1
  6
Continuous
100
AcDbLine
 10
169.431486
 20
224.9915779999998
 30
0.0
 11
212.1314869999999
 21
224.9915779999998
 31
0.0
  0
LINE
  5
A2A3
330
A26E
100
AcDbEntity
  8
4
  6
CENTER
 48
0.8
100
AcDbLine
 10
132.6314869999998
 20
184.89158
 30
0.0
 11
207.631487
 21
184.89158
 31
0.0
  0
LINE
  5
A2A4
330
A26E
100
AcDbEntity
  8
4
  6
CENTER
 48
0.8
100
AcDbLine
 10
170.131487
 20
219.8915819999998
 30
0.0
 11
170.131487
 21
147.39158
 31
0.0
  0
LINE
  5
A2A5
330
A26E
100
AcDbEntity
  8
1
  6
Continuous
100
AcDbLine
 10
191.131458
 20
320.291672
 30
0.0
 11
191.131459
 21
307.491563
 31
0.0
  0
LINE
  5
A2A6
330
A26E
100
AcDbEntity
  8
1
  6
Continuous
100
AcDbLine
 10
184.7313189999999
 20
313.8915749999998
 30
0.0
 11
197.5314619999998
 21
313.8915759999998
 31
0.0
  0
LINE
  5
A2A7
330
A26E
100
AcDbEntity
  8
1
  6
Continuous
100
AcDbLine
 10
192.377879
 20
315.1380299999999
 30
0.0
 11
191.131442
 21
313.891593
 31
0.0
  0
LINE
  5
A2A8
330
A26E
100
AcDbEntity
  8
1
  6
Continuous
100
AcDbLine
 10
192.3778889999999
 20
312.6451149999998
 30
0.0
 11
191.131437
 21
313.891567
 31
0.0
  0
LINE
  5
A2A9
330
A26E
100
AcDbEntity
  8
1
  6
Continuous
100
AcDbLine
 10
189.8849889999999
 20
315.1379989999998
 30
0.0
 11
191.1314349999999
 21
313.8915529999998
 31
0.0
  0
LINE
  5
A2AA
330
A26E
100
AcDbEntity
  8
1
  6
Continuous
100
AcDbLine
 10
189.885036
 20
312.6450950000001
 30
0.0
 11
191.131479
 21
313.8915379999999
 31
0.0
  0
LINE
  5
A2AB
330
A26E
100
AcDbEntity
  8
1
  6
Continuous
100
AcDbLine
 10
156.1314869999999
 20
232.3915799999999
 30
0.0
 11
226.131487
 21
232.3915799999999
 31
0.0
  0
LINE
  5
A2AC
330
A26E
100
AcDbEntity
  8
1
  6
Continuous
100
AcDbLine
 10
156.1314869999999
 20
230.091584
 30
0.0
 11
156.1314869999999
 21
232.391583
 31
0.0
  0
LINE
  5
A2AD
330
A26E
100
AcDbEntity
  8
1
  6
Continuous
100
AcDbLine
 10
156.1314869999999
 20
230.0915809999999
 30
0.0
 11
226.131487
 21
230.0915809999999
 31
0.0
  0
LINE
  5
A2AE
330
A26E
100
AcDbEntity
  8
4
  6
CENTER
 48
0.8
100
AcDbLine
 10
163.6314869999999
 20
225.0915809999999
 30
0.0
 11
163.6314869999999
 21
237.3915799999998
 31
0.0
  0
LINE
  5
A2AF
330
A26E
100
AcDbEntity
  8
1
  6
Continuous
100
AcDbLine
 10
168.681486
 20
226.4915779999999
 30
0.0
 11
213.584619
 21
226.4915779999999
 31
0.0
  0
LINE
  5
A2B0
330
A26E
100
AcDbEntity
  8
1
  6
Continuous
100
AcDbLine
 10
164.8814899999998
 20
230.091583
 30
0.0
 11
165.424109
 21
228.711163
 31
0.0
  0
LINE
  5
A2B1
330
A26E
100
AcDbEntity
  8
1
  6
Continuous
100
AcDbLine
 10
226.131487
 20
230.0915779999999
 30
0.0
 11
226.131487
 21
232.3915799999999
 31
0.0
  0
LINE
  5
A2B2
330
A26E
100
AcDbEntity
  8
4
  6
CENTER
 48
0.8
100
AcDbLine
 10
218.6314869999999
 20
225.0915809999999
 30
0.0
 11
218.6314869999999
 21
237.3915799999998
 31
0.0
  0
LINE
  5
A2B3
330
A26E
100
AcDbEntity
  8
1
  6
Continuous
100
AcDbLine
 10
217.3814829999999
 20
230.0915759999998
 30
0.0
 11
216.838865
 21
228.711155
 31
0.0
  0
LINE
  5
A2B4
330
A26E
100
AcDbEntity
  8
1
  6
Continuous
100
AcDbLine
 10
27.131487
 20
232.3915799999999
 30
0.0
 11
85.131487
 21
232.3915799999999
 31
0.0
  0
LINE
  5
A2B5
330
A26E
100
AcDbEntity
  8
1
  6
Continuous
100
AcDbLine
 10
27.131487
 20
230.0915809999999
 30
0.0
 11
85.131487
 21
230.0915809999999
 31
0.0
  0
LINE
  5
A2B6
330
A26E
100
AcDbEntity
  8
1
  6
Continuous
100
AcDbLine
 10
33.68148699999998
 20
226.4915779999999
 30
0.0
 11
78.584615
 21
226.4915779999999
 31
0.0
  0
LINE
  5
A2B7
330
A26E
100
AcDbEntity
  8
1
  6
Continuous
100
AcDbLine
 10
29.88149699999999
 20
230.091584
 30
0.0
 11
30.424117
 21
228.711164
 31
0.0
  0
LINE
  5
A2B8
330
A26E
100
AcDbEntity
  8
1
  6
Continuous
100
AcDbLine
 10
82.38148699999998
 20
230.091574
 30
0.0
 11
81.83886899999997
 21
228.7111529999999
 31
0.0
  0
LINE
  5
A2B9
330
A26E
100
AcDbEntity
  8
1
  6
Continuous
100
AcDbLine
 10
85.131487
 20
232.3915799999999
 30
0.0
 11
85.131487
 21
230.0915809999999
 31
0.0
  0
LINE
  5
A2BA
330
A26E
100
AcDbEntity
  8
1
  6
Continuous
100
AcDbLine
 10
27.131487
 20
232.3915799999999
 30
0.0
 11
27.131487
 21
230.0915809999999
 31
0.0
  0
LINE
  5
A2BB
330
A26E
100
AcDbEntity
  8
4
  6
CENTER
 48
0.8
100
AcDbLine
 10
77.13148699999995
 20
237.3915799999998
 30
0.0
 11
77.13148699999995
 21
225.0915809999999
 31
0.0
  0
LINE
  5
A2BC
330
A26E
100
AcDbEntity
  8
4
  6
CENTER
 48
0.8
100
AcDbLine
 10
35.131487
 20
237.3915799999998
 30
0.0
 11
35.131487
 21
225.0915809999999
 31
0.0
  0
LINE
  5
A2BD
330
A26E
100
AcDbEntity
  8
4
  6
CENTER
 48
0.8
100
AcDbLine
 10
191.1314869999999
 20
347.8915799999999
 30
0.0
 11
191.1314869999999
 21
279.8915799999999
 31
0.0
  0
LINE
  5
A2BE
330
A26E
100
AcDbEntity
  8
4
  6
CENTER
 48
0.8
100
AcDbLine
 10
132.6314869999998
 20
313.8915799999998
 30
0.0
 11
227.822397
 21
313.8915799999998
 31
0.0
  0
LINE
  5
A2BF
330
A26E
100
AcDbEntity
  8
1
  6
Continuous
100
AcDbLine
 10
163.6314849999999
 20
284.8915799999998
 30
0.0
 11
218.6314869999999
 21
284.8915799999998
 31
0.0
  0
LINE
  5
A2C0
330
A26E
100
AcDbEntity
  8
1
  6
Continuous
100
AcDbLine
 10
163.6314889999999
 20
342.8915799999998
 30
0.0
 11
218.6314869999999
 21
342.8915799999998
 31
0.0
  0
LINE
  5
A2C1
330
A26E
100
AcDbEntity
  8
4
  6
CENTER
 48
0.8
100
AcDbLine
 10
163.6314869999999
 20
298.89158
 30
0.0
 11
163.6314869999999
 21
286.8915799999998
 31
0.0
  0
LINE
  5
A2C2
330
A26E
100
AcDbEntity
  8
4
  6
CENTER
 48
0.8
100
AcDbLine
 10
157.631487
 20
292.89158
 30
0.0
 11
169.631485
 21
292.89158
 31
0.0
  0
LINE
  5
A2C3
330
A26E
100
AcDbEntity
  8
4
  6
CENTER
 48
0.8
100
AcDbLine
 10
163.6314869999999
 20
328.8915799999998
 30
0.0
 11
163.6314869999999
 21
340.8915799999998
 31
0.0
  0
LINE
  5
A2C4
330
A26E
100
AcDbEntity
  8
4
  6
CENTER
 48
0.8
100
AcDbLine
 10
157.631487
 20
334.8915799999998
 30
0.0
 11
169.631489
 21
334.8915799999998
 31
0.0
  0
LINE
  5
A2C5
330
A26E
100
AcDbEntity
  8
4
  6
CENTER
 48
0.8
100
AcDbLine
 10
218.6314869999999
 20
298.89158
 30
0.0
 11
218.6314869999999
 21
286.8915799999998
 31
0.0
  0
LINE
  5
A2C6
330
A26E
100
AcDbEntity
  8
4
  6
CENTER
 48
0.8
100
AcDbLine
 10
224.6314869999999
 20
292.89158
 30
0.0
 11
212.6314869999999
 21
292.89158
 31
0.0
  0
LINE
  5
A2C7
330
A26E
100
AcDbEntity
  8
4
  6
CENTER
 48
0.8
100
AcDbLine
 10
218.6314869999999
 20
328.8915799999998
 30
0.0
 11
218.6314869999999
 21
340.8915799999998
 31
0.0
  0
LINE
  5
A2C8
330
A26E
100
AcDbEntity
  8
4
  6
CENTER
 48
0.8
100
AcDbLine
 10
224.6314869999999
 20
334.8915799999998
 30
0.0
 11
212.6314869999999
 21
334.8915799999998
 31
0.0
  0
LINE
  5
A2C9
330
A26E
100
AcDbEntity
  8
1
  6
Continuous
100
AcDbLine
 10
209.930304
 20
217.9915779999999
 30
0.0
 11
215.631487
 21
217.9915779999999
 31
0.0
  0
LINE
  5
A2CA
330
A26E
100
AcDbEntity
  8
1
  6
Continuous
100
AcDbLine
 10
165.931486
 20
221.4915779999997
 30
0.0
 11
165.931486
 21
219.191577
 31
0.0
  0
LINE
  5
A2CB
330
A26E
100
AcDbEntity
  8
1
  6
Continuous
100
AcDbLine
 10
176.8990139999999
 20
179.7485669999999
 30
0.0
 11
203.6212319999999
 21
214.911494
 31
0.0
  0
LINE
  5
A2CC
330
A26E
100
AcDbEntity
  8
1
  6
Continuous
100
AcDbLine
 10
161.6728259999999
 20
185.7288719999999
 30
0.0
 11
164.4790739999999
 21
214.078689
 31
0.0
  0
LINE
  5
A2CD
330
A26E
100
AcDbEntity
  8
1
  6
Continuous
100
AcDbLine
 10
74.43148999999998
 20
214.291891
 30
0.0
 11
74.43148999999998
 21
176.39158
 31
0.0
  0
LINE
  5
A2CE
330
A26E
100
AcDbEntity
  8
1
  6
Continuous
100
AcDbLine
 10
72.13148699999995
 20
214.191579
 30
0.0
 11
72.13148699999995
 21
176.39158
 31
0.0
  0
LINE
  5
A2CF
330
A26E
100
AcDbEntity
  8
1
  6
Continuous
100
AcDbLine
 10
69.63148699999999
 20
220.191579
 30
0.0
 11
72.88148699999998
 21
220.191579
 31
0.0
  0
LINE
  5
A2D0
330
A26E
100
AcDbEntity
  8
1
  6
Continuous
100
AcDbLine
 10
68.113848
 20
220.4234309999999
 30
0.0
 11
68.81673599999999
 21
220.61177
 31
0.0
  0
LINE
  5
A2D1
330
A26E
100
AcDbEntity
  8
1
  6
Continuous
100
AcDbLine
 10
42.631487
 20
220.191579
 30
0.0
 11
39.381487
 21
220.191579
 31
0.0
  0
LINE
  5
A2D2
330
A26E
100
AcDbEntity
  8
1
  6
Continuous
100
AcDbLine
 10
44.149127
 20
220.423435
 30
0.0
 11
43.44623699999998
 21
220.611774
 31
0.0
  0
LINE
  5
A2D3
330
A26E
100
AcDbEntity
  8
1
  6
Continuous
100
AcDbLine
 10
40.131487
 20
214.191579
 30
0.0
 11
40.131487
 21
176.39158
 31
0.0
  0
LINE
  5
A2D4
330
A26E
100
AcDbEntity
  8
1
  6
Continuous
100
AcDbLine
 10
37.831487
 20
214.291891
 30
0.0
 11
37.831487
 21
176.39158
 31
0.0
  0
LINE
  5
A2D5
330
A26E
100
AcDbEntity
  8
1
  6
Continuous
100
AcDbLine
 10
37.831487
 20
176.39158
 30
0.0
 11
40.131487
 21
176.39158
 31
0.0
  0
LINE
  5
A2D6
330
A26E
100
AcDbEntity
  8
1
  6
Continuous
100
AcDbLine
 10
72.13148699999995
 20
176.39158
 30
0.0
 11
74.43148999999998
 21
176.39158
 31
0.0
  0
LINE
  5
A2D7
330
A26E
100
AcDbEntity
  8
1
  6
Continuous
100
AcDbLine
 10
31.631487
 20
221.4915779999997
 30
0.0
 11
31.631487
 21
198.476632
 31
0.0
  0
LINE
  5
A2D8
330
A26E
100
AcDbEntity
  8
1
  6
Continuous
100
AcDbLine
 10
71.13148699999998
 20
188.89158
 30
0.0
 11
72.13148699999995
 21
188.89158
 31
0.0
  0
LINE
  5
A2D9
330
A26E
100
AcDbEntity
  8
1
  6
Continuous
100
AcDbLine
 10
71.13148699999998
 20
180.89158
 30
0.0
 11
72.13148699999995
 21
180.89158
 31
0.0
  0
ARC
  5
A2DA
330
A26E
100
AcDbEntity
  8
1
  6
Continuous
100
AcDbCircle
 10
68.63148699999999
 20
218.4915779999998
 30
0.0
 40
2.0
100
AcDbArc
 50
105.0000399999997
 51
155.3912799999999
  0
ARC
  5
A2DB
330
A26E
100
AcDbEntity
  8
1
  6
Continuous
100
AcDbCircle
 10
64.63148699999999
 20
218.37034
 30
0.0
 40
2.0
100
AcDbArc
 50
28.99118899999999
 51
88.36554499999998
  0
ARC
  5
A2DC
330
A26E
100
AcDbEntity
  8
1
  6
Continuous
100
AcDbCircle
 10
66.63148699999999
 20
220.307779
 30
0.0
 40
1.0
100
AcDbArc
 50
255.48635
 51
280.46622
  0
ARC
  5
A2DD
330
A26E
100
AcDbEntity
  8
1
  6
Continuous
100
AcDbCircle
 10
43.63148699999999
 20
218.4915779999998
 30
0.0
 40
2.0
100
AcDbArc
 50
24.60868
 51
74.99999200000002
  0
ARC
  5
A2DE
330
A26E
100
AcDbEntity
  8
1
  6
Continuous
100
AcDbCircle
 10
47.631487
 20
218.37034
 30
0.0
 40
2.0
100
AcDbArc
 50
91.634419
 51
151.0087799999998
  0
ARC
  5
A2DF
330
A26E
100
AcDbEntity
  8
1
  6
Continuous
100
AcDbCircle
 10
45.631487
 20
220.307779
 30
0.0
 40
1.0
100
AcDbArc
 50
259.5337599999999
 51
284.5136299999998
  0
ARC
  5
A2E0
330
A26E
100
AcDbEntity
  8
1
  6
Continuous
100
AcDbCircle
 10
75.631479
 20
188.89158
 30
0.0
 40
2.0
100
AcDbArc
 50
0.0
 51
89.99998199999996
  0
ARC
  5
A2E1
330
A26E
100
AcDbEntity
  8
1
  6
Continuous
100
AcDbCircle
 10
75.631479
 20
180.89158
 30
0.0
 40
2.0
100
AcDbArc
 50
270.00002
 51
0.0
  0
ARC
  5
A2E2
330
A26E
100
AcDbEntity
  8
1
  6
Continuous
100
AcDbCircle
 10
37.331487
 20
180.7150359999999
 30
0.0
 40
1.5
100
AcDbArc
 50
179.9999799999999
 51
271.94882
  0
ARC
  5
A2E3
330
A26E
100
AcDbEntity
  8
1
  6
Continuous
100
AcDbCircle
 10
37.331487
 20
189.068147
 30
0.0
 40
1.5
100
AcDbArc
 50
88.051186
 51
179.9999599999999
  0
CIRCLE
  5
A2E4
330
A26E
100
AcDbEntity
  8
1
  6
Continuous
100
AcDbCircle
 10
170.131487
 20
184.89158
 30
0.0
 40
1.5
  0
CIRCLE
  5
A2E5
330
A26E
100
AcDbEntity
  8
1
  6
Continuous
100
AcDbCircle
 10
170.131487
 20
184.89158
 30
0.0
 40
6.0
  0
ARC
  5
A2E6
330
A26E
100
AcDbEntity
  8
1
  6
Continuous
100
AcDbCircle
 10
165.888227
 20
224.4245339999999
 30
0.0
 40
5.0
100
AcDbArc
 50
270.4957299999999
 51
330.82976
  0
ARC
  5
A2E7
330
A26E
100
AcDbEntity
  8
1
  6
Continuous
100
AcDbCircle
 10
168.5186019999999
 20
219.5404579999999
 30
0.0
 40
3.0
100
AcDbArc
 50
54.65483599999998
 51
149.5839399999999
  0
ARC
  5
A2E8
330
A26E
100
AcDbEntity
  8
1
  6
Continuous
100
AcDbCircle
 10
168.681486
 20
229.9915799999999
 30
0.0
 40
3.5
100
AcDbArc
 50
201.4589299999999
 51
270.00002
  0
ARC
  5
A2E9
330
A26E
100
AcDbEntity
  8
1
  6
Continuous
100
AcDbCircle
 10
213.5814879999998
 20
229.991577
 30
0.0
 40
3.5
100
AcDbArc
 50
270.00002
 51
338.5410199999999
  0
ARC
  5
A2EA
330
A26E
100
AcDbEntity
  8
1
  6
Continuous
100
AcDbCircle
 10
207.381487
 20
226.566581
 30
0.0
 40
3.174999999999998
100
AcDbArc
 50
330.2600799999999
 51
0.0
  0
ARC
  5
A2EB
330
A26E
100
AcDbEntity
  8
1
  6
Continuous
100
AcDbCircle
 10
191.1314869999999
 20
226.5665779999999
 30
0.0
 40
3.174999999999998
100
AcDbArc
 50
330.26013
 51
0.0
  0
ARC
  5
A2EC
330
A26E
100
AcDbEntity
  8
1
  6
Continuous
100
AcDbCircle
 10
197.359102
 20
226.5665779999999
 30
0.0
 40
3.174999999999998
100
AcDbArc
 50
191.2671299999999
 51
209.7398499999999
  0
ARC
  5
A2ED
330
A26E
100
AcDbEntity
  8
1
  6
Continuous
100
AcDbCircle
 10
202.6357589999999
 20
226.5665779999999
 30
0.0
 40
3.174999999999998
100
AcDbArc
 50
330.26013
 51
0.0
  0
ARC
  5
A2EE
330
A26E
100
AcDbEntity
  8
1
  6
Continuous
100
AcDbCircle
 10
206.1557029999999
 20
226.5665779999999
 30
0.0
 40
3.174999999999998
100
AcDbArc
 50
330.26013
 51
0.0
  0
ARC
  5
A2EF
330
A26E
100
AcDbEntity
  8
1
  6
Continuous
100
AcDbCircle
 10
174.8814869999999
 20
226.566581
 30
0.0
 40
3.174999999999998
100
AcDbArc
 50
179.9999599999999
 51
209.7398899999999
  0
ARC
  5
A2F0
330
A26E
100
AcDbEntity
  8
1
  6
Continuous
100
AcDbCircle
 10
191.1314869999999
 20
226.5665779999999
 30
0.0
 40
3.174999999999998
100
AcDbArc
 50
179.9999599999999
 51
209.7398399999999
  0
ARC
  5
A2F1
330
A26E
100
AcDbEntity
  8
1
  6
Continuous
100
AcDbCircle
 10
184.903872
 20
226.5665779999999
 30
0.0
 40
3.174999999999998
100
AcDbArc
 50
179.9999599999999
 51
209.7398399999999
  0
ARC
  5
A2F2
330
A26E
100
AcDbEntity
  8
1
  6
Continuous
100
AcDbCircle
 10
179.627216
 20
226.5665779999999
 30
0.0
 40
3.174999999999998
100
AcDbArc
 50
179.9999599999999
 51
209.7398399999999
  0
ARC
  5
A2F3
330
A26E
100
AcDbEntity
  8
1
  6
Continuous
100
AcDbCircle
 10
176.107271
 20
226.5665779999999
 30
0.0
 40
3.174999999999998
100
AcDbArc
 50
179.9999599999999
 51
209.7398399999999
  0
ARC
  5
A2F4
330
A26E
100
AcDbEntity
  8
1
  6
Continuous
100
AcDbCircle
 10
33.68148699999998
 20
229.9915799999999
 30
0.0
 40
3.5
100
AcDbArc
 50
201.4589299999999
 51
270.00002
  0
ARC
  5
A2F5
330
A26E
100
AcDbEntity
  8
1
  6
Continuous
100
AcDbCircle
 10
78.58148400000001
 20
229.991577
 30
0.0
 40
3.5
100
AcDbArc
 50
270.00002
 51
338.5410199999999
  0
ARC
  5
A2F6
330
A26E
100
AcDbEntity
  8
1
  6
Continuous
100
AcDbCircle
 10
72.38148699999998
 20
226.566581
 30
0.0
 40
3.174999999999998
100
AcDbArc
 50
330.26005
 51
0.0
  0
ARC
  5
A2F7
330
A26E
100
AcDbEntity
  8
1
  6
Continuous
100
AcDbCircle
 10
56.13148699999999
 20
226.5665779999999
 30
0.0
 40
3.174999999999998
100
AcDbArc
 50
330.26016
 51
0.0
  0
ARC
  5
A2F8
330
A26E
100
AcDbEntity
  8
1
  6
Continuous
100
AcDbCircle
 10
62.359102
 20
226.5665779999999
 30
0.0
 40
3.174999999999998
100
AcDbArc
 50
191.2671299999999
 51
209.7398099999999
  0
ARC
  5
A2F9
330
A26E
100
AcDbEntity
  8
1
  6
Continuous
100
AcDbCircle
 10
67.63575899999999
 20
226.5665779999999
 30
0.0
 40
3.174999999999998
100
AcDbArc
 50
330.26016
 51
0.0
  0
ARC
  5
A2FA
330
A26E
100
AcDbEntity
  8
1
  6
Continuous
100
AcDbCircle
 10
71.155703
 20
226.5665779999999
 30
0.0
 40
3.174999999999998
100
AcDbArc
 50
330.26016
 51
0.0
  0
ARC
  5
A2FB
330
A26E
100
AcDbEntity
  8
1
  6
Continuous
100
AcDbCircle
 10
39.88148699999999
 20
226.566581
 30
0.0
 40
3.174999999999998
100
AcDbArc
 50
179.9999599999999
 51
209.7399199999999
  0
ARC
  5
A2FC
330
A26E
100
AcDbEntity
  8
1
  6
Continuous
100
AcDbCircle
 10
56.13148699999999
 20
226.5665779999999
 30
0.0
 40
3.174999999999998
100
AcDbArc
 50
179.9999599999999
 51
209.7397999999999
  0
ARC
  5
A2FD
330
A26E
100
AcDbEntity
  8
1
  6
Continuous
100
AcDbCircle
 10
49.903867
 20
226.5665779999999
 30
0.0
 40
3.174999999999998
100
AcDbArc
 50
179.9999599999999
 51
209.7397999999999
  0
ARC
  5
A2FE
330
A26E
100
AcDbEntity
  8
1
  6
Continuous
100
AcDbCircle
 10
44.627217
 20
226.5665779999999
 30
0.0
 40
3.174999999999998
100
AcDbArc
 50
179.9999599999999
 51
209.7397999999999
  0
ARC
  5
A2FF
330
A26E
100
AcDbEntity
  8
1
  6
Continuous
100
AcDbCircle
 10
41.10726699999999
 20
226.5665779999999
 30
0.0
 40
3.174999999999998
100
AcDbArc
 50
179.9999599999999
 51
209.7397999999999
  0
ARC
  5
A300
330
A26E
100
AcDbEntity
  8
1
  6
Continuous
100
AcDbCircle
 10
163.6314849999999
 20
292.3915799999998
 30
0.0
 40
7.5
100
AcDbArc
 50
162.50042
 51
269.99995
  0
ARC
  5
A301
330
A26E
100
AcDbEntity
  8
1
  6
Continuous
100
AcDbCircle
 10
163.6314889999999
 20
335.3915799999998
 30
0.0
 40
7.5
100
AcDbArc
 50
89.99999599999998
 51
197.4996199999999
  0
ARC
  5
A302
330
A26E
100
AcDbEntity
  8
1
  6
Continuous
100
AcDbCircle
 10
218.6314869999999
 20
292.3915799999998
 30
0.0
 40
7.5
100
AcDbArc
 50
270.0000299999999
 51
17.49957999999999
  0
ARC
  5
A303
330
A26E
100
AcDbEntity
  8
1
  6
Continuous
100
AcDbCircle
 10
218.6314869999999
 20
335.3915799999998
 30
0.0
 40
7.5
100
AcDbArc
 50
342.50037
 51
89.99999599999998
  0
ARC
  5
A304
330
A26E
100
AcDbEntity
  8
1
  6
Continuous
100
AcDbCircle
 10
286.822397
 20
313.8915719999999
 30
0.0
 40
64.0
100
AcDbArc
 50
162.5003899999998
 51
197.4996199999999
  0
ARC
  5
A305
330
A26E
100
AcDbEntity
  8
1
  6
Continuous
100
AcDbCircle
 10
95.44057700000001
 20
313.891588
 30
0.0
 40
64.0
100
AcDbArc
 50
342.50037
 51
17.499607
  0
CIRCLE
  5
A306
330
A26E
100
AcDbEntity
  8
1
  6
Continuous
100
AcDbCircle
 10
163.6314849999999
 20
292.89158
 30
0.0
 40
4.4
  0
CIRCLE
  5
A307
330
A26E
100
AcDbEntity
  8
1
  6
Continuous
100
AcDbCircle
 10
163.6314889999999
 20
334.8915799999998
 30
0.0
 40
4.4
  0
CIRCLE
  5
A308
330
A26E
100
AcDbEntity
  8
1
  6
Continuous
100
AcDbCircle
 10
218.6314869999999
 20
292.89158
 30
0.0
 40
4.4
  0
CIRCLE
  5
A309
330
A26E
100
AcDbEntity
  8
1
  6
Continuous
100
AcDbCircle
 10
218.6314869999999
 20
334.8915799999998
 30
0.0
 40
4.4
  0
CIRCLE
  5
A30A
330
A26E
100
AcDbEntity
  8
1
  6
Continuous
100
AcDbCircle
 10
191.1314869999999
 20
313.8915799999998
 30
0.0
 40
23.200001
  0
CIRCLE
  5
A30B
330
A26E
100
AcDbEntity
  8
1
  6
Continuous
100
AcDbCircle
 10
191.1314869999999
 20
313.8915799999998
 30
0.0
 40
21.700001
  0
CIRCLE
  5
A30C
330
A26E
100
AcDbEntity
  8
1
  6
Continuous
100
AcDbCircle
 10
191.1314869999999
 20
313.8915799999998
 30
0.0
 40
11.4
  0
ARC
  5
A30D
330
A26E
100
AcDbEntity
  8
1
  6
Continuous
100
AcDbCircle
 10
191.1314549999999
 20
313.8915729999999
 30
0.0
 40
8.0
100
AcDbArc
 50
15.962
 51
74.03891800000002
  0
ARC
  5
A30E
330
A26E
100
AcDbEntity
  8
1
  6
Continuous
100
AcDbCircle
 10
192.731455
 20
315.491573
 30
0.0
 40
0.5
100
AcDbArc
 50
180.00003
 51
270.0
  0
ARC
  5
A30F
330
A26E
100
AcDbEntity
  8
1
  6
Continuous
100
AcDbCircle
 10
193.168524
 20
329.9849909999998
 30
0.0
 40
15.0
100
AcDbArc
 50
268.2726999999998
 51
292.1458399999999
  0
ARC
  5
A310
330
A26E
100
AcDbEntity
  8
1
  6
Continuous
100
AcDbCircle
 10
207.2247909999999
 20
315.9287239999998
 30
0.0
 40
15.0
100
AcDbArc
 50
157.85431
 51
181.72746
  0
ARC
  5
A311
330
A26E
100
AcDbEntity
  8
1
  6
Continuous
100
AcDbCircle
 10
175.0380409999999
 20
315.928646
 30
0.0
 40
15.0
100
AcDbArc
 50
358.27267
 51
22.14583999999999
  0
ARC
  5
A312
330
A26E
100
AcDbEntity
  8
1
  6
Continuous
100
AcDbCircle
 10
189.094299
 20
329.984915
 30
0.0
 40
15.0
100
AcDbArc
 50
247.8543099999999
 51
271.72746
  0
ARC
  5
A313
330
A26E
100
AcDbEntity
  8
1
  6
Continuous
100
AcDbCircle
 10
189.531454
 20
315.491572
 30
0.0
 40
0.5
100
AcDbArc
 50
270.0000299999999
 51
0.0
  0
ARC
  5
A314
330
A26E
100
AcDbEntity
  8
1
  6
Continuous
100
AcDbCircle
 10
189.0943829999999
 20
297.798159
 30
0.0
 40
15.0
100
AcDbArc
 50
88.272677
 51
112.1458279999999
  0
ARC
  5
A315
330
A26E
100
AcDbEntity
  8
1
  6
Continuous
100
AcDbCircle
 10
175.0381179999999
 20
311.854421
 30
0.0
 40
15.0
100
AcDbArc
 50
337.8543
 51
1.72747
  0
ARC
  5
A316
330
A26E
100
AcDbEntity
  8
1
  6
Continuous
100
AcDbCircle
 10
189.5314559999999
 20
312.291574
 30
0.0
 40
0.5
100
AcDbArc
 50
0.00002
 51
90.00000500000002
  0
ARC
  5
A317
330
A26E
100
AcDbEntity
  8
1
  6
Continuous
100
AcDbCircle
 10
207.2248699999999
 20
311.8545009999999
 30
0.0
 40
15.0
100
AcDbArc
 50
178.2726699999997
 51
202.14585
  0
ARC
  5
A318
330
A26E
100
AcDbEntity
  8
1
  6
Continuous
100
AcDbCircle
 10
193.168606
 20
297.7982369999998
 30
0.0
 40
15.0
100
AcDbArc
 50
67.854298
 51
91.72746899999998
  0
ARC
  5
A319
330
A26E
100
AcDbEntity
  8
1
  6
Continuous
100
AcDbCircle
 10
192.731456
 20
312.291575
 30
0.0
 40
0.5
100
AcDbArc
 50
90.00000500000002
 51
180.0
  0
ARC
  5
A31A
330
A26E
100
AcDbEntity
  8
1
  6
Continuous
100
AcDbCircle
 10
191.1314549999999
 20
313.8915729999999
 30
0.0
 40
8.0
100
AcDbArc
 50
105.962102
 51
164.0389099999999
  0
ARC
  5
A31B
330
A26E
100
AcDbEntity
  8
1
  6
Continuous
100
AcDbCircle
 10
191.1314549999999
 20
313.8915729999999
 30
0.0
 40
8.0
100
AcDbArc
 50
195.96204
 51
254.0389499999998
  0
ARC
  5
A31C
330
A26E
100
AcDbEntity
  8
1
  6
Continuous
100
AcDbCircle
 10
191.1314549999999
 20
313.8915729999999
 30
0.0
 40
8.0
100
AcDbArc
 50
285.9620599999999
 51
344.0390299999998
  0
ARC
  5
A31D
330
A26E
100
AcDbEntity
  8
1
  6
Continuous
100
AcDbCircle
 10
185.736138
 20
311.8226069999999
 30
0.0
 40
2.299999999999998
100
AcDbArc
 50
115.900792
 51
183.2629599999999
  0
ARC
  5
A31E
330
A26E
100
AcDbEntity
  8
1
  6
Continuous
100
AcDbCircle
 10
185.736141
 20
315.9605429999998
 30
0.0
 40
2.299999999999998
100
AcDbArc
 50
176.7370399999999
 51
244.0992099999998
  0
ARC
  5
A31F
330
A26E
100
AcDbEntity
  8
1
  6
Continuous
100
AcDbCircle
 10
189.062488
 20
319.286891
 30
0.0
 40
2.299999999999998
100
AcDbArc
 50
25.90079
 51
93.26296000000002
  0
ARC
  5
A320
330
A26E
100
AcDbEntity
  8
1
  6
Continuous
100
AcDbCircle
 10
193.200427
 20
319.2868899999998
 30
0.0
 40
2.299999999999998
100
AcDbArc
 50
86.73704200000001
 51
154.0992099999999
  0
ARC
  5
A321
330
A26E
100
AcDbEntity
  8
1
  6
Continuous
100
AcDbCircle
 10
196.5267729999999
 20
315.9605399999998
 30
0.0
 40
2.299999999999998
100
AcDbArc
 50
295.9008
 51
3.262959999999998
  0
ARC
  5
A322
330
A26E
100
AcDbEntity
  8
1
  6
Continuous
100
AcDbCircle
 10
196.5267719999999
 20
311.822602
 30
0.0
 40
2.299999999999998
100
AcDbArc
 50
356.7370499999999
 51
64.09921700000001
  0
ARC
  5
A323
330
A26E
100
AcDbEntity
  8
1
  6
Continuous
100
AcDbCircle
 10
193.2004219999998
 20
308.496256
 30
0.0
 40
2.299999999999998
100
AcDbArc
 50
205.90079
 51
273.2629499999998
  0
ARC
  5
A324
330
A26E
100
AcDbEntity
  8
1
  6
Continuous
100
AcDbCircle
 10
189.0624829999999
 20
308.4962569999999
 30
0.0
 40
2.299999999999998
100
AcDbArc
 50
266.73705
 51
334.09922
  0
ARC
  5
A325
330
A26E
100
AcDbEntity
  8
1
  6
Continuous
100
AcDbCircle
 10
49.903867
 20
226.5665779999999
 30
0.0
 40
3.174999999999998
100
AcDbArc
 50
330.26016
 51
348.7328699999998
  0
ARC
  5
A326
330
A26E
100
AcDbEntity
  8
1
  6
Continuous
100
AcDbCircle
 10
62.359102
 20
226.5665779999999
 30
0.0
 40
3.174999999999998
100
AcDbArc
 50
330.26016
 51
0.0
  0
ARC
  5
A327
330
A26E
100
AcDbEntity
  8
1
  6
Continuous
100
AcDbCircle
 10
184.903872
 20
226.5665779999999
 30
0.0
 40
3.174999999999998
100
AcDbArc
 50
330.26013
 51
348.7328699999998
  0
ARC
  5
A328
330
A26E
100
AcDbEntity
  8
1
  6
Continuous
100
AcDbCircle
 10
197.359102
 20
226.5665779999999
 30
0.0
 40
3.174999999999998
100
AcDbArc
 50
330.26013
 51
0.0
  0
ARC
  5
A329
330
A26E
100
AcDbEntity
  8
1
  6
Continuous
100
AcDbCircle
 10
209.930304
 20
209.9915779999999
 30
0.0
 40
8.0
100
AcDbArc
 50
89.99998199999996
 51
142.0488399999999
  0
ARC
  5
A32A
330
A26E
100
AcDbEntity
  8
1
  6
Continuous
100
AcDbCircle
 10
169.431486
 20
221.4915779999997
 30
0.0
 40
3.5
100
AcDbArc
 50
89.99998199999996
 51
179.9999599999999
  0
ARC
  5
A32B
330
A26E
100
AcDbEntity
  8
1
  6
Continuous
100
AcDbCircle
 10
170.131487
 20
184.89158
 30
0.0
 40
8.5
100
AcDbArc
 50
174.3469299999999
 51
322.76679
  0
ARC
  5
A32C
330
A26E
100
AcDbEntity
  8
1
  6
Continuous
100
AcDbCircle
 10
179.406122
 20
212.601114
 30
0.0
 40
15.0
100
AcDbArc
 50
153.9367
 51
174.3469299999999
  0
ARC
  5
A32D
330
A26E
100
AcDbEntity
  8
1
  6
Continuous
100
AcDbCircle
 10
69.63148699999999
 20
221.1915789999999
 30
0.0
 40
1.0
100
AcDbArc
 50
101.96231
 51
270.0
  0
ARC
  5
A32E
330
A26E
100
AcDbEntity
  8
1
  6
Continuous
100
AcDbCircle
 10
72.88148699999998
 20
221.3915799999998
 30
0.0
 40
1.199999999999999
100
AcDbArc
 50
270.00002
 51
99.88999300000001
  0
ARC
  5
A32F
330
A26E
100
AcDbEntity
  8
1
  6
Continuous
100
AcDbCircle
 10
62.43190999999999
 20
214.291891
 30
0.0
 40
12.0
100
AcDbArc
 50
0.0
 51
29.44848
  0
ARC
  5
A330
330
A26E
100
AcDbEntity
  8
1
  6
Continuous
100
AcDbCircle
 10
60.13885699999999
 20
214.6121839999999
 30
0.0
 40
12.0
100
AcDbArc
 50
357.9913499999999
 51
19.77081799999998
  0
ARC
  5
A331
330
A26E
100
AcDbEntity
  8
1
  6
Continuous
100
AcDbCircle
 10
73.56956700000002
 20
202.6041769999999
 30
0.0
 40
20.0
100
AcDbArc
 50
92.09751899999998
 51
101.96228
  0
ARC
  5
A332
330
A26E
100
AcDbEntity
  8
1
  6
Continuous
100
AcDbCircle
 10
71.80817600000001
 20
228.6641939999999
 30
0.0
 40
10.0
100
AcDbArc
 50
242.15877
 51
267.84121
  0
ARC
  5
A333
330
A26E
100
AcDbEntity
  8
1
  6
Continuous
100
AcDbCircle
 10
42.631487
 20
221.1915789999999
 30
0.0
 40
1.0
100
AcDbArc
 50
269.9999599999998
 51
78.03765700000003
  0
ARC
  5
A334
330
A26E
100
AcDbEntity
  8
1
  6
Continuous
100
AcDbCircle
 10
39.381487
 20
221.3915799999998
 30
0.0
 40
1.199999999999999
100
AcDbArc
 50
80.109971
 51
269.99995
  0
ARC
  5
A335
330
A26E
100
AcDbEntity
  8
1
  6
Continuous
100
AcDbCircle
 10
49.831067
 20
214.291891
 30
0.0
 40
12.0
100
AcDbArc
 50
150.55148
 51
179.9999599999999
  0
ARC
  5
A336
330
A26E
100
AcDbEntity
  8
1
  6
Continuous
100
AcDbCircle
 10
52.124117
 20
214.6121839999999
 30
0.0
 40
12.0
100
AcDbArc
 50
160.2291499999997
 51
182.00861
  0
ARC
  5
A337
330
A26E
100
AcDbEntity
  8
1
  6
Continuous
100
AcDbCircle
 10
38.693407
 20
202.6041769999999
 30
0.0
 40
20.0
100
AcDbArc
 50
78.037684
 51
87.902445
  0
ARC
  5
A338
330
A26E
100
AcDbEntity
  8
1
  6
Continuous
100
AcDbCircle
 10
40.454797
 20
228.6641939999999
 30
0.0
 40
10.0
100
AcDbArc
 50
272.15877
 51
297.8412099999999
  0
ARC
  5
A339
330
A26E
100
AcDbEntity
  8
1
  6
Continuous
100
AcDbCircle
 10
77.13148699999995
 20
221.4915779999997
 30
0.0
 40
3.5
100
AcDbArc
 50
0.0
 51
89.99998199999996
  0
ARC
  5
A33A
330
A26E
100
AcDbEntity
  8
1
  6
Continuous
100
AcDbCircle
 10
35.13149699999999
 20
221.4915779999997
 30
0.0
 40
3.5
100
AcDbArc
 50
89.99998199999996
 51
179.9999599999999
  0
ARC
  5
A33B
330
A26E
100
AcDbEntity
  8
1
  6
Continuous
100
AcDbCircle
 10
70.83149899999998
 20
198.490701
 30
0.0
 40
9.8
100
AcDbArc
 50
306.4646
 51
359.91775
  0
ARC
  5
A33C
330
A26E
100
AcDbEntity
  8
1
  6
Continuous
100
AcDbCircle
 10
41.431477
 20
198.490701
 30
0.0
 40
9.8
100
AcDbArc
 50
180.08223
 51
238.3562799999999
  0
LINE
  5
A33D
330
A26E
100
AcDbEntity
  8
1
  6
Continuous
100
AcDbLine
 10
47.574443
 20
220.3695259999999
 30
0.0
 11
64.68853100000001
 21
220.3695259999999
 31
0.0
  0
LINE
  5
A33E
330
A26E
100
AcDbEntity
  8
4
  6
CENTER
 48
0.8
100
AcDbLine
 10
170.131487
 20
345.8915799999999
 30
0.0
 11
170.131487
 21
281.8915799999999
 31
0.0
  0
LINE
  5
A33F
330
A26E
100
AcDbEntity
  8
4
  6
CENTER
 48
0.8
100
AcDbLine
 10
132.6314869999998
 20
70.89158000000002
 30
0.0
 11
227.822397
 21
70.89158000000002
 31
0.0
  0
LINE
  5
A340
330
A26E
100
AcDbEntity
  8
1
  6
Continuous
100
AcDbLine
 10
163.6314889999999
 20
41.89157999999999
 30
0.0
 11
218.6314869999999
 21
41.89157999999999
 31
0.0
  0
LINE
  5
A341
330
A26E
100
AcDbEntity
  8
1
  6
Continuous
100
AcDbLine
 10
163.6314849999999
 20
99.89158000000001
 30
0.0
 11
218.6314869999999
 21
99.89158000000001
 31
0.0
  0
LINE
  5
A342
330
A26E
100
AcDbEntity
  8
4
  6
CENTER
 48
0.8
100
AcDbLine
 10
170.131487
 20
38.89157999999999
 30
0.0
 11
170.131487
 21
102.89158
 31
0.0
  0
LINE
  5
A343
330
A26E
100
AcDbEntity
  8
4
  6
CENTER
 48
0.8
100
AcDbLine
 10
191.1314869999999
 20
36.89157999999999
 30
0.0
 11
191.1314869999999
 21
104.89158
 31
0.0
  0
ARC
  5
A344
330
A26E
100
AcDbEntity
  8
1
  6
Continuous
100
AcDbCircle
 10
95.44057700000001
 20
70.89157199999998
 30
0.0
 40
64.0
100
AcDbArc
 50
342.5003929999998
 51
348.7370279999999
  0
LINE
  5
A345
330
A26E
100
AcDbEntity
  8
4
  6
CENTER
 48
0.8
100
AcDbLine
 10
157.631487
 20
91.89158
 30
0.0
 11
169.631485
 21
91.89158
 31
0.0
  0
ARC
  5
A346
330
A26E
100
AcDbEntity
  8
1
  6
Continuous
100
AcDbCircle
 10
163.6314849999999
 20
92.39158000000001
 30
0.0
 40
7.5
100
AcDbArc
 50
90.00004999999999
 51
197.49958
  0
ARC
  5
A347
330
A26E
100
AcDbEntity
  8
1
  6
Continuous
100
AcDbCircle
 10
163.6314849999999
 20
91.89158
 30
0.0
 40
4.4
100
AcDbArc
 50
6.524873999999998
 51
242.964337
  0
LINE
  5
A348
330
A26E
100
AcDbEntity
  8
4
  6
CENTER
 48
0.8
100
AcDbLine
 10
163.6314869999999
 20
85.89158000000002
 30
0.0
 11
163.6314869999999
 21
97.89158
 31
0.0
  0
LINE
  5
A349
330
A26E
100
AcDbEntity
  8
4
  6
CENTER
 48
0.8
100
AcDbLine
 10
157.631487
 20
49.89157999999999
 30
0.0
 11
169.631489
 21
49.89157999999999
 31
0.0
  0
ARC
  5
A34A
330
A26E
100
AcDbEntity
  8
1
  6
Continuous
100
AcDbCircle
 10
163.6314889999999
 20
49.89157999999999
 30
0.0
 40
4.4
100
AcDbArc
 50
117.0357189999999
 51
9.154132999999999
  0
ARC
  5
A34B
330
A26E
100
AcDbEntity
  8
1
  6
Continuous
100
AcDbCircle
 10
163.6314889999999
 20
49.39157999999999
 30
0.0
 40
7.5
100
AcDbArc
 50
162.5003799999998
 51
270.0000039999998
  0
LINE
  5
A34C
330
A26E
100
AcDbEntity
  8
4
  6
CENTER
 48
0.8
100
AcDbLine
 10
163.6314869999999
 20
55.89158000000001
 30
0.0
 11
163.6314869999999
 21
43.89158
 31
0.0
  0
ARC
  5
A34D
330
A26E
100
AcDbEntity
  8
1
  6
Continuous
100
AcDbCircle
 10
286.822397
 20
70.89158799999998
 30
0.0
 40
64.0
100
AcDbArc
 50
162.5003799999998
 51
197.49961
  0
ARC
  5
A34E
330
A26E
100
AcDbEntity
  8
1
  6
Continuous
100
AcDbCircle
 10
218.6314869999999
 20
92.39158000000001
 30
0.0
 40
7.5
100
AcDbArc
 50
342.50042
 51
89.99996999999996
  0
CIRCLE
  5
A34F
330
A26E
100
AcDbEntity
  8
1
  6
Continuous
100
AcDbCircle
 10
218.6314869999999
 20
91.89158
 30
0.0
 40
4.4
  0
LINE
  5
A350
330
A26E
100
AcDbEntity
  8
4
  6
CENTER
 48
0.8
100
AcDbLine
 10
224.6314869999999
 20
91.89158
 30
0.0
 11
212.6314869999999
 21
91.89158
 31
0.0
  0
LINE
  5
A351
330
A26E
100
AcDbEntity
  8
4
  6
CENTER
 48
0.8
100
AcDbLine
 10
218.6314869999999
 20
85.89158000000002
 30
0.0
 11
218.6314869999999
 21
97.89158
 31
0.0
  0
CIRCLE
  5
A352
330
A26E
100
AcDbEntity
  8
1
  6
Continuous
100
AcDbCircle
 10
218.6314869999999
 20
49.89157999999999
 30
0.0
 40
4.4
  0
LINE
  5
A353
330
A26E
100
AcDbEntity
  8
4
  6
CENTER
 48
0.8
100
AcDbLine
 10
224.6314869999999
 20
49.89157999999999
 30
0.0
 11
212.6314869999999
 21
49.89157999999999
 31
0.0
  0
ARC
  5
A354
330
A26E
100
AcDbEntity
  8
1
  6
Continuous
100
AcDbCircle
 10
218.6314869999999
 20
49.39157999999999
 30
0.0
 40
7.5
100
AcDbArc
 50
270.0000039999998
 51
17.49963
  0
LINE
  5
A355
330
A26E
100
AcDbEntity
  8
4
  6
CENTER
 48
0.8
100
AcDbLine
 10
218.6314869999999
 20
55.89158000000001
 30
0.0
 11
218.6314869999999
 21
43.89158
 31
0.0
  0
LINE
  5
A356
330
A26E
100
AcDbEntity
  8
1
  6
Continuous
100
AcDbLine
 10
161.631487
 20
52.59158000000001
 30
0.0
 11
183.403601
 21
52.59158000000001
 31
0.0
  0
LINE
  5
A357
330
A26E
100
AcDbEntity
  8
1
  6
Continuous
100
AcDbLine
 10
161.631487
 20
54.89157999999999
 30
0.0
 11
182.0236279999997
 21
54.89157999999999
 31
0.0
  0
ARC
  5
A358
330
A26E
100
AcDbEntity
  8
1
  6
Continuous
100
AcDbCircle
 10
165.9549199999998
 20
52.09158
 30
0.0
 40
1.5
100
AcDbArc
 50
178.051186
 51
269.9999599999998
  0
LINE
  5
A359
330
A26E
100
AcDbEntity
  8
1
  6
Continuous
100
AcDbLine
 10
164.4557969999999
 20
52.14256999999999
 30
0.0
 11
166.131479
 21
52.59157
 31
0.0
  0
LINE
  5
A35A
330
A26E
100
AcDbEntity
  8
1
  6
Continuous
100
AcDbLine
 10
166.1314869999999
 20
54.89157999999999
 30
0.0
 11
166.1314869999999
 21
55.89158000000001
 31
0.0
  0
ARC
  5
A35B
330
A26E
100
AcDbEntity
  8
1
  6
Continuous
100
AcDbCircle
 10
174.308031
 20
52.09158
 30
0.0
 40
1.5
100
AcDbArc
 50
269.99998
 51
1.94882
  0
LINE
  5
A35C
330
A26E
100
AcDbEntity
  8
1
  6
Continuous
100
AcDbLine
 10
175.807161
 20
52.14259000000001
 30
0.0
 11
174.131487
 21
52.59158000000001
 31
0.0
  0
LINE
  5
A35D
330
A26E
100
AcDbEntity
  8
1
  6
Continuous
100
AcDbLine
 10
174.131487
 20
54.89157999999999
 30
0.0
 11
174.131487
 21
55.89158000000001
 31
0.0
  0
LINE
  5
A35E
330
A26E
100
AcDbEntity
  8
1
  6
Continuous
100
AcDbLine
 10
175.8071689999999
 20
52.14255
 30
0.0
 11
164.4557899999998
 21
52.14255
 31
0.0
  0
LINE
  5
A35F
330
A26E
100
AcDbEntity
  8
1
  6
Continuous
100
AcDbLine
 10
165.9549199999998
 20
50.59158
 30
0.0
 11
174.308031
 21
50.59158
 31
0.0
  0
LINE
  5
A360
330
A26E
100
AcDbEntity
  8
1
  6
Continuous
100
AcDbLine
 10
161.631487
 20
86.89158
 30
0.0
 11
182.06533
 21
86.89158
 31
0.0
  0
LINE
  5
A361
330
A26E
100
AcDbEntity
  8
1
  6
Continuous
100
AcDbLine
 10
161.631487
 20
89.19158299999997
 30
0.0
 11
183.403602
 21
89.19158299999997
 31
0.0
  0
LINE
  5
A362
330
A26E
100
AcDbEntity
  8
1
  6
Continuous
100
AcDbLine
 10
164.1314869999999
 20
89.191575
 30
0.0
 11
164.1314869999999
 21
90.391572
 31
0.0
  0
LINE
  5
A363
330
A26E
100
AcDbEntity
  8
1
  6
Continuous
100
AcDbLine
 10
176.1314869999999
 20
89.191575
 30
0.0
 11
176.1314869999999
 21
90.391572
 31
0.0
  0
LINE
  5
A364
330
A26E
100
AcDbEntity
  8
1
  6
Continuous
100
AcDbLine
 10
166.1314869999999
 20
85.89158000000002
 30
0.0
 11
166.1314869999999
 21
86.89158
 31
0.0
  0
LINE
  5
A365
330
A26E
100
AcDbEntity
  8
1
  6
Continuous
100
AcDbLine
 10
174.131487
 20
85.89158000000002
 30
0.0
 11
174.131487
 21
86.89158
 31
0.0
  0
ARC
  5
A366
330
A26E
100
AcDbEntity
  8
1
  6
Continuous
100
AcDbCircle
 10
166.1314869999999
 20
90.391572
 30
0.0
 40
2.0
100
AcDbArc
 50
90.0
 51
179.999982
  0
ARC
  5
A367
330
A26E
100
AcDbEntity
  8
1
  6
Continuous
100
AcDbCircle
 10
174.131487
 20
90.391572
 30
0.0
 40
2.0
100
AcDbArc
 50
0.00002
 51
90.0
  0
LINE
  5
A368
330
A26E
100
AcDbEntity
  8
1
  6
Continuous
100
AcDbLine
 10
166.1314869999999
 20
92.39157199999999
 30
0.0
 11
174.131487
 21
92.39157199999999
 31
0.0
  0
ARC
  5
A369
330
A26E
100
AcDbEntity
  8
1
  6
Continuous
100
AcDbCircle
 10
95.44057700000001
 20
70.89157199999998
 30
0.0
 40
64.0
100
AcDbArc
 50
11.26298699999999
 51
17.49963
  0
LINE
  5
A36A
330
A26E
100
AcDbEntity
  8
1
  6
Continuous
100
AcDbLine
 10
161.631487
 20
89.19158299999997
 30
0.0
 11
161.631487
 21
86.89158
 31
0.0
  0
LINE
  5
A36B
330
A26E
100
AcDbEntity
  8
1
  6
Continuous
100
AcDbLine
 10
161.631487
 20
54.89157999999999
 30
0.0
 11
161.631487
 21
52.59158000000001
 31
0.0
  0
ARC
  5
A36C
330
A26E
100
AcDbEntity
  8
1
  6
Continuous
100
AcDbCircle
 10
191.1314869999999
 20
70.89158000000002
 30
0.0
 40
26.24999600000001
100
AcDbArc
 50
230.6211989999999
 51
126.7635509999997
  0
ARC
  5
A36D
330
A26E
100
AcDbEntity
  8
1
  6
Continuous
100
AcDbCircle
 10
191.1314869999999
 20
70.89158000000002
 30
0.0
 40
20.40000099999998
100
AcDbArc
 50
256.974435
 51
103.0255649999999
  0
ARC
  5
A36E
330
A26E
100
AcDbEntity
  8
1
  6
Continuous
100
AcDbCircle
 10
191.1314869999999
 20
70.89158000000002
 30
0.0
 40
13.900001
100
AcDbArc
 50
244.063654
 51
295.936346
  0
ARC
  5
A36F
330
A26E
100
AcDbEntity
  8
1
  6
Continuous
100
AcDbCircle
 10
191.1314869999999
 20
70.89158000000002
 30
0.0
 40
13.900001
100
AcDbArc
 50
321.8458049999998
 51
38.154195
  0
ARC
  5
A370
330
A26E
100
AcDbEntity
  8
1
  6
Continuous
100
AcDbCircle
 10
288.1314949999998
 20
180.89158
 30
0.0
 40
2.0
100
AcDbArc
 50
180.0
 51
269.99998
  0
LINE
  5
A371
330
A26E
100
AcDbEntity
  8
1
  6
Continuous
100
AcDbLine
 10
289.331484
 20
189.1260139999999
 30
0.0
 11
289.331484
 21
176.39158
 31
0.0
  0
LINE
  5
A372
330
A26E
100
AcDbEntity
  8
1
  6
Continuous
100
AcDbLine
 10
291.6314869999999
 20
217.9915779999999
 30
0.0
 11
291.6314869999999
 21
176.39158
 31
0.0
  0
LINE
  5
A373
330
A26E
100
AcDbEntity
  8
1
  6
Continuous
100
AcDbLine
 10
326.380477
 20
179.2159059999999
 30
0.0
 11
325.931487
 21
180.89158
 31
0.0
  0
ARC
  5
A374
330
A26E
100
AcDbEntity
  8
1
  6
Continuous
100
AcDbCircle
 10
326.431487
 20
180.7150359999999
 30
0.0
 40
1.5
100
AcDbArc
 50
268.05118
 51
0.00002
  0
LINE
  5
A375
330
A26E
100
AcDbEntity
  8
1
  6
Continuous
100
AcDbLine
 10
326.3805169999999
 20
179.215898
 30
0.0
 11
326.3805169999999
 21
189.9605379999999
 31
0.0
  0
LINE
  5
A376
330
A26E
100
AcDbEntity
  8
1
  6
Continuous
100
AcDbLine
 10
323.631487
 20
217.9915779999999
 30
0.0
 11
323.631487
 21
176.39158
 31
0.0
  0
LINE
  5
A377
330
A26E
100
AcDbEntity
  8
1
  6
Continuous
100
AcDbLine
 10
325.931487
 20
189.126013
 30
0.0
 11
325.931487
 21
176.39158
 31
0.0
  0
LINE
  5
A378
330
A26E
100
AcDbEntity
  8
4
  6
CENTER
 48
0.8
100
AcDbLine
 10
307.631487
 20
237.3915799999998
 30
0.0
 11
307.631487
 21
147.39158
 31
0.0
  0
LINE
  5
A379
330
A26E
100
AcDbEntity
  8
1
  6
Continuous
100
AcDbLine
 10
325.931487
 20
176.39158
 30
0.0
 11
323.631487
 21
176.39158
 31
0.0
  0
LINE
  5
A37A
330
A26E
100
AcDbEntity
  8
1
  6
Continuous
100
AcDbLine
 10
289.3314919999999
 20
178.89158
 30
0.0
 11
288.1314949999998
 21
178.89158
 31
0.0
  0
LINE
  5
A37B
330
A26E
100
AcDbEntity
  8
1
  6
Continuous
100
AcDbLine
 10
291.6314869999999
 20
176.39158
 30
0.0
 11
289.331484
 21
176.39158
 31
0.0
  0
LINE
  5
A37C
330
A26E
100
AcDbEntity
  8
1
  6
Continuous
100
AcDbLine
 10
328.631477
 20
224.9915779999998
 30
0.0
 11
286.631487
 21
224.9915779999998
 31
0.0
  0
LINE
  5
A37D
330
A26E
100
AcDbEntity
  8
4
  6
CENTER
 48
0.8
100
AcDbLine
 10
332.931487
 20
184.89158
 30
0.0
 11
281.1314949999999
 21
184.89158
 31
0.0
  0
LINE
  5
A37E
330
A26E
100
AcDbEntity
  8
1
  6
Continuous
100
AcDbLine
 10
336.631487
 20
232.3915799999999
 30
0.0
 11
278.6314869999998
 21
232.3915799999999
 31
0.0
  0
LINE
  5
A37F
330
A26E
100
AcDbEntity
  8
1
  6
Continuous
100
AcDbLine
 10
336.631487
 20
230.0915809999999
 30
0.0
 11
278.6314869999998
 21
230.0915809999999
 31
0.0
  0
LINE
  5
A380
330
A26E
100
AcDbEntity
  8
1
  6
Continuous
100
AcDbLine
 10
330.0814869999998
 20
226.4915779999999
 30
0.0
 11
285.17836
 21
226.4915779999999
 31
0.0
  0
ARC
  5
A381
330
A26E
100
AcDbEntity
  8
1
  6
Continuous
100
AcDbCircle
 10
328.631477
 20
221.4915779999997
 30
0.0
 40
3.5
100
AcDbArc
 50
0.00004
 51
90.00001800000005
  0
LINE
  5
A382
330
A26E
100
AcDbEntity
  8
1
  6
Continuous
100
AcDbLine
 10
332.131487
 20
221.4915779999997
 30
0.0
 11
332.131487
 21
198.4766309999999
 31
0.0
  0
LINE
  5
A383
330
A26E
100
AcDbEntity
  8
1
  6
Continuous
100
AcDbLine
 10
323.631487
 20
188.89158
 30
0.0
 11
322.6314869999999
 21
188.89158
 31
0.0
  0
LINE
  5
A384
330
A26E
100
AcDbEntity
  8
1
  6
Continuous
100
AcDbLine
 10
323.631487
 20
180.89158
 30
0.0
 11
322.6314869999999
 21
180.89158
 31
0.0
  0
LINE
  5
A385
330
A26E
100
AcDbEntity
  8
1
  6
Continuous
100
AcDbLine
 10
327.931487
 20
189.068147
 30
0.0
 11
327.931487
 21
180.7150359999999
 31
0.0
  0
ARC
  5
A386
330
A26E
100
AcDbEntity
  8
1
  6
Continuous
100
AcDbCircle
 10
311.6388569999998
 20
214.6121839999999
 30
0.0
 40
12.0
100
AcDbArc
 50
357.9913899999998
 51
0.8876280000000001
  0
ARC
  5
A387
330
A26E
100
AcDbEntity
  8
1
  6
Continuous
100
AcDbCircle
 10
330.0814869999998
 20
229.9915799999999
 30
0.0
 40
3.5
100
AcDbArc
 50
269.99998
 51
338.5410699999998
  0
LINE
  5
A388
330
A26E
100
AcDbEntity
  8
1
  6
Continuous
100
AcDbLine
 10
336.631487
 20
232.3915799999999
 30
0.0
 11
336.631487
 21
230.0915809999999
 31
0.0
  0
LINE
  5
A389
330
A26E
100
AcDbEntity
  8
1
  6
Continuous
100
AcDbLine
 10
333.881477
 20
230.091584
 30
0.0
 11
333.3388569999998
 21
228.711164
 31
0.0
  0
ARC
  5
A38A
330
A26E
100
AcDbEntity
  8
1
  6
Continuous
100
AcDbCircle
 10
323.881487
 20
226.566581
 30
0.0
 40
3.174999999999998
100
AcDbArc
 50
330.2600799999999
 51
0.00004
  0
ARC
  5
A38B
330
A26E
100
AcDbEntity
  8
1
  6
Continuous
100
AcDbCircle
 10
313.8591069999999
 20
226.5665779999999
 30
0.0
 40
3.174999999999998
100
AcDbArc
 50
330.2602
 51
0.00004
  0
ARC
  5
A38C
330
A26E
100
AcDbEntity
  8
1
  6
Continuous
100
AcDbCircle
 10
319.1357569999999
 20
226.5665779999999
 30
0.0
 40
3.174999999999998
100
AcDbArc
 50
330.2602
 51
0.00004
  0
ARC
  5
A38D
330
A26E
100
AcDbEntity
  8
1
  6
Continuous
100
AcDbCircle
 10
322.655707
 20
226.5665779999999
 30
0.0
 40
3.174999999999998
100
AcDbArc
 50
330.2602
 51
0.00004
  0
LINE
  5
A38E
330
A26E
100
AcDbEntity
  8
4
  6
CENTER
 48
0.8
100
AcDbLine
 10
328.6314869999998
 20
237.3915799999998
 30
0.0
 11
328.6314869999998
 21
225.0915809999999
 31
0.0
  0
ARC
  5
A38F
330
A26E
100
AcDbEntity
  8
1
  6
Continuous
100
AcDbCircle
 10
307.631487
 20
226.5665779999999
 30
0.0
 40
3.174999999999998
100
AcDbArc
 50
180.0
 51
209.7398399999999
  0
ARC
  5
A390
330
A26E
100
AcDbEntity
  8
1
  6
Continuous
100
AcDbCircle
 10
301.4038719999998
 20
226.5665779999999
 30
0.0
 40
3.174999999999998
100
AcDbArc
 50
330.2601899999999
 51
348.7328699999998
  0
ARC
  5
A391
330
A26E
100
AcDbEntity
  8
1
  6
Continuous
100
AcDbCircle
 10
307.631487
 20
226.5665779999999
 30
0.0
 40
3.174999999999998
100
AcDbArc
 50
330.2602
 51
0.00004
  0
ARC
  5
A392
330
A26E
100
AcDbEntity
  8
1
  6
Continuous
100
AcDbCircle
 10
313.8591069999999
 20
226.5665779999999
 30
0.0
 40
3.174999999999998
100
AcDbArc
 50
191.2671299999999
 51
209.7398399999999
  0
ARC
  5
A393
330
A26E
100
AcDbEntity
  8
1
  6
Continuous
100
AcDbCircle
 10
286.631487
 20
221.4915779999997
 30
0.0
 40
3.5
100
AcDbArc
 50
90.00001800000005
 51
180.0
  0
LINE
  5
A394
330
A26E
100
AcDbEntity
  8
1
  6
Continuous
100
AcDbLine
 10
283.1314869999999
 20
221.4915779999997
 30
0.0
 11
283.1314869999999
 21
198.375877
 31
0.0
  0
LINE
  5
A395
330
A26E
100
AcDbEntity
  8
1
  6
Continuous
100
AcDbLine
 10
292.631487
 20
188.89158
 30
0.0
 11
291.6314869999999
 21
188.89158
 31
0.0
  0
ARC
  5
A396
330
A26E
100
AcDbEntity
  8
1
  6
Continuous
100
AcDbCircle
 10
288.1314949999998
 20
188.89158
 30
0.0
 40
2.0
100
AcDbArc
 50
165.9866089999999
 51
180.0
  0
LINE
  5
A397
330
A26E
100
AcDbEntity
  8
1
  6
Continuous
100
AcDbLine
 10
292.631487
 20
180.89158
 30
0.0
 11
291.6314869999999
 21
180.89158
 31
0.0
  0
LINE
  5
A398
330
A26E
100
AcDbEntity
  8
1
  6
Continuous
100
AcDbLine
 10
286.1314949999998
 20
188.89158
 30
0.0
 11
286.1314949999998
 21
180.89158
 31
0.0
  0
ARC
  5
A399
330
A26E
100
AcDbEntity
  8
1
  6
Continuous
100
AcDbCircle
 10
285.1814899999999
 20
229.991577
 30
0.0
 40
3.5
100
AcDbArc
 50
201.4589799999999
 51
269.99998
  0
ARC
  5
A39A
330
A26E
100
AcDbEntity
  8
1
  6
Continuous
100
AcDbCircle
 10
291.3814869999999
 20
226.566581
 30
0.0
 40
3.174999999999998
100
AcDbArc
 50
180.0
 51
209.7399499999999
  0
ARC
  5
A39B
330
A26E
100
AcDbEntity
  8
1
  6
Continuous
100
AcDbCircle
 10
296.1272149999998
 20
226.5665779999999
 30
0.0
 40
3.174999999999998
100
AcDbArc
 50
180.0
 51
209.7398399999999
  0
ARC
  5
A39C
330
A26E
100
AcDbEntity
  8
1
  6
Continuous
100
AcDbCircle
 10
292.6072709999999
 20
226.5665779999999
 30
0.0
 40
3.174999999999998
100
AcDbArc
 50
180.0
 51
209.7398399999999
  0
ARC
  5
A39D
330
A26E
100
AcDbEntity
  8
1
  6
Continuous
100
AcDbCircle
 10
301.4038719999998
 20
226.5665779999999
 30
0.0
 40
3.174999999999998
100
AcDbArc
 50
180.0
 51
209.7398399999999
  0
LINE
  5
A39E
330
A26E
100
AcDbEntity
  8
4
  6
CENTER
 48
0.8
100
AcDbLine
 10
286.631487
 20
237.3915799999998
 30
0.0
 11
286.631487
 21
225.0915809999999
 31
0.0
  0
LINE
  5
A39F
330
A26E
100
AcDbEntity
  8
1
  6
Continuous
100
AcDbLine
 10
278.6314869999998
 20
232.3915799999999
 30
0.0
 11
278.6314869999998
 21
230.0915809999999
 31
0.0
  0
LINE
  5
A3A0
330
A26E
100
AcDbEntity
  8
1
  6
Continuous
100
AcDbLine
 10
281.3814869999998
 20
230.091574
 30
0.0
 11
281.924105
 21
228.7111529999999
 31
0.0
  0
LINE
  5
A3A1
330
A26E
100
AcDbEntity
  8
1
  6
Continuous
100
AcDbLine
 10
289.427037
 20
217.9915779999999
 30
0.0
 11
325.8359369999999
 21
217.9915779999999
 31
0.0
  0
ARC
  5
A3A2
330
A26E
100
AcDbEntity
  8
1
  6
Continuous
100
AcDbCircle
 10
191.1314869999999
 20
70.89158000000002
 30
0.0
 40
13.900001
100
AcDbArc
 50
64.063654
 51
115.936346
  0
LINE
  5
A3A3
330
A26E
100
AcDbEntity
  8
1
  6
Continuous
100
AcDbLine
 10
174.6314869999999
 20
219.235807
 30
0.0
 11
174.6314869999999
 21
198.3569199999998
 31
0.0
  0
ARC
  5
A3A4
330
A26E
100
AcDbEntity
  8
1
  6
Continuous
100
AcDbCircle
 10
183.6314869999999
 20
198.3569199999998
 30
0.0
 40
9.0
100
AcDbArc
 50
179.9999799999999
 51
273.71945
  0
LINE
  5
A3A5
330
A26E
100
AcDbEntity
  8
1
  6
Continuous
100
AcDbLine
 10
215.631487
 20
221.4915779999997
 30
0.0
 11
215.631487
 21
217.9915779999999
 31
0.0
  0
ARC
  5
A3A6
330
A26E
100
AcDbEntity
  8
1
  6
Continuous
100
AcDbCircle
 10
212.1314869999999
 20
221.4915779999997
 30
0.0
 40
3.5
100
AcDbArc
 50
0.0
 51
90.0
  0
ARC
  5
A3A7
330
A26E
100
AcDbEntity
  8
1
  6
Continuous
100
AcDbCircle
 10
322.9875369999998
 20
198.4766309999999
 30
0.0
 40
39.85605000000001
100
AcDbArc
 50
152.440318
 51
180.013473
  0
ARC
  5
A3A8
330
A26E
100
AcDbEntity
  8
1
  6
Continuous
100
AcDbCircle
 10
322.9875369999998
 20
198.4766309999999
 30
0.0
 40
37.55605
100
AcDbArc
 50
148.693106
 51
180.014298
  0
ARC
  5
A3A9
330
A26E
100
AcDbEntity
  8
1
  6
Continuous
100
AcDbCircle
 10
292.275437
 20
198.4766309999999
 30
0.0
 40
37.55605
100
AcDbArc
 50
359.733893
 51
31.306894
  0
ARC
  5
A3AA
330
A26E
100
AcDbEntity
  8
1
  6
Continuous
100
AcDbCircle
 10
292.275437
 20
198.4766309999999
 30
0.0
 40
39.85605000000001
100
AcDbArc
 50
359.72401
 51
27.55968199999999
  0
ARC
  5
A3AB
330
A26E
100
AcDbEntity
  8
1
  6
Continuous
100
AcDbCircle
 10
445.131487
 20
184.89158
 30
0.0
 40
8.5
100
AcDbArc
 50
217.23321
 51
5.653069999999998
  0
LINE
  5
A3AC
330
A26E
100
AcDbEntity
  8
4
  6
CENTER
 48
0.8
100
AcDbLine
 10
445.131487
 20
219.8915819999998
 30
0.0
 11
445.131487
 21
147.39158
 31
0.0
  0
LINE
  5
A3AD
330
A26E
100
AcDbEntity
  8
4
  6
CENTER
 48
0.8
100
AcDbLine
 10
482.6314869999998
 20
184.89158
 30
0.0
 11
407.631487
 21
184.89158
 31
0.0
  0
LINE
  5
A3AE
330
A26E
100
AcDbEntity
  8
1
  6
Continuous
100
AcDbLine
 10
438.3639599999998
 20
179.7485669999999
 30
0.0
 11
411.641743
 21
214.911494
 31
0.0
  0
LINE
  5
A3AF
330
A26E
100
AcDbEntity
  8
1
  6
Continuous
100
AcDbLine
 10
445.8314879999998
 20
224.9915779999998
 30
0.0
 11
403.131487
 21
224.9915779999998
 31
0.0
  0
LINE
  5
A3B0
330
A26E
100
AcDbEntity
  8
1
  6
Continuous
100
AcDbLine
 10
446.5814879999999
 20
226.4915779999999
 30
0.0
 11
401.678356
 21
226.4915779999999
 31
0.0
  0
LINE
  5
A3B1
330
A26E
100
AcDbEntity
  8
1
  6
Continuous
100
AcDbLine
 10
459.1314869999997
 20
230.0915809999999
 30
0.0
 11
389.131487
 21
230.0915809999999
 31
0.0
  0
LINE
  5
A3B2
330
A26E
100
AcDbEntity
  8
1
  6
Continuous
100
AcDbLine
 10
459.1314869999997
 20
232.3915799999999
 30
0.0
 11
389.131487
 21
232.3915799999999
 31
0.0
  0
ARC
  5
A3B3
330
A26E
100
AcDbEntity
  8
1
  6
Continuous
100
AcDbCircle
 10
449.374748
 20
224.4245339999999
 30
0.0
 40
5.0
100
AcDbArc
 50
209.1702399999998
 51
269.50427
  0
LINE
  5
A3B4
330
A26E
100
AcDbEntity
  8
1
  6
Continuous
100
AcDbLine
 10
449.3314879999998
 20
221.4915779999997
 30
0.0
 11
449.3314879999998
 21
219.191577
 31
0.0
  0
LINE
  5
A3B5
330
A26E
100
AcDbEntity
  8
4
  6
CENTER
 48
0.8
100
AcDbLine
 10
424.131487
 20
237.3915799999998
 30
0.0
 11
424.131487
 21
191.2811979999999
 31
0.0
  0
CIRCLE
  5
A3B6
330
A26E
100
AcDbEntity
  8
1
  6
Continuous
100
AcDbCircle
 10
445.131487
 20
184.89158
 30
0.0
 40
6.0
  0
LINE
  5
A3B7
330
A26E
100
AcDbEntity
  8
1
  6
Continuous
100
AcDbLine
 10
453.590148
 20
185.7288719999999
 30
0.0
 11
450.7839009999998
 21
214.078689
 31
0.0
  0
ARC
  5
A3B8
330
A26E
100
AcDbEntity
  8
1
  6
Continuous
100
AcDbCircle
 10
435.8568519999998
 20
212.601114
 30
0.0
 40
15.0
100
AcDbArc
 50
5.653069999999998
 51
26.0633
  0
ARC
  5
A3B9
330
A26E
100
AcDbEntity
  8
1
  6
Continuous
100
AcDbCircle
 10
431.631487
 20
198.3569199999998
 30
0.0
 40
9.0
100
AcDbArc
 50
266.28055
 51
0.00002
  0
LINE
  5
A3BA
330
A26E
100
AcDbEntity
  8
1
  6
Continuous
100
AcDbLine
 10
440.631487
 20
219.235807
 30
0.0
 11
440.631487
 21
198.3569199999998
 31
0.0
  0
ARC
  5
A3BB
330
A26E
100
AcDbEntity
  8
1
  6
Continuous
100
AcDbCircle
 10
446.744373
 20
219.5404579999999
 30
0.0
 40
3.0
100
AcDbArc
 50
30.41605999999999
 51
125.3451639999999
  0
ARC
  5
A3BC
330
A26E
100
AcDbEntity
  8
1
  6
Continuous
100
AcDbCircle
 10
445.8314879999998
 20
221.4915779999997
 30
0.0
 40
3.5
100
AcDbArc
 50
0.00004
 51
90.00001800000005
  0
ARC
  5
A3BD
330
A26E
100
AcDbEntity
  8
1
  6
Continuous
100
AcDbCircle
 10
446.5814879999999
 20
229.9915799999999
 30
0.0
 40
3.5
100
AcDbArc
 50
269.99998
 51
338.5410699999998
  0
LINE
  5
A3BE
330
A26E
100
AcDbEntity
  8
1
  6
Continuous
100
AcDbLine
 10
450.381484
 20
230.091583
 30
0.0
 11
449.8388659999998
 21
228.711163
 31
0.0
  0
LINE
  5
A3BF
330
A26E
100
AcDbEntity
  8
4
  6
CENTER
 48
0.8
100
AcDbLine
 10
451.631487
 20
225.0915809999999
 30
0.0
 11
451.631487
 21
237.3915799999998
 31
0.0
  0
LINE
  5
A3C0
330
A26E
100
AcDbEntity
  8
1
  6
Continuous
100
AcDbLine
 10
459.1314869999997
 20
230.091584
 30
0.0
 11
459.1314869999997
 21
232.391583
 31
0.0
  0
ARC
  5
A3C1
330
A26E
100
AcDbEntity
  8
1
  6
Continuous
100
AcDbCircle
 10
439.155703
 20
226.5665779999999
 30
0.0
 40
3.174999999999998
100
AcDbArc
 50
330.26016
 51
0.00004
  0
ARC
  5
A3C2
330
A26E
100
AcDbEntity
  8
1
  6
Continuous
100
AcDbCircle
 10
435.635758
 20
226.5665779999999
 30
0.0
 40
3.174999999999998
100
AcDbArc
 50
330.26016
 51
0.00004
  0
ARC
  5
A3C3
330
A26E
100
AcDbEntity
  8
1
  6
Continuous
100
AcDbCircle
 10
430.3591019999998
 20
226.5665779999999
 30
0.0
 40
3.174999999999998
100
AcDbArc
 50
330.26016
 51
0.00004
  0
ARC
  5
A3C4
330
A26E
100
AcDbEntity
  8
1
  6
Continuous
100
AcDbCircle
 10
440.3814869999997
 20
226.566581
 30
0.0
 40
3.174999999999998
100
AcDbArc
 50
330.2601099999999
 51
0.00004
  0
ARC
  5
A3C5
330
A26E
100
AcDbEntity
  8
1
  6
Continuous
100
AcDbCircle
 10
417.9038719999998
 20
226.5665779999999
 30
0.0
 40
3.174999999999998
100
AcDbArc
 50
180.0
 51
209.73987
  0
ARC
  5
A3C6
330
A26E
100
AcDbEntity
  8
1
  6
Continuous
100
AcDbCircle
 10
430.3591019999998
 20
226.5665779999999
 30
0.0
 40
3.174999999999998
100
AcDbArc
 50
191.2671299999999
 51
209.73987
  0
ARC
  5
A3C7
330
A26E
100
AcDbEntity
  8
1
  6
Continuous
100
AcDbCircle
 10
424.131487
 20
226.5665779999999
 30
0.0
 40
3.174999999999998
100
AcDbArc
 50
330.26016
 51
0.00004
  0
ARC
  5
A3C8
330
A26E
100
AcDbEntity
  8
1
  6
Continuous
100
AcDbCircle
 10
417.9038719999998
 20
226.5665779999999
 30
0.0
 40
3.174999999999998
100
AcDbArc
 50
330.26015
 51
348.7328699999998
  0
ARC
  5
A3C9
330
A26E
100
AcDbEntity
  8
1
  6
Continuous
100
AcDbCircle
 10
424.131487
 20
226.5665779999999
 30
0.0
 40
3.174999999999998
100
AcDbArc
 50
180.0
 51
209.73987
  0
LINE
  5
A3CA
330
A26E
100
AcDbEntity
  8
1
  6
Continuous
100
AcDbLine
 10
399.6314869999998
 20
221.4915779999997
 30
0.0
 11
399.6314869999998
 21
217.9915779999999
 31
0.0
  0
LINE
  5
A3CB
330
A26E
100
AcDbEntity
  8
1
  6
Continuous
100
AcDbLine
 10
405.33267
 20
217.9915779999999
 30
0.0
 11
399.6314869999998
 21
217.9915779999999
 31
0.0
  0
ARC
  5
A3CC
330
A26E
100
AcDbEntity
  8
1
  6
Continuous
100
AcDbCircle
 10
405.33267
 20
209.9915779999999
 30
0.0
 40
8.0
100
AcDbArc
 50
37.95115999999997
 51
90.00001800000005
  0
ARC
  5
A3CD
330
A26E
100
AcDbEntity
  8
1
  6
Continuous
100
AcDbCircle
 10
403.131487
 20
221.4915779999997
 30
0.0
 40
3.5
100
AcDbArc
 50
90.0
 51
180.0
  0
ARC
  5
A3CE
330
A26E
100
AcDbEntity
  8
1
  6
Continuous
100
AcDbCircle
 10
409.1072709999998
 20
226.5665779999999
 30
0.0
 40
3.174999999999998
100
AcDbArc
 50
180.0
 51
209.73987
  0
ARC
  5
A3CF
330
A26E
100
AcDbEntity
  8
1
  6
Continuous
100
AcDbCircle
 10
412.627215
 20
226.5665779999999
 30
0.0
 40
3.174999999999998
100
AcDbArc
 50
180.0
 51
209.73987
  0
ARC
  5
A3D0
330
A26E
100
AcDbEntity
  8
1
  6
Continuous
100
AcDbCircle
 10
407.881487
 20
226.566581
 30
0.0
 40
3.174999999999998
100
AcDbArc
 50
180.0
 51
209.7399199999999
  0
ARC
  5
A3D1
330
A26E
100
AcDbEntity
  8
1
  6
Continuous
100
AcDbCircle
 10
401.681486
 20
229.991577
 30
0.0
 40
3.5
100
AcDbArc
 50
201.4589799999999
 51
269.99998
  0
LINE
  5
A3D2
330
A26E
100
AcDbEntity
  8
1
  6
Continuous
100
AcDbLine
 10
397.881491
 20
230.0915759999998
 30
0.0
 11
398.4241089999999
 21
228.711155
 31
0.0
  0
LINE
  5
A3D3
330
A26E
100
AcDbEntity
  8
4
  6
CENTER
 48
0.8
100
AcDbLine
 10
396.631487
 20
225.0915809999999
 30
0.0
 11
396.631487
 21
237.3915799999998
 31
0.0
  0
LINE
  5
A3D4
330
A26E
100
AcDbEntity
  8
1
  6
Continuous
100
AcDbLine
 10
389.131487
 20
230.0915779999999
 30
0.0
 11
389.131487
 21
232.3915799999999
 31
0.0
  0
CIRCLE
  5
A3D5
330
A26E
100
AcDbEntity
  8
1
  6
Continuous
100
AcDbCircle
 10
445.131487
 20
184.89158
 30
0.0
 40
2.9
  0
ARC
  5
A3D6
330
A26E
100
AcDbEntity
  8
1
  6
Continuous
100
AcDbCircle
 10
191.1314869999999
 20
70.89158000000002
 30
0.0
 40
24.5
100
AcDbArc
 50
231.1981569999999
 51
127.752001
  0
ARC
  5
A3D7
330
A26E
100
AcDbEntity
  8
1
  6
Continuous
100
AcDbCircle
 10
191.1314869999999
 20
70.89158000000002
 30
0.0
 40
22.2
100
AcDbArc
 50
270.0
 51
90.0
  0
ARC
  5
A3E3
330
A26E
100
AcDbEntity
  8
1
  6
Continuous
100
AcDbCircle
 10
292.1314869999998
 20
198.375877
 30
0.0
 40
9.0
100
AcDbArc
 50
180.0
 51
247.666299
  0
ARC
  5
A3E4
330
A26E
100
AcDbEntity
  8
1
  6
Continuous
100
AcDbCircle
 10
288.1314949999998
 20
188.89158
 30
0.0
 40
2.0
100
AcDbArc
 50
112.450384
 51
180.0
  0
ARC
  5
A3E5
330
A26E
100
AcDbEntity
  8
1
  6
Continuous
100
AcDbCircle
 10
288.331484
 20
189.1260139999999
 30
0.0
 40
1.0
100
AcDbArc
 50
0.0
 51
67.66629899999999
  0
ARC
  5
A3E6
330
A26E
100
AcDbEntity
  8
1
  6
Continuous
100
AcDbCircle
 10
292.1314869999998
 20
198.375877
 30
0.0
 40
6.7
100
AcDbArc
 50
180.0
 51
247.666317
  0
ARC
  5
A3E7
330
A26E
100
AcDbEntity
  8
1
  6
Continuous
100
AcDbCircle
 10
288.3314869999998
 20
189.126013
 30
0.0
 40
3.299999999999998
100
AcDbArc
 50
0.0
 51
67.66631700000001
  0
ARC
  5
A3E8
330
A26E
100
AcDbEntity
  8
1
  6
Continuous
100
AcDbCircle
 10
323.1314869999998
 20
198.375877
 30
0.0
 40
9.0
100
AcDbArc
 50
292.333683
 51
0.0
  0
ARC
  5
A3E9
330
A26E
100
AcDbEntity
  8
1
  6
Continuous
100
AcDbCircle
 10
323.1314869999998
 20
198.375877
 30
0.0
 40
6.7
100
AcDbArc
 50
292.333683
 51
0.0
  0
ARC
  5
A3EA
330
A26E
100
AcDbEntity
  8
1
  6
Continuous
100
AcDbCircle
 10
326.931487
 20
189.126013
 30
0.0
 40
3.299999999999998
100
AcDbArc
 50
112.333683
 51
180.0
  0
ARC
  5
A3EB
330
A26E
100
AcDbEntity
  8
1
  6
Continuous
100
AcDbCircle
 10
326.931487
 20
189.126013
 30
0.0
 40
1.0
100
AcDbArc
 50
112.333683
 51
180.0
  0
ARC
  5
A3EC
330
A26E
100
AcDbEntity
  8
1
  6
Continuous
100
AcDbCircle
 10
326.431487
 20
189.068124
 30
0.0
 40
1.5
100
AcDbArc
 50
359.9999799999998
 51
58.845437
  0
LINE
  5
A3ED
330
A26E
100
AcDbEntity
  8
1
  6
Continuous
100
AcDbLine
 10
326.1670449999998
 20
189.7707049999999
 30
0.0
 11
325.931487
 21
188.89158
 31
0.0
  0
ARC
  5
A3EE
330
A26E
100
AcDbEntity
  8
1
  6
Continuous
100
AcDbCircle
 10
191.13153
 20
88.47538
 30
0.0
 40
6.916199999999999
100
AcDbArc
 50
90.0
 51
167.479065
  0
ARC
  5
A3EF
330
A26E
100
AcDbEntity
  8
1
  6
Continuous
100
AcDbCircle
 10
183.403602
 20
90.19158299999999
 30
0.0
 40
1.0
100
AcDbArc
 50
270.0
 51
347.479065
  0
ARC
  5
A3F0
330
A26E
100
AcDbEntity
  8
1
  6
Continuous
100
AcDbCircle
 10
182.06533
 20
90.19158
 30
0.0
 40
3.299999999999998
100
AcDbArc
 50
270.0
 51
331.964356
  0
ARC
  5
A3F1
330
A26E
100
AcDbEntity
  8
1
  6
Continuous
100
AcDbCircle
 10
191.13153
 20
88.47538
 30
0.0
 40
4.6162
100
AcDbArc
 50
90.0
 51
115.949592
  0
ARC
  5
A3F2
330
A26E
100
AcDbEntity
  8
1
  6
Continuous
100
AcDbCircle
 10
193.1754449999999
 20
84.27535799999999
 30
0.0
 40
9.28715
100
AcDbArc
 50
115.949592
 51
151.964356
  0
ARC
  5
A3F3
330
A26E
100
AcDbEntity
  8
1
  6
Continuous
100
AcDbCircle
 10
182.06533
 20
51.59158
 30
0.0
 40
3.299999999999998
100
AcDbArc
 50
28.035644
 51
90.0
  0
ARC
  5
A3F4
330
A26E
100
AcDbEntity
  8
1
  6
Continuous
100
AcDbCircle
 10
193.1754449999999
 20
57.50780200000001
 30
0.0
 40
9.28715
100
AcDbArc
 50
208.035644
 51
244.050408
  0
ARC
  5
A3F5
330
A26E
100
AcDbEntity
  8
1
  6
Continuous
100
AcDbCircle
 10
191.13153
 20
53.30778000000001
 30
0.0
 40
4.6162
100
AcDbArc
 50
244.050408
 51
270.0
  0
ARC
  5
A3F6
330
A26E
100
AcDbEntity
  8
1
  6
Continuous
100
AcDbCircle
 10
191.13153
 20
53.30778000000001
 30
0.0
 40
6.916199999999999
100
AcDbArc
 50
192.520912
 51
270.0
  0
ARC
  5
A3F7
330
A26E
100
AcDbEntity
  8
1
  6
Continuous
100
AcDbCircle
 10
183.403601
 20
51.59158
 30
0.0
 40
1.0
100
AcDbArc
 50
12.52091199999999
 51
90.0
  0
ARC
  5
A3F8
330
A26E
100
AcDbEntity
  8
1
  6
Continuous
100
AcDbCircle
 10
325.8359369999999
 20
215.9915779999999
 30
0.0
 40
2.0
100
AcDbArc
 50
27.55968199999999
 51
90.0
  0
ARC
  5
A3F9
330
A26E
100
AcDbEntity
  8
1
  6
Continuous
100
AcDbCircle
 10
289.427037
 20
215.9915779999999
 30
0.0
 40
2.0
100
AcDbArc
 50
90.0
 51
152.440318
  0
LINE
  5
A3FA
330
A26E
100
AcDbEntity
  8
1
  6
Continuous
100
AcDbLine
 10
140.5126479999997
 20
301.3915799999998
 30
0.0
 11
158.208003
 21
301.3915799999998
 31
0.0
  0
LINE
  5
A3FB
330
A26E
100
AcDbEntity
  8
1
  6
Continuous
100
AcDbLine
 10
140.5126479999997
 20
326.3915799999998
 30
0.0
 11
158.208007
 21
326.3915799999998
 31
0.0
  0
ARC
  5
A3FC
330
A26E
100
AcDbEntity
  8
1
  6
Continuous
100
AcDbCircle
 10
170.131487
 20
184.89158
 30
0.0
 40
32.5
100
AcDbArc
 50
98.97066399999999
 51
37.605457
  0
ARC
  5
A3FD
330
A26E
100
AcDbEntity
  8
1
  6
Continuous
100
AcDbCircle
 10
170.131487
 20
184.89158
 30
0.0
 40
27.299999
100
AcDbArc
 50
102.487838
 51
34.62589799999999
  0
ARC
  5
A3FE
330
A26E
100
AcDbEntity
  8
1
  6
Continuous
100
AcDbCircle
 10
150.2487999999999
 20
171.391584
 30
0.0
 40
3.5
100
AcDbArc
 50
119.9999899999999
 51
179.9999599999999
  0
ARC
  5
A3FF
330
A26E
100
AcDbEntity
  8
1
  6
Continuous
100
AcDbCircle
 10
170.131487
 20
184.89158
 30
0.0
 40
10.0
100
AcDbArc
 50
142.55858
 51
354.555154
  0
LINE
  5
A400
330
A26E
100
AcDbEntity
  8
1
  6
Continuous
100
AcDbLine
 10
148.4987969999999
 20
174.4226659999999
 30
0.0
 11
157.71142
 21
179.741575
 31
0.0
  0
LINE
  5
A401
330
A26E
100
AcDbEntity
  8
1
  6
Continuous
100
AcDbLine
 10
150.2487969999999
 20
171.3915759999999
 30
0.0
 11
159.46142
 21
176.710486
 31
0.0
  0
ARC
  5
A402
330
A26E
100
AcDbEntity
  8
1
  6
Continuous
100
AcDbCircle
 10
148.4987999999999
 20
174.422674
 30
0.0
 40
3.5
100
AcDbArc
 50
239.9999999999999
 51
299.9999599999998
  0
ARC
  5
A403
330
A26E
100
AcDbEntity
  8
1
  6
Continuous
100
AcDbCircle
 10
157.711428
 20
179.741583
 30
0.0
 40
3.5
100
AcDbArc
 50
299.9999599999998
 51
359.99997
  0
ARC
  5
A404
330
A26E
100
AcDbEntity
  8
1
  6
Continuous
100
AcDbCircle
 10
159.461424
 20
176.710491
 30
0.0
 40
3.5
100
AcDbArc
 50
59.999988
 51
119.9999899999999
  0
LINE
  5
A405
330
A26E
100
AcDbEntity
  8
1
  6
Continuous
100
AcDbLine
 10
191.764208
 20
174.4226859999999
 30
0.0
 11
182.5515839999999
 21
179.7415969999999
 31
0.0
  0
LINE
  5
A406
330
A26E
100
AcDbEntity
  8
1
  6
Continuous
100
AcDbLine
 10
190.0141999999999
 20
171.3915939999999
 30
0.0
 11
180.8015839999999
 21
176.710505
 31
0.0
  0
ARC
  5
A407
330
A26E
100
AcDbEntity
  8
1
  6
Continuous
100
AcDbCircle
 10
190.01417
 20
171.3915719999999
 30
0.0
 40
3.5
100
AcDbArc
 50
359.9999899999998
 51
59.999947
  0
ARC
  5
A408
330
A26E
100
AcDbEntity
  8
1
  6
Continuous
100
AcDbCircle
 10
191.76417
 20
174.422661
 30
0.0
 40
3.5
100
AcDbArc
 50
239.9999999999999
 51
299.9999599999998
  0
ARC
  5
A409
330
A26E
100
AcDbEntity
  8
1
  6
Continuous
100
AcDbCircle
 10
182.551546
 20
179.741578
 30
0.0
 40
3.5
100
AcDbArc
 50
179.9999599999999
 51
239.99998
  0
ARC
  5
A40A
330
A26E
100
AcDbEntity
  8
1
  6
Continuous
100
AcDbCircle
 10
180.801546
 20
176.7104929999999
 30
0.0
 40
3.5
100
AcDbArc
 50
59.999954
 51
119.99996
  0
ARC
  5
A40B
330
A26E
100
AcDbEntity
  8
1
  6
Continuous
100
AcDbCircle
 10
140.5126479999997
 20
303.3915799999998
 30
0.0
 40
2.0
100
AcDbArc
 50
189.594089
 51
270.00002
  0
ARC
  5
A40C
330
A26E
100
AcDbEntity
  8
1
  6
Continuous
100
AcDbCircle
 10
202.6314869999999
 20
313.8915799999998
 30
0.0
 40
65.0
100
AcDbArc
 50
170.405929
 51
189.594089
  0
ARC
  5
A40D
330
A26E
100
AcDbEntity
  8
1
  6
Continuous
100
AcDbCircle
 10
140.5126479999997
 20
324.3915799999998
 30
0.0
 40
2.0
100
AcDbArc
 50
90.0
 51
170.405929
  0
ARC
  5
A40E
330
A26E
100
AcDbEntity
  8
1
  6
Continuous
100
AcDbCircle
 10
56.13148699999999
 20
152.39158
 30
0.0
 40
65.0
100
AcDbArc
 50
80.40592900000001
 51
99.59408899999999
  0
ARC
  5
A40F
330
A26E
100
AcDbEntity
  8
1
  6
Continuous
100
AcDbCircle
 10
56.13148699999999
 20
217.3915799999999
 30
0.0
 40
65.0
100
AcDbArc
 50
260.40591
 51
279.59407
  0
LINE
  5
A410
330
A26E
100
AcDbEntity
  8
1
  6
Continuous
100
AcDbLine
 10
43.63148699999999
 20
214.510419
 30
0.0
 11
43.63148699999999
 21
155.2727409999999
 31
0.0
  0
ARC
  5
A411
330
A26E
100
AcDbEntity
  8
1
  6
Continuous
100
AcDbCircle
 10
45.631487
 20
155.2727409999999
 30
0.0
 40
2.0
100
AcDbArc
 50
179.9999799999999
 51
260.40591
  0
LINE
  5
A412
330
A26E
100
AcDbEntity
  8
1
  6
Continuous
100
AcDbLine
 10
41.13148699999999
 20
193.89158
 30
0.0
 11
41.13148699999999
 21
175.89158
 31
0.0
  0
LINE
  5
A413
330
A26E
100
AcDbEntity
  8
1
  6
Continuous
100
AcDbLine
 10
42.072062
 20
174.893347
 30
0.0
 11
43.63148699999999
 21
174.80051
 31
0.0
  0
ARC
  5
A414
330
A26E
100
AcDbEntity
  8
1
  6
Continuous
100
AcDbCircle
 10
42.131487
 20
175.89158
 30
0.0
 40
1.0
100
AcDbArc
 50
179.9999799999999
 51
266.59299
  0
LINE
  5
A415
330
A26E
100
AcDbEntity
  8
1
  6
Continuous
100
AcDbLine
 10
42.072062
 20
194.8898129999999
 30
0.0
 11
43.63148699999999
 21
194.98265
 31
0.0
  0
ARC
  5
A416
330
A26E
100
AcDbEntity
  8
1
  6
Continuous
100
AcDbCircle
 10
42.131487
 20
193.89158
 30
0.0
 40
1.0
100
AcDbArc
 50
93.40701000000001
 51
180.00002
  0
ARC
  5
A417
330
A26E
100
AcDbEntity
  8
1
  6
Continuous
100
AcDbCircle
 10
45.631487
 20
214.510419
 30
0.0
 40
2.0
100
AcDbArc
 50
99.59408899999999
 51
180.00002
  0
LINE
  5
A418
330
A26E
100
AcDbEntity
  8
1
  6
Continuous
100
AcDbLine
 10
68.63148699999999
 20
214.510419
 30
0.0
 11
68.63148699999999
 21
155.2727409999999
 31
0.0
  0
ARC
  5
A419
330
A26E
100
AcDbEntity
  8
1
  6
Continuous
100
AcDbCircle
 10
66.63148699999999
 20
155.2727409999999
 30
0.0
 40
2.0
100
AcDbArc
 50
279.59407
 51
0.0
  0
LINE
  5
A41A
330
A26E
100
AcDbEntity
  8
1
  6
Continuous
100
AcDbLine
 10
71.13148699999998
 20
193.89158
 30
0.0
 11
71.13148699999998
 21
175.89158
 31
0.0
  0
LINE
  5
A41B
330
A26E
100
AcDbEntity
  8
1
  6
Continuous
100
AcDbLine
 10
70.190916
 20
174.893347
 30
0.0
 11
68.631491
 21
174.80051
 31
0.0
  0
ARC
  5
A41C
330
A26E
100
AcDbEntity
  8
1
  6
Continuous
100
AcDbCircle
 10
70.13148699999999
 20
175.89158
 30
0.0
 40
1.0
100
AcDbArc
 50
273.40699
 51
0.0
  0
LINE
  5
A41D
330
A26E
100
AcDbEntity
  8
1
  6
Continuous
100
AcDbLine
 10
70.190916
 20
194.8898129999999
 30
0.0
 11
68.631491
 21
194.98265
 31
0.0
  0
ARC
  5
A41E
330
A26E
100
AcDbEntity
  8
1
  6
Continuous
100
AcDbCircle
 10
70.13148699999999
 20
193.89158
 30
0.0
 40
1.0
100
AcDbArc
 50
0.0
 51
86.59300899999998
  0
ARC
  5
A41F
330
A26E
100
AcDbEntity
  8
1
  6
Continuous
100
AcDbCircle
 10
66.63148699999999
 20
214.510419
 30
0.0
 40
2.0
100
AcDbArc
 50
0.0
 51
80.40592900000001
  0
ARC
  5
A420
330
A26E
100
AcDbEntity
  8
1
  6
Continuous
100
AcDbCircle
 10
307.631487
 20
217.3915799999999
 30
0.0
 40
65.0
100
AcDbArc
 50
260.40591
 51
279.59407
  0
ARC
  5
A421
330
A26E
100
AcDbEntity
  8
1
  6
Continuous
100
AcDbCircle
 10
307.631487
 20
152.39158
 30
0.0
 40
65.0
100
AcDbArc
 50
80.40592900000001
 51
99.59408899999999
  0
LINE
  5
A422
330
A26E
100
AcDbEntity
  8
1
  6
Continuous
100
AcDbLine
 10
295.131487
 20
214.510419
 30
0.0
 11
295.131487
 21
155.2727409999999
 31
0.0
  0
ARC
  5
A423
330
A26E
100
AcDbEntity
  8
1
  6
Continuous
100
AcDbCircle
 10
297.131487
 20
155.2727409999999
 30
0.0
 40
2.0
100
AcDbArc
 50
179.9999799999999
 51
260.40591
  0
ARC
  5
A424
330
A26E
100
AcDbEntity
  8
1
  6
Continuous
100
AcDbCircle
 10
293.6314869999998
 20
193.89158
 30
0.0
 40
1.0
100
AcDbArc
 50
93.40701000000001
 51
180.00002
  0
LINE
  5
A425
330
A26E
100
AcDbEntity
  8
1
  6
Continuous
100
AcDbLine
 10
293.572062
 20
194.8898129999999
 30
0.0
 11
295.131487
 21
194.98265
 31
0.0
  0
ARC
  5
A426
330
A26E
100
AcDbEntity
  8
1
  6
Continuous
100
AcDbCircle
 10
293.6314869999998
 20
175.89158
 30
0.0
 40
1.0
100
AcDbArc
 50
179.9999799999999
 51
266.59299
  0
LINE
  5
A427
330
A26E
100
AcDbEntity
  8
1
  6
Continuous
100
AcDbLine
 10
293.572062
 20
174.893347
 30
0.0
 11
295.131487
 21
174.80051
 31
0.0
  0
LINE
  5
A428
330
A26E
100
AcDbEntity
  8
1
  6
Continuous
100
AcDbLine
 10
292.631487
 20
193.89158
 30
0.0
 11
292.631487
 21
175.89158
 31
0.0
  0
ARC
  5
A429
330
A26E
100
AcDbEntity
  8
1
  6
Continuous
100
AcDbCircle
 10
297.131487
 20
214.510419
 30
0.0
 40
2.0
100
AcDbArc
 50
99.59408899999999
 51
180.00002
  0
LINE
  5
A42A
330
A26E
100
AcDbEntity
  8
1
  6
Continuous
100
AcDbLine
 10
320.131487
 20
214.510419
 30
0.0
 11
320.131487
 21
155.2727409999999
 31
0.0
  0
ARC
  5
A42B
330
A26E
100
AcDbEntity
  8
1
  6
Continuous
100
AcDbCircle
 10
318.131487
 20
155.2727409999999
 30
0.0
 40
2.0
100
AcDbArc
 50
279.59407
 51
0.0
  0
LINE
  5
A42C
330
A26E
100
AcDbEntity
  8
1
  6
Continuous
100
AcDbLine
 10
321.690916
 20
194.8898129999999
 30
0.0
 11
320.1314909999998
 21
194.98265
 31
0.0
  0
LINE
  5
A42D
330
A26E
100
AcDbEntity
  8
1
  6
Continuous
100
AcDbLine
 10
321.690916
 20
174.893347
 30
0.0
 11
320.1314909999998
 21
174.80051
 31
0.0
  0
ARC
  5
A42E
330
A26E
100
AcDbEntity
  8
1
  6
Continuous
100
AcDbCircle
 10
321.631487
 20
193.89158
 30
0.0
 40
1.0
100
AcDbArc
 50
0.0
 51
86.59300899999998
  0
ARC
  5
A42F
330
A26E
100
AcDbEntity
  8
1
  6
Continuous
100
AcDbCircle
 10
321.631487
 20
175.89158
 30
0.0
 40
1.0
100
AcDbArc
 50
273.40699
 51
0.0
  0
LINE
  5
A430
330
A26E
100
AcDbEntity
  8
1
  6
Continuous
100
AcDbLine
 10
322.6314869999999
 20
193.89158
 30
0.0
 11
322.6314869999999
 21
175.89158
 31
0.0
  0
ARC
  5
A431
330
A26E
100
AcDbEntity
  8
1
  6
Continuous
100
AcDbCircle
 10
318.131487
 20
214.510419
 30
0.0
 40
2.0
100
AcDbArc
 50
0.0
 51
80.40592900000001
  0
LINE
  5
A432
330
A26E
100
AcDbEntity
  8
1
  6
Continuous
100
AcDbLine
 10
140.5126479999997
 20
58.39158000000001
 30
0.0
 11
199.750326
 21
58.39158000000001
 31
0.0
  0
LINE
  5
A433
330
A26E
100
AcDbEntity
  8
1
  6
Continuous
100
AcDbLine
 10
140.5126479999997
 20
83.39158000000002
 30
0.0
 11
199.750326
 21
83.39158000000002
 31
0.0
  0
ARC
  5
A434
330
A26E
100
AcDbEntity
  8
1
  6
Continuous
100
AcDbCircle
 10
140.5126479999997
 20
81.39158
 30
0.0
 40
2.0
100
AcDbArc
 50
90.0
 51
170.405929
  0
LINE
  5
A435
330
A26E
100
AcDbEntity
  8
1
  6
Continuous
100
AcDbLine
 10
161.1314869999999
 20
55.89158000000001
 30
0.0
 11
179.1314869999999
 21
55.89158000000001
 31
0.0
  0
ARC
  5
A436
330
A26E
100
AcDbEntity
  8
1
  6
Continuous
100
AcDbCircle
 10
140.5126479999997
 20
60.39158
 30
0.0
 40
2.0
100
AcDbArc
 50
189.594089
 51
270.00002
  0
ARC
  5
A437
330
A26E
100
AcDbEntity
  8
1
  6
Continuous
100
AcDbCircle
 10
161.1314869999999
 20
56.89157999999999
 30
0.0
 40
1.0
100
AcDbArc
 50
183.40701
 51
270.00002
  0
LINE
  5
A438
330
A26E
100
AcDbEntity
  8
1
  6
Continuous
100
AcDbLine
 10
160.133254
 20
56.83215500000001
 30
0.0
 11
160.040417
 21
58.39158000000001
 31
0.0
  0
ARC
  5
A439
330
A26E
100
AcDbEntity
  8
1
  6
Continuous
100
AcDbCircle
 10
202.6314869999999
 20
70.89158000000002
 30
0.0
 40
65.0
100
AcDbArc
 50
170.405929
 51
189.594089
  0
ARC
  5
A43A
330
A26E
100
AcDbEntity
  8
1
  6
Continuous
100
AcDbCircle
 10
179.1314869999999
 20
56.89157999999999
 30
0.0
 40
1.0
100
AcDbArc
 50
269.99998
 51
356.5929899999999
  0
LINE
  5
A43B
330
A26E
100
AcDbEntity
  8
1
  6
Continuous
100
AcDbLine
 10
180.12972
 20
56.83215500000001
 30
0.0
 11
180.222557
 21
58.39158000000001
 31
0.0
  0
LINE
  5
A43C
330
A26E
100
AcDbEntity
  8
1
  6
Continuous
100
AcDbLine
 10
161.1314869999999
 20
85.89158000000002
 30
0.0
 11
179.1314869999999
 21
85.89158000000002
 31
0.0
  0
LINE
  5
A43D
330
A26E
100
AcDbEntity
  8
1
  6
Continuous
100
AcDbLine
 10
160.133254
 20
84.951009
 30
0.0
 11
160.040417
 21
83.39158399999998
 31
0.0
  0
ARC
  5
A43E
330
A26E
100
AcDbEntity
  8
1
  6
Continuous
100
AcDbCircle
 10
161.1314869999999
 20
84.89158000000001
 30
0.0
 40
1.0
100
AcDbArc
 50
90.0
 51
176.5930089999999
  0
LINE
  5
A43F
330
A26E
100
AcDbEntity
  8
1
  6
Continuous
100
AcDbLine
 10
180.12972
 20
84.951009
 30
0.0
 11
180.222557
 21
83.39158399999998
 31
0.0
  0
ARC
  5
A440
330
A26E
100
AcDbEntity
  8
1
  6
Continuous
100
AcDbCircle
 10
179.1314869999999
 20
84.89158000000001
 30
0.0
 40
1.0
100
AcDbArc
 50
3.406989999999998
 51
90.0
  0
ARC
  5
A441
330
A26E
100
AcDbEntity
  8
1
  6
Continuous
100
AcDbCircle
 10
199.750326
 20
81.39158
 30
0.0
 40
2.0
100
AcDbArc
 50
9.59407
 51
90.0
  0
ARC
  5
A442
330
A26E
100
AcDbEntity
  8
1
  6
Continuous
100
AcDbCircle
 10
199.750326
 20
60.39158
 30
0.0
 40
2.0
100
AcDbArc
 50
269.99998
 51
350.40591
  0
ARC
  5
A443
330
A26E
100
AcDbEntity
  8
1
  6
Continuous
100
AcDbCircle
 10
137.6314869999999
 20
70.89158000000002
 30
0.0
 40
65.0
100
AcDbArc
 50
350.40591
 51
9.59407
  0
ARC
  5
A444
330
A26E
100
AcDbEntity
  8
1
  6
Continuous
100
AcDbCircle
 10
445.131487
 20
184.89158
 30
0.0
 40
32.5
100
AcDbArc
 50
142.394543
 51
81.029336
  0
ARC
  5
A445
330
A26E
100
AcDbEntity
  8
1
  6
Continuous
100
AcDbCircle
 10
445.131487
 20
184.89158
 30
0.0
 40
27.299999
100
AcDbArc
 50
145.374102
 51
77.512162
  0
ARC
  5
A446
330
A26E
100
AcDbEntity
  8
1
  6
Continuous
100
AcDbCircle
 10
445.131487
 20
184.89158
 30
0.0
 40
10.0
100
AcDbArc
 50
185.444846
 51
37.44142
  0
LINE
  5
A447
330
A26E
100
AcDbEntity
  8
1
  6
Continuous
100
AcDbLine
 10
466.764208
 20
174.4226859999999
 30
0.0
 11
457.551584
 21
179.7415969999999
 31
0.0
  0
LINE
  5
A448
330
A26E
100
AcDbEntity
  8
1
  6
Continuous
100
AcDbLine
 10
465.0142
 20
171.3915939999999
 30
0.0
 11
455.801584
 21
176.710505
 31
0.0
  0
ARC
  5
A449
330
A26E
100
AcDbEntity
  8
1
  6
Continuous
100
AcDbCircle
 10
466.7641699999999
 20
174.422661
 30
0.0
 40
3.5
100
AcDbArc
 50
239.9999999999999
 51
299.9999599999998
  0
ARC
  5
A44A
330
A26E
100
AcDbEntity
  8
1
  6
Continuous
100
AcDbCircle
 10
465.0141699999998
 20
171.3915719999999
 30
0.0
 40
3.5
100
AcDbArc
 50
359.9999899999998
 51
59.999947
  0
ARC
  5
A44B
330
A26E
100
AcDbEntity
  8
1
  6
Continuous
100
AcDbCircle
 10
457.551546
 20
179.741578
 30
0.0
 40
3.5
100
AcDbArc
 50
179.9999599999999
 51
239.99998
  0
ARC
  5
A44C
330
A26E
100
AcDbEntity
  8
1
  6
Continuous
100
AcDbCircle
 10
455.801546
 20
176.7104929999999
 30
0.0
 40
3.5
100
AcDbArc
 50
59.999954
 51
119.99996
  0
LINE
  5
A44D
330
A26E
100
AcDbEntity
  8
1
  6
Continuous
100
AcDbLine
 10
423.4987969999998
 20
174.4226659999999
 30
0.0
 11
432.7114199999998
 21
179.741575
 31
0.0
  0
LINE
  5
A44E
330
A26E
100
AcDbEntity
  8
1
  6
Continuous
100
AcDbLine
 10
425.2487969999998
 20
171.3915759999999
 30
0.0
 11
434.4614199999998
 21
176.710486
 31
0.0
  0
ARC
  5
A44F
330
A26E
100
AcDbEntity
  8
1
  6
Continuous
100
AcDbCircle
 10
423.4988
 20
174.422674
 30
0.0
 40
3.5
100
AcDbArc
 50
239.9999999999999
 51
299.9999599999998
  0
ARC
  5
A450
330
A26E
100
AcDbEntity
  8
1
  6
Continuous
100
AcDbCircle
 10
425.2488
 20
171.391584
 30
0.0
 40
3.5
100
AcDbArc
 50
119.9999899999999
 51
179.9999599999999
  0
ARC
  5
A451
330
A26E
100
AcDbEntity
  8
1
  6
Continuous
100
AcDbCircle
 10
432.7114279999998
 20
179.741583
 30
0.0
 40
3.5
100
AcDbArc
 50
299.9999599999998
 51
359.99997
  0
ARC
  5
A452
330
A26E
100
AcDbEntity
  8
1
  6
Continuous
100
AcDbCircle
 10
434.461424
 20
176.710491
 30
0.0
 40
3.5
100
AcDbArc
 50
59.999988
 51
119.9999899999999
  0
ENDSEC
  0
SECTION
  2
OBJECTS
  0
DICTIONARY
  5
A25C
330
0
100
AcDbDictionary
281
     1
  3
ACAD_CIP_PREVIOUS_PRODUCT_INFO
350
A4CF
  3
ACAD_COLOR
350
A4B1
  3
ACAD_DETAILVIEWSTYLE
350
A4CA
  3
ACAD_GROUP
350
A25D
  3
ACAD_LAYOUT
350
A269
  3
ACAD_MATERIAL
350
A47F
  3
ACAD_MLEADERSTYLE
350
A4C6
  3
ACAD_MLINESTYLE
350
A266
  3
ACAD_PLOTSETTINGS
350
A268
  3
ACAD_PLOTSTYLENAME
350
A47D
  3
ACAD_SCALELIST
350
A4B4
  3
ACAD_SECTIONVIEWSTYLE
350
A4C8
  3
ACAD_TABLESTYLE
350
A4B2
  3
ACAD_VISUALSTYLE
350
A498
  3
ACDB_RECOMPOSE_DATA
350
A4ED
  3
AcDbVariableDictionary
350
A4E0
  3
DWGPROPS
350
A4EE
  0
DICTIONARY
  5
A4D0
330
A260
100
AcDbDictionary
280
     1
281
     1
  3
ADSK_XREC_LAYER_RECONCILED
360
A4D1
  0
DICTIONARY
  5
A4D2
330
A276
100
AcDbDictionary
280
     1
281
     1
  3
ADSK_XREC_LAYER_RECONCILED
360
A4D3
  0
DICTIONARY
  5
A4D4
330
A277
100
AcDbDictionary
280
     1
281
     1
  3
ADSK_XREC_LAYER_RECONCILED
360
A4D5
  0
DICTIONARY
  5
A4D6
330
A278
100
AcDbDictionary
280
     1
281
     1
  3
ADSK_XREC_LAYER_RECONCILED
360
A4D7
  0
DICTIONARY
  5
A4D8
330
A279
100
AcDbDictionary
280
     1
281
     1
  3
ADSK_XREC_LAYER_RECONCILED
360
A4D9
  0
DICTIONARY
  5
A4DA
330
A27A
100
AcDbDictionary
280
     1
281
     1
  3
ADSK_XREC_LAYER_RECONCILED
360
A4DB
  0
DICTIONARY
  5
A4DC
330
A27B
100
AcDbDictionary
280
     1
281
     1
  3
ADSK_XREC_LAYER_RECONCILED
360
A4DD
  0
DICTIONARY
  5
A4DE
330
A27C
100
AcDbDictionary
280
     1
281
     1
  3
ADSK_XREC_LAYER_RECONCILED
360
A4DF
  0
DICTIONARY
  5
A45D
330
A26E
100
AcDbDictionary
281
     1
  3
ACAD_LAYOUTSELFREF
350
A479
  0
DICTIONARY
  5
A45B
330
A26A
100
AcDbDictionary
281
     1
  3
ACAD_LAYOUTSELFREF
350
A478
  0
XRECORD
  5
A4CF
102
{ACAD_REACTORS
330
A25C
102
}
330
A25C
100
AcDbXrecord
280
     1
300
ACDLT
300
2014
300
ACDLT_F_S
  0
DICTIONARY
  5
A4B1
102
{ACAD_REACTORS
330
A25C
102
}
330
A25C
100
AcDbDictionary
281
     1
  0
DICTIONARY
  5
A4CA
102
{ACAD_REACTORS
330
A25C
102
}
330
A25C
100
AcDbDictionary
281
     1
  3
Imperial24
350
A4CB
  0
DICTIONARY
  5
A25D
102
{ACAD_REACTORS
330
A25C
102
}
330
A25C
100
AcDbDictionary
281
     1
  0
DICTIONARY
  5
A269
102
{ACAD_REACTORS
330
A25C
102
}
330
A25C
100
AcDbDictionary
281
     1
  3
Model
350
A4CC
  3
レイアウト1
350
A4CD
  0
DICTIONARY
  5
A47F
102
{ACAD_REACTORS
330
A25C
102
}
330
A25C
100
AcDbDictionary
281
     1
  3
ByBlock
350
A488
  3
ByLayer
350
A480
  3
Global
350
A490
  0
DICTIONARY
  5
A4C6
102
{ACAD_REACTORS
330
A25C
102
}
330
A25C
100
AcDbDictionary
281
     1
  3
Standard
350
A4C7
  0
DICTIONARY
  5
A266
102
{ACAD_REACTORS
330
A25C
102
}
330
A25C
100
AcDbDictionary
281
     1
  3
STANDARD
350
A267
  0
DICTIONARY
  5
A268
102
{ACAD_REACTORS
330
A25C
102
}
330
A25C
100
AcDbDictionary
281
     1
  0
ACDBDICTIONARYWDFLT
  5
A47D
102
{ACAD_REACTORS
330
A25C
102
}
330
A25C
100
AcDbDictionary
281
     1
  3
Normal
350
A47E
100
AcDbDictionaryWithDefault
340
A47E
  0
DICTIONARY
  5
A4B4
102
{ACAD_REACTORS
330
A25C
102
}
330
A25C
100
AcDbDictionary
281
     1
  3
A0
350
A4B5
  3
A1
350
A4B6
  3
A2
350
A4B7
  3
A3
350
A4B8
  3
A4
350
A4B9
  3
A5
350
A4BA
  3
A6
350
A4BB
  3
A7
350
A4BC
  3
A8
350
A4BD
  3
A9
350
A4BE
  3
B0
350
A4BF
  3
B1
350
A4C0
  3
B2
350
A4C1
  3
B3
350
A4C2
  3
B4
350
A4C3
  3
B5
350
A4C4
  3
B6
350
A4C5
  0
DICTIONARY
  5
A4C8
102
{ACAD_REACTORS
330
A25C
102
}
330
A25C
100
AcDbDictionary
281
     1
  3
Imperial24
350
A4C9
  0
DICTIONARY
  5
A4B2
102
{ACAD_REACTORS
330
A25C
102
}
330
A25C
100
AcDbDictionary
281
     1
  3
Standard
350
A4B3
  0
DICTIONARY
  5
A498
102
{ACAD_REACTORS
330
A25C
102
}
330
A25C
100
AcDbDictionary
281
     1
  3
2dWireframe
350
A49E
  3
Basic
350
A49D
  3
Brighten
350
A4A4
  3
ColorChange
350
A4A8
  3
Conceptual
350
A4A1
  3
Dim
350
A4A3
  3
EdgeColorOff
350
A4B0
  3
Facepattern
350
A4A7
  3
Flat
350
A499
  3
FlatWithEdges
350
A49A
  3
Gouraud
350
A49B
  3
GouraudWithEdges
350
A49C
  3
Hidden
350
A4A0
  3
JitterOff
350
A4AE
  3
Linepattern
350
A4A6
  3
OverhangOff
350
A4AF
  3
Realistic
350
A4A2
  3
Shaded
350
A4AD
  3
Shaded with edges
350
A4AC
  3
Shades of Gray
350
A4A9
  3
Sketchy
350
A4AA
  3
Thicken
350
A4A5
  3
Wireframe
350
A49F
  3
X-Ray
350
A4AB
  0
XRECORD
  5
A4ED
102
{ACAD_REACTORS
330
A25C
102
}
330
A25C
100
AcDbXrecord
280
     1
 90
        1
330
A4B3
  0
DICTIONARY
  5
A4E0
102
{ACAD_REACTORS
330
A25C
102
}
330
A25C
100
AcDbDictionary
281
     1
  3
CANNOSCALE
350
A4E5
  3
CMLEADERSTYLE
350
A4E2
  3
CTABLESTYLE
350
A4E1
  3
CVIEWDETAILSTYLE
350
A4E3
  3
CVIEWSECTIONSTYLE
350
A4E4
  3
DIMASSOC
350
A4E8
  3
INDEXCTL
350
A4E7
  3
SORTENTS
350
A4E6
  3
XCLIPFRAME
350
A4E9
  0
XRECORD
  5
A4EE
102
{ACAD_REACTORS
330
A25C
102
}
330
A25C
100
AcDbXrecord
280
     1
  1
DWGPROPS COOKIE
  2

  3

  4

  6

  7

  8
Yoshitsune
  9

300
=
301
=
302
=
303
=
304
=
305
=
306
=
307
=
308
=
309
=
 40
0.0970705208333334
 41
2451301.46248044
 42
2457192.690479132
  1

 90
        0
  0
XRECORD
  5
A4D1
102
{ACAD_REACTORS
330
A4D0
102
}
330
A4D0
100
AcDbXrecord
280
     1
290
     1
  0
XRECORD
  5
A4D3
102
{ACAD_REACTORS
330
A4D2
102
}
330
A4D2
100
AcDbXrecord
280
     1
290
     1
  0
XRECORD
  5
A4D5
102
{ACAD_REACTORS
330
A4D4
102
}
330
A4D4
100
AcDbXrecord
280
     1
290
     1
  0
XRECORD
  5
A4D7
102
{ACAD_REACTORS
330
A4D6
102
}
330
A4D6
100
AcDbXrecord
280
     1
290
     1
  0
XRECORD
  5
A4D9
102
{ACAD_REACTORS
330
A4D8
102
}
330
A4D8
100
AcDbXrecord
280
     1
290
     1
  0
XRECORD
  5
A4DB
102
{ACAD_REACTORS
330
A4DA
102
}
330
A4DA
100
AcDbXrecord
280
     1
290
     1
  0
XRECORD
  5
A4DD
102
{ACAD_REACTORS
330
A4DC
102
}
330
A4DC
100
AcDbXrecord
280
     1
290
     1
  0
XRECORD
  5
A4DF
102
{ACAD_REACTORS
330
A4DE
102
}
330
A4DE
100
AcDbXrecord
280
     1
290
     1
  0
XRECORD
  5
A479
102
{ACAD_REACTORS
330
A45D
102
}
330
A45D
100
AcDbXrecord
280
     1
340
A26E
  0
XRECORD
  5
A478
102
{ACAD_REACTORS
330
A45B
102
}
330
A45B
100
AcDbXrecord
280
     1
340
A26A
  0
ACDBDETAILVIEWSTYLE
  5
A4CB
102
{ACAD_XDICTIONARY
360
A526
102
}
102
{ACAD_REACTORS
330
A4CA
102
}
330
A4CA
100
AcDbModelDocViewStyle
 70
     0
  3
Imperial24
290
     0
100
AcDbDetailViewStyle
 70
     0
 71
     0
 90
        3
 71
     1
340
A261
 40
0.24
340
0
 40
0.24
300

 40
0.36
280
     3
 71
     2
340
A265
 90
       25
 71
     3
340
A261
 40
0.24
 90
        1
 40
0.75
 90
        1
300
%<\AcVar ViewType \f "%tc1">% %<\AcVar ViewDetailId>%\PSCALE %<\AcVar ViewScale \f "%sn">%
 71
     4
340
A265
 90
       25
340
A265
 90
       25
280
     0
  0
LAYOUT
  5
A4CC
102
{ACAD_XDICTIONARY
360
A528
102
}
102
{ACAD_REACTORS
330
A269
102
}
330
A269
100
AcDbPlotSettings
  1

  2
Canon LBP9100C
  4

  6

 40
0.0
 41
0.0
 42
0.0
 43
0.0
 44
0.0
 45
0.0
 46
0.0
 47
0.0
 48
0.0
 49
0.0
140
0.0
141
0.0
142
1.0
143
1.0
 70
  1712
 72
     0
 73
     0
 74
     0
  7

 75
     0
147
1.0
148
0.0
149
0.0
100
AcDbLayout
  1
Model
 70
     1
 71
     0
 10
0.0
 20
0.0
 11
12.0
 21
9.0
 12
0.0
 22
0.0
 32
0.0
 14
0.0
 24
0.0
 34
0.0
 15
0.0
 25
0.0
 35
0.0
146
0.0
 13
0.0
 23
0.0
 33
0.0
 16
1.0
 26
0.0
 36
0.0
 17
0.0
 27
1.0
 37
0.0
 76
     0
330
A26E
331
A477
  0
LAYOUT
  5
A4CD
102
{ACAD_XDICTIONARY
360
A52A
102
}
102
{ACAD_REACTORS
330
A269
102
}
330
A269
100
AcDbPlotSettings
  1

  2
Canon LBP9100C
  4

  6

 40
0.0
 41
0.0
 42
0.0
 43
0.0
 44
0.0
 45
0.0
 46
0.0
 47
0.0
 48
0.0
 49
0.0
140
0.0
141
0.0
142
1.0
143
1.0
 70
   688
 72
     0
 73
     0
 74
     5
  7

 75
    16
147
1.0
148
0.0
149
0.0
100
AcDbLayout
  1
レイアウト1
 70
     0
 71
     1
 10
0.0
 20
0.0
 11
420.0
 21
297.0
 12
0.0
 22
0.0
 32
0.0
 14
1.000000000000000E+20
 24
1.000000000000000E+20
 34
1.000000000000000E+20
 15
-1.000000000000000E+20
 25
-1.000000000000000E+20
 35
-1.000000000000000E+20
146
0.0
 13
0.0
 23
0.0
 33
0.0
 16
1.0
 26
0.0
 36
0.0
 17
0.0
 27
1.0
 37
0.0
 76
     0
330
A26A
  0
MATERIAL
  5
A488
102
{ACAD_XDICTIONARY
360
A489
102
}
102
{ACAD_REACTORS
330
A47F
102
}
330
A47F
100
AcDbMaterial
  1
ByBlock
 72
     0
 43
0.0208333333333333
 43
0.0
 43
0.0
 43
0.0
 43
0.0
 43
0.0208333333333333
 43
0.0
 43
0.0
 43
0.0
 43
0.0
 43
1.0
 43
0.0
 43
0.0
 43
0.0
 43
0.0
 43
1.0
 77
     0
 47
0.0208333333333333
 47
0.0
 47
0.0
 47
0.0
 47
0.0
 47
0.0208333333333333
 47
0.0
 47
0.0
 47
0.0
 47
0.0
 47
1.0
 47
0.0
 47
0.0
 47
0.0
 47
0.0
 47
1.0
171
     0
 49
0.0208333333333333
 49
0.0
 49
0.0
 49
0.0
 49
0.0
 49
0.0208333333333333
 49
0.0
 49
0.0
 49
0.0
 49
0.0
 49
1.0
 49
0.0
 49
0.0
 49
0.0
 49
0.0
 49
1.0
175
     0
142
0.0208333333333333
142
0.0
142
0.0
142
0.0
142
0.0
142
0.0208333333333333
142
0.0
142
0.0
142
0.0
142
0.0
142
1.0
142
0.0
142
0.0
142
0.0
142
0.0
142
1.0
179
     0
144
0.0208333333333333
144
0.0
144
0.0
144
0.0
144
0.0
144
0.0208333333333333
144
0.0
144
0.0
144
0.0
144
0.0
144
1.0
144
0.0
144
0.0
144
0.0
144
0.0
144
1.0
147
0.0208333333333333
147
0.0
147
0.0
147
0.0
147
0.0
147
0.0208333333333333
147
0.0
147
0.0
147
0.0
147
0.0
147
1.0
147
0.0
147
0.0
147
0.0
147
0.0
147
1.0
  0
MATERIAL
  5
A480
102
{ACAD_XDICTIONARY
360
A481
102
}
102
{ACAD_REACTORS
330
A47F
102
}
330
A47F
100
AcDbMaterial
  1
ByLayer
 72
     0
 43
0.0208333333333333
 43
0.0
 43
0.0
 43
0.0
 43
0.0
 43
0.0208333333333333
 43
0.0
 43
0.0
 43
0.0
 43
0.0
 43
1.0
 43
0.0
 43
0.0
 43
0.0
 43
0.0
 43
1.0
 77
     0
 47
0.0208333333333333
 47
0.0
 47
0.0
 47
0.0
 47
0.0
 47
0.0208333333333333
 47
0.0
 47
0.0
 47
0.0
 47
0.0
 47
1.0
 47
0.0
 47
0.0
 47
0.0
 47
0.0
 47
1.0
171
     0
 49
0.0208333333333333
 49
0.0
 49
0.0
 49
0.0
 49
0.0
 49
0.0208333333333333
 49
0.0
 49
0.0
 49
0.0
 49
0.0
 49
1.0
 49
0.0
 49
0.0
 49
0.0
 49
0.0
 49
1.0
175
     0
142
0.0208333333333333
142
0.0
142
0.0
142
0.0
142
0.0
142
0.0208333333333333
142
0.0
142
0.0
142
0.0
142
0.0
142
1.0
142
0.0
142
0.0
142
0.0
142
0.0
142
1.0
179
     0
144
0.0208333333333333
144
0.0
144
0.0
144
0.0
144
0.0
144
0.0208333333333333
144
0.0
144
0.0
144
0.0
144
0.0
144
1.0
144
0.0
144
0.0
144
0.0
144
0.0
144
1.0
147
0.0208333333333333
147
0.0
147
0.0
147
0.0
147
0.0
147
0.0208333333333333
147
0.0
147
0.0
147
0.0
147
0.0
147
1.0
147
0.0
147
0.0
147
0.0
147
0.0
147
1.0
  0
MATERIAL
  5
A490
102
{ACAD_XDICTIONARY
360
A491
102
}
102
{ACAD_REACTORS
330
A47F
102
}
330
A47F
100
AcDbMaterial
  1
Global
 72
     0
 43
0.0208333333333333
 43
0.0
 43
0.0
 43
0.0
 43
0.0
 43
0.0208333333333333
 43
0.0
 43
0.0
 43
0.0
 43
0.0
 43
1.0
 43
0.0
 43
0.0
 43
0.0
 43
0.0
 43
1.0
 77
     0
 47
0.0208333333333333
 47
0.0
 47
0.0
 47
0.0
 47
0.0
 47
0.0208333333333333
 47
0.0
 47
0.0
 47
0.0
 47
0.0
 47
1.0
 47
0.0
 47
0.0
 47
0.0
 47
0.0
 47
1.0
171
     0
 49
0.0208333333333333
 49
0.0
 49
0.0
 49
0.0
 49
0.0
 49
0.0208333333333333
 49
0.0
 49
0.0
 49
0.0
 49
0.0
 49
1.0
 49
0.0
 49
0.0
 49
0.0
 49
0.0
 49
1.0
175
     0
142
0.0208333333333333
142
0.0
142
0.0
142
0.0
142
0.0
142
0.0208333333333333
142
0.0
142
0.0
142
0.0
142
0.0
142
1.0
142
0.0
142
0.0
142
0.0
142
0.0
142
1.0
179
     0
144
0.0208333333333333
144
0.0
144
0.0
144
0.0
144
0.0
144
0.0208333333333333
144
0.0
144
0.0
144
0.0
144
0.0
144
1.0
144
0.0
144
0.0
144
0.0
144
0.0
144
1.0
147
0.0208333333333333
147
0.0
147
0.0
147
0.0
147
0.0
147
0.0208333333333333
147
0.0
147
0.0
147
0.0
147
0.0
147
1.0
147
0.0
147
0.0
147
0.0
147
0.0
147
1.0
  0
MLEADERSTYLE
  5
A4C7
102
{ACAD_REACTORS
330
A4C6
102
}
330
A4C6
100
AcDbMLeaderStyle
170
     2
171
     1
172
     0
 90
        2
 40
0.0
 41
0.0
173
     1
 91
-1056964608
340
A263
 92
       -2
290
     1
 42
0.09
291
     1
 43
0.36
  3
Standard
 44
0.18
300

342
A261
174
     1
178
     6
175
     1
176
     0
 93
-1056964608
 45
0.18
292
     0
297
     0
 46
0.18
 94
-1056964608
 47
1.0
 49
1.0
140
1.0
293
     1
141
0.0
294
     1
177
     0
142
1.0
295
     0
296
     0
143
0.125
1001
ACAD_MLEADERVER
1070
     2
  0
MLINESTYLE
  5
A267
102
{ACAD_REACTORS
330
A266
102
}
330
A266
100
AcDbMlineStyle
  2
STANDARD
 70
     0
  3

 62
   256
 51
90.0
 52
90.0
 71
     2
 49
0.5
 62
   256
  6
BYLAYER
 49
-0.5
 62
   256
  6
BYLAYER
  0
ACDBPLACEHOLDER
  5
A47E
102
{ACAD_REACTORS
330
A47D
102
}
330
A47D
  0
SCALE
  5
A4B5
102
{ACAD_REACTORS
330
A4B4
102
}
330
A4B4
100
AcDbScale
 70
     0
300
1:1
140
1.0
141
1.0
290
     1
  0
SCALE
  5
A4B6
102
{ACAD_REACTORS
330
A4B4
102
}
330
A4B4
100
AcDbScale
 70
     0
300
1/128" = 1'-0"
140
0.0078125
141
12.0
290
     0
  0
SCALE
  5
A4B7
102
{ACAD_REACTORS
330
A4B4
102
}
330
A4B4
100
AcDbScale
 70
     0
300
1/64" = 1'-0"
140
0.015625
141
12.0
290
     0
  0
SCALE
  5
A4B8
102
{ACAD_REACTORS
330
A4B4
102
}
330
A4B4
100
AcDbScale
 70
     0
300
1/32" = 1'-0"
140
0.03125
141
12.0
290
     0
  0
SCALE
  5
A4B9
102
{ACAD_REACTORS
330
A4B4
102
}
330
A4B4
100
AcDbScale
 70
     0
300
1/16" = 1'-0"
140
0.0625
141
12.0
290
     0
  0
SCALE
  5
A4BA
102
{ACAD_REACTORS
330
A4B4
102
}
330
A4B4
100
AcDbScale
 70
     0
300
3/32" = 1'-0"
140
0.09375
141
12.0
290
     0
  0
SCALE
  5
A4BB
102
{ACAD_REACTORS
330
A4B4
102
}
330
A4B4
100
AcDbScale
 70
     0
300
1/8" = 1'-0"
140
0.125
141
12.0
290
     0
  0
SCALE
  5
A4BC
102
{ACAD_REACTORS
330
A4B4
102
}
330
A4B4
100
AcDbScale
 70
     0
300
3/16" = 1'-0"
140
0.1875
141
12.0
290
     0
  0
SCALE
  5
A4BD
102
{ACAD_REACTORS
330
A4B4
102
}
330
A4B4
100
AcDbScale
 70
     0
300
1/4" = 1'-0"
140
0.25
141
12.0
290
     0
  0
SCALE
  5
A4BE
102
{ACAD_REACTORS
330
A4B4
102
}
330
A4B4
100
AcDbScale
 70
     0
300
3/8" = 1'-0"
140
0.375
141
12.0
290
     0
  0
SCALE
  5
A4BF
102
{ACAD_REACTORS
330
A4B4
102
}
330
A4B4
100
AcDbScale
 70
     0
300
1/2" = 1'-0"
140
0.5
141
12.0
290
     0
  0
SCALE
  5
A4C0
102
{ACAD_REACTORS
330
A4B4
102
}
330
A4B4
100
AcDbScale
 70
     0
300
3/4" = 1'-0"
140
0.75
141
12.0
290
     0
  0
SCALE
  5
A4C1
102
{ACAD_REACTORS
330
A4B4
102
}
330
A4B4
100
AcDbScale
 70
     0
300
1" = 1'-0"
140
1.0
141
12.0
290
     0
  0
SCALE
  5
A4C2
102
{ACAD_REACTORS
330
A4B4
102
}
330
A4B4
100
AcDbScale
 70
     0
300
1-1/2" = 1'-0"
140
1.5
141
12.0
290
     0
  0
SCALE
  5
A4C3
102
{ACAD_REACTORS
330
A4B4
102
}
330
A4B4
100
AcDbScale
 70
     0
300
3" = 1'-0"
140
3.0
141
12.0
290
     0
  0
SCALE
  5
A4C4
102
{ACAD_REACTORS
330
A4B4
102
}
330
A4B4
100
AcDbScale
 70
     0
300
6" = 1'-0"
140
6.0
141
12.0
290
     0
  0
SCALE
  5
A4C5
102
{ACAD_REACTORS
330
A4B4
102
}
330
A4B4
100
AcDbScale
 70
     0
300
1'-0" = 1'-0"
140
12.0
141
12.0
290
     0
  0
ACDBSECTIONVIEWSTYLE
  5
A4C9
102
{ACAD_XDICTIONARY
360
A524
102
}
102
{ACAD_REACTORS
330
A4C8
102
}
330
A4C8
100
AcDbModelDocViewStyle
 70
     0
  3
Imperial24
290
     0
100
AcDbSectionViewStyle
 70
     0
 71
     0
 90
       78
 71
     1
340
A261
 40
0.24
340
0
340
0
 40
0.24
300
I, O, Q, S, X, Z
 40
0.48
 90
        3
 40
0.18
 90
        1
 71
     2
340
A265
 90
       25
340
A265
 90
       50
 40
0.24
 40
0.0
 40
0.24
 71
     3
340
A261
 40
0.24
 90
        1
 40
0.75
 90
        1
300
%<\AcVar ViewType \f "%tc1">% %<\AcVar ViewSectionStartId>%-%<\AcVar ViewSectionEndId>%\PSCALE %<\AcVar ViewScale \f "%sn">%
 71
     4
300
ANSI31
 40
1.0
 90
        0
290
     0
290
     0
 90
        6
 40
0.0
 40
1.570796326794896
 40
0.2617993877991494
 40
1.308996938995747
 40
-0.2617993877991494
 40
1.832595714594046
  0
TABLESTYLE
  5
A4B3
102
{ACAD_XDICTIONARY
360
A4EB
102
}
102
{ACAD_REACTORS
330
A4B2
102
}
330
A4B2
100
AcDbTableStyle
  3
Standard
 70
     0
 71
     0
 40
0.06
 41
0.06
280
     0
281
     0
  7
STANDARD
140
0.18
170
     2
 62
     0
 63
     7
283
     0
274
    -2
284
     1
 64
     0
275
    -2
285
     1
 65
     0
276
    -2
286
     1
 66
     0
277
    -2
287
     1
 67
     0
278
    -2
288
     1
 68
     0
279
    -2
289
     1
 69
     0
  7
STANDARD
140
0.25
170
     5
 62
     0
 63
     7
283
     0
274
    -2
284
     1
 64
     0
275
    -2
285
     1
 65
     0
276
    -2
286
     1
 66
     0
277
    -2
287
     1
 67
     0
278
    -2
288
     1
 68
     0
279
    -2
289
     1
 69
     0
  7
STANDARD
140
0.18
170
     5
 62
     0
 63
     7
283
     0
274
    -2
284
     1
 64
     0
275
    -2
285
     1
 65
     0
276
    -2
286
     1
 66
     0
277
    -2
287
     1
 67
     0
278
    -2
288
     1
 68
     0
279
    -2
289
     1
 69
     0
  0
VISUALSTYLE
  5
A49E
102
{ACAD_XDICTIONARY
360
A4FC
102
}
102
{ACAD_REACTORS
330
A498
102
}
330
A498
100
AcDbVisualStyle
  2
2dWireframe
 70
     4
 71
     0
 72
     2
 73
     0
 90
        0
 40
-0.6
 41
-30.0
 62
     5
 63
     7
 74
     1
 91
        4
 64
     7
 65
   257
 75
     1
175
     1
 42
1.0
 92
        0
 66
   257
 43
1.0
 76
     1
 77
     6
 78
     2
 67
     7
 79
     5
170
     0
171
     0
290
     0
174
     0
 93
        1
 44
0.0
173
     0
291
     0
 45
0.0
1001
ACAD
1000
AcDbSavedByObjectVersion
1070
     0
  0
VISUALSTYLE
  5
A49D
102
{ACAD_XDICTIONARY
360
A4FA
102
}
102
{ACAD_REACTORS
330
A498
102
}
330
A498
100
AcDbVisualStyle
  2
Basic
 70
     7
 71
     1
 72
     0
 73
     1
 90
        0
 40
-0.6
 41
-30.0
 62
     5
 63
     7
 74
     0
 91
        4
 64
     7
 65
   257
 75
     1
175
     1
 42
1.0
 92
        8
 66
     7
 43
1.0
 76
     1
 77
     6
 78
     2
 67
     7
 79
     5
170
     0
171
     0
290
     0
174
     0
 93
        1
 44
0.0
173
     0
291
     1
 45
0.0
1001
ACAD
1000
AcDbSavedByObjectVersion
1070
     0
  0
VISUALSTYLE
  5
A4A4
102
{ACAD_XDICTIONARY
360
A508
102
}
102
{ACAD_REACTORS
330
A498
102
}
330
A498
100
AcDbVisualStyle
  2
Brighten
 70
    12
 71
     2
 72
     2
 73
     0
 90
        0
 40
-0.6
 41
-30.0
 62
     5
 63
     7
 74
     1
 91
        4
 64
     7
 65
   257
 75
     1
175
     1
 42
1.0
 92
        8
 66
     7
 43
1.0
 76
     1
 77
     6
 78
     2
 67
     7
 79
     5
170
     0
171
     0
290
     0
174
     0
 93
        1
 44
50.0
173
     0
291
     1
 45
0.0
1001
ACAD
1000
AcDbSavedByObjectVersion
1070
     0
  0
VISUALSTYLE
  5
A4A8
102
{ACAD_XDICTIONARY
360
A510
102
}
102
{ACAD_REACTORS
330
A498
102
}
330
A498
100
AcDbVisualStyle
  2
ColorChange
 70
    16
 71
     2
 72
     2
 73
     3
 90
        0
 40
-0.6
 41
-30.0
 62
     5
 63
     8
 74
     1
 91
        4
 64
     7
 65
   257
 75
     1
175
     1
 42
1.0
 92
        8
 66
     8
 43
1.0
 76
     1
 77
     6
 78
     2
 67
     7
 79
     5
170
     0
171
     0
290
     0
174
     0
 93
        1
 44
0.0
173
     0
291
     1
 45
0.0
1001
ACAD
1000
AcDbSavedByObjectVersion
1070
     0
  0
VISUALSTYLE
  5
A4A1
102
{ACAD_XDICTIONARY
360
A502
102
}
102
{ACAD_REACTORS
330
A498
102
}
330
A498
100
AcDbVisualStyle
  2
Conceptual
 70
     9
 71
     3
 72
     2
 73
     0
 90
        0
 40
-0.6
 41
-30.0
 62
     5
 63
     7
 74
     2
 91
        2
 64
     7
 65
   257
 75
     1
175
     1
 42
179.0
 92
        8
 66
     7
 43
1.0
 76
     1
 77
     6
 78
     2
 67
     7
 79
     3
170
     0
171
     0
290
     0
174
     0
 93
        1
 44
0.0
173
     0
291
     0
 45
0.0
1001
ACAD
1000
AcDbSavedByObjectVersion
1070
     0
  0
VISUALSTYLE
  5
A4A3
102
{ACAD_XDICTIONARY
360
A506
102
}
102
{ACAD_REACTORS
330
A498
102
}
330
A498
100
AcDbVisualStyle
  2
Dim
 70
    11
 71
     2
 72
     2
 73
     0
 90
        0
 40
-0.6
 41
-30.0
 62
     5
 63
     7
 74
     1
 91
        4
 64
     7
 65
   257
 75
     1
175
     1
 42
1.0
 92
        8
 66
     7
 43
1.0
 76
     1
 77
     6
 78
     2
 67
     7
 79
     5
170
     0
171
     0
290
     0
174
     0
 93
        1
 44
-50.0
173
     0
291
     1
 45
0.0
1001
ACAD
1000
AcDbSavedByObjectVersion
1070
     0
  0
VISUALSTYLE
  5
A4B0
102
{ACAD_XDICTIONARY
360
A520
102
}
102
{ACAD_REACTORS
330
A498
102
}
330
A498
100
AcDbVisualStyle
  2
EdgeColorOff
 70
    22
 71
     2
 72
     2
 73
     0
 90
        0
 40
-0.6
 41
-30.0
 62
     5
 63
     7
 74
     1
 91
        4
 64
     7
 65
   257
 75
     1
175
     1
 42
1.0
 92
        8
 66
     7
 43
1.0
 76
     1
 77
     6
 78
     2
 67
     7
 79
     5
170
     0
171
     0
290
     0
174
     0
 93
        1
 44
0.0
173
     0
291
     1
 45
0.0
1001
ACAD
1000
AcDbSavedByObjectVersion
1070
     0
  0
VISUALSTYLE
  5
A4A7
102
{ACAD_XDICTIONARY
360
A50E
102
}
102
{ACAD_REACTORS
330
A498
102
}
330
A498
100
AcDbVisualStyle
  2
Facepattern
 70
    15
 71
     2
 72
     2
 73
     0
 90
        0
 40
-0.6
 41
-30.0
 62
     5
 63
     7
 74
     1
 91
        4
 64
     7
 65
   257
 75
     1
175
     1
 42
1.0
 92
        8
 66
     7
 43
1.0
 76
     1
 77
     6
 78
     2
 67
     7
 79
     5
170
     0
171
     0
290
     0
174
     0
 93
        1
 44
0.0
173
     0
291
     1
 45
0.0
1001
ACAD
1000
AcDbSavedByObjectVersion
1070
     0
  0
VISUALSTYLE
  5
A499
102
{ACAD_XDICTIONARY
360
A4F2
102
}
102
{ACAD_REACTORS
330
A498
102
}
330
A498
100
AcDbVisualStyle
  2
Flat
 70
     0
 71
     2
 72
     1
 73
     1
 90
        2
 40
-0.6
 41
30.0
 62
     5
 63
     7
 74
     0
 91
        0
 64
     7
 65
   257
 75
     1
175
     1
 42
1.0
 92
        8
 66
     7
 43
1.0
 76
     1
 77
     6
 78
     2
 67
     7
 79
     5
170
     0
171
     0
290
     0
174
     0
 93
       13
 44
0.0
173
     0
291
     1
 45
0.0
1001
ACAD
1000
AcDbSavedByObjectVersion
1070
     0
  0
VISUALSTYLE
  5
A49A
102
{ACAD_XDICTIONARY
360
A4F4
102
}
102
{ACAD_REACTORS
330
A498
102
}
330
A498
100
AcDbVisualStyle
  2
FlatWithEdges
 70
     1
 71
     2
 72
     1
 73
     1
 90
        2
 40
-0.6
 41
30.0
 62
     5
 63
     7
 74
     1
 91
        0
 64
     7
 65
   257
 75
     1
175
     1
 42
1.0
 92
        0
 66
   257
 43
1.0
 76
     1
 77
     6
 78
     2
 67
     7
 79
     5
170
     0
171
     0
290
     0
174
     0
 93
       13
 44
0.0
173
     0
291
     1
 45
0.0
1001
ACAD
1000
AcDbSavedByObjectVersion
1070
     0
  0
VISUALSTYLE
  5
A49B
102
{ACAD_XDICTIONARY
360
A4F6
102
}
102
{ACAD_REACTORS
330
A498
102
}
330
A498
100
AcDbVisualStyle
  2
Gouraud
 70
     2
 71
     2
 72
     2
 73
     1
 90
        2
 40
-0.6
 41
30.0
 62
     5
 63
     7
 74
     0
 91
        0
 64
     7
 65
   257
 75
     1
175
     1
 42
1.0
 92
        0
 66
     7
 43
1.0
 76
     1
 77
     6
 78
     2
 67
     7
 79
     5
170
     0
171
     0
290
     0
174
     0
 93
       13
 44
0.0
173
     0
291
     1
 45
0.0
1001
ACAD
1000
AcDbSavedByObjectVersion
1070
     0
  0
VISUALSTYLE
  5
A49C
102
{ACAD_XDICTIONARY
360
A4F8
102
}
102
{ACAD_REACTORS
330
A498
102
}
330
A498
100
AcDbVisualStyle
  2
GouraudWithEdges
 70
     3
 71
     2
 72
     2
 73
     1
 90
        2
 40
-0.6
 41
30.0
 62
     5
 63
     7
 74
     1
 91
        0
 64
     7
 65
   257
 75
     1
175
     1
 42
1.0
 92
        0
 66
   257
 43
1.0
 76
     1
 77
     6
 78
     2
 67
     7
 79
     5
170
     0
171
     0
290
     0
174
     0
 93
       13
 44
0.0
173
     0
291
     1
 45
0.0
1001
ACAD
1000
AcDbSavedByObjectVersion
1070
     0
  0
VISUALSTYLE
  5
A4A0
102
{ACAD_XDICTIONARY
360
A500
102
}
102
{ACAD_REACTORS
330
A498
102
}
330
A498
100
AcDbVisualStyle
  2
Hidden
 70
     6
 71
     1
 72
     2
 73
     2
 90
        0
 40
-0.6
 41
-30.0
 62
     5
 63
     7
 74
     2
 91
        2
 64
     7
 65
   257
 75
     2
175
     1
 42
40.0
 92
        0
 66
   257
 43
1.0
 76
     1
 77
     6
 78
     2
 67
     7
 79
     3
170
     0
171
     0
290
     0
174
     0
 93
        1
 44
0.0
173
     0
291
     0
 45
0.0
1001
ACAD
1000
AcDbSavedByObjectVersion
1070
     0
  0
VISUALSTYLE
  5
A4AE
102
{ACAD_XDICTIONARY
360
A51C
102
}
102
{ACAD_REACTORS
330
A498
102
}
330
A498
100
AcDbVisualStyle
  2
JitterOff
 70
    20
 71
     2
 72
     2
 73
     0
 90
        0
 40
-0.6
 41
-30.0
 62
     5
 63
     7
 74
     1
 91
        4
 64
     7
 65
   257
 75
     1
175
     1
 42
1.0
 92
       10
 66
     7
 43
1.0
 76
     1
 77
     6
 78
     2
 67
     7
 79
     5
170
     0
171
     0
290
     0
174
     0
 93
        1
 44
0.0
173
     0
291
     1
 45
0.0
1001
ACAD
1000
AcDbSavedByObjectVersion
1070
     0
  0
VISUALSTYLE
  5
A4A6
102
{ACAD_XDICTIONARY
360
A50C
102
}
102
{ACAD_REACTORS
330
A498
102
}
330
A498
100
AcDbVisualStyle
  2
Linepattern
 70
    14
 71
     2
 72
     2
 73
     0
 90
        0
 40
-0.6
 41
-30.0
 62
     5
 63
     7
 74
     1
 91
        4
 64
     7
 65
   257
 75
     7
175
     7
 42
1.0
 92
        8
 66
     7
 43
1.0
 76
     1
 77
     6
 78
     2
 67
     7
 79
     5
170
     0
171
     0
290
     0
174
     0
 93
        1
 44
0.0
173
     0
291
     1
 45
0.0
1001
ACAD
1000
AcDbSavedByObjectVersion
1070
     0
  0
VISUALSTYLE
  5
A4AF
102
{ACAD_XDICTIONARY
360
A51E
102
}
102
{ACAD_REACTORS
330
A498
102
}
330
A498
100
AcDbVisualStyle
  2
OverhangOff
 70
    21
 71
     2
 72
     2
 73
     0
 90
        0
 40
-0.6
 41
-30.0
 62
     5
 63
     7
 74
     1
 91
        4
 64
     7
 65
   257
 75
     1
175
     1
 42
1.0
 92
        9
 66
     7
 43
1.0
 76
     1
 77
     6
 78
     2
 67
     7
 79
     5
170
     0
171
     0
290
     0
174
     0
 93
        1
 44
0.0
173
     0
291
     1
 45
0.0
1001
ACAD
1000
AcDbSavedByObjectVersion
1070
     0
  0
VISUALSTYLE
  5
A4A2
102
{ACAD_XDICTIONARY
360
A504
102
}
102
{ACAD_REACTORS
330
A498
102
}
330
A498
100
AcDbVisualStyle
  2
Realistic
 70
     8
 71
     2
 72
     3
 73
     0
 90
        2
 40
-0.6
 41
30.0
 62
     5
 63
     7
 74
     0
 91
        0
 64
     7
 65
   257
 75
     1
175
     1
 42
1.0
 92
        8
 66
   257
 43
1.0
 76
     1
 77
     6
 78
     2
 67
     7
 79
     3
170
     0
171
     0
290
     0
174
     0
 93
       13
 44
0.0
173
     0
291
     0
 45
0.0
1001
ACAD
1000
AcDbSavedByObjectVersion
1070
     0
  0
VISUALSTYLE
  5
A4AD
102
{ACAD_XDICTIONARY
360
A51A
102
}
102
{ACAD_REACTORS
330
A498
102
}
330
A498
100
AcDbVisualStyle
  2
Shaded
 70
    27
 71
     2
 72
     2
 73
     1
 90
        2
 40
-0.6
 41
30.0
 62
     5
 63
     7
 74
     0
 91
        4
 64
     7
 65
   257
 75
     1
175
     1
 42
1.0
 92
        8
 66
   257
 43
1.0
 76
     1
 77
     6
 78
     2
 67
     8
 79
     3
170
     0
171
     0
290
     0
174
     0
 93
        5
 44
0.0
173
     0
291
     0
 45
0.0
1001
ACAD
1000
AcDbSavedByObjectVersion
1070
     0
  0
VISUALSTYLE
  5
A4AC
102
{ACAD_XDICTIONARY
360
A518
102
}
102
{ACAD_REACTORS
330
A498
102
}
330
A498
100
AcDbVisualStyle
  2
Shaded with edges
 70
    26
 71
     2
 72
     2
 73
     1
 90
        2
 40
-0.6
 41
30.0
 62
     5
 63
     7
 74
     1
 91
       10
 64
     7
 65
   257
 75
     2
175
     1
 42
1.0
 92
        8
 66
   257
 43
1.0
 76
     1
 77
     6
 78
     2
 67
     7
 79
     3
170
     0
171
     0
290
     0
174
     0
 93
        5
 44
0.0
173
     0
291
     0
 45
0.0
1001
ACAD
1000
AcDbSavedByObjectVersion
1070
     0
  0
VISUALSTYLE
  5
A4A9
102
{ACAD_XDICTIONARY
360
A512
102
}
102
{ACAD_REACTORS
330
A498
102
}
330
A498
100
AcDbVisualStyle
  2
Shades of Gray
 70
    23
 71
     2
 72
     2
 73
     3
 90
        0
 40
-0.6
 41
-30.0
 62
     5
 63
     7
 74
     2
 91
        2
 64
     7
 65
     7
 75
     1
175
     1
 42
40.0
 92
        8
 66
     7
 43
1.0
 76
     1
 77
     6
 78
     2
 67
     7
 79
     3
170
     0
171
     0
290
     0
174
     0
 93
        1
 44
0.0
173
     0
291
     0
 45
0.0
1001
ACAD
1000
AcDbSavedByObjectVersion
1070
     0
  0
VISUALSTYLE
  5
A4AA
102
{ACAD_XDICTIONARY
360
A514
102
}
102
{ACAD_REACTORS
330
A498
102
}
330
A498
100
AcDbVisualStyle
  2
Sketchy
 70
    24
 71
     1
 72
     2
 73
     2
 90
        0
 40
-0.6
 41
-30.0
 62
     5
 63
     7
 74
     2
 91
        2
 64
     7
 65
     7
 75
     1
175
     1
 42
40.0
 92
       11
 66
     7
 43
1.0
 76
     1
 77
     6
 78
     2
 67
     7
 79
     6
170
     0
171
     0
290
     0
174
     0
 93
        1
 44
0.0
173
     0
291
     0
 45
0.0
1001
ACAD
1000
AcDbSavedByObjectVersion
1070
     0
  0
VISUALSTYLE
  5
A4A5
102
{ACAD_XDICTIONARY
360
A50A
102
}
102
{ACAD_REACTORS
330
A498
102
}
330
A498
100
AcDbVisualStyle
  2
Thicken
 70
    13
 71
     2
 72
     2
 73
     0
 90
        0
 40
-0.6
 41
-30.0
 62
     5
 63
     7
 74
     1
 91
        4
 64
     7
 65
   257
 75
     1
175
     1
 42
1.0
 92
       12
 66
     7
 43
1.0
 76
     1
 77
     6
 78
     2
 67
     7
 79
     5
170
     0
171
     0
290
     0
174
     0
 93
        1
 44
0.0
173
     0
291
     1
 45
0.0
1001
ACAD
1000
AcDbSavedByObjectVersion
1070
     0
  0
VISUALSTYLE
  5
A49F
102
{ACAD_XDICTIONARY
360
A4FE
102
}
102
{ACAD_REACTORS
330
A498
102
}
330
A498
100
AcDbVisualStyle
  2
Wireframe
 70
     5
 71
     0
 72
     2
 73
     0
 90
        0
 40
-0.6
 41
-30.0
 62
     5
 63
     7
 74
     1
 91
        4
 64
     7
 65
   257
 75
     1
175
     1
 42
1.0
 92
        0
 66
   257
 43
1.0
 76
     1
 77
     6
 78
     2
 67
     7
 79
     3
170
     0
171
     0
290
     0
174
     0
 93
        1
 44
0.0
173
     0
291
     0
 45
0.0
1001
ACAD
1000
AcDbSavedByObjectVersion
1070
     0
  0
VISUALSTYLE
  5
A4AB
102
{ACAD_XDICTIONARY
360
A516
102
}
102
{ACAD_REACTORS
330
A498
102
}
330
A498
100
AcDbVisualStyle
  2
X-Ray
 70
    25
 71
     2
 72
     2
 73
     1
 90
        1
 40
0.5
 41
-30.0
 62
     5
 63
     7
 74
     1
 91
        0
 64
     7
 65
   257
 75
     1
175
     1
 42
1.0
 92
        8
 66
     7
 43
1.0
 76
     1
 77
     6
 78
     2
 67
     7
 79
     3
170
     0
171
     0
290
     0
174
     0
 93
       13
 44
0.0
173
     0
291
     0
 45
0.0
1001
ACAD
1000
AcDbSavedByObjectVersion
1070
     0
  0
DICTIONARYVAR
  5
A4E5
102
{ACAD_REACTORS
330
A4E0
102
}
330
A4E0
100
DictionaryVariables
280
     0
  1
1:1
  0
DICTIONARYVAR
  5
A4E2
102
{ACAD_REACTORS
330
A4E0
102
}
330
A4E0
100
DictionaryVariables
280
     0
  1
STANDARD
  0
DICTIONARYVAR
  5
A4E1
102
{ACAD_REACTORS
330
A4E0
102
}
330
A4E0
100
DictionaryVariables
280
     0
  1
STANDARD
  0
DICTIONARYVAR
  5
A4E3
102
{ACAD_REACTORS
330
A4E0
102
}
330
A4E0
100
DictionaryVariables
280
     0
  1
Imperial24
  0
DICTIONARYVAR
  5
A4E4
102
{ACAD_REACTORS
330
A4E0
102
}
330
A4E0
100
DictionaryVariables
280
     0
  1
Imperial24
  0
DICTIONARYVAR
  5
A4E8
102
{ACAD_REACTORS
330
A4E0
102
}
330
A4E0
100
DictionaryVariables
280
     0
  1
1
  0
DICTIONARYVAR
  5
A4E7
102
{ACAD_REACTORS
330
A4E0
102
}
330
A4E0
100
DictionaryVariables
280
     0
  1
0
  0
DICTIONARYVAR
  5
A4E6
102
{ACAD_REACTORS
330
A4E0
102
}
330
A4E0
100
DictionaryVariables
280
     0
  1
127
  0
DICTIONARYVAR
  5
A4E9
102
{ACAD_REACTORS
330
A4E0
102
}
330
A4E0
100
DictionaryVariables
280
     0
  1
2
  0
DICTIONARY
  5
A526
330
A4CB
100
AcDbDictionary
280
     1
281
     1
  3
ACAD_XREC_ROUNDTRIP
360
A527
  0
DICTIONARY
  5
A528
330
A4CC
100
AcDbDictionary
280
     1
281
     1
  3
ACAD_XREC_ROUNDTRIP
360
A529
  0
DICTIONARY
  5
A52A
330
A4CD
100
AcDbDictionary
280
     1
281
     1
  3
ACAD_XREC_ROUNDTRIP
360
A52B
  0
DICTIONARY
  5
A489
330
A488
100
AcDbDictionary
280
     1
281
     1
  3
ACAD_XREC_ROUNDTRIP
360
A4F0
  3
BUMPTILE
360
A48B
  3
DIFFUSETILE
360
A48A
  3
OPACITYTILE
360
A48E
  3
REFLECTIONTILE
360
A48D
  3
REFRACTIONTILE
360
A48F
  3
SPECULARTILE
360
A48C
  0
DICTIONARY
  5
A481
330
A480
100
AcDbDictionary
280
     1
281
     1
  3
ACAD_XREC_ROUNDTRIP
360
A4EF
  3
BUMPTILE
360
A483
  3
DIFFUSETILE
360
A482
  3
OPACITYTILE
360
A486
  3
REFLECTIONTILE
360
A485
  3
REFRACTIONTILE
360
A487
  3
SPECULARTILE
360
A484
  0
DICTIONARY
  5
A491
330
A490
100
AcDbDictionary
280
     1
281
     1
  3
ACAD_XREC_ROUNDTRIP
360
A4F1
  3
BUMPTILE
360
A493
  3
DIFFUSETILE
360
A492
  3
OPACITYTILE
360
A496
  3
REFLECTIONTILE
360
A495
  3
REFRACTIONTILE
360
A497
  3
SPECULARTILE
360
A494
  0
DICTIONARY
  5
A524
330
A4C9
100
AcDbDictionary
280
     1
281
     1
  3
ACAD_XREC_ROUNDTRIP
360
A525
  0
DICTIONARY
  5
A4EB
330
A4B3
100
AcDbDictionary
280
     1
281
     1
  3
ACAD_ROUNDTRIP_2008_TABLESTYLE_CELLSTYLEMAP
360
A4EC
  3
ACAD_XREC_ROUNDTRIP
360
A522
  0
DICTIONARY
  5
A4FC
330
A49E
100
AcDbDictionary
280
     1
281
     1
  3
ACAD_XREC_ROUNDTRIP
360
A4FD
  0
DICTIONARY
  5
A4FA
330
A49D
100
AcDbDictionary
280
     1
281
     1
  3
ACAD_XREC_ROUNDTRIP
360
A4FB
  0
DICTIONARY
  5
A508
330
A4A4
100
AcDbDictionary
280
     1
281
     1
  3
ACAD_XREC_ROUNDTRIP
360
A509
  0
DICTIONARY
  5
A510
330
A4A8
100
AcDbDictionary
280
     1
281
     1
  3
ACAD_XREC_ROUNDTRIP
360
A511
  0
DICTIONARY
  5
A502
330
A4A1
100
AcDbDictionary
280
     1
281
     1
  3
ACAD_XREC_ROUNDTRIP
360
A503
  0
DICTIONARY
  5
A506
330
A4A3
100
AcDbDictionary
280
     1
281
     1
  3
ACAD_XREC_ROUNDTRIP
360
A507
  0
DICTIONARY
  5
A520
330
A4B0
100
AcDbDictionary
280
     1
281
     1
  3
ACAD_XREC_ROUNDTRIP
360
A521
  0
DICTIONARY
  5
A50E
330
A4A7
100
AcDbDictionary
280
     1
281
     1
  3
ACAD_XREC_ROUNDTRIP
360
A50F
  0
DICTIONARY
  5
A4F2
330
A499
100
AcDbDictionary
280
     1
281
     1
  3
ACAD_XREC_ROUNDTRIP
360
A4F3
  0
DICTIONARY
  5
A4F4
330
A49A
100
AcDbDictionary
280
     1
281
     1
  3
ACAD_XREC_ROUNDTRIP
360
A4F5
  0
DICTIONARY
  5
A4F6
330
A49B
100
AcDbDictionary
280
     1
281
     1
  3
ACAD_XREC_ROUNDTRIP
360
A4F7
  0
DICTIONARY
  5
A4F8
330
A49C
100
AcDbDictionary
280
     1
281
     1
  3
ACAD_XREC_ROUNDTRIP
360
A4F9
  0
DICTIONARY
  5
A500
330
A4A0
100
AcDbDictionary
280
     1
281
     1
  3
ACAD_XREC_ROUNDTRIP
360
A501
  0
DICTIONARY
  5
A51C
330
A4AE
100
AcDbDictionary
280
     1
281
     1
  3
ACAD_XREC_ROUNDTRIP
360
A51D
  0
DICTIONARY
  5
A50C
330
A4A6
100
AcDbDictionary
280
     1
281
     1
  3
ACAD_XREC_ROUNDTRIP
360
A50D
  0
DICTIONARY
  5
A51E
330
A4AF
100
AcDbDictionary
280
     1
281
     1
  3
ACAD_XREC_ROUNDTRIP
360
A51F
  0
DICTIONARY
  5
A504
330
A4A2
100
AcDbDictionary
280
     1
281
     1
  3
ACAD_XREC_ROUNDTRIP
360
A505
  0
DICTIONARY
  5
A51A
330
A4AD
100
AcDbDictionary
280
     1
281
     1
  3
ACAD_XREC_ROUNDTRIP
360
A51B
  0
DICTIONARY
  5
A518
330
A4AC
100
AcDbDictionary
280
     1
281
     1
  3
ACAD_XREC_ROUNDTRIP
360
A519
  0
DICTIONARY
  5
A512
330
A4A9
100
AcDbDictionary
280
     1
281
     1
  3
ACAD_XREC_ROUNDTRIP
360
A513
  0
DICTIONARY
  5
A514
330
A4AA
100
AcDbDictionary
280
     1
281
     1
  3
ACAD_XREC_ROUNDTRIP
360
A515
  0
DICTIONARY
  5
A50A
330
A4A5
100
AcDbDictionary
280
     1
281
     1
  3
ACAD_XREC_ROUNDTRIP
360
A50B
  0
DICTIONARY
  5
A4FE
330
A49F
100
AcDbDictionary
280
     1
281
     1
  3
ACAD_XREC_ROUNDTRIP
360
A4FF
  0
DICTIONARY
  5
A516
330
A4AB
100
AcDbDictionary
280
     1
281
     1
  3
ACAD_XREC_ROUNDTRIP
360
A517
  0
XRECORD
  5
A527
102
{ACAD_REACTORS
330
A526
102
}
330
A526
100
AcDbXrecord
280
     1
102
DISPLAYNAME
  1
Imperial24
102
FLAGS
 90
        0
  0
XRECORD
  5
A529
102
{ACAD_REACTORS
330
A528
102
}
330
A528
100
AcDbXrecord
280
     1
102
SHADEPLOT
 70
     0
102
SHADEPLOTRESLEVEL
 70
     2
102
SHADEPLOTCUSTOMDPI
 70
   300
  0
XRECORD
  5
A52B
102
{ACAD_REACTORS
330
A52A
102
}
330
A52A
100
AcDbXrecord
280
     1
102
SHADEPLOT
 70
     0
102
SHADEPLOTRESLEVEL
 70
     2
102
SHADEPLOTCUSTOMDPI
 70
   300
  0
XRECORD
  5
A4F0
102
{ACAD_REACTORS
330
A489
102
}
330
A489
100
AcDbXrecord
280
     1
102
MATERIAL
148
0.0
149
0.0
149
0.0
 93
        0
 94
      127
282
     0
 72
     0
 77
     0
171
     0
175
     0
179
     0
273
     0
  0
XRECORD
  5
A48B
102
{ACAD_REACTORS
330
A489
102
}
330
A489
100
AcDbXrecord
280
     1
270
     1
271
     1
  0
XRECORD
  5
A48A
102
{ACAD_REACTORS
330
A489
102
}
330
A489
100
AcDbXrecord
280
     1
270
     1
271
     1
  0
XRECORD
  5
A48E
102
{ACAD_REACTORS
330
A489
102
}
330
A489
100
AcDbXrecord
280
     1
270
     1
271
     1
  0
XRECORD
  5
A48D
102
{ACAD_REACTORS
330
A489
102
}
330
A489
100
AcDbXrecord
280
     1
270
     1
271
     1
  0
XRECORD
  5
A48F
102
{ACAD_REACTORS
330
A489
102
}
330
A489
100
AcDbXrecord
280
     1
270
     1
271
     1
  0
XRECORD
  5
A48C
102
{ACAD_REACTORS
330
A489
102
}
330
A489
100
AcDbXrecord
280
     1
270
     1
271
     1
  0
XRECORD
  5
A4EF
102
{ACAD_REACTORS
330
A481
102
}
330
A481
100
AcDbXrecord
280
     1
102
MATERIAL
148
0.0
149
0.0
149
0.0
 93
        0
 94
      127
282
     0
 72
     0
 77
     0
171
     0
175
     0
179
     0
273
     0
  0
XRECORD
  5
A483
102
{ACAD_REACTORS
330
A481
102
}
330
A481
100
AcDbXrecord
280
     1
270
     1
271
     1
  0
XRECORD
  5
A482
102
{ACAD_REACTORS
330
A481
102
}
330
A481
100
AcDbXrecord
280
     1
270
     1
271
     1
  0
XRECORD
  5
A486
102
{ACAD_REACTORS
330
A481
102
}
330
A481
100
AcDbXrecord
280
     1
270
     1
271
     1
  0
XRECORD
  5
A485
102
{ACAD_REACTORS
330
A481
102
}
330
A481
100
AcDbXrecord
280
     1
270
     1
271
     1
  0
XRECORD
  5
A487
102
{ACAD_REACTORS
330
A481
102
}
330
A481
100
AcDbXrecord
280
     1
270
     1
271
     1
  0
XRECORD
  5
A484
102
{ACAD_REACTORS
330
A481
102
}
330
A481
100
AcDbXrecord
280
     1
270
     1
271
     1
  0
XRECORD
  5
A4F1
102
{ACAD_REACTORS
330
A491
102
}
330
A491
100
AcDbXrecord
280
     1
102
MATERIAL
148
0.0
149
0.0
149
0.0
 93
        0
 94
      127
282
     0
 72
     0
 77
     0
171
     0
175
     0
179
     0
273
     0
  0
XRECORD
  5
A493
102
{ACAD_REACTORS
330
A491
102
}
330
A491
100
AcDbXrecord
280
     1
270
     1
271
     1
  0
XRECORD
  5
A492
102
{ACAD_REACTORS
330
A491
102
}
330
A491
100
AcDbXrecord
280
     1
270
     1
271
     1
  0
XRECORD
  5
A496
102
{ACAD_REACTORS
330
A491
102
}
330
A491
100
AcDbXrecord
280
     1
270
     1
271
     1
  0
XRECORD
  5
A495
102
{ACAD_REACTORS
330
A491
102
}
330
A491
100
AcDbXrecord
280
     1
270
     1
271
     1
  0
XRECORD
  5
A497
102
{ACAD_REACTORS
330
A491
102
}
330
A491
100
AcDbXrecord
280
     1
270
     1
271
     1
  0
XRECORD
  5
A494
102
{ACAD_REACTORS
330
A491
102
}
330
A491
100
AcDbXrecord
280
     1
270
     1
271
     1
  0
XRECORD
  5
A525
102
{ACAD_REACTORS
330
A524
102
}
330
A524
100
AcDbXrecord
280
     1
102
DISPLAYNAME
  1
Imperial24
102
FLAGS
 90
        0
  0
CELLSTYLEMAP
  5
A4EC
102
{ACAD_REACTORS
330
A4EB
102
}
330
A4EB
100
AcDbCellStyleMap
 90
        3
300
CELLSTYLE
  1
TABLEFORMAT_BEGIN
 90
        5
170
     1
 91
        0
 92
    32768
 62
   257
 93
        1
300
CONTENTFORMAT
  1
CONTENTFORMAT_BEGIN
 90
        0
 91
        0
 92
      512
 93
        0
300

 40
0.0
140
1.0
 94
        5
 62
     0
340
A261
144
0.25
309
CONTENTFORMAT_END
171
     0
 94
        0
309
TABLEFORMAT_END
  1
CELLSTYLE_BEGIN
 90
        1
 91
        1
300
_TITLE
309
CELLSTYLE_END
300
CELLSTYLE
  1
TABLEFORMAT_BEGIN
 90
        5
170
     1
 91
        0
 92
        0
 62
   257
 93
        1
300
CONTENTFORMAT
  1
CONTENTFORMAT_BEGIN
 90
        0
 91
        0
 92
      512
 93
        0
300

 40
0.0
140
1.0
 94
        5
 62
     0
340
A261
144
0.18
309
CONTENTFORMAT_END
171
     0
 94
        0
309
TABLEFORMAT_END
  1
CELLSTYLE_BEGIN
 90
        2
 91
        1
300
_HEADER
309
CELLSTYLE_END
300
CELLSTYLE
  1
TABLEFORMAT_BEGIN
 90
        5
170
     1
 91
        0
 92
        0
 62
   257
 93
        1
300
CONTENTFORMAT
  1
CONTENTFORMAT_BEGIN
 90
        0
 91
        0
 92
      512
 93
        0
300

 40
0.0
140
1.0
 94
        2
 62
     0
340
A261
144
0.18
309
CONTENTFORMAT_END
171
     0
 94
        0
309
TABLEFORMAT_END
  1
CELLSTYLE_BEGIN
 90
        3
 91
        2
300
_DATA
309
CELLSTYLE_END
  0
XRECORD
  5
A522
102
{ACAD_REACTORS
330
A4EB
102
}
330
A4EB
100
AcDbXrecord
280
     1
102
ACAD_ROUNDTRIP_PRE2007_TABLESTYLE
 90
      512
 91
        0
  1

 92
      512
 93
        0
  2

 94
      512
 95
        0
  3

  0
XRECORD
  5
A4FD
102
{ACAD_REACTORS
330
A4FC
102
}
330
A4FC
100
AcDbXrecord
280
     1
102
RTVSPost2010Prop28
280
     1
102
RTVSPost2010PropOp28
 70
     1
102
RTVSPost2010Prop29
280
     1
102
RTVSPost2010PropOp29
 70
     1
102
RTVSPost2010Prop30
280
     0
102
RTVSPost2010PropOp30
 70
     1
102
RTVSPost2010Prop31
280
     0
102
RTVSPost2010PropOp31
 70
     1
102
RTVSPost2010Prop32
280
     0
102
RTVSPost2010PropOp32
 70
     1
102
RTVSPost2010Prop33
280
     0
102
RTVSPost2010PropOp33
 70
     1
102
RTVSPost2010Prop34
280
     0
102
RTVSPost2010PropOp34
 70
     1
102
RTVSPost2010Prop35
280
     0
102
RTVSPost2010PropOp35
 70
     1
102
RTVSPost2010Prop36
280
     0
102
RTVSPost2010PropOp36
 70
     1
102
RTVSPost2010Prop37
 90
       50
102
RTVSPost2010PropOp37
 70
     1
102
RTVSPost2010Prop38
140
0.0
102
RTVSPost2010PropOp38
 70
     1
102
RTVSPost2010Prop39
140
1.0
102
RTVSPost2010PropOp39
 70
     1
102
RTVSPost2010Prop40
 90
        0
102
RTVSPost2010PropOp40
 70
     1
102
RTVSPost2010Prop41ColorIndex
 90
       18
102
RTVSPost2010Prop41ColorRGB
 90
        0
102
RTVSPost2010PropOp41
 70
     1
102
RTVSPost2010Prop42
 90
       50
102
RTVSPost2010PropOp42
 70
     1
102
RTVSPost2010Prop43
 90
        3
102
RTVSPost2010PropOp43
 70
     1
102
RTVSPost2010Prop44ColorIndex
 90
        5
102
RTVSPost2010Prop44ColorRGB
 90
      255
102
RTVSPost2010PropOp44
 70
     1
102
RTVSPost2010Prop45
280
     0
102
RTVSPost2010PropOp45
 70
     1
102
RTVSPost2010Prop46
 90
       50
102
RTVSPost2010PropOp46
 70
     1
102
RTVSPost2010Prop47
 90
       50
102
RTVSPost2010PropOp47
 70
     1
102
RTVSPost2010Prop48
 90
       50
102
RTVSPost2010PropOp48
 70
     1
102
RTVSPost2010Prop49
280
     0
102
RTVSPost2010PropOp49
 70
     1
102
RTVSPost2010Prop50
 90
       50
102
RTVSPost2010PropOp50
 70
     1
102
RTVSPost2010Prop51ColorIndex
 90
      256
102
RTVSPost2010Prop51ColorRGB
 90
-16777216
102
RTVSPost2010PropOp51
 70
     0
102
RTVSPost2010Prop52
140
1.0
102
RTVSPost2010PropOp52
 70
     0
102
RTVSPost2010Prop53
 90
        2
102
RTVSPost2010PropOp53
 70
     1
102
RTVSPost2010Prop54
  1
strokes_ogs.tif
102
RTVSPost2010PropOp54
 70
     1
102
RTVSPost2010Prop55
280
     0
102
RTVSPost2010PropOp55
 70
     1
102
RTVSPost2010Prop56
140
1.0
102
RTVSPost2010PropOp56
 70
     1
102
RTVSPost2010Prop57
140
1.0
102
RTVSPost2010PropOp57
 70
     1
102
RTVSPropertyOp0
 70
     1
102
RTVSPropertyOp1
 70
     1
102
RTVSPropertyOp2
 70
     1
102
RTVSPropertyOp3
 70
     1
102
RTVSPropertyOp4
 70
     1
102
RTVSPropertyOp5
 70
     1
102
RTVSPropertyOp6
 70
     1
102
RTVSPropertyOp7
 70
     1
102
RTVSPropertyOp8
 70
     1
102
RTVSPropertyOp9
 70
     1
102
RTVSPropertyOp10
 70
     1
102
RTVSPropertyOp11
 70
     1
102
RTVSPropertyOp12
 70
     1
102
RTVSPropertyOp13
 70
     1
102
RTVSPropertyOp14
 70
     1
102
RTVSPropertyOp15
 70
     1
102
RTVSPropertyOp16
 70
     1
102
RTVSPropertyOp17
 70
     1
102
RTVSPropertyOp18
 70
     1
102
RTVSPropertyOp19
 70
     1
102
RTVSPropertyOp20
 70
     1
102
RTVSPropertyOp21
 70
     1
102
RTVSPropertyOp22
 70
     1
102
RTVSPropertyOp23
 70
     1
102
RTVSPropertyOp24
 70
     1
102
RTVSPropertyOp25
 70
     1
102
RTVSPropertyOp26
 70
     1
102
RTVSPropertyOp27
 70
     1
102
RTVSPropertyOp28
 70
     1
102
RTVSPropertyOp29
 70
     1
102
RTVSPropertyOp30
 70
     1
102
RTVSPropertyOp31
 70
     1
102
RTVSPropertyOp32
 70
     1
102
RTVSPropertyOp33
 70
     1
102
RTVSPropertyOp34
 70
     1
102
RTVSPropertyOp35
 70
     1
102
RTVSPropertyOp36
 70
     1
102
RTVSPropertyOp37
 70
     1
102
RTVSPropertyOp38
 70
     1
102
RTVSPropertyOp39
 70
     1
102
RTVSPropertyOp40
 70
     1
102
RTVSPropertyOp41
 70
     1
102
RTVSPropertyOp42
 70
     1
102
RTVSPropertyOp43
 70
     1
102
RTVSPropertyOp44
 70
     1
102
RTVSPropertyOp45
 70
     1
102
RTVSPropertyOp46
 70
     1
102
RTVSPropertyOp47
 70
     1
102
RTVSPropertyOp48
 70
     1
102
RTVSPropertyOp49
 70
     1
102
RTVSPropertyOp50
 70
     1
102
RTVSPropertyOp51
 70
     0
102
RTVSPropertyOp52
 70
     0
102
RTVSPropertyOp53
 70
     1
102
RTVSPropertyOp54
 70
     1
102
RTVSPropertyOp55
 70
     1
102
RTVSPropertyOp56
 70
     1
102
RTVSPropertyOp57
 70
     1
102
RTVSPropertyOp58
 70
     1
102
RTVSPropertyOp59
 70
     1
102
RTVSPropertyOp60
 70
     1
102
RTVSPropertyOp61
 70
     1
102
RTVSPropertyOp62
 70
     1
  0
XRECORD
  5
A4FB
102
{ACAD_REACTORS
330
A4FA
102
}
330
A4FA
100
AcDbXrecord
280
     1
102
RTVSPost2010Prop28
280
     0
102
RTVSPost2010PropOp28
 70
     1
102
RTVSPost2010Prop29
280
     1
102
RTVSPost2010PropOp29
 70
     1
102
RTVSPost2010Prop30
280
     1
102
RTVSPost2010PropOp30
 70
     1
102
RTVSPost2010Prop31
280
     0
102
RTVSPost2010PropOp31
 70
     1
102
RTVSPost2010Prop32
280
     0
102
RTVSPost2010PropOp32
 70
     1
102
RTVSPost2010Prop33
280
     0
102
RTVSPost2010PropOp33
 70
     1
102
RTVSPost2010Prop34
280
     0
102
RTVSPost2010PropOp34
 70
     1
102
RTVSPost2010Prop35
280
     0
102
RTVSPost2010PropOp35
 70
     1
102
RTVSPost2010Prop36
280
     0
102
RTVSPost2010PropOp36
 70
     1
102
RTVSPost2010Prop37
 90
       50
102
RTVSPost2010PropOp37
 70
     1
102
RTVSPost2010Prop38
140
0.0
102
RTVSPost2010PropOp38
 70
     1
102
RTVSPost2010Prop39
140
1.0
102
RTVSPost2010PropOp39
 70
     1
102
RTVSPost2010Prop40
 90
        0
102
RTVSPost2010PropOp40
 70
     1
102
RTVSPost2010Prop41ColorIndex
 90
       18
102
RTVSPost2010Prop41ColorRGB
 90
        0
102
RTVSPost2010PropOp41
 70
     1
102
RTVSPost2010Prop42
 90
       50
102
RTVSPost2010PropOp42
 70
     1
102
RTVSPost2010Prop43
 90
        3
102
RTVSPost2010PropOp43
 70
     1
102
RTVSPost2010Prop44ColorIndex
 90
        5
102
RTVSPost2010Prop44ColorRGB
 90
      255
102
RTVSPost2010PropOp44
 70
     1
102
RTVSPost2010Prop45
280
     0
102
RTVSPost2010PropOp45
 70
     1
102
RTVSPost2010Prop46
 90
       50
102
RTVSPost2010PropOp46
 70
     1
102
RTVSPost2010Prop47
 90
       50
102
RTVSPost2010PropOp47
 70
     1
102
RTVSPost2010Prop48
 90
       50
102
RTVSPost2010PropOp48
 70
     1
102
RTVSPost2010Prop49
280
     0
102
RTVSPost2010PropOp49
 70
     1
102
RTVSPost2010Prop50
 90
       50
102
RTVSPost2010PropOp50
 70
     1
102
RTVSPost2010Prop51ColorIndex
 90
      256
102
RTVSPost2010Prop51ColorRGB
 90
-16777216
102
RTVSPost2010PropOp51
 70
     0
102
RTVSPost2010Prop52
140
1.0
102
RTVSPost2010PropOp52
 70
     0
102
RTVSPost2010Prop53
 90
        2
102
RTVSPost2010PropOp53
 70
     1
102
RTVSPost2010Prop54
  1
strokes_ogs.tif
102
RTVSPost2010PropOp54
 70
     1
102
RTVSPost2010Prop55
280
     0
102
RTVSPost2010PropOp55
 70
     1
102
RTVSPost2010Prop56
140
1.0
102
RTVSPost2010PropOp56
 70
     1
102
RTVSPost2010Prop57
140
1.0
102
RTVSPost2010PropOp57
 70
     1
102
RTVSPropertyOp0
 70
     1
102
RTVSPropertyOp1
 70
     1
102
RTVSPropertyOp2
 70
     1
102
RTVSPropertyOp3
 70
     1
102
RTVSPropertyOp4
 70
     1
102
RTVSPropertyOp5
 70
     1
102
RTVSPropertyOp6
 70
     1
102
RTVSPropertyOp7
 70
     1
102
RTVSPropertyOp8
 70
     1
102
RTVSPropertyOp9
 70
     1
102
RTVSPropertyOp10
 70
     1
102
RTVSPropertyOp11
 70
     1
102
RTVSPropertyOp12
 70
     1
102
RTVSPropertyOp13
 70
     1
102
RTVSPropertyOp14
 70
     1
102
RTVSPropertyOp15
 70
     1
102
RTVSPropertyOp16
 70
     1
102
RTVSPropertyOp17
 70
     1
102
RTVSPropertyOp18
 70
     1
102
RTVSPropertyOp19
 70
     1
102
RTVSPropertyOp20
 70
     1
102
RTVSPropertyOp21
 70
     1
102
RTVSPropertyOp22
 70
     1
102
RTVSPropertyOp23
 70
     1
102
RTVSPropertyOp24
 70
     1
102
RTVSPropertyOp25
 70
     1
102
RTVSPropertyOp26
 70
     1
102
RTVSPropertyOp27
 70
     1
102
RTVSPropertyOp28
 70
     1
102
RTVSPropertyOp29
 70
     1
102
RTVSPropertyOp30
 70
     1
102
RTVSPropertyOp31
 70
     1
102
RTVSPropertyOp32
 70
     1
102
RTVSPropertyOp33
 70
     1
102
RTVSPropertyOp34
 70
     1
102
RTVSPropertyOp35
 70
     1
102
RTVSPropertyOp36
 70
     1
102
RTVSPropertyOp37
 70
     1
102
RTVSPropertyOp38
 70
     1
102
RTVSPropertyOp39
 70
     1
102
RTVSPropertyOp40
 70
     1
102
RTVSPropertyOp41
 70
     1
102
RTVSPropertyOp42
 70
     1
102
RTVSPropertyOp43
 70
     1
102
RTVSPropertyOp44
 70
     1
102
RTVSPropertyOp45
 70
     1
102
RTVSPropertyOp46
 70
     1
102
RTVSPropertyOp47
 70
     1
102
RTVSPropertyOp48
 70
     1
102
RTVSPropertyOp49
 70
     1
102
RTVSPropertyOp50
 70
     1
102
RTVSPropertyOp51
 70
     0
102
RTVSPropertyOp52
 70
     0
102
RTVSPropertyOp53
 70
     1
102
RTVSPropertyOp54
 70
     1
102
RTVSPropertyOp55
 70
     1
102
RTVSPropertyOp56
 70
     1
102
RTVSPropertyOp57
 70
     1
102
RTVSPropertyOp58
 70
     1
102
RTVSPropertyOp59
 70
     1
102
RTVSPropertyOp60
 70
     1
102
RTVSPropertyOp61
 70
     1
102
RTVSPropertyOp62
 70
     1
  0
XRECORD
  5
A509
102
{ACAD_REACTORS
330
A508
102
}
330
A508
100
AcDbXrecord
280
     1
102
RTVSPost2010Prop28
280
     0
102
RTVSPost2010PropOp28
 70
     1
102
RTVSPost2010Prop29
280
     1
102
RTVSPost2010PropOp29
 70
     1
102
RTVSPost2010Prop30
280
     1
102
RTVSPost2010PropOp30
 70
     1
102
RTVSPost2010Prop31
280
     0
102
RTVSPost2010PropOp31
 70
     1
102
RTVSPost2010Prop32
280
     0
102
RTVSPost2010PropOp32
 70
     1
102
RTVSPost2010Prop33
280
     0
102
RTVSPost2010PropOp33
 70
     1
102
RTVSPost2010Prop34
280
     0
102
RTVSPost2010PropOp34
 70
     1
102
RTVSPost2010Prop35
280
     0
102
RTVSPost2010PropOp35
 70
     1
102
RTVSPost2010Prop36
280
     0
102
RTVSPost2010PropOp36
 70
     1
102
RTVSPost2010Prop37
 90
       50
102
RTVSPost2010PropOp37
 70
     1
102
RTVSPost2010Prop38
140
0.0
102
RTVSPost2010PropOp38
 70
     1
102
RTVSPost2010Prop39
140
1.0
102
RTVSPost2010PropOp39
 70
     1
102
RTVSPost2010Prop40
 90
        0
102
RTVSPost2010PropOp40
 70
     1
102
RTVSPost2010Prop41ColorIndex
 90
       18
102
RTVSPost2010Prop41ColorRGB
 90
        0
102
RTVSPost2010PropOp41
 70
     1
102
RTVSPost2010Prop42
 90
       50
102
RTVSPost2010PropOp42
 70
     1
102
RTVSPost2010Prop43
 90
        3
102
RTVSPost2010PropOp43
 70
     1
102
RTVSPost2010Prop44ColorIndex
 90
        5
102
RTVSPost2010Prop44ColorRGB
 90
      255
102
RTVSPost2010PropOp44
 70
     1
102
RTVSPost2010Prop45
280
     0
102
RTVSPost2010PropOp45
 70
     1
102
RTVSPost2010Prop46
 90
       50
102
RTVSPost2010PropOp46
 70
     1
102
RTVSPost2010Prop47
 90
       50
102
RTVSPost2010PropOp47
 70
     1
102
RTVSPost2010Prop48
 90
       50
102
RTVSPost2010PropOp48
 70
     1
102
RTVSPost2010Prop49
280
     0
102
RTVSPost2010PropOp49
 70
     1
102
RTVSPost2010Prop50
 90
       50
102
RTVSPost2010PropOp50
 70
     1
102
RTVSPost2010Prop51ColorIndex
 90
      256
102
RTVSPost2010Prop51ColorRGB
 90
-16777216
102
RTVSPost2010PropOp51
 70
     0
102
RTVSPost2010Prop52
140
1.0
102
RTVSPost2010PropOp52
 70
     0
102
RTVSPost2010Prop53
 90
        2
102
RTVSPost2010PropOp53
 70
     1
102
RTVSPost2010Prop54
  1
strokes_ogs.tif
102
RTVSPost2010PropOp54
 70
     1
102
RTVSPost2010Prop55
280
     0
102
RTVSPost2010PropOp55
 70
     1
102
RTVSPost2010Prop56
140
1.0
102
RTVSPost2010PropOp56
 70
     1
102
RTVSPost2010Prop57
140
1.0
102
RTVSPost2010PropOp57
 70
     1
102
RTVSPropertyOp0
 70
     1
102
RTVSPropertyOp1
 70
     1
102
RTVSPropertyOp2
 70
     1
102
RTVSPropertyOp3
 70
     1
102
RTVSPropertyOp4
 70
     1
102
RTVSPropertyOp5
 70
     1
102
RTVSPropertyOp6
 70
     1
102
RTVSPropertyOp7
 70
     1
102
RTVSPropertyOp8
 70
     1
102
RTVSPropertyOp9
 70
     1
102
RTVSPropertyOp10
 70
     1
102
RTVSPropertyOp11
 70
     1
102
RTVSPropertyOp12
 70
     1
102
RTVSPropertyOp13
 70
     1
102
RTVSPropertyOp14
 70
     1
102
RTVSPropertyOp15
 70
     1
102
RTVSPropertyOp16
 70
     1
102
RTVSPropertyOp17
 70
     1
102
RTVSPropertyOp18
 70
     1
102
RTVSPropertyOp19
 70
     1
102
RTVSPropertyOp20
 70
     1
102
RTVSPropertyOp21
 70
     1
102
RTVSPropertyOp22
 70
     1
102
RTVSPropertyOp23
 70
     1
102
RTVSPropertyOp24
 70
     1
102
RTVSPropertyOp25
 70
     1
102
RTVSPropertyOp26
 70
     1
102
RTVSPropertyOp27
 70
     1
102
RTVSPropertyOp28
 70
     1
102
RTVSPropertyOp29
 70
     1
102
RTVSPropertyOp30
 70
     1
102
RTVSPropertyOp31
 70
     1
102
RTVSPropertyOp32
 70
     1
102
RTVSPropertyOp33
 70
     1
102
RTVSPropertyOp34
 70
     1
102
RTVSPropertyOp35
 70
     1
102
RTVSPropertyOp36
 70
     1
102
RTVSPropertyOp37
 70
     1
102
RTVSPropertyOp38
 70
     1
102
RTVSPropertyOp39
 70
     1
102
RTVSPropertyOp40
 70
     1
102
RTVSPropertyOp41
 70
     1
102
RTVSPropertyOp42
 70
     1
102
RTVSPropertyOp43
 70
     1
102
RTVSPropertyOp44
 70
     1
102
RTVSPropertyOp45
 70
     1
102
RTVSPropertyOp46
 70
     1
102
RTVSPropertyOp47
 70
     1
102
RTVSPropertyOp48
 70
     1
102
RTVSPropertyOp49
 70
     1
102
RTVSPropertyOp50
 70
     1
102
RTVSPropertyOp51
 70
     0
102
RTVSPropertyOp52
 70
     0
102
RTVSPropertyOp53
 70
     1
102
RTVSPropertyOp54
 70
     1
102
RTVSPropertyOp55
 70
     1
102
RTVSPropertyOp56
 70
     1
102
RTVSPropertyOp57
 70
     1
102
RTVSPropertyOp58
 70
     1
102
RTVSPropertyOp59
 70
     1
102
RTVSPropertyOp60
 70
     1
102
RTVSPropertyOp61
 70
     1
102
RTVSPropertyOp62
 70
     1
  0
XRECORD
  5
A511
102
{ACAD_REACTORS
330
A510
102
}
330
A510
100
AcDbXrecord
280
     1
102
RTVSPost2010Prop28
280
     0
102
RTVSPost2010PropOp28
 70
     1
102
RTVSPost2010Prop29
280
     1
102
RTVSPost2010PropOp29
 70
     1
102
RTVSPost2010Prop30
280
     1
102
RTVSPost2010PropOp30
 70
     1
102
RTVSPost2010Prop31
280
     0
102
RTVSPost2010PropOp31
 70
     1
102
RTVSPost2010Prop32
280
     0
102
RTVSPost2010PropOp32
 70
     1
102
RTVSPost2010Prop33
280
     0
102
RTVSPost2010PropOp33
 70
     1
102
RTVSPost2010Prop34
280
     0
102
RTVSPost2010PropOp34
 70
     1
102
RTVSPost2010Prop35
280
     0
102
RTVSPost2010PropOp35
 70
     1
102
RTVSPost2010Prop36
280
     0
102
RTVSPost2010PropOp36
 70
     1
102
RTVSPost2010Prop37
 90
       50
102
RTVSPost2010PropOp37
 70
     1
102
RTVSPost2010Prop38
140
0.0
102
RTVSPost2010PropOp38
 70
     1
102
RTVSPost2010Prop39
140
1.0
102
RTVSPost2010PropOp39
 70
     1
102
RTVSPost2010Prop40
 90
        0
102
RTVSPost2010PropOp40
 70
     1
102
RTVSPost2010Prop41ColorIndex
 90
       18
102
RTVSPost2010Prop41ColorRGB
 90
        0
102
RTVSPost2010PropOp41
 70
     1
102
RTVSPost2010Prop42
 90
       50
102
RTVSPost2010PropOp42
 70
     1
102
RTVSPost2010Prop43
 90
        3
102
RTVSPost2010PropOp43
 70
     1
102
RTVSPost2010Prop44ColorIndex
 90
        5
102
RTVSPost2010Prop44ColorRGB
 90
      255
102
RTVSPost2010PropOp44
 70
     1
102
RTVSPost2010Prop45
280
     0
102
RTVSPost2010PropOp45
 70
     1
102
RTVSPost2010Prop46
 90
       50
102
RTVSPost2010PropOp46
 70
     1
102
RTVSPost2010Prop47
 90
       50
102
RTVSPost2010PropOp47
 70
     1
102
RTVSPost2010Prop48
 90
       50
102
RTVSPost2010PropOp48
 70
     1
102
RTVSPost2010Prop49
280
     0
102
RTVSPost2010PropOp49
 70
     1
102
RTVSPost2010Prop50
 90
       50
102
RTVSPost2010PropOp50
 70
     1
102
RTVSPost2010Prop51ColorIndex
 90
      256
102
RTVSPost2010Prop51ColorRGB
 90
-16777216
102
RTVSPost2010PropOp51
 70
     0
102
RTVSPost2010Prop52
140
1.0
102
RTVSPost2010PropOp52
 70
     0
102
RTVSPost2010Prop53
 90
        2
102
RTVSPost2010PropOp53
 70
     1
102
RTVSPost2010Prop54
  1
strokes_ogs.tif
102
RTVSPost2010PropOp54
 70
     1
102
RTVSPost2010Prop55
280
     0
102
RTVSPost2010PropOp55
 70
     1
102
RTVSPost2010Prop56
140
1.0
102
RTVSPost2010PropOp56
 70
     1
102
RTVSPost2010Prop57
140
1.0
102
RTVSPost2010PropOp57
 70
     1
102
RTVSPropertyOp0
 70
     1
102
RTVSPropertyOp1
 70
     1
102
RTVSPropertyOp2
 70
     1
102
RTVSPropertyOp3
 70
     1
102
RTVSPropertyOp4
 70
     1
102
RTVSPropertyOp5
 70
     1
102
RTVSPropertyOp6
 70
     1
102
RTVSPropertyOp7
 70
     1
102
RTVSPropertyOp8
 70
     1
102
RTVSPropertyOp9
 70
     1
102
RTVSPropertyOp10
 70
     1
102
RTVSPropertyOp11
 70
     1
102
RTVSPropertyOp12
 70
     1
102
RTVSPropertyOp13
 70
     1
102
RTVSPropertyOp14
 70
     1
102
RTVSPropertyOp15
 70
     1
102
RTVSPropertyOp16
 70
     1
102
RTVSPropertyOp17
 70
     1
102
RTVSPropertyOp18
 70
     1
102
RTVSPropertyOp19
 70
     1
102
RTVSPropertyOp20
 70
     1
102
RTVSPropertyOp21
 70
     1
102
RTVSPropertyOp22
 70
     1
102
RTVSPropertyOp23
 70
     1
102
RTVSPropertyOp24
 70
     1
102
RTVSPropertyOp25
 70
     1
102
RTVSPropertyOp26
 70
     1
102
RTVSPropertyOp27
 70
     1
102
RTVSPropertyOp28
 70
     1
102
RTVSPropertyOp29
 70
     1
102
RTVSPropertyOp30
 70
     1
102
RTVSPropertyOp31
 70
     1
102
RTVSPropertyOp32
 70
     1
102
RTVSPropertyOp33
 70
     1
102
RTVSPropertyOp34
 70
     1
102
RTVSPropertyOp35
 70
     1
102
RTVSPropertyOp36
 70
     1
102
RTVSPropertyOp37
 70
     1
102
RTVSPropertyOp38
 70
     1
102
RTVSPropertyOp39
 70
     1
102
RTVSPropertyOp40
 70
     1
102
RTVSPropertyOp41
 70
     1
102
RTVSPropertyOp42
 70
     1
102
RTVSPropertyOp43
 70
     1
102
RTVSPropertyOp44
 70
     1
102
RTVSPropertyOp45
 70
     1
102
RTVSPropertyOp46
 70
     1
102
RTVSPropertyOp47
 70
     1
102
RTVSPropertyOp48
 70
     1
102
RTVSPropertyOp49
 70
     1
102
RTVSPropertyOp50
 70
     1
102
RTVSPropertyOp51
 70
     0
102
RTVSPropertyOp52
 70
     0
102
RTVSPropertyOp53
 70
     1
102
RTVSPropertyOp54
 70
     1
102
RTVSPropertyOp55
 70
     1
102
RTVSPropertyOp56
 70
     1
102
RTVSPropertyOp57
 70
     1
102
RTVSPropertyOp58
 70
     1
102
RTVSPropertyOp59
 70
     1
102
RTVSPropertyOp60
 70
     1
102
RTVSPropertyOp61
 70
     1
102
RTVSPropertyOp62
 70
     1
  0
XRECORD
  5
A503
102
{ACAD_REACTORS
330
A502
102
}
330
A502
100
AcDbXrecord
280
     1
102
RTVSPost2010Prop28
280
     0
102
RTVSPost2010PropOp28
 70
     1
102
RTVSPost2010Prop29
280
     1
102
RTVSPost2010PropOp29
 70
     1
102
RTVSPost2010Prop30
280
     1
102
RTVSPost2010PropOp30
 70
     1
102
RTVSPost2010Prop31
280
     0
102
RTVSPost2010PropOp31
 70
     1
102
RTVSPost2010Prop32
280
     0
102
RTVSPost2010PropOp32
 70
     1
102
RTVSPost2010Prop33
280
     0
102
RTVSPost2010PropOp33
 70
     1
102
RTVSPost2010Prop34
280
     0
102
RTVSPost2010PropOp34
 70
     1
102
RTVSPost2010Prop35
280
     0
102
RTVSPost2010PropOp35
 70
     1
102
RTVSPost2010Prop36
280
     0
102
RTVSPost2010PropOp36
 70
     1
102
RTVSPost2010Prop37
 90
       50
102
RTVSPost2010PropOp37
 70
     1
102
RTVSPost2010Prop38
140
0.0
102
RTVSPost2010PropOp38
 70
     1
102
RTVSPost2010Prop39
140
1.0
102
RTVSPost2010PropOp39
 70
     1
102
RTVSPost2010Prop40
 90
        0
102
RTVSPost2010PropOp40
 70
     1
102
RTVSPost2010Prop41ColorIndex
 90
       18
102
RTVSPost2010Prop41ColorRGB
 90
        0
102
RTVSPost2010PropOp41
 70
     1
102
RTVSPost2010Prop42
 90
       50
102
RTVSPost2010PropOp42
 70
     1
102
RTVSPost2010Prop43
 90
        3
102
RTVSPost2010PropOp43
 70
     1
102
RTVSPost2010Prop44ColorIndex
 90
        5
102
RTVSPost2010Prop44ColorRGB
 90
      255
102
RTVSPost2010PropOp44
 70
     1
102
RTVSPost2010Prop45
280
     0
102
RTVSPost2010PropOp45
 70
     1
102
RTVSPost2010Prop46
 90
       50
102
RTVSPost2010PropOp46
 70
     1
102
RTVSPost2010Prop47
 90
       50
102
RTVSPost2010PropOp47
 70
     1
102
RTVSPost2010Prop48
 90
       50
102
RTVSPost2010PropOp48
 70
     1
102
RTVSPost2010Prop49
280
     0
102
RTVSPost2010PropOp49
 70
     1
102
RTVSPost2010Prop50
 90
       50
102
RTVSPost2010PropOp50
 70
     1
102
RTVSPost2010Prop51ColorIndex
 90
      256
102
RTVSPost2010Prop51ColorRGB
 90
-16777216
102
RTVSPost2010PropOp51
 70
     0
102
RTVSPost2010Prop52
140
1.0
102
RTVSPost2010PropOp52
 70
     0
102
RTVSPost2010Prop53
 90
        2
102
RTVSPost2010PropOp53
 70
     1
102
RTVSPost2010Prop54
  1
strokes_ogs.tif
102
RTVSPost2010PropOp54
 70
     1
102
RTVSPost2010Prop55
280
     0
102
RTVSPost2010PropOp55
 70
     1
102
RTVSPost2010Prop56
140
1.0
102
RTVSPost2010PropOp56
 70
     1
102
RTVSPost2010Prop57
140
1.0
102
RTVSPost2010PropOp57
 70
     1
102
RTVSPropertyOp0
 70
     1
102
RTVSPropertyOp1
 70
     1
102
RTVSPropertyOp2
 70
     1
102
RTVSPropertyOp3
 70
     1
102
RTVSPropertyOp4
 70
     1
102
RTVSPropertyOp5
 70
     1
102
RTVSPropertyOp6
 70
     1
102
RTVSPropertyOp7
 70
     1
102
RTVSPropertyOp8
 70
     1
102
RTVSPropertyOp9
 70
     1
102
RTVSPropertyOp10
 70
     1
102
RTVSPropertyOp11
 70
     1
102
RTVSPropertyOp12
 70
     1
102
RTVSPropertyOp13
 70
     1
102
RTVSPropertyOp14
 70
     1
102
RTVSPropertyOp15
 70
     1
102
RTVSPropertyOp16
 70
     1
102
RTVSPropertyOp17
 70
     1
102
RTVSPropertyOp18
 70
     1
102
RTVSPropertyOp19
 70
     1
102
RTVSPropertyOp20
 70
     1
102
RTVSPropertyOp21
 70
     1
102
RTVSPropertyOp22
 70
     1
102
RTVSPropertyOp23
 70
     1
102
RTVSPropertyOp24
 70
     1
102
RTVSPropertyOp25
 70
     1
102
RTVSPropertyOp26
 70
     1
102
RTVSPropertyOp27
 70
     1
102
RTVSPropertyOp28
 70
     1
102
RTVSPropertyOp29
 70
     1
102
RTVSPropertyOp30
 70
     1
102
RTVSPropertyOp31
 70
     1
102
RTVSPropertyOp32
 70
     1
102
RTVSPropertyOp33
 70
     1
102
RTVSPropertyOp34
 70
     1
102
RTVSPropertyOp35
 70
     1
102
RTVSPropertyOp36
 70
     1
102
RTVSPropertyOp37
 70
     1
102
RTVSPropertyOp38
 70
     1
102
RTVSPropertyOp39
 70
     1
102
RTVSPropertyOp40
 70
     1
102
RTVSPropertyOp41
 70
     1
102
RTVSPropertyOp42
 70
     1
102
RTVSPropertyOp43
 70
     1
102
RTVSPropertyOp44
 70
     1
102
RTVSPropertyOp45
 70
     1
102
RTVSPropertyOp46
 70
     1
102
RTVSPropertyOp47
 70
     1
102
RTVSPropertyOp48
 70
     1
102
RTVSPropertyOp49
 70
     1
102
RTVSPropertyOp50
 70
     1
102
RTVSPropertyOp51
 70
     0
102
RTVSPropertyOp52
 70
     0
102
RTVSPropertyOp53
 70
     1
102
RTVSPropertyOp54
 70
     1
102
RTVSPropertyOp55
 70
     1
102
RTVSPropertyOp56
 70
     1
102
RTVSPropertyOp57
 70
     1
102
RTVSPropertyOp58
 70
     1
102
RTVSPropertyOp59
 70
     1
102
RTVSPropertyOp60
 70
     1
102
RTVSPropertyOp61
 70
     1
102
RTVSPropertyOp62
 70
     1
  0
XRECORD
  5
A507
102
{ACAD_REACTORS
330
A506
102
}
330
A506
100
AcDbXrecord
280
     1
102
RTVSPost2010Prop28
280
     0
102
RTVSPost2010PropOp28
 70
     1
102
RTVSPost2010Prop29
280
     1
102
RTVSPost2010PropOp29
 70
     1
102
RTVSPost2010Prop30
280
     1
102
RTVSPost2010PropOp30
 70
     1
102
RTVSPost2010Prop31
280
     0
102
RTVSPost2010PropOp31
 70
     1
102
RTVSPost2010Prop32
280
     0
102
RTVSPost2010PropOp32
 70
     1
102
RTVSPost2010Prop33
280
     0
102
RTVSPost2010PropOp33
 70
     1
102
RTVSPost2010Prop34
280
     0
102
RTVSPost2010PropOp34
 70
     1
102
RTVSPost2010Prop35
280
     0
102
RTVSPost2010PropOp35
 70
     1
102
RTVSPost2010Prop36
280
     0
102
RTVSPost2010PropOp36
 70
     1
102
RTVSPost2010Prop37
 90
       50
102
RTVSPost2010PropOp37
 70
     1
102
RTVSPost2010Prop38
140
0.0
102
RTVSPost2010PropOp38
 70
     1
102
RTVSPost2010Prop39
140
1.0
102
RTVSPost2010PropOp39
 70
     1
102
RTVSPost2010Prop40
 90
        0
102
RTVSPost2010PropOp40
 70
     1
102
RTVSPost2010Prop41ColorIndex
 90
       18
102
RTVSPost2010Prop41ColorRGB
 90
        0
102
RTVSPost2010PropOp41
 70
     1
102
RTVSPost2010Prop42
 90
       50
102
RTVSPost2010PropOp42
 70
     1
102
RTVSPost2010Prop43
 90
        3
102
RTVSPost2010PropOp43
 70
     1
102
RTVSPost2010Prop44ColorIndex
 90
        5
102
RTVSPost2010Prop44ColorRGB
 90
      255
102
RTVSPost2010PropOp44
 70
     1
102
RTVSPost2010Prop45
280
     0
102
RTVSPost2010PropOp45
 70
     1
102
RTVSPost2010Prop46
 90
       50
102
RTVSPost2010PropOp46
 70
     1
102
RTVSPost2010Prop47
 90
       50
102
RTVSPost2010PropOp47
 70
     1
102
RTVSPost2010Prop48
 90
       50
102
RTVSPost2010PropOp48
 70
     1
102
RTVSPost2010Prop49
280
     0
102
RTVSPost2010PropOp49
 70
     1
102
RTVSPost2010Prop50
 90
       50
102
RTVSPost2010PropOp50
 70
     1
102
RTVSPost2010Prop51ColorIndex
 90
      256
102
RTVSPost2010Prop51ColorRGB
 90
-16777216
102
RTVSPost2010PropOp51
 70
     0
102
RTVSPost2010Prop52
140
1.0
102
RTVSPost2010PropOp52
 70
     0
102
RTVSPost2010Prop53
 90
        2
102
RTVSPost2010PropOp53
 70
     1
102
RTVSPost2010Prop54
  1
strokes_ogs.tif
102
RTVSPost2010PropOp54
 70
     1
102
RTVSPost2010Prop55
280
     0
102
RTVSPost2010PropOp55
 70
     1
102
RTVSPost2010Prop56
140
1.0
102
RTVSPost2010PropOp56
 70
     1
102
RTVSPost2010Prop57
140
1.0
102
RTVSPost2010PropOp57
 70
     1
102
RTVSPropertyOp0
 70
     1
102
RTVSPropertyOp1
 70
     1
102
RTVSPropertyOp2
 70
     1
102
RTVSPropertyOp3
 70
     1
102
RTVSPropertyOp4
 70
     1
102
RTVSPropertyOp5
 70
     1
102
RTVSPropertyOp6
 70
     1
102
RTVSPropertyOp7
 70
     1
102
RTVSPropertyOp8
 70
     1
102
RTVSPropertyOp9
 70
     1
102
RTVSPropertyOp10
 70
     1
102
RTVSPropertyOp11
 70
     1
102
RTVSPropertyOp12
 70
     1
102
RTVSPropertyOp13
 70
     1
102
RTVSPropertyOp14
 70
     1
102
RTVSPropertyOp15
 70
     1
102
RTVSPropertyOp16
 70
     1
102
RTVSPropertyOp17
 70
     1
102
RTVSPropertyOp18
 70
     1
102
RTVSPropertyOp19
 70
     1
102
RTVSPropertyOp20
 70
     1
102
RTVSPropertyOp21
 70
     1
102
RTVSPropertyOp22
 70
     1
102
RTVSPropertyOp23
 70
     1
102
RTVSPropertyOp24
 70
     1
102
RTVSPropertyOp25
 70
     1
102
RTVSPropertyOp26
 70
     1
102
RTVSPropertyOp27
 70
     1
102
RTVSPropertyOp28
 70
     1
102
RTVSPropertyOp29
 70
     1
102
RTVSPropertyOp30
 70
     1
102
RTVSPropertyOp31
 70
     1
102
RTVSPropertyOp32
 70
     1
102
RTVSPropertyOp33
 70
     1
102
RTVSPropertyOp34
 70
     1
102
RTVSPropertyOp35
 70
     1
102
RTVSPropertyOp36
 70
     1
102
RTVSPropertyOp37
 70
     1
102
RTVSPropertyOp38
 70
     1
102
RTVSPropertyOp39
 70
     1
102
RTVSPropertyOp40
 70
     1
102
RTVSPropertyOp41
 70
     1
102
RTVSPropertyOp42
 70
     1
102
RTVSPropertyOp43
 70
     1
102
RTVSPropertyOp44
 70
     1
102
RTVSPropertyOp45
 70
     1
102
RTVSPropertyOp46
 70
     1
102
RTVSPropertyOp47
 70
     1
102
RTVSPropertyOp48
 70
     1
102
RTVSPropertyOp49
 70
     1
102
RTVSPropertyOp50
 70
     1
102
RTVSPropertyOp51
 70
     0
102
RTVSPropertyOp52
 70
     0
102
RTVSPropertyOp53
 70
     1
102
RTVSPropertyOp54
 70
     1
102
RTVSPropertyOp55
 70
     1
102
RTVSPropertyOp56
 70
     1
102
RTVSPropertyOp57
 70
     1
102
RTVSPropertyOp58
 70
     1
102
RTVSPropertyOp59
 70
     1
102
RTVSPropertyOp60
 70
     1
102
RTVSPropertyOp61
 70
     1
102
RTVSPropertyOp62
 70
     1
  0
XRECORD
  5
A521
102
{ACAD_REACTORS
330
A520
102
}
330
A520
100
AcDbXrecord
280
     1
102
RTVSPost2010Prop28
280
     0
102
RTVSPost2010PropOp28
 70
     1
102
RTVSPost2010Prop29
280
     1
102
RTVSPost2010PropOp29
 70
     1
102
RTVSPost2010Prop30
280
     1
102
RTVSPost2010PropOp30
 70
     1
102
RTVSPost2010Prop31
280
     0
102
RTVSPost2010PropOp31
 70
     1
102
RTVSPost2010Prop32
280
     0
102
RTVSPost2010PropOp32
 70
     1
102
RTVSPost2010Prop33
280
     0
102
RTVSPost2010PropOp33
 70
     1
102
RTVSPost2010Prop34
280
     0
102
RTVSPost2010PropOp34
 70
     1
102
RTVSPost2010Prop35
280
     0
102
RTVSPost2010PropOp35
 70
     1
102
RTVSPost2010Prop36
280
     0
102
RTVSPost2010PropOp36
 70
     1
102
RTVSPost2010Prop37
 90
       50
102
RTVSPost2010PropOp37
 70
     0
102
RTVSPost2010Prop38
140
0.0
102
RTVSPost2010PropOp38
 70
     0
102
RTVSPost2010Prop39
140
1.0
102
RTVSPost2010PropOp39
 70
     0
102
RTVSPost2010Prop40
 90
        0
102
RTVSPost2010PropOp40
 70
     0
102
RTVSPost2010Prop41ColorIndex
 90
       18
102
RTVSPost2010Prop41ColorRGB
 90
        0
102
RTVSPost2010PropOp41
 70
     0
102
RTVSPost2010Prop42
 90
       50
102
RTVSPost2010PropOp42
 70
     0
102
RTVSPost2010Prop43
 90
        3
102
RTVSPost2010PropOp43
 70
     0
102
RTVSPost2010Prop44ColorIndex
 90
        5
102
RTVSPost2010Prop44ColorRGB
 90
      255
102
RTVSPost2010PropOp44
 70
     0
102
RTVSPost2010Prop45
280
     0
102
RTVSPost2010PropOp45
 70
     1
102
RTVSPost2010Prop46
 90
       50
102
RTVSPost2010PropOp46
 70
     0
102
RTVSPost2010Prop47
 90
       50
102
RTVSPost2010PropOp47
 70
     0
102
RTVSPost2010Prop48
 90
       50
102
RTVSPost2010PropOp48
 70
     0
102
RTVSPost2010Prop49
280
     0
102
RTVSPost2010PropOp49
 70
     1
102
RTVSPost2010Prop50
 90
       50
102
RTVSPost2010PropOp50
 70
     0
102
RTVSPost2010Prop51ColorIndex
 90
      256
102
RTVSPost2010Prop51ColorRGB
 90
-16777216
102
RTVSPost2010PropOp51
 70
     0
102
RTVSPost2010Prop52
140
1.0
102
RTVSPost2010PropOp52
 70
     0
102
RTVSPost2010Prop53
 90
        2
102
RTVSPost2010PropOp53
 70
     0
102
RTVSPost2010Prop54
  1
strokes_ogs.tif
102
RTVSPost2010PropOp54
 70
     0
102
RTVSPost2010Prop55
280
     0
102
RTVSPost2010PropOp55
 70
     1
102
RTVSPost2010Prop56
140
1.0
102
RTVSPost2010PropOp56
 70
     0
102
RTVSPost2010Prop57
140
1.0
102
RTVSPost2010PropOp57
 70
     0
102
RTVSPropertyOp0
 70
     0
102
RTVSPropertyOp1
 70
     0
102
RTVSPropertyOp2
 70
     0
102
RTVSPropertyOp3
 70
     0
102
RTVSPropertyOp4
 70
     0
102
RTVSPropertyOp5
 70
     0
102
RTVSPropertyOp6
 70
     0
102
RTVSPropertyOp7
 70
     0
102
RTVSPropertyOp8
 70
     0
102
RTVSPropertyOp9
 70
     0
102
RTVSPropertyOp10
 70
     0
102
RTVSPropertyOp11
 70
     0
102
RTVSPropertyOp12
 70
     0
102
RTVSPropertyOp13
 70
     0
102
RTVSPropertyOp14
 70
     2
102
RTVSPropertyOp15
 70
     0
102
RTVSPropertyOp16
 70
     0
102
RTVSPropertyOp17
 70
     0
102
RTVSPropertyOp18
 70
     0
102
RTVSPropertyOp19
 70
     0
102
RTVSPropertyOp20
 70
     0
102
RTVSPropertyOp21
 70
     0
102
RTVSPropertyOp22
 70
     0
102
RTVSPropertyOp23
 70
     0
102
RTVSPropertyOp24
 70
     0
102
RTVSPropertyOp25
 70
     0
102
RTVSPropertyOp26
 70
     0
102
RTVSPropertyOp27
 70
     0
102
RTVSPropertyOp28
 70
     1
102
RTVSPropertyOp29
 70
     1
102
RTVSPropertyOp30
 70
     1
102
RTVSPropertyOp31
 70
     1
102
RTVSPropertyOp32
 70
     1
102
RTVSPropertyOp33
 70
     1
102
RTVSPropertyOp34
 70
     1
102
RTVSPropertyOp35
 70
     1
102
RTVSPropertyOp36
 70
     1
102
RTVSPropertyOp37
 70
     0
102
RTVSPropertyOp38
 70
     0
102
RTVSPropertyOp39
 70
     0
102
RTVSPropertyOp40
 70
     0
102
RTVSPropertyOp41
 70
     0
102
RTVSPropertyOp42
 70
     0
102
RTVSPropertyOp43
 70
     0
102
RTVSPropertyOp44
 70
     0
102
RTVSPropertyOp45
 70
     1
102
RTVSPropertyOp46
 70
     0
102
RTVSPropertyOp47
 70
     0
102
RTVSPropertyOp48
 70
     0
102
RTVSPropertyOp49
 70
     1
102
RTVSPropertyOp50
 70
     0
102
RTVSPropertyOp51
 70
     0
102
RTVSPropertyOp52
 70
     0
102
RTVSPropertyOp53
 70
     0
102
RTVSPropertyOp54
 70
     0
102
RTVSPropertyOp55
 70
     1
102
RTVSPropertyOp56
 70
     0
102
RTVSPropertyOp57
 70
     0
102
RTVSPropertyOp58
 70
     0
102
RTVSPropertyOp59
 70
     0
102
RTVSPropertyOp60
 70
     0
102
RTVSPropertyOp61
 70
     0
102
RTVSPropertyOp62
 70
     0
  0
XRECORD
  5
A50F
102
{ACAD_REACTORS
330
A50E
102
}
330
A50E
100
AcDbXrecord
280
     1
102
RTVSPost2010Prop28
280
     0
102
RTVSPost2010PropOp28
 70
     1
102
RTVSPost2010Prop29
280
     1
102
RTVSPost2010PropOp29
 70
     1
102
RTVSPost2010Prop30
280
     1
102
RTVSPost2010PropOp30
 70
     1
102
RTVSPost2010Prop31
280
     0
102
RTVSPost2010PropOp31
 70
     1
102
RTVSPost2010Prop32
280
     0
102
RTVSPost2010PropOp32
 70
     1
102
RTVSPost2010Prop33
280
     0
102
RTVSPost2010PropOp33
 70
     1
102
RTVSPost2010Prop34
280
     0
102
RTVSPost2010PropOp34
 70
     1
102
RTVSPost2010Prop35
280
     0
102
RTVSPost2010PropOp35
 70
     1
102
RTVSPost2010Prop36
280
     0
102
RTVSPost2010PropOp36
 70
     1
102
RTVSPost2010Prop37
 90
       50
102
RTVSPost2010PropOp37
 70
     1
102
RTVSPost2010Prop38
140
0.0
102
RTVSPost2010PropOp38
 70
     1
102
RTVSPost2010Prop39
140
1.0
102
RTVSPost2010PropOp39
 70
     1
102
RTVSPost2010Prop40
 90
        0
102
RTVSPost2010PropOp40
 70
     1
102
RTVSPost2010Prop41ColorIndex
 90
       18
102
RTVSPost2010Prop41ColorRGB
 90
        0
102
RTVSPost2010PropOp41
 70
     1
102
RTVSPost2010Prop42
 90
       50
102
RTVSPost2010PropOp42
 70
     1
102
RTVSPost2010Prop43
 90
        3
102
RTVSPost2010PropOp43
 70
     1
102
RTVSPost2010Prop44ColorIndex
 90
        5
102
RTVSPost2010Prop44ColorRGB
 90
      255
102
RTVSPost2010PropOp44
 70
     1
102
RTVSPost2010Prop45
280
     0
102
RTVSPost2010PropOp45
 70
     1
102
RTVSPost2010Prop46
 90
       50
102
RTVSPost2010PropOp46
 70
     1
102
RTVSPost2010Prop47
 90
       50
102
RTVSPost2010PropOp47
 70
     1
102
RTVSPost2010Prop48
 90
       50
102
RTVSPost2010PropOp48
 70
     1
102
RTVSPost2010Prop49
280
     0
102
RTVSPost2010PropOp49
 70
     1
102
RTVSPost2010Prop50
 90
       50
102
RTVSPost2010PropOp50
 70
     1
102
RTVSPost2010Prop51ColorIndex
 90
      256
102
RTVSPost2010Prop51ColorRGB
 90
-16777216
102
RTVSPost2010PropOp51
 70
     0
102
RTVSPost2010Prop52
140
1.0
102
RTVSPost2010PropOp52
 70
     0
102
RTVSPost2010Prop53
 90
        2
102
RTVSPost2010PropOp53
 70
     1
102
RTVSPost2010Prop54
  1
strokes_ogs.tif
102
RTVSPost2010PropOp54
 70
     1
102
RTVSPost2010Prop55
280
     0
102
RTVSPost2010PropOp55
 70
     1
102
RTVSPost2010Prop56
140
1.0
102
RTVSPost2010PropOp56
 70
     1
102
RTVSPost2010Prop57
140
1.0
102
RTVSPost2010PropOp57
 70
     1
102
RTVSPropertyOp0
 70
     1
102
RTVSPropertyOp1
 70
     1
102
RTVSPropertyOp2
 70
     1
102
RTVSPropertyOp3
 70
     1
102
RTVSPropertyOp4
 70
     1
102
RTVSPropertyOp5
 70
     1
102
RTVSPropertyOp6
 70
     1
102
RTVSPropertyOp7
 70
     1
102
RTVSPropertyOp8
 70
     1
102
RTVSPropertyOp9
 70
     1
102
RTVSPropertyOp10
 70
     1
102
RTVSPropertyOp11
 70
     1
102
RTVSPropertyOp12
 70
     1
102
RTVSPropertyOp13
 70
     1
102
RTVSPropertyOp14
 70
     1
102
RTVSPropertyOp15
 70
     1
102
RTVSPropertyOp16
 70
     1
102
RTVSPropertyOp17
 70
     1
102
RTVSPropertyOp18
 70
     1
102
RTVSPropertyOp19
 70
     1
102
RTVSPropertyOp20
 70
     1
102
RTVSPropertyOp21
 70
     1
102
RTVSPropertyOp22
 70
     1
102
RTVSPropertyOp23
 70
     1
102
RTVSPropertyOp24
 70
     1
102
RTVSPropertyOp25
 70
     1
102
RTVSPropertyOp26
 70
     1
102
RTVSPropertyOp27
 70
     1
102
RTVSPropertyOp28
 70
     1
102
RTVSPropertyOp29
 70
     1
102
RTVSPropertyOp30
 70
     1
102
RTVSPropertyOp31
 70
     1
102
RTVSPropertyOp32
 70
     1
102
RTVSPropertyOp33
 70
     1
102
RTVSPropertyOp34
 70
     1
102
RTVSPropertyOp35
 70
     1
102
RTVSPropertyOp36
 70
     1
102
RTVSPropertyOp37
 70
     1
102
RTVSPropertyOp38
 70
     1
102
RTVSPropertyOp39
 70
     1
102
RTVSPropertyOp40
 70
     1
102
RTVSPropertyOp41
 70
     1
102
RTVSPropertyOp42
 70
     1
102
RTVSPropertyOp43
 70
     1
102
RTVSPropertyOp44
 70
     1
102
RTVSPropertyOp45
 70
     1
102
RTVSPropertyOp46
 70
     1
102
RTVSPropertyOp47
 70
     1
102
RTVSPropertyOp48
 70
     1
102
RTVSPropertyOp49
 70
     1
102
RTVSPropertyOp50
 70
     1
102
RTVSPropertyOp51
 70
     0
102
RTVSPropertyOp52
 70
     0
102
RTVSPropertyOp53
 70
     1
102
RTVSPropertyOp54
 70
     1
102
RTVSPropertyOp55
 70
     1
102
RTVSPropertyOp56
 70
     1
102
RTVSPropertyOp57
 70
     1
102
RTVSPropertyOp58
 70
     1
102
RTVSPropertyOp59
 70
     1
102
RTVSPropertyOp60
 70
     1
102
RTVSPropertyOp61
 70
     1
102
RTVSPropertyOp62
 70
     1
  0
XRECORD
  5
A4F3
102
{ACAD_REACTORS
330
A4F2
102
}
330
A4F2
100
AcDbXrecord
280
     1
102
RTVSPost2010Prop28
280
     0
102
RTVSPost2010PropOp28
 70
     1
102
RTVSPost2010Prop29
280
     1
102
RTVSPost2010PropOp29
 70
     1
102
RTVSPost2010Prop30
280
     1
102
RTVSPost2010PropOp30
 70
     1
102
RTVSPost2010Prop31
280
     0
102
RTVSPost2010PropOp31
 70
     1
102
RTVSPost2010Prop32
280
     0
102
RTVSPost2010PropOp32
 70
     1
102
RTVSPost2010Prop33
280
     0
102
RTVSPost2010PropOp33
 70
     1
102
RTVSPost2010Prop34
280
     0
102
RTVSPost2010PropOp34
 70
     1
102
RTVSPost2010Prop35
280
     0
102
RTVSPost2010PropOp35
 70
     1
102
RTVSPost2010Prop36
280
     0
102
RTVSPost2010PropOp36
 70
     1
102
RTVSPost2010Prop37
 90
       50
102
RTVSPost2010PropOp37
 70
     1
102
RTVSPost2010Prop38
140
0.0
102
RTVSPost2010PropOp38
 70
     1
102
RTVSPost2010Prop39
140
1.0
102
RTVSPost2010PropOp39
 70
     1
102
RTVSPost2010Prop40
 90
        0
102
RTVSPost2010PropOp40
 70
     1
102
RTVSPost2010Prop41ColorIndex
 90
       18
102
RTVSPost2010Prop41ColorRGB
 90
        0
102
RTVSPost2010PropOp41
 70
     1
102
RTVSPost2010Prop42
 90
       50
102
RTVSPost2010PropOp42
 70
     1
102
RTVSPost2010Prop43
 90
        3
102
RTVSPost2010PropOp43
 70
     1
102
RTVSPost2010Prop44ColorIndex
 90
        5
102
RTVSPost2010Prop44ColorRGB
 90
      255
102
RTVSPost2010PropOp44
 70
     1
102
RTVSPost2010Prop45
280
     0
102
RTVSPost2010PropOp45
 70
     1
102
RTVSPost2010Prop46
 90
       50
102
RTVSPost2010PropOp46
 70
     1
102
RTVSPost2010Prop47
 90
       50
102
RTVSPost2010PropOp47
 70
     1
102
RTVSPost2010Prop48
 90
       50
102
RTVSPost2010PropOp48
 70
     1
102
RTVSPost2010Prop49
280
     0
102
RTVSPost2010PropOp49
 70
     1
102
RTVSPost2010Prop50
 90
       50
102
RTVSPost2010PropOp50
 70
     1
102
RTVSPost2010Prop51ColorIndex
 90
      256
102
RTVSPost2010Prop51ColorRGB
 90
-16777216
102
RTVSPost2010PropOp51
 70
     0
102
RTVSPost2010Prop52
140
1.0
102
RTVSPost2010PropOp52
 70
     0
102
RTVSPost2010Prop53
 90
        2
102
RTVSPost2010PropOp53
 70
     1
102
RTVSPost2010Prop54
  1
strokes_ogs.tif
102
RTVSPost2010PropOp54
 70
     1
102
RTVSPost2010Prop55
280
     0
102
RTVSPost2010PropOp55
 70
     1
102
RTVSPost2010Prop56
140
1.0
102
RTVSPost2010PropOp56
 70
     1
102
RTVSPost2010Prop57
140
1.0
102
RTVSPost2010PropOp57
 70
     1
102
RTVSPropertyOp0
 70
     1
102
RTVSPropertyOp1
 70
     1
102
RTVSPropertyOp2
 70
     1
102
RTVSPropertyOp3
 70
     1
102
RTVSPropertyOp4
 70
     1
102
RTVSPropertyOp5
 70
     1
102
RTVSPropertyOp6
 70
     1
102
RTVSPropertyOp7
 70
     1
102
RTVSPropertyOp8
 70
     1
102
RTVSPropertyOp9
 70
     1
102
RTVSPropertyOp10
 70
     1
102
RTVSPropertyOp11
 70
     1
102
RTVSPropertyOp12
 70
     1
102
RTVSPropertyOp13
 70
     1
102
RTVSPropertyOp14
 70
     1
102
RTVSPropertyOp15
 70
     1
102
RTVSPropertyOp16
 70
     1
102
RTVSPropertyOp17
 70
     1
102
RTVSPropertyOp18
 70
     1
102
RTVSPropertyOp19
 70
     1
102
RTVSPropertyOp20
 70
     1
102
RTVSPropertyOp21
 70
     1
102
RTVSPropertyOp22
 70
     1
102
RTVSPropertyOp23
 70
     1
102
RTVSPropertyOp24
 70
     1
102
RTVSPropertyOp25
 70
     1
102
RTVSPropertyOp26
 70
     1
102
RTVSPropertyOp27
 70
     1
102
RTVSPropertyOp28
 70
     1
102
RTVSPropertyOp29
 70
     1
102
RTVSPropertyOp30
 70
     1
102
RTVSPropertyOp31
 70
     1
102
RTVSPropertyOp32
 70
     1
102
RTVSPropertyOp33
 70
     1
102
RTVSPropertyOp34
 70
     1
102
RTVSPropertyOp35
 70
     1
102
RTVSPropertyOp36
 70
     1
102
RTVSPropertyOp37
 70
     1
102
RTVSPropertyOp38
 70
     1
102
RTVSPropertyOp39
 70
     1
102
RTVSPropertyOp40
 70
     1
102
RTVSPropertyOp41
 70
     1
102
RTVSPropertyOp42
 70
     1
102
RTVSPropertyOp43
 70
     1
102
RTVSPropertyOp44
 70
     1
102
RTVSPropertyOp45
 70
     1
102
RTVSPropertyOp46
 70
     1
102
RTVSPropertyOp47
 70
     1
102
RTVSPropertyOp48
 70
     1
102
RTVSPropertyOp49
 70
     1
102
RTVSPropertyOp50
 70
     1
102
RTVSPropertyOp51
 70
     0
102
RTVSPropertyOp52
 70
     0
102
RTVSPropertyOp53
 70
     1
102
RTVSPropertyOp54
 70
     1
102
RTVSPropertyOp55
 70
     1
102
RTVSPropertyOp56
 70
     1
102
RTVSPropertyOp57
 70
     1
102
RTVSPropertyOp58
 70
     1
102
RTVSPropertyOp59
 70
     1
102
RTVSPropertyOp60
 70
     1
102
RTVSPropertyOp61
 70
     1
102
RTVSPropertyOp62
 70
     1
  0
XRECORD
  5
A4F5
102
{ACAD_REACTORS
330
A4F4
102
}
330
A4F4
100
AcDbXrecord
280
     1
102
RTVSPost2010Prop28
280
     0
102
RTVSPost2010PropOp28
 70
     1
102
RTVSPost2010Prop29
280
     1
102
RTVSPost2010PropOp29
 70
     1
102
RTVSPost2010Prop30
280
     1
102
RTVSPost2010PropOp30
 70
     1
102
RTVSPost2010Prop31
280
     0
102
RTVSPost2010PropOp31
 70
     1
102
RTVSPost2010Prop32
280
     0
102
RTVSPost2010PropOp32
 70
     1
102
RTVSPost2010Prop33
280
     0
102
RTVSPost2010PropOp33
 70
     1
102
RTVSPost2010Prop34
280
     0
102
RTVSPost2010PropOp34
 70
     1
102
RTVSPost2010Prop35
280
     0
102
RTVSPost2010PropOp35
 70
     1
102
RTVSPost2010Prop36
280
     0
102
RTVSPost2010PropOp36
 70
     1
102
RTVSPost2010Prop37
 90
       50
102
RTVSPost2010PropOp37
 70
     1
102
RTVSPost2010Prop38
140
0.0
102
RTVSPost2010PropOp38
 70
     1
102
RTVSPost2010Prop39
140
1.0
102
RTVSPost2010PropOp39
 70
     1
102
RTVSPost2010Prop40
 90
        0
102
RTVSPost2010PropOp40
 70
     1
102
RTVSPost2010Prop41ColorIndex
 90
       18
102
RTVSPost2010Prop41ColorRGB
 90
        0
102
RTVSPost2010PropOp41
 70
     1
102
RTVSPost2010Prop42
 90
       50
102
RTVSPost2010PropOp42
 70
     1
102
RTVSPost2010Prop43
 90
        3
102
RTVSPost2010PropOp43
 70
     1
102
RTVSPost2010Prop44ColorIndex
 90
        5
102
RTVSPost2010Prop44ColorRGB
 90
      255
102
RTVSPost2010PropOp44
 70
     1
102
RTVSPost2010Prop45
280
     0
102
RTVSPost2010PropOp45
 70
     1
102
RTVSPost2010Prop46
 90
       50
102
RTVSPost2010PropOp46
 70
     1
102
RTVSPost2010Prop47
 90
       50
102
RTVSPost2010PropOp47
 70
     1
102
RTVSPost2010Prop48
 90
       50
102
RTVSPost2010PropOp48
 70
     1
102
RTVSPost2010Prop49
280
     0
102
RTVSPost2010PropOp49
 70
     1
102
RTVSPost2010Prop50
 90
       50
102
RTVSPost2010PropOp50
 70
     1
102
RTVSPost2010Prop51ColorIndex
 90
      256
102
RTVSPost2010Prop51ColorRGB
 90
-16777216
102
RTVSPost2010PropOp51
 70
     0
102
RTVSPost2010Prop52
140
1.0
102
RTVSPost2010PropOp52
 70
     0
102
RTVSPost2010Prop53
 90
        2
102
RTVSPost2010PropOp53
 70
     1
102
RTVSPost2010Prop54
  1
strokes_ogs.tif
102
RTVSPost2010PropOp54
 70
     1
102
RTVSPost2010Prop55
280
     0
102
RTVSPost2010PropOp55
 70
     1
102
RTVSPost2010Prop56
140
1.0
102
RTVSPost2010PropOp56
 70
     1
102
RTVSPost2010Prop57
140
1.0
102
RTVSPost2010PropOp57
 70
     1
102
RTVSPropertyOp0
 70
     1
102
RTVSPropertyOp1
 70
     1
102
RTVSPropertyOp2
 70
     1
102
RTVSPropertyOp3
 70
     1
102
RTVSPropertyOp4
 70
     1
102
RTVSPropertyOp5
 70
     1
102
RTVSPropertyOp6
 70
     1
102
RTVSPropertyOp7
 70
     1
102
RTVSPropertyOp8
 70
     1
102
RTVSPropertyOp9
 70
     1
102
RTVSPropertyOp10
 70
     1
102
RTVSPropertyOp11
 70
     1
102
RTVSPropertyOp12
 70
     1
102
RTVSPropertyOp13
 70
     1
102
RTVSPropertyOp14
 70
     1
102
RTVSPropertyOp15
 70
     1
102
RTVSPropertyOp16
 70
     1
102
RTVSPropertyOp17
 70
     1
102
RTVSPropertyOp18
 70
     1
102
RTVSPropertyOp19
 70
     1
102
RTVSPropertyOp20
 70
     1
102
RTVSPropertyOp21
 70
     1
102
RTVSPropertyOp22
 70
     1
102
RTVSPropertyOp23
 70
     1
102
RTVSPropertyOp24
 70
     1
102
RTVSPropertyOp25
 70
     1
102
RTVSPropertyOp26
 70
     1
102
RTVSPropertyOp27
 70
     1
102
RTVSPropertyOp28
 70
     1
102
RTVSPropertyOp29
 70
     1
102
RTVSPropertyOp30
 70
     1
102
RTVSPropertyOp31
 70
     1
102
RTVSPropertyOp32
 70
     1
102
RTVSPropertyOp33
 70
     1
102
RTVSPropertyOp34
 70
     1
102
RTVSPropertyOp35
 70
     1
102
RTVSPropertyOp36
 70
     1
102
RTVSPropertyOp37
 70
     1
102
RTVSPropertyOp38
 70
     1
102
RTVSPropertyOp39
 70
     1
102
RTVSPropertyOp40
 70
     1
102
RTVSPropertyOp41
 70
     1
102
RTVSPropertyOp42
 70
     1
102
RTVSPropertyOp43
 70
     1
102
RTVSPropertyOp44
 70
     1
102
RTVSPropertyOp45
 70
     1
102
RTVSPropertyOp46
 70
     1
102
RTVSPropertyOp47
 70
     1
102
RTVSPropertyOp48
 70
     1
102
RTVSPropertyOp49
 70
     1
102
RTVSPropertyOp50
 70
     1
102
RTVSPropertyOp51
 70
     0
102
RTVSPropertyOp52
 70
     0
102
RTVSPropertyOp53
 70
     1
102
RTVSPropertyOp54
 70
     1
102
RTVSPropertyOp55
 70
     1
102
RTVSPropertyOp56
 70
     1
102
RTVSPropertyOp57
 70
     1
102
RTVSPropertyOp58
 70
     1
102
RTVSPropertyOp59
 70
     1
102
RTVSPropertyOp60
 70
     1
102
RTVSPropertyOp61
 70
     1
102
RTVSPropertyOp62
 70
     1
  0
XRECORD
  5
A4F7
102
{ACAD_REACTORS
330
A4F6
102
}
330
A4F6
100
AcDbXrecord
280
     1
102
RTVSPost2010Prop28
280
     0
102
RTVSPost2010PropOp28
 70
     1
102
RTVSPost2010Prop29
280
     1
102
RTVSPost2010PropOp29
 70
     1
102
RTVSPost2010Prop30
280
     1
102
RTVSPost2010PropOp30
 70
     1
102
RTVSPost2010Prop31
280
     0
102
RTVSPost2010PropOp31
 70
     1
102
RTVSPost2010Prop32
280
     0
102
RTVSPost2010PropOp32
 70
     1
102
RTVSPost2010Prop33
280
     0
102
RTVSPost2010PropOp33
 70
     1
102
RTVSPost2010Prop34
280
     0
102
RTVSPost2010PropOp34
 70
     1
102
RTVSPost2010Prop35
280
     0
102
RTVSPost2010PropOp35
 70
     1
102
RTVSPost2010Prop36
280
     0
102
RTVSPost2010PropOp36
 70
     1
102
RTVSPost2010Prop37
 90
       50
102
RTVSPost2010PropOp37
 70
     1
102
RTVSPost2010Prop38
140
0.0
102
RTVSPost2010PropOp38
 70
     1
102
RTVSPost2010Prop39
140
1.0
102
RTVSPost2010PropOp39
 70
     1
102
RTVSPost2010Prop40
 90
        0
102
RTVSPost2010PropOp40
 70
     1
102
RTVSPost2010Prop41ColorIndex
 90
       18
102
RTVSPost2010Prop41ColorRGB
 90
        0
102
RTVSPost2010PropOp41
 70
     1
102
RTVSPost2010Prop42
 90
       50
102
RTVSPost2010PropOp42
 70
     1
102
RTVSPost2010Prop43
 90
        3
102
RTVSPost2010PropOp43
 70
     1
102
RTVSPost2010Prop44ColorIndex
 90
        5
102
RTVSPost2010Prop44ColorRGB
 90
      255
102
RTVSPost2010PropOp44
 70
     1
102
RTVSPost2010Prop45
280
     0
102
RTVSPost2010PropOp45
 70
     1
102
RTVSPost2010Prop46
 90
       50
102
RTVSPost2010PropOp46
 70
     1
102
RTVSPost2010Prop47
 90
       50
102
RTVSPost2010PropOp47
 70
     1
102
RTVSPost2010Prop48
 90
       50
102
RTVSPost2010PropOp48
 70
     1
102
RTVSPost2010Prop49
280
     0
102
RTVSPost2010PropOp49
 70
     1
102
RTVSPost2010Prop50
 90
       50
102
RTVSPost2010PropOp50
 70
     1
102
RTVSPost2010Prop51ColorIndex
 90
      256
102
RTVSPost2010Prop51ColorRGB
 90
-16777216
102
RTVSPost2010PropOp51
 70
     0
102
RTVSPost2010Prop52
140
1.0
102
RTVSPost2010PropOp52
 70
     0
102
RTVSPost2010Prop53
 90
        2
102
RTVSPost2010PropOp53
 70
     1
102
RTVSPost2010Prop54
  1
strokes_ogs.tif
102
RTVSPost2010PropOp54
 70
     1
102
RTVSPost2010Prop55
280
     0
102
RTVSPost2010PropOp55
 70
     1
102
RTVSPost2010Prop56
140
1.0
102
RTVSPost2010PropOp56
 70
     1
102
RTVSPost2010Prop57
140
1.0
102
RTVSPost2010PropOp57
 70
     1
102
RTVSPropertyOp0
 70
     1
102
RTVSPropertyOp1
 70
     1
102
RTVSPropertyOp2
 70
     1
102
RTVSPropertyOp3
 70
     1
102
RTVSPropertyOp4
 70
     1
102
RTVSPropertyOp5
 70
     1
102
RTVSPropertyOp6
 70
     1
102
RTVSPropertyOp7
 70
     1
102
RTVSPropertyOp8
 70
     1
102
RTVSPropertyOp9
 70
     1
102
RTVSPropertyOp10
 70
     1
102
RTVSPropertyOp11
 70
     1
102
RTVSPropertyOp12
 70
     1
102
RTVSPropertyOp13
 70
     1
102
RTVSPropertyOp14
 70
     1
102
RTVSPropertyOp15
 70
     1
102
RTVSPropertyOp16
 70
     1
102
RTVSPropertyOp17
 70
     1
102
RTVSPropertyOp18
 70
     1
102
RTVSPropertyOp19
 70
     1
102
RTVSPropertyOp20
 70
     1
102
RTVSPropertyOp21
 70
     1
102
RTVSPropertyOp22
 70
     1
102
RTVSPropertyOp23
 70
     1
102
RTVSPropertyOp24
 70
     1
102
RTVSPropertyOp25
 70
     1
102
RTVSPropertyOp26
 70
     1
102
RTVSPropertyOp27
 70
     1
102
RTVSPropertyOp28
 70
     1
102
RTVSPropertyOp29
 70
     1
102
RTVSPropertyOp30
 70
     1
102
RTVSPropertyOp31
 70
     1
102
RTVSPropertyOp32
 70
     1
102
RTVSPropertyOp33
 70
     1
102
RTVSPropertyOp34
 70
     1
102
RTVSPropertyOp35
 70
     1
102
RTVSPropertyOp36
 70
     1
102
RTVSPropertyOp37
 70
     1
102
RTVSPropertyOp38
 70
     1
102
RTVSPropertyOp39
 70
     1
102
RTVSPropertyOp40
 70
     1
102
RTVSPropertyOp41
 70
     1
102
RTVSPropertyOp42
 70
     1
102
RTVSPropertyOp43
 70
     1
102
RTVSPropertyOp44
 70
     1
102
RTVSPropertyOp45
 70
     1
102
RTVSPropertyOp46
 70
     1
102
RTVSPropertyOp47
 70
     1
102
RTVSPropertyOp48
 70
     1
102
RTVSPropertyOp49
 70
     1
102
RTVSPropertyOp50
 70
     1
102
RTVSPropertyOp51
 70
     0
102
RTVSPropertyOp52
 70
     0
102
RTVSPropertyOp53
 70
     1
102
RTVSPropertyOp54
 70
     1
102
RTVSPropertyOp55
 70
     1
102
RTVSPropertyOp56
 70
     1
102
RTVSPropertyOp57
 70
     1
102
RTVSPropertyOp58
 70
     1
102
RTVSPropertyOp59
 70
     1
102
RTVSPropertyOp60
 70
     1
102
RTVSPropertyOp61
 70
     1
102
RTVSPropertyOp62
 70
     1
  0
XRECORD
  5
A4F9
102
{ACAD_REACTORS
330
A4F8
102
}
330
A4F8
100
AcDbXrecord
280
     1
102
RTVSPost2010Prop28
280
     0
102
RTVSPost2010PropOp28
 70
     1
102
RTVSPost2010Prop29
280
     1
102
RTVSPost2010PropOp29
 70
     1
102
RTVSPost2010Prop30
280
     1
102
RTVSPost2010PropOp30
 70
     1
102
RTVSPost2010Prop31
280
     0
102
RTVSPost2010PropOp31
 70
     1
102
RTVSPost2010Prop32
280
     0
102
RTVSPost2010PropOp32
 70
     1
102
RTVSPost2010Prop33
280
     0
102
RTVSPost2010PropOp33
 70
     1
102
RTVSPost2010Prop34
280
     0
102
RTVSPost2010PropOp34
 70
     1
102
RTVSPost2010Prop35
280
     0
102
RTVSPost2010PropOp35
 70
     1
102
RTVSPost2010Prop36
280
     0
102
RTVSPost2010PropOp36
 70
     1
102
RTVSPost2010Prop37
 90
       50
102
RTVSPost2010PropOp37
 70
     1
102
RTVSPost2010Prop38
140
0.0
102
RTVSPost2010PropOp38
 70
     1
102
RTVSPost2010Prop39
140
1.0
102
RTVSPost2010PropOp39
 70
     1
102
RTVSPost2010Prop40
 90
        0
102
RTVSPost2010PropOp40
 70
     1
102
RTVSPost2010Prop41ColorIndex
 90
       18
102
RTVSPost2010Prop41ColorRGB
 90
        0
102
RTVSPost2010PropOp41
 70
     1
102
RTVSPost2010Prop42
 90
       50
102
RTVSPost2010PropOp42
 70
     1
102
RTVSPost2010Prop43
 90
        3
102
RTVSPost2010PropOp43
 70
     1
102
RTVSPost2010Prop44ColorIndex
 90
        5
102
RTVSPost2010Prop44ColorRGB
 90
      255
102
RTVSPost2010PropOp44
 70
     1
102
RTVSPost2010Prop45
280
     0
102
RTVSPost2010PropOp45
 70
     1
102
RTVSPost2010Prop46
 90
       50
102
RTVSPost2010PropOp46
 70
     1
102
RTVSPost2010Prop47
 90
       50
102
RTVSPost2010PropOp47
 70
     1
102
RTVSPost2010Prop48
 90
       50
102
RTVSPost2010PropOp48
 70
     1
102
RTVSPost2010Prop49
280
     0
102
RTVSPost2010PropOp49
 70
     1
102
RTVSPost2010Prop50
 90
       50
102
RTVSPost2010PropOp50
 70
     1
102
RTVSPost2010Prop51ColorIndex
 90
      256
102
RTVSPost2010Prop51ColorRGB
 90
-16777216
102
RTVSPost2010PropOp51
 70
     0
102
RTVSPost2010Prop52
140
1.0
102
RTVSPost2010PropOp52
 70
     0
102
RTVSPost2010Prop53
 90
        2
102
RTVSPost2010PropOp53
 70
     1
102
RTVSPost2010Prop54
  1
strokes_ogs.tif
102
RTVSPost2010PropOp54
 70
     1
102
RTVSPost2010Prop55
280
     0
102
RTVSPost2010PropOp55
 70
     1
102
RTVSPost2010Prop56
140
1.0
102
RTVSPost2010PropOp56
 70
     1
102
RTVSPost2010Prop57
140
1.0
102
RTVSPost2010PropOp57
 70
     1
102
RTVSPropertyOp0
 70
     1
102
RTVSPropertyOp1
 70
     1
102
RTVSPropertyOp2
 70
     1
102
RTVSPropertyOp3
 70
     1
102
RTVSPropertyOp4
 70
     1
102
RTVSPropertyOp5
 70
     1
102
RTVSPropertyOp6
 70
     1
102
RTVSPropertyOp7
 70
     1
102
RTVSPropertyOp8
 70
     1
102
RTVSPropertyOp9
 70
     1
102
RTVSPropertyOp10
 70
     1
102
RTVSPropertyOp11
 70
     1
102
RTVSPropertyOp12
 70
     1
102
RTVSPropertyOp13
 70
     1
102
RTVSPropertyOp14
 70
     1
102
RTVSPropertyOp15
 70
     1
102
RTVSPropertyOp16
 70
     1
102
RTVSPropertyOp17
 70
     1
102
RTVSPropertyOp18
 70
     1
102
RTVSPropertyOp19
 70
     1
102
RTVSPropertyOp20
 70
     1
102
RTVSPropertyOp21
 70
     1
102
RTVSPropertyOp22
 70
     1
102
RTVSPropertyOp23
 70
     1
102
RTVSPropertyOp24
 70
     1
102
RTVSPropertyOp25
 70
     1
102
RTVSPropertyOp26
 70
     1
102
RTVSPropertyOp27
 70
     1
102
RTVSPropertyOp28
 70
     1
102
RTVSPropertyOp29
 70
     1
102
RTVSPropertyOp30
 70
     1
102
RTVSPropertyOp31
 70
     1
102
RTVSPropertyOp32
 70
     1
102
RTVSPropertyOp33
 70
     1
102
RTVSPropertyOp34
 70
     1
102
RTVSPropertyOp35
 70
     1
102
RTVSPropertyOp36
 70
     1
102
RTVSPropertyOp37
 70
     1
102
RTVSPropertyOp38
 70
     1
102
RTVSPropertyOp39
 70
     1
102
RTVSPropertyOp40
 70
     1
102
RTVSPropertyOp41
 70
     1
102
RTVSPropertyOp42
 70
     1
102
RTVSPropertyOp43
 70
     1
102
RTVSPropertyOp44
 70
     1
102
RTVSPropertyOp45
 70
     1
102
RTVSPropertyOp46
 70
     1
102
RTVSPropertyOp47
 70
     1
102
RTVSPropertyOp48
 70
     1
102
RTVSPropertyOp49
 70
     1
102
RTVSPropertyOp50
 70
     1
102
RTVSPropertyOp51
 70
     0
102
RTVSPropertyOp52
 70
     0
102
RTVSPropertyOp53
 70
     1
102
RTVSPropertyOp54
 70
     1
102
RTVSPropertyOp55
 70
     1
102
RTVSPropertyOp56
 70
     1
102
RTVSPropertyOp57
 70
     1
102
RTVSPropertyOp58
 70
     1
102
RTVSPropertyOp59
 70
     1
102
RTVSPropertyOp60
 70
     1
102
RTVSPropertyOp61
 70
     1
102
RTVSPropertyOp62
 70
     1
  0
XRECORD
  5
A501
102
{ACAD_REACTORS
330
A500
102
}
330
A500
100
AcDbXrecord
280
     1
102
RTVSPost2010Prop28
280
     0
102
RTVSPost2010PropOp28
 70
     1
102
RTVSPost2010Prop29
280
     1
102
RTVSPost2010PropOp29
 70
     1
102
RTVSPost2010Prop30
280
     1
102
RTVSPost2010PropOp30
 70
     1
102
RTVSPost2010Prop31
280
     0
102
RTVSPost2010PropOp31
 70
     1
102
RTVSPost2010Prop32
280
     0
102
RTVSPost2010PropOp32
 70
     1
102
RTVSPost2010Prop33
280
     0
102
RTVSPost2010PropOp33
 70
     1
102
RTVSPost2010Prop34
280
     0
102
RTVSPost2010PropOp34
 70
     1
102
RTVSPost2010Prop35
280
     0
102
RTVSPost2010PropOp35
 70
     1
102
RTVSPost2010Prop36
280
     0
102
RTVSPost2010PropOp36
 70
     1
102
RTVSPost2010Prop37
 90
       50
102
RTVSPost2010PropOp37
 70
     1
102
RTVSPost2010Prop38
140
0.0
102
RTVSPost2010PropOp38
 70
     1
102
RTVSPost2010Prop39
140
1.0
102
RTVSPost2010PropOp39
 70
     1
102
RTVSPost2010Prop40
 90
        0
102
RTVSPost2010PropOp40
 70
     1
102
RTVSPost2010Prop41ColorIndex
 90
       18
102
RTVSPost2010Prop41ColorRGB
 90
        0
102
RTVSPost2010PropOp41
 70
     1
102
RTVSPost2010Prop42
 90
       50
102
RTVSPost2010PropOp42
 70
     1
102
RTVSPost2010Prop43
 90
        3
102
RTVSPost2010PropOp43
 70
     1
102
RTVSPost2010Prop44ColorIndex
 90
        5
102
RTVSPost2010Prop44ColorRGB
 90
      255
102
RTVSPost2010PropOp44
 70
     1
102
RTVSPost2010Prop45
280
     0
102
RTVSPost2010PropOp45
 70
     1
102
RTVSPost2010Prop46
 90
       50
102
RTVSPost2010PropOp46
 70
     1
102
RTVSPost2010Prop47
 90
       50
102
RTVSPost2010PropOp47
 70
     1
102
RTVSPost2010Prop48
 90
       50
102
RTVSPost2010PropOp48
 70
     1
102
RTVSPost2010Prop49
280
     0
102
RTVSPost2010PropOp49
 70
     1
102
RTVSPost2010Prop50
 90
       50
102
RTVSPost2010PropOp50
 70
     1
102
RTVSPost2010Prop51ColorIndex
 90
      256
102
RTVSPost2010Prop51ColorRGB
 90
-16777216
102
RTVSPost2010PropOp51
 70
     0
102
RTVSPost2010Prop52
140
1.0
102
RTVSPost2010PropOp52
 70
     0
102
RTVSPost2010Prop53
 90
        2
102
RTVSPost2010PropOp53
 70
     1
102
RTVSPost2010Prop54
  1
strokes_ogs.tif
102
RTVSPost2010PropOp54
 70
     1
102
RTVSPost2010Prop55
280
     0
102
RTVSPost2010PropOp55
 70
     1
102
RTVSPost2010Prop56
140
1.0
102
RTVSPost2010PropOp56
 70
     1
102
RTVSPost2010Prop57
140
1.0
102
RTVSPost2010PropOp57
 70
     1
102
RTVSPropertyOp0
 70
     1
102
RTVSPropertyOp1
 70
     1
102
RTVSPropertyOp2
 70
     1
102
RTVSPropertyOp3
 70
     1
102
RTVSPropertyOp4
 70
     1
102
RTVSPropertyOp5
 70
     1
102
RTVSPropertyOp6
 70
     1
102
RTVSPropertyOp7
 70
     1
102
RTVSPropertyOp8
 70
     1
102
RTVSPropertyOp9
 70
     1
102
RTVSPropertyOp10
 70
     1
102
RTVSPropertyOp11
 70
     1
102
RTVSPropertyOp12
 70
     1
102
RTVSPropertyOp13
 70
     1
102
RTVSPropertyOp14
 70
     1
102
RTVSPropertyOp15
 70
     1
102
RTVSPropertyOp16
 70
     1
102
RTVSPropertyOp17
 70
     1
102
RTVSPropertyOp18
 70
     1
102
RTVSPropertyOp19
 70
     1
102
RTVSPropertyOp20
 70
     1
102
RTVSPropertyOp21
 70
     1
102
RTVSPropertyOp22
 70
     1
102
RTVSPropertyOp23
 70
     1
102
RTVSPropertyOp24
 70
     1
102
RTVSPropertyOp25
 70
     1
102
RTVSPropertyOp26
 70
     1
102
RTVSPropertyOp27
 70
     1
102
RTVSPropertyOp28
 70
     1
102
RTVSPropertyOp29
 70
     1
102
RTVSPropertyOp30
 70
     1
102
RTVSPropertyOp31
 70
     1
102
RTVSPropertyOp32
 70
     1
102
RTVSPropertyOp33
 70
     1
102
RTVSPropertyOp34
 70
     1
102
RTVSPropertyOp35
 70
     1
102
RTVSPropertyOp36
 70
     1
102
RTVSPropertyOp37
 70
     1
102
RTVSPropertyOp38
 70
     1
102
RTVSPropertyOp39
 70
     1
102
RTVSPropertyOp40
 70
     1
102
RTVSPropertyOp41
 70
     1
102
RTVSPropertyOp42
 70
     1
102
RTVSPropertyOp43
 70
     1
102
RTVSPropertyOp44
 70
     1
102
RTVSPropertyOp45
 70
     1
102
RTVSPropertyOp46
 70
     1
102
RTVSPropertyOp47
 70
     1
102
RTVSPropertyOp48
 70
     1
102
RTVSPropertyOp49
 70
     1
102
RTVSPropertyOp50
 70
     1
102
RTVSPropertyOp51
 70
     0
102
RTVSPropertyOp52
 70
     0
102
RTVSPropertyOp53
 70
     1
102
RTVSPropertyOp54
 70
     1
102
RTVSPropertyOp55
 70
     1
102
RTVSPropertyOp56
 70
     1
102
RTVSPropertyOp57
 70
     1
102
RTVSPropertyOp58
 70
     1
102
RTVSPropertyOp59
 70
     1
102
RTVSPropertyOp60
 70
     1
102
RTVSPropertyOp61
 70
     1
102
RTVSPropertyOp62
 70
     1
  0
XRECORD
  5
A51D
102
{ACAD_REACTORS
330
A51C
102
}
330
A51C
100
AcDbXrecord
280
     1
102
RTVSPost2010Prop28
280
     0
102
RTVSPost2010PropOp28
 70
     1
102
RTVSPost2010Prop29
280
     1
102
RTVSPost2010PropOp29
 70
     1
102
RTVSPost2010Prop30
280
     1
102
RTVSPost2010PropOp30
 70
     1
102
RTVSPost2010Prop31
280
     0
102
RTVSPost2010PropOp31
 70
     1
102
RTVSPost2010Prop32
280
     0
102
RTVSPost2010PropOp32
 70
     1
102
RTVSPost2010Prop33
280
     0
102
RTVSPost2010PropOp33
 70
     1
102
RTVSPost2010Prop34
280
     0
102
RTVSPost2010PropOp34
 70
     1
102
RTVSPost2010Prop35
280
     0
102
RTVSPost2010PropOp35
 70
     1
102
RTVSPost2010Prop36
280
     0
102
RTVSPost2010PropOp36
 70
     1
102
RTVSPost2010Prop37
 90
       50
102
RTVSPost2010PropOp37
 70
     0
102
RTVSPost2010Prop38
140
0.0
102
RTVSPost2010PropOp38
 70
     0
102
RTVSPost2010Prop39
140
1.0
102
RTVSPost2010PropOp39
 70
     0
102
RTVSPost2010Prop40
 90
        0
102
RTVSPost2010PropOp40
 70
     0
102
RTVSPost2010Prop41ColorIndex
 90
       18
102
RTVSPost2010Prop41ColorRGB
 90
        0
102
RTVSPost2010PropOp41
 70
     0
102
RTVSPost2010Prop42
 90
       50
102
RTVSPost2010PropOp42
 70
     0
102
RTVSPost2010Prop43
 90
        3
102
RTVSPost2010PropOp43
 70
     0
102
RTVSPost2010Prop44ColorIndex
 90
        5
102
RTVSPost2010Prop44ColorRGB
 90
      255
102
RTVSPost2010PropOp44
 70
     0
102
RTVSPost2010Prop45
280
     0
102
RTVSPost2010PropOp45
 70
     1
102
RTVSPost2010Prop46
 90
       50
102
RTVSPost2010PropOp46
 70
     0
102
RTVSPost2010Prop47
 90
       50
102
RTVSPost2010PropOp47
 70
     0
102
RTVSPost2010Prop48
 90
       50
102
RTVSPost2010PropOp48
 70
     0
102
RTVSPost2010Prop49
280
     0
102
RTVSPost2010PropOp49
 70
     1
102
RTVSPost2010Prop50
 90
       50
102
RTVSPost2010PropOp50
 70
     0
102
RTVSPost2010Prop51ColorIndex
 90
      256
102
RTVSPost2010Prop51ColorRGB
 90
-16777216
102
RTVSPost2010PropOp51
 70
     0
102
RTVSPost2010Prop52
140
1.0
102
RTVSPost2010PropOp52
 70
     0
102
RTVSPost2010Prop53
 90
        2
102
RTVSPost2010PropOp53
 70
     0
102
RTVSPost2010Prop54
  1
strokes_ogs.tif
102
RTVSPost2010PropOp54
 70
     0
102
RTVSPost2010Prop55
280
     0
102
RTVSPost2010PropOp55
 70
     1
102
RTVSPost2010Prop56
140
1.0
102
RTVSPost2010PropOp56
 70
     0
102
RTVSPost2010Prop57
140
1.0
102
RTVSPost2010PropOp57
 70
     0
102
RTVSPropertyOp0
 70
     0
102
RTVSPropertyOp1
 70
     0
102
RTVSPropertyOp2
 70
     0
102
RTVSPropertyOp3
 70
     0
102
RTVSPropertyOp4
 70
     0
102
RTVSPropertyOp5
 70
     0
102
RTVSPropertyOp6
 70
     0
102
RTVSPropertyOp7
 70
     0
102
RTVSPropertyOp8
 70
     0
102
RTVSPropertyOp9
 70
     0
102
RTVSPropertyOp10
 70
     0
102
RTVSPropertyOp11
 70
     0
102
RTVSPropertyOp12
 70
     0
102
RTVSPropertyOp13
 70
     0
102
RTVSPropertyOp14
 70
     2
102
RTVSPropertyOp15
 70
     0
102
RTVSPropertyOp16
 70
     0
102
RTVSPropertyOp17
 70
     0
102
RTVSPropertyOp18
 70
     0
102
RTVSPropertyOp19
 70
     0
102
RTVSPropertyOp20
 70
     0
102
RTVSPropertyOp21
 70
     0
102
RTVSPropertyOp22
 70
     0
102
RTVSPropertyOp23
 70
     0
102
RTVSPropertyOp24
 70
     0
102
RTVSPropertyOp25
 70
     0
102
RTVSPropertyOp26
 70
     0
102
RTVSPropertyOp27
 70
     0
102
RTVSPropertyOp28
 70
     1
102
RTVSPropertyOp29
 70
     1
102
RTVSPropertyOp30
 70
     1
102
RTVSPropertyOp31
 70
     1
102
RTVSPropertyOp32
 70
     1
102
RTVSPropertyOp33
 70
     1
102
RTVSPropertyOp34
 70
     1
102
RTVSPropertyOp35
 70
     1
102
RTVSPropertyOp36
 70
     1
102
RTVSPropertyOp37
 70
     0
102
RTVSPropertyOp38
 70
     0
102
RTVSPropertyOp39
 70
     0
102
RTVSPropertyOp40
 70
     0
102
RTVSPropertyOp41
 70
     0
102
RTVSPropertyOp42
 70
     0
102
RTVSPropertyOp43
 70
     0
102
RTVSPropertyOp44
 70
     0
102
RTVSPropertyOp45
 70
     1
102
RTVSPropertyOp46
 70
     0
102
RTVSPropertyOp47
 70
     0
102
RTVSPropertyOp48
 70
     0
102
RTVSPropertyOp49
 70
     1
102
RTVSPropertyOp50
 70
     0
102
RTVSPropertyOp51
 70
     0
102
RTVSPropertyOp52
 70
     0
102
RTVSPropertyOp53
 70
     0
102
RTVSPropertyOp54
 70
     0
102
RTVSPropertyOp55
 70
     1
102
RTVSPropertyOp56
 70
     0
102
RTVSPropertyOp57
 70
     0
102
RTVSPropertyOp58
 70
     0
102
RTVSPropertyOp59
 70
     0
102
RTVSPropertyOp60
 70
     0
102
RTVSPropertyOp61
 70
     0
102
RTVSPropertyOp62
 70
     0
  0
XRECORD
  5
A50D
102
{ACAD_REACTORS
330
A50C
102
}
330
A50C
100
AcDbXrecord
280
     1
102
RTVSPost2010Prop28
280
     0
102
RTVSPost2010PropOp28
 70
     1
102
RTVSPost2010Prop29
280
     1
102
RTVSPost2010PropOp29
 70
     1
102
RTVSPost2010Prop30
280
     1
102
RTVSPost2010PropOp30
 70
     1
102
RTVSPost2010Prop31
280
     0
102
RTVSPost2010PropOp31
 70
     1
102
RTVSPost2010Prop32
280
     0
102
RTVSPost2010PropOp32
 70
     1
102
RTVSPost2010Prop33
280
     0
102
RTVSPost2010PropOp33
 70
     1
102
RTVSPost2010Prop34
280
     0
102
RTVSPost2010PropOp34
 70
     1
102
RTVSPost2010Prop35
280
     0
102
RTVSPost2010PropOp35
 70
     1
102
RTVSPost2010Prop36
280
     0
102
RTVSPost2010PropOp36
 70
     1
102
RTVSPost2010Prop37
 90
       50
102
RTVSPost2010PropOp37
 70
     1
102
RTVSPost2010Prop38
140
0.0
102
RTVSPost2010PropOp38
 70
     1
102
RTVSPost2010Prop39
140
1.0
102
RTVSPost2010PropOp39
 70
     1
102
RTVSPost2010Prop40
 90
        0
102
RTVSPost2010PropOp40
 70
     1
102
RTVSPost2010Prop41ColorIndex
 90
       18
102
RTVSPost2010Prop41ColorRGB
 90
        0
102
RTVSPost2010PropOp41
 70
     1
102
RTVSPost2010Prop42
 90
       50
102
RTVSPost2010PropOp42
 70
     1
102
RTVSPost2010Prop43
 90
        3
102
RTVSPost2010PropOp43
 70
     1
102
RTVSPost2010Prop44ColorIndex
 90
        5
102
RTVSPost2010Prop44ColorRGB
 90
      255
102
RTVSPost2010PropOp44
 70
     1
102
RTVSPost2010Prop45
280
     0
102
RTVSPost2010PropOp45
 70
     1
102
RTVSPost2010Prop46
 90
       50
102
RTVSPost2010PropOp46
 70
     1
102
RTVSPost2010Prop47
 90
       50
102
RTVSPost2010PropOp47
 70
     1
102
RTVSPost2010Prop48
 90
       50
102
RTVSPost2010PropOp48
 70
     1
102
RTVSPost2010Prop49
280
     0
102
RTVSPost2010PropOp49
 70
     1
102
RTVSPost2010Prop50
 90
       50
102
RTVSPost2010PropOp50
 70
     1
102
RTVSPost2010Prop51ColorIndex
 90
      256
102
RTVSPost2010Prop51ColorRGB
 90
-16777216
102
RTVSPost2010PropOp51
 70
     0
102
RTVSPost2010Prop52
140
1.0
102
RTVSPost2010PropOp52
 70
     0
102
RTVSPost2010Prop53
 90
        2
102
RTVSPost2010PropOp53
 70
     1
102
RTVSPost2010Prop54
  1
strokes_ogs.tif
102
RTVSPost2010PropOp54
 70
     1
102
RTVSPost2010Prop55
280
     0
102
RTVSPost2010PropOp55
 70
     1
102
RTVSPost2010Prop56
140
1.0
102
RTVSPost2010PropOp56
 70
     1
102
RTVSPost2010Prop57
140
1.0
102
RTVSPost2010PropOp57
 70
     1
102
RTVSPropertyOp0
 70
     1
102
RTVSPropertyOp1
 70
     1
102
RTVSPropertyOp2
 70
     1
102
RTVSPropertyOp3
 70
     1
102
RTVSPropertyOp4
 70
     1
102
RTVSPropertyOp5
 70
     1
102
RTVSPropertyOp6
 70
     1
102
RTVSPropertyOp7
 70
     1
102
RTVSPropertyOp8
 70
     1
102
RTVSPropertyOp9
 70
     1
102
RTVSPropertyOp10
 70
     1
102
RTVSPropertyOp11
 70
     1
102
RTVSPropertyOp12
 70
     1
102
RTVSPropertyOp13
 70
     1
102
RTVSPropertyOp14
 70
     1
102
RTVSPropertyOp15
 70
     1
102
RTVSPropertyOp16
 70
     1
102
RTVSPropertyOp17
 70
     1
102
RTVSPropertyOp18
 70
     1
102
RTVSPropertyOp19
 70
     1
102
RTVSPropertyOp20
 70
     1
102
RTVSPropertyOp21
 70
     1
102
RTVSPropertyOp22
 70
     1
102
RTVSPropertyOp23
 70
     1
102
RTVSPropertyOp24
 70
     1
102
RTVSPropertyOp25
 70
     1
102
RTVSPropertyOp26
 70
     1
102
RTVSPropertyOp27
 70
     1
102
RTVSPropertyOp28
 70
     1
102
RTVSPropertyOp29
 70
     1
102
RTVSPropertyOp30
 70
     1
102
RTVSPropertyOp31
 70
     1
102
RTVSPropertyOp32
 70
     1
102
RTVSPropertyOp33
 70
     1
102
RTVSPropertyOp34
 70
     1
102
RTVSPropertyOp35
 70
     1
102
RTVSPropertyOp36
 70
     1
102
RTVSPropertyOp37
 70
     1
102
RTVSPropertyOp38
 70
     1
102
RTVSPropertyOp39
 70
     1
102
RTVSPropertyOp40
 70
     1
102
RTVSPropertyOp41
 70
     1
102
RTVSPropertyOp42
 70
     1
102
RTVSPropertyOp43
 70
     1
102
RTVSPropertyOp44
 70
     1
102
RTVSPropertyOp45
 70
     1
102
RTVSPropertyOp46
 70
     1
102
RTVSPropertyOp47
 70
     1
102
RTVSPropertyOp48
 70
     1
102
RTVSPropertyOp49
 70
     1
102
RTVSPropertyOp50
 70
     1
102
RTVSPropertyOp51
 70
     0
102
RTVSPropertyOp52
 70
     0
102
RTVSPropertyOp53
 70
     1
102
RTVSPropertyOp54
 70
     1
102
RTVSPropertyOp55
 70
     1
102
RTVSPropertyOp56
 70
     1
102
RTVSPropertyOp57
 70
     1
102
RTVSPropertyOp58
 70
     1
102
RTVSPropertyOp59
 70
     1
102
RTVSPropertyOp60
 70
     1
102
RTVSPropertyOp61
 70
     1
102
RTVSPropertyOp62
 70
     1
  0
XRECORD
  5
A51F
102
{ACAD_REACTORS
330
A51E
102
}
330
A51E
100
AcDbXrecord
280
     1
102
RTVSPost2010Prop28
280
     0
102
RTVSPost2010PropOp28
 70
     1
102
RTVSPost2010Prop29
280
     1
102
RTVSPost2010PropOp29
 70
     1
102
RTVSPost2010Prop30
280
     1
102
RTVSPost2010PropOp30
 70
     1
102
RTVSPost2010Prop31
280
     0
102
RTVSPost2010PropOp31
 70
     1
102
RTVSPost2010Prop32
280
     0
102
RTVSPost2010PropOp32
 70
     1
102
RTVSPost2010Prop33
280
     0
102
RTVSPost2010PropOp33
 70
     1
102
RTVSPost2010Prop34
280
     0
102
RTVSPost2010PropOp34
 70
     1
102
RTVSPost2010Prop35
280
     0
102
RTVSPost2010PropOp35
 70
     1
102
RTVSPost2010Prop36
280
     0
102
RTVSPost2010PropOp36
 70
     1
102
RTVSPost2010Prop37
 90
       50
102
RTVSPost2010PropOp37
 70
     0
102
RTVSPost2010Prop38
140
0.0
102
RTVSPost2010PropOp38
 70
     0
102
RTVSPost2010Prop39
140
1.0
102
RTVSPost2010PropOp39
 70
     0
102
RTVSPost2010Prop40
 90
        0
102
RTVSPost2010PropOp40
 70
     0
102
RTVSPost2010Prop41ColorIndex
 90
       18
102
RTVSPost2010Prop41ColorRGB
 90
        0
102
RTVSPost2010PropOp41
 70
     0
102
RTVSPost2010Prop42
 90
       50
102
RTVSPost2010PropOp42
 70
     0
102
RTVSPost2010Prop43
 90
        3
102
RTVSPost2010PropOp43
 70
     0
102
RTVSPost2010Prop44ColorIndex
 90
        5
102
RTVSPost2010Prop44ColorRGB
 90
      255
102
RTVSPost2010PropOp44
 70
     0
102
RTVSPost2010Prop45
280
     0
102
RTVSPost2010PropOp45
 70
     1
102
RTVSPost2010Prop46
 90
       50
102
RTVSPost2010PropOp46
 70
     0
102
RTVSPost2010Prop47
 90
       50
102
RTVSPost2010PropOp47
 70
     0
102
RTVSPost2010Prop48
 90
       50
102
RTVSPost2010PropOp48
 70
     0
102
RTVSPost2010Prop49
280
     0
102
RTVSPost2010PropOp49
 70
     1
102
RTVSPost2010Prop50
 90
       50
102
RTVSPost2010PropOp50
 70
     0
102
RTVSPost2010Prop51ColorIndex
 90
      256
102
RTVSPost2010Prop51ColorRGB
 90
-16777216
102
RTVSPost2010PropOp51
 70
     0
102
RTVSPost2010Prop52
140
1.0
102
RTVSPost2010PropOp52
 70
     0
102
RTVSPost2010Prop53
 90
        2
102
RTVSPost2010PropOp53
 70
     0
102
RTVSPost2010Prop54
  1
strokes_ogs.tif
102
RTVSPost2010PropOp54
 70
     0
102
RTVSPost2010Prop55
280
     0
102
RTVSPost2010PropOp55
 70
     1
102
RTVSPost2010Prop56
140
1.0
102
RTVSPost2010PropOp56
 70
     0
102
RTVSPost2010Prop57
140
1.0
102
RTVSPost2010PropOp57
 70
     0
102
RTVSPropertyOp0
 70
     0
102
RTVSPropertyOp1
 70
     0
102
RTVSPropertyOp2
 70
     0
102
RTVSPropertyOp3
 70
     0
102
RTVSPropertyOp4
 70
     0
102
RTVSPropertyOp5
 70
     0
102
RTVSPropertyOp6
 70
     0
102
RTVSPropertyOp7
 70
     0
102
RTVSPropertyOp8
 70
     0
102
RTVSPropertyOp9
 70
     0
102
RTVSPropertyOp10
 70
     0
102
RTVSPropertyOp11
 70
     0
102
RTVSPropertyOp12
 70
     0
102
RTVSPropertyOp13
 70
     0
102
RTVSPropertyOp14
 70
     2
102
RTVSPropertyOp15
 70
     0
102
RTVSPropertyOp16
 70
     0
102
RTVSPropertyOp17
 70
     0
102
RTVSPropertyOp18
 70
     0
102
RTVSPropertyOp19
 70
     0
102
RTVSPropertyOp20
 70
     0
102
RTVSPropertyOp21
 70
     0
102
RTVSPropertyOp22
 70
     0
102
RTVSPropertyOp23
 70
     0
102
RTVSPropertyOp24
 70
     0
102
RTVSPropertyOp25
 70
     0
102
RTVSPropertyOp26
 70
     0
102
RTVSPropertyOp27
 70
     0
102
RTVSPropertyOp28
 70
     1
102
RTVSPropertyOp29
 70
     1
102
RTVSPropertyOp30
 70
     1
102
RTVSPropertyOp31
 70
     1
102
RTVSPropertyOp32
 70
     1
102
RTVSPropertyOp33
 70
     1
102
RTVSPropertyOp34
 70
     1
102
RTVSPropertyOp35
 70
     1
102
RTVSPropertyOp36
 70
     1
102
RTVSPropertyOp37
 70
     0
102
RTVSPropertyOp38
 70
     0
102
RTVSPropertyOp39
 70
     0
102
RTVSPropertyOp40
 70
     0
102
RTVSPropertyOp41
 70
     0
102
RTVSPropertyOp42
 70
     0
102
RTVSPropertyOp43
 70
     0
102
RTVSPropertyOp44
 70
     0
102
RTVSPropertyOp45
 70
     1
102
RTVSPropertyOp46
 70
     0
102
RTVSPropertyOp47
 70
     0
102
RTVSPropertyOp48
 70
     0
102
RTVSPropertyOp49
 70
     1
102
RTVSPropertyOp50
 70
     0
102
RTVSPropertyOp51
 70
     0
102
RTVSPropertyOp52
 70
     0
102
RTVSPropertyOp53
 70
     0
102
RTVSPropertyOp54
 70
     0
102
RTVSPropertyOp55
 70
     1
102
RTVSPropertyOp56
 70
     0
102
RTVSPropertyOp57
 70
     0
102
RTVSPropertyOp58
 70
     0
102
RTVSPropertyOp59
 70
     0
102
RTVSPropertyOp60
 70
     0
102
RTVSPropertyOp61
 70
     0
102
RTVSPropertyOp62
 70
     0
  0
XRECORD
  5
A505
102
{ACAD_REACTORS
330
A504
102
}
330
A504
100
AcDbXrecord
280
     1
102
RTVSPost2010Prop28
280
     0
102
RTVSPost2010PropOp28
 70
     1
102
RTVSPost2010Prop29
280
     1
102
RTVSPost2010PropOp29
 70
     1
102
RTVSPost2010Prop30
280
     1
102
RTVSPost2010PropOp30
 70
     1
102
RTVSPost2010Prop31
280
     0
102
RTVSPost2010PropOp31
 70
     1
102
RTVSPost2010Prop32
280
     0
102
RTVSPost2010PropOp32
 70
     1
102
RTVSPost2010Prop33
280
     0
102
RTVSPost2010PropOp33
 70
     1
102
RTVSPost2010Prop34
280
     0
102
RTVSPost2010PropOp34
 70
     1
102
RTVSPost2010Prop35
280
     0
102
RTVSPost2010PropOp35
 70
     1
102
RTVSPost2010Prop36
280
     0
102
RTVSPost2010PropOp36
 70
     1
102
RTVSPost2010Prop37
 90
       50
102
RTVSPost2010PropOp37
 70
     1
102
RTVSPost2010Prop38
140
0.0
102
RTVSPost2010PropOp38
 70
     1
102
RTVSPost2010Prop39
140
1.0
102
RTVSPost2010PropOp39
 70
     1
102
RTVSPost2010Prop40
 90
        0
102
RTVSPost2010PropOp40
 70
     1
102
RTVSPost2010Prop41ColorIndex
 90
       18
102
RTVSPost2010Prop41ColorRGB
 90
        0
102
RTVSPost2010PropOp41
 70
     1
102
RTVSPost2010Prop42
 90
       50
102
RTVSPost2010PropOp42
 70
     1
102
RTVSPost2010Prop43
 90
        3
102
RTVSPost2010PropOp43
 70
     1
102
RTVSPost2010Prop44ColorIndex
 90
        5
102
RTVSPost2010Prop44ColorRGB
 90
      255
102
RTVSPost2010PropOp44
 70
     1
102
RTVSPost2010Prop45
280
     0
102
RTVSPost2010PropOp45
 70
     1
102
RTVSPost2010Prop46
 90
       50
102
RTVSPost2010PropOp46
 70
     1
102
RTVSPost2010Prop47
 90
       50
102
RTVSPost2010PropOp47
 70
     1
102
RTVSPost2010Prop48
 90
       50
102
RTVSPost2010PropOp48
 70
     1
102
RTVSPost2010Prop49
280
     0
102
RTVSPost2010PropOp49
 70
     1
102
RTVSPost2010Prop50
 90
       50
102
RTVSPost2010PropOp50
 70
     1
102
RTVSPost2010Prop51ColorIndex
 90
      256
102
RTVSPost2010Prop51ColorRGB
 90
-16777216
102
RTVSPost2010PropOp51
 70
     0
102
RTVSPost2010Prop52
140
1.0
102
RTVSPost2010PropOp52
 70
     0
102
RTVSPost2010Prop53
 90
        2
102
RTVSPost2010PropOp53
 70
     1
102
RTVSPost2010Prop54
  1
strokes_ogs.tif
102
RTVSPost2010PropOp54
 70
     1
102
RTVSPost2010Prop55
280
     0
102
RTVSPost2010PropOp55
 70
     1
102
RTVSPost2010Prop56
140
1.0
102
RTVSPost2010PropOp56
 70
     1
102
RTVSPost2010Prop57
140
1.0
102
RTVSPost2010PropOp57
 70
     1
102
RTVSPropertyOp0
 70
     1
102
RTVSPropertyOp1
 70
     1
102
RTVSPropertyOp2
 70
     1
102
RTVSPropertyOp3
 70
     1
102
RTVSPropertyOp4
 70
     1
102
RTVSPropertyOp5
 70
     1
102
RTVSPropertyOp6
 70
     1
102
RTVSPropertyOp7
 70
     1
102
RTVSPropertyOp8
 70
     1
102
RTVSPropertyOp9
 70
     1
102
RTVSPropertyOp10
 70
     1
102
RTVSPropertyOp11
 70
     1
102
RTVSPropertyOp12
 70
     1
102
RTVSPropertyOp13
 70
     1
102
RTVSPropertyOp14
 70
     1
102
RTVSPropertyOp15
 70
     1
102
RTVSPropertyOp16
 70
     1
102
RTVSPropertyOp17
 70
     1
102
RTVSPropertyOp18
 70
     1
102
RTVSPropertyOp19
 70
     1
102
RTVSPropertyOp20
 70
     1
102
RTVSPropertyOp21
 70
     1
102
RTVSPropertyOp22
 70
     1
102
RTVSPropertyOp23
 70
     1
102
RTVSPropertyOp24
 70
     1
102
RTVSPropertyOp25
 70
     1
102
RTVSPropertyOp26
 70
     1
102
RTVSPropertyOp27
 70
     1
102
RTVSPropertyOp28
 70
     1
102
RTVSPropertyOp29
 70
     1
102
RTVSPropertyOp30
 70
     1
102
RTVSPropertyOp31
 70
     1
102
RTVSPropertyOp32
 70
     1
102
RTVSPropertyOp33
 70
     1
102
RTVSPropertyOp34
 70
     1
102
RTVSPropertyOp35
 70
     1
102
RTVSPropertyOp36
 70
     1
102
RTVSPropertyOp37
 70
     1
102
RTVSPropertyOp38
 70
     1
102
RTVSPropertyOp39
 70
     1
102
RTVSPropertyOp40
 70
     1
102
RTVSPropertyOp41
 70
     1
102
RTVSPropertyOp42
 70
     1
102
RTVSPropertyOp43
 70
     1
102
RTVSPropertyOp44
 70
     1
102
RTVSPropertyOp45
 70
     1
102
RTVSPropertyOp46
 70
     1
102
RTVSPropertyOp47
 70
     1
102
RTVSPropertyOp48
 70
     1
102
RTVSPropertyOp49
 70
     1
102
RTVSPropertyOp50
 70
     1
102
RTVSPropertyOp51
 70
     0
102
RTVSPropertyOp52
 70
     0
102
RTVSPropertyOp53
 70
     1
102
RTVSPropertyOp54
 70
     1
102
RTVSPropertyOp55
 70
     1
102
RTVSPropertyOp56
 70
     1
102
RTVSPropertyOp57
 70
     1
102
RTVSPropertyOp58
 70
     1
102
RTVSPropertyOp59
 70
     1
102
RTVSPropertyOp60
 70
     1
102
RTVSPropertyOp61
 70
     1
102
RTVSPropertyOp62
 70
     1
  0
XRECORD
  5
A51B
102
{ACAD_REACTORS
330
A51A
102
}
330
A51A
100
AcDbXrecord
280
     1
102
RTVSPost2010Prop28
280
     0
102
RTVSPost2010PropOp28
 70
     1
102
RTVSPost2010Prop29
280
     1
102
RTVSPost2010PropOp29
 70
     1
102
RTVSPost2010Prop30
280
     1
102
RTVSPost2010PropOp30
 70
     1
102
RTVSPost2010Prop31
280
     0
102
RTVSPost2010PropOp31
 70
     1
102
RTVSPost2010Prop32
280
     0
102
RTVSPost2010PropOp32
 70
     1
102
RTVSPost2010Prop33
280
     0
102
RTVSPost2010PropOp33
 70
     1
102
RTVSPost2010Prop34
280
     0
102
RTVSPost2010PropOp34
 70
     1
102
RTVSPost2010Prop35
280
     0
102
RTVSPost2010PropOp35
 70
     1
102
RTVSPost2010Prop36
280
     0
102
RTVSPost2010PropOp36
 70
     1
102
RTVSPost2010Prop37
 90
       50
102
RTVSPost2010PropOp37
 70
     1
102
RTVSPost2010Prop38
140
0.0
102
RTVSPost2010PropOp38
 70
     1
102
RTVSPost2010Prop39
140
1.0
102
RTVSPost2010PropOp39
 70
     1
102
RTVSPost2010Prop40
 90
        0
102
RTVSPost2010PropOp40
 70
     1
102
RTVSPost2010Prop41ColorIndex
 90
       18
102
RTVSPost2010Prop41ColorRGB
 90
        0
102
RTVSPost2010PropOp41
 70
     1
102
RTVSPost2010Prop42
 90
       50
102
RTVSPost2010PropOp42
 70
     1
102
RTVSPost2010Prop43
 90
        3
102
RTVSPost2010PropOp43
 70
     1
102
RTVSPost2010Prop44ColorIndex
 90
        5
102
RTVSPost2010Prop44ColorRGB
 90
      255
102
RTVSPost2010PropOp44
 70
     1
102
RTVSPost2010Prop45
280
     0
102
RTVSPost2010PropOp45
 70
     1
102
RTVSPost2010Prop46
 90
       50
102
RTVSPost2010PropOp46
 70
     1
102
RTVSPost2010Prop47
 90
       50
102
RTVSPost2010PropOp47
 70
     1
102
RTVSPost2010Prop48
 90
       50
102
RTVSPost2010PropOp48
 70
     1
102
RTVSPost2010Prop49
280
     0
102
RTVSPost2010PropOp49
 70
     1
102
RTVSPost2010Prop50
 90
       50
102
RTVSPost2010PropOp50
 70
     1
102
RTVSPost2010Prop51ColorIndex
 90
      256
102
RTVSPost2010Prop51ColorRGB
 90
-16777216
102
RTVSPost2010PropOp51
 70
     0
102
RTVSPost2010Prop52
140
1.0
102
RTVSPost2010PropOp52
 70
     0
102
RTVSPost2010Prop53
 90
        2
102
RTVSPost2010PropOp53
 70
     1
102
RTVSPost2010Prop54
  1
strokes_ogs.tif
102
RTVSPost2010PropOp54
 70
     1
102
RTVSPost2010Prop55
280
     0
102
RTVSPost2010PropOp55
 70
     1
102
RTVSPost2010Prop56
140
1.0
102
RTVSPost2010PropOp56
 70
     1
102
RTVSPost2010Prop57
140
1.0
102
RTVSPost2010PropOp57
 70
     1
102
RTVSPropertyOp0
 70
     1
102
RTVSPropertyOp1
 70
     1
102
RTVSPropertyOp2
 70
     1
102
RTVSPropertyOp3
 70
     1
102
RTVSPropertyOp4
 70
     1
102
RTVSPropertyOp5
 70
     1
102
RTVSPropertyOp6
 70
     1
102
RTVSPropertyOp7
 70
     1
102
RTVSPropertyOp8
 70
     1
102
RTVSPropertyOp9
 70
     1
102
RTVSPropertyOp10
 70
     1
102
RTVSPropertyOp11
 70
     1
102
RTVSPropertyOp12
 70
     1
102
RTVSPropertyOp13
 70
     1
102
RTVSPropertyOp14
 70
     1
102
RTVSPropertyOp15
 70
     1
102
RTVSPropertyOp16
 70
     1
102
RTVSPropertyOp17
 70
     1
102
RTVSPropertyOp18
 70
     1
102
RTVSPropertyOp19
 70
     1
102
RTVSPropertyOp20
 70
     1
102
RTVSPropertyOp21
 70
     1
102
RTVSPropertyOp22
 70
     1
102
RTVSPropertyOp23
 70
     1
102
RTVSPropertyOp24
 70
     1
102
RTVSPropertyOp25
 70
     1
102
RTVSPropertyOp26
 70
     1
102
RTVSPropertyOp27
 70
     1
102
RTVSPropertyOp28
 70
     1
102
RTVSPropertyOp29
 70
     1
102
RTVSPropertyOp30
 70
     1
102
RTVSPropertyOp31
 70
     1
102
RTVSPropertyOp32
 70
     1
102
RTVSPropertyOp33
 70
     1
102
RTVSPropertyOp34
 70
     1
102
RTVSPropertyOp35
 70
     1
102
RTVSPropertyOp36
 70
     1
102
RTVSPropertyOp37
 70
     1
102
RTVSPropertyOp38
 70
     1
102
RTVSPropertyOp39
 70
     1
102
RTVSPropertyOp40
 70
     1
102
RTVSPropertyOp41
 70
     1
102
RTVSPropertyOp42
 70
     1
102
RTVSPropertyOp43
 70
     1
102
RTVSPropertyOp44
 70
     1
102
RTVSPropertyOp45
 70
     1
102
RTVSPropertyOp46
 70
     1
102
RTVSPropertyOp47
 70
     1
102
RTVSPropertyOp48
 70
     1
102
RTVSPropertyOp49
 70
     1
102
RTVSPropertyOp50
 70
     1
102
RTVSPropertyOp51
 70
     0
102
RTVSPropertyOp52
 70
     0
102
RTVSPropertyOp53
 70
     1
102
RTVSPropertyOp54
 70
     1
102
RTVSPropertyOp55
 70
     1
102
RTVSPropertyOp56
 70
     1
102
RTVSPropertyOp57
 70
     1
102
RTVSPropertyOp58
 70
     1
102
RTVSPropertyOp59
 70
     1
102
RTVSPropertyOp60
 70
     1
102
RTVSPropertyOp61
 70
     1
102
RTVSPropertyOp62
 70
     1
  0
XRECORD
  5
A519
102
{ACAD_REACTORS
330
A518
102
}
330
A518
100
AcDbXrecord
280
     1
102
RTVSPost2010Prop28
280
     0
102
RTVSPost2010PropOp28
 70
     1
102
RTVSPost2010Prop29
280
     1
102
RTVSPost2010PropOp29
 70
     1
102
RTVSPost2010Prop30
280
     1
102
RTVSPost2010PropOp30
 70
     1
102
RTVSPost2010Prop31
280
     0
102
RTVSPost2010PropOp31
 70
     1
102
RTVSPost2010Prop32
280
     0
102
RTVSPost2010PropOp32
 70
     1
102
RTVSPost2010Prop33
280
     0
102
RTVSPost2010PropOp33
 70
     1
102
RTVSPost2010Prop34
280
     0
102
RTVSPost2010PropOp34
 70
     1
102
RTVSPost2010Prop35
280
     0
102
RTVSPost2010PropOp35
 70
     1
102
RTVSPost2010Prop36
280
     0
102
RTVSPost2010PropOp36
 70
     1
102
RTVSPost2010Prop37
 90
       50
102
RTVSPost2010PropOp37
 70
     1
102
RTVSPost2010Prop38
140
0.0
102
RTVSPost2010PropOp38
 70
     1
102
RTVSPost2010Prop39
140
1.0
102
RTVSPost2010PropOp39
 70
     1
102
RTVSPost2010Prop40
 90
        0
102
RTVSPost2010PropOp40
 70
     1
102
RTVSPost2010Prop41ColorIndex
 90
       18
102
RTVSPost2010Prop41ColorRGB
 90
        0
102
RTVSPost2010PropOp41
 70
     1
102
RTVSPost2010Prop42
 90
       50
102
RTVSPost2010PropOp42
 70
     1
102
RTVSPost2010Prop43
 90
        3
102
RTVSPost2010PropOp43
 70
     1
102
RTVSPost2010Prop44ColorIndex
 90
        5
102
RTVSPost2010Prop44ColorRGB
 90
      255
102
RTVSPost2010PropOp44
 70
     1
102
RTVSPost2010Prop45
280
     0
102
RTVSPost2010PropOp45
 70
     1
102
RTVSPost2010Prop46
 90
       50
102
RTVSPost2010PropOp46
 70
     1
102
RTVSPost2010Prop47
 90
       50
102
RTVSPost2010PropOp47
 70
     1
102
RTVSPost2010Prop48
 90
       50
102
RTVSPost2010PropOp48
 70
     1
102
RTVSPost2010Prop49
280
     0
102
RTVSPost2010PropOp49
 70
     1
102
RTVSPost2010Prop50
 90
       50
102
RTVSPost2010PropOp50
 70
     1
102
RTVSPost2010Prop51ColorIndex
 90
      256
102
RTVSPost2010Prop51ColorRGB
 90
-16777216
102
RTVSPost2010PropOp51
 70
     0
102
RTVSPost2010Prop52
140
1.0
102
RTVSPost2010PropOp52
 70
     0
102
RTVSPost2010Prop53
 90
        2
102
RTVSPost2010PropOp53
 70
     1
102
RTVSPost2010Prop54
  1
strokes_ogs.tif
102
RTVSPost2010PropOp54
 70
     1
102
RTVSPost2010Prop55
280
     0
102
RTVSPost2010PropOp55
 70
     1
102
RTVSPost2010Prop56
140
1.0
102
RTVSPost2010PropOp56
 70
     1
102
RTVSPost2010Prop57
140
1.0
102
RTVSPost2010PropOp57
 70
     1
102
RTVSPropertyOp0
 70
     1
102
RTVSPropertyOp1
 70
     1
102
RTVSPropertyOp2
 70
     1
102
RTVSPropertyOp3
 70
     1
102
RTVSPropertyOp4
 70
     1
102
RTVSPropertyOp5
 70
     1
102
RTVSPropertyOp6
 70
     1
102
RTVSPropertyOp7
 70
     1
102
RTVSPropertyOp8
 70
     1
102
RTVSPropertyOp9
 70
     1
102
RTVSPropertyOp10
 70
     1
102
RTVSPropertyOp11
 70
     1
102
RTVSPropertyOp12
 70
     1
102
RTVSPropertyOp13
 70
     1
102
RTVSPropertyOp14
 70
     1
102
RTVSPropertyOp15
 70
     1
102
RTVSPropertyOp16
 70
     1
102
RTVSPropertyOp17
 70
     1
102
RTVSPropertyOp18
 70
     1
102
RTVSPropertyOp19
 70
     1
102
RTVSPropertyOp20
 70
     1
102
RTVSPropertyOp21
 70
     1
102
RTVSPropertyOp22
 70
     1
102
RTVSPropertyOp23
 70
     1
102
RTVSPropertyOp24
 70
     1
102
RTVSPropertyOp25
 70
     1
102
RTVSPropertyOp26
 70
     1
102
RTVSPropertyOp27
 70
     1
102
RTVSPropertyOp28
 70
     1
102
RTVSPropertyOp29
 70
     1
102
RTVSPropertyOp30
 70
     1
102
RTVSPropertyOp31
 70
     1
102
RTVSPropertyOp32
 70
     1
102
RTVSPropertyOp33
 70
     1
102
RTVSPropertyOp34
 70
     1
102
RTVSPropertyOp35
 70
     1
102
RTVSPropertyOp36
 70
     1
102
RTVSPropertyOp37
 70
     1
102
RTVSPropertyOp38
 70
     1
102
RTVSPropertyOp39
 70
     1
102
RTVSPropertyOp40
 70
     1
102
RTVSPropertyOp41
 70
     1
102
RTVSPropertyOp42
 70
     1
102
RTVSPropertyOp43
 70
     1
102
RTVSPropertyOp44
 70
     1
102
RTVSPropertyOp45
 70
     1
102
RTVSPropertyOp46
 70
     1
102
RTVSPropertyOp47
 70
     1
102
RTVSPropertyOp48
 70
     1
102
RTVSPropertyOp49
 70
     1
102
RTVSPropertyOp50
 70
     1
102
RTVSPropertyOp51
 70
     0
102
RTVSPropertyOp52
 70
     0
102
RTVSPropertyOp53
 70
     1
102
RTVSPropertyOp54
 70
     1
102
RTVSPropertyOp55
 70
     1
102
RTVSPropertyOp56
 70
     1
102
RTVSPropertyOp57
 70
     1
102
RTVSPropertyOp58
 70
     1
102
RTVSPropertyOp59
 70
     1
102
RTVSPropertyOp60
 70
     1
102
RTVSPropertyOp61
 70
     1
102
RTVSPropertyOp62
 70
     1
  0
XRECORD
  5
A513
102
{ACAD_REACTORS
330
A512
102
}
330
A512
100
AcDbXrecord
280
     1
102
RTVSPost2010Prop28
280
     0
102
RTVSPost2010PropOp28
 70
     1
102
RTVSPost2010Prop29
280
     1
102
RTVSPost2010PropOp29
 70
     1
102
RTVSPost2010Prop30
280
     1
102
RTVSPost2010PropOp30
 70
     1
102
RTVSPost2010Prop31
280
     0
102
RTVSPost2010PropOp31
 70
     1
102
RTVSPost2010Prop32
280
     0
102
RTVSPost2010PropOp32
 70
     1
102
RTVSPost2010Prop33
280
     0
102
RTVSPost2010PropOp33
 70
     1
102
RTVSPost2010Prop34
280
     0
102
RTVSPost2010PropOp34
 70
     1
102
RTVSPost2010Prop35
280
     0
102
RTVSPost2010PropOp35
 70
     1
102
RTVSPost2010Prop36
280
     0
102
RTVSPost2010PropOp36
 70
     1
102
RTVSPost2010Prop37
 90
       50
102
RTVSPost2010PropOp37
 70
     1
102
RTVSPost2010Prop38
140
0.0
102
RTVSPost2010PropOp38
 70
     1
102
RTVSPost2010Prop39
140
1.0
102
RTVSPost2010PropOp39
 70
     1
102
RTVSPost2010Prop40
 90
        0
102
RTVSPost2010PropOp40
 70
     1
102
RTVSPost2010Prop41ColorIndex
 90
       18
102
RTVSPost2010Prop41ColorRGB
 90
        0
102
RTVSPost2010PropOp41
 70
     1
102
RTVSPost2010Prop42
 90
       50
102
RTVSPost2010PropOp42
 70
     1
102
RTVSPost2010Prop43
 90
        3
102
RTVSPost2010PropOp43
 70
     1
102
RTVSPost2010Prop44ColorIndex
 90
        5
102
RTVSPost2010Prop44ColorRGB
 90
      255
102
RTVSPost2010PropOp44
 70
     1
102
RTVSPost2010Prop45
280
     0
102
RTVSPost2010PropOp45
 70
     1
102
RTVSPost2010Prop46
 90
       50
102
RTVSPost2010PropOp46
 70
     1
102
RTVSPost2010Prop47
 90
       50
102
RTVSPost2010PropOp47
 70
     1
102
RTVSPost2010Prop48
 90
       50
102
RTVSPost2010PropOp48
 70
     1
102
RTVSPost2010Prop49
280
     0
102
RTVSPost2010PropOp49
 70
     1
102
RTVSPost2010Prop50
 90
       50
102
RTVSPost2010PropOp50
 70
     1
102
RTVSPost2010Prop51ColorIndex
 90
      256
102
RTVSPost2010Prop51ColorRGB
 90
-16777216
102
RTVSPost2010PropOp51
 70
     0
102
RTVSPost2010Prop52
140
1.0
102
RTVSPost2010PropOp52
 70
     0
102
RTVSPost2010Prop53
 90
        2
102
RTVSPost2010PropOp53
 70
     1
102
RTVSPost2010Prop54
  1
strokes_ogs.tif
102
RTVSPost2010PropOp54
 70
     1
102
RTVSPost2010Prop55
280
     0
102
RTVSPost2010PropOp55
 70
     1
102
RTVSPost2010Prop56
140
1.0
102
RTVSPost2010PropOp56
 70
     1
102
RTVSPost2010Prop57
140
1.0
102
RTVSPost2010PropOp57
 70
     1
102
RTVSPropertyOp0
 70
     1
102
RTVSPropertyOp1
 70
     1
102
RTVSPropertyOp2
 70
     1
102
RTVSPropertyOp3
 70
     1
102
RTVSPropertyOp4
 70
     1
102
RTVSPropertyOp5
 70
     1
102
RTVSPropertyOp6
 70
     1
102
RTVSPropertyOp7
 70
     1
102
RTVSPropertyOp8
 70
     1
102
RTVSPropertyOp9
 70
     1
102
RTVSPropertyOp10
 70
     1
102
RTVSPropertyOp11
 70
     1
102
RTVSPropertyOp12
 70
     1
102
RTVSPropertyOp13
 70
     1
102
RTVSPropertyOp14
 70
     1
102
RTVSPropertyOp15
 70
     1
102
RTVSPropertyOp16
 70
     1
102
RTVSPropertyOp17
 70
     1
102
RTVSPropertyOp18
 70
     1
102
RTVSPropertyOp19
 70
     1
102
RTVSPropertyOp20
 70
     1
102
RTVSPropertyOp21
 70
     1
102
RTVSPropertyOp22
 70
     1
102
RTVSPropertyOp23
 70
     1
102
RTVSPropertyOp24
 70
     1
102
RTVSPropertyOp25
 70
     1
102
RTVSPropertyOp26
 70
     1
102
RTVSPropertyOp27
 70
     1
102
RTVSPropertyOp28
 70
     1
102
RTVSPropertyOp29
 70
     1
102
RTVSPropertyOp30
 70
     1
102
RTVSPropertyOp31
 70
     1
102
RTVSPropertyOp32
 70
     1
102
RTVSPropertyOp33
 70
     1
102
RTVSPropertyOp34
 70
     1
102
RTVSPropertyOp35
 70
     1
102
RTVSPropertyOp36
 70
     1
102
RTVSPropertyOp37
 70
     1
102
RTVSPropertyOp38
 70
     1
102
RTVSPropertyOp39
 70
     1
102
RTVSPropertyOp40
 70
     1
102
RTVSPropertyOp41
 70
     1
102
RTVSPropertyOp42
 70
     1
102
RTVSPropertyOp43
 70
     1
102
RTVSPropertyOp44
 70
     1
102
RTVSPropertyOp45
 70
     1
102
RTVSPropertyOp46
 70
     1
102
RTVSPropertyOp47
 70
     1
102
RTVSPropertyOp48
 70
     1
102
RTVSPropertyOp49
 70
     1
102
RTVSPropertyOp50
 70
     1
102
RTVSPropertyOp51
 70
     0
102
RTVSPropertyOp52
 70
     0
102
RTVSPropertyOp53
 70
     1
102
RTVSPropertyOp54
 70
     1
102
RTVSPropertyOp55
 70
     1
102
RTVSPropertyOp56
 70
     1
102
RTVSPropertyOp57
 70
     1
102
RTVSPropertyOp58
 70
     1
102
RTVSPropertyOp59
 70
     1
102
RTVSPropertyOp60
 70
     1
102
RTVSPropertyOp61
 70
     1
102
RTVSPropertyOp62
 70
     1
  0
XRECORD
  5
A515
102
{ACAD_REACTORS
330
A514
102
}
330
A514
100
AcDbXrecord
280
     1
102
RTVSPost2010Prop28
280
     0
102
RTVSPost2010PropOp28
 70
     1
102
RTVSPost2010Prop29
280
     1
102
RTVSPost2010PropOp29
 70
     1
102
RTVSPost2010Prop30
280
     1
102
RTVSPost2010PropOp30
 70
     1
102
RTVSPost2010Prop31
280
     0
102
RTVSPost2010PropOp31
 70
     1
102
RTVSPost2010Prop32
280
     0
102
RTVSPost2010PropOp32
 70
     1
102
RTVSPost2010Prop33
280
     0
102
RTVSPost2010PropOp33
 70
     1
102
RTVSPost2010Prop34
280
     0
102
RTVSPost2010PropOp34
 70
     1
102
RTVSPost2010Prop35
280
     0
102
RTVSPost2010PropOp35
 70
     1
102
RTVSPost2010Prop36
280
     0
102
RTVSPost2010PropOp36
 70
     1
102
RTVSPost2010Prop37
 90
       50
102
RTVSPost2010PropOp37
 70
     1
102
RTVSPost2010Prop38
140
0.0
102
RTVSPost2010PropOp38
 70
     1
102
RTVSPost2010Prop39
140
1.0
102
RTVSPost2010PropOp39
 70
     1
102
RTVSPost2010Prop40
 90
        0
102
RTVSPost2010PropOp40
 70
     1
102
RTVSPost2010Prop41ColorIndex
 90
       18
102
RTVSPost2010Prop41ColorRGB
 90
        0
102
RTVSPost2010PropOp41
 70
     1
102
RTVSPost2010Prop42
 90
       50
102
RTVSPost2010PropOp42
 70
     1
102
RTVSPost2010Prop43
 90
        3
102
RTVSPost2010PropOp43
 70
     1
102
RTVSPost2010Prop44ColorIndex
 90
        5
102
RTVSPost2010Prop44ColorRGB
 90
      255
102
RTVSPost2010PropOp44
 70
     1
102
RTVSPost2010Prop45
280
     0
102
RTVSPost2010PropOp45
 70
     1
102
RTVSPost2010Prop46
 90
       50
102
RTVSPost2010PropOp46
 70
     1
102
RTVSPost2010Prop47
 90
       50
102
RTVSPost2010PropOp47
 70
     1
102
RTVSPost2010Prop48
 90
       50
102
RTVSPost2010PropOp48
 70
     1
102
RTVSPost2010Prop49
280
     0
102
RTVSPost2010PropOp49
 70
     1
102
RTVSPost2010Prop50
 90
       50
102
RTVSPost2010PropOp50
 70
     1
102
RTVSPost2010Prop51ColorIndex
 90
      256
102
RTVSPost2010Prop51ColorRGB
 90
-16777216
102
RTVSPost2010PropOp51
 70
     0
102
RTVSPost2010Prop52
140
1.0
102
RTVSPost2010PropOp52
 70
     0
102
RTVSPost2010Prop53
 90
        2
102
RTVSPost2010PropOp53
 70
     1
102
RTVSPost2010Prop54
  1
strokes_ogs.tif
102
RTVSPost2010PropOp54
 70
     1
102
RTVSPost2010Prop55
280
     0
102
RTVSPost2010PropOp55
 70
     1
102
RTVSPost2010Prop56
140
1.0
102
RTVSPost2010PropOp56
 70
     1
102
RTVSPost2010Prop57
140
1.0
102
RTVSPost2010PropOp57
 70
     1
102
RTVSPropertyOp0
 70
     1
102
RTVSPropertyOp1
 70
     1
102
RTVSPropertyOp2
 70
     1
102
RTVSPropertyOp3
 70
     1
102
RTVSPropertyOp4
 70
     1
102
RTVSPropertyOp5
 70
     1
102
RTVSPropertyOp6
 70
     1
102
RTVSPropertyOp7
 70
     1
102
RTVSPropertyOp8
 70
     1
102
RTVSPropertyOp9
 70
     1
102
RTVSPropertyOp10
 70
     1
102
RTVSPropertyOp11
 70
     1
102
RTVSPropertyOp12
 70
     1
102
RTVSPropertyOp13
 70
     1
102
RTVSPropertyOp14
 70
     1
102
RTVSPropertyOp15
 70
     1
102
RTVSPropertyOp16
 70
     1
102
RTVSPropertyOp17
 70
     1
102
RTVSPropertyOp18
 70
     1
102
RTVSPropertyOp19
 70
     1
102
RTVSPropertyOp20
 70
     1
102
RTVSPropertyOp21
 70
     1
102
RTVSPropertyOp22
 70
     1
102
RTVSPropertyOp23
 70
     1
102
RTVSPropertyOp24
 70
     1
102
RTVSPropertyOp25
 70
     1
102
RTVSPropertyOp26
 70
     1
102
RTVSPropertyOp27
 70
     1
102
RTVSPropertyOp28
 70
     1
102
RTVSPropertyOp29
 70
     1
102
RTVSPropertyOp30
 70
     1
102
RTVSPropertyOp31
 70
     1
102
RTVSPropertyOp32
 70
     1
102
RTVSPropertyOp33
 70
     1
102
RTVSPropertyOp34
 70
     1
102
RTVSPropertyOp35
 70
     1
102
RTVSPropertyOp36
 70
     1
102
RTVSPropertyOp37
 70
     1
102
RTVSPropertyOp38
 70
     1
102
RTVSPropertyOp39
 70
     1
102
RTVSPropertyOp40
 70
     1
102
RTVSPropertyOp41
 70
     1
102
RTVSPropertyOp42
 70
     1
102
RTVSPropertyOp43
 70
     1
102
RTVSPropertyOp44
 70
     1
102
RTVSPropertyOp45
 70
     1
102
RTVSPropertyOp46
 70
     1
102
RTVSPropertyOp47
 70
     1
102
RTVSPropertyOp48
 70
     1
102
RTVSPropertyOp49
 70
     1
102
RTVSPropertyOp50
 70
     1
102
RTVSPropertyOp51
 70
     0
102
RTVSPropertyOp52
 70
     0
102
RTVSPropertyOp53
 70
     1
102
RTVSPropertyOp54
 70
     1
102
RTVSPropertyOp55
 70
     1
102
RTVSPropertyOp56
 70
     1
102
RTVSPropertyOp57
 70
     1
102
RTVSPropertyOp58
 70
     1
102
RTVSPropertyOp59
 70
     1
102
RTVSPropertyOp60
 70
     1
102
RTVSPropertyOp61
 70
     1
102
RTVSPropertyOp62
 70
     1
  0
XRECORD
  5
A50B
102
{ACAD_REACTORS
330
A50A
102
}
330
A50A
100
AcDbXrecord
280
     1
102
RTVSPost2010Prop28
280
     0
102
RTVSPost2010PropOp28
 70
     1
102
RTVSPost2010Prop29
280
     1
102
RTVSPost2010PropOp29
 70
     1
102
RTVSPost2010Prop30
280
     1
102
RTVSPost2010PropOp30
 70
     1
102
RTVSPost2010Prop31
280
     0
102
RTVSPost2010PropOp31
 70
     1
102
RTVSPost2010Prop32
280
     0
102
RTVSPost2010PropOp32
 70
     1
102
RTVSPost2010Prop33
280
     0
102
RTVSPost2010PropOp33
 70
     1
102
RTVSPost2010Prop34
280
     0
102
RTVSPost2010PropOp34
 70
     1
102
RTVSPost2010Prop35
280
     0
102
RTVSPost2010PropOp35
 70
     1
102
RTVSPost2010Prop36
280
     0
102
RTVSPost2010PropOp36
 70
     1
102
RTVSPost2010Prop37
 90
       50
102
RTVSPost2010PropOp37
 70
     1
102
RTVSPost2010Prop38
140
0.0
102
RTVSPost2010PropOp38
 70
     1
102
RTVSPost2010Prop39
140
1.0
102
RTVSPost2010PropOp39
 70
     1
102
RTVSPost2010Prop40
 90
        0
102
RTVSPost2010PropOp40
 70
     1
102
RTVSPost2010Prop41ColorIndex
 90
       18
102
RTVSPost2010Prop41ColorRGB
 90
        0
102
RTVSPost2010PropOp41
 70
     1
102
RTVSPost2010Prop42
 90
       50
102
RTVSPost2010PropOp42
 70
     1
102
RTVSPost2010Prop43
 90
        3
102
RTVSPost2010PropOp43
 70
     1
102
RTVSPost2010Prop44ColorIndex
 90
        5
102
RTVSPost2010Prop44ColorRGB
 90
      255
102
RTVSPost2010PropOp44
 70
     1
102
RTVSPost2010Prop45
280
     0
102
RTVSPost2010PropOp45
 70
     1
102
RTVSPost2010Prop46
 90
       50
102
RTVSPost2010PropOp46
 70
     1
102
RTVSPost2010Prop47
 90
       50
102
RTVSPost2010PropOp47
 70
     1
102
RTVSPost2010Prop48
 90
       50
102
RTVSPost2010PropOp48
 70
     1
102
RTVSPost2010Prop49
280
     0
102
RTVSPost2010PropOp49
 70
     1
102
RTVSPost2010Prop50
 90
       50
102
RTVSPost2010PropOp50
 70
     1
102
RTVSPost2010Prop51ColorIndex
 90
      256
102
RTVSPost2010Prop51ColorRGB
 90
-16777216
102
RTVSPost2010PropOp51
 70
     0
102
RTVSPost2010Prop52
140
1.0
102
RTVSPost2010PropOp52
 70
     0
102
RTVSPost2010Prop53
 90
        2
102
RTVSPost2010PropOp53
 70
     1
102
RTVSPost2010Prop54
  1
strokes_ogs.tif
102
RTVSPost2010PropOp54
 70
     1
102
RTVSPost2010Prop55
280
     0
102
RTVSPost2010PropOp55
 70
     1
102
RTVSPost2010Prop56
140
1.0
102
RTVSPost2010PropOp56
 70
     1
102
RTVSPost2010Prop57
140
1.0
102
RTVSPost2010PropOp57
 70
     1
102
RTVSPropertyOp0
 70
     1
102
RTVSPropertyOp1
 70
     1
102
RTVSPropertyOp2
 70
     1
102
RTVSPropertyOp3
 70
     1
102
RTVSPropertyOp4
 70
     1
102
RTVSPropertyOp5
 70
     1
102
RTVSPropertyOp6
 70
     1
102
RTVSPropertyOp7
 70
     1
102
RTVSPropertyOp8
 70
     1
102
RTVSPropertyOp9
 70
     1
102
RTVSPropertyOp10
 70
     1
102
RTVSPropertyOp11
 70
     1
102
RTVSPropertyOp12
 70
     1
102
RTVSPropertyOp13
 70
     1
102
RTVSPropertyOp14
 70
     1
102
RTVSPropertyOp15
 70
     1
102
RTVSPropertyOp16
 70
     1
102
RTVSPropertyOp17
 70
     1
102
RTVSPropertyOp18
 70
     1
102
RTVSPropertyOp19
 70
     1
102
RTVSPropertyOp20
 70
     1
102
RTVSPropertyOp21
 70
     1
102
RTVSPropertyOp22
 70
     1
102
RTVSPropertyOp23
 70
     1
102
RTVSPropertyOp24
 70
     1
102
RTVSPropertyOp25
 70
     1
102
RTVSPropertyOp26
 70
     1
102
RTVSPropertyOp27
 70
     1
102
RTVSPropertyOp28
 70
     1
102
RTVSPropertyOp29
 70
     1
102
RTVSPropertyOp30
 70
     1
102
RTVSPropertyOp31
 70
     1
102
RTVSPropertyOp32
 70
     1
102
RTVSPropertyOp33
 70
     1
102
RTVSPropertyOp34
 70
     1
102
RTVSPropertyOp35
 70
     1
102
RTVSPropertyOp36
 70
     1
102
RTVSPropertyOp37
 70
     1
102
RTVSPropertyOp38
 70
     1
102
RTVSPropertyOp39
 70
     1
102
RTVSPropertyOp40
 70
     1
102
RTVSPropertyOp41
 70
     1
102
RTVSPropertyOp42
 70
     1
102
RTVSPropertyOp43
 70
     1
102
RTVSPropertyOp44
 70
     1
102
RTVSPropertyOp45
 70
     1
102
RTVSPropertyOp46
 70
     1
102
RTVSPropertyOp47
 70
     1
102
RTVSPropertyOp48
 70
     1
102
RTVSPropertyOp49
 70
     1
102
RTVSPropertyOp50
 70
     1
102
RTVSPropertyOp51
 70
     0
102
RTVSPropertyOp52
 70
     0
102
RTVSPropertyOp53
 70
     1
102
RTVSPropertyOp54
 70
     1
102
RTVSPropertyOp55
 70
     1
102
RTVSPropertyOp56
 70
     1
102
RTVSPropertyOp57
 70
     1
102
RTVSPropertyOp58
 70
     1
102
RTVSPropertyOp59
 70
     1
102
RTVSPropertyOp60
 70
     1
102
RTVSPropertyOp61
 70
     1
102
RTVSPropertyOp62
 70
     1
  0
XRECORD
  5
A4FF
102
{ACAD_REACTORS
330
A4FE
102
}
330
A4FE
100
AcDbXrecord
280
     1
102
RTVSPost2010Prop28
280
     0
102
RTVSPost2010PropOp28
 70
     1
102
RTVSPost2010Prop29
280
     1
102
RTVSPost2010PropOp29
 70
     1
102
RTVSPost2010Prop30
280
     1
102
RTVSPost2010PropOp30
 70
     1
102
RTVSPost2010Prop31
280
     0
102
RTVSPost2010PropOp31
 70
     1
102
RTVSPost2010Prop32
280
     0
102
RTVSPost2010PropOp32
 70
     1
102
RTVSPost2010Prop33
280
     0
102
RTVSPost2010PropOp33
 70
     1
102
RTVSPost2010Prop34
280
     0
102
RTVSPost2010PropOp34
 70
     1
102
RTVSPost2010Prop35
280
     0
102
RTVSPost2010PropOp35
 70
     1
102
RTVSPost2010Prop36
280
     0
102
RTVSPost2010PropOp36
 70
     1
102
RTVSPost2010Prop37
 90
       50
102
RTVSPost2010PropOp37
 70
     1
102
RTVSPost2010Prop38
140
0.0
102
RTVSPost2010PropOp38
 70
     1
102
RTVSPost2010Prop39
140
1.0
102
RTVSPost2010PropOp39
 70
     1
102
RTVSPost2010Prop40
 90
        0
102
RTVSPost2010PropOp40
 70
     1
102
RTVSPost2010Prop41ColorIndex
 90
       18
102
RTVSPost2010Prop41ColorRGB
 90
        0
102
RTVSPost2010PropOp41
 70
     1
102
RTVSPost2010Prop42
 90
       50
102
RTVSPost2010PropOp42
 70
     1
102
RTVSPost2010Prop43
 90
        3
102
RTVSPost2010PropOp43
 70
     1
102
RTVSPost2010Prop44ColorIndex
 90
        5
102
RTVSPost2010Prop44ColorRGB
 90
      255
102
RTVSPost2010PropOp44
 70
     1
102
RTVSPost2010Prop45
280
     0
102
RTVSPost2010PropOp45
 70
     1
102
RTVSPost2010Prop46
 90
       50
102
RTVSPost2010PropOp46
 70
     1
102
RTVSPost2010Prop47
 90
       50
102
RTVSPost2010PropOp47
 70
     1
102
RTVSPost2010Prop48
 90
       50
102
RTVSPost2010PropOp48
 70
     1
102
RTVSPost2010Prop49
280
     0
102
RTVSPost2010PropOp49
 70
     1
102
RTVSPost2010Prop50
 90
       50
102
RTVSPost2010PropOp50
 70
     1
102
RTVSPost2010Prop51ColorIndex
 90
      256
102
RTVSPost2010Prop51ColorRGB
 90
-16777216
102
RTVSPost2010PropOp51
 70
     0
102
RTVSPost2010Prop52
140
1.0
102
RTVSPost2010PropOp52
 70
     0
102
RTVSPost2010Prop53
 90
        2
102
RTVSPost2010PropOp53
 70
     1
102
RTVSPost2010Prop54
  1
strokes_ogs.tif
102
RTVSPost2010PropOp54
 70
     1
102
RTVSPost2010Prop55
280
     0
102
RTVSPost2010PropOp55
 70
     1
102
RTVSPost2010Prop56
140
1.0
102
RTVSPost2010PropOp56
 70
     1
102
RTVSPost2010Prop57
140
1.0
102
RTVSPost2010PropOp57
 70
     1
102
RTVSPropertyOp0
 70
     1
102
RTVSPropertyOp1
 70
     1
102
RTVSPropertyOp2
 70
     1
102
RTVSPropertyOp3
 70
     1
102
RTVSPropertyOp4
 70
     1
102
RTVSPropertyOp5
 70
     1
102
RTVSPropertyOp6
 70
     1
102
RTVSPropertyOp7
 70
     1
102
RTVSPropertyOp8
 70
     1
102
RTVSPropertyOp9
 70
     1
102
RTVSPropertyOp10
 70
     1
102
RTVSPropertyOp11
 70
     1
102
RTVSPropertyOp12
 70
     1
102
RTVSPropertyOp13
 70
     1
102
RTVSPropertyOp14
 70
     1
102
RTVSPropertyOp15
 70
     1
102
RTVSPropertyOp16
 70
     1
102
RTVSPropertyOp17
 70
     1
102
RTVSPropertyOp18
 70
     1
102
RTVSPropertyOp19
 70
     1
102
RTVSPropertyOp20
 70
     1
102
RTVSPropertyOp21
 70
     1
102
RTVSPropertyOp22
 70
     1
102
RTVSPropertyOp23
 70
     1
102
RTVSPropertyOp24
 70
     1
102
RTVSPropertyOp25
 70
     1
102
RTVSPropertyOp26
 70
     1
102
RTVSPropertyOp27
 70
     1
102
RTVSPropertyOp28
 70
     1
102
RTVSPropertyOp29
 70
     1
102
RTVSPropertyOp30
 70
     1
102
RTVSPropertyOp31
 70
     1
102
RTVSPropertyOp32
 70
     1
102
RTVSPropertyOp33
 70
     1
102
RTVSPropertyOp34
 70
     1
102
RTVSPropertyOp35
 70
     1
102
RTVSPropertyOp36
 70
     1
102
RTVSPropertyOp37
 70
     1
102
RTVSPropertyOp38
 70
     1
102
RTVSPropertyOp39
 70
     1
102
RTVSPropertyOp40
 70
     1
102
RTVSPropertyOp41
 70
     1
102
RTVSPropertyOp42
 70
     1
102
RTVSPropertyOp43
 70
     1
102
RTVSPropertyOp44
 70
     1
102
RTVSPropertyOp45
 70
     1
102
RTVSPropertyOp46
 70
     1
102
RTVSPropertyOp47
 70
     1
102
RTVSPropertyOp48
 70
     1
102
RTVSPropertyOp49
 70
     1
102
RTVSPropertyOp50
 70
     1
102
RTVSPropertyOp51
 70
     0
102
RTVSPropertyOp52
 70
     0
102
RTVSPropertyOp53
 70
     1
102
RTVSPropertyOp54
 70
     1
102
RTVSPropertyOp55
 70
     1
102
RTVSPropertyOp56
 70
     1
102
RTVSPropertyOp57
 70
     1
102
RTVSPropertyOp58
 70
     1
102
RTVSPropertyOp59
 70
     1
102
RTVSPropertyOp60
 70
     1
102
RTVSPropertyOp61
 70
     1
102
RTVSPropertyOp62
 70
     1
  0
XRECORD
  5
A517
102
{ACAD_REACTORS
330
A516
102
}
330
A516
100
AcDbXrecord
280
     1
102
RTVSPost2010Prop28
280
     0
102
RTVSPost2010PropOp28
 70
     1
102
RTVSPost2010Prop29
280
     1
102
RTVSPost2010PropOp29
 70
     1
102
RTVSPost2010Prop30
280
     1
102
RTVSPost2010PropOp30
 70
     1
102
RTVSPost2010Prop31
280
     0
102
RTVSPost2010PropOp31
 70
     1
102
RTVSPost2010Prop32
280
     0
102
RTVSPost2010PropOp32
 70
     1
102
RTVSPost2010Prop33
280
     0
102
RTVSPost2010PropOp33
 70
     1
102
RTVSPost2010Prop34
280
     0
102
RTVSPost2010PropOp34
 70
     1
102
RTVSPost2010Prop35
280
     0
102
RTVSPost2010PropOp35
 70
     1
102
RTVSPost2010Prop36
280
     0
102
RTVSPost2010PropOp36
 70
     1
102
RTVSPost2010Prop37
 90
       50
102
RTVSPost2010PropOp37
 70
     1
102
RTVSPost2010Prop38
140
0.0
102
RTVSPost2010PropOp38
 70
     1
102
RTVSPost2010Prop39
140
1.0
102
RTVSPost2010PropOp39
 70
     1
102
RTVSPost2010Prop40
 90
        0
102
RTVSPost2010PropOp40
 70
     1
102
RTVSPost2010Prop41ColorIndex
 90
       18
102
RTVSPost2010Prop41ColorRGB
 90
        0
102
RTVSPost2010PropOp41
 70
     1
102
RTVSPost2010Prop42
 90
       50
102
RTVSPost2010PropOp42
 70
     1
102
RTVSPost2010Prop43
 90
        3
102
RTVSPost2010PropOp43
 70
     1
102
RTVSPost2010Prop44ColorIndex
 90
        5
102
RTVSPost2010Prop44ColorRGB
 90
      255
102
RTVSPost2010PropOp44
 70
     1
102
RTVSPost2010Prop45
280
     0
102
RTVSPost2010PropOp45
 70
     1
102
RTVSPost2010Prop46
 90
       50
102
RTVSPost2010PropOp46
 70
     1
102
RTVSPost2010Prop47
 90
       50
102
RTVSPost2010PropOp47
 70
     1
102
RTVSPost2010Prop48
 90
       50
102
RTVSPost2010PropOp48
 70
     1
102
RTVSPost2010Prop49
280
     0
102
RTVSPost2010PropOp49
 70
     1
102
RTVSPost2010Prop50
 90
       50
102
RTVSPost2010PropOp50
 70
     1
102
RTVSPost2010Prop51ColorIndex
 90
      256
102
RTVSPost2010Prop51ColorRGB
 90
-16777216
102
RTVSPost2010PropOp51
 70
     0
102
RTVSPost2010Prop52
140
1.0
102
RTVSPost2010PropOp52
 70
     0
102
RTVSPost2010Prop53
 90
        2
102
RTVSPost2010PropOp53
 70
     1
102
RTVSPost2010Prop54
  1
strokes_ogs.tif
102
RTVSPost2010PropOp54
 70
     1
102
RTVSPost2010Prop55
280
     0
102
RTVSPost2010PropOp55
 70
     1
102
RTVSPost2010Prop56
140
1.0
102
RTVSPost2010PropOp56
 70
     1
102
RTVSPost2010Prop57
140
1.0
102
RTVSPost2010PropOp57
 70
     1
102
RTVSPropertyOp0
 70
     1
102
RTVSPropertyOp1
 70
     1
102
RTVSPropertyOp2
 70
     1
102
RTVSPropertyOp3
 70
     1
102
RTVSPropertyOp4
 70
     1
102
RTVSPropertyOp5
 70
     1
102
RTVSPropertyOp6
 70
     1
102
RTVSPropertyOp7
 70
     1
102
RTVSPropertyOp8
 70
     1
102
RTVSPropertyOp9
 70
     1
102
RTVSPropertyOp10
 70
     1
102
RTVSPropertyOp11
 70
     1
102
RTVSPropertyOp12
 70
     1
102
RTVSPropertyOp13
 70
     1
102
RTVSPropertyOp14
 70
     1
102
RTVSPropertyOp15
 70
     1
102
RTVSPropertyOp16
 70
     1
102
RTVSPropertyOp17
 70
     1
102
RTVSPropertyOp18
 70
     1
102
RTVSPropertyOp19
 70
     1
102
RTVSPropertyOp20
 70
     1
102
RTVSPropertyOp21
 70
     1
102
RTVSPropertyOp22
 70
     1
102
RTVSPropertyOp23
 70
     1
102
RTVSPropertyOp24
 70
     1
102
RTVSPropertyOp25
 70
     1
102
RTVSPropertyOp26
 70
     1
102
RTVSPropertyOp27
 70
     1
102
RTVSPropertyOp28
 70
     1
102
RTVSPropertyOp29
 70
     1
102
RTVSPropertyOp30
 70
     1
102
RTVSPropertyOp31
 70
     1
102
RTVSPropertyOp32
 70
     1
102
RTVSPropertyOp33
 70
     1
102
RTVSPropertyOp34
 70
     1
102
RTVSPropertyOp35
 70
     1
102
RTVSPropertyOp36
 70
     1
102
RTVSPropertyOp37
 70
     1
102
RTVSPropertyOp38
 70
     1
102
RTVSPropertyOp39
 70
     1
102
RTVSPropertyOp40
 70
     1
102
RTVSPropertyOp41
 70
     1
102
RTVSPropertyOp42
 70
     1
102
RTVSPropertyOp43
 70
     1
102
RTVSPropertyOp44
 70
     1
102
RTVSPropertyOp45
 70
     1
102
RTVSPropertyOp46
 70
     1
102
RTVSPropertyOp47
 70
     1
102
RTVSPropertyOp48
 70
     1
102
RTVSPropertyOp49
 70
     1
102
RTVSPropertyOp50
 70
     1
102
RTVSPropertyOp51
 70
     0
102
RTVSPropertyOp52
 70
     0
102
RTVSPropertyOp53
 70
     1
102
RTVSPropertyOp54
 70
     1
102
RTVSPropertyOp55
 70
     1
102
RTVSPropertyOp56
 70
     1
102
RTVSPropertyOp57
 70
     1
102
RTVSPropertyOp58
 70
     1
102
RTVSPropertyOp59
 70
     1
102
RTVSPropertyOp60
 70
     1
102
RTVSPropertyOp61
 70
     1
102
RTVSPropertyOp62
 70
     1
  0
ENDSEC
  0
EOF
