  0
SECTION
  2
HEADER
  9
$ACADVER
  1
AC1015
  9
$ACADMAINTVER
 70
    20
  9
$DWGCODEPAGE
  3
ANSI_932
  9
$INSBASE
 10
0.0
 20
0.0
 30
0.0
  9
$EXTMIN
 10
10.0
 20
9.999999999999998
 30
0.0
  9
$EXTMAX
 10
462.6314869999998
 20
337.8915799999998
 30
0.0
  9
$LIMMIN
 10
0.0
 20
0.0
  9
$LIMMAX
 10
543.47
 20
374.6649239999999
  9
$ORTHOMODE
 70
     0
  9
$REGENMODE
 70
     1
  9
$FILLMODE
 70
     1
  9
$QTEXTMODE
 70
     0
  9
$MIRRTEXT
 70
     1
  9
$LTSCALE
 40
20.0
  9
$ATTMODE
 70
     1
  9
$TEXTSIZE
 40
5.0
  9
$TRACEWID
 40
1.0
  9
$TEXTSTYLE
  7
STANDARD
  9
$CLAYER
  8
0
  9
$CELTYPE
  6
BYLAYER
  9
$CECOLOR
 62
   256
  9
$CELTSCALE
 40
1.0
  9
$DISPSILH
 70
     0
  9
$DIMSCALE
 40
1.0
  9
$DIMASZ
 40
2.5
  9
$DIMEXO
 40
1.0
  9
$DIMDLI
 40
10.0
  9
$DIMRND
 40
0.0
  9
$DIMDLE
 40
0.0
  9
$DIMEXE
 40
1.0
  9
$DIMTP
 40
0.0
  9
$DIMTM
 40
0.0
  9
$DIMTXT
 40
3.2
  9
$DIMCEN
 40
0.0
  9
$DIMTSZ
 40
0.0
  9
$DIMTOL
 70
     0
  9
$DIMLIM
 70
     0
  9
$DIMTIH
 70
     0
  9
$DIMTOH
 70
     0
  9
$DIMSE1
 70
     0
  9
$DIMSE2
 70
     0
  9
$DIMTAD
 70
     3
  9
$DIMZIN
 70
     8
  9
$DIMBLK
  1

  9
$DIMASO
 70
     1
  9
$DIMSHO
 70
     1
  9
$DIMPOST
  1

  9
$DIMAPOST
  1

  9
$DIMALT
 70
     0
  9
$DIMALTD
 70
     2
  9
$DIMALTF
 40
25.4
  9
$DIMLFAC
 40
1.0
  9
$DIMTOFL
 70
     1
  9
$DIMTVP
 40
0.0
  9
$DIMTIX
 70
     0
  9
$DIMSOXD
 70
     0
  9
$DIMSAH
 70
     1
  9
$DIMBLK1
  1

  9
$DIMBLK2
  1

  9
$DIMSTYLE
  2
STANDARD
  9
$DIMCLRD
 70
     0
  9
$DIMCLRE
 70
     0
  9
$DIMCLRT
 70
     0
  9
$DIMTFAC
 40
1.0
  9
$DIMGAP
 40
1.0
  9
$DIMJUST
 70
     0
  9
$DIMSD1
 70
     0
  9
$DIMSD2
 70
     0
  9
$DIMTOLJ
 70
     1
  9
$DIMTZIN
 70
     0
  9
$DIMALTZ
 70
     0
  9
$DIMALTTZ
 70
     0
  9
$DIMUPT
 70
     0
  9
$DIMDEC
 70
     4
  9
$DIMTDEC
 70
     4
  9
$DIMALTU
 70
     2
  9
$DIMALTTD
 70
     2
  9
$DIMTXSTY
  7
STANDARD
  9
$DIMAUNIT
 70
     0
  9
$DIMADEC
 70
     0
  9
$DIMALTRND
 40
0.0
  9
$DIMAZIN
 70
     0
  9
$DIMDSEP
 70
    46
  9
$DIMATFIT
 70
     3
  9
$DIMFRAC
 70
     0
  9
$DIMLDRBLK
  1

  9
$DIMLUNIT
 70
     2
  9
$DIMLWD
 70
    -2
  9
$DIMLWE
 70
    -2
  9
$DIMTMOVE
 70
     0
  9
$LUNITS
 70
     2
  9
$LUPREC
 70
     4
  9
$SKETCHINC
 40
1.0
  9
$FILLETRAD
 40
2.0
  9
$AUNITS
 70
     0
  9
$AUPREC
 70
     2
  9
$MENU
  1
.
  9
$ELEVATION
 40
0.0
  9
$PELEVATION
 40
0.0
  9
$THICKNESS
 40
0.0
  9
$LIMCHECK
 70
     0
  9
$CHAMFERA
 40
10.0
  9
$CHAMFERB
 40
10.0
  9
$CHAMFERC
 40
0.0
  9
$CHAMFERD
 40
0.0
  9
$SKPOLY
 70
     0
  9
$TDCREATE
 40
2451301.463616899
  9
$TDUCREATE
 40
2451301.088616899
  9
$TDUPDATE
 40
2457192.690488843
  9
$TDUUPDATE
 40
2457192.315488843
  9
$TDINDWG
 40
0.0953655671
  9
$TDUSRTIMER
 40
0.0953654282
  9
$USRTIMER
 70
     1
  9
$ANGBASE
 50
0.0
  9
$ANGDIR
 70
     0
  9
$PDMODE
 70
     0
  9
$PDSIZE
 40
0.0
  9
$PLINEWID
 40
0.0
  9
$SPLFRAME
 70
     0
  9
$SPLINETYPE
 70
     6
  9
$SPLINESEGS
 70
     8
  9
$HANDSEED
  5
A318
  9
$SURFTAB1
 70
     6
  9
$SURFTAB2
 70
     6
  9
$SURFTYPE
 70
     6
  9
$SURFU
 70
     6
  9
$SURFV
 70
     6
  9
$UCSBASE
  2

  9
$UCSNAME
  2

  9
$UCSORG
 10
0.0
 20
0.0
 30
0.0
  9
$UCSXDIR
 10
1.0
 20
0.0
 30
0.0
  9
$UCSYDIR
 10
0.0
 20
1.0
 30
0.0
  9
$UCSORTHOREF
  2

  9
$UCSORTHOVIEW
 70
     0
  9
$UCSORGTOP
 10
0.0
 20
0.0
 30
0.0
  9
$UCSORGBOTTOM
 10
0.0
 20
0.0
 30
0.0
  9
$UCSORGLEFT
 10
0.0
 20
0.0
 30
0.0
  9
$UCSORGRIGHT
 10
0.0
 20
0.0
 30
0.0
  9
$UCSORGFRONT
 10
0.0
 20
0.0
 30
0.0
  9
$UCSORGBACK
 10
0.0
 20
0.0
 30
0.0
  9
$PUCSBASE
  2

  9
$PUCSNAME
  2

  9
$PUCSORG
 10
0.0
 20
0.0
 30
0.0
  9
$PUCSXDIR
 10
1.0
 20
0.0
 30
0.0
  9
$PUCSYDIR
 10
0.0
 20
1.0
 30
0.0
  9
$PUCSORTHOREF
  2

  9
$PUCSORTHOVIEW
 70
     0
  9
$PUCSORGTOP
 10
0.0
 20
0.0
 30
0.0
  9
$PUCSORGBOTTOM
 10
0.0
 20
0.0
 30
0.0
  9
$PUCSORGLEFT
 10
0.0
 20
0.0
 30
0.0
  9
$PUCSORGRIGHT
 10
0.0
 20
0.0
 30
0.0
  9
$PUCSORGFRONT
 10
0.0
 20
0.0
 30
0.0
  9
$PUCSORGBACK
 10
0.0
 20
0.0
 30
0.0
  9
$USERI1
 70
     0
  9
$USERI2
 70
     0
  9
$USERI3
 70
     0
  9
$USERI4
 70
     0
  9
$USERI5
 70
     0
  9
$USERR1
 40
0.0
  9
$USERR2
 40
0.0
  9
$USERR3
 40
0.0
  9
$USERR4
 40
0.0
  9
$USERR5
 40
0.0
  9
$WORLDVIEW
 70
     1
  9
$SHADEDGE
 70
     3
  9
$SHADEDIF
 70
    70
  9
$TILEMODE
 70
     1
  9
$MAXACTVP
 70
    16
  9
$PINSBASE
 10
0.0
 20
0.0
 30
0.0
  9
$PLIMCHECK
 70
     0
  9
$PEXTMIN
 10
1.000000000000000E+20
 20
1.000000000000000E+20
 30
1.000000000000000E+20
  9
$PEXTMAX
 10
-1.000000000000000E+20
 20
-1.000000000000000E+20
 30
-1.000000000000000E+20
  9
$PLIMMIN
 10
0.0
 20
0.0
  9
$PLIMMAX
 10
420.0
 20
297.0
  9
$UNITMODE
 70
     0
  9
$VISRETAIN
 70
     0
  9
$PLINEGEN
 70
     0
  9
$PSLTSCALE
 70
     0
  9
$TREEDEPTH
 70
  3020
  9
$CMLSTYLE
  2
STANDARD
  9
$CMLJUST
 70
     0
  9
$CMLSCALE
 40
1.0
  9
$PROXYGRAPHICS
 70
     1
  9
$MEASUREMENT
 70
     0
  9
$CELWEIGHT
370
    -1
  9
$ENDCAPS
280
     0
  9
$JOINSTYLE
280
     0
  9
$LWDISPLAY
290
     0
  9
$INSUNITS
 70
     0
  9
$HYPERLINKBASE
  1

  9
$STYLESHEET
  1

  9
$XEDIT
290
     1
  9
$CEPSNTYPE
380
     0
  9
$PSTYLEMODE
290
     1
  9
$FINGERPRINTGUID
  2
{C1F2C0C9-7E2B-4C72-B302-6C25430D169D}
  9
$VERSIONGUID
  2
{6181AE1D-9C47-4FBA-AF72-FD23BD9AD13A}
  9
$EXTNAMES
290
     1
  9
$PSVPSCALE
 40
0.0
  9
$OLESTARTUP
290
     0
  0
ENDSEC
  0
SECTION
  2
CLASSES
  0
CLASS
  1
ACDBDICTIONARYWDFLT
  2
AcDbDictionaryWithDefault
  3
ObjectDBX Classes
 90
        0
280
     0
281
     0
  0
CLASS
  1
ACDBPLACEHOLDER
  2
AcDbPlaceHolder
  3
ObjectDBX Classes
 90
        0
280
     0
281
     0
  0
CLASS
  1
LAYOUT
  2
AcDbLayout
  3
ObjectDBX Classes
 90
        0
280
     0
281
     0
  0
CLASS
  1
DICTIONARYVAR
  2
AcDbDictionaryVar
  3
ObjectDBX Classes
 90
        0
280
     0
281
     0
  0
CLASS
  1
MATERIAL
  2
AcDbMaterial
  3
ObjectDBX Classes
 90
     1153
280
     0
281
     0
  0
CLASS
  1
VISUALSTYLE
  2
AcDbVisualStyle
  3
ObjectDBX Classes
 90
     4095
280
     0
281
     0
  0
CLASS
  1
TABLESTYLE
  2
AcDbTableStyle
  3
ObjectDBX Classes
 90
     4095
280
     0
281
     0
  0
CLASS
  1
SCALE
  2
AcDbScale
  3
ObjectDBX Classes
 90
     1153
280
     0
281
     0
  0
CLASS
  1
MLEADERSTYLE
  2
AcDbMLeaderStyle
  3
ACDB_MLEADERSTYLE_CLASS
 90
     4095
280
     0
281
     0
  0
CLASS
  1
ACDBSECTIONVIEWSTYLE
  2
AcDbSectionViewStyle
  3
ObjectDBX Classes
 90
     1025
280
     0
281
     0
  0
CLASS
  1
ACDBDETAILVIEWSTYLE
  2
AcDbDetailViewStyle
  3
ObjectDBX Classes
 90
     1025
280
     0
281
     0
  0
CLASS
  1
CELLSTYLEMAP
  2
AcDbCellStyleMap
  3
ObjectDBX Classes
 90
     1152
280
     0
281
     0
  0
ENDSEC
  0
SECTION
  2
TABLES
  0
TABLE
  2
VPORT
  5
A043
330
0
100
AcDbSymbolTable
 70
     1
  0
VPORT
  5
A263
330
A043
100
AcDbSymbolTableRecord
100
AcDbViewportTableRecord
  2
*ACTIVE
 70
     0
 10
0.0
 20
0.0
 11
1.0
 21
1.0
 12
362.5218145250859
 22
173.9548395327864
 13
0.0
 23
0.0
 14
10.0
 24
10.0
 15
10.0
 25
10.0
 16
0.0
 26
0.0
 36
1.0
 17
0.0
 27
0.0
 37
0.0
 40
330.5121473693566
 41
2.35006605019815
 42
50.0
 43
0.0
 44
0.0
 50
0.0
 51
0.0
 71
     0
 72
   100
 73
     1
 74
     0
 75
     0
 76
     0
 77
     0
 78
     0
281
     0
 65
     1
110
0.0
120
0.0
130
0.0
111
1.0
121
0.0
131
0.0
112
0.0
122
1.0
132
0.0
 79
     0
146
0.0
1001
ACAD_NAV_VCDISPLAY
1070
     3
  0
ENDTAB
  0
TABLE
  2
LTYPE
  5
A040
330
0
100
AcDbSymbolTable
 70
     4
  0
LTYPE
  5
A04E
330
A040
100
AcDbSymbolTableRecord
100
AcDbLinetypeTableRecord
  2
BYBLOCK
 70
     0
  3

 72
    65
 73
     0
 40
0.0
  0
LTYPE
  5
A04F
330
A040
100
AcDbSymbolTableRecord
100
AcDbLinetypeTableRecord
  2
BYLAYER
 70
     0
  3

 72
    65
 73
     0
 40
0.0
  0
LTYPE
  5
A050
330
A040
100
AcDbSymbolTableRecord
100
AcDbLinetypeTableRecord
  2
CONTINUOUS
 70
     0
  3
Solid line
 72
    65
 73
     0
 40
0.0
  0
LTYPE
  5
A05E
330
A040
100
AcDbSymbolTableRecord
100
AcDbLinetypeTableRecord
  2
DASHED
 70
     0
  3
__ __ __ __ __ __ __ __ __ __ __ __ __ __ __ __
 72
    65
 73
     2
 40
0.75
 49
0.5
 74
     0
 49
-0.25
 74
     0
  0
LTYPE
  5
A05F
330
A040
100
AcDbSymbolTableRecord
100
AcDbLinetypeTableRecord
  2
CENTER
 70
     0
  3
____ _ ____ _ ____ _ ____ _ ____ _ ____ _ ____ 
 72
    65
 73
     4
 40
2.0
 49
1.25
 74
     0
 49
-0.25
 74
     0
 49
0.25
 74
     0
 49
-0.25
 74
     0
  0
LTYPE
  5
A060
330
A040
100
AcDbSymbolTableRecord
100
AcDbLinetypeTableRecord
  2
PHANTOM
 70
     0
  3
______  __  __  ______  __  __  ______  __  __ 
 72
    65
 73
     6
 40
2.5
 49
1.25
 74
     0
 49
-0.25
 74
     0
 49
0.25
 74
     0
 49
-0.25
 74
     0
 49
0.25
 74
     0
 49
-0.25
 74
     0
  0
ENDTAB
  0
TABLE
  2
LAYER
  5
A03D
330
0
100
AcDbSymbolTable
 70
     8
  0
LAYER
  5
A04B
102
{ACAD_XDICTIONARY
360
A2BC
102
}
330
A03D
100
AcDbSymbolTableRecord
100
AcDbLayerTableRecord
  2
0
 70
     0
 62
     7
  6
CONTINUOUS
370
    -3
390
A26A
  0
LAYER
  5
A061
102
{ACAD_XDICTIONARY
360
A2BE
102
}
330
A03D
100
AcDbSymbolTableRecord
100
AcDbLayerTableRecord
  2
4
 70
     0
 62
     1
  6
CENTER
370
    -3
390
A26A
  0
LAYER
  5
A062
102
{ACAD_XDICTIONARY
360
A2C0
102
}
330
A03D
100
AcDbSymbolTableRecord
100
AcDbLayerTableRecord
  2
5
 70
     0
 62
     6
  6
PHANTOM
370
    -3
390
A26A
  0
LAYER
  5
A063
102
{ACAD_XDICTIONARY
360
A2C2
102
}
330
A03D
100
AcDbSymbolTableRecord
100
AcDbLayerTableRecord
  2
1
 70
     0
 62
     7
  6
CONTINUOUS
370
    -3
390
A26A
  0
LAYER
  5
A064
102
{ACAD_XDICTIONARY
360
A2C4
102
}
330
A03D
100
AcDbSymbolTableRecord
100
AcDbLayerTableRecord
  2
2
 70
     0
 62
     4
  6
CONTINUOUS
370
    -3
390
A26A
  0
LAYER
  5
A065
102
{ACAD_XDICTIONARY
360
A2C6
102
}
330
A03D
100
AcDbSymbolTableRecord
100
AcDbLayerTableRecord
  2
3
 70
     0
 62
     2
  6
DASHED
370
    -3
390
A26A
  0
LAYER
  5
A066
102
{ACAD_XDICTIONARY
360
A2C8
102
}
330
A03D
100
AcDbSymbolTableRecord
100
AcDbLayerTableRecord
  2
6
 70
     0
 62
     5
  6
CONTINUOUS
370
    -3
390
A26A
  0
LAYER
  5
A067
102
{ACAD_XDICTIONARY
360
A2CA
102
}
330
A03D
100
AcDbSymbolTableRecord
100
AcDbLayerTableRecord
  2
7
 70
     0
 62
     3
  6
CONTINUOUS
370
    -3
390
A26A
  0
ENDTAB
  0
TABLE
  2
STYLE
  5
A03E
330
0
100
AcDbSymbolTable
 70
     1
  0
STYLE
  5
A04C
330
A03E
100
AcDbSymbolTableRecord
100
AcDbTextStyleTableRecord
  2
STANDARD
 70
     0
 40
0.0
 41
1.0
 50
0.0
 71
     0
 42
5.0
  3
txt
  4

  0
ENDTAB
  0
TABLE
  2
VIEW
  5
A041
330
0
100
AcDbSymbolTable
 70
     0
  0
ENDTAB
  0
TABLE
  2
UCS
  5
A042
330
0
100
AcDbSymbolTable
 70
     0
  0
ENDTAB
  0
TABLE
  2
APPID
  5
A044
330
0
100
AcDbSymbolTable
 70
     3
  0
APPID
  5
A04D
330
A044
100
AcDbSymbolTableRecord
100
AcDbRegAppTableRecord
  2
ACAD
 70
     0
  0
APPID
  5
A2D6
330
A044
100
AcDbSymbolTableRecord
100
AcDbRegAppTableRecord
  2
ACAD_NAV_VCDISPLAY
 70
     0
  0
APPID
  5
A30F
330
A044
100
AcDbSymbolTableRecord
100
AcDbRegAppTableRecord
  2
ACAD_MLEADERVER
 70
     0
  0
ENDTAB
  0
TABLE
  2
DIMSTYLE
  5
A045
330
0
100
AcDbSymbolTable
 70
     1
100
AcDbDimStyleTable
 71
     0
  0
DIMSTYLE
105
A069
330
A045
100
AcDbSymbolTableRecord
100
AcDbDimStyleTableRecord
  2
STANDARD
 70
     0
 41
2.5
 42
1.0
 43
10.0
 44
1.0
 73
     0
 74
     0
 77
     3
 78
     8
140
3.2
141
0.0
147
1.0
172
     1
173
     1
284
     8
285
     8
286
     8
340
A04C
  0
ENDTAB
  0
TABLE
  2
BLOCK_RECORD
  5
A03C
330
0
100
AcDbSymbolTable
 70
     0
  0
BLOCK_RECORD
  5
A059
102
{ACAD_XDICTIONARY
360
A249
102
}
330
A03C
100
AcDbSymbolTableRecord
100
AcDbBlockTableRecord
  2
*MODEL_SPACE
340
A2B8
  0
BLOCK_RECORD
  5
A055
102
{ACAD_XDICTIONARY
360
A247
102
}
330
A03C
100
AcDbSymbolTableRecord
100
AcDbBlockTableRecord
  2
*PAPER_SPACE
340
A2B9
  0
ENDTAB
  0
ENDSEC
  0
SECTION
  2
BLOCKS
  0
BLOCK
  5
A05A
330
A059
100
AcDbEntity
  8
0
100
AcDbBlockBegin
  2
*MODEL_SPACE
 70
     0
 10
0.0
 20
0.0
 30
0.0
  3
*MODEL_SPACE
  1

  0
ENDBLK
  5
A05B
330
A059
100
AcDbEntity
  8
0
100
AcDbBlockEnd
  0
BLOCK
  5
A056
330
A055
100
AcDbEntity
 67
     1
  8
0
100
AcDbBlockBegin
  2
*PAPER_SPACE
 70
     0
 10
0.0
 20
0.0
 30
0.0
  3
*PAPER_SPACE
  1

  0
ENDBLK
  5
A057
330
A055
100
AcDbEntity
 67
     1
  8
0
100
AcDbBlockEnd
  0
ENDSEC
  0
SECTION
  2
ENTITIES
  0
TEXT
  5
A071
330
A059
100
AcDbEntity
  8
7
  6
Continuous
100
AcDbText
 10
10.0
 20
18.0
 30
0.0
 40
3.0
  1
TYPE No.TCA-420G-N75
100
AcDbText
  0
TEXT
  5
A072
330
A059
100
AcDbEntity
  8
7
  6
Continuous
100
AcDbText
 10
10.0
 20
26.0
 30
0.0
 40
3.0
  1
CODE No.9718
100
AcDbText
  0
TEXT
  5
A073
330
A059
100
AcDbEntity
  8
1
  6
Continuous
100
AcDbText
 10
10.0
 20
10.0
 30
0.0
 40
1.399999999999999
  1
LAYER
100
AcDbText
  0
TEXT
  5
A074
330
A059
100
AcDbEntity
  8
1
  6
Continuous
100
AcDbText
 10
17.97951099999998
 20
10.04873699999998
 30
0.0
 40
1.399999999999999
  1
1
100
AcDbText
  0
TEXT
  5
A075
330
A059
100
AcDbEntity
  8
7
  6
Continuous
100
AcDbText
 10
29.97951099999999
 20
10.04873699999998
 30
0.0
 40
1.399999999999999
  1
7
100
AcDbText
  0
TEXT
  5
A076
330
A059
100
AcDbEntity
  8
4
  6
CENTER
100
AcDbText
 10
23.97951099999999
 20
10.04873699999998
 30
0.0
 40
1.399999999999999
  1
4
100
AcDbText
  0
TEXT
  5
A077
330
A059
100
AcDbEntity
  8
3
  6
DASHED
100
AcDbText
 10
21.979511
 20
10.04873699999998
 30
0.0
 40
1.399999999999999
  1
3
100
AcDbText
  0
TEXT
  5
A078
330
A059
100
AcDbEntity
  8
2
  6
Continuous
100
AcDbText
 10
19.97951099999998
 20
10.04873699999998
 30
0.0
 40
1.399999999999999
  1
2
100
AcDbText
  0
TEXT
  5
A079
330
A059
100
AcDbEntity
  8
6
  6
Continuous
100
AcDbText
 10
27.979511
 20
10.04873699999998
 30
0.0
 40
1.399999999999999
  1
6
100
AcDbText
  0
TEXT
  5
A07A
330
A059
100
AcDbEntity
  8
5
  6
PHANTOM
100
AcDbText
 10
25.97951099999999
 20
10.04873699999998
 30
0.0
 40
1.399999999999999
  1
5
100
AcDbText
  0
LINE
  5
A07B
330
A059
100
AcDbEntity
  8
4
  6
CENTER
 48
0.8
100
AcDbLine
 10
56.13148699999999
 20
237.3915799999998
 30
0.0
 11
56.13148699999999
 21
137.39158
 31
0.0
  0
LINE
  5
A07C
330
A059
100
AcDbEntity
  8
1
  6
Continuous
100
AcDbLine
 10
35.13149699999999
 20
224.9915779999998
 30
0.0
 11
77.13148699999995
 21
224.9915779999998
 31
0.0
  0
LINE
  5
A07D
330
A059
100
AcDbEntity
  8
4
  6
CENTER
 48
0.8
100
AcDbLine
 10
30.831487
 20
179.89158
 30
0.0
 11
82.63147899999998
 21
179.89158
 31
0.0
  0
LINE
  5
A07E
330
A059
100
AcDbEntity
  8
1
  6
Continuous
100
AcDbLine
 10
80.63148699999997
 20
221.4915779999997
 30
0.0
 11
80.63148699999997
 21
193.4766319999999
 31
0.0
  0
LINE
  5
A07F
330
A059
100
AcDbEntity
  8
1
  6
Continuous
100
AcDbLine
 10
40.131487
 20
175.89158
 30
0.0
 11
41.13148699999999
 21
175.89158
 31
0.0
  0
LINE
  5
A080
330
A059
100
AcDbEntity
  8
1
  6
Continuous
100
AcDbLine
 10
40.131487
 20
183.89158
 30
0.0
 11
41.13148699999999
 21
183.89158
 31
0.0
  0
LINE
  5
A081
330
A059
100
AcDbEntity
  8
1
  6
Continuous
100
AcDbLine
 10
66.13148699999999
 20
222.77115
 30
0.0
 11
66.13148699999999
 21
220.06949
 31
0.0
  0
LINE
  5
A082
330
A059
100
AcDbEntity
  8
1
  6
Continuous
100
AcDbLine
 10
67.13148699999999
 20
222.77115
 30
0.0
 11
67.13148699999999
 21
220.0695909999998
 31
0.0
  0
LINE
  5
A083
330
A059
100
AcDbEntity
  8
1
  6
Continuous
100
AcDbLine
 10
46.13148699999999
 20
222.77115
 30
0.0
 11
46.13148699999999
 21
219.9785279999999
 31
0.0
  0
LINE
  5
A084
330
A059
100
AcDbEntity
  8
1
  6
Continuous
100
AcDbLine
 10
45.131487
 20
222.77115
 30
0.0
 11
45.131487
 21
220.0687349999999
 31
0.0
  0
LINE
  5
A085
330
A059
100
AcDbEntity
  8
1
  6
Continuous
100
AcDbLine
 10
37.382477
 20
185.56727
 30
0.0
 11
37.831477
 21
183.8915879999999
 31
0.0
  0
LINE
  5
A086
330
A059
100
AcDbEntity
  8
1
  6
Continuous
100
AcDbLine
 10
37.382497
 20
174.2159059999999
 30
0.0
 11
37.831487
 21
175.89158
 31
0.0
  0
LINE
  5
A087
330
A059
100
AcDbEntity
  8
1
  6
Continuous
100
AcDbLine
 10
74.43148199999997
 20
185.89158
 30
0.0
 11
75.631479
 21
185.89158
 31
0.0
  0
LINE
  5
A088
330
A059
100
AcDbEntity
  8
1
  6
Continuous
100
AcDbLine
 10
74.43148199999997
 20
173.89158
 30
0.0
 11
75.631479
 21
173.89158
 31
0.0
  0
LINE
  5
A089
330
A059
100
AcDbEntity
  8
1
  6
Continuous
100
AcDbLine
 10
77.63147899999998
 20
183.89158
 30
0.0
 11
77.63147899999998
 21
175.89158
 31
0.0
  0
LINE
  5
A08A
330
A059
100
AcDbEntity
  8
1
  6
Continuous
100
AcDbLine
 10
35.83148700000001
 20
184.0681469999999
 30
0.0
 11
35.83148700000001
 21
175.7150359999999
 31
0.0
  0
LINE
  5
A08B
330
A059
100
AcDbEntity
  8
1
  6
Continuous
100
AcDbLine
 10
37.382457
 20
174.215898
 30
0.0
 11
37.382457
 21
185.5672769999999
 31
0.0
  0
LINE
  5
A08C
330
A059
100
AcDbEntity
  8
4
  6
CENTER
 48
0.8
100
AcDbLine
 10
186.1314869999999
 20
237.3915799999998
 30
0.0
 11
186.1314869999999
 21
187.2811979999999
 31
0.0
  0
LINE
  5
A08D
330
A059
100
AcDbEntity
  8
1
  6
Continuous
100
AcDbLine
 10
164.431486
 20
224.9915779999998
 30
0.0
 11
207.131487
 21
224.9915779999998
 31
0.0
  0
LINE
  5
A08E
330
A059
100
AcDbEntity
  8
4
  6
CENTER
 48
0.8
100
AcDbLine
 10
122.631487
 20
179.89158
 30
0.0
 11
207.631487
 21
179.89158
 31
0.0
  0
LINE
  5
A08F
330
A059
100
AcDbEntity
  8
4
  6
CENTER
 48
0.8
100
AcDbLine
 10
165.131487
 20
219.8915819999998
 30
0.0
 11
165.131487
 21
137.39158
 31
0.0
  0
LINE
  5
A090
330
A059
100
AcDbEntity
  8
1
  6
Continuous
100
AcDbLine
 10
186.131504
 20
310.291708
 30
0.0
 11
186.131506
 21
297.4915989999999
 31
0.0
  0
LINE
  5
A091
330
A059
100
AcDbEntity
  8
1
  6
Continuous
100
AcDbLine
 10
179.7313649999999
 20
303.891611
 30
0.0
 11
192.531508
 21
303.891613
 31
0.0
  0
LINE
  5
A092
330
A059
100
AcDbEntity
  8
1
  6
Continuous
100
AcDbLine
 10
187.377926
 20
305.1380669999998
 30
0.0
 11
186.1314879999999
 21
303.891629
 31
0.0
  0
LINE
  5
A093
330
A059
100
AcDbEntity
  8
1
  6
Continuous
100
AcDbLine
 10
187.377935
 20
302.645152
 30
0.0
 11
186.131484
 21
303.8916039999998
 31
0.0
  0
LINE
  5
A094
330
A059
100
AcDbEntity
  8
1
  6
Continuous
100
AcDbLine
 10
184.885035
 20
305.138036
 30
0.0
 11
186.131481
 21
303.891589
 31
0.0
  0
LINE
  5
A095
330
A059
100
AcDbEntity
  8
1
  6
Continuous
100
AcDbLine
 10
184.885082
 20
302.645131
 30
0.0
 11
186.131525
 21
303.891575
 31
0.0
  0
LINE
  5
A096
330
A059
100
AcDbEntity
  8
1
  6
Continuous
100
AcDbLine
 10
151.1314869999999
 20
232.3915799999999
 30
0.0
 11
221.1314869999999
 21
232.3915799999999
 31
0.0
  0
LINE
  5
A097
330
A059
100
AcDbEntity
  8
1
  6
Continuous
100
AcDbLine
 10
151.1314869999999
 20
230.091584
 30
0.0
 11
151.1314869999999
 21
232.391583
 31
0.0
  0
LINE
  5
A098
330
A059
100
AcDbEntity
  8
1
  6
Continuous
100
AcDbLine
 10
151.1314869999999
 20
230.0915809999999
 30
0.0
 11
221.1314869999999
 21
230.0915809999999
 31
0.0
  0
LINE
  5
A099
330
A059
100
AcDbEntity
  8
4
  6
CENTER
 48
0.8
100
AcDbLine
 10
158.6314869999999
 20
225.0915809999999
 30
0.0
 11
158.6314869999999
 21
237.3915799999998
 31
0.0
  0
LINE
  5
A09A
330
A059
100
AcDbEntity
  8
1
  6
Continuous
100
AcDbLine
 10
163.681486
 20
226.4915779999999
 30
0.0
 11
208.584619
 21
226.4915779999999
 31
0.0
  0
LINE
  5
A09B
330
A059
100
AcDbEntity
  8
1
  6
Continuous
100
AcDbLine
 10
159.8814899999998
 20
230.091583
 30
0.0
 11
160.4241089999999
 21
228.711163
 31
0.0
  0
LINE
  5
A09C
330
A059
100
AcDbEntity
  8
1
  6
Continuous
100
AcDbLine
 10
221.1314869999999
 20
230.0915779999999
 30
0.0
 11
221.1314869999999
 21
232.3915799999999
 31
0.0
  0
LINE
  5
A09D
330
A059
100
AcDbEntity
  8
4
  6
CENTER
 48
0.8
100
AcDbLine
 10
213.631487
 20
225.0915809999999
 30
0.0
 11
213.631487
 21
237.3915799999998
 31
0.0
  0
LINE
  5
A09E
330
A059
100
AcDbEntity
  8
1
  6
Continuous
100
AcDbLine
 10
212.381483
 20
230.0915759999998
 30
0.0
 11
211.8388649999999
 21
228.711155
 31
0.0
  0
LINE
  5
A09F
330
A059
100
AcDbEntity
  8
1
  6
Continuous
100
AcDbLine
 10
27.131487
 20
232.3915799999999
 30
0.0
 11
85.131487
 21
232.3915799999999
 31
0.0
  0
LINE
  5
A0A0
330
A059
100
AcDbEntity
  8
1
  6
Continuous
100
AcDbLine
 10
27.131487
 20
230.0915809999999
 30
0.0
 11
85.131487
 21
230.0915809999999
 31
0.0
  0
LINE
  5
A0A1
330
A059
100
AcDbEntity
  8
1
  6
Continuous
100
AcDbLine
 10
33.68148699999998
 20
226.4915779999999
 30
0.0
 11
78.584615
 21
226.4915779999999
 31
0.0
  0
LINE
  5
A0A2
330
A059
100
AcDbEntity
  8
1
  6
Continuous
100
AcDbLine
 10
29.88149699999999
 20
230.091584
 30
0.0
 11
30.424117
 21
228.711164
 31
0.0
  0
LINE
  5
A0A3
330
A059
100
AcDbEntity
  8
1
  6
Continuous
100
AcDbLine
 10
82.38148699999998
 20
230.091574
 30
0.0
 11
81.83886899999997
 21
228.7111529999999
 31
0.0
  0
LINE
  5
A0A4
330
A059
100
AcDbEntity
  8
1
  6
Continuous
100
AcDbLine
 10
85.131487
 20
232.3915799999999
 30
0.0
 11
85.131487
 21
230.0915809999999
 31
0.0
  0
LINE
  5
A0A5
330
A059
100
AcDbEntity
  8
1
  6
Continuous
100
AcDbLine
 10
27.131487
 20
232.3915799999999
 30
0.0
 11
27.131487
 21
230.0915809999999
 31
0.0
  0
LINE
  5
A0A6
330
A059
100
AcDbEntity
  8
4
  6
CENTER
 48
0.8
100
AcDbLine
 10
77.13148699999995
 20
237.3915799999998
 30
0.0
 11
77.13148699999995
 21
225.0915809999999
 31
0.0
  0
LINE
  5
A0A7
330
A059
100
AcDbEntity
  8
4
  6
CENTER
 48
0.8
100
AcDbLine
 10
35.131487
 20
237.3915799999998
 30
0.0
 11
35.131487
 21
225.0915809999999
 31
0.0
  0
LINE
  5
A0A8
330
A059
100
AcDbEntity
  8
4
  6
CENTER
 48
0.8
100
AcDbLine
 10
186.1314869999999
 20
337.8915799999998
 30
0.0
 11
186.1314869999999
 21
269.8915799999999
 31
0.0
  0
LINE
  5
A0A9
330
A059
100
AcDbEntity
  8
4
  6
CENTER
 48
0.8
100
AcDbLine
 10
122.631487
 20
303.8915799999998
 30
0.0
 11
222.822397
 21
303.8915799999998
 31
0.0
  0
LINE
  5
A0AA
330
A059
100
AcDbEntity
  8
1
  6
Continuous
100
AcDbLine
 10
158.6314849999999
 20
274.8915799999999
 30
0.0
 11
213.631487
 21
274.8915799999999
 31
0.0
  0
LINE
  5
A0AB
330
A059
100
AcDbEntity
  8
1
  6
Continuous
100
AcDbLine
 10
158.6314889999998
 20
332.8915799999998
 30
0.0
 11
213.631487
 21
332.8915799999998
 31
0.0
  0
LINE
  5
A0AC
330
A059
100
AcDbEntity
  8
4
  6
CENTER
 48
0.8
100
AcDbLine
 10
158.6314869999999
 20
288.8915799999998
 30
0.0
 11
158.6314869999999
 21
276.8915799999999
 31
0.0
  0
LINE
  5
A0AD
330
A059
100
AcDbEntity
  8
4
  6
CENTER
 48
0.8
100
AcDbLine
 10
152.631487
 20
282.8915799999998
 30
0.0
 11
164.6314849999999
 21
282.8915799999998
 31
0.0
  0
LINE
  5
A0AE
330
A059
100
AcDbEntity
  8
4
  6
CENTER
 48
0.8
100
AcDbLine
 10
158.6314869999999
 20
318.8915799999998
 30
0.0
 11
158.6314869999999
 21
330.8915799999998
 31
0.0
  0
LINE
  5
A0AF
330
A059
100
AcDbEntity
  8
4
  6
CENTER
 48
0.8
100
AcDbLine
 10
152.631487
 20
324.8915799999998
 30
0.0
 11
164.631489
 21
324.8915799999998
 31
0.0
  0
LINE
  5
A0B0
330
A059
100
AcDbEntity
  8
4
  6
CENTER
 48
0.8
100
AcDbLine
 10
213.631487
 20
288.8915799999998
 30
0.0
 11
213.631487
 21
276.8915799999999
 31
0.0
  0
LINE
  5
A0B1
330
A059
100
AcDbEntity
  8
4
  6
CENTER
 48
0.8
100
AcDbLine
 10
219.631487
 20
282.8915799999998
 30
0.0
 11
207.631487
 21
282.8915799999998
 31
0.0
  0
LINE
  5
A0B2
330
A059
100
AcDbEntity
  8
4
  6
CENTER
 48
0.8
100
AcDbLine
 10
213.631487
 20
318.8915799999998
 30
0.0
 11
213.631487
 21
330.8915799999998
 31
0.0
  0
LINE
  5
A0B3
330
A059
100
AcDbEntity
  8
4
  6
CENTER
 48
0.8
100
AcDbLine
 10
219.631487
 20
324.8915799999998
 30
0.0
 11
207.631487
 21
324.8915799999998
 31
0.0
  0
LINE
  5
A0B4
330
A059
100
AcDbEntity
  8
1
  6
Continuous
100
AcDbLine
 10
204.930304
 20
217.9915779999999
 30
0.0
 11
210.6314869999999
 21
217.9915779999999
 31
0.0
  0
LINE
  5
A0B5
330
A059
100
AcDbEntity
  8
1
  6
Continuous
100
AcDbLine
 10
160.931486
 20
221.4915779999997
 30
0.0
 11
160.931486
 21
219.191577
 31
0.0
  0
LINE
  5
A0B6
330
A059
100
AcDbEntity
  8
1
  6
Continuous
100
AcDbLine
 10
171.899014
 20
174.7485669999998
 30
0.0
 11
198.6212319999999
 21
214.911494
 31
0.0
  0
LINE
  5
A0B7
330
A059
100
AcDbEntity
  8
1
  6
Continuous
100
AcDbLine
 10
156.6728259999998
 20
180.728872
 30
0.0
 11
159.479074
 21
214.078689
 31
0.0
  0
LINE
  5
A0B8
330
A059
100
AcDbEntity
  8
1
  6
Continuous
100
AcDbLine
 10
74.43148999999998
 20
214.291891
 30
0.0
 11
74.43148999999998
 21
171.39158
 31
0.0
  0
LINE
  5
A0B9
330
A059
100
AcDbEntity
  8
1
  6
Continuous
100
AcDbLine
 10
72.13148699999995
 20
214.191579
 30
0.0
 11
72.13148699999995
 21
171.39158
 31
0.0
  0
LINE
  5
A0BA
330
A059
100
AcDbEntity
  8
1
  6
Continuous
100
AcDbLine
 10
69.63148699999999
 20
220.191579
 30
0.0
 11
72.88148699999998
 21
220.191579
 31
0.0
  0
LINE
  5
A0BB
330
A059
100
AcDbEntity
  8
1
  6
Continuous
100
AcDbLine
 10
68.113848
 20
220.4234309999999
 30
0.0
 11
68.81673599999999
 21
220.61177
 31
0.0
  0
LINE
  5
A0BC
330
A059
100
AcDbEntity
  8
1
  6
Continuous
100
AcDbLine
 10
42.631487
 20
220.191579
 30
0.0
 11
39.381487
 21
220.191579
 31
0.0
  0
LINE
  5
A0BD
330
A059
100
AcDbEntity
  8
1
  6
Continuous
100
AcDbLine
 10
44.149127
 20
220.423435
 30
0.0
 11
43.44623699999998
 21
220.611774
 31
0.0
  0
LINE
  5
A0BE
330
A059
100
AcDbEntity
  8
1
  6
Continuous
100
AcDbLine
 10
40.131487
 20
214.191579
 30
0.0
 11
40.131487
 21
171.39158
 31
0.0
  0
LINE
  5
A0BF
330
A059
100
AcDbEntity
  8
1
  6
Continuous
100
AcDbLine
 10
37.831487
 20
214.291891
 30
0.0
 11
37.831487
 21
171.39158
 31
0.0
  0
LINE
  5
A0C0
330
A059
100
AcDbEntity
  8
1
  6
Continuous
100
AcDbLine
 10
37.831487
 20
171.39158
 30
0.0
 11
40.131487
 21
171.39158
 31
0.0
  0
LINE
  5
A0C1
330
A059
100
AcDbEntity
  8
1
  6
Continuous
100
AcDbLine
 10
72.13148699999995
 20
171.39158
 30
0.0
 11
74.43148999999998
 21
171.39158
 31
0.0
  0
LINE
  5
A0C2
330
A059
100
AcDbEntity
  8
1
  6
Continuous
100
AcDbLine
 10
31.631487
 20
221.4915779999997
 30
0.0
 11
31.631487
 21
193.4766319999999
 31
0.0
  0
LINE
  5
A0C3
330
A059
100
AcDbEntity
  8
1
  6
Continuous
100
AcDbLine
 10
71.13148699999998
 20
183.89158
 30
0.0
 11
72.13148699999995
 21
183.89158
 31
0.0
  0
LINE
  5
A0C4
330
A059
100
AcDbEntity
  8
1
  6
Continuous
100
AcDbLine
 10
71.13148699999998
 20
175.89158
 30
0.0
 11
72.13148699999995
 21
175.89158
 31
0.0
  0
ARC
  5
A0C5
330
A059
100
AcDbEntity
  8
1
  6
Continuous
100
AcDbCircle
 10
68.63148699999999
 20
218.4915779999998
 30
0.0
 40
2.0
100
AcDbArc
 50
105.0000399999997
 51
155.3912799999999
  0
ARC
  5
A0C6
330
A059
100
AcDbEntity
  8
1
  6
Continuous
100
AcDbCircle
 10
64.63148699999999
 20
218.37034
 30
0.0
 40
2.0
100
AcDbArc
 50
28.99118899999999
 51
88.36554499999998
  0
ARC
  5
A0C7
330
A059
100
AcDbEntity
  8
1
  6
Continuous
100
AcDbCircle
 10
66.63148699999999
 20
220.307779
 30
0.0
 40
1.0
100
AcDbArc
 50
255.48635
 51
280.46622
  0
ARC
  5
A0C8
330
A059
100
AcDbEntity
  8
1
  6
Continuous
100
AcDbCircle
 10
43.63148699999999
 20
218.4915779999998
 30
0.0
 40
2.0
100
AcDbArc
 50
24.60868
 51
74.99999200000002
  0
ARC
  5
A0C9
330
A059
100
AcDbEntity
  8
1
  6
Continuous
100
AcDbCircle
 10
47.631487
 20
218.37034
 30
0.0
 40
2.0
100
AcDbArc
 50
91.634419
 51
151.0087799999998
  0
ARC
  5
A0CA
330
A059
100
AcDbEntity
  8
1
  6
Continuous
100
AcDbCircle
 10
45.631487
 20
220.307779
 30
0.0
 40
1.0
100
AcDbArc
 50
259.5337599999999
 51
284.5136299999998
  0
ARC
  5
A0CB
330
A059
100
AcDbEntity
  8
1
  6
Continuous
100
AcDbCircle
 10
75.631479
 20
183.89158
 30
0.0
 40
2.0
100
AcDbArc
 50
0.0
 51
89.99998199999996
  0
ARC
  5
A0CC
330
A059
100
AcDbEntity
  8
1
  6
Continuous
100
AcDbCircle
 10
75.631479
 20
175.89158
 30
0.0
 40
2.0
100
AcDbArc
 50
270.00002
 51
0.0
  0
ARC
  5
A0CD
330
A059
100
AcDbEntity
  8
1
  6
Continuous
100
AcDbCircle
 10
37.331487
 20
175.7150359999999
 30
0.0
 40
1.5
100
AcDbArc
 50
179.9999799999999
 51
271.94882
  0
ARC
  5
A0CE
330
A059
100
AcDbEntity
  8
1
  6
Continuous
100
AcDbCircle
 10
37.331487
 20
184.0681469999999
 30
0.0
 40
1.5
100
AcDbArc
 50
88.051186
 51
179.9999599999999
  0
CIRCLE
  5
A0CF
330
A059
100
AcDbEntity
  8
1
  6
Continuous
100
AcDbCircle
 10
165.131487
 20
179.89158
 30
0.0
 40
1.5
  0
CIRCLE
  5
A0D0
330
A059
100
AcDbEntity
  8
1
  6
Continuous
100
AcDbCircle
 10
165.131487
 20
179.89158
 30
0.0
 40
6.0
  0
ARC
  5
A0D1
330
A059
100
AcDbEntity
  8
1
  6
Continuous
100
AcDbCircle
 10
160.888227
 20
224.4245339999999
 30
0.0
 40
5.0
100
AcDbArc
 50
270.4957299999999
 51
330.82976
  0
ARC
  5
A0D2
330
A059
100
AcDbEntity
  8
1
  6
Continuous
100
AcDbCircle
 10
163.5186019999999
 20
219.5404579999999
 30
0.0
 40
3.0
100
AcDbArc
 50
54.65483599999998
 51
149.5839399999999
  0
ARC
  5
A0D3
330
A059
100
AcDbEntity
  8
1
  6
Continuous
100
AcDbCircle
 10
163.681486
 20
229.9915799999999
 30
0.0
 40
3.5
100
AcDbArc
 50
201.4589299999999
 51
270.00002
  0
ARC
  5
A0D4
330
A059
100
AcDbEntity
  8
1
  6
Continuous
100
AcDbCircle
 10
208.581488
 20
229.991577
 30
0.0
 40
3.5
100
AcDbArc
 50
270.00002
 51
338.5410199999999
  0
ARC
  5
A0D5
330
A059
100
AcDbEntity
  8
1
  6
Continuous
100
AcDbCircle
 10
202.3814869999999
 20
226.566581
 30
0.0
 40
3.174999999999998
100
AcDbArc
 50
330.2600799999999
 51
0.0
  0
ARC
  5
A0D6
330
A059
100
AcDbEntity
  8
1
  6
Continuous
100
AcDbCircle
 10
186.1314869999999
 20
226.5665779999999
 30
0.0
 40
3.174999999999998
100
AcDbArc
 50
330.26013
 51
0.0
  0
ARC
  5
A0D7
330
A059
100
AcDbEntity
  8
1
  6
Continuous
100
AcDbCircle
 10
192.359102
 20
226.5665779999999
 30
0.0
 40
3.174999999999998
100
AcDbArc
 50
191.2671299999999
 51
209.7398499999999
  0
ARC
  5
A0D8
330
A059
100
AcDbEntity
  8
1
  6
Continuous
100
AcDbCircle
 10
197.635759
 20
226.5665779999999
 30
0.0
 40
3.174999999999998
100
AcDbArc
 50
330.26013
 51
0.0
  0
ARC
  5
A0D9
330
A059
100
AcDbEntity
  8
1
  6
Continuous
100
AcDbCircle
 10
201.155703
 20
226.5665779999999
 30
0.0
 40
3.174999999999998
100
AcDbArc
 50
330.26013
 51
0.0
  0
ARC
  5
A0DA
330
A059
100
AcDbEntity
  8
1
  6
Continuous
100
AcDbCircle
 10
169.8814869999999
 20
226.566581
 30
0.0
 40
3.174999999999998
100
AcDbArc
 50
179.9999599999999
 51
209.7398899999999
  0
ARC
  5
A0DB
330
A059
100
AcDbEntity
  8
1
  6
Continuous
100
AcDbCircle
 10
186.1314869999999
 20
226.5665779999999
 30
0.0
 40
3.174999999999998
100
AcDbArc
 50
179.9999599999999
 51
209.7398399999999
  0
ARC
  5
A0DC
330
A059
100
AcDbEntity
  8
1
  6
Continuous
100
AcDbCircle
 10
179.903872
 20
226.5665779999999
 30
0.0
 40
3.174999999999998
100
AcDbArc
 50
179.9999599999999
 51
209.7398399999999
  0
ARC
  5
A0DD
330
A059
100
AcDbEntity
  8
1
  6
Continuous
100
AcDbCircle
 10
174.627216
 20
226.5665779999999
 30
0.0
 40
3.174999999999998
100
AcDbArc
 50
179.9999599999999
 51
209.7398399999999
  0
ARC
  5
A0DE
330
A059
100
AcDbEntity
  8
1
  6
Continuous
100
AcDbCircle
 10
171.107271
 20
226.5665779999999
 30
0.0
 40
3.174999999999998
100
AcDbArc
 50
179.9999599999999
 51
209.7398399999999
  0
ARC
  5
A0DF
330
A059
100
AcDbEntity
  8
1
  6
Continuous
100
AcDbCircle
 10
33.68148699999998
 20
229.9915799999999
 30
0.0
 40
3.5
100
AcDbArc
 50
201.4589299999999
 51
270.00002
  0
ARC
  5
A0E0
330
A059
100
AcDbEntity
  8
1
  6
Continuous
100
AcDbCircle
 10
78.58148400000001
 20
229.991577
 30
0.0
 40
3.5
100
AcDbArc
 50
270.00002
 51
338.5410199999999
  0
ARC
  5
A0E1
330
A059
100
AcDbEntity
  8
1
  6
Continuous
100
AcDbCircle
 10
72.38148699999998
 20
226.566581
 30
0.0
 40
3.174999999999998
100
AcDbArc
 50
330.26005
 51
0.0
  0
ARC
  5
A0E2
330
A059
100
AcDbEntity
  8
1
  6
Continuous
100
AcDbCircle
 10
56.13148699999999
 20
226.5665779999999
 30
0.0
 40
3.174999999999998
100
AcDbArc
 50
330.26016
 51
0.0
  0
ARC
  5
A0E3
330
A059
100
AcDbEntity
  8
1
  6
Continuous
100
AcDbCircle
 10
62.359102
 20
226.5665779999999
 30
0.0
 40
3.174999999999998
100
AcDbArc
 50
191.2671299999999
 51
209.7398099999999
  0
ARC
  5
A0E4
330
A059
100
AcDbEntity
  8
1
  6
Continuous
100
AcDbCircle
 10
67.63575899999999
 20
226.5665779999999
 30
0.0
 40
3.174999999999998
100
AcDbArc
 50
330.26016
 51
0.0
  0
ARC
  5
A0E5
330
A059
100
AcDbEntity
  8
1
  6
Continuous
100
AcDbCircle
 10
71.155703
 20
226.5665779999999
 30
0.0
 40
3.174999999999998
100
AcDbArc
 50
330.26016
 51
0.0
  0
ARC
  5
A0E6
330
A059
100
AcDbEntity
  8
1
  6
Continuous
100
AcDbCircle
 10
39.88148699999999
 20
226.566581
 30
0.0
 40
3.174999999999998
100
AcDbArc
 50
179.9999599999999
 51
209.7399199999999
  0
ARC
  5
A0E7
330
A059
100
AcDbEntity
  8
1
  6
Continuous
100
AcDbCircle
 10
56.13148699999999
 20
226.5665779999999
 30
0.0
 40
3.174999999999998
100
AcDbArc
 50
179.9999599999999
 51
209.7397999999999
  0
ARC
  5
A0E8
330
A059
100
AcDbEntity
  8
1
  6
Continuous
100
AcDbCircle
 10
49.903867
 20
226.5665779999999
 30
0.0
 40
3.174999999999998
100
AcDbArc
 50
179.9999599999999
 51
209.7397999999999
  0
ARC
  5
A0E9
330
A059
100
AcDbEntity
  8
1
  6
Continuous
100
AcDbCircle
 10
44.627217
 20
226.5665779999999
 30
0.0
 40
3.174999999999998
100
AcDbArc
 50
179.9999599999999
 51
209.7397999999999
  0
ARC
  5
A0EA
330
A059
100
AcDbEntity
  8
1
  6
Continuous
100
AcDbCircle
 10
41.10726699999999
 20
226.5665779999999
 30
0.0
 40
3.174999999999998
100
AcDbArc
 50
179.9999599999999
 51
209.7397999999999
  0
ARC
  5
A0EB
330
A059
100
AcDbEntity
  8
1
  6
Continuous
100
AcDbCircle
 10
158.6314849999999
 20
282.3915799999998
 30
0.0
 40
7.5
100
AcDbArc
 50
162.50042
 51
269.99995
  0
ARC
  5
A0EC
330
A059
100
AcDbEntity
  8
1
  6
Continuous
100
AcDbCircle
 10
158.6314889999998
 20
325.3915799999998
 30
0.0
 40
7.5
100
AcDbArc
 50
89.99999599999998
 51
197.4996199999999
  0
ARC
  5
A0ED
330
A059
100
AcDbEntity
  8
1
  6
Continuous
100
AcDbCircle
 10
213.631487
 20
282.3915799999998
 30
0.0
 40
7.5
100
AcDbArc
 50
270.0000299999999
 51
17.49957999999999
  0
ARC
  5
A0EE
330
A059
100
AcDbEntity
  8
1
  6
Continuous
100
AcDbCircle
 10
213.631487
 20
325.3915799999998
 30
0.0
 40
7.5
100
AcDbArc
 50
342.50037
 51
89.99999599999998
  0
ARC
  5
A0EF
330
A059
100
AcDbEntity
  8
1
  6
Continuous
100
AcDbCircle
 10
281.822397
 20
303.8915719999998
 30
0.0
 40
64.0
100
AcDbArc
 50
162.5003899999998
 51
197.4996199999999
  0
ARC
  5
A0F0
330
A059
100
AcDbEntity
  8
1
  6
Continuous
100
AcDbCircle
 10
90.44057700000001
 20
303.891588
 30
0.0
 40
64.0
100
AcDbArc
 50
342.50037
 51
17.499607
  0
CIRCLE
  5
A0F1
330
A059
100
AcDbEntity
  8
1
  6
Continuous
100
AcDbCircle
 10
158.6314849999999
 20
282.8915799999998
 30
0.0
 40
4.4
  0
CIRCLE
  5
A0F2
330
A059
100
AcDbEntity
  8
1
  6
Continuous
100
AcDbCircle
 10
158.6314889999998
 20
324.8915799999998
 30
0.0
 40
4.4
  0
CIRCLE
  5
A0F3
330
A059
100
AcDbEntity
  8
1
  6
Continuous
100
AcDbCircle
 10
213.631487
 20
282.8915799999998
 30
0.0
 40
4.4
  0
CIRCLE
  5
A0F4
330
A059
100
AcDbEntity
  8
1
  6
Continuous
100
AcDbCircle
 10
213.631487
 20
324.8915799999998
 30
0.0
 40
4.4
  0
CIRCLE
  5
A0F5
330
A059
100
AcDbEntity
  8
1
  6
Continuous
100
AcDbCircle
 10
186.1314869999999
 20
303.8915799999998
 30
0.0
 40
23.200001
  0
CIRCLE
  5
A0F6
330
A059
100
AcDbEntity
  8
1
  6
Continuous
100
AcDbCircle
 10
186.1314869999999
 20
303.8915799999998
 30
0.0
 40
21.700001
  0
CIRCLE
  5
A0F7
330
A059
100
AcDbEntity
  8
1
  6
Continuous
100
AcDbCircle
 10
186.1314869999999
 20
303.8915799999998
 30
0.0
 40
11.4
  0
ARC
  5
A0F8
330
A059
100
AcDbEntity
  8
1
  6
Continuous
100
AcDbCircle
 10
186.131501
 20
303.89161
 30
0.0
 40
8.0
100
AcDbArc
 50
15.962
 51
74.03891800000002
  0
ARC
  5
A0F9
330
A059
100
AcDbEntity
  8
1
  6
Continuous
100
AcDbCircle
 10
187.731501
 20
305.4916089999998
 30
0.0
 40
0.5
100
AcDbArc
 50
180.00003
 51
270.0
  0
ARC
  5
A0FA
330
A059
100
AcDbEntity
  8
1
  6
Continuous
100
AcDbCircle
 10
188.168571
 20
319.985027
 30
0.0
 40
15.0
100
AcDbArc
 50
268.2726999999998
 51
292.1458399999999
  0
ARC
  5
A0FB
330
A059
100
AcDbEntity
  8
1
  6
Continuous
100
AcDbCircle
 10
202.224837
 20
305.928761
 30
0.0
 40
15.0
100
AcDbArc
 50
157.85431
 51
181.72746
  0
ARC
  5
A0FC
330
A059
100
AcDbEntity
  8
1
  6
Continuous
100
AcDbCircle
 10
170.038087
 20
305.928682
 30
0.0
 40
15.0
100
AcDbArc
 50
358.27267
 51
22.14583999999999
  0
ARC
  5
A0FD
330
A059
100
AcDbEntity
  8
1
  6
Continuous
100
AcDbCircle
 10
184.094345
 20
319.984952
 30
0.0
 40
15.0
100
AcDbArc
 50
247.8543099999999
 51
271.72746
  0
ARC
  5
A0FE
330
A059
100
AcDbEntity
  8
1
  6
Continuous
100
AcDbCircle
 10
184.5315
 20
305.4916079999998
 30
0.0
 40
0.5
100
AcDbArc
 50
270.0000299999999
 51
0.0
  0
ARC
  5
A0FF
330
A059
100
AcDbEntity
  8
1
  6
Continuous
100
AcDbCircle
 10
184.0944289999999
 20
287.798195
 30
0.0
 40
15.0
100
AcDbArc
 50
88.272677
 51
112.1458279999999
  0
ARC
  5
A100
330
A059
100
AcDbEntity
  8
1
  6
Continuous
100
AcDbCircle
 10
170.0381639999999
 20
301.854458
 30
0.0
 40
15.0
100
AcDbArc
 50
337.8543
 51
1.72747
  0
ARC
  5
A101
330
A059
100
AcDbEntity
  8
1
  6
Continuous
100
AcDbCircle
 10
184.5315019999999
 20
302.2916099999998
 30
0.0
 40
0.5
100
AcDbArc
 50
0.00002
 51
90.00000500000002
  0
ARC
  5
A102
330
A059
100
AcDbEntity
  8
1
  6
Continuous
100
AcDbCircle
 10
202.2249159999998
 20
301.8545379999999
 30
0.0
 40
15.0
100
AcDbArc
 50
178.2726699999997
 51
202.14585
  0
ARC
  5
A103
330
A059
100
AcDbEntity
  8
1
  6
Continuous
100
AcDbCircle
 10
188.168652
 20
287.7982739999998
 30
0.0
 40
15.0
100
AcDbArc
 50
67.854298
 51
91.72746899999998
  0
ARC
  5
A104
330
A059
100
AcDbEntity
  8
1
  6
Continuous
100
AcDbCircle
 10
187.731502
 20
302.291612
 30
0.0
 40
0.5
100
AcDbArc
 50
90.00000500000002
 51
180.0
  0
ARC
  5
A105
330
A059
100
AcDbEntity
  8
1
  6
Continuous
100
AcDbCircle
 10
186.131501
 20
303.89161
 30
0.0
 40
8.0
100
AcDbArc
 50
105.962102
 51
164.0389099999999
  0
ARC
  5
A106
330
A059
100
AcDbEntity
  8
1
  6
Continuous
100
AcDbCircle
 10
186.131501
 20
303.89161
 30
0.0
 40
8.0
100
AcDbArc
 50
195.96204
 51
254.0389499999998
  0
ARC
  5
A107
330
A059
100
AcDbEntity
  8
1
  6
Continuous
100
AcDbCircle
 10
186.131501
 20
303.89161
 30
0.0
 40
8.0
100
AcDbArc
 50
285.9620599999999
 51
344.0390299999998
  0
ARC
  5
A108
330
A059
100
AcDbEntity
  8
1
  6
Continuous
100
AcDbCircle
 10
180.736184
 20
301.822643
 30
0.0
 40
2.299999999999998
100
AcDbArc
 50
115.900792
 51
183.2629599999999
  0
ARC
  5
A109
330
A059
100
AcDbEntity
  8
1
  6
Continuous
100
AcDbCircle
 10
180.736187
 20
305.9605799999999
 30
0.0
 40
2.299999999999998
100
AcDbArc
 50
176.7370399999999
 51
244.0992099999998
  0
ARC
  5
A10A
330
A059
100
AcDbEntity
  8
1
  6
Continuous
100
AcDbCircle
 10
184.062534
 20
309.286927
 30
0.0
 40
2.299999999999998
100
AcDbArc
 50
25.90079
 51
93.26296000000002
  0
ARC
  5
A10B
330
A059
100
AcDbEntity
  8
1
  6
Continuous
100
AcDbCircle
 10
188.200473
 20
309.286927
 30
0.0
 40
2.299999999999998
100
AcDbArc
 50
86.73704200000001
 51
154.0992099999999
  0
ARC
  5
A10C
330
A059
100
AcDbEntity
  8
1
  6
Continuous
100
AcDbCircle
 10
191.5268189999999
 20
305.960577
 30
0.0
 40
2.299999999999998
100
AcDbArc
 50
295.9008
 51
3.262959999999998
  0
ARC
  5
A10D
330
A059
100
AcDbEntity
  8
1
  6
Continuous
100
AcDbCircle
 10
191.5268179999999
 20
301.8226379999998
 30
0.0
 40
2.299999999999998
100
AcDbArc
 50
356.7370499999999
 51
64.09921700000001
  0
ARC
  5
A10E
330
A059
100
AcDbEntity
  8
1
  6
Continuous
100
AcDbCircle
 10
188.200468
 20
298.496293
 30
0.0
 40
2.299999999999998
100
AcDbArc
 50
205.90079
 51
273.2629499999998
  0
ARC
  5
A10F
330
A059
100
AcDbEntity
  8
1
  6
Continuous
100
AcDbCircle
 10
184.06253
 20
298.496293
 30
0.0
 40
2.299999999999998
100
AcDbArc
 50
266.73705
 51
334.09922
  0
ARC
  5
A110
330
A059
100
AcDbEntity
  8
1
  6
Continuous
100
AcDbCircle
 10
49.903867
 20
226.5665779999999
 30
0.0
 40
3.174999999999998
100
AcDbArc
 50
330.26016
 51
348.7328699999998
  0
ARC
  5
A111
330
A059
100
AcDbEntity
  8
1
  6
Continuous
100
AcDbCircle
 10
62.359102
 20
226.5665779999999
 30
0.0
 40
3.174999999999998
100
AcDbArc
 50
330.26016
 51
0.0
  0
ARC
  5
A112
330
A059
100
AcDbEntity
  8
1
  6
Continuous
100
AcDbCircle
 10
179.903872
 20
226.5665779999999
 30
0.0
 40
3.174999999999998
100
AcDbArc
 50
330.26013
 51
348.7328699999998
  0
ARC
  5
A113
330
A059
100
AcDbEntity
  8
1
  6
Continuous
100
AcDbCircle
 10
192.359102
 20
226.5665779999999
 30
0.0
 40
3.174999999999998
100
AcDbArc
 50
330.26013
 51
0.0
  0
ARC
  5
A114
330
A059
100
AcDbEntity
  8
1
  6
Continuous
100
AcDbCircle
 10
204.930304
 20
209.9915779999999
 30
0.0
 40
8.0
100
AcDbArc
 50
89.99998199999996
 51
142.0488399999999
  0
ARC
  5
A115
330
A059
100
AcDbEntity
  8
1
  6
Continuous
100
AcDbCircle
 10
164.431486
 20
221.4915779999997
 30
0.0
 40
3.5
100
AcDbArc
 50
89.99998199999996
 51
179.9999599999999
  0
ARC
  5
A116
330
A059
100
AcDbEntity
  8
1
  6
Continuous
100
AcDbCircle
 10
165.131487
 20
179.89158
 30
0.0
 40
8.5
100
AcDbArc
 50
174.3469299999999
 51
322.76679
  0
ARC
  5
A117
330
A059
100
AcDbEntity
  8
1
  6
Continuous
100
AcDbCircle
 10
174.406122
 20
212.601114
 30
0.0
 40
15.0
100
AcDbArc
 50
153.9367
 51
174.3469299999999
  0
ARC
  5
A118
330
A059
100
AcDbEntity
  8
1
  6
Continuous
100
AcDbCircle
 10
69.63148699999999
 20
221.1915789999999
 30
0.0
 40
1.0
100
AcDbArc
 50
101.96231
 51
270.0
  0
ARC
  5
A119
330
A059
100
AcDbEntity
  8
1
  6
Continuous
100
AcDbCircle
 10
72.88148699999998
 20
221.3915799999998
 30
0.0
 40
1.199999999999999
100
AcDbArc
 50
270.00002
 51
99.88999300000001
  0
ARC
  5
A11A
330
A059
100
AcDbEntity
  8
1
  6
Continuous
100
AcDbCircle
 10
62.43190999999999
 20
214.291891
 30
0.0
 40
12.0
100
AcDbArc
 50
0.0
 51
29.44848
  0
ARC
  5
A11B
330
A059
100
AcDbEntity
  8
1
  6
Continuous
100
AcDbCircle
 10
60.13885699999999
 20
214.6121839999999
 30
0.0
 40
12.0
100
AcDbArc
 50
357.9913499999999
 51
19.77081799999998
  0
ARC
  5
A11C
330
A059
100
AcDbEntity
  8
1
  6
Continuous
100
AcDbCircle
 10
73.56956700000002
 20
202.6041769999999
 30
0.0
 40
20.0
100
AcDbArc
 50
92.09751899999998
 51
101.96228
  0
ARC
  5
A11D
330
A059
100
AcDbEntity
  8
1
  6
Continuous
100
AcDbCircle
 10
71.80817600000001
 20
228.6641939999999
 30
0.0
 40
10.0
100
AcDbArc
 50
242.15877
 51
267.84121
  0
ARC
  5
A11E
330
A059
100
AcDbEntity
  8
1
  6
Continuous
100
AcDbCircle
 10
42.631487
 20
221.1915789999999
 30
0.0
 40
1.0
100
AcDbArc
 50
269.9999599999998
 51
78.03765700000003
  0
ARC
  5
A11F
330
A059
100
AcDbEntity
  8
1
  6
Continuous
100
AcDbCircle
 10
39.381487
 20
221.3915799999998
 30
0.0
 40
1.199999999999999
100
AcDbArc
 50
80.109971
 51
269.99995
  0
ARC
  5
A120
330
A059
100
AcDbEntity
  8
1
  6
Continuous
100
AcDbCircle
 10
49.831067
 20
214.291891
 30
0.0
 40
12.0
100
AcDbArc
 50
150.55148
 51
179.9999599999999
  0
ARC
  5
A121
330
A059
100
AcDbEntity
  8
1
  6
Continuous
100
AcDbCircle
 10
52.124117
 20
214.6121839999999
 30
0.0
 40
12.0
100
AcDbArc
 50
160.2291499999997
 51
182.00861
  0
ARC
  5
A122
330
A059
100
AcDbEntity
  8
1
  6
Continuous
100
AcDbCircle
 10
38.693407
 20
202.6041769999999
 30
0.0
 40
20.0
100
AcDbArc
 50
78.037684
 51
87.902445
  0
ARC
  5
A123
330
A059
100
AcDbEntity
  8
1
  6
Continuous
100
AcDbCircle
 10
40.454797
 20
228.6641939999999
 30
0.0
 40
10.0
100
AcDbArc
 50
272.15877
 51
297.8412099999999
  0
ARC
  5
A124
330
A059
100
AcDbEntity
  8
1
  6
Continuous
100
AcDbCircle
 10
77.13148699999995
 20
221.4915779999997
 30
0.0
 40
3.5
100
AcDbArc
 50
0.0
 51
89.99998199999996
  0
ARC
  5
A125
330
A059
100
AcDbEntity
  8
1
  6
Continuous
100
AcDbCircle
 10
35.13149699999999
 20
221.4915779999997
 30
0.0
 40
3.5
100
AcDbArc
 50
89.99998199999996
 51
179.9999599999999
  0
ARC
  5
A126
330
A059
100
AcDbEntity
  8
1
  6
Continuous
100
AcDbCircle
 10
70.83149899999998
 20
193.490701
 30
0.0
 40
9.8
100
AcDbArc
 50
306.4646
 51
359.91775
  0
ARC
  5
A127
330
A059
100
AcDbEntity
  8
1
  6
Continuous
100
AcDbCircle
 10
41.431477
 20
193.490701
 30
0.0
 40
9.8
100
AcDbArc
 50
180.08223
 51
238.3562799999999
  0
LINE
  5
A128
330
A059
100
AcDbEntity
  8
1
  6
Continuous
100
AcDbLine
 10
47.574443
 20
220.3695259999999
 30
0.0
 11
64.68853100000001
 21
220.3695259999999
 31
0.0
  0
LINE
  5
A129
330
A059
100
AcDbEntity
  8
4
  6
CENTER
 48
0.8
100
AcDbLine
 10
165.131487
 20
335.8915799999998
 30
0.0
 11
165.131487
 21
271.8915799999999
 31
0.0
  0
LINE
  5
A12A
330
A059
100
AcDbEntity
  8
4
  6
CENTER
 48
0.8
100
AcDbLine
 10
122.631487
 20
70.89158000000002
 30
0.0
 11
222.822397
 21
70.89158000000002
 31
0.0
  0
LINE
  5
A12B
330
A059
100
AcDbEntity
  8
1
  6
Continuous
100
AcDbLine
 10
158.6314889999998
 20
41.89157999999999
 30
0.0
 11
213.631487
 21
41.89157999999999
 31
0.0
  0
LINE
  5
A12C
330
A059
100
AcDbEntity
  8
1
  6
Continuous
100
AcDbLine
 10
158.6314849999999
 20
99.89158000000001
 30
0.0
 11
213.631487
 21
99.89158000000001
 31
0.0
  0
LINE
  5
A12D
330
A059
100
AcDbEntity
  8
4
  6
CENTER
 48
0.8
100
AcDbLine
 10
165.131487
 20
38.89157999999999
 30
0.0
 11
165.131487
 21
102.89158
 31
0.0
  0
LINE
  5
A12E
330
A059
100
AcDbEntity
  8
4
  6
CENTER
 48
0.8
100
AcDbLine
 10
186.1314869999999
 20
36.89157999999999
 30
0.0
 11
186.1314869999999
 21
104.89158
 31
0.0
  0
ARC
  5
A12F
330
A059
100
AcDbEntity
  8
1
  6
Continuous
100
AcDbCircle
 10
90.44057700000001
 20
70.89157199999998
 30
0.0
 40
64.0
100
AcDbArc
 50
342.5003929999998
 51
348.7370279999999
  0
LINE
  5
A130
330
A059
100
AcDbEntity
  8
4
  6
CENTER
 48
0.8
100
AcDbLine
 10
152.631487
 20
91.89158
 30
0.0
 11
164.6314849999999
 21
91.89158
 31
0.0
  0
ARC
  5
A131
330
A059
100
AcDbEntity
  8
1
  6
Continuous
100
AcDbCircle
 10
158.6314849999999
 20
92.39158000000001
 30
0.0
 40
7.5
100
AcDbArc
 50
90.00004999999999
 51
197.49958
  0
ARC
  5
A132
330
A059
100
AcDbEntity
  8
1
  6
Continuous
100
AcDbCircle
 10
158.6314849999999
 20
91.89158
 30
0.0
 40
4.4
100
AcDbArc
 50
6.524873999999998
 51
242.964337
  0
LINE
  5
A133
330
A059
100
AcDbEntity
  8
4
  6
CENTER
 48
0.8
100
AcDbLine
 10
158.6314869999999
 20
85.89158000000002
 30
0.0
 11
158.6314869999999
 21
97.89158
 31
0.0
  0
LINE
  5
A134
330
A059
100
AcDbEntity
  8
4
  6
CENTER
 48
0.8
100
AcDbLine
 10
152.631487
 20
49.89157999999999
 30
0.0
 11
164.631489
 21
49.89157999999999
 31
0.0
  0
ARC
  5
A135
330
A059
100
AcDbEntity
  8
1
  6
Continuous
100
AcDbCircle
 10
158.6314889999998
 20
49.89157999999999
 30
0.0
 40
4.4
100
AcDbArc
 50
117.0357189999999
 51
9.154132999999999
  0
ARC
  5
A136
330
A059
100
AcDbEntity
  8
1
  6
Continuous
100
AcDbCircle
 10
158.6314889999998
 20
49.39157999999999
 30
0.0
 40
7.5
100
AcDbArc
 50
162.5003799999998
 51
270.0000039999998
  0
LINE
  5
A137
330
A059
100
AcDbEntity
  8
4
  6
CENTER
 48
0.8
100
AcDbLine
 10
158.6314869999999
 20
55.89158000000001
 30
0.0
 11
158.6314869999999
 21
43.89158
 31
0.0
  0
ARC
  5
A138
330
A059
100
AcDbEntity
  8
1
  6
Continuous
100
AcDbCircle
 10
281.822397
 20
70.89158799999998
 30
0.0
 40
64.0
100
AcDbArc
 50
162.5003799999998
 51
197.49961
  0
ARC
  5
A139
330
A059
100
AcDbEntity
  8
1
  6
Continuous
100
AcDbCircle
 10
213.631487
 20
92.39158000000001
 30
0.0
 40
7.5
100
AcDbArc
 50
342.50042
 51
89.99996999999996
  0
CIRCLE
  5
A13A
330
A059
100
AcDbEntity
  8
1
  6
Continuous
100
AcDbCircle
 10
213.631487
 20
91.89158
 30
0.0
 40
4.4
  0
LINE
  5
A13B
330
A059
100
AcDbEntity
  8
4
  6
CENTER
 48
0.8
100
AcDbLine
 10
219.631487
 20
91.89158
 30
0.0
 11
207.631487
 21
91.89158
 31
0.0
  0
LINE
  5
A13C
330
A059
100
AcDbEntity
  8
4
  6
CENTER
 48
0.8
100
AcDbLine
 10
213.631487
 20
85.89158000000002
 30
0.0
 11
213.631487
 21
97.89158
 31
0.0
  0
CIRCLE
  5
A13D
330
A059
100
AcDbEntity
  8
1
  6
Continuous
100
AcDbCircle
 10
213.631487
 20
49.89157999999999
 30
0.0
 40
4.4
  0
LINE
  5
A13E
330
A059
100
AcDbEntity
  8
4
  6
CENTER
 48
0.8
100
AcDbLine
 10
219.631487
 20
49.89157999999999
 30
0.0
 11
207.631487
 21
49.89157999999999
 31
0.0
  0
ARC
  5
A13F
330
A059
100
AcDbEntity
  8
1
  6
Continuous
100
AcDbCircle
 10
213.631487
 20
49.39157999999999
 30
0.0
 40
7.5
100
AcDbArc
 50
270.0000039999998
 51
17.49963
  0
LINE
  5
A140
330
A059
100
AcDbEntity
  8
4
  6
CENTER
 48
0.8
100
AcDbLine
 10
213.631487
 20
55.89158000000001
 30
0.0
 11
213.631487
 21
43.89158
 31
0.0
  0
LINE
  5
A141
330
A059
100
AcDbEntity
  8
1
  6
Continuous
100
AcDbLine
 10
156.631487
 20
52.59158000000001
 30
0.0
 11
178.881583
 21
52.59158000000001
 31
0.0
  0
LINE
  5
A142
330
A059
100
AcDbEntity
  8
1
  6
Continuous
100
AcDbLine
 10
156.631487
 20
54.89157999999999
 30
0.0
 11
177.6426879999999
 21
54.89157999999999
 31
0.0
  0
ARC
  5
A143
330
A059
100
AcDbEntity
  8
1
  6
Continuous
100
AcDbCircle
 10
160.95492
 20
52.09158
 30
0.0
 40
1.5
100
AcDbArc
 50
178.051186
 51
269.9999599999998
  0
LINE
  5
A144
330
A059
100
AcDbEntity
  8
1
  6
Continuous
100
AcDbLine
 10
159.4557969999998
 20
52.14256999999999
 30
0.0
 11
161.131479
 21
52.59157
 31
0.0
  0
LINE
  5
A145
330
A059
100
AcDbEntity
  8
1
  6
Continuous
100
AcDbLine
 10
161.1314869999999
 20
54.89157999999999
 30
0.0
 11
161.1314869999999
 21
55.89158000000001
 31
0.0
  0
ARC
  5
A146
330
A059
100
AcDbEntity
  8
1
  6
Continuous
100
AcDbCircle
 10
169.308031
 20
52.09158
 30
0.0
 40
1.5
100
AcDbArc
 50
269.99998
 51
1.94882
  0
LINE
  5
A147
330
A059
100
AcDbEntity
  8
1
  6
Continuous
100
AcDbLine
 10
170.807161
 20
52.14259000000001
 30
0.0
 11
169.131487
 21
52.59158000000001
 31
0.0
  0
LINE
  5
A148
330
A059
100
AcDbEntity
  8
1
  6
Continuous
100
AcDbLine
 10
169.131487
 20
54.89157999999999
 30
0.0
 11
169.131487
 21
55.89158000000001
 31
0.0
  0
LINE
  5
A149
330
A059
100
AcDbEntity
  8
1
  6
Continuous
100
AcDbLine
 10
170.8071689999998
 20
52.14255
 30
0.0
 11
159.4557899999998
 21
52.14255
 31
0.0
  0
LINE
  5
A14A
330
A059
100
AcDbEntity
  8
1
  6
Continuous
100
AcDbLine
 10
160.95492
 20
50.59158
 30
0.0
 11
169.308031
 21
50.59158
 31
0.0
  0
LINE
  5
A14B
330
A059
100
AcDbEntity
  8
1
  6
Continuous
100
AcDbLine
 10
156.631487
 20
86.89158
 30
0.0
 11
177.6426879999999
 21
86.89158
 31
0.0
  0
LINE
  5
A14C
330
A059
100
AcDbEntity
  8
1
  6
Continuous
100
AcDbLine
 10
156.631487
 20
89.19158299999997
 30
0.0
 11
178.881584
 21
89.19158299999997
 31
0.0
  0
LINE
  5
A14D
330
A059
100
AcDbEntity
  8
1
  6
Continuous
100
AcDbLine
 10
159.1314869999999
 20
89.191575
 30
0.0
 11
159.1314869999999
 21
90.391572
 31
0.0
  0
LINE
  5
A14E
330
A059
100
AcDbEntity
  8
1
  6
Continuous
100
AcDbLine
 10
171.1314869999999
 20
89.191575
 30
0.0
 11
171.1314869999999
 21
90.391572
 31
0.0
  0
LINE
  5
A14F
330
A059
100
AcDbEntity
  8
1
  6
Continuous
100
AcDbLine
 10
161.1314869999999
 20
85.89158000000002
 30
0.0
 11
161.1314869999999
 21
86.89158
 31
0.0
  0
LINE
  5
A150
330
A059
100
AcDbEntity
  8
1
  6
Continuous
100
AcDbLine
 10
169.131487
 20
85.89158000000002
 30
0.0
 11
169.131487
 21
86.89158
 31
0.0
  0
ARC
  5
A151
330
A059
100
AcDbEntity
  8
1
  6
Continuous
100
AcDbCircle
 10
161.1314869999999
 20
90.391572
 30
0.0
 40
2.0
100
AcDbArc
 50
90.0
 51
179.999982
  0
ARC
  5
A152
330
A059
100
AcDbEntity
  8
1
  6
Continuous
100
AcDbCircle
 10
169.131487
 20
90.391572
 30
0.0
 40
2.0
100
AcDbArc
 50
0.00002
 51
90.0
  0
LINE
  5
A153
330
A059
100
AcDbEntity
  8
1
  6
Continuous
100
AcDbLine
 10
161.1314869999999
 20
92.39157199999999
 30
0.0
 11
169.131487
 21
92.39157199999999
 31
0.0
  0
ARC
  5
A154
330
A059
100
AcDbEntity
  8
1
  6
Continuous
100
AcDbCircle
 10
90.44057700000001
 20
70.89157199999998
 30
0.0
 40
64.0
100
AcDbArc
 50
11.26298699999999
 51
17.49963
  0
LINE
  5
A155
330
A059
100
AcDbEntity
  8
1
  6
Continuous
100
AcDbLine
 10
156.631487
 20
89.19158299999997
 30
0.0
 11
156.631487
 21
86.89158
 31
0.0
  0
LINE
  5
A156
330
A059
100
AcDbEntity
  8
1
  6
Continuous
100
AcDbLine
 10
156.631487
 20
54.89157999999999
 30
0.0
 11
156.631487
 21
52.59158000000001
 31
0.0
  0
ARC
  5
A157
330
A059
100
AcDbEntity
  8
1
  6
Continuous
100
AcDbCircle
 10
186.1314869999999
 20
70.89158000000002
 30
0.0
 40
26.24999600000001
100
AcDbArc
 50
230.6211989999999
 51
126.7635509999997
  0
ARC
  5
A158
330
A059
100
AcDbEntity
  8
1
  6
Continuous
100
AcDbCircle
 10
186.1314869999999
 20
70.89158000000002
 30
0.0
 40
20.40000099999998
100
AcDbArc
 50
258.9251679999999
 51
101.074832
  0
ARC
  5
A159
330
A059
100
AcDbEntity
  8
1
  6
Continuous
100
AcDbCircle
 10
186.1314869999999
 20
70.89158000000002
 30
0.0
 40
13.900001
100
AcDbArc
 50
244.063654
 51
295.936346
  0
ARC
  5
A15A
330
A059
100
AcDbEntity
  8
1
  6
Continuous
100
AcDbCircle
 10
186.1314869999999
 20
70.89158000000002
 30
0.0
 40
13.900001
100
AcDbArc
 50
64.063654
 51
115.936346
  0
ARC
  5
A15B
330
A059
100
AcDbEntity
  8
1
  6
Continuous
100
AcDbCircle
 10
273.1314949999999
 20
175.89158
 30
0.0
 40
2.0
100
AcDbArc
 50
180.0
 51
269.99998
  0
LINE
  5
A15C
330
A059
100
AcDbEntity
  8
1
  6
Continuous
100
AcDbLine
 10
274.331484
 20
185.700803
 30
0.0
 11
274.331484
 21
171.39158
 31
0.0
  0
LINE
  5
A15D
330
A059
100
AcDbEntity
  8
1
  6
Continuous
100
AcDbLine
 10
276.6314869999998
 20
217.9915779999999
 30
0.0
 11
276.6314869999998
 21
171.39158
 31
0.0
  0
LINE
  5
A15E
330
A059
100
AcDbEntity
  8
1
  6
Continuous
100
AcDbLine
 10
311.3804769999998
 20
174.2159059999999
 30
0.0
 11
310.9314869999999
 21
175.89158
 31
0.0
  0
ARC
  5
A15F
330
A059
100
AcDbEntity
  8
1
  6
Continuous
100
AcDbCircle
 10
311.431487
 20
175.7150359999999
 30
0.0
 40
1.5
100
AcDbArc
 50
268.05118
 51
0.00002
  0
LINE
  5
A160
330
A059
100
AcDbEntity
  8
1
  6
Continuous
100
AcDbLine
 10
311.380517
 20
174.215898
 30
0.0
 11
311.380517
 21
185.567258
 31
0.0
  0
LINE
  5
A161
330
A059
100
AcDbEntity
  8
1
  6
Continuous
100
AcDbLine
 10
308.6314869999998
 20
217.9915779999999
 30
0.0
 11
308.6314869999998
 21
171.39158
 31
0.0
  0
LINE
  5
A162
330
A059
100
AcDbEntity
  8
1
  6
Continuous
100
AcDbLine
 10
310.9314869999999
 20
185.700802
 30
0.0
 11
310.9314869999999
 21
171.39158
 31
0.0
  0
LINE
  5
A163
330
A059
100
AcDbEntity
  8
4
  6
CENTER
 48
0.8
100
AcDbLine
 10
292.631487
 20
237.3915799999998
 30
0.0
 11
292.631487
 21
137.39158
 31
0.0
  0
LINE
  5
A164
330
A059
100
AcDbEntity
  8
1
  6
Continuous
100
AcDbLine
 10
310.9314869999999
 20
171.39158
 30
0.0
 11
308.6314869999998
 21
171.39158
 31
0.0
  0
LINE
  5
A165
330
A059
100
AcDbEntity
  8
1
  6
Continuous
100
AcDbLine
 10
274.3314919999999
 20
173.89158
 30
0.0
 11
273.1314949999999
 21
173.89158
 31
0.0
  0
LINE
  5
A166
330
A059
100
AcDbEntity
  8
1
  6
Continuous
100
AcDbLine
 10
276.6314869999998
 20
171.39158
 30
0.0
 11
274.331484
 21
171.39158
 31
0.0
  0
LINE
  5
A167
330
A059
100
AcDbEntity
  8
1
  6
Continuous
100
AcDbLine
 10
313.631477
 20
224.9915779999998
 30
0.0
 11
271.631487
 21
224.9915779999998
 31
0.0
  0
LINE
  5
A168
330
A059
100
AcDbEntity
  8
4
  6
CENTER
 48
0.8
100
AcDbLine
 10
317.931487
 20
179.89158
 30
0.0
 11
266.1314949999999
 21
179.89158
 31
0.0
  0
LINE
  5
A169
330
A059
100
AcDbEntity
  8
1
  6
Continuous
100
AcDbLine
 10
321.631487
 20
232.3915799999999
 30
0.0
 11
263.631487
 21
232.3915799999999
 31
0.0
  0
LINE
  5
A16A
330
A059
100
AcDbEntity
  8
1
  6
Continuous
100
AcDbLine
 10
321.631487
 20
230.0915809999999
 30
0.0
 11
263.631487
 21
230.0915809999999
 31
0.0
  0
LINE
  5
A16B
330
A059
100
AcDbEntity
  8
1
  6
Continuous
100
AcDbLine
 10
315.081487
 20
226.4915779999999
 30
0.0
 11
270.17836
 21
226.4915779999999
 31
0.0
  0
ARC
  5
A16C
330
A059
100
AcDbEntity
  8
1
  6
Continuous
100
AcDbCircle
 10
313.631477
 20
221.4915779999997
 30
0.0
 40
3.5
100
AcDbArc
 50
0.00004
 51
90.00001800000005
  0
LINE
  5
A16D
330
A059
100
AcDbEntity
  8
1
  6
Continuous
100
AcDbLine
 10
308.6314869999998
 20
183.89158
 30
0.0
 11
307.631487
 21
183.89158
 31
0.0
  0
ARC
  5
A16E
330
A059
100
AcDbEntity
  8
1
  6
Continuous
100
AcDbCircle
 10
311.431487
 20
184.0681469999999
 30
0.0
 40
1.5
100
AcDbArc
 50
0.00004
 51
0.608247
  0
LINE
  5
A16F
330
A059
100
AcDbEntity
  8
1
  6
Continuous
100
AcDbLine
 10
308.6314869999998
 20
175.89158
 30
0.0
 11
307.631487
 21
175.89158
 31
0.0
  0
LINE
  5
A170
330
A059
100
AcDbEntity
  8
1
  6
Continuous
100
AcDbLine
 10
312.9314869999999
 20
184.0681469999999
 30
0.0
 11
312.9314869999999
 21
175.7150359999999
 31
0.0
  0
ARC
  5
A171
330
A059
100
AcDbEntity
  8
1
  6
Continuous
100
AcDbCircle
 10
296.6388569999998
 20
214.6121839999999
 30
0.0
 40
12.0
100
AcDbArc
 50
357.9913899999998
 51
0.8876280000000001
  0
ARC
  5
A172
330
A059
100
AcDbEntity
  8
1
  6
Continuous
100
AcDbCircle
 10
315.081487
 20
229.9915799999999
 30
0.0
 40
3.5
100
AcDbArc
 50
269.99998
 51
338.5410699999998
  0
LINE
  5
A173
330
A059
100
AcDbEntity
  8
1
  6
Continuous
100
AcDbLine
 10
321.631487
 20
232.3915799999999
 30
0.0
 11
321.631487
 21
230.0915809999999
 31
0.0
  0
LINE
  5
A174
330
A059
100
AcDbEntity
  8
1
  6
Continuous
100
AcDbLine
 10
318.881477
 20
230.091584
 30
0.0
 11
318.3388569999999
 21
228.711164
 31
0.0
  0
ARC
  5
A175
330
A059
100
AcDbEntity
  8
1
  6
Continuous
100
AcDbCircle
 10
308.881487
 20
226.566581
 30
0.0
 40
3.174999999999998
100
AcDbArc
 50
330.2600799999999
 51
0.00004
  0
ARC
  5
A176
330
A059
100
AcDbEntity
  8
1
  6
Continuous
100
AcDbCircle
 10
298.859107
 20
226.5665779999999
 30
0.0
 40
3.174999999999998
100
AcDbArc
 50
330.2602
 51
0.00004
  0
ARC
  5
A177
330
A059
100
AcDbEntity
  8
1
  6
Continuous
100
AcDbCircle
 10
304.1357569999997
 20
226.5665779999999
 30
0.0
 40
3.174999999999998
100
AcDbArc
 50
330.2602
 51
0.00004
  0
ARC
  5
A178
330
A059
100
AcDbEntity
  8
1
  6
Continuous
100
AcDbCircle
 10
307.655707
 20
226.5665779999999
 30
0.0
 40
3.174999999999998
100
AcDbArc
 50
330.2602
 51
0.00004
  0
LINE
  5
A179
330
A059
100
AcDbEntity
  8
4
  6
CENTER
 48
0.8
100
AcDbLine
 10
313.631487
 20
237.3915799999998
 30
0.0
 11
313.631487
 21
225.0915809999999
 31
0.0
  0
ARC
  5
A17A
330
A059
100
AcDbEntity
  8
1
  6
Continuous
100
AcDbCircle
 10
292.631487
 20
226.5665779999999
 30
0.0
 40
3.174999999999998
100
AcDbArc
 50
180.0
 51
209.7398399999999
  0
ARC
  5
A17B
330
A059
100
AcDbEntity
  8
1
  6
Continuous
100
AcDbCircle
 10
286.4038719999998
 20
226.5665779999999
 30
0.0
 40
3.174999999999998
100
AcDbArc
 50
330.2601899999999
 51
348.7328699999998
  0
ARC
  5
A17C
330
A059
100
AcDbEntity
  8
1
  6
Continuous
100
AcDbCircle
 10
292.631487
 20
226.5665779999999
 30
0.0
 40
3.174999999999998
100
AcDbArc
 50
330.2602
 51
0.00004
  0
ARC
  5
A17D
330
A059
100
AcDbEntity
  8
1
  6
Continuous
100
AcDbCircle
 10
298.859107
 20
226.5665779999999
 30
0.0
 40
3.174999999999998
100
AcDbArc
 50
191.2671299999999
 51
209.7398399999999
  0
ARC
  5
A17E
330
A059
100
AcDbEntity
  8
1
  6
Continuous
100
AcDbCircle
 10
271.631487
 20
221.4915779999997
 30
0.0
 40
3.5
100
AcDbArc
 50
90.00001800000005
 51
180.0
  0
LINE
  5
A17F
330
A059
100
AcDbEntity
  8
1
  6
Continuous
100
AcDbLine
 10
268.131487
 20
221.4915779999997
 30
0.0
 11
268.131487
 21
196.1396729999999
 31
0.0
  0
LINE
  5
A180
330
A059
100
AcDbEntity
  8
1
  6
Continuous
100
AcDbLine
 10
277.6314869999998
 20
183.89158
 30
0.0
 11
276.6314869999998
 21
183.89158
 31
0.0
  0
LINE
  5
A181
330
A059
100
AcDbEntity
  8
1
  6
Continuous
100
AcDbLine
 10
277.6314869999998
 20
175.89158
 30
0.0
 11
276.6314869999998
 21
175.89158
 31
0.0
  0
LINE
  5
A182
330
A059
100
AcDbEntity
  8
1
  6
Continuous
100
AcDbLine
 10
271.1314949999999
 20
183.89158
 30
0.0
 11
271.1314949999999
 21
175.89158
 31
0.0
  0
ARC
  5
A183
330
A059
100
AcDbEntity
  8
1
  6
Continuous
100
AcDbCircle
 10
270.18149
 20
229.991577
 30
0.0
 40
3.5
100
AcDbArc
 50
201.4589799999999
 51
269.99998
  0
ARC
  5
A184
330
A059
100
AcDbEntity
  8
1
  6
Continuous
100
AcDbCircle
 10
276.381487
 20
226.566581
 30
0.0
 40
3.174999999999998
100
AcDbArc
 50
180.0
 51
209.7399499999999
  0
ARC
  5
A185
330
A059
100
AcDbEntity
  8
1
  6
Continuous
100
AcDbCircle
 10
281.1272149999999
 20
226.5665779999999
 30
0.0
 40
3.174999999999998
100
AcDbArc
 50
180.0
 51
209.7398399999999
  0
ARC
  5
A186
330
A059
100
AcDbEntity
  8
1
  6
Continuous
100
AcDbCircle
 10
277.6072709999999
 20
226.5665779999999
 30
0.0
 40
3.174999999999998
100
AcDbArc
 50
180.0
 51
209.7398399999999
  0
ARC
  5
A187
330
A059
100
AcDbEntity
  8
1
  6
Continuous
100
AcDbCircle
 10
286.4038719999998
 20
226.5665779999999
 30
0.0
 40
3.174999999999998
100
AcDbArc
 50
180.0
 51
209.7398399999999
  0
LINE
  5
A188
330
A059
100
AcDbEntity
  8
4
  6
CENTER
 48
0.8
100
AcDbLine
 10
271.631487
 20
237.3915799999998
 30
0.0
 11
271.631487
 21
225.0915809999999
 31
0.0
  0
LINE
  5
A189
330
A059
100
AcDbEntity
  8
1
  6
Continuous
100
AcDbLine
 10
263.631487
 20
232.3915799999999
 30
0.0
 11
263.631487
 21
230.0915809999999
 31
0.0
  0
LINE
  5
A18A
330
A059
100
AcDbEntity
  8
1
  6
Continuous
100
AcDbLine
 10
266.3814869999999
 20
230.091574
 30
0.0
 11
266.924105
 21
228.7111529999999
 31
0.0
  0
LINE
  5
A18B
330
A059
100
AcDbEntity
  8
1
  6
Continuous
100
AcDbLine
 10
274.3288
 20
217.9915779999999
 30
0.0
 11
310.934175
 21
217.9915779999999
 31
0.0
  0
LINE
  5
A18C
330
A059
100
AcDbEntity
  8
1
  6
Continuous
100
AcDbLine
 10
168.6314869999999
 20
221.624854
 30
0.0
 11
168.6314869999999
 21
201.863363
 31
0.0
  0
ARC
  5
A18D
330
A059
100
AcDbEntity
  8
1
  6
Continuous
100
AcDbCircle
 10
184.631487
 20
201.863363
 30
0.0
 40
16.0
100
AcDbArc
 50
179.9999799999999
 51
249.34745
  0
LINE
  5
A18E
330
A059
100
AcDbEntity
  8
1
  6
Continuous
100
AcDbLine
 10
210.6314869999999
 20
221.4915779999997
 30
0.0
 11
210.6314869999999
 21
217.9915779999999
 31
0.0
  0
ARC
  5
A18F
330
A059
100
AcDbEntity
  8
1
  6
Continuous
100
AcDbCircle
 10
207.131487
 20
221.4915779999997
 30
0.0
 40
3.5
100
AcDbArc
 50
0.0
 51
90.0
  0
ARC
  5
A190
330
A059
100
AcDbEntity
  8
1
  6
Continuous
100
AcDbCircle
 10
319.1766289999999
 20
196.1396729999999
 30
0.0
 40
51.045142
100
AcDbArc
 50
156.123408
 51
184.2547079999999
  0
LINE
  5
A191
330
A059
100
AcDbEntity
  8
1
  6
Continuous
100
AcDbLine
 10
317.1314869999998
 20
221.4915779999997
 30
0.0
 11
317.1314869999998
 21
196.1396729999999
 31
0.0
  0
ARC
  5
A192
330
A059
100
AcDbEntity
  8
1
  6
Continuous
100
AcDbCircle
 10
319.1766289999999
 20
196.1396729999999
 30
0.0
 40
48.745142
100
AcDbArc
 50
153.3660459999999
 51
184.2547079999999
  0
ARC
  5
A193
330
A059
100
AcDbEntity
  8
1
  6
Continuous
100
AcDbCircle
 10
186.1314869999999
 20
70.89158000000002
 30
0.0
 40
24.5
100
AcDbArc
 50
231.1981569999999
 51
127.752001
  0
ARC
  5
A194
330
A059
100
AcDbEntity
  8
1
  6
Continuous
100
AcDbCircle
 10
186.1314869999999
 20
70.89158000000002
 30
0.0
 40
22.2
100
AcDbArc
 50
270.0
 51
90.0
  0
LINE
  5
A1A0
330
A059
100
AcDbEntity
  8
1
  6
Continuous
100
AcDbLine
 10
413.36396
 20
174.7485669999998
 30
0.0
 11
386.641743
 21
214.911494
 31
0.0
  0
ARC
  5
A1A1
330
A059
100
AcDbEntity
  8
1
  6
Continuous
100
AcDbCircle
 10
420.131487
 20
179.89158
 30
0.0
 40
8.5
100
AcDbArc
 50
217.23321
 51
5.653069999999998
  0
CIRCLE
  5
A1A2
330
A059
100
AcDbEntity
  8
1
  6
Continuous
100
AcDbCircle
 10
420.131487
 20
179.89158
 30
0.0
 40
6.0
  0
LINE
  5
A1A3
330
A059
100
AcDbEntity
  8
4
  6
CENTER
 48
0.8
100
AcDbLine
 10
420.131487
 20
219.8915819999998
 30
0.0
 11
420.131487
 21
137.39158
 31
0.0
  0
LINE
  5
A1A4
330
A059
100
AcDbEntity
  8
4
  6
CENTER
 48
0.8
100
AcDbLine
 10
462.6314869999998
 20
179.89158
 30
0.0
 11
377.631487
 21
179.89158
 31
0.0
  0
LINE
  5
A1A5
330
A059
100
AcDbEntity
  8
1
  6
Continuous
100
AcDbLine
 10
420.8314879999998
 20
224.9915779999998
 30
0.0
 11
378.131487
 21
224.9915779999998
 31
0.0
  0
LINE
  5
A1A6
330
A059
100
AcDbEntity
  8
1
  6
Continuous
100
AcDbLine
 10
421.5814879999999
 20
226.4915779999999
 30
0.0
 11
376.678356
 21
226.4915779999999
 31
0.0
  0
LINE
  5
A1A7
330
A059
100
AcDbEntity
  8
1
  6
Continuous
100
AcDbLine
 10
434.1314869999997
 20
230.0915809999999
 30
0.0
 11
364.1314869999998
 21
230.0915809999999
 31
0.0
  0
LINE
  5
A1A8
330
A059
100
AcDbEntity
  8
1
  6
Continuous
100
AcDbLine
 10
434.1314869999997
 20
232.3915799999999
 30
0.0
 11
364.1314869999998
 21
232.3915799999999
 31
0.0
  0
LINE
  5
A1A9
330
A059
100
AcDbEntity
  8
1
  6
Continuous
100
AcDbLine
 10
416.6314869999998
 20
221.624854
 30
0.0
 11
416.6314869999998
 21
201.863363
 31
0.0
  0
ARC
  5
A1AA
330
A059
100
AcDbEntity
  8
1
  6
Continuous
100
AcDbCircle
 10
424.374748
 20
224.4245339999999
 30
0.0
 40
5.0
100
AcDbArc
 50
209.1702399999998
 51
269.50427
  0
LINE
  5
A1AB
330
A059
100
AcDbEntity
  8
1
  6
Continuous
100
AcDbLine
 10
424.3314879999998
 20
221.4915779999997
 30
0.0
 11
424.3314879999998
 21
219.191577
 31
0.0
  0
LINE
  5
A1AC
330
A059
100
AcDbEntity
  8
4
  6
CENTER
 48
0.8
100
AcDbLine
 10
399.131487
 20
237.3915799999998
 30
0.0
 11
399.131487
 21
187.2811979999999
 31
0.0
  0
LINE
  5
A1AD
330
A059
100
AcDbEntity
  8
1
  6
Continuous
100
AcDbLine
 10
428.590148
 20
180.728872
 30
0.0
 11
425.7839009999998
 21
214.078689
 31
0.0
  0
ARC
  5
A1AE
330
A059
100
AcDbEntity
  8
1
  6
Continuous
100
AcDbCircle
 10
410.856852
 20
212.601114
 30
0.0
 40
15.0
100
AcDbArc
 50
5.653069999999998
 51
26.0633
  0
ARC
  5
A1AF
330
A059
100
AcDbEntity
  8
1
  6
Continuous
100
AcDbCircle
 10
400.6314869999997
 20
201.863363
 30
0.0
 40
16.0
100
AcDbArc
 50
290.65255
 51
0.00002
  0
ARC
  5
A1B0
330
A059
100
AcDbEntity
  8
1
  6
Continuous
100
AcDbCircle
 10
421.744373
 20
219.5404579999999
 30
0.0
 40
3.0
100
AcDbArc
 50
30.41605999999999
 51
125.3451639999999
  0
ARC
  5
A1B1
330
A059
100
AcDbEntity
  8
1
  6
Continuous
100
AcDbCircle
 10
420.8314879999998
 20
221.4915779999997
 30
0.0
 40
3.5
100
AcDbArc
 50
0.00004
 51
90.00001800000005
  0
ARC
  5
A1B2
330
A059
100
AcDbEntity
  8
1
  6
Continuous
100
AcDbCircle
 10
421.5814879999999
 20
229.9915799999999
 30
0.0
 40
3.5
100
AcDbArc
 50
269.99998
 51
338.5410699999998
  0
LINE
  5
A1B3
330
A059
100
AcDbEntity
  8
1
  6
Continuous
100
AcDbLine
 10
425.381484
 20
230.091583
 30
0.0
 11
424.8388659999998
 21
228.711163
 31
0.0
  0
LINE
  5
A1B4
330
A059
100
AcDbEntity
  8
4
  6
CENTER
 48
0.8
100
AcDbLine
 10
426.631487
 20
225.0915809999999
 30
0.0
 11
426.631487
 21
237.3915799999998
 31
0.0
  0
LINE
  5
A1B5
330
A059
100
AcDbEntity
  8
1
  6
Continuous
100
AcDbLine
 10
434.1314869999997
 20
230.091584
 30
0.0
 11
434.1314869999997
 21
232.391583
 31
0.0
  0
ARC
  5
A1B6
330
A059
100
AcDbEntity
  8
1
  6
Continuous
100
AcDbCircle
 10
414.1557029999998
 20
226.5665779999999
 30
0.0
 40
3.174999999999998
100
AcDbArc
 50
330.26016
 51
0.00004
  0
ARC
  5
A1B7
330
A059
100
AcDbEntity
  8
1
  6
Continuous
100
AcDbCircle
 10
410.635758
 20
226.5665779999999
 30
0.0
 40
3.174999999999998
100
AcDbArc
 50
330.26016
 51
0.00004
  0
ARC
  5
A1B8
330
A059
100
AcDbEntity
  8
1
  6
Continuous
100
AcDbCircle
 10
405.3591019999998
 20
226.5665779999999
 30
0.0
 40
3.174999999999998
100
AcDbArc
 50
330.26016
 51
0.00004
  0
ARC
  5
A1B9
330
A059
100
AcDbEntity
  8
1
  6
Continuous
100
AcDbCircle
 10
415.3814869999997
 20
226.566581
 30
0.0
 40
3.174999999999998
100
AcDbArc
 50
330.2601099999999
 51
0.00004
  0
ARC
  5
A1BA
330
A059
100
AcDbEntity
  8
1
  6
Continuous
100
AcDbCircle
 10
392.9038719999999
 20
226.5665779999999
 30
0.0
 40
3.174999999999998
100
AcDbArc
 50
180.0
 51
209.73987
  0
ARC
  5
A1BB
330
A059
100
AcDbEntity
  8
1
  6
Continuous
100
AcDbCircle
 10
405.3591019999998
 20
226.5665779999999
 30
0.0
 40
3.174999999999998
100
AcDbArc
 50
191.2671299999999
 51
209.73987
  0
ARC
  5
A1BC
330
A059
100
AcDbEntity
  8
1
  6
Continuous
100
AcDbCircle
 10
399.131487
 20
226.5665779999999
 30
0.0
 40
3.174999999999998
100
AcDbArc
 50
330.26016
 51
0.00004
  0
ARC
  5
A1BD
330
A059
100
AcDbEntity
  8
1
  6
Continuous
100
AcDbCircle
 10
392.9038719999999
 20
226.5665779999999
 30
0.0
 40
3.174999999999998
100
AcDbArc
 50
330.26015
 51
348.7328699999998
  0
ARC
  5
A1BE
330
A059
100
AcDbEntity
  8
1
  6
Continuous
100
AcDbCircle
 10
399.131487
 20
226.5665779999999
 30
0.0
 40
3.174999999999998
100
AcDbArc
 50
180.0
 51
209.73987
  0
LINE
  5
A1BF
330
A059
100
AcDbEntity
  8
1
  6
Continuous
100
AcDbLine
 10
374.6314869999998
 20
221.4915779999997
 30
0.0
 11
374.6314869999998
 21
217.9915779999999
 31
0.0
  0
LINE
  5
A1C0
330
A059
100
AcDbEntity
  8
1
  6
Continuous
100
AcDbLine
 10
380.3326699999999
 20
217.9915779999999
 30
0.0
 11
374.6314869999998
 21
217.9915779999999
 31
0.0
  0
ARC
  5
A1C1
330
A059
100
AcDbEntity
  8
1
  6
Continuous
100
AcDbCircle
 10
380.3326699999999
 20
209.9915779999999
 30
0.0
 40
8.0
100
AcDbArc
 50
37.95115999999997
 51
90.00001800000005
  0
ARC
  5
A1C2
330
A059
100
AcDbEntity
  8
1
  6
Continuous
100
AcDbCircle
 10
378.131487
 20
221.4915779999997
 30
0.0
 40
3.5
100
AcDbArc
 50
90.0
 51
180.0
  0
ARC
  5
A1C3
330
A059
100
AcDbEntity
  8
1
  6
Continuous
100
AcDbCircle
 10
384.1072709999999
 20
226.5665779999999
 30
0.0
 40
3.174999999999998
100
AcDbArc
 50
180.0
 51
209.73987
  0
ARC
  5
A1C4
330
A059
100
AcDbEntity
  8
1
  6
Continuous
100
AcDbCircle
 10
387.6272149999999
 20
226.5665779999999
 30
0.0
 40
3.174999999999998
100
AcDbArc
 50
180.0
 51
209.73987
  0
ARC
  5
A1C5
330
A059
100
AcDbEntity
  8
1
  6
Continuous
100
AcDbCircle
 10
382.881487
 20
226.566581
 30
0.0
 40
3.174999999999998
100
AcDbArc
 50
180.0
 51
209.7399199999999
  0
ARC
  5
A1C6
330
A059
100
AcDbEntity
  8
1
  6
Continuous
100
AcDbCircle
 10
376.681486
 20
229.991577
 30
0.0
 40
3.5
100
AcDbArc
 50
201.4589799999999
 51
269.99998
  0
LINE
  5
A1C7
330
A059
100
AcDbEntity
  8
1
  6
Continuous
100
AcDbLine
 10
372.881491
 20
230.0915759999998
 30
0.0
 11
373.4241089999999
 21
228.711155
 31
0.0
  0
LINE
  5
A1C8
330
A059
100
AcDbEntity
  8
4
  6
CENTER
 48
0.8
100
AcDbLine
 10
371.631487
 20
225.0915809999999
 30
0.0
 11
371.631487
 21
237.3915799999998
 31
0.0
  0
LINE
  5
A1C9
330
A059
100
AcDbEntity
  8
1
  6
Continuous
100
AcDbLine
 10
364.1314869999998
 20
230.0915779999999
 30
0.0
 11
364.1314869999998
 21
232.3915799999999
 31
0.0
  0
CIRCLE
  5
A1CA
330
A059
100
AcDbEntity
  8
1
  6
Continuous
100
AcDbCircle
 10
420.131487
 20
179.89158
 30
0.0
 40
2.6
  0
ARC
  5
A1CB
330
A059
100
AcDbEntity
  8
1
  6
Continuous
100
AcDbCircle
 10
274.4550759999999
 20
192.812592
 30
0.0
 40
6.2
100
AcDbArc
 50
184.2547079999999
 51
261.0220439999998
  0
ARC
  5
A1CC
330
A059
100
AcDbEntity
  8
1
  6
Continuous
100
AcDbCircle
 10
274.4550759999999
 20
192.812592
 30
0.0
 40
3.9
100
AcDbArc
 50
184.2547079999999
 51
261.0220679999998
  0
ARC
  5
A1CD
330
A059
100
AcDbEntity
  8
1
  6
Continuous
100
AcDbCircle
 10
273.3314839999998
 20
185.700803
 30
0.0
 40
1.0
100
AcDbArc
 50
0.0
 51
81.02204399999996
  0
ARC
  5
A1CE
330
A059
100
AcDbEntity
  8
1
  6
Continuous
100
AcDbCircle
 10
273.331487
 20
185.700802
 30
0.0
 40
3.299999999999998
100
AcDbArc
 50
0.0
 51
81.02206800000002
  0
ARC
  5
A1CF
330
A059
100
AcDbEntity
  8
1
  6
Continuous
100
AcDbCircle
 10
273.1314949999999
 20
183.89158
 30
0.0
 40
2.0
100
AcDbArc
 50
90.00002
 51
180.0
  0
LINE
  5
A1D0
330
A059
100
AcDbEntity
  8
1
  6
Continuous
100
AcDbLine
 10
274.3314919999999
 20
185.89158
 30
0.0
 11
273.1314949999999
 21
185.89158
 31
0.0
  0
ARC
  5
A1D1
330
A059
100
AcDbEntity
  8
1
  6
Continuous
100
AcDbCircle
 10
266.0863449999999
 20
196.1396729999999
 30
0.0
 40
48.745142
100
AcDbArc
 50
355.745292
 51
26.633954
  0
ARC
  5
A1D2
330
A059
100
AcDbEntity
  8
1
  6
Continuous
100
AcDbCircle
 10
266.0863449999999
 20
196.1396729999999
 30
0.0
 40
51.045142
100
AcDbArc
 50
355.745292
 51
23.876592
  0
ARC
  5
A1D3
330
A059
100
AcDbEntity
  8
1
  6
Continuous
100
AcDbCircle
 10
310.807898
 20
192.812592
 30
0.0
 40
6.2
100
AcDbArc
 50
278.977932
 51
355.745292
  0
ARC
  5
A1D4
330
A059
100
AcDbEntity
  8
1
  6
Continuous
100
AcDbCircle
 10
310.807898
 20
192.812592
 30
0.0
 40
3.9
100
AcDbArc
 50
278.977932
 51
355.745292
  0
ARC
  5
A1D5
330
A059
100
AcDbEntity
  8
1
  6
Continuous
100
AcDbCircle
 10
311.931487
 20
185.700802
 30
0.0
 40
3.299999999999998
100
AcDbArc
 50
98.977932
 51
180.0
  0
ARC
  5
A1D6
330
A059
100
AcDbEntity
  8
1
  6
Continuous
100
AcDbCircle
 10
311.931487
 20
185.700802
 30
0.0
 40
1.0
100
AcDbArc
 50
98.977932
 51
180.0
  0
ARC
  5
A1D7
330
A059
100
AcDbEntity
  8
1
  6
Continuous
100
AcDbCircle
 10
311.431487
 20
184.068124
 30
0.0
 40
1.5
100
AcDbArc
 50
359.9999799999998
 51
91.94881999999999
  0
LINE
  5
A1D8
330
A059
100
AcDbEntity
  8
1
  6
Continuous
100
AcDbLine
 10
311.3804769999998
 20
185.567254
 30
0.0
 11
310.9314869999999
 21
183.89158
 31
0.0
  0
ARC
  5
A1DA
330
A059
100
AcDbEntity
  8
1
  6
Continuous
100
AcDbCircle
 10
186.1314879999999
 20
89.05278
 30
0.0
 40
6.338799999999999
100
AcDbArc
 50
90.0
 51
171.0730169999999
  0
ARC
  5
A1DB
330
A059
100
AcDbEntity
  8
1
  6
Continuous
100
AcDbCircle
 10
178.881584
 20
90.19158299999999
 30
0.0
 40
1.0
100
AcDbArc
 50
270.0
 51
351.0730169999998
  0
ARC
  5
A1DC
330
A059
100
AcDbEntity
  8
1
  6
Continuous
100
AcDbCircle
 10
186.1314879999999
 20
89.05278
 30
0.0
 40
4.0388
100
AcDbArc
 50
90.0
 51
128.276377
  0
ARC
  5
A1DD
330
A059
100
AcDbEntity
  8
1
  6
Continuous
100
AcDbCircle
 10
177.6426879999999
 20
90.19158
 30
0.0
 40
3.299999999999998
100
AcDbArc
 50
270.0
 51
330.797555
  0
ARC
  5
A1DE
330
A059
100
AcDbEntity
  8
1
  6
Continuous
100
AcDbCircle
 10
191.222012
 20
82.60159200000002
 30
0.0
 40
12.256541
100
AcDbArc
 50
128.276377
 51
150.7975549999999
  0
ARC
  5
A1DF
330
A059
100
AcDbEntity
  8
1
  6
Continuous
100
AcDbCircle
 10
177.6426879999999
 20
51.59158
 30
0.0
 40
3.299999999999998
100
AcDbArc
 50
29.202445
 51
90.0
  0
ARC
  5
A1E0
330
A059
100
AcDbEntity
  8
1
  6
Continuous
100
AcDbCircle
 10
191.222012
 20
59.18156800000001
 30
0.0
 40
12.256541
100
AcDbArc
 50
209.2024449999999
 51
231.7236229999998
  0
ARC
  5
A1E1
330
A059
100
AcDbEntity
  8
1
  6
Continuous
100
AcDbCircle
 10
186.1314879999999
 20
52.73037999999999
 30
0.0
 40
6.338799999999999
100
AcDbArc
 50
188.9269589999999
 51
270.0
  0
ARC
  5
A1E2
330
A059
100
AcDbEntity
  8
1
  6
Continuous
100
AcDbCircle
 10
186.1314879999999
 20
52.73037999999999
 30
0.0
 40
4.0388
100
AcDbArc
 50
231.7236229999998
 51
270.0
  0
ARC
  5
A1E3
330
A059
100
AcDbEntity
  8
1
  6
Continuous
100
AcDbCircle
 10
178.881583
 20
51.59158
 30
0.0
 40
1.0
100
AcDbArc
 50
8.926959
 51
90.0
  0
ARC
  5
A1E4
330
A059
100
AcDbEntity
  8
1
  6
Continuous
100
AcDbCircle
 10
310.934175
 20
215.9915779999999
 30
0.0
 40
2.0
100
AcDbArc
 50
23.876592
 51
90.0
  0
ARC
  5
A1E5
330
A059
100
AcDbEntity
  8
1
  6
Continuous
100
AcDbCircle
 10
274.3288
 20
215.9915779999999
 30
0.0
 40
2.0
100
AcDbArc
 50
90.0
 51
156.123408
  0
ARC
  5
A1E6
330
A059
100
AcDbEntity
  8
1
  6
Continuous
100
AcDbCircle
 10
165.131487
 20
179.89158
 30
0.0
 40
37.5
100
AcDbArc
 50
97.740038
 51
43.28771699999999
  0
ARC
  5
A1E7
330
A059
100
AcDbEntity
  8
1
  6
Continuous
100
AcDbCircle
 10
165.131487
 20
179.89158
 30
0.0
 40
31.799999
100
AcDbArc
 50
100.691813
 51
40.89025399999999
  0
ARC
  5
A1E8
330
A059
100
AcDbEntity
  8
1
  6
Continuous
100
AcDbCircle
 10
165.131487
 20
179.89158
 30
0.0
 40
10.0
100
AcDbArc
 50
143.3917909999999
 51
358.33222
  0
ARC
  5
A1E9
330
A059
100
AcDbEntity
  8
1
  6
Continuous
100
AcDbCircle
 10
152.298029
 20
174.791582
 30
0.0
 40
4.0
100
AcDbArc
 50
299.9999599999998
 51
359.99997
  0
LINE
  5
A1EA
330
A059
100
AcDbEntity
  8
1
  6
Continuous
100
AcDbLine
 10
130.3905739999999
 20
291.3915799999998
 30
0.0
 11
153.2080029999999
 21
291.3915799999998
 31
0.0
  0
LINE
  5
A1EB
330
A059
100
AcDbEntity
  8
1
  6
Continuous
100
AcDbLine
 10
130.3905739999999
 20
316.3915799999998
 30
0.0
 11
153.208007
 21
316.3915799999998
 31
0.0
  0
LINE
  5
A1EC
330
A059
100
AcDbEntity
  8
1
  6
Continuous
100
AcDbLine
 10
139.591879
 20
167.4556849999999
 30
0.0
 11
152.2980249999999
 21
174.791581
 31
0.0
  0
LINE
  5
A1ED
330
A059
100
AcDbEntity
  8
1
  6
Continuous
100
AcDbLine
 10
141.591879
 20
163.991575
 30
0.0
 11
154.298025
 21
171.32747
 31
0.0
  0
ARC
  5
A1EE
330
A059
100
AcDbEntity
  8
1
  6
Continuous
100
AcDbCircle
 10
139.591879
 20
167.455687
 30
0.0
 40
4.0
100
AcDbArc
 50
240.00002
 51
299.9999599999998
  0
ARC
  5
A1EF
330
A059
100
AcDbEntity
  8
1
  6
Continuous
100
AcDbCircle
 10
141.591879
 20
163.9915849999999
 30
0.0
 40
4.0
100
AcDbArc
 50
119.9999899999999
 51
179.9999899999999
  0
ARC
  5
A1F0
330
A059
100
AcDbEntity
  8
1
  6
Continuous
100
AcDbCircle
 10
154.298029
 20
171.327481
 30
0.0
 40
4.0
100
AcDbArc
 50
59.999988
 51
119.9999899999999
  0
LINE
  5
A1F1
330
A059
100
AcDbEntity
  8
1
  6
Continuous
100
AcDbLine
 10
188.671122
 20
163.9915919999999
 30
0.0
 11
175.964975
 21
171.3274949999999
 31
0.0
  0
LINE
  5
A1F2
330
A059
100
AcDbEntity
  8
1
  6
Continuous
100
AcDbLine
 10
190.671129
 20
167.4556959999998
 30
0.0
 11
177.964975
 21
174.7915989999999
 31
0.0
  0
ARC
  5
A1F3
330
A059
100
AcDbEntity
  8
1
  6
Continuous
100
AcDbCircle
 10
177.9649449999998
 20
174.79158
 30
0.0
 40
4.0
100
AcDbArc
 50
179.9999599999999
 51
239.99998
  0
ARC
  5
A1F4
330
A059
100
AcDbEntity
  8
1
  6
Continuous
100
AcDbCircle
 10
175.9649449999997
 20
171.327479
 30
0.0
 40
4.0
100
AcDbArc
 50
59.999954
 51
119.99996
  0
ARC
  5
A1F5
330
A059
100
AcDbEntity
  8
1
  6
Continuous
100
AcDbCircle
 10
188.671084
 20
163.991573
 30
0.0
 40
4.0
100
AcDbArc
 50
0.000014
 51
59.999954
  0
ARC
  5
A1F6
330
A059
100
AcDbEntity
  8
1
  6
Continuous
100
AcDbCircle
 10
190.6710909999999
 20
167.4556739999998
 30
0.0
 40
4.0
100
AcDbArc
 50
239.9999999999999
 51
299.9999799999999
  0
ARC
  5
A1F7
330
A059
100
AcDbEntity
  8
1
  6
Continuous
100
AcDbCircle
 10
202.6314869999999
 20
303.8915799999998
 30
0.0
 40
75.0
100
AcDbArc
 50
171.730139
 51
188.269879
  0
ARC
  5
A1F8
330
A059
100
AcDbEntity
  8
1
  6
Continuous
100
AcDbCircle
 10
130.3905739999999
 20
293.3915799999998
 30
0.0
 40
2.0
100
AcDbArc
 50
188.269879
 51
270.00002
  0
ARC
  5
A1F9
330
A059
100
AcDbEntity
  8
1
  6
Continuous
100
AcDbCircle
 10
130.3905739999999
 20
314.3915799999998
 30
0.0
 40
2.0
100
AcDbArc
 50
90.0
 51
171.730139
  0
ARC
  5
A1FA
330
A059
100
AcDbEntity
  8
1
  6
Continuous
100
AcDbCircle
 10
56.13148699999999
 20
142.39158
 30
0.0
 40
75.0
100
AcDbArc
 50
81.73013899999999
 51
98.269879
  0
ARC
  5
A1FB
330
A059
100
AcDbEntity
  8
1
  6
Continuous
100
AcDbCircle
 10
56.13148699999999
 20
217.3915799999999
 30
0.0
 40
75.0
100
AcDbArc
 50
261.7301199999999
 51
278.2698599999998
  0
LINE
  5
A1FC
330
A059
100
AcDbEntity
  8
1
  6
Continuous
100
AcDbLine
 10
41.13148699999999
 20
188.89158
 30
0.0
 11
41.13148699999999
 21
170.8915799999997
 31
0.0
  0
LINE
  5
A1FD
330
A059
100
AcDbEntity
  8
1
  6
Continuous
100
AcDbLine
 10
43.63148699999999
 20
214.632493
 30
0.0
 11
43.63148699999999
 21
145.150667
 31
0.0
  0
ARC
  5
A1FE
330
A059
100
AcDbEntity
  8
1
  6
Continuous
100
AcDbCircle
 10
45.631487
 20
145.150667
 30
0.0
 40
2.0
100
AcDbArc
 50
179.9999799999999
 51
261.7301199999999
  0
ARC
  5
A1FF
330
A059
100
AcDbEntity
  8
1
  6
Continuous
100
AcDbCircle
 10
42.131487
 20
170.8915799999997
 30
0.0
 40
1.0
100
AcDbArc
 50
179.9999799999999
 51
266.0317999999999
  0
LINE
  5
A200
330
A059
100
AcDbEntity
  8
1
  6
Continuous
100
AcDbLine
 10
42.062288
 20
169.893977
 30
0.0
 11
43.63148699999999
 21
169.7851229999999
 31
0.0
  0
ARC
  5
A201
330
A059
100
AcDbEntity
  8
1
  6
Continuous
100
AcDbCircle
 10
42.131487
 20
188.89158
 30
0.0
 40
1.0
100
AcDbArc
 50
93.968199
 51
180.00002
  0
LINE
  5
A202
330
A059
100
AcDbEntity
  8
1
  6
Continuous
100
AcDbLine
 10
42.062288
 20
189.889183
 30
0.0
 11
43.63148699999999
 21
189.998037
 31
0.0
  0
ARC
  5
A203
330
A059
100
AcDbEntity
  8
1
  6
Continuous
100
AcDbCircle
 10
45.631487
 20
214.632493
 30
0.0
 40
2.0
100
AcDbArc
 50
98.269879
 51
180.00002
  0
LINE
  5
A204
330
A059
100
AcDbEntity
  8
1
  6
Continuous
100
AcDbLine
 10
71.13148699999998
 20
188.89158
 30
0.0
 11
71.13148699999998
 21
170.8915799999997
 31
0.0
  0
LINE
  5
A205
330
A059
100
AcDbEntity
  8
1
  6
Continuous
100
AcDbLine
 10
68.63148699999999
 20
214.632493
 30
0.0
 11
68.63148699999999
 21
145.150667
 31
0.0
  0
ARC
  5
A206
330
A059
100
AcDbEntity
  8
1
  6
Continuous
100
AcDbCircle
 10
66.63148699999999
 20
145.150667
 30
0.0
 40
2.0
100
AcDbArc
 50
278.2698599999998
 51
0.0
  0
LINE
  5
A207
330
A059
100
AcDbEntity
  8
1
  6
Continuous
100
AcDbLine
 10
68.63148699999999
 20
169.7851229999999
 30
0.0
 11
70.200689
 21
169.893978
 31
0.0
  0
ARC
  5
A208
330
A059
100
AcDbEntity
  8
1
  6
Continuous
100
AcDbCircle
 10
70.13148699999999
 20
170.8915799999997
 30
0.0
 40
1.0
100
AcDbArc
 50
273.9681799999999
 51
0.0
  0
LINE
  5
A209
330
A059
100
AcDbEntity
  8
1
  6
Continuous
100
AcDbLine
 10
68.63148699999999
 20
189.998037
 30
0.0
 11
70.200689
 21
189.889183
 31
0.0
  0
ARC
  5
A20A
330
A059
100
AcDbEntity
  8
1
  6
Continuous
100
AcDbCircle
 10
70.13148699999999
 20
188.89158
 30
0.0
 40
1.0
100
AcDbArc
 50
0.0
 51
86.03181999999998
  0
ARC
  5
A20B
330
A059
100
AcDbEntity
  8
1
  6
Continuous
100
AcDbCircle
 10
66.63148699999999
 20
214.632493
 30
0.0
 40
2.0
100
AcDbArc
 50
0.0
 51
81.73013899999999
  0
LINE
  5
A20C
330
A059
100
AcDbEntity
  8
1
  6
Continuous
100
AcDbLine
 10
305.131487
 20
214.632493
 30
0.0
 11
305.131487
 21
145.150667
 31
0.0
  0
LINE
  5
A20D
330
A059
100
AcDbEntity
  8
1
  6
Continuous
100
AcDbLine
 10
307.631487
 20
188.89158
 30
0.0
 11
307.631487
 21
170.8915799999997
 31
0.0
  0
LINE
  5
A20E
330
A059
100
AcDbEntity
  8
1
  6
Continuous
100
AcDbLine
 10
280.131487
 20
214.632493
 30
0.0
 11
280.131487
 21
145.150667
 31
0.0
  0
LINE
  5
A20F
330
A059
100
AcDbEntity
  8
1
  6
Continuous
100
AcDbLine
 10
277.6314869999998
 20
188.89158
 30
0.0
 11
277.6314869999998
 21
170.8915799999997
 31
0.0
  0
ARC
  5
A210
330
A059
100
AcDbEntity
  8
1
  6
Continuous
100
AcDbCircle
 10
303.131487
 20
145.150667
 30
0.0
 40
2.0
100
AcDbArc
 50
278.2698599999998
 51
0.0
  0
ARC
  5
A211
330
A059
100
AcDbEntity
  8
1
  6
Continuous
100
AcDbCircle
 10
282.131487
 20
145.150667
 30
0.0
 40
2.0
100
AcDbArc
 50
179.9999799999999
 51
261.7301199999999
  0
ARC
  5
A212
330
A059
100
AcDbEntity
  8
1
  6
Continuous
100
AcDbCircle
 10
292.631487
 20
217.3915799999999
 30
0.0
 40
75.0
100
AcDbArc
 50
261.7301199999999
 51
278.2698599999998
  0
LINE
  5
A213
330
A059
100
AcDbEntity
  8
1
  6
Continuous
100
AcDbLine
 10
278.5622879999999
 20
169.893977
 30
0.0
 11
280.131487
 21
169.7851229999999
 31
0.0
  0
ARC
  5
A214
330
A059
100
AcDbEntity
  8
1
  6
Continuous
100
AcDbCircle
 10
278.6314869999998
 20
170.8915799999997
 30
0.0
 40
1.0
100
AcDbArc
 50
179.9999799999999
 51
266.0317999999999
  0
ARC
  5
A215
330
A059
100
AcDbEntity
  8
1
  6
Continuous
100
AcDbCircle
 10
306.6314869999998
 20
170.8915799999997
 30
0.0
 40
1.0
100
AcDbArc
 50
273.9681799999999
 51
0.0
  0
LINE
  5
A216
330
A059
100
AcDbEntity
  8
1
  6
Continuous
100
AcDbLine
 10
305.131487
 20
169.7851229999999
 30
0.0
 11
306.700689
 21
169.893978
 31
0.0
  0
LINE
  5
A217
330
A059
100
AcDbEntity
  8
1
  6
Continuous
100
AcDbLine
 10
278.5622879999999
 20
189.889183
 30
0.0
 11
280.131487
 21
189.998037
 31
0.0
  0
ARC
  5
A218
330
A059
100
AcDbEntity
  8
1
  6
Continuous
100
AcDbCircle
 10
278.6314869999998
 20
188.89158
 30
0.0
 40
1.0
100
AcDbArc
 50
93.968199
 51
180.00002
  0
ARC
  5
A219
330
A059
100
AcDbEntity
  8
1
  6
Continuous
100
AcDbCircle
 10
306.6314869999998
 20
188.89158
 30
0.0
 40
1.0
100
AcDbArc
 50
0.0
 51
86.03181999999998
  0
LINE
  5
A21A
330
A059
100
AcDbEntity
  8
1
  6
Continuous
100
AcDbLine
 10
305.131487
 20
189.998037
 30
0.0
 11
306.700689
 21
189.889183
 31
0.0
  0
ARC
  5
A21B
330
A059
100
AcDbEntity
  8
1
  6
Continuous
100
AcDbCircle
 10
292.631487
 20
142.39158
 30
0.0
 40
75.0
100
AcDbArc
 50
81.73013899999999
 51
98.269879
  0
ARC
  5
A21C
330
A059
100
AcDbEntity
  8
1
  6
Continuous
100
AcDbCircle
 10
282.131487
 20
214.632493
 30
0.0
 40
2.0
100
AcDbArc
 50
98.269879
 51
180.00002
  0
ARC
  5
A21D
330
A059
100
AcDbEntity
  8
1
  6
Continuous
100
AcDbCircle
 10
303.131487
 20
214.632493
 30
0.0
 40
2.0
100
AcDbArc
 50
0.0
 51
81.73013899999999
  0
LINE
  5
A21E
330
A059
100
AcDbEntity
  8
1
  6
Continuous
100
AcDbLine
 10
130.3905739999999
 20
83.39158000000002
 30
0.0
 11
199.8723999999999
 21
83.39158000000002
 31
0.0
  0
LINE
  5
A21F
330
A059
100
AcDbEntity
  8
1
  6
Continuous
100
AcDbLine
 10
130.3905739999999
 20
58.39158000000001
 30
0.0
 11
199.8723999999999
 21
58.39158000000001
 31
0.0
  0
ARC
  5
A220
330
A059
100
AcDbEntity
  8
1
  6
Continuous
100
AcDbCircle
 10
202.6314869999999
 20
70.89158000000002
 30
0.0
 40
75.0
100
AcDbArc
 50
171.730139
 51
188.269879
  0
ARC
  5
A221
330
A059
100
AcDbEntity
  8
1
  6
Continuous
100
AcDbCircle
 10
130.3905739999999
 20
60.39158
 30
0.0
 40
2.0
100
AcDbArc
 50
188.269879
 51
270.00002
  0
LINE
  5
A222
330
A059
100
AcDbEntity
  8
1
  6
Continuous
100
AcDbLine
 10
156.1314869999999
 20
55.89158000000001
 30
0.0
 11
174.131487
 21
55.89158000000001
 31
0.0
  0
LINE
  5
A223
330
A059
100
AcDbEntity
  8
1
  6
Continuous
100
AcDbLine
 10
155.1338839999999
 20
56.82238100000001
 30
0.0
 11
155.0250299999999
 21
58.39158000000001
 31
0.0
  0
ARC
  5
A224
330
A059
100
AcDbEntity
  8
1
  6
Continuous
100
AcDbCircle
 10
156.1314869999999
 20
56.89157999999999
 30
0.0
 40
1.0
100
AcDbArc
 50
183.968199
 51
270.00002
  0
LINE
  5
A225
330
A059
100
AcDbEntity
  8
1
  6
Continuous
100
AcDbLine
 10
175.1290909999999
 20
56.82238100000001
 30
0.0
 11
175.237944
 21
58.39158000000001
 31
0.0
  0
ARC
  5
A226
330
A059
100
AcDbEntity
  8
1
  6
Continuous
100
AcDbCircle
 10
174.131487
 20
56.89157999999999
 30
0.0
 40
1.0
100
AcDbArc
 50
269.99998
 51
356.0317999999999
  0
ARC
  5
A227
330
A059
100
AcDbEntity
  8
1
  6
Continuous
100
AcDbCircle
 10
130.3905739999999
 20
81.39158
 30
0.0
 40
2.0
100
AcDbArc
 50
90.0
 51
171.730139
  0
LINE
  5
A228
330
A059
100
AcDbEntity
  8
1
  6
Continuous
100
AcDbLine
 10
156.1314869999999
 20
85.89158000000002
 30
0.0
 11
174.131487
 21
85.89158000000002
 31
0.0
  0
ARC
  5
A229
330
A059
100
AcDbEntity
  8
1
  6
Continuous
100
AcDbCircle
 10
156.1314869999999
 20
84.89158000000001
 30
0.0
 40
1.0
100
AcDbArc
 50
90.0
 51
176.0318199999999
  0
LINE
  5
A22A
330
A059
100
AcDbEntity
  8
1
  6
Continuous
100
AcDbLine
 10
155.0250299999999
 20
83.39158000000002
 30
0.0
 11
155.133885
 21
84.96078199999997
 31
0.0
  0
ARC
  5
A22B
330
A059
100
AcDbEntity
  8
1
  6
Continuous
100
AcDbCircle
 10
174.131487
 20
84.89158000000001
 30
0.0
 40
1.0
100
AcDbArc
 50
3.96818
 51
90.0
  0
LINE
  5
A22C
330
A059
100
AcDbEntity
  8
1
  6
Continuous
100
AcDbLine
 10
175.237944
 20
83.39158000000002
 30
0.0
 11
175.1290899999999
 21
84.96078199999997
 31
0.0
  0
ARC
  5
A22D
330
A059
100
AcDbEntity
  8
1
  6
Continuous
100
AcDbCircle
 10
127.6314869999997
 20
70.89158000000002
 30
0.0
 40
75.0
100
AcDbArc
 50
351.7301199999999
 51
8.269860000000001
  0
ARC
  5
A22E
330
A059
100
AcDbEntity
  8
1
  6
Continuous
100
AcDbCircle
 10
199.8723999999999
 20
60.39158
 30
0.0
 40
2.0
100
AcDbArc
 50
269.99998
 51
351.7301199999999
  0
ARC
  5
A22F
330
A059
100
AcDbEntity
  8
1
  6
Continuous
100
AcDbCircle
 10
199.8723999999999
 20
81.39158
 30
0.0
 40
2.0
100
AcDbArc
 50
8.269860000000001
 51
90.0
  0
ARC
  5
A230
330
A059
100
AcDbEntity
  8
1
  6
Continuous
100
AcDbCircle
 10
420.131487
 20
179.89158
 30
0.0
 40
10.0
100
AcDbArc
 50
181.6677799999999
 51
36.608209
  0
ARC
  5
A231
330
A059
100
AcDbEntity
  8
1
  6
Continuous
100
AcDbCircle
 10
420.131487
 20
179.89158
 30
0.0
 40
37.5
100
AcDbArc
 50
136.712283
 51
82.259962
  0
ARC
  5
A232
330
A059
100
AcDbEntity
  8
1
  6
Continuous
100
AcDbCircle
 10
420.131487
 20
179.89158
 30
0.0
 40
31.799999
100
AcDbArc
 50
139.109746
 51
79.308187
  0
ARC
  5
A233
330
A059
100
AcDbEntity
  8
1
  6
Continuous
100
AcDbCircle
 10
445.6710909999998
 20
167.4556739999998
 30
0.0
 40
4.0
100
AcDbArc
 50
239.9999999999999
 51
299.9999799999999
  0
ARC
  5
A234
330
A059
100
AcDbEntity
  8
1
  6
Continuous
100
AcDbCircle
 10
443.6710839999998
 20
163.991573
 30
0.0
 40
4.0
100
AcDbArc
 50
0.000014
 51
59.999954
  0
ARC
  5
A235
330
A059
100
AcDbEntity
  8
1
  6
Continuous
100
AcDbCircle
 10
432.9649449999998
 20
174.79158
 30
0.0
 40
4.0
100
AcDbArc
 50
179.9999599999999
 51
239.99998
  0
LINE
  5
A236
330
A059
100
AcDbEntity
  8
1
  6
Continuous
100
AcDbLine
 10
445.671129
 20
167.4556959999998
 30
0.0
 11
432.9649749999998
 21
174.7915989999999
 31
0.0
  0
LINE
  5
A237
330
A059
100
AcDbEntity
  8
1
  6
Continuous
100
AcDbLine
 10
443.6711219999998
 20
163.9915919999999
 30
0.0
 11
430.964975
 21
171.3274949999999
 31
0.0
  0
ARC
  5
A238
330
A059
100
AcDbEntity
  8
1
  6
Continuous
100
AcDbCircle
 10
430.964945
 20
171.327479
 30
0.0
 40
4.0
100
AcDbArc
 50
59.999954
 51
119.99996
  0
LINE
  5
A239
330
A059
100
AcDbEntity
  8
1
  6
Continuous
100
AcDbLine
 10
394.591879
 20
167.4556849999999
 30
0.0
 11
407.2980249999998
 21
174.791581
 31
0.0
  0
LINE
  5
A23A
330
A059
100
AcDbEntity
  8
1
  6
Continuous
100
AcDbLine
 10
396.591879
 20
163.991575
 30
0.0
 11
409.298025
 21
171.32747
 31
0.0
  0
ARC
  5
A23B
330
A059
100
AcDbEntity
  8
1
  6
Continuous
100
AcDbCircle
 10
394.591879
 20
167.455687
 30
0.0
 40
4.0
100
AcDbArc
 50
240.00002
 51
299.9999599999998
  0
ARC
  5
A23C
330
A059
100
AcDbEntity
  8
1
  6
Continuous
100
AcDbCircle
 10
396.591879
 20
163.9915849999999
 30
0.0
 40
4.0
100
AcDbArc
 50
119.9999899999999
 51
179.9999899999999
  0
ARC
  5
A23D
330
A059
100
AcDbEntity
  8
1
  6
Continuous
100
AcDbCircle
 10
407.298029
 20
174.791582
 30
0.0
 40
4.0
100
AcDbArc
 50
299.9999599999998
 51
359.99997
  0
ARC
  5
A23E
330
A059
100
AcDbEntity
  8
1
  6
Continuous
100
AcDbCircle
 10
409.2980289999998
 20
171.327481
 30
0.0
 40
4.0
100
AcDbArc
 50
59.999988
 51
119.9999899999999
  0
ENDSEC
  0
SECTION
  2
OBJECTS
  0
DICTIONARY
  5
A047
330
0
100
AcDbDictionary
281
     1
  3
ACAD_CIP_PREVIOUS_PRODUCT_INFO
350
A2BB
  3
ACAD_COLOR
350
A29D
  3
ACAD_DETAILVIEWSTYLE
350
A2B6
  3
ACAD_GROUP
350
A048
  3
ACAD_LAYOUT
350
A054
  3
ACAD_MATERIAL
350
A26B
  3
ACAD_MLEADERSTYLE
350
A2B2
  3
ACAD_MLINESTYLE
350
A051
  3
ACAD_PLOTSETTINGS
350
A053
  3
ACAD_PLOTSTYLENAME
350
A269
  3
ACAD_SCALELIST
350
A2A0
  3
ACAD_SECTIONVIEWSTYLE
350
A2B4
  3
ACAD_TABLESTYLE
350
A29E
  3
ACAD_VISUALSTYLE
350
A284
  3
ACDB_RECOMPOSE_DATA
350
A2D9
  3
AcDbVariableDictionary
350
A2CC
  3
DWGPROPS
350
A2DA
  0
DICTIONARY
  5
A2BC
330
A04B
100
AcDbDictionary
280
     1
281
     1
  3
ADSK_XREC_LAYER_RECONCILED
360
A2BD
  0
DICTIONARY
  5
A2BE
330
A061
100
AcDbDictionary
280
     1
281
     1
  3
ADSK_XREC_LAYER_RECONCILED
360
A2BF
  0
DICTIONARY
  5
A2C0
330
A062
100
AcDbDictionary
280
     1
281
     1
  3
ADSK_XREC_LAYER_RECONCILED
360
A2C1
  0
DICTIONARY
  5
A2C2
330
A063
100
AcDbDictionary
280
     1
281
     1
  3
ADSK_XREC_LAYER_RECONCILED
360
A2C3
  0
DICTIONARY
  5
A2C4
330
A064
100
AcDbDictionary
280
     1
281
     1
  3
ADSK_XREC_LAYER_RECONCILED
360
A2C5
  0
DICTIONARY
  5
A2C6
330
A065
100
AcDbDictionary
280
     1
281
     1
  3
ADSK_XREC_LAYER_RECONCILED
360
A2C7
  0
DICTIONARY
  5
A2C8
330
A066
100
AcDbDictionary
280
     1
281
     1
  3
ADSK_XREC_LAYER_RECONCILED
360
A2C9
  0
DICTIONARY
  5
A2CA
330
A067
100
AcDbDictionary
280
     1
281
     1
  3
ADSK_XREC_LAYER_RECONCILED
360
A2CB
  0
DICTIONARY
  5
A249
330
A059
100
AcDbDictionary
281
     1
  3
ACAD_LAYOUTSELFREF
350
A265
  0
DICTIONARY
  5
A247
330
A055
100
AcDbDictionary
281
     1
  3
ACAD_LAYOUTSELFREF
350
A264
  0
XRECORD
  5
A2BB
102
{ACAD_REACTORS
330
A047
102
}
330
A047
100
AcDbXrecord
280
     1
300
ACDLT
300
2014
300
ACDLT_F_S
  0
DICTIONARY
  5
A29D
102
{ACAD_REACTORS
330
A047
102
}
330
A047
100
AcDbDictionary
281
     1
  0
DICTIONARY
  5
A2B6
102
{ACAD_REACTORS
330
A047
102
}
330
A047
100
AcDbDictionary
281
     1
  3
Imperial24
350
A2B7
  0
DICTIONARY
  5
A048
102
{ACAD_REACTORS
330
A047
102
}
330
A047
100
AcDbDictionary
281
     1
  0
DICTIONARY
  5
A054
102
{ACAD_REACTORS
330
A047
102
}
330
A047
100
AcDbDictionary
281
     1
  3
Model
350
A2B8
  3
レイアウト1
350
A2B9
  0
DICTIONARY
  5
A26B
102
{ACAD_REACTORS
330
A047
102
}
330
A047
100
AcDbDictionary
281
     1
  3
ByBlock
350
A274
  3
ByLayer
350
A26C
  3
Global
350
A27C
  0
DICTIONARY
  5
A2B2
102
{ACAD_REACTORS
330
A047
102
}
330
A047
100
AcDbDictionary
281
     1
  3
Standard
350
A2B3
  0
DICTIONARY
  5
A051
102
{ACAD_REACTORS
330
A047
102
}
330
A047
100
AcDbDictionary
281
     1
  3
STANDARD
350
A052
  0
DICTIONARY
  5
A053
102
{ACAD_REACTORS
330
A047
102
}
330
A047
100
AcDbDictionary
281
     1
  0
ACDBDICTIONARYWDFLT
  5
A269
102
{ACAD_REACTORS
330
A047
102
}
330
A047
100
AcDbDictionary
281
     1
  3
Normal
350
A26A
100
AcDbDictionaryWithDefault
340
A26A
  0
DICTIONARY
  5
A2A0
102
{ACAD_REACTORS
330
A047
102
}
330
A047
100
AcDbDictionary
281
     1
  3
A0
350
A2A1
  3
A1
350
A2A2
  3
A2
350
A2A3
  3
A3
350
A2A4
  3
A4
350
A2A5
  3
A5
350
A2A6
  3
A6
350
A2A7
  3
A7
350
A2A8
  3
A8
350
A2A9
  3
A9
350
A2AA
  3
B0
350
A2AB
  3
B1
350
A2AC
  3
B2
350
A2AD
  3
B3
350
A2AE
  3
B4
350
A2AF
  3
B5
350
A2B0
  3
B6
350
A2B1
  0
DICTIONARY
  5
A2B4
102
{ACAD_REACTORS
330
A047
102
}
330
A047
100
AcDbDictionary
281
     1
  3
Imperial24
350
A2B5
  0
DICTIONARY
  5
A29E
102
{ACAD_REACTORS
330
A047
102
}
330
A047
100
AcDbDictionary
281
     1
  3
Standard
350
A29F
  0
DICTIONARY
  5
A284
102
{ACAD_REACTORS
330
A047
102
}
330
A047
100
AcDbDictionary
281
     1
  3
2dWireframe
350
A28A
  3
Basic
350
A289
  3
Brighten
350
A290
  3
ColorChange
350
A294
  3
Conceptual
350
A28D
  3
Dim
350
A28F
  3
EdgeColorOff
350
A29C
  3
Facepattern
350
A293
  3
Flat
350
A285
  3
FlatWithEdges
350
A286
  3
Gouraud
350
A287
  3
GouraudWithEdges
350
A288
  3
Hidden
350
A28C
  3
JitterOff
350
A29A
  3
Linepattern
350
A292
  3
OverhangOff
350
A29B
  3
Realistic
350
A28E
  3
Shaded
350
A299
  3
Shaded with edges
350
A298
  3
Shades of Gray
350
A295
  3
Sketchy
350
A296
  3
Thicken
350
A291
  3
Wireframe
350
A28B
  3
X-Ray
350
A297
  0
XRECORD
  5
A2D9
102
{ACAD_REACTORS
330
A047
102
}
330
A047
100
AcDbXrecord
280
     1
 90
        1
330
A29F
  0
DICTIONARY
  5
A2CC
102
{ACAD_REACTORS
330
A047
102
}
330
A047
100
AcDbDictionary
281
     1
  3
CANNOSCALE
350
A2D1
  3
CMLEADERSTYLE
350
A2CE
  3
CTABLESTYLE
350
A2CD
  3
CVIEWDETAILSTYLE
350
A2CF
  3
CVIEWSECTIONSTYLE
350
A2D0
  3
DIMASSOC
350
A2D4
  3
INDEXCTL
350
A2D3
  3
SORTENTS
350
A2D2
  3
XCLIPFRAME
350
A2D5
  0
XRECORD
  5
A2DA
102
{ACAD_REACTORS
330
A047
102
}
330
A047
100
AcDbXrecord
280
     1
  1
DWGPROPS COOKIE
  2

  3

  4

  6

  7

  8
Yoshitsune
  9

300
=
301
=
302
=
303
=
304
=
305
=
306
=
307
=
308
=
309
=
 40
0.0953648958333334
 41
2451301.463616899
 42
2457192.690488843
  1

 90
        0
  0
XRECORD
  5
A2BD
102
{ACAD_REACTORS
330
A2BC
102
}
330
A2BC
100
AcDbXrecord
280
     1
290
     1
  0
XRECORD
  5
A2BF
102
{ACAD_REACTORS
330
A2BE
102
}
330
A2BE
100
AcDbXrecord
280
     1
290
     1
  0
XRECORD
  5
A2C1
102
{ACAD_REACTORS
330
A2C0
102
}
330
A2C0
100
AcDbXrecord
280
     1
290
     1
  0
XRECORD
  5
A2C3
102
{ACAD_REACTORS
330
A2C2
102
}
330
A2C2
100
AcDbXrecord
280
     1
290
     1
  0
XRECORD
  5
A2C5
102
{ACAD_REACTORS
330
A2C4
102
}
330
A2C4
100
AcDbXrecord
280
     1
290
     1
  0
XRECORD
  5
A2C7
102
{ACAD_REACTORS
330
A2C6
102
}
330
A2C6
100
AcDbXrecord
280
     1
290
     1
  0
XRECORD
  5
A2C9
102
{ACAD_REACTORS
330
A2C8
102
}
330
A2C8
100
AcDbXrecord
280
     1
290
     1
  0
XRECORD
  5
A2CB
102
{ACAD_REACTORS
330
A2CA
102
}
330
A2CA
100
AcDbXrecord
280
     1
290
     1
  0
XRECORD
  5
A265
102
{ACAD_REACTORS
330
A249
102
}
330
A249
100
AcDbXrecord
280
     1
340
A059
  0
XRECORD
  5
A264
102
{ACAD_REACTORS
330
A247
102
}
330
A247
100
AcDbXrecord
280
     1
340
A055
  0
ACDBDETAILVIEWSTYLE
  5
A2B7
102
{ACAD_XDICTIONARY
360
A312
102
}
102
{ACAD_REACTORS
330
A2B6
102
}
330
A2B6
100
AcDbModelDocViewStyle
 70
     0
  3
Imperial24
290
     0
100
AcDbDetailViewStyle
 70
     0
 71
     0
 90
        3
 71
     1
340
A04C
 40
0.24
340
0
 40
0.24
300

 40
0.36
280
     3
 71
     2
340
A050
 90
       25
 71
     3
340
A04C
 40
0.24
 90
        1
 40
0.75
 90
        1
300
%<\AcVar ViewType \f "%tc1">% %<\AcVar ViewDetailId>%\PSCALE %<\AcVar ViewScale \f "%sn">%
 71
     4
340
A050
 90
       25
340
A050
 90
       25
280
     0
  0
LAYOUT
  5
A2B8
102
{ACAD_XDICTIONARY
360
A314
102
}
102
{ACAD_REACTORS
330
A054
102
}
330
A054
100
AcDbPlotSettings
  1

  2
Canon LBP9100C
  4

  6

 40
0.0
 41
0.0
 42
0.0
 43
0.0
 44
0.0
 45
0.0
 46
0.0
 47
0.0
 48
0.0
 49
0.0
140
0.0
141
0.0
142
1.0
143
1.0
 70
  1712
 72
     0
 73
     0
 74
     0
  7

 75
     0
147
1.0
148
0.0
149
0.0
100
AcDbLayout
  1
Model
 70
     1
 71
     0
 10
0.0
 20
0.0
 11
12.0
 21
9.0
 12
0.0
 22
0.0
 32
0.0
 14
0.0
 24
0.0
 34
0.0
 15
0.0
 25
0.0
 35
0.0
146
0.0
 13
0.0
 23
0.0
 33
0.0
 16
1.0
 26
0.0
 36
0.0
 17
0.0
 27
1.0
 37
0.0
 76
     0
330
A059
331
A263
  0
LAYOUT
  5
A2B9
102
{ACAD_XDICTIONARY
360
A316
102
}
102
{ACAD_REACTORS
330
A054
102
}
330
A054
100
AcDbPlotSettings
  1

  2
Canon LBP9100C
  4

  6

 40
0.0
 41
0.0
 42
0.0
 43
0.0
 44
0.0
 45
0.0
 46
0.0
 47
0.0
 48
0.0
 49
0.0
140
0.0
141
0.0
142
1.0
143
1.0
 70
   688
 72
     0
 73
     0
 74
     5
  7

 75
    16
147
1.0
148
0.0
149
0.0
100
AcDbLayout
  1
レイアウト1
 70
     0
 71
     1
 10
0.0
 20
0.0
 11
420.0
 21
297.0
 12
0.0
 22
0.0
 32
0.0
 14
1.000000000000000E+20
 24
1.000000000000000E+20
 34
1.000000000000000E+20
 15
-1.000000000000000E+20
 25
-1.000000000000000E+20
 35
-1.000000000000000E+20
146
0.0
 13
0.0
 23
0.0
 33
0.0
 16
1.0
 26
0.0
 36
0.0
 17
0.0
 27
1.0
 37
0.0
 76
     0
330
A055
  0
MATERIAL
  5
A274
102
{ACAD_XDICTIONARY
360
A275
102
}
102
{ACAD_REACTORS
330
A26B
102
}
330
A26B
100
AcDbMaterial
  1
ByBlock
 72
     0
 43
0.0208333333333333
 43
0.0
 43
0.0
 43
0.0
 43
0.0
 43
0.0208333333333333
 43
0.0
 43
0.0
 43
0.0
 43
0.0
 43
1.0
 43
0.0
 43
0.0
 43
0.0
 43
0.0
 43
1.0
 77
     0
 47
0.0208333333333333
 47
0.0
 47
0.0
 47
0.0
 47
0.0
 47
0.0208333333333333
 47
0.0
 47
0.0
 47
0.0
 47
0.0
 47
1.0
 47
0.0
 47
0.0
 47
0.0
 47
0.0
 47
1.0
171
     0
 49
0.0208333333333333
 49
0.0
 49
0.0
 49
0.0
 49
0.0
 49
0.0208333333333333
 49
0.0
 49
0.0
 49
0.0
 49
0.0
 49
1.0
 49
0.0
 49
0.0
 49
0.0
 49
0.0
 49
1.0
175
     0
142
0.0208333333333333
142
0.0
142
0.0
142
0.0
142
0.0
142
0.0208333333333333
142
0.0
142
0.0
142
0.0
142
0.0
142
1.0
142
0.0
142
0.0
142
0.0
142
0.0
142
1.0
179
     0
144
0.0208333333333333
144
0.0
144
0.0
144
0.0
144
0.0
144
0.0208333333333333
144
0.0
144
0.0
144
0.0
144
0.0
144
1.0
144
0.0
144
0.0
144
0.0
144
0.0
144
1.0
147
0.0208333333333333
147
0.0
147
0.0
147
0.0
147
0.0
147
0.0208333333333333
147
0.0
147
0.0
147
0.0
147
0.0
147
1.0
147
0.0
147
0.0
147
0.0
147
0.0
147
1.0
  0
MATERIAL
  5
A26C
102
{ACAD_XDICTIONARY
360
A26D
102
}
102
{ACAD_REACTORS
330
A26B
102
}
330
A26B
100
AcDbMaterial
  1
ByLayer
 72
     0
 43
0.0208333333333333
 43
0.0
 43
0.0
 43
0.0
 43
0.0
 43
0.0208333333333333
 43
0.0
 43
0.0
 43
0.0
 43
0.0
 43
1.0
 43
0.0
 43
0.0
 43
0.0
 43
0.0
 43
1.0
 77
     0
 47
0.0208333333333333
 47
0.0
 47
0.0
 47
0.0
 47
0.0
 47
0.0208333333333333
 47
0.0
 47
0.0
 47
0.0
 47
0.0
 47
1.0
 47
0.0
 47
0.0
 47
0.0
 47
0.0
 47
1.0
171
     0
 49
0.0208333333333333
 49
0.0
 49
0.0
 49
0.0
 49
0.0
 49
0.0208333333333333
 49
0.0
 49
0.0
 49
0.0
 49
0.0
 49
1.0
 49
0.0
 49
0.0
 49
0.0
 49
0.0
 49
1.0
175
     0
142
0.0208333333333333
142
0.0
142
0.0
142
0.0
142
0.0
142
0.0208333333333333
142
0.0
142
0.0
142
0.0
142
0.0
142
1.0
142
0.0
142
0.0
142
0.0
142
0.0
142
1.0
179
     0
144
0.0208333333333333
144
0.0
144
0.0
144
0.0
144
0.0
144
0.0208333333333333
144
0.0
144
0.0
144
0.0
144
0.0
144
1.0
144
0.0
144
0.0
144
0.0
144
0.0
144
1.0
147
0.0208333333333333
147
0.0
147
0.0
147
0.0
147
0.0
147
0.0208333333333333
147
0.0
147
0.0
147
0.0
147
0.0
147
1.0
147
0.0
147
0.0
147
0.0
147
0.0
147
1.0
  0
MATERIAL
  5
A27C
102
{ACAD_XDICTIONARY
360
A27D
102
}
102
{ACAD_REACTORS
330
A26B
102
}
330
A26B
100
AcDbMaterial
  1
Global
 72
     0
 43
0.0208333333333333
 43
0.0
 43
0.0
 43
0.0
 43
0.0
 43
0.0208333333333333
 43
0.0
 43
0.0
 43
0.0
 43
0.0
 43
1.0
 43
0.0
 43
0.0
 43
0.0
 43
0.0
 43
1.0
 77
     0
 47
0.0208333333333333
 47
0.0
 47
0.0
 47
0.0
 47
0.0
 47
0.0208333333333333
 47
0.0
 47
0.0
 47
0.0
 47
0.0
 47
1.0
 47
0.0
 47
0.0
 47
0.0
 47
0.0
 47
1.0
171
     0
 49
0.0208333333333333
 49
0.0
 49
0.0
 49
0.0
 49
0.0
 49
0.0208333333333333
 49
0.0
 49
0.0
 49
0.0
 49
0.0
 49
1.0
 49
0.0
 49
0.0
 49
0.0
 49
0.0
 49
1.0
175
     0
142
0.0208333333333333
142
0.0
142
0.0
142
0.0
142
0.0
142
0.0208333333333333
142
0.0
142
0.0
142
0.0
142
0.0
142
1.0
142
0.0
142
0.0
142
0.0
142
0.0
142
1.0
179
     0
144
0.0208333333333333
144
0.0
144
0.0
144
0.0
144
0.0
144
0.0208333333333333
144
0.0
144
0.0
144
0.0
144
0.0
144
1.0
144
0.0
144
0.0
144
0.0
144
0.0
144
1.0
147
0.0208333333333333
147
0.0
147
0.0
147
0.0
147
0.0
147
0.0208333333333333
147
0.0
147
0.0
147
0.0
147
0.0
147
1.0
147
0.0
147
0.0
147
0.0
147
0.0
147
1.0
  0
MLEADERSTYLE
  5
A2B3
102
{ACAD_REACTORS
330
A2B2
102
}
330
A2B2
100
AcDbMLeaderStyle
170
     2
171
     1
172
     0
 90
        2
 40
0.0
 41
0.0
173
     1
 91
-1056964608
340
A04E
 92
       -2
290
     1
 42
0.09
291
     1
 43
0.36
  3
Standard
 44
0.18
300

342
A04C
174
     1
178
     6
175
     1
176
     0
 93
-1056964608
 45
0.18
292
     0
297
     0
 46
0.18
 94
-1056964608
 47
1.0
 49
1.0
140
1.0
293
     1
141
0.0
294
     1
177
     0
142
1.0
295
     0
296
     0
143
0.125
1001
ACAD_MLEADERVER
1070
     2
  0
MLINESTYLE
  5
A052
102
{ACAD_REACTORS
330
A051
102
}
330
A051
100
AcDbMlineStyle
  2
STANDARD
 70
     0
  3

 62
   256
 51
90.0
 52
90.0
 71
     2
 49
0.5
 62
   256
  6
BYLAYER
 49
-0.5
 62
   256
  6
BYLAYER
  0
ACDBPLACEHOLDER
  5
A26A
102
{ACAD_REACTORS
330
A269
102
}
330
A269
  0
SCALE
  5
A2A1
102
{ACAD_REACTORS
330
A2A0
102
}
330
A2A0
100
AcDbScale
 70
     0
300
1:1
140
1.0
141
1.0
290
     1
  0
SCALE
  5
A2A2
102
{ACAD_REACTORS
330
A2A0
102
}
330
A2A0
100
AcDbScale
 70
     0
300
1/128" = 1'-0"
140
0.0078125
141
12.0
290
     0
  0
SCALE
  5
A2A3
102
{ACAD_REACTORS
330
A2A0
102
}
330
A2A0
100
AcDbScale
 70
     0
300
1/64" = 1'-0"
140
0.015625
141
12.0
290
     0
  0
SCALE
  5
A2A4
102
{ACAD_REACTORS
330
A2A0
102
}
330
A2A0
100
AcDbScale
 70
     0
300
1/32" = 1'-0"
140
0.03125
141
12.0
290
     0
  0
SCALE
  5
A2A5
102
{ACAD_REACTORS
330
A2A0
102
}
330
A2A0
100
AcDbScale
 70
     0
300
1/16" = 1'-0"
140
0.0625
141
12.0
290
     0
  0
SCALE
  5
A2A6
102
{ACAD_REACTORS
330
A2A0
102
}
330
A2A0
100
AcDbScale
 70
     0
300
3/32" = 1'-0"
140
0.09375
141
12.0
290
     0
  0
SCALE
  5
A2A7
102
{ACAD_REACTORS
330
A2A0
102
}
330
A2A0
100
AcDbScale
 70
     0
300
1/8" = 1'-0"
140
0.125
141
12.0
290
     0
  0
SCALE
  5
A2A8
102
{ACAD_REACTORS
330
A2A0
102
}
330
A2A0
100
AcDbScale
 70
     0
300
3/16" = 1'-0"
140
0.1875
141
12.0
290
     0
  0
SCALE
  5
A2A9
102
{ACAD_REACTORS
330
A2A0
102
}
330
A2A0
100
AcDbScale
 70
     0
300
1/4" = 1'-0"
140
0.25
141
12.0
290
     0
  0
SCALE
  5
A2AA
102
{ACAD_REACTORS
330
A2A0
102
}
330
A2A0
100
AcDbScale
 70
     0
300
3/8" = 1'-0"
140
0.375
141
12.0
290
     0
  0
SCALE
  5
A2AB
102
{ACAD_REACTORS
330
A2A0
102
}
330
A2A0
100
AcDbScale
 70
     0
300
1/2" = 1'-0"
140
0.5
141
12.0
290
     0
  0
SCALE
  5
A2AC
102
{ACAD_REACTORS
330
A2A0
102
}
330
A2A0
100
AcDbScale
 70
     0
300
3/4" = 1'-0"
140
0.75
141
12.0
290
     0
  0
SCALE
  5
A2AD
102
{ACAD_REACTORS
330
A2A0
102
}
330
A2A0
100
AcDbScale
 70
     0
300
1" = 1'-0"
140
1.0
141
12.0
290
     0
  0
SCALE
  5
A2AE
102
{ACAD_REACTORS
330
A2A0
102
}
330
A2A0
100
AcDbScale
 70
     0
300
1-1/2" = 1'-0"
140
1.5
141
12.0
290
     0
  0
SCALE
  5
A2AF
102
{ACAD_REACTORS
330
A2A0
102
}
330
A2A0
100
AcDbScale
 70
     0
300
3" = 1'-0"
140
3.0
141
12.0
290
     0
  0
SCALE
  5
A2B0
102
{ACAD_REACTORS
330
A2A0
102
}
330
A2A0
100
AcDbScale
 70
     0
300
6" = 1'-0"
140
6.0
141
12.0
290
     0
  0
SCALE
  5
A2B1
102
{ACAD_REACTORS
330
A2A0
102
}
330
A2A0
100
AcDbScale
 70
     0
300
1'-0" = 1'-0"
140
12.0
141
12.0
290
     0
  0
ACDBSECTIONVIEWSTYLE
  5
A2B5
102
{ACAD_XDICTIONARY
360
A310
102
}
102
{ACAD_REACTORS
330
A2B4
102
}
330
A2B4
100
AcDbModelDocViewStyle
 70
     0
  3
Imperial24
290
     0
100
AcDbSectionViewStyle
 70
     0
 71
     0
 90
       78
 71
     1
340
A04C
 40
0.24
340
0
340
0
 40
0.24
300
I, O, Q, S, X, Z
 40
0.48
 90
        3
 40
0.18
 90
        1
 71
     2
340
A050
 90
       25
340
A050
 90
       50
 40
0.24
 40
0.0
 40
0.24
 71
     3
340
A04C
 40
0.24
 90
        1
 40
0.75
 90
        1
300
%<\AcVar ViewType \f "%tc1">% %<\AcVar ViewSectionStartId>%-%<\AcVar ViewSectionEndId>%\PSCALE %<\AcVar ViewScale \f "%sn">%
 71
     4
300
ANSI31
 40
1.0
 90
        0
290
     0
290
     0
 90
        6
 40
0.0
 40
1.570796326794896
 40
0.2617993877991494
 40
1.308996938995747
 40
-0.2617993877991494
 40
1.832595714594046
  0
TABLESTYLE
  5
A29F
102
{ACAD_XDICTIONARY
360
A2D7
102
}
102
{ACAD_REACTORS
330
A29E
102
}
330
A29E
100
AcDbTableStyle
  3
Standard
 70
     0
 71
     0
 40
0.06
 41
0.06
280
     0
281
     0
  7
STANDARD
140
0.18
170
     2
 62
     0
 63
     7
283
     0
274
    -2
284
     1
 64
     0
275
    -2
285
     1
 65
     0
276
    -2
286
     1
 66
     0
277
    -2
287
     1
 67
     0
278
    -2
288
     1
 68
     0
279
    -2
289
     1
 69
     0
  7
STANDARD
140
0.25
170
     5
 62
     0
 63
     7
283
     0
274
    -2
284
     1
 64
     0
275
    -2
285
     1
 65
     0
276
    -2
286
     1
 66
     0
277
    -2
287
     1
 67
     0
278
    -2
288
     1
 68
     0
279
    -2
289
     1
 69
     0
  7
STANDARD
140
0.18
170
     5
 62
     0
 63
     7
283
     0
274
    -2
284
     1
 64
     0
275
    -2
285
     1
 65
     0
276
    -2
286
     1
 66
     0
277
    -2
287
     1
 67
     0
278
    -2
288
     1
 68
     0
279
    -2
289
     1
 69
     0
  0
VISUALSTYLE
  5
A28A
102
{ACAD_XDICTIONARY
360
A2E8
102
}
102
{ACAD_REACTORS
330
A284
102
}
330
A284
100
AcDbVisualStyle
  2
2dWireframe
 70
     4
 71
     0
 72
     2
 73
     0
 90
        0
 40
-0.6
 41
-30.0
 62
     5
 63
     7
 74
     1
 91
        4
 64
     7
 65
   257
 75
     1
175
     1
 42
1.0
 92
        0
 66
   257
 43
1.0
 76
     1
 77
     6
 78
     2
 67
     7
 79
     5
170
     0
171
     0
290
     0
174
     0
 93
        1
 44
0.0
173
     0
291
     0
 45
0.0
1001
ACAD
1000
AcDbSavedByObjectVersion
1070
     0
  0
VISUALSTYLE
  5
A289
102
{ACAD_XDICTIONARY
360
A2E6
102
}
102
{ACAD_REACTORS
330
A284
102
}
330
A284
100
AcDbVisualStyle
  2
Basic
 70
     7
 71
     1
 72
     0
 73
     1
 90
        0
 40
-0.6
 41
-30.0
 62
     5
 63
     7
 74
     0
 91
        4
 64
     7
 65
   257
 75
     1
175
     1
 42
1.0
 92
        8
 66
     7
 43
1.0
 76
     1
 77
     6
 78
     2
 67
     7
 79
     5
170
     0
171
     0
290
     0
174
     0
 93
        1
 44
0.0
173
     0
291
     1
 45
0.0
1001
ACAD
1000
AcDbSavedByObjectVersion
1070
     0
  0
VISUALSTYLE
  5
A290
102
{ACAD_XDICTIONARY
360
A2F4
102
}
102
{ACAD_REACTORS
330
A284
102
}
330
A284
100
AcDbVisualStyle
  2
Brighten
 70
    12
 71
     2
 72
     2
 73
     0
 90
        0
 40
-0.6
 41
-30.0
 62
     5
 63
     7
 74
     1
 91
        4
 64
     7
 65
   257
 75
     1
175
     1
 42
1.0
 92
        8
 66
     7
 43
1.0
 76
     1
 77
     6
 78
     2
 67
     7
 79
     5
170
     0
171
     0
290
     0
174
     0
 93
        1
 44
50.0
173
     0
291
     1
 45
0.0
1001
ACAD
1000
AcDbSavedByObjectVersion
1070
     0
  0
VISUALSTYLE
  5
A294
102
{ACAD_XDICTIONARY
360
A2FC
102
}
102
{ACAD_REACTORS
330
A284
102
}
330
A284
100
AcDbVisualStyle
  2
ColorChange
 70
    16
 71
     2
 72
     2
 73
     3
 90
        0
 40
-0.6
 41
-30.0
 62
     5
 63
     8
 74
     1
 91
        4
 64
     7
 65
   257
 75
     1
175
     1
 42
1.0
 92
        8
 66
     8
 43
1.0
 76
     1
 77
     6
 78
     2
 67
     7
 79
     5
170
     0
171
     0
290
     0
174
     0
 93
        1
 44
0.0
173
     0
291
     1
 45
0.0
1001
ACAD
1000
AcDbSavedByObjectVersion
1070
     0
  0
VISUALSTYLE
  5
A28D
102
{ACAD_XDICTIONARY
360
A2EE
102
}
102
{ACAD_REACTORS
330
A284
102
}
330
A284
100
AcDbVisualStyle
  2
Conceptual
 70
     9
 71
     3
 72
     2
 73
     0
 90
        0
 40
-0.6
 41
-30.0
 62
     5
 63
     7
 74
     2
 91
        2
 64
     7
 65
   257
 75
     1
175
     1
 42
179.0
 92
        8
 66
     7
 43
1.0
 76
     1
 77
     6
 78
     2
 67
     7
 79
     3
170
     0
171
     0
290
     0
174
     0
 93
        1
 44
0.0
173
     0
291
     0
 45
0.0
1001
ACAD
1000
AcDbSavedByObjectVersion
1070
     0
  0
VISUALSTYLE
  5
A28F
102
{ACAD_XDICTIONARY
360
A2F2
102
}
102
{ACAD_REACTORS
330
A284
102
}
330
A284
100
AcDbVisualStyle
  2
Dim
 70
    11
 71
     2
 72
     2
 73
     0
 90
        0
 40
-0.6
 41
-30.0
 62
     5
 63
     7
 74
     1
 91
        4
 64
     7
 65
   257
 75
     1
175
     1
 42
1.0
 92
        8
 66
     7
 43
1.0
 76
     1
 77
     6
 78
     2
 67
     7
 79
     5
170
     0
171
     0
290
     0
174
     0
 93
        1
 44
-50.0
173
     0
291
     1
 45
0.0
1001
ACAD
1000
AcDbSavedByObjectVersion
1070
     0
  0
VISUALSTYLE
  5
A29C
102
{ACAD_XDICTIONARY
360
A30C
102
}
102
{ACAD_REACTORS
330
A284
102
}
330
A284
100
AcDbVisualStyle
  2
EdgeColorOff
 70
    22
 71
     2
 72
     2
 73
     0
 90
        0
 40
-0.6
 41
-30.0
 62
     5
 63
     7
 74
     1
 91
        4
 64
     7
 65
   257
 75
     1
175
     1
 42
1.0
 92
        8
 66
     7
 43
1.0
 76
     1
 77
     6
 78
     2
 67
     7
 79
     5
170
     0
171
     0
290
     0
174
     0
 93
        1
 44
0.0
173
     0
291
     1
 45
0.0
1001
ACAD
1000
AcDbSavedByObjectVersion
1070
     0
  0
VISUALSTYLE
  5
A293
102
{ACAD_XDICTIONARY
360
A2FA
102
}
102
{ACAD_REACTORS
330
A284
102
}
330
A284
100
AcDbVisualStyle
  2
Facepattern
 70
    15
 71
     2
 72
     2
 73
     0
 90
        0
 40
-0.6
 41
-30.0
 62
     5
 63
     7
 74
     1
 91
        4
 64
     7
 65
   257
 75
     1
175
     1
 42
1.0
 92
        8
 66
     7
 43
1.0
 76
     1
 77
     6
 78
     2
 67
     7
 79
     5
170
     0
171
     0
290
     0
174
     0
 93
        1
 44
0.0
173
     0
291
     1
 45
0.0
1001
ACAD
1000
AcDbSavedByObjectVersion
1070
     0
  0
VISUALSTYLE
  5
A285
102
{ACAD_XDICTIONARY
360
A2DE
102
}
102
{ACAD_REACTORS
330
A284
102
}
330
A284
100
AcDbVisualStyle
  2
Flat
 70
     0
 71
     2
 72
     1
 73
     1
 90
        2
 40
-0.6
 41
30.0
 62
     5
 63
     7
 74
     0
 91
        0
 64
     7
 65
   257
 75
     1
175
     1
 42
1.0
 92
        8
 66
     7
 43
1.0
 76
     1
 77
     6
 78
     2
 67
     7
 79
     5
170
     0
171
     0
290
     0
174
     0
 93
       13
 44
0.0
173
     0
291
     1
 45
0.0
1001
ACAD
1000
AcDbSavedByObjectVersion
1070
     0
  0
VISUALSTYLE
  5
A286
102
{ACAD_XDICTIONARY
360
A2E0
102
}
102
{ACAD_REACTORS
330
A284
102
}
330
A284
100
AcDbVisualStyle
  2
FlatWithEdges
 70
     1
 71
     2
 72
     1
 73
     1
 90
        2
 40
-0.6
 41
30.0
 62
     5
 63
     7
 74
     1
 91
        0
 64
     7
 65
   257
 75
     1
175
     1
 42
1.0
 92
        0
 66
   257
 43
1.0
 76
     1
 77
     6
 78
     2
 67
     7
 79
     5
170
     0
171
     0
290
     0
174
     0
 93
       13
 44
0.0
173
     0
291
     1
 45
0.0
1001
ACAD
1000
AcDbSavedByObjectVersion
1070
     0
  0
VISUALSTYLE
  5
A287
102
{ACAD_XDICTIONARY
360
A2E2
102
}
102
{ACAD_REACTORS
330
A284
102
}
330
A284
100
AcDbVisualStyle
  2
Gouraud
 70
     2
 71
     2
 72
     2
 73
     1
 90
        2
 40
-0.6
 41
30.0
 62
     5
 63
     7
 74
     0
 91
        0
 64
     7
 65
   257
 75
     1
175
     1
 42
1.0
 92
        0
 66
     7
 43
1.0
 76
     1
 77
     6
 78
     2
 67
     7
 79
     5
170
     0
171
     0
290
     0
174
     0
 93
       13
 44
0.0
173
     0
291
     1
 45
0.0
1001
ACAD
1000
AcDbSavedByObjectVersion
1070
     0
  0
VISUALSTYLE
  5
A288
102
{ACAD_XDICTIONARY
360
A2E4
102
}
102
{ACAD_REACTORS
330
A284
102
}
330
A284
100
AcDbVisualStyle
  2
GouraudWithEdges
 70
     3
 71
     2
 72
     2
 73
     1
 90
        2
 40
-0.6
 41
30.0
 62
     5
 63
     7
 74
     1
 91
        0
 64
     7
 65
   257
 75
     1
175
     1
 42
1.0
 92
        0
 66
   257
 43
1.0
 76
     1
 77
     6
 78
     2
 67
     7
 79
     5
170
     0
171
     0
290
     0
174
     0
 93
       13
 44
0.0
173
     0
291
     1
 45
0.0
1001
ACAD
1000
AcDbSavedByObjectVersion
1070
     0
  0
VISUALSTYLE
  5
A28C
102
{ACAD_XDICTIONARY
360
A2EC
102
}
102
{ACAD_REACTORS
330
A284
102
}
330
A284
100
AcDbVisualStyle
  2
Hidden
 70
     6
 71
     1
 72
     2
 73
     2
 90
        0
 40
-0.6
 41
-30.0
 62
     5
 63
     7
 74
     2
 91
        2
 64
     7
 65
   257
 75
     2
175
     1
 42
40.0
 92
        0
 66
   257
 43
1.0
 76
     1
 77
     6
 78
     2
 67
     7
 79
     3
170
     0
171
     0
290
     0
174
     0
 93
        1
 44
0.0
173
     0
291
     0
 45
0.0
1001
ACAD
1000
AcDbSavedByObjectVersion
1070
     0
  0
VISUALSTYLE
  5
A29A
102
{ACAD_XDICTIONARY
360
A308
102
}
102
{ACAD_REACTORS
330
A284
102
}
330
A284
100
AcDbVisualStyle
  2
JitterOff
 70
    20
 71
     2
 72
     2
 73
     0
 90
        0
 40
-0.6
 41
-30.0
 62
     5
 63
     7
 74
     1
 91
        4
 64
     7
 65
   257
 75
     1
175
     1
 42
1.0
 92
       10
 66
     7
 43
1.0
 76
     1
 77
     6
 78
     2
 67
     7
 79
     5
170
     0
171
     0
290
     0
174
     0
 93
        1
 44
0.0
173
     0
291
     1
 45
0.0
1001
ACAD
1000
AcDbSavedByObjectVersion
1070
     0
  0
VISUALSTYLE
  5
A292
102
{ACAD_XDICTIONARY
360
A2F8
102
}
102
{ACAD_REACTORS
330
A284
102
}
330
A284
100
AcDbVisualStyle
  2
Linepattern
 70
    14
 71
     2
 72
     2
 73
     0
 90
        0
 40
-0.6
 41
-30.0
 62
     5
 63
     7
 74
     1
 91
        4
 64
     7
 65
   257
 75
     7
175
     7
 42
1.0
 92
        8
 66
     7
 43
1.0
 76
     1
 77
     6
 78
     2
 67
     7
 79
     5
170
     0
171
     0
290
     0
174
     0
 93
        1
 44
0.0
173
     0
291
     1
 45
0.0
1001
ACAD
1000
AcDbSavedByObjectVersion
1070
     0
  0
VISUALSTYLE
  5
A29B
102
{ACAD_XDICTIONARY
360
A30A
102
}
102
{ACAD_REACTORS
330
A284
102
}
330
A284
100
AcDbVisualStyle
  2
OverhangOff
 70
    21
 71
     2
 72
     2
 73
     0
 90
        0
 40
-0.6
 41
-30.0
 62
     5
 63
     7
 74
     1
 91
        4
 64
     7
 65
   257
 75
     1
175
     1
 42
1.0
 92
        9
 66
     7
 43
1.0
 76
     1
 77
     6
 78
     2
 67
     7
 79
     5
170
     0
171
     0
290
     0
174
     0
 93
        1
 44
0.0
173
     0
291
     1
 45
0.0
1001
ACAD
1000
AcDbSavedByObjectVersion
1070
     0
  0
VISUALSTYLE
  5
A28E
102
{ACAD_XDICTIONARY
360
A2F0
102
}
102
{ACAD_REACTORS
330
A284
102
}
330
A284
100
AcDbVisualStyle
  2
Realistic
 70
     8
 71
     2
 72
     3
 73
     0
 90
        2
 40
-0.6
 41
30.0
 62
     5
 63
     7
 74
     0
 91
        0
 64
     7
 65
   257
 75
     1
175
     1
 42
1.0
 92
        8
 66
   257
 43
1.0
 76
     1
 77
     6
 78
     2
 67
     7
 79
     3
170
     0
171
     0
290
     0
174
     0
 93
       13
 44
0.0
173
     0
291
     0
 45
0.0
1001
ACAD
1000
AcDbSavedByObjectVersion
1070
     0
  0
VISUALSTYLE
  5
A299
102
{ACAD_XDICTIONARY
360
A306
102
}
102
{ACAD_REACTORS
330
A284
102
}
330
A284
100
AcDbVisualStyle
  2
Shaded
 70
    27
 71
     2
 72
     2
 73
     1
 90
        2
 40
-0.6
 41
30.0
 62
     5
 63
     7
 74
     0
 91
        4
 64
     7
 65
   257
 75
     1
175
     1
 42
1.0
 92
        8
 66
   257
 43
1.0
 76
     1
 77
     6
 78
     2
 67
     8
 79
     3
170
     0
171
     0
290
     0
174
     0
 93
        5
 44
0.0
173
     0
291
     0
 45
0.0
1001
ACAD
1000
AcDbSavedByObjectVersion
1070
     0
  0
VISUALSTYLE
  5
A298
102
{ACAD_XDICTIONARY
360
A304
102
}
102
{ACAD_REACTORS
330
A284
102
}
330
A284
100
AcDbVisualStyle
  2
Shaded with edges
 70
    26
 71
     2
 72
     2
 73
     1
 90
        2
 40
-0.6
 41
30.0
 62
     5
 63
     7
 74
     1
 91
       10
 64
     7
 65
   257
 75
     2
175
     1
 42
1.0
 92
        8
 66
   257
 43
1.0
 76
     1
 77
     6
 78
     2
 67
     7
 79
     3
170
     0
171
     0
290
     0
174
     0
 93
        5
 44
0.0
173
     0
291
     0
 45
0.0
1001
ACAD
1000
AcDbSavedByObjectVersion
1070
     0
  0
VISUALSTYLE
  5
A295
102
{ACAD_XDICTIONARY
360
A2FE
102
}
102
{ACAD_REACTORS
330
A284
102
}
330
A284
100
AcDbVisualStyle
  2
Shades of Gray
 70
    23
 71
     2
 72
     2
 73
     3
 90
        0
 40
-0.6
 41
-30.0
 62
     5
 63
     7
 74
     2
 91
        2
 64
     7
 65
     7
 75
     1
175
     1
 42
40.0
 92
        8
 66
     7
 43
1.0
 76
     1
 77
     6
 78
     2
 67
     7
 79
     3
170
     0
171
     0
290
     0
174
     0
 93
        1
 44
0.0
173
     0
291
     0
 45
0.0
1001
ACAD
1000
AcDbSavedByObjectVersion
1070
     0
  0
VISUALSTYLE
  5
A296
102
{ACAD_XDICTIONARY
360
A300
102
}
102
{ACAD_REACTORS
330
A284
102
}
330
A284
100
AcDbVisualStyle
  2
Sketchy
 70
    24
 71
     1
 72
     2
 73
     2
 90
        0
 40
-0.6
 41
-30.0
 62
     5
 63
     7
 74
     2
 91
        2
 64
     7
 65
     7
 75
     1
175
     1
 42
40.0
 92
       11
 66
     7
 43
1.0
 76
     1
 77
     6
 78
     2
 67
     7
 79
     6
170
     0
171
     0
290
     0
174
     0
 93
        1
 44
0.0
173
     0
291
     0
 45
0.0
1001
ACAD
1000
AcDbSavedByObjectVersion
1070
     0
  0
VISUALSTYLE
  5
A291
102
{ACAD_XDICTIONARY
360
A2F6
102
}
102
{ACAD_REACTORS
330
A284
102
}
330
A284
100
AcDbVisualStyle
  2
Thicken
 70
    13
 71
     2
 72
     2
 73
     0
 90
        0
 40
-0.6
 41
-30.0
 62
     5
 63
     7
 74
     1
 91
        4
 64
     7
 65
   257
 75
     1
175
     1
 42
1.0
 92
       12
 66
     7
 43
1.0
 76
     1
 77
     6
 78
     2
 67
     7
 79
     5
170
     0
171
     0
290
     0
174
     0
 93
        1
 44
0.0
173
     0
291
     1
 45
0.0
1001
ACAD
1000
AcDbSavedByObjectVersion
1070
     0
  0
VISUALSTYLE
  5
A28B
102
{ACAD_XDICTIONARY
360
A2EA
102
}
102
{ACAD_REACTORS
330
A284
102
}
330
A284
100
AcDbVisualStyle
  2
Wireframe
 70
     5
 71
     0
 72
     2
 73
     0
 90
        0
 40
-0.6
 41
-30.0
 62
     5
 63
     7
 74
     1
 91
        4
 64
     7
 65
   257
 75
     1
175
     1
 42
1.0
 92
        0
 66
   257
 43
1.0
 76
     1
 77
     6
 78
     2
 67
     7
 79
     3
170
     0
171
     0
290
     0
174
     0
 93
        1
 44
0.0
173
     0
291
     0
 45
0.0
1001
ACAD
1000
AcDbSavedByObjectVersion
1070
     0
  0
VISUALSTYLE
  5
A297
102
{ACAD_XDICTIONARY
360
A302
102
}
102
{ACAD_REACTORS
330
A284
102
}
330
A284
100
AcDbVisualStyle
  2
X-Ray
 70
    25
 71
     2
 72
     2
 73
     1
 90
        1
 40
0.5
 41
-30.0
 62
     5
 63
     7
 74
     1
 91
        0
 64
     7
 65
   257
 75
     1
175
     1
 42
1.0
 92
        8
 66
     7
 43
1.0
 76
     1
 77
     6
 78
     2
 67
     7
 79
     3
170
     0
171
     0
290
     0
174
     0
 93
       13
 44
0.0
173
     0
291
     0
 45
0.0
1001
ACAD
1000
AcDbSavedByObjectVersion
1070
     0
  0
DICTIONARYVAR
  5
A2D1
102
{ACAD_REACTORS
330
A2CC
102
}
330
A2CC
100
DictionaryVariables
280
     0
  1
1:1
  0
DICTIONARYVAR
  5
A2CE
102
{ACAD_REACTORS
330
A2CC
102
}
330
A2CC
100
DictionaryVariables
280
     0
  1
STANDARD
  0
DICTIONARYVAR
  5
A2CD
102
{ACAD_REACTORS
330
A2CC
102
}
330
A2CC
100
DictionaryVariables
280
     0
  1
STANDARD
  0
DICTIONARYVAR
  5
A2CF
102
{ACAD_REACTORS
330
A2CC
102
}
330
A2CC
100
DictionaryVariables
280
     0
  1
Imperial24
  0
DICTIONARYVAR
  5
A2D0
102
{ACAD_REACTORS
330
A2CC
102
}
330
A2CC
100
DictionaryVariables
280
     0
  1
Imperial24
  0
DICTIONARYVAR
  5
A2D4
102
{ACAD_REACTORS
330
A2CC
102
}
330
A2CC
100
DictionaryVariables
280
     0
  1
1
  0
DICTIONARYVAR
  5
A2D3
102
{ACAD_REACTORS
330
A2CC
102
}
330
A2CC
100
DictionaryVariables
280
     0
  1
0
  0
DICTIONARYVAR
  5
A2D2
102
{ACAD_REACTORS
330
A2CC
102
}
330
A2CC
100
DictionaryVariables
280
     0
  1
127
  0
DICTIONARYVAR
  5
A2D5
102
{ACAD_REACTORS
330
A2CC
102
}
330
A2CC
100
DictionaryVariables
280
     0
  1
2
  0
DICTIONARY
  5
A312
330
A2B7
100
AcDbDictionary
280
     1
281
     1
  3
ACAD_XREC_ROUNDTRIP
360
A313
  0
DICTIONARY
  5
A314
330
A2B8
100
AcDbDictionary
280
     1
281
     1
  3
ACAD_XREC_ROUNDTRIP
360
A315
  0
DICTIONARY
  5
A316
330
A2B9
100
AcDbDictionary
280
     1
281
     1
  3
ACAD_XREC_ROUNDTRIP
360
A317
  0
DICTIONARY
  5
A275
330
A274
100
AcDbDictionary
280
     1
281
     1
  3
ACAD_XREC_ROUNDTRIP
360
A2DC
  3
BUMPTILE
360
A277
  3
DIFFUSETILE
360
A276
  3
OPACITYTILE
360
A27A
  3
REFLECTIONTILE
360
A279
  3
REFRACTIONTILE
360
A27B
  3
SPECULARTILE
360
A278
  0
DICTIONARY
  5
A26D
330
A26C
100
AcDbDictionary
280
     1
281
     1
  3
ACAD_XREC_ROUNDTRIP
360
A2DB
  3
BUMPTILE
360
A26F
  3
DIFFUSETILE
360
A26E
  3
OPACITYTILE
360
A272
  3
REFLECTIONTILE
360
A271
  3
REFRACTIONTILE
360
A273
  3
SPECULARTILE
360
A270
  0
DICTIONARY
  5
A27D
330
A27C
100
AcDbDictionary
280
     1
281
     1
  3
ACAD_XREC_ROUNDTRIP
360
A2DD
  3
BUMPTILE
360
A27F
  3
DIFFUSETILE
360
A27E
  3
OPACITYTILE
360
A282
  3
REFLECTIONTILE
360
A281
  3
REFRACTIONTILE
360
A283
  3
SPECULARTILE
360
A280
  0
DICTIONARY
  5
A310
330
A2B5
100
AcDbDictionary
280
     1
281
     1
  3
ACAD_XREC_ROUNDTRIP
360
A311
  0
DICTIONARY
  5
A2D7
330
A29F
100
AcDbDictionary
280
     1
281
     1
  3
ACAD_ROUNDTRIP_2008_TABLESTYLE_CELLSTYLEMAP
360
A2D8
  3
ACAD_XREC_ROUNDTRIP
360
A30E
  0
DICTIONARY
  5
A2E8
330
A28A
100
AcDbDictionary
280
     1
281
     1
  3
ACAD_XREC_ROUNDTRIP
360
A2E9
  0
DICTIONARY
  5
A2E6
330
A289
100
AcDbDictionary
280
     1
281
     1
  3
ACAD_XREC_ROUNDTRIP
360
A2E7
  0
DICTIONARY
  5
A2F4
330
A290
100
AcDbDictionary
280
     1
281
     1
  3
ACAD_XREC_ROUNDTRIP
360
A2F5
  0
DICTIONARY
  5
A2FC
330
A294
100
AcDbDictionary
280
     1
281
     1
  3
ACAD_XREC_ROUNDTRIP
360
A2FD
  0
DICTIONARY
  5
A2EE
330
A28D
100
AcDbDictionary
280
     1
281
     1
  3
ACAD_XREC_ROUNDTRIP
360
A2EF
  0
DICTIONARY
  5
A2F2
330
A28F
100
AcDbDictionary
280
     1
281
     1
  3
ACAD_XREC_ROUNDTRIP
360
A2F3
  0
DICTIONARY
  5
A30C
330
A29C
100
AcDbDictionary
280
     1
281
     1
  3
ACAD_XREC_ROUNDTRIP
360
A30D
  0
DICTIONARY
  5
A2FA
330
A293
100
AcDbDictionary
280
     1
281
     1
  3
ACAD_XREC_ROUNDTRIP
360
A2FB
  0
DICTIONARY
  5
A2DE
330
A285
100
AcDbDictionary
280
     1
281
     1
  3
ACAD_XREC_ROUNDTRIP
360
A2DF
  0
DICTIONARY
  5
A2E0
330
A286
100
AcDbDictionary
280
     1
281
     1
  3
ACAD_XREC_ROUNDTRIP
360
A2E1
  0
DICTIONARY
  5
A2E2
330
A287
100
AcDbDictionary
280
     1
281
     1
  3
ACAD_XREC_ROUNDTRIP
360
A2E3
  0
DICTIONARY
  5
A2E4
330
A288
100
AcDbDictionary
280
     1
281
     1
  3
ACAD_XREC_ROUNDTRIP
360
A2E5
  0
DICTIONARY
  5
A2EC
330
A28C
100
AcDbDictionary
280
     1
281
     1
  3
ACAD_XREC_ROUNDTRIP
360
A2ED
  0
DICTIONARY
  5
A308
330
A29A
100
AcDbDictionary
280
     1
281
     1
  3
ACAD_XREC_ROUNDTRIP
360
A309
  0
DICTIONARY
  5
A2F8
330
A292
100
AcDbDictionary
280
     1
281
     1
  3
ACAD_XREC_ROUNDTRIP
360
A2F9
  0
DICTIONARY
  5
A30A
330
A29B
100
AcDbDictionary
280
     1
281
     1
  3
ACAD_XREC_ROUNDTRIP
360
A30B
  0
DICTIONARY
  5
A2F0
330
A28E
100
AcDbDictionary
280
     1
281
     1
  3
ACAD_XREC_ROUNDTRIP
360
A2F1
  0
DICTIONARY
  5
A306
330
A299
100
AcDbDictionary
280
     1
281
     1
  3
ACAD_XREC_ROUNDTRIP
360
A307
  0
DICTIONARY
  5
A304
330
A298
100
AcDbDictionary
280
     1
281
     1
  3
ACAD_XREC_ROUNDTRIP
360
A305
  0
DICTIONARY
  5
A2FE
330
A295
100
AcDbDictionary
280
     1
281
     1
  3
ACAD_XREC_ROUNDTRIP
360
A2FF
  0
DICTIONARY
  5
A300
330
A296
100
AcDbDictionary
280
     1
281
     1
  3
ACAD_XREC_ROUNDTRIP
360
A301
  0
DICTIONARY
  5
A2F6
330
A291
100
AcDbDictionary
280
     1
281
     1
  3
ACAD_XREC_ROUNDTRIP
360
A2F7
  0
DICTIONARY
  5
A2EA
330
A28B
100
AcDbDictionary
280
     1
281
     1
  3
ACAD_XREC_ROUNDTRIP
360
A2EB
  0
DICTIONARY
  5
A302
330
A297
100
AcDbDictionary
280
     1
281
     1
  3
ACAD_XREC_ROUNDTRIP
360
A303
  0
XRECORD
  5
A313
102
{ACAD_REACTORS
330
A312
102
}
330
A312
100
AcDbXrecord
280
     1
102
DISPLAYNAME
  1
Imperial24
102
FLAGS
 90
        0
  0
XRECORD
  5
A315
102
{ACAD_REACTORS
330
A314
102
}
330
A314
100
AcDbXrecord
280
     1
102
SHADEPLOT
 70
     0
102
SHADEPLOTRESLEVEL
 70
     2
102
SHADEPLOTCUSTOMDPI
 70
   300
  0
XRECORD
  5
A317
102
{ACAD_REACTORS
330
A316
102
}
330
A316
100
AcDbXrecord
280
     1
102
SHADEPLOT
 70
     0
102
SHADEPLOTRESLEVEL
 70
     2
102
SHADEPLOTCUSTOMDPI
 70
   300
  0
XRECORD
  5
A2DC
102
{ACAD_REACTORS
330
A275
102
}
330
A275
100
AcDbXrecord
280
     1
102
MATERIAL
148
0.0
149
0.0
149
0.0
 93
        0
 94
      127
282
     0
 72
     0
 77
     0
171
     0
175
     0
179
     0
273
     0
  0
XRECORD
  5
A277
102
{ACAD_REACTORS
330
A275
102
}
330
A275
100
AcDbXrecord
280
     1
270
     1
271
     1
  0
XRECORD
  5
A276
102
{ACAD_REACTORS
330
A275
102
}
330
A275
100
AcDbXrecord
280
     1
270
     1
271
     1
  0
XRECORD
  5
A27A
102
{ACAD_REACTORS
330
A275
102
}
330
A275
100
AcDbXrecord
280
     1
270
     1
271
     1
  0
XRECORD
  5
A279
102
{ACAD_REACTORS
330
A275
102
}
330
A275
100
AcDbXrecord
280
     1
270
     1
271
     1
  0
XRECORD
  5
A27B
102
{ACAD_REACTORS
330
A275
102
}
330
A275
100
AcDbXrecord
280
     1
270
     1
271
     1
  0
XRECORD
  5
A278
102
{ACAD_REACTORS
330
A275
102
}
330
A275
100
AcDbXrecord
280
     1
270
     1
271
     1
  0
XRECORD
  5
A2DB
102
{ACAD_REACTORS
330
A26D
102
}
330
A26D
100
AcDbXrecord
280
     1
102
MATERIAL
148
0.0
149
0.0
149
0.0
 93
        0
 94
      127
282
     0
 72
     0
 77
     0
171
     0
175
     0
179
     0
273
     0
  0
XRECORD
  5
A26F
102
{ACAD_REACTORS
330
A26D
102
}
330
A26D
100
AcDbXrecord
280
     1
270
     1
271
     1
  0
XRECORD
  5
A26E
102
{ACAD_REACTORS
330
A26D
102
}
330
A26D
100
AcDbXrecord
280
     1
270
     1
271
     1
  0
XRECORD
  5
A272
102
{ACAD_REACTORS
330
A26D
102
}
330
A26D
100
AcDbXrecord
280
     1
270
     1
271
     1
  0
XRECORD
  5
A271
102
{ACAD_REACTORS
330
A26D
102
}
330
A26D
100
AcDbXrecord
280
     1
270
     1
271
     1
  0
XRECORD
  5
A273
102
{ACAD_REACTORS
330
A26D
102
}
330
A26D
100
AcDbXrecord
280
     1
270
     1
271
     1
  0
XRECORD
  5
A270
102
{ACAD_REACTORS
330
A26D
102
}
330
A26D
100
AcDbXrecord
280
     1
270
     1
271
     1
  0
XRECORD
  5
A2DD
102
{ACAD_REACTORS
330
A27D
102
}
330
A27D
100
AcDbXrecord
280
     1
102
MATERIAL
148
0.0
149
0.0
149
0.0
 93
        0
 94
      127
282
     0
 72
     0
 77
     0
171
     0
175
     0
179
     0
273
     0
  0
XRECORD
  5
A27F
102
{ACAD_REACTORS
330
A27D
102
}
330
A27D
100
AcDbXrecord
280
     1
270
     1
271
     1
  0
XRECORD
  5
A27E
102
{ACAD_REACTORS
330
A27D
102
}
330
A27D
100
AcDbXrecord
280
     1
270
     1
271
     1
  0
XRECORD
  5
A282
102
{ACAD_REACTORS
330
A27D
102
}
330
A27D
100
AcDbXrecord
280
     1
270
     1
271
     1
  0
XRECORD
  5
A281
102
{ACAD_REACTORS
330
A27D
102
}
330
A27D
100
AcDbXrecord
280
     1
270
     1
271
     1
  0
XRECORD
  5
A283
102
{ACAD_REACTORS
330
A27D
102
}
330
A27D
100
AcDbXrecord
280
     1
270
     1
271
     1
  0
XRECORD
  5
A280
102
{ACAD_REACTORS
330
A27D
102
}
330
A27D
100
AcDbXrecord
280
     1
270
     1
271
     1
  0
XRECORD
  5
A311
102
{ACAD_REACTORS
330
A310
102
}
330
A310
100
AcDbXrecord
280
     1
102
DISPLAYNAME
  1
Imperial24
102
FLAGS
 90
        0
  0
CELLSTYLEMAP
  5
A2D8
102
{ACAD_REACTORS
330
A2D7
102
}
330
A2D7
100
AcDbCellStyleMap
 90
        3
300
CELLSTYLE
  1
TABLEFORMAT_BEGIN
 90
        5
170
     1
 91
        0
 92
    32768
 62
   257
 93
        1
300
CONTENTFORMAT
  1
CONTENTFORMAT_BEGIN
 90
        0
 91
        0
 92
      512
 93
        0
300

 40
0.0
140
1.0
 94
        5
 62
     0
340
A04C
144
0.25
309
CONTENTFORMAT_END
171
     0
 94
        0
309
TABLEFORMAT_END
  1
CELLSTYLE_BEGIN
 90
        1
 91
        1
300
_TITLE
309
CELLSTYLE_END
300
CELLSTYLE
  1
TABLEFORMAT_BEGIN
 90
        5
170
     1
 91
        0
 92
        0
 62
   257
 93
        1
300
CONTENTFORMAT
  1
CONTENTFORMAT_BEGIN
 90
        0
 91
        0
 92
      512
 93
        0
300

 40
0.0
140
1.0
 94
        5
 62
     0
340
A04C
144
0.18
309
CONTENTFORMAT_END
171
     0
 94
        0
309
TABLEFORMAT_END
  1
CELLSTYLE_BEGIN
 90
        2
 91
        1
300
_HEADER
309
CELLSTYLE_END
300
CELLSTYLE
  1
TABLEFORMAT_BEGIN
 90
        5
170
     1
 91
        0
 92
        0
 62
   257
 93
        1
300
CONTENTFORMAT
  1
CONTENTFORMAT_BEGIN
 90
        0
 91
        0
 92
      512
 93
        0
300

 40
0.0
140
1.0
 94
        2
 62
     0
340
A04C
144
0.18
309
CONTENTFORMAT_END
171
     0
 94
        0
309
TABLEFORMAT_END
  1
CELLSTYLE_BEGIN
 90
        3
 91
        2
300
_DATA
309
CELLSTYLE_END
  0
XRECORD
  5
A30E
102
{ACAD_REACTORS
330
A2D7
102
}
330
A2D7
100
AcDbXrecord
280
     1
102
ACAD_ROUNDTRIP_PRE2007_TABLESTYLE
 90
      512
 91
        0
  1

 92
      512
 93
        0
  2

 94
      512
 95
        0
  3

  0
XRECORD
  5
A2E9
102
{ACAD_REACTORS
330
A2E8
102
}
330
A2E8
100
AcDbXrecord
280
     1
102
RTVSPost2010Prop28
280
     1
102
RTVSPost2010PropOp28
 70
     1
102
RTVSPost2010Prop29
280
     1
102
RTVSPost2010PropOp29
 70
     1
102
RTVSPost2010Prop30
280
     0
102
RTVSPost2010PropOp30
 70
     1
102
RTVSPost2010Prop31
280
     0
102
RTVSPost2010PropOp31
 70
     1
102
RTVSPost2010Prop32
280
     0
102
RTVSPost2010PropOp32
 70
     1
102
RTVSPost2010Prop33
280
     0
102
RTVSPost2010PropOp33
 70
     1
102
RTVSPost2010Prop34
280
     0
102
RTVSPost2010PropOp34
 70
     1
102
RTVSPost2010Prop35
280
     0
102
RTVSPost2010PropOp35
 70
     1
102
RTVSPost2010Prop36
280
     0
102
RTVSPost2010PropOp36
 70
     1
102
RTVSPost2010Prop37
 90
       50
102
RTVSPost2010PropOp37
 70
     1
102
RTVSPost2010Prop38
140
0.0
102
RTVSPost2010PropOp38
 70
     1
102
RTVSPost2010Prop39
140
1.0
102
RTVSPost2010PropOp39
 70
     1
102
RTVSPost2010Prop40
 90
        0
102
RTVSPost2010PropOp40
 70
     1
102
RTVSPost2010Prop41ColorIndex
 90
       18
102
RTVSPost2010Prop41ColorRGB
 90
        0
102
RTVSPost2010PropOp41
 70
     1
102
RTVSPost2010Prop42
 90
       50
102
RTVSPost2010PropOp42
 70
     1
102
RTVSPost2010Prop43
 90
        3
102
RTVSPost2010PropOp43
 70
     1
102
RTVSPost2010Prop44ColorIndex
 90
        5
102
RTVSPost2010Prop44ColorRGB
 90
      255
102
RTVSPost2010PropOp44
 70
     1
102
RTVSPost2010Prop45
280
     0
102
RTVSPost2010PropOp45
 70
     1
102
RTVSPost2010Prop46
 90
       50
102
RTVSPost2010PropOp46
 70
     1
102
RTVSPost2010Prop47
 90
       50
102
RTVSPost2010PropOp47
 70
     1
102
RTVSPost2010Prop48
 90
       50
102
RTVSPost2010PropOp48
 70
     1
102
RTVSPost2010Prop49
280
     0
102
RTVSPost2010PropOp49
 70
     1
102
RTVSPost2010Prop50
 90
       50
102
RTVSPost2010PropOp50
 70
     1
102
RTVSPost2010Prop51ColorIndex
 90
      256
102
RTVSPost2010Prop51ColorRGB
 90
-16777216
102
RTVSPost2010PropOp51
 70
     0
102
RTVSPost2010Prop52
140
1.0
102
RTVSPost2010PropOp52
 70
     0
102
RTVSPost2010Prop53
 90
        2
102
RTVSPost2010PropOp53
 70
     1
102
RTVSPost2010Prop54
  1
strokes_ogs.tif
102
RTVSPost2010PropOp54
 70
     1
102
RTVSPost2010Prop55
280
     0
102
RTVSPost2010PropOp55
 70
     1
102
RTVSPost2010Prop56
140
1.0
102
RTVSPost2010PropOp56
 70
     1
102
RTVSPost2010Prop57
140
1.0
102
RTVSPost2010PropOp57
 70
     1
102
RTVSPropertyOp0
 70
     1
102
RTVSPropertyOp1
 70
     1
102
RTVSPropertyOp2
 70
     1
102
RTVSPropertyOp3
 70
     1
102
RTVSPropertyOp4
 70
     1
102
RTVSPropertyOp5
 70
     1
102
RTVSPropertyOp6
 70
     1
102
RTVSPropertyOp7
 70
     1
102
RTVSPropertyOp8
 70
     1
102
RTVSPropertyOp9
 70
     1
102
RTVSPropertyOp10
 70
     1
102
RTVSPropertyOp11
 70
     1
102
RTVSPropertyOp12
 70
     1
102
RTVSPropertyOp13
 70
     1
102
RTVSPropertyOp14
 70
     1
102
RTVSPropertyOp15
 70
     1
102
RTVSPropertyOp16
 70
     1
102
RTVSPropertyOp17
 70
     1
102
RTVSPropertyOp18
 70
     1
102
RTVSPropertyOp19
 70
     1
102
RTVSPropertyOp20
 70
     1
102
RTVSPropertyOp21
 70
     1
102
RTVSPropertyOp22
 70
     1
102
RTVSPropertyOp23
 70
     1
102
RTVSPropertyOp24
 70
     1
102
RTVSPropertyOp25
 70
     1
102
RTVSPropertyOp26
 70
     1
102
RTVSPropertyOp27
 70
     1
102
RTVSPropertyOp28
 70
     1
102
RTVSPropertyOp29
 70
     1
102
RTVSPropertyOp30
 70
     1
102
RTVSPropertyOp31
 70
     1
102
RTVSPropertyOp32
 70
     1
102
RTVSPropertyOp33
 70
     1
102
RTVSPropertyOp34
 70
     1
102
RTVSPropertyOp35
 70
     1
102
RTVSPropertyOp36
 70
     1
102
RTVSPropertyOp37
 70
     1
102
RTVSPropertyOp38
 70
     1
102
RTVSPropertyOp39
 70
     1
102
RTVSPropertyOp40
 70
     1
102
RTVSPropertyOp41
 70
     1
102
RTVSPropertyOp42
 70
     1
102
RTVSPropertyOp43
 70
     1
102
RTVSPropertyOp44
 70
     1
102
RTVSPropertyOp45
 70
     1
102
RTVSPropertyOp46
 70
     1
102
RTVSPropertyOp47
 70
     1
102
RTVSPropertyOp48
 70
     1
102
RTVSPropertyOp49
 70
     1
102
RTVSPropertyOp50
 70
     1
102
RTVSPropertyOp51
 70
     0
102
RTVSPropertyOp52
 70
     0
102
RTVSPropertyOp53
 70
     1
102
RTVSPropertyOp54
 70
     1
102
RTVSPropertyOp55
 70
     1
102
RTVSPropertyOp56
 70
     1
102
RTVSPropertyOp57
 70
     1
102
RTVSPropertyOp58
 70
     1
102
RTVSPropertyOp59
 70
     1
102
RTVSPropertyOp60
 70
     1
102
RTVSPropertyOp61
 70
     1
102
RTVSPropertyOp62
 70
     1
  0
XRECORD
  5
A2E7
102
{ACAD_REACTORS
330
A2E6
102
}
330
A2E6
100
AcDbXrecord
280
     1
102
RTVSPost2010Prop28
280
     0
102
RTVSPost2010PropOp28
 70
     1
102
RTVSPost2010Prop29
280
     1
102
RTVSPost2010PropOp29
 70
     1
102
RTVSPost2010Prop30
280
     1
102
RTVSPost2010PropOp30
 70
     1
102
RTVSPost2010Prop31
280
     0
102
RTVSPost2010PropOp31
 70
     1
102
RTVSPost2010Prop32
280
     0
102
RTVSPost2010PropOp32
 70
     1
102
RTVSPost2010Prop33
280
     0
102
RTVSPost2010PropOp33
 70
     1
102
RTVSPost2010Prop34
280
     0
102
RTVSPost2010PropOp34
 70
     1
102
RTVSPost2010Prop35
280
     0
102
RTVSPost2010PropOp35
 70
     1
102
RTVSPost2010Prop36
280
     0
102
RTVSPost2010PropOp36
 70
     1
102
RTVSPost2010Prop37
 90
       50
102
RTVSPost2010PropOp37
 70
     1
102
RTVSPost2010Prop38
140
0.0
102
RTVSPost2010PropOp38
 70
     1
102
RTVSPost2010Prop39
140
1.0
102
RTVSPost2010PropOp39
 70
     1
102
RTVSPost2010Prop40
 90
        0
102
RTVSPost2010PropOp40
 70
     1
102
RTVSPost2010Prop41ColorIndex
 90
       18
102
RTVSPost2010Prop41ColorRGB
 90
        0
102
RTVSPost2010PropOp41
 70
     1
102
RTVSPost2010Prop42
 90
       50
102
RTVSPost2010PropOp42
 70
     1
102
RTVSPost2010Prop43
 90
        3
102
RTVSPost2010PropOp43
 70
     1
102
RTVSPost2010Prop44ColorIndex
 90
        5
102
RTVSPost2010Prop44ColorRGB
 90
      255
102
RTVSPost2010PropOp44
 70
     1
102
RTVSPost2010Prop45
280
     0
102
RTVSPost2010PropOp45
 70
     1
102
RTVSPost2010Prop46
 90
       50
102
RTVSPost2010PropOp46
 70
     1
102
RTVSPost2010Prop47
 90
       50
102
RTVSPost2010PropOp47
 70
     1
102
RTVSPost2010Prop48
 90
       50
102
RTVSPost2010PropOp48
 70
     1
102
RTVSPost2010Prop49
280
     0
102
RTVSPost2010PropOp49
 70
     1
102
RTVSPost2010Prop50
 90
       50
102
RTVSPost2010PropOp50
 70
     1
102
RTVSPost2010Prop51ColorIndex
 90
      256
102
RTVSPost2010Prop51ColorRGB
 90
-16777216
102
RTVSPost2010PropOp51
 70
     0
102
RTVSPost2010Prop52
140
1.0
102
RTVSPost2010PropOp52
 70
     0
102
RTVSPost2010Prop53
 90
        2
102
RTVSPost2010PropOp53
 70
     1
102
RTVSPost2010Prop54
  1
strokes_ogs.tif
102
RTVSPost2010PropOp54
 70
     1
102
RTVSPost2010Prop55
280
     0
102
RTVSPost2010PropOp55
 70
     1
102
RTVSPost2010Prop56
140
1.0
102
RTVSPost2010PropOp56
 70
     1
102
RTVSPost2010Prop57
140
1.0
102
RTVSPost2010PropOp57
 70
     1
102
RTVSPropertyOp0
 70
     1
102
RTVSPropertyOp1
 70
     1
102
RTVSPropertyOp2
 70
     1
102
RTVSPropertyOp3
 70
     1
102
RTVSPropertyOp4
 70
     1
102
RTVSPropertyOp5
 70
     1
102
RTVSPropertyOp6
 70
     1
102
RTVSPropertyOp7
 70
     1
102
RTVSPropertyOp8
 70
     1
102
RTVSPropertyOp9
 70
     1
102
RTVSPropertyOp10
 70
     1
102
RTVSPropertyOp11
 70
     1
102
RTVSPropertyOp12
 70
     1
102
RTVSPropertyOp13
 70
     1
102
RTVSPropertyOp14
 70
     1
102
RTVSPropertyOp15
 70
     1
102
RTVSPropertyOp16
 70
     1
102
RTVSPropertyOp17
 70
     1
102
RTVSPropertyOp18
 70
     1
102
RTVSPropertyOp19
 70
     1
102
RTVSPropertyOp20
 70
     1
102
RTVSPropertyOp21
 70
     1
102
RTVSPropertyOp22
 70
     1
102
RTVSPropertyOp23
 70
     1
102
RTVSPropertyOp24
 70
     1
102
RTVSPropertyOp25
 70
     1
102
RTVSPropertyOp26
 70
     1
102
RTVSPropertyOp27
 70
     1
102
RTVSPropertyOp28
 70
     1
102
RTVSPropertyOp29
 70
     1
102
RTVSPropertyOp30
 70
     1
102
RTVSPropertyOp31
 70
     1
102
RTVSPropertyOp32
 70
     1
102
RTVSPropertyOp33
 70
     1
102
RTVSPropertyOp34
 70
     1
102
RTVSPropertyOp35
 70
     1
102
RTVSPropertyOp36
 70
     1
102
RTVSPropertyOp37
 70
     1
102
RTVSPropertyOp38
 70
     1
102
RTVSPropertyOp39
 70
     1
102
RTVSPropertyOp40
 70
     1
102
RTVSPropertyOp41
 70
     1
102
RTVSPropertyOp42
 70
     1
102
RTVSPropertyOp43
 70
     1
102
RTVSPropertyOp44
 70
     1
102
RTVSPropertyOp45
 70
     1
102
RTVSPropertyOp46
 70
     1
102
RTVSPropertyOp47
 70
     1
102
RTVSPropertyOp48
 70
     1
102
RTVSPropertyOp49
 70
     1
102
RTVSPropertyOp50
 70
     1
102
RTVSPropertyOp51
 70
     0
102
RTVSPropertyOp52
 70
     0
102
RTVSPropertyOp53
 70
     1
102
RTVSPropertyOp54
 70
     1
102
RTVSPropertyOp55
 70
     1
102
RTVSPropertyOp56
 70
     1
102
RTVSPropertyOp57
 70
     1
102
RTVSPropertyOp58
 70
     1
102
RTVSPropertyOp59
 70
     1
102
RTVSPropertyOp60
 70
     1
102
RTVSPropertyOp61
 70
     1
102
RTVSPropertyOp62
 70
     1
  0
XRECORD
  5
A2F5
102
{ACAD_REACTORS
330
A2F4
102
}
330
A2F4
100
AcDbXrecord
280
     1
102
RTVSPost2010Prop28
280
     0
102
RTVSPost2010PropOp28
 70
     1
102
RTVSPost2010Prop29
280
     1
102
RTVSPost2010PropOp29
 70
     1
102
RTVSPost2010Prop30
280
     1
102
RTVSPost2010PropOp30
 70
     1
102
RTVSPost2010Prop31
280
     0
102
RTVSPost2010PropOp31
 70
     1
102
RTVSPost2010Prop32
280
     0
102
RTVSPost2010PropOp32
 70
     1
102
RTVSPost2010Prop33
280
     0
102
RTVSPost2010PropOp33
 70
     1
102
RTVSPost2010Prop34
280
     0
102
RTVSPost2010PropOp34
 70
     1
102
RTVSPost2010Prop35
280
     0
102
RTVSPost2010PropOp35
 70
     1
102
RTVSPost2010Prop36
280
     0
102
RTVSPost2010PropOp36
 70
     1
102
RTVSPost2010Prop37
 90
       50
102
RTVSPost2010PropOp37
 70
     1
102
RTVSPost2010Prop38
140
0.0
102
RTVSPost2010PropOp38
 70
     1
102
RTVSPost2010Prop39
140
1.0
102
RTVSPost2010PropOp39
 70
     1
102
RTVSPost2010Prop40
 90
        0
102
RTVSPost2010PropOp40
 70
     1
102
RTVSPost2010Prop41ColorIndex
 90
       18
102
RTVSPost2010Prop41ColorRGB
 90
        0
102
RTVSPost2010PropOp41
 70
     1
102
RTVSPost2010Prop42
 90
       50
102
RTVSPost2010PropOp42
 70
     1
102
RTVSPost2010Prop43
 90
        3
102
RTVSPost2010PropOp43
 70
     1
102
RTVSPost2010Prop44ColorIndex
 90
        5
102
RTVSPost2010Prop44ColorRGB
 90
      255
102
RTVSPost2010PropOp44
 70
     1
102
RTVSPost2010Prop45
280
     0
102
RTVSPost2010PropOp45
 70
     1
102
RTVSPost2010Prop46
 90
       50
102
RTVSPost2010PropOp46
 70
     1
102
RTVSPost2010Prop47
 90
       50
102
RTVSPost2010PropOp47
 70
     1
102
RTVSPost2010Prop48
 90
       50
102
RTVSPost2010PropOp48
 70
     1
102
RTVSPost2010Prop49
280
     0
102
RTVSPost2010PropOp49
 70
     1
102
RTVSPost2010Prop50
 90
       50
102
RTVSPost2010PropOp50
 70
     1
102
RTVSPost2010Prop51ColorIndex
 90
      256
102
RTVSPost2010Prop51ColorRGB
 90
-16777216
102
RTVSPost2010PropOp51
 70
     0
102
RTVSPost2010Prop52
140
1.0
102
RTVSPost2010PropOp52
 70
     0
102
RTVSPost2010Prop53
 90
        2
102
RTVSPost2010PropOp53
 70
     1
102
RTVSPost2010Prop54
  1
strokes_ogs.tif
102
RTVSPost2010PropOp54
 70
     1
102
RTVSPost2010Prop55
280
     0
102
RTVSPost2010PropOp55
 70
     1
102
RTVSPost2010Prop56
140
1.0
102
RTVSPost2010PropOp56
 70
     1
102
RTVSPost2010Prop57
140
1.0
102
RTVSPost2010PropOp57
 70
     1
102
RTVSPropertyOp0
 70
     1
102
RTVSPropertyOp1
 70
     1
102
RTVSPropertyOp2
 70
     1
102
RTVSPropertyOp3
 70
     1
102
RTVSPropertyOp4
 70
     1
102
RTVSPropertyOp5
 70
     1
102
RTVSPropertyOp6
 70
     1
102
RTVSPropertyOp7
 70
     1
102
RTVSPropertyOp8
 70
     1
102
RTVSPropertyOp9
 70
     1
102
RTVSPropertyOp10
 70
     1
102
RTVSPropertyOp11
 70
     1
102
RTVSPropertyOp12
 70
     1
102
RTVSPropertyOp13
 70
     1
102
RTVSPropertyOp14
 70
     1
102
RTVSPropertyOp15
 70
     1
102
RTVSPropertyOp16
 70
     1
102
RTVSPropertyOp17
 70
     1
102
RTVSPropertyOp18
 70
     1
102
RTVSPropertyOp19
 70
     1
102
RTVSPropertyOp20
 70
     1
102
RTVSPropertyOp21
 70
     1
102
RTVSPropertyOp22
 70
     1
102
RTVSPropertyOp23
 70
     1
102
RTVSPropertyOp24
 70
     1
102
RTVSPropertyOp25
 70
     1
102
RTVSPropertyOp26
 70
     1
102
RTVSPropertyOp27
 70
     1
102
RTVSPropertyOp28
 70
     1
102
RTVSPropertyOp29
 70
     1
102
RTVSPropertyOp30
 70
     1
102
RTVSPropertyOp31
 70
     1
102
RTVSPropertyOp32
 70
     1
102
RTVSPropertyOp33
 70
     1
102
RTVSPropertyOp34
 70
     1
102
RTVSPropertyOp35
 70
     1
102
RTVSPropertyOp36
 70
     1
102
RTVSPropertyOp37
 70
     1
102
RTVSPropertyOp38
 70
     1
102
RTVSPropertyOp39
 70
     1
102
RTVSPropertyOp40
 70
     1
102
RTVSPropertyOp41
 70
     1
102
RTVSPropertyOp42
 70
     1
102
RTVSPropertyOp43
 70
     1
102
RTVSPropertyOp44
 70
     1
102
RTVSPropertyOp45
 70
     1
102
RTVSPropertyOp46
 70
     1
102
RTVSPropertyOp47
 70
     1
102
RTVSPropertyOp48
 70
     1
102
RTVSPropertyOp49
 70
     1
102
RTVSPropertyOp50
 70
     1
102
RTVSPropertyOp51
 70
     0
102
RTVSPropertyOp52
 70
     0
102
RTVSPropertyOp53
 70
     1
102
RTVSPropertyOp54
 70
     1
102
RTVSPropertyOp55
 70
     1
102
RTVSPropertyOp56
 70
     1
102
RTVSPropertyOp57
 70
     1
102
RTVSPropertyOp58
 70
     1
102
RTVSPropertyOp59
 70
     1
102
RTVSPropertyOp60
 70
     1
102
RTVSPropertyOp61
 70
     1
102
RTVSPropertyOp62
 70
     1
  0
XRECORD
  5
A2FD
102
{ACAD_REACTORS
330
A2FC
102
}
330
A2FC
100
AcDbXrecord
280
     1
102
RTVSPost2010Prop28
280
     0
102
RTVSPost2010PropOp28
 70
     1
102
RTVSPost2010Prop29
280
     1
102
RTVSPost2010PropOp29
 70
     1
102
RTVSPost2010Prop30
280
     1
102
RTVSPost2010PropOp30
 70
     1
102
RTVSPost2010Prop31
280
     0
102
RTVSPost2010PropOp31
 70
     1
102
RTVSPost2010Prop32
280
     0
102
RTVSPost2010PropOp32
 70
     1
102
RTVSPost2010Prop33
280
     0
102
RTVSPost2010PropOp33
 70
     1
102
RTVSPost2010Prop34
280
     0
102
RTVSPost2010PropOp34
 70
     1
102
RTVSPost2010Prop35
280
     0
102
RTVSPost2010PropOp35
 70
     1
102
RTVSPost2010Prop36
280
     0
102
RTVSPost2010PropOp36
 70
     1
102
RTVSPost2010Prop37
 90
       50
102
RTVSPost2010PropOp37
 70
     1
102
RTVSPost2010Prop38
140
0.0
102
RTVSPost2010PropOp38
 70
     1
102
RTVSPost2010Prop39
140
1.0
102
RTVSPost2010PropOp39
 70
     1
102
RTVSPost2010Prop40
 90
        0
102
RTVSPost2010PropOp40
 70
     1
102
RTVSPost2010Prop41ColorIndex
 90
       18
102
RTVSPost2010Prop41ColorRGB
 90
        0
102
RTVSPost2010PropOp41
 70
     1
102
RTVSPost2010Prop42
 90
       50
102
RTVSPost2010PropOp42
 70
     1
102
RTVSPost2010Prop43
 90
        3
102
RTVSPost2010PropOp43
 70
     1
102
RTVSPost2010Prop44ColorIndex
 90
        5
102
RTVSPost2010Prop44ColorRGB
 90
      255
102
RTVSPost2010PropOp44
 70
     1
102
RTVSPost2010Prop45
280
     0
102
RTVSPost2010PropOp45
 70
     1
102
RTVSPost2010Prop46
 90
       50
102
RTVSPost2010PropOp46
 70
     1
102
RTVSPost2010Prop47
 90
       50
102
RTVSPost2010PropOp47
 70
     1
102
RTVSPost2010Prop48
 90
       50
102
RTVSPost2010PropOp48
 70
     1
102
RTVSPost2010Prop49
280
     0
102
RTVSPost2010PropOp49
 70
     1
102
RTVSPost2010Prop50
 90
       50
102
RTVSPost2010PropOp50
 70
     1
102
RTVSPost2010Prop51ColorIndex
 90
      256
102
RTVSPost2010Prop51ColorRGB
 90
-16777216
102
RTVSPost2010PropOp51
 70
     0
102
RTVSPost2010Prop52
140
1.0
102
RTVSPost2010PropOp52
 70
     0
102
RTVSPost2010Prop53
 90
        2
102
RTVSPost2010PropOp53
 70
     1
102
RTVSPost2010Prop54
  1
strokes_ogs.tif
102
RTVSPost2010PropOp54
 70
     1
102
RTVSPost2010Prop55
280
     0
102
RTVSPost2010PropOp55
 70
     1
102
RTVSPost2010Prop56
140
1.0
102
RTVSPost2010PropOp56
 70
     1
102
RTVSPost2010Prop57
140
1.0
102
RTVSPost2010PropOp57
 70
     1
102
RTVSPropertyOp0
 70
     1
102
RTVSPropertyOp1
 70
     1
102
RTVSPropertyOp2
 70
     1
102
RTVSPropertyOp3
 70
     1
102
RTVSPropertyOp4
 70
     1
102
RTVSPropertyOp5
 70
     1
102
RTVSPropertyOp6
 70
     1
102
RTVSPropertyOp7
 70
     1
102
RTVSPropertyOp8
 70
     1
102
RTVSPropertyOp9
 70
     1
102
RTVSPropertyOp10
 70
     1
102
RTVSPropertyOp11
 70
     1
102
RTVSPropertyOp12
 70
     1
102
RTVSPropertyOp13
 70
     1
102
RTVSPropertyOp14
 70
     1
102
RTVSPropertyOp15
 70
     1
102
RTVSPropertyOp16
 70
     1
102
RTVSPropertyOp17
 70
     1
102
RTVSPropertyOp18
 70
     1
102
RTVSPropertyOp19
 70
     1
102
RTVSPropertyOp20
 70
     1
102
RTVSPropertyOp21
 70
     1
102
RTVSPropertyOp22
 70
     1
102
RTVSPropertyOp23
 70
     1
102
RTVSPropertyOp24
 70
     1
102
RTVSPropertyOp25
 70
     1
102
RTVSPropertyOp26
 70
     1
102
RTVSPropertyOp27
 70
     1
102
RTVSPropertyOp28
 70
     1
102
RTVSPropertyOp29
 70
     1
102
RTVSPropertyOp30
 70
     1
102
RTVSPropertyOp31
 70
     1
102
RTVSPropertyOp32
 70
     1
102
RTVSPropertyOp33
 70
     1
102
RTVSPropertyOp34
 70
     1
102
RTVSPropertyOp35
 70
     1
102
RTVSPropertyOp36
 70
     1
102
RTVSPropertyOp37
 70
     1
102
RTVSPropertyOp38
 70
     1
102
RTVSPropertyOp39
 70
     1
102
RTVSPropertyOp40
 70
     1
102
RTVSPropertyOp41
 70
     1
102
RTVSPropertyOp42
 70
     1
102
RTVSPropertyOp43
 70
     1
102
RTVSPropertyOp44
 70
     1
102
RTVSPropertyOp45
 70
     1
102
RTVSPropertyOp46
 70
     1
102
RTVSPropertyOp47
 70
     1
102
RTVSPropertyOp48
 70
     1
102
RTVSPropertyOp49
 70
     1
102
RTVSPropertyOp50
 70
     1
102
RTVSPropertyOp51
 70
     0
102
RTVSPropertyOp52
 70
     0
102
RTVSPropertyOp53
 70
     1
102
RTVSPropertyOp54
 70
     1
102
RTVSPropertyOp55
 70
     1
102
RTVSPropertyOp56
 70
     1
102
RTVSPropertyOp57
 70
     1
102
RTVSPropertyOp58
 70
     1
102
RTVSPropertyOp59
 70
     1
102
RTVSPropertyOp60
 70
     1
102
RTVSPropertyOp61
 70
     1
102
RTVSPropertyOp62
 70
     1
  0
XRECORD
  5
A2EF
102
{ACAD_REACTORS
330
A2EE
102
}
330
A2EE
100
AcDbXrecord
280
     1
102
RTVSPost2010Prop28
280
     0
102
RTVSPost2010PropOp28
 70
     1
102
RTVSPost2010Prop29
280
     1
102
RTVSPost2010PropOp29
 70
     1
102
RTVSPost2010Prop30
280
     1
102
RTVSPost2010PropOp30
 70
     1
102
RTVSPost2010Prop31
280
     0
102
RTVSPost2010PropOp31
 70
     1
102
RTVSPost2010Prop32
280
     0
102
RTVSPost2010PropOp32
 70
     1
102
RTVSPost2010Prop33
280
     0
102
RTVSPost2010PropOp33
 70
     1
102
RTVSPost2010Prop34
280
     0
102
RTVSPost2010PropOp34
 70
     1
102
RTVSPost2010Prop35
280
     0
102
RTVSPost2010PropOp35
 70
     1
102
RTVSPost2010Prop36
280
     0
102
RTVSPost2010PropOp36
 70
     1
102
RTVSPost2010Prop37
 90
       50
102
RTVSPost2010PropOp37
 70
     1
102
RTVSPost2010Prop38
140
0.0
102
RTVSPost2010PropOp38
 70
     1
102
RTVSPost2010Prop39
140
1.0
102
RTVSPost2010PropOp39
 70
     1
102
RTVSPost2010Prop40
 90
        0
102
RTVSPost2010PropOp40
 70
     1
102
RTVSPost2010Prop41ColorIndex
 90
       18
102
RTVSPost2010Prop41ColorRGB
 90
        0
102
RTVSPost2010PropOp41
 70
     1
102
RTVSPost2010Prop42
 90
       50
102
RTVSPost2010PropOp42
 70
     1
102
RTVSPost2010Prop43
 90
        3
102
RTVSPost2010PropOp43
 70
     1
102
RTVSPost2010Prop44ColorIndex
 90
        5
102
RTVSPost2010Prop44ColorRGB
 90
      255
102
RTVSPost2010PropOp44
 70
     1
102
RTVSPost2010Prop45
280
     0
102
RTVSPost2010PropOp45
 70
     1
102
RTVSPost2010Prop46
 90
       50
102
RTVSPost2010PropOp46
 70
     1
102
RTVSPost2010Prop47
 90
       50
102
RTVSPost2010PropOp47
 70
     1
102
RTVSPost2010Prop48
 90
       50
102
RTVSPost2010PropOp48
 70
     1
102
RTVSPost2010Prop49
280
     0
102
RTVSPost2010PropOp49
 70
     1
102
RTVSPost2010Prop50
 90
       50
102
RTVSPost2010PropOp50
 70
     1
102
RTVSPost2010Prop51ColorIndex
 90
      256
102
RTVSPost2010Prop51ColorRGB
 90
-16777216
102
RTVSPost2010PropOp51
 70
     0
102
RTVSPost2010Prop52
140
1.0
102
RTVSPost2010PropOp52
 70
     0
102
RTVSPost2010Prop53
 90
        2
102
RTVSPost2010PropOp53
 70
     1
102
RTVSPost2010Prop54
  1
strokes_ogs.tif
102
RTVSPost2010PropOp54
 70
     1
102
RTVSPost2010Prop55
280
     0
102
RTVSPost2010PropOp55
 70
     1
102
RTVSPost2010Prop56
140
1.0
102
RTVSPost2010PropOp56
 70
     1
102
RTVSPost2010Prop57
140
1.0
102
RTVSPost2010PropOp57
 70
     1
102
RTVSPropertyOp0
 70
     1
102
RTVSPropertyOp1
 70
     1
102
RTVSPropertyOp2
 70
     1
102
RTVSPropertyOp3
 70
     1
102
RTVSPropertyOp4
 70
     1
102
RTVSPropertyOp5
 70
     1
102
RTVSPropertyOp6
 70
     1
102
RTVSPropertyOp7
 70
     1
102
RTVSPropertyOp8
 70
     1
102
RTVSPropertyOp9
 70
     1
102
RTVSPropertyOp10
 70
     1
102
RTVSPropertyOp11
 70
     1
102
RTVSPropertyOp12
 70
     1
102
RTVSPropertyOp13
 70
     1
102
RTVSPropertyOp14
 70
     1
102
RTVSPropertyOp15
 70
     1
102
RTVSPropertyOp16
 70
     1
102
RTVSPropertyOp17
 70
     1
102
RTVSPropertyOp18
 70
     1
102
RTVSPropertyOp19
 70
     1
102
RTVSPropertyOp20
 70
     1
102
RTVSPropertyOp21
 70
     1
102
RTVSPropertyOp22
 70
     1
102
RTVSPropertyOp23
 70
     1
102
RTVSPropertyOp24
 70
     1
102
RTVSPropertyOp25
 70
     1
102
RTVSPropertyOp26
 70
     1
102
RTVSPropertyOp27
 70
     1
102
RTVSPropertyOp28
 70
     1
102
RTVSPropertyOp29
 70
     1
102
RTVSPropertyOp30
 70
     1
102
RTVSPropertyOp31
 70
     1
102
RTVSPropertyOp32
 70
     1
102
RTVSPropertyOp33
 70
     1
102
RTVSPropertyOp34
 70
     1
102
RTVSPropertyOp35
 70
     1
102
RTVSPropertyOp36
 70
     1
102
RTVSPropertyOp37
 70
     1
102
RTVSPropertyOp38
 70
     1
102
RTVSPropertyOp39
 70
     1
102
RTVSPropertyOp40
 70
     1
102
RTVSPropertyOp41
 70
     1
102
RTVSPropertyOp42
 70
     1
102
RTVSPropertyOp43
 70
     1
102
RTVSPropertyOp44
 70
     1
102
RTVSPropertyOp45
 70
     1
102
RTVSPropertyOp46
 70
     1
102
RTVSPropertyOp47
 70
     1
102
RTVSPropertyOp48
 70
     1
102
RTVSPropertyOp49
 70
     1
102
RTVSPropertyOp50
 70
     1
102
RTVSPropertyOp51
 70
     0
102
RTVSPropertyOp52
 70
     0
102
RTVSPropertyOp53
 70
     1
102
RTVSPropertyOp54
 70
     1
102
RTVSPropertyOp55
 70
     1
102
RTVSPropertyOp56
 70
     1
102
RTVSPropertyOp57
 70
     1
102
RTVSPropertyOp58
 70
     1
102
RTVSPropertyOp59
 70
     1
102
RTVSPropertyOp60
 70
     1
102
RTVSPropertyOp61
 70
     1
102
RTVSPropertyOp62
 70
     1
  0
XRECORD
  5
A2F3
102
{ACAD_REACTORS
330
A2F2
102
}
330
A2F2
100
AcDbXrecord
280
     1
102
RTVSPost2010Prop28
280
     0
102
RTVSPost2010PropOp28
 70
     1
102
RTVSPost2010Prop29
280
     1
102
RTVSPost2010PropOp29
 70
     1
102
RTVSPost2010Prop30
280
     1
102
RTVSPost2010PropOp30
 70
     1
102
RTVSPost2010Prop31
280
     0
102
RTVSPost2010PropOp31
 70
     1
102
RTVSPost2010Prop32
280
     0
102
RTVSPost2010PropOp32
 70
     1
102
RTVSPost2010Prop33
280
     0
102
RTVSPost2010PropOp33
 70
     1
102
RTVSPost2010Prop34
280
     0
102
RTVSPost2010PropOp34
 70
     1
102
RTVSPost2010Prop35
280
     0
102
RTVSPost2010PropOp35
 70
     1
102
RTVSPost2010Prop36
280
     0
102
RTVSPost2010PropOp36
 70
     1
102
RTVSPost2010Prop37
 90
       50
102
RTVSPost2010PropOp37
 70
     1
102
RTVSPost2010Prop38
140
0.0
102
RTVSPost2010PropOp38
 70
     1
102
RTVSPost2010Prop39
140
1.0
102
RTVSPost2010PropOp39
 70
     1
102
RTVSPost2010Prop40
 90
        0
102
RTVSPost2010PropOp40
 70
     1
102
RTVSPost2010Prop41ColorIndex
 90
       18
102
RTVSPost2010Prop41ColorRGB
 90
        0
102
RTVSPost2010PropOp41
 70
     1
102
RTVSPost2010Prop42
 90
       50
102
RTVSPost2010PropOp42
 70
     1
102
RTVSPost2010Prop43
 90
        3
102
RTVSPost2010PropOp43
 70
     1
102
RTVSPost2010Prop44ColorIndex
 90
        5
102
RTVSPost2010Prop44ColorRGB
 90
      255
102
RTVSPost2010PropOp44
 70
     1
102
RTVSPost2010Prop45
280
     0
102
RTVSPost2010PropOp45
 70
     1
102
RTVSPost2010Prop46
 90
       50
102
RTVSPost2010PropOp46
 70
     1
102
RTVSPost2010Prop47
 90
       50
102
RTVSPost2010PropOp47
 70
     1
102
RTVSPost2010Prop48
 90
       50
102
RTVSPost2010PropOp48
 70
     1
102
RTVSPost2010Prop49
280
     0
102
RTVSPost2010PropOp49
 70
     1
102
RTVSPost2010Prop50
 90
       50
102
RTVSPost2010PropOp50
 70
     1
102
RTVSPost2010Prop51ColorIndex
 90
      256
102
RTVSPost2010Prop51ColorRGB
 90
-16777216
102
RTVSPost2010PropOp51
 70
     0
102
RTVSPost2010Prop52
140
1.0
102
RTVSPost2010PropOp52
 70
     0
102
RTVSPost2010Prop53
 90
        2
102
RTVSPost2010PropOp53
 70
     1
102
RTVSPost2010Prop54
  1
strokes_ogs.tif
102
RTVSPost2010PropOp54
 70
     1
102
RTVSPost2010Prop55
280
     0
102
RTVSPost2010PropOp55
 70
     1
102
RTVSPost2010Prop56
140
1.0
102
RTVSPost2010PropOp56
 70
     1
102
RTVSPost2010Prop57
140
1.0
102
RTVSPost2010PropOp57
 70
     1
102
RTVSPropertyOp0
 70
     1
102
RTVSPropertyOp1
 70
     1
102
RTVSPropertyOp2
 70
     1
102
RTVSPropertyOp3
 70
     1
102
RTVSPropertyOp4
 70
     1
102
RTVSPropertyOp5
 70
     1
102
RTVSPropertyOp6
 70
     1
102
RTVSPropertyOp7
 70
     1
102
RTVSPropertyOp8
 70
     1
102
RTVSPropertyOp9
 70
     1
102
RTVSPropertyOp10
 70
     1
102
RTVSPropertyOp11
 70
     1
102
RTVSPropertyOp12
 70
     1
102
RTVSPropertyOp13
 70
     1
102
RTVSPropertyOp14
 70
     1
102
RTVSPropertyOp15
 70
     1
102
RTVSPropertyOp16
 70
     1
102
RTVSPropertyOp17
 70
     1
102
RTVSPropertyOp18
 70
     1
102
RTVSPropertyOp19
 70
     1
102
RTVSPropertyOp20
 70
     1
102
RTVSPropertyOp21
 70
     1
102
RTVSPropertyOp22
 70
     1
102
RTVSPropertyOp23
 70
     1
102
RTVSPropertyOp24
 70
     1
102
RTVSPropertyOp25
 70
     1
102
RTVSPropertyOp26
 70
     1
102
RTVSPropertyOp27
 70
     1
102
RTVSPropertyOp28
 70
     1
102
RTVSPropertyOp29
 70
     1
102
RTVSPropertyOp30
 70
     1
102
RTVSPropertyOp31
 70
     1
102
RTVSPropertyOp32
 70
     1
102
RTVSPropertyOp33
 70
     1
102
RTVSPropertyOp34
 70
     1
102
RTVSPropertyOp35
 70
     1
102
RTVSPropertyOp36
 70
     1
102
RTVSPropertyOp37
 70
     1
102
RTVSPropertyOp38
 70
     1
102
RTVSPropertyOp39
 70
     1
102
RTVSPropertyOp40
 70
     1
102
RTVSPropertyOp41
 70
     1
102
RTVSPropertyOp42
 70
     1
102
RTVSPropertyOp43
 70
     1
102
RTVSPropertyOp44
 70
     1
102
RTVSPropertyOp45
 70
     1
102
RTVSPropertyOp46
 70
     1
102
RTVSPropertyOp47
 70
     1
102
RTVSPropertyOp48
 70
     1
102
RTVSPropertyOp49
 70
     1
102
RTVSPropertyOp50
 70
     1
102
RTVSPropertyOp51
 70
     0
102
RTVSPropertyOp52
 70
     0
102
RTVSPropertyOp53
 70
     1
102
RTVSPropertyOp54
 70
     1
102
RTVSPropertyOp55
 70
     1
102
RTVSPropertyOp56
 70
     1
102
RTVSPropertyOp57
 70
     1
102
RTVSPropertyOp58
 70
     1
102
RTVSPropertyOp59
 70
     1
102
RTVSPropertyOp60
 70
     1
102
RTVSPropertyOp61
 70
     1
102
RTVSPropertyOp62
 70
     1
  0
XRECORD
  5
A30D
102
{ACAD_REACTORS
330
A30C
102
}
330
A30C
100
AcDbXrecord
280
     1
102
RTVSPost2010Prop28
280
     0
102
RTVSPost2010PropOp28
 70
     1
102
RTVSPost2010Prop29
280
     1
102
RTVSPost2010PropOp29
 70
     1
102
RTVSPost2010Prop30
280
     1
102
RTVSPost2010PropOp30
 70
     1
102
RTVSPost2010Prop31
280
     0
102
RTVSPost2010PropOp31
 70
     1
102
RTVSPost2010Prop32
280
     0
102
RTVSPost2010PropOp32
 70
     1
102
RTVSPost2010Prop33
280
     0
102
RTVSPost2010PropOp33
 70
     1
102
RTVSPost2010Prop34
280
     0
102
RTVSPost2010PropOp34
 70
     1
102
RTVSPost2010Prop35
280
     0
102
RTVSPost2010PropOp35
 70
     1
102
RTVSPost2010Prop36
280
     0
102
RTVSPost2010PropOp36
 70
     1
102
RTVSPost2010Prop37
 90
       50
102
RTVSPost2010PropOp37
 70
     0
102
RTVSPost2010Prop38
140
0.0
102
RTVSPost2010PropOp38
 70
     0
102
RTVSPost2010Prop39
140
1.0
102
RTVSPost2010PropOp39
 70
     0
102
RTVSPost2010Prop40
 90
        0
102
RTVSPost2010PropOp40
 70
     0
102
RTVSPost2010Prop41ColorIndex
 90
       18
102
RTVSPost2010Prop41ColorRGB
 90
        0
102
RTVSPost2010PropOp41
 70
     0
102
RTVSPost2010Prop42
 90
       50
102
RTVSPost2010PropOp42
 70
     0
102
RTVSPost2010Prop43
 90
        3
102
RTVSPost2010PropOp43
 70
     0
102
RTVSPost2010Prop44ColorIndex
 90
        5
102
RTVSPost2010Prop44ColorRGB
 90
      255
102
RTVSPost2010PropOp44
 70
     0
102
RTVSPost2010Prop45
280
     0
102
RTVSPost2010PropOp45
 70
     1
102
RTVSPost2010Prop46
 90
       50
102
RTVSPost2010PropOp46
 70
     0
102
RTVSPost2010Prop47
 90
       50
102
RTVSPost2010PropOp47
 70
     0
102
RTVSPost2010Prop48
 90
       50
102
RTVSPost2010PropOp48
 70
     0
102
RTVSPost2010Prop49
280
     0
102
RTVSPost2010PropOp49
 70
     1
102
RTVSPost2010Prop50
 90
       50
102
RTVSPost2010PropOp50
 70
     0
102
RTVSPost2010Prop51ColorIndex
 90
      256
102
RTVSPost2010Prop51ColorRGB
 90
-16777216
102
RTVSPost2010PropOp51
 70
     0
102
RTVSPost2010Prop52
140
1.0
102
RTVSPost2010PropOp52
 70
     0
102
RTVSPost2010Prop53
 90
        2
102
RTVSPost2010PropOp53
 70
     0
102
RTVSPost2010Prop54
  1
strokes_ogs.tif
102
RTVSPost2010PropOp54
 70
     0
102
RTVSPost2010Prop55
280
     0
102
RTVSPost2010PropOp55
 70
     1
102
RTVSPost2010Prop56
140
1.0
102
RTVSPost2010PropOp56
 70
     0
102
RTVSPost2010Prop57
140
1.0
102
RTVSPost2010PropOp57
 70
     0
102
RTVSPropertyOp0
 70
     0
102
RTVSPropertyOp1
 70
     0
102
RTVSPropertyOp2
 70
     0
102
RTVSPropertyOp3
 70
     0
102
RTVSPropertyOp4
 70
     0
102
RTVSPropertyOp5
 70
     0
102
RTVSPropertyOp6
 70
     0
102
RTVSPropertyOp7
 70
     0
102
RTVSPropertyOp8
 70
     0
102
RTVSPropertyOp9
 70
     0
102
RTVSPropertyOp10
 70
     0
102
RTVSPropertyOp11
 70
     0
102
RTVSPropertyOp12
 70
     0
102
RTVSPropertyOp13
 70
     0
102
RTVSPropertyOp14
 70
     2
102
RTVSPropertyOp15
 70
     0
102
RTVSPropertyOp16
 70
     0
102
RTVSPropertyOp17
 70
     0
102
RTVSPropertyOp18
 70
     0
102
RTVSPropertyOp19
 70
     0
102
RTVSPropertyOp20
 70
     0
102
RTVSPropertyOp21
 70
     0
102
RTVSPropertyOp22
 70
     0
102
RTVSPropertyOp23
 70
     0
102
RTVSPropertyOp24
 70
     0
102
RTVSPropertyOp25
 70
     0
102
RTVSPropertyOp26
 70
     0
102
RTVSPropertyOp27
 70
     0
102
RTVSPropertyOp28
 70
     1
102
RTVSPropertyOp29
 70
     1
102
RTVSPropertyOp30
 70
     1
102
RTVSPropertyOp31
 70
     1
102
RTVSPropertyOp32
 70
     1
102
RTVSPropertyOp33
 70
     1
102
RTVSPropertyOp34
 70
     1
102
RTVSPropertyOp35
 70
     1
102
RTVSPropertyOp36
 70
     1
102
RTVSPropertyOp37
 70
     0
102
RTVSPropertyOp38
 70
     0
102
RTVSPropertyOp39
 70
     0
102
RTVSPropertyOp40
 70
     0
102
RTVSPropertyOp41
 70
     0
102
RTVSPropertyOp42
 70
     0
102
RTVSPropertyOp43
 70
     0
102
RTVSPropertyOp44
 70
     0
102
RTVSPropertyOp45
 70
     1
102
RTVSPropertyOp46
 70
     0
102
RTVSPropertyOp47
 70
     0
102
RTVSPropertyOp48
 70
     0
102
RTVSPropertyOp49
 70
     1
102
RTVSPropertyOp50
 70
     0
102
RTVSPropertyOp51
 70
     0
102
RTVSPropertyOp52
 70
     0
102
RTVSPropertyOp53
 70
     0
102
RTVSPropertyOp54
 70
     0
102
RTVSPropertyOp55
 70
     1
102
RTVSPropertyOp56
 70
     0
102
RTVSPropertyOp57
 70
     0
102
RTVSPropertyOp58
 70
     0
102
RTVSPropertyOp59
 70
     0
102
RTVSPropertyOp60
 70
     0
102
RTVSPropertyOp61
 70
     0
102
RTVSPropertyOp62
 70
     0
  0
XRECORD
  5
A2FB
102
{ACAD_REACTORS
330
A2FA
102
}
330
A2FA
100
AcDbXrecord
280
     1
102
RTVSPost2010Prop28
280
     0
102
RTVSPost2010PropOp28
 70
     1
102
RTVSPost2010Prop29
280
     1
102
RTVSPost2010PropOp29
 70
     1
102
RTVSPost2010Prop30
280
     1
102
RTVSPost2010PropOp30
 70
     1
102
RTVSPost2010Prop31
280
     0
102
RTVSPost2010PropOp31
 70
     1
102
RTVSPost2010Prop32
280
     0
102
RTVSPost2010PropOp32
 70
     1
102
RTVSPost2010Prop33
280
     0
102
RTVSPost2010PropOp33
 70
     1
102
RTVSPost2010Prop34
280
     0
102
RTVSPost2010PropOp34
 70
     1
102
RTVSPost2010Prop35
280
     0
102
RTVSPost2010PropOp35
 70
     1
102
RTVSPost2010Prop36
280
     0
102
RTVSPost2010PropOp36
 70
     1
102
RTVSPost2010Prop37
 90
       50
102
RTVSPost2010PropOp37
 70
     1
102
RTVSPost2010Prop38
140
0.0
102
RTVSPost2010PropOp38
 70
     1
102
RTVSPost2010Prop39
140
1.0
102
RTVSPost2010PropOp39
 70
     1
102
RTVSPost2010Prop40
 90
        0
102
RTVSPost2010PropOp40
 70
     1
102
RTVSPost2010Prop41ColorIndex
 90
       18
102
RTVSPost2010Prop41ColorRGB
 90
        0
102
RTVSPost2010PropOp41
 70
     1
102
RTVSPost2010Prop42
 90
       50
102
RTVSPost2010PropOp42
 70
     1
102
RTVSPost2010Prop43
 90
        3
102
RTVSPost2010PropOp43
 70
     1
102
RTVSPost2010Prop44ColorIndex
 90
        5
102
RTVSPost2010Prop44ColorRGB
 90
      255
102
RTVSPost2010PropOp44
 70
     1
102
RTVSPost2010Prop45
280
     0
102
RTVSPost2010PropOp45
 70
     1
102
RTVSPost2010Prop46
 90
       50
102
RTVSPost2010PropOp46
 70
     1
102
RTVSPost2010Prop47
 90
       50
102
RTVSPost2010PropOp47
 70
     1
102
RTVSPost2010Prop48
 90
       50
102
RTVSPost2010PropOp48
 70
     1
102
RTVSPost2010Prop49
280
     0
102
RTVSPost2010PropOp49
 70
     1
102
RTVSPost2010Prop50
 90
       50
102
RTVSPost2010PropOp50
 70
     1
102
RTVSPost2010Prop51ColorIndex
 90
      256
102
RTVSPost2010Prop51ColorRGB
 90
-16777216
102
RTVSPost2010PropOp51
 70
     0
102
RTVSPost2010Prop52
140
1.0
102
RTVSPost2010PropOp52
 70
     0
102
RTVSPost2010Prop53
 90
        2
102
RTVSPost2010PropOp53
 70
     1
102
RTVSPost2010Prop54
  1
strokes_ogs.tif
102
RTVSPost2010PropOp54
 70
     1
102
RTVSPost2010Prop55
280
     0
102
RTVSPost2010PropOp55
 70
     1
102
RTVSPost2010Prop56
140
1.0
102
RTVSPost2010PropOp56
 70
     1
102
RTVSPost2010Prop57
140
1.0
102
RTVSPost2010PropOp57
 70
     1
102
RTVSPropertyOp0
 70
     1
102
RTVSPropertyOp1
 70
     1
102
RTVSPropertyOp2
 70
     1
102
RTVSPropertyOp3
 70
     1
102
RTVSPropertyOp4
 70
     1
102
RTVSPropertyOp5
 70
     1
102
RTVSPropertyOp6
 70
     1
102
RTVSPropertyOp7
 70
     1
102
RTVSPropertyOp8
 70
     1
102
RTVSPropertyOp9
 70
     1
102
RTVSPropertyOp10
 70
     1
102
RTVSPropertyOp11
 70
     1
102
RTVSPropertyOp12
 70
     1
102
RTVSPropertyOp13
 70
     1
102
RTVSPropertyOp14
 70
     1
102
RTVSPropertyOp15
 70
     1
102
RTVSPropertyOp16
 70
     1
102
RTVSPropertyOp17
 70
     1
102
RTVSPropertyOp18
 70
     1
102
RTVSPropertyOp19
 70
     1
102
RTVSPropertyOp20
 70
     1
102
RTVSPropertyOp21
 70
     1
102
RTVSPropertyOp22
 70
     1
102
RTVSPropertyOp23
 70
     1
102
RTVSPropertyOp24
 70
     1
102
RTVSPropertyOp25
 70
     1
102
RTVSPropertyOp26
 70
     1
102
RTVSPropertyOp27
 70
     1
102
RTVSPropertyOp28
 70
     1
102
RTVSPropertyOp29
 70
     1
102
RTVSPropertyOp30
 70
     1
102
RTVSPropertyOp31
 70
     1
102
RTVSPropertyOp32
 70
     1
102
RTVSPropertyOp33
 70
     1
102
RTVSPropertyOp34
 70
     1
102
RTVSPropertyOp35
 70
     1
102
RTVSPropertyOp36
 70
     1
102
RTVSPropertyOp37
 70
     1
102
RTVSPropertyOp38
 70
     1
102
RTVSPropertyOp39
 70
     1
102
RTVSPropertyOp40
 70
     1
102
RTVSPropertyOp41
 70
     1
102
RTVSPropertyOp42
 70
     1
102
RTVSPropertyOp43
 70
     1
102
RTVSPropertyOp44
 70
     1
102
RTVSPropertyOp45
 70
     1
102
RTVSPropertyOp46
 70
     1
102
RTVSPropertyOp47
 70
     1
102
RTVSPropertyOp48
 70
     1
102
RTVSPropertyOp49
 70
     1
102
RTVSPropertyOp50
 70
     1
102
RTVSPropertyOp51
 70
     0
102
RTVSPropertyOp52
 70
     0
102
RTVSPropertyOp53
 70
     1
102
RTVSPropertyOp54
 70
     1
102
RTVSPropertyOp55
 70
     1
102
RTVSPropertyOp56
 70
     1
102
RTVSPropertyOp57
 70
     1
102
RTVSPropertyOp58
 70
     1
102
RTVSPropertyOp59
 70
     1
102
RTVSPropertyOp60
 70
     1
102
RTVSPropertyOp61
 70
     1
102
RTVSPropertyOp62
 70
     1
  0
XRECORD
  5
A2DF
102
{ACAD_REACTORS
330
A2DE
102
}
330
A2DE
100
AcDbXrecord
280
     1
102
RTVSPost2010Prop28
280
     0
102
RTVSPost2010PropOp28
 70
     1
102
RTVSPost2010Prop29
280
     1
102
RTVSPost2010PropOp29
 70
     1
102
RTVSPost2010Prop30
280
     1
102
RTVSPost2010PropOp30
 70
     1
102
RTVSPost2010Prop31
280
     0
102
RTVSPost2010PropOp31
 70
     1
102
RTVSPost2010Prop32
280
     0
102
RTVSPost2010PropOp32
 70
     1
102
RTVSPost2010Prop33
280
     0
102
RTVSPost2010PropOp33
 70
     1
102
RTVSPost2010Prop34
280
     0
102
RTVSPost2010PropOp34
 70
     1
102
RTVSPost2010Prop35
280
     0
102
RTVSPost2010PropOp35
 70
     1
102
RTVSPost2010Prop36
280
     0
102
RTVSPost2010PropOp36
 70
     1
102
RTVSPost2010Prop37
 90
       50
102
RTVSPost2010PropOp37
 70
     1
102
RTVSPost2010Prop38
140
0.0
102
RTVSPost2010PropOp38
 70
     1
102
RTVSPost2010Prop39
140
1.0
102
RTVSPost2010PropOp39
 70
     1
102
RTVSPost2010Prop40
 90
        0
102
RTVSPost2010PropOp40
 70
     1
102
RTVSPost2010Prop41ColorIndex
 90
       18
102
RTVSPost2010Prop41ColorRGB
 90
        0
102
RTVSPost2010PropOp41
 70
     1
102
RTVSPost2010Prop42
 90
       50
102
RTVSPost2010PropOp42
 70
     1
102
RTVSPost2010Prop43
 90
        3
102
RTVSPost2010PropOp43
 70
     1
102
RTVSPost2010Prop44ColorIndex
 90
        5
102
RTVSPost2010Prop44ColorRGB
 90
      255
102
RTVSPost2010PropOp44
 70
     1
102
RTVSPost2010Prop45
280
     0
102
RTVSPost2010PropOp45
 70
     1
102
RTVSPost2010Prop46
 90
       50
102
RTVSPost2010PropOp46
 70
     1
102
RTVSPost2010Prop47
 90
       50
102
RTVSPost2010PropOp47
 70
     1
102
RTVSPost2010Prop48
 90
       50
102
RTVSPost2010PropOp48
 70
     1
102
RTVSPost2010Prop49
280
     0
102
RTVSPost2010PropOp49
 70
     1
102
RTVSPost2010Prop50
 90
       50
102
RTVSPost2010PropOp50
 70
     1
102
RTVSPost2010Prop51ColorIndex
 90
      256
102
RTVSPost2010Prop51ColorRGB
 90
-16777216
102
RTVSPost2010PropOp51
 70
     0
102
RTVSPost2010Prop52
140
1.0
102
RTVSPost2010PropOp52
 70
     0
102
RTVSPost2010Prop53
 90
        2
102
RTVSPost2010PropOp53
 70
     1
102
RTVSPost2010Prop54
  1
strokes_ogs.tif
102
RTVSPost2010PropOp54
 70
     1
102
RTVSPost2010Prop55
280
     0
102
RTVSPost2010PropOp55
 70
     1
102
RTVSPost2010Prop56
140
1.0
102
RTVSPost2010PropOp56
 70
     1
102
RTVSPost2010Prop57
140
1.0
102
RTVSPost2010PropOp57
 70
     1
102
RTVSPropertyOp0
 70
     1
102
RTVSPropertyOp1
 70
     1
102
RTVSPropertyOp2
 70
     1
102
RTVSPropertyOp3
 70
     1
102
RTVSPropertyOp4
 70
     1
102
RTVSPropertyOp5
 70
     1
102
RTVSPropertyOp6
 70
     1
102
RTVSPropertyOp7
 70
     1
102
RTVSPropertyOp8
 70
     1
102
RTVSPropertyOp9
 70
     1
102
RTVSPropertyOp10
 70
     1
102
RTVSPropertyOp11
 70
     1
102
RTVSPropertyOp12
 70
     1
102
RTVSPropertyOp13
 70
     1
102
RTVSPropertyOp14
 70
     1
102
RTVSPropertyOp15
 70
     1
102
RTVSPropertyOp16
 70
     1
102
RTVSPropertyOp17
 70
     1
102
RTVSPropertyOp18
 70
     1
102
RTVSPropertyOp19
 70
     1
102
RTVSPropertyOp20
 70
     1
102
RTVSPropertyOp21
 70
     1
102
RTVSPropertyOp22
 70
     1
102
RTVSPropertyOp23
 70
     1
102
RTVSPropertyOp24
 70
     1
102
RTVSPropertyOp25
 70
     1
102
RTVSPropertyOp26
 70
     1
102
RTVSPropertyOp27
 70
     1
102
RTVSPropertyOp28
 70
     1
102
RTVSPropertyOp29
 70
     1
102
RTVSPropertyOp30
 70
     1
102
RTVSPropertyOp31
 70
     1
102
RTVSPropertyOp32
 70
     1
102
RTVSPropertyOp33
 70
     1
102
RTVSPropertyOp34
 70
     1
102
RTVSPropertyOp35
 70
     1
102
RTVSPropertyOp36
 70
     1
102
RTVSPropertyOp37
 70
     1
102
RTVSPropertyOp38
 70
     1
102
RTVSPropertyOp39
 70
     1
102
RTVSPropertyOp40
 70
     1
102
RTVSPropertyOp41
 70
     1
102
RTVSPropertyOp42
 70
     1
102
RTVSPropertyOp43
 70
     1
102
RTVSPropertyOp44
 70
     1
102
RTVSPropertyOp45
 70
     1
102
RTVSPropertyOp46
 70
     1
102
RTVSPropertyOp47
 70
     1
102
RTVSPropertyOp48
 70
     1
102
RTVSPropertyOp49
 70
     1
102
RTVSPropertyOp50
 70
     1
102
RTVSPropertyOp51
 70
     0
102
RTVSPropertyOp52
 70
     0
102
RTVSPropertyOp53
 70
     1
102
RTVSPropertyOp54
 70
     1
102
RTVSPropertyOp55
 70
     1
102
RTVSPropertyOp56
 70
     1
102
RTVSPropertyOp57
 70
     1
102
RTVSPropertyOp58
 70
     1
102
RTVSPropertyOp59
 70
     1
102
RTVSPropertyOp60
 70
     1
102
RTVSPropertyOp61
 70
     1
102
RTVSPropertyOp62
 70
     1
  0
XRECORD
  5
A2E1
102
{ACAD_REACTORS
330
A2E0
102
}
330
A2E0
100
AcDbXrecord
280
     1
102
RTVSPost2010Prop28
280
     0
102
RTVSPost2010PropOp28
 70
     1
102
RTVSPost2010Prop29
280
     1
102
RTVSPost2010PropOp29
 70
     1
102
RTVSPost2010Prop30
280
     1
102
RTVSPost2010PropOp30
 70
     1
102
RTVSPost2010Prop31
280
     0
102
RTVSPost2010PropOp31
 70
     1
102
RTVSPost2010Prop32
280
     0
102
RTVSPost2010PropOp32
 70
     1
102
RTVSPost2010Prop33
280
     0
102
RTVSPost2010PropOp33
 70
     1
102
RTVSPost2010Prop34
280
     0
102
RTVSPost2010PropOp34
 70
     1
102
RTVSPost2010Prop35
280
     0
102
RTVSPost2010PropOp35
 70
     1
102
RTVSPost2010Prop36
280
     0
102
RTVSPost2010PropOp36
 70
     1
102
RTVSPost2010Prop37
 90
       50
102
RTVSPost2010PropOp37
 70
     1
102
RTVSPost2010Prop38
140
0.0
102
RTVSPost2010PropOp38
 70
     1
102
RTVSPost2010Prop39
140
1.0
102
RTVSPost2010PropOp39
 70
     1
102
RTVSPost2010Prop40
 90
        0
102
RTVSPost2010PropOp40
 70
     1
102
RTVSPost2010Prop41ColorIndex
 90
       18
102
RTVSPost2010Prop41ColorRGB
 90
        0
102
RTVSPost2010PropOp41
 70
     1
102
RTVSPost2010Prop42
 90
       50
102
RTVSPost2010PropOp42
 70
     1
102
RTVSPost2010Prop43
 90
        3
102
RTVSPost2010PropOp43
 70
     1
102
RTVSPost2010Prop44ColorIndex
 90
        5
102
RTVSPost2010Prop44ColorRGB
 90
      255
102
RTVSPost2010PropOp44
 70
     1
102
RTVSPost2010Prop45
280
     0
102
RTVSPost2010PropOp45
 70
     1
102
RTVSPost2010Prop46
 90
       50
102
RTVSPost2010PropOp46
 70
     1
102
RTVSPost2010Prop47
 90
       50
102
RTVSPost2010PropOp47
 70
     1
102
RTVSPost2010Prop48
 90
       50
102
RTVSPost2010PropOp48
 70
     1
102
RTVSPost2010Prop49
280
     0
102
RTVSPost2010PropOp49
 70
     1
102
RTVSPost2010Prop50
 90
       50
102
RTVSPost2010PropOp50
 70
     1
102
RTVSPost2010Prop51ColorIndex
 90
      256
102
RTVSPost2010Prop51ColorRGB
 90
-16777216
102
RTVSPost2010PropOp51
 70
     0
102
RTVSPost2010Prop52
140
1.0
102
RTVSPost2010PropOp52
 70
     0
102
RTVSPost2010Prop53
 90
        2
102
RTVSPost2010PropOp53
 70
     1
102
RTVSPost2010Prop54
  1
strokes_ogs.tif
102
RTVSPost2010PropOp54
 70
     1
102
RTVSPost2010Prop55
280
     0
102
RTVSPost2010PropOp55
 70
     1
102
RTVSPost2010Prop56
140
1.0
102
RTVSPost2010PropOp56
 70
     1
102
RTVSPost2010Prop57
140
1.0
102
RTVSPost2010PropOp57
 70
     1
102
RTVSPropertyOp0
 70
     1
102
RTVSPropertyOp1
 70
     1
102
RTVSPropertyOp2
 70
     1
102
RTVSPropertyOp3
 70
     1
102
RTVSPropertyOp4
 70
     1
102
RTVSPropertyOp5
 70
     1
102
RTVSPropertyOp6
 70
     1
102
RTVSPropertyOp7
 70
     1
102
RTVSPropertyOp8
 70
     1
102
RTVSPropertyOp9
 70
     1
102
RTVSPropertyOp10
 70
     1
102
RTVSPropertyOp11
 70
     1
102
RTVSPropertyOp12
 70
     1
102
RTVSPropertyOp13
 70
     1
102
RTVSPropertyOp14
 70
     1
102
RTVSPropertyOp15
 70
     1
102
RTVSPropertyOp16
 70
     1
102
RTVSPropertyOp17
 70
     1
102
RTVSPropertyOp18
 70
     1
102
RTVSPropertyOp19
 70
     1
102
RTVSPropertyOp20
 70
     1
102
RTVSPropertyOp21
 70
     1
102
RTVSPropertyOp22
 70
     1
102
RTVSPropertyOp23
 70
     1
102
RTVSPropertyOp24
 70
     1
102
RTVSPropertyOp25
 70
     1
102
RTVSPropertyOp26
 70
     1
102
RTVSPropertyOp27
 70
     1
102
RTVSPropertyOp28
 70
     1
102
RTVSPropertyOp29
 70
     1
102
RTVSPropertyOp30
 70
     1
102
RTVSPropertyOp31
 70
     1
102
RTVSPropertyOp32
 70
     1
102
RTVSPropertyOp33
 70
     1
102
RTVSPropertyOp34
 70
     1
102
RTVSPropertyOp35
 70
     1
102
RTVSPropertyOp36
 70
     1
102
RTVSPropertyOp37
 70
     1
102
RTVSPropertyOp38
 70
     1
102
RTVSPropertyOp39
 70
     1
102
RTVSPropertyOp40
 70
     1
102
RTVSPropertyOp41
 70
     1
102
RTVSPropertyOp42
 70
     1
102
RTVSPropertyOp43
 70
     1
102
RTVSPropertyOp44
 70
     1
102
RTVSPropertyOp45
 70
     1
102
RTVSPropertyOp46
 70
     1
102
RTVSPropertyOp47
 70
     1
102
RTVSPropertyOp48
 70
     1
102
RTVSPropertyOp49
 70
     1
102
RTVSPropertyOp50
 70
     1
102
RTVSPropertyOp51
 70
     0
102
RTVSPropertyOp52
 70
     0
102
RTVSPropertyOp53
 70
     1
102
RTVSPropertyOp54
 70
     1
102
RTVSPropertyOp55
 70
     1
102
RTVSPropertyOp56
 70
     1
102
RTVSPropertyOp57
 70
     1
102
RTVSPropertyOp58
 70
     1
102
RTVSPropertyOp59
 70
     1
102
RTVSPropertyOp60
 70
     1
102
RTVSPropertyOp61
 70
     1
102
RTVSPropertyOp62
 70
     1
  0
XRECORD
  5
A2E3
102
{ACAD_REACTORS
330
A2E2
102
}
330
A2E2
100
AcDbXrecord
280
     1
102
RTVSPost2010Prop28
280
     0
102
RTVSPost2010PropOp28
 70
     1
102
RTVSPost2010Prop29
280
     1
102
RTVSPost2010PropOp29
 70
     1
102
RTVSPost2010Prop30
280
     1
102
RTVSPost2010PropOp30
 70
     1
102
RTVSPost2010Prop31
280
     0
102
RTVSPost2010PropOp31
 70
     1
102
RTVSPost2010Prop32
280
     0
102
RTVSPost2010PropOp32
 70
     1
102
RTVSPost2010Prop33
280
     0
102
RTVSPost2010PropOp33
 70
     1
102
RTVSPost2010Prop34
280
     0
102
RTVSPost2010PropOp34
 70
     1
102
RTVSPost2010Prop35
280
     0
102
RTVSPost2010PropOp35
 70
     1
102
RTVSPost2010Prop36
280
     0
102
RTVSPost2010PropOp36
 70
     1
102
RTVSPost2010Prop37
 90
       50
102
RTVSPost2010PropOp37
 70
     1
102
RTVSPost2010Prop38
140
0.0
102
RTVSPost2010PropOp38
 70
     1
102
RTVSPost2010Prop39
140
1.0
102
RTVSPost2010PropOp39
 70
     1
102
RTVSPost2010Prop40
 90
        0
102
RTVSPost2010PropOp40
 70
     1
102
RTVSPost2010Prop41ColorIndex
 90
       18
102
RTVSPost2010Prop41ColorRGB
 90
        0
102
RTVSPost2010PropOp41
 70
     1
102
RTVSPost2010Prop42
 90
       50
102
RTVSPost2010PropOp42
 70
     1
102
RTVSPost2010Prop43
 90
        3
102
RTVSPost2010PropOp43
 70
     1
102
RTVSPost2010Prop44ColorIndex
 90
        5
102
RTVSPost2010Prop44ColorRGB
 90
      255
102
RTVSPost2010PropOp44
 70
     1
102
RTVSPost2010Prop45
280
     0
102
RTVSPost2010PropOp45
 70
     1
102
RTVSPost2010Prop46
 90
       50
102
RTVSPost2010PropOp46
 70
     1
102
RTVSPost2010Prop47
 90
       50
102
RTVSPost2010PropOp47
 70
     1
102
RTVSPost2010Prop48
 90
       50
102
RTVSPost2010PropOp48
 70
     1
102
RTVSPost2010Prop49
280
     0
102
RTVSPost2010PropOp49
 70
     1
102
RTVSPost2010Prop50
 90
       50
102
RTVSPost2010PropOp50
 70
     1
102
RTVSPost2010Prop51ColorIndex
 90
      256
102
RTVSPost2010Prop51ColorRGB
 90
-16777216
102
RTVSPost2010PropOp51
 70
     0
102
RTVSPost2010Prop52
140
1.0
102
RTVSPost2010PropOp52
 70
     0
102
RTVSPost2010Prop53
 90
        2
102
RTVSPost2010PropOp53
 70
     1
102
RTVSPost2010Prop54
  1
strokes_ogs.tif
102
RTVSPost2010PropOp54
 70
     1
102
RTVSPost2010Prop55
280
     0
102
RTVSPost2010PropOp55
 70
     1
102
RTVSPost2010Prop56
140
1.0
102
RTVSPost2010PropOp56
 70
     1
102
RTVSPost2010Prop57
140
1.0
102
RTVSPost2010PropOp57
 70
     1
102
RTVSPropertyOp0
 70
     1
102
RTVSPropertyOp1
 70
     1
102
RTVSPropertyOp2
 70
     1
102
RTVSPropertyOp3
 70
     1
102
RTVSPropertyOp4
 70
     1
102
RTVSPropertyOp5
 70
     1
102
RTVSPropertyOp6
 70
     1
102
RTVSPropertyOp7
 70
     1
102
RTVSPropertyOp8
 70
     1
102
RTVSPropertyOp9
 70
     1
102
RTVSPropertyOp10
 70
     1
102
RTVSPropertyOp11
 70
     1
102
RTVSPropertyOp12
 70
     1
102
RTVSPropertyOp13
 70
     1
102
RTVSPropertyOp14
 70
     1
102
RTVSPropertyOp15
 70
     1
102
RTVSPropertyOp16
 70
     1
102
RTVSPropertyOp17
 70
     1
102
RTVSPropertyOp18
 70
     1
102
RTVSPropertyOp19
 70
     1
102
RTVSPropertyOp20
 70
     1
102
RTVSPropertyOp21
 70
     1
102
RTVSPropertyOp22
 70
     1
102
RTVSPropertyOp23
 70
     1
102
RTVSPropertyOp24
 70
     1
102
RTVSPropertyOp25
 70
     1
102
RTVSPropertyOp26
 70
     1
102
RTVSPropertyOp27
 70
     1
102
RTVSPropertyOp28
 70
     1
102
RTVSPropertyOp29
 70
     1
102
RTVSPropertyOp30
 70
     1
102
RTVSPropertyOp31
 70
     1
102
RTVSPropertyOp32
 70
     1
102
RTVSPropertyOp33
 70
     1
102
RTVSPropertyOp34
 70
     1
102
RTVSPropertyOp35
 70
     1
102
RTVSPropertyOp36
 70
     1
102
RTVSPropertyOp37
 70
     1
102
RTVSPropertyOp38
 70
     1
102
RTVSPropertyOp39
 70
     1
102
RTVSPropertyOp40
 70
     1
102
RTVSPropertyOp41
 70
     1
102
RTVSPropertyOp42
 70
     1
102
RTVSPropertyOp43
 70
     1
102
RTVSPropertyOp44
 70
     1
102
RTVSPropertyOp45
 70
     1
102
RTVSPropertyOp46
 70
     1
102
RTVSPropertyOp47
 70
     1
102
RTVSPropertyOp48
 70
     1
102
RTVSPropertyOp49
 70
     1
102
RTVSPropertyOp50
 70
     1
102
RTVSPropertyOp51
 70
     0
102
RTVSPropertyOp52
 70
     0
102
RTVSPropertyOp53
 70
     1
102
RTVSPropertyOp54
 70
     1
102
RTVSPropertyOp55
 70
     1
102
RTVSPropertyOp56
 70
     1
102
RTVSPropertyOp57
 70
     1
102
RTVSPropertyOp58
 70
     1
102
RTVSPropertyOp59
 70
     1
102
RTVSPropertyOp60
 70
     1
102
RTVSPropertyOp61
 70
     1
102
RTVSPropertyOp62
 70
     1
  0
XRECORD
  5
A2E5
102
{ACAD_REACTORS
330
A2E4
102
}
330
A2E4
100
AcDbXrecord
280
     1
102
RTVSPost2010Prop28
280
     0
102
RTVSPost2010PropOp28
 70
     1
102
RTVSPost2010Prop29
280
     1
102
RTVSPost2010PropOp29
 70
     1
102
RTVSPost2010Prop30
280
     1
102
RTVSPost2010PropOp30
 70
     1
102
RTVSPost2010Prop31
280
     0
102
RTVSPost2010PropOp31
 70
     1
102
RTVSPost2010Prop32
280
     0
102
RTVSPost2010PropOp32
 70
     1
102
RTVSPost2010Prop33
280
     0
102
RTVSPost2010PropOp33
 70
     1
102
RTVSPost2010Prop34
280
     0
102
RTVSPost2010PropOp34
 70
     1
102
RTVSPost2010Prop35
280
     0
102
RTVSPost2010PropOp35
 70
     1
102
RTVSPost2010Prop36
280
     0
102
RTVSPost2010PropOp36
 70
     1
102
RTVSPost2010Prop37
 90
       50
102
RTVSPost2010PropOp37
 70
     1
102
RTVSPost2010Prop38
140
0.0
102
RTVSPost2010PropOp38
 70
     1
102
RTVSPost2010Prop39
140
1.0
102
RTVSPost2010PropOp39
 70
     1
102
RTVSPost2010Prop40
 90
        0
102
RTVSPost2010PropOp40
 70
     1
102
RTVSPost2010Prop41ColorIndex
 90
       18
102
RTVSPost2010Prop41ColorRGB
 90
        0
102
RTVSPost2010PropOp41
 70
     1
102
RTVSPost2010Prop42
 90
       50
102
RTVSPost2010PropOp42
 70
     1
102
RTVSPost2010Prop43
 90
        3
102
RTVSPost2010PropOp43
 70
     1
102
RTVSPost2010Prop44ColorIndex
 90
        5
102
RTVSPost2010Prop44ColorRGB
 90
      255
102
RTVSPost2010PropOp44
 70
     1
102
RTVSPost2010Prop45
280
     0
102
RTVSPost2010PropOp45
 70
     1
102
RTVSPost2010Prop46
 90
       50
102
RTVSPost2010PropOp46
 70
     1
102
RTVSPost2010Prop47
 90
       50
102
RTVSPost2010PropOp47
 70
     1
102
RTVSPost2010Prop48
 90
       50
102
RTVSPost2010PropOp48
 70
     1
102
RTVSPost2010Prop49
280
     0
102
RTVSPost2010PropOp49
 70
     1
102
RTVSPost2010Prop50
 90
       50
102
RTVSPost2010PropOp50
 70
     1
102
RTVSPost2010Prop51ColorIndex
 90
      256
102
RTVSPost2010Prop51ColorRGB
 90
-16777216
102
RTVSPost2010PropOp51
 70
     0
102
RTVSPost2010Prop52
140
1.0
102
RTVSPost2010PropOp52
 70
     0
102
RTVSPost2010Prop53
 90
        2
102
RTVSPost2010PropOp53
 70
     1
102
RTVSPost2010Prop54
  1
strokes_ogs.tif
102
RTVSPost2010PropOp54
 70
     1
102
RTVSPost2010Prop55
280
     0
102
RTVSPost2010PropOp55
 70
     1
102
RTVSPost2010Prop56
140
1.0
102
RTVSPost2010PropOp56
 70
     1
102
RTVSPost2010Prop57
140
1.0
102
RTVSPost2010PropOp57
 70
     1
102
RTVSPropertyOp0
 70
     1
102
RTVSPropertyOp1
 70
     1
102
RTVSPropertyOp2
 70
     1
102
RTVSPropertyOp3
 70
     1
102
RTVSPropertyOp4
 70
     1
102
RTVSPropertyOp5
 70
     1
102
RTVSPropertyOp6
 70
     1
102
RTVSPropertyOp7
 70
     1
102
RTVSPropertyOp8
 70
     1
102
RTVSPropertyOp9
 70
     1
102
RTVSPropertyOp10
 70
     1
102
RTVSPropertyOp11
 70
     1
102
RTVSPropertyOp12
 70
     1
102
RTVSPropertyOp13
 70
     1
102
RTVSPropertyOp14
 70
     1
102
RTVSPropertyOp15
 70
     1
102
RTVSPropertyOp16
 70
     1
102
RTVSPropertyOp17
 70
     1
102
RTVSPropertyOp18
 70
     1
102
RTVSPropertyOp19
 70
     1
102
RTVSPropertyOp20
 70
     1
102
RTVSPropertyOp21
 70
     1
102
RTVSPropertyOp22
 70
     1
102
RTVSPropertyOp23
 70
     1
102
RTVSPropertyOp24
 70
     1
102
RTVSPropertyOp25
 70
     1
102
RTVSPropertyOp26
 70
     1
102
RTVSPropertyOp27
 70
     1
102
RTVSPropertyOp28
 70
     1
102
RTVSPropertyOp29
 70
     1
102
RTVSPropertyOp30
 70
     1
102
RTVSPropertyOp31
 70
     1
102
RTVSPropertyOp32
 70
     1
102
RTVSPropertyOp33
 70
     1
102
RTVSPropertyOp34
 70
     1
102
RTVSPropertyOp35
 70
     1
102
RTVSPropertyOp36
 70
     1
102
RTVSPropertyOp37
 70
     1
102
RTVSPropertyOp38
 70
     1
102
RTVSPropertyOp39
 70
     1
102
RTVSPropertyOp40
 70
     1
102
RTVSPropertyOp41
 70
     1
102
RTVSPropertyOp42
 70
     1
102
RTVSPropertyOp43
 70
     1
102
RTVSPropertyOp44
 70
     1
102
RTVSPropertyOp45
 70
     1
102
RTVSPropertyOp46
 70
     1
102
RTVSPropertyOp47
 70
     1
102
RTVSPropertyOp48
 70
     1
102
RTVSPropertyOp49
 70
     1
102
RTVSPropertyOp50
 70
     1
102
RTVSPropertyOp51
 70
     0
102
RTVSPropertyOp52
 70
     0
102
RTVSPropertyOp53
 70
     1
102
RTVSPropertyOp54
 70
     1
102
RTVSPropertyOp55
 70
     1
102
RTVSPropertyOp56
 70
     1
102
RTVSPropertyOp57
 70
     1
102
RTVSPropertyOp58
 70
     1
102
RTVSPropertyOp59
 70
     1
102
RTVSPropertyOp60
 70
     1
102
RTVSPropertyOp61
 70
     1
102
RTVSPropertyOp62
 70
     1
  0
XRECORD
  5
A2ED
102
{ACAD_REACTORS
330
A2EC
102
}
330
A2EC
100
AcDbXrecord
280
     1
102
RTVSPost2010Prop28
280
     0
102
RTVSPost2010PropOp28
 70
     1
102
RTVSPost2010Prop29
280
     1
102
RTVSPost2010PropOp29
 70
     1
102
RTVSPost2010Prop30
280
     1
102
RTVSPost2010PropOp30
 70
     1
102
RTVSPost2010Prop31
280
     0
102
RTVSPost2010PropOp31
 70
     1
102
RTVSPost2010Prop32
280
     0
102
RTVSPost2010PropOp32
 70
     1
102
RTVSPost2010Prop33
280
     0
102
RTVSPost2010PropOp33
 70
     1
102
RTVSPost2010Prop34
280
     0
102
RTVSPost2010PropOp34
 70
     1
102
RTVSPost2010Prop35
280
     0
102
RTVSPost2010PropOp35
 70
     1
102
RTVSPost2010Prop36
280
     0
102
RTVSPost2010PropOp36
 70
     1
102
RTVSPost2010Prop37
 90
       50
102
RTVSPost2010PropOp37
 70
     1
102
RTVSPost2010Prop38
140
0.0
102
RTVSPost2010PropOp38
 70
     1
102
RTVSPost2010Prop39
140
1.0
102
RTVSPost2010PropOp39
 70
     1
102
RTVSPost2010Prop40
 90
        0
102
RTVSPost2010PropOp40
 70
     1
102
RTVSPost2010Prop41ColorIndex
 90
       18
102
RTVSPost2010Prop41ColorRGB
 90
        0
102
RTVSPost2010PropOp41
 70
     1
102
RTVSPost2010Prop42
 90
       50
102
RTVSPost2010PropOp42
 70
     1
102
RTVSPost2010Prop43
 90
        3
102
RTVSPost2010PropOp43
 70
     1
102
RTVSPost2010Prop44ColorIndex
 90
        5
102
RTVSPost2010Prop44ColorRGB
 90
      255
102
RTVSPost2010PropOp44
 70
     1
102
RTVSPost2010Prop45
280
     0
102
RTVSPost2010PropOp45
 70
     1
102
RTVSPost2010Prop46
 90
       50
102
RTVSPost2010PropOp46
 70
     1
102
RTVSPost2010Prop47
 90
       50
102
RTVSPost2010PropOp47
 70
     1
102
RTVSPost2010Prop48
 90
       50
102
RTVSPost2010PropOp48
 70
     1
102
RTVSPost2010Prop49
280
     0
102
RTVSPost2010PropOp49
 70
     1
102
RTVSPost2010Prop50
 90
       50
102
RTVSPost2010PropOp50
 70
     1
102
RTVSPost2010Prop51ColorIndex
 90
      256
102
RTVSPost2010Prop51ColorRGB
 90
-16777216
102
RTVSPost2010PropOp51
 70
     0
102
RTVSPost2010Prop52
140
1.0
102
RTVSPost2010PropOp52
 70
     0
102
RTVSPost2010Prop53
 90
        2
102
RTVSPost2010PropOp53
 70
     1
102
RTVSPost2010Prop54
  1
strokes_ogs.tif
102
RTVSPost2010PropOp54
 70
     1
102
RTVSPost2010Prop55
280
     0
102
RTVSPost2010PropOp55
 70
     1
102
RTVSPost2010Prop56
140
1.0
102
RTVSPost2010PropOp56
 70
     1
102
RTVSPost2010Prop57
140
1.0
102
RTVSPost2010PropOp57
 70
     1
102
RTVSPropertyOp0
 70
     1
102
RTVSPropertyOp1
 70
     1
102
RTVSPropertyOp2
 70
     1
102
RTVSPropertyOp3
 70
     1
102
RTVSPropertyOp4
 70
     1
102
RTVSPropertyOp5
 70
     1
102
RTVSPropertyOp6
 70
     1
102
RTVSPropertyOp7
 70
     1
102
RTVSPropertyOp8
 70
     1
102
RTVSPropertyOp9
 70
     1
102
RTVSPropertyOp10
 70
     1
102
RTVSPropertyOp11
 70
     1
102
RTVSPropertyOp12
 70
     1
102
RTVSPropertyOp13
 70
     1
102
RTVSPropertyOp14
 70
     1
102
RTVSPropertyOp15
 70
     1
102
RTVSPropertyOp16
 70
     1
102
RTVSPropertyOp17
 70
     1
102
RTVSPropertyOp18
 70
     1
102
RTVSPropertyOp19
 70
     1
102
RTVSPropertyOp20
 70
     1
102
RTVSPropertyOp21
 70
     1
102
RTVSPropertyOp22
 70
     1
102
RTVSPropertyOp23
 70
     1
102
RTVSPropertyOp24
 70
     1
102
RTVSPropertyOp25
 70
     1
102
RTVSPropertyOp26
 70
     1
102
RTVSPropertyOp27
 70
     1
102
RTVSPropertyOp28
 70
     1
102
RTVSPropertyOp29
 70
     1
102
RTVSPropertyOp30
 70
     1
102
RTVSPropertyOp31
 70
     1
102
RTVSPropertyOp32
 70
     1
102
RTVSPropertyOp33
 70
     1
102
RTVSPropertyOp34
 70
     1
102
RTVSPropertyOp35
 70
     1
102
RTVSPropertyOp36
 70
     1
102
RTVSPropertyOp37
 70
     1
102
RTVSPropertyOp38
 70
     1
102
RTVSPropertyOp39
 70
     1
102
RTVSPropertyOp40
 70
     1
102
RTVSPropertyOp41
 70
     1
102
RTVSPropertyOp42
 70
     1
102
RTVSPropertyOp43
 70
     1
102
RTVSPropertyOp44
 70
     1
102
RTVSPropertyOp45
 70
     1
102
RTVSPropertyOp46
 70
     1
102
RTVSPropertyOp47
 70
     1
102
RTVSPropertyOp48
 70
     1
102
RTVSPropertyOp49
 70
     1
102
RTVSPropertyOp50
 70
     1
102
RTVSPropertyOp51
 70
     0
102
RTVSPropertyOp52
 70
     0
102
RTVSPropertyOp53
 70
     1
102
RTVSPropertyOp54
 70
     1
102
RTVSPropertyOp55
 70
     1
102
RTVSPropertyOp56
 70
     1
102
RTVSPropertyOp57
 70
     1
102
RTVSPropertyOp58
 70
     1
102
RTVSPropertyOp59
 70
     1
102
RTVSPropertyOp60
 70
     1
102
RTVSPropertyOp61
 70
     1
102
RTVSPropertyOp62
 70
     1
  0
XRECORD
  5
A309
102
{ACAD_REACTORS
330
A308
102
}
330
A308
100
AcDbXrecord
280
     1
102
RTVSPost2010Prop28
280
     0
102
RTVSPost2010PropOp28
 70
     1
102
RTVSPost2010Prop29
280
     1
102
RTVSPost2010PropOp29
 70
     1
102
RTVSPost2010Prop30
280
     1
102
RTVSPost2010PropOp30
 70
     1
102
RTVSPost2010Prop31
280
     0
102
RTVSPost2010PropOp31
 70
     1
102
RTVSPost2010Prop32
280
     0
102
RTVSPost2010PropOp32
 70
     1
102
RTVSPost2010Prop33
280
     0
102
RTVSPost2010PropOp33
 70
     1
102
RTVSPost2010Prop34
280
     0
102
RTVSPost2010PropOp34
 70
     1
102
RTVSPost2010Prop35
280
     0
102
RTVSPost2010PropOp35
 70
     1
102
RTVSPost2010Prop36
280
     0
102
RTVSPost2010PropOp36
 70
     1
102
RTVSPost2010Prop37
 90
       50
102
RTVSPost2010PropOp37
 70
     0
102
RTVSPost2010Prop38
140
0.0
102
RTVSPost2010PropOp38
 70
     0
102
RTVSPost2010Prop39
140
1.0
102
RTVSPost2010PropOp39
 70
     0
102
RTVSPost2010Prop40
 90
        0
102
RTVSPost2010PropOp40
 70
     0
102
RTVSPost2010Prop41ColorIndex
 90
       18
102
RTVSPost2010Prop41ColorRGB
 90
        0
102
RTVSPost2010PropOp41
 70
     0
102
RTVSPost2010Prop42
 90
       50
102
RTVSPost2010PropOp42
 70
     0
102
RTVSPost2010Prop43
 90
        3
102
RTVSPost2010PropOp43
 70
     0
102
RTVSPost2010Prop44ColorIndex
 90
        5
102
RTVSPost2010Prop44ColorRGB
 90
      255
102
RTVSPost2010PropOp44
 70
     0
102
RTVSPost2010Prop45
280
     0
102
RTVSPost2010PropOp45
 70
     1
102
RTVSPost2010Prop46
 90
       50
102
RTVSPost2010PropOp46
 70
     0
102
RTVSPost2010Prop47
 90
       50
102
RTVSPost2010PropOp47
 70
     0
102
RTVSPost2010Prop48
 90
       50
102
RTVSPost2010PropOp48
 70
     0
102
RTVSPost2010Prop49
280
     0
102
RTVSPost2010PropOp49
 70
     1
102
RTVSPost2010Prop50
 90
       50
102
RTVSPost2010PropOp50
 70
     0
102
RTVSPost2010Prop51ColorIndex
 90
      256
102
RTVSPost2010Prop51ColorRGB
 90
-16777216
102
RTVSPost2010PropOp51
 70
     0
102
RTVSPost2010Prop52
140
1.0
102
RTVSPost2010PropOp52
 70
     0
102
RTVSPost2010Prop53
 90
        2
102
RTVSPost2010PropOp53
 70
     0
102
RTVSPost2010Prop54
  1
strokes_ogs.tif
102
RTVSPost2010PropOp54
 70
     0
102
RTVSPost2010Prop55
280
     0
102
RTVSPost2010PropOp55
 70
     1
102
RTVSPost2010Prop56
140
1.0
102
RTVSPost2010PropOp56
 70
     0
102
RTVSPost2010Prop57
140
1.0
102
RTVSPost2010PropOp57
 70
     0
102
RTVSPropertyOp0
 70
     0
102
RTVSPropertyOp1
 70
     0
102
RTVSPropertyOp2
 70
     0
102
RTVSPropertyOp3
 70
     0
102
RTVSPropertyOp4
 70
     0
102
RTVSPropertyOp5
 70
     0
102
RTVSPropertyOp6
 70
     0
102
RTVSPropertyOp7
 70
     0
102
RTVSPropertyOp8
 70
     0
102
RTVSPropertyOp9
 70
     0
102
RTVSPropertyOp10
 70
     0
102
RTVSPropertyOp11
 70
     0
102
RTVSPropertyOp12
 70
     0
102
RTVSPropertyOp13
 70
     0
102
RTVSPropertyOp14
 70
     2
102
RTVSPropertyOp15
 70
     0
102
RTVSPropertyOp16
 70
     0
102
RTVSPropertyOp17
 70
     0
102
RTVSPropertyOp18
 70
     0
102
RTVSPropertyOp19
 70
     0
102
RTVSPropertyOp20
 70
     0
102
RTVSPropertyOp21
 70
     0
102
RTVSPropertyOp22
 70
     0
102
RTVSPropertyOp23
 70
     0
102
RTVSPropertyOp24
 70
     0
102
RTVSPropertyOp25
 70
     0
102
RTVSPropertyOp26
 70
     0
102
RTVSPropertyOp27
 70
     0
102
RTVSPropertyOp28
 70
     1
102
RTVSPropertyOp29
 70
     1
102
RTVSPropertyOp30
 70
     1
102
RTVSPropertyOp31
 70
     1
102
RTVSPropertyOp32
 70
     1
102
RTVSPropertyOp33
 70
     1
102
RTVSPropertyOp34
 70
     1
102
RTVSPropertyOp35
 70
     1
102
RTVSPropertyOp36
 70
     1
102
RTVSPropertyOp37
 70
     0
102
RTVSPropertyOp38
 70
     0
102
RTVSPropertyOp39
 70
     0
102
RTVSPropertyOp40
 70
     0
102
RTVSPropertyOp41
 70
     0
102
RTVSPropertyOp42
 70
     0
102
RTVSPropertyOp43
 70
     0
102
RTVSPropertyOp44
 70
     0
102
RTVSPropertyOp45
 70
     1
102
RTVSPropertyOp46
 70
     0
102
RTVSPropertyOp47
 70
     0
102
RTVSPropertyOp48
 70
     0
102
RTVSPropertyOp49
 70
     1
102
RTVSPropertyOp50
 70
     0
102
RTVSPropertyOp51
 70
     0
102
RTVSPropertyOp52
 70
     0
102
RTVSPropertyOp53
 70
     0
102
RTVSPropertyOp54
 70
     0
102
RTVSPropertyOp55
 70
     1
102
RTVSPropertyOp56
 70
     0
102
RTVSPropertyOp57
 70
     0
102
RTVSPropertyOp58
 70
     0
102
RTVSPropertyOp59
 70
     0
102
RTVSPropertyOp60
 70
     0
102
RTVSPropertyOp61
 70
     0
102
RTVSPropertyOp62
 70
     0
  0
XRECORD
  5
A2F9
102
{ACAD_REACTORS
330
A2F8
102
}
330
A2F8
100
AcDbXrecord
280
     1
102
RTVSPost2010Prop28
280
     0
102
RTVSPost2010PropOp28
 70
     1
102
RTVSPost2010Prop29
280
     1
102
RTVSPost2010PropOp29
 70
     1
102
RTVSPost2010Prop30
280
     1
102
RTVSPost2010PropOp30
 70
     1
102
RTVSPost2010Prop31
280
     0
102
RTVSPost2010PropOp31
 70
     1
102
RTVSPost2010Prop32
280
     0
102
RTVSPost2010PropOp32
 70
     1
102
RTVSPost2010Prop33
280
     0
102
RTVSPost2010PropOp33
 70
     1
102
RTVSPost2010Prop34
280
     0
102
RTVSPost2010PropOp34
 70
     1
102
RTVSPost2010Prop35
280
     0
102
RTVSPost2010PropOp35
 70
     1
102
RTVSPost2010Prop36
280
     0
102
RTVSPost2010PropOp36
 70
     1
102
RTVSPost2010Prop37
 90
       50
102
RTVSPost2010PropOp37
 70
     1
102
RTVSPost2010Prop38
140
0.0
102
RTVSPost2010PropOp38
 70
     1
102
RTVSPost2010Prop39
140
1.0
102
RTVSPost2010PropOp39
 70
     1
102
RTVSPost2010Prop40
 90
        0
102
RTVSPost2010PropOp40
 70
     1
102
RTVSPost2010Prop41ColorIndex
 90
       18
102
RTVSPost2010Prop41ColorRGB
 90
        0
102
RTVSPost2010PropOp41
 70
     1
102
RTVSPost2010Prop42
 90
       50
102
RTVSPost2010PropOp42
 70
     1
102
RTVSPost2010Prop43
 90
        3
102
RTVSPost2010PropOp43
 70
     1
102
RTVSPost2010Prop44ColorIndex
 90
        5
102
RTVSPost2010Prop44ColorRGB
 90
      255
102
RTVSPost2010PropOp44
 70
     1
102
RTVSPost2010Prop45
280
     0
102
RTVSPost2010PropOp45
 70
     1
102
RTVSPost2010Prop46
 90
       50
102
RTVSPost2010PropOp46
 70
     1
102
RTVSPost2010Prop47
 90
       50
102
RTVSPost2010PropOp47
 70
     1
102
RTVSPost2010Prop48
 90
       50
102
RTVSPost2010PropOp48
 70
     1
102
RTVSPost2010Prop49
280
     0
102
RTVSPost2010PropOp49
 70
     1
102
RTVSPost2010Prop50
 90
       50
102
RTVSPost2010PropOp50
 70
     1
102
RTVSPost2010Prop51ColorIndex
 90
      256
102
RTVSPost2010Prop51ColorRGB
 90
-16777216
102
RTVSPost2010PropOp51
 70
     0
102
RTVSPost2010Prop52
140
1.0
102
RTVSPost2010PropOp52
 70
     0
102
RTVSPost2010Prop53
 90
        2
102
RTVSPost2010PropOp53
 70
     1
102
RTVSPost2010Prop54
  1
strokes_ogs.tif
102
RTVSPost2010PropOp54
 70
     1
102
RTVSPost2010Prop55
280
     0
102
RTVSPost2010PropOp55
 70
     1
102
RTVSPost2010Prop56
140
1.0
102
RTVSPost2010PropOp56
 70
     1
102
RTVSPost2010Prop57
140
1.0
102
RTVSPost2010PropOp57
 70
     1
102
RTVSPropertyOp0
 70
     1
102
RTVSPropertyOp1
 70
     1
102
RTVSPropertyOp2
 70
     1
102
RTVSPropertyOp3
 70
     1
102
RTVSPropertyOp4
 70
     1
102
RTVSPropertyOp5
 70
     1
102
RTVSPropertyOp6
 70
     1
102
RTVSPropertyOp7
 70
     1
102
RTVSPropertyOp8
 70
     1
102
RTVSPropertyOp9
 70
     1
102
RTVSPropertyOp10
 70
     1
102
RTVSPropertyOp11
 70
     1
102
RTVSPropertyOp12
 70
     1
102
RTVSPropertyOp13
 70
     1
102
RTVSPropertyOp14
 70
     1
102
RTVSPropertyOp15
 70
     1
102
RTVSPropertyOp16
 70
     1
102
RTVSPropertyOp17
 70
     1
102
RTVSPropertyOp18
 70
     1
102
RTVSPropertyOp19
 70
     1
102
RTVSPropertyOp20
 70
     1
102
RTVSPropertyOp21
 70
     1
102
RTVSPropertyOp22
 70
     1
102
RTVSPropertyOp23
 70
     1
102
RTVSPropertyOp24
 70
     1
102
RTVSPropertyOp25
 70
     1
102
RTVSPropertyOp26
 70
     1
102
RTVSPropertyOp27
 70
     1
102
RTVSPropertyOp28
 70
     1
102
RTVSPropertyOp29
 70
     1
102
RTVSPropertyOp30
 70
     1
102
RTVSPropertyOp31
 70
     1
102
RTVSPropertyOp32
 70
     1
102
RTVSPropertyOp33
 70
     1
102
RTVSPropertyOp34
 70
     1
102
RTVSPropertyOp35
 70
     1
102
RTVSPropertyOp36
 70
     1
102
RTVSPropertyOp37
 70
     1
102
RTVSPropertyOp38
 70
     1
102
RTVSPropertyOp39
 70
     1
102
RTVSPropertyOp40
 70
     1
102
RTVSPropertyOp41
 70
     1
102
RTVSPropertyOp42
 70
     1
102
RTVSPropertyOp43
 70
     1
102
RTVSPropertyOp44
 70
     1
102
RTVSPropertyOp45
 70
     1
102
RTVSPropertyOp46
 70
     1
102
RTVSPropertyOp47
 70
     1
102
RTVSPropertyOp48
 70
     1
102
RTVSPropertyOp49
 70
     1
102
RTVSPropertyOp50
 70
     1
102
RTVSPropertyOp51
 70
     0
102
RTVSPropertyOp52
 70
     0
102
RTVSPropertyOp53
 70
     1
102
RTVSPropertyOp54
 70
     1
102
RTVSPropertyOp55
 70
     1
102
RTVSPropertyOp56
 70
     1
102
RTVSPropertyOp57
 70
     1
102
RTVSPropertyOp58
 70
     1
102
RTVSPropertyOp59
 70
     1
102
RTVSPropertyOp60
 70
     1
102
RTVSPropertyOp61
 70
     1
102
RTVSPropertyOp62
 70
     1
  0
XRECORD
  5
A30B
102
{ACAD_REACTORS
330
A30A
102
}
330
A30A
100
AcDbXrecord
280
     1
102
RTVSPost2010Prop28
280
     0
102
RTVSPost2010PropOp28
 70
     1
102
RTVSPost2010Prop29
280
     1
102
RTVSPost2010PropOp29
 70
     1
102
RTVSPost2010Prop30
280
     1
102
RTVSPost2010PropOp30
 70
     1
102
RTVSPost2010Prop31
280
     0
102
RTVSPost2010PropOp31
 70
     1
102
RTVSPost2010Prop32
280
     0
102
RTVSPost2010PropOp32
 70
     1
102
RTVSPost2010Prop33
280
     0
102
RTVSPost2010PropOp33
 70
     1
102
RTVSPost2010Prop34
280
     0
102
RTVSPost2010PropOp34
 70
     1
102
RTVSPost2010Prop35
280
     0
102
RTVSPost2010PropOp35
 70
     1
102
RTVSPost2010Prop36
280
     0
102
RTVSPost2010PropOp36
 70
     1
102
RTVSPost2010Prop37
 90
       50
102
RTVSPost2010PropOp37
 70
     0
102
RTVSPost2010Prop38
140
0.0
102
RTVSPost2010PropOp38
 70
     0
102
RTVSPost2010Prop39
140
1.0
102
RTVSPost2010PropOp39
 70
     0
102
RTVSPost2010Prop40
 90
        0
102
RTVSPost2010PropOp40
 70
     0
102
RTVSPost2010Prop41ColorIndex
 90
       18
102
RTVSPost2010Prop41ColorRGB
 90
        0
102
RTVSPost2010PropOp41
 70
     0
102
RTVSPost2010Prop42
 90
       50
102
RTVSPost2010PropOp42
 70
     0
102
RTVSPost2010Prop43
 90
        3
102
RTVSPost2010PropOp43
 70
     0
102
RTVSPost2010Prop44ColorIndex
 90
        5
102
RTVSPost2010Prop44ColorRGB
 90
      255
102
RTVSPost2010PropOp44
 70
     0
102
RTVSPost2010Prop45
280
     0
102
RTVSPost2010PropOp45
 70
     1
102
RTVSPost2010Prop46
 90
       50
102
RTVSPost2010PropOp46
 70
     0
102
RTVSPost2010Prop47
 90
       50
102
RTVSPost2010PropOp47
 70
     0
102
RTVSPost2010Prop48
 90
       50
102
RTVSPost2010PropOp48
 70
     0
102
RTVSPost2010Prop49
280
     0
102
RTVSPost2010PropOp49
 70
     1
102
RTVSPost2010Prop50
 90
       50
102
RTVSPost2010PropOp50
 70
     0
102
RTVSPost2010Prop51ColorIndex
 90
      256
102
RTVSPost2010Prop51ColorRGB
 90
-16777216
102
RTVSPost2010PropOp51
 70
     0
102
RTVSPost2010Prop52
140
1.0
102
RTVSPost2010PropOp52
 70
     0
102
RTVSPost2010Prop53
 90
        2
102
RTVSPost2010PropOp53
 70
     0
102
RTVSPost2010Prop54
  1
strokes_ogs.tif
102
RTVSPost2010PropOp54
 70
     0
102
RTVSPost2010Prop55
280
     0
102
RTVSPost2010PropOp55
 70
     1
102
RTVSPost2010Prop56
140
1.0
102
RTVSPost2010PropOp56
 70
     0
102
RTVSPost2010Prop57
140
1.0
102
RTVSPost2010PropOp57
 70
     0
102
RTVSPropertyOp0
 70
     0
102
RTVSPropertyOp1
 70
     0
102
RTVSPropertyOp2
 70
     0
102
RTVSPropertyOp3
 70
     0
102
RTVSPropertyOp4
 70
     0
102
RTVSPropertyOp5
 70
     0
102
RTVSPropertyOp6
 70
     0
102
RTVSPropertyOp7
 70
     0
102
RTVSPropertyOp8
 70
     0
102
RTVSPropertyOp9
 70
     0
102
RTVSPropertyOp10
 70
     0
102
RTVSPropertyOp11
 70
     0
102
RTVSPropertyOp12
 70
     0
102
RTVSPropertyOp13
 70
     0
102
RTVSPropertyOp14
 70
     2
102
RTVSPropertyOp15
 70
     0
102
RTVSPropertyOp16
 70
     0
102
RTVSPropertyOp17
 70
     0
102
RTVSPropertyOp18
 70
     0
102
RTVSPropertyOp19
 70
     0
102
RTVSPropertyOp20
 70
     0
102
RTVSPropertyOp21
 70
     0
102
RTVSPropertyOp22
 70
     0
102
RTVSPropertyOp23
 70
     0
102
RTVSPropertyOp24
 70
     0
102
RTVSPropertyOp25
 70
     0
102
RTVSPropertyOp26
 70
     0
102
RTVSPropertyOp27
 70
     0
102
RTVSPropertyOp28
 70
     1
102
RTVSPropertyOp29
 70
     1
102
RTVSPropertyOp30
 70
     1
102
RTVSPropertyOp31
 70
     1
102
RTVSPropertyOp32
 70
     1
102
RTVSPropertyOp33
 70
     1
102
RTVSPropertyOp34
 70
     1
102
RTVSPropertyOp35
 70
     1
102
RTVSPropertyOp36
 70
     1
102
RTVSPropertyOp37
 70
     0
102
RTVSPropertyOp38
 70
     0
102
RTVSPropertyOp39
 70
     0
102
RTVSPropertyOp40
 70
     0
102
RTVSPropertyOp41
 70
     0
102
RTVSPropertyOp42
 70
     0
102
RTVSPropertyOp43
 70
     0
102
RTVSPropertyOp44
 70
     0
102
RTVSPropertyOp45
 70
     1
102
RTVSPropertyOp46
 70
     0
102
RTVSPropertyOp47
 70
     0
102
RTVSPropertyOp48
 70
     0
102
RTVSPropertyOp49
 70
     1
102
RTVSPropertyOp50
 70
     0
102
RTVSPropertyOp51
 70
     0
102
RTVSPropertyOp52
 70
     0
102
RTVSPropertyOp53
 70
     0
102
RTVSPropertyOp54
 70
     0
102
RTVSPropertyOp55
 70
     1
102
RTVSPropertyOp56
 70
     0
102
RTVSPropertyOp57
 70
     0
102
RTVSPropertyOp58
 70
     0
102
RTVSPropertyOp59
 70
     0
102
RTVSPropertyOp60
 70
     0
102
RTVSPropertyOp61
 70
     0
102
RTVSPropertyOp62
 70
     0
  0
XRECORD
  5
A2F1
102
{ACAD_REACTORS
330
A2F0
102
}
330
A2F0
100
AcDbXrecord
280
     1
102
RTVSPost2010Prop28
280
     0
102
RTVSPost2010PropOp28
 70
     1
102
RTVSPost2010Prop29
280
     1
102
RTVSPost2010PropOp29
 70
     1
102
RTVSPost2010Prop30
280
     1
102
RTVSPost2010PropOp30
 70
     1
102
RTVSPost2010Prop31
280
     0
102
RTVSPost2010PropOp31
 70
     1
102
RTVSPost2010Prop32
280
     0
102
RTVSPost2010PropOp32
 70
     1
102
RTVSPost2010Prop33
280
     0
102
RTVSPost2010PropOp33
 70
     1
102
RTVSPost2010Prop34
280
     0
102
RTVSPost2010PropOp34
 70
     1
102
RTVSPost2010Prop35
280
     0
102
RTVSPost2010PropOp35
 70
     1
102
RTVSPost2010Prop36
280
     0
102
RTVSPost2010PropOp36
 70
     1
102
RTVSPost2010Prop37
 90
       50
102
RTVSPost2010PropOp37
 70
     1
102
RTVSPost2010Prop38
140
0.0
102
RTVSPost2010PropOp38
 70
     1
102
RTVSPost2010Prop39
140
1.0
102
RTVSPost2010PropOp39
 70
     1
102
RTVSPost2010Prop40
 90
        0
102
RTVSPost2010PropOp40
 70
     1
102
RTVSPost2010Prop41ColorIndex
 90
       18
102
RTVSPost2010Prop41ColorRGB
 90
        0
102
RTVSPost2010PropOp41
 70
     1
102
RTVSPost2010Prop42
 90
       50
102
RTVSPost2010PropOp42
 70
     1
102
RTVSPost2010Prop43
 90
        3
102
RTVSPost2010PropOp43
 70
     1
102
RTVSPost2010Prop44ColorIndex
 90
        5
102
RTVSPost2010Prop44ColorRGB
 90
      255
102
RTVSPost2010PropOp44
 70
     1
102
RTVSPost2010Prop45
280
     0
102
RTVSPost2010PropOp45
 70
     1
102
RTVSPost2010Prop46
 90
       50
102
RTVSPost2010PropOp46
 70
     1
102
RTVSPost2010Prop47
 90
       50
102
RTVSPost2010PropOp47
 70
     1
102
RTVSPost2010Prop48
 90
       50
102
RTVSPost2010PropOp48
 70
     1
102
RTVSPost2010Prop49
280
     0
102
RTVSPost2010PropOp49
 70
     1
102
RTVSPost2010Prop50
 90
       50
102
RTVSPost2010PropOp50
 70
     1
102
RTVSPost2010Prop51ColorIndex
 90
      256
102
RTVSPost2010Prop51ColorRGB
 90
-16777216
102
RTVSPost2010PropOp51
 70
     0
102
RTVSPost2010Prop52
140
1.0
102
RTVSPost2010PropOp52
 70
     0
102
RTVSPost2010Prop53
 90
        2
102
RTVSPost2010PropOp53
 70
     1
102
RTVSPost2010Prop54
  1
strokes_ogs.tif
102
RTVSPost2010PropOp54
 70
     1
102
RTVSPost2010Prop55
280
     0
102
RTVSPost2010PropOp55
 70
     1
102
RTVSPost2010Prop56
140
1.0
102
RTVSPost2010PropOp56
 70
     1
102
RTVSPost2010Prop57
140
1.0
102
RTVSPost2010PropOp57
 70
     1
102
RTVSPropertyOp0
 70
     1
102
RTVSPropertyOp1
 70
     1
102
RTVSPropertyOp2
 70
     1
102
RTVSPropertyOp3
 70
     1
102
RTVSPropertyOp4
 70
     1
102
RTVSPropertyOp5
 70
     1
102
RTVSPropertyOp6
 70
     1
102
RTVSPropertyOp7
 70
     1
102
RTVSPropertyOp8
 70
     1
102
RTVSPropertyOp9
 70
     1
102
RTVSPropertyOp10
 70
     1
102
RTVSPropertyOp11
 70
     1
102
RTVSPropertyOp12
 70
     1
102
RTVSPropertyOp13
 70
     1
102
RTVSPropertyOp14
 70
     1
102
RTVSPropertyOp15
 70
     1
102
RTVSPropertyOp16
 70
     1
102
RTVSPropertyOp17
 70
     1
102
RTVSPropertyOp18
 70
     1
102
RTVSPropertyOp19
 70
     1
102
RTVSPropertyOp20
 70
     1
102
RTVSPropertyOp21
 70
     1
102
RTVSPropertyOp22
 70
     1
102
RTVSPropertyOp23
 70
     1
102
RTVSPropertyOp24
 70
     1
102
RTVSPropertyOp25
 70
     1
102
RTVSPropertyOp26
 70
     1
102
RTVSPropertyOp27
 70
     1
102
RTVSPropertyOp28
 70
     1
102
RTVSPropertyOp29
 70
     1
102
RTVSPropertyOp30
 70
     1
102
RTVSPropertyOp31
 70
     1
102
RTVSPropertyOp32
 70
     1
102
RTVSPropertyOp33
 70
     1
102
RTVSPropertyOp34
 70
     1
102
RTVSPropertyOp35
 70
     1
102
RTVSPropertyOp36
 70
     1
102
RTVSPropertyOp37
 70
     1
102
RTVSPropertyOp38
 70
     1
102
RTVSPropertyOp39
 70
     1
102
RTVSPropertyOp40
 70
     1
102
RTVSPropertyOp41
 70
     1
102
RTVSPropertyOp42
 70
     1
102
RTVSPropertyOp43
 70
     1
102
RTVSPropertyOp44
 70
     1
102
RTVSPropertyOp45
 70
     1
102
RTVSPropertyOp46
 70
     1
102
RTVSPropertyOp47
 70
     1
102
RTVSPropertyOp48
 70
     1
102
RTVSPropertyOp49
 70
     1
102
RTVSPropertyOp50
 70
     1
102
RTVSPropertyOp51
 70
     0
102
RTVSPropertyOp52
 70
     0
102
RTVSPropertyOp53
 70
     1
102
RTVSPropertyOp54
 70
     1
102
RTVSPropertyOp55
 70
     1
102
RTVSPropertyOp56
 70
     1
102
RTVSPropertyOp57
 70
     1
102
RTVSPropertyOp58
 70
     1
102
RTVSPropertyOp59
 70
     1
102
RTVSPropertyOp60
 70
     1
102
RTVSPropertyOp61
 70
     1
102
RTVSPropertyOp62
 70
     1
  0
XRECORD
  5
A307
102
{ACAD_REACTORS
330
A306
102
}
330
A306
100
AcDbXrecord
280
     1
102
RTVSPost2010Prop28
280
     0
102
RTVSPost2010PropOp28
 70
     1
102
RTVSPost2010Prop29
280
     1
102
RTVSPost2010PropOp29
 70
     1
102
RTVSPost2010Prop30
280
     1
102
RTVSPost2010PropOp30
 70
     1
102
RTVSPost2010Prop31
280
     0
102
RTVSPost2010PropOp31
 70
     1
102
RTVSPost2010Prop32
280
     0
102
RTVSPost2010PropOp32
 70
     1
102
RTVSPost2010Prop33
280
     0
102
RTVSPost2010PropOp33
 70
     1
102
RTVSPost2010Prop34
280
     0
102
RTVSPost2010PropOp34
 70
     1
102
RTVSPost2010Prop35
280
     0
102
RTVSPost2010PropOp35
 70
     1
102
RTVSPost2010Prop36
280
     0
102
RTVSPost2010PropOp36
 70
     1
102
RTVSPost2010Prop37
 90
       50
102
RTVSPost2010PropOp37
 70
     1
102
RTVSPost2010Prop38
140
0.0
102
RTVSPost2010PropOp38
 70
     1
102
RTVSPost2010Prop39
140
1.0
102
RTVSPost2010PropOp39
 70
     1
102
RTVSPost2010Prop40
 90
        0
102
RTVSPost2010PropOp40
 70
     1
102
RTVSPost2010Prop41ColorIndex
 90
       18
102
RTVSPost2010Prop41ColorRGB
 90
        0
102
RTVSPost2010PropOp41
 70
     1
102
RTVSPost2010Prop42
 90
       50
102
RTVSPost2010PropOp42
 70
     1
102
RTVSPost2010Prop43
 90
        3
102
RTVSPost2010PropOp43
 70
     1
102
RTVSPost2010Prop44ColorIndex
 90
        5
102
RTVSPost2010Prop44ColorRGB
 90
      255
102
RTVSPost2010PropOp44
 70
     1
102
RTVSPost2010Prop45
280
     0
102
RTVSPost2010PropOp45
 70
     1
102
RTVSPost2010Prop46
 90
       50
102
RTVSPost2010PropOp46
 70
     1
102
RTVSPost2010Prop47
 90
       50
102
RTVSPost2010PropOp47
 70
     1
102
RTVSPost2010Prop48
 90
       50
102
RTVSPost2010PropOp48
 70
     1
102
RTVSPost2010Prop49
280
     0
102
RTVSPost2010PropOp49
 70
     1
102
RTVSPost2010Prop50
 90
       50
102
RTVSPost2010PropOp50
 70
     1
102
RTVSPost2010Prop51ColorIndex
 90
      256
102
RTVSPost2010Prop51ColorRGB
 90
-16777216
102
RTVSPost2010PropOp51
 70
     0
102
RTVSPost2010Prop52
140
1.0
102
RTVSPost2010PropOp52
 70
     0
102
RTVSPost2010Prop53
 90
        2
102
RTVSPost2010PropOp53
 70
     1
102
RTVSPost2010Prop54
  1
strokes_ogs.tif
102
RTVSPost2010PropOp54
 70
     1
102
RTVSPost2010Prop55
280
     0
102
RTVSPost2010PropOp55
 70
     1
102
RTVSPost2010Prop56
140
1.0
102
RTVSPost2010PropOp56
 70
     1
102
RTVSPost2010Prop57
140
1.0
102
RTVSPost2010PropOp57
 70
     1
102
RTVSPropertyOp0
 70
     1
102
RTVSPropertyOp1
 70
     1
102
RTVSPropertyOp2
 70
     1
102
RTVSPropertyOp3
 70
     1
102
RTVSPropertyOp4
 70
     1
102
RTVSPropertyOp5
 70
     1
102
RTVSPropertyOp6
 70
     1
102
RTVSPropertyOp7
 70
     1
102
RTVSPropertyOp8
 70
     1
102
RTVSPropertyOp9
 70
     1
102
RTVSPropertyOp10
 70
     1
102
RTVSPropertyOp11
 70
     1
102
RTVSPropertyOp12
 70
     1
102
RTVSPropertyOp13
 70
     1
102
RTVSPropertyOp14
 70
     1
102
RTVSPropertyOp15
 70
     1
102
RTVSPropertyOp16
 70
     1
102
RTVSPropertyOp17
 70
     1
102
RTVSPropertyOp18
 70
     1
102
RTVSPropertyOp19
 70
     1
102
RTVSPropertyOp20
 70
     1
102
RTVSPropertyOp21
 70
     1
102
RTVSPropertyOp22
 70
     1
102
RTVSPropertyOp23
 70
     1
102
RTVSPropertyOp24
 70
     1
102
RTVSPropertyOp25
 70
     1
102
RTVSPropertyOp26
 70
     1
102
RTVSPropertyOp27
 70
     1
102
RTVSPropertyOp28
 70
     1
102
RTVSPropertyOp29
 70
     1
102
RTVSPropertyOp30
 70
     1
102
RTVSPropertyOp31
 70
     1
102
RTVSPropertyOp32
 70
     1
102
RTVSPropertyOp33
 70
     1
102
RTVSPropertyOp34
 70
     1
102
RTVSPropertyOp35
 70
     1
102
RTVSPropertyOp36
 70
     1
102
RTVSPropertyOp37
 70
     1
102
RTVSPropertyOp38
 70
     1
102
RTVSPropertyOp39
 70
     1
102
RTVSPropertyOp40
 70
     1
102
RTVSPropertyOp41
 70
     1
102
RTVSPropertyOp42
 70
     1
102
RTVSPropertyOp43
 70
     1
102
RTVSPropertyOp44
 70
     1
102
RTVSPropertyOp45
 70
     1
102
RTVSPropertyOp46
 70
     1
102
RTVSPropertyOp47
 70
     1
102
RTVSPropertyOp48
 70
     1
102
RTVSPropertyOp49
 70
     1
102
RTVSPropertyOp50
 70
     1
102
RTVSPropertyOp51
 70
     0
102
RTVSPropertyOp52
 70
     0
102
RTVSPropertyOp53
 70
     1
102
RTVSPropertyOp54
 70
     1
102
RTVSPropertyOp55
 70
     1
102
RTVSPropertyOp56
 70
     1
102
RTVSPropertyOp57
 70
     1
102
RTVSPropertyOp58
 70
     1
102
RTVSPropertyOp59
 70
     1
102
RTVSPropertyOp60
 70
     1
102
RTVSPropertyOp61
 70
     1
102
RTVSPropertyOp62
 70
     1
  0
XRECORD
  5
A305
102
{ACAD_REACTORS
330
A304
102
}
330
A304
100
AcDbXrecord
280
     1
102
RTVSPost2010Prop28
280
     0
102
RTVSPost2010PropOp28
 70
     1
102
RTVSPost2010Prop29
280
     1
102
RTVSPost2010PropOp29
 70
     1
102
RTVSPost2010Prop30
280
     1
102
RTVSPost2010PropOp30
 70
     1
102
RTVSPost2010Prop31
280
     0
102
RTVSPost2010PropOp31
 70
     1
102
RTVSPost2010Prop32
280
     0
102
RTVSPost2010PropOp32
 70
     1
102
RTVSPost2010Prop33
280
     0
102
RTVSPost2010PropOp33
 70
     1
102
RTVSPost2010Prop34
280
     0
102
RTVSPost2010PropOp34
 70
     1
102
RTVSPost2010Prop35
280
     0
102
RTVSPost2010PropOp35
 70
     1
102
RTVSPost2010Prop36
280
     0
102
RTVSPost2010PropOp36
 70
     1
102
RTVSPost2010Prop37
 90
       50
102
RTVSPost2010PropOp37
 70
     1
102
RTVSPost2010Prop38
140
0.0
102
RTVSPost2010PropOp38
 70
     1
102
RTVSPost2010Prop39
140
1.0
102
RTVSPost2010PropOp39
 70
     1
102
RTVSPost2010Prop40
 90
        0
102
RTVSPost2010PropOp40
 70
     1
102
RTVSPost2010Prop41ColorIndex
 90
       18
102
RTVSPost2010Prop41ColorRGB
 90
        0
102
RTVSPost2010PropOp41
 70
     1
102
RTVSPost2010Prop42
 90
       50
102
RTVSPost2010PropOp42
 70
     1
102
RTVSPost2010Prop43
 90
        3
102
RTVSPost2010PropOp43
 70
     1
102
RTVSPost2010Prop44ColorIndex
 90
        5
102
RTVSPost2010Prop44ColorRGB
 90
      255
102
RTVSPost2010PropOp44
 70
     1
102
RTVSPost2010Prop45
280
     0
102
RTVSPost2010PropOp45
 70
     1
102
RTVSPost2010Prop46
 90
       50
102
RTVSPost2010PropOp46
 70
     1
102
RTVSPost2010Prop47
 90
       50
102
RTVSPost2010PropOp47
 70
     1
102
RTVSPost2010Prop48
 90
       50
102
RTVSPost2010PropOp48
 70
     1
102
RTVSPost2010Prop49
280
     0
102
RTVSPost2010PropOp49
 70
     1
102
RTVSPost2010Prop50
 90
       50
102
RTVSPost2010PropOp50
 70
     1
102
RTVSPost2010Prop51ColorIndex
 90
      256
102
RTVSPost2010Prop51ColorRGB
 90
-16777216
102
RTVSPost2010PropOp51
 70
     0
102
RTVSPost2010Prop52
140
1.0
102
RTVSPost2010PropOp52
 70
     0
102
RTVSPost2010Prop53
 90
        2
102
RTVSPost2010PropOp53
 70
     1
102
RTVSPost2010Prop54
  1
strokes_ogs.tif
102
RTVSPost2010PropOp54
 70
     1
102
RTVSPost2010Prop55
280
     0
102
RTVSPost2010PropOp55
 70
     1
102
RTVSPost2010Prop56
140
1.0
102
RTVSPost2010PropOp56
 70
     1
102
RTVSPost2010Prop57
140
1.0
102
RTVSPost2010PropOp57
 70
     1
102
RTVSPropertyOp0
 70
     1
102
RTVSPropertyOp1
 70
     1
102
RTVSPropertyOp2
 70
     1
102
RTVSPropertyOp3
 70
     1
102
RTVSPropertyOp4
 70
     1
102
RTVSPropertyOp5
 70
     1
102
RTVSPropertyOp6
 70
     1
102
RTVSPropertyOp7
 70
     1
102
RTVSPropertyOp8
 70
     1
102
RTVSPropertyOp9
 70
     1
102
RTVSPropertyOp10
 70
     1
102
RTVSPropertyOp11
 70
     1
102
RTVSPropertyOp12
 70
     1
102
RTVSPropertyOp13
 70
     1
102
RTVSPropertyOp14
 70
     1
102
RTVSPropertyOp15
 70
     1
102
RTVSPropertyOp16
 70
     1
102
RTVSPropertyOp17
 70
     1
102
RTVSPropertyOp18
 70
     1
102
RTVSPropertyOp19
 70
     1
102
RTVSPropertyOp20
 70
     1
102
RTVSPropertyOp21
 70
     1
102
RTVSPropertyOp22
 70
     1
102
RTVSPropertyOp23
 70
     1
102
RTVSPropertyOp24
 70
     1
102
RTVSPropertyOp25
 70
     1
102
RTVSPropertyOp26
 70
     1
102
RTVSPropertyOp27
 70
     1
102
RTVSPropertyOp28
 70
     1
102
RTVSPropertyOp29
 70
     1
102
RTVSPropertyOp30
 70
     1
102
RTVSPropertyOp31
 70
     1
102
RTVSPropertyOp32
 70
     1
102
RTVSPropertyOp33
 70
     1
102
RTVSPropertyOp34
 70
     1
102
RTVSPropertyOp35
 70
     1
102
RTVSPropertyOp36
 70
     1
102
RTVSPropertyOp37
 70
     1
102
RTVSPropertyOp38
 70
     1
102
RTVSPropertyOp39
 70
     1
102
RTVSPropertyOp40
 70
     1
102
RTVSPropertyOp41
 70
     1
102
RTVSPropertyOp42
 70
     1
102
RTVSPropertyOp43
 70
     1
102
RTVSPropertyOp44
 70
     1
102
RTVSPropertyOp45
 70
     1
102
RTVSPropertyOp46
 70
     1
102
RTVSPropertyOp47
 70
     1
102
RTVSPropertyOp48
 70
     1
102
RTVSPropertyOp49
 70
     1
102
RTVSPropertyOp50
 70
     1
102
RTVSPropertyOp51
 70
     0
102
RTVSPropertyOp52
 70
     0
102
RTVSPropertyOp53
 70
     1
102
RTVSPropertyOp54
 70
     1
102
RTVSPropertyOp55
 70
     1
102
RTVSPropertyOp56
 70
     1
102
RTVSPropertyOp57
 70
     1
102
RTVSPropertyOp58
 70
     1
102
RTVSPropertyOp59
 70
     1
102
RTVSPropertyOp60
 70
     1
102
RTVSPropertyOp61
 70
     1
102
RTVSPropertyOp62
 70
     1
  0
XRECORD
  5
A2FF
102
{ACAD_REACTORS
330
A2FE
102
}
330
A2FE
100
AcDbXrecord
280
     1
102
RTVSPost2010Prop28
280
     0
102
RTVSPost2010PropOp28
 70
     1
102
RTVSPost2010Prop29
280
     1
102
RTVSPost2010PropOp29
 70
     1
102
RTVSPost2010Prop30
280
     1
102
RTVSPost2010PropOp30
 70
     1
102
RTVSPost2010Prop31
280
     0
102
RTVSPost2010PropOp31
 70
     1
102
RTVSPost2010Prop32
280
     0
102
RTVSPost2010PropOp32
 70
     1
102
RTVSPost2010Prop33
280
     0
102
RTVSPost2010PropOp33
 70
     1
102
RTVSPost2010Prop34
280
     0
102
RTVSPost2010PropOp34
 70
     1
102
RTVSPost2010Prop35
280
     0
102
RTVSPost2010PropOp35
 70
     1
102
RTVSPost2010Prop36
280
     0
102
RTVSPost2010PropOp36
 70
     1
102
RTVSPost2010Prop37
 90
       50
102
RTVSPost2010PropOp37
 70
     1
102
RTVSPost2010Prop38
140
0.0
102
RTVSPost2010PropOp38
 70
     1
102
RTVSPost2010Prop39
140
1.0
102
RTVSPost2010PropOp39
 70
     1
102
RTVSPost2010Prop40
 90
        0
102
RTVSPost2010PropOp40
 70
     1
102
RTVSPost2010Prop41ColorIndex
 90
       18
102
RTVSPost2010Prop41ColorRGB
 90
        0
102
RTVSPost2010PropOp41
 70
     1
102
RTVSPost2010Prop42
 90
       50
102
RTVSPost2010PropOp42
 70
     1
102
RTVSPost2010Prop43
 90
        3
102
RTVSPost2010PropOp43
 70
     1
102
RTVSPost2010Prop44ColorIndex
 90
        5
102
RTVSPost2010Prop44ColorRGB
 90
      255
102
RTVSPost2010PropOp44
 70
     1
102
RTVSPost2010Prop45
280
     0
102
RTVSPost2010PropOp45
 70
     1
102
RTVSPost2010Prop46
 90
       50
102
RTVSPost2010PropOp46
 70
     1
102
RTVSPost2010Prop47
 90
       50
102
RTVSPost2010PropOp47
 70
     1
102
RTVSPost2010Prop48
 90
       50
102
RTVSPost2010PropOp48
 70
     1
102
RTVSPost2010Prop49
280
     0
102
RTVSPost2010PropOp49
 70
     1
102
RTVSPost2010Prop50
 90
       50
102
RTVSPost2010PropOp50
 70
     1
102
RTVSPost2010Prop51ColorIndex
 90
      256
102
RTVSPost2010Prop51ColorRGB
 90
-16777216
102
RTVSPost2010PropOp51
 70
     0
102
RTVSPost2010Prop52
140
1.0
102
RTVSPost2010PropOp52
 70
     0
102
RTVSPost2010Prop53
 90
        2
102
RTVSPost2010PropOp53
 70
     1
102
RTVSPost2010Prop54
  1
strokes_ogs.tif
102
RTVSPost2010PropOp54
 70
     1
102
RTVSPost2010Prop55
280
     0
102
RTVSPost2010PropOp55
 70
     1
102
RTVSPost2010Prop56
140
1.0
102
RTVSPost2010PropOp56
 70
     1
102
RTVSPost2010Prop57
140
1.0
102
RTVSPost2010PropOp57
 70
     1
102
RTVSPropertyOp0
 70
     1
102
RTVSPropertyOp1
 70
     1
102
RTVSPropertyOp2
 70
     1
102
RTVSPropertyOp3
 70
     1
102
RTVSPropertyOp4
 70
     1
102
RTVSPropertyOp5
 70
     1
102
RTVSPropertyOp6
 70
     1
102
RTVSPropertyOp7
 70
     1
102
RTVSPropertyOp8
 70
     1
102
RTVSPropertyOp9
 70
     1
102
RTVSPropertyOp10
 70
     1
102
RTVSPropertyOp11
 70
     1
102
RTVSPropertyOp12
 70
     1
102
RTVSPropertyOp13
 70
     1
102
RTVSPropertyOp14
 70
     1
102
RTVSPropertyOp15
 70
     1
102
RTVSPropertyOp16
 70
     1
102
RTVSPropertyOp17
 70
     1
102
RTVSPropertyOp18
 70
     1
102
RTVSPropertyOp19
 70
     1
102
RTVSPropertyOp20
 70
     1
102
RTVSPropertyOp21
 70
     1
102
RTVSPropertyOp22
 70
     1
102
RTVSPropertyOp23
 70
     1
102
RTVSPropertyOp24
 70
     1
102
RTVSPropertyOp25
 70
     1
102
RTVSPropertyOp26
 70
     1
102
RTVSPropertyOp27
 70
     1
102
RTVSPropertyOp28
 70
     1
102
RTVSPropertyOp29
 70
     1
102
RTVSPropertyOp30
 70
     1
102
RTVSPropertyOp31
 70
     1
102
RTVSPropertyOp32
 70
     1
102
RTVSPropertyOp33
 70
     1
102
RTVSPropertyOp34
 70
     1
102
RTVSPropertyOp35
 70
     1
102
RTVSPropertyOp36
 70
     1
102
RTVSPropertyOp37
 70
     1
102
RTVSPropertyOp38
 70
     1
102
RTVSPropertyOp39
 70
     1
102
RTVSPropertyOp40
 70
     1
102
RTVSPropertyOp41
 70
     1
102
RTVSPropertyOp42
 70
     1
102
RTVSPropertyOp43
 70
     1
102
RTVSPropertyOp44
 70
     1
102
RTVSPropertyOp45
 70
     1
102
RTVSPropertyOp46
 70
     1
102
RTVSPropertyOp47
 70
     1
102
RTVSPropertyOp48
 70
     1
102
RTVSPropertyOp49
 70
     1
102
RTVSPropertyOp50
 70
     1
102
RTVSPropertyOp51
 70
     0
102
RTVSPropertyOp52
 70
     0
102
RTVSPropertyOp53
 70
     1
102
RTVSPropertyOp54
 70
     1
102
RTVSPropertyOp55
 70
     1
102
RTVSPropertyOp56
 70
     1
102
RTVSPropertyOp57
 70
     1
102
RTVSPropertyOp58
 70
     1
102
RTVSPropertyOp59
 70
     1
102
RTVSPropertyOp60
 70
     1
102
RTVSPropertyOp61
 70
     1
102
RTVSPropertyOp62
 70
     1
  0
XRECORD
  5
A301
102
{ACAD_REACTORS
330
A300
102
}
330
A300
100
AcDbXrecord
280
     1
102
RTVSPost2010Prop28
280
     0
102
RTVSPost2010PropOp28
 70
     1
102
RTVSPost2010Prop29
280
     1
102
RTVSPost2010PropOp29
 70
     1
102
RTVSPost2010Prop30
280
     1
102
RTVSPost2010PropOp30
 70
     1
102
RTVSPost2010Prop31
280
     0
102
RTVSPost2010PropOp31
 70
     1
102
RTVSPost2010Prop32
280
     0
102
RTVSPost2010PropOp32
 70
     1
102
RTVSPost2010Prop33
280
     0
102
RTVSPost2010PropOp33
 70
     1
102
RTVSPost2010Prop34
280
     0
102
RTVSPost2010PropOp34
 70
     1
102
RTVSPost2010Prop35
280
     0
102
RTVSPost2010PropOp35
 70
     1
102
RTVSPost2010Prop36
280
     0
102
RTVSPost2010PropOp36
 70
     1
102
RTVSPost2010Prop37
 90
       50
102
RTVSPost2010PropOp37
 70
     1
102
RTVSPost2010Prop38
140
0.0
102
RTVSPost2010PropOp38
 70
     1
102
RTVSPost2010Prop39
140
1.0
102
RTVSPost2010PropOp39
 70
     1
102
RTVSPost2010Prop40
 90
        0
102
RTVSPost2010PropOp40
 70
     1
102
RTVSPost2010Prop41ColorIndex
 90
       18
102
RTVSPost2010Prop41ColorRGB
 90
        0
102
RTVSPost2010PropOp41
 70
     1
102
RTVSPost2010Prop42
 90
       50
102
RTVSPost2010PropOp42
 70
     1
102
RTVSPost2010Prop43
 90
        3
102
RTVSPost2010PropOp43
 70
     1
102
RTVSPost2010Prop44ColorIndex
 90
        5
102
RTVSPost2010Prop44ColorRGB
 90
      255
102
RTVSPost2010PropOp44
 70
     1
102
RTVSPost2010Prop45
280
     0
102
RTVSPost2010PropOp45
 70
     1
102
RTVSPost2010Prop46
 90
       50
102
RTVSPost2010PropOp46
 70
     1
102
RTVSPost2010Prop47
 90
       50
102
RTVSPost2010PropOp47
 70
     1
102
RTVSPost2010Prop48
 90
       50
102
RTVSPost2010PropOp48
 70
     1
102
RTVSPost2010Prop49
280
     0
102
RTVSPost2010PropOp49
 70
     1
102
RTVSPost2010Prop50
 90
       50
102
RTVSPost2010PropOp50
 70
     1
102
RTVSPost2010Prop51ColorIndex
 90
      256
102
RTVSPost2010Prop51ColorRGB
 90
-16777216
102
RTVSPost2010PropOp51
 70
     0
102
RTVSPost2010Prop52
140
1.0
102
RTVSPost2010PropOp52
 70
     0
102
RTVSPost2010Prop53
 90
        2
102
RTVSPost2010PropOp53
 70
     1
102
RTVSPost2010Prop54
  1
strokes_ogs.tif
102
RTVSPost2010PropOp54
 70
     1
102
RTVSPost2010Prop55
280
     0
102
RTVSPost2010PropOp55
 70
     1
102
RTVSPost2010Prop56
140
1.0
102
RTVSPost2010PropOp56
 70
     1
102
RTVSPost2010Prop57
140
1.0
102
RTVSPost2010PropOp57
 70
     1
102
RTVSPropertyOp0
 70
     1
102
RTVSPropertyOp1
 70
     1
102
RTVSPropertyOp2
 70
     1
102
RTVSPropertyOp3
 70
     1
102
RTVSPropertyOp4
 70
     1
102
RTVSPropertyOp5
 70
     1
102
RTVSPropertyOp6
 70
     1
102
RTVSPropertyOp7
 70
     1
102
RTVSPropertyOp8
 70
     1
102
RTVSPropertyOp9
 70
     1
102
RTVSPropertyOp10
 70
     1
102
RTVSPropertyOp11
 70
     1
102
RTVSPropertyOp12
 70
     1
102
RTVSPropertyOp13
 70
     1
102
RTVSPropertyOp14
 70
     1
102
RTVSPropertyOp15
 70
     1
102
RTVSPropertyOp16
 70
     1
102
RTVSPropertyOp17
 70
     1
102
RTVSPropertyOp18
 70
     1
102
RTVSPropertyOp19
 70
     1
102
RTVSPropertyOp20
 70
     1
102
RTVSPropertyOp21
 70
     1
102
RTVSPropertyOp22
 70
     1
102
RTVSPropertyOp23
 70
     1
102
RTVSPropertyOp24
 70
     1
102
RTVSPropertyOp25
 70
     1
102
RTVSPropertyOp26
 70
     1
102
RTVSPropertyOp27
 70
     1
102
RTVSPropertyOp28
 70
     1
102
RTVSPropertyOp29
 70
     1
102
RTVSPropertyOp30
 70
     1
102
RTVSPropertyOp31
 70
     1
102
RTVSPropertyOp32
 70
     1
102
RTVSPropertyOp33
 70
     1
102
RTVSPropertyOp34
 70
     1
102
RTVSPropertyOp35
 70
     1
102
RTVSPropertyOp36
 70
     1
102
RTVSPropertyOp37
 70
     1
102
RTVSPropertyOp38
 70
     1
102
RTVSPropertyOp39
 70
     1
102
RTVSPropertyOp40
 70
     1
102
RTVSPropertyOp41
 70
     1
102
RTVSPropertyOp42
 70
     1
102
RTVSPropertyOp43
 70
     1
102
RTVSPropertyOp44
 70
     1
102
RTVSPropertyOp45
 70
     1
102
RTVSPropertyOp46
 70
     1
102
RTVSPropertyOp47
 70
     1
102
RTVSPropertyOp48
 70
     1
102
RTVSPropertyOp49
 70
     1
102
RTVSPropertyOp50
 70
     1
102
RTVSPropertyOp51
 70
     0
102
RTVSPropertyOp52
 70
     0
102
RTVSPropertyOp53
 70
     1
102
RTVSPropertyOp54
 70
     1
102
RTVSPropertyOp55
 70
     1
102
RTVSPropertyOp56
 70
     1
102
RTVSPropertyOp57
 70
     1
102
RTVSPropertyOp58
 70
     1
102
RTVSPropertyOp59
 70
     1
102
RTVSPropertyOp60
 70
     1
102
RTVSPropertyOp61
 70
     1
102
RTVSPropertyOp62
 70
     1
  0
XRECORD
  5
A2F7
102
{ACAD_REACTORS
330
A2F6
102
}
330
A2F6
100
AcDbXrecord
280
     1
102
RTVSPost2010Prop28
280
     0
102
RTVSPost2010PropOp28
 70
     1
102
RTVSPost2010Prop29
280
     1
102
RTVSPost2010PropOp29
 70
     1
102
RTVSPost2010Prop30
280
     1
102
RTVSPost2010PropOp30
 70
     1
102
RTVSPost2010Prop31
280
     0
102
RTVSPost2010PropOp31
 70
     1
102
RTVSPost2010Prop32
280
     0
102
RTVSPost2010PropOp32
 70
     1
102
RTVSPost2010Prop33
280
     0
102
RTVSPost2010PropOp33
 70
     1
102
RTVSPost2010Prop34
280
     0
102
RTVSPost2010PropOp34
 70
     1
102
RTVSPost2010Prop35
280
     0
102
RTVSPost2010PropOp35
 70
     1
102
RTVSPost2010Prop36
280
     0
102
RTVSPost2010PropOp36
 70
     1
102
RTVSPost2010Prop37
 90
       50
102
RTVSPost2010PropOp37
 70
     1
102
RTVSPost2010Prop38
140
0.0
102
RTVSPost2010PropOp38
 70
     1
102
RTVSPost2010Prop39
140
1.0
102
RTVSPost2010PropOp39
 70
     1
102
RTVSPost2010Prop40
 90
        0
102
RTVSPost2010PropOp40
 70
     1
102
RTVSPost2010Prop41ColorIndex
 90
       18
102
RTVSPost2010Prop41ColorRGB
 90
        0
102
RTVSPost2010PropOp41
 70
     1
102
RTVSPost2010Prop42
 90
       50
102
RTVSPost2010PropOp42
 70
     1
102
RTVSPost2010Prop43
 90
        3
102
RTVSPost2010PropOp43
 70
     1
102
RTVSPost2010Prop44ColorIndex
 90
        5
102
RTVSPost2010Prop44ColorRGB
 90
      255
102
RTVSPost2010PropOp44
 70
     1
102
RTVSPost2010Prop45
280
     0
102
RTVSPost2010PropOp45
 70
     1
102
RTVSPost2010Prop46
 90
       50
102
RTVSPost2010PropOp46
 70
     1
102
RTVSPost2010Prop47
 90
       50
102
RTVSPost2010PropOp47
 70
     1
102
RTVSPost2010Prop48
 90
       50
102
RTVSPost2010PropOp48
 70
     1
102
RTVSPost2010Prop49
280
     0
102
RTVSPost2010PropOp49
 70
     1
102
RTVSPost2010Prop50
 90
       50
102
RTVSPost2010PropOp50
 70
     1
102
RTVSPost2010Prop51ColorIndex
 90
      256
102
RTVSPost2010Prop51ColorRGB
 90
-16777216
102
RTVSPost2010PropOp51
 70
     0
102
RTVSPost2010Prop52
140
1.0
102
RTVSPost2010PropOp52
 70
     0
102
RTVSPost2010Prop53
 90
        2
102
RTVSPost2010PropOp53
 70
     1
102
RTVSPost2010Prop54
  1
strokes_ogs.tif
102
RTVSPost2010PropOp54
 70
     1
102
RTVSPost2010Prop55
280
     0
102
RTVSPost2010PropOp55
 70
     1
102
RTVSPost2010Prop56
140
1.0
102
RTVSPost2010PropOp56
 70
     1
102
RTVSPost2010Prop57
140
1.0
102
RTVSPost2010PropOp57
 70
     1
102
RTVSPropertyOp0
 70
     1
102
RTVSPropertyOp1
 70
     1
102
RTVSPropertyOp2
 70
     1
102
RTVSPropertyOp3
 70
     1
102
RTVSPropertyOp4
 70
     1
102
RTVSPropertyOp5
 70
     1
102
RTVSPropertyOp6
 70
     1
102
RTVSPropertyOp7
 70
     1
102
RTVSPropertyOp8
 70
     1
102
RTVSPropertyOp9
 70
     1
102
RTVSPropertyOp10
 70
     1
102
RTVSPropertyOp11
 70
     1
102
RTVSPropertyOp12
 70
     1
102
RTVSPropertyOp13
 70
     1
102
RTVSPropertyOp14
 70
     1
102
RTVSPropertyOp15
 70
     1
102
RTVSPropertyOp16
 70
     1
102
RTVSPropertyOp17
 70
     1
102
RTVSPropertyOp18
 70
     1
102
RTVSPropertyOp19
 70
     1
102
RTVSPropertyOp20
 70
     1
102
RTVSPropertyOp21
 70
     1
102
RTVSPropertyOp22
 70
     1
102
RTVSPropertyOp23
 70
     1
102
RTVSPropertyOp24
 70
     1
102
RTVSPropertyOp25
 70
     1
102
RTVSPropertyOp26
 70
     1
102
RTVSPropertyOp27
 70
     1
102
RTVSPropertyOp28
 70
     1
102
RTVSPropertyOp29
 70
     1
102
RTVSPropertyOp30
 70
     1
102
RTVSPropertyOp31
 70
     1
102
RTVSPropertyOp32
 70
     1
102
RTVSPropertyOp33
 70
     1
102
RTVSPropertyOp34
 70
     1
102
RTVSPropertyOp35
 70
     1
102
RTVSPropertyOp36
 70
     1
102
RTVSPropertyOp37
 70
     1
102
RTVSPropertyOp38
 70
     1
102
RTVSPropertyOp39
 70
     1
102
RTVSPropertyOp40
 70
     1
102
RTVSPropertyOp41
 70
     1
102
RTVSPropertyOp42
 70
     1
102
RTVSPropertyOp43
 70
     1
102
RTVSPropertyOp44
 70
     1
102
RTVSPropertyOp45
 70
     1
102
RTVSPropertyOp46
 70
     1
102
RTVSPropertyOp47
 70
     1
102
RTVSPropertyOp48
 70
     1
102
RTVSPropertyOp49
 70
     1
102
RTVSPropertyOp50
 70
     1
102
RTVSPropertyOp51
 70
     0
102
RTVSPropertyOp52
 70
     0
102
RTVSPropertyOp53
 70
     1
102
RTVSPropertyOp54
 70
     1
102
RTVSPropertyOp55
 70
     1
102
RTVSPropertyOp56
 70
     1
102
RTVSPropertyOp57
 70
     1
102
RTVSPropertyOp58
 70
     1
102
RTVSPropertyOp59
 70
     1
102
RTVSPropertyOp60
 70
     1
102
RTVSPropertyOp61
 70
     1
102
RTVSPropertyOp62
 70
     1
  0
XRECORD
  5
A2EB
102
{ACAD_REACTORS
330
A2EA
102
}
330
A2EA
100
AcDbXrecord
280
     1
102
RTVSPost2010Prop28
280
     0
102
RTVSPost2010PropOp28
 70
     1
102
RTVSPost2010Prop29
280
     1
102
RTVSPost2010PropOp29
 70
     1
102
RTVSPost2010Prop30
280
     1
102
RTVSPost2010PropOp30
 70
     1
102
RTVSPost2010Prop31
280
     0
102
RTVSPost2010PropOp31
 70
     1
102
RTVSPost2010Prop32
280
     0
102
RTVSPost2010PropOp32
 70
     1
102
RTVSPost2010Prop33
280
     0
102
RTVSPost2010PropOp33
 70
     1
102
RTVSPost2010Prop34
280
     0
102
RTVSPost2010PropOp34
 70
     1
102
RTVSPost2010Prop35
280
     0
102
RTVSPost2010PropOp35
 70
     1
102
RTVSPost2010Prop36
280
     0
102
RTVSPost2010PropOp36
 70
     1
102
RTVSPost2010Prop37
 90
       50
102
RTVSPost2010PropOp37
 70
     1
102
RTVSPost2010Prop38
140
0.0
102
RTVSPost2010PropOp38
 70
     1
102
RTVSPost2010Prop39
140
1.0
102
RTVSPost2010PropOp39
 70
     1
102
RTVSPost2010Prop40
 90
        0
102
RTVSPost2010PropOp40
 70
     1
102
RTVSPost2010Prop41ColorIndex
 90
       18
102
RTVSPost2010Prop41ColorRGB
 90
        0
102
RTVSPost2010PropOp41
 70
     1
102
RTVSPost2010Prop42
 90
       50
102
RTVSPost2010PropOp42
 70
     1
102
RTVSPost2010Prop43
 90
        3
102
RTVSPost2010PropOp43
 70
     1
102
RTVSPost2010Prop44ColorIndex
 90
        5
102
RTVSPost2010Prop44ColorRGB
 90
      255
102
RTVSPost2010PropOp44
 70
     1
102
RTVSPost2010Prop45
280
     0
102
RTVSPost2010PropOp45
 70
     1
102
RTVSPost2010Prop46
 90
       50
102
RTVSPost2010PropOp46
 70
     1
102
RTVSPost2010Prop47
 90
       50
102
RTVSPost2010PropOp47
 70
     1
102
RTVSPost2010Prop48
 90
       50
102
RTVSPost2010PropOp48
 70
     1
102
RTVSPost2010Prop49
280
     0
102
RTVSPost2010PropOp49
 70
     1
102
RTVSPost2010Prop50
 90
       50
102
RTVSPost2010PropOp50
 70
     1
102
RTVSPost2010Prop51ColorIndex
 90
      256
102
RTVSPost2010Prop51ColorRGB
 90
-16777216
102
RTVSPost2010PropOp51
 70
     0
102
RTVSPost2010Prop52
140
1.0
102
RTVSPost2010PropOp52
 70
     0
102
RTVSPost2010Prop53
 90
        2
102
RTVSPost2010PropOp53
 70
     1
102
RTVSPost2010Prop54
  1
strokes_ogs.tif
102
RTVSPost2010PropOp54
 70
     1
102
RTVSPost2010Prop55
280
     0
102
RTVSPost2010PropOp55
 70
     1
102
RTVSPost2010Prop56
140
1.0
102
RTVSPost2010PropOp56
 70
     1
102
RTVSPost2010Prop57
140
1.0
102
RTVSPost2010PropOp57
 70
     1
102
RTVSPropertyOp0
 70
     1
102
RTVSPropertyOp1
 70
     1
102
RTVSPropertyOp2
 70
     1
102
RTVSPropertyOp3
 70
     1
102
RTVSPropertyOp4
 70
     1
102
RTVSPropertyOp5
 70
     1
102
RTVSPropertyOp6
 70
     1
102
RTVSPropertyOp7
 70
     1
102
RTVSPropertyOp8
 70
     1
102
RTVSPropertyOp9
 70
     1
102
RTVSPropertyOp10
 70
     1
102
RTVSPropertyOp11
 70
     1
102
RTVSPropertyOp12
 70
     1
102
RTVSPropertyOp13
 70
     1
102
RTVSPropertyOp14
 70
     1
102
RTVSPropertyOp15
 70
     1
102
RTVSPropertyOp16
 70
     1
102
RTVSPropertyOp17
 70
     1
102
RTVSPropertyOp18
 70
     1
102
RTVSPropertyOp19
 70
     1
102
RTVSPropertyOp20
 70
     1
102
RTVSPropertyOp21
 70
     1
102
RTVSPropertyOp22
 70
     1
102
RTVSPropertyOp23
 70
     1
102
RTVSPropertyOp24
 70
     1
102
RTVSPropertyOp25
 70
     1
102
RTVSPropertyOp26
 70
     1
102
RTVSPropertyOp27
 70
     1
102
RTVSPropertyOp28
 70
     1
102
RTVSPropertyOp29
 70
     1
102
RTVSPropertyOp30
 70
     1
102
RTVSPropertyOp31
 70
     1
102
RTVSPropertyOp32
 70
     1
102
RTVSPropertyOp33
 70
     1
102
RTVSPropertyOp34
 70
     1
102
RTVSPropertyOp35
 70
     1
102
RTVSPropertyOp36
 70
     1
102
RTVSPropertyOp37
 70
     1
102
RTVSPropertyOp38
 70
     1
102
RTVSPropertyOp39
 70
     1
102
RTVSPropertyOp40
 70
     1
102
RTVSPropertyOp41
 70
     1
102
RTVSPropertyOp42
 70
     1
102
RTVSPropertyOp43
 70
     1
102
RTVSPropertyOp44
 70
     1
102
RTVSPropertyOp45
 70
     1
102
RTVSPropertyOp46
 70
     1
102
RTVSPropertyOp47
 70
     1
102
RTVSPropertyOp48
 70
     1
102
RTVSPropertyOp49
 70
     1
102
RTVSPropertyOp50
 70
     1
102
RTVSPropertyOp51
 70
     0
102
RTVSPropertyOp52
 70
     0
102
RTVSPropertyOp53
 70
     1
102
RTVSPropertyOp54
 70
     1
102
RTVSPropertyOp55
 70
     1
102
RTVSPropertyOp56
 70
     1
102
RTVSPropertyOp57
 70
     1
102
RTVSPropertyOp58
 70
     1
102
RTVSPropertyOp59
 70
     1
102
RTVSPropertyOp60
 70
     1
102
RTVSPropertyOp61
 70
     1
102
RTVSPropertyOp62
 70
     1
  0
XRECORD
  5
A303
102
{ACAD_REACTORS
330
A302
102
}
330
A302
100
AcDbXrecord
280
     1
102
RTVSPost2010Prop28
280
     0
102
RTVSPost2010PropOp28
 70
     1
102
RTVSPost2010Prop29
280
     1
102
RTVSPost2010PropOp29
 70
     1
102
RTVSPost2010Prop30
280
     1
102
RTVSPost2010PropOp30
 70
     1
102
RTVSPost2010Prop31
280
     0
102
RTVSPost2010PropOp31
 70
     1
102
RTVSPost2010Prop32
280
     0
102
RTVSPost2010PropOp32
 70
     1
102
RTVSPost2010Prop33
280
     0
102
RTVSPost2010PropOp33
 70
     1
102
RTVSPost2010Prop34
280
     0
102
RTVSPost2010PropOp34
 70
     1
102
RTVSPost2010Prop35
280
     0
102
RTVSPost2010PropOp35
 70
     1
102
RTVSPost2010Prop36
280
     0
102
RTVSPost2010PropOp36
 70
     1
102
RTVSPost2010Prop37
 90
       50
102
RTVSPost2010PropOp37
 70
     1
102
RTVSPost2010Prop38
140
0.0
102
RTVSPost2010PropOp38
 70
     1
102
RTVSPost2010Prop39
140
1.0
102
RTVSPost2010PropOp39
 70
     1
102
RTVSPost2010Prop40
 90
        0
102
RTVSPost2010PropOp40
 70
     1
102
RTVSPost2010Prop41ColorIndex
 90
       18
102
RTVSPost2010Prop41ColorRGB
 90
        0
102
RTVSPost2010PropOp41
 70
     1
102
RTVSPost2010Prop42
 90
       50
102
RTVSPost2010PropOp42
 70
     1
102
RTVSPost2010Prop43
 90
        3
102
RTVSPost2010PropOp43
 70
     1
102
RTVSPost2010Prop44ColorIndex
 90
        5
102
RTVSPost2010Prop44ColorRGB
 90
      255
102
RTVSPost2010PropOp44
 70
     1
102
RTVSPost2010Prop45
280
     0
102
RTVSPost2010PropOp45
 70
     1
102
RTVSPost2010Prop46
 90
       50
102
RTVSPost2010PropOp46
 70
     1
102
RTVSPost2010Prop47
 90
       50
102
RTVSPost2010PropOp47
 70
     1
102
RTVSPost2010Prop48
 90
       50
102
RTVSPost2010PropOp48
 70
     1
102
RTVSPost2010Prop49
280
     0
102
RTVSPost2010PropOp49
 70
     1
102
RTVSPost2010Prop50
 90
       50
102
RTVSPost2010PropOp50
 70
     1
102
RTVSPost2010Prop51ColorIndex
 90
      256
102
RTVSPost2010Prop51ColorRGB
 90
-16777216
102
RTVSPost2010PropOp51
 70
     0
102
RTVSPost2010Prop52
140
1.0
102
RTVSPost2010PropOp52
 70
     0
102
RTVSPost2010Prop53
 90
        2
102
RTVSPost2010PropOp53
 70
     1
102
RTVSPost2010Prop54
  1
strokes_ogs.tif
102
RTVSPost2010PropOp54
 70
     1
102
RTVSPost2010Prop55
280
     0
102
RTVSPost2010PropOp55
 70
     1
102
RTVSPost2010Prop56
140
1.0
102
RTVSPost2010PropOp56
 70
     1
102
RTVSPost2010Prop57
140
1.0
102
RTVSPost2010PropOp57
 70
     1
102
RTVSPropertyOp0
 70
     1
102
RTVSPropertyOp1
 70
     1
102
RTVSPropertyOp2
 70
     1
102
RTVSPropertyOp3
 70
     1
102
RTVSPropertyOp4
 70
     1
102
RTVSPropertyOp5
 70
     1
102
RTVSPropertyOp6
 70
     1
102
RTVSPropertyOp7
 70
     1
102
RTVSPropertyOp8
 70
     1
102
RTVSPropertyOp9
 70
     1
102
RTVSPropertyOp10
 70
     1
102
RTVSPropertyOp11
 70
     1
102
RTVSPropertyOp12
 70
     1
102
RTVSPropertyOp13
 70
     1
102
RTVSPropertyOp14
 70
     1
102
RTVSPropertyOp15
 70
     1
102
RTVSPropertyOp16
 70
     1
102
RTVSPropertyOp17
 70
     1
102
RTVSPropertyOp18
 70
     1
102
RTVSPropertyOp19
 70
     1
102
RTVSPropertyOp20
 70
     1
102
RTVSPropertyOp21
 70
     1
102
RTVSPropertyOp22
 70
     1
102
RTVSPropertyOp23
 70
     1
102
RTVSPropertyOp24
 70
     1
102
RTVSPropertyOp25
 70
     1
102
RTVSPropertyOp26
 70
     1
102
RTVSPropertyOp27
 70
     1
102
RTVSPropertyOp28
 70
     1
102
RTVSPropertyOp29
 70
     1
102
RTVSPropertyOp30
 70
     1
102
RTVSPropertyOp31
 70
     1
102
RTVSPropertyOp32
 70
     1
102
RTVSPropertyOp33
 70
     1
102
RTVSPropertyOp34
 70
     1
102
RTVSPropertyOp35
 70
     1
102
RTVSPropertyOp36
 70
     1
102
RTVSPropertyOp37
 70
     1
102
RTVSPropertyOp38
 70
     1
102
RTVSPropertyOp39
 70
     1
102
RTVSPropertyOp40
 70
     1
102
RTVSPropertyOp41
 70
     1
102
RTVSPropertyOp42
 70
     1
102
RTVSPropertyOp43
 70
     1
102
RTVSPropertyOp44
 70
     1
102
RTVSPropertyOp45
 70
     1
102
RTVSPropertyOp46
 70
     1
102
RTVSPropertyOp47
 70
     1
102
RTVSPropertyOp48
 70
     1
102
RTVSPropertyOp49
 70
     1
102
RTVSPropertyOp50
 70
     1
102
RTVSPropertyOp51
 70
     0
102
RTVSPropertyOp52
 70
     0
102
RTVSPropertyOp53
 70
     1
102
RTVSPropertyOp54
 70
     1
102
RTVSPropertyOp55
 70
     1
102
RTVSPropertyOp56
 70
     1
102
RTVSPropertyOp57
 70
     1
102
RTVSPropertyOp58
 70
     1
102
RTVSPropertyOp59
 70
     1
102
RTVSPropertyOp60
 70
     1
102
RTVSPropertyOp61
 70
     1
102
RTVSPropertyOp62
 70
     1
  0
ENDSEC
  0
EOF
