  0
SECTION
  2
HEADER
  9
$ACADVER
  1
AC1015
  9
$ACADMAINTVER
 70
    20
  9
$DWGCODEPAGE
  3
ANSI_932
  9
$INSBASE
 10
0.0
 20
0.0
 30
0.0
  9
$EXTMIN
 10
9.9999975266385
 20
10.0
 30
0.0
  9
$EXTMAX
 10
583.9200145770878
 20
454.5572801537322
 30
0.0
  9
$LIMMIN
 10
0.0000015376081137
 20
-0.0000001931532552
  9
$LIMMAX
 10
702.0000015376082
 20
483.9545452613919
  9
$ORTHOMODE
 70
     1
  9
$REGENMODE
 70
     1
  9
$FILLMODE
 70
     1
  9
$QTEXTMODE
 70
     0
  9
$MIRRTEXT
 70
     1
  9
$LTSCALE
 40
1.0
  9
$ATTMODE
 70
     1
  9
$TEXTSIZE
 40
2.5
  9
$TRACEWID
 40
1.0
  9
$TEXTSTYLE
  7
STANDARD
  9
$CLAYER
  8
0
  9
$CELTYPE
  6
BYLAYER
  9
$CECOLOR
 62
   256
  9
$CELTSCALE
 40
1.0
  9
$DISPSILH
 70
     0
  9
$DIMSCALE
 40
1.0
  9
$DIMASZ
 40
3.0
  9
$DIMEXO
 40
1.0
  9
$DIMDLI
 40
10.0
  9
$DIMRND
 40
0.0
  9
$DIMDLE
 40
0.0
  9
$DIMEXE
 40
1.0
  9
$DIMTP
 40
0.0
  9
$DIMTM
 40
0.0
  9
$DIMTXT
 40
3.2
  9
$DIMCEN
 40
0.0
  9
$DIMTSZ
 40
0.0
  9
$DIMTOL
 70
     0
  9
$DIMLIM
 70
     0
  9
$DIMTIH
 70
     0
  9
$DIMTOH
 70
     0
  9
$DIMSE1
 70
     0
  9
$DIMSE2
 70
     0
  9
$DIMTAD
 70
     3
  9
$DIMZIN
 70
     8
  9
$DIMBLK
  1

  9
$DIMASO
 70
     1
  9
$DIMSHO
 70
     1
  9
$DIMPOST
  1

  9
$DIMAPOST
  1

  9
$DIMALT
 70
     0
  9
$DIMALTD
 70
     2
  9
$DIMALTF
 40
25.4
  9
$DIMLFAC
 40
1.0
  9
$DIMTOFL
 70
     1
  9
$DIMTVP
 40
0.0
  9
$DIMTIX
 70
     0
  9
$DIMSOXD
 70
     0
  9
$DIMSAH
 70
     1
  9
$DIMBLK1
  1
OPEN
  9
$DIMBLK2
  1
OPEN
  9
$DIMSTYLE
  2
STANDARD
  9
$DIMCLRD
 70
     0
  9
$DIMCLRE
 70
     0
  9
$DIMCLRT
 70
     0
  9
$DIMTFAC
 40
1.0
  9
$DIMGAP
 40
1.0
  9
$DIMJUST
 70
     0
  9
$DIMSD1
 70
     0
  9
$DIMSD2
 70
     0
  9
$DIMTOLJ
 70
     1
  9
$DIMTZIN
 70
     0
  9
$DIMALTZ
 70
     0
  9
$DIMALTTZ
 70
     0
  9
$DIMUPT
 70
     0
  9
$DIMDEC
 70
     4
  9
$DIMTDEC
 70
     4
  9
$DIMALTU
 70
     2
  9
$DIMALTTD
 70
     2
  9
$DIMTXSTY
  7
STANDARD
  9
$DIMAUNIT
 70
     0
  9
$DIMADEC
 70
     0
  9
$DIMALTRND
 40
0.0
  9
$DIMAZIN
 70
     0
  9
$DIMDSEP
 70
    46
  9
$DIMATFIT
 70
     3
  9
$DIMFRAC
 70
     0
  9
$DIMLDRBLK
  1
OPEN
  9
$DIMLUNIT
 70
     2
  9
$DIMLWD
 70
    -2
  9
$DIMLWE
 70
    -2
  9
$DIMTMOVE
 70
     0
  9
$LUNITS
 70
     2
  9
$LUPREC
 70
     4
  9
$SKETCHINC
 40
1.0
  9
$FILLETRAD
 40
0.0
  9
$AUNITS
 70
     0
  9
$AUPREC
 70
     0
  9
$MENU
  1
.
  9
$ELEVATION
 40
0.0
  9
$PELEVATION
 40
0.0
  9
$THICKNESS
 40
0.0
  9
$LIMCHECK
 70
     0
  9
$CHAMFERA
 40
10.0
  9
$CHAMFERB
 40
10.0
  9
$CHAMFERC
 40
20.0
  9
$CHAMFERD
 40
0.0
  9
$SKPOLY
 70
     0
  9
$TDCREATE
 40
2454154.597648472
  9
$TDUCREATE
 40
2454154.222648472
  9
$TDUPDATE
 40
2457192.690794109
  9
$TDUUPDATE
 40
2457192.315794109
  9
$TDINDWG
 40
0.0318914236
  9
$TDUSRTIMER
 40
0.0318914005
  9
$USRTIMER
 70
     1
  9
$ANGBASE
 50
0.0
  9
$ANGDIR
 70
     0
  9
$PDMODE
 70
     0
  9
$PDSIZE
 40
0.0
  9
$PLINEWID
 40
0.0
  9
$SPLFRAME
 70
     0
  9
$SPLINETYPE
 70
     6
  9
$SPLINESEGS
 70
     8
  9
$HANDSEED
  5
1BE9
  9
$SURFTAB1
 70
     6
  9
$SURFTAB2
 70
     6
  9
$SURFTYPE
 70
     6
  9
$SURFU
 70
     6
  9
$SURFV
 70
     6
  9
$UCSBASE
  2

  9
$UCSNAME
  2

  9
$UCSORG
 10
0.0
 20
0.0
 30
0.0
  9
$UCSXDIR
 10
1.0
 20
0.0
 30
0.0
  9
$UCSYDIR
 10
0.0
 20
1.0
 30
0.0
  9
$UCSORTHOREF
  2

  9
$UCSORTHOVIEW
 70
     0
  9
$UCSORGTOP
 10
0.0
 20
0.0
 30
0.0
  9
$UCSORGBOTTOM
 10
0.0
 20
0.0
 30
0.0
  9
$UCSORGLEFT
 10
0.0
 20
0.0
 30
0.0
  9
$UCSORGRIGHT
 10
0.0
 20
0.0
 30
0.0
  9
$UCSORGFRONT
 10
0.0
 20
0.0
 30
0.0
  9
$UCSORGBACK
 10
0.0
 20
0.0
 30
0.0
  9
$PUCSBASE
  2

  9
$PUCSNAME
  2

  9
$PUCSORG
 10
0.0
 20
0.0
 30
0.0
  9
$PUCSXDIR
 10
1.0
 20
0.0
 30
0.0
  9
$PUCSYDIR
 10
0.0
 20
1.0
 30
0.0
  9
$PUCSORTHOREF
  2

  9
$PUCSORTHOVIEW
 70
     0
  9
$PUCSORGTOP
 10
0.0
 20
0.0
 30
0.0
  9
$PUCSORGBOTTOM
 10
0.0
 20
0.0
 30
0.0
  9
$PUCSORGLEFT
 10
0.0
 20
0.0
 30
0.0
  9
$PUCSORGRIGHT
 10
0.0
 20
0.0
 30
0.0
  9
$PUCSORGFRONT
 10
0.0
 20
0.0
 30
0.0
  9
$PUCSORGBACK
 10
0.0
 20
0.0
 30
0.0
  9
$USERI1
 70
     0
  9
$USERI2
 70
     0
  9
$USERI3
 70
     0
  9
$USERI4
 70
     0
  9
$USERI5
 70
     0
  9
$USERR1
 40
0.0
  9
$USERR2
 40
0.0
  9
$USERR3
 40
0.0
  9
$USERR4
 40
0.0
  9
$USERR5
 40
0.0
  9
$WORLDVIEW
 70
     1
  9
$SHADEDGE
 70
     3
  9
$SHADEDIF
 70
    70
  9
$TILEMODE
 70
     1
  9
$MAXACTVP
 70
    48
  9
$PINSBASE
 10
0.0
 20
0.0
 30
0.0
  9
$PLIMCHECK
 70
     0
  9
$PEXTMIN
 10
1.000000000000000E+20
 20
1.000000000000000E+20
 30
1.000000000000000E+20
  9
$PEXTMAX
 10
-1.000000000000000E+20
 20
-1.000000000000000E+20
 30
-1.000000000000000E+20
  9
$PLIMMIN
 10
0.0
 20
0.0
  9
$PLIMMAX
 10
420.0
 20
297.0
  9
$UNITMODE
 70
     0
  9
$VISRETAIN
 70
     1
  9
$PLINEGEN
 70
     0
  9
$PSLTSCALE
 70
     1
  9
$TREEDEPTH
 70
  3020
  9
$CMLSTYLE
  2
STANDARD
  9
$CMLJUST
 70
     0
  9
$CMLSCALE
 40
20.0
  9
$PROXYGRAPHICS
 70
     1
  9
$MEASUREMENT
 70
     0
  9
$CELWEIGHT
370
    -1
  9
$ENDCAPS
280
     0
  9
$JOINSTYLE
280
     0
  9
$LWDISPLAY
290
     0
  9
$INSUNITS
 70
     0
  9
$HYPERLINKBASE
  1

  9
$STYLESHEET
  1

  9
$XEDIT
290
     1
  9
$CEPSNTYPE
380
     0
  9
$PSTYLEMODE
290
     1
  9
$FINGERPRINTGUID
  2
{B0EBF4D6-750D-413A-B45C-C1B128667822}
  9
$VERSIONGUID
  2
{285D493E-829A-4AA3-B7F8-88AF45ADDF7B}
  9
$EXTNAMES
290
     1
  9
$PSVPSCALE
 40
0.0
  9
$OLESTARTUP
290
     0
  0
ENDSEC
  0
SECTION
  2
CLASSES
  0
CLASS
  1
ACDBDICTIONARYWDFLT
  2
AcDbDictionaryWithDefault
  3
ObjectDBX Classes
 90
        0
280
     0
281
     0
  0
CLASS
  1
ACDBPLACEHOLDER
  2
AcDbPlaceHolder
  3
ObjectDBX Classes
 90
        0
280
     0
281
     0
  0
CLASS
  1
LAYOUT
  2
AcDbLayout
  3
ObjectDBX Classes
 90
        0
280
     0
281
     0
  0
CLASS
  1
DICTIONARYVAR
  2
AcDbDictionaryVar
  3
ObjectDBX Classes
 90
        0
280
     0
281
     0
  0
CLASS
  1
MATERIAL
  2
AcDbMaterial
  3
ObjectDBX Classes
 90
     1153
280
     0
281
     0
  0
CLASS
  1
VISUALSTYLE
  2
AcDbVisualStyle
  3
ObjectDBX Classes
 90
     4095
280
     0
281
     0
  0
CLASS
  1
TABLESTYLE
  2
AcDbTableStyle
  3
ObjectDBX Classes
 90
     4095
280
     0
281
     0
  0
CLASS
  1
SCALE
  2
AcDbScale
  3
ObjectDBX Classes
 90
     1153
280
     0
281
     0
  0
CLASS
  1
MLEADERSTYLE
  2
AcDbMLeaderStyle
  3
ACDB_MLEADERSTYLE_CLASS
 90
     4095
280
     0
281
     0
  0
CLASS
  1
ACDBSECTIONVIEWSTYLE
  2
AcDbSectionViewStyle
  3
ObjectDBX Classes
 90
     1025
280
     0
281
     0
  0
CLASS
  1
ACDBDETAILVIEWSTYLE
  2
AcDbDetailViewStyle
  3
ObjectDBX Classes
 90
     1025
280
     0
281
     0
  0
CLASS
  1
CELLSTYLEMAP
  2
AcDbCellStyleMap
  3
ObjectDBX Classes
 90
     1152
280
     0
281
     0
  0
ENDSEC
  0
SECTION
  2
TABLES
  0
TABLE
  2
VPORT
  5
8
330
0
100
AcDbSymbolTable
 70
     1
  0
VPORT
  5
1B33
330
8
100
AcDbSymbolTableRecord
100
AcDbViewportTableRecord
  2
*ACTIVE
 70
     0
 10
0.0
 20
0.0
 11
1.0
 21
1.0
 12
481.1076049850407
 22
232.2850382231612
 13
0.0
 23
0.0
 14
10.0
 24
10.0
 15
10.0
 25
10.0
 16
0.0
 26
0.0
 36
1.0
 17
0.0
 27
0.0
 37
0.0
 40
447.9683475052381
 41
2.35006605019815
 42
50.0
 43
0.0
 44
0.0
 50
0.0
 51
0.0
 71
     0
 72
   100
 73
     1
 74
     0
 75
     0
 76
     0
 77
     0
 78
     0
281
     0
 65
     1
110
0.0
120
0.0
130
0.0
111
1.0
121
0.0
131
0.0
112
0.0
122
1.0
132
0.0
 79
     0
146
0.0
1001
ACAD_NAV_VCDISPLAY
1070
     3
  0
ENDTAB
  0
TABLE
  2
LTYPE
  5
5
330
0
100
AcDbSymbolTable
 70
     4
  0
LTYPE
  5
12
330
5
100
AcDbSymbolTableRecord
100
AcDbLinetypeTableRecord
  2
BYBLOCK
 70
     0
  3

 72
    65
 73
     0
 40
0.0
  0
LTYPE
  5
13
330
5
100
AcDbSymbolTableRecord
100
AcDbLinetypeTableRecord
  2
BYLAYER
 70
     0
  3

 72
    65
 73
     0
 40
0.0
  0
LTYPE
  5
14
330
5
100
AcDbSymbolTableRecord
100
AcDbLinetypeTableRecord
  2
CONTINUOUS
 70
     0
  3
Solid line
 72
    65
 73
     0
 40
0.0
  0
LTYPE
  5
4B
330
5
100
AcDbSymbolTableRecord
100
AcDbLinetypeTableRecord
  2
DASHED
 70
     0
  3
Dashed __ __ __ __ __ __ __ __ __ __ __ __ __ _
 72
    65
 73
     2
 40
19.04999999999999
 49
12.7
 74
     0
 49
-6.349999999999998
 74
     0
  0
LTYPE
  5
4C
330
5
100
AcDbSymbolTableRecord
100
AcDbLinetypeTableRecord
  2
CENTER
 70
     0
  3
Center ____ _ ____ _ ____ _ ____ _ ____ _ ____
 72
    65
 73
     4
 40
50.8
 49
31.75
 74
     0
 49
-6.349999999999998
 74
     0
 49
6.349999999999998
 74
     0
 49
-6.349999999999998
 74
     0
  0
LTYPE
  5
4D
330
5
100
AcDbSymbolTableRecord
100
AcDbLinetypeTableRecord
  2
PHANTOM
 70
     0
  3
Phantom ______  __  __  ______  __  __  ______
 72
    65
 73
     6
 40
63.5
 49
31.75
 74
     0
 49
-6.349999999999998
 74
     0
 49
6.349999999999998
 74
     0
 49
-6.349999999999998
 74
     0
 49
6.349999999999998
 74
     0
 49
-6.349999999999998
 74
     0
  0
ENDTAB
  0
TABLE
  2
LAYER
  5
2
330
0
100
AcDbSymbolTable
 70
     8
  0
LAYER
  5
E
102
{ACAD_XDICTIONARY
360
1B8D
102
}
330
2
100
AcDbSymbolTableRecord
100
AcDbLayerTableRecord
  2
0
 70
     0
 62
     7
  6
CONTINUOUS
370
    -3
390
1B3C
  0
LAYER
  5
4E
102
{ACAD_XDICTIONARY
360
1B8F
102
}
330
2
100
AcDbSymbolTableRecord
100
AcDbLayerTableRecord
  2
4
 70
     0
 62
     1
  6
CENTER
370
    -3
390
1B3C
  0
LAYER
  5
4F
102
{ACAD_XDICTIONARY
360
1B91
102
}
330
2
100
AcDbSymbolTableRecord
100
AcDbLayerTableRecord
  2
5
 70
     0
 62
     6
  6
PHANTOM
370
    -3
390
1B3C
  0
LAYER
  5
50
102
{ACAD_XDICTIONARY
360
1B93
102
}
330
2
100
AcDbSymbolTableRecord
100
AcDbLayerTableRecord
  2
1
 70
     0
 62
     7
  6
CONTINUOUS
370
    -3
390
1B3C
  0
LAYER
  5
51
102
{ACAD_XDICTIONARY
360
1B95
102
}
330
2
100
AcDbSymbolTableRecord
100
AcDbLayerTableRecord
  2
2
 70
     0
 62
     4
  6
CONTINUOUS
370
    -3
390
1B3C
  0
LAYER
  5
52
102
{ACAD_XDICTIONARY
360
1B97
102
}
330
2
100
AcDbSymbolTableRecord
100
AcDbLayerTableRecord
  2
3
 70
     0
 62
     2
  6
DASHED
370
    -3
390
1B3C
  0
LAYER
  5
53
102
{ACAD_XDICTIONARY
360
1B99
102
}
330
2
100
AcDbSymbolTableRecord
100
AcDbLayerTableRecord
  2
6
 70
     0
 62
     5
  6
CONTINUOUS
370
    -3
390
1B3C
  0
LAYER
  5
54
102
{ACAD_XDICTIONARY
360
1B9B
102
}
330
2
100
AcDbSymbolTableRecord
100
AcDbLayerTableRecord
  2
7
 70
     0
 62
     3
  6
CONTINUOUS
370
    -3
390
1B3C
  0
ENDTAB
  0
TABLE
  2
STYLE
  5
3
330
0
100
AcDbSymbolTable
 70
     1
  0
STYLE
  5
F
330
3
100
AcDbSymbolTableRecord
100
AcDbTextStyleTableRecord
  2
STANDARD
 70
     0
 40
0.0
 41
1.0
 50
0.0
 71
     0
 42
2.5
  3
simplex.shx
  4

  0
ENDTAB
  0
TABLE
  2
VIEW
  5
6
330
0
100
AcDbSymbolTable
 70
     0
  0
ENDTAB
  0
TABLE
  2
UCS
  5
7
330
0
100
AcDbSymbolTable
 70
     0
  0
ENDTAB
  0
TABLE
  2
APPID
  5
9
330
0
100
AcDbSymbolTable
 70
     5
  0
APPID
  5
10
330
9
100
AcDbSymbolTableRecord
100
AcDbRegAppTableRecord
  2
ACAD
 70
     0
  0
APPID
  5
3E
330
9
100
AcDbSymbolTableRecord
100
AcDbRegAppTableRecord
  2
CONTENTTABDATA
 70
     0
  0
APPID
  5
3F
330
9
100
AcDbSymbolTableRecord
100
AcDbRegAppTableRecord
  2
CONTENTCURRENTTAB
 70
     0
  0
APPID
  5
1BA7
330
9
100
AcDbSymbolTableRecord
100
AcDbRegAppTableRecord
  2
ACAD_NAV_VCDISPLAY
 70
     0
  0
APPID
  5
1BE0
330
9
100
AcDbSymbolTableRecord
100
AcDbRegAppTableRecord
  2
ACAD_MLEADERVER
 70
     0
  0
ENDTAB
  0
TABLE
  2
DIMSTYLE
  5
A
330
0
100
AcDbSymbolTable
 70
     1
100
AcDbDimStyleTable
 71
     0
  0
DIMSTYLE
105
1D
330
A
100
AcDbSymbolTableRecord
100
AcDbDimStyleTableRecord
  2
STANDARD
 70
     0
 41
3.0
 42
1.0
 43
10.0
 44
1.0
 73
     0
 74
     0
 77
     3
 78
     8
140
3.2
141
0.0
147
1.0
172
     1
173
     1
340
F
341
2E
343
2E
344
2E
  0
ENDTAB
  0
TABLE
  2
BLOCK_RECORD
  5
1
330
0
100
AcDbSymbolTable
 70
     1
  0
BLOCK_RECORD
  5
18
102
{ACAD_XDICTIONARY
360
1B36
102
}
330
1
100
AcDbSymbolTableRecord
100
AcDbBlockTableRecord
  2
*MODEL_SPACE
340
1B8A
  0
BLOCK_RECORD
  5
15
102
{ACAD_XDICTIONARY
360
1B34
102
}
330
1
100
AcDbSymbolTableRecord
100
AcDbBlockTableRecord
  2
*PAPER_SPACE
340
1B8B
  0
BLOCK_RECORD
  5
2E
330
1
100
AcDbSymbolTableRecord
100
AcDbBlockTableRecord
  2
_OPEN
340
0
  0
ENDTAB
  0
ENDSEC
  0
SECTION
  2
BLOCKS
  0
BLOCK
  5
19
330
18
100
AcDbEntity
  8
0
100
AcDbBlockBegin
  2
*MODEL_SPACE
 70
     0
 10
0.0
 20
0.0
 30
0.0
  3
*MODEL_SPACE
  1

  0
ENDBLK
  5
1A
330
18
100
AcDbEntity
  8
0
100
AcDbBlockEnd
  0
BLOCK
  5
16
330
15
100
AcDbEntity
 67
     1
  8
0
100
AcDbBlockBegin
  2
*PAPER_SPACE
 70
     0
 10
0.0
 20
0.0
 30
0.0
  3
*PAPER_SPACE
  1

  0
ENDBLK
  5
17
330
15
100
AcDbEntity
 67
     1
  8
0
100
AcDbBlockEnd
  0
BLOCK
  5
2F
330
2E
100
AcDbEntity
  8
0
100
AcDbBlockBegin
  2
_OPEN
 70
     0
 10
0.0
 20
0.0
 30
0.0
  3
_OPEN
  1

  0
LINE
  5
30
330
2E
100
AcDbEntity
  8
0
  6
ByBlock
 62
     0
100
AcDbLine
 10
-1.0
 20
0.1666666666666666
 30
0.0
 11
0.0
 21
0.0
 31
0.0
  0
LINE
  5
31
330
2E
100
AcDbEntity
  8
0
  6
ByBlock
 62
     0
100
AcDbLine
 10
0.0
 20
0.0
 30
0.0
 11
-1.0
 21
-0.1666666666666666
 31
0.0
  0
LINE
  5
32
330
2E
100
AcDbEntity
  8
0
  6
ByBlock
 62
     0
100
AcDbLine
 10
0.0
 20
0.0
 30
0.0
 11
-1.0
 21
0.0
 31
0.0
  0
ENDBLK
  5
33
330
2E
100
AcDbEntity
  8
0
100
AcDbBlockEnd
  0
ENDSEC
  0
SECTION
  2
ENTITIES
  0
TEXT
  5
63
330
18
100
AcDbEntity
  8
4
  6
CENTER
 48
0.25
100
AcDbText
 10
23.97950852663849
 20
10.0
 30
0.0
 40
1.399999999999999
  1
4
100
AcDbText
  0
TEXT
  5
64
330
18
100
AcDbEntity
  8
7
  6
Continuous
 48
0.25
100
AcDbText
 10
9.999997526638502
 20
26.0000007607689
 30
0.0
 40
3.0
  1
CODE No.19269
100
AcDbText
  0
TEXT
  5
65
330
18
100
AcDbEntity
  8
7
  6
Continuous
 48
0.25
100
AcDbText
 10
9.999997526638502
 20
18.00000076076889
 30
0.0
 40
3.0
  1
TYPE No.TCA-50SUS-RN75
100
AcDbText
  0
TEXT
  5
66
330
18
100
AcDbEntity
  8
1
  6
Continuous
 48
0.25
100
AcDbText
 10
9.999997526638502
 20
10.00000076076889
 30
0.0
 40
1.399999999999999
  1
LAYER
100
AcDbText
  0
TEXT
  5
67
330
18
100
AcDbEntity
  8
2
  6
Continuous
 48
0.25
100
AcDbText
 10
19.9795085266385
 20
10.0
 30
0.0
 40
1.399999999999999
  1
2
100
AcDbText
  0
TEXT
  5
68
330
18
100
AcDbEntity
  8
3
  6
DASHED
 48
0.25
100
AcDbText
 10
21.9795085266385
 20
10.0
 30
0.0
 40
1.399999999999999
  1
3
100
AcDbText
  0
TEXT
  5
69
330
18
100
AcDbEntity
  8
1
  6
Continuous
 48
0.25
100
AcDbText
 10
17.9795085266385
 20
10.0
 30
0.0
 40
1.399999999999999
  1
1
100
AcDbText
  0
TEXT
  5
6A
330
18
100
AcDbEntity
  8
5
  6
PHANTOM
 48
0.25
100
AcDbText
 10
25.9795085266385
 20
10.0
 30
0.0
 40
1.399999999999999
  1
5
100
AcDbText
  0
TEXT
  5
6B
330
18
100
AcDbEntity
  8
6
  6
Continuous
 48
0.25
100
AcDbText
 10
27.9795085266385
 20
10.0
 30
0.0
 40
1.399999999999999
  1
6
100
AcDbText
  0
TEXT
  5
6C
330
18
100
AcDbEntity
  8
7
  6
Continuous
 48
0.25
100
AcDbText
 10
29.9795085266385
 20
10.0
 30
0.0
 40
1.399999999999999
  1
7
100
AcDbText
  0
LINE
  5
207
330
18
100
AcDbEntity
  8
4
  6
CENTER
 48
0.5
100
AcDbLine
 10
339.0944061336061
 20
232.6432782514759
 30
0.0
 11
415.0943991336061
 21
232.6432782514759
 31
0.0
  0
LINE
  5
208
330
18
100
AcDbEntity
  8
4
  6
CENTER
 48
0.5
100
AcDbLine
 10
379.8943800578772
 20
189.1432782514759
 30
0.0
 11
379.8943800578772
 21
301.1432782514759
 31
0.0
  0
LINE
  5
20A
330
18
100
AcDbEntity
  8
4
  6
CENTER
 48
0.5
100
AcDbLine
 10
219.3687455386665
 20
189.1432782514761
 30
0.0
 11
219.3687455386665
 21
301.1432782514758
 31
0.0
  0
LINE
  5
20B
330
18
100
AcDbEntity
  8
4
  6
CENTER
 48
0.5
100
AcDbLine
 10
175.8687455386665
 20
232.6432782514761
 30
0.0
 11
262.8687455386665
 21
232.6432782514761
 31
0.0
  0
ARC
  5
20C
330
18
100
AcDbEntity
  8
1
  6
Continuous
100
AcDbCircle
 10
394.8943800578772
 20
264.3653292700357
 30
0.0
 40
5.0
100
AcDbArc
 50
0.0
 51
84.06222754839573
  0
ARC
  5
20D
330
18
100
AcDbEntity
  8
1
  6
Continuous
100
AcDbCircle
 10
402.1943800578772
 20
241.2432784514761
 30
0.0
 40
0.2
100
AcDbArc
 50
0.0
 51
90.0
  0
ARC
  5
20E
330
18
100
AcDbEntity
  8
1
  6
Continuous
100
AcDbCircle
 10
357.5943800578774
 20
241.2432784514761
 30
0.0
 40
0.2
100
AcDbArc
 50
90.0
 51
180.0
  0
LINE
  5
211
330
18
100
AcDbEntity
  8
1
  6
Continuous
100
AcDbLine
 10
401.3943800578771
 20
241.4432784514761
 30
0.0
 11
402.1943800578772
 21
241.4432784514761
 31
0.0
  0
LINE
  5
212
330
18
100
AcDbEntity
  8
1
  6
Continuous
100
AcDbLine
 10
358.3943800578771
 20
241.4432784514761
 30
0.0
 11
357.5943800578774
 21
241.4432784514761
 31
0.0
  0
LINE
  5
216
330
18
100
AcDbEntity
  8
1
  6
Continuous
100
AcDbLine
 10
400.5680250578773
 20
253.6280862514763
 30
0.0
 11
399.8943800578771
 21
253.7468682514763
 31
0.0
  0
LINE
  5
217
330
18
100
AcDbEntity
  8
1
  6
Continuous
100
AcDbLine
 10
359.2207270578771
 20
253.6280842514761
 30
0.0
 11
359.8943800578774
 21
253.7468662514761
 31
0.0
  0
ARC
  5
219
330
18
100
AcDbEntity
  8
1
  6
Continuous
100
AcDbCircle
 10
379.8943800578772
 20
120.1432782514762
 30
0.0
 40
150.0
100
AcDbArc
 50
84.06222754839481
 51
95.93778999999958
  0
ARC
  5
21A
330
18
100
AcDbEntity
  8
1
  6
Continuous
100
AcDbCircle
 10
364.8943800578771
 20
264.3653242514762
 30
0.0
 40
5.0
100
AcDbArc
 50
95.93780999999792
 51
179.99996
  0
ARC
  5
21B
330
18
100
AcDbEntity
  8
1
  6
Continuous
100
AcDbCircle
 10
400.3943800578771
 20
252.6432782514761
 30
0.0
 40
1.0
100
AcDbArc
 50
0.0
 51
80.0000000000014
  0
ARC
  5
21C
330
18
100
AcDbEntity
  8
1
  6
Continuous
100
AcDbCircle
 10
359.3943800578772
 20
252.6432782514761
 30
0.0
 40
1.0
100
AcDbArc
 50
100.0000000000017
 51
180.0000100000002
  0
ARC
  5
21D
330
18
100
AcDbEntity
  8
1
  6
Continuous
100
AcDbCircle
 10
394.8943800578772
 20
200.9212272329165
 30
0.0
 40
5.0
100
AcDbArc
 50
275.9377724516042
 51
0.0
  0
ARC
  5
21E
330
18
100
AcDbEntity
  8
1
  6
Continuous
100
AcDbCircle
 10
402.1943800578772
 20
224.0432780514759
 30
0.0
 40
0.2
100
AcDbArc
 50
270.0
 51
0.0
  0
ARC
  5
21F
330
18
100
AcDbEntity
  8
1
  6
Continuous
100
AcDbCircle
 10
357.5943800578774
 20
224.0432780514759
 30
0.0
 40
0.2
100
AcDbArc
 50
180.0
 51
270.0
  0
ARC
  5
220
330
18
100
AcDbEntity
  8
1
  6
Continuous
100
AcDbCircle
 10
219.3687455386665
 20
232.6432782514761
 30
0.0
 40
15.0
100
AcDbArc
 50
181.7867135826409
 51
358.2131651710094
  0
ARC
  5
221
330
18
100
AcDbEntity
  8
1
  6
Continuous
100
AcDbCircle
 10
219.3687455386665
 20
232.6432782514761
 30
0.0
 40
15.49999899999999
100
AcDbArc
 50
175.3211069753676
 51
4.678812630259887
  0
CIRCLE
  5
222
330
18
100
AcDbEntity
  8
1
  6
Continuous
100
AcDbCircle
 10
219.3687455386665
 20
232.6432782514761
 30
0.0
 40
5.0
  0
ARC
  5
224
330
18
100
AcDbEntity
  8
1
  6
Continuous
100
AcDbCircle
 10
219.3687455386665
 20
232.6432782514761
 30
0.0
 40
37.5
100
AcDbArc
 50
127.6820668284361
 51
52.3179180204735
  0
ARC
  5
225
330
18
100
AcDbEntity
  8
1
  6
Continuous
100
AcDbCircle
 10
219.3687455386665
 20
232.6432782514761
 30
0.0
 40
21.0
100
AcDbArc
 50
148.8545585739993
 51
31.14541150759588
  0
ARC
  5
226
330
18
100
AcDbEntity
  8
1
  6
Continuous
100
AcDbCircle
 10
219.3687455386665
 20
232.6432782514761
 30
0.0
 40
23.0
100
AcDbArc
 50
144.2016995163066
 51
35.79827452143971
  0
LINE
  5
229
330
18
100
AcDbEntity
  8
1
  6
Continuous
100
AcDbLine
 10
401.3943800578771
 20
223.8432780514759
 30
0.0
 11
402.1943800578772
 21
223.8432780514759
 31
0.0
  0
LINE
  5
22A
330
18
100
AcDbEntity
  8
1
  6
Continuous
100
AcDbLine
 10
358.3943800578771
 20
223.8432780514759
 30
0.0
 11
357.5943800578774
 21
223.8432780514759
 31
0.0
  0
LINE
  5
22B
330
18
100
AcDbEntity
  8
1
  6
Continuous
100
AcDbLine
 10
399.8943800578771
 20
200.9212272329163
 30
0.0
 11
399.8943800578771
 21
264.3653292700357
 31
0.0
  0
LINE
  5
22C
330
18
100
AcDbEntity
  8
1
  6
Continuous
100
AcDbLine
 10
359.8943800578771
 20
200.9212322514761
 30
0.0
 11
359.8943800578771
 21
264.3653242514762
 31
0.0
  0
LINE
  5
22D
330
18
100
AcDbEntity
  8
1
  6
Continuous
100
AcDbLine
 10
358.3943800578771
 20
212.6432782514759
 30
0.0
 11
358.3943800578771
 21
252.6432782514761
 31
0.0
  0
LINE
  5
22E
330
18
100
AcDbEntity
  8
1
  6
Continuous
100
AcDbLine
 10
400.5680250578773
 20
211.6584702514759
 30
0.0
 11
399.8943800578771
 21
211.5396882514759
 31
0.0
  0
LINE
  5
22F
330
18
100
AcDbEntity
  8
1
  6
Continuous
100
AcDbLine
 10
359.2207270578771
 20
211.6584722514759
 30
0.0
 11
359.8943800578771
 21
211.5396902514759
 31
0.0
  0
LINE
  5
230
330
18
100
AcDbEntity
  8
1
  6
Continuous
100
AcDbLine
 10
401.3943800578771
 20
212.6432782514759
 30
0.0
 11
401.3943800578771
 21
252.6432782514761
 31
0.0
  0
ARC
  5
231
330
18
100
AcDbEntity
  8
1
  6
Continuous
100
AcDbCircle
 10
379.8943800578772
 20
345.1432782514759
 30
0.0
 40
150.0
100
AcDbArc
 50
264.0622100000003
 51
275.9377724516051
  0
ARC
  5
232
330
18
100
AcDbEntity
  8
1
  6
Continuous
100
AcDbCircle
 10
364.8943800578771
 20
200.9212322514761
 30
0.0
 40
5.0
100
AcDbArc
 50
180.0000399999999
 51
264.062190000002
  0
ARC
  5
233
330
18
100
AcDbEntity
  8
1
  6
Continuous
100
AcDbCircle
 10
400.3943800578771
 20
212.6432782514759
 30
0.0
 40
1.0
100
AcDbArc
 50
279.9999999999986
 51
0.0
  0
ARC
  5
234
330
18
100
AcDbEntity
  8
1
  6
Continuous
100
AcDbCircle
 10
359.3943800578772
 20
212.6432782514759
 30
0.0
 40
1.0
100
AcDbArc
 50
179.9999899999997
 51
259.999999999998
  0
LINE
  5
235
330
18
100
AcDbEntity
  8
1
  6
Continuous
100
AcDbLine
 10
223.6187415386664
 20
375.207286229461
 30
0.0
 11
224.3687455386664
 21
375.9572862294608
 31
0.0
  0
LINE
  5
236
330
18
100
AcDbEntity
  8
1
  6
Continuous
100
AcDbLine
 10
214.3686925386666
 20
375.957246229461
 30
0.0
 11
215.1186925386666
 21
375.207246229461
 31
0.0
  0
LINE
  5
237
330
18
100
AcDbEntity
  8
1
  6
Continuous
100
AcDbLine
 10
224.3687455386664
 20
375.957306229461
 30
0.0
 11
214.3687455386665
 21
375.957306229461
 31
0.0
  0
LINE
  5
238
330
18
100
AcDbEntity
  8
1
  6
Continuous
100
AcDbLine
 10
223.6187455386664
 20
375.207306229461
 30
0.0
 11
215.1187455386665
 21
375.207306229461
 31
0.0
  0
LINE
  5
23B
330
18
100
AcDbEntity
  8
1
  6
Continuous
100
AcDbLine
 10
224.3687455386664
 20
375.9573062294608
 30
0.0
 11
224.3687455386664
 21
377.8072831537318
 31
0.0
  0
LINE
  5
23C
330
18
100
AcDbEntity
  8
1
  6
Continuous
100
AcDbLine
 10
214.3687455386663
 20
375.9573062294608
 30
0.0
 11
214.3687455386663
 21
377.8072831537318
 31
0.0
  0
LINE
  5
23D
330
18
100
AcDbEntity
  8
1
  6
Continuous
100
AcDbLine
 10
346.0444061336061
 20
227.6432782514759
 30
0.0
 11
347.8943830578773
 21
227.6432782514759
 31
0.0
  0
LINE
  5
23E
330
18
100
AcDbEntity
  8
1
  6
Continuous
100
AcDbLine
 10
346.0444061336061
 20
237.6432782514759
 30
0.0
 11
347.8943830578773
 21
237.6432782514759
 31
0.0
  0
LINE
  5
241
330
18
100
AcDbEntity
  8
1
  6
Continuous
100
AcDbLine
 10
345.2944061336062
 20
236.8932782514759
 30
0.0
 11
345.2944061336062
 21
228.3932782514759
 31
0.0
  0
LINE
  5
242
330
18
100
AcDbEntity
  8
1
  6
Continuous
100
AcDbLine
 10
346.0444061336061
 20
237.6432782514759
 30
0.0
 11
346.0444061336061
 21
227.6432782514759
 31
0.0
  0
LINE
  5
243
330
18
100
AcDbEntity
  8
1
  6
Continuous
100
AcDbLine
 10
346.0443461336057
 20
227.643225251476
 30
0.0
 11
345.2943461336056
 21
228.3932252514761
 31
0.0
  0
LINE
  5
244
330
18
100
AcDbEntity
  8
1
  6
Continuous
100
AcDbLine
 10
345.2943861336061
 20
236.8932742514759
 30
0.0
 11
346.0443861336059
 21
237.6432782514759
 31
0.0
  0
LINE
  5
245
330
18
100
AcDbEntity
  8
1
  6
Continuous
100
AcDbLine
 10
349.4943730578771
 20
224.1432750502069
 30
0.0
 11
349.4943730578771
 21
239.27229903169
 31
0.0
  0
LINE
  5
246
330
18
100
AcDbEntity
  8
1
  6
Continuous
100
AcDbLine
 10
347.8943830578773
 20
225.3432760502069
 30
0.0
 11
347.8943830578773
 21
239.9432780502069
 31
0.0
  0
LINE
  5
247
330
18
100
AcDbEntity
  8
1
  6
Continuous
100
AcDbLine
 10
349.0943830578771
 20
224.1432750502069
 30
0.0
 11
349.4943730578771
 21
224.1432750502069
 31
0.0
  0
LINE
  5
248
330
18
100
AcDbEntity
  8
1
  6
Continuous
100
AcDbLine
 10
350.4943730578771
 20
227.7357958076169
 30
0.0
 11
354.3943830578773
 21
227.7357958076169
 31
0.0
  0
LINE
  5
249
330
18
100
AcDbEntity
  8
1
  6
Continuous
100
AcDbLine
 10
350.4943730578771
 20
237.5507542927969
 30
0.0
 11
350.8277996382293
 21
237.5507542927969
 31
0.0
  0
ARC
  5
24A
330
18
100
AcDbEntity
  8
1
  6
Continuous
100
AcDbCircle
 10
362.0360336059412
 20
232.6432782514759
 30
0.0
 40
12.54166054806418
100
AcDbArc
 50
156.9649625403176
 51
203.0350692435371
  0
ARC
  5
24B
330
18
100
AcDbEntity
  8
1
  6
Continuous
100
AcDbCircle
 10
349.0943830578771
 20
225.3432760502069
 30
0.0
 40
1.199999999999999
100
AcDbArc
 50
179.9999899999997
 51
269.9999970000023
  0
ARC
  5
24C
330
18
100
AcDbEntity
  8
1
  6
Continuous
100
AcDbCircle
 10
349.0943830578771
 20
239.9432780502069
 30
0.0
 40
1.199999999999999
100
AcDbArc
 50
129.5775378197139
 51
180.0
  0
LINE
  5
24D
330
18
100
AcDbEntity
  8
1
  6
Continuous
100
AcDbLine
 10
349.4943730578771
 20
224.1432750502069
 30
0.0
 11
350.8093288152867
 21
222.8283192927971
 31
0.0
  0
LINE
  5
24E
330
18
100
AcDbEntity
  8
1
  6
Continuous
100
AcDbLine
 10
350.8093288152872
 20
222.8283192927969
 30
0.0
 11
354.3943830578773
 21
222.8283192927969
 31
0.0
  0
ARC
  5
24F
330
18
100
AcDbEntity
  8
1
  6
Continuous
100
AcDbCircle
 10
353.0047887758159
 20
225.2820575502069
 30
0.0
 40
3.51041571793872
100
AcDbArc
 50
135.654137281819
 51
204.4706962779696
  0
ARC
  5
250
330
18
100
AcDbEntity
  8
1
  6
Continuous
100
AcDbCircle
 10
353.0047887758159
 20
240.0044989527451
 30
0.0
 40
3.51041571793872
100
AcDbArc
 50
194.5460280372943
 51
224.3458627181803
  0
ARC
  5
251
330
18
100
AcDbEntity
  8
1
  6
Continuous
100
AcDbCircle
 10
219.3687455386665
 20
232.6432782514759
 30
0.0
 40
6.0
100
AcDbArc
 50
318.5903800000001
 51
41.40962399999903
  0
CIRCLE
  5
252
330
18
100
AcDbEntity
  8
1
  6
Continuous
100
AcDbCircle
 10
219.3687455386665
 20
232.6432782514759
 30
0.0
 40
6.5
  0
CIRCLE
  5
253
330
18
100
AcDbEntity
  8
1
  6
Continuous
100
AcDbCircle
 10
219.3687455386665
 20
232.6432782514759
 30
0.0
 40
8.5
  0
LINE
  5
254
330
18
100
AcDbEntity
  8
1
  6
Continuous
100
AcDbLine
 10
219.3687460815058
 20
242.4582343222943
 30
0.0
 11
227.8687455386666
 21
237.5507488672487
 31
0.0
  0
LINE
  5
255
330
18
100
AcDbEntity
  8
1
  6
Continuous
100
AcDbLine
 10
227.8687455386664
 20
237.5507488672487
 30
0.0
 11
227.8687455386664
 21
227.7357990088859
 31
0.0
  0
ARC
  5
256
330
18
100
AcDbEntity
  8
1
  6
Continuous
100
AcDbCircle
 10
223.6437475386666
 20
228.8730832514759
 30
0.0
 40
0.30000001
100
AcDbArc
 50
254.6357599999992
 51
318.5903800000001
  0
ARC
  5
257
330
18
100
AcDbEntity
  8
1
  6
Continuous
100
AcDbCircle
 10
215.0937435386664
 20
228.8730832514759
 30
0.0
 40
0.30000001
100
AcDbArc
 50
221.4096199999998
 51
285.3642400000007
  0
ARC
  5
259
330
18
100
AcDbEntity
  8
1
  6
Continuous
100
AcDbCircle
 10
219.3687455386665
 20
232.6432782514759
 30
0.0
 40
6.0
100
AcDbArc
 50
138.5903699999986
 51
221.4096300000012
  0
ARC
  5
25A
330
18
100
AcDbEntity
  8
1
  6
Continuous
100
AcDbCircle
 10
223.6437475386666
 20
236.4134732514759
 30
0.0
 40
0.30000001
100
AcDbArc
 50
41.409617000001
 51
105.3642400000007
  0
ARC
  5
25B
330
18
100
AcDbEntity
  8
1
  6
Continuous
100
AcDbCircle
 10
215.0937435386664
 20
236.4134732514759
 30
0.0
 40
0.30000001
100
AcDbArc
 50
74.63575800000047
 51
138.5903800000001
  0
CIRCLE
  5
25D
330
18
100
AcDbEntity
  8
1
  6
Continuous
100
AcDbCircle
 10
219.3687455386665
 20
232.6432782514759
 30
0.0
 40
5.0
  0
LINE
  5
25E
330
18
100
AcDbEntity
  8
1
  6
Continuous
100
AcDbLine
 10
216.1187375386664
 20
228.843603251476
 30
0.0
 11
215.1732345386665
 21
228.5838072514759
 31
0.0
  0
LINE
  5
25F
330
18
100
AcDbEntity
  8
1
  6
Continuous
100
AcDbLine
 10
222.6187455386664
 20
228.8436112514759
 30
0.0
 11
223.5642635386664
 21
228.5838072514759
 31
0.0
  0
LINE
  5
260
330
18
100
AcDbEntity
  8
1
  6
Continuous
100
AcDbLine
 10
216.1187455386666
 20
236.4429452514761
 30
0.0
 11
215.1732345386665
 21
236.7027492514761
 31
0.0
  0
LINE
  5
261
330
18
100
AcDbEntity
  8
1
  6
Continuous
100
AcDbLine
 10
222.6187455386664
 20
236.4429452514759
 30
0.0
 11
223.5642565386664
 21
236.7027492514761
 31
0.0
  0
LINE
  5
262
330
18
100
AcDbEntity
  8
1
  6
Continuous
100
AcDbLine
 10
210.8687455386664
 20
237.5507574940659
 30
0.0
 11
219.3687460815056
 21
242.4582343222943
 31
0.0
  0
LINE
  5
263
330
18
100
AcDbEntity
  8
1
  6
Continuous
100
AcDbLine
 10
210.8687455386666
 20
237.5507574940659
 30
0.0
 11
210.8687455386665
 21
227.7357990088861
 31
0.0
  0
LINE
  5
264
330
18
100
AcDbEntity
  8
1
  6
Continuous
100
AcDbLine
 10
210.8687455386663
 20
227.7357990088861
 30
0.0
 11
219.3687455386665
 21
222.8283224940661
 31
0.0
  0
LINE
  5
265
330
18
100
AcDbEntity
  8
1
  6
Continuous
100
AcDbLine
 10
219.3687455386664
 20
222.8283224940661
 30
0.0
 11
227.8687455386664
 21
227.7357990088861
 31
0.0
  0
ARC
  5
267
330
18
100
AcDbEntity
  8
1
  6
Continuous
100
AcDbCircle
 10
215.1187455386665
 20
388.0964854460324
 30
0.0
 40
8.785583093775763
100
AcDbArc
 50
241.0695841800873
 51
298.9304158199126
  0
LINE
  5
268
330
18
100
AcDbEntity
  8
1
  6
Continuous
100
AcDbLine
 10
210.8687455386665
 20
379.0072831537321
 30
0.0
 11
210.8687455386665
 21
384.3072831537322
 31
0.0
  0
LINE
  5
269
330
18
100
AcDbEntity
  8
1
  6
Continuous
100
AcDbLine
 10
219.3687455386665
 20
380.4072741537323
 30
0.0
 11
219.3687455386665
 21
384.3072831537322
 31
0.0
  0
LINE
  5
26B
330
18
100
AcDbEntity
  8
1
  6
Continuous
100
AcDbLine
 10
212.0687455386665
 20
377.8072831537321
 30
0.0
 11
226.6687455386664
 21
377.807283153732
 31
0.0
  0
ARC
  5
26E
330
18
100
AcDbEntity
  8
1
  6
Continuous
100
AcDbCircle
 10
223.6187455386664
 20
388.0966523094416
 30
0.0
 40
8.785729134311964
100
AcDbArc
 50
241.0701105902613
 51
298.9298894097387
  0
LINE
  5
26F
330
18
100
AcDbEntity
  8
1
  6
Continuous
100
AcDbLine
 10
227.8687455386664
 20
379.007283153732
 30
0.0
 11
227.8687455386664
 21
384.3072831537322
 31
0.0
  0
LINE
  5
270
330
18
100
AcDbEntity
  8
1
  6
Continuous
100
AcDbLine
 10
227.8687455386664
 20
379.3072709537306
 30
0.0
 11
210.8687455386665
 21
379.3072709537306
 31
0.0
  0
ARC
  5
272
330
18
100
AcDbEntity
  8
1
  6
Continuous
100
AcDbCircle
 10
211.1187455386665
 20
436.7072781537323
 30
0.0
 40
0.5
100
AcDbArc
 50
111.9512999999981
 51
185.0000100000004
  0
ARC
  5
273
330
18
100
AcDbEntity
  8
1
  6
Continuous
100
AcDbCircle
 10
227.6187455386664
 20
436.7072781537323
 30
0.0
 40
0.5
100
AcDbArc
 50
354.9999967000001
 51
68.04869000000046
  0
ARC
  5
274
330
18
100
AcDbEntity
  8
1
  6
Continuous
100
AcDbCircle
 10
219.3687455386665
 20
416.2377461537323
 30
0.0
 40
22.56953
100
AcDbArc
 50
68.04869000000046
 51
111.9512999999981
  0
LINE
  5
275
330
18
100
AcDbEntity
  8
1
  6
Continuous
100
AcDbLine
 10
228.1168435386666
 20
436.6636961537323
 30
0.0
 11
227.9981725386666
 21
435.3072771537322
 31
0.0
  0
LINE
  5
276
330
18
100
AcDbEntity
  8
1
  6
Continuous
100
AcDbLine
 10
210.6206485386664
 20
436.6636991537323
 30
0.0
 11
210.7393205386665
 21
435.3072771537322
 31
0.0
  0
LINE
  5
277
330
18
100
AcDbEntity
  8
1
  6
Continuous
100
AcDbLine
 10
227.7239165386666
 20
436.7072781537321
 30
0.0
 11
210.9499095386666
 21
436.7072781537321
 31
0.0
  0
ARC
  5
278
330
18
100
AcDbEntity
  8
1
  6
Continuous
100
AcDbCircle
 10
406.7944041336058
 20
224.3932782514759
 30
0.0
 40
0.5
100
AcDbArc
 50
265.0000000000002
 51
338.0486900000004
  0
ARC
  5
279
330
18
100
AcDbEntity
  8
1
  6
Continuous
100
AcDbCircle
 10
386.3248691336061
 20
232.6432782514759
 30
0.0
 40
22.56953
100
AcDbArc
 50
338.0486999999989
 51
10.99003535050276
  0
LINE
  5
27A
330
18
100
AcDbEntity
  8
1
  6
Continuous
100
AcDbLine
 10
406.7508251336063
 20
223.8951782514762
 30
0.0
 11
405.3944031336062
 21
224.0138532514761
 31
0.0
  0
LINE
  5
27B
330
18
100
AcDbEntity
  8
1
  6
Continuous
100
AcDbLine
 10
406.7944041336058
 20
234.1599902312269
 30
0.0
 11
406.7944041336058
 21
224.2244392514759
 31
0.0
  0
LINE
  5
2F0
330
18
100
AcDbEntity
  8
4
  6
CENTER
 48
0.2
100
AcDbLine
 10
180.8687455386665
 20
441.3072801537323
 30
0.0
 11
194.8687455386665
 21
441.3072801537323
 31
0.0
  0
LINE
  5
2F1
330
18
100
AcDbEntity
  8
4
  6
CENTER
 48
0.2
100
AcDbLine
 10
243.8687455386664
 20
441.3072801537323
 30
0.0
 11
257.8687455386664
 21
441.3072801537323
 31
0.0
  0
LINE
  5
2F2
330
18
100
AcDbEntity
  8
4
  6
CENTER
 48
0.2
100
AcDbLine
 10
250.8687455386664
 20
448.3072801537322
 30
0.0
 11
250.8687455386664
 21
434.3072801537323
 31
0.0
  0
LINE
  5
2F3
330
18
100
AcDbEntity
  8
4
  6
CENTER
 48
0.2
100
AcDbLine
 10
187.8687455386665
 20
448.3072801537322
 30
0.0
 11
187.8687455386665
 21
434.3072801537323
 31
0.0
  0
LINE
  5
2F4
330
18
100
AcDbEntity
  8
1
  6
Continuous
100
AcDbLine
 10
245.8687455386664
 20
392.8072801537322
 30
0.0
 11
245.8687455386664
 21
426.8072801537321
 31
0.0
  0
LINE
  5
2F5
330
18
100
AcDbEntity
  8
1
  6
Continuous
100
AcDbLine
 10
192.8687455386665
 20
392.8072801537322
 30
0.0
 11
192.8687455386665
 21
426.8072801537321
 31
0.0
  0
LINE
  5
2F6
330
18
100
AcDbEntity
  8
1
  6
Continuous
100
AcDbLine
 10
197.8687455386665
 20
392.8072801537322
 30
0.0
 11
197.8687455386665
 21
426.8072801537321
 31
0.0
  0
LINE
  5
2F8
330
18
100
AcDbEntity
  8
4
  6
CENTER
 48
0.5
100
AcDbLine
 10
172.3687455386665
 20
409.8072801537322
 30
0.0
 11
266.3687455386664
 21
409.8072801537322
 31
0.0
  0
LINE
  5
2FA
330
18
100
AcDbEntity
  8
1
  6
Continuous
100
AcDbLine
 10
254.3687455386664
 20
452.7925601537323
 30
0.0
 11
254.3687455386664
 21
454.5572801537322
 31
0.0
  0
LINE
  5
2FB
330
18
100
AcDbEntity
  8
1
  6
Continuous
100
AcDbLine
 10
184.3687455386665
 20
452.7925601537323
 30
0.0
 11
184.3687455386665
 21
454.5572801537322
 31
0.0
  0
LINE
  5
2FC
330
18
100
AcDbEntity
  8
1
  6
Continuous
100
AcDbLine
 10
240.8687455386664
 20
392.8072801537322
 30
0.0
 11
240.8687455386664
 21
426.8072801537321
 31
0.0
  0
ARC
  5
300
330
18
100
AcDbEntity
  8
1
  6
Continuous
100
AcDbCircle
 10
195.3687455386665
 20
392.8072801537322
 30
0.0
 40
2.5
100
AcDbArc
 50
179.99996
 51
0.0000100179130762
  0
ARC
  5
301
330
18
100
AcDbEntity
  8
1
  6
Continuous
100
AcDbCircle
 10
195.3687455386665
 20
426.8072801537321
 30
0.0
 40
2.5
100
AcDbArc
 50
0.0
 51
179.99996
  0
CIRCLE
  5
302
330
18
100
AcDbEntity
  8
1
  6
Continuous
100
AcDbCircle
 10
187.8687455386665
 20
441.3072801537323
 30
0.0
 40
4.400000099999996
  0
CIRCLE
  5
303
330
18
100
AcDbEntity
  8
1
  6
Continuous
100
AcDbCircle
 10
250.8687455386664
 20
441.3072801537323
 30
0.0
 40
4.400000099999996
  0
ARC
  5
304
330
18
100
AcDbEntity
  8
1
  6
Continuous
100
AcDbCircle
 10
182.3687455386665
 20
452.7925601537323
 30
0.0
 40
2.0
100
AcDbArc
 50
289.4711899999995
 51
0.0
  0
ARC
  5
305
330
18
100
AcDbEntity
  8
1
  6
Continuous
100
AcDbCircle
 10
256.3687455386664
 20
452.7925601537323
 30
0.0
 40
2.0
100
AcDbArc
 50
179.99996
 51
250.5287700000018
  0
ARC
  5
308
330
18
100
AcDbEntity
  8
1
  6
Continuous
100
AcDbCircle
 10
253.3687455386664
 20
444.3072801537322
 30
0.0
 40
7.0
100
AcDbArc
 50
0.0
 51
70.52876599999907
  0
ARC
  5
309
330
18
100
AcDbEntity
  8
1
  6
Continuous
100
AcDbCircle
 10
185.3687455386665
 20
444.3072801537322
 30
0.0
 40
7.0
100
AcDbArc
 50
109.4711999999992
 51
179.99996
  0
ARC
  5
30A
330
18
100
AcDbEntity
  8
1
  6
Continuous
100
AcDbCircle
 10
243.3687455386664
 20
392.8072801537322
 30
0.0
 40
2.5
100
AcDbArc
 50
179.99996
 51
0.0000100179130762
  0
ARC
  5
30B
330
18
100
AcDbEntity
  8
1
  6
Continuous
100
AcDbCircle
 10
243.3687455386664
 20
426.8072801537321
 30
0.0
 40
2.5
100
AcDbArc
 50
0.0
 51
179.99996
  0
LINE
  5
31E
330
18
100
AcDbEntity
  8
1
  6
Continuous
100
AcDbLine
 10
178.3687455386664
 20
295.1432782514759
 30
0.0
 11
260.3687455386666
 21
295.1432782514759
 31
0.0
  0
LINE
  5
31F
330
18
100
AcDbEntity
  8
1
  6
Continuous
100
AcDbLine
 10
260.3687455386664
 20
292.1432812514758
 30
0.0
 11
260.3687455386664
 21
295.1432782514759
 31
0.0
  0
LINE
  5
322
330
18
100
AcDbEntity
  8
1
  6
Continuous
100
AcDbLine
 10
257.3687455386655
 20
292.1432812514758
 30
0.0
 11
260.3687455386664
 21
292.1432812514758
 31
0.0
  0
LINE
  5
323
330
18
100
AcDbEntity
  8
1
  6
Continuous
100
AcDbLine
 10
230.3687455386664
 20
234.3166102514761
 30
0.0
 11
230.3687455386664
 21
292.8432751514759
 31
0.0
  0
LINE
  5
324
330
18
100
AcDbEntity
  8
1
  6
Continuous
100
AcDbLine
 10
208.3687455386663
 20
234.7166122514759
 30
0.0
 11
208.3687455386663
 21
292.4432813514757
 31
0.0
  0
LINE
  5
325
330
18
100
AcDbEntity
  8
1
  6
Continuous
100
AcDbLine
 10
187.1091405386666
 20
286.0171682514759
 30
0.0
 11
186.2577745386664
 21
286.3565782514759
 31
0.0
  0
LINE
  5
326
330
18
100
AcDbEntity
  8
1
  6
Continuous
100
AcDbLine
 10
251.6283585386666
 20
286.0171602514761
 30
0.0
 11
252.4797185386666
 21
286.3565702514761
 31
0.0
  0
LINE
  5
327
330
18
100
AcDbEntity
  8
1
  6
Continuous
100
AcDbLine
 10
247.2122365386664
 20
281.0259052514759
 30
0.0
 11
233.8751995386664
 21
230.3271462514761
 31
0.0
  0
LINE
  5
328
330
18
100
AcDbEntity
  8
1
  6
Continuous
100
AcDbLine
 10
191.5252655386664
 20
281.0259042514759
 30
0.0
 11
204.8623006086665
 21
230.3271392514759
 31
0.0
  0
LINE
  5
329
330
18
100
AcDbEntity
  8
1
  6
Continuous
100
AcDbLine
 10
335.1443790578769
 20
277.8072602514759
 30
0.0
 11
335.1443790578769
 21
291.1432782514759
 31
0.0
  0
LINE
  5
32A
330
18
100
AcDbEntity
  8
1
  6
Continuous
100
AcDbLine
 10
424.6443800578773
 20
277.8072572514759
 30
0.0
 11
424.6443800578773
 21
291.1432782514759
 31
0.0
  0
LINE
  5
32B
330
18
100
AcDbEntity
  8
1
  6
Continuous
100
AcDbLine
 10
420.6443800578773
 20
295.1432782514758
 30
0.0
 11
339.1443830578773
 21
295.1432782514758
 31
0.0
  0
LINE
  5
32C
330
18
100
AcDbEntity
  8
1
  6
Continuous
100
AcDbLine
 10
420.6443800578773
 20
292.1432782514759
 30
0.0
 11
339.144380057877
 21
292.1432782514759
 31
0.0
  0
LINE
  5
32F
330
18
100
AcDbEntity
  8
1
  6
Continuous
100
AcDbLine
 10
397.7296200578773
 20
288.9432782514759
 30
0.0
 11
362.0591440578771
 21
288.9432782514759
 31
0.0
  0
LINE
  5
330
330
18
100
AcDbEntity
  8
1
  6
Continuous
100
AcDbLine
 10
402.3943800578772
 20
219.1432782514759
 30
0.0
 11
402.3943800578772
 21
292.1432782514759
 31
0.0
  0
LINE
  5
331
330
18
100
AcDbEntity
  8
1
  6
Continuous
100
AcDbLine
 10
357.3943800578772
 20
219.1432782514759
 30
0.0
 11
357.3943800578772
 21
292.1432782514759
 31
0.0
  0
LINE
  5
332
330
18
100
AcDbEntity
  8
1
  6
Continuous
100
AcDbLine
 10
405.3943800578773
 20
219.1432782514759
 30
0.0
 11
402.3943800578772
 21
219.1432782514759
 31
0.0
  0
LINE
  5
334
330
18
100
AcDbEntity
  8
1
  6
Continuous
100
AcDbLine
 10
405.3943800578773
 20
219.1432782514759
 30
0.0
 11
405.3943800578775
 21
227.8322216783136
 31
0.0
  0
LINE
  5
335
330
18
100
AcDbEntity
  8
1
  6
Continuous
100
AcDbLine
 10
357.3943800578772
 20
219.1432782514759
 30
0.0
 11
354.394380057877
 21
219.1432782514759
 31
0.0
  0
LINE
  5
336
330
18
100
AcDbEntity
  8
1
  6
Continuous
100
AcDbLine
 10
260.3687455386664
 20
375.3072801537322
 30
0.0
 11
260.3687455386664
 21
444.3072801537322
 31
0.0
  0
LINE
  5
337
330
18
100
AcDbEntity
  8
1
  6
Continuous
100
AcDbLine
 10
178.3687455386665
 20
375.3072801537322
 30
0.0
 11
178.3687455386665
 21
444.3072801537322
 31
0.0
  0
LINE
  5
338
330
18
100
AcDbEntity
  8
4
  6
CENTER
 48
0.2
100
AcDbLine
 10
180.8687455386665
 20
378.3072801537322
 30
0.0
 11
194.8687455386665
 21
378.3072801537322
 31
0.0
  0
LINE
  5
339
330
18
100
AcDbEntity
  8
4
  6
CENTER
 48
0.2
100
AcDbLine
 10
187.8687455386665
 20
385.3072801537322
 30
0.0
 11
187.8687455386665
 21
371.3072801537322
 31
0.0
  0
LINE
  5
33A
330
18
100
AcDbEntity
  8
4
  6
CENTER
 48
0.2
100
AcDbLine
 10
243.8687455386664
 20
378.3072801537322
 30
0.0
 11
257.8687455386664
 21
378.3072801537322
 31
0.0
  0
LINE
  5
33B
330
18
100
AcDbEntity
  8
4
  6
CENTER
 48
0.2
100
AcDbLine
 10
250.8687455386664
 20
385.3072801537322
 30
0.0
 11
250.8687455386664
 21
371.3072801537322
 31
0.0
  0
LINE
  5
33C
330
18
100
AcDbEntity
  8
4
  6
CENTER
 48
0.5
100
AcDbLine
 10
219.3687455386665
 20
369.007306229461
 30
0.0
 11
219.3687455386665
 21
445.0072761537322
 31
0.0
  0
LINE
  5
33F
330
18
100
AcDbEntity
  8
1
  6
Continuous
100
AcDbLine
 10
184.3687455386664
 20
365.0572801537322
 30
0.0
 11
184.3687455386664
 21
366.821997153732
 31
0.0
  0
LINE
  5
340
330
18
100
AcDbEntity
  8
1
  6
Continuous
100
AcDbLine
 10
254.3687455386666
 20
365.0572801537322
 30
0.0
 11
254.3687455386666
 21
366.821997153732
 31
0.0
  0
LINE
  5
342
330
18
100
AcDbEntity
  8
1
  6
Continuous
100
AcDbLine
 10
250.8984585386666
 20
365.0572801537322
 30
0.0
 11
254.3687455386664
 21
365.0572801537322
 31
0.0
  0
ARC
  5
343
330
18
100
AcDbEntity
  8
1
  6
Continuous
100
AcDbCircle
 10
219.3687455386665
 20
234.1432782514759
 30
0.0
 40
15.0
100
AcDbArc
 50
194.7385599999997
 51
345.2614400000002
  0
ARC
  5
344
330
18
100
AcDbEntity
  8
1
  6
Continuous
100
AcDbCircle
 10
251.3687433911206
 20
289.1432809223296
 30
0.0
 40
3.000003276248871
100
AcDbArc
 50
291.7354992090867
 51
16.60142384755995
  0
ARC
  5
345
330
18
100
AcDbEntity
  8
1
  6
Continuous
100
AcDbCircle
 10
187.3687455386665
 20
289.1432782514759
 30
0.0
 40
3.0
100
AcDbArc
 50
163.3984799999997
 51
248.2644299999975
  0
ARC
  5
346
330
18
100
AcDbEntity
  8
1
  6
Continuous
100
AcDbCircle
 10
184.3687455386665
 20
279.1432782514759
 30
0.0
 40
7.400000099999996
100
AcDbArc
 50
14.73850999999966
 51
68.26444899999997
  0
ARC
  5
347
330
18
100
AcDbEntity
  8
1
  6
Continuous
100
AcDbCircle
 10
254.3687455386664
 20
279.1432782514759
 30
0.0
 40
7.400000099999996
100
AcDbArc
 50
111.7355400000008
 51
165.2614499999998
  0
ARC
  5
34A
330
18
100
AcDbEntity
  8
1
  6
Continuous
100
AcDbCircle
 10
258.0769515386666
 20
291.1432782514759
 30
0.0
 40
4.0
100
AcDbArc
 50
89.9999820000008
 51
196.6015900000001
  0
ARC
  5
34B
330
18
100
AcDbEntity
  8
1
  6
Continuous
100
AcDbCircle
 10
180.6605435386664
 20
291.1432782514759
 30
0.0
 40
4.0
100
AcDbArc
 50
343.3983700000008
 51
89.9999820000008
  0
ARC
  5
34C
330
18
100
AcDbEntity
  8
1
  6
Continuous
100
AcDbCircle
 10
397.7296200578773
 20
293.9432786514757
 30
0.0
 40
5.0
100
AcDbArc
 50
269.9999800000012
 51
338.8998299999996
  0
ARC
  5
34D
330
18
100
AcDbEntity
  8
1
  6
Continuous
100
AcDbCircle
 10
362.0591440578771
 20
293.9432786514757
 30
0.0
 40
5.0
100
AcDbArc
 50
201.1001000000002
 51
269.9999800000012
  0
ARC
  5
34E
330
18
100
AcDbEntity
  8
1
  6
Continuous
100
AcDbCircle
 10
420.6443800578773
 20
291.1432782514759
 30
0.0
 40
4.0
100
AcDbArc
 50
0.0000399999999546
 51
90.00001799999918
  0
ARC
  5
34F
330
18
100
AcDbEntity
  8
1
  6
Continuous
100
AcDbCircle
 10
339.1443830578773
 20
291.1432782514759
 30
0.0
 40
4.0
100
AcDbArc
 50
90.00001799999918
 51
180.0
  0
CIRCLE
  5
356
330
18
100
AcDbEntity
  8
1
  6
Continuous
100
AcDbCircle
 10
187.8687455386665
 20
378.3072801537322
 30
0.0
 40
4.400000099999996
  0
CIRCLE
  5
357
330
18
100
AcDbEntity
  8
1
  6
Continuous
100
AcDbCircle
 10
250.8687455386664
 20
378.3072801537322
 30
0.0
 40
4.400000099999996
  0
ARC
  5
358
330
18
100
AcDbEntity
  8
1
  6
Continuous
100
AcDbCircle
 10
182.3687455386665
 20
366.8219971537323
 30
0.0
 40
2.0
100
AcDbArc
 50
0.0
 51
70.52874499999916
  0
ARC
  5
359
330
18
100
AcDbEntity
  8
1
  6
Continuous
100
AcDbCircle
 10
256.3687455386664
 20
366.8219971537323
 30
0.0
 40
2.0
100
AcDbArc
 50
109.4712200000001
 51
179.99996
  0
ARC
  5
35C
330
18
100
AcDbEntity
  8
1
  6
Continuous
100
AcDbCircle
 10
185.3687455386665
 20
375.3072801537322
 30
0.0
 40
7.0
100
AcDbArc
 50
179.99996
 51
250.5287700000018
  0
ARC
  5
35D
330
18
100
AcDbEntity
  8
1
  6
Continuous
100
AcDbCircle
 10
253.3687455386664
 20
375.3072801537322
 30
0.0
 40
7.0
100
AcDbArc
 50
289.4711800000005
 51
0.0
  0
ARC
  5
362
330
18
100
AcDbEntity
  8
1
  6
Continuous
100
AcDbCircle
 10
352.3166260578773
 20
282.8019352514758
 30
0.0
 40
72.5
100
AcDbArc
 50
321.0806907293286
 51
356.04964
  0
ARC
  5
903
330
18
100
AcDbEntity
  8
1
  6
Continuous
100
AcDbCircle
 10
220.1930836896348
 20
409.8072801537322
 30
0.0
 40
6.425661849031713
100
AcDbArc
 50
312.954591511112
 51
47.04540848888796
  0
ARC
  5
904
330
18
100
AcDbEntity
  8
1
  6
Continuous
100
AcDbCircle
 10
219.3687455386665
 20
408.9218799175069
 30
0.0
 40
7.635400236225278
100
AcDbArc
 50
47.04540848888796
 51
132.954591511112
  0
ARC
  5
905
330
18
100
AcDbEntity
  8
1
  6
Continuous
100
AcDbCircle
 10
218.5444073876981
 20
409.8072801537322
 30
0.0
 40
6.425661849031713
100
AcDbArc
 50
132.954591511112
 51
227.0454084888879
  0
ARC
  5
906
330
18
100
AcDbEntity
  8
1
  6
Continuous
100
AcDbCircle
 10
219.3687455386665
 20
410.6926803899574
 30
0.0
 40
7.635400236225278
100
AcDbArc
 50
227.0454084888879
 51
312.954591511112
  0
LINE
  5
907
330
18
100
AcDbEntity
  8
2
  6
Continuous
100
AcDbLine
 10
223.5567455386664
 20
375.2073062294609
 30
0.0
 11
223.5567455386664
 21
377.807283153732
 31
0.0
  0
LINE
  5
908
330
18
100
AcDbEntity
  8
2
  6
Continuous
100
AcDbLine
 10
215.1807455386665
 20
375.2073062294609
 30
0.0
 11
215.1807455386665
 21
377.807283153732
 31
0.0
  0
CIRCLE
  5
909
330
18
100
AcDbEntity
  8
2
  6
Continuous
100
AcDbCircle
 10
219.3687455386665
 20
232.6432782514761
 30
0.0
 40
4.187999999999998
  0
LINE
  5
90A
330
18
100
AcDbEntity
  8
2
  6
Continuous
100
AcDbLine
 10
347.8943830578773
 20
236.8312782514759
 30
0.0
 11
345.2944061336062
 21
236.8312782514759
 31
0.0
  0
LINE
  5
90B
330
18
100
AcDbEntity
  8
2
  6
Continuous
100
AcDbLine
 10
347.8943830578773
 20
228.4552782514759
 30
0.0
 11
345.2944061336062
 21
228.4552782514759
 31
0.0
  0
ARC
  5
90C
330
18
100
AcDbEntity
  8
1
  6
Continuous
100
AcDbCircle
 10
226.6687455386664
 20
379.007283153732
 30
0.0
 40
1.199999999999999
100
AcDbArc
 50
269.9999999999997
 51
0.0
  0
ARC
  5
90D
330
18
100
AcDbEntity
  8
1
  6
Continuous
100
AcDbCircle
 10
212.0687455386665
 20
379.0072831537321
 30
0.0
 40
1.199999999999999
100
AcDbArc
 50
180.0
 51
270.0
  0
LINE
  5
90E
330
18
100
AcDbEntity
  8
4
  6
CENTER
 48
0.2
100
AcDbLine
 10
250.8687455386665
 20
287.9432782514758
 30
0.0
 11
250.8687455386665
 21
299.1432782514759
 31
0.0
  0
LINE
  5
90F
330
18
100
AcDbEntity
  8
4
  6
CENTER
 48
0.2
100
AcDbLine
 10
187.8687455386665
 20
287.9432782514758
 30
0.0
 11
187.8687455386665
 21
299.1432782514759
 31
0.0
  0
LINE
  5
910
330
18
100
AcDbEntity
  8
4
  6
CENTER
 48
0.2
100
AcDbLine
 10
411.3943800578772
 20
287.9432782514758
 30
0.0
 11
411.3943800578772
 21
299.1432782514759
 31
0.0
  0
LINE
  5
911
330
18
100
AcDbEntity
  8
4
  6
CENTER
 48
0.2
100
AcDbLine
 10
348.3943800578772
 20
287.9432782514758
 30
0.0
 11
348.3943800578772
 21
299.1432782514759
 31
0.0
  0
ARC
  5
C9C
330
18
100
AcDbEntity
  8
1
  6
Continuous
100
AcDbCircle
 10
540.4200145770878
 20
232.6432782514761
 30
0.0
 40
23.0
100
AcDbArc
 50
144.2017254785602
 51
35.7983004836934
  0
LINE
  5
C9D
330
18
100
AcDbEntity
  8
1
  6
Continuous
100
AcDbLine
 10
568.263494577088
 20
281.0259042514759
 30
0.0
 11
554.9264595070878
 21
230.3271392514759
 31
0.0
  0
LINE
  5
C9E
330
18
100
AcDbEntity
  8
1
  6
Continuous
100
AcDbLine
 10
551.420014577088
 20
234.7166122514759
 30
0.0
 11
551.420014577088
 21
292.4432813514757
 31
0.0
  0
LINE
  5
C9F
330
18
100
AcDbEntity
  8
1
  6
Continuous
100
AcDbLine
 10
529.420014577088
 20
234.3166102514761
 30
0.0
 11
529.420014577088
 21
292.8432751514759
 31
0.0
  0
LINE
  5
CA0
330
18
100
AcDbEntity
  8
1
  6
Continuous
100
AcDbLine
 10
512.5765235770878
 20
281.0259052514759
 30
0.0
 11
525.913560577088
 21
230.3271462514761
 31
0.0
  0
LINE
  5
CA1
330
18
100
AcDbEntity
  8
4
  6
CENTER
 48
0.5
100
AcDbLine
 10
540.4200145770878
 20
189.1432782514761
 30
0.0
 11
540.4200145770878
 21
301.1432782514758
 31
0.0
  0
ARC
  5
CA2
330
18
100
AcDbEntity
  8
1
  6
Continuous
100
AcDbCircle
 10
540.4200145770878
 20
232.6432782514761
 30
0.0
 40
37.5
100
AcDbArc
 50
127.6820819795265
 51
52.3179331715639
  0
LINE
  5
CA5
330
18
100
AcDbEntity
  8
4
  6
CENTER
 48
0.5
100
AcDbLine
 10
583.9200145770878
 20
232.6432782514761
 30
0.0
 11
496.9200145770878
 21
232.6432782514761
 31
0.0
  0
ARC
  5
CA7
330
18
100
AcDbEntity
  8
1
  6
Continuous
100
AcDbCircle
 10
540.4200145770878
 20
232.6432782514761
 30
0.0
 40
15.0
100
AcDbArc
 50
181.7868348289905
 51
358.2132864173591
  0
ARC
  5
CAF
330
18
100
AcDbEntity
  8
1
  6
Continuous
100
AcDbCircle
 10
540.4200145770878
 20
232.6432782514761
 30
0.0
 40
15.49999899999999
100
AcDbArc
 50
175.32118736974
 51
4.678893024632398
  0
ARC
  5
CB0
330
18
100
AcDbEntity
  8
1
  6
Continuous
100
AcDbCircle
 10
540.4200145770878
 20
232.6432782514761
 30
0.0
 40
21.0
100
AcDbArc
 50
148.8545884924041
 51
31.14544142600066
  0
ARC
  5
CB4
330
18
100
AcDbEntity
  8
1
  6
Continuous
100
AcDbCircle
 10
540.4200145770878
 20
234.1432782514759
 30
0.0
 40
15.0
100
AcDbArc
 50
194.7385599999998
 51
345.2614400000002
  0
LINE
  5
CC2
330
18
100
AcDbEntity
  8
1
  6
Continuous
100
AcDbLine
 10
581.4200145770881
 20
295.1432782514759
 30
0.0
 11
499.4200145770878
 21
295.1432782514759
 31
0.0
  0
LINE
  5
CC3
330
18
100
AcDbEntity
  8
4
  6
CENTER
 48
0.2
100
AcDbLine
 10
571.9200145770878
 20
287.9432782514758
 30
0.0
 11
571.9200145770878
 21
299.1432782514759
 31
0.0
  0
ARC
  5
CC4
330
18
100
AcDbEntity
  8
1
  6
Continuous
100
AcDbCircle
 10
572.4200145770878
 20
289.1432782514759
 30
0.0
 40
3.0
100
AcDbArc
 50
291.7355700000025
 51
16.60152000000027
  0
ARC
  5
CC6
330
18
100
AcDbEntity
  8
1
  6
Continuous
100
AcDbCircle
 10
575.4200145770878
 20
279.1432782514759
 30
0.0
 40
7.400000099999996
100
AcDbArc
 50
111.735551
 51
165.2614900000003
  0
LINE
  5
CC7
330
18
100
AcDbEntity
  8
1
  6
Continuous
100
AcDbLine
 10
572.6796195770877
 20
286.0171682514759
 30
0.0
 11
573.5309855770879
 21
286.3565782514759
 31
0.0
  0
ARC
  5
CC8
330
18
100
AcDbEntity
  8
1
  6
Continuous
100
AcDbCircle
 10
579.1282165770878
 20
291.1432782514759
 30
0.0
 40
4.0
100
AcDbArc
 50
90.00001799999918
 51
196.6016299999991
  0
LINE
  5
CCC
330
18
100
AcDbEntity
  8
4
  6
CENTER
 48
0.2
100
AcDbLine
 10
508.9200145770878
 20
287.9432782514758
 30
0.0
 11
508.9200145770878
 21
299.1432782514759
 31
0.0
  0
ARC
  5
CCD
330
18
100
AcDbEntity
  8
1
  6
Continuous
100
AcDbCircle
 10
508.4200145770879
 20
289.1432782514759
 30
0.0
 40
3.0
100
AcDbArc
 50
163.3985289999995
 51
248.2645200000011
  0
LINE
  5
CCF
330
18
100
AcDbEntity
  8
1
  6
Continuous
100
AcDbLine
 10
508.1604015770878
 20
286.0171602514761
 30
0.0
 11
507.3090415770876
 21
286.3565702514761
 31
0.0
  0
ARC
  5
CD0
330
18
100
AcDbEntity
  8
1
  6
Continuous
100
AcDbCircle
 10
505.420014577088
 20
279.1432782514759
 30
0.0
 40
7.400000099999996
100
AcDbArc
 50
14.73855000000012
 51
68.26445999999911
  0
ARC
  5
CD2
330
18
100
AcDbEntity
  8
1
  6
Continuous
100
AcDbCircle
 10
501.7118085770877
 20
291.1432782514759
 30
0.0
 40
4.0
100
AcDbArc
 50
343.3984099999999
 51
90.00001799999918
  0
LINE
  5
D7C
330
18
100
AcDbEntity
  8
4
  6
CENTER
 48
0.2
100
AcDbLine
 10
250.8687455386664
 20
41.97927634921973
 30
0.0
 11
250.8687455386664
 21
55.97927634921973
 31
0.0
  0
LINE
  5
D7F
330
18
100
AcDbEntity
  8
1
  6
Continuous
100
AcDbLine
 10
260.3687455386664
 20
114.9792763492197
 30
0.0
 11
260.3687455386664
 21
45.97927634921972
 31
0.0
  0
LINE
  5
D81
330
18
100
AcDbEntity
  8
4
  6
CENTER
 48
0.2
100
AcDbLine
 10
187.8687455386665
 20
41.97927634921973
 30
0.0
 11
187.8687455386665
 21
55.97927634921973
 31
0.0
  0
CIRCLE
  5
D83
330
18
100
AcDbEntity
  8
1
  6
Continuous
100
AcDbCircle
 10
187.8687455386665
 20
48.97927634921972
 30
0.0
 40
4.400000099999996
  0
LINE
  5
D84
330
18
100
AcDbEntity
  8
1
  6
Continuous
100
AcDbLine
 10
178.3687455386665
 20
114.9792763492197
 30
0.0
 11
178.3687455386665
 21
45.97927634921972
 31
0.0
  0
LINE
  5
D85
330
18
100
AcDbEntity
  8
4
  6
CENTER
 48
0.5
100
AcDbLine
 10
219.3687455386665
 20
121.2792502734909
 30
0.0
 11
219.3687455386665
 21
45.27928034921973
 31
0.0
  0
CIRCLE
  5
D86
330
18
100
AcDbEntity
  8
1
  6
Continuous
100
AcDbCircle
 10
250.8687455386664
 20
48.97927634921972
 30
0.0
 40
4.400000099999996
  0
LINE
  5
D8A
330
18
100
AcDbEntity
  8
4
  6
CENTER
 48
0.5
100
AcDbLine
 10
172.3687455386665
 20
80.47927634921974
 30
0.0
 11
266.3687455386664
 21
80.47927634921974
 31
0.0
  0
LINE
  5
D8C
330
18
100
AcDbEntity
  8
4
  6
CENTER
 48
0.2
100
AcDbLine
 10
243.8687455386664
 20
111.9792763492197
 30
0.0
 11
257.8687455386664
 21
111.9792763492197
 31
0.0
  0
ARC
  5
D92
330
18
100
AcDbEntity
  8
1
  6
Continuous
100
AcDbCircle
 10
185.3687455386665
 20
114.9792763492197
 30
0.0
 40
7.0
100
AcDbArc
 50
109.4712299999981
 51
180.0000399999999
  0
ARC
  5
D94
330
18
100
AcDbEntity
  8
1
  6
Continuous
100
AcDbCircle
 10
182.3687455386665
 20
123.4645593492197
 30
0.0
 40
2.0
100
AcDbArc
 50
289.4712550000008
 51
0.0
  0
LINE
  5
D95
330
18
100
AcDbEntity
  8
1
  6
Continuous
100
AcDbLine
 10
184.3687455386664
 20
125.2292763492197
 30
0.0
 11
184.3687455386664
 21
123.4645593492199
 31
0.0
  0
LINE
  5
D96
330
18
100
AcDbEntity
  8
4
  6
CENTER
 48
0.2
100
AcDbLine
 10
187.8687455386665
 20
104.9792763492197
 30
0.0
 11
187.8687455386665
 21
118.9792763492197
 31
0.0
  0
CIRCLE
  5
D97
330
18
100
AcDbEntity
  8
1
  6
Continuous
100
AcDbCircle
 10
187.8687455386665
 20
111.9792763492197
 30
0.0
 40
4.400000099999996
  0
LINE
  5
D98
330
18
100
AcDbEntity
  8
4
  6
CENTER
 48
0.2
100
AcDbLine
 10
180.8687455386665
 20
111.9792763492197
 30
0.0
 11
194.8687455386665
 21
111.9792763492197
 31
0.0
  0
ARC
  5
D9B
330
18
100
AcDbEntity
  8
1
  6
Continuous
100
AcDbCircle
 10
223.6187455386664
 20
102.1899041935103
 30
0.0
 40
8.785729134311964
100
AcDbArc
 50
61.07011059026134
 51
118.9298894097386
  0
LINE
  5
D9C
330
18
100
AcDbEntity
  8
1
  6
Continuous
100
AcDbLine
 10
223.6187455386664
 20
115.0792502734909
 30
0.0
 11
215.1187455386665
 21
115.0792502734909
 31
0.0
  0
LINE
  5
D9E
330
18
100
AcDbEntity
  8
1
  6
Continuous
100
AcDbLine
 10
212.0687455386665
 20
112.4792733492198
 30
0.0
 11
226.6687455386664
 21
112.4792733492199
 31
0.0
  0
LINE
  5
D9F
330
18
100
AcDbEntity
  8
1
  6
Continuous
100
AcDbLine
 10
227.8687455386664
 20
110.9792855492213
 30
0.0
 11
210.8687455386665
 21
110.9792855492213
 31
0.0
  0
LINE
  5
DA0
330
18
100
AcDbEntity
  8
1
  6
Continuous
100
AcDbLine
 10
224.3687455386664
 20
114.3292502734909
 30
0.0
 11
214.3687455386665
 21
114.3292502734909
 31
0.0
  0
LINE
  5
DA1
330
18
100
AcDbEntity
  8
1
  6
Continuous
100
AcDbLine
 10
219.3687455386665
 20
109.8792823492196
 30
0.0
 11
219.3687455386665
 21
105.9792733492197
 31
0.0
  0
LINE
  5
DA2
330
18
100
AcDbEntity
  8
1
  6
Continuous
100
AcDbLine
 10
210.8687455386665
 20
111.2792733492198
 30
0.0
 11
210.8687455386665
 21
105.9792733492197
 31
0.0
  0
ARC
  5
DA5
330
18
100
AcDbEntity
  8
1
  6
Continuous
100
AcDbCircle
 10
212.0687455386665
 20
111.2792733492198
 30
0.0
 40
1.199999999999999
100
AcDbArc
 50
90.00000000000005
 51
180.0
  0
LINE
  5
DA6
330
18
100
AcDbEntity
  8
1
  6
Continuous
100
AcDbLine
 10
214.3687455386663
 20
114.3292502734911
 30
0.0
 11
214.3687455386663
 21
112.47927334922
 31
0.0
  0
LINE
  5
DA7
330
18
100
AcDbEntity
  8
2
  6
Continuous
100
AcDbLine
 10
215.1807455386665
 20
115.079250273491
 30
0.0
 11
215.1807455386665
 21
112.4792733492199
 31
0.0
  0
LINE
  5
DA8
330
18
100
AcDbEntity
  8
1
  6
Continuous
100
AcDbLine
 10
214.3686925386666
 20
114.3293102734909
 30
0.0
 11
215.1186925386666
 21
115.0793102734909
 31
0.0
  0
ARC
  5
DA9
330
18
100
AcDbEntity
  8
1
  6
Continuous
100
AcDbCircle
 10
215.1187455386665
 20
102.1900710569195
 30
0.0
 40
8.785583093775763
100
AcDbArc
 50
61.0695841800874
 51
118.9304158199126
  0
LINE
  5
DAA
330
18
100
AcDbEntity
  8
1
  6
Continuous
100
AcDbLine
 10
227.8687455386664
 20
111.2792733492199
 30
0.0
 11
227.8687455386664
 21
105.9792733492197
 31
0.0
  0
ARC
  5
DAC
330
18
100
AcDbEntity
  8
1
  6
Continuous
100
AcDbCircle
 10
226.6687455386664
 20
111.2792733492199
 30
0.0
 40
1.199999999999999
100
AcDbArc
 50
0.0
 51
90.00000000000021
  0
LINE
  5
DAD
330
18
100
AcDbEntity
  8
1
  6
Continuous
100
AcDbLine
 10
224.3687455386664
 20
114.3292502734911
 30
0.0
 11
224.3687455386664
 21
112.47927334922
 31
0.0
  0
LINE
  5
DAE
330
18
100
AcDbEntity
  8
2
  6
Continuous
100
AcDbLine
 10
223.5567455386664
 20
115.079250273491
 30
0.0
 11
223.5567455386664
 21
112.4792733492199
 31
0.0
  0
LINE
  5
DAF
330
18
100
AcDbEntity
  8
1
  6
Continuous
100
AcDbLine
 10
223.6187415386664
 20
115.0792702734909
 30
0.0
 11
224.3687455386664
 21
114.3292702734912
 31
0.0
  0
LINE
  5
DB6
330
18
100
AcDbEntity
  8
1
  6
Continuous
100
AcDbLine
 10
227.7239165386666
 20
53.57927834921993
 30
0.0
 11
210.9499095386666
 21
53.57927834921993
 31
0.0
  0
ARC
  5
DB7
330
18
100
AcDbEntity
  8
1
  6
Continuous
100
AcDbCircle
 10
219.3687455386665
 20
74.04881034921972
 30
0.0
 40
22.56953
100
AcDbArc
 50
248.0487000000018
 51
291.9513099999995
  0
LINE
  5
DBA
330
18
100
AcDbEntity
  8
1
  6
Continuous
100
AcDbLine
 10
210.6206485386664
 20
53.62285734921972
 30
0.0
 11
210.7393205386665
 21
54.97927934921968
 31
0.0
  0
ARC
  5
DBB
330
18
100
AcDbEntity
  8
1
  6
Continuous
100
AcDbCircle
 10
211.1187455386665
 20
53.5792783492197
 30
0.0
 40
0.5
100
AcDbArc
 50
174.9999899999995
 51
248.0487000000018
  0
LINE
  5
DBD
330
18
100
AcDbEntity
  8
1
  6
Continuous
100
AcDbLine
 10
228.1168435386666
 20
53.62286034921972
 30
0.0
 11
227.9981725386666
 21
54.97927934921968
 31
0.0
  0
ARC
  5
DBE
330
18
100
AcDbEntity
  8
1
  6
Continuous
100
AcDbCircle
 10
227.6187455386664
 20
53.5792783492197
 30
0.0
 40
0.5
100
AcDbArc
 50
291.9513099999995
 51
5.000003299999835
  0
ARC
  5
DC0
330
18
100
AcDbEntity
  8
1
  6
Continuous
100
AcDbCircle
 10
253.3687455386664
 20
114.9792763492197
 30
0.0
 40
7.0
100
AcDbArc
 50
0.0
 51
70.52881999999946
  0
ARC
  5
DC2
330
18
100
AcDbEntity
  8
1
  6
Continuous
100
AcDbCircle
 10
256.3687455386664
 20
123.4645593492197
 30
0.0
 40
2.0
100
AcDbArc
 50
180.0000399999999
 51
250.52878
  0
LINE
  5
DC3
330
18
100
AcDbEntity
  8
1
  6
Continuous
100
AcDbLine
 10
254.3687455386666
 20
125.2292763492197
 30
0.0
 11
254.3687455386666
 21
123.4645593492199
 31
0.0
  0
LINE
  5
DC4
330
18
100
AcDbEntity
  8
4
  6
CENTER
 48
0.2
100
AcDbLine
 10
250.8687455386664
 20
104.9792763492197
 30
0.0
 11
250.8687455386664
 21
118.9792763492197
 31
0.0
  0
CIRCLE
  5
DC5
330
18
100
AcDbEntity
  8
1
  6
Continuous
100
AcDbCircle
 10
250.8687455386664
 20
111.9792763492197
 30
0.0
 40
4.400000099999996
  0
LINE
  5
DC8
330
18
100
AcDbEntity
  8
4
  6
CENTER
 48
0.2
100
AcDbLine
 10
243.8687455386664
 20
48.97927634921972
 30
0.0
 11
257.8687455386664
 21
48.97927634921972
 31
0.0
  0
ARC
  5
DCB
330
18
100
AcDbEntity
  8
1
  6
Continuous
100
AcDbCircle
 10
182.3687455386665
 20
37.49399634921968
 30
0.0
 40
2.0
100
AcDbArc
 50
0.0
 51
70.52881000000049
  0
LINE
  5
DCC
330
18
100
AcDbEntity
  8
4
  6
CENTER
 48
0.2
100
AcDbLine
 10
180.8687455386665
 20
48.97927634921972
 30
0.0
 11
194.8687455386665
 21
48.97927634921972
 31
0.0
  0
ARC
  5
DCD
330
18
100
AcDbEntity
  8
1
  6
Continuous
100
AcDbCircle
 10
185.3687455386665
 20
45.97927634921972
 30
0.0
 40
7.0
100
AcDbArc
 50
180.0000399999999
 51
250.5288000000007
  0
LINE
  5
DCF
330
18
100
AcDbEntity
  8
1
  6
Continuous
100
AcDbLine
 10
184.3687455386665
 20
37.49399634921968
 30
0.0
 11
184.3687455386665
 21
35.72927634921967
 31
0.0
  0
ARC
  5
DD0
330
18
100
AcDbEntity
  8
1
  6
Continuous
100
AcDbCircle
 10
256.3687455386664
 20
37.49399634921968
 30
0.0
 40
2.0
100
AcDbArc
 50
109.4712299999981
 51
180.0000399999999
  0
ARC
  5
DD1
330
18
100
AcDbEntity
  8
1
  6
Continuous
100
AcDbCircle
 10
253.3687455386664
 20
45.97927634921972
 30
0.0
 40
7.0
100
AcDbArc
 50
289.4712340000008
 51
0.0
  0
LINE
  5
DD3
330
18
100
AcDbEntity
  8
1
  6
Continuous
100
AcDbLine
 10
254.3687455386664
 20
37.49399634921968
 30
0.0
 11
254.3687455386664
 21
35.72927634921967
 31
0.0
  0
CIRCLE
  5
E92
330
18
100
AcDbEntity
  8
1
  6
Continuous
100
AcDbCircle
 10
540.4200145770878
 20
232.6432782514761
 30
0.0
 40
8.750000000000197
  0
LINE
  5
EBE
330
18
100
AcDbEntity
  8
1
  6
Continuous
100
AcDbLine
 10
251.0907965572261
 20
100.4792763492197
 30
0.0
 11
187.6466945201066
 21
100.4792763492197
 31
0.0
  0
LINE
  5
EC2
330
18
100
AcDbEntity
  8
1
  6
Continuous
100
AcDbLine
 10
251.0907915386663
 20
60.4792763492197
 30
0.0
 11
187.6466995386662
 21
60.4792763492197
 31
0.0
  0
ARC
  5
EC7
330
18
100
AcDbEntity
  8
1
  6
Continuous
100
AcDbCircle
 10
106.8687455386664
 20
80.47927634921967
 30
0.0
 40
150.0
100
AcDbArc
 50
354.0622100000003
 51
5.937772451605124
  0
ARC
  5
EC8
330
18
100
AcDbEntity
  8
1
  6
Continuous
100
AcDbCircle
 10
251.0907915386662
 20
65.47927634921967
 30
0.0
 40
5.0
100
AcDbArc
 50
270.0000399999999
 51
354.062190000002
  0
ARC
  5
EC9
330
18
100
AcDbEntity
  8
1
  6
Continuous
100
AcDbCircle
 10
251.0907965572258
 20
95.47927634921968
 30
0.0
 40
5.0
100
AcDbArc
 50
5.937772451604326
 51
90.0
  0
LINE
  5
ECB
330
18
100
AcDbEntity
  8
1
  6
Continuous
100
AcDbLine
 10
239.3687455386664
 20
58.9792763492197
 30
0.0
 11
199.3687455386663
 21
58.9792763492197
 31
0.0
  0
ARC
  5
ED2
330
18
100
AcDbEntity
  8
1
  6
Continuous
100
AcDbCircle
 10
239.3687455386664
 20
59.97927634921968
 30
0.0
 40
1.0
100
AcDbArc
 50
269.9999899999998
 51
349.9999999999981
  0
LINE
  5
ED3
330
18
100
AcDbEntity
  8
1
  6
Continuous
100
AcDbLine
 10
240.3535515386665
 20
59.8056233492197
 30
0.0
 11
240.4723335386664
 21
60.4792763492197
 31
0.0
  0
LINE
  5
EDF
330
18
100
AcDbEntity
  8
1
  6
Continuous
100
AcDbLine
 10
228.1687457386665
 20
58.9792763492197
 30
0.0
 11
228.1687457386665
 21
58.17927634921993
 31
0.0
  0
ARC
  5
EE0
330
18
100
AcDbEntity
  8
1
  6
Continuous
100
AcDbCircle
 10
227.9687457386665
 20
58.17927634921989
 30
0.0
 40
0.2
100
AcDbArc
 50
270.0
 51
0.0
  0
LINE
  5
EE7
330
18
100
AcDbEntity
  8
1
  6
Continuous
100
AcDbLine
 10
210.5687453386662
 20
58.9792763492197
 30
0.0
 11
210.5687453386662
 21
58.17927634921993
 31
0.0
  0
ARC
  5
EE8
330
18
100
AcDbEntity
  8
1
  6
Continuous
100
AcDbCircle
 10
210.7687453386662
 20
58.17927634921989
 30
0.0
 40
0.2
100
AcDbArc
 50
180.0
 51
270.0
  0
ARC
  5
EE9
330
18
100
AcDbEntity
  8
1
  6
Continuous
100
AcDbCircle
 10
199.3687455386663
 20
59.97927634921968
 30
0.0
 40
1.0
100
AcDbArc
 50
190.0000000000017
 51
270.0000100000002
  0
LINE
  5
EEA
330
18
100
AcDbEntity
  8
1
  6
Continuous
100
AcDbLine
 10
198.3839395386663
 20
59.8056233492197
 30
0.0
 11
198.2651575386663
 21
60.47927634921993
 31
0.0
  0
LINE
  5
EEE
330
18
100
AcDbEntity
  8
1
  6
Continuous
100
AcDbLine
 10
239.3687455386665
 20
101.9792763492197
 30
0.0
 11
199.3687455386663
 21
101.9792763492197
 31
0.0
  0
LINE
  5
EF1
330
18
100
AcDbEntity
  8
1
  6
Continuous
100
AcDbLine
 10
240.3535535386665
 20
101.1529213492199
 30
0.0
 11
240.4723355386665
 21
100.4792763492197
 31
0.0
  0
ARC
  5
EF2
330
18
100
AcDbEntity
  8
1
  6
Continuous
100
AcDbCircle
 10
239.3687455386664
 20
100.9792763492196
 30
0.0
 40
1.0
100
AcDbArc
 50
9.999999999998603
 51
90.0
  0
LINE
  5
EF4
330
18
100
AcDbEntity
  8
1
  6
Continuous
100
AcDbLine
 10
228.1687457386665
 20
101.9792763492197
 30
0.0
 11
228.1687457386665
 21
102.7792763492197
 31
0.0
  0
ARC
  5
EF5
330
18
100
AcDbEntity
  8
1
  6
Continuous
100
AcDbCircle
 10
227.9687457386665
 20
102.7792763492196
 30
0.0
 40
0.2
100
AcDbArc
 50
0.0
 51
90.0
  0
LINE
  5
EF9
330
18
100
AcDbEntity
  8
1
  6
Continuous
100
AcDbLine
 10
210.5687453386662
 20
101.9792763492197
 30
0.0
 11
210.5687453386662
 21
102.7792763492197
 31
0.0
  0
ARC
  5
EFA
330
18
100
AcDbEntity
  8
1
  6
Continuous
100
AcDbCircle
 10
210.7687453386662
 20
102.7792763492196
 30
0.0
 40
0.2
100
AcDbArc
 50
90.0
 51
180.0
  0
LINE
  5
EFB
330
18
100
AcDbEntity
  8
1
  6
Continuous
100
AcDbLine
 10
198.383937538666
 20
101.1529213492199
 30
0.0
 11
198.265155538666
 21
100.4792763492197
 31
0.0
  0
ARC
  5
EFC
330
18
100
AcDbEntity
  8
1
  6
Continuous
100
AcDbCircle
 10
199.3687455386663
 20
100.9792763492196
 30
0.0
 40
1.0
100
AcDbArc
 50
90.0
 51
170.0000000000013
  0
ARC
  5
EFF
330
18
100
AcDbEntity
  8
1
  6
Continuous
100
AcDbCircle
 10
331.8687455386663
 20
80.47927634921967
 30
0.0
 40
150.0
100
AcDbArc
 50
174.0622275483948
 51
185.9377899999995
  0
ARC
  5
F01
330
18
100
AcDbEntity
  8
1
  6
Continuous
100
AcDbCircle
 10
187.6466995386662
 20
65.47927634921967
 30
0.0
 40
5.0
100
AcDbArc
 50
185.9378099999979
 51
269.99996
  0
ARC
  5
F04
330
18
100
AcDbEntity
  8
1
  6
Continuous
100
AcDbCircle
 10
187.6466945201066
 20
95.47927634921968
 30
0.0
 40
5.0
100
AcDbArc
 50
90.0
 51
174.0622275483957
  0
ARC
  5
1470
330
18
100
AcDbEntity
  8
1
  6
Continuous
100
AcDbCircle
 10
257.3687455386655
 20
289.1432812514759
 30
0.0
 40
3.0
100
AcDbArc
 50
90.0
 51
180.0000286478897
  0
LINE
  5
1471
330
18
100
AcDbEntity
  8
1
  6
Continuous
100
AcDbLine
 10
178.3687455386666
 20
292.1432812514758
 30
0.0
 11
178.3687455386666
 21
295.1432782514759
 31
0.0
  0
LINE
  5
1472
330
18
100
AcDbEntity
  8
1
  6
Continuous
100
AcDbLine
 10
181.3687455386673
 20
292.1432812514758
 30
0.0
 11
178.3687455386666
 21
292.1432812514758
 31
0.0
  0
ARC
  5
1473
330
18
100
AcDbEntity
  8
1
  6
Continuous
100
AcDbCircle
 10
181.3687455386673
 20
289.1432812514759
 30
0.0
 40
3.0
100
AcDbArc
 50
359.9999713521103
 51
90.0
  0
ARC
  5
147F
330
18
100
AcDbEntity
  8
1
  6
Continuous
100
AcDbCircle
 10
502.4200145770887
 20
289.1432812514759
 30
0.0
 40
3.0
100
AcDbArc
 50
359.9999713521103
 51
90.0
  0
LINE
  5
1480
330
18
100
AcDbEntity
  8
1
  6
Continuous
100
AcDbLine
 10
502.4200145770887
 20
292.1432812514758
 30
0.0
 11
499.420014577088
 21
292.1432812514758
 31
0.0
  0
LINE
  5
1481
330
18
100
AcDbEntity
  8
1
  6
Continuous
100
AcDbLine
 10
499.420014577088
 20
292.1432812514758
 30
0.0
 11
499.420014577088
 21
295.1432782514759
 31
0.0
  0
LINE
  5
1482
330
18
100
AcDbEntity
  8
1
  6
Continuous
100
AcDbLine
 10
581.4200145770877
 20
292.1432812514758
 30
0.0
 11
581.4200145770877
 21
295.1432782514759
 31
0.0
  0
LINE
  5
1483
330
18
100
AcDbEntity
  8
1
  6
Continuous
100
AcDbLine
 10
578.4200145770872
 20
292.1432812514758
 30
0.0
 11
581.4200145770877
 21
292.1432812514758
 31
0.0
  0
ARC
  5
1484
330
18
100
AcDbEntity
  8
1
  6
Continuous
100
AcDbCircle
 10
578.4200145770872
 20
289.1432812514759
 30
0.0
 40
3.0
100
AcDbArc
 50
90.0
 51
180.0000286478897
  0
LINE
  5
1490
330
18
100
AcDbEntity
  8
1
  6
Continuous
100
AcDbLine
 10
421.6443800578773
 20
277.9118917633776
 30
0.0
 11
421.6443800578773
 21
291.1432782514759
 31
0.0
  0
ARC
  5
1491
330
18
100
AcDbEntity
  8
1
  6
Continuous
100
AcDbCircle
 10
352.3166260578773
 20
282.8019352514758
 30
0.0
 40
69.5
100
AcDbArc
 50
321.0806907293285
 51
355.9653159060027
  0
ARC
  5
14B4
330
18
100
AcDbEntity
  8
1
  6
Continuous
100
AcDbCircle
 10
420.3943800578773
 20
227.8322216783136
 30
0.0
 40
15.0
100
AcDbArc
 50
141.0806907293288
 51
180.0
  0
ARC
  5
14B5
330
18
100
AcDbEntity
  8
1
  6
Continuous
100
AcDbCircle
 10
420.3943800578771
 20
227.8322216783134
 30
0.0
 40
18.0
100
AcDbArc
 50
141.0806907293285
 51
180.0000000000001
  0
ARC
  5
14B6
330
18
100
AcDbEntity
  8
1
  6
Continuous
100
AcDbCircle
 10
420.6443800578773
 20
291.1432782514759
 30
0.0
 40
1.0
100
AcDbArc
 50
0.0
 51
90.0
  0
LINE
  5
14C2
330
18
100
AcDbEntity
  8
1
  6
Continuous
100
AcDbLine
 10
338.144380057877
 20
277.9118917633776
 30
0.0
 11
338.144380057877
 21
291.1432782514759
 31
0.0
  0
ARC
  5
14C3
330
18
100
AcDbEntity
  8
1
  6
Continuous
100
AcDbCircle
 10
407.4721340578769
 20
282.8019352514758
 30
0.0
 40
72.5
100
AcDbArc
 50
183.9503599999999
 51
218.9193092706713
  0
ARC
  5
14C4
330
18
100
AcDbEntity
  8
1
  6
Continuous
100
AcDbCircle
 10
407.4721340578769
 20
282.8019352514758
 30
0.0
 40
69.5
100
AcDbArc
 50
184.0346840939971
 51
218.9193092706715
  0
ARC
  5
14C5
330
18
100
AcDbEntity
  8
1
  6
Continuous
100
AcDbCircle
 10
339.3943800578773
 20
227.8322216783134
 30
0.0
 40
18.0
100
AcDbArc
 50
359.9999999999998
 51
38.91930927067146
  0
ARC
  5
14C6
330
18
100
AcDbEntity
  8
1
  6
Continuous
100
AcDbCircle
 10
339.3943800578771
 20
227.8322216783136
 30
0.0
 40
15.0
100
AcDbArc
 50
0.000000000000007
 51
38.91930927067109
  0
LINE
  5
14C7
330
18
100
AcDbEntity
  8
1
  6
Continuous
100
AcDbLine
 10
354.394380057877
 20
219.1432782514759
 30
0.0
 11
354.394380057877
 21
227.8322216783136
 31
0.0
  0
ARC
  5
14C8
330
18
100
AcDbEntity
  8
1
  6
Continuous
100
AcDbCircle
 10
339.144380057877
 20
291.1432782514759
 30
0.0
 40
1.0
100
AcDbArc
 50
90.0
 51
180.0
  0
LINE
  5
150B
330
18
100
AcDbEntity
  8
1
  6
Continuous
100
AcDbLine
 10
18.09311101945564
 20
292.1432782514759
 30
0.0
 11
99.59311101945601
 21
292.1432782514759
 31
0.0
  0
LINE
  5
150C
330
18
100
AcDbEntity
  8
1
  6
Continuous
100
AcDbLine
 10
41.00787101945565
 20
288.9432782514759
 30
0.0
 11
76.67834701945587
 21
288.9432782514759
 31
0.0
  0
LINE
  5
1512
330
18
100
AcDbEntity
  8
1
  6
Continuous
100
AcDbLine
 10
18.09311101945564
 20
295.1432782514758
 30
0.0
 11
99.59310801945566
 21
295.1432782514758
 31
0.0
  0
ARC
  5
1513
330
18
100
AcDbEntity
  8
1
  6
Continuous
100
AcDbCircle
 10
43.84311101945587
 20
200.9212272329165
 30
0.0
 40
5.0
100
AcDbArc
 50
180.0
 51
264.0622275483957
  0
ARC
  5
1514
330
18
100
AcDbEntity
  8
1
  6
Continuous
100
AcDbCircle
 10
43.84311101945587
 20
264.3653292700357
 30
0.0
 40
5.0
100
AcDbArc
 50
95.93777245160429
 51
180.0
  0
LINE
  5
1515
330
18
100
AcDbEntity
  8
4
  6
CENTER
 48
0.5
100
AcDbLine
 10
99.64308494372687
 20
232.6432782514759
 30
0.0
 11
23.64309194372691
 21
232.6432782514759
 31
0.0
  0
ARC
  5
1516
330
18
100
AcDbEntity
  8
1
  6
Continuous
100
AcDbCircle
 10
31.26535701945602
 20
282.8019352514758
 30
0.0
 40
69.5
100
AcDbArc
 50
321.0806907293285
 51
355.9653159060033
  0
ARC
  5
1517
330
18
100
AcDbEntity
  8
1
  6
Continuous
100
AcDbCircle
 10
31.26535701945602
 20
282.8019352514758
 30
0.0
 40
72.5
100
AcDbArc
 50
321.0806907293286
 51
356.04964
  0
LINE
  5
1518
330
18
100
AcDbEntity
  8
1
  6
Continuous
100
AcDbLine
 10
81.34311101945588
 20
219.1432782514759
 30
0.0
 11
81.34311101945588
 21
292.1432782514759
 31
0.0
  0
LINE
  5
1519
330
18
100
AcDbEntity
  8
4
  6
CENTER
 48
0.5
100
AcDbLine
 10
58.84311101945588
 20
189.1432782514759
 30
0.0
 11
58.84311101945582
 21
301.1432782514759
 31
0.0
  0
LINE
  5
151D
330
18
100
AcDbEntity
  8
1
  6
Continuous
100
AcDbLine
 10
89.2431180194559
 20
224.1432750502069
 30
0.0
 11
89.2431180194559
 21
239.27229903169
 31
0.0
  0
LINE
  5
151E
330
18
100
AcDbEntity
  8
1
  6
Continuous
100
AcDbLine
 10
93.44308494372688
 20
236.8932782514759
 30
0.0
 11
93.44308494372688
 21
228.3932782514759
 31
0.0
  0
LINE
  5
151F
330
18
100
AcDbEntity
  8
1
  6
Continuous
100
AcDbLine
 10
92.69308494372689
 20
237.6432782514759
 30
0.0
 11
92.69308494372689
 21
227.6432782514759
 31
0.0
  0
LINE
  5
1520
330
18
100
AcDbEntity
  8
1
  6
Continuous
100
AcDbLine
 10
90.84310801945566
 20
225.3432760502069
 30
0.0
 11
90.84310801945566
 21
239.9432780502069
 31
0.0
  0
ARC
  5
1521
330
18
100
AcDbEntity
  8
1
  6
Continuous
100
AcDbCircle
 10
76.70145747139184
 20
232.6432782514759
 30
0.0
 40
12.54166054806418
100
AcDbArc
 50
336.9649307564629
 51
23.03503745968233
  0
ARC
  5
1522
330
18
100
AcDbEntity
  8
1
  6
Continuous
100
AcDbCircle
 10
99.34311101945594
 20
227.8322216783136
 30
0.0
 40
15.0
100
AcDbArc
 50
141.0806907293288
 51
180.0
  0
ARC
  5
1523
330
18
100
AcDbEntity
  8
1
  6
Continuous
100
AcDbCircle
 10
99.34311101945576
 20
227.8322216783134
 30
0.0
 40
18.0
100
AcDbArc
 50
141.0806907293285
 51
180.0000000000001
  0
LINE
  5
1524
330
18
100
AcDbEntity
  8
1
  6
Continuous
100
AcDbLine
 10
80.34311101945588
 20
212.6432782514759
 30
0.0
 11
80.34311101945588
 21
252.6432782514761
 31
0.0
  0
LINE
  5
1525
330
18
100
AcDbEntity
  8
1
  6
Continuous
100
AcDbLine
 10
78.84311101945588
 20
200.9212322514761
 30
0.0
 11
78.84311101945588
 21
264.3653242514762
 31
0.0
  0
ARC
  5
1526
330
18
100
AcDbEntity
  8
1
  6
Continuous
100
AcDbCircle
 10
58.84311101945588
 20
345.1432782514759
 30
0.0
 40
150.0
100
AcDbArc
 50
264.0622275483948
 51
275.9377899999996
  0
ARC
  5
1527
330
18
100
AcDbEntity
  8
1
  6
Continuous
100
AcDbCircle
 10
73.84311101945588
 20
200.9212322514761
 30
0.0
 40
5.0
100
AcDbArc
 50
275.9378099999979
 51
359.99996
  0
LINE
  5
1528
330
18
100
AcDbEntity
  8
1
  6
Continuous
100
AcDbLine
 10
89.2431180194559
 20
224.1432750502069
 30
0.0
 11
87.92816226204626
 21
222.8283192927971
 31
0.0
  0
ARC
  5
1529
330
18
100
AcDbEntity
  8
1
  6
Continuous
100
AcDbCircle
 10
85.73270230151711
 20
225.2820575502069
 30
0.0
 40
3.51041571793872
100
AcDbArc
 50
335.5293037220304
 51
44.3458627181809
  0
LINE
  5
152A
330
18
100
AcDbEntity
  8
1
  6
Continuous
100
AcDbLine
 10
92.69308494372689
 20
227.6432782514759
 30
0.0
 11
90.84310801945566
 21
227.6432782514759
 31
0.0
  0
LINE
  5
152B
330
18
100
AcDbEntity
  8
1
  6
Continuous
100
AcDbLine
 10
92.6931449437273
 20
227.643225251476
 30
0.0
 11
93.4431449437273
 21
228.3932252514761
 31
0.0
  0
LINE
  5
152C
330
18
100
AcDbEntity
  8
1
  6
Continuous
100
AcDbLine
 10
89.64310801945591
 20
224.1432750502069
 30
0.0
 11
89.2431180194559
 21
224.1432750502069
 31
0.0
  0
ARC
  5
152D
330
18
100
AcDbEntity
  8
1
  6
Continuous
100
AcDbCircle
 10
89.64310801945591
 20
225.3432760502069
 30
0.0
 40
1.199999999999999
100
AcDbArc
 50
270.0000029999976
 51
0.0000100000001992
  0
LINE
  5
152E
330
18
100
AcDbEntity
  8
2
  6
Continuous
100
AcDbLine
 10
90.84310801945566
 20
228.4552782514759
 30
0.0
 11
93.44308494372677
 21
228.4552782514759
 31
0.0
  0
LINE
  5
152F
330
18
100
AcDbEntity
  8
1
  6
Continuous
100
AcDbLine
 10
84.34311101945599
 20
219.1432782514759
 30
0.0
 11
84.34311101945604
 21
227.8322216783136
 31
0.0
  0
LINE
  5
1530
330
18
100
AcDbEntity
  8
1
  6
Continuous
100
AcDbLine
 10
81.34311101945588
 20
219.1432782514759
 30
0.0
 11
84.34311101945599
 21
219.1432782514759
 31
0.0
  0
ARC
  5
1531
330
18
100
AcDbEntity
  8
1
  6
Continuous
100
AcDbCircle
 10
79.34311101945588
 20
212.6432782514759
 30
0.0
 40
1.0
100
AcDbArc
 50
280.0000000000018
 51
0.0000100000001992
  0
LINE
  5
1532
330
18
100
AcDbEntity
  8
1
  6
Continuous
100
AcDbLine
 10
79.51676401945587
 20
211.6584722514759
 30
0.0
 11
78.84311101945588
 21
211.5396902514759
 31
0.0
  0
LINE
  5
1533
330
18
100
AcDbEntity
  8
1
  6
Continuous
100
AcDbLine
 10
88.24311801945588
 20
227.7357958076169
 30
0.0
 11
84.34310801945565
 21
227.7357958076169
 31
0.0
  0
LINE
  5
1534
330
18
100
AcDbEntity
  8
1
  6
Continuous
100
AcDbLine
 10
87.9281622620458
 20
222.8283192927969
 30
0.0
 11
84.34310801945565
 21
222.8283192927969
 31
0.0
  0
LINE
  5
1535
330
18
100
AcDbEntity
  8
1
  6
Continuous
100
AcDbLine
 10
80.34311101945588
 20
223.8432780514759
 30
0.0
 11
81.14311101945565
 21
223.8432780514759
 31
0.0
  0
ARC
  5
1536
330
18
100
AcDbEntity
  8
1
  6
Continuous
100
AcDbCircle
 10
81.14311101945565
 20
224.0432780514759
 30
0.0
 40
0.2
100
AcDbArc
 50
270.0
 51
0.000000000000007
  0
ARC
  5
1537
330
18
100
AcDbEntity
  8
1
  6
Continuous
100
AcDbCircle
 10
58.84311101945588
 20
120.1432782514762
 30
0.0
 40
150.0
100
AcDbArc
 50
84.06221000000043
 51
95.93777245160518
  0
ARC
  5
1538
330
18
100
AcDbEntity
  8
1
  6
Continuous
100
AcDbCircle
 10
85.73270230151711
 20
240.0044989527451
 30
0.0
 40
3.51041571793872
100
AcDbArc
 50
315.6541372818197
 51
345.4539719627057
  0
ARC
  5
1539
330
18
100
AcDbEntity
  8
1
  6
Continuous
100
AcDbCircle
 10
89.64310801945591
 20
239.9432780502069
 30
0.0
 40
1.199999999999999
100
AcDbArc
 50
0.000000000000007
 51
50.42246218028608
  0
LINE
  5
153A
330
18
100
AcDbEntity
  8
1
  6
Continuous
100
AcDbLine
 10
92.69308494372689
 20
237.6432782514759
 30
0.0
 11
90.84310801945566
 21
237.6432782514759
 31
0.0
  0
LINE
  5
153B
330
18
100
AcDbEntity
  8
1
  6
Continuous
100
AcDbLine
 10
93.4431049437269
 20
236.8932742514759
 30
0.0
 11
92.69310494372714
 21
237.6432782514759
 31
0.0
  0
LINE
  5
153C
330
18
100
AcDbEntity
  8
2
  6
Continuous
100
AcDbLine
 10
90.84310801945566
 20
236.8312782514759
 30
0.0
 11
93.44308494372677
 21
236.8312782514759
 31
0.0
  0
LINE
  5
153D
330
18
100
AcDbEntity
  8
1
  6
Continuous
100
AcDbLine
 10
88.24311801945588
 20
237.5507542927969
 30
0.0
 11
87.90969143910379
 21
237.5507542927969
 31
0.0
  0
LINE
  5
153E
330
18
100
AcDbEntity
  8
1
  6
Continuous
100
AcDbLine
 10
80.34311101945588
 20
241.4432784514761
 30
0.0
 11
81.14311101945565
 21
241.4432784514761
 31
0.0
  0
ARC
  5
153F
330
18
100
AcDbEntity
  8
1
  6
Continuous
100
AcDbCircle
 10
81.14311101945565
 20
241.2432784514761
 30
0.0
 40
0.2
100
AcDbArc
 50
0.000000000000007
 51
90.0
  0
ARC
  5
1540
330
18
100
AcDbEntity
  8
1
  6
Continuous
100
AcDbCircle
 10
79.34311101945588
 20
252.6432782514761
 30
0.0
 40
1.0
100
AcDbArc
 50
359.9999899999998
 51
79.99999999999818
  0
LINE
  5
1541
330
18
100
AcDbEntity
  8
1
  6
Continuous
100
AcDbLine
 10
79.51676401945587
 20
253.6280842514761
 30
0.0
 11
78.84311101945565
 21
253.7468662514761
 31
0.0
  0
ARC
  5
1542
330
18
100
AcDbEntity
  8
1
  6
Continuous
100
AcDbCircle
 10
73.84311101945588
 20
264.3653242514762
 30
0.0
 40
5.0
100
AcDbArc
 50
0.0000399999999616
 51
84.06219000000211
  0
LINE
  5
1543
330
18
100
AcDbEntity
  8
4
  6
CENTER
 48
0.2
100
AcDbLine
 10
90.34311101945579
 20
287.9432782514758
 30
0.0
 11
90.34311101945579
 21
299.1432782514759
 31
0.0
  0
ARC
  5
1544
330
18
100
AcDbEntity
  8
1
  6
Continuous
100
AcDbCircle
 10
99.59310801945566
 20
291.1432782514759
 30
0.0
 40
4.0
100
AcDbArc
 50
0.000000000000007
 51
89.99998200000083
  0
LINE
  5
1545
330
18
100
AcDbEntity
  8
1
  6
Continuous
100
AcDbLine
 10
100.5931110194559
 20
277.9118917633782
 30
0.0
 11
100.5931110194559
 21
291.1432782514759
 31
0.0
  0
LINE
  5
1546
330
18
100
AcDbEntity
  8
1
  6
Continuous
100
AcDbLine
 10
103.5931120194561
 20
277.8072602514759
 30
0.0
 11
103.5931120194561
 21
291.1432782514759
 31
0.0
  0
ARC
  5
1547
330
18
100
AcDbEntity
  8
1
  6
Continuous
100
AcDbCircle
 10
99.59311101945601
 20
291.1432782514759
 30
0.0
 40
1.0
100
AcDbArc
 50
0.000000000000007
 51
90.0
  0
ARC
  5
1548
330
18
100
AcDbEntity
  8
1
  6
Continuous
100
AcDbCircle
 10
76.67834701945587
 20
293.9432786514757
 30
0.0
 40
5.0
100
AcDbArc
 50
270.0000199999987
 51
338.8998999999997
  0
LINE
  5
1549
330
18
100
AcDbEntity
  8
1
  6
Continuous
100
AcDbLine
 10
36.34311101945587
 20
219.1432782514759
 30
0.0
 11
36.34311101945582
 21
292.1432782514759
 31
0.0
  0
ARC
  5
154A
330
18
100
AcDbEntity
  8
1
  6
Continuous
100
AcDbCircle
 10
86.42086501945561
 20
282.8019352514758
 30
0.0
 40
69.5
100
AcDbArc
 50
184.0346840939966
 51
218.9193092706715
  0
ARC
  5
154B
330
18
100
AcDbEntity
  8
1
  6
Continuous
100
AcDbCircle
 10
86.42086501945561
 20
282.8019352514758
 30
0.0
 40
72.5
100
AcDbArc
 50
183.9503599999999
 51
218.9193092706713
  0
ARC
  5
154D
330
18
100
AcDbEntity
  8
1
  6
Continuous
100
AcDbCircle
 10
18.34311101945587
 20
227.8322216783134
 30
0.0
 40
18.0
100
AcDbArc
 50
359.9999999999998
 51
38.91930927067146
  0
LINE
  5
154E
330
18
100
AcDbEntity
  8
1
  6
Continuous
100
AcDbLine
 10
31.94308694372711
 20
234.1599902312269
 30
0.0
 11
31.94308694372711
 21
224.2244392514759
 31
0.0
  0
ARC
  5
154F
330
18
100
AcDbEntity
  8
1
  6
Continuous
100
AcDbCircle
 10
52.41262194372689
 20
232.6432782514759
 30
0.0
 40
22.56953
100
AcDbArc
 50
169.0099646494972
 51
201.951300000001
  0
ARC
  5
1550
330
18
100
AcDbEntity
  8
1
  6
Continuous
100
AcDbCircle
 10
18.3431110194557
 20
227.8322216783136
 30
0.0
 40
15.0
100
AcDbArc
 50
0.000000000000007
 51
38.91930927067109
  0
LINE
  5
1552
330
18
100
AcDbEntity
  8
1
  6
Continuous
100
AcDbLine
 10
37.34311101945587
 20
212.6432782514759
 30
0.0
 11
37.34311101945587
 21
252.6432782514761
 31
0.0
  0
LINE
  5
1553
330
18
100
AcDbEntity
  8
1
  6
Continuous
100
AcDbLine
 10
38.84311101945587
 20
200.9212272329163
 30
0.0
 11
38.84311101945587
 21
264.3653292700357
 31
0.0
  0
LINE
  5
1554
330
18
100
AcDbEntity
  8
1
  6
Continuous
100
AcDbLine
 10
33.34311101945564
 20
219.1432782514759
 30
0.0
 11
33.34311101945559
 21
227.8322216783136
 31
0.0
  0
LINE
  5
1555
330
18
100
AcDbEntity
  8
1
  6
Continuous
100
AcDbLine
 10
33.34311101945564
 20
219.1432782514759
 30
0.0
 11
36.34311101945587
 21
219.1432782514759
 31
0.0
  0
ARC
  5
1556
330
18
100
AcDbEntity
  8
1
  6
Continuous
100
AcDbCircle
 10
38.34311101945587
 20
212.6432782514759
 30
0.0
 40
1.0
100
AcDbArc
 50
180.0
 51
260.0000000000013
  0
LINE
  5
1557
330
18
100
AcDbEntity
  8
1
  6
Continuous
100
AcDbLine
 10
38.16946601945562
 20
211.6584702514759
 30
0.0
 11
38.84311101945587
 21
211.5396882514759
 31
0.0
  0
LINE
  5
1558
330
18
100
AcDbEntity
  8
1
  6
Continuous
100
AcDbLine
 10
37.34311101945587
 20
223.8432780514759
 30
0.0
 11
36.54311101945586
 21
223.8432780514759
 31
0.0
  0
ARC
  5
1559
330
18
100
AcDbEntity
  8
1
  6
Continuous
100
AcDbCircle
 10
36.54311101945586
 20
224.0432780514759
 30
0.0
 40
0.2
100
AcDbArc
 50
180.0
 51
270.0
  0
ARC
  5
155A
330
18
100
AcDbEntity
  8
1
  6
Continuous
100
AcDbCircle
 10
31.94308694372711
 20
224.3932782514759
 30
0.0
 40
0.5
100
AcDbArc
 50
201.9513099999995
 51
274.9999999999997
  0
LINE
  5
155B
330
18
100
AcDbEntity
  8
1
  6
Continuous
100
AcDbLine
 10
31.98666594372668
 20
223.8951782514762
 30
0.0
 11
33.34308794372685
 21
224.0138532514761
 31
0.0
  0
LINE
  5
155C
330
18
100
AcDbEntity
  8
1
  6
Continuous
100
AcDbLine
 10
37.34311101945587
 20
241.4432784514761
 30
0.0
 11
36.54311101945586
 21
241.4432784514761
 31
0.0
  0
ARC
  5
155D
330
18
100
AcDbEntity
  8
1
  6
Continuous
100
AcDbCircle
 10
36.54311101945586
 20
241.2432784514761
 30
0.0
 40
0.2
100
AcDbArc
 50
90.0
 51
180.0
  0
ARC
  5
155E
330
18
100
AcDbEntity
  8
1
  6
Continuous
100
AcDbCircle
 10
38.34311101945587
 20
252.6432782514761
 30
0.0
 40
1.0
100
AcDbArc
 50
99.99999999999859
 51
180.0
  0
LINE
  5
155F
330
18
100
AcDbEntity
  8
1
  6
Continuous
100
AcDbLine
 10
38.16946601945562
 20
253.6280862514763
 30
0.0
 11
38.84311101945587
 21
253.7468682514763
 31
0.0
  0
LINE
  5
1561
330
18
100
AcDbEntity
  8
4
  6
CENTER
 48
0.2
100
AcDbLine
 10
27.34311101945582
 20
287.9432782514758
 30
0.0
 11
27.34311101945582
 21
299.1432782514759
 31
0.0
  0
ARC
  5
1562
330
18
100
AcDbEntity
  8
1
  6
Continuous
100
AcDbCircle
 10
18.09311101945564
 20
291.1432782514759
 30
0.0
 40
4.0
100
AcDbArc
 50
89.99998200000083
 51
179.99996
  0
ARC
  5
1563
330
18
100
AcDbEntity
  8
1
  6
Continuous
100
AcDbCircle
 10
41.00787101945565
 20
293.9432786514757
 30
0.0
 40
5.0
100
AcDbArc
 50
201.1001700000003
 51
270.0000199999987
  0
LINE
  5
1564
330
18
100
AcDbEntity
  8
1
  6
Continuous
100
AcDbLine
 10
17.09311101945564
 20
277.9118917633782
 30
0.0
 11
17.09311101945564
 21
291.1432782514759
 31
0.0
  0
LINE
  5
1565
330
18
100
AcDbEntity
  8
1
  6
Continuous
100
AcDbLine
 10
14.09311101945564
 20
277.8072572514759
 30
0.0
 11
14.09311101945564
 21
291.1432782514759
 31
0.0
  0
ARC
  5
1566
330
18
100
AcDbEntity
  8
1
  6
Continuous
100
AcDbCircle
 10
18.09311101945564
 20
291.1432782514759
 30
0.0
 40
1.0
100
AcDbArc
 50
90.0
 51
180.0
  0
LINE
  5
1846
330
18
100
AcDbEntity
  8
1
  6
Continuous
100
AcDbLine
 10
204.8997922094574
 20
381.1278931265555
 30
0.0
 11
199.1865702057653
 21
371.5138875935385
 31
0.0
  0
LINE
  5
1849
330
18
100
AcDbEntity
  8
1
  6
Continuous
100
AcDbLine
 10
187.8390305262085
 20
365.0572801537326
 30
0.0
 11
184.3687455386664
 21
365.0572801537326
 31
0.0
  0
ARC
  5
184E
330
18
100
AcDbEntity
  8
1
  6
Continuous
100
AcDbCircle
 10
187.8390305262085
 20
378.2572801537326
 30
0.0
 40
13.2
100
AcDbArc
 50
270.0
 51
329.2786643011593
  0
ARC
  5
1856
330
18
100
AcDbEntity
  8
1
  6
Continuous
100
AcDbCircle
 10
228.2498952377906
 20
377.8072831537325
 30
0.0
 40
6.5
100
AcDbArc
 50
30.72133569884082
 51
90.0
  0
ARC
  5
1857
330
18
100
AcDbEntity
  8
1
  6
Continuous
100
AcDbCircle
 10
210.4875958395422
 20
377.8072831537325
 30
0.0
 40
6.5
100
AcDbArc
 50
90.0
 51
149.2786643011591
  0
ARC
  5
186C
330
18
100
AcDbEntity
  8
1
  6
Continuous
100
AcDbCircle
 10
250.8984605511243
 20
378.2572801537326
 30
0.0
 40
13.2
100
AcDbArc
 50
210.7213356988406
 51
270.0
  0
LINE
  5
186E
330
18
100
AcDbEntity
  8
1
  6
Continuous
100
AcDbLine
 10
233.8376988678754
 20
381.1278931265555
 30
0.0
 11
239.5509208715675
 21
371.5138875935385
 31
0.0
  0
LINE
  5
1871
330
18
100
AcDbEntity
  8
1
  6
Continuous
100
AcDbLine
 10
250.8984605511243
 20
365.0572801537326
 30
0.0
 11
254.3687455386664
 21
365.0572801537326
 31
0.0
  0
LINE
  5
1875
330
18
100
AcDbEntity
  8
1
  6
Continuous
100
AcDbLine
 10
228.2498952377906
 20
384.3072831537326
 30
0.0
 11
210.4875958395422
 21
384.3072831537326
 31
0.0
  0
LINE
  5
187C
330
18
100
AcDbEntity
  8
1
  6
Continuous
100
AcDbLine
 10
204.8997922094574
 20
438.4866671809091
 30
0.0
 11
199.1865702057653
 21
448.1006727139261
 31
0.0
  0
ARC
  5
187D
330
18
100
AcDbEntity
  8
1
  6
Continuous
100
AcDbCircle
 10
187.8390305262085
 20
441.3572801537321
 30
0.0
 40
13.2
100
AcDbArc
 50
30.72133569884064
 51
90.0
  0
LINE
  5
187E
330
18
100
AcDbEntity
  8
1
  6
Continuous
100
AcDbLine
 10
187.8390305262085
 20
454.5572801537321
 30
0.0
 11
184.3687455386664
 21
454.5572801537321
 31
0.0
  0
ARC
  5
1885
330
18
100
AcDbEntity
  8
1
  6
Continuous
100
AcDbCircle
 10
228.2498952377906
 20
441.8072771537321
 30
0.0
 40
6.5
100
AcDbArc
 50
270.0
 51
329.2786643011591
  0
LINE
  5
1889
330
18
100
AcDbEntity
  8
1
  6
Continuous
100
AcDbLine
 10
228.2498952377906
 20
435.3072771537322
 30
0.0
 11
210.4875958395422
 21
435.3072771537322
 31
0.0
  0
ARC
  5
188A
330
18
100
AcDbEntity
  8
1
  6
Continuous
100
AcDbCircle
 10
210.4875958395422
 20
441.8072771537321
 30
0.0
 40
6.5
100
AcDbArc
 50
210.7213356988408
 51
270.0
  0
ARC
  5
188F
330
18
100
AcDbEntity
  8
1
  6
Continuous
100
AcDbCircle
 10
250.8984605511243
 20
441.3572801537321
 30
0.0
 40
13.2
100
AcDbArc
 50
90.0
 51
149.2786643011593
  0
LINE
  5
1892
330
18
100
AcDbEntity
  8
1
  6
Continuous
100
AcDbLine
 10
233.8376988678754
 20
438.4866671809091
 30
0.0
 11
239.5509208715675
 21
448.1006727139261
 31
0.0
  0
LINE
  5
1895
330
18
100
AcDbEntity
  8
1
  6
Continuous
100
AcDbLine
 10
250.8984605511243
 20
454.5572801537321
 30
0.0
 11
254.3687455386664
 21
454.5572801537321
 31
0.0
  0
ARC
  5
1898
330
18
100
AcDbEntity
  8
1
  6
Continuous
100
AcDbCircle
 10
187.8390305262085
 20
112.0292763492195
 30
0.0
 40
10.2
100
AcDbArc
 50
30.72133569884064
 51
90.0
  0
LINE
  5
1899
330
18
100
AcDbEntity
  8
1
  6
Continuous
100
AcDbLine
 10
204.8997922094574
 20
109.1586633763967
 30
0.0
 11
199.1865702057653
 21
118.7726689094137
 31
0.0
  0
ARC
  5
189A
330
18
100
AcDbEntity
  8
1
  6
Continuous
100
AcDbCircle
 10
250.8984605511243
 20
112.0292763492195
 30
0.0
 40
10.2
100
AcDbArc
 50
90.0
 51
149.2786643011593
  0
LINE
  5
189B
330
18
100
AcDbEntity
  8
1
  6
Continuous
100
AcDbLine
 10
233.8376988678754
 20
109.1586633763967
 30
0.0
 11
239.5509208715675
 21
118.7726689094137
 31
0.0
  0
LINE
  5
18A8
330
18
100
AcDbEntity
  8
1
  6
Continuous
100
AcDbLine
 10
204.8997922094574
 20
51.79988932204297
 30
0.0
 11
199.1865702057653
 21
42.18588378902595
 31
0.0
  0
LINE
  5
18A9
330
18
100
AcDbEntity
  8
1
  6
Continuous
100
AcDbLine
 10
202.320805918649
 20
53.33247854026893
 30
0.0
 11
196.6075842478582
 21
43.71847356744604
 31
0.0
  0
LINE
  5
18AA
330
18
100
AcDbEntity
  8
1
  6
Continuous
100
AcDbLine
 10
202.320805918649
 20
107.6260741581707
 30
0.0
 11
196.6075842478582
 21
117.2400791309936
 31
0.0
  0
ARC
  5
18B3
330
18
100
AcDbEntity
  8
1
  6
Continuous
100
AcDbCircle
 10
187.8390305262085
 20
48.9292763492201
 30
0.0
 40
10.2
100
AcDbArc
 50
270.0
 51
329.2786643011593
  0
LINE
  5
18B6
330
18
100
AcDbEntity
  8
1
  6
Continuous
100
AcDbLine
 10
187.8390325386665
 20
38.72927634922007
 30
0.0
 11
183.9416650883926
 21
38.72927634922008
 31
0.0
  0
LINE
  5
18B7
330
18
100
AcDbEntity
  8
1
  6
Continuous
100
AcDbLine
 10
187.8390305262085
 20
35.72927634922008
 30
0.0
 11
184.3687455386664
 21
35.72927634922007
 31
0.0
  0
ARC
  5
18BA
330
18
100
AcDbEntity
  8
1
  6
Continuous
100
AcDbCircle
 10
187.8390305262085
 20
48.9292763492201
 30
0.0
 40
13.2
100
AcDbArc
 50
270.0
 51
329.2786643011593
  0
ARC
  5
18C7
330
18
100
AcDbEntity
  8
1
  6
Continuous
100
AcDbCircle
 10
228.2498952377906
 20
48.47927934922009
 30
0.0
 40
6.5
100
AcDbArc
 50
30.72133569884082
 51
90.0
  0
ARC
  5
18C8
330
18
100
AcDbEntity
  8
1
  6
Continuous
100
AcDbCircle
 10
228.2498952377906
 20
48.47927934922009
 30
0.0
 40
9.5
100
AcDbArc
 50
30.72133569884082
 51
90.0
  0
LINE
  5
18CC
330
18
100
AcDbEntity
  8
1
  6
Continuous
100
AcDbLine
 10
228.2498952377906
 20
57.97927934922006
 30
0.0
 11
210.4875958395422
 21
57.97927934922006
 31
0.0
  0
LINE
  5
18CD
330
18
100
AcDbEntity
  8
1
  6
Continuous
100
AcDbLine
 10
228.2498952377906
 20
54.97927934922009
 30
0.0
 11
210.4875958395422
 21
54.97927934922007
 31
0.0
  0
ARC
  5
18CE
330
18
100
AcDbEntity
  8
1
  6
Continuous
100
AcDbCircle
 10
210.4875958395422
 20
48.47927934922009
 30
0.0
 40
9.5
100
AcDbArc
 50
90.0
 51
149.2786643011591
  0
ARC
  5
18CF
330
18
100
AcDbEntity
  8
1
  6
Continuous
100
AcDbCircle
 10
210.4875958395422
 20
48.47927934922009
 30
0.0
 40
6.5
100
AcDbArc
 50
90.0
 51
149.2786643011591
  0
ARC
  5
18D8
330
18
100
AcDbEntity
  8
1
  6
Continuous
100
AcDbCircle
 10
250.8984605511243
 20
48.9292763492201
 30
0.0
 40
10.2
100
AcDbArc
 50
210.7213356988406
 51
270.0
  0
LINE
  5
18D9
330
18
100
AcDbEntity
  8
1
  6
Continuous
100
AcDbLine
 10
233.8376988678754
 20
51.79988932204297
 30
0.0
 11
239.5509208715675
 21
42.18588378902595
 31
0.0
  0
ARC
  5
18DC
330
18
100
AcDbEntity
  8
1
  6
Continuous
100
AcDbCircle
 10
250.8984605511243
 20
48.9292763492201
 30
0.0
 40
13.2
100
AcDbArc
 50
210.7213356988406
 51
270.0
  0
LINE
  5
18DE
330
18
100
AcDbEntity
  8
1
  6
Continuous
100
AcDbLine
 10
250.8984605511243
 20
35.72927634922008
 30
0.0
 11
254.3687455386664
 21
35.72927634922007
 31
0.0
  0
LINE
  5
18DF
330
18
100
AcDbEntity
  8
1
  6
Continuous
100
AcDbLine
 10
250.8984585386663
 20
38.72927634922007
 30
0.0
 11
254.7958259889402
 21
38.72927634922008
 31
0.0
  0
LINE
  5
18E4
330
18
100
AcDbEntity
  8
1
  6
Continuous
100
AcDbLine
 10
236.4166851586837
 20
53.33247854026893
 30
0.0
 11
242.1299068294746
 21
43.71847356744604
 31
0.0
  0
ARC
  5
18E7
330
18
100
AcDbEntity
  8
1
  6
Continuous
100
AcDbCircle
 10
228.2498952377906
 20
112.4792733492195
 30
0.0
 40
9.5
100
AcDbArc
 50
270.0
 51
329.2786643011591
  0
ARC
  5
18E8
330
18
100
AcDbEntity
  8
1
  6
Continuous
100
AcDbCircle
 10
228.2498952377906
 20
112.4792733492195
 30
0.0
 40
6.5
100
AcDbArc
 50
270.0
 51
329.2786643011591
  0
LINE
  5
18E9
330
18
100
AcDbEntity
  8
1
  6
Continuous
100
AcDbLine
 10
228.2498952377906
 20
102.9792733492196
 30
0.0
 11
210.4875958395422
 21
102.9792733492196
 31
0.0
  0
LINE
  5
18EA
330
18
100
AcDbEntity
  8
1
  6
Continuous
100
AcDbLine
 10
228.2498952377906
 20
105.9792733492195
 30
0.0
 11
210.4875958395422
 21
105.9792733492196
 31
0.0
  0
ARC
  5
18F0
330
18
100
AcDbEntity
  8
1
  6
Continuous
100
AcDbCircle
 10
210.4875958395422
 20
112.4792733492195
 30
0.0
 40
9.5
100
AcDbArc
 50
210.7213356988408
 51
270.0
  0
ARC
  5
18F3
330
18
100
AcDbEntity
  8
1
  6
Continuous
100
AcDbCircle
 10
210.4875958395422
 20
112.4792733492195
 30
0.0
 40
6.5
100
AcDbArc
 50
210.7213356988408
 51
270.0
  0
LINE
  5
1909
330
18
100
AcDbEntity
  8
1
  6
Continuous
100
AcDbLine
 10
236.4166851586837
 20
107.6260741581707
 30
0.0
 11
242.1299068294746
 21
117.2400791309936
 31
0.0
  0
LINE
  5
190A
330
18
100
AcDbEntity
  8
1
  6
Continuous
100
AcDbLine
 10
187.8390305262085
 20
125.2292763492196
 30
0.0
 11
184.3687455386664
 21
125.2292763492196
 31
0.0
  0
LINE
  5
190B
330
18
100
AcDbEntity
  8
1
  6
Continuous
100
AcDbLine
 10
187.8390325386665
 20
122.2292763492196
 30
0.0
 11
183.9416650883926
 21
122.2292763492196
 31
0.0
  0
ARC
  5
190E
330
18
100
AcDbEntity
  8
1
  6
Continuous
100
AcDbCircle
 10
187.8390305262085
 20
112.0292763492195
 30
0.0
 40
13.2
100
AcDbArc
 50
30.72133569884064
 51
90.0
  0
ARC
  5
190F
330
18
100
AcDbEntity
  8
1
  6
Continuous
100
AcDbCircle
 10
250.8984605511243
 20
112.0292763492195
 30
0.0
 40
13.2
100
AcDbArc
 50
90.0
 51
149.2786643011593
  0
LINE
  5
1911
330
18
100
AcDbEntity
  8
1
  6
Continuous
100
AcDbLine
 10
250.8984585386663
 20
122.2292763492196
 30
0.0
 11
254.7958259889402
 21
122.2292763492196
 31
0.0
  0
LINE
  5
1912
330
18
100
AcDbEntity
  8
1
  6
Continuous
100
AcDbLine
 10
250.8984605511243
 20
125.2292763492196
 30
0.0
 11
254.3687455386664
 21
125.2292763492196
 31
0.0
  0
ENDSEC
  0
SECTION
  2
OBJECTS
  0
DICTIONARY
  5
C
330
0
100
AcDbDictionary
281
     1
  3
ACAD_CIP_PREVIOUS_PRODUCT_INFO
350
1B8C
  3
ACAD_COLOR
350
1B6F
  3
ACAD_DETAILVIEWSTYLE
350
1B88
  3
ACAD_GROUP
350
D
  3
ACAD_LAYOUT
350
94
  3
ACAD_MATERIAL
350
1B3D
  3
ACAD_MLEADERSTYLE
350
1B84
  3
ACAD_MLINESTYLE
350
1B
  3
ACAD_PLOTSETTINGS
350
95
  3
ACAD_PLOTSTYLENAME
350
1B3B
  3
ACAD_SCALELIST
350
1B72
  3
ACAD_SECTIONVIEWSTYLE
350
1B86
  3
ACAD_TABLESTYLE
350
1B70
  3
ACAD_VISUALSTYLE
350
1B56
  3
ACDB_RECOMPOSE_DATA
350
1BAA
  3
AcDbVariableDictionary
350
1B9D
  3
CONTENTDICTIONARY
350
3D
  3
DWGPROPS
350
1BAB
  0
DICTIONARY
  5
1B8D
330
E
100
AcDbDictionary
280
     1
281
     1
  3
ADSK_XREC_LAYER_RECONCILED
360
1B8E
  0
DICTIONARY
  5
1B8F
330
4E
100
AcDbDictionary
280
     1
281
     1
  3
ADSK_XREC_LAYER_RECONCILED
360
1B90
  0
DICTIONARY
  5
1B91
330
4F
100
AcDbDictionary
280
     1
281
     1
  3
ADSK_XREC_LAYER_RECONCILED
360
1B92
  0
DICTIONARY
  5
1B93
330
50
100
AcDbDictionary
280
     1
281
     1
  3
ADSK_XREC_LAYER_RECONCILED
360
1B94
  0
DICTIONARY
  5
1B95
330
51
100
AcDbDictionary
280
     1
281
     1
  3
ADSK_XREC_LAYER_RECONCILED
360
1B96
  0
DICTIONARY
  5
1B97
330
52
100
AcDbDictionary
280
     1
281
     1
  3
ADSK_XREC_LAYER_RECONCILED
360
1B98
  0
DICTIONARY
  5
1B99
330
53
100
AcDbDictionary
280
     1
281
     1
  3
ADSK_XREC_LAYER_RECONCILED
360
1B9A
  0
DICTIONARY
  5
1B9B
330
54
100
AcDbDictionary
280
     1
281
     1
  3
ADSK_XREC_LAYER_RECONCILED
360
1B9C
  0
DICTIONARY
  5
1B36
330
18
100
AcDbDictionary
281
     1
  3
ACAD_LAYOUTSELFREF
350
1B37
  0
DICTIONARY
  5
1B34
330
15
100
AcDbDictionary
281
     1
  3
ACAD_LAYOUTSELFREF
350
1B35
  0
XRECORD
  5
1B8C
102
{ACAD_REACTORS
330
C
102
}
330
C
100
AcDbXrecord
280
     1
300
ACDLT
300
2014
300
ACDLT_F_S
  0
DICTIONARY
  5
1B6F
102
{ACAD_REACTORS
330
C
102
}
330
C
100
AcDbDictionary
281
     1
  0
DICTIONARY
  5
1B88
102
{ACAD_REACTORS
330
C
102
}
330
C
100
AcDbDictionary
281
     1
  3
Imperial24
350
1B89
  0
DICTIONARY
  5
D
102
{ACAD_REACTORS
330
C
102
}
330
C
100
AcDbDictionary
281
     1
  0
DICTIONARY
  5
94
102
{ACAD_REACTORS
330
C
102
}
330
C
100
AcDbDictionary
281
     1
  3
Model
350
1B8A
  3
レイアウト1
350
1B8B
  0
DICTIONARY
  5
1B3D
102
{ACAD_REACTORS
330
C
102
}
330
C
100
AcDbDictionary
281
     1
  3
ByBlock
350
1B46
  3
ByLayer
350
1B3E
  3
Global
350
1B4E
  0
DICTIONARY
  5
1B84
102
{ACAD_REACTORS
330
C
102
}
330
C
100
AcDbDictionary
281
     1
  3
Standard
350
1B85
  0
DICTIONARY
  5
1B
102
{ACAD_REACTORS
330
C
102
}
330
C
100
AcDbDictionary
281
     1
  3
STANDARD
350
1C
  0
DICTIONARY
  5
95
102
{ACAD_REACTORS
330
C
102
}
330
C
100
AcDbDictionary
281
     1
  0
ACDBDICTIONARYWDFLT
  5
1B3B
102
{ACAD_REACTORS
330
C
102
}
330
C
100
AcDbDictionary
281
     1
  3
Normal
350
1B3C
100
AcDbDictionaryWithDefault
340
1B3C
  0
DICTIONARY
  5
1B72
102
{ACAD_REACTORS
330
C
102
}
330
C
100
AcDbDictionary
281
     1
  3
A0
350
1B73
  3
A1
350
1B74
  3
A2
350
1B75
  3
A3
350
1B76
  3
A4
350
1B77
  3
A5
350
1B78
  3
A6
350
1B79
  3
A7
350
1B7A
  3
A8
350
1B7B
  3
A9
350
1B7C
  3
B0
350
1B7D
  3
B1
350
1B7E
  3
B2
350
1B7F
  3
B3
350
1B80
  3
B4
350
1B81
  3
B5
350
1B82
  3
B6
350
1B83
  0
DICTIONARY
  5
1B86
102
{ACAD_REACTORS
330
C
102
}
330
C
100
AcDbDictionary
281
     1
  3
Imperial24
350
1B87
  0
DICTIONARY
  5
1B70
102
{ACAD_REACTORS
330
C
102
}
330
C
100
AcDbDictionary
281
     1
  3
Standard
350
1B71
  0
DICTIONARY
  5
1B56
102
{ACAD_REACTORS
330
C
102
}
330
C
100
AcDbDictionary
281
     1
  3
2dWireframe
350
1B5C
  3
Basic
350
1B5B
  3
Brighten
350
1B62
  3
ColorChange
350
1B66
  3
Conceptual
350
1B5F
  3
Dim
350
1B61
  3
EdgeColorOff
350
1B6E
  3
Facepattern
350
1B65
  3
Flat
350
1B57
  3
FlatWithEdges
350
1B58
  3
Gouraud
350
1B59
  3
GouraudWithEdges
350
1B5A
  3
Hidden
350
1B5E
  3
JitterOff
350
1B6C
  3
Linepattern
350
1B64
  3
OverhangOff
350
1B6D
  3
Realistic
350
1B60
  3
Shaded
350
1B6B
  3
Shaded with edges
350
1B6A
  3
Shades of Gray
350
1B67
  3
Sketchy
350
1B68
  3
Thicken
350
1B63
  3
Wireframe
350
1B5D
  3
X-Ray
350
1B69
  0
XRECORD
  5
1BAA
102
{ACAD_REACTORS
330
C
102
}
330
C
100
AcDbXrecord
280
     1
 90
        1
330
1B71
  0
DICTIONARY
  5
1B9D
102
{ACAD_REACTORS
330
C
102
}
330
C
100
AcDbDictionary
281
     1
  3
CANNOSCALE
350
1BA2
  3
CMLEADERSTYLE
350
1B9F
  3
CTABLESTYLE
350
1B9E
  3
CVIEWDETAILSTYLE
350
1BA0
  3
CVIEWSECTIONSTYLE
350
1BA1
  3
DIMASSOC
350
1BA5
  3
INDEXCTL
350
1BA4
  3
SORTENTS
350
1BA3
  3
XCLIPFRAME
350
1BA6
  0
DICTIONARY
  5
3D
102
{ACAD_REACTORS
330
C
102
}
330
C
100
AcDbDictionary
281
     1
  0
XRECORD
  5
1BAB
102
{ACAD_REACTORS
330
C
102
}
330
C
100
AcDbXrecord
280
     1
  1
DWGPROPS COOKIE
  2

  3

  4

  6

  7

  8
Yoshitsune
  9

300
=
301
=
302
=
303
=
304
=
305
=
306
=
307
=
308
=
309
=
 40
0.0318907523148148
 41
2454154.597648472
 42
2457192.690794109
  1

 90
        0
  0
XRECORD
  5
1B8E
102
{ACAD_REACTORS
330
1B8D
102
}
330
1B8D
100
AcDbXrecord
280
     1
290
     1
  0
XRECORD
  5
1B90
102
{ACAD_REACTORS
330
1B8F
102
}
330
1B8F
100
AcDbXrecord
280
     1
290
     1
  0
XRECORD
  5
1B92
102
{ACAD_REACTORS
330
1B91
102
}
330
1B91
100
AcDbXrecord
280
     1
290
     1
  0
XRECORD
  5
1B94
102
{ACAD_REACTORS
330
1B93
102
}
330
1B93
100
AcDbXrecord
280
     1
290
     1
  0
XRECORD
  5
1B96
102
{ACAD_REACTORS
330
1B95
102
}
330
1B95
100
AcDbXrecord
280
     1
290
     1
  0
XRECORD
  5
1B98
102
{ACAD_REACTORS
330
1B97
102
}
330
1B97
100
AcDbXrecord
280
     1
290
     1
  0
XRECORD
  5
1B9A
102
{ACAD_REACTORS
330
1B99
102
}
330
1B99
100
AcDbXrecord
280
     1
290
     1
  0
XRECORD
  5
1B9C
102
{ACAD_REACTORS
330
1B9B
102
}
330
1B9B
100
AcDbXrecord
280
     1
290
     1
  0
XRECORD
  5
1B37
102
{ACAD_REACTORS
330
1B36
102
}
330
1B36
100
AcDbXrecord
280
     1
340
18
  0
XRECORD
  5
1B35
102
{ACAD_REACTORS
330
1B34
102
}
330
1B34
100
AcDbXrecord
280
     1
340
15
  0
ACDBDETAILVIEWSTYLE
  5
1B89
102
{ACAD_XDICTIONARY
360
1BE3
102
}
102
{ACAD_REACTORS
330
1B88
102
}
330
1B88
100
AcDbModelDocViewStyle
 70
     0
  3
Imperial24
290
     0
100
AcDbDetailViewStyle
 70
     0
 71
     0
 90
        3
 71
     1
340
F
 40
0.24
340
0
 40
0.24
300

 40
0.36
280
     3
 71
     2
340
14
 90
       25
 71
     3
340
F
 40
0.24
 90
        1
 40
0.75
 90
        1
300
%<\AcVar ViewType \f "%tc1">% %<\AcVar ViewDetailId>%\PSCALE %<\AcVar ViewScale \f "%sn">%
 71
     4
340
14
 90
       25
340
14
 90
       25
280
     0
  0
LAYOUT
  5
1B8A
102
{ACAD_XDICTIONARY
360
1BE5
102
}
102
{ACAD_REACTORS
330
94
102
}
330
94
100
AcDbPlotSettings
  1

  2
Canon LBP9100C
  4

  6

 40
0.0
 41
0.0
 42
0.0
 43
0.0
 44
0.0
 45
0.0
 46
0.0
 47
0.0
 48
0.0
 49
0.0
140
0.0
141
0.0
142
1.0
143
1.0
 70
  1712
 72
     0
 73
     0
 74
     0
  7

 75
     0
147
1.0
148
0.0
149
0.0
100
AcDbLayout
  1
Model
 70
     1
 71
     0
 10
0.0
 20
0.0
 11
12.0
 21
9.0
 12
0.0
 22
0.0
 32
0.0
 14
0.0
 24
0.0
 34
0.0
 15
0.0
 25
0.0
 35
0.0
146
0.0
 13
0.0
 23
0.0
 33
0.0
 16
1.0
 26
0.0
 36
0.0
 17
0.0
 27
1.0
 37
0.0
 76
     0
330
18
331
1B33
  0
LAYOUT
  5
1B8B
102
{ACAD_XDICTIONARY
360
1BE7
102
}
102
{ACAD_REACTORS
330
94
102
}
330
94
100
AcDbPlotSettings
  1

  2
Canon LBP9100C
  4

  6

 40
0.0
 41
0.0
 42
0.0
 43
0.0
 44
0.0
 45
0.0
 46
0.0
 47
0.0
 48
0.0
 49
0.0
140
0.0
141
0.0
142
1.0
143
1.0
 70
   688
 72
     0
 73
     0
 74
     5
  7

 75
    16
147
1.0
148
0.0
149
0.0
100
AcDbLayout
  1
レイアウト1
 70
     1
 71
     1
 10
0.0
 20
0.0
 11
420.0
 21
297.0
 12
0.0
 22
0.0
 32
0.0
 14
1.000000000000000E+20
 24
1.000000000000000E+20
 34
1.000000000000000E+20
 15
-1.000000000000000E+20
 25
-1.000000000000000E+20
 35
-1.000000000000000E+20
146
0.0
 13
0.0
 23
0.0
 33
0.0
 16
1.0
 26
0.0
 36
0.0
 17
0.0
 27
1.0
 37
0.0
 76
     0
330
15
  0
MATERIAL
  5
1B46
102
{ACAD_XDICTIONARY
360
1B47
102
}
102
{ACAD_REACTORS
330
1B3D
102
}
330
1B3D
100
AcDbMaterial
  1
ByBlock
 72
     0
 43
0.0208333333333333
 43
0.0
 43
0.0
 43
0.0
 43
0.0
 43
0.0208333333333333
 43
0.0
 43
0.0
 43
0.0
 43
0.0
 43
1.0
 43
0.0
 43
0.0
 43
0.0
 43
0.0
 43
1.0
 77
     0
 47
0.0208333333333333
 47
0.0
 47
0.0
 47
0.0
 47
0.0
 47
0.0208333333333333
 47
0.0
 47
0.0
 47
0.0
 47
0.0
 47
1.0
 47
0.0
 47
0.0
 47
0.0
 47
0.0
 47
1.0
171
     0
 49
0.0208333333333333
 49
0.0
 49
0.0
 49
0.0
 49
0.0
 49
0.0208333333333333
 49
0.0
 49
0.0
 49
0.0
 49
0.0
 49
1.0
 49
0.0
 49
0.0
 49
0.0
 49
0.0
 49
1.0
175
     0
142
0.0208333333333333
142
0.0
142
0.0
142
0.0
142
0.0
142
0.0208333333333333
142
0.0
142
0.0
142
0.0
142
0.0
142
1.0
142
0.0
142
0.0
142
0.0
142
0.0
142
1.0
179
     0
144
0.0208333333333333
144
0.0
144
0.0
144
0.0
144
0.0
144
0.0208333333333333
144
0.0
144
0.0
144
0.0
144
0.0
144
1.0
144
0.0
144
0.0
144
0.0
144
0.0
144
1.0
147
0.0208333333333333
147
0.0
147
0.0
147
0.0
147
0.0
147
0.0208333333333333
147
0.0
147
0.0
147
0.0
147
0.0
147
1.0
147
0.0
147
0.0
147
0.0
147
0.0
147
1.0
  0
MATERIAL
  5
1B3E
102
{ACAD_XDICTIONARY
360
1B3F
102
}
102
{ACAD_REACTORS
330
1B3D
102
}
330
1B3D
100
AcDbMaterial
  1
ByLayer
 72
     0
 43
0.0208333333333333
 43
0.0
 43
0.0
 43
0.0
 43
0.0
 43
0.0208333333333333
 43
0.0
 43
0.0
 43
0.0
 43
0.0
 43
1.0
 43
0.0
 43
0.0
 43
0.0
 43
0.0
 43
1.0
 77
     0
 47
0.0208333333333333
 47
0.0
 47
0.0
 47
0.0
 47
0.0
 47
0.0208333333333333
 47
0.0
 47
0.0
 47
0.0
 47
0.0
 47
1.0
 47
0.0
 47
0.0
 47
0.0
 47
0.0
 47
1.0
171
     0
 49
0.0208333333333333
 49
0.0
 49
0.0
 49
0.0
 49
0.0
 49
0.0208333333333333
 49
0.0
 49
0.0
 49
0.0
 49
0.0
 49
1.0
 49
0.0
 49
0.0
 49
0.0
 49
0.0
 49
1.0
175
     0
142
0.0208333333333333
142
0.0
142
0.0
142
0.0
142
0.0
142
0.0208333333333333
142
0.0
142
0.0
142
0.0
142
0.0
142
1.0
142
0.0
142
0.0
142
0.0
142
0.0
142
1.0
179
     0
144
0.0208333333333333
144
0.0
144
0.0
144
0.0
144
0.0
144
0.0208333333333333
144
0.0
144
0.0
144
0.0
144
0.0
144
1.0
144
0.0
144
0.0
144
0.0
144
0.0
144
1.0
147
0.0208333333333333
147
0.0
147
0.0
147
0.0
147
0.0
147
0.0208333333333333
147
0.0
147
0.0
147
0.0
147
0.0
147
1.0
147
0.0
147
0.0
147
0.0
147
0.0
147
1.0
  0
MATERIAL
  5
1B4E
102
{ACAD_XDICTIONARY
360
1B4F
102
}
102
{ACAD_REACTORS
330
1B3D
102
}
330
1B3D
100
AcDbMaterial
  1
Global
 72
     0
 43
0.0208333333333333
 43
0.0
 43
0.0
 43
0.0
 43
0.0
 43
0.0208333333333333
 43
0.0
 43
0.0
 43
0.0
 43
0.0
 43
1.0
 43
0.0
 43
0.0
 43
0.0
 43
0.0
 43
1.0
 77
     0
 47
0.0208333333333333
 47
0.0
 47
0.0
 47
0.0
 47
0.0
 47
0.0208333333333333
 47
0.0
 47
0.0
 47
0.0
 47
0.0
 47
1.0
 47
0.0
 47
0.0
 47
0.0
 47
0.0
 47
1.0
171
     0
 49
0.0208333333333333
 49
0.0
 49
0.0
 49
0.0
 49
0.0
 49
0.0208333333333333
 49
0.0
 49
0.0
 49
0.0
 49
0.0
 49
1.0
 49
0.0
 49
0.0
 49
0.0
 49
0.0
 49
1.0
175
     0
142
0.0208333333333333
142
0.0
142
0.0
142
0.0
142
0.0
142
0.0208333333333333
142
0.0
142
0.0
142
0.0
142
0.0
142
1.0
142
0.0
142
0.0
142
0.0
142
0.0
142
1.0
179
     0
144
0.0208333333333333
144
0.0
144
0.0
144
0.0
144
0.0
144
0.0208333333333333
144
0.0
144
0.0
144
0.0
144
0.0
144
1.0
144
0.0
144
0.0
144
0.0
144
0.0
144
1.0
147
0.0208333333333333
147
0.0
147
0.0
147
0.0
147
0.0
147
0.0208333333333333
147
0.0
147
0.0
147
0.0
147
0.0
147
1.0
147
0.0
147
0.0
147
0.0
147
0.0
147
1.0
  0
MLEADERSTYLE
  5
1B85
102
{ACAD_REACTORS
330
1B84
102
}
330
1B84
100
AcDbMLeaderStyle
170
     2
171
     1
172
     0
 90
        2
 40
0.0
 41
0.0
173
     1
 91
-1056964608
340
12
 92
       -2
290
     1
 42
0.09
291
     1
 43
0.36
  3
Standard
 44
0.18
300

342
F
174
     1
178
     6
175
     1
176
     0
 93
-1056964608
 45
0.18
292
     0
297
     0
 46
0.18
 94
-1056964608
 47
1.0
 49
1.0
140
1.0
293
     1
141
0.0
294
     1
177
     0
142
1.0
295
     0
296
     0
143
0.125
1001
ACAD_MLEADERVER
1070
     2
  0
MLINESTYLE
  5
1C
102
{ACAD_REACTORS
330
1B
102
}
330
1B
100
AcDbMlineStyle
  2
STANDARD
 70
     0
  3

 62
   256
 51
90.0
 52
90.0
 71
     2
 49
0.5
 62
   256
  6
BYLAYER
 49
-0.5
 62
   256
  6
BYLAYER
  0
ACDBPLACEHOLDER
  5
1B3C
102
{ACAD_REACTORS
330
1B3B
102
}
330
1B3B
  0
SCALE
  5
1B73
102
{ACAD_REACTORS
330
1B72
102
}
330
1B72
100
AcDbScale
 70
     0
300
1:1
140
1.0
141
1.0
290
     1
  0
SCALE
  5
1B74
102
{ACAD_REACTORS
330
1B72
102
}
330
1B72
100
AcDbScale
 70
     0
300
1/128" = 1'-0"
140
0.0078125
141
12.0
290
     0
  0
SCALE
  5
1B75
102
{ACAD_REACTORS
330
1B72
102
}
330
1B72
100
AcDbScale
 70
     0
300
1/64" = 1'-0"
140
0.015625
141
12.0
290
     0
  0
SCALE
  5
1B76
102
{ACAD_REACTORS
330
1B72
102
}
330
1B72
100
AcDbScale
 70
     0
300
1/32" = 1'-0"
140
0.03125
141
12.0
290
     0
  0
SCALE
  5
1B77
102
{ACAD_REACTORS
330
1B72
102
}
330
1B72
100
AcDbScale
 70
     0
300
1/16" = 1'-0"
140
0.0625
141
12.0
290
     0
  0
SCALE
  5
1B78
102
{ACAD_REACTORS
330
1B72
102
}
330
1B72
100
AcDbScale
 70
     0
300
3/32" = 1'-0"
140
0.09375
141
12.0
290
     0
  0
SCALE
  5
1B79
102
{ACAD_REACTORS
330
1B72
102
}
330
1B72
100
AcDbScale
 70
     0
300
1/8" = 1'-0"
140
0.125
141
12.0
290
     0
  0
SCALE
  5
1B7A
102
{ACAD_REACTORS
330
1B72
102
}
330
1B72
100
AcDbScale
 70
     0
300
3/16" = 1'-0"
140
0.1875
141
12.0
290
     0
  0
SCALE
  5
1B7B
102
{ACAD_REACTORS
330
1B72
102
}
330
1B72
100
AcDbScale
 70
     0
300
1/4" = 1'-0"
140
0.25
141
12.0
290
     0
  0
SCALE
  5
1B7C
102
{ACAD_REACTORS
330
1B72
102
}
330
1B72
100
AcDbScale
 70
     0
300
3/8" = 1'-0"
140
0.375
141
12.0
290
     0
  0
SCALE
  5
1B7D
102
{ACAD_REACTORS
330
1B72
102
}
330
1B72
100
AcDbScale
 70
     0
300
1/2" = 1'-0"
140
0.5
141
12.0
290
     0
  0
SCALE
  5
1B7E
102
{ACAD_REACTORS
330
1B72
102
}
330
1B72
100
AcDbScale
 70
     0
300
3/4" = 1'-0"
140
0.75
141
12.0
290
     0
  0
SCALE
  5
1B7F
102
{ACAD_REACTORS
330
1B72
102
}
330
1B72
100
AcDbScale
 70
     0
300
1" = 1'-0"
140
1.0
141
12.0
290
     0
  0
SCALE
  5
1B80
102
{ACAD_REACTORS
330
1B72
102
}
330
1B72
100
AcDbScale
 70
     0
300
1-1/2" = 1'-0"
140
1.5
141
12.0
290
     0
  0
SCALE
  5
1B81
102
{ACAD_REACTORS
330
1B72
102
}
330
1B72
100
AcDbScale
 70
     0
300
3" = 1'-0"
140
3.0
141
12.0
290
     0
  0
SCALE
  5
1B82
102
{ACAD_REACTORS
330
1B72
102
}
330
1B72
100
AcDbScale
 70
     0
300
6" = 1'-0"
140
6.0
141
12.0
290
     0
  0
SCALE
  5
1B83
102
{ACAD_REACTORS
330
1B72
102
}
330
1B72
100
AcDbScale
 70
     0
300
1'-0" = 1'-0"
140
12.0
141
12.0
290
     0
  0
ACDBSECTIONVIEWSTYLE
  5
1B87
102
{ACAD_XDICTIONARY
360
1BE1
102
}
102
{ACAD_REACTORS
330
1B86
102
}
330
1B86
100
AcDbModelDocViewStyle
 70
     0
  3
Imperial24
290
     0
100
AcDbSectionViewStyle
 70
     0
 71
     0
 90
       78
 71
     1
340
F
 40
0.24
340
0
340
0
 40
0.24
300
I, O, Q, S, X, Z
 40
0.48
 90
        3
 40
0.18
 90
        1
 71
     2
340
14
 90
       25
340
14
 90
       50
 40
0.24
 40
0.0
 40
0.24
 71
     3
340
F
 40
0.24
 90
        1
 40
0.75
 90
        1
300
%<\AcVar ViewType \f "%tc1">% %<\AcVar ViewSectionStartId>%-%<\AcVar ViewSectionEndId>%\PSCALE %<\AcVar ViewScale \f "%sn">%
 71
     4
300
ANSI31
 40
1.0
 90
        0
290
     0
290
     0
 90
        6
 40
0.0
 40
1.570796326794896
 40
0.2617993877991494
 40
1.308996938995747
 40
-0.2617993877991494
 40
1.832595714594046
  0
TABLESTYLE
  5
1B71
102
{ACAD_XDICTIONARY
360
1BA8
102
}
102
{ACAD_REACTORS
330
1B70
102
}
330
1B70
100
AcDbTableStyle
  3
Standard
 70
     0
 71
     0
 40
0.06
 41
0.06
280
     0
281
     0
  7
STANDARD
140
0.18
170
     2
 62
     0
 63
     7
283
     0
274
    -2
284
     1
 64
     0
275
    -2
285
     1
 65
     0
276
    -2
286
     1
 66
     0
277
    -2
287
     1
 67
     0
278
    -2
288
     1
 68
     0
279
    -2
289
     1
 69
     0
  7
STANDARD
140
0.25
170
     5
 62
     0
 63
     7
283
     0
274
    -2
284
     1
 64
     0
275
    -2
285
     1
 65
     0
276
    -2
286
     1
 66
     0
277
    -2
287
     1
 67
     0
278
    -2
288
     1
 68
     0
279
    -2
289
     1
 69
     0
  7
STANDARD
140
0.18
170
     5
 62
     0
 63
     7
283
     0
274
    -2
284
     1
 64
     0
275
    -2
285
     1
 65
     0
276
    -2
286
     1
 66
     0
277
    -2
287
     1
 67
     0
278
    -2
288
     1
 68
     0
279
    -2
289
     1
 69
     0
  0
VISUALSTYLE
  5
1B5C
102
{ACAD_XDICTIONARY
360
1BB9
102
}
102
{ACAD_REACTORS
330
1B56
102
}
330
1B56
100
AcDbVisualStyle
  2
2dWireframe
 70
     4
 71
     0
 72
     2
 73
     0
 90
        0
 40
-0.6
 41
-30.0
 62
     5
 63
     7
 74
     1
 91
        4
 64
     7
 65
   257
 75
     1
175
     1
 42
1.0
 92
        0
 66
   257
 43
1.0
 76
     1
 77
     6
 78
     2
 67
     7
 79
     5
170
     0
171
     0
290
     0
174
     0
 93
        1
 44
0.0
173
     0
291
     0
 45
0.0
1001
ACAD
1000
AcDbSavedByObjectVersion
1070
     0
  0
VISUALSTYLE
  5
1B5B
102
{ACAD_XDICTIONARY
360
1BB7
102
}
102
{ACAD_REACTORS
330
1B56
102
}
330
1B56
100
AcDbVisualStyle
  2
Basic
 70
     7
 71
     1
 72
     0
 73
     1
 90
        0
 40
-0.6
 41
-30.0
 62
     5
 63
     7
 74
     0
 91
        4
 64
     7
 65
   257
 75
     1
175
     1
 42
1.0
 92
        8
 66
     7
 43
1.0
 76
     1
 77
     6
 78
     2
 67
     7
 79
     5
170
     0
171
     0
290
     0
174
     0
 93
        1
 44
0.0
173
     0
291
     1
 45
0.0
1001
ACAD
1000
AcDbSavedByObjectVersion
1070
     0
  0
VISUALSTYLE
  5
1B62
102
{ACAD_XDICTIONARY
360
1BC5
102
}
102
{ACAD_REACTORS
330
1B56
102
}
330
1B56
100
AcDbVisualStyle
  2
Brighten
 70
    12
 71
     2
 72
     2
 73
     0
 90
        0
 40
-0.6
 41
-30.0
 62
     5
 63
     7
 74
     1
 91
        4
 64
     7
 65
   257
 75
     1
175
     1
 42
1.0
 92
        8
 66
     7
 43
1.0
 76
     1
 77
     6
 78
     2
 67
     7
 79
     5
170
     0
171
     0
290
     0
174
     0
 93
        1
 44
50.0
173
     0
291
     1
 45
0.0
1001
ACAD
1000
AcDbSavedByObjectVersion
1070
     0
  0
VISUALSTYLE
  5
1B66
102
{ACAD_XDICTIONARY
360
1BCD
102
}
102
{ACAD_REACTORS
330
1B56
102
}
330
1B56
100
AcDbVisualStyle
  2
ColorChange
 70
    16
 71
     2
 72
     2
 73
     3
 90
        0
 40
-0.6
 41
-30.0
 62
     5
 63
     8
 74
     1
 91
        4
 64
     7
 65
   257
 75
     1
175
     1
 42
1.0
 92
        8
 66
     8
 43
1.0
 76
     1
 77
     6
 78
     2
 67
     7
 79
     5
170
     0
171
     0
290
     0
174
     0
 93
        1
 44
0.0
173
     0
291
     1
 45
0.0
1001
ACAD
1000
AcDbSavedByObjectVersion
1070
     0
  0
VISUALSTYLE
  5
1B5F
102
{ACAD_XDICTIONARY
360
1BBF
102
}
102
{ACAD_REACTORS
330
1B56
102
}
330
1B56
100
AcDbVisualStyle
  2
Conceptual
 70
     9
 71
     3
 72
     2
 73
     0
 90
        0
 40
-0.6
 41
-30.0
 62
     5
 63
     7
 74
     2
 91
        2
 64
     7
 65
   257
 75
     1
175
     1
 42
179.0
 92
        8
 66
     7
 43
1.0
 76
     1
 77
     6
 78
     2
 67
     7
 79
     3
170
     0
171
     0
290
     0
174
     0
 93
        1
 44
0.0
173
     0
291
     0
 45
0.0
1001
ACAD
1000
AcDbSavedByObjectVersion
1070
     0
  0
VISUALSTYLE
  5
1B61
102
{ACAD_XDICTIONARY
360
1BC3
102
}
102
{ACAD_REACTORS
330
1B56
102
}
330
1B56
100
AcDbVisualStyle
  2
Dim
 70
    11
 71
     2
 72
     2
 73
     0
 90
        0
 40
-0.6
 41
-30.0
 62
     5
 63
     7
 74
     1
 91
        4
 64
     7
 65
   257
 75
     1
175
     1
 42
1.0
 92
        8
 66
     7
 43
1.0
 76
     1
 77
     6
 78
     2
 67
     7
 79
     5
170
     0
171
     0
290
     0
174
     0
 93
        1
 44
-50.0
173
     0
291
     1
 45
0.0
1001
ACAD
1000
AcDbSavedByObjectVersion
1070
     0
  0
VISUALSTYLE
  5
1B6E
102
{ACAD_XDICTIONARY
360
1BDD
102
}
102
{ACAD_REACTORS
330
1B56
102
}
330
1B56
100
AcDbVisualStyle
  2
EdgeColorOff
 70
    22
 71
     2
 72
     2
 73
     0
 90
        0
 40
-0.6
 41
-30.0
 62
     5
 63
     7
 74
     1
 91
        4
 64
     7
 65
   257
 75
     1
175
     1
 42
1.0
 92
        8
 66
     7
 43
1.0
 76
     1
 77
     6
 78
     2
 67
     7
 79
     5
170
     0
171
     0
290
     0
174
     0
 93
        1
 44
0.0
173
     0
291
     1
 45
0.0
1001
ACAD
1000
AcDbSavedByObjectVersion
1070
     0
  0
VISUALSTYLE
  5
1B65
102
{ACAD_XDICTIONARY
360
1BCB
102
}
102
{ACAD_REACTORS
330
1B56
102
}
330
1B56
100
AcDbVisualStyle
  2
Facepattern
 70
    15
 71
     2
 72
     2
 73
     0
 90
        0
 40
-0.6
 41
-30.0
 62
     5
 63
     7
 74
     1
 91
        4
 64
     7
 65
   257
 75
     1
175
     1
 42
1.0
 92
        8
 66
     7
 43
1.0
 76
     1
 77
     6
 78
     2
 67
     7
 79
     5
170
     0
171
     0
290
     0
174
     0
 93
        1
 44
0.0
173
     0
291
     1
 45
0.0
1001
ACAD
1000
AcDbSavedByObjectVersion
1070
     0
  0
VISUALSTYLE
  5
1B57
102
{ACAD_XDICTIONARY
360
1BAF
102
}
102
{ACAD_REACTORS
330
1B56
102
}
330
1B56
100
AcDbVisualStyle
  2
Flat
 70
     0
 71
     2
 72
     1
 73
     1
 90
        2
 40
-0.6
 41
30.0
 62
     5
 63
     7
 74
     0
 91
        0
 64
     7
 65
   257
 75
     1
175
     1
 42
1.0
 92
        8
 66
     7
 43
1.0
 76
     1
 77
     6
 78
     2
 67
     7
 79
     5
170
     0
171
     0
290
     0
174
     0
 93
       13
 44
0.0
173
     0
291
     1
 45
0.0
1001
ACAD
1000
AcDbSavedByObjectVersion
1070
     0
  0
VISUALSTYLE
  5
1B58
102
{ACAD_XDICTIONARY
360
1BB1
102
}
102
{ACAD_REACTORS
330
1B56
102
}
330
1B56
100
AcDbVisualStyle
  2
FlatWithEdges
 70
     1
 71
     2
 72
     1
 73
     1
 90
        2
 40
-0.6
 41
30.0
 62
     5
 63
     7
 74
     1
 91
        0
 64
     7
 65
   257
 75
     1
175
     1
 42
1.0
 92
        0
 66
   257
 43
1.0
 76
     1
 77
     6
 78
     2
 67
     7
 79
     5
170
     0
171
     0
290
     0
174
     0
 93
       13
 44
0.0
173
     0
291
     1
 45
0.0
1001
ACAD
1000
AcDbSavedByObjectVersion
1070
     0
  0
VISUALSTYLE
  5
1B59
102
{ACAD_XDICTIONARY
360
1BB3
102
}
102
{ACAD_REACTORS
330
1B56
102
}
330
1B56
100
AcDbVisualStyle
  2
Gouraud
 70
     2
 71
     2
 72
     2
 73
     1
 90
        2
 40
-0.6
 41
30.0
 62
     5
 63
     7
 74
     0
 91
        0
 64
     7
 65
   257
 75
     1
175
     1
 42
1.0
 92
        0
 66
     7
 43
1.0
 76
     1
 77
     6
 78
     2
 67
     7
 79
     5
170
     0
171
     0
290
     0
174
     0
 93
       13
 44
0.0
173
     0
291
     1
 45
0.0
1001
ACAD
1000
AcDbSavedByObjectVersion
1070
     0
  0
VISUALSTYLE
  5
1B5A
102
{ACAD_XDICTIONARY
360
1BB5
102
}
102
{ACAD_REACTORS
330
1B56
102
}
330
1B56
100
AcDbVisualStyle
  2
GouraudWithEdges
 70
     3
 71
     2
 72
     2
 73
     1
 90
        2
 40
-0.6
 41
30.0
 62
     5
 63
     7
 74
     1
 91
        0
 64
     7
 65
   257
 75
     1
175
     1
 42
1.0
 92
        0
 66
   257
 43
1.0
 76
     1
 77
     6
 78
     2
 67
     7
 79
     5
170
     0
171
     0
290
     0
174
     0
 93
       13
 44
0.0
173
     0
291
     1
 45
0.0
1001
ACAD
1000
AcDbSavedByObjectVersion
1070
     0
  0
VISUALSTYLE
  5
1B5E
102
{ACAD_XDICTIONARY
360
1BBD
102
}
102
{ACAD_REACTORS
330
1B56
102
}
330
1B56
100
AcDbVisualStyle
  2
Hidden
 70
     6
 71
     1
 72
     2
 73
     2
 90
        0
 40
-0.6
 41
-30.0
 62
     5
 63
     7
 74
     2
 91
        2
 64
     7
 65
   257
 75
     2
175
     1
 42
40.0
 92
        0
 66
   257
 43
1.0
 76
     1
 77
     6
 78
     2
 67
     7
 79
     3
170
     0
171
     0
290
     0
174
     0
 93
        1
 44
0.0
173
     0
291
     0
 45
0.0
1001
ACAD
1000
AcDbSavedByObjectVersion
1070
     0
  0
VISUALSTYLE
  5
1B6C
102
{ACAD_XDICTIONARY
360
1BD9
102
}
102
{ACAD_REACTORS
330
1B56
102
}
330
1B56
100
AcDbVisualStyle
  2
JitterOff
 70
    20
 71
     2
 72
     2
 73
     0
 90
        0
 40
-0.6
 41
-30.0
 62
     5
 63
     7
 74
     1
 91
        4
 64
     7
 65
   257
 75
     1
175
     1
 42
1.0
 92
       10
 66
     7
 43
1.0
 76
     1
 77
     6
 78
     2
 67
     7
 79
     5
170
     0
171
     0
290
     0
174
     0
 93
        1
 44
0.0
173
     0
291
     1
 45
0.0
1001
ACAD
1000
AcDbSavedByObjectVersion
1070
     0
  0
VISUALSTYLE
  5
1B64
102
{ACAD_XDICTIONARY
360
1BC9
102
}
102
{ACAD_REACTORS
330
1B56
102
}
330
1B56
100
AcDbVisualStyle
  2
Linepattern
 70
    14
 71
     2
 72
     2
 73
     0
 90
        0
 40
-0.6
 41
-30.0
 62
     5
 63
     7
 74
     1
 91
        4
 64
     7
 65
   257
 75
     7
175
     7
 42
1.0
 92
        8
 66
     7
 43
1.0
 76
     1
 77
     6
 78
     2
 67
     7
 79
     5
170
     0
171
     0
290
     0
174
     0
 93
        1
 44
0.0
173
     0
291
     1
 45
0.0
1001
ACAD
1000
AcDbSavedByObjectVersion
1070
     0
  0
VISUALSTYLE
  5
1B6D
102
{ACAD_XDICTIONARY
360
1BDB
102
}
102
{ACAD_REACTORS
330
1B56
102
}
330
1B56
100
AcDbVisualStyle
  2
OverhangOff
 70
    21
 71
     2
 72
     2
 73
     0
 90
        0
 40
-0.6
 41
-30.0
 62
     5
 63
     7
 74
     1
 91
        4
 64
     7
 65
   257
 75
     1
175
     1
 42
1.0
 92
        9
 66
     7
 43
1.0
 76
     1
 77
     6
 78
     2
 67
     7
 79
     5
170
     0
171
     0
290
     0
174
     0
 93
        1
 44
0.0
173
     0
291
     1
 45
0.0
1001
ACAD
1000
AcDbSavedByObjectVersion
1070
     0
  0
VISUALSTYLE
  5
1B60
102
{ACAD_XDICTIONARY
360
1BC1
102
}
102
{ACAD_REACTORS
330
1B56
102
}
330
1B56
100
AcDbVisualStyle
  2
Realistic
 70
     8
 71
     2
 72
     3
 73
     0
 90
        2
 40
-0.6
 41
30.0
 62
     5
 63
     7
 74
     0
 91
        0
 64
     7
 65
   257
 75
     1
175
     1
 42
1.0
 92
        8
 66
   257
 43
1.0
 76
     1
 77
     6
 78
     2
 67
     7
 79
     3
170
     0
171
     0
290
     0
174
     0
 93
       13
 44
0.0
173
     0
291
     0
 45
0.0
1001
ACAD
1000
AcDbSavedByObjectVersion
1070
     0
  0
VISUALSTYLE
  5
1B6B
102
{ACAD_XDICTIONARY
360
1BD7
102
}
102
{ACAD_REACTORS
330
1B56
102
}
330
1B56
100
AcDbVisualStyle
  2
Shaded
 70
    27
 71
     2
 72
     2
 73
     1
 90
        2
 40
-0.6
 41
30.0
 62
     5
 63
     7
 74
     0
 91
        4
 64
     7
 65
   257
 75
     1
175
     1
 42
1.0
 92
        8
 66
   257
 43
1.0
 76
     1
 77
     6
 78
     2
 67
     8
 79
     3
170
     0
171
     0
290
     0
174
     0
 93
        5
 44
0.0
173
     0
291
     0
 45
0.0
1001
ACAD
1000
AcDbSavedByObjectVersion
1070
     0
  0
VISUALSTYLE
  5
1B6A
102
{ACAD_XDICTIONARY
360
1BD5
102
}
102
{ACAD_REACTORS
330
1B56
102
}
330
1B56
100
AcDbVisualStyle
  2
Shaded with edges
 70
    26
 71
     2
 72
     2
 73
     1
 90
        2
 40
-0.6
 41
30.0
 62
     5
 63
     7
 74
     1
 91
       10
 64
     7
 65
   257
 75
     2
175
     1
 42
1.0
 92
        8
 66
   257
 43
1.0
 76
     1
 77
     6
 78
     2
 67
     7
 79
     3
170
     0
171
     0
290
     0
174
     0
 93
        5
 44
0.0
173
     0
291
     0
 45
0.0
1001
ACAD
1000
AcDbSavedByObjectVersion
1070
     0
  0
VISUALSTYLE
  5
1B67
102
{ACAD_XDICTIONARY
360
1BCF
102
}
102
{ACAD_REACTORS
330
1B56
102
}
330
1B56
100
AcDbVisualStyle
  2
Shades of Gray
 70
    23
 71
     2
 72
     2
 73
     3
 90
        0
 40
-0.6
 41
-30.0
 62
     5
 63
     7
 74
     2
 91
        2
 64
     7
 65
     7
 75
     1
175
     1
 42
40.0
 92
        8
 66
     7
 43
1.0
 76
     1
 77
     6
 78
     2
 67
     7
 79
     3
170
     0
171
     0
290
     0
174
     0
 93
        1
 44
0.0
173
     0
291
     0
 45
0.0
1001
ACAD
1000
AcDbSavedByObjectVersion
1070
     0
  0
VISUALSTYLE
  5
1B68
102
{ACAD_XDICTIONARY
360
1BD1
102
}
102
{ACAD_REACTORS
330
1B56
102
}
330
1B56
100
AcDbVisualStyle
  2
Sketchy
 70
    24
 71
     1
 72
     2
 73
     2
 90
        0
 40
-0.6
 41
-30.0
 62
     5
 63
     7
 74
     2
 91
        2
 64
     7
 65
     7
 75
     1
175
     1
 42
40.0
 92
       11
 66
     7
 43
1.0
 76
     1
 77
     6
 78
     2
 67
     7
 79
     6
170
     0
171
     0
290
     0
174
     0
 93
        1
 44
0.0
173
     0
291
     0
 45
0.0
1001
ACAD
1000
AcDbSavedByObjectVersion
1070
     0
  0
VISUALSTYLE
  5
1B63
102
{ACAD_XDICTIONARY
360
1BC7
102
}
102
{ACAD_REACTORS
330
1B56
102
}
330
1B56
100
AcDbVisualStyle
  2
Thicken
 70
    13
 71
     2
 72
     2
 73
     0
 90
        0
 40
-0.6
 41
-30.0
 62
     5
 63
     7
 74
     1
 91
        4
 64
     7
 65
   257
 75
     1
175
     1
 42
1.0
 92
       12
 66
     7
 43
1.0
 76
     1
 77
     6
 78
     2
 67
     7
 79
     5
170
     0
171
     0
290
     0
174
     0
 93
        1
 44
0.0
173
     0
291
     1
 45
0.0
1001
ACAD
1000
AcDbSavedByObjectVersion
1070
     0
  0
VISUALSTYLE
  5
1B5D
102
{ACAD_XDICTIONARY
360
1BBB
102
}
102
{ACAD_REACTORS
330
1B56
102
}
330
1B56
100
AcDbVisualStyle
  2
Wireframe
 70
     5
 71
     0
 72
     2
 73
     0
 90
        0
 40
-0.6
 41
-30.0
 62
     5
 63
     7
 74
     1
 91
        4
 64
     7
 65
   257
 75
     1
175
     1
 42
1.0
 92
        0
 66
   257
 43
1.0
 76
     1
 77
     6
 78
     2
 67
     7
 79
     3
170
     0
171
     0
290
     0
174
     0
 93
        1
 44
0.0
173
     0
291
     0
 45
0.0
1001
ACAD
1000
AcDbSavedByObjectVersion
1070
     0
  0
VISUALSTYLE
  5
1B69
102
{ACAD_XDICTIONARY
360
1BD3
102
}
102
{ACAD_REACTORS
330
1B56
102
}
330
1B56
100
AcDbVisualStyle
  2
X-Ray
 70
    25
 71
     2
 72
     2
 73
     1
 90
        1
 40
0.5
 41
-30.0
 62
     5
 63
     7
 74
     1
 91
        0
 64
     7
 65
   257
 75
     1
175
     1
 42
1.0
 92
        8
 66
     7
 43
1.0
 76
     1
 77
     6
 78
     2
 67
     7
 79
     3
170
     0
171
     0
290
     0
174
     0
 93
       13
 44
0.0
173
     0
291
     0
 45
0.0
1001
ACAD
1000
AcDbSavedByObjectVersion
1070
     0
  0
DICTIONARYVAR
  5
1BA2
102
{ACAD_REACTORS
330
1B9D
102
}
330
1B9D
100
DictionaryVariables
280
     0
  1
1:1
  0
DICTIONARYVAR
  5
1B9F
102
{ACAD_REACTORS
330
1B9D
102
}
330
1B9D
100
DictionaryVariables
280
     0
  1
STANDARD
  0
DICTIONARYVAR
  5
1B9E
102
{ACAD_REACTORS
330
1B9D
102
}
330
1B9D
100
DictionaryVariables
280
     0
  1
STANDARD
  0
DICTIONARYVAR
  5
1BA0
102
{ACAD_REACTORS
330
1B9D
102
}
330
1B9D
100
DictionaryVariables
280
     0
  1
Imperial24
  0
DICTIONARYVAR
  5
1BA1
102
{ACAD_REACTORS
330
1B9D
102
}
330
1B9D
100
DictionaryVariables
280
     0
  1
Imperial24
  0
DICTIONARYVAR
  5
1BA5
102
{ACAD_REACTORS
330
1B9D
102
}
330
1B9D
100
DictionaryVariables
280
     0
  1
1
  0
DICTIONARYVAR
  5
1BA4
102
{ACAD_REACTORS
330
1B9D
102
}
330
1B9D
100
DictionaryVariables
280
     0
  1
0
  0
DICTIONARYVAR
  5
1BA3
102
{ACAD_REACTORS
330
1B9D
102
}
330
1B9D
100
DictionaryVariables
280
     0
  1
127
  0
DICTIONARYVAR
  5
1BA6
102
{ACAD_REACTORS
330
1B9D
102
}
330
1B9D
100
DictionaryVariables
280
     0
  1
2
  0
DICTIONARY
  5
1BE3
330
1B89
100
AcDbDictionary
280
     1
281
     1
  3
ACAD_XREC_ROUNDTRIP
360
1BE4
  0
DICTIONARY
  5
1BE5
330
1B8A
100
AcDbDictionary
280
     1
281
     1
  3
ACAD_XREC_ROUNDTRIP
360
1BE6
  0
DICTIONARY
  5
1BE7
330
1B8B
100
AcDbDictionary
280
     1
281
     1
  3
ACAD_XREC_ROUNDTRIP
360
1BE8
  0
DICTIONARY
  5
1B47
330
1B46
100
AcDbDictionary
280
     1
281
     1
  3
ACAD_XREC_ROUNDTRIP
360
1BAD
  3
BUMPTILE
360
1B49
  3
DIFFUSETILE
360
1B48
  3
OPACITYTILE
360
1B4C
  3
REFLECTIONTILE
360
1B4B
  3
REFRACTIONTILE
360
1B4D
  3
SPECULARTILE
360
1B4A
  0
DICTIONARY
  5
1B3F
330
1B3E
100
AcDbDictionary
280
     1
281
     1
  3
ACAD_XREC_ROUNDTRIP
360
1BAC
  3
BUMPTILE
360
1B41
  3
DIFFUSETILE
360
1B40
  3
OPACITYTILE
360
1B44
  3
REFLECTIONTILE
360
1B43
  3
REFRACTIONTILE
360
1B45
  3
SPECULARTILE
360
1B42
  0
DICTIONARY
  5
1B4F
330
1B4E
100
AcDbDictionary
280
     1
281
     1
  3
ACAD_XREC_ROUNDTRIP
360
1BAE
  3
BUMPTILE
360
1B51
  3
DIFFUSETILE
360
1B50
  3
OPACITYTILE
360
1B54
  3
REFLECTIONTILE
360
1B53
  3
REFRACTIONTILE
360
1B55
  3
SPECULARTILE
360
1B52
  0
DICTIONARY
  5
1BE1
330
1B87
100
AcDbDictionary
280
     1
281
     1
  3
ACAD_XREC_ROUNDTRIP
360
1BE2
  0
DICTIONARY
  5
1BA8
330
1B71
100
AcDbDictionary
280
     1
281
     1
  3
ACAD_ROUNDTRIP_2008_TABLESTYLE_CELLSTYLEMAP
360
1BA9
  3
ACAD_XREC_ROUNDTRIP
360
1BDF
  0
DICTIONARY
  5
1BB9
330
1B5C
100
AcDbDictionary
280
     1
281
     1
  3
ACAD_XREC_ROUNDTRIP
360
1BBA
  0
DICTIONARY
  5
1BB7
330
1B5B
100
AcDbDictionary
280
     1
281
     1
  3
ACAD_XREC_ROUNDTRIP
360
1BB8
  0
DICTIONARY
  5
1BC5
330
1B62
100
AcDbDictionary
280
     1
281
     1
  3
ACAD_XREC_ROUNDTRIP
360
1BC6
  0
DICTIONARY
  5
1BCD
330
1B66
100
AcDbDictionary
280
     1
281
     1
  3
ACAD_XREC_ROUNDTRIP
360
1BCE
  0
DICTIONARY
  5
1BBF
330
1B5F
100
AcDbDictionary
280
     1
281
     1
  3
ACAD_XREC_ROUNDTRIP
360
1BC0
  0
DICTIONARY
  5
1BC3
330
1B61
100
AcDbDictionary
280
     1
281
     1
  3
ACAD_XREC_ROUNDTRIP
360
1BC4
  0
DICTIONARY
  5
1BDD
330
1B6E
100
AcDbDictionary
280
     1
281
     1
  3
ACAD_XREC_ROUNDTRIP
360
1BDE
  0
DICTIONARY
  5
1BCB
330
1B65
100
AcDbDictionary
280
     1
281
     1
  3
ACAD_XREC_ROUNDTRIP
360
1BCC
  0
DICTIONARY
  5
1BAF
330
1B57
100
AcDbDictionary
280
     1
281
     1
  3
ACAD_XREC_ROUNDTRIP
360
1BB0
  0
DICTIONARY
  5
1BB1
330
1B58
100
AcDbDictionary
280
     1
281
     1
  3
ACAD_XREC_ROUNDTRIP
360
1BB2
  0
DICTIONARY
  5
1BB3
330
1B59
100
AcDbDictionary
280
     1
281
     1
  3
ACAD_XREC_ROUNDTRIP
360
1BB4
  0
DICTIONARY
  5
1BB5
330
1B5A
100
AcDbDictionary
280
     1
281
     1
  3
ACAD_XREC_ROUNDTRIP
360
1BB6
  0
DICTIONARY
  5
1BBD
330
1B5E
100
AcDbDictionary
280
     1
281
     1
  3
ACAD_XREC_ROUNDTRIP
360
1BBE
  0
DICTIONARY
  5
1BD9
330
1B6C
100
AcDbDictionary
280
     1
281
     1
  3
ACAD_XREC_ROUNDTRIP
360
1BDA
  0
DICTIONARY
  5
1BC9
330
1B64
100
AcDbDictionary
280
     1
281
     1
  3
ACAD_XREC_ROUNDTRIP
360
1BCA
  0
DICTIONARY
  5
1BDB
330
1B6D
100
AcDbDictionary
280
     1
281
     1
  3
ACAD_XREC_ROUNDTRIP
360
1BDC
  0
DICTIONARY
  5
1BC1
330
1B60
100
AcDbDictionary
280
     1
281
     1
  3
ACAD_XREC_ROUNDTRIP
360
1BC2
  0
DICTIONARY
  5
1BD7
330
1B6B
100
AcDbDictionary
280
     1
281
     1
  3
ACAD_XREC_ROUNDTRIP
360
1BD8
  0
DICTIONARY
  5
1BD5
330
1B6A
100
AcDbDictionary
280
     1
281
     1
  3
ACAD_XREC_ROUNDTRIP
360
1BD6
  0
DICTIONARY
  5
1BCF
330
1B67
100
AcDbDictionary
280
     1
281
     1
  3
ACAD_XREC_ROUNDTRIP
360
1BD0
  0
DICTIONARY
  5
1BD1
330
1B68
100
AcDbDictionary
280
     1
281
     1
  3
ACAD_XREC_ROUNDTRIP
360
1BD2
  0
DICTIONARY
  5
1BC7
330
1B63
100
AcDbDictionary
280
     1
281
     1
  3
ACAD_XREC_ROUNDTRIP
360
1BC8
  0
DICTIONARY
  5
1BBB
330
1B5D
100
AcDbDictionary
280
     1
281
     1
  3
ACAD_XREC_ROUNDTRIP
360
1BBC
  0
DICTIONARY
  5
1BD3
330
1B69
100
AcDbDictionary
280
     1
281
     1
  3
ACAD_XREC_ROUNDTRIP
360
1BD4
  0
XRECORD
  5
1BE4
102
{ACAD_REACTORS
330
1BE3
102
}
330
1BE3
100
AcDbXrecord
280
     1
102
DISPLAYNAME
  1
Imperial24
102
FLAGS
 90
        0
  0
XRECORD
  5
1BE6
102
{ACAD_REACTORS
330
1BE5
102
}
330
1BE5
100
AcDbXrecord
280
     1
102
SHADEPLOT
 70
     0
102
SHADEPLOTRESLEVEL
 70
     2
102
SHADEPLOTCUSTOMDPI
 70
   300
  0
XRECORD
  5
1BE8
102
{ACAD_REACTORS
330
1BE7
102
}
330
1BE7
100
AcDbXrecord
280
     1
102
SHADEPLOT
 70
     0
102
SHADEPLOTRESLEVEL
 70
     2
102
SHADEPLOTCUSTOMDPI
 70
   300
  0
XRECORD
  5
1BAD
102
{ACAD_REACTORS
330
1B47
102
}
330
1B47
100
AcDbXrecord
280
     1
102
MATERIAL
148
0.0
149
0.0
149
0.0
 93
        0
 94
      127
282
     0
 72
     0
 77
     0
171
     0
175
     0
179
     0
273
     0
  0
XRECORD
  5
1B49
102
{ACAD_REACTORS
330
1B47
102
}
330
1B47
100
AcDbXrecord
280
     1
270
     1
271
     1
  0
XRECORD
  5
1B48
102
{ACAD_REACTORS
330
1B47
102
}
330
1B47
100
AcDbXrecord
280
     1
270
     1
271
     1
  0
XRECORD
  5
1B4C
102
{ACAD_REACTORS
330
1B47
102
}
330
1B47
100
AcDbXrecord
280
     1
270
     1
271
     1
  0
XRECORD
  5
1B4B
102
{ACAD_REACTORS
330
1B47
102
}
330
1B47
100
AcDbXrecord
280
     1
270
     1
271
     1
  0
XRECORD
  5
1B4D
102
{ACAD_REACTORS
330
1B47
102
}
330
1B47
100
AcDbXrecord
280
     1
270
     1
271
     1
  0
XRECORD
  5
1B4A
102
{ACAD_REACTORS
330
1B47
102
}
330
1B47
100
AcDbXrecord
280
     1
270
     1
271
     1
  0
XRECORD
  5
1BAC
102
{ACAD_REACTORS
330
1B3F
102
}
330
1B3F
100
AcDbXrecord
280
     1
102
MATERIAL
148
0.0
149
0.0
149
0.0
 93
        0
 94
      127
282
     0
 72
     0
 77
     0
171
     0
175
     0
179
     0
273
     0
  0
XRECORD
  5
1B41
102
{ACAD_REACTORS
330
1B3F
102
}
330
1B3F
100
AcDbXrecord
280
     1
270
     1
271
     1
  0
XRECORD
  5
1B40
102
{ACAD_REACTORS
330
1B3F
102
}
330
1B3F
100
AcDbXrecord
280
     1
270
     1
271
     1
  0
XRECORD
  5
1B44
102
{ACAD_REACTORS
330
1B3F
102
}
330
1B3F
100
AcDbXrecord
280
     1
270
     1
271
     1
  0
XRECORD
  5
1B43
102
{ACAD_REACTORS
330
1B3F
102
}
330
1B3F
100
AcDbXrecord
280
     1
270
     1
271
     1
  0
XRECORD
  5
1B45
102
{ACAD_REACTORS
330
1B3F
102
}
330
1B3F
100
AcDbXrecord
280
     1
270
     1
271
     1
  0
XRECORD
  5
1B42
102
{ACAD_REACTORS
330
1B3F
102
}
330
1B3F
100
AcDbXrecord
280
     1
270
     1
271
     1
  0
XRECORD
  5
1BAE
102
{ACAD_REACTORS
330
1B4F
102
}
330
1B4F
100
AcDbXrecord
280
     1
102
MATERIAL
148
0.0
149
0.0
149
0.0
 93
        0
 94
      127
282
     0
 72
     0
 77
     0
171
     0
175
     0
179
     0
273
     0
  0
XRECORD
  5
1B51
102
{ACAD_REACTORS
330
1B4F
102
}
330
1B4F
100
AcDbXrecord
280
     1
270
     1
271
     1
  0
XRECORD
  5
1B50
102
{ACAD_REACTORS
330
1B4F
102
}
330
1B4F
100
AcDbXrecord
280
     1
270
     1
271
     1
  0
XRECORD
  5
1B54
102
{ACAD_REACTORS
330
1B4F
102
}
330
1B4F
100
AcDbXrecord
280
     1
270
     1
271
     1
  0
XRECORD
  5
1B53
102
{ACAD_REACTORS
330
1B4F
102
}
330
1B4F
100
AcDbXrecord
280
     1
270
     1
271
     1
  0
XRECORD
  5
1B55
102
{ACAD_REACTORS
330
1B4F
102
}
330
1B4F
100
AcDbXrecord
280
     1
270
     1
271
     1
  0
XRECORD
  5
1B52
102
{ACAD_REACTORS
330
1B4F
102
}
330
1B4F
100
AcDbXrecord
280
     1
270
     1
271
     1
  0
XRECORD
  5
1BE2
102
{ACAD_REACTORS
330
1BE1
102
}
330
1BE1
100
AcDbXrecord
280
     1
102
DISPLAYNAME
  1
Imperial24
102
FLAGS
 90
        0
  0
CELLSTYLEMAP
  5
1BA9
102
{ACAD_REACTORS
330
1BA8
102
}
330
1BA8
100
AcDbCellStyleMap
 90
        3
300
CELLSTYLE
  1
TABLEFORMAT_BEGIN
 90
        5
170
     1
 91
        0
 92
    32768
 62
   257
 93
        1
300
CONTENTFORMAT
  1
CONTENTFORMAT_BEGIN
 90
        0
 91
        0
 92
      512
 93
        0
300

 40
0.0
140
1.0
 94
        5
 62
     0
340
F
144
0.25
309
CONTENTFORMAT_END
171
     0
 94
        0
309
TABLEFORMAT_END
  1
CELLSTYLE_BEGIN
 90
        1
 91
        1
300
_TITLE
309
CELLSTYLE_END
300
CELLSTYLE
  1
TABLEFORMAT_BEGIN
 90
        5
170
     1
 91
        0
 92
        0
 62
   257
 93
        1
300
CONTENTFORMAT
  1
CONTENTFORMAT_BEGIN
 90
        0
 91
        0
 92
      512
 93
        0
300

 40
0.0
140
1.0
 94
        5
 62
     0
340
F
144
0.18
309
CONTENTFORMAT_END
171
     0
 94
        0
309
TABLEFORMAT_END
  1
CELLSTYLE_BEGIN
 90
        2
 91
        1
300
_HEADER
309
CELLSTYLE_END
300
CELLSTYLE
  1
TABLEFORMAT_BEGIN
 90
        5
170
     1
 91
        0
 92
        0
 62
   257
 93
        1
300
CONTENTFORMAT
  1
CONTENTFORMAT_BEGIN
 90
        0
 91
        0
 92
      512
 93
        0
300

 40
0.0
140
1.0
 94
        2
 62
     0
340
F
144
0.18
309
CONTENTFORMAT_END
171
     0
 94
        0
309
TABLEFORMAT_END
  1
CELLSTYLE_BEGIN
 90
        3
 91
        2
300
_DATA
309
CELLSTYLE_END
  0
XRECORD
  5
1BDF
102
{ACAD_REACTORS
330
1BA8
102
}
330
1BA8
100
AcDbXrecord
280
     1
102
ACAD_ROUNDTRIP_PRE2007_TABLESTYLE
 90
      512
 91
        0
  1

 92
      512
 93
        0
  2

 94
      512
 95
        0
  3

  0
XRECORD
  5
1BBA
102
{ACAD_REACTORS
330
1BB9
102
}
330
1BB9
100
AcDbXrecord
280
     1
102
RTVSPost2010Prop28
280
     1
102
RTVSPost2010PropOp28
 70
     1
102
RTVSPost2010Prop29
280
     1
102
RTVSPost2010PropOp29
 70
     1
102
RTVSPost2010Prop30
280
     0
102
RTVSPost2010PropOp30
 70
     1
102
RTVSPost2010Prop31
280
     0
102
RTVSPost2010PropOp31
 70
     1
102
RTVSPost2010Prop32
280
     0
102
RTVSPost2010PropOp32
 70
     1
102
RTVSPost2010Prop33
280
     0
102
RTVSPost2010PropOp33
 70
     1
102
RTVSPost2010Prop34
280
     0
102
RTVSPost2010PropOp34
 70
     1
102
RTVSPost2010Prop35
280
     0
102
RTVSPost2010PropOp35
 70
     1
102
RTVSPost2010Prop36
280
     0
102
RTVSPost2010PropOp36
 70
     1
102
RTVSPost2010Prop37
 90
       50
102
RTVSPost2010PropOp37
 70
     1
102
RTVSPost2010Prop38
140
0.0
102
RTVSPost2010PropOp38
 70
     1
102
RTVSPost2010Prop39
140
1.0
102
RTVSPost2010PropOp39
 70
     1
102
RTVSPost2010Prop40
 90
        0
102
RTVSPost2010PropOp40
 70
     1
102
RTVSPost2010Prop41ColorIndex
 90
       18
102
RTVSPost2010Prop41ColorRGB
 90
        0
102
RTVSPost2010PropOp41
 70
     1
102
RTVSPost2010Prop42
 90
       50
102
RTVSPost2010PropOp42
 70
     1
102
RTVSPost2010Prop43
 90
        3
102
RTVSPost2010PropOp43
 70
     1
102
RTVSPost2010Prop44ColorIndex
 90
        5
102
RTVSPost2010Prop44ColorRGB
 90
      255
102
RTVSPost2010PropOp44
 70
     1
102
RTVSPost2010Prop45
280
     0
102
RTVSPost2010PropOp45
 70
     1
102
RTVSPost2010Prop46
 90
       50
102
RTVSPost2010PropOp46
 70
     1
102
RTVSPost2010Prop47
 90
       50
102
RTVSPost2010PropOp47
 70
     1
102
RTVSPost2010Prop48
 90
       50
102
RTVSPost2010PropOp48
 70
     1
102
RTVSPost2010Prop49
280
     0
102
RTVSPost2010PropOp49
 70
     1
102
RTVSPost2010Prop50
 90
       50
102
RTVSPost2010PropOp50
 70
     1
102
RTVSPost2010Prop51ColorIndex
 90
      256
102
RTVSPost2010Prop51ColorRGB
 90
-16777216
102
RTVSPost2010PropOp51
 70
     0
102
RTVSPost2010Prop52
140
1.0
102
RTVSPost2010PropOp52
 70
     0
102
RTVSPost2010Prop53
 90
        2
102
RTVSPost2010PropOp53
 70
     1
102
RTVSPost2010Prop54
  1
strokes_ogs.tif
102
RTVSPost2010PropOp54
 70
     1
102
RTVSPost2010Prop55
280
     0
102
RTVSPost2010PropOp55
 70
     1
102
RTVSPost2010Prop56
140
1.0
102
RTVSPost2010PropOp56
 70
     1
102
RTVSPost2010Prop57
140
1.0
102
RTVSPost2010PropOp57
 70
     1
102
RTVSPropertyOp0
 70
     1
102
RTVSPropertyOp1
 70
     1
102
RTVSPropertyOp2
 70
     1
102
RTVSPropertyOp3
 70
     1
102
RTVSPropertyOp4
 70
     1
102
RTVSPropertyOp5
 70
     1
102
RTVSPropertyOp6
 70
     1
102
RTVSPropertyOp7
 70
     1
102
RTVSPropertyOp8
 70
     1
102
RTVSPropertyOp9
 70
     1
102
RTVSPropertyOp10
 70
     1
102
RTVSPropertyOp11
 70
     1
102
RTVSPropertyOp12
 70
     1
102
RTVSPropertyOp13
 70
     1
102
RTVSPropertyOp14
 70
     1
102
RTVSPropertyOp15
 70
     1
102
RTVSPropertyOp16
 70
     1
102
RTVSPropertyOp17
 70
     1
102
RTVSPropertyOp18
 70
     1
102
RTVSPropertyOp19
 70
     1
102
RTVSPropertyOp20
 70
     1
102
RTVSPropertyOp21
 70
     1
102
RTVSPropertyOp22
 70
     1
102
RTVSPropertyOp23
 70
     1
102
RTVSPropertyOp24
 70
     1
102
RTVSPropertyOp25
 70
     1
102
RTVSPropertyOp26
 70
     1
102
RTVSPropertyOp27
 70
     1
102
RTVSPropertyOp28
 70
     1
102
RTVSPropertyOp29
 70
     1
102
RTVSPropertyOp30
 70
     1
102
RTVSPropertyOp31
 70
     1
102
RTVSPropertyOp32
 70
     1
102
RTVSPropertyOp33
 70
     1
102
RTVSPropertyOp34
 70
     1
102
RTVSPropertyOp35
 70
     1
102
RTVSPropertyOp36
 70
     1
102
RTVSPropertyOp37
 70
     1
102
RTVSPropertyOp38
 70
     1
102
RTVSPropertyOp39
 70
     1
102
RTVSPropertyOp40
 70
     1
102
RTVSPropertyOp41
 70
     1
102
RTVSPropertyOp42
 70
     1
102
RTVSPropertyOp43
 70
     1
102
RTVSPropertyOp44
 70
     1
102
RTVSPropertyOp45
 70
     1
102
RTVSPropertyOp46
 70
     1
102
RTVSPropertyOp47
 70
     1
102
RTVSPropertyOp48
 70
     1
102
RTVSPropertyOp49
 70
     1
102
RTVSPropertyOp50
 70
     1
102
RTVSPropertyOp51
 70
     0
102
RTVSPropertyOp52
 70
     0
102
RTVSPropertyOp53
 70
     1
102
RTVSPropertyOp54
 70
     1
102
RTVSPropertyOp55
 70
     1
102
RTVSPropertyOp56
 70
     1
102
RTVSPropertyOp57
 70
     1
102
RTVSPropertyOp58
 70
     1
102
RTVSPropertyOp59
 70
     1
102
RTVSPropertyOp60
 70
     1
102
RTVSPropertyOp61
 70
     1
102
RTVSPropertyOp62
 70
     1
  0
XRECORD
  5
1BB8
102
{ACAD_REACTORS
330
1BB7
102
}
330
1BB7
100
AcDbXrecord
280
     1
102
RTVSPost2010Prop28
280
     0
102
RTVSPost2010PropOp28
 70
     1
102
RTVSPost2010Prop29
280
     1
102
RTVSPost2010PropOp29
 70
     1
102
RTVSPost2010Prop30
280
     1
102
RTVSPost2010PropOp30
 70
     1
102
RTVSPost2010Prop31
280
     0
102
RTVSPost2010PropOp31
 70
     1
102
RTVSPost2010Prop32
280
     0
102
RTVSPost2010PropOp32
 70
     1
102
RTVSPost2010Prop33
280
     0
102
RTVSPost2010PropOp33
 70
     1
102
RTVSPost2010Prop34
280
     0
102
RTVSPost2010PropOp34
 70
     1
102
RTVSPost2010Prop35
280
     0
102
RTVSPost2010PropOp35
 70
     1
102
RTVSPost2010Prop36
280
     0
102
RTVSPost2010PropOp36
 70
     1
102
RTVSPost2010Prop37
 90
       50
102
RTVSPost2010PropOp37
 70
     1
102
RTVSPost2010Prop38
140
0.0
102
RTVSPost2010PropOp38
 70
     1
102
RTVSPost2010Prop39
140
1.0
102
RTVSPost2010PropOp39
 70
     1
102
RTVSPost2010Prop40
 90
        0
102
RTVSPost2010PropOp40
 70
     1
102
RTVSPost2010Prop41ColorIndex
 90
       18
102
RTVSPost2010Prop41ColorRGB
 90
        0
102
RTVSPost2010PropOp41
 70
     1
102
RTVSPost2010Prop42
 90
       50
102
RTVSPost2010PropOp42
 70
     1
102
RTVSPost2010Prop43
 90
        3
102
RTVSPost2010PropOp43
 70
     1
102
RTVSPost2010Prop44ColorIndex
 90
        5
102
RTVSPost2010Prop44ColorRGB
 90
      255
102
RTVSPost2010PropOp44
 70
     1
102
RTVSPost2010Prop45
280
     0
102
RTVSPost2010PropOp45
 70
     1
102
RTVSPost2010Prop46
 90
       50
102
RTVSPost2010PropOp46
 70
     1
102
RTVSPost2010Prop47
 90
       50
102
RTVSPost2010PropOp47
 70
     1
102
RTVSPost2010Prop48
 90
       50
102
RTVSPost2010PropOp48
 70
     1
102
RTVSPost2010Prop49
280
     0
102
RTVSPost2010PropOp49
 70
     1
102
RTVSPost2010Prop50
 90
       50
102
RTVSPost2010PropOp50
 70
     1
102
RTVSPost2010Prop51ColorIndex
 90
      256
102
RTVSPost2010Prop51ColorRGB
 90
-16777216
102
RTVSPost2010PropOp51
 70
     0
102
RTVSPost2010Prop52
140
1.0
102
RTVSPost2010PropOp52
 70
     0
102
RTVSPost2010Prop53
 90
        2
102
RTVSPost2010PropOp53
 70
     1
102
RTVSPost2010Prop54
  1
strokes_ogs.tif
102
RTVSPost2010PropOp54
 70
     1
102
RTVSPost2010Prop55
280
     0
102
RTVSPost2010PropOp55
 70
     1
102
RTVSPost2010Prop56
140
1.0
102
RTVSPost2010PropOp56
 70
     1
102
RTVSPost2010Prop57
140
1.0
102
RTVSPost2010PropOp57
 70
     1
102
RTVSPropertyOp0
 70
     1
102
RTVSPropertyOp1
 70
     1
102
RTVSPropertyOp2
 70
     1
102
RTVSPropertyOp3
 70
     1
102
RTVSPropertyOp4
 70
     1
102
RTVSPropertyOp5
 70
     1
102
RTVSPropertyOp6
 70
     1
102
RTVSPropertyOp7
 70
     1
102
RTVSPropertyOp8
 70
     1
102
RTVSPropertyOp9
 70
     1
102
RTVSPropertyOp10
 70
     1
102
RTVSPropertyOp11
 70
     1
102
RTVSPropertyOp12
 70
     1
102
RTVSPropertyOp13
 70
     1
102
RTVSPropertyOp14
 70
     1
102
RTVSPropertyOp15
 70
     1
102
RTVSPropertyOp16
 70
     1
102
RTVSPropertyOp17
 70
     1
102
RTVSPropertyOp18
 70
     1
102
RTVSPropertyOp19
 70
     1
102
RTVSPropertyOp20
 70
     1
102
RTVSPropertyOp21
 70
     1
102
RTVSPropertyOp22
 70
     1
102
RTVSPropertyOp23
 70
     1
102
RTVSPropertyOp24
 70
     1
102
RTVSPropertyOp25
 70
     1
102
RTVSPropertyOp26
 70
     1
102
RTVSPropertyOp27
 70
     1
102
RTVSPropertyOp28
 70
     1
102
RTVSPropertyOp29
 70
     1
102
RTVSPropertyOp30
 70
     1
102
RTVSPropertyOp31
 70
     1
102
RTVSPropertyOp32
 70
     1
102
RTVSPropertyOp33
 70
     1
102
RTVSPropertyOp34
 70
     1
102
RTVSPropertyOp35
 70
     1
102
RTVSPropertyOp36
 70
     1
102
RTVSPropertyOp37
 70
     1
102
RTVSPropertyOp38
 70
     1
102
RTVSPropertyOp39
 70
     1
102
RTVSPropertyOp40
 70
     1
102
RTVSPropertyOp41
 70
     1
102
RTVSPropertyOp42
 70
     1
102
RTVSPropertyOp43
 70
     1
102
RTVSPropertyOp44
 70
     1
102
RTVSPropertyOp45
 70
     1
102
RTVSPropertyOp46
 70
     1
102
RTVSPropertyOp47
 70
     1
102
RTVSPropertyOp48
 70
     1
102
RTVSPropertyOp49
 70
     1
102
RTVSPropertyOp50
 70
     1
102
RTVSPropertyOp51
 70
     0
102
RTVSPropertyOp52
 70
     0
102
RTVSPropertyOp53
 70
     1
102
RTVSPropertyOp54
 70
     1
102
RTVSPropertyOp55
 70
     1
102
RTVSPropertyOp56
 70
     1
102
RTVSPropertyOp57
 70
     1
102
RTVSPropertyOp58
 70
     1
102
RTVSPropertyOp59
 70
     1
102
RTVSPropertyOp60
 70
     1
102
RTVSPropertyOp61
 70
     1
102
RTVSPropertyOp62
 70
     1
  0
XRECORD
  5
1BC6
102
{ACAD_REACTORS
330
1BC5
102
}
330
1BC5
100
AcDbXrecord
280
     1
102
RTVSPost2010Prop28
280
     0
102
RTVSPost2010PropOp28
 70
     1
102
RTVSPost2010Prop29
280
     1
102
RTVSPost2010PropOp29
 70
     1
102
RTVSPost2010Prop30
280
     1
102
RTVSPost2010PropOp30
 70
     1
102
RTVSPost2010Prop31
280
     0
102
RTVSPost2010PropOp31
 70
     1
102
RTVSPost2010Prop32
280
     0
102
RTVSPost2010PropOp32
 70
     1
102
RTVSPost2010Prop33
280
     0
102
RTVSPost2010PropOp33
 70
     1
102
RTVSPost2010Prop34
280
     0
102
RTVSPost2010PropOp34
 70
     1
102
RTVSPost2010Prop35
280
     0
102
RTVSPost2010PropOp35
 70
     1
102
RTVSPost2010Prop36
280
     0
102
RTVSPost2010PropOp36
 70
     1
102
RTVSPost2010Prop37
 90
       50
102
RTVSPost2010PropOp37
 70
     1
102
RTVSPost2010Prop38
140
0.0
102
RTVSPost2010PropOp38
 70
     1
102
RTVSPost2010Prop39
140
1.0
102
RTVSPost2010PropOp39
 70
     1
102
RTVSPost2010Prop40
 90
        0
102
RTVSPost2010PropOp40
 70
     1
102
RTVSPost2010Prop41ColorIndex
 90
       18
102
RTVSPost2010Prop41ColorRGB
 90
        0
102
RTVSPost2010PropOp41
 70
     1
102
RTVSPost2010Prop42
 90
       50
102
RTVSPost2010PropOp42
 70
     1
102
RTVSPost2010Prop43
 90
        3
102
RTVSPost2010PropOp43
 70
     1
102
RTVSPost2010Prop44ColorIndex
 90
        5
102
RTVSPost2010Prop44ColorRGB
 90
      255
102
RTVSPost2010PropOp44
 70
     1
102
RTVSPost2010Prop45
280
     0
102
RTVSPost2010PropOp45
 70
     1
102
RTVSPost2010Prop46
 90
       50
102
RTVSPost2010PropOp46
 70
     1
102
RTVSPost2010Prop47
 90
       50
102
RTVSPost2010PropOp47
 70
     1
102
RTVSPost2010Prop48
 90
       50
102
RTVSPost2010PropOp48
 70
     1
102
RTVSPost2010Prop49
280
     0
102
RTVSPost2010PropOp49
 70
     1
102
RTVSPost2010Prop50
 90
       50
102
RTVSPost2010PropOp50
 70
     1
102
RTVSPost2010Prop51ColorIndex
 90
      256
102
RTVSPost2010Prop51ColorRGB
 90
-16777216
102
RTVSPost2010PropOp51
 70
     0
102
RTVSPost2010Prop52
140
1.0
102
RTVSPost2010PropOp52
 70
     0
102
RTVSPost2010Prop53
 90
        2
102
RTVSPost2010PropOp53
 70
     1
102
RTVSPost2010Prop54
  1
strokes_ogs.tif
102
RTVSPost2010PropOp54
 70
     1
102
RTVSPost2010Prop55
280
     0
102
RTVSPost2010PropOp55
 70
     1
102
RTVSPost2010Prop56
140
1.0
102
RTVSPost2010PropOp56
 70
     1
102
RTVSPost2010Prop57
140
1.0
102
RTVSPost2010PropOp57
 70
     1
102
RTVSPropertyOp0
 70
     1
102
RTVSPropertyOp1
 70
     1
102
RTVSPropertyOp2
 70
     1
102
RTVSPropertyOp3
 70
     1
102
RTVSPropertyOp4
 70
     1
102
RTVSPropertyOp5
 70
     1
102
RTVSPropertyOp6
 70
     1
102
RTVSPropertyOp7
 70
     1
102
RTVSPropertyOp8
 70
     1
102
RTVSPropertyOp9
 70
     1
102
RTVSPropertyOp10
 70
     1
102
RTVSPropertyOp11
 70
     1
102
RTVSPropertyOp12
 70
     1
102
RTVSPropertyOp13
 70
     1
102
RTVSPropertyOp14
 70
     1
102
RTVSPropertyOp15
 70
     1
102
RTVSPropertyOp16
 70
     1
102
RTVSPropertyOp17
 70
     1
102
RTVSPropertyOp18
 70
     1
102
RTVSPropertyOp19
 70
     1
102
RTVSPropertyOp20
 70
     1
102
RTVSPropertyOp21
 70
     1
102
RTVSPropertyOp22
 70
     1
102
RTVSPropertyOp23
 70
     1
102
RTVSPropertyOp24
 70
     1
102
RTVSPropertyOp25
 70
     1
102
RTVSPropertyOp26
 70
     1
102
RTVSPropertyOp27
 70
     1
102
RTVSPropertyOp28
 70
     1
102
RTVSPropertyOp29
 70
     1
102
RTVSPropertyOp30
 70
     1
102
RTVSPropertyOp31
 70
     1
102
RTVSPropertyOp32
 70
     1
102
RTVSPropertyOp33
 70
     1
102
RTVSPropertyOp34
 70
     1
102
RTVSPropertyOp35
 70
     1
102
RTVSPropertyOp36
 70
     1
102
RTVSPropertyOp37
 70
     1
102
RTVSPropertyOp38
 70
     1
102
RTVSPropertyOp39
 70
     1
102
RTVSPropertyOp40
 70
     1
102
RTVSPropertyOp41
 70
     1
102
RTVSPropertyOp42
 70
     1
102
RTVSPropertyOp43
 70
     1
102
RTVSPropertyOp44
 70
     1
102
RTVSPropertyOp45
 70
     1
102
RTVSPropertyOp46
 70
     1
102
RTVSPropertyOp47
 70
     1
102
RTVSPropertyOp48
 70
     1
102
RTVSPropertyOp49
 70
     1
102
RTVSPropertyOp50
 70
     1
102
RTVSPropertyOp51
 70
     0
102
RTVSPropertyOp52
 70
     0
102
RTVSPropertyOp53
 70
     1
102
RTVSPropertyOp54
 70
     1
102
RTVSPropertyOp55
 70
     1
102
RTVSPropertyOp56
 70
     1
102
RTVSPropertyOp57
 70
     1
102
RTVSPropertyOp58
 70
     1
102
RTVSPropertyOp59
 70
     1
102
RTVSPropertyOp60
 70
     1
102
RTVSPropertyOp61
 70
     1
102
RTVSPropertyOp62
 70
     1
  0
XRECORD
  5
1BCE
102
{ACAD_REACTORS
330
1BCD
102
}
330
1BCD
100
AcDbXrecord
280
     1
102
RTVSPost2010Prop28
280
     0
102
RTVSPost2010PropOp28
 70
     1
102
RTVSPost2010Prop29
280
     1
102
RTVSPost2010PropOp29
 70
     1
102
RTVSPost2010Prop30
280
     1
102
RTVSPost2010PropOp30
 70
     1
102
RTVSPost2010Prop31
280
     0
102
RTVSPost2010PropOp31
 70
     1
102
RTVSPost2010Prop32
280
     0
102
RTVSPost2010PropOp32
 70
     1
102
RTVSPost2010Prop33
280
     0
102
RTVSPost2010PropOp33
 70
     1
102
RTVSPost2010Prop34
280
     0
102
RTVSPost2010PropOp34
 70
     1
102
RTVSPost2010Prop35
280
     0
102
RTVSPost2010PropOp35
 70
     1
102
RTVSPost2010Prop36
280
     0
102
RTVSPost2010PropOp36
 70
     1
102
RTVSPost2010Prop37
 90
       50
102
RTVSPost2010PropOp37
 70
     1
102
RTVSPost2010Prop38
140
0.0
102
RTVSPost2010PropOp38
 70
     1
102
RTVSPost2010Prop39
140
1.0
102
RTVSPost2010PropOp39
 70
     1
102
RTVSPost2010Prop40
 90
        0
102
RTVSPost2010PropOp40
 70
     1
102
RTVSPost2010Prop41ColorIndex
 90
       18
102
RTVSPost2010Prop41ColorRGB
 90
        0
102
RTVSPost2010PropOp41
 70
     1
102
RTVSPost2010Prop42
 90
       50
102
RTVSPost2010PropOp42
 70
     1
102
RTVSPost2010Prop43
 90
        3
102
RTVSPost2010PropOp43
 70
     1
102
RTVSPost2010Prop44ColorIndex
 90
        5
102
RTVSPost2010Prop44ColorRGB
 90
      255
102
RTVSPost2010PropOp44
 70
     1
102
RTVSPost2010Prop45
280
     0
102
RTVSPost2010PropOp45
 70
     1
102
RTVSPost2010Prop46
 90
       50
102
RTVSPost2010PropOp46
 70
     1
102
RTVSPost2010Prop47
 90
       50
102
RTVSPost2010PropOp47
 70
     1
102
RTVSPost2010Prop48
 90
       50
102
RTVSPost2010PropOp48
 70
     1
102
RTVSPost2010Prop49
280
     0
102
RTVSPost2010PropOp49
 70
     1
102
RTVSPost2010Prop50
 90
       50
102
RTVSPost2010PropOp50
 70
     1
102
RTVSPost2010Prop51ColorIndex
 90
      256
102
RTVSPost2010Prop51ColorRGB
 90
-16777216
102
RTVSPost2010PropOp51
 70
     0
102
RTVSPost2010Prop52
140
1.0
102
RTVSPost2010PropOp52
 70
     0
102
RTVSPost2010Prop53
 90
        2
102
RTVSPost2010PropOp53
 70
     1
102
RTVSPost2010Prop54
  1
strokes_ogs.tif
102
RTVSPost2010PropOp54
 70
     1
102
RTVSPost2010Prop55
280
     0
102
RTVSPost2010PropOp55
 70
     1
102
RTVSPost2010Prop56
140
1.0
102
RTVSPost2010PropOp56
 70
     1
102
RTVSPost2010Prop57
140
1.0
102
RTVSPost2010PropOp57
 70
     1
102
RTVSPropertyOp0
 70
     1
102
RTVSPropertyOp1
 70
     1
102
RTVSPropertyOp2
 70
     1
102
RTVSPropertyOp3
 70
     1
102
RTVSPropertyOp4
 70
     1
102
RTVSPropertyOp5
 70
     1
102
RTVSPropertyOp6
 70
     1
102
RTVSPropertyOp7
 70
     1
102
RTVSPropertyOp8
 70
     1
102
RTVSPropertyOp9
 70
     1
102
RTVSPropertyOp10
 70
     1
102
RTVSPropertyOp11
 70
     1
102
RTVSPropertyOp12
 70
     1
102
RTVSPropertyOp13
 70
     1
102
RTVSPropertyOp14
 70
     1
102
RTVSPropertyOp15
 70
     1
102
RTVSPropertyOp16
 70
     1
102
RTVSPropertyOp17
 70
     1
102
RTVSPropertyOp18
 70
     1
102
RTVSPropertyOp19
 70
     1
102
RTVSPropertyOp20
 70
     1
102
RTVSPropertyOp21
 70
     1
102
RTVSPropertyOp22
 70
     1
102
RTVSPropertyOp23
 70
     1
102
RTVSPropertyOp24
 70
     1
102
RTVSPropertyOp25
 70
     1
102
RTVSPropertyOp26
 70
     1
102
RTVSPropertyOp27
 70
     1
102
RTVSPropertyOp28
 70
     1
102
RTVSPropertyOp29
 70
     1
102
RTVSPropertyOp30
 70
     1
102
RTVSPropertyOp31
 70
     1
102
RTVSPropertyOp32
 70
     1
102
RTVSPropertyOp33
 70
     1
102
RTVSPropertyOp34
 70
     1
102
RTVSPropertyOp35
 70
     1
102
RTVSPropertyOp36
 70
     1
102
RTVSPropertyOp37
 70
     1
102
RTVSPropertyOp38
 70
     1
102
RTVSPropertyOp39
 70
     1
102
RTVSPropertyOp40
 70
     1
102
RTVSPropertyOp41
 70
     1
102
RTVSPropertyOp42
 70
     1
102
RTVSPropertyOp43
 70
     1
102
RTVSPropertyOp44
 70
     1
102
RTVSPropertyOp45
 70
     1
102
RTVSPropertyOp46
 70
     1
102
RTVSPropertyOp47
 70
     1
102
RTVSPropertyOp48
 70
     1
102
RTVSPropertyOp49
 70
     1
102
RTVSPropertyOp50
 70
     1
102
RTVSPropertyOp51
 70
     0
102
RTVSPropertyOp52
 70
     0
102
RTVSPropertyOp53
 70
     1
102
RTVSPropertyOp54
 70
     1
102
RTVSPropertyOp55
 70
     1
102
RTVSPropertyOp56
 70
     1
102
RTVSPropertyOp57
 70
     1
102
RTVSPropertyOp58
 70
     1
102
RTVSPropertyOp59
 70
     1
102
RTVSPropertyOp60
 70
     1
102
RTVSPropertyOp61
 70
     1
102
RTVSPropertyOp62
 70
     1
  0
XRECORD
  5
1BC0
102
{ACAD_REACTORS
330
1BBF
102
}
330
1BBF
100
AcDbXrecord
280
     1
102
RTVSPost2010Prop28
280
     0
102
RTVSPost2010PropOp28
 70
     1
102
RTVSPost2010Prop29
280
     1
102
RTVSPost2010PropOp29
 70
     1
102
RTVSPost2010Prop30
280
     1
102
RTVSPost2010PropOp30
 70
     1
102
RTVSPost2010Prop31
280
     0
102
RTVSPost2010PropOp31
 70
     1
102
RTVSPost2010Prop32
280
     0
102
RTVSPost2010PropOp32
 70
     1
102
RTVSPost2010Prop33
280
     0
102
RTVSPost2010PropOp33
 70
     1
102
RTVSPost2010Prop34
280
     0
102
RTVSPost2010PropOp34
 70
     1
102
RTVSPost2010Prop35
280
     0
102
RTVSPost2010PropOp35
 70
     1
102
RTVSPost2010Prop36
280
     0
102
RTVSPost2010PropOp36
 70
     1
102
RTVSPost2010Prop37
 90
       50
102
RTVSPost2010PropOp37
 70
     1
102
RTVSPost2010Prop38
140
0.0
102
RTVSPost2010PropOp38
 70
     1
102
RTVSPost2010Prop39
140
1.0
102
RTVSPost2010PropOp39
 70
     1
102
RTVSPost2010Prop40
 90
        0
102
RTVSPost2010PropOp40
 70
     1
102
RTVSPost2010Prop41ColorIndex
 90
       18
102
RTVSPost2010Prop41ColorRGB
 90
        0
102
RTVSPost2010PropOp41
 70
     1
102
RTVSPost2010Prop42
 90
       50
102
RTVSPost2010PropOp42
 70
     1
102
RTVSPost2010Prop43
 90
        3
102
RTVSPost2010PropOp43
 70
     1
102
RTVSPost2010Prop44ColorIndex
 90
        5
102
RTVSPost2010Prop44ColorRGB
 90
      255
102
RTVSPost2010PropOp44
 70
     1
102
RTVSPost2010Prop45
280
     0
102
RTVSPost2010PropOp45
 70
     1
102
RTVSPost2010Prop46
 90
       50
102
RTVSPost2010PropOp46
 70
     1
102
RTVSPost2010Prop47
 90
       50
102
RTVSPost2010PropOp47
 70
     1
102
RTVSPost2010Prop48
 90
       50
102
RTVSPost2010PropOp48
 70
     1
102
RTVSPost2010Prop49
280
     0
102
RTVSPost2010PropOp49
 70
     1
102
RTVSPost2010Prop50
 90
       50
102
RTVSPost2010PropOp50
 70
     1
102
RTVSPost2010Prop51ColorIndex
 90
      256
102
RTVSPost2010Prop51ColorRGB
 90
-16777216
102
RTVSPost2010PropOp51
 70
     0
102
RTVSPost2010Prop52
140
1.0
102
RTVSPost2010PropOp52
 70
     0
102
RTVSPost2010Prop53
 90
        2
102
RTVSPost2010PropOp53
 70
     1
102
RTVSPost2010Prop54
  1
strokes_ogs.tif
102
RTVSPost2010PropOp54
 70
     1
102
RTVSPost2010Prop55
280
     0
102
RTVSPost2010PropOp55
 70
     1
102
RTVSPost2010Prop56
140
1.0
102
RTVSPost2010PropOp56
 70
     1
102
RTVSPost2010Prop57
140
1.0
102
RTVSPost2010PropOp57
 70
     1
102
RTVSPropertyOp0
 70
     1
102
RTVSPropertyOp1
 70
     1
102
RTVSPropertyOp2
 70
     1
102
RTVSPropertyOp3
 70
     1
102
RTVSPropertyOp4
 70
     1
102
RTVSPropertyOp5
 70
     1
102
RTVSPropertyOp6
 70
     1
102
RTVSPropertyOp7
 70
     1
102
RTVSPropertyOp8
 70
     1
102
RTVSPropertyOp9
 70
     1
102
RTVSPropertyOp10
 70
     1
102
RTVSPropertyOp11
 70
     1
102
RTVSPropertyOp12
 70
     1
102
RTVSPropertyOp13
 70
     1
102
RTVSPropertyOp14
 70
     1
102
RTVSPropertyOp15
 70
     1
102
RTVSPropertyOp16
 70
     1
102
RTVSPropertyOp17
 70
     1
102
RTVSPropertyOp18
 70
     1
102
RTVSPropertyOp19
 70
     1
102
RTVSPropertyOp20
 70
     1
102
RTVSPropertyOp21
 70
     1
102
RTVSPropertyOp22
 70
     1
102
RTVSPropertyOp23
 70
     1
102
RTVSPropertyOp24
 70
     1
102
RTVSPropertyOp25
 70
     1
102
RTVSPropertyOp26
 70
     1
102
RTVSPropertyOp27
 70
     1
102
RTVSPropertyOp28
 70
     1
102
RTVSPropertyOp29
 70
     1
102
RTVSPropertyOp30
 70
     1
102
RTVSPropertyOp31
 70
     1
102
RTVSPropertyOp32
 70
     1
102
RTVSPropertyOp33
 70
     1
102
RTVSPropertyOp34
 70
     1
102
RTVSPropertyOp35
 70
     1
102
RTVSPropertyOp36
 70
     1
102
RTVSPropertyOp37
 70
     1
102
RTVSPropertyOp38
 70
     1
102
RTVSPropertyOp39
 70
     1
102
RTVSPropertyOp40
 70
     1
102
RTVSPropertyOp41
 70
     1
102
RTVSPropertyOp42
 70
     1
102
RTVSPropertyOp43
 70
     1
102
RTVSPropertyOp44
 70
     1
102
RTVSPropertyOp45
 70
     1
102
RTVSPropertyOp46
 70
     1
102
RTVSPropertyOp47
 70
     1
102
RTVSPropertyOp48
 70
     1
102
RTVSPropertyOp49
 70
     1
102
RTVSPropertyOp50
 70
     1
102
RTVSPropertyOp51
 70
     0
102
RTVSPropertyOp52
 70
     0
102
RTVSPropertyOp53
 70
     1
102
RTVSPropertyOp54
 70
     1
102
RTVSPropertyOp55
 70
     1
102
RTVSPropertyOp56
 70
     1
102
RTVSPropertyOp57
 70
     1
102
RTVSPropertyOp58
 70
     1
102
RTVSPropertyOp59
 70
     1
102
RTVSPropertyOp60
 70
     1
102
RTVSPropertyOp61
 70
     1
102
RTVSPropertyOp62
 70
     1
  0
XRECORD
  5
1BC4
102
{ACAD_REACTORS
330
1BC3
102
}
330
1BC3
100
AcDbXrecord
280
     1
102
RTVSPost2010Prop28
280
     0
102
RTVSPost2010PropOp28
 70
     1
102
RTVSPost2010Prop29
280
     1
102
RTVSPost2010PropOp29
 70
     1
102
RTVSPost2010Prop30
280
     1
102
RTVSPost2010PropOp30
 70
     1
102
RTVSPost2010Prop31
280
     0
102
RTVSPost2010PropOp31
 70
     1
102
RTVSPost2010Prop32
280
     0
102
RTVSPost2010PropOp32
 70
     1
102
RTVSPost2010Prop33
280
     0
102
RTVSPost2010PropOp33
 70
     1
102
RTVSPost2010Prop34
280
     0
102
RTVSPost2010PropOp34
 70
     1
102
RTVSPost2010Prop35
280
     0
102
RTVSPost2010PropOp35
 70
     1
102
RTVSPost2010Prop36
280
     0
102
RTVSPost2010PropOp36
 70
     1
102
RTVSPost2010Prop37
 90
       50
102
RTVSPost2010PropOp37
 70
     1
102
RTVSPost2010Prop38
140
0.0
102
RTVSPost2010PropOp38
 70
     1
102
RTVSPost2010Prop39
140
1.0
102
RTVSPost2010PropOp39
 70
     1
102
RTVSPost2010Prop40
 90
        0
102
RTVSPost2010PropOp40
 70
     1
102
RTVSPost2010Prop41ColorIndex
 90
       18
102
RTVSPost2010Prop41ColorRGB
 90
        0
102
RTVSPost2010PropOp41
 70
     1
102
RTVSPost2010Prop42
 90
       50
102
RTVSPost2010PropOp42
 70
     1
102
RTVSPost2010Prop43
 90
        3
102
RTVSPost2010PropOp43
 70
     1
102
RTVSPost2010Prop44ColorIndex
 90
        5
102
RTVSPost2010Prop44ColorRGB
 90
      255
102
RTVSPost2010PropOp44
 70
     1
102
RTVSPost2010Prop45
280
     0
102
RTVSPost2010PropOp45
 70
     1
102
RTVSPost2010Prop46
 90
       50
102
RTVSPost2010PropOp46
 70
     1
102
RTVSPost2010Prop47
 90
       50
102
RTVSPost2010PropOp47
 70
     1
102
RTVSPost2010Prop48
 90
       50
102
RTVSPost2010PropOp48
 70
     1
102
RTVSPost2010Prop49
280
     0
102
RTVSPost2010PropOp49
 70
     1
102
RTVSPost2010Prop50
 90
       50
102
RTVSPost2010PropOp50
 70
     1
102
RTVSPost2010Prop51ColorIndex
 90
      256
102
RTVSPost2010Prop51ColorRGB
 90
-16777216
102
RTVSPost2010PropOp51
 70
     0
102
RTVSPost2010Prop52
140
1.0
102
RTVSPost2010PropOp52
 70
     0
102
RTVSPost2010Prop53
 90
        2
102
RTVSPost2010PropOp53
 70
     1
102
RTVSPost2010Prop54
  1
strokes_ogs.tif
102
RTVSPost2010PropOp54
 70
     1
102
RTVSPost2010Prop55
280
     0
102
RTVSPost2010PropOp55
 70
     1
102
RTVSPost2010Prop56
140
1.0
102
RTVSPost2010PropOp56
 70
     1
102
RTVSPost2010Prop57
140
1.0
102
RTVSPost2010PropOp57
 70
     1
102
RTVSPropertyOp0
 70
     1
102
RTVSPropertyOp1
 70
     1
102
RTVSPropertyOp2
 70
     1
102
RTVSPropertyOp3
 70
     1
102
RTVSPropertyOp4
 70
     1
102
RTVSPropertyOp5
 70
     1
102
RTVSPropertyOp6
 70
     1
102
RTVSPropertyOp7
 70
     1
102
RTVSPropertyOp8
 70
     1
102
RTVSPropertyOp9
 70
     1
102
RTVSPropertyOp10
 70
     1
102
RTVSPropertyOp11
 70
     1
102
RTVSPropertyOp12
 70
     1
102
RTVSPropertyOp13
 70
     1
102
RTVSPropertyOp14
 70
     1
102
RTVSPropertyOp15
 70
     1
102
RTVSPropertyOp16
 70
     1
102
RTVSPropertyOp17
 70
     1
102
RTVSPropertyOp18
 70
     1
102
RTVSPropertyOp19
 70
     1
102
RTVSPropertyOp20
 70
     1
102
RTVSPropertyOp21
 70
     1
102
RTVSPropertyOp22
 70
     1
102
RTVSPropertyOp23
 70
     1
102
RTVSPropertyOp24
 70
     1
102
RTVSPropertyOp25
 70
     1
102
RTVSPropertyOp26
 70
     1
102
RTVSPropertyOp27
 70
     1
102
RTVSPropertyOp28
 70
     1
102
RTVSPropertyOp29
 70
     1
102
RTVSPropertyOp30
 70
     1
102
RTVSPropertyOp31
 70
     1
102
RTVSPropertyOp32
 70
     1
102
RTVSPropertyOp33
 70
     1
102
RTVSPropertyOp34
 70
     1
102
RTVSPropertyOp35
 70
     1
102
RTVSPropertyOp36
 70
     1
102
RTVSPropertyOp37
 70
     1
102
RTVSPropertyOp38
 70
     1
102
RTVSPropertyOp39
 70
     1
102
RTVSPropertyOp40
 70
     1
102
RTVSPropertyOp41
 70
     1
102
RTVSPropertyOp42
 70
     1
102
RTVSPropertyOp43
 70
     1
102
RTVSPropertyOp44
 70
     1
102
RTVSPropertyOp45
 70
     1
102
RTVSPropertyOp46
 70
     1
102
RTVSPropertyOp47
 70
     1
102
RTVSPropertyOp48
 70
     1
102
RTVSPropertyOp49
 70
     1
102
RTVSPropertyOp50
 70
     1
102
RTVSPropertyOp51
 70
     0
102
RTVSPropertyOp52
 70
     0
102
RTVSPropertyOp53
 70
     1
102
RTVSPropertyOp54
 70
     1
102
RTVSPropertyOp55
 70
     1
102
RTVSPropertyOp56
 70
     1
102
RTVSPropertyOp57
 70
     1
102
RTVSPropertyOp58
 70
     1
102
RTVSPropertyOp59
 70
     1
102
RTVSPropertyOp60
 70
     1
102
RTVSPropertyOp61
 70
     1
102
RTVSPropertyOp62
 70
     1
  0
XRECORD
  5
1BDE
102
{ACAD_REACTORS
330
1BDD
102
}
330
1BDD
100
AcDbXrecord
280
     1
102
RTVSPost2010Prop28
280
     0
102
RTVSPost2010PropOp28
 70
     1
102
RTVSPost2010Prop29
280
     1
102
RTVSPost2010PropOp29
 70
     1
102
RTVSPost2010Prop30
280
     1
102
RTVSPost2010PropOp30
 70
     1
102
RTVSPost2010Prop31
280
     0
102
RTVSPost2010PropOp31
 70
     1
102
RTVSPost2010Prop32
280
     0
102
RTVSPost2010PropOp32
 70
     1
102
RTVSPost2010Prop33
280
     0
102
RTVSPost2010PropOp33
 70
     1
102
RTVSPost2010Prop34
280
     0
102
RTVSPost2010PropOp34
 70
     1
102
RTVSPost2010Prop35
280
     0
102
RTVSPost2010PropOp35
 70
     1
102
RTVSPost2010Prop36
280
     0
102
RTVSPost2010PropOp36
 70
     1
102
RTVSPost2010Prop37
 90
       50
102
RTVSPost2010PropOp37
 70
     0
102
RTVSPost2010Prop38
140
0.0
102
RTVSPost2010PropOp38
 70
     0
102
RTVSPost2010Prop39
140
1.0
102
RTVSPost2010PropOp39
 70
     0
102
RTVSPost2010Prop40
 90
        0
102
RTVSPost2010PropOp40
 70
     0
102
RTVSPost2010Prop41ColorIndex
 90
       18
102
RTVSPost2010Prop41ColorRGB
 90
        0
102
RTVSPost2010PropOp41
 70
     0
102
RTVSPost2010Prop42
 90
       50
102
RTVSPost2010PropOp42
 70
     0
102
RTVSPost2010Prop43
 90
        3
102
RTVSPost2010PropOp43
 70
     0
102
RTVSPost2010Prop44ColorIndex
 90
        5
102
RTVSPost2010Prop44ColorRGB
 90
      255
102
RTVSPost2010PropOp44
 70
     0
102
RTVSPost2010Prop45
280
     0
102
RTVSPost2010PropOp45
 70
     1
102
RTVSPost2010Prop46
 90
       50
102
RTVSPost2010PropOp46
 70
     0
102
RTVSPost2010Prop47
 90
       50
102
RTVSPost2010PropOp47
 70
     0
102
RTVSPost2010Prop48
 90
       50
102
RTVSPost2010PropOp48
 70
     0
102
RTVSPost2010Prop49
280
     0
102
RTVSPost2010PropOp49
 70
     1
102
RTVSPost2010Prop50
 90
       50
102
RTVSPost2010PropOp50
 70
     0
102
RTVSPost2010Prop51ColorIndex
 90
      256
102
RTVSPost2010Prop51ColorRGB
 90
-16777216
102
RTVSPost2010PropOp51
 70
     0
102
RTVSPost2010Prop52
140
1.0
102
RTVSPost2010PropOp52
 70
     0
102
RTVSPost2010Prop53
 90
        2
102
RTVSPost2010PropOp53
 70
     0
102
RTVSPost2010Prop54
  1
strokes_ogs.tif
102
RTVSPost2010PropOp54
 70
     0
102
RTVSPost2010Prop55
280
     0
102
RTVSPost2010PropOp55
 70
     1
102
RTVSPost2010Prop56
140
1.0
102
RTVSPost2010PropOp56
 70
     0
102
RTVSPost2010Prop57
140
1.0
102
RTVSPost2010PropOp57
 70
     0
102
RTVSPropertyOp0
 70
     0
102
RTVSPropertyOp1
 70
     0
102
RTVSPropertyOp2
 70
     0
102
RTVSPropertyOp3
 70
     0
102
RTVSPropertyOp4
 70
     0
102
RTVSPropertyOp5
 70
     0
102
RTVSPropertyOp6
 70
     0
102
RTVSPropertyOp7
 70
     0
102
RTVSPropertyOp8
 70
     0
102
RTVSPropertyOp9
 70
     0
102
RTVSPropertyOp10
 70
     0
102
RTVSPropertyOp11
 70
     0
102
RTVSPropertyOp12
 70
     0
102
RTVSPropertyOp13
 70
     0
102
RTVSPropertyOp14
 70
     2
102
RTVSPropertyOp15
 70
     0
102
RTVSPropertyOp16
 70
     0
102
RTVSPropertyOp17
 70
     0
102
RTVSPropertyOp18
 70
     0
102
RTVSPropertyOp19
 70
     0
102
RTVSPropertyOp20
 70
     0
102
RTVSPropertyOp21
 70
     0
102
RTVSPropertyOp22
 70
     0
102
RTVSPropertyOp23
 70
     0
102
RTVSPropertyOp24
 70
     0
102
RTVSPropertyOp25
 70
     0
102
RTVSPropertyOp26
 70
     0
102
RTVSPropertyOp27
 70
     0
102
RTVSPropertyOp28
 70
     1
102
RTVSPropertyOp29
 70
     1
102
RTVSPropertyOp30
 70
     1
102
RTVSPropertyOp31
 70
     1
102
RTVSPropertyOp32
 70
     1
102
RTVSPropertyOp33
 70
     1
102
RTVSPropertyOp34
 70
     1
102
RTVSPropertyOp35
 70
     1
102
RTVSPropertyOp36
 70
     1
102
RTVSPropertyOp37
 70
     0
102
RTVSPropertyOp38
 70
     0
102
RTVSPropertyOp39
 70
     0
102
RTVSPropertyOp40
 70
     0
102
RTVSPropertyOp41
 70
     0
102
RTVSPropertyOp42
 70
     0
102
RTVSPropertyOp43
 70
     0
102
RTVSPropertyOp44
 70
     0
102
RTVSPropertyOp45
 70
     1
102
RTVSPropertyOp46
 70
     0
102
RTVSPropertyOp47
 70
     0
102
RTVSPropertyOp48
 70
     0
102
RTVSPropertyOp49
 70
     1
102
RTVSPropertyOp50
 70
     0
102
RTVSPropertyOp51
 70
     0
102
RTVSPropertyOp52
 70
     0
102
RTVSPropertyOp53
 70
     0
102
RTVSPropertyOp54
 70
     0
102
RTVSPropertyOp55
 70
     1
102
RTVSPropertyOp56
 70
     0
102
RTVSPropertyOp57
 70
     0
102
RTVSPropertyOp58
 70
     0
102
RTVSPropertyOp59
 70
     0
102
RTVSPropertyOp60
 70
     0
102
RTVSPropertyOp61
 70
     0
102
RTVSPropertyOp62
 70
     0
  0
XRECORD
  5
1BCC
102
{ACAD_REACTORS
330
1BCB
102
}
330
1BCB
100
AcDbXrecord
280
     1
102
RTVSPost2010Prop28
280
     0
102
RTVSPost2010PropOp28
 70
     1
102
RTVSPost2010Prop29
280
     1
102
RTVSPost2010PropOp29
 70
     1
102
RTVSPost2010Prop30
280
     1
102
RTVSPost2010PropOp30
 70
     1
102
RTVSPost2010Prop31
280
     0
102
RTVSPost2010PropOp31
 70
     1
102
RTVSPost2010Prop32
280
     0
102
RTVSPost2010PropOp32
 70
     1
102
RTVSPost2010Prop33
280
     0
102
RTVSPost2010PropOp33
 70
     1
102
RTVSPost2010Prop34
280
     0
102
RTVSPost2010PropOp34
 70
     1
102
RTVSPost2010Prop35
280
     0
102
RTVSPost2010PropOp35
 70
     1
102
RTVSPost2010Prop36
280
     0
102
RTVSPost2010PropOp36
 70
     1
102
RTVSPost2010Prop37
 90
       50
102
RTVSPost2010PropOp37
 70
     1
102
RTVSPost2010Prop38
140
0.0
102
RTVSPost2010PropOp38
 70
     1
102
RTVSPost2010Prop39
140
1.0
102
RTVSPost2010PropOp39
 70
     1
102
RTVSPost2010Prop40
 90
        0
102
RTVSPost2010PropOp40
 70
     1
102
RTVSPost2010Prop41ColorIndex
 90
       18
102
RTVSPost2010Prop41ColorRGB
 90
        0
102
RTVSPost2010PropOp41
 70
     1
102
RTVSPost2010Prop42
 90
       50
102
RTVSPost2010PropOp42
 70
     1
102
RTVSPost2010Prop43
 90
        3
102
RTVSPost2010PropOp43
 70
     1
102
RTVSPost2010Prop44ColorIndex
 90
        5
102
RTVSPost2010Prop44ColorRGB
 90
      255
102
RTVSPost2010PropOp44
 70
     1
102
RTVSPost2010Prop45
280
     0
102
RTVSPost2010PropOp45
 70
     1
102
RTVSPost2010Prop46
 90
       50
102
RTVSPost2010PropOp46
 70
     1
102
RTVSPost2010Prop47
 90
       50
102
RTVSPost2010PropOp47
 70
     1
102
RTVSPost2010Prop48
 90
       50
102
RTVSPost2010PropOp48
 70
     1
102
RTVSPost2010Prop49
280
     0
102
RTVSPost2010PropOp49
 70
     1
102
RTVSPost2010Prop50
 90
       50
102
RTVSPost2010PropOp50
 70
     1
102
RTVSPost2010Prop51ColorIndex
 90
      256
102
RTVSPost2010Prop51ColorRGB
 90
-16777216
102
RTVSPost2010PropOp51
 70
     0
102
RTVSPost2010Prop52
140
1.0
102
RTVSPost2010PropOp52
 70
     0
102
RTVSPost2010Prop53
 90
        2
102
RTVSPost2010PropOp53
 70
     1
102
RTVSPost2010Prop54
  1
strokes_ogs.tif
102
RTVSPost2010PropOp54
 70
     1
102
RTVSPost2010Prop55
280
     0
102
RTVSPost2010PropOp55
 70
     1
102
RTVSPost2010Prop56
140
1.0
102
RTVSPost2010PropOp56
 70
     1
102
RTVSPost2010Prop57
140
1.0
102
RTVSPost2010PropOp57
 70
     1
102
RTVSPropertyOp0
 70
     1
102
RTVSPropertyOp1
 70
     1
102
RTVSPropertyOp2
 70
     1
102
RTVSPropertyOp3
 70
     1
102
RTVSPropertyOp4
 70
     1
102
RTVSPropertyOp5
 70
     1
102
RTVSPropertyOp6
 70
     1
102
RTVSPropertyOp7
 70
     1
102
RTVSPropertyOp8
 70
     1
102
RTVSPropertyOp9
 70
     1
102
RTVSPropertyOp10
 70
     1
102
RTVSPropertyOp11
 70
     1
102
RTVSPropertyOp12
 70
     1
102
RTVSPropertyOp13
 70
     1
102
RTVSPropertyOp14
 70
     1
102
RTVSPropertyOp15
 70
     1
102
RTVSPropertyOp16
 70
     1
102
RTVSPropertyOp17
 70
     1
102
RTVSPropertyOp18
 70
     1
102
RTVSPropertyOp19
 70
     1
102
RTVSPropertyOp20
 70
     1
102
RTVSPropertyOp21
 70
     1
102
RTVSPropertyOp22
 70
     1
102
RTVSPropertyOp23
 70
     1
102
RTVSPropertyOp24
 70
     1
102
RTVSPropertyOp25
 70
     1
102
RTVSPropertyOp26
 70
     1
102
RTVSPropertyOp27
 70
     1
102
RTVSPropertyOp28
 70
     1
102
RTVSPropertyOp29
 70
     1
102
RTVSPropertyOp30
 70
     1
102
RTVSPropertyOp31
 70
     1
102
RTVSPropertyOp32
 70
     1
102
RTVSPropertyOp33
 70
     1
102
RTVSPropertyOp34
 70
     1
102
RTVSPropertyOp35
 70
     1
102
RTVSPropertyOp36
 70
     1
102
RTVSPropertyOp37
 70
     1
102
RTVSPropertyOp38
 70
     1
102
RTVSPropertyOp39
 70
     1
102
RTVSPropertyOp40
 70
     1
102
RTVSPropertyOp41
 70
     1
102
RTVSPropertyOp42
 70
     1
102
RTVSPropertyOp43
 70
     1
102
RTVSPropertyOp44
 70
     1
102
RTVSPropertyOp45
 70
     1
102
RTVSPropertyOp46
 70
     1
102
RTVSPropertyOp47
 70
     1
102
RTVSPropertyOp48
 70
     1
102
RTVSPropertyOp49
 70
     1
102
RTVSPropertyOp50
 70
     1
102
RTVSPropertyOp51
 70
     0
102
RTVSPropertyOp52
 70
     0
102
RTVSPropertyOp53
 70
     1
102
RTVSPropertyOp54
 70
     1
102
RTVSPropertyOp55
 70
     1
102
RTVSPropertyOp56
 70
     1
102
RTVSPropertyOp57
 70
     1
102
RTVSPropertyOp58
 70
     1
102
RTVSPropertyOp59
 70
     1
102
RTVSPropertyOp60
 70
     1
102
RTVSPropertyOp61
 70
     1
102
RTVSPropertyOp62
 70
     1
  0
XRECORD
  5
1BB0
102
{ACAD_REACTORS
330
1BAF
102
}
330
1BAF
100
AcDbXrecord
280
     1
102
RTVSPost2010Prop28
280
     0
102
RTVSPost2010PropOp28
 70
     1
102
RTVSPost2010Prop29
280
     1
102
RTVSPost2010PropOp29
 70
     1
102
RTVSPost2010Prop30
280
     1
102
RTVSPost2010PropOp30
 70
     1
102
RTVSPost2010Prop31
280
     0
102
RTVSPost2010PropOp31
 70
     1
102
RTVSPost2010Prop32
280
     0
102
RTVSPost2010PropOp32
 70
     1
102
RTVSPost2010Prop33
280
     0
102
RTVSPost2010PropOp33
 70
     1
102
RTVSPost2010Prop34
280
     0
102
RTVSPost2010PropOp34
 70
     1
102
RTVSPost2010Prop35
280
     0
102
RTVSPost2010PropOp35
 70
     1
102
RTVSPost2010Prop36
280
     0
102
RTVSPost2010PropOp36
 70
     1
102
RTVSPost2010Prop37
 90
       50
102
RTVSPost2010PropOp37
 70
     1
102
RTVSPost2010Prop38
140
0.0
102
RTVSPost2010PropOp38
 70
     1
102
RTVSPost2010Prop39
140
1.0
102
RTVSPost2010PropOp39
 70
     1
102
RTVSPost2010Prop40
 90
        0
102
RTVSPost2010PropOp40
 70
     1
102
RTVSPost2010Prop41ColorIndex
 90
       18
102
RTVSPost2010Prop41ColorRGB
 90
        0
102
RTVSPost2010PropOp41
 70
     1
102
RTVSPost2010Prop42
 90
       50
102
RTVSPost2010PropOp42
 70
     1
102
RTVSPost2010Prop43
 90
        3
102
RTVSPost2010PropOp43
 70
     1
102
RTVSPost2010Prop44ColorIndex
 90
        5
102
RTVSPost2010Prop44ColorRGB
 90
      255
102
RTVSPost2010PropOp44
 70
     1
102
RTVSPost2010Prop45
280
     0
102
RTVSPost2010PropOp45
 70
     1
102
RTVSPost2010Prop46
 90
       50
102
RTVSPost2010PropOp46
 70
     1
102
RTVSPost2010Prop47
 90
       50
102
RTVSPost2010PropOp47
 70
     1
102
RTVSPost2010Prop48
 90
       50
102
RTVSPost2010PropOp48
 70
     1
102
RTVSPost2010Prop49
280
     0
102
RTVSPost2010PropOp49
 70
     1
102
RTVSPost2010Prop50
 90
       50
102
RTVSPost2010PropOp50
 70
     1
102
RTVSPost2010Prop51ColorIndex
 90
      256
102
RTVSPost2010Prop51ColorRGB
 90
-16777216
102
RTVSPost2010PropOp51
 70
     0
102
RTVSPost2010Prop52
140
1.0
102
RTVSPost2010PropOp52
 70
     0
102
RTVSPost2010Prop53
 90
        2
102
RTVSPost2010PropOp53
 70
     1
102
RTVSPost2010Prop54
  1
strokes_ogs.tif
102
RTVSPost2010PropOp54
 70
     1
102
RTVSPost2010Prop55
280
     0
102
RTVSPost2010PropOp55
 70
     1
102
RTVSPost2010Prop56
140
1.0
102
RTVSPost2010PropOp56
 70
     1
102
RTVSPost2010Prop57
140
1.0
102
RTVSPost2010PropOp57
 70
     1
102
RTVSPropertyOp0
 70
     1
102
RTVSPropertyOp1
 70
     1
102
RTVSPropertyOp2
 70
     1
102
RTVSPropertyOp3
 70
     1
102
RTVSPropertyOp4
 70
     1
102
RTVSPropertyOp5
 70
     1
102
RTVSPropertyOp6
 70
     1
102
RTVSPropertyOp7
 70
     1
102
RTVSPropertyOp8
 70
     1
102
RTVSPropertyOp9
 70
     1
102
RTVSPropertyOp10
 70
     1
102
RTVSPropertyOp11
 70
     1
102
RTVSPropertyOp12
 70
     1
102
RTVSPropertyOp13
 70
     1
102
RTVSPropertyOp14
 70
     1
102
RTVSPropertyOp15
 70
     1
102
RTVSPropertyOp16
 70
     1
102
RTVSPropertyOp17
 70
     1
102
RTVSPropertyOp18
 70
     1
102
RTVSPropertyOp19
 70
     1
102
RTVSPropertyOp20
 70
     1
102
RTVSPropertyOp21
 70
     1
102
RTVSPropertyOp22
 70
     1
102
RTVSPropertyOp23
 70
     1
102
RTVSPropertyOp24
 70
     1
102
RTVSPropertyOp25
 70
     1
102
RTVSPropertyOp26
 70
     1
102
RTVSPropertyOp27
 70
     1
102
RTVSPropertyOp28
 70
     1
102
RTVSPropertyOp29
 70
     1
102
RTVSPropertyOp30
 70
     1
102
RTVSPropertyOp31
 70
     1
102
RTVSPropertyOp32
 70
     1
102
RTVSPropertyOp33
 70
     1
102
RTVSPropertyOp34
 70
     1
102
RTVSPropertyOp35
 70
     1
102
RTVSPropertyOp36
 70
     1
102
RTVSPropertyOp37
 70
     1
102
RTVSPropertyOp38
 70
     1
102
RTVSPropertyOp39
 70
     1
102
RTVSPropertyOp40
 70
     1
102
RTVSPropertyOp41
 70
     1
102
RTVSPropertyOp42
 70
     1
102
RTVSPropertyOp43
 70
     1
102
RTVSPropertyOp44
 70
     1
102
RTVSPropertyOp45
 70
     1
102
RTVSPropertyOp46
 70
     1
102
RTVSPropertyOp47
 70
     1
102
RTVSPropertyOp48
 70
     1
102
RTVSPropertyOp49
 70
     1
102
RTVSPropertyOp50
 70
     1
102
RTVSPropertyOp51
 70
     0
102
RTVSPropertyOp52
 70
     0
102
RTVSPropertyOp53
 70
     1
102
RTVSPropertyOp54
 70
     1
102
RTVSPropertyOp55
 70
     1
102
RTVSPropertyOp56
 70
     1
102
RTVSPropertyOp57
 70
     1
102
RTVSPropertyOp58
 70
     1
102
RTVSPropertyOp59
 70
     1
102
RTVSPropertyOp60
 70
     1
102
RTVSPropertyOp61
 70
     1
102
RTVSPropertyOp62
 70
     1
  0
XRECORD
  5
1BB2
102
{ACAD_REACTORS
330
1BB1
102
}
330
1BB1
100
AcDbXrecord
280
     1
102
RTVSPost2010Prop28
280
     0
102
RTVSPost2010PropOp28
 70
     1
102
RTVSPost2010Prop29
280
     1
102
RTVSPost2010PropOp29
 70
     1
102
RTVSPost2010Prop30
280
     1
102
RTVSPost2010PropOp30
 70
     1
102
RTVSPost2010Prop31
280
     0
102
RTVSPost2010PropOp31
 70
     1
102
RTVSPost2010Prop32
280
     0
102
RTVSPost2010PropOp32
 70
     1
102
RTVSPost2010Prop33
280
     0
102
RTVSPost2010PropOp33
 70
     1
102
RTVSPost2010Prop34
280
     0
102
RTVSPost2010PropOp34
 70
     1
102
RTVSPost2010Prop35
280
     0
102
RTVSPost2010PropOp35
 70
     1
102
RTVSPost2010Prop36
280
     0
102
RTVSPost2010PropOp36
 70
     1
102
RTVSPost2010Prop37
 90
       50
102
RTVSPost2010PropOp37
 70
     1
102
RTVSPost2010Prop38
140
0.0
102
RTVSPost2010PropOp38
 70
     1
102
RTVSPost2010Prop39
140
1.0
102
RTVSPost2010PropOp39
 70
     1
102
RTVSPost2010Prop40
 90
        0
102
RTVSPost2010PropOp40
 70
     1
102
RTVSPost2010Prop41ColorIndex
 90
       18
102
RTVSPost2010Prop41ColorRGB
 90
        0
102
RTVSPost2010PropOp41
 70
     1
102
RTVSPost2010Prop42
 90
       50
102
RTVSPost2010PropOp42
 70
     1
102
RTVSPost2010Prop43
 90
        3
102
RTVSPost2010PropOp43
 70
     1
102
RTVSPost2010Prop44ColorIndex
 90
        5
102
RTVSPost2010Prop44ColorRGB
 90
      255
102
RTVSPost2010PropOp44
 70
     1
102
RTVSPost2010Prop45
280
     0
102
RTVSPost2010PropOp45
 70
     1
102
RTVSPost2010Prop46
 90
       50
102
RTVSPost2010PropOp46
 70
     1
102
RTVSPost2010Prop47
 90
       50
102
RTVSPost2010PropOp47
 70
     1
102
RTVSPost2010Prop48
 90
       50
102
RTVSPost2010PropOp48
 70
     1
102
RTVSPost2010Prop49
280
     0
102
RTVSPost2010PropOp49
 70
     1
102
RTVSPost2010Prop50
 90
       50
102
RTVSPost2010PropOp50
 70
     1
102
RTVSPost2010Prop51ColorIndex
 90
      256
102
RTVSPost2010Prop51ColorRGB
 90
-16777216
102
RTVSPost2010PropOp51
 70
     0
102
RTVSPost2010Prop52
140
1.0
102
RTVSPost2010PropOp52
 70
     0
102
RTVSPost2010Prop53
 90
        2
102
RTVSPost2010PropOp53
 70
     1
102
RTVSPost2010Prop54
  1
strokes_ogs.tif
102
RTVSPost2010PropOp54
 70
     1
102
RTVSPost2010Prop55
280
     0
102
RTVSPost2010PropOp55
 70
     1
102
RTVSPost2010Prop56
140
1.0
102
RTVSPost2010PropOp56
 70
     1
102
RTVSPost2010Prop57
140
1.0
102
RTVSPost2010PropOp57
 70
     1
102
RTVSPropertyOp0
 70
     1
102
RTVSPropertyOp1
 70
     1
102
RTVSPropertyOp2
 70
     1
102
RTVSPropertyOp3
 70
     1
102
RTVSPropertyOp4
 70
     1
102
RTVSPropertyOp5
 70
     1
102
RTVSPropertyOp6
 70
     1
102
RTVSPropertyOp7
 70
     1
102
RTVSPropertyOp8
 70
     1
102
RTVSPropertyOp9
 70
     1
102
RTVSPropertyOp10
 70
     1
102
RTVSPropertyOp11
 70
     1
102
RTVSPropertyOp12
 70
     1
102
RTVSPropertyOp13
 70
     1
102
RTVSPropertyOp14
 70
     1
102
RTVSPropertyOp15
 70
     1
102
RTVSPropertyOp16
 70
     1
102
RTVSPropertyOp17
 70
     1
102
RTVSPropertyOp18
 70
     1
102
RTVSPropertyOp19
 70
     1
102
RTVSPropertyOp20
 70
     1
102
RTVSPropertyOp21
 70
     1
102
RTVSPropertyOp22
 70
     1
102
RTVSPropertyOp23
 70
     1
102
RTVSPropertyOp24
 70
     1
102
RTVSPropertyOp25
 70
     1
102
RTVSPropertyOp26
 70
     1
102
RTVSPropertyOp27
 70
     1
102
RTVSPropertyOp28
 70
     1
102
RTVSPropertyOp29
 70
     1
102
RTVSPropertyOp30
 70
     1
102
RTVSPropertyOp31
 70
     1
102
RTVSPropertyOp32
 70
     1
102
RTVSPropertyOp33
 70
     1
102
RTVSPropertyOp34
 70
     1
102
RTVSPropertyOp35
 70
     1
102
RTVSPropertyOp36
 70
     1
102
RTVSPropertyOp37
 70
     1
102
RTVSPropertyOp38
 70
     1
102
RTVSPropertyOp39
 70
     1
102
RTVSPropertyOp40
 70
     1
102
RTVSPropertyOp41
 70
     1
102
RTVSPropertyOp42
 70
     1
102
RTVSPropertyOp43
 70
     1
102
RTVSPropertyOp44
 70
     1
102
RTVSPropertyOp45
 70
     1
102
RTVSPropertyOp46
 70
     1
102
RTVSPropertyOp47
 70
     1
102
RTVSPropertyOp48
 70
     1
102
RTVSPropertyOp49
 70
     1
102
RTVSPropertyOp50
 70
     1
102
RTVSPropertyOp51
 70
     0
102
RTVSPropertyOp52
 70
     0
102
RTVSPropertyOp53
 70
     1
102
RTVSPropertyOp54
 70
     1
102
RTVSPropertyOp55
 70
     1
102
RTVSPropertyOp56
 70
     1
102
RTVSPropertyOp57
 70
     1
102
RTVSPropertyOp58
 70
     1
102
RTVSPropertyOp59
 70
     1
102
RTVSPropertyOp60
 70
     1
102
RTVSPropertyOp61
 70
     1
102
RTVSPropertyOp62
 70
     1
  0
XRECORD
  5
1BB4
102
{ACAD_REACTORS
330
1BB3
102
}
330
1BB3
100
AcDbXrecord
280
     1
102
RTVSPost2010Prop28
280
     0
102
RTVSPost2010PropOp28
 70
     1
102
RTVSPost2010Prop29
280
     1
102
RTVSPost2010PropOp29
 70
     1
102
RTVSPost2010Prop30
280
     1
102
RTVSPost2010PropOp30
 70
     1
102
RTVSPost2010Prop31
280
     0
102
RTVSPost2010PropOp31
 70
     1
102
RTVSPost2010Prop32
280
     0
102
RTVSPost2010PropOp32
 70
     1
102
RTVSPost2010Prop33
280
     0
102
RTVSPost2010PropOp33
 70
     1
102
RTVSPost2010Prop34
280
     0
102
RTVSPost2010PropOp34
 70
     1
102
RTVSPost2010Prop35
280
     0
102
RTVSPost2010PropOp35
 70
     1
102
RTVSPost2010Prop36
280
     0
102
RTVSPost2010PropOp36
 70
     1
102
RTVSPost2010Prop37
 90
       50
102
RTVSPost2010PropOp37
 70
     1
102
RTVSPost2010Prop38
140
0.0
102
RTVSPost2010PropOp38
 70
     1
102
RTVSPost2010Prop39
140
1.0
102
RTVSPost2010PropOp39
 70
     1
102
RTVSPost2010Prop40
 90
        0
102
RTVSPost2010PropOp40
 70
     1
102
RTVSPost2010Prop41ColorIndex
 90
       18
102
RTVSPost2010Prop41ColorRGB
 90
        0
102
RTVSPost2010PropOp41
 70
     1
102
RTVSPost2010Prop42
 90
       50
102
RTVSPost2010PropOp42
 70
     1
102
RTVSPost2010Prop43
 90
        3
102
RTVSPost2010PropOp43
 70
     1
102
RTVSPost2010Prop44ColorIndex
 90
        5
102
RTVSPost2010Prop44ColorRGB
 90
      255
102
RTVSPost2010PropOp44
 70
     1
102
RTVSPost2010Prop45
280
     0
102
RTVSPost2010PropOp45
 70
     1
102
RTVSPost2010Prop46
 90
       50
102
RTVSPost2010PropOp46
 70
     1
102
RTVSPost2010Prop47
 90
       50
102
RTVSPost2010PropOp47
 70
     1
102
RTVSPost2010Prop48
 90
       50
102
RTVSPost2010PropOp48
 70
     1
102
RTVSPost2010Prop49
280
     0
102
RTVSPost2010PropOp49
 70
     1
102
RTVSPost2010Prop50
 90
       50
102
RTVSPost2010PropOp50
 70
     1
102
RTVSPost2010Prop51ColorIndex
 90
      256
102
RTVSPost2010Prop51ColorRGB
 90
-16777216
102
RTVSPost2010PropOp51
 70
     0
102
RTVSPost2010Prop52
140
1.0
102
RTVSPost2010PropOp52
 70
     0
102
RTVSPost2010Prop53
 90
        2
102
RTVSPost2010PropOp53
 70
     1
102
RTVSPost2010Prop54
  1
strokes_ogs.tif
102
RTVSPost2010PropOp54
 70
     1
102
RTVSPost2010Prop55
280
     0
102
RTVSPost2010PropOp55
 70
     1
102
RTVSPost2010Prop56
140
1.0
102
RTVSPost2010PropOp56
 70
     1
102
RTVSPost2010Prop57
140
1.0
102
RTVSPost2010PropOp57
 70
     1
102
RTVSPropertyOp0
 70
     1
102
RTVSPropertyOp1
 70
     1
102
RTVSPropertyOp2
 70
     1
102
RTVSPropertyOp3
 70
     1
102
RTVSPropertyOp4
 70
     1
102
RTVSPropertyOp5
 70
     1
102
RTVSPropertyOp6
 70
     1
102
RTVSPropertyOp7
 70
     1
102
RTVSPropertyOp8
 70
     1
102
RTVSPropertyOp9
 70
     1
102
RTVSPropertyOp10
 70
     1
102
RTVSPropertyOp11
 70
     1
102
RTVSPropertyOp12
 70
     1
102
RTVSPropertyOp13
 70
     1
102
RTVSPropertyOp14
 70
     1
102
RTVSPropertyOp15
 70
     1
102
RTVSPropertyOp16
 70
     1
102
RTVSPropertyOp17
 70
     1
102
RTVSPropertyOp18
 70
     1
102
RTVSPropertyOp19
 70
     1
102
RTVSPropertyOp20
 70
     1
102
RTVSPropertyOp21
 70
     1
102
RTVSPropertyOp22
 70
     1
102
RTVSPropertyOp23
 70
     1
102
RTVSPropertyOp24
 70
     1
102
RTVSPropertyOp25
 70
     1
102
RTVSPropertyOp26
 70
     1
102
RTVSPropertyOp27
 70
     1
102
RTVSPropertyOp28
 70
     1
102
RTVSPropertyOp29
 70
     1
102
RTVSPropertyOp30
 70
     1
102
RTVSPropertyOp31
 70
     1
102
RTVSPropertyOp32
 70
     1
102
RTVSPropertyOp33
 70
     1
102
RTVSPropertyOp34
 70
     1
102
RTVSPropertyOp35
 70
     1
102
RTVSPropertyOp36
 70
     1
102
RTVSPropertyOp37
 70
     1
102
RTVSPropertyOp38
 70
     1
102
RTVSPropertyOp39
 70
     1
102
RTVSPropertyOp40
 70
     1
102
RTVSPropertyOp41
 70
     1
102
RTVSPropertyOp42
 70
     1
102
RTVSPropertyOp43
 70
     1
102
RTVSPropertyOp44
 70
     1
102
RTVSPropertyOp45
 70
     1
102
RTVSPropertyOp46
 70
     1
102
RTVSPropertyOp47
 70
     1
102
RTVSPropertyOp48
 70
     1
102
RTVSPropertyOp49
 70
     1
102
RTVSPropertyOp50
 70
     1
102
RTVSPropertyOp51
 70
     0
102
RTVSPropertyOp52
 70
     0
102
RTVSPropertyOp53
 70
     1
102
RTVSPropertyOp54
 70
     1
102
RTVSPropertyOp55
 70
     1
102
RTVSPropertyOp56
 70
     1
102
RTVSPropertyOp57
 70
     1
102
RTVSPropertyOp58
 70
     1
102
RTVSPropertyOp59
 70
     1
102
RTVSPropertyOp60
 70
     1
102
RTVSPropertyOp61
 70
     1
102
RTVSPropertyOp62
 70
     1
  0
XRECORD
  5
1BB6
102
{ACAD_REACTORS
330
1BB5
102
}
330
1BB5
100
AcDbXrecord
280
     1
102
RTVSPost2010Prop28
280
     0
102
RTVSPost2010PropOp28
 70
     1
102
RTVSPost2010Prop29
280
     1
102
RTVSPost2010PropOp29
 70
     1
102
RTVSPost2010Prop30
280
     1
102
RTVSPost2010PropOp30
 70
     1
102
RTVSPost2010Prop31
280
     0
102
RTVSPost2010PropOp31
 70
     1
102
RTVSPost2010Prop32
280
     0
102
RTVSPost2010PropOp32
 70
     1
102
RTVSPost2010Prop33
280
     0
102
RTVSPost2010PropOp33
 70
     1
102
RTVSPost2010Prop34
280
     0
102
RTVSPost2010PropOp34
 70
     1
102
RTVSPost2010Prop35
280
     0
102
RTVSPost2010PropOp35
 70
     1
102
RTVSPost2010Prop36
280
     0
102
RTVSPost2010PropOp36
 70
     1
102
RTVSPost2010Prop37
 90
       50
102
RTVSPost2010PropOp37
 70
     1
102
RTVSPost2010Prop38
140
0.0
102
RTVSPost2010PropOp38
 70
     1
102
RTVSPost2010Prop39
140
1.0
102
RTVSPost2010PropOp39
 70
     1
102
RTVSPost2010Prop40
 90
        0
102
RTVSPost2010PropOp40
 70
     1
102
RTVSPost2010Prop41ColorIndex
 90
       18
102
RTVSPost2010Prop41ColorRGB
 90
        0
102
RTVSPost2010PropOp41
 70
     1
102
RTVSPost2010Prop42
 90
       50
102
RTVSPost2010PropOp42
 70
     1
102
RTVSPost2010Prop43
 90
        3
102
RTVSPost2010PropOp43
 70
     1
102
RTVSPost2010Prop44ColorIndex
 90
        5
102
RTVSPost2010Prop44ColorRGB
 90
      255
102
RTVSPost2010PropOp44
 70
     1
102
RTVSPost2010Prop45
280
     0
102
RTVSPost2010PropOp45
 70
     1
102
RTVSPost2010Prop46
 90
       50
102
RTVSPost2010PropOp46
 70
     1
102
RTVSPost2010Prop47
 90
       50
102
RTVSPost2010PropOp47
 70
     1
102
RTVSPost2010Prop48
 90
       50
102
RTVSPost2010PropOp48
 70
     1
102
RTVSPost2010Prop49
280
     0
102
RTVSPost2010PropOp49
 70
     1
102
RTVSPost2010Prop50
 90
       50
102
RTVSPost2010PropOp50
 70
     1
102
RTVSPost2010Prop51ColorIndex
 90
      256
102
RTVSPost2010Prop51ColorRGB
 90
-16777216
102
RTVSPost2010PropOp51
 70
     0
102
RTVSPost2010Prop52
140
1.0
102
RTVSPost2010PropOp52
 70
     0
102
RTVSPost2010Prop53
 90
        2
102
RTVSPost2010PropOp53
 70
     1
102
RTVSPost2010Prop54
  1
strokes_ogs.tif
102
RTVSPost2010PropOp54
 70
     1
102
RTVSPost2010Prop55
280
     0
102
RTVSPost2010PropOp55
 70
     1
102
RTVSPost2010Prop56
140
1.0
102
RTVSPost2010PropOp56
 70
     1
102
RTVSPost2010Prop57
140
1.0
102
RTVSPost2010PropOp57
 70
     1
102
RTVSPropertyOp0
 70
     1
102
RTVSPropertyOp1
 70
     1
102
RTVSPropertyOp2
 70
     1
102
RTVSPropertyOp3
 70
     1
102
RTVSPropertyOp4
 70
     1
102
RTVSPropertyOp5
 70
     1
102
RTVSPropertyOp6
 70
     1
102
RTVSPropertyOp7
 70
     1
102
RTVSPropertyOp8
 70
     1
102
RTVSPropertyOp9
 70
     1
102
RTVSPropertyOp10
 70
     1
102
RTVSPropertyOp11
 70
     1
102
RTVSPropertyOp12
 70
     1
102
RTVSPropertyOp13
 70
     1
102
RTVSPropertyOp14
 70
     1
102
RTVSPropertyOp15
 70
     1
102
RTVSPropertyOp16
 70
     1
102
RTVSPropertyOp17
 70
     1
102
RTVSPropertyOp18
 70
     1
102
RTVSPropertyOp19
 70
     1
102
RTVSPropertyOp20
 70
     1
102
RTVSPropertyOp21
 70
     1
102
RTVSPropertyOp22
 70
     1
102
RTVSPropertyOp23
 70
     1
102
RTVSPropertyOp24
 70
     1
102
RTVSPropertyOp25
 70
     1
102
RTVSPropertyOp26
 70
     1
102
RTVSPropertyOp27
 70
     1
102
RTVSPropertyOp28
 70
     1
102
RTVSPropertyOp29
 70
     1
102
RTVSPropertyOp30
 70
     1
102
RTVSPropertyOp31
 70
     1
102
RTVSPropertyOp32
 70
     1
102
RTVSPropertyOp33
 70
     1
102
RTVSPropertyOp34
 70
     1
102
RTVSPropertyOp35
 70
     1
102
RTVSPropertyOp36
 70
     1
102
RTVSPropertyOp37
 70
     1
102
RTVSPropertyOp38
 70
     1
102
RTVSPropertyOp39
 70
     1
102
RTVSPropertyOp40
 70
     1
102
RTVSPropertyOp41
 70
     1
102
RTVSPropertyOp42
 70
     1
102
RTVSPropertyOp43
 70
     1
102
RTVSPropertyOp44
 70
     1
102
RTVSPropertyOp45
 70
     1
102
RTVSPropertyOp46
 70
     1
102
RTVSPropertyOp47
 70
     1
102
RTVSPropertyOp48
 70
     1
102
RTVSPropertyOp49
 70
     1
102
RTVSPropertyOp50
 70
     1
102
RTVSPropertyOp51
 70
     0
102
RTVSPropertyOp52
 70
     0
102
RTVSPropertyOp53
 70
     1
102
RTVSPropertyOp54
 70
     1
102
RTVSPropertyOp55
 70
     1
102
RTVSPropertyOp56
 70
     1
102
RTVSPropertyOp57
 70
     1
102
RTVSPropertyOp58
 70
     1
102
RTVSPropertyOp59
 70
     1
102
RTVSPropertyOp60
 70
     1
102
RTVSPropertyOp61
 70
     1
102
RTVSPropertyOp62
 70
     1
  0
XRECORD
  5
1BBE
102
{ACAD_REACTORS
330
1BBD
102
}
330
1BBD
100
AcDbXrecord
280
     1
102
RTVSPost2010Prop28
280
     0
102
RTVSPost2010PropOp28
 70
     1
102
RTVSPost2010Prop29
280
     1
102
RTVSPost2010PropOp29
 70
     1
102
RTVSPost2010Prop30
280
     1
102
RTVSPost2010PropOp30
 70
     1
102
RTVSPost2010Prop31
280
     0
102
RTVSPost2010PropOp31
 70
     1
102
RTVSPost2010Prop32
280
     0
102
RTVSPost2010PropOp32
 70
     1
102
RTVSPost2010Prop33
280
     0
102
RTVSPost2010PropOp33
 70
     1
102
RTVSPost2010Prop34
280
     0
102
RTVSPost2010PropOp34
 70
     1
102
RTVSPost2010Prop35
280
     0
102
RTVSPost2010PropOp35
 70
     1
102
RTVSPost2010Prop36
280
     0
102
RTVSPost2010PropOp36
 70
     1
102
RTVSPost2010Prop37
 90
       50
102
RTVSPost2010PropOp37
 70
     1
102
RTVSPost2010Prop38
140
0.0
102
RTVSPost2010PropOp38
 70
     1
102
RTVSPost2010Prop39
140
1.0
102
RTVSPost2010PropOp39
 70
     1
102
RTVSPost2010Prop40
 90
        0
102
RTVSPost2010PropOp40
 70
     1
102
RTVSPost2010Prop41ColorIndex
 90
       18
102
RTVSPost2010Prop41ColorRGB
 90
        0
102
RTVSPost2010PropOp41
 70
     1
102
RTVSPost2010Prop42
 90
       50
102
RTVSPost2010PropOp42
 70
     1
102
RTVSPost2010Prop43
 90
        3
102
RTVSPost2010PropOp43
 70
     1
102
RTVSPost2010Prop44ColorIndex
 90
        5
102
RTVSPost2010Prop44ColorRGB
 90
      255
102
RTVSPost2010PropOp44
 70
     1
102
RTVSPost2010Prop45
280
     0
102
RTVSPost2010PropOp45
 70
     1
102
RTVSPost2010Prop46
 90
       50
102
RTVSPost2010PropOp46
 70
     1
102
RTVSPost2010Prop47
 90
       50
102
RTVSPost2010PropOp47
 70
     1
102
RTVSPost2010Prop48
 90
       50
102
RTVSPost2010PropOp48
 70
     1
102
RTVSPost2010Prop49
280
     0
102
RTVSPost2010PropOp49
 70
     1
102
RTVSPost2010Prop50
 90
       50
102
RTVSPost2010PropOp50
 70
     1
102
RTVSPost2010Prop51ColorIndex
 90
      256
102
RTVSPost2010Prop51ColorRGB
 90
-16777216
102
RTVSPost2010PropOp51
 70
     0
102
RTVSPost2010Prop52
140
1.0
102
RTVSPost2010PropOp52
 70
     0
102
RTVSPost2010Prop53
 90
        2
102
RTVSPost2010PropOp53
 70
     1
102
RTVSPost2010Prop54
  1
strokes_ogs.tif
102
RTVSPost2010PropOp54
 70
     1
102
RTVSPost2010Prop55
280
     0
102
RTVSPost2010PropOp55
 70
     1
102
RTVSPost2010Prop56
140
1.0
102
RTVSPost2010PropOp56
 70
     1
102
RTVSPost2010Prop57
140
1.0
102
RTVSPost2010PropOp57
 70
     1
102
RTVSPropertyOp0
 70
     1
102
RTVSPropertyOp1
 70
     1
102
RTVSPropertyOp2
 70
     1
102
RTVSPropertyOp3
 70
     1
102
RTVSPropertyOp4
 70
     1
102
RTVSPropertyOp5
 70
     1
102
RTVSPropertyOp6
 70
     1
102
RTVSPropertyOp7
 70
     1
102
RTVSPropertyOp8
 70
     1
102
RTVSPropertyOp9
 70
     1
102
RTVSPropertyOp10
 70
     1
102
RTVSPropertyOp11
 70
     1
102
RTVSPropertyOp12
 70
     1
102
RTVSPropertyOp13
 70
     1
102
RTVSPropertyOp14
 70
     1
102
RTVSPropertyOp15
 70
     1
102
RTVSPropertyOp16
 70
     1
102
RTVSPropertyOp17
 70
     1
102
RTVSPropertyOp18
 70
     1
102
RTVSPropertyOp19
 70
     1
102
RTVSPropertyOp20
 70
     1
102
RTVSPropertyOp21
 70
     1
102
RTVSPropertyOp22
 70
     1
102
RTVSPropertyOp23
 70
     1
102
RTVSPropertyOp24
 70
     1
102
RTVSPropertyOp25
 70
     1
102
RTVSPropertyOp26
 70
     1
102
RTVSPropertyOp27
 70
     1
102
RTVSPropertyOp28
 70
     1
102
RTVSPropertyOp29
 70
     1
102
RTVSPropertyOp30
 70
     1
102
RTVSPropertyOp31
 70
     1
102
RTVSPropertyOp32
 70
     1
102
RTVSPropertyOp33
 70
     1
102
RTVSPropertyOp34
 70
     1
102
RTVSPropertyOp35
 70
     1
102
RTVSPropertyOp36
 70
     1
102
RTVSPropertyOp37
 70
     1
102
RTVSPropertyOp38
 70
     1
102
RTVSPropertyOp39
 70
     1
102
RTVSPropertyOp40
 70
     1
102
RTVSPropertyOp41
 70
     1
102
RTVSPropertyOp42
 70
     1
102
RTVSPropertyOp43
 70
     1
102
RTVSPropertyOp44
 70
     1
102
RTVSPropertyOp45
 70
     1
102
RTVSPropertyOp46
 70
     1
102
RTVSPropertyOp47
 70
     1
102
RTVSPropertyOp48
 70
     1
102
RTVSPropertyOp49
 70
     1
102
RTVSPropertyOp50
 70
     1
102
RTVSPropertyOp51
 70
     0
102
RTVSPropertyOp52
 70
     0
102
RTVSPropertyOp53
 70
     1
102
RTVSPropertyOp54
 70
     1
102
RTVSPropertyOp55
 70
     1
102
RTVSPropertyOp56
 70
     1
102
RTVSPropertyOp57
 70
     1
102
RTVSPropertyOp58
 70
     1
102
RTVSPropertyOp59
 70
     1
102
RTVSPropertyOp60
 70
     1
102
RTVSPropertyOp61
 70
     1
102
RTVSPropertyOp62
 70
     1
  0
XRECORD
  5
1BDA
102
{ACAD_REACTORS
330
1BD9
102
}
330
1BD9
100
AcDbXrecord
280
     1
102
RTVSPost2010Prop28
280
     0
102
RTVSPost2010PropOp28
 70
     1
102
RTVSPost2010Prop29
280
     1
102
RTVSPost2010PropOp29
 70
     1
102
RTVSPost2010Prop30
280
     1
102
RTVSPost2010PropOp30
 70
     1
102
RTVSPost2010Prop31
280
     0
102
RTVSPost2010PropOp31
 70
     1
102
RTVSPost2010Prop32
280
     0
102
RTVSPost2010PropOp32
 70
     1
102
RTVSPost2010Prop33
280
     0
102
RTVSPost2010PropOp33
 70
     1
102
RTVSPost2010Prop34
280
     0
102
RTVSPost2010PropOp34
 70
     1
102
RTVSPost2010Prop35
280
     0
102
RTVSPost2010PropOp35
 70
     1
102
RTVSPost2010Prop36
280
     0
102
RTVSPost2010PropOp36
 70
     1
102
RTVSPost2010Prop37
 90
       50
102
RTVSPost2010PropOp37
 70
     0
102
RTVSPost2010Prop38
140
0.0
102
RTVSPost2010PropOp38
 70
     0
102
RTVSPost2010Prop39
140
1.0
102
RTVSPost2010PropOp39
 70
     0
102
RTVSPost2010Prop40
 90
        0
102
RTVSPost2010PropOp40
 70
     0
102
RTVSPost2010Prop41ColorIndex
 90
       18
102
RTVSPost2010Prop41ColorRGB
 90
        0
102
RTVSPost2010PropOp41
 70
     0
102
RTVSPost2010Prop42
 90
       50
102
RTVSPost2010PropOp42
 70
     0
102
RTVSPost2010Prop43
 90
        3
102
RTVSPost2010PropOp43
 70
     0
102
RTVSPost2010Prop44ColorIndex
 90
        5
102
RTVSPost2010Prop44ColorRGB
 90
      255
102
RTVSPost2010PropOp44
 70
     0
102
RTVSPost2010Prop45
280
     0
102
RTVSPost2010PropOp45
 70
     1
102
RTVSPost2010Prop46
 90
       50
102
RTVSPost2010PropOp46
 70
     0
102
RTVSPost2010Prop47
 90
       50
102
RTVSPost2010PropOp47
 70
     0
102
RTVSPost2010Prop48
 90
       50
102
RTVSPost2010PropOp48
 70
     0
102
RTVSPost2010Prop49
280
     0
102
RTVSPost2010PropOp49
 70
     1
102
RTVSPost2010Prop50
 90
       50
102
RTVSPost2010PropOp50
 70
     0
102
RTVSPost2010Prop51ColorIndex
 90
      256
102
RTVSPost2010Prop51ColorRGB
 90
-16777216
102
RTVSPost2010PropOp51
 70
     0
102
RTVSPost2010Prop52
140
1.0
102
RTVSPost2010PropOp52
 70
     0
102
RTVSPost2010Prop53
 90
        2
102
RTVSPost2010PropOp53
 70
     0
102
RTVSPost2010Prop54
  1
strokes_ogs.tif
102
RTVSPost2010PropOp54
 70
     0
102
RTVSPost2010Prop55
280
     0
102
RTVSPost2010PropOp55
 70
     1
102
RTVSPost2010Prop56
140
1.0
102
RTVSPost2010PropOp56
 70
     0
102
RTVSPost2010Prop57
140
1.0
102
RTVSPost2010PropOp57
 70
     0
102
RTVSPropertyOp0
 70
     0
102
RTVSPropertyOp1
 70
     0
102
RTVSPropertyOp2
 70
     0
102
RTVSPropertyOp3
 70
     0
102
RTVSPropertyOp4
 70
     0
102
RTVSPropertyOp5
 70
     0
102
RTVSPropertyOp6
 70
     0
102
RTVSPropertyOp7
 70
     0
102
RTVSPropertyOp8
 70
     0
102
RTVSPropertyOp9
 70
     0
102
RTVSPropertyOp10
 70
     0
102
RTVSPropertyOp11
 70
     0
102
RTVSPropertyOp12
 70
     0
102
RTVSPropertyOp13
 70
     0
102
RTVSPropertyOp14
 70
     2
102
RTVSPropertyOp15
 70
     0
102
RTVSPropertyOp16
 70
     0
102
RTVSPropertyOp17
 70
     0
102
RTVSPropertyOp18
 70
     0
102
RTVSPropertyOp19
 70
     0
102
RTVSPropertyOp20
 70
     0
102
RTVSPropertyOp21
 70
     0
102
RTVSPropertyOp22
 70
     0
102
RTVSPropertyOp23
 70
     0
102
RTVSPropertyOp24
 70
     0
102
RTVSPropertyOp25
 70
     0
102
RTVSPropertyOp26
 70
     0
102
RTVSPropertyOp27
 70
     0
102
RTVSPropertyOp28
 70
     1
102
RTVSPropertyOp29
 70
     1
102
RTVSPropertyOp30
 70
     1
102
RTVSPropertyOp31
 70
     1
102
RTVSPropertyOp32
 70
     1
102
RTVSPropertyOp33
 70
     1
102
RTVSPropertyOp34
 70
     1
102
RTVSPropertyOp35
 70
     1
102
RTVSPropertyOp36
 70
     1
102
RTVSPropertyOp37
 70
     0
102
RTVSPropertyOp38
 70
     0
102
RTVSPropertyOp39
 70
     0
102
RTVSPropertyOp40
 70
     0
102
RTVSPropertyOp41
 70
     0
102
RTVSPropertyOp42
 70
     0
102
RTVSPropertyOp43
 70
     0
102
RTVSPropertyOp44
 70
     0
102
RTVSPropertyOp45
 70
     1
102
RTVSPropertyOp46
 70
     0
102
RTVSPropertyOp47
 70
     0
102
RTVSPropertyOp48
 70
     0
102
RTVSPropertyOp49
 70
     1
102
RTVSPropertyOp50
 70
     0
102
RTVSPropertyOp51
 70
     0
102
RTVSPropertyOp52
 70
     0
102
RTVSPropertyOp53
 70
     0
102
RTVSPropertyOp54
 70
     0
102
RTVSPropertyOp55
 70
     1
102
RTVSPropertyOp56
 70
     0
102
RTVSPropertyOp57
 70
     0
102
RTVSPropertyOp58
 70
     0
102
RTVSPropertyOp59
 70
     0
102
RTVSPropertyOp60
 70
     0
102
RTVSPropertyOp61
 70
     0
102
RTVSPropertyOp62
 70
     0
  0
XRECORD
  5
1BCA
102
{ACAD_REACTORS
330
1BC9
102
}
330
1BC9
100
AcDbXrecord
280
     1
102
RTVSPost2010Prop28
280
     0
102
RTVSPost2010PropOp28
 70
     1
102
RTVSPost2010Prop29
280
     1
102
RTVSPost2010PropOp29
 70
     1
102
RTVSPost2010Prop30
280
     1
102
RTVSPost2010PropOp30
 70
     1
102
RTVSPost2010Prop31
280
     0
102
RTVSPost2010PropOp31
 70
     1
102
RTVSPost2010Prop32
280
     0
102
RTVSPost2010PropOp32
 70
     1
102
RTVSPost2010Prop33
280
     0
102
RTVSPost2010PropOp33
 70
     1
102
RTVSPost2010Prop34
280
     0
102
RTVSPost2010PropOp34
 70
     1
102
RTVSPost2010Prop35
280
     0
102
RTVSPost2010PropOp35
 70
     1
102
RTVSPost2010Prop36
280
     0
102
RTVSPost2010PropOp36
 70
     1
102
RTVSPost2010Prop37
 90
       50
102
RTVSPost2010PropOp37
 70
     1
102
RTVSPost2010Prop38
140
0.0
102
RTVSPost2010PropOp38
 70
     1
102
RTVSPost2010Prop39
140
1.0
102
RTVSPost2010PropOp39
 70
     1
102
RTVSPost2010Prop40
 90
        0
102
RTVSPost2010PropOp40
 70
     1
102
RTVSPost2010Prop41ColorIndex
 90
       18
102
RTVSPost2010Prop41ColorRGB
 90
        0
102
RTVSPost2010PropOp41
 70
     1
102
RTVSPost2010Prop42
 90
       50
102
RTVSPost2010PropOp42
 70
     1
102
RTVSPost2010Prop43
 90
        3
102
RTVSPost2010PropOp43
 70
     1
102
RTVSPost2010Prop44ColorIndex
 90
        5
102
RTVSPost2010Prop44ColorRGB
 90
      255
102
RTVSPost2010PropOp44
 70
     1
102
RTVSPost2010Prop45
280
     0
102
RTVSPost2010PropOp45
 70
     1
102
RTVSPost2010Prop46
 90
       50
102
RTVSPost2010PropOp46
 70
     1
102
RTVSPost2010Prop47
 90
       50
102
RTVSPost2010PropOp47
 70
     1
102
RTVSPost2010Prop48
 90
       50
102
RTVSPost2010PropOp48
 70
     1
102
RTVSPost2010Prop49
280
     0
102
RTVSPost2010PropOp49
 70
     1
102
RTVSPost2010Prop50
 90
       50
102
RTVSPost2010PropOp50
 70
     1
102
RTVSPost2010Prop51ColorIndex
 90
      256
102
RTVSPost2010Prop51ColorRGB
 90
-16777216
102
RTVSPost2010PropOp51
 70
     0
102
RTVSPost2010Prop52
140
1.0
102
RTVSPost2010PropOp52
 70
     0
102
RTVSPost2010Prop53
 90
        2
102
RTVSPost2010PropOp53
 70
     1
102
RTVSPost2010Prop54
  1
strokes_ogs.tif
102
RTVSPost2010PropOp54
 70
     1
102
RTVSPost2010Prop55
280
     0
102
RTVSPost2010PropOp55
 70
     1
102
RTVSPost2010Prop56
140
1.0
102
RTVSPost2010PropOp56
 70
     1
102
RTVSPost2010Prop57
140
1.0
102
RTVSPost2010PropOp57
 70
     1
102
RTVSPropertyOp0
 70
     1
102
RTVSPropertyOp1
 70
     1
102
RTVSPropertyOp2
 70
     1
102
RTVSPropertyOp3
 70
     1
102
RTVSPropertyOp4
 70
     1
102
RTVSPropertyOp5
 70
     1
102
RTVSPropertyOp6
 70
     1
102
RTVSPropertyOp7
 70
     1
102
RTVSPropertyOp8
 70
     1
102
RTVSPropertyOp9
 70
     1
102
RTVSPropertyOp10
 70
     1
102
RTVSPropertyOp11
 70
     1
102
RTVSPropertyOp12
 70
     1
102
RTVSPropertyOp13
 70
     1
102
RTVSPropertyOp14
 70
     1
102
RTVSPropertyOp15
 70
     1
102
RTVSPropertyOp16
 70
     1
102
RTVSPropertyOp17
 70
     1
102
RTVSPropertyOp18
 70
     1
102
RTVSPropertyOp19
 70
     1
102
RTVSPropertyOp20
 70
     1
102
RTVSPropertyOp21
 70
     1
102
RTVSPropertyOp22
 70
     1
102
RTVSPropertyOp23
 70
     1
102
RTVSPropertyOp24
 70
     1
102
RTVSPropertyOp25
 70
     1
102
RTVSPropertyOp26
 70
     1
102
RTVSPropertyOp27
 70
     1
102
RTVSPropertyOp28
 70
     1
102
RTVSPropertyOp29
 70
     1
102
RTVSPropertyOp30
 70
     1
102
RTVSPropertyOp31
 70
     1
102
RTVSPropertyOp32
 70
     1
102
RTVSPropertyOp33
 70
     1
102
RTVSPropertyOp34
 70
     1
102
RTVSPropertyOp35
 70
     1
102
RTVSPropertyOp36
 70
     1
102
RTVSPropertyOp37
 70
     1
102
RTVSPropertyOp38
 70
     1
102
RTVSPropertyOp39
 70
     1
102
RTVSPropertyOp40
 70
     1
102
RTVSPropertyOp41
 70
     1
102
RTVSPropertyOp42
 70
     1
102
RTVSPropertyOp43
 70
     1
102
RTVSPropertyOp44
 70
     1
102
RTVSPropertyOp45
 70
     1
102
RTVSPropertyOp46
 70
     1
102
RTVSPropertyOp47
 70
     1
102
RTVSPropertyOp48
 70
     1
102
RTVSPropertyOp49
 70
     1
102
RTVSPropertyOp50
 70
     1
102
RTVSPropertyOp51
 70
     0
102
RTVSPropertyOp52
 70
     0
102
RTVSPropertyOp53
 70
     1
102
RTVSPropertyOp54
 70
     1
102
RTVSPropertyOp55
 70
     1
102
RTVSPropertyOp56
 70
     1
102
RTVSPropertyOp57
 70
     1
102
RTVSPropertyOp58
 70
     1
102
RTVSPropertyOp59
 70
     1
102
RTVSPropertyOp60
 70
     1
102
RTVSPropertyOp61
 70
     1
102
RTVSPropertyOp62
 70
     1
  0
XRECORD
  5
1BDC
102
{ACAD_REACTORS
330
1BDB
102
}
330
1BDB
100
AcDbXrecord
280
     1
102
RTVSPost2010Prop28
280
     0
102
RTVSPost2010PropOp28
 70
     1
102
RTVSPost2010Prop29
280
     1
102
RTVSPost2010PropOp29
 70
     1
102
RTVSPost2010Prop30
280
     1
102
RTVSPost2010PropOp30
 70
     1
102
RTVSPost2010Prop31
280
     0
102
RTVSPost2010PropOp31
 70
     1
102
RTVSPost2010Prop32
280
     0
102
RTVSPost2010PropOp32
 70
     1
102
RTVSPost2010Prop33
280
     0
102
RTVSPost2010PropOp33
 70
     1
102
RTVSPost2010Prop34
280
     0
102
RTVSPost2010PropOp34
 70
     1
102
RTVSPost2010Prop35
280
     0
102
RTVSPost2010PropOp35
 70
     1
102
RTVSPost2010Prop36
280
     0
102
RTVSPost2010PropOp36
 70
     1
102
RTVSPost2010Prop37
 90
       50
102
RTVSPost2010PropOp37
 70
     0
102
RTVSPost2010Prop38
140
0.0
102
RTVSPost2010PropOp38
 70
     0
102
RTVSPost2010Prop39
140
1.0
102
RTVSPost2010PropOp39
 70
     0
102
RTVSPost2010Prop40
 90
        0
102
RTVSPost2010PropOp40
 70
     0
102
RTVSPost2010Prop41ColorIndex
 90
       18
102
RTVSPost2010Prop41ColorRGB
 90
        0
102
RTVSPost2010PropOp41
 70
     0
102
RTVSPost2010Prop42
 90
       50
102
RTVSPost2010PropOp42
 70
     0
102
RTVSPost2010Prop43
 90
        3
102
RTVSPost2010PropOp43
 70
     0
102
RTVSPost2010Prop44ColorIndex
 90
        5
102
RTVSPost2010Prop44ColorRGB
 90
      255
102
RTVSPost2010PropOp44
 70
     0
102
RTVSPost2010Prop45
280
     0
102
RTVSPost2010PropOp45
 70
     1
102
RTVSPost2010Prop46
 90
       50
102
RTVSPost2010PropOp46
 70
     0
102
RTVSPost2010Prop47
 90
       50
102
RTVSPost2010PropOp47
 70
     0
102
RTVSPost2010Prop48
 90
       50
102
RTVSPost2010PropOp48
 70
     0
102
RTVSPost2010Prop49
280
     0
102
RTVSPost2010PropOp49
 70
     1
102
RTVSPost2010Prop50
 90
       50
102
RTVSPost2010PropOp50
 70
     0
102
RTVSPost2010Prop51ColorIndex
 90
      256
102
RTVSPost2010Prop51ColorRGB
 90
-16777216
102
RTVSPost2010PropOp51
 70
     0
102
RTVSPost2010Prop52
140
1.0
102
RTVSPost2010PropOp52
 70
     0
102
RTVSPost2010Prop53
 90
        2
102
RTVSPost2010PropOp53
 70
     0
102
RTVSPost2010Prop54
  1
strokes_ogs.tif
102
RTVSPost2010PropOp54
 70
     0
102
RTVSPost2010Prop55
280
     0
102
RTVSPost2010PropOp55
 70
     1
102
RTVSPost2010Prop56
140
1.0
102
RTVSPost2010PropOp56
 70
     0
102
RTVSPost2010Prop57
140
1.0
102
RTVSPost2010PropOp57
 70
     0
102
RTVSPropertyOp0
 70
     0
102
RTVSPropertyOp1
 70
     0
102
RTVSPropertyOp2
 70
     0
102
RTVSPropertyOp3
 70
     0
102
RTVSPropertyOp4
 70
     0
102
RTVSPropertyOp5
 70
     0
102
RTVSPropertyOp6
 70
     0
102
RTVSPropertyOp7
 70
     0
102
RTVSPropertyOp8
 70
     0
102
RTVSPropertyOp9
 70
     0
102
RTVSPropertyOp10
 70
     0
102
RTVSPropertyOp11
 70
     0
102
RTVSPropertyOp12
 70
     0
102
RTVSPropertyOp13
 70
     0
102
RTVSPropertyOp14
 70
     2
102
RTVSPropertyOp15
 70
     0
102
RTVSPropertyOp16
 70
     0
102
RTVSPropertyOp17
 70
     0
102
RTVSPropertyOp18
 70
     0
102
RTVSPropertyOp19
 70
     0
102
RTVSPropertyOp20
 70
     0
102
RTVSPropertyOp21
 70
     0
102
RTVSPropertyOp22
 70
     0
102
RTVSPropertyOp23
 70
     0
102
RTVSPropertyOp24
 70
     0
102
RTVSPropertyOp25
 70
     0
102
RTVSPropertyOp26
 70
     0
102
RTVSPropertyOp27
 70
     0
102
RTVSPropertyOp28
 70
     1
102
RTVSPropertyOp29
 70
     1
102
RTVSPropertyOp30
 70
     1
102
RTVSPropertyOp31
 70
     1
102
RTVSPropertyOp32
 70
     1
102
RTVSPropertyOp33
 70
     1
102
RTVSPropertyOp34
 70
     1
102
RTVSPropertyOp35
 70
     1
102
RTVSPropertyOp36
 70
     1
102
RTVSPropertyOp37
 70
     0
102
RTVSPropertyOp38
 70
     0
102
RTVSPropertyOp39
 70
     0
102
RTVSPropertyOp40
 70
     0
102
RTVSPropertyOp41
 70
     0
102
RTVSPropertyOp42
 70
     0
102
RTVSPropertyOp43
 70
     0
102
RTVSPropertyOp44
 70
     0
102
RTVSPropertyOp45
 70
     1
102
RTVSPropertyOp46
 70
     0
102
RTVSPropertyOp47
 70
     0
102
RTVSPropertyOp48
 70
     0
102
RTVSPropertyOp49
 70
     1
102
RTVSPropertyOp50
 70
     0
102
RTVSPropertyOp51
 70
     0
102
RTVSPropertyOp52
 70
     0
102
RTVSPropertyOp53
 70
     0
102
RTVSPropertyOp54
 70
     0
102
RTVSPropertyOp55
 70
     1
102
RTVSPropertyOp56
 70
     0
102
RTVSPropertyOp57
 70
     0
102
RTVSPropertyOp58
 70
     0
102
RTVSPropertyOp59
 70
     0
102
RTVSPropertyOp60
 70
     0
102
RTVSPropertyOp61
 70
     0
102
RTVSPropertyOp62
 70
     0
  0
XRECORD
  5
1BC2
102
{ACAD_REACTORS
330
1BC1
102
}
330
1BC1
100
AcDbXrecord
280
     1
102
RTVSPost2010Prop28
280
     0
102
RTVSPost2010PropOp28
 70
     1
102
RTVSPost2010Prop29
280
     1
102
RTVSPost2010PropOp29
 70
     1
102
RTVSPost2010Prop30
280
     1
102
RTVSPost2010PropOp30
 70
     1
102
RTVSPost2010Prop31
280
     0
102
RTVSPost2010PropOp31
 70
     1
102
RTVSPost2010Prop32
280
     0
102
RTVSPost2010PropOp32
 70
     1
102
RTVSPost2010Prop33
280
     0
102
RTVSPost2010PropOp33
 70
     1
102
RTVSPost2010Prop34
280
     0
102
RTVSPost2010PropOp34
 70
     1
102
RTVSPost2010Prop35
280
     0
102
RTVSPost2010PropOp35
 70
     1
102
RTVSPost2010Prop36
280
     0
102
RTVSPost2010PropOp36
 70
     1
102
RTVSPost2010Prop37
 90
       50
102
RTVSPost2010PropOp37
 70
     1
102
RTVSPost2010Prop38
140
0.0
102
RTVSPost2010PropOp38
 70
     1
102
RTVSPost2010Prop39
140
1.0
102
RTVSPost2010PropOp39
 70
     1
102
RTVSPost2010Prop40
 90
        0
102
RTVSPost2010PropOp40
 70
     1
102
RTVSPost2010Prop41ColorIndex
 90
       18
102
RTVSPost2010Prop41ColorRGB
 90
        0
102
RTVSPost2010PropOp41
 70
     1
102
RTVSPost2010Prop42
 90
       50
102
RTVSPost2010PropOp42
 70
     1
102
RTVSPost2010Prop43
 90
        3
102
RTVSPost2010PropOp43
 70
     1
102
RTVSPost2010Prop44ColorIndex
 90
        5
102
RTVSPost2010Prop44ColorRGB
 90
      255
102
RTVSPost2010PropOp44
 70
     1
102
RTVSPost2010Prop45
280
     0
102
RTVSPost2010PropOp45
 70
     1
102
RTVSPost2010Prop46
 90
       50
102
RTVSPost2010PropOp46
 70
     1
102
RTVSPost2010Prop47
 90
       50
102
RTVSPost2010PropOp47
 70
     1
102
RTVSPost2010Prop48
 90
       50
102
RTVSPost2010PropOp48
 70
     1
102
RTVSPost2010Prop49
280
     0
102
RTVSPost2010PropOp49
 70
     1
102
RTVSPost2010Prop50
 90
       50
102
RTVSPost2010PropOp50
 70
     1
102
RTVSPost2010Prop51ColorIndex
 90
      256
102
RTVSPost2010Prop51ColorRGB
 90
-16777216
102
RTVSPost2010PropOp51
 70
     0
102
RTVSPost2010Prop52
140
1.0
102
RTVSPost2010PropOp52
 70
     0
102
RTVSPost2010Prop53
 90
        2
102
RTVSPost2010PropOp53
 70
     1
102
RTVSPost2010Prop54
  1
strokes_ogs.tif
102
RTVSPost2010PropOp54
 70
     1
102
RTVSPost2010Prop55
280
     0
102
RTVSPost2010PropOp55
 70
     1
102
RTVSPost2010Prop56
140
1.0
102
RTVSPost2010PropOp56
 70
     1
102
RTVSPost2010Prop57
140
1.0
102
RTVSPost2010PropOp57
 70
     1
102
RTVSPropertyOp0
 70
     1
102
RTVSPropertyOp1
 70
     1
102
RTVSPropertyOp2
 70
     1
102
RTVSPropertyOp3
 70
     1
102
RTVSPropertyOp4
 70
     1
102
RTVSPropertyOp5
 70
     1
102
RTVSPropertyOp6
 70
     1
102
RTVSPropertyOp7
 70
     1
102
RTVSPropertyOp8
 70
     1
102
RTVSPropertyOp9
 70
     1
102
RTVSPropertyOp10
 70
     1
102
RTVSPropertyOp11
 70
     1
102
RTVSPropertyOp12
 70
     1
102
RTVSPropertyOp13
 70
     1
102
RTVSPropertyOp14
 70
     1
102
RTVSPropertyOp15
 70
     1
102
RTVSPropertyOp16
 70
     1
102
RTVSPropertyOp17
 70
     1
102
RTVSPropertyOp18
 70
     1
102
RTVSPropertyOp19
 70
     1
102
RTVSPropertyOp20
 70
     1
102
RTVSPropertyOp21
 70
     1
102
RTVSPropertyOp22
 70
     1
102
RTVSPropertyOp23
 70
     1
102
RTVSPropertyOp24
 70
     1
102
RTVSPropertyOp25
 70
     1
102
RTVSPropertyOp26
 70
     1
102
RTVSPropertyOp27
 70
     1
102
RTVSPropertyOp28
 70
     1
102
RTVSPropertyOp29
 70
     1
102
RTVSPropertyOp30
 70
     1
102
RTVSPropertyOp31
 70
     1
102
RTVSPropertyOp32
 70
     1
102
RTVSPropertyOp33
 70
     1
102
RTVSPropertyOp34
 70
     1
102
RTVSPropertyOp35
 70
     1
102
RTVSPropertyOp36
 70
     1
102
RTVSPropertyOp37
 70
     1
102
RTVSPropertyOp38
 70
     1
102
RTVSPropertyOp39
 70
     1
102
RTVSPropertyOp40
 70
     1
102
RTVSPropertyOp41
 70
     1
102
RTVSPropertyOp42
 70
     1
102
RTVSPropertyOp43
 70
     1
102
RTVSPropertyOp44
 70
     1
102
RTVSPropertyOp45
 70
     1
102
RTVSPropertyOp46
 70
     1
102
RTVSPropertyOp47
 70
     1
102
RTVSPropertyOp48
 70
     1
102
RTVSPropertyOp49
 70
     1
102
RTVSPropertyOp50
 70
     1
102
RTVSPropertyOp51
 70
     0
102
RTVSPropertyOp52
 70
     0
102
RTVSPropertyOp53
 70
     1
102
RTVSPropertyOp54
 70
     1
102
RTVSPropertyOp55
 70
     1
102
RTVSPropertyOp56
 70
     1
102
RTVSPropertyOp57
 70
     1
102
RTVSPropertyOp58
 70
     1
102
RTVSPropertyOp59
 70
     1
102
RTVSPropertyOp60
 70
     1
102
RTVSPropertyOp61
 70
     1
102
RTVSPropertyOp62
 70
     1
  0
XRECORD
  5
1BD8
102
{ACAD_REACTORS
330
1BD7
102
}
330
1BD7
100
AcDbXrecord
280
     1
102
RTVSPost2010Prop28
280
     0
102
RTVSPost2010PropOp28
 70
     1
102
RTVSPost2010Prop29
280
     1
102
RTVSPost2010PropOp29
 70
     1
102
RTVSPost2010Prop30
280
     1
102
RTVSPost2010PropOp30
 70
     1
102
RTVSPost2010Prop31
280
     0
102
RTVSPost2010PropOp31
 70
     1
102
RTVSPost2010Prop32
280
     0
102
RTVSPost2010PropOp32
 70
     1
102
RTVSPost2010Prop33
280
     0
102
RTVSPost2010PropOp33
 70
     1
102
RTVSPost2010Prop34
280
     0
102
RTVSPost2010PropOp34
 70
     1
102
RTVSPost2010Prop35
280
     0
102
RTVSPost2010PropOp35
 70
     1
102
RTVSPost2010Prop36
280
     0
102
RTVSPost2010PropOp36
 70
     1
102
RTVSPost2010Prop37
 90
       50
102
RTVSPost2010PropOp37
 70
     1
102
RTVSPost2010Prop38
140
0.0
102
RTVSPost2010PropOp38
 70
     1
102
RTVSPost2010Prop39
140
1.0
102
RTVSPost2010PropOp39
 70
     1
102
RTVSPost2010Prop40
 90
        0
102
RTVSPost2010PropOp40
 70
     1
102
RTVSPost2010Prop41ColorIndex
 90
       18
102
RTVSPost2010Prop41ColorRGB
 90
        0
102
RTVSPost2010PropOp41
 70
     1
102
RTVSPost2010Prop42
 90
       50
102
RTVSPost2010PropOp42
 70
     1
102
RTVSPost2010Prop43
 90
        3
102
RTVSPost2010PropOp43
 70
     1
102
RTVSPost2010Prop44ColorIndex
 90
        5
102
RTVSPost2010Prop44ColorRGB
 90
      255
102
RTVSPost2010PropOp44
 70
     1
102
RTVSPost2010Prop45
280
     0
102
RTVSPost2010PropOp45
 70
     1
102
RTVSPost2010Prop46
 90
       50
102
RTVSPost2010PropOp46
 70
     1
102
RTVSPost2010Prop47
 90
       50
102
RTVSPost2010PropOp47
 70
     1
102
RTVSPost2010Prop48
 90
       50
102
RTVSPost2010PropOp48
 70
     1
102
RTVSPost2010Prop49
280
     0
102
RTVSPost2010PropOp49
 70
     1
102
RTVSPost2010Prop50
 90
       50
102
RTVSPost2010PropOp50
 70
     1
102
RTVSPost2010Prop51ColorIndex
 90
      256
102
RTVSPost2010Prop51ColorRGB
 90
-16777216
102
RTVSPost2010PropOp51
 70
     0
102
RTVSPost2010Prop52
140
1.0
102
RTVSPost2010PropOp52
 70
     0
102
RTVSPost2010Prop53
 90
        2
102
RTVSPost2010PropOp53
 70
     1
102
RTVSPost2010Prop54
  1
strokes_ogs.tif
102
RTVSPost2010PropOp54
 70
     1
102
RTVSPost2010Prop55
280
     0
102
RTVSPost2010PropOp55
 70
     1
102
RTVSPost2010Prop56
140
1.0
102
RTVSPost2010PropOp56
 70
     1
102
RTVSPost2010Prop57
140
1.0
102
RTVSPost2010PropOp57
 70
     1
102
RTVSPropertyOp0
 70
     1
102
RTVSPropertyOp1
 70
     1
102
RTVSPropertyOp2
 70
     1
102
RTVSPropertyOp3
 70
     1
102
RTVSPropertyOp4
 70
     1
102
RTVSPropertyOp5
 70
     1
102
RTVSPropertyOp6
 70
     1
102
RTVSPropertyOp7
 70
     1
102
RTVSPropertyOp8
 70
     1
102
RTVSPropertyOp9
 70
     1
102
RTVSPropertyOp10
 70
     1
102
RTVSPropertyOp11
 70
     1
102
RTVSPropertyOp12
 70
     1
102
RTVSPropertyOp13
 70
     1
102
RTVSPropertyOp14
 70
     1
102
RTVSPropertyOp15
 70
     1
102
RTVSPropertyOp16
 70
     1
102
RTVSPropertyOp17
 70
     1
102
RTVSPropertyOp18
 70
     1
102
RTVSPropertyOp19
 70
     1
102
RTVSPropertyOp20
 70
     1
102
RTVSPropertyOp21
 70
     1
102
RTVSPropertyOp22
 70
     1
102
RTVSPropertyOp23
 70
     1
102
RTVSPropertyOp24
 70
     1
102
RTVSPropertyOp25
 70
     1
102
RTVSPropertyOp26
 70
     1
102
RTVSPropertyOp27
 70
     1
102
RTVSPropertyOp28
 70
     1
102
RTVSPropertyOp29
 70
     1
102
RTVSPropertyOp30
 70
     1
102
RTVSPropertyOp31
 70
     1
102
RTVSPropertyOp32
 70
     1
102
RTVSPropertyOp33
 70
     1
102
RTVSPropertyOp34
 70
     1
102
RTVSPropertyOp35
 70
     1
102
RTVSPropertyOp36
 70
     1
102
RTVSPropertyOp37
 70
     1
102
RTVSPropertyOp38
 70
     1
102
RTVSPropertyOp39
 70
     1
102
RTVSPropertyOp40
 70
     1
102
RTVSPropertyOp41
 70
     1
102
RTVSPropertyOp42
 70
     1
102
RTVSPropertyOp43
 70
     1
102
RTVSPropertyOp44
 70
     1
102
RTVSPropertyOp45
 70
     1
102
RTVSPropertyOp46
 70
     1
102
RTVSPropertyOp47
 70
     1
102
RTVSPropertyOp48
 70
     1
102
RTVSPropertyOp49
 70
     1
102
RTVSPropertyOp50
 70
     1
102
RTVSPropertyOp51
 70
     0
102
RTVSPropertyOp52
 70
     0
102
RTVSPropertyOp53
 70
     1
102
RTVSPropertyOp54
 70
     1
102
RTVSPropertyOp55
 70
     1
102
RTVSPropertyOp56
 70
     1
102
RTVSPropertyOp57
 70
     1
102
RTVSPropertyOp58
 70
     1
102
RTVSPropertyOp59
 70
     1
102
RTVSPropertyOp60
 70
     1
102
RTVSPropertyOp61
 70
     1
102
RTVSPropertyOp62
 70
     1
  0
XRECORD
  5
1BD6
102
{ACAD_REACTORS
330
1BD5
102
}
330
1BD5
100
AcDbXrecord
280
     1
102
RTVSPost2010Prop28
280
     0
102
RTVSPost2010PropOp28
 70
     1
102
RTVSPost2010Prop29
280
     1
102
RTVSPost2010PropOp29
 70
     1
102
RTVSPost2010Prop30
280
     1
102
RTVSPost2010PropOp30
 70
     1
102
RTVSPost2010Prop31
280
     0
102
RTVSPost2010PropOp31
 70
     1
102
RTVSPost2010Prop32
280
     0
102
RTVSPost2010PropOp32
 70
     1
102
RTVSPost2010Prop33
280
     0
102
RTVSPost2010PropOp33
 70
     1
102
RTVSPost2010Prop34
280
     0
102
RTVSPost2010PropOp34
 70
     1
102
RTVSPost2010Prop35
280
     0
102
RTVSPost2010PropOp35
 70
     1
102
RTVSPost2010Prop36
280
     0
102
RTVSPost2010PropOp36
 70
     1
102
RTVSPost2010Prop37
 90
       50
102
RTVSPost2010PropOp37
 70
     1
102
RTVSPost2010Prop38
140
0.0
102
RTVSPost2010PropOp38
 70
     1
102
RTVSPost2010Prop39
140
1.0
102
RTVSPost2010PropOp39
 70
     1
102
RTVSPost2010Prop40
 90
        0
102
RTVSPost2010PropOp40
 70
     1
102
RTVSPost2010Prop41ColorIndex
 90
       18
102
RTVSPost2010Prop41ColorRGB
 90
        0
102
RTVSPost2010PropOp41
 70
     1
102
RTVSPost2010Prop42
 90
       50
102
RTVSPost2010PropOp42
 70
     1
102
RTVSPost2010Prop43
 90
        3
102
RTVSPost2010PropOp43
 70
     1
102
RTVSPost2010Prop44ColorIndex
 90
        5
102
RTVSPost2010Prop44ColorRGB
 90
      255
102
RTVSPost2010PropOp44
 70
     1
102
RTVSPost2010Prop45
280
     0
102
RTVSPost2010PropOp45
 70
     1
102
RTVSPost2010Prop46
 90
       50
102
RTVSPost2010PropOp46
 70
     1
102
RTVSPost2010Prop47
 90
       50
102
RTVSPost2010PropOp47
 70
     1
102
RTVSPost2010Prop48
 90
       50
102
RTVSPost2010PropOp48
 70
     1
102
RTVSPost2010Prop49
280
     0
102
RTVSPost2010PropOp49
 70
     1
102
RTVSPost2010Prop50
 90
       50
102
RTVSPost2010PropOp50
 70
     1
102
RTVSPost2010Prop51ColorIndex
 90
      256
102
RTVSPost2010Prop51ColorRGB
 90
-16777216
102
RTVSPost2010PropOp51
 70
     0
102
RTVSPost2010Prop52
140
1.0
102
RTVSPost2010PropOp52
 70
     0
102
RTVSPost2010Prop53
 90
        2
102
RTVSPost2010PropOp53
 70
     1
102
RTVSPost2010Prop54
  1
strokes_ogs.tif
102
RTVSPost2010PropOp54
 70
     1
102
RTVSPost2010Prop55
280
     0
102
RTVSPost2010PropOp55
 70
     1
102
RTVSPost2010Prop56
140
1.0
102
RTVSPost2010PropOp56
 70
     1
102
RTVSPost2010Prop57
140
1.0
102
RTVSPost2010PropOp57
 70
     1
102
RTVSPropertyOp0
 70
     1
102
RTVSPropertyOp1
 70
     1
102
RTVSPropertyOp2
 70
     1
102
RTVSPropertyOp3
 70
     1
102
RTVSPropertyOp4
 70
     1
102
RTVSPropertyOp5
 70
     1
102
RTVSPropertyOp6
 70
     1
102
RTVSPropertyOp7
 70
     1
102
RTVSPropertyOp8
 70
     1
102
RTVSPropertyOp9
 70
     1
102
RTVSPropertyOp10
 70
     1
102
RTVSPropertyOp11
 70
     1
102
RTVSPropertyOp12
 70
     1
102
RTVSPropertyOp13
 70
     1
102
RTVSPropertyOp14
 70
     1
102
RTVSPropertyOp15
 70
     1
102
RTVSPropertyOp16
 70
     1
102
RTVSPropertyOp17
 70
     1
102
RTVSPropertyOp18
 70
     1
102
RTVSPropertyOp19
 70
     1
102
RTVSPropertyOp20
 70
     1
102
RTVSPropertyOp21
 70
     1
102
RTVSPropertyOp22
 70
     1
102
RTVSPropertyOp23
 70
     1
102
RTVSPropertyOp24
 70
     1
102
RTVSPropertyOp25
 70
     1
102
RTVSPropertyOp26
 70
     1
102
RTVSPropertyOp27
 70
     1
102
RTVSPropertyOp28
 70
     1
102
RTVSPropertyOp29
 70
     1
102
RTVSPropertyOp30
 70
     1
102
RTVSPropertyOp31
 70
     1
102
RTVSPropertyOp32
 70
     1
102
RTVSPropertyOp33
 70
     1
102
RTVSPropertyOp34
 70
     1
102
RTVSPropertyOp35
 70
     1
102
RTVSPropertyOp36
 70
     1
102
RTVSPropertyOp37
 70
     1
102
RTVSPropertyOp38
 70
     1
102
RTVSPropertyOp39
 70
     1
102
RTVSPropertyOp40
 70
     1
102
RTVSPropertyOp41
 70
     1
102
RTVSPropertyOp42
 70
     1
102
RTVSPropertyOp43
 70
     1
102
RTVSPropertyOp44
 70
     1
102
RTVSPropertyOp45
 70
     1
102
RTVSPropertyOp46
 70
     1
102
RTVSPropertyOp47
 70
     1
102
RTVSPropertyOp48
 70
     1
102
RTVSPropertyOp49
 70
     1
102
RTVSPropertyOp50
 70
     1
102
RTVSPropertyOp51
 70
     0
102
RTVSPropertyOp52
 70
     0
102
RTVSPropertyOp53
 70
     1
102
RTVSPropertyOp54
 70
     1
102
RTVSPropertyOp55
 70
     1
102
RTVSPropertyOp56
 70
     1
102
RTVSPropertyOp57
 70
     1
102
RTVSPropertyOp58
 70
     1
102
RTVSPropertyOp59
 70
     1
102
RTVSPropertyOp60
 70
     1
102
RTVSPropertyOp61
 70
     1
102
RTVSPropertyOp62
 70
     1
  0
XRECORD
  5
1BD0
102
{ACAD_REACTORS
330
1BCF
102
}
330
1BCF
100
AcDbXrecord
280
     1
102
RTVSPost2010Prop28
280
     0
102
RTVSPost2010PropOp28
 70
     1
102
RTVSPost2010Prop29
280
     1
102
RTVSPost2010PropOp29
 70
     1
102
RTVSPost2010Prop30
280
     1
102
RTVSPost2010PropOp30
 70
     1
102
RTVSPost2010Prop31
280
     0
102
RTVSPost2010PropOp31
 70
     1
102
RTVSPost2010Prop32
280
     0
102
RTVSPost2010PropOp32
 70
     1
102
RTVSPost2010Prop33
280
     0
102
RTVSPost2010PropOp33
 70
     1
102
RTVSPost2010Prop34
280
     0
102
RTVSPost2010PropOp34
 70
     1
102
RTVSPost2010Prop35
280
     0
102
RTVSPost2010PropOp35
 70
     1
102
RTVSPost2010Prop36
280
     0
102
RTVSPost2010PropOp36
 70
     1
102
RTVSPost2010Prop37
 90
       50
102
RTVSPost2010PropOp37
 70
     1
102
RTVSPost2010Prop38
140
0.0
102
RTVSPost2010PropOp38
 70
     1
102
RTVSPost2010Prop39
140
1.0
102
RTVSPost2010PropOp39
 70
     1
102
RTVSPost2010Prop40
 90
        0
102
RTVSPost2010PropOp40
 70
     1
102
RTVSPost2010Prop41ColorIndex
 90
       18
102
RTVSPost2010Prop41ColorRGB
 90
        0
102
RTVSPost2010PropOp41
 70
     1
102
RTVSPost2010Prop42
 90
       50
102
RTVSPost2010PropOp42
 70
     1
102
RTVSPost2010Prop43
 90
        3
102
RTVSPost2010PropOp43
 70
     1
102
RTVSPost2010Prop44ColorIndex
 90
        5
102
RTVSPost2010Prop44ColorRGB
 90
      255
102
RTVSPost2010PropOp44
 70
     1
102
RTVSPost2010Prop45
280
     0
102
RTVSPost2010PropOp45
 70
     1
102
RTVSPost2010Prop46
 90
       50
102
RTVSPost2010PropOp46
 70
     1
102
RTVSPost2010Prop47
 90
       50
102
RTVSPost2010PropOp47
 70
     1
102
RTVSPost2010Prop48
 90
       50
102
RTVSPost2010PropOp48
 70
     1
102
RTVSPost2010Prop49
280
     0
102
RTVSPost2010PropOp49
 70
     1
102
RTVSPost2010Prop50
 90
       50
102
RTVSPost2010PropOp50
 70
     1
102
RTVSPost2010Prop51ColorIndex
 90
      256
102
RTVSPost2010Prop51ColorRGB
 90
-16777216
102
RTVSPost2010PropOp51
 70
     0
102
RTVSPost2010Prop52
140
1.0
102
RTVSPost2010PropOp52
 70
     0
102
RTVSPost2010Prop53
 90
        2
102
RTVSPost2010PropOp53
 70
     1
102
RTVSPost2010Prop54
  1
strokes_ogs.tif
102
RTVSPost2010PropOp54
 70
     1
102
RTVSPost2010Prop55
280
     0
102
RTVSPost2010PropOp55
 70
     1
102
RTVSPost2010Prop56
140
1.0
102
RTVSPost2010PropOp56
 70
     1
102
RTVSPost2010Prop57
140
1.0
102
RTVSPost2010PropOp57
 70
     1
102
RTVSPropertyOp0
 70
     1
102
RTVSPropertyOp1
 70
     1
102
RTVSPropertyOp2
 70
     1
102
RTVSPropertyOp3
 70
     1
102
RTVSPropertyOp4
 70
     1
102
RTVSPropertyOp5
 70
     1
102
RTVSPropertyOp6
 70
     1
102
RTVSPropertyOp7
 70
     1
102
RTVSPropertyOp8
 70
     1
102
RTVSPropertyOp9
 70
     1
102
RTVSPropertyOp10
 70
     1
102
RTVSPropertyOp11
 70
     1
102
RTVSPropertyOp12
 70
     1
102
RTVSPropertyOp13
 70
     1
102
RTVSPropertyOp14
 70
     1
102
RTVSPropertyOp15
 70
     1
102
RTVSPropertyOp16
 70
     1
102
RTVSPropertyOp17
 70
     1
102
RTVSPropertyOp18
 70
     1
102
RTVSPropertyOp19
 70
     1
102
RTVSPropertyOp20
 70
     1
102
RTVSPropertyOp21
 70
     1
102
RTVSPropertyOp22
 70
     1
102
RTVSPropertyOp23
 70
     1
102
RTVSPropertyOp24
 70
     1
102
RTVSPropertyOp25
 70
     1
102
RTVSPropertyOp26
 70
     1
102
RTVSPropertyOp27
 70
     1
102
RTVSPropertyOp28
 70
     1
102
RTVSPropertyOp29
 70
     1
102
RTVSPropertyOp30
 70
     1
102
RTVSPropertyOp31
 70
     1
102
RTVSPropertyOp32
 70
     1
102
RTVSPropertyOp33
 70
     1
102
RTVSPropertyOp34
 70
     1
102
RTVSPropertyOp35
 70
     1
102
RTVSPropertyOp36
 70
     1
102
RTVSPropertyOp37
 70
     1
102
RTVSPropertyOp38
 70
     1
102
RTVSPropertyOp39
 70
     1
102
RTVSPropertyOp40
 70
     1
102
RTVSPropertyOp41
 70
     1
102
RTVSPropertyOp42
 70
     1
102
RTVSPropertyOp43
 70
     1
102
RTVSPropertyOp44
 70
     1
102
RTVSPropertyOp45
 70
     1
102
RTVSPropertyOp46
 70
     1
102
RTVSPropertyOp47
 70
     1
102
RTVSPropertyOp48
 70
     1
102
RTVSPropertyOp49
 70
     1
102
RTVSPropertyOp50
 70
     1
102
RTVSPropertyOp51
 70
     0
102
RTVSPropertyOp52
 70
     0
102
RTVSPropertyOp53
 70
     1
102
RTVSPropertyOp54
 70
     1
102
RTVSPropertyOp55
 70
     1
102
RTVSPropertyOp56
 70
     1
102
RTVSPropertyOp57
 70
     1
102
RTVSPropertyOp58
 70
     1
102
RTVSPropertyOp59
 70
     1
102
RTVSPropertyOp60
 70
     1
102
RTVSPropertyOp61
 70
     1
102
RTVSPropertyOp62
 70
     1
  0
XRECORD
  5
1BD2
102
{ACAD_REACTORS
330
1BD1
102
}
330
1BD1
100
AcDbXrecord
280
     1
102
RTVSPost2010Prop28
280
     0
102
RTVSPost2010PropOp28
 70
     1
102
RTVSPost2010Prop29
280
     1
102
RTVSPost2010PropOp29
 70
     1
102
RTVSPost2010Prop30
280
     1
102
RTVSPost2010PropOp30
 70
     1
102
RTVSPost2010Prop31
280
     0
102
RTVSPost2010PropOp31
 70
     1
102
RTVSPost2010Prop32
280
     0
102
RTVSPost2010PropOp32
 70
     1
102
RTVSPost2010Prop33
280
     0
102
RTVSPost2010PropOp33
 70
     1
102
RTVSPost2010Prop34
280
     0
102
RTVSPost2010PropOp34
 70
     1
102
RTVSPost2010Prop35
280
     0
102
RTVSPost2010PropOp35
 70
     1
102
RTVSPost2010Prop36
280
     0
102
RTVSPost2010PropOp36
 70
     1
102
RTVSPost2010Prop37
 90
       50
102
RTVSPost2010PropOp37
 70
     1
102
RTVSPost2010Prop38
140
0.0
102
RTVSPost2010PropOp38
 70
     1
102
RTVSPost2010Prop39
140
1.0
102
RTVSPost2010PropOp39
 70
     1
102
RTVSPost2010Prop40
 90
        0
102
RTVSPost2010PropOp40
 70
     1
102
RTVSPost2010Prop41ColorIndex
 90
       18
102
RTVSPost2010Prop41ColorRGB
 90
        0
102
RTVSPost2010PropOp41
 70
     1
102
RTVSPost2010Prop42
 90
       50
102
RTVSPost2010PropOp42
 70
     1
102
RTVSPost2010Prop43
 90
        3
102
RTVSPost2010PropOp43
 70
     1
102
RTVSPost2010Prop44ColorIndex
 90
        5
102
RTVSPost2010Prop44ColorRGB
 90
      255
102
RTVSPost2010PropOp44
 70
     1
102
RTVSPost2010Prop45
280
     0
102
RTVSPost2010PropOp45
 70
     1
102
RTVSPost2010Prop46
 90
       50
102
RTVSPost2010PropOp46
 70
     1
102
RTVSPost2010Prop47
 90
       50
102
RTVSPost2010PropOp47
 70
     1
102
RTVSPost2010Prop48
 90
       50
102
RTVSPost2010PropOp48
 70
     1
102
RTVSPost2010Prop49
280
     0
102
RTVSPost2010PropOp49
 70
     1
102
RTVSPost2010Prop50
 90
       50
102
RTVSPost2010PropOp50
 70
     1
102
RTVSPost2010Prop51ColorIndex
 90
      256
102
RTVSPost2010Prop51ColorRGB
 90
-16777216
102
RTVSPost2010PropOp51
 70
     0
102
RTVSPost2010Prop52
140
1.0
102
RTVSPost2010PropOp52
 70
     0
102
RTVSPost2010Prop53
 90
        2
102
RTVSPost2010PropOp53
 70
     1
102
RTVSPost2010Prop54
  1
strokes_ogs.tif
102
RTVSPost2010PropOp54
 70
     1
102
RTVSPost2010Prop55
280
     0
102
RTVSPost2010PropOp55
 70
     1
102
RTVSPost2010Prop56
140
1.0
102
RTVSPost2010PropOp56
 70
     1
102
RTVSPost2010Prop57
140
1.0
102
RTVSPost2010PropOp57
 70
     1
102
RTVSPropertyOp0
 70
     1
102
RTVSPropertyOp1
 70
     1
102
RTVSPropertyOp2
 70
     1
102
RTVSPropertyOp3
 70
     1
102
RTVSPropertyOp4
 70
     1
102
RTVSPropertyOp5
 70
     1
102
RTVSPropertyOp6
 70
     1
102
RTVSPropertyOp7
 70
     1
102
RTVSPropertyOp8
 70
     1
102
RTVSPropertyOp9
 70
     1
102
RTVSPropertyOp10
 70
     1
102
RTVSPropertyOp11
 70
     1
102
RTVSPropertyOp12
 70
     1
102
RTVSPropertyOp13
 70
     1
102
RTVSPropertyOp14
 70
     1
102
RTVSPropertyOp15
 70
     1
102
RTVSPropertyOp16
 70
     1
102
RTVSPropertyOp17
 70
     1
102
RTVSPropertyOp18
 70
     1
102
RTVSPropertyOp19
 70
     1
102
RTVSPropertyOp20
 70
     1
102
RTVSPropertyOp21
 70
     1
102
RTVSPropertyOp22
 70
     1
102
RTVSPropertyOp23
 70
     1
102
RTVSPropertyOp24
 70
     1
102
RTVSPropertyOp25
 70
     1
102
RTVSPropertyOp26
 70
     1
102
RTVSPropertyOp27
 70
     1
102
RTVSPropertyOp28
 70
     1
102
RTVSPropertyOp29
 70
     1
102
RTVSPropertyOp30
 70
     1
102
RTVSPropertyOp31
 70
     1
102
RTVSPropertyOp32
 70
     1
102
RTVSPropertyOp33
 70
     1
102
RTVSPropertyOp34
 70
     1
102
RTVSPropertyOp35
 70
     1
102
RTVSPropertyOp36
 70
     1
102
RTVSPropertyOp37
 70
     1
102
RTVSPropertyOp38
 70
     1
102
RTVSPropertyOp39
 70
     1
102
RTVSPropertyOp40
 70
     1
102
RTVSPropertyOp41
 70
     1
102
RTVSPropertyOp42
 70
     1
102
RTVSPropertyOp43
 70
     1
102
RTVSPropertyOp44
 70
     1
102
RTVSPropertyOp45
 70
     1
102
RTVSPropertyOp46
 70
     1
102
RTVSPropertyOp47
 70
     1
102
RTVSPropertyOp48
 70
     1
102
RTVSPropertyOp49
 70
     1
102
RTVSPropertyOp50
 70
     1
102
RTVSPropertyOp51
 70
     0
102
RTVSPropertyOp52
 70
     0
102
RTVSPropertyOp53
 70
     1
102
RTVSPropertyOp54
 70
     1
102
RTVSPropertyOp55
 70
     1
102
RTVSPropertyOp56
 70
     1
102
RTVSPropertyOp57
 70
     1
102
RTVSPropertyOp58
 70
     1
102
RTVSPropertyOp59
 70
     1
102
RTVSPropertyOp60
 70
     1
102
RTVSPropertyOp61
 70
     1
102
RTVSPropertyOp62
 70
     1
  0
XRECORD
  5
1BC8
102
{ACAD_REACTORS
330
1BC7
102
}
330
1BC7
100
AcDbXrecord
280
     1
102
RTVSPost2010Prop28
280
     0
102
RTVSPost2010PropOp28
 70
     1
102
RTVSPost2010Prop29
280
     1
102
RTVSPost2010PropOp29
 70
     1
102
RTVSPost2010Prop30
280
     1
102
RTVSPost2010PropOp30
 70
     1
102
RTVSPost2010Prop31
280
     0
102
RTVSPost2010PropOp31
 70
     1
102
RTVSPost2010Prop32
280
     0
102
RTVSPost2010PropOp32
 70
     1
102
RTVSPost2010Prop33
280
     0
102
RTVSPost2010PropOp33
 70
     1
102
RTVSPost2010Prop34
280
     0
102
RTVSPost2010PropOp34
 70
     1
102
RTVSPost2010Prop35
280
     0
102
RTVSPost2010PropOp35
 70
     1
102
RTVSPost2010Prop36
280
     0
102
RTVSPost2010PropOp36
 70
     1
102
RTVSPost2010Prop37
 90
       50
102
RTVSPost2010PropOp37
 70
     1
102
RTVSPost2010Prop38
140
0.0
102
RTVSPost2010PropOp38
 70
     1
102
RTVSPost2010Prop39
140
1.0
102
RTVSPost2010PropOp39
 70
     1
102
RTVSPost2010Prop40
 90
        0
102
RTVSPost2010PropOp40
 70
     1
102
RTVSPost2010Prop41ColorIndex
 90
       18
102
RTVSPost2010Prop41ColorRGB
 90
        0
102
RTVSPost2010PropOp41
 70
     1
102
RTVSPost2010Prop42
 90
       50
102
RTVSPost2010PropOp42
 70
     1
102
RTVSPost2010Prop43
 90
        3
102
RTVSPost2010PropOp43
 70
     1
102
RTVSPost2010Prop44ColorIndex
 90
        5
102
RTVSPost2010Prop44ColorRGB
 90
      255
102
RTVSPost2010PropOp44
 70
     1
102
RTVSPost2010Prop45
280
     0
102
RTVSPost2010PropOp45
 70
     1
102
RTVSPost2010Prop46
 90
       50
102
RTVSPost2010PropOp46
 70
     1
102
RTVSPost2010Prop47
 90
       50
102
RTVSPost2010PropOp47
 70
     1
102
RTVSPost2010Prop48
 90
       50
102
RTVSPost2010PropOp48
 70
     1
102
RTVSPost2010Prop49
280
     0
102
RTVSPost2010PropOp49
 70
     1
102
RTVSPost2010Prop50
 90
       50
102
RTVSPost2010PropOp50
 70
     1
102
RTVSPost2010Prop51ColorIndex
 90
      256
102
RTVSPost2010Prop51ColorRGB
 90
-16777216
102
RTVSPost2010PropOp51
 70
     0
102
RTVSPost2010Prop52
140
1.0
102
RTVSPost2010PropOp52
 70
     0
102
RTVSPost2010Prop53
 90
        2
102
RTVSPost2010PropOp53
 70
     1
102
RTVSPost2010Prop54
  1
strokes_ogs.tif
102
RTVSPost2010PropOp54
 70
     1
102
RTVSPost2010Prop55
280
     0
102
RTVSPost2010PropOp55
 70
     1
102
RTVSPost2010Prop56
140
1.0
102
RTVSPost2010PropOp56
 70
     1
102
RTVSPost2010Prop57
140
1.0
102
RTVSPost2010PropOp57
 70
     1
102
RTVSPropertyOp0
 70
     1
102
RTVSPropertyOp1
 70
     1
102
RTVSPropertyOp2
 70
     1
102
RTVSPropertyOp3
 70
     1
102
RTVSPropertyOp4
 70
     1
102
RTVSPropertyOp5
 70
     1
102
RTVSPropertyOp6
 70
     1
102
RTVSPropertyOp7
 70
     1
102
RTVSPropertyOp8
 70
     1
102
RTVSPropertyOp9
 70
     1
102
RTVSPropertyOp10
 70
     1
102
RTVSPropertyOp11
 70
     1
102
RTVSPropertyOp12
 70
     1
102
RTVSPropertyOp13
 70
     1
102
RTVSPropertyOp14
 70
     1
102
RTVSPropertyOp15
 70
     1
102
RTVSPropertyOp16
 70
     1
102
RTVSPropertyOp17
 70
     1
102
RTVSPropertyOp18
 70
     1
102
RTVSPropertyOp19
 70
     1
102
RTVSPropertyOp20
 70
     1
102
RTVSPropertyOp21
 70
     1
102
RTVSPropertyOp22
 70
     1
102
RTVSPropertyOp23
 70
     1
102
RTVSPropertyOp24
 70
     1
102
RTVSPropertyOp25
 70
     1
102
RTVSPropertyOp26
 70
     1
102
RTVSPropertyOp27
 70
     1
102
RTVSPropertyOp28
 70
     1
102
RTVSPropertyOp29
 70
     1
102
RTVSPropertyOp30
 70
     1
102
RTVSPropertyOp31
 70
     1
102
RTVSPropertyOp32
 70
     1
102
RTVSPropertyOp33
 70
     1
102
RTVSPropertyOp34
 70
     1
102
RTVSPropertyOp35
 70
     1
102
RTVSPropertyOp36
 70
     1
102
RTVSPropertyOp37
 70
     1
102
RTVSPropertyOp38
 70
     1
102
RTVSPropertyOp39
 70
     1
102
RTVSPropertyOp40
 70
     1
102
RTVSPropertyOp41
 70
     1
102
RTVSPropertyOp42
 70
     1
102
RTVSPropertyOp43
 70
     1
102
RTVSPropertyOp44
 70
     1
102
RTVSPropertyOp45
 70
     1
102
RTVSPropertyOp46
 70
     1
102
RTVSPropertyOp47
 70
     1
102
RTVSPropertyOp48
 70
     1
102
RTVSPropertyOp49
 70
     1
102
RTVSPropertyOp50
 70
     1
102
RTVSPropertyOp51
 70
     0
102
RTVSPropertyOp52
 70
     0
102
RTVSPropertyOp53
 70
     1
102
RTVSPropertyOp54
 70
     1
102
RTVSPropertyOp55
 70
     1
102
RTVSPropertyOp56
 70
     1
102
RTVSPropertyOp57
 70
     1
102
RTVSPropertyOp58
 70
     1
102
RTVSPropertyOp59
 70
     1
102
RTVSPropertyOp60
 70
     1
102
RTVSPropertyOp61
 70
     1
102
RTVSPropertyOp62
 70
     1
  0
XRECORD
  5
1BBC
102
{ACAD_REACTORS
330
1BBB
102
}
330
1BBB
100
AcDbXrecord
280
     1
102
RTVSPost2010Prop28
280
     0
102
RTVSPost2010PropOp28
 70
     1
102
RTVSPost2010Prop29
280
     1
102
RTVSPost2010PropOp29
 70
     1
102
RTVSPost2010Prop30
280
     1
102
RTVSPost2010PropOp30
 70
     1
102
RTVSPost2010Prop31
280
     0
102
RTVSPost2010PropOp31
 70
     1
102
RTVSPost2010Prop32
280
     0
102
RTVSPost2010PropOp32
 70
     1
102
RTVSPost2010Prop33
280
     0
102
RTVSPost2010PropOp33
 70
     1
102
RTVSPost2010Prop34
280
     0
102
RTVSPost2010PropOp34
 70
     1
102
RTVSPost2010Prop35
280
     0
102
RTVSPost2010PropOp35
 70
     1
102
RTVSPost2010Prop36
280
     0
102
RTVSPost2010PropOp36
 70
     1
102
RTVSPost2010Prop37
 90
       50
102
RTVSPost2010PropOp37
 70
     1
102
RTVSPost2010Prop38
140
0.0
102
RTVSPost2010PropOp38
 70
     1
102
RTVSPost2010Prop39
140
1.0
102
RTVSPost2010PropOp39
 70
     1
102
RTVSPost2010Prop40
 90
        0
102
RTVSPost2010PropOp40
 70
     1
102
RTVSPost2010Prop41ColorIndex
 90
       18
102
RTVSPost2010Prop41ColorRGB
 90
        0
102
RTVSPost2010PropOp41
 70
     1
102
RTVSPost2010Prop42
 90
       50
102
RTVSPost2010PropOp42
 70
     1
102
RTVSPost2010Prop43
 90
        3
102
RTVSPost2010PropOp43
 70
     1
102
RTVSPost2010Prop44ColorIndex
 90
        5
102
RTVSPost2010Prop44ColorRGB
 90
      255
102
RTVSPost2010PropOp44
 70
     1
102
RTVSPost2010Prop45
280
     0
102
RTVSPost2010PropOp45
 70
     1
102
RTVSPost2010Prop46
 90
       50
102
RTVSPost2010PropOp46
 70
     1
102
RTVSPost2010Prop47
 90
       50
102
RTVSPost2010PropOp47
 70
     1
102
RTVSPost2010Prop48
 90
       50
102
RTVSPost2010PropOp48
 70
     1
102
RTVSPost2010Prop49
280
     0
102
RTVSPost2010PropOp49
 70
     1
102
RTVSPost2010Prop50
 90
       50
102
RTVSPost2010PropOp50
 70
     1
102
RTVSPost2010Prop51ColorIndex
 90
      256
102
RTVSPost2010Prop51ColorRGB
 90
-16777216
102
RTVSPost2010PropOp51
 70
     0
102
RTVSPost2010Prop52
140
1.0
102
RTVSPost2010PropOp52
 70
     0
102
RTVSPost2010Prop53
 90
        2
102
RTVSPost2010PropOp53
 70
     1
102
RTVSPost2010Prop54
  1
strokes_ogs.tif
102
RTVSPost2010PropOp54
 70
     1
102
RTVSPost2010Prop55
280
     0
102
RTVSPost2010PropOp55
 70
     1
102
RTVSPost2010Prop56
140
1.0
102
RTVSPost2010PropOp56
 70
     1
102
RTVSPost2010Prop57
140
1.0
102
RTVSPost2010PropOp57
 70
     1
102
RTVSPropertyOp0
 70
     1
102
RTVSPropertyOp1
 70
     1
102
RTVSPropertyOp2
 70
     1
102
RTVSPropertyOp3
 70
     1
102
RTVSPropertyOp4
 70
     1
102
RTVSPropertyOp5
 70
     1
102
RTVSPropertyOp6
 70
     1
102
RTVSPropertyOp7
 70
     1
102
RTVSPropertyOp8
 70
     1
102
RTVSPropertyOp9
 70
     1
102
RTVSPropertyOp10
 70
     1
102
RTVSPropertyOp11
 70
     1
102
RTVSPropertyOp12
 70
     1
102
RTVSPropertyOp13
 70
     1
102
RTVSPropertyOp14
 70
     1
102
RTVSPropertyOp15
 70
     1
102
RTVSPropertyOp16
 70
     1
102
RTVSPropertyOp17
 70
     1
102
RTVSPropertyOp18
 70
     1
102
RTVSPropertyOp19
 70
     1
102
RTVSPropertyOp20
 70
     1
102
RTVSPropertyOp21
 70
     1
102
RTVSPropertyOp22
 70
     1
102
RTVSPropertyOp23
 70
     1
102
RTVSPropertyOp24
 70
     1
102
RTVSPropertyOp25
 70
     1
102
RTVSPropertyOp26
 70
     1
102
RTVSPropertyOp27
 70
     1
102
RTVSPropertyOp28
 70
     1
102
RTVSPropertyOp29
 70
     1
102
RTVSPropertyOp30
 70
     1
102
RTVSPropertyOp31
 70
     1
102
RTVSPropertyOp32
 70
     1
102
RTVSPropertyOp33
 70
     1
102
RTVSPropertyOp34
 70
     1
102
RTVSPropertyOp35
 70
     1
102
RTVSPropertyOp36
 70
     1
102
RTVSPropertyOp37
 70
     1
102
RTVSPropertyOp38
 70
     1
102
RTVSPropertyOp39
 70
     1
102
RTVSPropertyOp40
 70
     1
102
RTVSPropertyOp41
 70
     1
102
RTVSPropertyOp42
 70
     1
102
RTVSPropertyOp43
 70
     1
102
RTVSPropertyOp44
 70
     1
102
RTVSPropertyOp45
 70
     1
102
RTVSPropertyOp46
 70
     1
102
RTVSPropertyOp47
 70
     1
102
RTVSPropertyOp48
 70
     1
102
RTVSPropertyOp49
 70
     1
102
RTVSPropertyOp50
 70
     1
102
RTVSPropertyOp51
 70
     0
102
RTVSPropertyOp52
 70
     0
102
RTVSPropertyOp53
 70
     1
102
RTVSPropertyOp54
 70
     1
102
RTVSPropertyOp55
 70
     1
102
RTVSPropertyOp56
 70
     1
102
RTVSPropertyOp57
 70
     1
102
RTVSPropertyOp58
 70
     1
102
RTVSPropertyOp59
 70
     1
102
RTVSPropertyOp60
 70
     1
102
RTVSPropertyOp61
 70
     1
102
RTVSPropertyOp62
 70
     1
  0
XRECORD
  5
1BD4
102
{ACAD_REACTORS
330
1BD3
102
}
330
1BD3
100
AcDbXrecord
280
     1
102
RTVSPost2010Prop28
280
     0
102
RTVSPost2010PropOp28
 70
     1
102
RTVSPost2010Prop29
280
     1
102
RTVSPost2010PropOp29
 70
     1
102
RTVSPost2010Prop30
280
     1
102
RTVSPost2010PropOp30
 70
     1
102
RTVSPost2010Prop31
280
     0
102
RTVSPost2010PropOp31
 70
     1
102
RTVSPost2010Prop32
280
     0
102
RTVSPost2010PropOp32
 70
     1
102
RTVSPost2010Prop33
280
     0
102
RTVSPost2010PropOp33
 70
     1
102
RTVSPost2010Prop34
280
     0
102
RTVSPost2010PropOp34
 70
     1
102
RTVSPost2010Prop35
280
     0
102
RTVSPost2010PropOp35
 70
     1
102
RTVSPost2010Prop36
280
     0
102
RTVSPost2010PropOp36
 70
     1
102
RTVSPost2010Prop37
 90
       50
102
RTVSPost2010PropOp37
 70
     1
102
RTVSPost2010Prop38
140
0.0
102
RTVSPost2010PropOp38
 70
     1
102
RTVSPost2010Prop39
140
1.0
102
RTVSPost2010PropOp39
 70
     1
102
RTVSPost2010Prop40
 90
        0
102
RTVSPost2010PropOp40
 70
     1
102
RTVSPost2010Prop41ColorIndex
 90
       18
102
RTVSPost2010Prop41ColorRGB
 90
        0
102
RTVSPost2010PropOp41
 70
     1
102
RTVSPost2010Prop42
 90
       50
102
RTVSPost2010PropOp42
 70
     1
102
RTVSPost2010Prop43
 90
        3
102
RTVSPost2010PropOp43
 70
     1
102
RTVSPost2010Prop44ColorIndex
 90
        5
102
RTVSPost2010Prop44ColorRGB
 90
      255
102
RTVSPost2010PropOp44
 70
     1
102
RTVSPost2010Prop45
280
     0
102
RTVSPost2010PropOp45
 70
     1
102
RTVSPost2010Prop46
 90
       50
102
RTVSPost2010PropOp46
 70
     1
102
RTVSPost2010Prop47
 90
       50
102
RTVSPost2010PropOp47
 70
     1
102
RTVSPost2010Prop48
 90
       50
102
RTVSPost2010PropOp48
 70
     1
102
RTVSPost2010Prop49
280
     0
102
RTVSPost2010PropOp49
 70
     1
102
RTVSPost2010Prop50
 90
       50
102
RTVSPost2010PropOp50
 70
     1
102
RTVSPost2010Prop51ColorIndex
 90
      256
102
RTVSPost2010Prop51ColorRGB
 90
-16777216
102
RTVSPost2010PropOp51
 70
     0
102
RTVSPost2010Prop52
140
1.0
102
RTVSPost2010PropOp52
 70
     0
102
RTVSPost2010Prop53
 90
        2
102
RTVSPost2010PropOp53
 70
     1
102
RTVSPost2010Prop54
  1
strokes_ogs.tif
102
RTVSPost2010PropOp54
 70
     1
102
RTVSPost2010Prop55
280
     0
102
RTVSPost2010PropOp55
 70
     1
102
RTVSPost2010Prop56
140
1.0
102
RTVSPost2010PropOp56
 70
     1
102
RTVSPost2010Prop57
140
1.0
102
RTVSPost2010PropOp57
 70
     1
102
RTVSPropertyOp0
 70
     1
102
RTVSPropertyOp1
 70
     1
102
RTVSPropertyOp2
 70
     1
102
RTVSPropertyOp3
 70
     1
102
RTVSPropertyOp4
 70
     1
102
RTVSPropertyOp5
 70
     1
102
RTVSPropertyOp6
 70
     1
102
RTVSPropertyOp7
 70
     1
102
RTVSPropertyOp8
 70
     1
102
RTVSPropertyOp9
 70
     1
102
RTVSPropertyOp10
 70
     1
102
RTVSPropertyOp11
 70
     1
102
RTVSPropertyOp12
 70
     1
102
RTVSPropertyOp13
 70
     1
102
RTVSPropertyOp14
 70
     1
102
RTVSPropertyOp15
 70
     1
102
RTVSPropertyOp16
 70
     1
102
RTVSPropertyOp17
 70
     1
102
RTVSPropertyOp18
 70
     1
102
RTVSPropertyOp19
 70
     1
102
RTVSPropertyOp20
 70
     1
102
RTVSPropertyOp21
 70
     1
102
RTVSPropertyOp22
 70
     1
102
RTVSPropertyOp23
 70
     1
102
RTVSPropertyOp24
 70
     1
102
RTVSPropertyOp25
 70
     1
102
RTVSPropertyOp26
 70
     1
102
RTVSPropertyOp27
 70
     1
102
RTVSPropertyOp28
 70
     1
102
RTVSPropertyOp29
 70
     1
102
RTVSPropertyOp30
 70
     1
102
RTVSPropertyOp31
 70
     1
102
RTVSPropertyOp32
 70
     1
102
RTVSPropertyOp33
 70
     1
102
RTVSPropertyOp34
 70
     1
102
RTVSPropertyOp35
 70
     1
102
RTVSPropertyOp36
 70
     1
102
RTVSPropertyOp37
 70
     1
102
RTVSPropertyOp38
 70
     1
102
RTVSPropertyOp39
 70
     1
102
RTVSPropertyOp40
 70
     1
102
RTVSPropertyOp41
 70
     1
102
RTVSPropertyOp42
 70
     1
102
RTVSPropertyOp43
 70
     1
102
RTVSPropertyOp44
 70
     1
102
RTVSPropertyOp45
 70
     1
102
RTVSPropertyOp46
 70
     1
102
RTVSPropertyOp47
 70
     1
102
RTVSPropertyOp48
 70
     1
102
RTVSPropertyOp49
 70
     1
102
RTVSPropertyOp50
 70
     1
102
RTVSPropertyOp51
 70
     0
102
RTVSPropertyOp52
 70
     0
102
RTVSPropertyOp53
 70
     1
102
RTVSPropertyOp54
 70
     1
102
RTVSPropertyOp55
 70
     1
102
RTVSPropertyOp56
 70
     1
102
RTVSPropertyOp57
 70
     1
102
RTVSPropertyOp58
 70
     1
102
RTVSPropertyOp59
 70
     1
102
RTVSPropertyOp60
 70
     1
102
RTVSPropertyOp61
 70
     1
102
RTVSPropertyOp62
 70
     1
  0
ENDSEC
  0
EOF
