  0
SECTION
  2
HEADER
  9
$ACADVER
  1
AC1015
  9
$ACADMAINTVER
 70
    20
  9
$DWGCODEPAGE
  3
ANSI_932
  9
$INSBASE
 10
0.0
 20
0.0
 30
0.0
  9
$EXTMIN
 10
9.9999975266385
 20
10.0
 30
0.0
  9
$EXTMAX
 10
578.7106206027059
 20
437.07654334275
 30
0.0
  9
$LIMMIN
 10
0.0000015376081137
 20
-0.0000001931532552
  9
$LIMMAX
 10
675.0000015376079
 20
465.3409088977556
  9
$ORTHOMODE
 70
     1
  9
$REGENMODE
 70
     1
  9
$FILLMODE
 70
     1
  9
$QTEXTMODE
 70
     0
  9
$MIRRTEXT
 70
     1
  9
$LTSCALE
 40
1.0
  9
$ATTMODE
 70
     1
  9
$TEXTSIZE
 40
2.5
  9
$TRACEWID
 40
1.0
  9
$TEXTSTYLE
  7
STANDARD
  9
$CLAYER
  8
0
  9
$CELTYPE
  6
BYLAYER
  9
$CECOLOR
 62
   256
  9
$CELTSCALE
 40
1.0
  9
$DISPSILH
 70
     0
  9
$DIMSCALE
 40
1.0
  9
$DIMASZ
 40
3.0
  9
$DIMEXO
 40
1.0
  9
$DIMDLI
 40
10.0
  9
$DIMRND
 40
0.0
  9
$DIMDLE
 40
0.0
  9
$DIMEXE
 40
1.0
  9
$DIMTP
 40
0.0
  9
$DIMTM
 40
0.0
  9
$DIMTXT
 40
3.2
  9
$DIMCEN
 40
0.0
  9
$DIMTSZ
 40
0.0
  9
$DIMTOL
 70
     0
  9
$DIMLIM
 70
     0
  9
$DIMTIH
 70
     0
  9
$DIMTOH
 70
     0
  9
$DIMSE1
 70
     0
  9
$DIMSE2
 70
     0
  9
$DIMTAD
 70
     3
  9
$DIMZIN
 70
     8
  9
$DIMBLK
  1

  9
$DIMASO
 70
     1
  9
$DIMSHO
 70
     1
  9
$DIMPOST
  1

  9
$DIMAPOST
  1

  9
$DIMALT
 70
     0
  9
$DIMALTD
 70
     2
  9
$DIMALTF
 40
25.4
  9
$DIMLFAC
 40
1.0
  9
$DIMTOFL
 70
     1
  9
$DIMTVP
 40
0.0
  9
$DIMTIX
 70
     0
  9
$DIMSOXD
 70
     0
  9
$DIMSAH
 70
     1
  9
$DIMBLK1
  1
OPEN
  9
$DIMBLK2
  1
OPEN
  9
$DIMSTYLE
  2
STANDARD
  9
$DIMCLRD
 70
     0
  9
$DIMCLRE
 70
     0
  9
$DIMCLRT
 70
     0
  9
$DIMTFAC
 40
1.0
  9
$DIMGAP
 40
1.0
  9
$DIMJUST
 70
     0
  9
$DIMSD1
 70
     0
  9
$DIMSD2
 70
     0
  9
$DIMTOLJ
 70
     1
  9
$DIMTZIN
 70
     0
  9
$DIMALTZ
 70
     0
  9
$DIMALTTZ
 70
     0
  9
$DIMUPT
 70
     0
  9
$DIMDEC
 70
     4
  9
$DIMTDEC
 70
     4
  9
$DIMALTU
 70
     2
  9
$DIMALTTD
 70
     2
  9
$DIMTXSTY
  7
STANDARD
  9
$DIMAUNIT
 70
     0
  9
$DIMADEC
 70
     0
  9
$DIMALTRND
 40
0.0
  9
$DIMAZIN
 70
     0
  9
$DIMDSEP
 70
    46
  9
$DIMATFIT
 70
     3
  9
$DIMFRAC
 70
     0
  9
$DIMLDRBLK
  1
OPEN
  9
$DIMLUNIT
 70
     2
  9
$DIMLWD
 70
    -2
  9
$DIMLWE
 70
    -2
  9
$DIMTMOVE
 70
     0
  9
$LUNITS
 70
     2
  9
$LUPREC
 70
     4
  9
$SKETCHINC
 40
1.0
  9
$FILLETRAD
 40
18.2
  9
$AUNITS
 70
     0
  9
$AUPREC
 70
     0
  9
$MENU
  1
.
  9
$ELEVATION
 40
0.0
  9
$PELEVATION
 40
0.0
  9
$THICKNESS
 40
0.0
  9
$LIMCHECK
 70
     0
  9
$CHAMFERA
 40
10.0
  9
$CHAMFERB
 40
10.0
  9
$CHAMFERC
 40
20.0
  9
$CHAMFERD
 40
0.0
  9
$SKPOLY
 70
     0
  9
$TDCREATE
 40
2454154.550453368
  9
$TDUCREATE
 40
2454154.175453368
  9
$TDUPDATE
 40
2457192.690805104
  9
$TDUUPDATE
 40
2457192.315805104
  9
$TDINDWG
 40
0.0744614005
  9
$TDUSRTIMER
 40
0.0744613889
  9
$USRTIMER
 70
     1
  9
$ANGBASE
 50
0.0
  9
$ANGDIR
 70
     0
  9
$PDMODE
 70
     0
  9
$PDSIZE
 40
0.0
  9
$PLINEWID
 40
0.0
  9
$SPLFRAME
 70
     0
  9
$SPLINETYPE
 70
     6
  9
$SPLINESEGS
 70
     8
  9
$HANDSEED
  5
1FD2
  9
$SURFTAB1
 70
     6
  9
$SURFTAB2
 70
     6
  9
$SURFTYPE
 70
     6
  9
$SURFU
 70
     6
  9
$SURFV
 70
     6
  9
$UCSBASE
  2

  9
$UCSNAME
  2

  9
$UCSORG
 10
0.0
 20
0.0
 30
0.0
  9
$UCSXDIR
 10
1.0
 20
0.0
 30
0.0
  9
$UCSYDIR
 10
0.0
 20
1.0
 30
0.0
  9
$UCSORTHOREF
  2

  9
$UCSORTHOVIEW
 70
     0
  9
$UCSORGTOP
 10
0.0
 20
0.0
 30
0.0
  9
$UCSORGBOTTOM
 10
0.0
 20
0.0
 30
0.0
  9
$UCSORGLEFT
 10
0.0
 20
0.0
 30
0.0
  9
$UCSORGRIGHT
 10
0.0
 20
0.0
 30
0.0
  9
$UCSORGFRONT
 10
0.0
 20
0.0
 30
0.0
  9
$UCSORGBACK
 10
0.0
 20
0.0
 30
0.0
  9
$PUCSBASE
  2

  9
$PUCSNAME
  2

  9
$PUCSORG
 10
0.0
 20
0.0
 30
0.0
  9
$PUCSXDIR
 10
1.0
 20
0.0
 30
0.0
  9
$PUCSYDIR
 10
0.0
 20
1.0
 30
0.0
  9
$PUCSORTHOREF
  2

  9
$PUCSORTHOVIEW
 70
     0
  9
$PUCSORGTOP
 10
0.0
 20
0.0
 30
0.0
  9
$PUCSORGBOTTOM
 10
0.0
 20
0.0
 30
0.0
  9
$PUCSORGLEFT
 10
0.0
 20
0.0
 30
0.0
  9
$PUCSORGRIGHT
 10
0.0
 20
0.0
 30
0.0
  9
$PUCSORGFRONT
 10
0.0
 20
0.0
 30
0.0
  9
$PUCSORGBACK
 10
0.0
 20
0.0
 30
0.0
  9
$USERI1
 70
     0
  9
$USERI2
 70
     0
  9
$USERI3
 70
     0
  9
$USERI4
 70
     0
  9
$USERI5
 70
     0
  9
$USERR1
 40
0.0
  9
$USERR2
 40
0.0
  9
$USERR3
 40
0.0
  9
$USERR4
 40
0.0
  9
$USERR5
 40
0.0
  9
$WORLDVIEW
 70
     1
  9
$SHADEDGE
 70
     3
  9
$SHADEDIF
 70
    70
  9
$TILEMODE
 70
     1
  9
$MAXACTVP
 70
    48
  9
$PINSBASE
 10
0.0
 20
0.0
 30
0.0
  9
$PLIMCHECK
 70
     0
  9
$PEXTMIN
 10
1.000000000000000E+20
 20
1.000000000000000E+20
 30
1.000000000000000E+20
  9
$PEXTMAX
 10
-1.000000000000000E+20
 20
-1.000000000000000E+20
 30
-1.000000000000000E+20
  9
$PLIMMIN
 10
0.0
 20
0.0
  9
$PLIMMAX
 10
420.0
 20
297.0
  9
$UNITMODE
 70
     0
  9
$VISRETAIN
 70
     1
  9
$PLINEGEN
 70
     0
  9
$PSLTSCALE
 70
     1
  9
$TREEDEPTH
 70
  3020
  9
$CMLSTYLE
  2
STANDARD
  9
$CMLJUST
 70
     0
  9
$CMLSCALE
 40
20.0
  9
$PROXYGRAPHICS
 70
     1
  9
$MEASUREMENT
 70
     0
  9
$CELWEIGHT
370
    -1
  9
$ENDCAPS
280
     0
  9
$JOINSTYLE
280
     0
  9
$LWDISPLAY
290
     0
  9
$INSUNITS
 70
     0
  9
$HYPERLINKBASE
  1

  9
$STYLESHEET
  1

  9
$XEDIT
290
     1
  9
$CEPSNTYPE
380
     0
  9
$PSTYLEMODE
290
     1
  9
$FINGERPRINTGUID
  2
{C8B33CAD-9D6B-43BA-A437-3BC3C3860E45}
  9
$VERSIONGUID
  2
{8FEAC829-D9BE-4429-954D-BDA4AC827FBD}
  9
$EXTNAMES
290
     1
  9
$PSVPSCALE
 40
0.0
  9
$OLESTARTUP
290
     0
  0
ENDSEC
  0
SECTION
  2
CLASSES
  0
CLASS
  1
ACDBDICTIONARYWDFLT
  2
AcDbDictionaryWithDefault
  3
ObjectDBX Classes
 90
        0
280
     0
281
     0
  0
CLASS
  1
ACDBPLACEHOLDER
  2
AcDbPlaceHolder
  3
ObjectDBX Classes
 90
        0
280
     0
281
     0
  0
CLASS
  1
LAYOUT
  2
AcDbLayout
  3
ObjectDBX Classes
 90
        0
280
     0
281
     0
  0
CLASS
  1
DICTIONARYVAR
  2
AcDbDictionaryVar
  3
ObjectDBX Classes
 90
        0
280
     0
281
     0
  0
CLASS
  1
MATERIAL
  2
AcDbMaterial
  3
ObjectDBX Classes
 90
     1153
280
     0
281
     0
  0
CLASS
  1
VISUALSTYLE
  2
AcDbVisualStyle
  3
ObjectDBX Classes
 90
     4095
280
     0
281
     0
  0
CLASS
  1
TABLESTYLE
  2
AcDbTableStyle
  3
ObjectDBX Classes
 90
     4095
280
     0
281
     0
  0
CLASS
  1
SCALE
  2
AcDbScale
  3
ObjectDBX Classes
 90
     1153
280
     0
281
     0
  0
CLASS
  1
MLEADERSTYLE
  2
AcDbMLeaderStyle
  3
ACDB_MLEADERSTYLE_CLASS
 90
     4095
280
     0
281
     0
  0
CLASS
  1
ACDBSECTIONVIEWSTYLE
  2
AcDbSectionViewStyle
  3
ObjectDBX Classes
 90
     1025
280
     0
281
     0
  0
CLASS
  1
ACDBDETAILVIEWSTYLE
  2
AcDbDetailViewStyle
  3
ObjectDBX Classes
 90
     1025
280
     0
281
     0
  0
CLASS
  1
CELLSTYLEMAP
  2
AcDbCellStyleMap
  3
ObjectDBX Classes
 90
     1152
280
     0
281
     0
  0
ENDSEC
  0
SECTION
  2
TABLES
  0
TABLE
  2
VPORT
  5
8
330
0
100
AcDbSymbolTable
 70
     1
  0
VPORT
  5
1F1C
330
8
100
AcDbSymbolTableRecord
100
AcDbViewportTableRecord
  2
*ACTIVE
 70
     0
 10
0.0
 20
0.0
 11
1.0
 21
1.0
 12
471.2479377939366
 22
223.5462631005838
 13
0.0
 23
0.0
 14
10.0
 24
10.0
 15
10.0
 25
10.0
 16
0.0
 26
0.0
 36
1.0
 17
0.0
 27
0.0
 37
0.0
 40
430.3452962379956
 41
2.35006605019815
 42
50.0
 43
0.0
 44
0.0
 50
0.0
 51
0.0
 71
     0
 72
   100
 73
     1
 74
     0
 75
     0
 76
     0
 77
     0
 78
     0
281
     0
 65
     1
110
0.0
120
0.0
130
0.0
111
1.0
121
0.0
131
0.0
112
0.0
122
1.0
132
0.0
 79
     0
146
0.0
1001
ACAD_NAV_VCDISPLAY
1070
     3
  0
ENDTAB
  0
TABLE
  2
LTYPE
  5
5
330
0
100
AcDbSymbolTable
 70
     4
  0
LTYPE
  5
12
330
5
100
AcDbSymbolTableRecord
100
AcDbLinetypeTableRecord
  2
BYBLOCK
 70
     0
  3

 72
    65
 73
     0
 40
0.0
  0
LTYPE
  5
13
330
5
100
AcDbSymbolTableRecord
100
AcDbLinetypeTableRecord
  2
BYLAYER
 70
     0
  3

 72
    65
 73
     0
 40
0.0
  0
LTYPE
  5
14
330
5
100
AcDbSymbolTableRecord
100
AcDbLinetypeTableRecord
  2
CONTINUOUS
 70
     0
  3
Solid line
 72
    65
 73
     0
 40
0.0
  0
LTYPE
  5
4B
330
5
100
AcDbSymbolTableRecord
100
AcDbLinetypeTableRecord
  2
DASHED
 70
     0
  3
Dashed __ __ __ __ __ __ __ __ __ __ __ __ __ _
 72
    65
 73
     2
 40
19.04999999999999
 49
12.7
 74
     0
 49
-6.349999999999998
 74
     0
  0
LTYPE
  5
4C
330
5
100
AcDbSymbolTableRecord
100
AcDbLinetypeTableRecord
  2
CENTER
 70
     0
  3
Center ____ _ ____ _ ____ _ ____ _ ____ _ ____
 72
    65
 73
     4
 40
50.8
 49
31.75
 74
     0
 49
-6.349999999999998
 74
     0
 49
6.349999999999998
 74
     0
 49
-6.349999999999998
 74
     0
  0
LTYPE
  5
4D
330
5
100
AcDbSymbolTableRecord
100
AcDbLinetypeTableRecord
  2
PHANTOM
 70
     0
  3
Phantom ______  __  __  ______  __  __  ______
 72
    65
 73
     6
 40
63.5
 49
31.75
 74
     0
 49
-6.349999999999998
 74
     0
 49
6.349999999999998
 74
     0
 49
-6.349999999999998
 74
     0
 49
6.349999999999998
 74
     0
 49
-6.349999999999998
 74
     0
  0
ENDTAB
  0
TABLE
  2
LAYER
  5
2
330
0
100
AcDbSymbolTable
 70
     8
  0
LAYER
  5
E
102
{ACAD_XDICTIONARY
360
1F76
102
}
330
2
100
AcDbSymbolTableRecord
100
AcDbLayerTableRecord
  2
0
 70
     0
 62
     7
  6
CONTINUOUS
370
    -3
390
1F25
  0
LAYER
  5
4E
102
{ACAD_XDICTIONARY
360
1F78
102
}
330
2
100
AcDbSymbolTableRecord
100
AcDbLayerTableRecord
  2
4
 70
     0
 62
     1
  6
CENTER
370
    -3
390
1F25
  0
LAYER
  5
4F
102
{ACAD_XDICTIONARY
360
1F7A
102
}
330
2
100
AcDbSymbolTableRecord
100
AcDbLayerTableRecord
  2
5
 70
     0
 62
     6
  6
PHANTOM
370
    -3
390
1F25
  0
LAYER
  5
50
102
{ACAD_XDICTIONARY
360
1F7C
102
}
330
2
100
AcDbSymbolTableRecord
100
AcDbLayerTableRecord
  2
1
 70
     0
 62
     7
  6
CONTINUOUS
370
    -3
390
1F25
  0
LAYER
  5
51
102
{ACAD_XDICTIONARY
360
1F7E
102
}
330
2
100
AcDbSymbolTableRecord
100
AcDbLayerTableRecord
  2
2
 70
     0
 62
     4
  6
CONTINUOUS
370
    -3
390
1F25
  0
LAYER
  5
52
102
{ACAD_XDICTIONARY
360
1F80
102
}
330
2
100
AcDbSymbolTableRecord
100
AcDbLayerTableRecord
  2
3
 70
     0
 62
     2
  6
DASHED
370
    -3
390
1F25
  0
LAYER
  5
53
102
{ACAD_XDICTIONARY
360
1F82
102
}
330
2
100
AcDbSymbolTableRecord
100
AcDbLayerTableRecord
  2
6
 70
     0
 62
     5
  6
CONTINUOUS
370
    -3
390
1F25
  0
LAYER
  5
54
102
{ACAD_XDICTIONARY
360
1F84
102
}
330
2
100
AcDbSymbolTableRecord
100
AcDbLayerTableRecord
  2
7
 70
     0
 62
     3
  6
CONTINUOUS
370
    -3
390
1F25
  0
ENDTAB
  0
TABLE
  2
STYLE
  5
3
330
0
100
AcDbSymbolTable
 70
     1
  0
STYLE
  5
F
330
3
100
AcDbSymbolTableRecord
100
AcDbTextStyleTableRecord
  2
STANDARD
 70
     0
 40
0.0
 41
1.0
 50
0.0
 71
     0
 42
2.5
  3
simplex.shx
  4

  0
ENDTAB
  0
TABLE
  2
VIEW
  5
6
330
0
100
AcDbSymbolTable
 70
     0
  0
ENDTAB
  0
TABLE
  2
UCS
  5
7
330
0
100
AcDbSymbolTable
 70
     0
  0
ENDTAB
  0
TABLE
  2
APPID
  5
9
330
0
100
AcDbSymbolTable
 70
     5
  0
APPID
  5
10
330
9
100
AcDbSymbolTableRecord
100
AcDbRegAppTableRecord
  2
ACAD
 70
     0
  0
APPID
  5
3E
330
9
100
AcDbSymbolTableRecord
100
AcDbRegAppTableRecord
  2
CONTENTTABDATA
 70
     0
  0
APPID
  5
3F
330
9
100
AcDbSymbolTableRecord
100
AcDbRegAppTableRecord
  2
CONTENTCURRENTTAB
 70
     0
  0
APPID
  5
1F90
330
9
100
AcDbSymbolTableRecord
100
AcDbRegAppTableRecord
  2
ACAD_NAV_VCDISPLAY
 70
     0
  0
APPID
  5
1FC9
330
9
100
AcDbSymbolTableRecord
100
AcDbRegAppTableRecord
  2
ACAD_MLEADERVER
 70
     0
  0
ENDTAB
  0
TABLE
  2
DIMSTYLE
  5
A
330
0
100
AcDbSymbolTable
 70
     1
100
AcDbDimStyleTable
 71
     0
  0
DIMSTYLE
105
1D
330
A
100
AcDbSymbolTableRecord
100
AcDbDimStyleTableRecord
  2
STANDARD
 70
     0
 41
3.0
 42
1.0
 43
10.0
 44
1.0
 73
     0
 74
     0
 77
     3
 78
     8
140
3.2
141
0.0
147
1.0
172
     1
173
     1
340
F
341
2E
343
2E
344
2E
  0
ENDTAB
  0
TABLE
  2
BLOCK_RECORD
  5
1
330
0
100
AcDbSymbolTable
 70
     1
  0
BLOCK_RECORD
  5
18
102
{ACAD_XDICTIONARY
360
1F1F
102
}
330
1
100
AcDbSymbolTableRecord
100
AcDbBlockTableRecord
  2
*MODEL_SPACE
340
1F73
  0
BLOCK_RECORD
  5
15
102
{ACAD_XDICTIONARY
360
1F1D
102
}
330
1
100
AcDbSymbolTableRecord
100
AcDbBlockTableRecord
  2
*PAPER_SPACE
340
1F74
  0
BLOCK_RECORD
  5
2E
330
1
100
AcDbSymbolTableRecord
100
AcDbBlockTableRecord
  2
_OPEN
340
0
  0
ENDTAB
  0
ENDSEC
  0
SECTION
  2
BLOCKS
  0
BLOCK
  5
19
330
18
100
AcDbEntity
  8
0
100
AcDbBlockBegin
  2
*MODEL_SPACE
 70
     0
 10
0.0
 20
0.0
 30
0.0
  3
*MODEL_SPACE
  1

  0
ENDBLK
  5
1A
330
18
100
AcDbEntity
  8
0
100
AcDbBlockEnd
  0
BLOCK
  5
16
330
15
100
AcDbEntity
 67
     1
  8
0
100
AcDbBlockBegin
  2
*PAPER_SPACE
 70
     0
 10
0.0
 20
0.0
 30
0.0
  3
*PAPER_SPACE
  1

  0
ENDBLK
  5
17
330
15
100
AcDbEntity
 67
     1
  8
0
100
AcDbBlockEnd
  0
BLOCK
  5
2F
330
2E
100
AcDbEntity
  8
0
100
AcDbBlockBegin
  2
_OPEN
 70
     0
 10
0.0
 20
0.0
 30
0.0
  3
_OPEN
  1

  0
LINE
  5
30
330
2E
100
AcDbEntity
  8
0
  6
ByBlock
 62
     0
100
AcDbLine
 10
-1.0
 20
0.1666666666666666
 30
0.0
 11
0.0
 21
0.0
 31
0.0
  0
LINE
  5
31
330
2E
100
AcDbEntity
  8
0
  6
ByBlock
 62
     0
100
AcDbLine
 10
0.0
 20
0.0
 30
0.0
 11
-1.0
 21
-0.1666666666666666
 31
0.0
  0
LINE
  5
32
330
2E
100
AcDbEntity
  8
0
  6
ByBlock
 62
     0
100
AcDbLine
 10
0.0
 20
0.0
 30
0.0
 11
-1.0
 21
0.0
 31
0.0
  0
ENDBLK
  5
33
330
2E
100
AcDbEntity
  8
0
100
AcDbBlockEnd
  0
ENDSEC
  0
SECTION
  2
ENTITIES
  0
TEXT
  5
63
330
18
100
AcDbEntity
  8
4
  6
CENTER
 48
0.25
100
AcDbText
 10
23.97950852663849
 20
10.0
 30
0.0
 40
1.399999999999999
  1
4
100
AcDbText
  0
TEXT
  5
64
330
18
100
AcDbEntity
  8
7
  6
Continuous
 48
0.25
100
AcDbText
 10
9.999997526638502
 20
26.0000007607689
 30
0.0
 40
3.0
  1
CODE No.19272
100
AcDbText
  0
TEXT
  5
65
330
18
100
AcDbEntity
  8
7
  6
Continuous
 48
0.25
100
AcDbText
 10
9.999997526638502
 20
18.00000076076889
 30
0.0
 40
3.0
  1
TYPE No.TCA-50SUS-RU65
100
AcDbText
  0
TEXT
  5
66
330
18
100
AcDbEntity
  8
1
  6
Continuous
 48
0.25
100
AcDbText
 10
9.999997526638502
 20
10.00000076076889
 30
0.0
 40
1.399999999999999
  1
LAYER
100
AcDbText
  0
TEXT
  5
67
330
18
100
AcDbEntity
  8
2
  6
Continuous
 48
0.25
100
AcDbText
 10
19.9795085266385
 20
10.0
 30
0.0
 40
1.399999999999999
  1
2
100
AcDbText
  0
TEXT
  5
68
330
18
100
AcDbEntity
  8
3
  6
DASHED
 48
0.25
100
AcDbText
 10
21.9795085266385
 20
10.0
 30
0.0
 40
1.399999999999999
  1
3
100
AcDbText
  0
TEXT
  5
69
330
18
100
AcDbEntity
  8
1
  6
Continuous
 48
0.25
100
AcDbText
 10
17.9795085266385
 20
10.0
 30
0.0
 40
1.399999999999999
  1
1
100
AcDbText
  0
TEXT
  5
6A
330
18
100
AcDbEntity
  8
5
  6
PHANTOM
 48
0.25
100
AcDbText
 10
25.9795085266385
 20
10.0
 30
0.0
 40
1.399999999999999
  1
5
100
AcDbText
  0
TEXT
  5
6B
330
18
100
AcDbEntity
  8
6
  6
Continuous
 48
0.25
100
AcDbText
 10
27.9795085266385
 20
10.0
 30
0.0
 40
1.399999999999999
  1
6
100
AcDbText
  0
TEXT
  5
6C
330
18
100
AcDbEntity
  8
7
  6
Continuous
 48
0.25
100
AcDbText
 10
29.9795085266385
 20
10.0
 30
0.0
 40
1.399999999999999
  1
7
100
AcDbText
  0
LINE
  5
21B
330
18
100
AcDbEntity
  8
1
  6
Continuous
100
AcDbLine
 10
212.8241887907252
 20
361.52654334275
 30
0.0
 11
212.8241887907252
 21
361.92653734275
 31
0.0
  0
LINE
  5
21C
330
18
100
AcDbEntity
  8
1
  6
Continuous
100
AcDbLine
 10
212.8241887907253
 20
361.8265341427484
 30
0.0
 11
229.8241887907254
 21
361.8265341427484
 31
0.0
  0
LINE
  5
21D
330
18
100
AcDbEntity
  8
1
  6
Continuous
100
AcDbLine
 10
212.8241887907253
 20
361.92653734275
 30
0.0
 11
212.8241887907253
 21
366.82654634275
 31
0.0
  0
ARC
  5
21E
330
18
100
AcDbEntity
  8
1
  6
Continuous
100
AcDbCircle
 10
217.0741887907253
 20
370.6159154984591
 30
0.0
 40
8.785729134311964
100
AcDbArc
 50
241.0701105902595
 51
298.9298894097387
  0
ARC
  5
21F
330
18
100
AcDbEntity
  8
1
  6
Continuous
100
AcDbCircle
 10
214.0241897907253
 20
361.52654334275
 30
0.0
 40
1.199999999999999
100
AcDbArc
 50
180.0000025044784
 51
270.1281173047712
  0
LINE
  5
220
330
18
100
AcDbEntity
  8
1
  6
Continuous
100
AcDbLine
 10
229.8241887907253
 20
361.52654334275
 30
0.0
 11
229.8241887907253
 21
361.92653734275
 31
0.0
  0
LINE
  5
221
330
18
100
AcDbEntity
  8
1
  6
Continuous
100
AcDbLine
 10
228.6241917907254
 20
360.32654634275
 30
0.0
 11
214.0268730710457
 21
360.32654634275
 31
0.0
  0
LINE
  5
222
330
18
100
AcDbEntity
  8
1
  6
Continuous
100
AcDbLine
 10
221.3241887907252
 20
362.92653734275
 30
0.0
 11
221.3241887907252
 21
366.8265463427498
 31
0.0
  0
LINE
  5
223
330
18
100
AcDbEntity
  8
1
  6
Continuous
100
AcDbLine
 10
229.8241887907254
 20
361.92653734275
 30
0.0
 11
229.8241887907254
 21
366.82654634275
 31
0.0
  0
ARC
  5
224
330
18
100
AcDbEntity
  8
1
  6
Continuous
100
AcDbCircle
 10
225.5741887907254
 20
370.6157486350503
 30
0.0
 40
8.785583093775763
100
AcDbArc
 50
241.0695841800873
 51
298.9304158199126
  0
ARC
  5
225
330
18
100
AcDbEntity
  8
1
  6
Continuous
100
AcDbCircle
 10
228.6241917907254
 20
361.52654334275
 30
0.0
 40
1.199999999999999
100
AcDbArc
 50
270.0000089999995
 51
0.0000100000001922
  0
LINE
  5
229
330
18
100
AcDbEntity
  8
1
  6
Continuous
100
AcDbLine
 10
221.3241887907252
 20
214.4861678845793
 30
0.0
 11
229.8241887907252
 21
219.3936443993992
 31
0.0
  0
LINE
  5
22A
330
18
100
AcDbEntity
  8
1
  6
Continuous
100
AcDbLine
 10
212.8241887907251
 20
219.393644399399
 30
0.0
 11
221.324188790725
 21
214.486167884579
 31
0.0
  0
LINE
  5
22B
330
18
100
AcDbEntity
  8
1
  6
Continuous
100
AcDbLine
 10
212.8241887907251
 20
229.208602884579
 30
0.0
 11
212.8241887907251
 21
219.393644399399
 31
0.0
  0
LINE
  5
22C
330
18
100
AcDbEntity
  8
1
  6
Continuous
100
AcDbLine
 10
212.824188790725
 20
229.208602884579
 30
0.0
 11
221.3241893335645
 21
234.1160797128075
 31
0.0
  0
LINE
  5
22D
330
18
100
AcDbEntity
  8
1
  6
Continuous
100
AcDbLine
 10
224.5741887907251
 20
228.1007906419892
 30
0.0
 11
225.5196997907251
 21
228.3605946419892
 31
0.0
  0
LINE
  5
22E
330
18
100
AcDbEntity
  8
1
  6
Continuous
100
AcDbLine
 10
218.0741887907252
 20
228.1007906419892
 30
0.0
 11
217.1286777907252
 21
228.3605946419892
 31
0.0
  0
LINE
  5
22F
330
18
100
AcDbEntity
  8
1
  6
Continuous
100
AcDbLine
 10
224.5741887907253
 20
220.5014566419892
 30
0.0
 11
225.5197067907253
 21
220.2416526419892
 31
0.0
  0
LINE
  5
230
330
18
100
AcDbEntity
  8
1
  6
Continuous
100
AcDbLine
 10
218.074180790725
 20
220.501448641989
 30
0.0
 11
217.128677790725
 21
220.2416526419892
 31
0.0
  0
CIRCLE
  5
231
330
18
100
AcDbEntity
  8
1
  6
Continuous
100
AcDbCircle
 10
221.3241887907252
 20
224.301123641989
 30
0.0
 40
5.0
  0
CIRCLE
  5
232
330
18
100
AcDbEntity
  8
2
  6
Continuous
100
AcDbCircle
 10
221.3241887907252
 20
224.301123641989
 30
0.0
 40
4.187999999999998
  0
ARC
  5
233
330
18
100
AcDbEntity
  8
1
  6
Continuous
100
AcDbCircle
 10
217.0491867907251
 20
228.071318641989
 30
0.0
 40
0.30000001
100
AcDbArc
 50
74.63575800000047
 51
138.5903800000001
  0
ARC
  5
234
330
18
100
AcDbEntity
  8
1
  6
Continuous
100
AcDbCircle
 10
225.5991907907252
 20
228.071318641989
 30
0.0
 40
0.30000001
100
AcDbArc
 50
41.4096170000004
 51
105.3642400000007
  0
ARC
  5
235
330
18
100
AcDbEntity
  8
1
  6
Continuous
100
AcDbCircle
 10
221.3241887907252
 20
224.301123641989
 30
0.0
 40
6.0
100
AcDbArc
 50
138.5903699999986
 51
221.4096300000012
  0
ARC
  5
237
330
18
100
AcDbEntity
  8
1
  6
Continuous
100
AcDbCircle
 10
217.0491867907251
 20
220.530928641989
 30
0.0
 40
0.30000001
100
AcDbArc
 50
221.4096199999998
 51
285.3642400000007
  0
ARC
  5
238
330
18
100
AcDbEntity
  8
1
  6
Continuous
100
AcDbCircle
 10
225.5991907907252
 20
220.530928641989
 30
0.0
 40
0.30000001
100
AcDbArc
 50
254.6357599999992
 51
318.5903800000001
  0
LINE
  5
239
330
18
100
AcDbEntity
  8
1
  6
Continuous
100
AcDbLine
 10
229.8241887907252
 20
229.2085942577618
 30
0.0
 11
229.8241887907252
 21
219.393644399399
 31
0.0
  0
LINE
  5
23A
330
18
100
AcDbEntity
  8
1
  6
Continuous
100
AcDbLine
 10
221.3241893335645
 20
234.1160797128075
 30
0.0
 11
229.8241887907252
 21
229.2085942577618
 31
0.0
  0
CIRCLE
  5
23B
330
18
100
AcDbEntity
  8
1
  6
Continuous
100
AcDbCircle
 10
221.3241887907252
 20
224.301123641989
 30
0.0
 40
8.5
  0
CIRCLE
  5
23C
330
18
100
AcDbEntity
  8
1
  6
Continuous
100
AcDbCircle
 10
221.3241887907252
 20
224.301123641989
 30
0.0
 40
6.5
  0
ARC
  5
23D
330
18
100
AcDbEntity
  8
1
  6
Continuous
100
AcDbCircle
 10
221.3241887907252
 20
224.301123641989
 30
0.0
 40
6.0
100
AcDbArc
 50
318.5903800000001
 51
41.40962399999903
  0
ARC
  5
247
330
18
100
AcDbEntity
  8
1
  6
Continuous
100
AcDbCircle
 10
229.5741887907254
 20
419.2265413427501
 30
0.0
 40
0.5
100
AcDbArc
 50
354.9999899999995
 51
68.04870000000261
  0
ARC
  5
248
330
18
100
AcDbEntity
  8
1
  6
Continuous
100
AcDbCircle
 10
213.0741887907254
 20
419.2265413427501
 30
0.0
 40
0.5
100
AcDbArc
 50
111.9513099999995
 51
185.0000032999997
  0
ARC
  5
249
330
18
100
AcDbEntity
  8
1
  6
Continuous
100
AcDbCircle
 10
221.3241887907253
 20
398.75700934275
 30
0.0
 40
22.56953
100
AcDbArc
 50
68.04870000000261
 51
111.9513099999995
  0
LINE
  5
24A
330
18
100
AcDbEntity
  8
1
  6
Continuous
100
AcDbLine
 10
212.5760907907257
 20
419.1829593427502
 30
0.0
 11
212.6947617907257
 21
417.82654034275
 31
0.0
  0
LINE
  5
24B
330
18
100
AcDbEntity
  8
1
  6
Continuous
100
AcDbLine
 10
230.0722857907253
 20
419.18296234275
 30
0.0
 11
229.9536137907252
 21
417.82654034275
 31
0.0
  0
LINE
  5
24C
330
18
100
AcDbEntity
  8
1
  6
Continuous
100
AcDbLine
 10
212.9690177907255
 20
419.2265413427501
 30
0.0
 11
229.7430247907254
 21
419.2265413427501
 31
0.0
  0
LINE
  5
24F
330
18
100
AcDbEntity
  8
1
  6
Continuous
100
AcDbLine
 10
216.3241887907251
 20
358.4765403427498
 30
0.0
 11
216.3241887907251
 21
360.3265463427498
 31
0.0
  0
LINE
  5
250
330
18
100
AcDbEntity
  8
1
  6
Continuous
100
AcDbLine
 10
226.3241887907252
 20
358.4765403427498
 30
0.0
 11
226.3241887907252
 21
360.3265463427498
 31
0.0
  0
LINE
  5
251
330
18
100
AcDbEntity
  8
1
  6
Continuous
100
AcDbLine
 10
217.0741867907254
 20
357.72652534275
 30
0.0
 11
216.3241807907254
 21
358.47653234275
 31
0.0
  0
LINE
  5
252
330
18
100
AcDbEntity
  8
1
  6
Continuous
100
AcDbLine
 10
226.3242187907252
 20
358.4765023427498
 30
0.0
 11
225.5742177907253
 21
357.72650234275
 31
0.0
  0
LINE
  5
253
330
18
100
AcDbEntity
  8
1
  6
Continuous
100
AcDbLine
 10
216.3241887907252
 20
358.47654034275
 30
0.0
 11
226.3241877907253
 21
358.47654034275
 31
0.0
  0
LINE
  5
254
330
18
100
AcDbEntity
  8
1
  6
Continuous
100
AcDbLine
 10
217.0741887907252
 20
357.7265403427499
 30
0.0
 11
225.5741877907253
 21
357.7265403427499
 31
0.0
  0
LINE
  5
2D4
330
18
100
AcDbEntity
  8
4
  6
CENTER
 48
0.5
100
AcDbLine
 10
182.8241887907251
 20
224.301123641989
 30
0.0
 11
259.8241887907252
 21
224.301123641989
 31
0.0
  0
LINE
  5
2D5
330
18
100
AcDbEntity
  8
4
  6
CENTER
 48
0.5
100
AcDbLine
 10
221.3241887907252
 20
185.801123641989
 30
0.0
 11
221.3241887907252
 21
287.801123641989
 31
0.0
  0
LINE
  5
2D6
330
18
100
AcDbEntity
  8
1
  6
Continuous
100
AcDbLine
 10
180.3241887907251
 20
281.8011236419891
 30
0.0
 11
262.3241887907252
 21
281.8011236419891
 31
0.0
  0
LINE
  5
2DB
330
18
100
AcDbEntity
  8
1
  6
Continuous
100
AcDbLine
 10
232.3241887907252
 20
226.458823641989
 30
0.0
 11
232.3241887907252
 21
279.501120641989
 31
0.0
  0
LINE
  5
2DC
330
18
100
AcDbEntity
  8
1
  6
Continuous
100
AcDbLine
 10
210.3241887907252
 20
226.662955641989
 30
0.0
 11
210.3241887907252
 21
279.101126641989
 31
0.0
  0
LINE
  5
2DD
330
18
100
AcDbEntity
  8
1
  6
Continuous
100
AcDbLine
 10
189.064583790725
 20
272.675013641989
 30
0.0
 11
188.213218790725
 21
273.0144246419889
 31
0.0
  0
LINE
  5
2DE
330
18
100
AcDbEntity
  8
1
  6
Continuous
100
AcDbLine
 10
253.5838017907252
 20
272.675005641989
 30
0.0
 11
254.4351617907252
 21
273.014414641989
 31
0.0
  0
LINE
  5
2DF
330
18
100
AcDbEntity
  8
4
  6
CENTER
 48
0.5
100
AcDbLine
 10
379.5174046967156
 20
185.801123641989
 30
0.0
 11
379.5174046967156
 21
287.801123641989
 31
0.0
  0
LINE
  5
2E9
330
18
100
AcDbEntity
  8
4
  6
CENTER
 48
0.5
100
AcDbLine
 10
414.7174237724443
 20
224.301123641989
 30
0.0
 11
338.7174307724444
 21
224.301123641989
 31
0.0
  0
LINE
  5
2EE
330
18
100
AcDbEntity
  8
1
  6
Continuous
100
AcDbLine
 10
235.7241907907251
 20
221.601126641989
 30
0.0
 11
249.2201887907252
 21
267.873124641989
 31
0.0
  0
LINE
  5
2EF
330
18
100
AcDbEntity
  8
1
  6
Continuous
100
AcDbLine
 10
206.9241872907251
 20
221.6011266419892
 30
0.0
 11
193.4281878907252
 21
267.8731226419892
 31
0.0
  0
LINE
  5
2F0
330
18
100
AcDbEntity
  8
1
  6
Continuous
100
AcDbLine
 10
180.3241887907251
 20
357.82654334275
 30
0.0
 11
180.3241887907254
 21
426.82654334275
 31
0.0
  0
LINE
  5
2F1
330
18
100
AcDbEntity
  8
1
  6
Continuous
100
AcDbLine
 10
262.3241887907252
 20
357.8265433427497
 30
0.0
 11
262.3241887907254
 21
426.8265433427496
 31
0.0
  0
LINE
  5
2F2
330
18
100
AcDbEntity
  8
4
  6
CENTER
 48
0.2
100
AcDbLine
 10
258.8241887907252
 20
360.8265433427498
 30
0.0
 11
246.8241887907252
 21
360.82654334275
 31
0.0
  0
LINE
  5
2F4
330
18
100
AcDbEntity
  8
4
  6
CENTER
 48
0.2
100
AcDbLine
 10
258.8241887907254
 20
423.8265433427498
 30
0.0
 11
246.8241887907254
 21
423.82654334275
 31
0.0
  0
LINE
  5
2F5
330
18
100
AcDbEntity
  8
4
  6
CENTER
 48
0.2
100
AcDbLine
 10
195.8241887907254
 20
423.82654334275
 30
0.0
 11
183.8241887907254
 21
423.82654334275
 31
0.0
  0
LINE
  5
2F6
330
18
100
AcDbEntity
  8
4
  6
CENTER
 48
0.2
100
AcDbLine
 10
189.8241887907254
 20
429.82654334275
 30
0.0
 11
189.8241887907254
 21
417.82654334275
 31
0.0
  0
LINE
  5
2F7
330
18
100
AcDbEntity
  8
4
  6
CENTER
 48
0.2
100
AcDbLine
 10
252.8241887907252
 20
366.82654334275
 30
0.0
 11
252.8241887907252
 21
354.82654334275
 31
0.0
  0
LINE
  5
2F8
330
18
100
AcDbEntity
  8
4
  6
CENTER
 48
0.2
100
AcDbLine
 10
252.8241887907254
 20
429.82654334275
 30
0.0
 11
252.8241887907254
 21
417.82654334275
 31
0.0
  0
LINE
  5
2F9
330
18
100
AcDbEntity
  8
4
  6
CENTER
 48
0.2
100
AcDbLine
 10
195.8241887907253
 20
360.82654334275
 30
0.0
 11
183.8241887907253
 21
360.82654334275
 31
0.0
  0
LINE
  5
2FA
330
18
100
AcDbEntity
  8
4
  6
CENTER
 48
0.2
100
AcDbLine
 10
189.8241887907253
 20
366.82654334275
 30
0.0
 11
189.8241887907252
 21
354.82654334275
 31
0.0
  0
LINE
  5
2FB
330
18
100
AcDbEntity
  8
1
  6
Continuous
100
AcDbLine
 10
194.8241887907253
 20
375.32654334275
 30
0.0
 11
194.8241887907254
 21
409.32654334275
 31
0.0
  0
LINE
  5
2FC
330
18
100
AcDbEntity
  8
1
  6
Continuous
100
AcDbLine
 10
247.8241887907252
 20
375.32654334275
 30
0.0
 11
247.8241887907254
 21
409.32654334275
 31
0.0
  0
LINE
  5
2FD
330
18
100
AcDbEntity
  8
1
  6
Continuous
100
AcDbLine
 10
242.8241887907252
 20
375.32654334275
 30
0.0
 11
242.8241887907254
 21
409.32654334275
 31
0.0
  0
LINE
  5
2FF
330
18
100
AcDbEntity
  8
4
  6
CENTER
 48
0.5
100
AcDbLine
 10
268.3241887907253
 20
392.3265433427498
 30
0.0
 11
174.3241887907254
 21
392.32654334275
 31
0.0
  0
LINE
  5
300
330
18
100
AcDbEntity
  8
4
  6
CENTER
 48
0.5
100
AcDbLine
 10
221.3241887907252
 20
351.52654034275
 30
0.0
 11
221.3241887907253
 21
427.32653934275
 31
0.0
  0
LINE
  5
304
330
18
100
AcDbEntity
  8
1
  6
Continuous
100
AcDbLine
 10
186.3241887907254
 20
435.31182334275
 30
0.0
 11
186.3241887907254
 21
437.07654334275
 31
0.0
  0
LINE
  5
305
330
18
100
AcDbEntity
  8
1
  6
Continuous
100
AcDbLine
 10
256.3241887907254
 20
435.3118233427498
 30
0.0
 11
256.3241887907254
 21
437.0765433427497
 31
0.0
  0
LINE
  5
306
330
18
100
AcDbEntity
  8
1
  6
Continuous
100
AcDbLine
 10
199.8241887907253
 20
375.32654334275
 30
0.0
 11
199.8241887907254
 21
409.32654334275
 31
0.0
  0
LINE
  5
307
330
18
100
AcDbEntity
  8
1
  6
Continuous
100
AcDbLine
 10
256.3241887907252
 20
347.5765433427497
 30
0.0
 11
256.3241887907252
 21
349.3412603427497
 31
0.0
  0
LINE
  5
308
330
18
100
AcDbEntity
  8
1
  6
Continuous
100
AcDbLine
 10
186.3241887907252
 20
347.57654334275
 30
0.0
 11
186.3241887907252
 21
349.3412603427497
 31
0.0
  0
ARC
  5
30E
330
18
100
AcDbEntity
  8
1
  6
Continuous
100
AcDbCircle
 10
221.3241887907252
 20
225.801123641989
 30
0.0
 40
15.0
100
AcDbArc
 50
196.2601799999997
 51
343.7398099999989
  0
ARC
  5
30F
330
18
100
AcDbEntity
  8
1
  6
Continuous
100
AcDbCircle
 10
253.3241887907252
 20
275.801123641989
 30
0.0
 40
3.0
100
AcDbArc
 50
291.7354799999987
 51
16.60147100000047
  0
ARC
  5
310
330
18
100
AcDbEntity
  8
1
  6
Continuous
100
AcDbCircle
 10
189.3241887907251
 20
275.801123641989
 30
0.0
 40
3.0
100
AcDbArc
 50
163.3984799999999
 51
248.2644299999975
  0
ARC
  5
311
330
18
100
AcDbEntity
  8
1
  6
Continuous
100
AcDbCircle
 10
186.3241887907252
 20
265.801123641989
 30
0.0
 40
7.400000099999996
100
AcDbArc
 50
16.26021099999977
 51
68.26444899999997
  0
ARC
  5
312
330
18
100
AcDbEntity
  8
1
  6
Continuous
100
AcDbCircle
 10
256.3241887907252
 20
265.801123641989
 30
0.0
 40
7.400000099999996
100
AcDbArc
 50
111.7355400000008
 51
163.7398099999989
  0
ARC
  5
315
330
18
100
AcDbEntity
  8
1
  6
Continuous
100
AcDbCircle
 10
260.0323947907252
 20
277.8011236419891
 30
0.0
 40
4.0
100
AcDbArc
 50
89.9999820000008
 51
196.6015900000001
  0
ARC
  5
316
330
18
100
AcDbEntity
  8
1
  6
Continuous
100
AcDbCircle
 10
182.6159867907252
 20
277.8011236419891
 30
0.0
 40
4.0
100
AcDbArc
 50
343.3983700000008
 51
89.9999820000008
  0
ARC
  5
320
330
18
100
AcDbEntity
  8
1
  6
Continuous
100
AcDbCircle
 10
245.3241887907254
 20
375.32654334275
 30
0.0
 40
2.5
100
AcDbArc
 50
179.9999899820869
 51
0.0000399999999546
  0
ARC
  5
321
330
18
100
AcDbEntity
  8
1
  6
Continuous
100
AcDbCircle
 10
245.3241887907254
 20
409.32654334275
 30
0.0
 40
2.5
100
AcDbArc
 50
0.0000399999999546
 51
180.0
  0
CIRCLE
  5
322
330
18
100
AcDbEntity
  8
1
  6
Continuous
100
AcDbCircle
 10
252.8241887907254
 20
423.82654334275
 30
0.0
 40
4.400000099999996
  0
CIRCLE
  5
323
330
18
100
AcDbEntity
  8
1
  6
Continuous
100
AcDbCircle
 10
252.8241887907252
 20
360.82654334275
 30
0.0
 40
4.400000099999996
  0
CIRCLE
  5
324
330
18
100
AcDbEntity
  8
1
  6
Continuous
100
AcDbCircle
 10
189.8241887907252
 20
360.82654334275
 30
0.0
 40
4.400000099999996
  0
CIRCLE
  5
325
330
18
100
AcDbEntity
  8
1
  6
Continuous
100
AcDbCircle
 10
189.8241887907254
 20
423.82654334275
 30
0.0
 40
4.400000099999996
  0
ARC
  5
326
330
18
100
AcDbEntity
  8
1
  6
Continuous
100
AcDbCircle
 10
258.3241887907252
 20
349.34126034275
 30
0.0
 40
2.0
100
AcDbArc
 50
109.4712550000008
 51
180.0
  0
ARC
  5
327
330
18
100
AcDbEntity
  8
1
  6
Continuous
100
AcDbCircle
 10
258.3241887907254
 20
435.31182334275
 30
0.0
 40
2.0
100
AcDbArc
 50
180.0
 51
250.5288100000004
  0
ARC
  5
328
330
18
100
AcDbEntity
  8
1
  6
Continuous
100
AcDbCircle
 10
184.3241887907253
 20
435.31182334275
 30
0.0
 40
2.0
100
AcDbArc
 50
289.4712299999982
 51
0.0000399999999546
  0
ARC
  5
329
330
18
100
AcDbEntity
  8
1
  6
Continuous
100
AcDbCircle
 10
184.3241887907252
 20
349.3412603427501
 30
0.0
 40
2.0
100
AcDbArc
 50
0.0000399999999546
 51
70.52877999999987
  0
ARC
  5
32E
330
18
100
AcDbEntity
  8
1
  6
Continuous
100
AcDbCircle
 10
187.3241887907253
 20
426.82654334275
 30
0.0
 40
7.0
100
AcDbArc
 50
109.4712340000009
 51
180.0
  0
ARC
  5
32F
330
18
100
AcDbEntity
  8
1
  6
Continuous
100
AcDbCircle
 10
255.3241887907254
 20
426.82654334275
 30
0.0
 40
7.0
100
AcDbArc
 50
0.0000399999999546
 51
70.52880000000072
  0
ARC
  5
330
330
18
100
AcDbEntity
  8
1
  6
Continuous
100
AcDbCircle
 10
255.3241887907252
 20
357.82654334275
 30
0.0
 40
7.0
100
AcDbArc
 50
289.4712299999982
 51
0.0000399999999546
  0
ARC
  5
331
330
18
100
AcDbEntity
  8
1
  6
Continuous
100
AcDbCircle
 10
187.3241887907252
 20
357.82654334275
 30
0.0
 40
7.0
100
AcDbArc
 50
180.0
 51
250.5288199999994
  0
ARC
  5
332
330
18
100
AcDbEntity
  8
1
  6
Continuous
100
AcDbCircle
 10
197.3241887907253
 20
375.32654334275
 30
0.0
 40
2.5
100
AcDbArc
 50
179.9999899820869
 51
0.0000399999999546
  0
ARC
  5
333
330
18
100
AcDbEntity
  8
1
  6
Continuous
100
AcDbCircle
 10
197.3241887907254
 20
409.32654334275
 30
0.0
 40
2.5
100
AcDbArc
 50
0.0000399999999546
 51
180.0
  0
LINE
  5
351
330
18
100
AcDbEntity
  8
4
  6
CENTER
 48
0.2
100
AcDbLine
 10
252.8241887907252
 20
274.601123641989
 30
0.0
 11
252.8241887907252
 21
285.801123641989
 31
0.0
  0
LINE
  5
352
330
18
100
AcDbEntity
  8
4
  6
CENTER
 48
0.2
100
AcDbLine
 10
189.8241887907252
 20
274.601123641989
 30
0.0
 11
189.8241887907252
 21
285.801123641989
 31
0.0
  0
ARC
  5
358
330
18
100
AcDbEntity
  8
1
  6
Continuous
100
AcDbCircle
 10
223.2777030245542
 20
392.3265433427487
 30
0.0
 40
5.296485766171116
100
AcDbArc
 50
309.6106882402326
 51
50.38931175984306
  0
ARC
  5
359
330
18
100
AcDbEntity
  8
1
  6
Continuous
100
AcDbCircle
 10
221.3241887907142
 20
389.9660469768697
 30
0.0
 40
8.360496365880464
100
AcDbArc
 50
50.38931175984307
 51
129.6106882390301
  0
ARC
  5
35A
330
18
100
AcDbEntity
  8
1
  6
Continuous
100
AcDbCircle
 10
219.3706745569524
 20
392.3265433427487
 30
0.0
 40
5.296485766171116
100
AcDbArc
 50
129.6106882390301
 51
230.3893117608941
  0
ARC
  5
35B
330
18
100
AcDbEntity
  8
1
  6
Continuous
100
AcDbCircle
 10
221.3241887907142
 20
394.6870397086213
 30
0.0
 40
8.360496365880464
100
AcDbArc
 50
230.389311760894
 51
309.6106882402326
  0
LINE
  5
35E
330
18
100
AcDbEntity
  8
2
  6
Continuous
100
AcDbLine
 10
217.1361887907252
 20
357.7265694184788
 30
0.0
 11
217.1361887907252
 21
360.32654634275
 31
0.0
  0
LINE
  5
35F
330
18
100
AcDbEntity
  8
2
  6
Continuous
100
AcDbLine
 10
225.5121887907252
 20
357.7265694184788
 30
0.0
 11
225.5121887907252
 21
360.32654634275
 31
0.0
  0
LINE
  5
6D8
330
18
100
AcDbEntity
  8
4
  6
CENTER
 48
0.5
100
AcDbLine
 10
537.7106206027059
 20
185.801123641989
 30
0.0
 11
537.7106206027059
 21
287.801123641989
 31
0.0
  0
ARC
  5
6D9
330
18
100
AcDbEntity
  8
1
  6
Continuous
100
AcDbCircle
 10
537.7106206027059
 20
225.801123641989
 30
0.0
 40
15.0
100
AcDbArc
 50
196.260190000001
 51
343.7398200000003
  0
LINE
  5
6DA
330
18
100
AcDbEntity
  8
1
  6
Continuous
100
AcDbLine
 10
578.7106206027059
 20
281.8011236419891
 30
0.0
 11
496.710620602706
 21
281.8011236419891
 31
0.0
  0
LINE
  5
6DB
330
18
100
AcDbEntity
  8
4
  6
CENTER
 48
0.5
100
AcDbLine
 10
576.2106206027059
 20
224.301123641989
 30
0.0
 11
499.210620602706
 21
224.301123641989
 31
0.0
  0
LINE
  5
6DC
330
18
100
AcDbEntity
  8
1
  6
Continuous
100
AcDbLine
 10
552.1106221027062
 20
221.6011266419892
 30
0.0
 11
565.606621502706
 21
267.8731226419892
 31
0.0
  0
LINE
  5
6DD
330
18
100
AcDbEntity
  8
1
  6
Continuous
100
AcDbLine
 10
548.7106206027061
 20
226.662955641989
 30
0.0
 11
548.7106206027061
 21
279.101126641989
 31
0.0
  0
ARC
  5
6DE
330
18
100
AcDbEntity
  8
1
  6
Continuous
100
AcDbCircle
 10
569.7106206027059
 20
275.801123641989
 30
0.0
 40
3.0
100
AcDbArc
 50
291.7355700000025
 51
16.60152000000002
  0
ARC
  5
6DF
330
18
100
AcDbEntity
  8
1
  6
Continuous
100
AcDbCircle
 10
572.7106206027059
 20
265.801123641989
 30
0.0
 40
7.400000099999996
100
AcDbArc
 50
111.735551
 51
163.7397890000002
  0
LINE
  5
6E0
330
18
100
AcDbEntity
  8
1
  6
Continuous
100
AcDbLine
 10
569.9702256027062
 20
272.675013641989
 30
0.0
 11
570.8215906027062
 21
273.0144246419889
 31
0.0
  0
LINE
  5
6E1
330
18
100
AcDbEntity
  8
4
  6
CENTER
 48
0.2
100
AcDbLine
 10
569.2106206027061
 20
274.601123641989
 30
0.0
 11
569.2106206027061
 21
285.801123641989
 31
0.0
  0
ARC
  5
6E2
330
18
100
AcDbEntity
  8
1
  6
Continuous
100
AcDbCircle
 10
576.418822602706
 20
277.8011236419891
 30
0.0
 40
4.0
100
AcDbArc
 50
90.00001799999918
 51
196.6016299999991
  0
LINE
  5
6E6
330
18
100
AcDbEntity
  8
1
  6
Continuous
100
AcDbLine
 10
523.3106186027059
 20
221.601126641989
 30
0.0
 11
509.814620602706
 21
267.873124641989
 31
0.0
  0
LINE
  5
6E7
330
18
100
AcDbEntity
  8
1
  6
Continuous
100
AcDbLine
 10
526.7106206027059
 20
226.458823641989
 30
0.0
 11
526.7106206027059
 21
279.501120641989
 31
0.0
  0
ARC
  5
6FD
330
18
100
AcDbEntity
  8
1
  6
Continuous
100
AcDbCircle
 10
505.710620602706
 20
275.801123641989
 30
0.0
 40
3.0
100
AcDbArc
 50
163.3985289999995
 51
248.2645200000011
  0
ARC
  5
6FE
330
18
100
AcDbEntity
  8
1
  6
Continuous
100
AcDbCircle
 10
502.710620602706
 20
265.801123641989
 30
0.0
 40
7.400000099999996
100
AcDbArc
 50
16.26019000000104
 51
68.26445999999911
  0
LINE
  5
6FF
330
18
100
AcDbEntity
  8
1
  6
Continuous
100
AcDbLine
 10
505.4510076027058
 20
272.675005641989
 30
0.0
 11
504.599647602706
 21
273.014414641989
 31
0.0
  0
ARC
  5
700
330
18
100
AcDbEntity
  8
1
  6
Continuous
100
AcDbCircle
 10
499.0024146027059
 20
277.8011236419891
 30
0.0
 40
4.0
100
AcDbArc
 50
343.3984099999999
 51
90.00001799999918
  0
LINE
  5
702
330
18
100
AcDbEntity
  8
4
  6
CENTER
 48
0.2
100
AcDbLine
 10
506.210620602706
 20
274.601123641989
 30
0.0
 11
506.210620602706
 21
285.801123641989
 31
0.0
  0
CIRCLE
  5
797
330
18
100
AcDbEntity
  8
1
  6
Continuous
100
AcDbCircle
 10
537.7106206027059
 20
224.3011236419891
 30
0.0
 40
8.750000000000056
  0
LINE
  5
7C1
330
18
100
AcDbEntity
  8
1
  6
Continuous
100
AcDbLine
 10
262.3241887907252
 20
115.7757039412283
 30
0.0
 11
262.3241887907254
 21
46.77570394122835
 31
0.0
  0
LINE
  5
7C2
330
18
100
AcDbEntity
  8
1
  6
Continuous
100
AcDbLine
 10
180.3241887907251
 20
115.7757039412281
 30
0.0
 11
180.3241887907254
 21
46.77570394122811
 31
0.0
  0
LINE
  5
7C3
330
18
100
AcDbEntity
  8
4
  6
CENTER
 48
0.5
100
AcDbLine
 10
221.3241887907252
 20
121.8757069412281
 30
0.0
 11
221.3241887907253
 21
46.27570794122813
 31
0.0
  0
ARC
  5
7C5
330
18
100
AcDbEntity
  8
1
  6
Continuous
100
AcDbCircle
 10
187.3241887907252
 20
115.7757039412281
 30
0.0
 40
7.0
100
AcDbArc
 50
109.4711800000005
 51
180.0
  0
CIRCLE
  5
7C6
330
18
100
AcDbEntity
  8
1
  6
Continuous
100
AcDbCircle
 10
189.8241887907252
 20
112.7757039412281
 30
0.0
 40
4.400000099999996
  0
LINE
  5
7C8
330
18
100
AcDbEntity
  8
4
  6
CENTER
 48
0.2
100
AcDbLine
 10
189.8241887907253
 20
106.7757039412281
 30
0.0
 11
189.8241887907252
 21
118.7757039412281
 31
0.0
  0
LINE
  5
7CA
330
18
100
AcDbEntity
  8
1
  6
Continuous
100
AcDbLine
 10
186.3241887907252
 20
126.0257039412281
 30
0.0
 11
186.3241887907252
 21
124.2609869412283
 31
0.0
  0
ARC
  5
7CC
330
18
100
AcDbEntity
  8
1
  6
Continuous
100
AcDbCircle
 10
184.3241887907252
 20
124.2609869412279
 30
0.0
 40
2.0
100
AcDbArc
 50
289.47122
 51
359.99996
  0
LINE
  5
7CE
330
18
100
AcDbEntity
  8
4
  6
CENTER
 48
0.2
100
AcDbLine
 10
195.8241887907253
 20
112.7757039412281
 30
0.0
 11
183.8241887907253
 21
112.7757039412281
 31
0.0
  0
LINE
  5
7D3
330
18
100
AcDbEntity
  8
2
  6
Continuous
100
AcDbLine
 10
217.1361887907252
 20
115.8756778654992
 30
0.0
 11
217.1361887907252
 21
113.275700941228
 31
0.0
  0
LINE
  5
7D4
330
18
100
AcDbEntity
  8
2
  6
Continuous
100
AcDbLine
 10
225.5121887907252
 20
115.8756778654992
 30
0.0
 11
225.5121887907252
 21
113.275700941228
 31
0.0
  0
LINE
  5
7D5
330
18
100
AcDbEntity
  8
1
  6
Continuous
100
AcDbLine
 10
226.3241887907252
 20
115.1257069412283
 30
0.0
 11
226.3241887907252
 21
113.2757009412283
 31
0.0
  0
LINE
  5
7D6
330
18
100
AcDbEntity
  8
1
  6
Continuous
100
AcDbLine
 10
216.3241887907251
 20
115.1257069412283
 30
0.0
 11
216.3241887907251
 21
113.2757009412283
 31
0.0
  0
LINE
  5
7D7
330
18
100
AcDbEntity
  8
1
  6
Continuous
100
AcDbLine
 10
216.3241887907252
 20
115.1257069412281
 30
0.0
 11
226.3241877907253
 21
115.1257069412281
 31
0.0
  0
LINE
  5
7D8
330
18
100
AcDbEntity
  8
1
  6
Continuous
100
AcDbLine
 10
226.3242187907252
 20
115.1257449412283
 30
0.0
 11
225.5742177907253
 21
115.875744941228
 31
0.0
  0
LINE
  5
7D9
330
18
100
AcDbEntity
  8
1
  6
Continuous
100
AcDbLine
 10
217.0741887907252
 20
115.8757069412281
 30
0.0
 11
225.5741877907253
 21
115.8757069412281
 31
0.0
  0
LINE
  5
7DA
330
18
100
AcDbEntity
  8
1
  6
Continuous
100
AcDbLine
 10
217.0741867907254
 20
115.8757219412281
 30
0.0
 11
216.3241807907254
 21
115.125714941228
 31
0.0
  0
ARC
  5
7DC
330
18
100
AcDbEntity
  8
1
  6
Continuous
100
AcDbCircle
 10
225.5741887907254
 20
102.9864986489278
 30
0.0
 40
8.785583093775763
100
AcDbArc
 50
61.0695841800874
 51
118.9304158199126
  0
LINE
  5
7DD
330
18
100
AcDbEntity
  8
1
  6
Continuous
100
AcDbLine
 10
228.6241917907254
 20
113.275700941228
 30
0.0
 11
214.0268730710457
 21
113.275700941228
 31
0.0
  0
LINE
  5
7DE
330
18
100
AcDbEntity
  8
1
  6
Continuous
100
AcDbLine
 10
212.8241887907253
 20
111.7757131412298
 30
0.0
 11
229.8241887907254
 21
111.7757131412298
 31
0.0
  0
ARC
  5
7DF
330
18
100
AcDbEntity
  8
1
  6
Continuous
100
AcDbCircle
 10
217.0741887907253
 20
102.9863317855189
 30
0.0
 40
8.785729134311964
100
AcDbArc
 50
61.07011059026134
 51
118.9298894097404
  0
ARC
  5
7E0
330
18
100
AcDbEntity
  8
1
  6
Continuous
100
AcDbCircle
 10
214.0241897907253
 20
112.075703941228
 30
0.0
 40
1.199999999999999
100
AcDbArc
 50
89.8718826952288
 51
179.9999974955215
  0
LINE
  5
7E1
330
18
100
AcDbEntity
  8
1
  6
Continuous
100
AcDbLine
 10
212.8241887907253
 20
111.675709941228
 30
0.0
 11
212.8241887907253
 21
106.7757009412281
 31
0.0
  0
LINE
  5
7E2
330
18
100
AcDbEntity
  8
1
  6
Continuous
100
AcDbLine
 10
212.8241887907252
 20
112.075703941228
 30
0.0
 11
212.8241887907252
 21
111.675709941228
 31
0.0
  0
LINE
  5
7E3
330
18
100
AcDbEntity
  8
1
  6
Continuous
100
AcDbLine
 10
221.3241887907252
 20
110.675709941228
 30
0.0
 11
221.3241887907252
 21
106.7757009412283
 31
0.0
  0
ARC
  5
7E5
330
18
100
AcDbEntity
  8
1
  6
Continuous
100
AcDbCircle
 10
228.6241917907254
 20
112.075703941228
 30
0.0
 40
1.199999999999999
100
AcDbArc
 50
359.9999899999998
 51
89.9999910000004
  0
LINE
  5
7E6
330
18
100
AcDbEntity
  8
1
  6
Continuous
100
AcDbLine
 10
229.8241887907254
 20
111.675709941228
 30
0.0
 11
229.8241887907254
 21
106.7757009412281
 31
0.0
  0
LINE
  5
7E7
330
18
100
AcDbEntity
  8
1
  6
Continuous
100
AcDbLine
 10
229.8241887907253
 20
112.075703941228
 30
0.0
 11
229.8241887907253
 21
111.675709941228
 31
0.0
  0
CIRCLE
  5
7E8
330
18
100
AcDbEntity
  8
1
  6
Continuous
100
AcDbCircle
 10
252.8241887907252
 20
112.7757039412281
 30
0.0
 40
4.400000099999996
  0
LINE
  5
7E9
330
18
100
AcDbEntity
  8
4
  6
CENTER
 48
0.2
100
AcDbLine
 10
252.8241887907252
 20
106.7757039412281
 30
0.0
 11
252.8241887907252
 21
118.7757039412281
 31
0.0
  0
ARC
  5
7EA
330
18
100
AcDbEntity
  8
1
  6
Continuous
100
AcDbCircle
 10
258.3241887907252
 20
124.2609869412281
 30
0.0
 40
2.0
100
AcDbArc
 50
180.0
 51
250.5287449999991
  0
LINE
  5
7EB
330
18
100
AcDbEntity
  8
1
  6
Continuous
100
AcDbLine
 10
256.3241887907252
 20
126.0257039412283
 30
0.0
 11
256.3241887907252
 21
124.2609869412283
 31
0.0
  0
ARC
  5
7ED
330
18
100
AcDbEntity
  8
1
  6
Continuous
100
AcDbCircle
 10
255.3241887907252
 20
115.7757039412281
 30
0.0
 40
7.0
100
AcDbArc
 50
359.99996
 51
70.52877000000186
  0
LINE
  5
7EE
330
18
100
AcDbEntity
  8
4
  6
CENTER
 48
0.2
100
AcDbLine
 10
258.8241887907252
 20
112.7757039412283
 30
0.0
 11
246.8241887907252
 21
112.7757039412281
 31
0.0
  0
LINE
  5
7F3
330
18
100
AcDbEntity
  8
4
  6
CENTER
 48
0.5
100
AcDbLine
 10
268.3241887907253
 20
81.27570394122836
 30
0.0
 11
174.3241887907254
 21
81.27570394122811
 31
0.0
  0
CIRCLE
  5
7F4
330
18
100
AcDbEntity
  8
1
  6
Continuous
100
AcDbCircle
 10
189.8241887907254
 20
49.77570394122813
 30
0.0
 40
4.400000099999996
  0
LINE
  5
7F6
330
18
100
AcDbEntity
  8
4
  6
CENTER
 48
0.2
100
AcDbLine
 10
189.8241887907254
 20
43.77570394122813
 30
0.0
 11
189.8241887907254
 21
55.77570394122813
 31
0.0
  0
ARC
  5
7F8
330
18
100
AcDbEntity
  8
1
  6
Continuous
100
AcDbCircle
 10
187.3241887907253
 20
46.77570394122811
 30
0.0
 40
7.0
100
AcDbArc
 50
180.0
 51
250.528765999999
  0
LINE
  5
7FA
330
18
100
AcDbEntity
  8
4
  6
CENTER
 48
0.2
100
AcDbLine
 10
195.8241887907254
 20
49.77570394122813
 30
0.0
 11
183.8241887907254
 21
49.77570394122813
 31
0.0
  0
ARC
  5
7FB
330
18
100
AcDbEntity
  8
1
  6
Continuous
100
AcDbCircle
 10
184.3241887907253
 20
38.29042394122808
 30
0.0
 40
2.0
100
AcDbArc
 50
359.99996
 51
70.52877000000186
  0
LINE
  5
7FD
330
18
100
AcDbEntity
  8
1
  6
Continuous
100
AcDbLine
 10
186.3241887907254
 20
38.29042394122808
 30
0.0
 11
186.3241887907254
 21
36.52570394122813
 31
0.0
  0
CIRCLE
  5
7FE
330
18
100
AcDbEntity
  8
1
  6
Continuous
100
AcDbCircle
 10
252.8241887907254
 20
49.77570394122813
 30
0.0
 40
4.400000099999996
  0
LINE
  5
800
330
18
100
AcDbEntity
  8
4
  6
CENTER
 48
0.2
100
AcDbLine
 10
252.8241887907254
 20
43.77570394122813
 30
0.0
 11
252.8241887907254
 21
55.77570394122813
 31
0.0
  0
LINE
  5
806
330
18
100
AcDbEntity
  8
1
  6
Continuous
100
AcDbLine
 10
212.9690177907255
 20
54.3757059412281
 30
0.0
 11
229.7430247907254
 21
54.3757059412281
 31
0.0
  0
ARC
  5
807
330
18
100
AcDbEntity
  8
1
  6
Continuous
100
AcDbCircle
 10
221.3241887907253
 20
74.84523794122812
 30
0.0
 40
22.56953
100
AcDbArc
 50
248.0486900000004
 51
291.9512999999973
  0
LINE
  5
808
330
18
100
AcDbEntity
  8
1
  6
Continuous
100
AcDbLine
 10
212.5760907907257
 20
54.41928794122794
 30
0.0
 11
212.6947617907257
 21
55.77570694122798
 31
0.0
  0
ARC
  5
809
330
18
100
AcDbEntity
  8
1
  6
Continuous
100
AcDbCircle
 10
213.0741887907254
 20
54.3757059412281
 30
0.0
 40
0.5
100
AcDbArc
 50
174.9999967000002
 51
248.0486900000004
  0
LINE
  5
80B
330
18
100
AcDbEntity
  8
1
  6
Continuous
100
AcDbLine
 10
230.0722857907253
 20
54.41928494122811
 30
0.0
 11
229.9536137907252
 21
55.77570694122814
 31
0.0
  0
ARC
  5
80C
330
18
100
AcDbEntity
  8
1
  6
Continuous
100
AcDbCircle
 10
229.5741887907254
 20
54.3757059412281
 30
0.0
 40
0.5
100
AcDbArc
 50
291.9512999999973
 51
5.000010000000504
  0
ARC
  5
80F
330
18
100
AcDbEntity
  8
1
  6
Continuous
100
AcDbCircle
 10
258.3241887907254
 20
38.29042394122808
 30
0.0
 40
2.0
100
AcDbArc
 50
109.4711899999995
 51
180.0
  0
LINE
  5
810
330
18
100
AcDbEntity
  8
4
  6
CENTER
 48
0.2
100
AcDbLine
 10
258.8241887907254
 20
49.77570394122835
 30
0.0
 11
246.8241887907254
 21
49.77570394122813
 31
0.0
  0
LINE
  5
812
330
18
100
AcDbEntity
  8
1
  6
Continuous
100
AcDbLine
 10
256.3241887907254
 20
38.29042394122831
 30
0.0
 11
256.3241887907254
 21
36.52570394122836
 31
0.0
  0
ARC
  5
813
330
18
100
AcDbEntity
  8
1
  6
Continuous
100
AcDbCircle
 10
255.3241887907254
 20
46.77570394122811
 30
0.0
 40
7.0
100
AcDbArc
 50
289.4711999999992
 51
359.99996
  0
LINE
  5
E97
330
18
100
AcDbEntity
  8
1
  6
Continuous
100
AcDbLine
 10
238.8241887907253
 20
101.2757039412281
 30
0.0
 11
238.8241887907253
 21
101.7757039412282
 31
0.0
  0
LINE
  5
E98
330
18
100
AcDbEntity
  8
1
  6
Continuous
100
AcDbLine
 10
238.8241887907253
 20
60.77570394122824
 30
0.0
 11
238.8241887907253
 21
61.27570394122813
 31
0.0
  0
LINE
  5
E99
330
18
100
AcDbEntity
  8
1
  6
Continuous
100
AcDbLine
 10
230.1241887407229
 20
59.77570394122825
 30
0.0
 11
230.1241887407229
 21
58.97570494122817
 31
0.0
  0
LINE
  5
E9A
330
18
100
AcDbEntity
  8
1
  6
Continuous
100
AcDbLine
 10
204.8241887907254
 20
59.77570394122825
 30
0.0
 11
237.8241887907253
 21
59.77570394122825
 31
0.0
  0
LINE
  5
E9B
330
18
100
AcDbEntity
  8
1
  6
Continuous
100
AcDbLine
 10
193.3254977002187
 20
61.27570394122846
 30
0.0
 11
249.322879881232
 21
61.27570394122846
 31
0.0
  0
LINE
  5
E9C
330
18
100
AcDbEntity
  8
1
  6
Continuous
100
AcDbLine
 10
204.8241887907254
 20
102.7757039412282
 30
0.0
 11
237.8241887907253
 21
102.7757039412282
 31
0.0
  0
LINE
  5
E9D
330
18
100
AcDbEntity
  8
1
  6
Continuous
100
AcDbLine
 10
193.3254977002187
 20
101.2757039412284
 30
0.0
 11
249.3228798812317
 21
101.2757039412284
 31
0.0
  0
ARC
  5
E9E
330
18
100
AcDbEntity
  8
1
  6
Continuous
100
AcDbCircle
 10
204.8241887907254
 20
101.7757039412282
 30
0.0
 40
1.0
100
AcDbArc
 50
89.99999999999998
 51
180.0
  0
ARC
  5
E9F
330
18
100
AcDbEntity
  8
1
  6
Continuous
100
AcDbCircle
 10
204.8241887907254
 20
60.77570394122824
 30
0.0
 40
1.0
100
AcDbArc
 50
180.0
 51
270.0
  0
ARC
  5
EA0
330
18
100
AcDbEntity
  8
1
  6
Continuous
100
AcDbCircle
 10
237.8241887907254
 20
60.77570394122824
 30
0.0
 40
1.0
100
AcDbArc
 50
270.0
 51
0.0
  0
ARC
  5
EA1
330
18
100
AcDbEntity
  8
1
  6
Continuous
100
AcDbCircle
 10
237.8241887907254
 20
101.7757039412282
 30
0.0
 40
1.0
100
AcDbArc
 50
0.0
 51
89.99999999999998
  0
ARC
  5
EA2
330
18
100
AcDbEntity
  8
1
  6
Continuous
100
AcDbCircle
 10
229.9241887407254
 20
58.97570494122817
 30
0.0
 40
0.2
100
AcDbArc
 50
270.0
 51
0.0000029999976837
  0
ARC
  5
EA3
330
18
100
AcDbEntity
  8
1
  6
Continuous
100
AcDbCircle
 10
212.7241888407254
 20
58.97570494122817
 30
0.0
 40
0.2
100
AcDbArc
 50
180.0
 51
270.0
  0
LINE
  5
EA4
330
18
100
AcDbEntity
  8
1
  6
Continuous
100
AcDbLine
 10
212.5241887407253
 20
59.77570394122825
 30
0.0
 11
212.5241887407253
 21
58.97570494122817
 31
0.0
  0
ARC
  5
EA5
330
18
100
AcDbEntity
  8
1
  6
Continuous
100
AcDbCircle
 10
229.9241887407254
 20
103.5757029412284
 30
0.0
 40
0.2
100
AcDbArc
 50
359.9999970000022
 51
89.99999999999998
  0
ARC
  5
EA6
330
18
100
AcDbEntity
  8
1
  6
Continuous
100
AcDbCircle
 10
212.7241888407254
 20
103.5757029412284
 30
0.0
 40
0.2
100
AcDbArc
 50
89.99999999999998
 51
180.0
  0
LINE
  5
EA7
330
18
100
AcDbEntity
  8
1
  6
Continuous
100
AcDbLine
 10
230.1241887407253
 20
102.7757039412282
 30
0.0
 11
230.1241887407253
 21
103.5757029412284
 31
0.0
  0
LINE
  5
EA8
330
18
100
AcDbEntity
  8
1
  6
Continuous
100
AcDbLine
 10
212.5241887407253
 20
102.7757039412282
 30
0.0
 11
212.5241887407253
 21
103.5757029412284
 31
0.0
  0
LINE
  5
EA9
330
18
100
AcDbEntity
  8
1
  6
Continuous
100
AcDbLine
 10
203.8241887907254
 20
101.2757039412282
 30
0.0
 11
203.8241887907254
 21
101.7757039412282
 31
0.0
  0
ARC
  5
EAA
330
18
100
AcDbEntity
  8
1
  6
Continuous
100
AcDbCircle
 10
193.3254977002188
 20
98.27570394122824
 30
0.0
 40
3.0
100
AcDbArc
 50
89.99999999999998
 51
169.9063431407739
  0
ARC
  5
EAB
330
18
100
AcDbEntity
  8
1
  6
Continuous
100
AcDbCircle
 10
193.3254977002188
 20
64.27570394122824
 30
0.0
 40
3.0
100
AcDbArc
 50
190.093656859226
 51
270.0
  0
ARC
  5
EAC
330
18
100
AcDbEntity
  8
1
  6
Continuous
100
AcDbCircle
 10
249.322879881232
 20
98.27570394122824
 30
0.0
 40
3.0
100
AcDbArc
 50
10.09365685922603
 51
89.99999999999998
  0
ARC
  5
EAD
330
18
100
AcDbEntity
  8
1
  6
Continuous
100
AcDbCircle
 10
249.322879881232
 20
64.27570394122824
 30
0.0
 40
3.0
100
AcDbArc
 50
270.0
 51
349.9063431407738
  0
ARC
  5
EAE
330
18
100
AcDbEntity
  8
1
  6
Continuous
100
AcDbCircle
 10
288.8241887907254
 20
81.27570394122825
 30
0.0
 40
100.0
100
AcDbArc
 50
169.9063431407739
 51
190.093656859226
  0
ARC
  5
EAF
330
18
100
AcDbEntity
  8
1
  6
Continuous
100
AcDbCircle
 10
153.8241887907254
 20
81.27570394122825
 30
0.0
 40
100.0
100
AcDbArc
 50
349.9063431407738
 51
10.09365685922603
  0
LINE
  5
EB0
330
18
100
AcDbEntity
  8
1
  6
Continuous
100
AcDbLine
 10
203.8241887907254
 20
60.77570394122824
 30
0.0
 11
203.8241887907254
 21
61.27570394122824
 31
0.0
  0
ARC
  5
FB0
330
18
100
AcDbEntity
  8
1
  6
Continuous
100
AcDbCircle
 10
537.7106206027061
 20
224.301123641989
 30
0.0
 40
32.5
100
AcDbArc
 50
132.9150896201314
 51
47.08491158412507
  0
ARC
  5
FB1
330
18
100
AcDbEntity
  8
1
  6
Continuous
100
AcDbCircle
 10
537.7106206027061
 20
224.301123641989
 30
0.0
 40
25.0
100
AcDbArc
 50
141.936136792165
 51
38.06386395642384
  0
ARC
  5
FB2
330
18
100
AcDbEntity
  8
1
  6
Continuous
100
AcDbCircle
 10
537.7106206027061
 20
224.301123641989
 30
0.0
 40
17.5
100
AcDbArc
 50
162.6831609423837
 51
17.3168381426262
  0
ARC
  5
FB3
330
18
100
AcDbEntity
  8
1
  6
Continuous
100
AcDbCircle
 10
537.7106206027061
 20
224.301123641989
 30
0.0
 40
15.0
100
AcDbArc
 50
182.6697208772442
 51
357.3302726587738
  0
ARC
  5
FB4
330
18
100
AcDbEntity
  8
1
  6
Continuous
100
AcDbCircle
 10
547.3588183551373
 20
207.9330974894569
 30
0.0
 40
1.5
100
AcDbArc
 50
120.5173917748261
 51
202.4999999999984
  0
LINE
  5
FB5
330
18
100
AcDbEntity
  8
1
  6
Continuous
100
AcDbLine
 10
520.7685693016261
 20
216.0387451883249
 30
0.0
 11
519.3700853218786
 21
215.4594741571519
 31
0.0
  0
ARC
  5
FB6
330
18
100
AcDbEntity
  8
1
  6
Continuous
100
AcDbCircle
 10
519.9441104704264
 20
214.0736548583848
 30
0.0
 40
1.5
100
AcDbArc
 50
112.5000000000015
 51
209.9273118068561
  0
ARC
  5
FB7
330
18
100
AcDbEntity
  8
1
  6
Continuous
100
AcDbCircle
 10
521.3425944501739
 20
214.6529258895578
 30
0.0
 40
1.5
100
AcDbArc
 50
30.51739177482336
 51
112.4999999999984
  0
ARC
  5
FB8
330
18
100
AcDbEntity
  8
1
  6
Continuous
100
AcDbCircle
 10
537.7106206027061
 20
224.301123641989
 30
0.0
 40
22.0
100
AcDbArc
 50
209.9273118068561
 51
240.0726881931438
  0
ARC
  5
FB9
330
18
100
AcDbEntity
  8
1
  6
Continuous
100
AcDbCircle
 10
527.4831518191017
 20
206.5346135097092
 30
0.0
 40
1.5
100
AcDbArc
 50
240.0726881931438
 51
337.4999999999972
  0
LINE
  5
FBA
330
18
100
AcDbEntity
  8
1
  6
Continuous
100
AcDbLine
 10
529.4482421490418
 20
207.359072340909
 30
0.0
 11
528.8689711178689
 21
205.9605883611616
 31
0.0
  0
ARC
  5
FBB
330
18
100
AcDbEntity
  8
1
  6
Continuous
100
AcDbCircle
 10
528.0624228502751
 20
207.9330974894569
 30
0.0
 40
1.5
100
AcDbArc
 50
337.4999999999972
 51
59.48260822517383
  0
ARC
  5
FBC
330
18
100
AcDbEntity
  8
1
  6
Continuous
100
AcDbCircle
 10
543.0415278640006
 20
204.5063913181742
 30
0.0
 40
1.5
100
AcDbArc
 50
285.0726881931432
 51
22.4999999999985
  0
ARC
  5
FBD
330
18
100
AcDbEntity
  8
1
  6
Continuous
100
AcDbCircle
 10
532.3797133414118
 20
204.5063913181742
 30
0.0
 40
1.5
100
AcDbArc
 50
157.5000000000015
 51
254.9273118068566
  0
ARC
  5
FBE
330
18
100
AcDbEntity
  8
1
  6
Continuous
100
AcDbCircle
 10
537.7106206027063
 20
224.301123641989
 30
0.0
 40
22.0
100
AcDbArc
 50
254.9273118068566
 51
285.0726881931432
  0
LINE
  5
FBF
330
18
100
AcDbEntity
  8
1
  6
Continuous
100
AcDbLine
 10
531.573165073818
 20
206.4789004464696
 30
0.0
 11
530.993894042645
 21
205.0804164667219
 31
0.0
  0
ARC
  5
FC0
330
18
100
AcDbEntity
  8
1
  6
Continuous
100
AcDbCircle
 10
532.9589843725847
 20
205.9048752979218
 30
0.0
 40
1.5
100
AcDbArc
 50
75.51739177482208
 51
157.4999999999984
  0
LINE
  5
FC1
330
18
100
AcDbEntity
  8
1
  6
Continuous
100
AcDbLine
 10
543.8480761315944
 20
206.4789004464691
 30
0.0
 11
544.4273471627673
 21
205.0804164667217
 31
0.0
  0
ARC
  5
FC2
330
18
100
AcDbEntity
  8
1
  6
Continuous
100
AcDbCircle
 10
542.4622568328278
 20
205.9048752979218
 30
0.0
 40
1.5
100
AcDbArc
 50
22.49999999999549
 51
104.4826082251778
  0
ARC
  5
FC3
330
18
100
AcDbEntity
  8
1
  6
Continuous
100
AcDbCircle
 10
537.7106206027061
 20
224.301123641989
 30
0.0
 40
22.0
100
AcDbArc
 50
164.9273118068567
 51
195.0726881931433
  0
LINE
  5
FC4
330
18
100
AcDbEntity
  8
1
  6
Continuous
100
AcDbLine
 10
519.8883974071866
 20
218.1636681131009
 30
0.0
 11
518.4899134274393
 21
217.5843970819281
 31
0.0
  0
ARC
  5
FC5
330
18
100
AcDbEntity
  8
1
  6
Continuous
100
AcDbCircle
 10
517.9158882788913
 20
218.9702163806948
 30
0.0
 40
1.5
100
AcDbArc
 50
195.0726881931433
 51
292.4999999999985
  0
ARC
  5
FC6
330
18
100
AcDbEntity
  8
1
  6
Continuous
100
AcDbCircle
 10
519.3143722586389
 20
219.5494874118676
 30
0.0
 40
1.5
100
AcDbArc
 50
292.4999999999954
 51
14.48260822517474
  0
ARC
  5
FC7
330
18
100
AcDbEntity
  8
1
  6
Continuous
100
AcDbCircle
 10
537.7106206027061
 20
224.301123641989
 30
0.0
 40
22.0
100
AcDbArc
 50
147.7684106752903
 51
150.0726881931438
  0
LINE
  5
FC8
330
18
100
AcDbEntity
  8
1
  6
Continuous
100
AcDbLine
 10
520.0232110168258
 20
232.8722396060448
 30
0.0
 11
519.3700853218788
 21
233.1427731268264
 31
0.0
  0
ARC
  5
FC9
330
18
100
AcDbEntity
  8
1
  6
Continuous
100
AcDbCircle
 10
519.9441104704264
 20
234.5285924255933
 30
0.0
 40
1.5
100
AcDbArc
 50
150.0726881931438
 51
247.4999999999984
  0
LINE
  5
FCA
330
18
100
AcDbEntity
  8
1
  6
Continuous
100
AcDbLine
 10
519.8883974071865
 20
230.4385791708775
 30
0.0
 11
518.4899134274388
 21
231.0178502020504
 31
0.0
  0
ARC
  5
FCB
330
18
100
AcDbEntity
  8
1
  6
Continuous
100
AcDbCircle
 10
517.9158882788913
 20
229.6320309032835
 30
0.0
 40
1.5
100
AcDbArc
 50
67.49999999999848
 51
164.9273118068567
  0
ARC
  5
FCC
330
18
100
AcDbEntity
  8
1
  6
Continuous
100
AcDbCircle
 10
519.3143722586389
 20
229.0527598721105
 30
0.0
 40
1.5
100
AcDbArc
 50
345.5173917748252
 51
67.49999999999848
  0
LINE
  5
FCD
330
18
100
AcDbEntity
  8
1
  6
Continuous
100
AcDbLine
 10
554.6526719037862
 20
216.0387451883246
 30
0.0
 11
556.0511558835337
 21
215.4594741571516
 31
0.0
  0
ARC
  5
FCE
330
18
100
AcDbEntity
  8
1
  6
Continuous
100
AcDbCircle
 10
555.477130734986
 20
214.0736548583847
 30
0.0
 40
1.5
100
AcDbArc
 50
330.0726881931438
 51
67.49999999999848
  0
ARC
  5
FCF
330
18
100
AcDbEntity
  8
1
  6
Continuous
100
AcDbCircle
 10
554.0786467552385
 20
214.6529258895579
 30
0.0
 40
1.5
100
AcDbArc
 50
67.49999999999724
 51
149.4826082251738
  0
ARC
  5
FD0
330
18
100
AcDbEntity
  8
1
  6
Continuous
100
AcDbCircle
 10
537.7106206027061
 20
224.301123641989
 30
0.0
 40
22.0
100
AcDbArc
 50
299.9273118068561
 51
330.0726881931438
  0
ARC
  5
FD1
330
18
100
AcDbEntity
  8
1
  6
Continuous
100
AcDbCircle
 10
547.9380893863103
 20
206.5346135097092
 30
0.0
 40
1.5
100
AcDbArc
 50
202.5000000000015
 51
299.9273118068561
  0
LINE
  5
FD2
330
18
100
AcDbEntity
  8
1
  6
Continuous
100
AcDbLine
 10
545.9729990563702
 20
207.3590723409092
 30
0.0
 11
546.5522700875433
 21
205.9605883611616
 31
0.0
  0
ARC
  5
FD3
330
18
100
AcDbEntity
  8
1
  6
Continuous
100
AcDbCircle
 10
537.7106206027063
 20
224.301123641989
 30
0.0
 40
22.0
100
AcDbArc
 50
344.9273118068567
 51
15.07268819314328
  0
LINE
  5
FD4
330
18
100
AcDbEntity
  8
1
  6
Continuous
100
AcDbLine
 10
555.5328437982256
 20
218.1636681131006
 30
0.0
 11
556.9313277779733
 21
217.5843970819276
 31
0.0
  0
ARC
  5
FD5
330
18
100
AcDbEntity
  8
1
  6
Continuous
100
AcDbCircle
 10
557.5053529265211
 20
218.9702163806947
 30
0.0
 40
1.5
100
AcDbArc
 50
247.4999999999984
 51
344.9273118068567
  0
ARC
  5
FD6
330
18
100
AcDbEntity
  8
1
  6
Continuous
100
AcDbCircle
 10
556.1068689467735
 20
219.5494874118676
 30
0.0
 40
1.5
100
AcDbArc
 50
165.5173917748252
 51
247.4999999999984
  0
LINE
  5
FD7
330
18
100
AcDbEntity
  8
1
  6
Continuous
100
AcDbLine
 10
555.5328437982258
 20
230.4385791708773
 30
0.0
 11
556.9313277779733
 21
231.0178502020503
 31
0.0
  0
ARC
  5
FD8
330
18
100
AcDbEntity
  8
1
  6
Continuous
100
AcDbCircle
 10
557.5053529265211
 20
229.6320309032832
 30
0.0
 40
1.5
100
AcDbArc
 50
15.07268819314328
 51
112.4999999999984
  0
ARC
  5
FD9
330
18
100
AcDbEntity
  8
1
  6
Continuous
100
AcDbCircle
 10
556.1068689467735
 20
229.0527598721105
 30
0.0
 40
1.5
100
AcDbArc
 50
112.4999999999955
 51
194.4826082251747
  0
ARC
  5
FDA
330
18
100
AcDbEntity
  8
1
  6
Continuous
100
AcDbCircle
 10
537.7106206027061
 20
224.301123641989
 30
0.0
 40
22.0
100
AcDbArc
 50
29.92731180685615
 51
32.23158972086564
  0
LINE
  5
FDB
330
18
100
AcDbEntity
  8
1
  6
Continuous
100
AcDbLine
 10
555.3980302077992
 20
232.872239614003
 30
0.0
 11
556.0511558835337
 21
233.1427731268264
 31
0.0
  0
ARC
  5
FDC
330
18
100
AcDbEntity
  8
1
  6
Continuous
100
AcDbCircle
 10
555.477130734986
 20
234.5285924255933
 30
0.0
 40
1.5
100
AcDbArc
 50
292.5000000000014
 51
29.92731180685615
  0
ARC
  5
FDD
330
18
100
AcDbEntity
  8
1
  6
Continuous
100
AcDbCircle
 10
221.3241887907255
 20
224.3011236419889
 30
0.0
 40
32.5
100
AcDbArc
 50
132.9150896201314
 51
47.08491158412507
  0
ARC
  5
FDE
330
18
100
AcDbEntity
  8
1
  6
Continuous
100
AcDbCircle
 10
221.3241887907255
 20
224.3011236419889
 30
0.0
 40
25.0
100
AcDbArc
 50
141.936136792165
 51
38.06386395642384
  0
ARC
  5
FDF
330
18
100
AcDbEntity
  8
1
  6
Continuous
100
AcDbCircle
 10
221.3241887907255
 20
224.3011236419889
 30
0.0
 40
17.5
100
AcDbArc
 50
162.6831609423837
 51
17.3168381426262
  0
ARC
  5
FE0
330
18
100
AcDbEntity
  8
1
  6
Continuous
100
AcDbCircle
 10
221.3241887907255
 20
224.3011236419889
 30
0.0
 40
15.0
100
AcDbArc
 50
182.6697208772442
 51
357.3302726587738
  0
ARC
  5
FE1
330
18
100
AcDbEntity
  8
1
  6
Continuous
100
AcDbCircle
 10
230.9723865431567
 20
207.9330974894568
 30
0.0
 40
1.5
100
AcDbArc
 50
120.5173917748261
 51
202.4999999999984
  0
LINE
  5
FE2
330
18
100
AcDbEntity
  8
1
  6
Continuous
100
AcDbLine
 10
204.3821374896455
 20
216.0387451883248
 30
0.0
 11
202.9836535098979
 21
215.4594741571518
 31
0.0
  0
ARC
  5
FE3
330
18
100
AcDbEntity
  8
1
  6
Continuous
100
AcDbCircle
 10
203.5576786584457
 20
214.0736548583847
 30
0.0
 40
1.5
100
AcDbArc
 50
112.5000000000015
 51
209.9273118068561
  0
ARC
  5
FE4
330
18
100
AcDbEntity
  8
1
  6
Continuous
100
AcDbCircle
 10
204.9561626381932
 20
214.6529258895577
 30
0.0
 40
1.5
100
AcDbArc
 50
30.51739177482336
 51
112.4999999999984
  0
ARC
  5
FE5
330
18
100
AcDbEntity
  8
1
  6
Continuous
100
AcDbCircle
 10
221.3241887907255
 20
224.3011236419889
 30
0.0
 40
22.0
100
AcDbArc
 50
209.9273118068561
 51
240.0726881931438
  0
ARC
  5
FE6
330
18
100
AcDbEntity
  8
1
  6
Continuous
100
AcDbCircle
 10
211.0967200071212
 20
206.5346135097091
 30
0.0
 40
1.5
100
AcDbArc
 50
240.0726881931438
 51
337.4999999999972
  0
LINE
  5
FE7
330
18
100
AcDbEntity
  8
1
  6
Continuous
100
AcDbLine
 10
213.0618103370612
 20
207.3590723409089
 30
0.0
 11
212.4825393058882
 21
205.9605883611615
 31
0.0
  0
ARC
  5
FE8
330
18
100
AcDbEntity
  8
1
  6
Continuous
100
AcDbCircle
 10
211.6759910382944
 20
207.9330974894568
 30
0.0
 40
1.5
100
AcDbArc
 50
337.4999999999972
 51
59.48260822517383
  0
ARC
  5
FE9
330
18
100
AcDbEntity
  8
1
  6
Continuous
100
AcDbCircle
 10
226.6550960520199
 20
204.5063913181742
 30
0.0
 40
1.5
100
AcDbArc
 50
285.0726881931432
 51
22.4999999999985
  0
ARC
  5
FEA
330
18
100
AcDbEntity
  8
1
  6
Continuous
100
AcDbCircle
 10
215.9932815294312
 20
204.5063913181742
 30
0.0
 40
1.5
100
AcDbArc
 50
157.5000000000015
 51
254.9273118068566
  0
ARC
  5
FEB
330
18
100
AcDbEntity
  8
1
  6
Continuous
100
AcDbCircle
 10
221.3241887907256
 20
224.3011236419889
 30
0.0
 40
22.0
100
AcDbArc
 50
254.9273118068566
 51
285.0726881931432
  0
LINE
  5
FEC
330
18
100
AcDbEntity
  8
1
  6
Continuous
100
AcDbLine
 10
215.1867332618373
 20
206.4789004464695
 30
0.0
 11
214.6074622306644
 21
205.0804164667218
 31
0.0
  0
ARC
  5
FED
330
18
100
AcDbEntity
  8
1
  6
Continuous
100
AcDbCircle
 10
216.572552560604
 20
205.9048752979217
 30
0.0
 40
1.5
100
AcDbArc
 50
75.51739177482208
 51
157.4999999999984
  0
LINE
  5
FEE
330
18
100
AcDbEntity
  8
1
  6
Continuous
100
AcDbLine
 10
227.4616443196138
 20
206.4789004464691
 30
0.0
 11
228.0409153507866
 21
205.0804164667216
 31
0.0
  0
ARC
  5
FEF
330
18
100
AcDbEntity
  8
1
  6
Continuous
100
AcDbCircle
 10
226.0758250208471
 20
205.9048752979217
 30
0.0
 40
1.5
100
AcDbArc
 50
22.49999999999549
 51
104.4826082251778
  0
ARC
  5
FF0
330
18
100
AcDbEntity
  8
1
  6
Continuous
100
AcDbCircle
 10
221.3241887907255
 20
224.3011236419889
 30
0.0
 40
22.0
100
AcDbArc
 50
164.9273118068567
 51
195.0726881931433
  0
LINE
  5
FF1
330
18
100
AcDbEntity
  8
1
  6
Continuous
100
AcDbLine
 10
203.5019655952059
 20
218.1636681131008
 30
0.0
 11
202.1034816154586
 21
217.584397081928
 31
0.0
  0
ARC
  5
FF2
330
18
100
AcDbEntity
  8
1
  6
Continuous
100
AcDbCircle
 10
201.5294564669107
 20
218.9702163806947
 30
0.0
 40
1.5
100
AcDbArc
 50
195.0726881931433
 51
292.4999999999985
  0
ARC
  5
FF3
330
18
100
AcDbEntity
  8
1
  6
Continuous
100
AcDbCircle
 10
202.9279404466583
 20
219.5494874118675
 30
0.0
 40
1.5
100
AcDbArc
 50
292.4999999999954
 51
14.48260822517474
  0
ARC
  5
FF4
330
18
100
AcDbEntity
  8
1
  6
Continuous
100
AcDbCircle
 10
221.3241887907255
 20
224.3011236419889
 30
0.0
 40
22.0
100
AcDbArc
 50
147.7684106752903
 51
150.0726881931438
  0
LINE
  5
FF5
330
18
100
AcDbEntity
  8
1
  6
Continuous
100
AcDbLine
 10
203.6367792048452
 20
232.8722396060447
 30
0.0
 11
202.9836535098981
 21
233.1427731268263
 31
0.0
  0
ARC
  5
FF6
330
18
100
AcDbEntity
  8
1
  6
Continuous
100
AcDbCircle
 10
203.5576786584457
 20
234.5285924255932
 30
0.0
 40
1.5
100
AcDbArc
 50
150.0726881931438
 51
247.4999999999984
  0
LINE
  5
FF7
330
18
100
AcDbEntity
  8
1
  6
Continuous
100
AcDbLine
 10
203.5019655952058
 20
230.4385791708774
 30
0.0
 11
202.1034816154583
 21
231.0178502020503
 31
0.0
  0
ARC
  5
FF8
330
18
100
AcDbEntity
  8
1
  6
Continuous
100
AcDbCircle
 10
201.5294564669107
 20
229.6320309032835
 30
0.0
 40
1.5
100
AcDbArc
 50
67.49999999999848
 51
164.9273118068567
  0
ARC
  5
FF9
330
18
100
AcDbEntity
  8
1
  6
Continuous
100
AcDbCircle
 10
202.9279404466583
 20
229.0527598721104
 30
0.0
 40
1.5
100
AcDbArc
 50
345.5173917748252
 51
67.49999999999848
  0
LINE
  5
FFA
330
18
100
AcDbEntity
  8
1
  6
Continuous
100
AcDbLine
 10
238.2662400918055
 20
216.0387451883245
 30
0.0
 11
239.664724071553
 21
215.4594741571516
 31
0.0
  0
ARC
  5
FFB
330
18
100
AcDbEntity
  8
1
  6
Continuous
100
AcDbCircle
 10
239.0906989230055
 20
214.0736548583846
 30
0.0
 40
1.5
100
AcDbArc
 50
330.0726881931438
 51
67.49999999999848
  0
ARC
  5
FFC
330
18
100
AcDbEntity
  8
1
  6
Continuous
100
AcDbCircle
 10
237.6922149432578
 20
214.6529258895578
 30
0.0
 40
1.5
100
AcDbArc
 50
67.49999999999724
 51
149.4826082251738
  0
ARC
  5
FFD
330
18
100
AcDbEntity
  8
1
  6
Continuous
100
AcDbCircle
 10
221.3241887907255
 20
224.3011236419889
 30
0.0
 40
22.0
100
AcDbArc
 50
299.9273118068561
 51
330.0726881931438
  0
ARC
  5
FFE
330
18
100
AcDbEntity
  8
1
  6
Continuous
100
AcDbCircle
 10
231.5516575743297
 20
206.5346135097091
 30
0.0
 40
1.5
100
AcDbArc
 50
202.5000000000015
 51
299.9273118068561
  0
LINE
  5
FFF
330
18
100
AcDbEntity
  8
1
  6
Continuous
100
AcDbLine
 10
229.5865672443895
 20
207.3590723409091
 30
0.0
 11
230.1658382755626
 21
205.9605883611615
 31
0.0
  0
ARC
  5
1000
330
18
100
AcDbEntity
  8
1
  6
Continuous
100
AcDbCircle
 10
221.3241887907256
 20
224.3011236419889
 30
0.0
 40
22.0
100
AcDbArc
 50
344.9273118068567
 51
15.07268819314328
  0
LINE
  5
1001
330
18
100
AcDbEntity
  8
1
  6
Continuous
100
AcDbLine
 10
239.1464119862449
 20
218.1636681131005
 30
0.0
 11
240.5448959659927
 21
217.5843970819276
 31
0.0
  0
ARC
  5
1002
330
18
100
AcDbEntity
  8
1
  6
Continuous
100
AcDbCircle
 10
241.1189211145404
 20
218.9702163806946
 30
0.0
 40
1.5
100
AcDbArc
 50
247.4999999999984
 51
344.9273118068567
  0
ARC
  5
1003
330
18
100
AcDbEntity
  8
1
  6
Continuous
100
AcDbCircle
 10
239.7204371347929
 20
219.5494874118675
 30
0.0
 40
1.5
100
AcDbArc
 50
165.5173917748252
 51
247.4999999999984
  0
LINE
  5
1004
330
18
100
AcDbEntity
  8
1
  6
Continuous
100
AcDbLine
 10
239.1464119862451
 20
230.4385791708772
 30
0.0
 11
240.5448959659927
 21
231.0178502020502
 31
0.0
  0
ARC
  5
1005
330
18
100
AcDbEntity
  8
1
  6
Continuous
100
AcDbCircle
 10
241.1189211145404
 20
229.6320309032831
 30
0.0
 40
1.5
100
AcDbArc
 50
15.07268819314328
 51
112.4999999999984
  0
ARC
  5
1006
330
18
100
AcDbEntity
  8
1
  6
Continuous
100
AcDbCircle
 10
239.7204371347929
 20
229.0527598721104
 30
0.0
 40
1.5
100
AcDbArc
 50
112.4999999999955
 51
194.4826082251747
  0
ARC
  5
1007
330
18
100
AcDbEntity
  8
1
  6
Continuous
100
AcDbCircle
 10
221.3241887907255
 20
224.3011236419889
 30
0.0
 40
22.0
100
AcDbArc
 50
29.92731180685615
 51
32.23158972086564
  0
LINE
  5
1008
330
18
100
AcDbEntity
  8
1
  6
Continuous
100
AcDbLine
 10
239.0115983958187
 20
232.8722396140029
 30
0.0
 11
239.664724071553
 21
233.1427731268263
 31
0.0
  0
ARC
  5
1009
330
18
100
AcDbEntity
  8
1
  6
Continuous
100
AcDbCircle
 10
239.0906989230055
 20
234.5285924255932
 30
0.0
 40
1.5
100
AcDbArc
 50
292.5000000000014
 51
29.92731180685615
  0
ARC
  5
1046
330
18
100
AcDbEntity
  8
1
  6
Continuous
100
AcDbCircle
 10
396.5174046967156
 20
196.3024325514826
 30
0.0
 40
3.0
100
AcDbArc
 50
280.0936568592259
 51
0.0
  0
ARC
  5
1047
330
18
100
AcDbEntity
  8
1
  6
Continuous
100
AcDbCircle
 10
362.5174046967156
 20
196.3024325514826
 30
0.0
 40
3.0
100
AcDbArc
 50
180.0
 51
259.9063431407739
  0
ARC
  5
1048
330
18
100
AcDbEntity
  8
1
  6
Continuous
100
AcDbCircle
 10
379.5174046967156
 20
291.801123641989
 30
0.0
 40
100.0
100
AcDbArc
 50
259.9063431407739
 51
280.0936568592259
  0
LINE
  5
1049
330
18
100
AcDbEntity
  8
1
  6
Continuous
100
AcDbLine
 10
359.5174046967154
 20
196.3024325514824
 30
0.0
 11
359.5174046967154
 21
252.2998147324954
 31
0.0
  0
LINE
  5
104A
330
18
100
AcDbEntity
  8
1
  6
Continuous
100
AcDbLine
 10
358.0174046967156
 20
207.8011236419891
 30
0.0
 11
358.0174046967156
 21
240.801123641989
 31
0.0
  0
LINE
  5
104B
330
18
100
AcDbEntity
  8
1
  6
Continuous
100
AcDbLine
 10
399.5174046967154
 20
196.3024325514824
 30
0.0
 11
399.5174046967154
 21
252.2998147324957
 31
0.0
  0
LINE
  5
104C
330
18
100
AcDbEntity
  8
1
  6
Continuous
100
AcDbLine
 10
401.0174046967156
 20
207.8011236419891
 30
0.0
 11
401.0174046967156
 21
240.801123641989
 31
0.0
  0
ARC
  5
104D
330
18
100
AcDbEntity
  8
1
  6
Continuous
100
AcDbCircle
 10
357.2174056967154
 20
215.701123691989
 30
0.0
 40
0.2
100
AcDbArc
 50
180.0
 51
270.0
  0
ARC
  5
104E
330
18
100
AcDbEntity
  8
1
  6
Continuous
100
AcDbCircle
 10
359.0174046967157
 20
207.8011236419891
 30
0.0
 40
1.0
100
AcDbArc
 50
180.0
 51
270.0
  0
LINE
  5
104F
330
18
100
AcDbEntity
  8
1
  6
Continuous
100
AcDbLine
 10
358.0174046967156
 20
215.501123591989
 30
0.0
 11
357.2174056967154
 21
215.501123591989
 31
0.0
  0
LINE
  5
1050
330
18
100
AcDbEntity
  8
1
  6
Continuous
100
AcDbLine
 10
359.5174046967156
 20
206.8011236419891
 30
0.0
 11
359.0174046967157
 21
206.8011236419891
 31
0.0
  0
LINE
  5
1051
330
18
100
AcDbEntity
  8
1
  6
Continuous
100
AcDbLine
 10
358.0174046967156
 20
233.101123591989
 30
0.0
 11
357.2174056967154
 21
233.101123591989
 31
0.0
  0
ARC
  5
1052
330
18
100
AcDbEntity
  8
1
  6
Continuous
100
AcDbCircle
 10
357.2174056967154
 20
232.901123591989
 30
0.0
 40
0.2
100
AcDbArc
 50
89.99999700000229
 51
180.0
  0
ARC
  5
1053
330
18
100
AcDbEntity
  8
1
  6
Continuous
100
AcDbCircle
 10
401.8174036967157
 20
215.701123691989
 30
0.0
 40
0.2
100
AcDbArc
 50
270.0
 51
0.0
  0
LINE
  5
1054
330
18
100
AcDbEntity
  8
1
  6
Continuous
100
AcDbLine
 10
400.0174046967156
 20
206.8011236419891
 30
0.0
 11
399.5174046967156
 21
206.8011236419891
 31
0.0
  0
LINE
  5
1055
330
18
100
AcDbEntity
  8
1
  6
Continuous
100
AcDbLine
 10
401.0174046967156
 20
215.501123591989
 30
0.0
 11
401.8174036967157
 21
215.501123591989
 31
0.0
  0
ARC
  5
1056
330
18
100
AcDbEntity
  8
1
  6
Continuous
100
AcDbCircle
 10
400.0174046967156
 20
207.8011236419891
 30
0.0
 40
1.0
100
AcDbArc
 50
270.0
 51
0.0
  0
ARC
  5
1057
330
18
100
AcDbEntity
  8
1
  6
Continuous
100
AcDbCircle
 10
401.8174036967157
 20
232.901123591989
 30
0.0
 40
0.2
100
AcDbArc
 50
0.0
 51
90.00000299999769
  0
LINE
  5
1058
330
18
100
AcDbEntity
  8
1
  6
Continuous
100
AcDbLine
 10
401.0174046967156
 20
233.1011235919866
 30
0.0
 11
401.8174036967157
 21
233.1011235919866
 31
0.0
  0
ARC
  5
1059
330
18
100
AcDbEntity
  8
1
  6
Continuous
100
AcDbCircle
 10
379.5174046967156
 20
156.8011236419891
 30
0.0
 40
100.0
100
AcDbArc
 50
79.90634314077396
 51
100.093656859226
  0
ARC
  5
105A
330
18
100
AcDbEntity
  8
1
  6
Continuous
100
AcDbCircle
 10
359.0174046967157
 20
240.801123641989
 30
0.0
 40
1.0
100
AcDbArc
 50
90.0
 51
180.0
  0
LINE
  5
105B
330
18
100
AcDbEntity
  8
1
  6
Continuous
100
AcDbLine
 10
359.5174046967157
 20
241.801123641989
 30
0.0
 11
359.0174046967157
 21
241.801123641989
 31
0.0
  0
ARC
  5
105C
330
18
100
AcDbEntity
  8
1
  6
Continuous
100
AcDbCircle
 10
362.5174046967156
 20
252.2998147324957
 30
0.0
 40
3.0
100
AcDbArc
 50
100.093656859226
 51
180.0
  0
ARC
  5
105D
330
18
100
AcDbEntity
  8
1
  6
Continuous
100
AcDbCircle
 10
400.0174046967156
 20
240.801123641989
 30
0.0
 40
1.0
100
AcDbArc
 50
0.0
 51
90.0
  0
LINE
  5
105E
330
18
100
AcDbEntity
  8
1
  6
Continuous
100
AcDbLine
 10
400.0174046967156
 20
241.801123641989
 30
0.0
 11
399.5174046967157
 21
241.801123641989
 31
0.0
  0
ARC
  5
105F
330
18
100
AcDbEntity
  8
1
  6
Continuous
100
AcDbCircle
 10
396.5174046967156
 20
252.2998147324957
 30
0.0
 40
3.0
100
AcDbArc
 50
0.0
 51
79.90634314077396
  0
LINE
  5
1591
330
18
100
AcDbEntity
  8
1
  6
Continuous
100
AcDbLine
 10
397.3526446967154
 20
275.601123641989
 30
0.0
 11
361.6821686967155
 21
275.601123641989
 31
0.0
  0
LINE
  5
1592
330
18
100
AcDbEntity
  8
1
  6
Continuous
100
AcDbLine
 10
420.2674046967156
 20
278.8011236419889
 30
0.0
 11
338.7674046967156
 21
278.8011236419889
 31
0.0
  0
LINE
  5
1593
330
18
100
AcDbEntity
  8
1
  6
Continuous
100
AcDbLine
 10
420.2674046967156
 20
281.8011236419891
 30
0.0
 11
338.7674036967155
 21
281.8011236419891
 31
0.0
  0
ARC
  5
15FE
330
18
100
AcDbEntity
  8
1
  6
Continuous
100
AcDbCircle
 10
189.7944737782671
 20
112.825703941228
 30
0.0
 40
10.2
100
AcDbArc
 50
30.72133569884064
 51
90.0
  0
LINE
  5
15FF
330
18
100
AcDbEntity
  8
1
  6
Continuous
100
AcDbLine
 10
206.8552354615162
 20
109.9550909684052
 30
0.0
 11
201.1420134578242
 21
119.5690965014222
 31
0.0
  0
ARC
  5
1600
330
18
100
AcDbEntity
  8
1
  6
Continuous
100
AcDbCircle
 10
252.8539038031831
 20
112.825703941228
 30
0.0
 40
10.2
100
AcDbArc
 50
90.0
 51
149.2786643011593
  0
LINE
  5
1601
330
18
100
AcDbEntity
  8
1
  6
Continuous
100
AcDbLine
 10
235.7931421199342
 20
109.9550909684052
 30
0.0
 11
241.5063641236263
 21
119.5690965014222
 31
0.0
  0
LINE
  5
1611
330
18
100
AcDbEntity
  8
1
  6
Continuous
100
AcDbLine
 10
206.8552354615162
 20
52.5963169140515
 30
0.0
 11
201.1420134578242
 21
42.98231138103449
 31
0.0
  0
LINE
  5
1612
330
18
100
AcDbEntity
  8
1
  6
Continuous
100
AcDbLine
 10
204.2762491707078
 20
54.12890613227745
 30
0.0
 11
198.5630274999169
 21
44.51490115945454
 31
0.0
  0
LINE
  5
1613
330
18
100
AcDbEntity
  8
1
  6
Continuous
100
AcDbLine
 10
204.2762491707078
 20
108.4225017501792
 30
0.0
 11
198.5630274999169
 21
118.0365067230021
 31
0.0
  0
ARC
  5
161E
330
18
100
AcDbEntity
  8
1
  6
Continuous
100
AcDbCircle
 10
189.7944737782671
 20
49.72570394122863
 30
0.0
 40
10.2
100
AcDbArc
 50
270.0
 51
329.2786643011593
  0
LINE
  5
1621
330
18
100
AcDbEntity
  8
1
  6
Continuous
100
AcDbLine
 10
189.7944757907253
 20
39.52570394122858
 30
0.0
 11
185.8971083404514
 21
39.52570394122858
 31
0.0
  0
LINE
  5
1622
330
18
100
AcDbEntity
  8
1
  6
Continuous
100
AcDbLine
 10
189.7944737782671
 20
36.52570394122858
 30
0.0
 11
186.3241887907252
 21
36.52570394122858
 31
0.0
  0
ARC
  5
1625
330
18
100
AcDbEntity
  8
1
  6
Continuous
100
AcDbCircle
 10
189.7944737782671
 20
49.72570394122863
 30
0.0
 40
13.2
100
AcDbArc
 50
270.0
 51
329.2786643011593
  0
ARC
  5
1632
330
18
100
AcDbEntity
  8
1
  6
Continuous
100
AcDbCircle
 10
230.2053384898493
 20
49.27570694122858
 30
0.0
 40
6.5
100
AcDbArc
 50
30.72133569884064
 51
90.0
  0
ARC
  5
1633
330
18
100
AcDbEntity
  8
1
  6
Continuous
100
AcDbCircle
 10
230.2053384898493
 20
49.27570694122858
 30
0.0
 40
9.5
100
AcDbArc
 50
30.72133569884064
 51
90.0
  0
LINE
  5
1635
330
18
100
AcDbEntity
  8
1
  6
Continuous
100
AcDbLine
 10
230.2053384898493
 20
58.77570694122858
 30
0.0
 11
212.4430390916011
 21
58.77570694122858
 31
0.0
  0
LINE
  5
1636
330
18
100
AcDbEntity
  8
1
  6
Continuous
100
AcDbLine
 10
230.2053384898493
 20
55.77570694122858
 30
0.0
 11
212.4430390916011
 21
55.77570694122858
 31
0.0
  0
ARC
  5
1639
330
18
100
AcDbEntity
  8
1
  6
Continuous
100
AcDbCircle
 10
212.4430390916011
 20
49.27570694122858
 30
0.0
 40
9.5
100
AcDbArc
 50
90.0
 51
149.2786643011593
  0
ARC
  5
163A
330
18
100
AcDbEntity
  8
1
  6
Continuous
100
AcDbCircle
 10
212.4430390916011
 20
49.27570694122858
 30
0.0
 40
6.5
100
AcDbArc
 50
90.0
 51
149.2786643011593
  0
ARC
  5
1643
330
18
100
AcDbEntity
  8
1
  6
Continuous
100
AcDbCircle
 10
252.8539038031831
 20
49.72570394122863
 30
0.0
 40
10.2
100
AcDbArc
 50
210.7213356988406
 51
270.0
  0
LINE
  5
1644
330
18
100
AcDbEntity
  8
1
  6
Continuous
100
AcDbLine
 10
235.7931421199342
 20
52.5963169140515
 30
0.0
 11
241.5063641236263
 21
42.98231138103449
 31
0.0
  0
ARC
  5
1647
330
18
100
AcDbEntity
  8
1
  6
Continuous
100
AcDbCircle
 10
252.8539038031831
 20
49.72570394122863
 30
0.0
 40
13.2
100
AcDbArc
 50
210.7213356988406
 51
270.0
  0
LINE
  5
1649
330
18
100
AcDbEntity
  8
1
  6
Continuous
100
AcDbLine
 10
252.8539038031831
 20
36.52570394122858
 30
0.0
 11
256.3241887907252
 21
36.52570394122858
 31
0.0
  0
LINE
  5
164A
330
18
100
AcDbEntity
  8
1
  6
Continuous
100
AcDbLine
 10
252.8539017907251
 20
39.52570394122858
 30
0.0
 11
256.751269240999
 21
39.52570394122858
 31
0.0
  0
LINE
  5
164F
330
18
100
AcDbEntity
  8
1
  6
Continuous
100
AcDbLine
 10
238.3721284107425
 20
54.12890613227745
 30
0.0
 11
244.0853500815334
 21
44.51490115945454
 31
0.0
  0
ARC
  5
1652
330
18
100
AcDbEntity
  8
1
  6
Continuous
100
AcDbCircle
 10
230.2053384898493
 20
113.275700941228
 30
0.0
 40
9.5
100
AcDbArc
 50
270.0
 51
329.2786643011593
  0
ARC
  5
1653
330
18
100
AcDbEntity
  8
1
  6
Continuous
100
AcDbCircle
 10
230.2053384898493
 20
113.275700941228
 30
0.0
 40
6.5
100
AcDbArc
 50
270.0
 51
329.2786643011593
  0
LINE
  5
1654
330
18
100
AcDbEntity
  8
1
  6
Continuous
100
AcDbLine
 10
230.2053384898493
 20
106.7757009412281
 30
0.0
 11
212.4430390916011
 21
106.7757009412281
 31
0.0
  0
LINE
  5
1655
330
18
100
AcDbEntity
  8
1
  6
Continuous
100
AcDbLine
 10
230.2053384898493
 20
103.775700941228
 30
0.0
 11
212.4430390916011
 21
103.775700941228
 31
0.0
  0
ARC
  5
165B
330
18
100
AcDbEntity
  8
1
  6
Continuous
100
AcDbCircle
 10
212.4430390916011
 20
113.275700941228
 30
0.0
 40
9.5
100
AcDbArc
 50
210.7213356988406
 51
270.0
  0
ARC
  5
165E
330
18
100
AcDbEntity
  8
1
  6
Continuous
100
AcDbCircle
 10
212.4430390916011
 20
113.275700941228
 30
0.0
 40
6.5
100
AcDbArc
 50
210.7213356988406
 51
270.0
  0
LINE
  5
1674
330
18
100
AcDbEntity
  8
1
  6
Continuous
100
AcDbLine
 10
238.3721284107425
 20
108.4225017501792
 30
0.0
 11
244.0853500815334
 21
118.0365067230021
 31
0.0
  0
LINE
  5
1685
330
18
100
AcDbEntity
  8
1
  6
Continuous
100
AcDbLine
 10
189.7944737782671
 20
126.0257039412281
 30
0.0
 11
186.3241887907252
 21
126.0257039412281
 31
0.0
  0
LINE
  5
1686
330
18
100
AcDbEntity
  8
1
  6
Continuous
100
AcDbLine
 10
189.7944757907253
 20
123.0257039412281
 30
0.0
 11
185.8971083404514
 21
123.0257039412281
 31
0.0
  0
ARC
  5
1689
330
18
100
AcDbEntity
  8
1
  6
Continuous
100
AcDbCircle
 10
189.7944737782671
 20
112.825703941228
 30
0.0
 40
13.2
100
AcDbArc
 50
30.72133569884064
 51
90.0
  0
ARC
  5
168A
330
18
100
AcDbEntity
  8
1
  6
Continuous
100
AcDbCircle
 10
252.8539038031831
 20
112.825703941228
 30
0.0
 40
13.2
100
AcDbArc
 50
90.0
 51
149.2786643011593
  0
LINE
  5
168C
330
18
100
AcDbEntity
  8
1
  6
Continuous
100
AcDbLine
 10
252.8539017907251
 20
123.0257039412281
 30
0.0
 11
256.751269240999
 21
123.0257039412281
 31
0.0
  0
LINE
  5
168D
330
18
100
AcDbEntity
  8
1
  6
Continuous
100
AcDbLine
 10
252.8539038031831
 20
126.0257039412281
 30
0.0
 11
256.3241887907252
 21
126.0257039412281
 31
0.0
  0
ARC
  5
1696
330
18
100
AcDbEntity
  8
1
  6
Continuous
100
AcDbCircle
 10
183.324188790726
 20
275.8011266419889
 30
0.0
 40
3.0
100
AcDbArc
 50
359.9999713521103
 51
90.0
  0
LINE
  5
1697
330
18
100
AcDbEntity
  8
1
  6
Continuous
100
AcDbLine
 10
183.324188790726
 20
278.801126641989
 30
0.0
 11
180.3241887907251
 21
278.801126641989
 31
0.0
  0
LINE
  5
1698
330
18
100
AcDbEntity
  8
1
  6
Continuous
100
AcDbLine
 10
180.3241887907251
 20
278.801126641989
 30
0.0
 11
180.3241887907251
 21
281.8011236419891
 31
0.0
  0
ARC
  5
16B1
330
18
100
AcDbEntity
  8
1
  6
Continuous
100
AcDbCircle
 10
259.3241887907244
 20
275.8011266419889
 30
0.0
 40
3.0
100
AcDbArc
 50
90.0
 51
180.0000286478897
  0
LINE
  5
16B6
330
18
100
AcDbEntity
  8
1
  6
Continuous
100
AcDbLine
 10
259.3241887907244
 20
278.801126641989
 30
0.0
 11
262.3241887907252
 21
278.801126641989
 31
0.0
  0
LINE
  5
16B7
330
18
100
AcDbEntity
  8
1
  6
Continuous
100
AcDbLine
 10
262.3241887907252
 20
278.801126641989
 30
0.0
 11
262.3241887907252
 21
281.8011236419891
 31
0.0
  0
LINE
  5
16B8
330
18
100
AcDbEntity
  8
1
  6
Continuous
100
AcDbLine
 10
354.0174046967156
 20
210.801123641989
 30
0.0
 11
354.0174046967156
 21
219.4900670688269
 31
0.0
  0
LINE
  5
16BB
330
18
100
AcDbEntity
  8
1
  6
Continuous
100
AcDbLine
 10
357.0174046967157
 20
210.801123641989
 30
0.0
 11
357.0174046967157
 21
278.8011236419889
 31
0.0
  0
LINE
  5
16BD
330
18
100
AcDbEntity
  8
1
  6
Continuous
100
AcDbLine
 10
349.1173976967156
 20
215.8011204407198
 30
0.0
 11
349.1173976967156
 21
230.9301444222035
 31
0.0
  0
ARC
  5
16BE
330
18
100
AcDbEntity
  8
1
  6
Continuous
100
AcDbCircle
 10
348.7174076967155
 20
217.00112144072
 30
0.0
 40
1.199999999999999
100
AcDbArc
 50
179.9999899999989
 51
269.9999970000023
  0
ARC
  5
16BF
330
18
100
AcDbEntity
  8
1
  6
Continuous
100
AcDbCircle
 10
352.6278134146541
 20
216.93990294072
 30
0.0
 40
3.51041571793872
100
AcDbArc
 50
135.6541372818185
 51
204.4706962779695
  0
LINE
  5
16C5
330
18
100
AcDbEntity
  8
1
  6
Continuous
100
AcDbLine
 10
350.4323534541256
 20
214.48616468331
 30
0.0
 11
354.0174076967155
 21
214.48616468331
 31
0.0
  0
LINE
  5
16C6
330
18
100
AcDbEntity
  8
1
  6
Continuous
100
AcDbLine
 10
348.7174076967155
 20
215.8011204407198
 30
0.0
 11
349.1173976967156
 21
215.8011204407198
 31
0.0
  0
LINE
  5
16C7
330
18
100
AcDbEntity
  8
1
  6
Continuous
100
AcDbLine
 10
349.1173976967156
 20
215.8011204407198
 30
0.0
 11
350.4323534541256
 21
214.4861646833098
 31
0.0
  0
LINE
  5
16C8
330
18
100
AcDbEntity
  8
1
  6
Continuous
100
AcDbLine
 10
354.0174046967156
 20
210.801123641989
 30
0.0
 11
357.0174046967157
 21
210.801123641989
 31
0.0
  0
ARC
  5
16CC
330
18
100
AcDbEntity
  8
1
  6
Continuous
100
AcDbCircle
 10
407.0951586967157
 20
274.459780641989
 30
0.0
 40
69.5
100
AcDbArc
 50
184.0640399020928
 51
218.9193092706698
  0
ARC
  5
16CD
330
18
100
AcDbEntity
  8
1
  6
Continuous
100
AcDbCircle
 10
407.0951586967157
 20
274.459780641989
 30
0.0
 40
72.5
100
AcDbArc
 50
183.9503199999997
 51
218.9193092706698
  0
ARC
  5
16D0
330
18
100
AcDbEntity
  8
1
  6
Continuous
100
AcDbCircle
 10
339.0174046967156
 20
219.4900670688271
 30
0.0
 40
18.0
100
AcDbArc
 50
0.0
 51
38.91930927066985
  0
ARC
  5
16D1
330
18
100
AcDbEntity
  8
1
  6
Continuous
100
AcDbCircle
 10
339.0174046967156
 20
219.4900670688269
 30
0.0
 40
15.0
100
AcDbArc
 50
0.0
 51
38.91930927066985
  0
LINE
  5
16D2
330
18
100
AcDbEntity
  8
1
  6
Continuous
100
AcDbLine
 10
345.6674307724445
 20
229.3011436420958
 30
0.0
 11
345.6674307724445
 21
219.3011236419891
 31
0.0
  0
LINE
  5
16D3
330
18
100
AcDbEntity
  8
1
  6
Continuous
100
AcDbLine
 10
344.9174307724446
 20
228.5511396420957
 30
0.0
 11
345.6674107724443
 21
229.301123641989
 31
0.0
  0
LINE
  5
16D4
330
18
100
AcDbEntity
  8
1
  6
Continuous
100
AcDbLine
 10
347.5174076967154
 20
217.00112144072
 30
0.0
 11
347.5174076967154
 21
231.6011234407199
 31
0.0
  0
ARC
  5
16D5
330
18
100
AcDbEntity
  8
1
  6
Continuous
100
AcDbCircle
 10
361.6590582447793
 20
224.301123641989
 30
0.0
 40
12.54166054806418
100
AcDbArc
 50
156.9649625403176
 51
203.0350692435372
  0
LINE
  5
16D6
330
18
100
AcDbEntity
  8
1
  6
Continuous
100
AcDbLine
 10
350.1173976967156
 20
219.3936411981299
 30
0.0
 11
354.0174076967155
 21
219.3936411981299
 31
0.0
  0
LINE
  5
16D7
330
18
100
AcDbEntity
  8
2
  6
Continuous
100
AcDbLine
 10
344.9174307724446
 20
220.113123641989
 30
0.0
 11
347.5174076967154
 21
220.113123641989
 31
0.0
  0
LINE
  5
16D8
330
18
100
AcDbEntity
  8
1
  6
Continuous
100
AcDbLine
 10
345.6673177724446
 20
219.3011236419891
 30
0.0
 11
347.5174076967154
 21
219.3011236419891
 31
0.0
  0
LINE
  5
16D9
330
18
100
AcDbEntity
  8
2
  6
Continuous
100
AcDbLine
 10
344.9174307724446
 20
228.489123641989
 30
0.0
 11
347.5174076967154
 21
228.489123641989
 31
0.0
  0
LINE
  5
16DA
330
18
100
AcDbEntity
  8
1
  6
Continuous
100
AcDbLine
 10
344.9174307724446
 20
228.5511396420957
 30
0.0
 11
344.9174307724446
 21
220.0510106419891
 31
0.0
  0
LINE
  5
16DB
330
18
100
AcDbEntity
  8
1
  6
Continuous
100
AcDbLine
 10
345.6673177724446
 20
219.3011236419891
 30
0.0
 11
344.9174307724446
 21
220.0510106419891
 31
0.0
  0
LINE
  5
16DC
330
18
100
AcDbEntity
  8
1
  6
Continuous
100
AcDbLine
 10
345.6674107724443
 20
229.301123641989
 30
0.0
 11
347.5174076967154
 21
229.301123641989
 31
0.0
  0
LINE
  5
16DD
330
18
100
AcDbEntity
  8
1
  6
Continuous
100
AcDbLine
 10
350.1173976967156
 20
229.2085996833098
 30
0.0
 11
350.4508242770682
 21
229.2085996833098
 31
0.0
  0
ARC
  5
16DE
330
18
100
AcDbEntity
  8
1
  6
Continuous
100
AcDbCircle
 10
348.7174076967155
 20
231.6011234407199
 30
0.0
 40
1.199999999999999
100
AcDbArc
 50
129.5775378196942
 51
180.0
  0
ARC
  5
16DF
330
18
100
AcDbEntity
  8
1
  6
Continuous
100
AcDbCircle
 10
352.6278134146541
 20
231.6623443432582
 30
0.0
 40
3.51041571793872
100
AcDbArc
 50
194.5460280372758
 51
224.3458627181814
  0
ARC
  5
16E3
330
18
100
AcDbEntity
  8
1
  6
Continuous
100
AcDbCircle
 10
361.6821686967155
 20
280.601123641989
 30
0.0
 40
5.0
100
AcDbArc
 50
201.1001000000002
 51
269.9999800000012
  0
ARC
  5
16E4
330
18
100
AcDbEntity
  8
1
  6
Continuous
100
AcDbCircle
 10
338.7674046967156
 20
277.8011236419891
 30
0.0
 40
4.0
100
AcDbArc
 50
89.9999820000008
 51
179.9999599999992
  0
ARC
  5
16E5
330
18
100
AcDbEntity
  8
1
  6
Continuous
100
AcDbCircle
 10
338.7674046967156
 20
277.8011236419889
 30
0.0
 40
1.0
100
AcDbArc
 50
90.0
 51
180.0
  0
LINE
  5
16E6
330
18
100
AcDbEntity
  8
1
  6
Continuous
100
AcDbLine
 10
334.7674046967156
 20
269.4651056419891
 30
0.0
 11
334.7674046967156
 21
277.8011236419891
 31
0.0
  0
ARC
  5
16E7
330
18
100
AcDbEntity
  8
1
  6
Continuous
100
AcDbCircle
 10
338.7674046967156
 20
269.6050887552194
 30
0.0
 40
1.0
100
AcDbArc
 50
180.0
 51
184.0640399020928
  0
LINE
  5
16E8
330
18
100
AcDbEntity
  8
1
  6
Continuous
100
AcDbLine
 10
337.7674046967156
 20
269.6050887552194
 30
0.0
 11
337.7674046967156
 21
277.8011236419889
 31
0.0
  0
LINE
  5
16E9
330
18
100
AcDbEntity
  8
4
  6
CENTER
 48
0.2
100
AcDbLine
 10
348.0174046967156
 20
274.601123641989
 30
0.0
 11
348.0174046967156
 21
285.801123641989
 31
0.0
  0
LINE
  5
16F1
330
18
100
AcDbEntity
  8
1
  6
Continuous
100
AcDbLine
 10
206.8552354615162
 20
363.6471563155731
 30
0.0
 11
201.1420134578242
 21
354.0331507825562
 31
0.0
  0
LINE
  5
16F4
330
18
100
AcDbEntity
  8
1
  6
Continuous
100
AcDbLine
 10
189.7944737782671
 20
347.5765433427501
 30
0.0
 11
186.3241887907252
 21
347.5765433427501
 31
0.0
  0
ARC
  5
16F9
330
18
100
AcDbEntity
  8
1
  6
Continuous
100
AcDbCircle
 10
189.7944737782671
 20
360.7765433427502
 30
0.0
 40
13.2
100
AcDbArc
 50
270.0
 51
329.2786643011593
  0
ARC
  5
16FE
330
18
100
AcDbEntity
  8
1
  6
Continuous
100
AcDbCircle
 10
230.2053384898493
 20
360.3265463427502
 30
0.0
 40
6.5
100
AcDbArc
 50
30.72133569884064
 51
90.0
  0
ARC
  5
16FF
330
18
100
AcDbEntity
  8
1
  6
Continuous
100
AcDbCircle
 10
212.4430390916011
 20
360.3265463427502
 30
0.0
 40
6.5
100
AcDbArc
 50
90.0
 51
149.2786643011593
  0
ARC
  5
1718
330
18
100
AcDbEntity
  8
1
  6
Continuous
100
AcDbCircle
 10
252.8539038031831
 20
360.7765433427502
 30
0.0
 40
13.2
100
AcDbArc
 50
210.7213356988406
 51
270.0
  0
LINE
  5
171A
330
18
100
AcDbEntity
  8
1
  6
Continuous
100
AcDbLine
 10
235.7931421199342
 20
363.6471563155731
 30
0.0
 11
241.5063641236263
 21
354.0331507825562
 31
0.0
  0
LINE
  5
171D
330
18
100
AcDbEntity
  8
1
  6
Continuous
100
AcDbLine
 10
252.8539038031831
 20
347.5765433427501
 30
0.0
 11
256.3241887907252
 21
347.5765433427501
 31
0.0
  0
LINE
  5
1721
330
18
100
AcDbEntity
  8
1
  6
Continuous
100
AcDbLine
 10
230.2053384898493
 20
366.8265463427502
 30
0.0
 11
212.4430390916011
 21
366.8265463427502
 31
0.0
  0
LINE
  5
1728
330
18
100
AcDbEntity
  8
1
  6
Continuous
100
AcDbLine
 10
206.8552354615162
 20
421.0059303699268
 30
0.0
 11
201.1420134578242
 21
430.6199359029439
 31
0.0
  0
ARC
  5
172B
330
18
100
AcDbEntity
  8
1
  6
Continuous
100
AcDbCircle
 10
189.7944737782671
 20
423.8765433427497
 30
0.0
 40
13.2
100
AcDbArc
 50
30.72133569884064
 51
90.0
  0
LINE
  5
172C
330
18
100
AcDbEntity
  8
1
  6
Continuous
100
AcDbLine
 10
189.7944737782671
 20
437.0765433427497
 30
0.0
 11
186.3241887907252
 21
437.0765433427497
 31
0.0
  0
ARC
  5
1733
330
18
100
AcDbEntity
  8
1
  6
Continuous
100
AcDbCircle
 10
230.2053384898493
 20
424.3265403427498
 30
0.0
 40
6.5
100
AcDbArc
 50
270.0
 51
329.2786643011593
  0
LINE
  5
1735
330
18
100
AcDbEntity
  8
1
  6
Continuous
100
AcDbLine
 10
230.2053384898493
 20
417.8265403427498
 30
0.0
 11
212.4430390916011
 21
417.8265403427498
 31
0.0
  0
ARC
  5
1738
330
18
100
AcDbEntity
  8
1
  6
Continuous
100
AcDbCircle
 10
212.4430390916011
 20
424.3265403427498
 30
0.0
 40
6.5
100
AcDbArc
 50
210.7213356988406
 51
270.0
  0
ARC
  5
173D
330
18
100
AcDbEntity
  8
1
  6
Continuous
100
AcDbCircle
 10
252.8539038031831
 20
423.8765433427497
 30
0.0
 40
13.2
100
AcDbArc
 50
90.0
 51
149.2786643011593
  0
LINE
  5
1740
330
18
100
AcDbEntity
  8
1
  6
Continuous
100
AcDbLine
 10
235.7931421199342
 20
421.0059303699268
 30
0.0
 11
241.5063641236263
 21
430.6199359029439
 31
0.0
  0
LINE
  5
1743
330
18
100
AcDbEntity
  8
1
  6
Continuous
100
AcDbLine
 10
252.8539038031831
 20
437.0765433427497
 30
0.0
 11
256.3241887907252
 21
437.0765433427497
 31
0.0
  0
LINE
  5
1750
330
18
100
AcDbEntity
  8
1
  6
Continuous
100
AcDbLine
 10
405.0174046967156
 20
210.801123641989
 30
0.0
 11
405.0174046967156
 21
219.4900670688269
 31
0.0
  0
LINE
  5
1751
330
18
100
AcDbEntity
  8
1
  6
Continuous
100
AcDbLine
 10
402.0174046967156
 20
210.801123641989
 30
0.0
 11
402.0174046967156
 21
278.8011236419889
 31
0.0
  0
LINE
  5
1752
330
18
100
AcDbEntity
  8
1
  6
Continuous
100
AcDbLine
 10
406.4174287724442
 20
225.8178356217406
 30
0.0
 11
406.4174287724442
 21
215.882284641989
 31
0.0
  0
ARC
  5
1753
330
18
100
AcDbEntity
  8
1
  6
Continuous
100
AcDbCircle
 10
385.9478937724444
 20
224.301123641989
 30
0.0
 40
22.56953
100
AcDbArc
 50
338.0486999999987
 51
10.99003535050183
  0
ARC
  5
1758
330
18
100
AcDbEntity
  8
1
  6
Continuous
100
AcDbCircle
 10
406.4174287724442
 20
216.051123641989
 30
0.0
 40
0.5
100
AcDbArc
 50
265.0000000000003
 51
338.0486899999998
  0
LINE
  5
175B
330
18
100
AcDbEntity
  8
1
  6
Continuous
100
AcDbLine
 10
405.0174046967156
 20
210.801123641989
 30
0.0
 11
402.0174046967156
 21
210.801123641989
 31
0.0
  0
LINE
  5
175C
330
18
100
AcDbEntity
  8
1
  6
Continuous
100
AcDbLine
 10
406.3738497724441
 20
215.553023641989
 30
0.0
 11
405.017427772444
 21
215.671698641989
 31
0.0
  0
ARC
  5
175F
330
18
100
AcDbEntity
  8
1
  6
Continuous
100
AcDbCircle
 10
351.9396506967154
 20
274.459780641989
 30
0.0
 40
69.5
100
AcDbArc
 50
321.0806907293301
 51
355.9359600979072
  0
ARC
  5
1760
330
18
100
AcDbEntity
  8
1
  6
Continuous
100
AcDbCircle
 10
351.9396506967154
 20
274.459780641989
 30
0.0
 40
72.5
100
AcDbArc
 50
321.0806907293301
 51
356.0496800000003
  0
ARC
  5
1761
330
18
100
AcDbEntity
  8
1
  6
Continuous
100
AcDbCircle
 10
420.0174046967156
 20
219.4900670688269
 30
0.0
 40
15.0
100
AcDbArc
 50
141.0806907293301
 51
180.0
  0
ARC
  5
1762
330
18
100
AcDbEntity
  8
1
  6
Continuous
100
AcDbCircle
 10
420.0174046967156
 20
219.4900670688271
 30
0.0
 40
18.0
100
AcDbArc
 50
141.0806907293301
 51
180.0
  0
ARC
  5
1769
330
18
100
AcDbEntity
  8
1
  6
Continuous
100
AcDbCircle
 10
420.2674046967156
 20
277.8011236419891
 30
0.0
 40
4.0
100
AcDbArc
 50
0.0000400000007688
 51
90.00001799999918
  0
ARC
  5
176A
330
18
100
AcDbEntity
  8
1
  6
Continuous
100
AcDbCircle
 10
397.3526446967154
 20
280.601123641989
 30
0.0
 40
5.0
100
AcDbArc
 50
269.9999800000012
 51
338.8998299999999
  0
ARC
  5
176B
330
18
100
AcDbEntity
  8
1
  6
Continuous
100
AcDbCircle
 10
420.2674046967156
 20
277.8011236419889
 30
0.0
 40
1.0
100
AcDbArc
 50
0.0
 51
90.0
  0
LINE
  5
176C
330
18
100
AcDbEntity
  8
4
  6
CENTER
 48
0.2
100
AcDbLine
 10
411.0174046967156
 20
274.601123641989
 30
0.0
 11
411.0174046967156
 21
285.801123641989
 31
0.0
  0
ARC
  5
176D
330
18
100
AcDbEntity
  8
1
  6
Continuous
100
AcDbCircle
 10
420.2674046967156
 20
269.6050887552194
 30
0.0
 40
1.0
100
AcDbArc
 50
355.9359600979072
 51
0.0
  0
LINE
  5
176E
330
18
100
AcDbEntity
  8
1
  6
Continuous
100
AcDbLine
 10
421.2674046967156
 20
269.6050887552194
 30
0.0
 11
421.2674046967156
 21
277.8011236419889
 31
0.0
  0
LINE
  5
176F
330
18
100
AcDbEntity
  8
1
  6
Continuous
100
AcDbLine
 10
424.2674046967156
 20
269.4651056419891
 30
0.0
 11
424.2674046967156
 21
277.8011236419891
 31
0.0
  0
ARC
  5
1771
330
18
100
AcDbEntity
  8
1
  6
Continuous
100
AcDbCircle
 10
499.7106206027067
 20
275.8011266419889
 30
0.0
 40
3.0
100
AcDbArc
 50
359.9999713521103
 51
90.0
  0
LINE
  5
1773
330
18
100
AcDbEntity
  8
1
  6
Continuous
100
AcDbLine
 10
496.710620602706
 20
278.801126641989
 30
0.0
 11
496.710620602706
 21
281.8011236419891
 31
0.0
  0
LINE
  5
1774
330
18
100
AcDbEntity
  8
1
  6
Continuous
100
AcDbLine
 10
499.7106206027067
 20
278.801126641989
 30
0.0
 11
496.710620602706
 21
278.801126641989
 31
0.0
  0
ARC
  5
1783
330
18
100
AcDbEntity
  8
1
  6
Continuous
100
AcDbCircle
 10
575.7106206027052
 20
275.8011266419889
 30
0.0
 40
3.0
100
AcDbArc
 50
90.0
 51
180.0000286478897
  0
LINE
  5
1789
330
18
100
AcDbEntity
  8
1
  6
Continuous
100
AcDbLine
 10
575.7106206027052
 20
278.801126641989
 30
0.0
 11
578.7106206027059
 21
278.801126641989
 31
0.0
  0
LINE
  5
178A
330
18
100
AcDbEntity
  8
1
  6
Continuous
100
AcDbLine
 10
578.7106206027059
 20
278.801126641989
 30
0.0
 11
578.7106206027059
 21
281.8011236419891
 31
0.0
  0
LINE
  5
1D80
330
18
100
AcDbEntity
  8
1
  6
Continuous
100
AcDbLine
 10
45.295732884735
 20
275.601123641989
 30
0.0
 11
80.966208884735
 21
275.601123641989
 31
0.0
  0
LINE
  5
1D81
330
18
100
AcDbEntity
  8
1
  6
Continuous
100
AcDbLine
 10
22.38097288473488
 20
278.8011236419889
 30
0.0
 11
103.8809728847348
 21
278.8011236419889
 31
0.0
  0
LINE
  5
1D82
330
18
100
AcDbEntity
  8
1
  6
Continuous
100
AcDbLine
 10
22.38097288473488
 20
281.8011236419891
 30
0.0
 11
103.880973884735
 21
281.8011236419891
 31
0.0
  0
ARC
  5
1D83
330
18
100
AcDbEntity
  8
1
  6
Continuous
100
AcDbCircle
 10
63.13097288473489
 20
156.8011236419891
 30
0.0
 40
100.0
100
AcDbArc
 50
79.90634314077396
 51
100.093656859226
  0
ARC
  5
1D84
330
18
100
AcDbEntity
  8
1
  6
Continuous
100
AcDbCircle
 10
63.13097288473489
 20
291.801123641989
 30
0.0
 40
100.0
100
AcDbArc
 50
259.9063431407739
 51
280.0936568592259
  0
LINE
  5
1D8A
330
18
100
AcDbEntity
  8
4
  6
CENTER
 48
0.5
100
AcDbLine
 10
27.93095380900615
 20
224.301123641989
 30
0.0
 11
103.930946809006
 21
224.301123641989
 31
0.0
  0
LINE
  5
1D8B
330
18
100
AcDbEntity
  8
1
  6
Continuous
100
AcDbLine
 10
85.63097288473489
 20
210.801123641989
 30
0.0
 11
85.63097288473489
 21
278.8011236419889
 31
0.0
  0
LINE
  5
1D8C
330
18
100
AcDbEntity
  8
1
  6
Continuous
100
AcDbLine
 10
107.8809728847348
 20
269.4651056419891
 30
0.0
 11
107.8809728847348
 21
277.8011236419891
 31
0.0
  0
LINE
  5
1D8D
330
18
100
AcDbEntity
  8
1
  6
Continuous
100
AcDbLine
 10
104.8809728847348
 20
269.6050887552194
 30
0.0
 11
104.8809728847348
 21
277.8011236419889
 31
0.0
  0
LINE
  5
1D8E
330
18
100
AcDbEntity
  8
4
  6
CENTER
 48
0.5
100
AcDbLine
 10
63.13097288473489
 20
185.801123641989
 30
0.0
 11
63.13097288473489
 21
287.801123641989
 31
0.0
  0
ARC
  5
1D91
330
18
100
AcDbEntity
  8
1
  6
Continuous
100
AcDbCircle
 10
35.55321888473474
 20
274.459780641989
 30
0.0
 40
72.5
100
AcDbArc
 50
321.0806907293301
 51
356.0496800000003
  0
ARC
  5
1D93
330
18
100
AcDbEntity
  8
1
  6
Continuous
100
AcDbCircle
 10
103.6309728847348
 20
219.4900670688271
 30
0.0
 40
18.0
100
AcDbArc
 50
141.0806907293301
 51
180.0
  0
ARC
  5
1D94
330
18
100
AcDbEntity
  8
1
  6
Continuous
100
AcDbCircle
 10
90.02056416679636
 20
231.6623443432582
 30
0.0
 40
3.51041571793872
100
AcDbArc
 50
315.6541372818185
 51
345.453971962724
  0
LINE
  5
1D95
330
18
100
AcDbEntity
  8
1
  6
Continuous
100
AcDbLine
 10
93.53097988473484
 20
215.8011204407198
 30
0.0
 11
93.53097988473484
 21
230.9301444222035
 31
0.0
  0
LINE
  5
1D96
330
18
100
AcDbEntity
  8
1
  6
Continuous
100
AcDbLine
 10
95.13096988473499
 20
217.00112144072
 30
0.0
 11
95.13096988473499
 21
231.6011234407199
 31
0.0
  0
ARC
  5
1D97
330
18
100
AcDbEntity
  8
1
  6
Continuous
100
AcDbCircle
 10
35.55321888473474
 20
274.459780641989
 30
0.0
 40
69.5
100
AcDbArc
 50
321.0806907293301
 51
355.9359600979072
  0
LINE
  5
1D98
330
18
100
AcDbEntity
  8
1
  6
Continuous
100
AcDbLine
 10
84.63097288473489
 20
207.8011236419891
 30
0.0
 11
84.63097288473489
 21
240.801123641989
 31
0.0
  0
LINE
  5
1D99
330
18
100
AcDbEntity
  8
1
  6
Continuous
100
AcDbLine
 10
83.13097288473512
 20
196.3024325514824
 30
0.0
 11
83.13097288473512
 21
252.2998147324954
 31
0.0
  0
ARC
  5
1D9A
330
18
100
AcDbEntity
  8
1
  6
Continuous
100
AcDbCircle
 10
80.13097288473487
 20
196.3024325514826
 30
0.0
 40
3.0
100
AcDbArc
 50
280.0936568592259
 51
0.000000000000007
  0
LINE
  5
1D9B
330
18
100
AcDbEntity
  8
1
  6
Continuous
100
AcDbLine
 10
83.13097288473489
 20
206.8011236419891
 30
0.0
 11
83.63097288473488
 21
206.8011236419891
 31
0.0
  0
ARC
  5
1D9C
330
18
100
AcDbEntity
  8
1
  6
Continuous
100
AcDbCircle
 10
83.63097288473488
 20
207.8011236419891
 30
0.0
 40
1.0
100
AcDbArc
 50
270.0
 51
0.000000000000007
  0
ARC
  5
1D9D
330
18
100
AcDbEntity
  8
1
  6
Continuous
100
AcDbCircle
 10
90.02056416679636
 20
216.93990294072
 30
0.0
 40
3.51041571793872
100
AcDbArc
 50
335.5293037220304
 51
44.34586271818147
  0
LINE
  5
1D9E
330
18
100
AcDbEntity
  8
1
  6
Continuous
100
AcDbLine
 10
93.53097988473484
 20
215.8011204407198
 30
0.0
 11
92.21602412732487
 21
214.4861646833098
 31
0.0
  0
ARC
  5
1D9F
330
18
100
AcDbEntity
  8
1
  6
Continuous
100
AcDbCircle
 10
80.9893193366712
 20
224.301123641989
 30
0.0
 40
12.54166054806418
100
AcDbArc
 50
336.9649307564626
 51
23.03503745968233
  0
LINE
  5
1DA0
330
18
100
AcDbEntity
  8
1
  6
Continuous
100
AcDbLine
 10
96.98105980900594
 20
219.3011236419891
 30
0.0
 11
97.73094680900603
 21
220.0510106419891
 31
0.0
  0
LINE
  5
1DA1
330
18
100
AcDbEntity
  8
1
  6
Continuous
100
AcDbLine
 10
96.98094680900602
 20
229.3011436420958
 30
0.0
 11
96.98094680900602
 21
219.3011236419891
 31
0.0
  0
LINE
  5
1DA2
330
18
100
AcDbEntity
  8
1
  6
Continuous
100
AcDbLine
 10
93.93096988473494
 20
215.8011204407198
 30
0.0
 11
93.53097988473484
 21
215.8011204407198
 31
0.0
  0
ARC
  5
1DA3
330
18
100
AcDbEntity
  8
1
  6
Continuous
100
AcDbCircle
 10
93.93096988473494
 20
217.00112144072
 30
0.0
 40
1.199999999999999
100
AcDbArc
 50
270.0000029999976
 51
0.0000100000010134
  0
LINE
  5
1DA4
330
18
100
AcDbEntity
  8
1
  6
Continuous
100
AcDbLine
 10
96.98105980900594
 20
219.3011236419891
 30
0.0
 11
95.13096988473499
 21
219.3011236419891
 31
0.0
  0
LINE
  5
1DA5
330
18
100
AcDbEntity
  8
1
  6
Continuous
100
AcDbLine
 10
97.73094680900603
 20
228.5511396420957
 30
0.0
 11
96.98096680900619
 21
229.301123641989
 31
0.0
  0
LINE
  5
1DA6
330
18
100
AcDbEntity
  8
2
  6
Continuous
100
AcDbLine
 10
97.73094680900603
 20
228.489123641989
 30
0.0
 11
95.13096988473499
 21
228.489123641989
 31
0.0
  0
LINE
  5
1DA7
330
18
100
AcDbEntity
  8
1
  6
Continuous
100
AcDbLine
 10
96.98096680900619
 20
229.301123641989
 30
0.0
 11
95.13096988473499
 21
229.301123641989
 31
0.0
  0
LINE
  5
1DA8
330
18
100
AcDbEntity
  8
2
  6
Continuous
100
AcDbLine
 10
97.73094680900603
 20
220.113123641989
 30
0.0
 11
95.13096988473499
 21
220.113123641989
 31
0.0
  0
LINE
  5
1DA9
330
18
100
AcDbEntity
  8
1
  6
Continuous
100
AcDbLine
 10
97.73094680900603
 20
228.5511396420957
 30
0.0
 11
97.73094680900603
 21
220.0510106419891
 31
0.0
  0
ARC
  5
1DAA
330
18
100
AcDbEntity
  8
1
  6
Continuous
100
AcDbCircle
 10
103.6309728847348
 20
219.4900670688269
 30
0.0
 40
15.0
100
AcDbArc
 50
141.0806907293301
 51
180.0
  0
LINE
  5
1DAB
330
18
100
AcDbEntity
  8
1
  6
Continuous
100
AcDbLine
 10
84.63097288473489
 20
215.501123591989
 30
0.0
 11
85.43097188473508
 21
215.501123591989
 31
0.0
  0
LINE
  5
1DAC
330
18
100
AcDbEntity
  8
1
  6
Continuous
100
AcDbLine
 10
88.63097288473488
 20
210.801123641989
 30
0.0
 11
85.63097288473489
 21
210.801123641989
 31
0.0
  0
LINE
  5
1DAD
330
18
100
AcDbEntity
  8
1
  6
Continuous
100
AcDbLine
 10
92.21602412732487
 20
214.48616468331
 30
0.0
 11
88.63096988473499
 21
214.48616468331
 31
0.0
  0
LINE
  5
1DAE
330
18
100
AcDbEntity
  8
1
  6
Continuous
100
AcDbLine
 10
92.53097988473484
 20
219.3936411981299
 30
0.0
 11
88.63096988473499
 21
219.3936411981299
 31
0.0
  0
LINE
  5
1DAF
330
18
100
AcDbEntity
  8
1
  6
Continuous
100
AcDbLine
 10
88.63097288473488
 20
210.801123641989
 30
0.0
 11
88.63097288473488
 21
219.4900670688269
 31
0.0
  0
ARC
  5
1DB0
330
18
100
AcDbEntity
  8
1
  6
Continuous
100
AcDbCircle
 10
85.43097188473508
 20
215.701123691989
 30
0.0
 40
0.2
100
AcDbArc
 50
270.0
 51
0.000000000000007
  0
LINE
  5
1DB1
330
18
100
AcDbEntity
  8
1
  6
Continuous
100
AcDbLine
 10
92.53097988473484
 20
229.2085996833098
 30
0.0
 11
92.19755330438228
 21
229.2085996833098
 31
0.0
  0
ARC
  5
1DB2
330
18
100
AcDbEntity
  8
1
  6
Continuous
100
AcDbCircle
 10
93.93096988473494
 20
231.6011234407199
 30
0.0
 40
1.199999999999999
100
AcDbArc
 50
0.000000000000007
 51
50.42246218030573
  0
ARC
  5
1DB3
330
18
100
AcDbEntity
  8
1
  6
Continuous
100
AcDbCircle
 10
83.63097288473488
 20
240.801123641989
 30
0.0
 40
1.0
100
AcDbArc
 50
0.000000000000007
 51
90.0
  0
LINE
  5
1DB4
330
18
100
AcDbEntity
  8
1
  6
Continuous
100
AcDbLine
 10
84.63097288473489
 20
233.101123591989
 30
0.0
 11
85.43097188473508
 21
233.101123591989
 31
0.0
  0
ARC
  5
1DB5
330
18
100
AcDbEntity
  8
1
  6
Continuous
100
AcDbCircle
 10
85.43097188473508
 20
232.901123591989
 30
0.0
 40
0.2
100
AcDbArc
 50
0.000000000000007
 51
90.00000299999769
  0
LINE
  5
1DB6
330
18
100
AcDbEntity
  8
1
  6
Continuous
100
AcDbLine
 10
83.13097288473477
 20
241.801123641989
 30
0.0
 11
83.63097288473488
 21
241.801123641989
 31
0.0
  0
ARC
  5
1DB7
330
18
100
AcDbEntity
  8
1
  6
Continuous
100
AcDbCircle
 10
103.8809728847348
 20
269.6050887552194
 30
0.0
 40
1.0
100
AcDbArc
 50
355.9359600979072
 51
0.000000000000007
  0
ARC
  5
1DB8
330
18
100
AcDbEntity
  8
1
  6
Continuous
100
AcDbCircle
 10
80.13097288473487
 20
252.2998147324957
 30
0.0
 40
3.0
100
AcDbArc
 50
0.000000000000007
 51
79.90634314077396
  0
ARC
  5
1DB9
330
18
100
AcDbEntity
  8
1
  6
Continuous
100
AcDbCircle
 10
103.8809728847348
 20
277.8011236419891
 30
0.0
 40
4.0
100
AcDbArc
 50
0.0000400000007758
 51
90.00001799999918
  0
LINE
  5
1DBA
330
18
100
AcDbEntity
  8
4
  6
CENTER
 48
0.2
100
AcDbLine
 10
94.63097288473488
 20
274.601123641989
 30
0.0
 11
94.63097288473488
 21
285.801123641989
 31
0.0
  0
ARC
  5
1DBB
330
18
100
AcDbEntity
  8
1
  6
Continuous
100
AcDbCircle
 10
103.8809728847348
 20
277.8011236419889
 30
0.0
 40
1.0
100
AcDbArc
 50
0.000000000000007
 51
90.0
  0
ARC
  5
1DBC
330
18
100
AcDbEntity
  8
1
  6
Continuous
100
AcDbCircle
 10
80.966208884735
 20
280.601123641989
 30
0.0
 40
5.0
100
AcDbArc
 50
270.0000199999987
 51
338.8998999999997
  0
LINE
  5
1DBE
330
18
100
AcDbEntity
  8
1
  6
Continuous
100
AcDbLine
 10
40.63097288473488
 20
210.801123641989
 30
0.0
 11
40.63097288473488
 21
278.8011236419889
 31
0.0
  0
LINE
  5
1DBF
330
18
100
AcDbEntity
  8
1
  6
Continuous
100
AcDbLine
 10
21.38097288473488
 20
269.6050887552194
 30
0.0
 11
21.38097288473488
 21
277.8011236419889
 31
0.0
  0
LINE
  5
1DC0
330
18
100
AcDbEntity
  8
1
  6
Continuous
100
AcDbLine
 10
18.38097288473488
 20
269.4651056419891
 30
0.0
 11
18.38097288473488
 21
277.8011236419891
 31
0.0
  0
ARC
  5
1DC2
330
18
100
AcDbEntity
  8
1
  6
Continuous
100
AcDbCircle
 10
22.63097288473488
 20
219.4900670688271
 30
0.0
 40
18.0
100
AcDbArc
 50
0.000000000000007
 51
38.91930927066985
  0
ARC
  5
1DC3
330
18
100
AcDbEntity
  8
1
  6
Continuous
100
AcDbCircle
 10
90.70872688473505
 20
274.459780641989
 30
0.0
 40
69.5
100
AcDbArc
 50
184.0640399020928
 51
218.9193092706698
  0
ARC
  5
1DC4
330
18
100
AcDbEntity
  8
1
  6
Continuous
100
AcDbCircle
 10
90.70872688473505
 20
274.459780641989
 30
0.0
 40
72.5
100
AcDbArc
 50
183.9503199999997
 51
218.9193092706698
  0
LINE
  5
1DC5
330
18
100
AcDbEntity
  8
1
  6
Continuous
100
AcDbLine
 10
41.6309728847349
 20
207.8011236419891
 30
0.0
 11
41.6309728847349
 21
240.801123641989
 31
0.0
  0
LINE
  5
1DC6
330
18
100
AcDbEntity
  8
1
  6
Continuous
100
AcDbLine
 10
43.1309728847351
 20
196.3024325514824
 30
0.0
 11
43.1309728847351
 21
252.2998147324957
 31
0.0
  0
ARC
  5
1DC8
330
18
100
AcDbEntity
  8
1
  6
Continuous
100
AcDbCircle
 10
46.13097288473489
 20
196.3024325514826
 30
0.0
 40
3.0
100
AcDbArc
 50
180.0
 51
259.9063431407739
  0
ARC
  5
1DC9
330
18
100
AcDbEntity
  8
1
  6
Continuous
100
AcDbCircle
 10
42.63097288473487
 20
207.8011236419891
 30
0.0
 40
1.0
100
AcDbArc
 50
180.0
 51
270.0
  0
LINE
  5
1DCA
330
18
100
AcDbEntity
  8
1
  6
Continuous
100
AcDbLine
 10
42.63097288473487
 20
206.8011236419891
 30
0.0
 11
43.13097288473488
 21
206.8011236419891
 31
0.0
  0
LINE
  5
1DCB
330
18
100
AcDbEntity
  8
1
  6
Continuous
100
AcDbLine
 10
36.23094880900623
 20
225.8178356217406
 30
0.0
 11
36.23094880900623
 21
215.882284641989
 31
0.0
  0
ARC
  5
1DCC
330
18
100
AcDbEntity
  8
1
  6
Continuous
100
AcDbCircle
 10
56.70048380900619
 20
224.301123641989
 30
0.0
 40
22.56953
100
AcDbArc
 50
169.0099646494981
 51
201.9513000000013
  0
ARC
  5
1DCD
330
18
100
AcDbEntity
  8
1
  6
Continuous
100
AcDbCircle
 10
22.63097288473488
 20
219.4900670688269
 30
0.0
 40
15.0
100
AcDbArc
 50
0.000000000000007
 51
38.91930927066985
  0
LINE
  5
1DCE
330
18
100
AcDbEntity
  8
1
  6
Continuous
100
AcDbLine
 10
37.63097288473488
 20
210.801123641989
 30
0.0
 11
40.63097288473488
 21
210.801123641989
 31
0.0
  0
LINE
  5
1DCF
330
18
100
AcDbEntity
  8
1
  6
Continuous
100
AcDbLine
 10
41.6309728847349
 20
215.501123591989
 30
0.0
 11
40.83097388473482
 21
215.501123591989
 31
0.0
  0
ARC
  5
1DD0
330
18
100
AcDbEntity
  8
1
  6
Continuous
100
AcDbCircle
 10
40.83097388473482
 20
215.701123691989
 30
0.0
 40
0.2
100
AcDbArc
 50
180.0
 51
270.0
  0
LINE
  5
1DD1
330
18
100
AcDbEntity
  8
1
  6
Continuous
100
AcDbLine
 10
37.63097288473488
 20
210.801123641989
 30
0.0
 11
37.63097288473488
 21
219.4900670688269
 31
0.0
  0
ARC
  5
1DD2
330
18
100
AcDbEntity
  8
1
  6
Continuous
100
AcDbCircle
 10
36.23094880900623
 20
216.051123641989
 30
0.0
 40
0.5
100
AcDbArc
 50
201.9513100000001
 51
274.9999999999997
  0
LINE
  5
1DD3
330
18
100
AcDbEntity
  8
1
  6
Continuous
100
AcDbLine
 10
36.27452780900636
 20
215.553023641989
 30
0.0
 11
37.63094980900643
 21
215.671698641989
 31
0.0
  0
ARC
  5
1DD4
330
18
100
AcDbEntity
  8
1
  6
Continuous
100
AcDbCircle
 10
42.63097288473487
 20
240.801123641989
 30
0.0
 40
1.0
100
AcDbArc
 50
90.0
 51
180.0
  0
LINE
  5
1DD5
330
18
100
AcDbEntity
  8
1
  6
Continuous
100
AcDbLine
 10
41.6309728847349
 20
233.1011235919866
 30
0.0
 11
40.83097388473482
 21
233.1011235919866
 31
0.0
  0
ARC
  5
1DD6
330
18
100
AcDbEntity
  8
1
  6
Continuous
100
AcDbCircle
 10
40.83097388473482
 20
232.901123591989
 30
0.0
 40
0.2
100
AcDbArc
 50
89.99999700000229
 51
180.0
  0
LINE
  5
1DD7
330
18
100
AcDbEntity
  8
1
  6
Continuous
100
AcDbLine
 10
42.63097288473487
 20
241.801123641989
 30
0.0
 11
43.13097288473477
 21
241.801123641989
 31
0.0
  0
ARC
  5
1DD8
330
18
100
AcDbEntity
  8
1
  6
Continuous
100
AcDbCircle
 10
46.13097288473489
 20
252.2998147324957
 30
0.0
 40
3.0
100
AcDbArc
 50
100.093656859226
 51
180.0
  0
ARC
  5
1DD9
330
18
100
AcDbEntity
  8
1
  6
Continuous
100
AcDbCircle
 10
22.38097288473488
 20
269.6050887552194
 30
0.0
 40
1.0
100
AcDbArc
 50
180.0
 51
184.0640399020928
  0
LINE
  5
1DDA
330
18
100
AcDbEntity
  8
4
  6
CENTER
 48
0.2
100
AcDbLine
 10
31.63097288473489
 20
274.601123641989
 30
0.0
 11
31.63097288473489
 21
285.801123641989
 31
0.0
  0
ARC
  5
1DDB
330
18
100
AcDbEntity
  8
1
  6
Continuous
100
AcDbCircle
 10
45.295732884735
 20
280.601123641989
 30
0.0
 40
5.0
100
AcDbArc
 50
201.1001700000001
 51
270.0000199999987
  0
ARC
  5
1DDC
330
18
100
AcDbEntity
  8
1
  6
Continuous
100
AcDbCircle
 10
22.38097288473488
 20
277.8011236419889
 30
0.0
 40
1.0
100
AcDbArc
 50
90.0
 51
180.0
  0
ARC
  5
1DDD
330
18
100
AcDbEntity
  8
1
  6
Continuous
100
AcDbCircle
 10
22.38097288473488
 20
277.8011236419891
 30
0.0
 40
4.0
100
AcDbArc
 50
89.99998200000083
 51
179.9999599999992
  0
ENDSEC
  0
SECTION
  2
OBJECTS
  0
DICTIONARY
  5
C
330
0
100
AcDbDictionary
281
     1
  3
ACAD_CIP_PREVIOUS_PRODUCT_INFO
350
1F75
  3
ACAD_COLOR
350
1F58
  3
ACAD_DETAILVIEWSTYLE
350
1F71
  3
ACAD_GROUP
350
D
  3
ACAD_LAYOUT
350
94
  3
ACAD_MATERIAL
350
1F26
  3
ACAD_MLEADERSTYLE
350
1F6D
  3
ACAD_MLINESTYLE
350
1B
  3
ACAD_PLOTSETTINGS
350
95
  3
ACAD_PLOTSTYLENAME
350
1F24
  3
ACAD_SCALELIST
350
1F5B
  3
ACAD_SECTIONVIEWSTYLE
350
1F6F
  3
ACAD_TABLESTYLE
350
1F59
  3
ACAD_VISUALSTYLE
350
1F3F
  3
ACDB_RECOMPOSE_DATA
350
1F93
  3
AcDbVariableDictionary
350
1F86
  3
CONTENTDICTIONARY
350
3D
  3
DWGPROPS
350
1F94
  0
DICTIONARY
  5
1F76
330
E
100
AcDbDictionary
280
     1
281
     1
  3
ADSK_XREC_LAYER_RECONCILED
360
1F77
  0
DICTIONARY
  5
1F78
330
4E
100
AcDbDictionary
280
     1
281
     1
  3
ADSK_XREC_LAYER_RECONCILED
360
1F79
  0
DICTIONARY
  5
1F7A
330
4F
100
AcDbDictionary
280
     1
281
     1
  3
ADSK_XREC_LAYER_RECONCILED
360
1F7B
  0
DICTIONARY
  5
1F7C
330
50
100
AcDbDictionary
280
     1
281
     1
  3
ADSK_XREC_LAYER_RECONCILED
360
1F7D
  0
DICTIONARY
  5
1F7E
330
51
100
AcDbDictionary
280
     1
281
     1
  3
ADSK_XREC_LAYER_RECONCILED
360
1F7F
  0
DICTIONARY
  5
1F80
330
52
100
AcDbDictionary
280
     1
281
     1
  3
ADSK_XREC_LAYER_RECONCILED
360
1F81
  0
DICTIONARY
  5
1F82
330
53
100
AcDbDictionary
280
     1
281
     1
  3
ADSK_XREC_LAYER_RECONCILED
360
1F83
  0
DICTIONARY
  5
1F84
330
54
100
AcDbDictionary
280
     1
281
     1
  3
ADSK_XREC_LAYER_RECONCILED
360
1F85
  0
DICTIONARY
  5
1F1F
330
18
100
AcDbDictionary
281
     1
  3
ACAD_LAYOUTSELFREF
350
1F20
  0
DICTIONARY
  5
1F1D
330
15
100
AcDbDictionary
281
     1
  3
ACAD_LAYOUTSELFREF
350
1F1E
  0
XRECORD
  5
1F75
102
{ACAD_REACTORS
330
C
102
}
330
C
100
AcDbXrecord
280
     1
300
ACDLT
300
2014
300
ACDLT_F_S
  0
DICTIONARY
  5
1F58
102
{ACAD_REACTORS
330
C
102
}
330
C
100
AcDbDictionary
281
     1
  0
DICTIONARY
  5
1F71
102
{ACAD_REACTORS
330
C
102
}
330
C
100
AcDbDictionary
281
     1
  3
Imperial24
350
1F72
  0
DICTIONARY
  5
D
102
{ACAD_REACTORS
330
C
102
}
330
C
100
AcDbDictionary
281
     1
  0
DICTIONARY
  5
94
102
{ACAD_REACTORS
330
C
102
}
330
C
100
AcDbDictionary
281
     1
  3
Model
350
1F73
  3
レイアウト1
350
1F74
  0
DICTIONARY
  5
1F26
102
{ACAD_REACTORS
330
C
102
}
330
C
100
AcDbDictionary
281
     1
  3
ByBlock
350
1F2F
  3
ByLayer
350
1F27
  3
Global
350
1F37
  0
DICTIONARY
  5
1F6D
102
{ACAD_REACTORS
330
C
102
}
330
C
100
AcDbDictionary
281
     1
  3
Standard
350
1F6E
  0
DICTIONARY
  5
1B
102
{ACAD_REACTORS
330
C
102
}
330
C
100
AcDbDictionary
281
     1
  3
STANDARD
350
1C
  0
DICTIONARY
  5
95
102
{ACAD_REACTORS
330
C
102
}
330
C
100
AcDbDictionary
281
     1
  0
ACDBDICTIONARYWDFLT
  5
1F24
102
{ACAD_REACTORS
330
C
102
}
330
C
100
AcDbDictionary
281
     1
  3
Normal
350
1F25
100
AcDbDictionaryWithDefault
340
1F25
  0
DICTIONARY
  5
1F5B
102
{ACAD_REACTORS
330
C
102
}
330
C
100
AcDbDictionary
281
     1
  3
A0
350
1F5C
  3
A1
350
1F5D
  3
A2
350
1F5E
  3
A3
350
1F5F
  3
A4
350
1F60
  3
A5
350
1F61
  3
A6
350
1F62
  3
A7
350
1F63
  3
A8
350
1F64
  3
A9
350
1F65
  3
B0
350
1F66
  3
B1
350
1F67
  3
B2
350
1F68
  3
B3
350
1F69
  3
B4
350
1F6A
  3
B5
350
1F6B
  3
B6
350
1F6C
  0
DICTIONARY
  5
1F6F
102
{ACAD_REACTORS
330
C
102
}
330
C
100
AcDbDictionary
281
     1
  3
Imperial24
350
1F70
  0
DICTIONARY
  5
1F59
102
{ACAD_REACTORS
330
C
102
}
330
C
100
AcDbDictionary
281
     1
  3
Standard
350
1F5A
  0
DICTIONARY
  5
1F3F
102
{ACAD_REACTORS
330
C
102
}
330
C
100
AcDbDictionary
281
     1
  3
2dWireframe
350
1F45
  3
Basic
350
1F44
  3
Brighten
350
1F4B
  3
ColorChange
350
1F4F
  3
Conceptual
350
1F48
  3
Dim
350
1F4A
  3
EdgeColorOff
350
1F57
  3
Facepattern
350
1F4E
  3
Flat
350
1F40
  3
FlatWithEdges
350
1F41
  3
Gouraud
350
1F42
  3
GouraudWithEdges
350
1F43
  3
Hidden
350
1F47
  3
JitterOff
350
1F55
  3
Linepattern
350
1F4D
  3
OverhangOff
350
1F56
  3
Realistic
350
1F49
  3
Shaded
350
1F54
  3
Shaded with edges
350
1F53
  3
Shades of Gray
350
1F50
  3
Sketchy
350
1F51
  3
Thicken
350
1F4C
  3
Wireframe
350
1F46
  3
X-Ray
350
1F52
  0
XRECORD
  5
1F93
102
{ACAD_REACTORS
330
C
102
}
330
C
100
AcDbXrecord
280
     1
 90
        1
330
1F5A
  0
DICTIONARY
  5
1F86
102
{ACAD_REACTORS
330
C
102
}
330
C
100
AcDbDictionary
281
     1
  3
CANNOSCALE
350
1F8B
  3
CMLEADERSTYLE
350
1F88
  3
CTABLESTYLE
350
1F87
  3
CVIEWDETAILSTYLE
350
1F89
  3
CVIEWSECTIONSTYLE
350
1F8A
  3
DIMASSOC
350
1F8E
  3
INDEXCTL
350
1F8D
  3
SORTENTS
350
1F8C
  3
XCLIPFRAME
350
1F8F
  0
DICTIONARY
  5
3D
102
{ACAD_REACTORS
330
C
102
}
330
C
100
AcDbDictionary
281
     1
  0
XRECORD
  5
1F94
102
{ACAD_REACTORS
330
C
102
}
330
C
100
AcDbXrecord
280
     1
  1
DWGPROPS COOKIE
  2

  3

  4

  6

  7

  8
Yoshitsune
  9

300
=
301
=
302
=
303
=
304
=
305
=
306
=
307
=
308
=
309
=
 40
0.0744607291666667
 41
2454154.550453368
 42
2457192.690805104
  1

 90
        0
  0
XRECORD
  5
1F77
102
{ACAD_REACTORS
330
1F76
102
}
330
1F76
100
AcDbXrecord
280
     1
290
     1
  0
XRECORD
  5
1F79
102
{ACAD_REACTORS
330
1F78
102
}
330
1F78
100
AcDbXrecord
280
     1
290
     1
  0
XRECORD
  5
1F7B
102
{ACAD_REACTORS
330
1F7A
102
}
330
1F7A
100
AcDbXrecord
280
     1
290
     1
  0
XRECORD
  5
1F7D
102
{ACAD_REACTORS
330
1F7C
102
}
330
1F7C
100
AcDbXrecord
280
     1
290
     1
  0
XRECORD
  5
1F7F
102
{ACAD_REACTORS
330
1F7E
102
}
330
1F7E
100
AcDbXrecord
280
     1
290
     1
  0
XRECORD
  5
1F81
102
{ACAD_REACTORS
330
1F80
102
}
330
1F80
100
AcDbXrecord
280
     1
290
     1
  0
XRECORD
  5
1F83
102
{ACAD_REACTORS
330
1F82
102
}
330
1F82
100
AcDbXrecord
280
     1
290
     1
  0
XRECORD
  5
1F85
102
{ACAD_REACTORS
330
1F84
102
}
330
1F84
100
AcDbXrecord
280
     1
290
     1
  0
XRECORD
  5
1F20
102
{ACAD_REACTORS
330
1F1F
102
}
330
1F1F
100
AcDbXrecord
280
     1
340
18
  0
XRECORD
  5
1F1E
102
{ACAD_REACTORS
330
1F1D
102
}
330
1F1D
100
AcDbXrecord
280
     1
340
15
  0
ACDBDETAILVIEWSTYLE
  5
1F72
102
{ACAD_XDICTIONARY
360
1FCC
102
}
102
{ACAD_REACTORS
330
1F71
102
}
330
1F71
100
AcDbModelDocViewStyle
 70
     0
  3
Imperial24
290
     0
100
AcDbDetailViewStyle
 70
     0
 71
     0
 90
        3
 71
     1
340
F
 40
0.24
340
0
 40
0.24
300

 40
0.36
280
     3
 71
     2
340
14
 90
       25
 71
     3
340
F
 40
0.24
 90
        1
 40
0.75
 90
        1
300
%<\AcVar ViewType \f "%tc1">% %<\AcVar ViewDetailId>%\PSCALE %<\AcVar ViewScale \f "%sn">%
 71
     4
340
14
 90
       25
340
14
 90
       25
280
     0
  0
LAYOUT
  5
1F73
102
{ACAD_XDICTIONARY
360
1FCE
102
}
102
{ACAD_REACTORS
330
94
102
}
330
94
100
AcDbPlotSettings
  1

  2
Canon LBP9100C
  4

  6

 40
0.0
 41
0.0
 42
0.0
 43
0.0
 44
0.0
 45
0.0
 46
0.0
 47
0.0
 48
0.0
 49
0.0
140
0.0
141
0.0
142
1.0
143
1.0
 70
  1712
 72
     0
 73
     0
 74
     0
  7

 75
     0
147
1.0
148
0.0
149
0.0
100
AcDbLayout
  1
Model
 70
     1
 71
     0
 10
0.0
 20
0.0
 11
12.0
 21
9.0
 12
0.0
 22
0.0
 32
0.0
 14
0.0
 24
0.0
 34
0.0
 15
0.0
 25
0.0
 35
0.0
146
0.0
 13
0.0
 23
0.0
 33
0.0
 16
1.0
 26
0.0
 36
0.0
 17
0.0
 27
1.0
 37
0.0
 76
     0
330
18
331
1F1C
  0
LAYOUT
  5
1F74
102
{ACAD_XDICTIONARY
360
1FD0
102
}
102
{ACAD_REACTORS
330
94
102
}
330
94
100
AcDbPlotSettings
  1

  2
Canon LBP9100C
  4

  6

 40
0.0
 41
0.0
 42
0.0
 43
0.0
 44
0.0
 45
0.0
 46
0.0
 47
0.0
 48
0.0
 49
0.0
140
0.0
141
0.0
142
1.0
143
1.0
 70
   688
 72
     0
 73
     0
 74
     5
  7

 75
    16
147
1.0
148
0.0
149
0.0
100
AcDbLayout
  1
レイアウト1
 70
     1
 71
     1
 10
0.0
 20
0.0
 11
420.0
 21
297.0
 12
0.0
 22
0.0
 32
0.0
 14
1.000000000000000E+20
 24
1.000000000000000E+20
 34
1.000000000000000E+20
 15
-1.000000000000000E+20
 25
-1.000000000000000E+20
 35
-1.000000000000000E+20
146
0.0
 13
0.0
 23
0.0
 33
0.0
 16
1.0
 26
0.0
 36
0.0
 17
0.0
 27
1.0
 37
0.0
 76
     0
330
15
  0
MATERIAL
  5
1F2F
102
{ACAD_XDICTIONARY
360
1F30
102
}
102
{ACAD_REACTORS
330
1F26
102
}
330
1F26
100
AcDbMaterial
  1
ByBlock
 72
     0
 43
0.0208333333333333
 43
0.0
 43
0.0
 43
0.0
 43
0.0
 43
0.0208333333333333
 43
0.0
 43
0.0
 43
0.0
 43
0.0
 43
1.0
 43
0.0
 43
0.0
 43
0.0
 43
0.0
 43
1.0
 77
     0
 47
0.0208333333333333
 47
0.0
 47
0.0
 47
0.0
 47
0.0
 47
0.0208333333333333
 47
0.0
 47
0.0
 47
0.0
 47
0.0
 47
1.0
 47
0.0
 47
0.0
 47
0.0
 47
0.0
 47
1.0
171
     0
 49
0.0208333333333333
 49
0.0
 49
0.0
 49
0.0
 49
0.0
 49
0.0208333333333333
 49
0.0
 49
0.0
 49
0.0
 49
0.0
 49
1.0
 49
0.0
 49
0.0
 49
0.0
 49
0.0
 49
1.0
175
     0
142
0.0208333333333333
142
0.0
142
0.0
142
0.0
142
0.0
142
0.0208333333333333
142
0.0
142
0.0
142
0.0
142
0.0
142
1.0
142
0.0
142
0.0
142
0.0
142
0.0
142
1.0
179
     0
144
0.0208333333333333
144
0.0
144
0.0
144
0.0
144
0.0
144
0.0208333333333333
144
0.0
144
0.0
144
0.0
144
0.0
144
1.0
144
0.0
144
0.0
144
0.0
144
0.0
144
1.0
147
0.0208333333333333
147
0.0
147
0.0
147
0.0
147
0.0
147
0.0208333333333333
147
0.0
147
0.0
147
0.0
147
0.0
147
1.0
147
0.0
147
0.0
147
0.0
147
0.0
147
1.0
  0
MATERIAL
  5
1F27
102
{ACAD_XDICTIONARY
360
1F28
102
}
102
{ACAD_REACTORS
330
1F26
102
}
330
1F26
100
AcDbMaterial
  1
ByLayer
 72
     0
 43
0.0208333333333333
 43
0.0
 43
0.0
 43
0.0
 43
0.0
 43
0.0208333333333333
 43
0.0
 43
0.0
 43
0.0
 43
0.0
 43
1.0
 43
0.0
 43
0.0
 43
0.0
 43
0.0
 43
1.0
 77
     0
 47
0.0208333333333333
 47
0.0
 47
0.0
 47
0.0
 47
0.0
 47
0.0208333333333333
 47
0.0
 47
0.0
 47
0.0
 47
0.0
 47
1.0
 47
0.0
 47
0.0
 47
0.0
 47
0.0
 47
1.0
171
     0
 49
0.0208333333333333
 49
0.0
 49
0.0
 49
0.0
 49
0.0
 49
0.0208333333333333
 49
0.0
 49
0.0
 49
0.0
 49
0.0
 49
1.0
 49
0.0
 49
0.0
 49
0.0
 49
0.0
 49
1.0
175
     0
142
0.0208333333333333
142
0.0
142
0.0
142
0.0
142
0.0
142
0.0208333333333333
142
0.0
142
0.0
142
0.0
142
0.0
142
1.0
142
0.0
142
0.0
142
0.0
142
0.0
142
1.0
179
     0
144
0.0208333333333333
144
0.0
144
0.0
144
0.0
144
0.0
144
0.0208333333333333
144
0.0
144
0.0
144
0.0
144
0.0
144
1.0
144
0.0
144
0.0
144
0.0
144
0.0
144
1.0
147
0.0208333333333333
147
0.0
147
0.0
147
0.0
147
0.0
147
0.0208333333333333
147
0.0
147
0.0
147
0.0
147
0.0
147
1.0
147
0.0
147
0.0
147
0.0
147
0.0
147
1.0
  0
MATERIAL
  5
1F37
102
{ACAD_XDICTIONARY
360
1F38
102
}
102
{ACAD_REACTORS
330
1F26
102
}
330
1F26
100
AcDbMaterial
  1
Global
 72
     0
 43
0.0208333333333333
 43
0.0
 43
0.0
 43
0.0
 43
0.0
 43
0.0208333333333333
 43
0.0
 43
0.0
 43
0.0
 43
0.0
 43
1.0
 43
0.0
 43
0.0
 43
0.0
 43
0.0
 43
1.0
 77
     0
 47
0.0208333333333333
 47
0.0
 47
0.0
 47
0.0
 47
0.0
 47
0.0208333333333333
 47
0.0
 47
0.0
 47
0.0
 47
0.0
 47
1.0
 47
0.0
 47
0.0
 47
0.0
 47
0.0
 47
1.0
171
     0
 49
0.0208333333333333
 49
0.0
 49
0.0
 49
0.0
 49
0.0
 49
0.0208333333333333
 49
0.0
 49
0.0
 49
0.0
 49
0.0
 49
1.0
 49
0.0
 49
0.0
 49
0.0
 49
0.0
 49
1.0
175
     0
142
0.0208333333333333
142
0.0
142
0.0
142
0.0
142
0.0
142
0.0208333333333333
142
0.0
142
0.0
142
0.0
142
0.0
142
1.0
142
0.0
142
0.0
142
0.0
142
0.0
142
1.0
179
     0
144
0.0208333333333333
144
0.0
144
0.0
144
0.0
144
0.0
144
0.0208333333333333
144
0.0
144
0.0
144
0.0
144
0.0
144
1.0
144
0.0
144
0.0
144
0.0
144
0.0
144
1.0
147
0.0208333333333333
147
0.0
147
0.0
147
0.0
147
0.0
147
0.0208333333333333
147
0.0
147
0.0
147
0.0
147
0.0
147
1.0
147
0.0
147
0.0
147
0.0
147
0.0
147
1.0
  0
MLEADERSTYLE
  5
1F6E
102
{ACAD_REACTORS
330
1F6D
102
}
330
1F6D
100
AcDbMLeaderStyle
170
     2
171
     1
172
     0
 90
        2
 40
0.0
 41
0.0
173
     1
 91
-1056964608
340
12
 92
       -2
290
     1
 42
0.09
291
     1
 43
0.36
  3
Standard
 44
0.18
300

342
F
174
     1
178
     6
175
     1
176
     0
 93
-1056964608
 45
0.18
292
     0
297
     0
 46
0.18
 94
-1056964608
 47
1.0
 49
1.0
140
1.0
293
     1
141
0.0
294
     1
177
     0
142
1.0
295
     0
296
     0
143
0.125
1001
ACAD_MLEADERVER
1070
     2
  0
MLINESTYLE
  5
1C
102
{ACAD_REACTORS
330
1B
102
}
330
1B
100
AcDbMlineStyle
  2
STANDARD
 70
     0
  3

 62
   256
 51
90.0
 52
90.0
 71
     2
 49
0.5
 62
   256
  6
BYLAYER
 49
-0.5
 62
   256
  6
BYLAYER
  0
ACDBPLACEHOLDER
  5
1F25
102
{ACAD_REACTORS
330
1F24
102
}
330
1F24
  0
SCALE
  5
1F5C
102
{ACAD_REACTORS
330
1F5B
102
}
330
1F5B
100
AcDbScale
 70
     0
300
1:1
140
1.0
141
1.0
290
     1
  0
SCALE
  5
1F5D
102
{ACAD_REACTORS
330
1F5B
102
}
330
1F5B
100
AcDbScale
 70
     0
300
1/128" = 1'-0"
140
0.0078125
141
12.0
290
     0
  0
SCALE
  5
1F5E
102
{ACAD_REACTORS
330
1F5B
102
}
330
1F5B
100
AcDbScale
 70
     0
300
1/64" = 1'-0"
140
0.015625
141
12.0
290
     0
  0
SCALE
  5
1F5F
102
{ACAD_REACTORS
330
1F5B
102
}
330
1F5B
100
AcDbScale
 70
     0
300
1/32" = 1'-0"
140
0.03125
141
12.0
290
     0
  0
SCALE
  5
1F60
102
{ACAD_REACTORS
330
1F5B
102
}
330
1F5B
100
AcDbScale
 70
     0
300
1/16" = 1'-0"
140
0.0625
141
12.0
290
     0
  0
SCALE
  5
1F61
102
{ACAD_REACTORS
330
1F5B
102
}
330
1F5B
100
AcDbScale
 70
     0
300
3/32" = 1'-0"
140
0.09375
141
12.0
290
     0
  0
SCALE
  5
1F62
102
{ACAD_REACTORS
330
1F5B
102
}
330
1F5B
100
AcDbScale
 70
     0
300
1/8" = 1'-0"
140
0.125
141
12.0
290
     0
  0
SCALE
  5
1F63
102
{ACAD_REACTORS
330
1F5B
102
}
330
1F5B
100
AcDbScale
 70
     0
300
3/16" = 1'-0"
140
0.1875
141
12.0
290
     0
  0
SCALE
  5
1F64
102
{ACAD_REACTORS
330
1F5B
102
}
330
1F5B
100
AcDbScale
 70
     0
300
1/4" = 1'-0"
140
0.25
141
12.0
290
     0
  0
SCALE
  5
1F65
102
{ACAD_REACTORS
330
1F5B
102
}
330
1F5B
100
AcDbScale
 70
     0
300
3/8" = 1'-0"
140
0.375
141
12.0
290
     0
  0
SCALE
  5
1F66
102
{ACAD_REACTORS
330
1F5B
102
}
330
1F5B
100
AcDbScale
 70
     0
300
1/2" = 1'-0"
140
0.5
141
12.0
290
     0
  0
SCALE
  5
1F67
102
{ACAD_REACTORS
330
1F5B
102
}
330
1F5B
100
AcDbScale
 70
     0
300
3/4" = 1'-0"
140
0.75
141
12.0
290
     0
  0
SCALE
  5
1F68
102
{ACAD_REACTORS
330
1F5B
102
}
330
1F5B
100
AcDbScale
 70
     0
300
1" = 1'-0"
140
1.0
141
12.0
290
     0
  0
SCALE
  5
1F69
102
{ACAD_REACTORS
330
1F5B
102
}
330
1F5B
100
AcDbScale
 70
     0
300
1-1/2" = 1'-0"
140
1.5
141
12.0
290
     0
  0
SCALE
  5
1F6A
102
{ACAD_REACTORS
330
1F5B
102
}
330
1F5B
100
AcDbScale
 70
     0
300
3" = 1'-0"
140
3.0
141
12.0
290
     0
  0
SCALE
  5
1F6B
102
{ACAD_REACTORS
330
1F5B
102
}
330
1F5B
100
AcDbScale
 70
     0
300
6" = 1'-0"
140
6.0
141
12.0
290
     0
  0
SCALE
  5
1F6C
102
{ACAD_REACTORS
330
1F5B
102
}
330
1F5B
100
AcDbScale
 70
     0
300
1'-0" = 1'-0"
140
12.0
141
12.0
290
     0
  0
ACDBSECTIONVIEWSTYLE
  5
1F70
102
{ACAD_XDICTIONARY
360
1FCA
102
}
102
{ACAD_REACTORS
330
1F6F
102
}
330
1F6F
100
AcDbModelDocViewStyle
 70
     0
  3
Imperial24
290
     0
100
AcDbSectionViewStyle
 70
     0
 71
     0
 90
       78
 71
     1
340
F
 40
0.24
340
0
340
0
 40
0.24
300
I, O, Q, S, X, Z
 40
0.48
 90
        3
 40
0.18
 90
        1
 71
     2
340
14
 90
       25
340
14
 90
       50
 40
0.24
 40
0.0
 40
0.24
 71
     3
340
F
 40
0.24
 90
        1
 40
0.75
 90
        1
300
%<\AcVar ViewType \f "%tc1">% %<\AcVar ViewSectionStartId>%-%<\AcVar ViewSectionEndId>%\PSCALE %<\AcVar ViewScale \f "%sn">%
 71
     4
300
ANSI31
 40
1.0
 90
        0
290
     0
290
     0
 90
        6
 40
0.0
 40
1.570796326794896
 40
0.2617993877991494
 40
1.308996938995747
 40
-0.2617993877991494
 40
1.832595714594046
  0
TABLESTYLE
  5
1F5A
102
{ACAD_XDICTIONARY
360
1F91
102
}
102
{ACAD_REACTORS
330
1F59
102
}
330
1F59
100
AcDbTableStyle
  3
Standard
 70
     0
 71
     0
 40
0.06
 41
0.06
280
     0
281
     0
  7
STANDARD
140
0.18
170
     2
 62
     0
 63
     7
283
     0
274
    -2
284
     1
 64
     0
275
    -2
285
     1
 65
     0
276
    -2
286
     1
 66
     0
277
    -2
287
     1
 67
     0
278
    -2
288
     1
 68
     0
279
    -2
289
     1
 69
     0
  7
STANDARD
140
0.25
170
     5
 62
     0
 63
     7
283
     0
274
    -2
284
     1
 64
     0
275
    -2
285
     1
 65
     0
276
    -2
286
     1
 66
     0
277
    -2
287
     1
 67
     0
278
    -2
288
     1
 68
     0
279
    -2
289
     1
 69
     0
  7
STANDARD
140
0.18
170
     5
 62
     0
 63
     7
283
     0
274
    -2
284
     1
 64
     0
275
    -2
285
     1
 65
     0
276
    -2
286
     1
 66
     0
277
    -2
287
     1
 67
     0
278
    -2
288
     1
 68
     0
279
    -2
289
     1
 69
     0
  0
VISUALSTYLE
  5
1F45
102
{ACAD_XDICTIONARY
360
1FA2
102
}
102
{ACAD_REACTORS
330
1F3F
102
}
330
1F3F
100
AcDbVisualStyle
  2
2dWireframe
 70
     4
 71
     0
 72
     2
 73
     0
 90
        0
 40
-0.6
 41
-30.0
 62
     5
 63
     7
 74
     1
 91
        4
 64
     7
 65
   257
 75
     1
175
     1
 42
1.0
 92
        0
 66
   257
 43
1.0
 76
     1
 77
     6
 78
     2
 67
     7
 79
     5
170
     0
171
     0
290
     0
174
     0
 93
        1
 44
0.0
173
     0
291
     0
 45
0.0
1001
ACAD
1000
AcDbSavedByObjectVersion
1070
     0
  0
VISUALSTYLE
  5
1F44
102
{ACAD_XDICTIONARY
360
1FA0
102
}
102
{ACAD_REACTORS
330
1F3F
102
}
330
1F3F
100
AcDbVisualStyle
  2
Basic
 70
     7
 71
     1
 72
     0
 73
     1
 90
        0
 40
-0.6
 41
-30.0
 62
     5
 63
     7
 74
     0
 91
        4
 64
     7
 65
   257
 75
     1
175
     1
 42
1.0
 92
        8
 66
     7
 43
1.0
 76
     1
 77
     6
 78
     2
 67
     7
 79
     5
170
     0
171
     0
290
     0
174
     0
 93
        1
 44
0.0
173
     0
291
     1
 45
0.0
1001
ACAD
1000
AcDbSavedByObjectVersion
1070
     0
  0
VISUALSTYLE
  5
1F4B
102
{ACAD_XDICTIONARY
360
1FAE
102
}
102
{ACAD_REACTORS
330
1F3F
102
}
330
1F3F
100
AcDbVisualStyle
  2
Brighten
 70
    12
 71
     2
 72
     2
 73
     0
 90
        0
 40
-0.6
 41
-30.0
 62
     5
 63
     7
 74
     1
 91
        4
 64
     7
 65
   257
 75
     1
175
     1
 42
1.0
 92
        8
 66
     7
 43
1.0
 76
     1
 77
     6
 78
     2
 67
     7
 79
     5
170
     0
171
     0
290
     0
174
     0
 93
        1
 44
50.0
173
     0
291
     1
 45
0.0
1001
ACAD
1000
AcDbSavedByObjectVersion
1070
     0
  0
VISUALSTYLE
  5
1F4F
102
{ACAD_XDICTIONARY
360
1FB6
102
}
102
{ACAD_REACTORS
330
1F3F
102
}
330
1F3F
100
AcDbVisualStyle
  2
ColorChange
 70
    16
 71
     2
 72
     2
 73
     3
 90
        0
 40
-0.6
 41
-30.0
 62
     5
 63
     8
 74
     1
 91
        4
 64
     7
 65
   257
 75
     1
175
     1
 42
1.0
 92
        8
 66
     8
 43
1.0
 76
     1
 77
     6
 78
     2
 67
     7
 79
     5
170
     0
171
     0
290
     0
174
     0
 93
        1
 44
0.0
173
     0
291
     1
 45
0.0
1001
ACAD
1000
AcDbSavedByObjectVersion
1070
     0
  0
VISUALSTYLE
  5
1F48
102
{ACAD_XDICTIONARY
360
1FA8
102
}
102
{ACAD_REACTORS
330
1F3F
102
}
330
1F3F
100
AcDbVisualStyle
  2
Conceptual
 70
     9
 71
     3
 72
     2
 73
     0
 90
        0
 40
-0.6
 41
-30.0
 62
     5
 63
     7
 74
     2
 91
        2
 64
     7
 65
   257
 75
     1
175
     1
 42
179.0
 92
        8
 66
     7
 43
1.0
 76
     1
 77
     6
 78
     2
 67
     7
 79
     3
170
     0
171
     0
290
     0
174
     0
 93
        1
 44
0.0
173
     0
291
     0
 45
0.0
1001
ACAD
1000
AcDbSavedByObjectVersion
1070
     0
  0
VISUALSTYLE
  5
1F4A
102
{ACAD_XDICTIONARY
360
1FAC
102
}
102
{ACAD_REACTORS
330
1F3F
102
}
330
1F3F
100
AcDbVisualStyle
  2
Dim
 70
    11
 71
     2
 72
     2
 73
     0
 90
        0
 40
-0.6
 41
-30.0
 62
     5
 63
     7
 74
     1
 91
        4
 64
     7
 65
   257
 75
     1
175
     1
 42
1.0
 92
        8
 66
     7
 43
1.0
 76
     1
 77
     6
 78
     2
 67
     7
 79
     5
170
     0
171
     0
290
     0
174
     0
 93
        1
 44
-50.0
173
     0
291
     1
 45
0.0
1001
ACAD
1000
AcDbSavedByObjectVersion
1070
     0
  0
VISUALSTYLE
  5
1F57
102
{ACAD_XDICTIONARY
360
1FC6
102
}
102
{ACAD_REACTORS
330
1F3F
102
}
330
1F3F
100
AcDbVisualStyle
  2
EdgeColorOff
 70
    22
 71
     2
 72
     2
 73
     0
 90
        0
 40
-0.6
 41
-30.0
 62
     5
 63
     7
 74
     1
 91
        4
 64
     7
 65
   257
 75
     1
175
     1
 42
1.0
 92
        8
 66
     7
 43
1.0
 76
     1
 77
     6
 78
     2
 67
     7
 79
     5
170
     0
171
     0
290
     0
174
     0
 93
        1
 44
0.0
173
     0
291
     1
 45
0.0
1001
ACAD
1000
AcDbSavedByObjectVersion
1070
     0
  0
VISUALSTYLE
  5
1F4E
102
{ACAD_XDICTIONARY
360
1FB4
102
}
102
{ACAD_REACTORS
330
1F3F
102
}
330
1F3F
100
AcDbVisualStyle
  2
Facepattern
 70
    15
 71
     2
 72
     2
 73
     0
 90
        0
 40
-0.6
 41
-30.0
 62
     5
 63
     7
 74
     1
 91
        4
 64
     7
 65
   257
 75
     1
175
     1
 42
1.0
 92
        8
 66
     7
 43
1.0
 76
     1
 77
     6
 78
     2
 67
     7
 79
     5
170
     0
171
     0
290
     0
174
     0
 93
        1
 44
0.0
173
     0
291
     1
 45
0.0
1001
ACAD
1000
AcDbSavedByObjectVersion
1070
     0
  0
VISUALSTYLE
  5
1F40
102
{ACAD_XDICTIONARY
360
1F98
102
}
102
{ACAD_REACTORS
330
1F3F
102
}
330
1F3F
100
AcDbVisualStyle
  2
Flat
 70
     0
 71
     2
 72
     1
 73
     1
 90
        2
 40
-0.6
 41
30.0
 62
     5
 63
     7
 74
     0
 91
        0
 64
     7
 65
   257
 75
     1
175
     1
 42
1.0
 92
        8
 66
     7
 43
1.0
 76
     1
 77
     6
 78
     2
 67
     7
 79
     5
170
     0
171
     0
290
     0
174
     0
 93
       13
 44
0.0
173
     0
291
     1
 45
0.0
1001
ACAD
1000
AcDbSavedByObjectVersion
1070
     0
  0
VISUALSTYLE
  5
1F41
102
{ACAD_XDICTIONARY
360
1F9A
102
}
102
{ACAD_REACTORS
330
1F3F
102
}
330
1F3F
100
AcDbVisualStyle
  2
FlatWithEdges
 70
     1
 71
     2
 72
     1
 73
     1
 90
        2
 40
-0.6
 41
30.0
 62
     5
 63
     7
 74
     1
 91
        0
 64
     7
 65
   257
 75
     1
175
     1
 42
1.0
 92
        0
 66
   257
 43
1.0
 76
     1
 77
     6
 78
     2
 67
     7
 79
     5
170
     0
171
     0
290
     0
174
     0
 93
       13
 44
0.0
173
     0
291
     1
 45
0.0
1001
ACAD
1000
AcDbSavedByObjectVersion
1070
     0
  0
VISUALSTYLE
  5
1F42
102
{ACAD_XDICTIONARY
360
1F9C
102
}
102
{ACAD_REACTORS
330
1F3F
102
}
330
1F3F
100
AcDbVisualStyle
  2
Gouraud
 70
     2
 71
     2
 72
     2
 73
     1
 90
        2
 40
-0.6
 41
30.0
 62
     5
 63
     7
 74
     0
 91
        0
 64
     7
 65
   257
 75
     1
175
     1
 42
1.0
 92
        0
 66
     7
 43
1.0
 76
     1
 77
     6
 78
     2
 67
     7
 79
     5
170
     0
171
     0
290
     0
174
     0
 93
       13
 44
0.0
173
     0
291
     1
 45
0.0
1001
ACAD
1000
AcDbSavedByObjectVersion
1070
     0
  0
VISUALSTYLE
  5
1F43
102
{ACAD_XDICTIONARY
360
1F9E
102
}
102
{ACAD_REACTORS
330
1F3F
102
}
330
1F3F
100
AcDbVisualStyle
  2
GouraudWithEdges
 70
     3
 71
     2
 72
     2
 73
     1
 90
        2
 40
-0.6
 41
30.0
 62
     5
 63
     7
 74
     1
 91
        0
 64
     7
 65
   257
 75
     1
175
     1
 42
1.0
 92
        0
 66
   257
 43
1.0
 76
     1
 77
     6
 78
     2
 67
     7
 79
     5
170
     0
171
     0
290
     0
174
     0
 93
       13
 44
0.0
173
     0
291
     1
 45
0.0
1001
ACAD
1000
AcDbSavedByObjectVersion
1070
     0
  0
VISUALSTYLE
  5
1F47
102
{ACAD_XDICTIONARY
360
1FA6
102
}
102
{ACAD_REACTORS
330
1F3F
102
}
330
1F3F
100
AcDbVisualStyle
  2
Hidden
 70
     6
 71
     1
 72
     2
 73
     2
 90
        0
 40
-0.6
 41
-30.0
 62
     5
 63
     7
 74
     2
 91
        2
 64
     7
 65
   257
 75
     2
175
     1
 42
40.0
 92
        0
 66
   257
 43
1.0
 76
     1
 77
     6
 78
     2
 67
     7
 79
     3
170
     0
171
     0
290
     0
174
     0
 93
        1
 44
0.0
173
     0
291
     0
 45
0.0
1001
ACAD
1000
AcDbSavedByObjectVersion
1070
     0
  0
VISUALSTYLE
  5
1F55
102
{ACAD_XDICTIONARY
360
1FC2
102
}
102
{ACAD_REACTORS
330
1F3F
102
}
330
1F3F
100
AcDbVisualStyle
  2
JitterOff
 70
    20
 71
     2
 72
     2
 73
     0
 90
        0
 40
-0.6
 41
-30.0
 62
     5
 63
     7
 74
     1
 91
        4
 64
     7
 65
   257
 75
     1
175
     1
 42
1.0
 92
       10
 66
     7
 43
1.0
 76
     1
 77
     6
 78
     2
 67
     7
 79
     5
170
     0
171
     0
290
     0
174
     0
 93
        1
 44
0.0
173
     0
291
     1
 45
0.0
1001
ACAD
1000
AcDbSavedByObjectVersion
1070
     0
  0
VISUALSTYLE
  5
1F4D
102
{ACAD_XDICTIONARY
360
1FB2
102
}
102
{ACAD_REACTORS
330
1F3F
102
}
330
1F3F
100
AcDbVisualStyle
  2
Linepattern
 70
    14
 71
     2
 72
     2
 73
     0
 90
        0
 40
-0.6
 41
-30.0
 62
     5
 63
     7
 74
     1
 91
        4
 64
     7
 65
   257
 75
     7
175
     7
 42
1.0
 92
        8
 66
     7
 43
1.0
 76
     1
 77
     6
 78
     2
 67
     7
 79
     5
170
     0
171
     0
290
     0
174
     0
 93
        1
 44
0.0
173
     0
291
     1
 45
0.0
1001
ACAD
1000
AcDbSavedByObjectVersion
1070
     0
  0
VISUALSTYLE
  5
1F56
102
{ACAD_XDICTIONARY
360
1FC4
102
}
102
{ACAD_REACTORS
330
1F3F
102
}
330
1F3F
100
AcDbVisualStyle
  2
OverhangOff
 70
    21
 71
     2
 72
     2
 73
     0
 90
        0
 40
-0.6
 41
-30.0
 62
     5
 63
     7
 74
     1
 91
        4
 64
     7
 65
   257
 75
     1
175
     1
 42
1.0
 92
        9
 66
     7
 43
1.0
 76
     1
 77
     6
 78
     2
 67
     7
 79
     5
170
     0
171
     0
290
     0
174
     0
 93
        1
 44
0.0
173
     0
291
     1
 45
0.0
1001
ACAD
1000
AcDbSavedByObjectVersion
1070
     0
  0
VISUALSTYLE
  5
1F49
102
{ACAD_XDICTIONARY
360
1FAA
102
}
102
{ACAD_REACTORS
330
1F3F
102
}
330
1F3F
100
AcDbVisualStyle
  2
Realistic
 70
     8
 71
     2
 72
     3
 73
     0
 90
        2
 40
-0.6
 41
30.0
 62
     5
 63
     7
 74
     0
 91
        0
 64
     7
 65
   257
 75
     1
175
     1
 42
1.0
 92
        8
 66
   257
 43
1.0
 76
     1
 77
     6
 78
     2
 67
     7
 79
     3
170
     0
171
     0
290
     0
174
     0
 93
       13
 44
0.0
173
     0
291
     0
 45
0.0
1001
ACAD
1000
AcDbSavedByObjectVersion
1070
     0
  0
VISUALSTYLE
  5
1F54
102
{ACAD_XDICTIONARY
360
1FC0
102
}
102
{ACAD_REACTORS
330
1F3F
102
}
330
1F3F
100
AcDbVisualStyle
  2
Shaded
 70
    27
 71
     2
 72
     2
 73
     1
 90
        2
 40
-0.6
 41
30.0
 62
     5
 63
     7
 74
     0
 91
        4
 64
     7
 65
   257
 75
     1
175
     1
 42
1.0
 92
        8
 66
   257
 43
1.0
 76
     1
 77
     6
 78
     2
 67
     8
 79
     3
170
     0
171
     0
290
     0
174
     0
 93
        5
 44
0.0
173
     0
291
     0
 45
0.0
1001
ACAD
1000
AcDbSavedByObjectVersion
1070
     0
  0
VISUALSTYLE
  5
1F53
102
{ACAD_XDICTIONARY
360
1FBE
102
}
102
{ACAD_REACTORS
330
1F3F
102
}
330
1F3F
100
AcDbVisualStyle
  2
Shaded with edges
 70
    26
 71
     2
 72
     2
 73
     1
 90
        2
 40
-0.6
 41
30.0
 62
     5
 63
     7
 74
     1
 91
       10
 64
     7
 65
   257
 75
     2
175
     1
 42
1.0
 92
        8
 66
   257
 43
1.0
 76
     1
 77
     6
 78
     2
 67
     7
 79
     3
170
     0
171
     0
290
     0
174
     0
 93
        5
 44
0.0
173
     0
291
     0
 45
0.0
1001
ACAD
1000
AcDbSavedByObjectVersion
1070
     0
  0
VISUALSTYLE
  5
1F50
102
{ACAD_XDICTIONARY
360
1FB8
102
}
102
{ACAD_REACTORS
330
1F3F
102
}
330
1F3F
100
AcDbVisualStyle
  2
Shades of Gray
 70
    23
 71
     2
 72
     2
 73
     3
 90
        0
 40
-0.6
 41
-30.0
 62
     5
 63
     7
 74
     2
 91
        2
 64
     7
 65
     7
 75
     1
175
     1
 42
40.0
 92
        8
 66
     7
 43
1.0
 76
     1
 77
     6
 78
     2
 67
     7
 79
     3
170
     0
171
     0
290
     0
174
     0
 93
        1
 44
0.0
173
     0
291
     0
 45
0.0
1001
ACAD
1000
AcDbSavedByObjectVersion
1070
     0
  0
VISUALSTYLE
  5
1F51
102
{ACAD_XDICTIONARY
360
1FBA
102
}
102
{ACAD_REACTORS
330
1F3F
102
}
330
1F3F
100
AcDbVisualStyle
  2
Sketchy
 70
    24
 71
     1
 72
     2
 73
     2
 90
        0
 40
-0.6
 41
-30.0
 62
     5
 63
     7
 74
     2
 91
        2
 64
     7
 65
     7
 75
     1
175
     1
 42
40.0
 92
       11
 66
     7
 43
1.0
 76
     1
 77
     6
 78
     2
 67
     7
 79
     6
170
     0
171
     0
290
     0
174
     0
 93
        1
 44
0.0
173
     0
291
     0
 45
0.0
1001
ACAD
1000
AcDbSavedByObjectVersion
1070
     0
  0
VISUALSTYLE
  5
1F4C
102
{ACAD_XDICTIONARY
360
1FB0
102
}
102
{ACAD_REACTORS
330
1F3F
102
}
330
1F3F
100
AcDbVisualStyle
  2
Thicken
 70
    13
 71
     2
 72
     2
 73
     0
 90
        0
 40
-0.6
 41
-30.0
 62
     5
 63
     7
 74
     1
 91
        4
 64
     7
 65
   257
 75
     1
175
     1
 42
1.0
 92
       12
 66
     7
 43
1.0
 76
     1
 77
     6
 78
     2
 67
     7
 79
     5
170
     0
171
     0
290
     0
174
     0
 93
        1
 44
0.0
173
     0
291
     1
 45
0.0
1001
ACAD
1000
AcDbSavedByObjectVersion
1070
     0
  0
VISUALSTYLE
  5
1F46
102
{ACAD_XDICTIONARY
360
1FA4
102
}
102
{ACAD_REACTORS
330
1F3F
102
}
330
1F3F
100
AcDbVisualStyle
  2
Wireframe
 70
     5
 71
     0
 72
     2
 73
     0
 90
        0
 40
-0.6
 41
-30.0
 62
     5
 63
     7
 74
     1
 91
        4
 64
     7
 65
   257
 75
     1
175
     1
 42
1.0
 92
        0
 66
   257
 43
1.0
 76
     1
 77
     6
 78
     2
 67
     7
 79
     3
170
     0
171
     0
290
     0
174
     0
 93
        1
 44
0.0
173
     0
291
     0
 45
0.0
1001
ACAD
1000
AcDbSavedByObjectVersion
1070
     0
  0
VISUALSTYLE
  5
1F52
102
{ACAD_XDICTIONARY
360
1FBC
102
}
102
{ACAD_REACTORS
330
1F3F
102
}
330
1F3F
100
AcDbVisualStyle
  2
X-Ray
 70
    25
 71
     2
 72
     2
 73
     1
 90
        1
 40
0.5
 41
-30.0
 62
     5
 63
     7
 74
     1
 91
        0
 64
     7
 65
   257
 75
     1
175
     1
 42
1.0
 92
        8
 66
     7
 43
1.0
 76
     1
 77
     6
 78
     2
 67
     7
 79
     3
170
     0
171
     0
290
     0
174
     0
 93
       13
 44
0.0
173
     0
291
     0
 45
0.0
1001
ACAD
1000
AcDbSavedByObjectVersion
1070
     0
  0
DICTIONARYVAR
  5
1F8B
102
{ACAD_REACTORS
330
1F86
102
}
330
1F86
100
DictionaryVariables
280
     0
  1
1:1
  0
DICTIONARYVAR
  5
1F88
102
{ACAD_REACTORS
330
1F86
102
}
330
1F86
100
DictionaryVariables
280
     0
  1
STANDARD
  0
DICTIONARYVAR
  5
1F87
102
{ACAD_REACTORS
330
1F86
102
}
330
1F86
100
DictionaryVariables
280
     0
  1
STANDARD
  0
DICTIONARYVAR
  5
1F89
102
{ACAD_REACTORS
330
1F86
102
}
330
1F86
100
DictionaryVariables
280
     0
  1
Imperial24
  0
DICTIONARYVAR
  5
1F8A
102
{ACAD_REACTORS
330
1F86
102
}
330
1F86
100
DictionaryVariables
280
     0
  1
Imperial24
  0
DICTIONARYVAR
  5
1F8E
102
{ACAD_REACTORS
330
1F86
102
}
330
1F86
100
DictionaryVariables
280
     0
  1
1
  0
DICTIONARYVAR
  5
1F8D
102
{ACAD_REACTORS
330
1F86
102
}
330
1F86
100
DictionaryVariables
280
     0
  1
0
  0
DICTIONARYVAR
  5
1F8C
102
{ACAD_REACTORS
330
1F86
102
}
330
1F86
100
DictionaryVariables
280
     0
  1
127
  0
DICTIONARYVAR
  5
1F8F
102
{ACAD_REACTORS
330
1F86
102
}
330
1F86
100
DictionaryVariables
280
     0
  1
2
  0
DICTIONARY
  5
1FCC
330
1F72
100
AcDbDictionary
280
     1
281
     1
  3
ACAD_XREC_ROUNDTRIP
360
1FCD
  0
DICTIONARY
  5
1FCE
330
1F73
100
AcDbDictionary
280
     1
281
     1
  3
ACAD_XREC_ROUNDTRIP
360
1FCF
  0
DICTIONARY
  5
1FD0
330
1F74
100
AcDbDictionary
280
     1
281
     1
  3
ACAD_XREC_ROUNDTRIP
360
1FD1
  0
DICTIONARY
  5
1F30
330
1F2F
100
AcDbDictionary
280
     1
281
     1
  3
ACAD_XREC_ROUNDTRIP
360
1F96
  3
BUMPTILE
360
1F32
  3
DIFFUSETILE
360
1F31
  3
OPACITYTILE
360
1F35
  3
REFLECTIONTILE
360
1F34
  3
REFRACTIONTILE
360
1F36
  3
SPECULARTILE
360
1F33
  0
DICTIONARY
  5
1F28
330
1F27
100
AcDbDictionary
280
     1
281
     1
  3
ACAD_XREC_ROUNDTRIP
360
1F95
  3
BUMPTILE
360
1F2A
  3
DIFFUSETILE
360
1F29
  3
OPACITYTILE
360
1F2D
  3
REFLECTIONTILE
360
1F2C
  3
REFRACTIONTILE
360
1F2E
  3
SPECULARTILE
360
1F2B
  0
DICTIONARY
  5
1F38
330
1F37
100
AcDbDictionary
280
     1
281
     1
  3
ACAD_XREC_ROUNDTRIP
360
1F97
  3
BUMPTILE
360
1F3A
  3
DIFFUSETILE
360
1F39
  3
OPACITYTILE
360
1F3D
  3
REFLECTIONTILE
360
1F3C
  3
REFRACTIONTILE
360
1F3E
  3
SPECULARTILE
360
1F3B
  0
DICTIONARY
  5
1FCA
330
1F70
100
AcDbDictionary
280
     1
281
     1
  3
ACAD_XREC_ROUNDTRIP
360
1FCB
  0
DICTIONARY
  5
1F91
330
1F5A
100
AcDbDictionary
280
     1
281
     1
  3
ACAD_ROUNDTRIP_2008_TABLESTYLE_CELLSTYLEMAP
360
1F92
  3
ACAD_XREC_ROUNDTRIP
360
1FC8
  0
DICTIONARY
  5
1FA2
330
1F45
100
AcDbDictionary
280
     1
281
     1
  3
ACAD_XREC_ROUNDTRIP
360
1FA3
  0
DICTIONARY
  5
1FA0
330
1F44
100
AcDbDictionary
280
     1
281
     1
  3
ACAD_XREC_ROUNDTRIP
360
1FA1
  0
DICTIONARY
  5
1FAE
330
1F4B
100
AcDbDictionary
280
     1
281
     1
  3
ACAD_XREC_ROUNDTRIP
360
1FAF
  0
DICTIONARY
  5
1FB6
330
1F4F
100
AcDbDictionary
280
     1
281
     1
  3
ACAD_XREC_ROUNDTRIP
360
1FB7
  0
DICTIONARY
  5
1FA8
330
1F48
100
AcDbDictionary
280
     1
281
     1
  3
ACAD_XREC_ROUNDTRIP
360
1FA9
  0
DICTIONARY
  5
1FAC
330
1F4A
100
AcDbDictionary
280
     1
281
     1
  3
ACAD_XREC_ROUNDTRIP
360
1FAD
  0
DICTIONARY
  5
1FC6
330
1F57
100
AcDbDictionary
280
     1
281
     1
  3
ACAD_XREC_ROUNDTRIP
360
1FC7
  0
DICTIONARY
  5
1FB4
330
1F4E
100
AcDbDictionary
280
     1
281
     1
  3
ACAD_XREC_ROUNDTRIP
360
1FB5
  0
DICTIONARY
  5
1F98
330
1F40
100
AcDbDictionary
280
     1
281
     1
  3
ACAD_XREC_ROUNDTRIP
360
1F99
  0
DICTIONARY
  5
1F9A
330
1F41
100
AcDbDictionary
280
     1
281
     1
  3
ACAD_XREC_ROUNDTRIP
360
1F9B
  0
DICTIONARY
  5
1F9C
330
1F42
100
AcDbDictionary
280
     1
281
     1
  3
ACAD_XREC_ROUNDTRIP
360
1F9D
  0
DICTIONARY
  5
1F9E
330
1F43
100
AcDbDictionary
280
     1
281
     1
  3
ACAD_XREC_ROUNDTRIP
360
1F9F
  0
DICTIONARY
  5
1FA6
330
1F47
100
AcDbDictionary
280
     1
281
     1
  3
ACAD_XREC_ROUNDTRIP
360
1FA7
  0
DICTIONARY
  5
1FC2
330
1F55
100
AcDbDictionary
280
     1
281
     1
  3
ACAD_XREC_ROUNDTRIP
360
1FC3
  0
DICTIONARY
  5
1FB2
330
1F4D
100
AcDbDictionary
280
     1
281
     1
  3
ACAD_XREC_ROUNDTRIP
360
1FB3
  0
DICTIONARY
  5
1FC4
330
1F56
100
AcDbDictionary
280
     1
281
     1
  3
ACAD_XREC_ROUNDTRIP
360
1FC5
  0
DICTIONARY
  5
1FAA
330
1F49
100
AcDbDictionary
280
     1
281
     1
  3
ACAD_XREC_ROUNDTRIP
360
1FAB
  0
DICTIONARY
  5
1FC0
330
1F54
100
AcDbDictionary
280
     1
281
     1
  3
ACAD_XREC_ROUNDTRIP
360
1FC1
  0
DICTIONARY
  5
1FBE
330
1F53
100
AcDbDictionary
280
     1
281
     1
  3
ACAD_XREC_ROUNDTRIP
360
1FBF
  0
DICTIONARY
  5
1FB8
330
1F50
100
AcDbDictionary
280
     1
281
     1
  3
ACAD_XREC_ROUNDTRIP
360
1FB9
  0
DICTIONARY
  5
1FBA
330
1F51
100
AcDbDictionary
280
     1
281
     1
  3
ACAD_XREC_ROUNDTRIP
360
1FBB
  0
DICTIONARY
  5
1FB0
330
1F4C
100
AcDbDictionary
280
     1
281
     1
  3
ACAD_XREC_ROUNDTRIP
360
1FB1
  0
DICTIONARY
  5
1FA4
330
1F46
100
AcDbDictionary
280
     1
281
     1
  3
ACAD_XREC_ROUNDTRIP
360
1FA5
  0
DICTIONARY
  5
1FBC
330
1F52
100
AcDbDictionary
280
     1
281
     1
  3
ACAD_XREC_ROUNDTRIP
360
1FBD
  0
XRECORD
  5
1FCD
102
{ACAD_REACTORS
330
1FCC
102
}
330
1FCC
100
AcDbXrecord
280
     1
102
DISPLAYNAME
  1
Imperial24
102
FLAGS
 90
        0
  0
XRECORD
  5
1FCF
102
{ACAD_REACTORS
330
1FCE
102
}
330
1FCE
100
AcDbXrecord
280
     1
102
SHADEPLOT
 70
     0
102
SHADEPLOTRESLEVEL
 70
     2
102
SHADEPLOTCUSTOMDPI
 70
   300
  0
XRECORD
  5
1FD1
102
{ACAD_REACTORS
330
1FD0
102
}
330
1FD0
100
AcDbXrecord
280
     1
102
SHADEPLOT
 70
     0
102
SHADEPLOTRESLEVEL
 70
     2
102
SHADEPLOTCUSTOMDPI
 70
   300
  0
XRECORD
  5
1F96
102
{ACAD_REACTORS
330
1F30
102
}
330
1F30
100
AcDbXrecord
280
     1
102
MATERIAL
148
0.0
149
0.0
149
0.0
 93
        0
 94
      127
282
     0
 72
     0
 77
     0
171
     0
175
     0
179
     0
273
     0
  0
XRECORD
  5
1F32
102
{ACAD_REACTORS
330
1F30
102
}
330
1F30
100
AcDbXrecord
280
     1
270
     1
271
     1
  0
XRECORD
  5
1F31
102
{ACAD_REACTORS
330
1F30
102
}
330
1F30
100
AcDbXrecord
280
     1
270
     1
271
     1
  0
XRECORD
  5
1F35
102
{ACAD_REACTORS
330
1F30
102
}
330
1F30
100
AcDbXrecord
280
     1
270
     1
271
     1
  0
XRECORD
  5
1F34
102
{ACAD_REACTORS
330
1F30
102
}
330
1F30
100
AcDbXrecord
280
     1
270
     1
271
     1
  0
XRECORD
  5
1F36
102
{ACAD_REACTORS
330
1F30
102
}
330
1F30
100
AcDbXrecord
280
     1
270
     1
271
     1
  0
XRECORD
  5
1F33
102
{ACAD_REACTORS
330
1F30
102
}
330
1F30
100
AcDbXrecord
280
     1
270
     1
271
     1
  0
XRECORD
  5
1F95
102
{ACAD_REACTORS
330
1F28
102
}
330
1F28
100
AcDbXrecord
280
     1
102
MATERIAL
148
0.0
149
0.0
149
0.0
 93
        0
 94
      127
282
     0
 72
     0
 77
     0
171
     0
175
     0
179
     0
273
     0
  0
XRECORD
  5
1F2A
102
{ACAD_REACTORS
330
1F28
102
}
330
1F28
100
AcDbXrecord
280
     1
270
     1
271
     1
  0
XRECORD
  5
1F29
102
{ACAD_REACTORS
330
1F28
102
}
330
1F28
100
AcDbXrecord
280
     1
270
     1
271
     1
  0
XRECORD
  5
1F2D
102
{ACAD_REACTORS
330
1F28
102
}
330
1F28
100
AcDbXrecord
280
     1
270
     1
271
     1
  0
XRECORD
  5
1F2C
102
{ACAD_REACTORS
330
1F28
102
}
330
1F28
100
AcDbXrecord
280
     1
270
     1
271
     1
  0
XRECORD
  5
1F2E
102
{ACAD_REACTORS
330
1F28
102
}
330
1F28
100
AcDbXrecord
280
     1
270
     1
271
     1
  0
XRECORD
  5
1F2B
102
{ACAD_REACTORS
330
1F28
102
}
330
1F28
100
AcDbXrecord
280
     1
270
     1
271
     1
  0
XRECORD
  5
1F97
102
{ACAD_REACTORS
330
1F38
102
}
330
1F38
100
AcDbXrecord
280
     1
102
MATERIAL
148
0.0
149
0.0
149
0.0
 93
        0
 94
      127
282
     0
 72
     0
 77
     0
171
     0
175
     0
179
     0
273
     0
  0
XRECORD
  5
1F3A
102
{ACAD_REACTORS
330
1F38
102
}
330
1F38
100
AcDbXrecord
280
     1
270
     1
271
     1
  0
XRECORD
  5
1F39
102
{ACAD_REACTORS
330
1F38
102
}
330
1F38
100
AcDbXrecord
280
     1
270
     1
271
     1
  0
XRECORD
  5
1F3D
102
{ACAD_REACTORS
330
1F38
102
}
330
1F38
100
AcDbXrecord
280
     1
270
     1
271
     1
  0
XRECORD
  5
1F3C
102
{ACAD_REACTORS
330
1F38
102
}
330
1F38
100
AcDbXrecord
280
     1
270
     1
271
     1
  0
XRECORD
  5
1F3E
102
{ACAD_REACTORS
330
1F38
102
}
330
1F38
100
AcDbXrecord
280
     1
270
     1
271
     1
  0
XRECORD
  5
1F3B
102
{ACAD_REACTORS
330
1F38
102
}
330
1F38
100
AcDbXrecord
280
     1
270
     1
271
     1
  0
XRECORD
  5
1FCB
102
{ACAD_REACTORS
330
1FCA
102
}
330
1FCA
100
AcDbXrecord
280
     1
102
DISPLAYNAME
  1
Imperial24
102
FLAGS
 90
        0
  0
CELLSTYLEMAP
  5
1F92
102
{ACAD_REACTORS
330
1F91
102
}
330
1F91
100
AcDbCellStyleMap
 90
        3
300
CELLSTYLE
  1
TABLEFORMAT_BEGIN
 90
        5
170
     1
 91
        0
 92
    32768
 62
   257
 93
        1
300
CONTENTFORMAT
  1
CONTENTFORMAT_BEGIN
 90
        0
 91
        0
 92
      512
 93
        0
300

 40
0.0
140
1.0
 94
        5
 62
     0
340
F
144
0.25
309
CONTENTFORMAT_END
171
     0
 94
        0
309
TABLEFORMAT_END
  1
CELLSTYLE_BEGIN
 90
        1
 91
        1
300
_TITLE
309
CELLSTYLE_END
300
CELLSTYLE
  1
TABLEFORMAT_BEGIN
 90
        5
170
     1
 91
        0
 92
        0
 62
   257
 93
        1
300
CONTENTFORMAT
  1
CONTENTFORMAT_BEGIN
 90
        0
 91
        0
 92
      512
 93
        0
300

 40
0.0
140
1.0
 94
        5
 62
     0
340
F
144
0.18
309
CONTENTFORMAT_END
171
     0
 94
        0
309
TABLEFORMAT_END
  1
CELLSTYLE_BEGIN
 90
        2
 91
        1
300
_HEADER
309
CELLSTYLE_END
300
CELLSTYLE
  1
TABLEFORMAT_BEGIN
 90
        5
170
     1
 91
        0
 92
        0
 62
   257
 93
        1
300
CONTENTFORMAT
  1
CONTENTFORMAT_BEGIN
 90
        0
 91
        0
 92
      512
 93
        0
300

 40
0.0
140
1.0
 94
        2
 62
     0
340
F
144
0.18
309
CONTENTFORMAT_END
171
     0
 94
        0
309
TABLEFORMAT_END
  1
CELLSTYLE_BEGIN
 90
        3
 91
        2
300
_DATA
309
CELLSTYLE_END
  0
XRECORD
  5
1FC8
102
{ACAD_REACTORS
330
1F91
102
}
330
1F91
100
AcDbXrecord
280
     1
102
ACAD_ROUNDTRIP_PRE2007_TABLESTYLE
 90
      512
 91
        0
  1

 92
      512
 93
        0
  2

 94
      512
 95
        0
  3

  0
XRECORD
  5
1FA3
102
{ACAD_REACTORS
330
1FA2
102
}
330
1FA2
100
AcDbXrecord
280
     1
102
RTVSPost2010Prop28
280
     1
102
RTVSPost2010PropOp28
 70
     1
102
RTVSPost2010Prop29
280
     1
102
RTVSPost2010PropOp29
 70
     1
102
RTVSPost2010Prop30
280
     0
102
RTVSPost2010PropOp30
 70
     1
102
RTVSPost2010Prop31
280
     0
102
RTVSPost2010PropOp31
 70
     1
102
RTVSPost2010Prop32
280
     0
102
RTVSPost2010PropOp32
 70
     1
102
RTVSPost2010Prop33
280
     0
102
RTVSPost2010PropOp33
 70
     1
102
RTVSPost2010Prop34
280
     0
102
RTVSPost2010PropOp34
 70
     1
102
RTVSPost2010Prop35
280
     0
102
RTVSPost2010PropOp35
 70
     1
102
RTVSPost2010Prop36
280
     0
102
RTVSPost2010PropOp36
 70
     1
102
RTVSPost2010Prop37
 90
       50
102
RTVSPost2010PropOp37
 70
     1
102
RTVSPost2010Prop38
140
0.0
102
RTVSPost2010PropOp38
 70
     1
102
RTVSPost2010Prop39
140
1.0
102
RTVSPost2010PropOp39
 70
     1
102
RTVSPost2010Prop40
 90
        0
102
RTVSPost2010PropOp40
 70
     1
102
RTVSPost2010Prop41ColorIndex
 90
       18
102
RTVSPost2010Prop41ColorRGB
 90
        0
102
RTVSPost2010PropOp41
 70
     1
102
RTVSPost2010Prop42
 90
       50
102
RTVSPost2010PropOp42
 70
     1
102
RTVSPost2010Prop43
 90
        3
102
RTVSPost2010PropOp43
 70
     1
102
RTVSPost2010Prop44ColorIndex
 90
        5
102
RTVSPost2010Prop44ColorRGB
 90
      255
102
RTVSPost2010PropOp44
 70
     1
102
RTVSPost2010Prop45
280
     0
102
RTVSPost2010PropOp45
 70
     1
102
RTVSPost2010Prop46
 90
       50
102
RTVSPost2010PropOp46
 70
     1
102
RTVSPost2010Prop47
 90
       50
102
RTVSPost2010PropOp47
 70
     1
102
RTVSPost2010Prop48
 90
       50
102
RTVSPost2010PropOp48
 70
     1
102
RTVSPost2010Prop49
280
     0
102
RTVSPost2010PropOp49
 70
     1
102
RTVSPost2010Prop50
 90
       50
102
RTVSPost2010PropOp50
 70
     1
102
RTVSPost2010Prop51ColorIndex
 90
      256
102
RTVSPost2010Prop51ColorRGB
 90
-16777216
102
RTVSPost2010PropOp51
 70
     0
102
RTVSPost2010Prop52
140
1.0
102
RTVSPost2010PropOp52
 70
     0
102
RTVSPost2010Prop53
 90
        2
102
RTVSPost2010PropOp53
 70
     1
102
RTVSPost2010Prop54
  1
strokes_ogs.tif
102
RTVSPost2010PropOp54
 70
     1
102
RTVSPost2010Prop55
280
     0
102
RTVSPost2010PropOp55
 70
     1
102
RTVSPost2010Prop56
140
1.0
102
RTVSPost2010PropOp56
 70
     1
102
RTVSPost2010Prop57
140
1.0
102
RTVSPost2010PropOp57
 70
     1
102
RTVSPropertyOp0
 70
     1
102
RTVSPropertyOp1
 70
     1
102
RTVSPropertyOp2
 70
     1
102
RTVSPropertyOp3
 70
     1
102
RTVSPropertyOp4
 70
     1
102
RTVSPropertyOp5
 70
     1
102
RTVSPropertyOp6
 70
     1
102
RTVSPropertyOp7
 70
     1
102
RTVSPropertyOp8
 70
     1
102
RTVSPropertyOp9
 70
     1
102
RTVSPropertyOp10
 70
     1
102
RTVSPropertyOp11
 70
     1
102
RTVSPropertyOp12
 70
     1
102
RTVSPropertyOp13
 70
     1
102
RTVSPropertyOp14
 70
     1
102
RTVSPropertyOp15
 70
     1
102
RTVSPropertyOp16
 70
     1
102
RTVSPropertyOp17
 70
     1
102
RTVSPropertyOp18
 70
     1
102
RTVSPropertyOp19
 70
     1
102
RTVSPropertyOp20
 70
     1
102
RTVSPropertyOp21
 70
     1
102
RTVSPropertyOp22
 70
     1
102
RTVSPropertyOp23
 70
     1
102
RTVSPropertyOp24
 70
     1
102
RTVSPropertyOp25
 70
     1
102
RTVSPropertyOp26
 70
     1
102
RTVSPropertyOp27
 70
     1
102
RTVSPropertyOp28
 70
     1
102
RTVSPropertyOp29
 70
     1
102
RTVSPropertyOp30
 70
     1
102
RTVSPropertyOp31
 70
     1
102
RTVSPropertyOp32
 70
     1
102
RTVSPropertyOp33
 70
     1
102
RTVSPropertyOp34
 70
     1
102
RTVSPropertyOp35
 70
     1
102
RTVSPropertyOp36
 70
     1
102
RTVSPropertyOp37
 70
     1
102
RTVSPropertyOp38
 70
     1
102
RTVSPropertyOp39
 70
     1
102
RTVSPropertyOp40
 70
     1
102
RTVSPropertyOp41
 70
     1
102
RTVSPropertyOp42
 70
     1
102
RTVSPropertyOp43
 70
     1
102
RTVSPropertyOp44
 70
     1
102
RTVSPropertyOp45
 70
     1
102
RTVSPropertyOp46
 70
     1
102
RTVSPropertyOp47
 70
     1
102
RTVSPropertyOp48
 70
     1
102
RTVSPropertyOp49
 70
     1
102
RTVSPropertyOp50
 70
     1
102
RTVSPropertyOp51
 70
     0
102
RTVSPropertyOp52
 70
     0
102
RTVSPropertyOp53
 70
     1
102
RTVSPropertyOp54
 70
     1
102
RTVSPropertyOp55
 70
     1
102
RTVSPropertyOp56
 70
     1
102
RTVSPropertyOp57
 70
     1
102
RTVSPropertyOp58
 70
     1
102
RTVSPropertyOp59
 70
     1
102
RTVSPropertyOp60
 70
     1
102
RTVSPropertyOp61
 70
     1
102
RTVSPropertyOp62
 70
     1
  0
XRECORD
  5
1FA1
102
{ACAD_REACTORS
330
1FA0
102
}
330
1FA0
100
AcDbXrecord
280
     1
102
RTVSPost2010Prop28
280
     0
102
RTVSPost2010PropOp28
 70
     1
102
RTVSPost2010Prop29
280
     1
102
RTVSPost2010PropOp29
 70
     1
102
RTVSPost2010Prop30
280
     1
102
RTVSPost2010PropOp30
 70
     1
102
RTVSPost2010Prop31
280
     0
102
RTVSPost2010PropOp31
 70
     1
102
RTVSPost2010Prop32
280
     0
102
RTVSPost2010PropOp32
 70
     1
102
RTVSPost2010Prop33
280
     0
102
RTVSPost2010PropOp33
 70
     1
102
RTVSPost2010Prop34
280
     0
102
RTVSPost2010PropOp34
 70
     1
102
RTVSPost2010Prop35
280
     0
102
RTVSPost2010PropOp35
 70
     1
102
RTVSPost2010Prop36
280
     0
102
RTVSPost2010PropOp36
 70
     1
102
RTVSPost2010Prop37
 90
       50
102
RTVSPost2010PropOp37
 70
     1
102
RTVSPost2010Prop38
140
0.0
102
RTVSPost2010PropOp38
 70
     1
102
RTVSPost2010Prop39
140
1.0
102
RTVSPost2010PropOp39
 70
     1
102
RTVSPost2010Prop40
 90
        0
102
RTVSPost2010PropOp40
 70
     1
102
RTVSPost2010Prop41ColorIndex
 90
       18
102
RTVSPost2010Prop41ColorRGB
 90
        0
102
RTVSPost2010PropOp41
 70
     1
102
RTVSPost2010Prop42
 90
       50
102
RTVSPost2010PropOp42
 70
     1
102
RTVSPost2010Prop43
 90
        3
102
RTVSPost2010PropOp43
 70
     1
102
RTVSPost2010Prop44ColorIndex
 90
        5
102
RTVSPost2010Prop44ColorRGB
 90
      255
102
RTVSPost2010PropOp44
 70
     1
102
RTVSPost2010Prop45
280
     0
102
RTVSPost2010PropOp45
 70
     1
102
RTVSPost2010Prop46
 90
       50
102
RTVSPost2010PropOp46
 70
     1
102
RTVSPost2010Prop47
 90
       50
102
RTVSPost2010PropOp47
 70
     1
102
RTVSPost2010Prop48
 90
       50
102
RTVSPost2010PropOp48
 70
     1
102
RTVSPost2010Prop49
280
     0
102
RTVSPost2010PropOp49
 70
     1
102
RTVSPost2010Prop50
 90
       50
102
RTVSPost2010PropOp50
 70
     1
102
RTVSPost2010Prop51ColorIndex
 90
      256
102
RTVSPost2010Prop51ColorRGB
 90
-16777216
102
RTVSPost2010PropOp51
 70
     0
102
RTVSPost2010Prop52
140
1.0
102
RTVSPost2010PropOp52
 70
     0
102
RTVSPost2010Prop53
 90
        2
102
RTVSPost2010PropOp53
 70
     1
102
RTVSPost2010Prop54
  1
strokes_ogs.tif
102
RTVSPost2010PropOp54
 70
     1
102
RTVSPost2010Prop55
280
     0
102
RTVSPost2010PropOp55
 70
     1
102
RTVSPost2010Prop56
140
1.0
102
RTVSPost2010PropOp56
 70
     1
102
RTVSPost2010Prop57
140
1.0
102
RTVSPost2010PropOp57
 70
     1
102
RTVSPropertyOp0
 70
     1
102
RTVSPropertyOp1
 70
     1
102
RTVSPropertyOp2
 70
     1
102
RTVSPropertyOp3
 70
     1
102
RTVSPropertyOp4
 70
     1
102
RTVSPropertyOp5
 70
     1
102
RTVSPropertyOp6
 70
     1
102
RTVSPropertyOp7
 70
     1
102
RTVSPropertyOp8
 70
     1
102
RTVSPropertyOp9
 70
     1
102
RTVSPropertyOp10
 70
     1
102
RTVSPropertyOp11
 70
     1
102
RTVSPropertyOp12
 70
     1
102
RTVSPropertyOp13
 70
     1
102
RTVSPropertyOp14
 70
     1
102
RTVSPropertyOp15
 70
     1
102
RTVSPropertyOp16
 70
     1
102
RTVSPropertyOp17
 70
     1
102
RTVSPropertyOp18
 70
     1
102
RTVSPropertyOp19
 70
     1
102
RTVSPropertyOp20
 70
     1
102
RTVSPropertyOp21
 70
     1
102
RTVSPropertyOp22
 70
     1
102
RTVSPropertyOp23
 70
     1
102
RTVSPropertyOp24
 70
     1
102
RTVSPropertyOp25
 70
     1
102
RTVSPropertyOp26
 70
     1
102
RTVSPropertyOp27
 70
     1
102
RTVSPropertyOp28
 70
     1
102
RTVSPropertyOp29
 70
     1
102
RTVSPropertyOp30
 70
     1
102
RTVSPropertyOp31
 70
     1
102
RTVSPropertyOp32
 70
     1
102
RTVSPropertyOp33
 70
     1
102
RTVSPropertyOp34
 70
     1
102
RTVSPropertyOp35
 70
     1
102
RTVSPropertyOp36
 70
     1
102
RTVSPropertyOp37
 70
     1
102
RTVSPropertyOp38
 70
     1
102
RTVSPropertyOp39
 70
     1
102
RTVSPropertyOp40
 70
     1
102
RTVSPropertyOp41
 70
     1
102
RTVSPropertyOp42
 70
     1
102
RTVSPropertyOp43
 70
     1
102
RTVSPropertyOp44
 70
     1
102
RTVSPropertyOp45
 70
     1
102
RTVSPropertyOp46
 70
     1
102
RTVSPropertyOp47
 70
     1
102
RTVSPropertyOp48
 70
     1
102
RTVSPropertyOp49
 70
     1
102
RTVSPropertyOp50
 70
     1
102
RTVSPropertyOp51
 70
     0
102
RTVSPropertyOp52
 70
     0
102
RTVSPropertyOp53
 70
     1
102
RTVSPropertyOp54
 70
     1
102
RTVSPropertyOp55
 70
     1
102
RTVSPropertyOp56
 70
     1
102
RTVSPropertyOp57
 70
     1
102
RTVSPropertyOp58
 70
     1
102
RTVSPropertyOp59
 70
     1
102
RTVSPropertyOp60
 70
     1
102
RTVSPropertyOp61
 70
     1
102
RTVSPropertyOp62
 70
     1
  0
XRECORD
  5
1FAF
102
{ACAD_REACTORS
330
1FAE
102
}
330
1FAE
100
AcDbXrecord
280
     1
102
RTVSPost2010Prop28
280
     0
102
RTVSPost2010PropOp28
 70
     1
102
RTVSPost2010Prop29
280
     1
102
RTVSPost2010PropOp29
 70
     1
102
RTVSPost2010Prop30
280
     1
102
RTVSPost2010PropOp30
 70
     1
102
RTVSPost2010Prop31
280
     0
102
RTVSPost2010PropOp31
 70
     1
102
RTVSPost2010Prop32
280
     0
102
RTVSPost2010PropOp32
 70
     1
102
RTVSPost2010Prop33
280
     0
102
RTVSPost2010PropOp33
 70
     1
102
RTVSPost2010Prop34
280
     0
102
RTVSPost2010PropOp34
 70
     1
102
RTVSPost2010Prop35
280
     0
102
RTVSPost2010PropOp35
 70
     1
102
RTVSPost2010Prop36
280
     0
102
RTVSPost2010PropOp36
 70
     1
102
RTVSPost2010Prop37
 90
       50
102
RTVSPost2010PropOp37
 70
     1
102
RTVSPost2010Prop38
140
0.0
102
RTVSPost2010PropOp38
 70
     1
102
RTVSPost2010Prop39
140
1.0
102
RTVSPost2010PropOp39
 70
     1
102
RTVSPost2010Prop40
 90
        0
102
RTVSPost2010PropOp40
 70
     1
102
RTVSPost2010Prop41ColorIndex
 90
       18
102
RTVSPost2010Prop41ColorRGB
 90
        0
102
RTVSPost2010PropOp41
 70
     1
102
RTVSPost2010Prop42
 90
       50
102
RTVSPost2010PropOp42
 70
     1
102
RTVSPost2010Prop43
 90
        3
102
RTVSPost2010PropOp43
 70
     1
102
RTVSPost2010Prop44ColorIndex
 90
        5
102
RTVSPost2010Prop44ColorRGB
 90
      255
102
RTVSPost2010PropOp44
 70
     1
102
RTVSPost2010Prop45
280
     0
102
RTVSPost2010PropOp45
 70
     1
102
RTVSPost2010Prop46
 90
       50
102
RTVSPost2010PropOp46
 70
     1
102
RTVSPost2010Prop47
 90
       50
102
RTVSPost2010PropOp47
 70
     1
102
RTVSPost2010Prop48
 90
       50
102
RTVSPost2010PropOp48
 70
     1
102
RTVSPost2010Prop49
280
     0
102
RTVSPost2010PropOp49
 70
     1
102
RTVSPost2010Prop50
 90
       50
102
RTVSPost2010PropOp50
 70
     1
102
RTVSPost2010Prop51ColorIndex
 90
      256
102
RTVSPost2010Prop51ColorRGB
 90
-16777216
102
RTVSPost2010PropOp51
 70
     0
102
RTVSPost2010Prop52
140
1.0
102
RTVSPost2010PropOp52
 70
     0
102
RTVSPost2010Prop53
 90
        2
102
RTVSPost2010PropOp53
 70
     1
102
RTVSPost2010Prop54
  1
strokes_ogs.tif
102
RTVSPost2010PropOp54
 70
     1
102
RTVSPost2010Prop55
280
     0
102
RTVSPost2010PropOp55
 70
     1
102
RTVSPost2010Prop56
140
1.0
102
RTVSPost2010PropOp56
 70
     1
102
RTVSPost2010Prop57
140
1.0
102
RTVSPost2010PropOp57
 70
     1
102
RTVSPropertyOp0
 70
     1
102
RTVSPropertyOp1
 70
     1
102
RTVSPropertyOp2
 70
     1
102
RTVSPropertyOp3
 70
     1
102
RTVSPropertyOp4
 70
     1
102
RTVSPropertyOp5
 70
     1
102
RTVSPropertyOp6
 70
     1
102
RTVSPropertyOp7
 70
     1
102
RTVSPropertyOp8
 70
     1
102
RTVSPropertyOp9
 70
     1
102
RTVSPropertyOp10
 70
     1
102
RTVSPropertyOp11
 70
     1
102
RTVSPropertyOp12
 70
     1
102
RTVSPropertyOp13
 70
     1
102
RTVSPropertyOp14
 70
     1
102
RTVSPropertyOp15
 70
     1
102
RTVSPropertyOp16
 70
     1
102
RTVSPropertyOp17
 70
     1
102
RTVSPropertyOp18
 70
     1
102
RTVSPropertyOp19
 70
     1
102
RTVSPropertyOp20
 70
     1
102
RTVSPropertyOp21
 70
     1
102
RTVSPropertyOp22
 70
     1
102
RTVSPropertyOp23
 70
     1
102
RTVSPropertyOp24
 70
     1
102
RTVSPropertyOp25
 70
     1
102
RTVSPropertyOp26
 70
     1
102
RTVSPropertyOp27
 70
     1
102
RTVSPropertyOp28
 70
     1
102
RTVSPropertyOp29
 70
     1
102
RTVSPropertyOp30
 70
     1
102
RTVSPropertyOp31
 70
     1
102
RTVSPropertyOp32
 70
     1
102
RTVSPropertyOp33
 70
     1
102
RTVSPropertyOp34
 70
     1
102
RTVSPropertyOp35
 70
     1
102
RTVSPropertyOp36
 70
     1
102
RTVSPropertyOp37
 70
     1
102
RTVSPropertyOp38
 70
     1
102
RTVSPropertyOp39
 70
     1
102
RTVSPropertyOp40
 70
     1
102
RTVSPropertyOp41
 70
     1
102
RTVSPropertyOp42
 70
     1
102
RTVSPropertyOp43
 70
     1
102
RTVSPropertyOp44
 70
     1
102
RTVSPropertyOp45
 70
     1
102
RTVSPropertyOp46
 70
     1
102
RTVSPropertyOp47
 70
     1
102
RTVSPropertyOp48
 70
     1
102
RTVSPropertyOp49
 70
     1
102
RTVSPropertyOp50
 70
     1
102
RTVSPropertyOp51
 70
     0
102
RTVSPropertyOp52
 70
     0
102
RTVSPropertyOp53
 70
     1
102
RTVSPropertyOp54
 70
     1
102
RTVSPropertyOp55
 70
     1
102
RTVSPropertyOp56
 70
     1
102
RTVSPropertyOp57
 70
     1
102
RTVSPropertyOp58
 70
     1
102
RTVSPropertyOp59
 70
     1
102
RTVSPropertyOp60
 70
     1
102
RTVSPropertyOp61
 70
     1
102
RTVSPropertyOp62
 70
     1
  0
XRECORD
  5
1FB7
102
{ACAD_REACTORS
330
1FB6
102
}
330
1FB6
100
AcDbXrecord
280
     1
102
RTVSPost2010Prop28
280
     0
102
RTVSPost2010PropOp28
 70
     1
102
RTVSPost2010Prop29
280
     1
102
RTVSPost2010PropOp29
 70
     1
102
RTVSPost2010Prop30
280
     1
102
RTVSPost2010PropOp30
 70
     1
102
RTVSPost2010Prop31
280
     0
102
RTVSPost2010PropOp31
 70
     1
102
RTVSPost2010Prop32
280
     0
102
RTVSPost2010PropOp32
 70
     1
102
RTVSPost2010Prop33
280
     0
102
RTVSPost2010PropOp33
 70
     1
102
RTVSPost2010Prop34
280
     0
102
RTVSPost2010PropOp34
 70
     1
102
RTVSPost2010Prop35
280
     0
102
RTVSPost2010PropOp35
 70
     1
102
RTVSPost2010Prop36
280
     0
102
RTVSPost2010PropOp36
 70
     1
102
RTVSPost2010Prop37
 90
       50
102
RTVSPost2010PropOp37
 70
     1
102
RTVSPost2010Prop38
140
0.0
102
RTVSPost2010PropOp38
 70
     1
102
RTVSPost2010Prop39
140
1.0
102
RTVSPost2010PropOp39
 70
     1
102
RTVSPost2010Prop40
 90
        0
102
RTVSPost2010PropOp40
 70
     1
102
RTVSPost2010Prop41ColorIndex
 90
       18
102
RTVSPost2010Prop41ColorRGB
 90
        0
102
RTVSPost2010PropOp41
 70
     1
102
RTVSPost2010Prop42
 90
       50
102
RTVSPost2010PropOp42
 70
     1
102
RTVSPost2010Prop43
 90
        3
102
RTVSPost2010PropOp43
 70
     1
102
RTVSPost2010Prop44ColorIndex
 90
        5
102
RTVSPost2010Prop44ColorRGB
 90
      255
102
RTVSPost2010PropOp44
 70
     1
102
RTVSPost2010Prop45
280
     0
102
RTVSPost2010PropOp45
 70
     1
102
RTVSPost2010Prop46
 90
       50
102
RTVSPost2010PropOp46
 70
     1
102
RTVSPost2010Prop47
 90
       50
102
RTVSPost2010PropOp47
 70
     1
102
RTVSPost2010Prop48
 90
       50
102
RTVSPost2010PropOp48
 70
     1
102
RTVSPost2010Prop49
280
     0
102
RTVSPost2010PropOp49
 70
     1
102
RTVSPost2010Prop50
 90
       50
102
RTVSPost2010PropOp50
 70
     1
102
RTVSPost2010Prop51ColorIndex
 90
      256
102
RTVSPost2010Prop51ColorRGB
 90
-16777216
102
RTVSPost2010PropOp51
 70
     0
102
RTVSPost2010Prop52
140
1.0
102
RTVSPost2010PropOp52
 70
     0
102
RTVSPost2010Prop53
 90
        2
102
RTVSPost2010PropOp53
 70
     1
102
RTVSPost2010Prop54
  1
strokes_ogs.tif
102
RTVSPost2010PropOp54
 70
     1
102
RTVSPost2010Prop55
280
     0
102
RTVSPost2010PropOp55
 70
     1
102
RTVSPost2010Prop56
140
1.0
102
RTVSPost2010PropOp56
 70
     1
102
RTVSPost2010Prop57
140
1.0
102
RTVSPost2010PropOp57
 70
     1
102
RTVSPropertyOp0
 70
     1
102
RTVSPropertyOp1
 70
     1
102
RTVSPropertyOp2
 70
     1
102
RTVSPropertyOp3
 70
     1
102
RTVSPropertyOp4
 70
     1
102
RTVSPropertyOp5
 70
     1
102
RTVSPropertyOp6
 70
     1
102
RTVSPropertyOp7
 70
     1
102
RTVSPropertyOp8
 70
     1
102
RTVSPropertyOp9
 70
     1
102
RTVSPropertyOp10
 70
     1
102
RTVSPropertyOp11
 70
     1
102
RTVSPropertyOp12
 70
     1
102
RTVSPropertyOp13
 70
     1
102
RTVSPropertyOp14
 70
     1
102
RTVSPropertyOp15
 70
     1
102
RTVSPropertyOp16
 70
     1
102
RTVSPropertyOp17
 70
     1
102
RTVSPropertyOp18
 70
     1
102
RTVSPropertyOp19
 70
     1
102
RTVSPropertyOp20
 70
     1
102
RTVSPropertyOp21
 70
     1
102
RTVSPropertyOp22
 70
     1
102
RTVSPropertyOp23
 70
     1
102
RTVSPropertyOp24
 70
     1
102
RTVSPropertyOp25
 70
     1
102
RTVSPropertyOp26
 70
     1
102
RTVSPropertyOp27
 70
     1
102
RTVSPropertyOp28
 70
     1
102
RTVSPropertyOp29
 70
     1
102
RTVSPropertyOp30
 70
     1
102
RTVSPropertyOp31
 70
     1
102
RTVSPropertyOp32
 70
     1
102
RTVSPropertyOp33
 70
     1
102
RTVSPropertyOp34
 70
     1
102
RTVSPropertyOp35
 70
     1
102
RTVSPropertyOp36
 70
     1
102
RTVSPropertyOp37
 70
     1
102
RTVSPropertyOp38
 70
     1
102
RTVSPropertyOp39
 70
     1
102
RTVSPropertyOp40
 70
     1
102
RTVSPropertyOp41
 70
     1
102
RTVSPropertyOp42
 70
     1
102
RTVSPropertyOp43
 70
     1
102
RTVSPropertyOp44
 70
     1
102
RTVSPropertyOp45
 70
     1
102
RTVSPropertyOp46
 70
     1
102
RTVSPropertyOp47
 70
     1
102
RTVSPropertyOp48
 70
     1
102
RTVSPropertyOp49
 70
     1
102
RTVSPropertyOp50
 70
     1
102
RTVSPropertyOp51
 70
     0
102
RTVSPropertyOp52
 70
     0
102
RTVSPropertyOp53
 70
     1
102
RTVSPropertyOp54
 70
     1
102
RTVSPropertyOp55
 70
     1
102
RTVSPropertyOp56
 70
     1
102
RTVSPropertyOp57
 70
     1
102
RTVSPropertyOp58
 70
     1
102
RTVSPropertyOp59
 70
     1
102
RTVSPropertyOp60
 70
     1
102
RTVSPropertyOp61
 70
     1
102
RTVSPropertyOp62
 70
     1
  0
XRECORD
  5
1FA9
102
{ACAD_REACTORS
330
1FA8
102
}
330
1FA8
100
AcDbXrecord
280
     1
102
RTVSPost2010Prop28
280
     0
102
RTVSPost2010PropOp28
 70
     1
102
RTVSPost2010Prop29
280
     1
102
RTVSPost2010PropOp29
 70
     1
102
RTVSPost2010Prop30
280
     1
102
RTVSPost2010PropOp30
 70
     1
102
RTVSPost2010Prop31
280
     0
102
RTVSPost2010PropOp31
 70
     1
102
RTVSPost2010Prop32
280
     0
102
RTVSPost2010PropOp32
 70
     1
102
RTVSPost2010Prop33
280
     0
102
RTVSPost2010PropOp33
 70
     1
102
RTVSPost2010Prop34
280
     0
102
RTVSPost2010PropOp34
 70
     1
102
RTVSPost2010Prop35
280
     0
102
RTVSPost2010PropOp35
 70
     1
102
RTVSPost2010Prop36
280
     0
102
RTVSPost2010PropOp36
 70
     1
102
RTVSPost2010Prop37
 90
       50
102
RTVSPost2010PropOp37
 70
     1
102
RTVSPost2010Prop38
140
0.0
102
RTVSPost2010PropOp38
 70
     1
102
RTVSPost2010Prop39
140
1.0
102
RTVSPost2010PropOp39
 70
     1
102
RTVSPost2010Prop40
 90
        0
102
RTVSPost2010PropOp40
 70
     1
102
RTVSPost2010Prop41ColorIndex
 90
       18
102
RTVSPost2010Prop41ColorRGB
 90
        0
102
RTVSPost2010PropOp41
 70
     1
102
RTVSPost2010Prop42
 90
       50
102
RTVSPost2010PropOp42
 70
     1
102
RTVSPost2010Prop43
 90
        3
102
RTVSPost2010PropOp43
 70
     1
102
RTVSPost2010Prop44ColorIndex
 90
        5
102
RTVSPost2010Prop44ColorRGB
 90
      255
102
RTVSPost2010PropOp44
 70
     1
102
RTVSPost2010Prop45
280
     0
102
RTVSPost2010PropOp45
 70
     1
102
RTVSPost2010Prop46
 90
       50
102
RTVSPost2010PropOp46
 70
     1
102
RTVSPost2010Prop47
 90
       50
102
RTVSPost2010PropOp47
 70
     1
102
RTVSPost2010Prop48
 90
       50
102
RTVSPost2010PropOp48
 70
     1
102
RTVSPost2010Prop49
280
     0
102
RTVSPost2010PropOp49
 70
     1
102
RTVSPost2010Prop50
 90
       50
102
RTVSPost2010PropOp50
 70
     1
102
RTVSPost2010Prop51ColorIndex
 90
      256
102
RTVSPost2010Prop51ColorRGB
 90
-16777216
102
RTVSPost2010PropOp51
 70
     0
102
RTVSPost2010Prop52
140
1.0
102
RTVSPost2010PropOp52
 70
     0
102
RTVSPost2010Prop53
 90
        2
102
RTVSPost2010PropOp53
 70
     1
102
RTVSPost2010Prop54
  1
strokes_ogs.tif
102
RTVSPost2010PropOp54
 70
     1
102
RTVSPost2010Prop55
280
     0
102
RTVSPost2010PropOp55
 70
     1
102
RTVSPost2010Prop56
140
1.0
102
RTVSPost2010PropOp56
 70
     1
102
RTVSPost2010Prop57
140
1.0
102
RTVSPost2010PropOp57
 70
     1
102
RTVSPropertyOp0
 70
     1
102
RTVSPropertyOp1
 70
     1
102
RTVSPropertyOp2
 70
     1
102
RTVSPropertyOp3
 70
     1
102
RTVSPropertyOp4
 70
     1
102
RTVSPropertyOp5
 70
     1
102
RTVSPropertyOp6
 70
     1
102
RTVSPropertyOp7
 70
     1
102
RTVSPropertyOp8
 70
     1
102
RTVSPropertyOp9
 70
     1
102
RTVSPropertyOp10
 70
     1
102
RTVSPropertyOp11
 70
     1
102
RTVSPropertyOp12
 70
     1
102
RTVSPropertyOp13
 70
     1
102
RTVSPropertyOp14
 70
     1
102
RTVSPropertyOp15
 70
     1
102
RTVSPropertyOp16
 70
     1
102
RTVSPropertyOp17
 70
     1
102
RTVSPropertyOp18
 70
     1
102
RTVSPropertyOp19
 70
     1
102
RTVSPropertyOp20
 70
     1
102
RTVSPropertyOp21
 70
     1
102
RTVSPropertyOp22
 70
     1
102
RTVSPropertyOp23
 70
     1
102
RTVSPropertyOp24
 70
     1
102
RTVSPropertyOp25
 70
     1
102
RTVSPropertyOp26
 70
     1
102
RTVSPropertyOp27
 70
     1
102
RTVSPropertyOp28
 70
     1
102
RTVSPropertyOp29
 70
     1
102
RTVSPropertyOp30
 70
     1
102
RTVSPropertyOp31
 70
     1
102
RTVSPropertyOp32
 70
     1
102
RTVSPropertyOp33
 70
     1
102
RTVSPropertyOp34
 70
     1
102
RTVSPropertyOp35
 70
     1
102
RTVSPropertyOp36
 70
     1
102
RTVSPropertyOp37
 70
     1
102
RTVSPropertyOp38
 70
     1
102
RTVSPropertyOp39
 70
     1
102
RTVSPropertyOp40
 70
     1
102
RTVSPropertyOp41
 70
     1
102
RTVSPropertyOp42
 70
     1
102
RTVSPropertyOp43
 70
     1
102
RTVSPropertyOp44
 70
     1
102
RTVSPropertyOp45
 70
     1
102
RTVSPropertyOp46
 70
     1
102
RTVSPropertyOp47
 70
     1
102
RTVSPropertyOp48
 70
     1
102
RTVSPropertyOp49
 70
     1
102
RTVSPropertyOp50
 70
     1
102
RTVSPropertyOp51
 70
     0
102
RTVSPropertyOp52
 70
     0
102
RTVSPropertyOp53
 70
     1
102
RTVSPropertyOp54
 70
     1
102
RTVSPropertyOp55
 70
     1
102
RTVSPropertyOp56
 70
     1
102
RTVSPropertyOp57
 70
     1
102
RTVSPropertyOp58
 70
     1
102
RTVSPropertyOp59
 70
     1
102
RTVSPropertyOp60
 70
     1
102
RTVSPropertyOp61
 70
     1
102
RTVSPropertyOp62
 70
     1
  0
XRECORD
  5
1FAD
102
{ACAD_REACTORS
330
1FAC
102
}
330
1FAC
100
AcDbXrecord
280
     1
102
RTVSPost2010Prop28
280
     0
102
RTVSPost2010PropOp28
 70
     1
102
RTVSPost2010Prop29
280
     1
102
RTVSPost2010PropOp29
 70
     1
102
RTVSPost2010Prop30
280
     1
102
RTVSPost2010PropOp30
 70
     1
102
RTVSPost2010Prop31
280
     0
102
RTVSPost2010PropOp31
 70
     1
102
RTVSPost2010Prop32
280
     0
102
RTVSPost2010PropOp32
 70
     1
102
RTVSPost2010Prop33
280
     0
102
RTVSPost2010PropOp33
 70
     1
102
RTVSPost2010Prop34
280
     0
102
RTVSPost2010PropOp34
 70
     1
102
RTVSPost2010Prop35
280
     0
102
RTVSPost2010PropOp35
 70
     1
102
RTVSPost2010Prop36
280
     0
102
RTVSPost2010PropOp36
 70
     1
102
RTVSPost2010Prop37
 90
       50
102
RTVSPost2010PropOp37
 70
     1
102
RTVSPost2010Prop38
140
0.0
102
RTVSPost2010PropOp38
 70
     1
102
RTVSPost2010Prop39
140
1.0
102
RTVSPost2010PropOp39
 70
     1
102
RTVSPost2010Prop40
 90
        0
102
RTVSPost2010PropOp40
 70
     1
102
RTVSPost2010Prop41ColorIndex
 90
       18
102
RTVSPost2010Prop41ColorRGB
 90
        0
102
RTVSPost2010PropOp41
 70
     1
102
RTVSPost2010Prop42
 90
       50
102
RTVSPost2010PropOp42
 70
     1
102
RTVSPost2010Prop43
 90
        3
102
RTVSPost2010PropOp43
 70
     1
102
RTVSPost2010Prop44ColorIndex
 90
        5
102
RTVSPost2010Prop44ColorRGB
 90
      255
102
RTVSPost2010PropOp44
 70
     1
102
RTVSPost2010Prop45
280
     0
102
RTVSPost2010PropOp45
 70
     1
102
RTVSPost2010Prop46
 90
       50
102
RTVSPost2010PropOp46
 70
     1
102
RTVSPost2010Prop47
 90
       50
102
RTVSPost2010PropOp47
 70
     1
102
RTVSPost2010Prop48
 90
       50
102
RTVSPost2010PropOp48
 70
     1
102
RTVSPost2010Prop49
280
     0
102
RTVSPost2010PropOp49
 70
     1
102
RTVSPost2010Prop50
 90
       50
102
RTVSPost2010PropOp50
 70
     1
102
RTVSPost2010Prop51ColorIndex
 90
      256
102
RTVSPost2010Prop51ColorRGB
 90
-16777216
102
RTVSPost2010PropOp51
 70
     0
102
RTVSPost2010Prop52
140
1.0
102
RTVSPost2010PropOp52
 70
     0
102
RTVSPost2010Prop53
 90
        2
102
RTVSPost2010PropOp53
 70
     1
102
RTVSPost2010Prop54
  1
strokes_ogs.tif
102
RTVSPost2010PropOp54
 70
     1
102
RTVSPost2010Prop55
280
     0
102
RTVSPost2010PropOp55
 70
     1
102
RTVSPost2010Prop56
140
1.0
102
RTVSPost2010PropOp56
 70
     1
102
RTVSPost2010Prop57
140
1.0
102
RTVSPost2010PropOp57
 70
     1
102
RTVSPropertyOp0
 70
     1
102
RTVSPropertyOp1
 70
     1
102
RTVSPropertyOp2
 70
     1
102
RTVSPropertyOp3
 70
     1
102
RTVSPropertyOp4
 70
     1
102
RTVSPropertyOp5
 70
     1
102
RTVSPropertyOp6
 70
     1
102
RTVSPropertyOp7
 70
     1
102
RTVSPropertyOp8
 70
     1
102
RTVSPropertyOp9
 70
     1
102
RTVSPropertyOp10
 70
     1
102
RTVSPropertyOp11
 70
     1
102
RTVSPropertyOp12
 70
     1
102
RTVSPropertyOp13
 70
     1
102
RTVSPropertyOp14
 70
     1
102
RTVSPropertyOp15
 70
     1
102
RTVSPropertyOp16
 70
     1
102
RTVSPropertyOp17
 70
     1
102
RTVSPropertyOp18
 70
     1
102
RTVSPropertyOp19
 70
     1
102
RTVSPropertyOp20
 70
     1
102
RTVSPropertyOp21
 70
     1
102
RTVSPropertyOp22
 70
     1
102
RTVSPropertyOp23
 70
     1
102
RTVSPropertyOp24
 70
     1
102
RTVSPropertyOp25
 70
     1
102
RTVSPropertyOp26
 70
     1
102
RTVSPropertyOp27
 70
     1
102
RTVSPropertyOp28
 70
     1
102
RTVSPropertyOp29
 70
     1
102
RTVSPropertyOp30
 70
     1
102
RTVSPropertyOp31
 70
     1
102
RTVSPropertyOp32
 70
     1
102
RTVSPropertyOp33
 70
     1
102
RTVSPropertyOp34
 70
     1
102
RTVSPropertyOp35
 70
     1
102
RTVSPropertyOp36
 70
     1
102
RTVSPropertyOp37
 70
     1
102
RTVSPropertyOp38
 70
     1
102
RTVSPropertyOp39
 70
     1
102
RTVSPropertyOp40
 70
     1
102
RTVSPropertyOp41
 70
     1
102
RTVSPropertyOp42
 70
     1
102
RTVSPropertyOp43
 70
     1
102
RTVSPropertyOp44
 70
     1
102
RTVSPropertyOp45
 70
     1
102
RTVSPropertyOp46
 70
     1
102
RTVSPropertyOp47
 70
     1
102
RTVSPropertyOp48
 70
     1
102
RTVSPropertyOp49
 70
     1
102
RTVSPropertyOp50
 70
     1
102
RTVSPropertyOp51
 70
     0
102
RTVSPropertyOp52
 70
     0
102
RTVSPropertyOp53
 70
     1
102
RTVSPropertyOp54
 70
     1
102
RTVSPropertyOp55
 70
     1
102
RTVSPropertyOp56
 70
     1
102
RTVSPropertyOp57
 70
     1
102
RTVSPropertyOp58
 70
     1
102
RTVSPropertyOp59
 70
     1
102
RTVSPropertyOp60
 70
     1
102
RTVSPropertyOp61
 70
     1
102
RTVSPropertyOp62
 70
     1
  0
XRECORD
  5
1FC7
102
{ACAD_REACTORS
330
1FC6
102
}
330
1FC6
100
AcDbXrecord
280
     1
102
RTVSPost2010Prop28
280
     0
102
RTVSPost2010PropOp28
 70
     1
102
RTVSPost2010Prop29
280
     1
102
RTVSPost2010PropOp29
 70
     1
102
RTVSPost2010Prop30
280
     1
102
RTVSPost2010PropOp30
 70
     1
102
RTVSPost2010Prop31
280
     0
102
RTVSPost2010PropOp31
 70
     1
102
RTVSPost2010Prop32
280
     0
102
RTVSPost2010PropOp32
 70
     1
102
RTVSPost2010Prop33
280
     0
102
RTVSPost2010PropOp33
 70
     1
102
RTVSPost2010Prop34
280
     0
102
RTVSPost2010PropOp34
 70
     1
102
RTVSPost2010Prop35
280
     0
102
RTVSPost2010PropOp35
 70
     1
102
RTVSPost2010Prop36
280
     0
102
RTVSPost2010PropOp36
 70
     1
102
RTVSPost2010Prop37
 90
       50
102
RTVSPost2010PropOp37
 70
     0
102
RTVSPost2010Prop38
140
0.0
102
RTVSPost2010PropOp38
 70
     0
102
RTVSPost2010Prop39
140
1.0
102
RTVSPost2010PropOp39
 70
     0
102
RTVSPost2010Prop40
 90
        0
102
RTVSPost2010PropOp40
 70
     0
102
RTVSPost2010Prop41ColorIndex
 90
       18
102
RTVSPost2010Prop41ColorRGB
 90
        0
102
RTVSPost2010PropOp41
 70
     0
102
RTVSPost2010Prop42
 90
       50
102
RTVSPost2010PropOp42
 70
     0
102
RTVSPost2010Prop43
 90
        3
102
RTVSPost2010PropOp43
 70
     0
102
RTVSPost2010Prop44ColorIndex
 90
        5
102
RTVSPost2010Prop44ColorRGB
 90
      255
102
RTVSPost2010PropOp44
 70
     0
102
RTVSPost2010Prop45
280
     0
102
RTVSPost2010PropOp45
 70
     1
102
RTVSPost2010Prop46
 90
       50
102
RTVSPost2010PropOp46
 70
     0
102
RTVSPost2010Prop47
 90
       50
102
RTVSPost2010PropOp47
 70
     0
102
RTVSPost2010Prop48
 90
       50
102
RTVSPost2010PropOp48
 70
     0
102
RTVSPost2010Prop49
280
     0
102
RTVSPost2010PropOp49
 70
     1
102
RTVSPost2010Prop50
 90
       50
102
RTVSPost2010PropOp50
 70
     0
102
RTVSPost2010Prop51ColorIndex
 90
      256
102
RTVSPost2010Prop51ColorRGB
 90
-16777216
102
RTVSPost2010PropOp51
 70
     0
102
RTVSPost2010Prop52
140
1.0
102
RTVSPost2010PropOp52
 70
     0
102
RTVSPost2010Prop53
 90
        2
102
RTVSPost2010PropOp53
 70
     0
102
RTVSPost2010Prop54
  1
strokes_ogs.tif
102
RTVSPost2010PropOp54
 70
     0
102
RTVSPost2010Prop55
280
     0
102
RTVSPost2010PropOp55
 70
     1
102
RTVSPost2010Prop56
140
1.0
102
RTVSPost2010PropOp56
 70
     0
102
RTVSPost2010Prop57
140
1.0
102
RTVSPost2010PropOp57
 70
     0
102
RTVSPropertyOp0
 70
     0
102
RTVSPropertyOp1
 70
     0
102
RTVSPropertyOp2
 70
     0
102
RTVSPropertyOp3
 70
     0
102
RTVSPropertyOp4
 70
     0
102
RTVSPropertyOp5
 70
     0
102
RTVSPropertyOp6
 70
     0
102
RTVSPropertyOp7
 70
     0
102
RTVSPropertyOp8
 70
     0
102
RTVSPropertyOp9
 70
     0
102
RTVSPropertyOp10
 70
     0
102
RTVSPropertyOp11
 70
     0
102
RTVSPropertyOp12
 70
     0
102
RTVSPropertyOp13
 70
     0
102
RTVSPropertyOp14
 70
     2
102
RTVSPropertyOp15
 70
     0
102
RTVSPropertyOp16
 70
     0
102
RTVSPropertyOp17
 70
     0
102
RTVSPropertyOp18
 70
     0
102
RTVSPropertyOp19
 70
     0
102
RTVSPropertyOp20
 70
     0
102
RTVSPropertyOp21
 70
     0
102
RTVSPropertyOp22
 70
     0
102
RTVSPropertyOp23
 70
     0
102
RTVSPropertyOp24
 70
     0
102
RTVSPropertyOp25
 70
     0
102
RTVSPropertyOp26
 70
     0
102
RTVSPropertyOp27
 70
     0
102
RTVSPropertyOp28
 70
     1
102
RTVSPropertyOp29
 70
     1
102
RTVSPropertyOp30
 70
     1
102
RTVSPropertyOp31
 70
     1
102
RTVSPropertyOp32
 70
     1
102
RTVSPropertyOp33
 70
     1
102
RTVSPropertyOp34
 70
     1
102
RTVSPropertyOp35
 70
     1
102
RTVSPropertyOp36
 70
     1
102
RTVSPropertyOp37
 70
     0
102
RTVSPropertyOp38
 70
     0
102
RTVSPropertyOp39
 70
     0
102
RTVSPropertyOp40
 70
     0
102
RTVSPropertyOp41
 70
     0
102
RTVSPropertyOp42
 70
     0
102
RTVSPropertyOp43
 70
     0
102
RTVSPropertyOp44
 70
     0
102
RTVSPropertyOp45
 70
     1
102
RTVSPropertyOp46
 70
     0
102
RTVSPropertyOp47
 70
     0
102
RTVSPropertyOp48
 70
     0
102
RTVSPropertyOp49
 70
     1
102
RTVSPropertyOp50
 70
     0
102
RTVSPropertyOp51
 70
     0
102
RTVSPropertyOp52
 70
     0
102
RTVSPropertyOp53
 70
     0
102
RTVSPropertyOp54
 70
     0
102
RTVSPropertyOp55
 70
     1
102
RTVSPropertyOp56
 70
     0
102
RTVSPropertyOp57
 70
     0
102
RTVSPropertyOp58
 70
     0
102
RTVSPropertyOp59
 70
     0
102
RTVSPropertyOp60
 70
     0
102
RTVSPropertyOp61
 70
     0
102
RTVSPropertyOp62
 70
     0
  0
XRECORD
  5
1FB5
102
{ACAD_REACTORS
330
1FB4
102
}
330
1FB4
100
AcDbXrecord
280
     1
102
RTVSPost2010Prop28
280
     0
102
RTVSPost2010PropOp28
 70
     1
102
RTVSPost2010Prop29
280
     1
102
RTVSPost2010PropOp29
 70
     1
102
RTVSPost2010Prop30
280
     1
102
RTVSPost2010PropOp30
 70
     1
102
RTVSPost2010Prop31
280
     0
102
RTVSPost2010PropOp31
 70
     1
102
RTVSPost2010Prop32
280
     0
102
RTVSPost2010PropOp32
 70
     1
102
RTVSPost2010Prop33
280
     0
102
RTVSPost2010PropOp33
 70
     1
102
RTVSPost2010Prop34
280
     0
102
RTVSPost2010PropOp34
 70
     1
102
RTVSPost2010Prop35
280
     0
102
RTVSPost2010PropOp35
 70
     1
102
RTVSPost2010Prop36
280
     0
102
RTVSPost2010PropOp36
 70
     1
102
RTVSPost2010Prop37
 90
       50
102
RTVSPost2010PropOp37
 70
     1
102
RTVSPost2010Prop38
140
0.0
102
RTVSPost2010PropOp38
 70
     1
102
RTVSPost2010Prop39
140
1.0
102
RTVSPost2010PropOp39
 70
     1
102
RTVSPost2010Prop40
 90
        0
102
RTVSPost2010PropOp40
 70
     1
102
RTVSPost2010Prop41ColorIndex
 90
       18
102
RTVSPost2010Prop41ColorRGB
 90
        0
102
RTVSPost2010PropOp41
 70
     1
102
RTVSPost2010Prop42
 90
       50
102
RTVSPost2010PropOp42
 70
     1
102
RTVSPost2010Prop43
 90
        3
102
RTVSPost2010PropOp43
 70
     1
102
RTVSPost2010Prop44ColorIndex
 90
        5
102
RTVSPost2010Prop44ColorRGB
 90
      255
102
RTVSPost2010PropOp44
 70
     1
102
RTVSPost2010Prop45
280
     0
102
RTVSPost2010PropOp45
 70
     1
102
RTVSPost2010Prop46
 90
       50
102
RTVSPost2010PropOp46
 70
     1
102
RTVSPost2010Prop47
 90
       50
102
RTVSPost2010PropOp47
 70
     1
102
RTVSPost2010Prop48
 90
       50
102
RTVSPost2010PropOp48
 70
     1
102
RTVSPost2010Prop49
280
     0
102
RTVSPost2010PropOp49
 70
     1
102
RTVSPost2010Prop50
 90
       50
102
RTVSPost2010PropOp50
 70
     1
102
RTVSPost2010Prop51ColorIndex
 90
      256
102
RTVSPost2010Prop51ColorRGB
 90
-16777216
102
RTVSPost2010PropOp51
 70
     0
102
RTVSPost2010Prop52
140
1.0
102
RTVSPost2010PropOp52
 70
     0
102
RTVSPost2010Prop53
 90
        2
102
RTVSPost2010PropOp53
 70
     1
102
RTVSPost2010Prop54
  1
strokes_ogs.tif
102
RTVSPost2010PropOp54
 70
     1
102
RTVSPost2010Prop55
280
     0
102
RTVSPost2010PropOp55
 70
     1
102
RTVSPost2010Prop56
140
1.0
102
RTVSPost2010PropOp56
 70
     1
102
RTVSPost2010Prop57
140
1.0
102
RTVSPost2010PropOp57
 70
     1
102
RTVSPropertyOp0
 70
     1
102
RTVSPropertyOp1
 70
     1
102
RTVSPropertyOp2
 70
     1
102
RTVSPropertyOp3
 70
     1
102
RTVSPropertyOp4
 70
     1
102
RTVSPropertyOp5
 70
     1
102
RTVSPropertyOp6
 70
     1
102
RTVSPropertyOp7
 70
     1
102
RTVSPropertyOp8
 70
     1
102
RTVSPropertyOp9
 70
     1
102
RTVSPropertyOp10
 70
     1
102
RTVSPropertyOp11
 70
     1
102
RTVSPropertyOp12
 70
     1
102
RTVSPropertyOp13
 70
     1
102
RTVSPropertyOp14
 70
     1
102
RTVSPropertyOp15
 70
     1
102
RTVSPropertyOp16
 70
     1
102
RTVSPropertyOp17
 70
     1
102
RTVSPropertyOp18
 70
     1
102
RTVSPropertyOp19
 70
     1
102
RTVSPropertyOp20
 70
     1
102
RTVSPropertyOp21
 70
     1
102
RTVSPropertyOp22
 70
     1
102
RTVSPropertyOp23
 70
     1
102
RTVSPropertyOp24
 70
     1
102
RTVSPropertyOp25
 70
     1
102
RTVSPropertyOp26
 70
     1
102
RTVSPropertyOp27
 70
     1
102
RTVSPropertyOp28
 70
     1
102
RTVSPropertyOp29
 70
     1
102
RTVSPropertyOp30
 70
     1
102
RTVSPropertyOp31
 70
     1
102
RTVSPropertyOp32
 70
     1
102
RTVSPropertyOp33
 70
     1
102
RTVSPropertyOp34
 70
     1
102
RTVSPropertyOp35
 70
     1
102
RTVSPropertyOp36
 70
     1
102
RTVSPropertyOp37
 70
     1
102
RTVSPropertyOp38
 70
     1
102
RTVSPropertyOp39
 70
     1
102
RTVSPropertyOp40
 70
     1
102
RTVSPropertyOp41
 70
     1
102
RTVSPropertyOp42
 70
     1
102
RTVSPropertyOp43
 70
     1
102
RTVSPropertyOp44
 70
     1
102
RTVSPropertyOp45
 70
     1
102
RTVSPropertyOp46
 70
     1
102
RTVSPropertyOp47
 70
     1
102
RTVSPropertyOp48
 70
     1
102
RTVSPropertyOp49
 70
     1
102
RTVSPropertyOp50
 70
     1
102
RTVSPropertyOp51
 70
     0
102
RTVSPropertyOp52
 70
     0
102
RTVSPropertyOp53
 70
     1
102
RTVSPropertyOp54
 70
     1
102
RTVSPropertyOp55
 70
     1
102
RTVSPropertyOp56
 70
     1
102
RTVSPropertyOp57
 70
     1
102
RTVSPropertyOp58
 70
     1
102
RTVSPropertyOp59
 70
     1
102
RTVSPropertyOp60
 70
     1
102
RTVSPropertyOp61
 70
     1
102
RTVSPropertyOp62
 70
     1
  0
XRECORD
  5
1F99
102
{ACAD_REACTORS
330
1F98
102
}
330
1F98
100
AcDbXrecord
280
     1
102
RTVSPost2010Prop28
280
     0
102
RTVSPost2010PropOp28
 70
     1
102
RTVSPost2010Prop29
280
     1
102
RTVSPost2010PropOp29
 70
     1
102
RTVSPost2010Prop30
280
     1
102
RTVSPost2010PropOp30
 70
     1
102
RTVSPost2010Prop31
280
     0
102
RTVSPost2010PropOp31
 70
     1
102
RTVSPost2010Prop32
280
     0
102
RTVSPost2010PropOp32
 70
     1
102
RTVSPost2010Prop33
280
     0
102
RTVSPost2010PropOp33
 70
     1
102
RTVSPost2010Prop34
280
     0
102
RTVSPost2010PropOp34
 70
     1
102
RTVSPost2010Prop35
280
     0
102
RTVSPost2010PropOp35
 70
     1
102
RTVSPost2010Prop36
280
     0
102
RTVSPost2010PropOp36
 70
     1
102
RTVSPost2010Prop37
 90
       50
102
RTVSPost2010PropOp37
 70
     1
102
RTVSPost2010Prop38
140
0.0
102
RTVSPost2010PropOp38
 70
     1
102
RTVSPost2010Prop39
140
1.0
102
RTVSPost2010PropOp39
 70
     1
102
RTVSPost2010Prop40
 90
        0
102
RTVSPost2010PropOp40
 70
     1
102
RTVSPost2010Prop41ColorIndex
 90
       18
102
RTVSPost2010Prop41ColorRGB
 90
        0
102
RTVSPost2010PropOp41
 70
     1
102
RTVSPost2010Prop42
 90
       50
102
RTVSPost2010PropOp42
 70
     1
102
RTVSPost2010Prop43
 90
        3
102
RTVSPost2010PropOp43
 70
     1
102
RTVSPost2010Prop44ColorIndex
 90
        5
102
RTVSPost2010Prop44ColorRGB
 90
      255
102
RTVSPost2010PropOp44
 70
     1
102
RTVSPost2010Prop45
280
     0
102
RTVSPost2010PropOp45
 70
     1
102
RTVSPost2010Prop46
 90
       50
102
RTVSPost2010PropOp46
 70
     1
102
RTVSPost2010Prop47
 90
       50
102
RTVSPost2010PropOp47
 70
     1
102
RTVSPost2010Prop48
 90
       50
102
RTVSPost2010PropOp48
 70
     1
102
RTVSPost2010Prop49
280
     0
102
RTVSPost2010PropOp49
 70
     1
102
RTVSPost2010Prop50
 90
       50
102
RTVSPost2010PropOp50
 70
     1
102
RTVSPost2010Prop51ColorIndex
 90
      256
102
RTVSPost2010Prop51ColorRGB
 90
-16777216
102
RTVSPost2010PropOp51
 70
     0
102
RTVSPost2010Prop52
140
1.0
102
RTVSPost2010PropOp52
 70
     0
102
RTVSPost2010Prop53
 90
        2
102
RTVSPost2010PropOp53
 70
     1
102
RTVSPost2010Prop54
  1
strokes_ogs.tif
102
RTVSPost2010PropOp54
 70
     1
102
RTVSPost2010Prop55
280
     0
102
RTVSPost2010PropOp55
 70
     1
102
RTVSPost2010Prop56
140
1.0
102
RTVSPost2010PropOp56
 70
     1
102
RTVSPost2010Prop57
140
1.0
102
RTVSPost2010PropOp57
 70
     1
102
RTVSPropertyOp0
 70
     1
102
RTVSPropertyOp1
 70
     1
102
RTVSPropertyOp2
 70
     1
102
RTVSPropertyOp3
 70
     1
102
RTVSPropertyOp4
 70
     1
102
RTVSPropertyOp5
 70
     1
102
RTVSPropertyOp6
 70
     1
102
RTVSPropertyOp7
 70
     1
102
RTVSPropertyOp8
 70
     1
102
RTVSPropertyOp9
 70
     1
102
RTVSPropertyOp10
 70
     1
102
RTVSPropertyOp11
 70
     1
102
RTVSPropertyOp12
 70
     1
102
RTVSPropertyOp13
 70
     1
102
RTVSPropertyOp14
 70
     1
102
RTVSPropertyOp15
 70
     1
102
RTVSPropertyOp16
 70
     1
102
RTVSPropertyOp17
 70
     1
102
RTVSPropertyOp18
 70
     1
102
RTVSPropertyOp19
 70
     1
102
RTVSPropertyOp20
 70
     1
102
RTVSPropertyOp21
 70
     1
102
RTVSPropertyOp22
 70
     1
102
RTVSPropertyOp23
 70
     1
102
RTVSPropertyOp24
 70
     1
102
RTVSPropertyOp25
 70
     1
102
RTVSPropertyOp26
 70
     1
102
RTVSPropertyOp27
 70
     1
102
RTVSPropertyOp28
 70
     1
102
RTVSPropertyOp29
 70
     1
102
RTVSPropertyOp30
 70
     1
102
RTVSPropertyOp31
 70
     1
102
RTVSPropertyOp32
 70
     1
102
RTVSPropertyOp33
 70
     1
102
RTVSPropertyOp34
 70
     1
102
RTVSPropertyOp35
 70
     1
102
RTVSPropertyOp36
 70
     1
102
RTVSPropertyOp37
 70
     1
102
RTVSPropertyOp38
 70
     1
102
RTVSPropertyOp39
 70
     1
102
RTVSPropertyOp40
 70
     1
102
RTVSPropertyOp41
 70
     1
102
RTVSPropertyOp42
 70
     1
102
RTVSPropertyOp43
 70
     1
102
RTVSPropertyOp44
 70
     1
102
RTVSPropertyOp45
 70
     1
102
RTVSPropertyOp46
 70
     1
102
RTVSPropertyOp47
 70
     1
102
RTVSPropertyOp48
 70
     1
102
RTVSPropertyOp49
 70
     1
102
RTVSPropertyOp50
 70
     1
102
RTVSPropertyOp51
 70
     0
102
RTVSPropertyOp52
 70
     0
102
RTVSPropertyOp53
 70
     1
102
RTVSPropertyOp54
 70
     1
102
RTVSPropertyOp55
 70
     1
102
RTVSPropertyOp56
 70
     1
102
RTVSPropertyOp57
 70
     1
102
RTVSPropertyOp58
 70
     1
102
RTVSPropertyOp59
 70
     1
102
RTVSPropertyOp60
 70
     1
102
RTVSPropertyOp61
 70
     1
102
RTVSPropertyOp62
 70
     1
  0
XRECORD
  5
1F9B
102
{ACAD_REACTORS
330
1F9A
102
}
330
1F9A
100
AcDbXrecord
280
     1
102
RTVSPost2010Prop28
280
     0
102
RTVSPost2010PropOp28
 70
     1
102
RTVSPost2010Prop29
280
     1
102
RTVSPost2010PropOp29
 70
     1
102
RTVSPost2010Prop30
280
     1
102
RTVSPost2010PropOp30
 70
     1
102
RTVSPost2010Prop31
280
     0
102
RTVSPost2010PropOp31
 70
     1
102
RTVSPost2010Prop32
280
     0
102
RTVSPost2010PropOp32
 70
     1
102
RTVSPost2010Prop33
280
     0
102
RTVSPost2010PropOp33
 70
     1
102
RTVSPost2010Prop34
280
     0
102
RTVSPost2010PropOp34
 70
     1
102
RTVSPost2010Prop35
280
     0
102
RTVSPost2010PropOp35
 70
     1
102
RTVSPost2010Prop36
280
     0
102
RTVSPost2010PropOp36
 70
     1
102
RTVSPost2010Prop37
 90
       50
102
RTVSPost2010PropOp37
 70
     1
102
RTVSPost2010Prop38
140
0.0
102
RTVSPost2010PropOp38
 70
     1
102
RTVSPost2010Prop39
140
1.0
102
RTVSPost2010PropOp39
 70
     1
102
RTVSPost2010Prop40
 90
        0
102
RTVSPost2010PropOp40
 70
     1
102
RTVSPost2010Prop41ColorIndex
 90
       18
102
RTVSPost2010Prop41ColorRGB
 90
        0
102
RTVSPost2010PropOp41
 70
     1
102
RTVSPost2010Prop42
 90
       50
102
RTVSPost2010PropOp42
 70
     1
102
RTVSPost2010Prop43
 90
        3
102
RTVSPost2010PropOp43
 70
     1
102
RTVSPost2010Prop44ColorIndex
 90
        5
102
RTVSPost2010Prop44ColorRGB
 90
      255
102
RTVSPost2010PropOp44
 70
     1
102
RTVSPost2010Prop45
280
     0
102
RTVSPost2010PropOp45
 70
     1
102
RTVSPost2010Prop46
 90
       50
102
RTVSPost2010PropOp46
 70
     1
102
RTVSPost2010Prop47
 90
       50
102
RTVSPost2010PropOp47
 70
     1
102
RTVSPost2010Prop48
 90
       50
102
RTVSPost2010PropOp48
 70
     1
102
RTVSPost2010Prop49
280
     0
102
RTVSPost2010PropOp49
 70
     1
102
RTVSPost2010Prop50
 90
       50
102
RTVSPost2010PropOp50
 70
     1
102
RTVSPost2010Prop51ColorIndex
 90
      256
102
RTVSPost2010Prop51ColorRGB
 90
-16777216
102
RTVSPost2010PropOp51
 70
     0
102
RTVSPost2010Prop52
140
1.0
102
RTVSPost2010PropOp52
 70
     0
102
RTVSPost2010Prop53
 90
        2
102
RTVSPost2010PropOp53
 70
     1
102
RTVSPost2010Prop54
  1
strokes_ogs.tif
102
RTVSPost2010PropOp54
 70
     1
102
RTVSPost2010Prop55
280
     0
102
RTVSPost2010PropOp55
 70
     1
102
RTVSPost2010Prop56
140
1.0
102
RTVSPost2010PropOp56
 70
     1
102
RTVSPost2010Prop57
140
1.0
102
RTVSPost2010PropOp57
 70
     1
102
RTVSPropertyOp0
 70
     1
102
RTVSPropertyOp1
 70
     1
102
RTVSPropertyOp2
 70
     1
102
RTVSPropertyOp3
 70
     1
102
RTVSPropertyOp4
 70
     1
102
RTVSPropertyOp5
 70
     1
102
RTVSPropertyOp6
 70
     1
102
RTVSPropertyOp7
 70
     1
102
RTVSPropertyOp8
 70
     1
102
RTVSPropertyOp9
 70
     1
102
RTVSPropertyOp10
 70
     1
102
RTVSPropertyOp11
 70
     1
102
RTVSPropertyOp12
 70
     1
102
RTVSPropertyOp13
 70
     1
102
RTVSPropertyOp14
 70
     1
102
RTVSPropertyOp15
 70
     1
102
RTVSPropertyOp16
 70
     1
102
RTVSPropertyOp17
 70
     1
102
RTVSPropertyOp18
 70
     1
102
RTVSPropertyOp19
 70
     1
102
RTVSPropertyOp20
 70
     1
102
RTVSPropertyOp21
 70
     1
102
RTVSPropertyOp22
 70
     1
102
RTVSPropertyOp23
 70
     1
102
RTVSPropertyOp24
 70
     1
102
RTVSPropertyOp25
 70
     1
102
RTVSPropertyOp26
 70
     1
102
RTVSPropertyOp27
 70
     1
102
RTVSPropertyOp28
 70
     1
102
RTVSPropertyOp29
 70
     1
102
RTVSPropertyOp30
 70
     1
102
RTVSPropertyOp31
 70
     1
102
RTVSPropertyOp32
 70
     1
102
RTVSPropertyOp33
 70
     1
102
RTVSPropertyOp34
 70
     1
102
RTVSPropertyOp35
 70
     1
102
RTVSPropertyOp36
 70
     1
102
RTVSPropertyOp37
 70
     1
102
RTVSPropertyOp38
 70
     1
102
RTVSPropertyOp39
 70
     1
102
RTVSPropertyOp40
 70
     1
102
RTVSPropertyOp41
 70
     1
102
RTVSPropertyOp42
 70
     1
102
RTVSPropertyOp43
 70
     1
102
RTVSPropertyOp44
 70
     1
102
RTVSPropertyOp45
 70
     1
102
RTVSPropertyOp46
 70
     1
102
RTVSPropertyOp47
 70
     1
102
RTVSPropertyOp48
 70
     1
102
RTVSPropertyOp49
 70
     1
102
RTVSPropertyOp50
 70
     1
102
RTVSPropertyOp51
 70
     0
102
RTVSPropertyOp52
 70
     0
102
RTVSPropertyOp53
 70
     1
102
RTVSPropertyOp54
 70
     1
102
RTVSPropertyOp55
 70
     1
102
RTVSPropertyOp56
 70
     1
102
RTVSPropertyOp57
 70
     1
102
RTVSPropertyOp58
 70
     1
102
RTVSPropertyOp59
 70
     1
102
RTVSPropertyOp60
 70
     1
102
RTVSPropertyOp61
 70
     1
102
RTVSPropertyOp62
 70
     1
  0
XRECORD
  5
1F9D
102
{ACAD_REACTORS
330
1F9C
102
}
330
1F9C
100
AcDbXrecord
280
     1
102
RTVSPost2010Prop28
280
     0
102
RTVSPost2010PropOp28
 70
     1
102
RTVSPost2010Prop29
280
     1
102
RTVSPost2010PropOp29
 70
     1
102
RTVSPost2010Prop30
280
     1
102
RTVSPost2010PropOp30
 70
     1
102
RTVSPost2010Prop31
280
     0
102
RTVSPost2010PropOp31
 70
     1
102
RTVSPost2010Prop32
280
     0
102
RTVSPost2010PropOp32
 70
     1
102
RTVSPost2010Prop33
280
     0
102
RTVSPost2010PropOp33
 70
     1
102
RTVSPost2010Prop34
280
     0
102
RTVSPost2010PropOp34
 70
     1
102
RTVSPost2010Prop35
280
     0
102
RTVSPost2010PropOp35
 70
     1
102
RTVSPost2010Prop36
280
     0
102
RTVSPost2010PropOp36
 70
     1
102
RTVSPost2010Prop37
 90
       50
102
RTVSPost2010PropOp37
 70
     1
102
RTVSPost2010Prop38
140
0.0
102
RTVSPost2010PropOp38
 70
     1
102
RTVSPost2010Prop39
140
1.0
102
RTVSPost2010PropOp39
 70
     1
102
RTVSPost2010Prop40
 90
        0
102
RTVSPost2010PropOp40
 70
     1
102
RTVSPost2010Prop41ColorIndex
 90
       18
102
RTVSPost2010Prop41ColorRGB
 90
        0
102
RTVSPost2010PropOp41
 70
     1
102
RTVSPost2010Prop42
 90
       50
102
RTVSPost2010PropOp42
 70
     1
102
RTVSPost2010Prop43
 90
        3
102
RTVSPost2010PropOp43
 70
     1
102
RTVSPost2010Prop44ColorIndex
 90
        5
102
RTVSPost2010Prop44ColorRGB
 90
      255
102
RTVSPost2010PropOp44
 70
     1
102
RTVSPost2010Prop45
280
     0
102
RTVSPost2010PropOp45
 70
     1
102
RTVSPost2010Prop46
 90
       50
102
RTVSPost2010PropOp46
 70
     1
102
RTVSPost2010Prop47
 90
       50
102
RTVSPost2010PropOp47
 70
     1
102
RTVSPost2010Prop48
 90
       50
102
RTVSPost2010PropOp48
 70
     1
102
RTVSPost2010Prop49
280
     0
102
RTVSPost2010PropOp49
 70
     1
102
RTVSPost2010Prop50
 90
       50
102
RTVSPost2010PropOp50
 70
     1
102
RTVSPost2010Prop51ColorIndex
 90
      256
102
RTVSPost2010Prop51ColorRGB
 90
-16777216
102
RTVSPost2010PropOp51
 70
     0
102
RTVSPost2010Prop52
140
1.0
102
RTVSPost2010PropOp52
 70
     0
102
RTVSPost2010Prop53
 90
        2
102
RTVSPost2010PropOp53
 70
     1
102
RTVSPost2010Prop54
  1
strokes_ogs.tif
102
RTVSPost2010PropOp54
 70
     1
102
RTVSPost2010Prop55
280
     0
102
RTVSPost2010PropOp55
 70
     1
102
RTVSPost2010Prop56
140
1.0
102
RTVSPost2010PropOp56
 70
     1
102
RTVSPost2010Prop57
140
1.0
102
RTVSPost2010PropOp57
 70
     1
102
RTVSPropertyOp0
 70
     1
102
RTVSPropertyOp1
 70
     1
102
RTVSPropertyOp2
 70
     1
102
RTVSPropertyOp3
 70
     1
102
RTVSPropertyOp4
 70
     1
102
RTVSPropertyOp5
 70
     1
102
RTVSPropertyOp6
 70
     1
102
RTVSPropertyOp7
 70
     1
102
RTVSPropertyOp8
 70
     1
102
RTVSPropertyOp9
 70
     1
102
RTVSPropertyOp10
 70
     1
102
RTVSPropertyOp11
 70
     1
102
RTVSPropertyOp12
 70
     1
102
RTVSPropertyOp13
 70
     1
102
RTVSPropertyOp14
 70
     1
102
RTVSPropertyOp15
 70
     1
102
RTVSPropertyOp16
 70
     1
102
RTVSPropertyOp17
 70
     1
102
RTVSPropertyOp18
 70
     1
102
RTVSPropertyOp19
 70
     1
102
RTVSPropertyOp20
 70
     1
102
RTVSPropertyOp21
 70
     1
102
RTVSPropertyOp22
 70
     1
102
RTVSPropertyOp23
 70
     1
102
RTVSPropertyOp24
 70
     1
102
RTVSPropertyOp25
 70
     1
102
RTVSPropertyOp26
 70
     1
102
RTVSPropertyOp27
 70
     1
102
RTVSPropertyOp28
 70
     1
102
RTVSPropertyOp29
 70
     1
102
RTVSPropertyOp30
 70
     1
102
RTVSPropertyOp31
 70
     1
102
RTVSPropertyOp32
 70
     1
102
RTVSPropertyOp33
 70
     1
102
RTVSPropertyOp34
 70
     1
102
RTVSPropertyOp35
 70
     1
102
RTVSPropertyOp36
 70
     1
102
RTVSPropertyOp37
 70
     1
102
RTVSPropertyOp38
 70
     1
102
RTVSPropertyOp39
 70
     1
102
RTVSPropertyOp40
 70
     1
102
RTVSPropertyOp41
 70
     1
102
RTVSPropertyOp42
 70
     1
102
RTVSPropertyOp43
 70
     1
102
RTVSPropertyOp44
 70
     1
102
RTVSPropertyOp45
 70
     1
102
RTVSPropertyOp46
 70
     1
102
RTVSPropertyOp47
 70
     1
102
RTVSPropertyOp48
 70
     1
102
RTVSPropertyOp49
 70
     1
102
RTVSPropertyOp50
 70
     1
102
RTVSPropertyOp51
 70
     0
102
RTVSPropertyOp52
 70
     0
102
RTVSPropertyOp53
 70
     1
102
RTVSPropertyOp54
 70
     1
102
RTVSPropertyOp55
 70
     1
102
RTVSPropertyOp56
 70
     1
102
RTVSPropertyOp57
 70
     1
102
RTVSPropertyOp58
 70
     1
102
RTVSPropertyOp59
 70
     1
102
RTVSPropertyOp60
 70
     1
102
RTVSPropertyOp61
 70
     1
102
RTVSPropertyOp62
 70
     1
  0
XRECORD
  5
1F9F
102
{ACAD_REACTORS
330
1F9E
102
}
330
1F9E
100
AcDbXrecord
280
     1
102
RTVSPost2010Prop28
280
     0
102
RTVSPost2010PropOp28
 70
     1
102
RTVSPost2010Prop29
280
     1
102
RTVSPost2010PropOp29
 70
     1
102
RTVSPost2010Prop30
280
     1
102
RTVSPost2010PropOp30
 70
     1
102
RTVSPost2010Prop31
280
     0
102
RTVSPost2010PropOp31
 70
     1
102
RTVSPost2010Prop32
280
     0
102
RTVSPost2010PropOp32
 70
     1
102
RTVSPost2010Prop33
280
     0
102
RTVSPost2010PropOp33
 70
     1
102
RTVSPost2010Prop34
280
     0
102
RTVSPost2010PropOp34
 70
     1
102
RTVSPost2010Prop35
280
     0
102
RTVSPost2010PropOp35
 70
     1
102
RTVSPost2010Prop36
280
     0
102
RTVSPost2010PropOp36
 70
     1
102
RTVSPost2010Prop37
 90
       50
102
RTVSPost2010PropOp37
 70
     1
102
RTVSPost2010Prop38
140
0.0
102
RTVSPost2010PropOp38
 70
     1
102
RTVSPost2010Prop39
140
1.0
102
RTVSPost2010PropOp39
 70
     1
102
RTVSPost2010Prop40
 90
        0
102
RTVSPost2010PropOp40
 70
     1
102
RTVSPost2010Prop41ColorIndex
 90
       18
102
RTVSPost2010Prop41ColorRGB
 90
        0
102
RTVSPost2010PropOp41
 70
     1
102
RTVSPost2010Prop42
 90
       50
102
RTVSPost2010PropOp42
 70
     1
102
RTVSPost2010Prop43
 90
        3
102
RTVSPost2010PropOp43
 70
     1
102
RTVSPost2010Prop44ColorIndex
 90
        5
102
RTVSPost2010Prop44ColorRGB
 90
      255
102
RTVSPost2010PropOp44
 70
     1
102
RTVSPost2010Prop45
280
     0
102
RTVSPost2010PropOp45
 70
     1
102
RTVSPost2010Prop46
 90
       50
102
RTVSPost2010PropOp46
 70
     1
102
RTVSPost2010Prop47
 90
       50
102
RTVSPost2010PropOp47
 70
     1
102
RTVSPost2010Prop48
 90
       50
102
RTVSPost2010PropOp48
 70
     1
102
RTVSPost2010Prop49
280
     0
102
RTVSPost2010PropOp49
 70
     1
102
RTVSPost2010Prop50
 90
       50
102
RTVSPost2010PropOp50
 70
     1
102
RTVSPost2010Prop51ColorIndex
 90
      256
102
RTVSPost2010Prop51ColorRGB
 90
-16777216
102
RTVSPost2010PropOp51
 70
     0
102
RTVSPost2010Prop52
140
1.0
102
RTVSPost2010PropOp52
 70
     0
102
RTVSPost2010Prop53
 90
        2
102
RTVSPost2010PropOp53
 70
     1
102
RTVSPost2010Prop54
  1
strokes_ogs.tif
102
RTVSPost2010PropOp54
 70
     1
102
RTVSPost2010Prop55
280
     0
102
RTVSPost2010PropOp55
 70
     1
102
RTVSPost2010Prop56
140
1.0
102
RTVSPost2010PropOp56
 70
     1
102
RTVSPost2010Prop57
140
1.0
102
RTVSPost2010PropOp57
 70
     1
102
RTVSPropertyOp0
 70
     1
102
RTVSPropertyOp1
 70
     1
102
RTVSPropertyOp2
 70
     1
102
RTVSPropertyOp3
 70
     1
102
RTVSPropertyOp4
 70
     1
102
RTVSPropertyOp5
 70
     1
102
RTVSPropertyOp6
 70
     1
102
RTVSPropertyOp7
 70
     1
102
RTVSPropertyOp8
 70
     1
102
RTVSPropertyOp9
 70
     1
102
RTVSPropertyOp10
 70
     1
102
RTVSPropertyOp11
 70
     1
102
RTVSPropertyOp12
 70
     1
102
RTVSPropertyOp13
 70
     1
102
RTVSPropertyOp14
 70
     1
102
RTVSPropertyOp15
 70
     1
102
RTVSPropertyOp16
 70
     1
102
RTVSPropertyOp17
 70
     1
102
RTVSPropertyOp18
 70
     1
102
RTVSPropertyOp19
 70
     1
102
RTVSPropertyOp20
 70
     1
102
RTVSPropertyOp21
 70
     1
102
RTVSPropertyOp22
 70
     1
102
RTVSPropertyOp23
 70
     1
102
RTVSPropertyOp24
 70
     1
102
RTVSPropertyOp25
 70
     1
102
RTVSPropertyOp26
 70
     1
102
RTVSPropertyOp27
 70
     1
102
RTVSPropertyOp28
 70
     1
102
RTVSPropertyOp29
 70
     1
102
RTVSPropertyOp30
 70
     1
102
RTVSPropertyOp31
 70
     1
102
RTVSPropertyOp32
 70
     1
102
RTVSPropertyOp33
 70
     1
102
RTVSPropertyOp34
 70
     1
102
RTVSPropertyOp35
 70
     1
102
RTVSPropertyOp36
 70
     1
102
RTVSPropertyOp37
 70
     1
102
RTVSPropertyOp38
 70
     1
102
RTVSPropertyOp39
 70
     1
102
RTVSPropertyOp40
 70
     1
102
RTVSPropertyOp41
 70
     1
102
RTVSPropertyOp42
 70
     1
102
RTVSPropertyOp43
 70
     1
102
RTVSPropertyOp44
 70
     1
102
RTVSPropertyOp45
 70
     1
102
RTVSPropertyOp46
 70
     1
102
RTVSPropertyOp47
 70
     1
102
RTVSPropertyOp48
 70
     1
102
RTVSPropertyOp49
 70
     1
102
RTVSPropertyOp50
 70
     1
102
RTVSPropertyOp51
 70
     0
102
RTVSPropertyOp52
 70
     0
102
RTVSPropertyOp53
 70
     1
102
RTVSPropertyOp54
 70
     1
102
RTVSPropertyOp55
 70
     1
102
RTVSPropertyOp56
 70
     1
102
RTVSPropertyOp57
 70
     1
102
RTVSPropertyOp58
 70
     1
102
RTVSPropertyOp59
 70
     1
102
RTVSPropertyOp60
 70
     1
102
RTVSPropertyOp61
 70
     1
102
RTVSPropertyOp62
 70
     1
  0
XRECORD
  5
1FA7
102
{ACAD_REACTORS
330
1FA6
102
}
330
1FA6
100
AcDbXrecord
280
     1
102
RTVSPost2010Prop28
280
     0
102
RTVSPost2010PropOp28
 70
     1
102
RTVSPost2010Prop29
280
     1
102
RTVSPost2010PropOp29
 70
     1
102
RTVSPost2010Prop30
280
     1
102
RTVSPost2010PropOp30
 70
     1
102
RTVSPost2010Prop31
280
     0
102
RTVSPost2010PropOp31
 70
     1
102
RTVSPost2010Prop32
280
     0
102
RTVSPost2010PropOp32
 70
     1
102
RTVSPost2010Prop33
280
     0
102
RTVSPost2010PropOp33
 70
     1
102
RTVSPost2010Prop34
280
     0
102
RTVSPost2010PropOp34
 70
     1
102
RTVSPost2010Prop35
280
     0
102
RTVSPost2010PropOp35
 70
     1
102
RTVSPost2010Prop36
280
     0
102
RTVSPost2010PropOp36
 70
     1
102
RTVSPost2010Prop37
 90
       50
102
RTVSPost2010PropOp37
 70
     1
102
RTVSPost2010Prop38
140
0.0
102
RTVSPost2010PropOp38
 70
     1
102
RTVSPost2010Prop39
140
1.0
102
RTVSPost2010PropOp39
 70
     1
102
RTVSPost2010Prop40
 90
        0
102
RTVSPost2010PropOp40
 70
     1
102
RTVSPost2010Prop41ColorIndex
 90
       18
102
RTVSPost2010Prop41ColorRGB
 90
        0
102
RTVSPost2010PropOp41
 70
     1
102
RTVSPost2010Prop42
 90
       50
102
RTVSPost2010PropOp42
 70
     1
102
RTVSPost2010Prop43
 90
        3
102
RTVSPost2010PropOp43
 70
     1
102
RTVSPost2010Prop44ColorIndex
 90
        5
102
RTVSPost2010Prop44ColorRGB
 90
      255
102
RTVSPost2010PropOp44
 70
     1
102
RTVSPost2010Prop45
280
     0
102
RTVSPost2010PropOp45
 70
     1
102
RTVSPost2010Prop46
 90
       50
102
RTVSPost2010PropOp46
 70
     1
102
RTVSPost2010Prop47
 90
       50
102
RTVSPost2010PropOp47
 70
     1
102
RTVSPost2010Prop48
 90
       50
102
RTVSPost2010PropOp48
 70
     1
102
RTVSPost2010Prop49
280
     0
102
RTVSPost2010PropOp49
 70
     1
102
RTVSPost2010Prop50
 90
       50
102
RTVSPost2010PropOp50
 70
     1
102
RTVSPost2010Prop51ColorIndex
 90
      256
102
RTVSPost2010Prop51ColorRGB
 90
-16777216
102
RTVSPost2010PropOp51
 70
     0
102
RTVSPost2010Prop52
140
1.0
102
RTVSPost2010PropOp52
 70
     0
102
RTVSPost2010Prop53
 90
        2
102
RTVSPost2010PropOp53
 70
     1
102
RTVSPost2010Prop54
  1
strokes_ogs.tif
102
RTVSPost2010PropOp54
 70
     1
102
RTVSPost2010Prop55
280
     0
102
RTVSPost2010PropOp55
 70
     1
102
RTVSPost2010Prop56
140
1.0
102
RTVSPost2010PropOp56
 70
     1
102
RTVSPost2010Prop57
140
1.0
102
RTVSPost2010PropOp57
 70
     1
102
RTVSPropertyOp0
 70
     1
102
RTVSPropertyOp1
 70
     1
102
RTVSPropertyOp2
 70
     1
102
RTVSPropertyOp3
 70
     1
102
RTVSPropertyOp4
 70
     1
102
RTVSPropertyOp5
 70
     1
102
RTVSPropertyOp6
 70
     1
102
RTVSPropertyOp7
 70
     1
102
RTVSPropertyOp8
 70
     1
102
RTVSPropertyOp9
 70
     1
102
RTVSPropertyOp10
 70
     1
102
RTVSPropertyOp11
 70
     1
102
RTVSPropertyOp12
 70
     1
102
RTVSPropertyOp13
 70
     1
102
RTVSPropertyOp14
 70
     1
102
RTVSPropertyOp15
 70
     1
102
RTVSPropertyOp16
 70
     1
102
RTVSPropertyOp17
 70
     1
102
RTVSPropertyOp18
 70
     1
102
RTVSPropertyOp19
 70
     1
102
RTVSPropertyOp20
 70
     1
102
RTVSPropertyOp21
 70
     1
102
RTVSPropertyOp22
 70
     1
102
RTVSPropertyOp23
 70
     1
102
RTVSPropertyOp24
 70
     1
102
RTVSPropertyOp25
 70
     1
102
RTVSPropertyOp26
 70
     1
102
RTVSPropertyOp27
 70
     1
102
RTVSPropertyOp28
 70
     1
102
RTVSPropertyOp29
 70
     1
102
RTVSPropertyOp30
 70
     1
102
RTVSPropertyOp31
 70
     1
102
RTVSPropertyOp32
 70
     1
102
RTVSPropertyOp33
 70
     1
102
RTVSPropertyOp34
 70
     1
102
RTVSPropertyOp35
 70
     1
102
RTVSPropertyOp36
 70
     1
102
RTVSPropertyOp37
 70
     1
102
RTVSPropertyOp38
 70
     1
102
RTVSPropertyOp39
 70
     1
102
RTVSPropertyOp40
 70
     1
102
RTVSPropertyOp41
 70
     1
102
RTVSPropertyOp42
 70
     1
102
RTVSPropertyOp43
 70
     1
102
RTVSPropertyOp44
 70
     1
102
RTVSPropertyOp45
 70
     1
102
RTVSPropertyOp46
 70
     1
102
RTVSPropertyOp47
 70
     1
102
RTVSPropertyOp48
 70
     1
102
RTVSPropertyOp49
 70
     1
102
RTVSPropertyOp50
 70
     1
102
RTVSPropertyOp51
 70
     0
102
RTVSPropertyOp52
 70
     0
102
RTVSPropertyOp53
 70
     1
102
RTVSPropertyOp54
 70
     1
102
RTVSPropertyOp55
 70
     1
102
RTVSPropertyOp56
 70
     1
102
RTVSPropertyOp57
 70
     1
102
RTVSPropertyOp58
 70
     1
102
RTVSPropertyOp59
 70
     1
102
RTVSPropertyOp60
 70
     1
102
RTVSPropertyOp61
 70
     1
102
RTVSPropertyOp62
 70
     1
  0
XRECORD
  5
1FC3
102
{ACAD_REACTORS
330
1FC2
102
}
330
1FC2
100
AcDbXrecord
280
     1
102
RTVSPost2010Prop28
280
     0
102
RTVSPost2010PropOp28
 70
     1
102
RTVSPost2010Prop29
280
     1
102
RTVSPost2010PropOp29
 70
     1
102
RTVSPost2010Prop30
280
     1
102
RTVSPost2010PropOp30
 70
     1
102
RTVSPost2010Prop31
280
     0
102
RTVSPost2010PropOp31
 70
     1
102
RTVSPost2010Prop32
280
     0
102
RTVSPost2010PropOp32
 70
     1
102
RTVSPost2010Prop33
280
     0
102
RTVSPost2010PropOp33
 70
     1
102
RTVSPost2010Prop34
280
     0
102
RTVSPost2010PropOp34
 70
     1
102
RTVSPost2010Prop35
280
     0
102
RTVSPost2010PropOp35
 70
     1
102
RTVSPost2010Prop36
280
     0
102
RTVSPost2010PropOp36
 70
     1
102
RTVSPost2010Prop37
 90
       50
102
RTVSPost2010PropOp37
 70
     0
102
RTVSPost2010Prop38
140
0.0
102
RTVSPost2010PropOp38
 70
     0
102
RTVSPost2010Prop39
140
1.0
102
RTVSPost2010PropOp39
 70
     0
102
RTVSPost2010Prop40
 90
        0
102
RTVSPost2010PropOp40
 70
     0
102
RTVSPost2010Prop41ColorIndex
 90
       18
102
RTVSPost2010Prop41ColorRGB
 90
        0
102
RTVSPost2010PropOp41
 70
     0
102
RTVSPost2010Prop42
 90
       50
102
RTVSPost2010PropOp42
 70
     0
102
RTVSPost2010Prop43
 90
        3
102
RTVSPost2010PropOp43
 70
     0
102
RTVSPost2010Prop44ColorIndex
 90
        5
102
RTVSPost2010Prop44ColorRGB
 90
      255
102
RTVSPost2010PropOp44
 70
     0
102
RTVSPost2010Prop45
280
     0
102
RTVSPost2010PropOp45
 70
     1
102
RTVSPost2010Prop46
 90
       50
102
RTVSPost2010PropOp46
 70
     0
102
RTVSPost2010Prop47
 90
       50
102
RTVSPost2010PropOp47
 70
     0
102
RTVSPost2010Prop48
 90
       50
102
RTVSPost2010PropOp48
 70
     0
102
RTVSPost2010Prop49
280
     0
102
RTVSPost2010PropOp49
 70
     1
102
RTVSPost2010Prop50
 90
       50
102
RTVSPost2010PropOp50
 70
     0
102
RTVSPost2010Prop51ColorIndex
 90
      256
102
RTVSPost2010Prop51ColorRGB
 90
-16777216
102
RTVSPost2010PropOp51
 70
     0
102
RTVSPost2010Prop52
140
1.0
102
RTVSPost2010PropOp52
 70
     0
102
RTVSPost2010Prop53
 90
        2
102
RTVSPost2010PropOp53
 70
     0
102
RTVSPost2010Prop54
  1
strokes_ogs.tif
102
RTVSPost2010PropOp54
 70
     0
102
RTVSPost2010Prop55
280
     0
102
RTVSPost2010PropOp55
 70
     1
102
RTVSPost2010Prop56
140
1.0
102
RTVSPost2010PropOp56
 70
     0
102
RTVSPost2010Prop57
140
1.0
102
RTVSPost2010PropOp57
 70
     0
102
RTVSPropertyOp0
 70
     0
102
RTVSPropertyOp1
 70
     0
102
RTVSPropertyOp2
 70
     0
102
RTVSPropertyOp3
 70
     0
102
RTVSPropertyOp4
 70
     0
102
RTVSPropertyOp5
 70
     0
102
RTVSPropertyOp6
 70
     0
102
RTVSPropertyOp7
 70
     0
102
RTVSPropertyOp8
 70
     0
102
RTVSPropertyOp9
 70
     0
102
RTVSPropertyOp10
 70
     0
102
RTVSPropertyOp11
 70
     0
102
RTVSPropertyOp12
 70
     0
102
RTVSPropertyOp13
 70
     0
102
RTVSPropertyOp14
 70
     2
102
RTVSPropertyOp15
 70
     0
102
RTVSPropertyOp16
 70
     0
102
RTVSPropertyOp17
 70
     0
102
RTVSPropertyOp18
 70
     0
102
RTVSPropertyOp19
 70
     0
102
RTVSPropertyOp20
 70
     0
102
RTVSPropertyOp21
 70
     0
102
RTVSPropertyOp22
 70
     0
102
RTVSPropertyOp23
 70
     0
102
RTVSPropertyOp24
 70
     0
102
RTVSPropertyOp25
 70
     0
102
RTVSPropertyOp26
 70
     0
102
RTVSPropertyOp27
 70
     0
102
RTVSPropertyOp28
 70
     1
102
RTVSPropertyOp29
 70
     1
102
RTVSPropertyOp30
 70
     1
102
RTVSPropertyOp31
 70
     1
102
RTVSPropertyOp32
 70
     1
102
RTVSPropertyOp33
 70
     1
102
RTVSPropertyOp34
 70
     1
102
RTVSPropertyOp35
 70
     1
102
RTVSPropertyOp36
 70
     1
102
RTVSPropertyOp37
 70
     0
102
RTVSPropertyOp38
 70
     0
102
RTVSPropertyOp39
 70
     0
102
RTVSPropertyOp40
 70
     0
102
RTVSPropertyOp41
 70
     0
102
RTVSPropertyOp42
 70
     0
102
RTVSPropertyOp43
 70
     0
102
RTVSPropertyOp44
 70
     0
102
RTVSPropertyOp45
 70
     1
102
RTVSPropertyOp46
 70
     0
102
RTVSPropertyOp47
 70
     0
102
RTVSPropertyOp48
 70
     0
102
RTVSPropertyOp49
 70
     1
102
RTVSPropertyOp50
 70
     0
102
RTVSPropertyOp51
 70
     0
102
RTVSPropertyOp52
 70
     0
102
RTVSPropertyOp53
 70
     0
102
RTVSPropertyOp54
 70
     0
102
RTVSPropertyOp55
 70
     1
102
RTVSPropertyOp56
 70
     0
102
RTVSPropertyOp57
 70
     0
102
RTVSPropertyOp58
 70
     0
102
RTVSPropertyOp59
 70
     0
102
RTVSPropertyOp60
 70
     0
102
RTVSPropertyOp61
 70
     0
102
RTVSPropertyOp62
 70
     0
  0
XRECORD
  5
1FB3
102
{ACAD_REACTORS
330
1FB2
102
}
330
1FB2
100
AcDbXrecord
280
     1
102
RTVSPost2010Prop28
280
     0
102
RTVSPost2010PropOp28
 70
     1
102
RTVSPost2010Prop29
280
     1
102
RTVSPost2010PropOp29
 70
     1
102
RTVSPost2010Prop30
280
     1
102
RTVSPost2010PropOp30
 70
     1
102
RTVSPost2010Prop31
280
     0
102
RTVSPost2010PropOp31
 70
     1
102
RTVSPost2010Prop32
280
     0
102
RTVSPost2010PropOp32
 70
     1
102
RTVSPost2010Prop33
280
     0
102
RTVSPost2010PropOp33
 70
     1
102
RTVSPost2010Prop34
280
     0
102
RTVSPost2010PropOp34
 70
     1
102
RTVSPost2010Prop35
280
     0
102
RTVSPost2010PropOp35
 70
     1
102
RTVSPost2010Prop36
280
     0
102
RTVSPost2010PropOp36
 70
     1
102
RTVSPost2010Prop37
 90
       50
102
RTVSPost2010PropOp37
 70
     1
102
RTVSPost2010Prop38
140
0.0
102
RTVSPost2010PropOp38
 70
     1
102
RTVSPost2010Prop39
140
1.0
102
RTVSPost2010PropOp39
 70
     1
102
RTVSPost2010Prop40
 90
        0
102
RTVSPost2010PropOp40
 70
     1
102
RTVSPost2010Prop41ColorIndex
 90
       18
102
RTVSPost2010Prop41ColorRGB
 90
        0
102
RTVSPost2010PropOp41
 70
     1
102
RTVSPost2010Prop42
 90
       50
102
RTVSPost2010PropOp42
 70
     1
102
RTVSPost2010Prop43
 90
        3
102
RTVSPost2010PropOp43
 70
     1
102
RTVSPost2010Prop44ColorIndex
 90
        5
102
RTVSPost2010Prop44ColorRGB
 90
      255
102
RTVSPost2010PropOp44
 70
     1
102
RTVSPost2010Prop45
280
     0
102
RTVSPost2010PropOp45
 70
     1
102
RTVSPost2010Prop46
 90
       50
102
RTVSPost2010PropOp46
 70
     1
102
RTVSPost2010Prop47
 90
       50
102
RTVSPost2010PropOp47
 70
     1
102
RTVSPost2010Prop48
 90
       50
102
RTVSPost2010PropOp48
 70
     1
102
RTVSPost2010Prop49
280
     0
102
RTVSPost2010PropOp49
 70
     1
102
RTVSPost2010Prop50
 90
       50
102
RTVSPost2010PropOp50
 70
     1
102
RTVSPost2010Prop51ColorIndex
 90
      256
102
RTVSPost2010Prop51ColorRGB
 90
-16777216
102
RTVSPost2010PropOp51
 70
     0
102
RTVSPost2010Prop52
140
1.0
102
RTVSPost2010PropOp52
 70
     0
102
RTVSPost2010Prop53
 90
        2
102
RTVSPost2010PropOp53
 70
     1
102
RTVSPost2010Prop54
  1
strokes_ogs.tif
102
RTVSPost2010PropOp54
 70
     1
102
RTVSPost2010Prop55
280
     0
102
RTVSPost2010PropOp55
 70
     1
102
RTVSPost2010Prop56
140
1.0
102
RTVSPost2010PropOp56
 70
     1
102
RTVSPost2010Prop57
140
1.0
102
RTVSPost2010PropOp57
 70
     1
102
RTVSPropertyOp0
 70
     1
102
RTVSPropertyOp1
 70
     1
102
RTVSPropertyOp2
 70
     1
102
RTVSPropertyOp3
 70
     1
102
RTVSPropertyOp4
 70
     1
102
RTVSPropertyOp5
 70
     1
102
RTVSPropertyOp6
 70
     1
102
RTVSPropertyOp7
 70
     1
102
RTVSPropertyOp8
 70
     1
102
RTVSPropertyOp9
 70
     1
102
RTVSPropertyOp10
 70
     1
102
RTVSPropertyOp11
 70
     1
102
RTVSPropertyOp12
 70
     1
102
RTVSPropertyOp13
 70
     1
102
RTVSPropertyOp14
 70
     1
102
RTVSPropertyOp15
 70
     1
102
RTVSPropertyOp16
 70
     1
102
RTVSPropertyOp17
 70
     1
102
RTVSPropertyOp18
 70
     1
102
RTVSPropertyOp19
 70
     1
102
RTVSPropertyOp20
 70
     1
102
RTVSPropertyOp21
 70
     1
102
RTVSPropertyOp22
 70
     1
102
RTVSPropertyOp23
 70
     1
102
RTVSPropertyOp24
 70
     1
102
RTVSPropertyOp25
 70
     1
102
RTVSPropertyOp26
 70
     1
102
RTVSPropertyOp27
 70
     1
102
RTVSPropertyOp28
 70
     1
102
RTVSPropertyOp29
 70
     1
102
RTVSPropertyOp30
 70
     1
102
RTVSPropertyOp31
 70
     1
102
RTVSPropertyOp32
 70
     1
102
RTVSPropertyOp33
 70
     1
102
RTVSPropertyOp34
 70
     1
102
RTVSPropertyOp35
 70
     1
102
RTVSPropertyOp36
 70
     1
102
RTVSPropertyOp37
 70
     1
102
RTVSPropertyOp38
 70
     1
102
RTVSPropertyOp39
 70
     1
102
RTVSPropertyOp40
 70
     1
102
RTVSPropertyOp41
 70
     1
102
RTVSPropertyOp42
 70
     1
102
RTVSPropertyOp43
 70
     1
102
RTVSPropertyOp44
 70
     1
102
RTVSPropertyOp45
 70
     1
102
RTVSPropertyOp46
 70
     1
102
RTVSPropertyOp47
 70
     1
102
RTVSPropertyOp48
 70
     1
102
RTVSPropertyOp49
 70
     1
102
RTVSPropertyOp50
 70
     1
102
RTVSPropertyOp51
 70
     0
102
RTVSPropertyOp52
 70
     0
102
RTVSPropertyOp53
 70
     1
102
RTVSPropertyOp54
 70
     1
102
RTVSPropertyOp55
 70
     1
102
RTVSPropertyOp56
 70
     1
102
RTVSPropertyOp57
 70
     1
102
RTVSPropertyOp58
 70
     1
102
RTVSPropertyOp59
 70
     1
102
RTVSPropertyOp60
 70
     1
102
RTVSPropertyOp61
 70
     1
102
RTVSPropertyOp62
 70
     1
  0
XRECORD
  5
1FC5
102
{ACAD_REACTORS
330
1FC4
102
}
330
1FC4
100
AcDbXrecord
280
     1
102
RTVSPost2010Prop28
280
     0
102
RTVSPost2010PropOp28
 70
     1
102
RTVSPost2010Prop29
280
     1
102
RTVSPost2010PropOp29
 70
     1
102
RTVSPost2010Prop30
280
     1
102
RTVSPost2010PropOp30
 70
     1
102
RTVSPost2010Prop31
280
     0
102
RTVSPost2010PropOp31
 70
     1
102
RTVSPost2010Prop32
280
     0
102
RTVSPost2010PropOp32
 70
     1
102
RTVSPost2010Prop33
280
     0
102
RTVSPost2010PropOp33
 70
     1
102
RTVSPost2010Prop34
280
     0
102
RTVSPost2010PropOp34
 70
     1
102
RTVSPost2010Prop35
280
     0
102
RTVSPost2010PropOp35
 70
     1
102
RTVSPost2010Prop36
280
     0
102
RTVSPost2010PropOp36
 70
     1
102
RTVSPost2010Prop37
 90
       50
102
RTVSPost2010PropOp37
 70
     0
102
RTVSPost2010Prop38
140
0.0
102
RTVSPost2010PropOp38
 70
     0
102
RTVSPost2010Prop39
140
1.0
102
RTVSPost2010PropOp39
 70
     0
102
RTVSPost2010Prop40
 90
        0
102
RTVSPost2010PropOp40
 70
     0
102
RTVSPost2010Prop41ColorIndex
 90
       18
102
RTVSPost2010Prop41ColorRGB
 90
        0
102
RTVSPost2010PropOp41
 70
     0
102
RTVSPost2010Prop42
 90
       50
102
RTVSPost2010PropOp42
 70
     0
102
RTVSPost2010Prop43
 90
        3
102
RTVSPost2010PropOp43
 70
     0
102
RTVSPost2010Prop44ColorIndex
 90
        5
102
RTVSPost2010Prop44ColorRGB
 90
      255
102
RTVSPost2010PropOp44
 70
     0
102
RTVSPost2010Prop45
280
     0
102
RTVSPost2010PropOp45
 70
     1
102
RTVSPost2010Prop46
 90
       50
102
RTVSPost2010PropOp46
 70
     0
102
RTVSPost2010Prop47
 90
       50
102
RTVSPost2010PropOp47
 70
     0
102
RTVSPost2010Prop48
 90
       50
102
RTVSPost2010PropOp48
 70
     0
102
RTVSPost2010Prop49
280
     0
102
RTVSPost2010PropOp49
 70
     1
102
RTVSPost2010Prop50
 90
       50
102
RTVSPost2010PropOp50
 70
     0
102
RTVSPost2010Prop51ColorIndex
 90
      256
102
RTVSPost2010Prop51ColorRGB
 90
-16777216
102
RTVSPost2010PropOp51
 70
     0
102
RTVSPost2010Prop52
140
1.0
102
RTVSPost2010PropOp52
 70
     0
102
RTVSPost2010Prop53
 90
        2
102
RTVSPost2010PropOp53
 70
     0
102
RTVSPost2010Prop54
  1
strokes_ogs.tif
102
RTVSPost2010PropOp54
 70
     0
102
RTVSPost2010Prop55
280
     0
102
RTVSPost2010PropOp55
 70
     1
102
RTVSPost2010Prop56
140
1.0
102
RTVSPost2010PropOp56
 70
     0
102
RTVSPost2010Prop57
140
1.0
102
RTVSPost2010PropOp57
 70
     0
102
RTVSPropertyOp0
 70
     0
102
RTVSPropertyOp1
 70
     0
102
RTVSPropertyOp2
 70
     0
102
RTVSPropertyOp3
 70
     0
102
RTVSPropertyOp4
 70
     0
102
RTVSPropertyOp5
 70
     0
102
RTVSPropertyOp6
 70
     0
102
RTVSPropertyOp7
 70
     0
102
RTVSPropertyOp8
 70
     0
102
RTVSPropertyOp9
 70
     0
102
RTVSPropertyOp10
 70
     0
102
RTVSPropertyOp11
 70
     0
102
RTVSPropertyOp12
 70
     0
102
RTVSPropertyOp13
 70
     0
102
RTVSPropertyOp14
 70
     2
102
RTVSPropertyOp15
 70
     0
102
RTVSPropertyOp16
 70
     0
102
RTVSPropertyOp17
 70
     0
102
RTVSPropertyOp18
 70
     0
102
RTVSPropertyOp19
 70
     0
102
RTVSPropertyOp20
 70
     0
102
RTVSPropertyOp21
 70
     0
102
RTVSPropertyOp22
 70
     0
102
RTVSPropertyOp23
 70
     0
102
RTVSPropertyOp24
 70
     0
102
RTVSPropertyOp25
 70
     0
102
RTVSPropertyOp26
 70
     0
102
RTVSPropertyOp27
 70
     0
102
RTVSPropertyOp28
 70
     1
102
RTVSPropertyOp29
 70
     1
102
RTVSPropertyOp30
 70
     1
102
RTVSPropertyOp31
 70
     1
102
RTVSPropertyOp32
 70
     1
102
RTVSPropertyOp33
 70
     1
102
RTVSPropertyOp34
 70
     1
102
RTVSPropertyOp35
 70
     1
102
RTVSPropertyOp36
 70
     1
102
RTVSPropertyOp37
 70
     0
102
RTVSPropertyOp38
 70
     0
102
RTVSPropertyOp39
 70
     0
102
RTVSPropertyOp40
 70
     0
102
RTVSPropertyOp41
 70
     0
102
RTVSPropertyOp42
 70
     0
102
RTVSPropertyOp43
 70
     0
102
RTVSPropertyOp44
 70
     0
102
RTVSPropertyOp45
 70
     1
102
RTVSPropertyOp46
 70
     0
102
RTVSPropertyOp47
 70
     0
102
RTVSPropertyOp48
 70
     0
102
RTVSPropertyOp49
 70
     1
102
RTVSPropertyOp50
 70
     0
102
RTVSPropertyOp51
 70
     0
102
RTVSPropertyOp52
 70
     0
102
RTVSPropertyOp53
 70
     0
102
RTVSPropertyOp54
 70
     0
102
RTVSPropertyOp55
 70
     1
102
RTVSPropertyOp56
 70
     0
102
RTVSPropertyOp57
 70
     0
102
RTVSPropertyOp58
 70
     0
102
RTVSPropertyOp59
 70
     0
102
RTVSPropertyOp60
 70
     0
102
RTVSPropertyOp61
 70
     0
102
RTVSPropertyOp62
 70
     0
  0
XRECORD
  5
1FAB
102
{ACAD_REACTORS
330
1FAA
102
}
330
1FAA
100
AcDbXrecord
280
     1
102
RTVSPost2010Prop28
280
     0
102
RTVSPost2010PropOp28
 70
     1
102
RTVSPost2010Prop29
280
     1
102
RTVSPost2010PropOp29
 70
     1
102
RTVSPost2010Prop30
280
     1
102
RTVSPost2010PropOp30
 70
     1
102
RTVSPost2010Prop31
280
     0
102
RTVSPost2010PropOp31
 70
     1
102
RTVSPost2010Prop32
280
     0
102
RTVSPost2010PropOp32
 70
     1
102
RTVSPost2010Prop33
280
     0
102
RTVSPost2010PropOp33
 70
     1
102
RTVSPost2010Prop34
280
     0
102
RTVSPost2010PropOp34
 70
     1
102
RTVSPost2010Prop35
280
     0
102
RTVSPost2010PropOp35
 70
     1
102
RTVSPost2010Prop36
280
     0
102
RTVSPost2010PropOp36
 70
     1
102
RTVSPost2010Prop37
 90
       50
102
RTVSPost2010PropOp37
 70
     1
102
RTVSPost2010Prop38
140
0.0
102
RTVSPost2010PropOp38
 70
     1
102
RTVSPost2010Prop39
140
1.0
102
RTVSPost2010PropOp39
 70
     1
102
RTVSPost2010Prop40
 90
        0
102
RTVSPost2010PropOp40
 70
     1
102
RTVSPost2010Prop41ColorIndex
 90
       18
102
RTVSPost2010Prop41ColorRGB
 90
        0
102
RTVSPost2010PropOp41
 70
     1
102
RTVSPost2010Prop42
 90
       50
102
RTVSPost2010PropOp42
 70
     1
102
RTVSPost2010Prop43
 90
        3
102
RTVSPost2010PropOp43
 70
     1
102
RTVSPost2010Prop44ColorIndex
 90
        5
102
RTVSPost2010Prop44ColorRGB
 90
      255
102
RTVSPost2010PropOp44
 70
     1
102
RTVSPost2010Prop45
280
     0
102
RTVSPost2010PropOp45
 70
     1
102
RTVSPost2010Prop46
 90
       50
102
RTVSPost2010PropOp46
 70
     1
102
RTVSPost2010Prop47
 90
       50
102
RTVSPost2010PropOp47
 70
     1
102
RTVSPost2010Prop48
 90
       50
102
RTVSPost2010PropOp48
 70
     1
102
RTVSPost2010Prop49
280
     0
102
RTVSPost2010PropOp49
 70
     1
102
RTVSPost2010Prop50
 90
       50
102
RTVSPost2010PropOp50
 70
     1
102
RTVSPost2010Prop51ColorIndex
 90
      256
102
RTVSPost2010Prop51ColorRGB
 90
-16777216
102
RTVSPost2010PropOp51
 70
     0
102
RTVSPost2010Prop52
140
1.0
102
RTVSPost2010PropOp52
 70
     0
102
RTVSPost2010Prop53
 90
        2
102
RTVSPost2010PropOp53
 70
     1
102
RTVSPost2010Prop54
  1
strokes_ogs.tif
102
RTVSPost2010PropOp54
 70
     1
102
RTVSPost2010Prop55
280
     0
102
RTVSPost2010PropOp55
 70
     1
102
RTVSPost2010Prop56
140
1.0
102
RTVSPost2010PropOp56
 70
     1
102
RTVSPost2010Prop57
140
1.0
102
RTVSPost2010PropOp57
 70
     1
102
RTVSPropertyOp0
 70
     1
102
RTVSPropertyOp1
 70
     1
102
RTVSPropertyOp2
 70
     1
102
RTVSPropertyOp3
 70
     1
102
RTVSPropertyOp4
 70
     1
102
RTVSPropertyOp5
 70
     1
102
RTVSPropertyOp6
 70
     1
102
RTVSPropertyOp7
 70
     1
102
RTVSPropertyOp8
 70
     1
102
RTVSPropertyOp9
 70
     1
102
RTVSPropertyOp10
 70
     1
102
RTVSPropertyOp11
 70
     1
102
RTVSPropertyOp12
 70
     1
102
RTVSPropertyOp13
 70
     1
102
RTVSPropertyOp14
 70
     1
102
RTVSPropertyOp15
 70
     1
102
RTVSPropertyOp16
 70
     1
102
RTVSPropertyOp17
 70
     1
102
RTVSPropertyOp18
 70
     1
102
RTVSPropertyOp19
 70
     1
102
RTVSPropertyOp20
 70
     1
102
RTVSPropertyOp21
 70
     1
102
RTVSPropertyOp22
 70
     1
102
RTVSPropertyOp23
 70
     1
102
RTVSPropertyOp24
 70
     1
102
RTVSPropertyOp25
 70
     1
102
RTVSPropertyOp26
 70
     1
102
RTVSPropertyOp27
 70
     1
102
RTVSPropertyOp28
 70
     1
102
RTVSPropertyOp29
 70
     1
102
RTVSPropertyOp30
 70
     1
102
RTVSPropertyOp31
 70
     1
102
RTVSPropertyOp32
 70
     1
102
RTVSPropertyOp33
 70
     1
102
RTVSPropertyOp34
 70
     1
102
RTVSPropertyOp35
 70
     1
102
RTVSPropertyOp36
 70
     1
102
RTVSPropertyOp37
 70
     1
102
RTVSPropertyOp38
 70
     1
102
RTVSPropertyOp39
 70
     1
102
RTVSPropertyOp40
 70
     1
102
RTVSPropertyOp41
 70
     1
102
RTVSPropertyOp42
 70
     1
102
RTVSPropertyOp43
 70
     1
102
RTVSPropertyOp44
 70
     1
102
RTVSPropertyOp45
 70
     1
102
RTVSPropertyOp46
 70
     1
102
RTVSPropertyOp47
 70
     1
102
RTVSPropertyOp48
 70
     1
102
RTVSPropertyOp49
 70
     1
102
RTVSPropertyOp50
 70
     1
102
RTVSPropertyOp51
 70
     0
102
RTVSPropertyOp52
 70
     0
102
RTVSPropertyOp53
 70
     1
102
RTVSPropertyOp54
 70
     1
102
RTVSPropertyOp55
 70
     1
102
RTVSPropertyOp56
 70
     1
102
RTVSPropertyOp57
 70
     1
102
RTVSPropertyOp58
 70
     1
102
RTVSPropertyOp59
 70
     1
102
RTVSPropertyOp60
 70
     1
102
RTVSPropertyOp61
 70
     1
102
RTVSPropertyOp62
 70
     1
  0
XRECORD
  5
1FC1
102
{ACAD_REACTORS
330
1FC0
102
}
330
1FC0
100
AcDbXrecord
280
     1
102
RTVSPost2010Prop28
280
     0
102
RTVSPost2010PropOp28
 70
     1
102
RTVSPost2010Prop29
280
     1
102
RTVSPost2010PropOp29
 70
     1
102
RTVSPost2010Prop30
280
     1
102
RTVSPost2010PropOp30
 70
     1
102
RTVSPost2010Prop31
280
     0
102
RTVSPost2010PropOp31
 70
     1
102
RTVSPost2010Prop32
280
     0
102
RTVSPost2010PropOp32
 70
     1
102
RTVSPost2010Prop33
280
     0
102
RTVSPost2010PropOp33
 70
     1
102
RTVSPost2010Prop34
280
     0
102
RTVSPost2010PropOp34
 70
     1
102
RTVSPost2010Prop35
280
     0
102
RTVSPost2010PropOp35
 70
     1
102
RTVSPost2010Prop36
280
     0
102
RTVSPost2010PropOp36
 70
     1
102
RTVSPost2010Prop37
 90
       50
102
RTVSPost2010PropOp37
 70
     1
102
RTVSPost2010Prop38
140
0.0
102
RTVSPost2010PropOp38
 70
     1
102
RTVSPost2010Prop39
140
1.0
102
RTVSPost2010PropOp39
 70
     1
102
RTVSPost2010Prop40
 90
        0
102
RTVSPost2010PropOp40
 70
     1
102
RTVSPost2010Prop41ColorIndex
 90
       18
102
RTVSPost2010Prop41ColorRGB
 90
        0
102
RTVSPost2010PropOp41
 70
     1
102
RTVSPost2010Prop42
 90
       50
102
RTVSPost2010PropOp42
 70
     1
102
RTVSPost2010Prop43
 90
        3
102
RTVSPost2010PropOp43
 70
     1
102
RTVSPost2010Prop44ColorIndex
 90
        5
102
RTVSPost2010Prop44ColorRGB
 90
      255
102
RTVSPost2010PropOp44
 70
     1
102
RTVSPost2010Prop45
280
     0
102
RTVSPost2010PropOp45
 70
     1
102
RTVSPost2010Prop46
 90
       50
102
RTVSPost2010PropOp46
 70
     1
102
RTVSPost2010Prop47
 90
       50
102
RTVSPost2010PropOp47
 70
     1
102
RTVSPost2010Prop48
 90
       50
102
RTVSPost2010PropOp48
 70
     1
102
RTVSPost2010Prop49
280
     0
102
RTVSPost2010PropOp49
 70
     1
102
RTVSPost2010Prop50
 90
       50
102
RTVSPost2010PropOp50
 70
     1
102
RTVSPost2010Prop51ColorIndex
 90
      256
102
RTVSPost2010Prop51ColorRGB
 90
-16777216
102
RTVSPost2010PropOp51
 70
     0
102
RTVSPost2010Prop52
140
1.0
102
RTVSPost2010PropOp52
 70
     0
102
RTVSPost2010Prop53
 90
        2
102
RTVSPost2010PropOp53
 70
     1
102
RTVSPost2010Prop54
  1
strokes_ogs.tif
102
RTVSPost2010PropOp54
 70
     1
102
RTVSPost2010Prop55
280
     0
102
RTVSPost2010PropOp55
 70
     1
102
RTVSPost2010Prop56
140
1.0
102
RTVSPost2010PropOp56
 70
     1
102
RTVSPost2010Prop57
140
1.0
102
RTVSPost2010PropOp57
 70
     1
102
RTVSPropertyOp0
 70
     1
102
RTVSPropertyOp1
 70
     1
102
RTVSPropertyOp2
 70
     1
102
RTVSPropertyOp3
 70
     1
102
RTVSPropertyOp4
 70
     1
102
RTVSPropertyOp5
 70
     1
102
RTVSPropertyOp6
 70
     1
102
RTVSPropertyOp7
 70
     1
102
RTVSPropertyOp8
 70
     1
102
RTVSPropertyOp9
 70
     1
102
RTVSPropertyOp10
 70
     1
102
RTVSPropertyOp11
 70
     1
102
RTVSPropertyOp12
 70
     1
102
RTVSPropertyOp13
 70
     1
102
RTVSPropertyOp14
 70
     1
102
RTVSPropertyOp15
 70
     1
102
RTVSPropertyOp16
 70
     1
102
RTVSPropertyOp17
 70
     1
102
RTVSPropertyOp18
 70
     1
102
RTVSPropertyOp19
 70
     1
102
RTVSPropertyOp20
 70
     1
102
RTVSPropertyOp21
 70
     1
102
RTVSPropertyOp22
 70
     1
102
RTVSPropertyOp23
 70
     1
102
RTVSPropertyOp24
 70
     1
102
RTVSPropertyOp25
 70
     1
102
RTVSPropertyOp26
 70
     1
102
RTVSPropertyOp27
 70
     1
102
RTVSPropertyOp28
 70
     1
102
RTVSPropertyOp29
 70
     1
102
RTVSPropertyOp30
 70
     1
102
RTVSPropertyOp31
 70
     1
102
RTVSPropertyOp32
 70
     1
102
RTVSPropertyOp33
 70
     1
102
RTVSPropertyOp34
 70
     1
102
RTVSPropertyOp35
 70
     1
102
RTVSPropertyOp36
 70
     1
102
RTVSPropertyOp37
 70
     1
102
RTVSPropertyOp38
 70
     1
102
RTVSPropertyOp39
 70
     1
102
RTVSPropertyOp40
 70
     1
102
RTVSPropertyOp41
 70
     1
102
RTVSPropertyOp42
 70
     1
102
RTVSPropertyOp43
 70
     1
102
RTVSPropertyOp44
 70
     1
102
RTVSPropertyOp45
 70
     1
102
RTVSPropertyOp46
 70
     1
102
RTVSPropertyOp47
 70
     1
102
RTVSPropertyOp48
 70
     1
102
RTVSPropertyOp49
 70
     1
102
RTVSPropertyOp50
 70
     1
102
RTVSPropertyOp51
 70
     0
102
RTVSPropertyOp52
 70
     0
102
RTVSPropertyOp53
 70
     1
102
RTVSPropertyOp54
 70
     1
102
RTVSPropertyOp55
 70
     1
102
RTVSPropertyOp56
 70
     1
102
RTVSPropertyOp57
 70
     1
102
RTVSPropertyOp58
 70
     1
102
RTVSPropertyOp59
 70
     1
102
RTVSPropertyOp60
 70
     1
102
RTVSPropertyOp61
 70
     1
102
RTVSPropertyOp62
 70
     1
  0
XRECORD
  5
1FBF
102
{ACAD_REACTORS
330
1FBE
102
}
330
1FBE
100
AcDbXrecord
280
     1
102
RTVSPost2010Prop28
280
     0
102
RTVSPost2010PropOp28
 70
     1
102
RTVSPost2010Prop29
280
     1
102
RTVSPost2010PropOp29
 70
     1
102
RTVSPost2010Prop30
280
     1
102
RTVSPost2010PropOp30
 70
     1
102
RTVSPost2010Prop31
280
     0
102
RTVSPost2010PropOp31
 70
     1
102
RTVSPost2010Prop32
280
     0
102
RTVSPost2010PropOp32
 70
     1
102
RTVSPost2010Prop33
280
     0
102
RTVSPost2010PropOp33
 70
     1
102
RTVSPost2010Prop34
280
     0
102
RTVSPost2010PropOp34
 70
     1
102
RTVSPost2010Prop35
280
     0
102
RTVSPost2010PropOp35
 70
     1
102
RTVSPost2010Prop36
280
     0
102
RTVSPost2010PropOp36
 70
     1
102
RTVSPost2010Prop37
 90
       50
102
RTVSPost2010PropOp37
 70
     1
102
RTVSPost2010Prop38
140
0.0
102
RTVSPost2010PropOp38
 70
     1
102
RTVSPost2010Prop39
140
1.0
102
RTVSPost2010PropOp39
 70
     1
102
RTVSPost2010Prop40
 90
        0
102
RTVSPost2010PropOp40
 70
     1
102
RTVSPost2010Prop41ColorIndex
 90
       18
102
RTVSPost2010Prop41ColorRGB
 90
        0
102
RTVSPost2010PropOp41
 70
     1
102
RTVSPost2010Prop42
 90
       50
102
RTVSPost2010PropOp42
 70
     1
102
RTVSPost2010Prop43
 90
        3
102
RTVSPost2010PropOp43
 70
     1
102
RTVSPost2010Prop44ColorIndex
 90
        5
102
RTVSPost2010Prop44ColorRGB
 90
      255
102
RTVSPost2010PropOp44
 70
     1
102
RTVSPost2010Prop45
280
     0
102
RTVSPost2010PropOp45
 70
     1
102
RTVSPost2010Prop46
 90
       50
102
RTVSPost2010PropOp46
 70
     1
102
RTVSPost2010Prop47
 90
       50
102
RTVSPost2010PropOp47
 70
     1
102
RTVSPost2010Prop48
 90
       50
102
RTVSPost2010PropOp48
 70
     1
102
RTVSPost2010Prop49
280
     0
102
RTVSPost2010PropOp49
 70
     1
102
RTVSPost2010Prop50
 90
       50
102
RTVSPost2010PropOp50
 70
     1
102
RTVSPost2010Prop51ColorIndex
 90
      256
102
RTVSPost2010Prop51ColorRGB
 90
-16777216
102
RTVSPost2010PropOp51
 70
     0
102
RTVSPost2010Prop52
140
1.0
102
RTVSPost2010PropOp52
 70
     0
102
RTVSPost2010Prop53
 90
        2
102
RTVSPost2010PropOp53
 70
     1
102
RTVSPost2010Prop54
  1
strokes_ogs.tif
102
RTVSPost2010PropOp54
 70
     1
102
RTVSPost2010Prop55
280
     0
102
RTVSPost2010PropOp55
 70
     1
102
RTVSPost2010Prop56
140
1.0
102
RTVSPost2010PropOp56
 70
     1
102
RTVSPost2010Prop57
140
1.0
102
RTVSPost2010PropOp57
 70
     1
102
RTVSPropertyOp0
 70
     1
102
RTVSPropertyOp1
 70
     1
102
RTVSPropertyOp2
 70
     1
102
RTVSPropertyOp3
 70
     1
102
RTVSPropertyOp4
 70
     1
102
RTVSPropertyOp5
 70
     1
102
RTVSPropertyOp6
 70
     1
102
RTVSPropertyOp7
 70
     1
102
RTVSPropertyOp8
 70
     1
102
RTVSPropertyOp9
 70
     1
102
RTVSPropertyOp10
 70
     1
102
RTVSPropertyOp11
 70
     1
102
RTVSPropertyOp12
 70
     1
102
RTVSPropertyOp13
 70
     1
102
RTVSPropertyOp14
 70
     1
102
RTVSPropertyOp15
 70
     1
102
RTVSPropertyOp16
 70
     1
102
RTVSPropertyOp17
 70
     1
102
RTVSPropertyOp18
 70
     1
102
RTVSPropertyOp19
 70
     1
102
RTVSPropertyOp20
 70
     1
102
RTVSPropertyOp21
 70
     1
102
RTVSPropertyOp22
 70
     1
102
RTVSPropertyOp23
 70
     1
102
RTVSPropertyOp24
 70
     1
102
RTVSPropertyOp25
 70
     1
102
RTVSPropertyOp26
 70
     1
102
RTVSPropertyOp27
 70
     1
102
RTVSPropertyOp28
 70
     1
102
RTVSPropertyOp29
 70
     1
102
RTVSPropertyOp30
 70
     1
102
RTVSPropertyOp31
 70
     1
102
RTVSPropertyOp32
 70
     1
102
RTVSPropertyOp33
 70
     1
102
RTVSPropertyOp34
 70
     1
102
RTVSPropertyOp35
 70
     1
102
RTVSPropertyOp36
 70
     1
102
RTVSPropertyOp37
 70
     1
102
RTVSPropertyOp38
 70
     1
102
RTVSPropertyOp39
 70
     1
102
RTVSPropertyOp40
 70
     1
102
RTVSPropertyOp41
 70
     1
102
RTVSPropertyOp42
 70
     1
102
RTVSPropertyOp43
 70
     1
102
RTVSPropertyOp44
 70
     1
102
RTVSPropertyOp45
 70
     1
102
RTVSPropertyOp46
 70
     1
102
RTVSPropertyOp47
 70
     1
102
RTVSPropertyOp48
 70
     1
102
RTVSPropertyOp49
 70
     1
102
RTVSPropertyOp50
 70
     1
102
RTVSPropertyOp51
 70
     0
102
RTVSPropertyOp52
 70
     0
102
RTVSPropertyOp53
 70
     1
102
RTVSPropertyOp54
 70
     1
102
RTVSPropertyOp55
 70
     1
102
RTVSPropertyOp56
 70
     1
102
RTVSPropertyOp57
 70
     1
102
RTVSPropertyOp58
 70
     1
102
RTVSPropertyOp59
 70
     1
102
RTVSPropertyOp60
 70
     1
102
RTVSPropertyOp61
 70
     1
102
RTVSPropertyOp62
 70
     1
  0
XRECORD
  5
1FB9
102
{ACAD_REACTORS
330
1FB8
102
}
330
1FB8
100
AcDbXrecord
280
     1
102
RTVSPost2010Prop28
280
     0
102
RTVSPost2010PropOp28
 70
     1
102
RTVSPost2010Prop29
280
     1
102
RTVSPost2010PropOp29
 70
     1
102
RTVSPost2010Prop30
280
     1
102
RTVSPost2010PropOp30
 70
     1
102
RTVSPost2010Prop31
280
     0
102
RTVSPost2010PropOp31
 70
     1
102
RTVSPost2010Prop32
280
     0
102
RTVSPost2010PropOp32
 70
     1
102
RTVSPost2010Prop33
280
     0
102
RTVSPost2010PropOp33
 70
     1
102
RTVSPost2010Prop34
280
     0
102
RTVSPost2010PropOp34
 70
     1
102
RTVSPost2010Prop35
280
     0
102
RTVSPost2010PropOp35
 70
     1
102
RTVSPost2010Prop36
280
     0
102
RTVSPost2010PropOp36
 70
     1
102
RTVSPost2010Prop37
 90
       50
102
RTVSPost2010PropOp37
 70
     1
102
RTVSPost2010Prop38
140
0.0
102
RTVSPost2010PropOp38
 70
     1
102
RTVSPost2010Prop39
140
1.0
102
RTVSPost2010PropOp39
 70
     1
102
RTVSPost2010Prop40
 90
        0
102
RTVSPost2010PropOp40
 70
     1
102
RTVSPost2010Prop41ColorIndex
 90
       18
102
RTVSPost2010Prop41ColorRGB
 90
        0
102
RTVSPost2010PropOp41
 70
     1
102
RTVSPost2010Prop42
 90
       50
102
RTVSPost2010PropOp42
 70
     1
102
RTVSPost2010Prop43
 90
        3
102
RTVSPost2010PropOp43
 70
     1
102
RTVSPost2010Prop44ColorIndex
 90
        5
102
RTVSPost2010Prop44ColorRGB
 90
      255
102
RTVSPost2010PropOp44
 70
     1
102
RTVSPost2010Prop45
280
     0
102
RTVSPost2010PropOp45
 70
     1
102
RTVSPost2010Prop46
 90
       50
102
RTVSPost2010PropOp46
 70
     1
102
RTVSPost2010Prop47
 90
       50
102
RTVSPost2010PropOp47
 70
     1
102
RTVSPost2010Prop48
 90
       50
102
RTVSPost2010PropOp48
 70
     1
102
RTVSPost2010Prop49
280
     0
102
RTVSPost2010PropOp49
 70
     1
102
RTVSPost2010Prop50
 90
       50
102
RTVSPost2010PropOp50
 70
     1
102
RTVSPost2010Prop51ColorIndex
 90
      256
102
RTVSPost2010Prop51ColorRGB
 90
-16777216
102
RTVSPost2010PropOp51
 70
     0
102
RTVSPost2010Prop52
140
1.0
102
RTVSPost2010PropOp52
 70
     0
102
RTVSPost2010Prop53
 90
        2
102
RTVSPost2010PropOp53
 70
     1
102
RTVSPost2010Prop54
  1
strokes_ogs.tif
102
RTVSPost2010PropOp54
 70
     1
102
RTVSPost2010Prop55
280
     0
102
RTVSPost2010PropOp55
 70
     1
102
RTVSPost2010Prop56
140
1.0
102
RTVSPost2010PropOp56
 70
     1
102
RTVSPost2010Prop57
140
1.0
102
RTVSPost2010PropOp57
 70
     1
102
RTVSPropertyOp0
 70
     1
102
RTVSPropertyOp1
 70
     1
102
RTVSPropertyOp2
 70
     1
102
RTVSPropertyOp3
 70
     1
102
RTVSPropertyOp4
 70
     1
102
RTVSPropertyOp5
 70
     1
102
RTVSPropertyOp6
 70
     1
102
RTVSPropertyOp7
 70
     1
102
RTVSPropertyOp8
 70
     1
102
RTVSPropertyOp9
 70
     1
102
RTVSPropertyOp10
 70
     1
102
RTVSPropertyOp11
 70
     1
102
RTVSPropertyOp12
 70
     1
102
RTVSPropertyOp13
 70
     1
102
RTVSPropertyOp14
 70
     1
102
RTVSPropertyOp15
 70
     1
102
RTVSPropertyOp16
 70
     1
102
RTVSPropertyOp17
 70
     1
102
RTVSPropertyOp18
 70
     1
102
RTVSPropertyOp19
 70
     1
102
RTVSPropertyOp20
 70
     1
102
RTVSPropertyOp21
 70
     1
102
RTVSPropertyOp22
 70
     1
102
RTVSPropertyOp23
 70
     1
102
RTVSPropertyOp24
 70
     1
102
RTVSPropertyOp25
 70
     1
102
RTVSPropertyOp26
 70
     1
102
RTVSPropertyOp27
 70
     1
102
RTVSPropertyOp28
 70
     1
102
RTVSPropertyOp29
 70
     1
102
RTVSPropertyOp30
 70
     1
102
RTVSPropertyOp31
 70
     1
102
RTVSPropertyOp32
 70
     1
102
RTVSPropertyOp33
 70
     1
102
RTVSPropertyOp34
 70
     1
102
RTVSPropertyOp35
 70
     1
102
RTVSPropertyOp36
 70
     1
102
RTVSPropertyOp37
 70
     1
102
RTVSPropertyOp38
 70
     1
102
RTVSPropertyOp39
 70
     1
102
RTVSPropertyOp40
 70
     1
102
RTVSPropertyOp41
 70
     1
102
RTVSPropertyOp42
 70
     1
102
RTVSPropertyOp43
 70
     1
102
RTVSPropertyOp44
 70
     1
102
RTVSPropertyOp45
 70
     1
102
RTVSPropertyOp46
 70
     1
102
RTVSPropertyOp47
 70
     1
102
RTVSPropertyOp48
 70
     1
102
RTVSPropertyOp49
 70
     1
102
RTVSPropertyOp50
 70
     1
102
RTVSPropertyOp51
 70
     0
102
RTVSPropertyOp52
 70
     0
102
RTVSPropertyOp53
 70
     1
102
RTVSPropertyOp54
 70
     1
102
RTVSPropertyOp55
 70
     1
102
RTVSPropertyOp56
 70
     1
102
RTVSPropertyOp57
 70
     1
102
RTVSPropertyOp58
 70
     1
102
RTVSPropertyOp59
 70
     1
102
RTVSPropertyOp60
 70
     1
102
RTVSPropertyOp61
 70
     1
102
RTVSPropertyOp62
 70
     1
  0
XRECORD
  5
1FBB
102
{ACAD_REACTORS
330
1FBA
102
}
330
1FBA
100
AcDbXrecord
280
     1
102
RTVSPost2010Prop28
280
     0
102
RTVSPost2010PropOp28
 70
     1
102
RTVSPost2010Prop29
280
     1
102
RTVSPost2010PropOp29
 70
     1
102
RTVSPost2010Prop30
280
     1
102
RTVSPost2010PropOp30
 70
     1
102
RTVSPost2010Prop31
280
     0
102
RTVSPost2010PropOp31
 70
     1
102
RTVSPost2010Prop32
280
     0
102
RTVSPost2010PropOp32
 70
     1
102
RTVSPost2010Prop33
280
     0
102
RTVSPost2010PropOp33
 70
     1
102
RTVSPost2010Prop34
280
     0
102
RTVSPost2010PropOp34
 70
     1
102
RTVSPost2010Prop35
280
     0
102
RTVSPost2010PropOp35
 70
     1
102
RTVSPost2010Prop36
280
     0
102
RTVSPost2010PropOp36
 70
     1
102
RTVSPost2010Prop37
 90
       50
102
RTVSPost2010PropOp37
 70
     1
102
RTVSPost2010Prop38
140
0.0
102
RTVSPost2010PropOp38
 70
     1
102
RTVSPost2010Prop39
140
1.0
102
RTVSPost2010PropOp39
 70
     1
102
RTVSPost2010Prop40
 90
        0
102
RTVSPost2010PropOp40
 70
     1
102
RTVSPost2010Prop41ColorIndex
 90
       18
102
RTVSPost2010Prop41ColorRGB
 90
        0
102
RTVSPost2010PropOp41
 70
     1
102
RTVSPost2010Prop42
 90
       50
102
RTVSPost2010PropOp42
 70
     1
102
RTVSPost2010Prop43
 90
        3
102
RTVSPost2010PropOp43
 70
     1
102
RTVSPost2010Prop44ColorIndex
 90
        5
102
RTVSPost2010Prop44ColorRGB
 90
      255
102
RTVSPost2010PropOp44
 70
     1
102
RTVSPost2010Prop45
280
     0
102
RTVSPost2010PropOp45
 70
     1
102
RTVSPost2010Prop46
 90
       50
102
RTVSPost2010PropOp46
 70
     1
102
RTVSPost2010Prop47
 90
       50
102
RTVSPost2010PropOp47
 70
     1
102
RTVSPost2010Prop48
 90
       50
102
RTVSPost2010PropOp48
 70
     1
102
RTVSPost2010Prop49
280
     0
102
RTVSPost2010PropOp49
 70
     1
102
RTVSPost2010Prop50
 90
       50
102
RTVSPost2010PropOp50
 70
     1
102
RTVSPost2010Prop51ColorIndex
 90
      256
102
RTVSPost2010Prop51ColorRGB
 90
-16777216
102
RTVSPost2010PropOp51
 70
     0
102
RTVSPost2010Prop52
140
1.0
102
RTVSPost2010PropOp52
 70
     0
102
RTVSPost2010Prop53
 90
        2
102
RTVSPost2010PropOp53
 70
     1
102
RTVSPost2010Prop54
  1
strokes_ogs.tif
102
RTVSPost2010PropOp54
 70
     1
102
RTVSPost2010Prop55
280
     0
102
RTVSPost2010PropOp55
 70
     1
102
RTVSPost2010Prop56
140
1.0
102
RTVSPost2010PropOp56
 70
     1
102
RTVSPost2010Prop57
140
1.0
102
RTVSPost2010PropOp57
 70
     1
102
RTVSPropertyOp0
 70
     1
102
RTVSPropertyOp1
 70
     1
102
RTVSPropertyOp2
 70
     1
102
RTVSPropertyOp3
 70
     1
102
RTVSPropertyOp4
 70
     1
102
RTVSPropertyOp5
 70
     1
102
RTVSPropertyOp6
 70
     1
102
RTVSPropertyOp7
 70
     1
102
RTVSPropertyOp8
 70
     1
102
RTVSPropertyOp9
 70
     1
102
RTVSPropertyOp10
 70
     1
102
RTVSPropertyOp11
 70
     1
102
RTVSPropertyOp12
 70
     1
102
RTVSPropertyOp13
 70
     1
102
RTVSPropertyOp14
 70
     1
102
RTVSPropertyOp15
 70
     1
102
RTVSPropertyOp16
 70
     1
102
RTVSPropertyOp17
 70
     1
102
RTVSPropertyOp18
 70
     1
102
RTVSPropertyOp19
 70
     1
102
RTVSPropertyOp20
 70
     1
102
RTVSPropertyOp21
 70
     1
102
RTVSPropertyOp22
 70
     1
102
RTVSPropertyOp23
 70
     1
102
RTVSPropertyOp24
 70
     1
102
RTVSPropertyOp25
 70
     1
102
RTVSPropertyOp26
 70
     1
102
RTVSPropertyOp27
 70
     1
102
RTVSPropertyOp28
 70
     1
102
RTVSPropertyOp29
 70
     1
102
RTVSPropertyOp30
 70
     1
102
RTVSPropertyOp31
 70
     1
102
RTVSPropertyOp32
 70
     1
102
RTVSPropertyOp33
 70
     1
102
RTVSPropertyOp34
 70
     1
102
RTVSPropertyOp35
 70
     1
102
RTVSPropertyOp36
 70
     1
102
RTVSPropertyOp37
 70
     1
102
RTVSPropertyOp38
 70
     1
102
RTVSPropertyOp39
 70
     1
102
RTVSPropertyOp40
 70
     1
102
RTVSPropertyOp41
 70
     1
102
RTVSPropertyOp42
 70
     1
102
RTVSPropertyOp43
 70
     1
102
RTVSPropertyOp44
 70
     1
102
RTVSPropertyOp45
 70
     1
102
RTVSPropertyOp46
 70
     1
102
RTVSPropertyOp47
 70
     1
102
RTVSPropertyOp48
 70
     1
102
RTVSPropertyOp49
 70
     1
102
RTVSPropertyOp50
 70
     1
102
RTVSPropertyOp51
 70
     0
102
RTVSPropertyOp52
 70
     0
102
RTVSPropertyOp53
 70
     1
102
RTVSPropertyOp54
 70
     1
102
RTVSPropertyOp55
 70
     1
102
RTVSPropertyOp56
 70
     1
102
RTVSPropertyOp57
 70
     1
102
RTVSPropertyOp58
 70
     1
102
RTVSPropertyOp59
 70
     1
102
RTVSPropertyOp60
 70
     1
102
RTVSPropertyOp61
 70
     1
102
RTVSPropertyOp62
 70
     1
  0
XRECORD
  5
1FB1
102
{ACAD_REACTORS
330
1FB0
102
}
330
1FB0
100
AcDbXrecord
280
     1
102
RTVSPost2010Prop28
280
     0
102
RTVSPost2010PropOp28
 70
     1
102
RTVSPost2010Prop29
280
     1
102
RTVSPost2010PropOp29
 70
     1
102
RTVSPost2010Prop30
280
     1
102
RTVSPost2010PropOp30
 70
     1
102
RTVSPost2010Prop31
280
     0
102
RTVSPost2010PropOp31
 70
     1
102
RTVSPost2010Prop32
280
     0
102
RTVSPost2010PropOp32
 70
     1
102
RTVSPost2010Prop33
280
     0
102
RTVSPost2010PropOp33
 70
     1
102
RTVSPost2010Prop34
280
     0
102
RTVSPost2010PropOp34
 70
     1
102
RTVSPost2010Prop35
280
     0
102
RTVSPost2010PropOp35
 70
     1
102
RTVSPost2010Prop36
280
     0
102
RTVSPost2010PropOp36
 70
     1
102
RTVSPost2010Prop37
 90
       50
102
RTVSPost2010PropOp37
 70
     1
102
RTVSPost2010Prop38
140
0.0
102
RTVSPost2010PropOp38
 70
     1
102
RTVSPost2010Prop39
140
1.0
102
RTVSPost2010PropOp39
 70
     1
102
RTVSPost2010Prop40
 90
        0
102
RTVSPost2010PropOp40
 70
     1
102
RTVSPost2010Prop41ColorIndex
 90
       18
102
RTVSPost2010Prop41ColorRGB
 90
        0
102
RTVSPost2010PropOp41
 70
     1
102
RTVSPost2010Prop42
 90
       50
102
RTVSPost2010PropOp42
 70
     1
102
RTVSPost2010Prop43
 90
        3
102
RTVSPost2010PropOp43
 70
     1
102
RTVSPost2010Prop44ColorIndex
 90
        5
102
RTVSPost2010Prop44ColorRGB
 90
      255
102
RTVSPost2010PropOp44
 70
     1
102
RTVSPost2010Prop45
280
     0
102
RTVSPost2010PropOp45
 70
     1
102
RTVSPost2010Prop46
 90
       50
102
RTVSPost2010PropOp46
 70
     1
102
RTVSPost2010Prop47
 90
       50
102
RTVSPost2010PropOp47
 70
     1
102
RTVSPost2010Prop48
 90
       50
102
RTVSPost2010PropOp48
 70
     1
102
RTVSPost2010Prop49
280
     0
102
RTVSPost2010PropOp49
 70
     1
102
RTVSPost2010Prop50
 90
       50
102
RTVSPost2010PropOp50
 70
     1
102
RTVSPost2010Prop51ColorIndex
 90
      256
102
RTVSPost2010Prop51ColorRGB
 90
-16777216
102
RTVSPost2010PropOp51
 70
     0
102
RTVSPost2010Prop52
140
1.0
102
RTVSPost2010PropOp52
 70
     0
102
RTVSPost2010Prop53
 90
        2
102
RTVSPost2010PropOp53
 70
     1
102
RTVSPost2010Prop54
  1
strokes_ogs.tif
102
RTVSPost2010PropOp54
 70
     1
102
RTVSPost2010Prop55
280
     0
102
RTVSPost2010PropOp55
 70
     1
102
RTVSPost2010Prop56
140
1.0
102
RTVSPost2010PropOp56
 70
     1
102
RTVSPost2010Prop57
140
1.0
102
RTVSPost2010PropOp57
 70
     1
102
RTVSPropertyOp0
 70
     1
102
RTVSPropertyOp1
 70
     1
102
RTVSPropertyOp2
 70
     1
102
RTVSPropertyOp3
 70
     1
102
RTVSPropertyOp4
 70
     1
102
RTVSPropertyOp5
 70
     1
102
RTVSPropertyOp6
 70
     1
102
RTVSPropertyOp7
 70
     1
102
RTVSPropertyOp8
 70
     1
102
RTVSPropertyOp9
 70
     1
102
RTVSPropertyOp10
 70
     1
102
RTVSPropertyOp11
 70
     1
102
RTVSPropertyOp12
 70
     1
102
RTVSPropertyOp13
 70
     1
102
RTVSPropertyOp14
 70
     1
102
RTVSPropertyOp15
 70
     1
102
RTVSPropertyOp16
 70
     1
102
RTVSPropertyOp17
 70
     1
102
RTVSPropertyOp18
 70
     1
102
RTVSPropertyOp19
 70
     1
102
RTVSPropertyOp20
 70
     1
102
RTVSPropertyOp21
 70
     1
102
RTVSPropertyOp22
 70
     1
102
RTVSPropertyOp23
 70
     1
102
RTVSPropertyOp24
 70
     1
102
RTVSPropertyOp25
 70
     1
102
RTVSPropertyOp26
 70
     1
102
RTVSPropertyOp27
 70
     1
102
RTVSPropertyOp28
 70
     1
102
RTVSPropertyOp29
 70
     1
102
RTVSPropertyOp30
 70
     1
102
RTVSPropertyOp31
 70
     1
102
RTVSPropertyOp32
 70
     1
102
RTVSPropertyOp33
 70
     1
102
RTVSPropertyOp34
 70
     1
102
RTVSPropertyOp35
 70
     1
102
RTVSPropertyOp36
 70
     1
102
RTVSPropertyOp37
 70
     1
102
RTVSPropertyOp38
 70
     1
102
RTVSPropertyOp39
 70
     1
102
RTVSPropertyOp40
 70
     1
102
RTVSPropertyOp41
 70
     1
102
RTVSPropertyOp42
 70
     1
102
RTVSPropertyOp43
 70
     1
102
RTVSPropertyOp44
 70
     1
102
RTVSPropertyOp45
 70
     1
102
RTVSPropertyOp46
 70
     1
102
RTVSPropertyOp47
 70
     1
102
RTVSPropertyOp48
 70
     1
102
RTVSPropertyOp49
 70
     1
102
RTVSPropertyOp50
 70
     1
102
RTVSPropertyOp51
 70
     0
102
RTVSPropertyOp52
 70
     0
102
RTVSPropertyOp53
 70
     1
102
RTVSPropertyOp54
 70
     1
102
RTVSPropertyOp55
 70
     1
102
RTVSPropertyOp56
 70
     1
102
RTVSPropertyOp57
 70
     1
102
RTVSPropertyOp58
 70
     1
102
RTVSPropertyOp59
 70
     1
102
RTVSPropertyOp60
 70
     1
102
RTVSPropertyOp61
 70
     1
102
RTVSPropertyOp62
 70
     1
  0
XRECORD
  5
1FA5
102
{ACAD_REACTORS
330
1FA4
102
}
330
1FA4
100
AcDbXrecord
280
     1
102
RTVSPost2010Prop28
280
     0
102
RTVSPost2010PropOp28
 70
     1
102
RTVSPost2010Prop29
280
     1
102
RTVSPost2010PropOp29
 70
     1
102
RTVSPost2010Prop30
280
     1
102
RTVSPost2010PropOp30
 70
     1
102
RTVSPost2010Prop31
280
     0
102
RTVSPost2010PropOp31
 70
     1
102
RTVSPost2010Prop32
280
     0
102
RTVSPost2010PropOp32
 70
     1
102
RTVSPost2010Prop33
280
     0
102
RTVSPost2010PropOp33
 70
     1
102
RTVSPost2010Prop34
280
     0
102
RTVSPost2010PropOp34
 70
     1
102
RTVSPost2010Prop35
280
     0
102
RTVSPost2010PropOp35
 70
     1
102
RTVSPost2010Prop36
280
     0
102
RTVSPost2010PropOp36
 70
     1
102
RTVSPost2010Prop37
 90
       50
102
RTVSPost2010PropOp37
 70
     1
102
RTVSPost2010Prop38
140
0.0
102
RTVSPost2010PropOp38
 70
     1
102
RTVSPost2010Prop39
140
1.0
102
RTVSPost2010PropOp39
 70
     1
102
RTVSPost2010Prop40
 90
        0
102
RTVSPost2010PropOp40
 70
     1
102
RTVSPost2010Prop41ColorIndex
 90
       18
102
RTVSPost2010Prop41ColorRGB
 90
        0
102
RTVSPost2010PropOp41
 70
     1
102
RTVSPost2010Prop42
 90
       50
102
RTVSPost2010PropOp42
 70
     1
102
RTVSPost2010Prop43
 90
        3
102
RTVSPost2010PropOp43
 70
     1
102
RTVSPost2010Prop44ColorIndex
 90
        5
102
RTVSPost2010Prop44ColorRGB
 90
      255
102
RTVSPost2010PropOp44
 70
     1
102
RTVSPost2010Prop45
280
     0
102
RTVSPost2010PropOp45
 70
     1
102
RTVSPost2010Prop46
 90
       50
102
RTVSPost2010PropOp46
 70
     1
102
RTVSPost2010Prop47
 90
       50
102
RTVSPost2010PropOp47
 70
     1
102
RTVSPost2010Prop48
 90
       50
102
RTVSPost2010PropOp48
 70
     1
102
RTVSPost2010Prop49
280
     0
102
RTVSPost2010PropOp49
 70
     1
102
RTVSPost2010Prop50
 90
       50
102
RTVSPost2010PropOp50
 70
     1
102
RTVSPost2010Prop51ColorIndex
 90
      256
102
RTVSPost2010Prop51ColorRGB
 90
-16777216
102
RTVSPost2010PropOp51
 70
     0
102
RTVSPost2010Prop52
140
1.0
102
RTVSPost2010PropOp52
 70
     0
102
RTVSPost2010Prop53
 90
        2
102
RTVSPost2010PropOp53
 70
     1
102
RTVSPost2010Prop54
  1
strokes_ogs.tif
102
RTVSPost2010PropOp54
 70
     1
102
RTVSPost2010Prop55
280
     0
102
RTVSPost2010PropOp55
 70
     1
102
RTVSPost2010Prop56
140
1.0
102
RTVSPost2010PropOp56
 70
     1
102
RTVSPost2010Prop57
140
1.0
102
RTVSPost2010PropOp57
 70
     1
102
RTVSPropertyOp0
 70
     1
102
RTVSPropertyOp1
 70
     1
102
RTVSPropertyOp2
 70
     1
102
RTVSPropertyOp3
 70
     1
102
RTVSPropertyOp4
 70
     1
102
RTVSPropertyOp5
 70
     1
102
RTVSPropertyOp6
 70
     1
102
RTVSPropertyOp7
 70
     1
102
RTVSPropertyOp8
 70
     1
102
RTVSPropertyOp9
 70
     1
102
RTVSPropertyOp10
 70
     1
102
RTVSPropertyOp11
 70
     1
102
RTVSPropertyOp12
 70
     1
102
RTVSPropertyOp13
 70
     1
102
RTVSPropertyOp14
 70
     1
102
RTVSPropertyOp15
 70
     1
102
RTVSPropertyOp16
 70
     1
102
RTVSPropertyOp17
 70
     1
102
RTVSPropertyOp18
 70
     1
102
RTVSPropertyOp19
 70
     1
102
RTVSPropertyOp20
 70
     1
102
RTVSPropertyOp21
 70
     1
102
RTVSPropertyOp22
 70
     1
102
RTVSPropertyOp23
 70
     1
102
RTVSPropertyOp24
 70
     1
102
RTVSPropertyOp25
 70
     1
102
RTVSPropertyOp26
 70
     1
102
RTVSPropertyOp27
 70
     1
102
RTVSPropertyOp28
 70
     1
102
RTVSPropertyOp29
 70
     1
102
RTVSPropertyOp30
 70
     1
102
RTVSPropertyOp31
 70
     1
102
RTVSPropertyOp32
 70
     1
102
RTVSPropertyOp33
 70
     1
102
RTVSPropertyOp34
 70
     1
102
RTVSPropertyOp35
 70
     1
102
RTVSPropertyOp36
 70
     1
102
RTVSPropertyOp37
 70
     1
102
RTVSPropertyOp38
 70
     1
102
RTVSPropertyOp39
 70
     1
102
RTVSPropertyOp40
 70
     1
102
RTVSPropertyOp41
 70
     1
102
RTVSPropertyOp42
 70
     1
102
RTVSPropertyOp43
 70
     1
102
RTVSPropertyOp44
 70
     1
102
RTVSPropertyOp45
 70
     1
102
RTVSPropertyOp46
 70
     1
102
RTVSPropertyOp47
 70
     1
102
RTVSPropertyOp48
 70
     1
102
RTVSPropertyOp49
 70
     1
102
RTVSPropertyOp50
 70
     1
102
RTVSPropertyOp51
 70
     0
102
RTVSPropertyOp52
 70
     0
102
RTVSPropertyOp53
 70
     1
102
RTVSPropertyOp54
 70
     1
102
RTVSPropertyOp55
 70
     1
102
RTVSPropertyOp56
 70
     1
102
RTVSPropertyOp57
 70
     1
102
RTVSPropertyOp58
 70
     1
102
RTVSPropertyOp59
 70
     1
102
RTVSPropertyOp60
 70
     1
102
RTVSPropertyOp61
 70
     1
102
RTVSPropertyOp62
 70
     1
  0
XRECORD
  5
1FBD
102
{ACAD_REACTORS
330
1FBC
102
}
330
1FBC
100
AcDbXrecord
280
     1
102
RTVSPost2010Prop28
280
     0
102
RTVSPost2010PropOp28
 70
     1
102
RTVSPost2010Prop29
280
     1
102
RTVSPost2010PropOp29
 70
     1
102
RTVSPost2010Prop30
280
     1
102
RTVSPost2010PropOp30
 70
     1
102
RTVSPost2010Prop31
280
     0
102
RTVSPost2010PropOp31
 70
     1
102
RTVSPost2010Prop32
280
     0
102
RTVSPost2010PropOp32
 70
     1
102
RTVSPost2010Prop33
280
     0
102
RTVSPost2010PropOp33
 70
     1
102
RTVSPost2010Prop34
280
     0
102
RTVSPost2010PropOp34
 70
     1
102
RTVSPost2010Prop35
280
     0
102
RTVSPost2010PropOp35
 70
     1
102
RTVSPost2010Prop36
280
     0
102
RTVSPost2010PropOp36
 70
     1
102
RTVSPost2010Prop37
 90
       50
102
RTVSPost2010PropOp37
 70
     1
102
RTVSPost2010Prop38
140
0.0
102
RTVSPost2010PropOp38
 70
     1
102
RTVSPost2010Prop39
140
1.0
102
RTVSPost2010PropOp39
 70
     1
102
RTVSPost2010Prop40
 90
        0
102
RTVSPost2010PropOp40
 70
     1
102
RTVSPost2010Prop41ColorIndex
 90
       18
102
RTVSPost2010Prop41ColorRGB
 90
        0
102
RTVSPost2010PropOp41
 70
     1
102
RTVSPost2010Prop42
 90
       50
102
RTVSPost2010PropOp42
 70
     1
102
RTVSPost2010Prop43
 90
        3
102
RTVSPost2010PropOp43
 70
     1
102
RTVSPost2010Prop44ColorIndex
 90
        5
102
RTVSPost2010Prop44ColorRGB
 90
      255
102
RTVSPost2010PropOp44
 70
     1
102
RTVSPost2010Prop45
280
     0
102
RTVSPost2010PropOp45
 70
     1
102
RTVSPost2010Prop46
 90
       50
102
RTVSPost2010PropOp46
 70
     1
102
RTVSPost2010Prop47
 90
       50
102
RTVSPost2010PropOp47
 70
     1
102
RTVSPost2010Prop48
 90
       50
102
RTVSPost2010PropOp48
 70
     1
102
RTVSPost2010Prop49
280
     0
102
RTVSPost2010PropOp49
 70
     1
102
RTVSPost2010Prop50
 90
       50
102
RTVSPost2010PropOp50
 70
     1
102
RTVSPost2010Prop51ColorIndex
 90
      256
102
RTVSPost2010Prop51ColorRGB
 90
-16777216
102
RTVSPost2010PropOp51
 70
     0
102
RTVSPost2010Prop52
140
1.0
102
RTVSPost2010PropOp52
 70
     0
102
RTVSPost2010Prop53
 90
        2
102
RTVSPost2010PropOp53
 70
     1
102
RTVSPost2010Prop54
  1
strokes_ogs.tif
102
RTVSPost2010PropOp54
 70
     1
102
RTVSPost2010Prop55
280
     0
102
RTVSPost2010PropOp55
 70
     1
102
RTVSPost2010Prop56
140
1.0
102
RTVSPost2010PropOp56
 70
     1
102
RTVSPost2010Prop57
140
1.0
102
RTVSPost2010PropOp57
 70
     1
102
RTVSPropertyOp0
 70
     1
102
RTVSPropertyOp1
 70
     1
102
RTVSPropertyOp2
 70
     1
102
RTVSPropertyOp3
 70
     1
102
RTVSPropertyOp4
 70
     1
102
RTVSPropertyOp5
 70
     1
102
RTVSPropertyOp6
 70
     1
102
RTVSPropertyOp7
 70
     1
102
RTVSPropertyOp8
 70
     1
102
RTVSPropertyOp9
 70
     1
102
RTVSPropertyOp10
 70
     1
102
RTVSPropertyOp11
 70
     1
102
RTVSPropertyOp12
 70
     1
102
RTVSPropertyOp13
 70
     1
102
RTVSPropertyOp14
 70
     1
102
RTVSPropertyOp15
 70
     1
102
RTVSPropertyOp16
 70
     1
102
RTVSPropertyOp17
 70
     1
102
RTVSPropertyOp18
 70
     1
102
RTVSPropertyOp19
 70
     1
102
RTVSPropertyOp20
 70
     1
102
RTVSPropertyOp21
 70
     1
102
RTVSPropertyOp22
 70
     1
102
RTVSPropertyOp23
 70
     1
102
RTVSPropertyOp24
 70
     1
102
RTVSPropertyOp25
 70
     1
102
RTVSPropertyOp26
 70
     1
102
RTVSPropertyOp27
 70
     1
102
RTVSPropertyOp28
 70
     1
102
RTVSPropertyOp29
 70
     1
102
RTVSPropertyOp30
 70
     1
102
RTVSPropertyOp31
 70
     1
102
RTVSPropertyOp32
 70
     1
102
RTVSPropertyOp33
 70
     1
102
RTVSPropertyOp34
 70
     1
102
RTVSPropertyOp35
 70
     1
102
RTVSPropertyOp36
 70
     1
102
RTVSPropertyOp37
 70
     1
102
RTVSPropertyOp38
 70
     1
102
RTVSPropertyOp39
 70
     1
102
RTVSPropertyOp40
 70
     1
102
RTVSPropertyOp41
 70
     1
102
RTVSPropertyOp42
 70
     1
102
RTVSPropertyOp43
 70
     1
102
RTVSPropertyOp44
 70
     1
102
RTVSPropertyOp45
 70
     1
102
RTVSPropertyOp46
 70
     1
102
RTVSPropertyOp47
 70
     1
102
RTVSPropertyOp48
 70
     1
102
RTVSPropertyOp49
 70
     1
102
RTVSPropertyOp50
 70
     1
102
RTVSPropertyOp51
 70
     0
102
RTVSPropertyOp52
 70
     0
102
RTVSPropertyOp53
 70
     1
102
RTVSPropertyOp54
 70
     1
102
RTVSPropertyOp55
 70
     1
102
RTVSPropertyOp56
 70
     1
102
RTVSPropertyOp57
 70
     1
102
RTVSPropertyOp58
 70
     1
102
RTVSPropertyOp59
 70
     1
102
RTVSPropertyOp60
 70
     1
102
RTVSPropertyOp61
 70
     1
102
RTVSPropertyOp62
 70
     1
  0
ENDSEC
  0
EOF
