  0
SECTION
  2
HEADER
  9
$ACADVER
  1
AC1015
  9
$ACADMAINTVER
 70
    20
  9
$DWGCODEPAGE
  3
ANSI_932
  9
$INSBASE
 10
0.0
 20
0.0
 30
0.0
  9
$EXTMIN
 10
9.9999975266385
 20
10.0
 30
0.0
  9
$EXTMAX
 10
685.8022902697214
 20
450.1876398516984
 30
0.0
  9
$LIMMIN
 10
0.0000015376081137
 20
-0.0000001931532552
  9
$LIMMAX
 10
705.0000015376082
 20
486.0227270795738
  9
$ORTHOMODE
 70
     1
  9
$REGENMODE
 70
     1
  9
$FILLMODE
 70
     1
  9
$QTEXTMODE
 70
     0
  9
$MIRRTEXT
 70
     1
  9
$LTSCALE
 40
1.0
  9
$ATTMODE
 70
     1
  9
$TEXTSIZE
 40
2.5
  9
$TRACEWID
 40
1.0
  9
$TEXTSTYLE
  7
STANDARD
  9
$CLAYER
  8
0
  9
$CELTYPE
  6
BYLAYER
  9
$CECOLOR
 62
   256
  9
$CELTSCALE
 40
1.0
  9
$DISPSILH
 70
     0
  9
$DIMSCALE
 40
1.0
  9
$DIMASZ
 40
3.0
  9
$DIMEXO
 40
1.0
  9
$DIMDLI
 40
10.0
  9
$DIMRND
 40
0.0
  9
$DIMDLE
 40
0.0
  9
$DIMEXE
 40
1.0
  9
$DIMTP
 40
0.0
  9
$DIMTM
 40
0.0
  9
$DIMTXT
 40
3.2
  9
$DIMCEN
 40
0.0
  9
$DIMTSZ
 40
0.0
  9
$DIMTOL
 70
     0
  9
$DIMLIM
 70
     0
  9
$DIMTIH
 70
     0
  9
$DIMTOH
 70
     0
  9
$DIMSE1
 70
     0
  9
$DIMSE2
 70
     0
  9
$DIMTAD
 70
     3
  9
$DIMZIN
 70
     8
  9
$DIMBLK
  1

  9
$DIMASO
 70
     1
  9
$DIMSHO
 70
     1
  9
$DIMPOST
  1

  9
$DIMAPOST
  1

  9
$DIMALT
 70
     0
  9
$DIMALTD
 70
     2
  9
$DIMALTF
 40
25.4
  9
$DIMLFAC
 40
1.0
  9
$DIMTOFL
 70
     1
  9
$DIMTVP
 40
0.0
  9
$DIMTIX
 70
     0
  9
$DIMSOXD
 70
     0
  9
$DIMSAH
 70
     1
  9
$DIMBLK1
  1
OPEN
  9
$DIMBLK2
  1
OPEN
  9
$DIMSTYLE
  2
STANDARD
  9
$DIMCLRD
 70
     0
  9
$DIMCLRE
 70
     0
  9
$DIMCLRT
 70
     0
  9
$DIMTFAC
 40
1.0
  9
$DIMGAP
 40
1.0
  9
$DIMJUST
 70
     0
  9
$DIMSD1
 70
     0
  9
$DIMSD2
 70
     0
  9
$DIMTOLJ
 70
     1
  9
$DIMTZIN
 70
     0
  9
$DIMALTZ
 70
     0
  9
$DIMALTTZ
 70
     0
  9
$DIMUPT
 70
     0
  9
$DIMDEC
 70
     4
  9
$DIMTDEC
 70
     4
  9
$DIMALTU
 70
     2
  9
$DIMALTTD
 70
     2
  9
$DIMTXSTY
  7
STANDARD
  9
$DIMAUNIT
 70
     0
  9
$DIMADEC
 70
     0
  9
$DIMALTRND
 40
0.0
  9
$DIMAZIN
 70
     0
  9
$DIMDSEP
 70
    46
  9
$DIMATFIT
 70
     3
  9
$DIMFRAC
 70
     0
  9
$DIMLDRBLK
  1
OPEN
  9
$DIMLUNIT
 70
     2
  9
$DIMLWD
 70
    -2
  9
$DIMLWE
 70
    -2
  9
$DIMTMOVE
 70
     0
  9
$LUNITS
 70
     2
  9
$LUPREC
 70
     4
  9
$SKETCHINC
 40
1.0
  9
$FILLETRAD
 40
0.5
  9
$AUNITS
 70
     0
  9
$AUPREC
 70
     0
  9
$MENU
  1
.
  9
$ELEVATION
 40
0.0
  9
$PELEVATION
 40
0.0
  9
$THICKNESS
 40
0.0
  9
$LIMCHECK
 70
     0
  9
$CHAMFERA
 40
10.0
  9
$CHAMFERB
 40
10.0
  9
$CHAMFERC
 40
20.0
  9
$CHAMFERD
 40
0.0
  9
$SKPOLY
 70
     0
  9
$TDCREATE
 40
2454154.550453368
  9
$TDUCREATE
 40
2454154.175453368
  9
$TDUPDATE
 40
2457192.690823009
  9
$TDUUPDATE
 40
2457192.315823010
  9
$TDINDWG
 40
0.2474062153
  9
$TDUSRTIMER
 40
0.2474062037
  9
$USRTIMER
 70
     1
  9
$ANGBASE
 50
0.0
  9
$ANGDIR
 70
     0
  9
$PDMODE
 70
     0
  9
$PDSIZE
 40
0.0
  9
$PLINEWID
 40
0.0
  9
$SPLFRAME
 70
     0
  9
$SPLINETYPE
 70
     6
  9
$SPLINESEGS
 70
     8
  9
$HANDSEED
  5
4207
  9
$SURFTAB1
 70
     6
  9
$SURFTAB2
 70
     6
  9
$SURFTYPE
 70
     6
  9
$SURFU
 70
     6
  9
$SURFV
 70
     6
  9
$UCSBASE
  2

  9
$UCSNAME
  2

  9
$UCSORG
 10
0.0
 20
0.0
 30
0.0
  9
$UCSXDIR
 10
1.0
 20
0.0
 30
0.0
  9
$UCSYDIR
 10
0.0
 20
1.0
 30
0.0
  9
$UCSORTHOREF
  2

  9
$UCSORTHOVIEW
 70
     0
  9
$UCSORGTOP
 10
0.0
 20
0.0
 30
0.0
  9
$UCSORGBOTTOM
 10
0.0
 20
0.0
 30
0.0
  9
$UCSORGLEFT
 10
0.0
 20
0.0
 30
0.0
  9
$UCSORGRIGHT
 10
0.0
 20
0.0
 30
0.0
  9
$UCSORGFRONT
 10
0.0
 20
0.0
 30
0.0
  9
$UCSORGBACK
 10
0.0
 20
0.0
 30
0.0
  9
$PUCSBASE
  2

  9
$PUCSNAME
  2

  9
$PUCSORG
 10
0.0
 20
0.0
 30
0.0
  9
$PUCSXDIR
 10
1.0
 20
0.0
 30
0.0
  9
$PUCSYDIR
 10
0.0
 20
1.0
 30
0.0
  9
$PUCSORTHOREF
  2

  9
$PUCSORTHOVIEW
 70
     0
  9
$PUCSORGTOP
 10
0.0
 20
0.0
 30
0.0
  9
$PUCSORGBOTTOM
 10
0.0
 20
0.0
 30
0.0
  9
$PUCSORGLEFT
 10
0.0
 20
0.0
 30
0.0
  9
$PUCSORGRIGHT
 10
0.0
 20
0.0
 30
0.0
  9
$PUCSORGFRONT
 10
0.0
 20
0.0
 30
0.0
  9
$PUCSORGBACK
 10
0.0
 20
0.0
 30
0.0
  9
$USERI1
 70
     0
  9
$USERI2
 70
     0
  9
$USERI3
 70
     0
  9
$USERI4
 70
     0
  9
$USERI5
 70
     0
  9
$USERR1
 40
0.0
  9
$USERR2
 40
0.0
  9
$USERR3
 40
0.0
  9
$USERR4
 40
0.0
  9
$USERR5
 40
0.0
  9
$WORLDVIEW
 70
     1
  9
$SHADEDGE
 70
     3
  9
$SHADEDIF
 70
    70
  9
$TILEMODE
 70
     1
  9
$MAXACTVP
 70
    48
  9
$PINSBASE
 10
0.0
 20
0.0
 30
0.0
  9
$PLIMCHECK
 70
     0
  9
$PEXTMIN
 10
1.000000000000000E+20
 20
1.000000000000000E+20
 30
1.000000000000000E+20
  9
$PEXTMAX
 10
-1.000000000000000E+20
 20
-1.000000000000000E+20
 30
-1.000000000000000E+20
  9
$PLIMMIN
 10
0.0
 20
0.0
  9
$PLIMMAX
 10
420.0
 20
297.0
  9
$UNITMODE
 70
     0
  9
$VISRETAIN
 70
     1
  9
$PLINEGEN
 70
     0
  9
$PSLTSCALE
 70
     1
  9
$TREEDEPTH
 70
  3020
  9
$CMLSTYLE
  2
STANDARD
  9
$CMLJUST
 70
     0
  9
$CMLSCALE
 40
20.0
  9
$PROXYGRAPHICS
 70
     1
  9
$MEASUREMENT
 70
     0
  9
$CELWEIGHT
370
    -1
  9
$ENDCAPS
280
     0
  9
$JOINSTYLE
280
     0
  9
$LWDISPLAY
290
     0
  9
$INSUNITS
 70
     0
  9
$HYPERLINKBASE
  1

  9
$STYLESHEET
  1

  9
$XEDIT
290
     1
  9
$CEPSNTYPE
380
     0
  9
$PSTYLEMODE
290
     1
  9
$FINGERPRINTGUID
  2
{C99A69E4-6DE4-4AB4-9EAD-30A3C2916899}
  9
$VERSIONGUID
  2
{2C8BE0EE-D928-4D90-9A1F-C3025C47D290}
  9
$EXTNAMES
290
     1
  9
$PSVPSCALE
 40
0.0
  9
$OLESTARTUP
290
     0
  0
ENDSEC
  0
SECTION
  2
CLASSES
  0
CLASS
  1
ACDBDICTIONARYWDFLT
  2
AcDbDictionaryWithDefault
  3
ObjectDBX Classes
 90
        0
280
     0
281
     0
  0
CLASS
  1
ACDBPLACEHOLDER
  2
AcDbPlaceHolder
  3
ObjectDBX Classes
 90
        0
280
     0
281
     0
  0
CLASS
  1
LAYOUT
  2
AcDbLayout
  3
ObjectDBX Classes
 90
        0
280
     0
281
     0
  0
CLASS
  1
DICTIONARYVAR
  2
AcDbDictionaryVar
  3
ObjectDBX Classes
 90
        0
280
     0
281
     0
  0
CLASS
  1
MATERIAL
  2
AcDbMaterial
  3
ObjectDBX Classes
 90
     1153
280
     0
281
     0
  0
CLASS
  1
VISUALSTYLE
  2
AcDbVisualStyle
  3
ObjectDBX Classes
 90
     4095
280
     0
281
     0
  0
CLASS
  1
TABLESTYLE
  2
AcDbTableStyle
  3
ObjectDBX Classes
 90
     4095
280
     0
281
     0
  0
CLASS
  1
SCALE
  2
AcDbScale
  3
ObjectDBX Classes
 90
     1153
280
     0
281
     0
  0
CLASS
  1
MLEADERSTYLE
  2
AcDbMLeaderStyle
  3
ACDB_MLEADERSTYLE_CLASS
 90
     4095
280
     0
281
     0
  0
CLASS
  1
ACDBSECTIONVIEWSTYLE
  2
AcDbSectionViewStyle
  3
ObjectDBX Classes
 90
     1025
280
     0
281
     0
  0
CLASS
  1
ACDBDETAILVIEWSTYLE
  2
AcDbDetailViewStyle
  3
ObjectDBX Classes
 90
     1025
280
     0
281
     0
  0
CLASS
  1
CELLSTYLEMAP
  2
AcDbCellStyleMap
  3
ObjectDBX Classes
 90
     1152
280
     0
281
     0
  0
ENDSEC
  0
SECTION
  2
TABLES
  0
TABLE
  2
VPORT
  5
8
330
0
100
AcDbSymbolTable
 70
     1
  0
VPORT
  5
4151
330
8
100
AcDbSymbolTableRecord
100
AcDbViewportTableRecord
  2
*ACTIVE
 70
     0
 10
0.0
 20
0.0
 11
1.0
 21
1.0
 12
530.6342817361087
 22
230.107318761236
 13
0.0
 23
0.0
 14
10.0
 24
10.0
 15
10.0
 25
10.0
 16
0.0
 26
0.0
 36
1.0
 17
0.0
 27
0.0
 37
0.0
 40
444.5264099472893
 41
2.35006605019815
 42
50.0
 43
0.0
 44
0.0
 50
0.0
 51
0.0
 71
     0
 72
   100
 73
     1
 74
     0
 75
     0
 76
     0
 77
     0
 78
     0
281
     0
 65
     1
110
0.0
120
0.0
130
0.0
111
1.0
121
0.0
131
0.0
112
0.0
122
1.0
132
0.0
 79
     0
146
0.0
1001
ACAD_NAV_VCDISPLAY
1070
     3
  0
ENDTAB
  0
TABLE
  2
LTYPE
  5
5
330
0
100
AcDbSymbolTable
 70
     4
  0
LTYPE
  5
12
330
5
100
AcDbSymbolTableRecord
100
AcDbLinetypeTableRecord
  2
BYBLOCK
 70
     0
  3

 72
    65
 73
     0
 40
0.0
  0
LTYPE
  5
13
330
5
100
AcDbSymbolTableRecord
100
AcDbLinetypeTableRecord
  2
BYLAYER
 70
     0
  3

 72
    65
 73
     0
 40
0.0
  0
LTYPE
  5
14
330
5
100
AcDbSymbolTableRecord
100
AcDbLinetypeTableRecord
  2
CONTINUOUS
 70
     0
  3
Solid line
 72
    65
 73
     0
 40
0.0
  0
LTYPE
  5
4B
330
5
100
AcDbSymbolTableRecord
100
AcDbLinetypeTableRecord
  2
DASHED
 70
     0
  3
Dashed __ __ __ __ __ __ __ __ __ __ __ __ __ _
 72
    65
 73
     2
 40
19.04999999999999
 49
12.7
 74
     0
 49
-6.349999999999998
 74
     0
  0
LTYPE
  5
4C
330
5
100
AcDbSymbolTableRecord
100
AcDbLinetypeTableRecord
  2
CENTER
 70
     0
  3
Center ____ _ ____ _ ____ _ ____ _ ____ _ ____
 72
    65
 73
     4
 40
50.8
 49
31.75
 74
     0
 49
-6.349999999999998
 74
     0
 49
6.349999999999998
 74
     0
 49
-6.349999999999998
 74
     0
  0
LTYPE
  5
4D
330
5
100
AcDbSymbolTableRecord
100
AcDbLinetypeTableRecord
  2
PHANTOM
 70
     0
  3
Phantom ______  __  __  ______  __  __  ______
 72
    65
 73
     6
 40
63.5
 49
31.75
 74
     0
 49
-6.349999999999998
 74
     0
 49
6.349999999999998
 74
     0
 49
-6.349999999999998
 74
     0
 49
6.349999999999998
 74
     0
 49
-6.349999999999998
 74
     0
  0
ENDTAB
  0
TABLE
  2
LAYER
  5
2
330
0
100
AcDbSymbolTable
 70
     8
  0
LAYER
  5
E
102
{ACAD_XDICTIONARY
360
41AB
102
}
330
2
100
AcDbSymbolTableRecord
100
AcDbLayerTableRecord
  2
0
 70
     0
 62
     7
  6
CONTINUOUS
370
    -3
390
415A
  0
LAYER
  5
4E
102
{ACAD_XDICTIONARY
360
41AD
102
}
330
2
100
AcDbSymbolTableRecord
100
AcDbLayerTableRecord
  2
4
 70
     0
 62
     1
  6
CENTER
370
    -3
390
415A
  0
LAYER
  5
4F
102
{ACAD_XDICTIONARY
360
41AF
102
}
330
2
100
AcDbSymbolTableRecord
100
AcDbLayerTableRecord
  2
5
 70
     0
 62
     6
  6
PHANTOM
370
    -3
390
415A
  0
LAYER
  5
50
102
{ACAD_XDICTIONARY
360
41B1
102
}
330
2
100
AcDbSymbolTableRecord
100
AcDbLayerTableRecord
  2
1
 70
     0
 62
     7
  6
CONTINUOUS
370
    -3
390
415A
  0
LAYER
  5
51
102
{ACAD_XDICTIONARY
360
41B3
102
}
330
2
100
AcDbSymbolTableRecord
100
AcDbLayerTableRecord
  2
2
 70
     0
 62
     4
  6
CONTINUOUS
370
    -3
390
415A
  0
LAYER
  5
52
102
{ACAD_XDICTIONARY
360
41B5
102
}
330
2
100
AcDbSymbolTableRecord
100
AcDbLayerTableRecord
  2
3
 70
     0
 62
     2
  6
DASHED
370
    -3
390
415A
  0
LAYER
  5
53
102
{ACAD_XDICTIONARY
360
41B7
102
}
330
2
100
AcDbSymbolTableRecord
100
AcDbLayerTableRecord
  2
6
 70
     0
 62
     5
  6
CONTINUOUS
370
    -3
390
415A
  0
LAYER
  5
54
102
{ACAD_XDICTIONARY
360
41B9
102
}
330
2
100
AcDbSymbolTableRecord
100
AcDbLayerTableRecord
  2
7
 70
     0
 62
     3
  6
CONTINUOUS
370
    -3
390
415A
  0
ENDTAB
  0
TABLE
  2
STYLE
  5
3
330
0
100
AcDbSymbolTable
 70
     1
  0
STYLE
  5
F
330
3
100
AcDbSymbolTableRecord
100
AcDbTextStyleTableRecord
  2
STANDARD
 70
     0
 40
0.0
 41
1.0
 50
0.0
 71
     0
 42
2.5
  3
simplex.shx
  4

  0
ENDTAB
  0
TABLE
  2
VIEW
  5
6
330
0
100
AcDbSymbolTable
 70
     0
  0
ENDTAB
  0
TABLE
  2
UCS
  5
7
330
0
100
AcDbSymbolTable
 70
     0
  0
ENDTAB
  0
TABLE
  2
APPID
  5
9
330
0
100
AcDbSymbolTable
 70
     5
  0
APPID
  5
10
330
9
100
AcDbSymbolTableRecord
100
AcDbRegAppTableRecord
  2
ACAD
 70
     0
  0
APPID
  5
3E
330
9
100
AcDbSymbolTableRecord
100
AcDbRegAppTableRecord
  2
CONTENTTABDATA
 70
     0
  0
APPID
  5
3F
330
9
100
AcDbSymbolTableRecord
100
AcDbRegAppTableRecord
  2
CONTENTCURRENTTAB
 70
     0
  0
APPID
  5
41C5
330
9
100
AcDbSymbolTableRecord
100
AcDbRegAppTableRecord
  2
ACAD_NAV_VCDISPLAY
 70
     0
  0
APPID
  5
41FE
330
9
100
AcDbSymbolTableRecord
100
AcDbRegAppTableRecord
  2
ACAD_MLEADERVER
 70
     0
  0
ENDTAB
  0
TABLE
  2
DIMSTYLE
  5
A
330
0
100
AcDbSymbolTable
 70
     1
100
AcDbDimStyleTable
 71
     0
  0
DIMSTYLE
105
1D
330
A
100
AcDbSymbolTableRecord
100
AcDbDimStyleTableRecord
  2
STANDARD
 70
     0
 41
3.0
 42
1.0
 43
10.0
 44
1.0
 73
     0
 74
     0
 77
     3
 78
     8
140
3.2
141
0.0
147
1.0
172
     1
173
     1
340
F
341
2E
343
2E
344
2E
  0
ENDTAB
  0
TABLE
  2
BLOCK_RECORD
  5
1
330
0
100
AcDbSymbolTable
 70
     1
  0
BLOCK_RECORD
  5
18
102
{ACAD_XDICTIONARY
360
4154
102
}
330
1
100
AcDbSymbolTableRecord
100
AcDbBlockTableRecord
  2
*MODEL_SPACE
340
41A8
  0
BLOCK_RECORD
  5
15
102
{ACAD_XDICTIONARY
360
4152
102
}
330
1
100
AcDbSymbolTableRecord
100
AcDbBlockTableRecord
  2
*PAPER_SPACE
340
41A9
  0
BLOCK_RECORD
  5
2E
330
1
100
AcDbSymbolTableRecord
100
AcDbBlockTableRecord
  2
_OPEN
340
0
  0
ENDTAB
  0
ENDSEC
  0
SECTION
  2
BLOCKS
  0
BLOCK
  5
19
330
18
100
AcDbEntity
  8
0
100
AcDbBlockBegin
  2
*MODEL_SPACE
 70
     0
 10
0.0
 20
0.0
 30
0.0
  3
*MODEL_SPACE
  1

  0
ENDBLK
  5
1A
330
18
100
AcDbEntity
  8
0
100
AcDbBlockEnd
  0
BLOCK
  5
16
330
15
100
AcDbEntity
 67
     1
  8
0
100
AcDbBlockBegin
  2
*PAPER_SPACE
 70
     0
 10
0.0
 20
0.0
 30
0.0
  3
*PAPER_SPACE
  1

  0
ENDBLK
  5
17
330
15
100
AcDbEntity
 67
     1
  8
0
100
AcDbBlockEnd
  0
BLOCK
  5
2F
330
2E
100
AcDbEntity
  8
0
100
AcDbBlockBegin
  2
_OPEN
 70
     0
 10
0.0
 20
0.0
 30
0.0
  3
_OPEN
  1

  0
LINE
  5
30
330
2E
100
AcDbEntity
  8
0
  6
ByBlock
 62
     0
100
AcDbLine
 10
-1.0
 20
0.1666666666666666
 30
0.0
 11
0.0
 21
0.0
 31
0.0
  0
LINE
  5
31
330
2E
100
AcDbEntity
  8
0
  6
ByBlock
 62
     0
100
AcDbLine
 10
0.0
 20
0.0
 30
0.0
 11
-1.0
 21
-0.1666666666666666
 31
0.0
  0
LINE
  5
32
330
2E
100
AcDbEntity
  8
0
  6
ByBlock
 62
     0
100
AcDbLine
 10
0.0
 20
0.0
 30
0.0
 11
-1.0
 21
0.0
 31
0.0
  0
ENDBLK
  5
33
330
2E
100
AcDbEntity
  8
0
100
AcDbBlockEnd
  0
ENDSEC
  0
SECTION
  2
ENTITIES
  0
TEXT
  5
63
330
18
100
AcDbEntity
  8
4
  6
CENTER
 48
0.25
100
AcDbText
 10
23.97950852663849
 20
10.0
 30
0.0
 40
1.399999999999999
  1
4
100
AcDbText
  0
TEXT
  5
64
330
18
100
AcDbEntity
  8
7
  6
Continuous
 48
0.25
100
AcDbText
 10
9.999997526638502
 20
26.0000007607689
 30
0.0
 40
3.0
  1
CODE No.19267
100
AcDbText
  0
TEXT
  5
65
330
18
100
AcDbEntity
  8
7
  6
Continuous
 48
0.25
100
AcDbText
 10
9.999997526638502
 20
18.00000076076889
 30
0.0
 40
3.0
  1
TYPE No.TCA-50SUS-SN65
100
AcDbText
  0
TEXT
  5
66
330
18
100
AcDbEntity
  8
1
  6
Continuous
 48
0.25
100
AcDbText
 10
9.999997526638502
 20
10.00000076076889
 30
0.0
 40
1.399999999999999
  1
LAYER
100
AcDbText
  0
TEXT
  5
67
330
18
100
AcDbEntity
  8
2
  6
Continuous
 48
0.25
100
AcDbText
 10
19.9795085266385
 20
10.0
 30
0.0
 40
1.399999999999999
  1
2
100
AcDbText
  0
TEXT
  5
68
330
18
100
AcDbEntity
  8
3
  6
DASHED
 48
0.25
100
AcDbText
 10
21.9795085266385
 20
10.0
 30
0.0
 40
1.399999999999999
  1
3
100
AcDbText
  0
TEXT
  5
69
330
18
100
AcDbEntity
  8
1
  6
Continuous
 48
0.25
100
AcDbText
 10
17.9795085266385
 20
10.0
 30
0.0
 40
1.399999999999999
  1
1
100
AcDbText
  0
TEXT
  5
6A
330
18
100
AcDbEntity
  8
5
  6
PHANTOM
 48
0.25
100
AcDbText
 10
25.9795085266385
 20
10.0
 30
0.0
 40
1.399999999999999
  1
5
100
AcDbText
  0
TEXT
  5
6B
330
18
100
AcDbEntity
  8
6
  6
Continuous
 48
0.25
100
AcDbText
 10
27.9795085266385
 20
10.0
 30
0.0
 40
1.399999999999999
  1
6
100
AcDbText
  0
TEXT
  5
6C
330
18
100
AcDbEntity
  8
7
  6
Continuous
 48
0.25
100
AcDbText
 10
29.9795085266385
 20
10.0
 30
0.0
 40
1.399999999999999
  1
7
100
AcDbText
  0
LINE
  5
1771
330
18
100
AcDbEntity
  8
1
  6
Continuous
100
AcDbLine
 10
392.8970805487748
 20
271.711910100572
 30
0.0
 11
454.0927165487746
 21
271.711910100572
 31
0.0
  0
ARC
  5
1796
330
18
100
AcDbEntity
  8
1
  6
Continuous
100
AcDbCircle
 10
450.4949005487747
 20
268.2397741005721
 30
0.0
 40
5.0
100
AcDbArc
 50
0.000000000000007
 51
48.18969600000123
  0
ARC
  5
1797
330
18
100
AcDbEntity
  8
1
  6
Continuous
100
AcDbCircle
 10
454.4949005487747
 20
272.711910100572
 30
0.0
 40
1.0
100
AcDbArc
 50
179.9999800000012
 51
228.189589999999
  0
LINE
  5
1799
330
18
100
AcDbEntity
  8
1
  6
Continuous
100
AcDbLine
 10
453.4949005487747
 20
273.711910100572
 30
0.0
 11
453.4949005487747
 21
272.711910100572
 31
0.0
  0
LINE
  5
179F
330
18
100
AcDbEntity
  8
1
  6
Continuous
100
AcDbLine
 10
391.4948805487748
 20
268.2397741005721
 30
0.0
 11
390.6367332145393
 21
234.3186294982391
 31
0.0
  0
ARC
  5
17BB
330
18
100
AcDbEntity
  8
1
  6
Continuous
100
AcDbCircle
 10
402.6213855487746
 20
233.7119101005723
 30
0.0
 40
12.0
100
AcDbArc
 50
152.8024966208347
 51
233.0114122805595
  0
ARC
  5
17C7
330
18
100
AcDbEntity
  8
1
  6
Continuous
100
AcDbCircle
 10
425.9948905487747
 20
243.2119101005722
 30
0.0
 40
20.0
100
AcDbArc
 50
0.000000000000285
 51
90.0
  0
ARC
  5
17C8
330
18
100
AcDbEntity
  8
1
  6
Continuous
100
AcDbCircle
 10
420.9948905487747
 20
243.2119101005722
 30
0.0
 40
20.0
100
AcDbArc
 50
90.0
 51
180.0
  0
ARC
  5
17D3
330
18
100
AcDbEntity
  8
1
  6
Continuous
100
AcDbCircle
 10
396.4949007619095
 20
268.2397740502579
 30
0.0
 40
5.000000213134711
100
AcDbArc
 50
131.8103349671998
 51
179.9999594234425
  0
ARC
  5
17D5
330
18
100
AcDbEntity
  8
1
  6
Continuous
100
AcDbCircle
 10
392.4949005487746
 20
272.711910100572
 30
0.0
 40
1.0
100
AcDbArc
 50
311.8102200000011
 51
0.000000000000007
  0
LINE
  5
17D6
330
18
100
AcDbEntity
  8
1
  6
Continuous
100
AcDbLine
 10
393.4949005487747
 20
273.711910100572
 30
0.0
 11
393.4949005487747
 21
272.711910100572
 31
0.0
  0
LINE
  5
1AE3
330
18
100
AcDbEntity
  8
1
  6
Continuous
100
AcDbLine
 10
416.4976600621092
 20
263.2119101005722
 30
0.0
 11
430.4921210354399
 21
263.2119101005722
 31
0.0
  0
ARC
  5
1AE7
330
18
100
AcDbEntity
  8
1
  6
Continuous
100
AcDbCircle
 10
392.9948905487747
 20
220.931824263029
 30
0.0
 40
4.0
100
AcDbArc
 50
13.66783549045508
 51
53.01141228055775
  0
ARC
  5
1AE8
330
18
100
AcDbEntity
  8
1
  6
Continuous
100
AcDbCircle
 10
392.9948905487747
 20
220.931824263029
 30
0.0
 40
8.0
100
AcDbArc
 50
5.135264692184492
 51
53.01141228055775
  0
ARC
  5
1AE9
330
18
100
AcDbEntity
  8
1
  6
Continuous
100
AcDbCircle
 10
402.6213855487746
 20
233.7119101005723
 30
0.0
 40
8.0
100
AcDbArc
 50
152.8024966208344
 51
233.0114122805595
  0
LINE
  5
1AEC
330
18
100
AcDbEntity
  8
1
  6
Continuous
100
AcDbLine
 10
395.5058952275908
 20
237.3683834683325
 30
0.0
 11
403.206164745815
 21
252.3530935199728
 31
0.0
  0
LINE
  5
1AED
330
18
100
AcDbEntity
  8
1
  6
Continuous
100
AcDbLine
 10
391.948150066999
 20
239.1966201522127
 30
0.0
 11
398.7089342591498
 21
252.3530935199728
 31
0.0
  0
ARC
  5
1AF0
330
18
100
AcDbEntity
  8
1
  6
Continuous
100
AcDbCircle
 10
416.4976600621092
 20
243.2119101005722
 30
0.0
 40
20.0
100
AcDbArc
 50
90.0
 51
152.8024966208347
  0
ARC
  5
1AF1
330
18
100
AcDbEntity
  8
1
  6
Continuous
100
AcDbCircle
 10
430.4921210354399
 20
243.2119101005722
 30
0.0
 40
20.0
100
AcDbArc
 50
27.19750337916529
 51
90.0
  0
LINE
  5
1AF2
330
18
100
AcDbEntity
  8
1
  6
Continuous
100
AcDbLine
 10
455.0416310305504
 20
239.1966201522127
 30
0.0
 11
448.2808468383995
 21
252.3530935199728
 31
0.0
  0
ARC
  5
1AF3
330
18
100
AcDbEntity
  8
1
  6
Continuous
100
AcDbCircle
 10
444.3683955487747
 20
233.7119101005723
 30
0.0
 40
8.0
100
AcDbArc
 50
306.9885877194404
 51
27.19750337916557
  0
LINE
  5
1AF4
330
18
100
AcDbEntity
  8
1
  6
Continuous
100
AcDbLine
 10
451.4838858699587
 20
237.3683834683325
 30
0.0
 11
443.7836163517341
 21
252.3530935199728
 31
0.0
  0
LINE
  5
1AF5
330
18
100
AcDbEntity
  8
1
  6
Continuous
100
AcDbLine
 10
455.4949005487746
 20
268.2397741005721
 30
0.0
 11
456.3530478830099
 21
234.3186294982391
 31
0.0
  0
ARC
  5
1AF6
330
18
100
AcDbEntity
  8
1
  6
Continuous
100
AcDbCircle
 10
444.3683955487747
 20
233.7119101005723
 30
0.0
 40
12.0
100
AcDbArc
 50
306.9885877194404
 51
27.19750337916526
  0
ARC
  5
1AF7
330
18
100
AcDbEntity
  8
1
  6
Continuous
100
AcDbCircle
 10
453.9948905487746
 20
220.931824263029
 30
0.0
 40
8.0
100
AcDbArc
 50
126.9885877194422
 51
180.0
  0
ARC
  5
1AF8
330
18
100
AcDbEntity
  8
1
  6
Continuous
100
AcDbCircle
 10
453.9948905487746
 20
220.931824263029
 30
0.0
 40
4.0
100
AcDbArc
 50
126.9885877194422
 51
166.3321645095449
  0
LINE
  5
1B1C
330
18
100
AcDbEntity
  8
1
  6
Continuous
100
AcDbLine
 10
197.2125748092689
 20
101.2361803494454
 30
0.0
 11
250.6566768463871
 21
101.2361803494454
 31
0.0
  0
LINE
  5
1B25
330
18
100
AcDbEntity
  8
1
  6
Continuous
100
AcDbLine
 10
197.2125798278286
 20
61.23618034944541
 30
0.0
 11
250.6566718278274
 21
61.23618034944541
 31
0.0
  0
LINE
  5
1BB6
330
18
100
AcDbEntity
  8
1
  6
Continuous
100
AcDbLine
 10
212.4910014428116
 20
58.73618034944531
 30
0.0
 11
235.7736010556923
 21
58.73618034944519
 31
0.0
  0
LINE
  5
1BBC
330
18
100
AcDbEntity
  8
1
  6
Continuous
100
AcDbLine
 10
243.9346258278273
 20
59.73618034944519
 30
0.0
 11
203.9346258278276
 21
59.73618034944519
 31
0.0
  0
LINE
  5
1BBD
330
18
100
AcDbEntity
  8
1
  6
Continuous
100
AcDbLine
 10
243.9346258278273
 20
102.7361803494451
 30
0.0
 11
203.9346258278276
 21
102.7361803494451
 31
0.0
  0
LINE
  5
1BC0
330
18
100
AcDbEntity
  8
1
  6
Continuous
100
AcDbLine
 10
212.4910014428116
 20
103.7361803494454
 30
0.0
 11
235.7736010556921
 21
103.7361803494454
 31
0.0
  0
LINE
  5
1BC1
330
18
100
AcDbEntity
  8
1
  6
Continuous
100
AcDbLine
 10
178.3801736768543
 20
107.7361803494454
 30
0.0
 11
223.4859267126719
 21
107.7361803494454
 31
0.0
  0
LINE
  5
1BC6
330
18
100
AcDbEntity
  8
1
  6
Continuous
100
AcDbLine
 10
178.3801736768543
 20
54.73618034944519
 30
0.0
 11
223.4859267126719
 21
54.73618034944519
 31
0.0
  0
ARC
  5
1BD0
330
18
100
AcDbEntity
  8
1
  6
Continuous
100
AcDbCircle
 10
250.6566718278274
 20
66.23618034944536
 30
0.0
 40
5.0
100
AcDbArc
 50
270.0000400000007
 51
354.062190000002
  0
ARC
  5
1BD2
330
18
100
AcDbEntity
  8
1
  6
Continuous
100
AcDbCircle
 10
243.9346258278276
 20
60.73618034944536
 30
0.0
 40
1.0
100
AcDbArc
 50
269.999989999999
 51
350.0000000000013
  0
ARC
  5
1BD3
330
18
100
AcDbEntity
  8
1
  6
Continuous
100
AcDbCircle
 10
106.4346258278276
 20
81.23618034944536
 30
0.0
 40
150.0
100
AcDbArc
 50
354.0622100000003
 51
5.937772451606884
  0
ARC
  5
1BD4
330
18
100
AcDbEntity
  8
1
  6
Continuous
100
AcDbCircle
 10
250.6566768463871
 20
96.23618034944536
 30
0.0
 40
5.0
100
AcDbArc
 50
5.937772451606884
 51
90.0
  0
ARC
  5
1BDC
330
18
100
AcDbEntity
  8
1
  6
Continuous
100
AcDbCircle
 10
232.5346260278274
 20
58.93618034944562
 30
0.0
 40
0.2
100
AcDbArc
 50
270.0
 51
0.0
  0
LINE
  5
1BDD
330
18
100
AcDbEntity
  8
1
  6
Continuous
100
AcDbLine
 10
232.7346260278275
 20
59.73618034944542
 30
0.0
 11
232.7346260278273
 21
58.93618034944545
 31
0.0
  0
ARC
  5
1BEB
330
18
100
AcDbEntity
  8
1
  6
Continuous
100
AcDbCircle
 10
232.5346260278274
 20
103.5361803494453
 30
0.0
 40
0.2
100
AcDbArc
 50
0.0
 51
90.0
  0
LINE
  5
1BEC
330
18
100
AcDbEntity
  8
1
  6
Continuous
100
AcDbLine
 10
232.7346260278275
 20
102.7361803494454
 30
0.0
 11
232.7346260278275
 21
103.5361803494453
 31
0.0
  0
ARC
  5
1BFB
330
18
100
AcDbEntity
  8
1
  6
Continuous
100
AcDbCircle
 10
215.3346256278275
 20
58.93618034944562
 30
0.0
 40
0.2
100
AcDbArc
 50
180.0
 51
270.0
  0
LINE
  5
1BFC
330
18
100
AcDbEntity
  8
1
  6
Continuous
100
AcDbLine
 10
215.1346256278273
 20
59.73618034944542
 30
0.0
 11
215.1346256278273
 21
58.93618034944545
 31
0.0
  0
LINE
  5
1C02
330
18
100
AcDbEntity
  8
1
  6
Continuous
100
AcDbLine
 10
202.9498198278274
 20
60.56252734944536
 30
0.0
 11
202.8310378278272
 21
61.23618034944541
 31
0.0
  0
ARC
  5
1C03
330
18
100
AcDbEntity
  8
1
  6
Continuous
100
AcDbCircle
 10
203.9346258278273
 20
60.73618034944536
 30
0.0
 40
1.0
100
AcDbArc
 50
189.9999999999986
 51
270.000010000001
  0
ARC
  5
1C05
330
18
100
AcDbEntity
  8
1
  6
Continuous
100
AcDbCircle
 10
215.3346256278273
 20
103.5361803494453
 30
0.0
 40
0.2
100
AcDbArc
 50
90.0
 51
180.0
  0
LINE
  5
1C06
330
18
100
AcDbEntity
  8
1
  6
Continuous
100
AcDbLine
 10
215.1346256278273
 20
102.7361803494454
 30
0.0
 11
215.1346256278273
 21
103.5361803494453
 31
0.0
  0
ARC
  5
1C08
330
18
100
AcDbEntity
  8
1
  6
Continuous
100
AcDbCircle
 10
203.9346258278273
 20
101.7361803494453
 30
0.0
 40
1.0
100
AcDbArc
 50
90.0
 51
170.0000000000013
  0
LINE
  5
1C09
330
18
100
AcDbEntity
  8
1
  6
Continuous
100
AcDbLine
 10
202.9498178278274
 20
101.9098253494452
 30
0.0
 11
202.8310358278274
 21
101.2361803494454
 31
0.0
  0
LINE
  5
1D14
330
18
100
AcDbEntity
  8
1
  6
Continuous
100
AcDbLine
 10
215.4346228278271
 20
47.43618526832157
 30
0.0
 11
215.4346258278271
 21
52.73618805888204
 31
0.0
  0
ARC
  5
1D15
330
18
100
AcDbEntity
  8
1
  6
Continuous
100
AcDbCircle
 10
219.6846258278271
 20
56.52539035118238
 30
0.0
 40
8.785583093775763
100
AcDbArc
 50
241.0695841800873
 51
298.9304158199126
  0
LINE
  5
1D16
330
18
100
AcDbEntity
  8
1
  6
Continuous
100
AcDbLine
 10
232.4346248278272
 20
47.43618500642837
 30
0.0
 11
232.4346258278274
 21
52.73618805888204
 31
0.0
  0
ARC
  5
1D17
330
18
100
AcDbEntity
  8
1
  6
Continuous
100
AcDbCircle
 10
228.1846258278271
 20
56.52555721459121
 30
0.0
 40
8.785729134311964
100
AcDbArc
 50
241.0701105902613
 51
298.9298894097404
  0
LINE
  5
1D19
330
18
100
AcDbEntity
  8
1
  6
Continuous
100
AcDbLine
 10
223.9346258278274
 20
48.83617905888209
 30
0.0
 11
223.9346258278274
 21
52.73618805888181
 31
0.0
  0
LINE
  5
1D1A
330
18
100
AcDbEntity
  8
1
  6
Continuous
100
AcDbLine
 10
216.6346228278271
 20
46.23618805888204
 30
0.0
 11
231.2319415475067
 21
46.23618805888204
 31
0.0
  0
LINE
  5
1D1B
330
18
100
AcDbEntity
  8
1
  6
Continuous
100
AcDbLine
 10
232.4346258278274
 20
47.73617585888039
 30
0.0
 11
215.4346258278271
 21
47.73617585888039
 31
0.0
  0
ARC
  5
1D25
330
18
100
AcDbEntity
  8
1
  6
Continuous
100
AcDbCircle
 10
231.2346248278272
 20
47.43618505888203
 30
0.0
 40
1.199999999999999
100
AcDbArc
 50
269.8718826952287
 51
359.9999974955215
  0
ARC
  5
1D27
330
18
100
AcDbEntity
  8
1
  6
Continuous
100
AcDbCircle
 10
216.6346228278271
 20
47.43618505888203
 30
0.0
 40
1.199999999999999
100
AcDbArc
 50
179.9999899999997
 51
269.9999910000004
  0
LINE
  5
1D2A
330
18
100
AcDbEntity
  8
1
  6
Continuous
100
AcDbLine
 10
212.4910014428116
 20
107.7361803494454
 30
0.0
 11
212.4910014428116
 21
103.7361803494454
 31
0.0
  0
LINE
  5
1D2B
330
18
100
AcDbEntity
  8
1
  6
Continuous
100
AcDbLine
 10
212.4910014428116
 20
54.73618034944519
 30
0.0
 11
212.4910014428116
 21
58.73618034944531
 31
0.0
  0
ARC
  5
1D82
330
18
100
AcDbEntity
  8
1
  6
Continuous
100
AcDbCircle
 10
341.4346258278285
 20
81.23618034944536
 30
0.0
 40
150.0
100
AcDbArc
 50
174.0622275483931
 51
185.9377899999996
  0
ARC
  5
1D83
330
18
100
AcDbEntity
  8
1
  6
Continuous
100
AcDbCircle
 10
197.2125748092689
 20
96.23618034944536
 30
0.0
 40
5.0
100
AcDbArc
 50
90.0
 51
174.0622275483931
  0
ARC
  5
1D84
330
18
100
AcDbEntity
  8
1
  6
Continuous
100
AcDbCircle
 10
197.2125798278286
 20
66.23618034944536
 30
0.0
 40
5.0
100
AcDbArc
 50
185.9378099999979
 51
269.9999599999992
  0
ARC
  5
1E47
330
18
100
AcDbEntity
  8
1
  6
Continuous
100
AcDbCircle
 10
247.8259302181597
 20
81.2361803494454
 30
0.0
 40
32.10869766872224
100
AcDbArc
 50
314.034932875103
 51
45.96506712489691
  0
ARC
  5
1E48
330
18
100
AcDbEntity
  8
1
  6
Continuous
100
AcDbCircle
 10
245.9346258278281
 20
79.28006544275763
 30
0.0
 40
34.82961990668781
100
AcDbArc
 50
45.96506712489691
 51
90.0
  0
ARC
  5
1E49
330
18
100
AcDbEntity
  8
1
  6
Continuous
100
AcDbCircle
 10
245.9346258278281
 20
83.19229525613321
 30
0.0
 40
34.82961990668781
100
AcDbArc
 50
270.0
 51
314.034932875103
  0
ARC
  5
1E4B
330
18
100
AcDbEntity
  8
1
  6
Continuous
100
AcDbCircle
 10
245.9346258278281
 20
79.28006544275763
 30
0.0
 40
30.82961990668781
100
AcDbArc
 50
45.96506712489691
 51
90.0
  0
ARC
  5
1E4C
330
18
100
AcDbEntity
  8
1
  6
Continuous
100
AcDbCircle
 10
247.8259302181597
 20
81.2361803494454
 30
0.0
 40
28.10869766872224
100
AcDbArc
 50
314.034932875103
 51
45.96506712489691
  0
ARC
  5
1E4D
330
18
100
AcDbEntity
  8
1
  6
Continuous
100
AcDbCircle
 10
245.9346258278281
 20
83.19229525613321
 30
0.0
 40
30.82961990668781
100
AcDbArc
 50
270.0
 51
314.034932875103
  0
ARC
  5
1E51
330
18
100
AcDbEntity
  8
1
  6
Continuous
100
AcDbCircle
 10
245.9346258278281
 20
107.1096853494454
 30
0.0
 40
3.0
100
AcDbArc
 50
90.0
 51
138.3132451339128
  0
ARC
  5
1E52
330
18
100
AcDbEntity
  8
1
  6
Continuous
100
AcDbCircle
 10
245.9346258278281
 20
107.1096853494454
 30
0.0
 40
7.0
100
AcDbArc
 50
90.0
 51
138.313245133914
  0
ARC
  5
1E53
330
18
100
AcDbEntity
  8
1
  6
Continuous
100
AcDbCircle
 10
235.7736010556921
 20
110.7361803494454
 30
0.0
 40
7.0
100
AcDbArc
 50
270.0
 51
318.3132451339132
  0
ARC
  5
1E54
330
18
100
AcDbEntity
  8
1
  6
Continuous
100
AcDbCircle
 10
235.7736010556921
 20
110.7361803494454
 30
0.0
 40
3.0
100
AcDbArc
 50
270.0
 51
318.3132451339138
  0
LINE
  5
1E55
330
18
100
AcDbEntity
  8
1
  6
Continuous
100
AcDbLine
 10
238.0139768889848
 20
108.7410071425289
 30
0.0
 11
240.7070822168114
 21
111.7650894989172
 31
0.0
  0
LINE
  5
1E56
330
18
100
AcDbEntity
  8
1
  6
Continuous
100
AcDbLine
 10
243.6942499945353
 20
109.1048585563618
 30
0.0
 11
241.0011446667088
 21
106.0807761999736
 31
0.0
  0
ARC
  5
1E57
330
18
100
AcDbEntity
  8
1
  6
Continuous
100
AcDbCircle
 10
245.9346258278281
 20
55.36267534944538
 30
0.0
 40
7.0
100
AcDbArc
 50
221.6867548660859
 51
270.0
  0
ARC
  5
1E58
330
18
100
AcDbEntity
  8
1
  6
Continuous
100
AcDbCircle
 10
235.7736010556921
 20
51.73618034944542
 30
0.0
 40
7.0
100
AcDbArc
 50
41.68675486608677
 51
90.00000000000005
  0
LINE
  5
1E59
330
18
100
AcDbEntity
  8
1
  6
Continuous
100
AcDbLine
 10
238.0139768889848
 20
53.73135355636184
 30
0.0
 11
240.7070822168114
 21
50.70727119997361
 31
0.0
  0
ARC
  5
1E5A
330
18
100
AcDbEntity
  8
1
  6
Continuous
100
AcDbCircle
 10
235.7736010556921
 20
51.73618034944542
 30
0.0
 40
3.0
100
AcDbArc
 50
41.68675486608615
 51
90.00000000000005
  0
ARC
  5
1E5B
330
18
100
AcDbEntity
  8
1
  6
Continuous
100
AcDbCircle
 10
245.9346258278281
 20
55.36267534944538
 30
0.0
 40
3.0
100
AcDbArc
 50
221.6867548660871
 51
270.0
  0
LINE
  5
1E5C
330
18
100
AcDbEntity
  8
1
  6
Continuous
100
AcDbLine
 10
243.6942499945353
 20
53.36750214252896
 30
0.0
 11
241.0011446667088
 21
56.3915844989172
 31
0.0
  0
ARC
  5
2910
330
18
100
AcDbEntity
  8
1
  6
Continuous
100
AcDbCircle
 10
245.9346258278297
 20
81.2361803494454
 30
0.0
 40
26.8
100
AcDbArc
 50
262.7481179103281
 51
97.2518820896718
  0
ARC
  5
2911
330
18
100
AcDbEntity
  8
1
  6
Continuous
100
AcDbCircle
 10
245.9346258278297
 20
81.2361803494454
 30
0.0
 40
14.8
100
AcDbArc
 50
313.087381608248
 51
46.91261839175206
  0
ARC
  5
2912
330
18
100
AcDbEntity
  8
1
  6
Continuous
100
AcDbCircle
 10
245.9346258278297
 20
81.2361803494454
 30
0.0
 40
13.8
100
AcDbArc
 50
317.7349999005621
 51
42.26500009943786
  0
ARC
  5
2C14
330
18
100
AcDbEntity
  8
1
  6
Continuous
100
AcDbCircle
 10
80.67436110688163
 20
238.8119103005723
 30
0.0
 40
0.2
100
AcDbArc
 50
0.0
 51
90.0
  0
ARC
  5
2C15
330
18
100
AcDbEntity
  8
1
  6
Continuous
100
AcDbCircle
 10
80.67436110688163
 20
221.611909900572
 30
0.0
 40
0.2
100
AcDbArc
 50
270.0
 51
0.0
  0
ARC
  5
2C16
330
18
100
AcDbEntity
  8
1
  6
Continuous
100
AcDbCircle
 10
36.0743611068815
 20
238.8119103005723
 30
0.0
 40
0.2
100
AcDbArc
 50
90.0
 51
180.0
  0
ARC
  5
2C17
330
18
100
AcDbEntity
  8
1
  6
Continuous
100
AcDbCircle
 10
36.0743611068815
 20
221.6119099005723
 30
0.0
 40
0.2
100
AcDbArc
 50
180.0
 51
270.0
  0
LINE
  5
2C18
330
18
100
AcDbEntity
  8
1
  6
Continuous
100
AcDbLine
 10
79.87436110688145
 20
239.0119103005722
 30
0.0
 11
80.67436110688163
 21
239.0119103005722
 31
0.0
  0
LINE
  5
2C19
330
18
100
AcDbEntity
  8
1
  6
Continuous
100
AcDbLine
 10
36.87436110688145
 20
239.0119103005722
 30
0.0
 11
36.0743611068815
 21
239.0119103005722
 31
0.0
  0
LINE
  5
2C1A
330
18
100
AcDbEntity
  8
1
  6
Continuous
100
AcDbLine
 10
36.87436110688122
 20
221.4119099005722
 30
0.0
 11
36.0743611068815
 21
221.4119099005722
 31
0.0
  0
ARC
  5
2C1B
330
18
100
AcDbEntity
  8
1
  6
Continuous
100
AcDbCircle
 10
37.87436110688145
 20
210.2119101005722
 30
0.0
 40
1.0
100
AcDbArc
 50
179.9999899999989
 51
260.0000000000013
  0
LINE
  5
2C1C
330
18
100
AcDbEntity
  8
1
  6
Continuous
100
AcDbLine
 10
36.874361106881
 20
210.211910100572
 30
0.0
 11
36.874361106881
 21
245.6197891005723
 31
0.0
  0
LINE
  5
2C1D
330
18
100
AcDbEntity
  8
1
  6
Continuous
100
AcDbLine
 10
37.70070810688162
 20
209.2271041005724
 30
0.0
 11
38.37436110688145
 21
209.1083221005721
 31
0.0
  0
LINE
  5
2C1E
330
18
100
AcDbEntity
  8
1
  6
Continuous
100
AcDbLine
 10
38.37436110688145
 20
203.4898641005722
 30
0.0
 11
38.37436110688122
 21
245.6197891005723
 31
0.0
  0
ARC
  5
2C1F
330
18
100
AcDbEntity
  8
1
  6
Continuous
100
AcDbCircle
 10
43.37436110688146
 20
203.4898641005722
 30
0.0
 40
5.0
100
AcDbArc
 50
180.0000400000007
 51
264.062190000002
  0
LINE
  5
2C20
330
18
100
AcDbEntity
  8
1
  6
Continuous
100
AcDbLine
 10
79.87436110688145
 20
221.4119099005721
 30
0.0
 11
80.67436110688163
 21
221.4119099005721
 31
0.0
  0
LINE
  5
2C21
330
18
100
AcDbEntity
  8
1
  6
Continuous
100
AcDbLine
 10
79.87436110688122
 20
210.2119101005721
 30
0.0
 11
79.87436110688122
 21
245.6197891005723
 31
0.0
  0
ARC
  5
2C22
330
18
100
AcDbEntity
  8
1
  6
Continuous
100
AcDbCircle
 10
78.87436110688145
 20
210.2119101005722
 30
0.0
 40
1.0
100
AcDbArc
 50
279.9999999999986
 51
0.0
  0
LINE
  5
2C23
330
18
100
AcDbEntity
  8
1
  6
Continuous
100
AcDbLine
 10
79.04800610688153
 20
209.2271021005722
 30
0.0
 11
78.37436110688145
 21
209.1083201005722
 31
0.0
  0
LINE
  5
2C24
330
18
100
AcDbEntity
  8
1
  6
Continuous
100
AcDbLine
 10
78.37436110688145
 20
203.4898590820126
 30
0.0
 11
78.37436110688145
 21
245.6197891005723
 31
0.0
  0
ARC
  5
2C25
330
18
100
AcDbEntity
  8
1
  6
Continuous
100
AcDbCircle
 10
58.37436110688146
 20
347.7119101005722
 30
0.0
 40
150.0
100
AcDbArc
 50
264.0622100000003
 51
275.9377724516068
  0
ARC
  5
2C26
330
18
100
AcDbEntity
  8
1
  6
Continuous
100
AcDbCircle
 10
73.37436110688145
 20
203.4898590820125
 30
0.0
 40
5.0
100
AcDbArc
 50
275.9377724516068
 51
0.0
  0
ARC
  5
2C27
330
18
100
AcDbEntity
  8
1
  6
Continuous
100
AcDbCircle
 10
223.934625827828
 20
230.2119101005723
 30
0.0
 40
15.0
100
AcDbArc
 50
184.080061637122
 51
308.4211138159525
  0
ARC
  5
2C28
330
18
100
AcDbEntity
  8
1
  6
Continuous
100
AcDbCircle
 10
223.934625827828
 20
230.2119101005723
 30
0.0
 40
15.0
100
AcDbArc
 50
318.4396388573909
 51
329.2197576477411
  0
ARC
  5
2C29
330
18
100
AcDbEntity
  8
1
  6
Continuous
100
AcDbCircle
 10
223.934625827828
 20
230.2119101005723
 30
0.0
 40
15.49999899999999
100
AcDbArc
 50
182.7167889545126
 51
314.0230394960986
  0
ARC
  5
2C2A
330
18
100
AcDbEntity
  8
1
  6
Continuous
100
AcDbCircle
 10
223.934625827828
 20
230.2119101005723
 30
0.0
 40
15.49999899999999
100
AcDbArc
 50
317.0656767190663
 51
331.8886439721707
  0
ARC
  5
2C2B
330
18
100
AcDbEntity
  8
1
  6
Continuous
100
AcDbCircle
 10
223.934625827828
 20
230.2119101005723
 30
0.0
 40
21.0
100
AcDbArc
 50
172.6672342634176
 51
350.2538477703032
  0
ARC
  5
2C2C
330
18
100
AcDbEntity
  8
1
  6
Continuous
100
AcDbCircle
 10
223.934625827828
 20
230.2119101005723
 30
0.0
 40
23.0
100
AcDbArc
 50
170.3402873042869
 51
354.4554948641516
  0
ARC
  5
2C2D
330
18
100
AcDbEntity
  8
1
  6
Continuous
100
AcDbCircle
 10
223.934625827828
 20
230.2119101005723
 30
0.0
 40
32.5
100
AcDbArc
 50
163.4211615349252
 51
7.801888885189527
  0
LINE
  5
2C2E
330
18
100
AcDbEntity
  8
1
  6
Continuous
100
AcDbLine
 10
205.4897984957942
 20
369.4876298516986
 30
0.0
 11
203.6120595280351
 21
369.4876298516986
 31
0.0
  0
ARC
  5
2C2F
330
18
100
AcDbEntity
  8
1
  6
Continuous
100
AcDbCircle
 10
206.8620575280351
 20
374.2688798516986
 30
0.0
 40
5.78125
100
AcDbArc
 50
235.7945400000014
 51
260.1383650511602
  0
LINE
  5
2C30
330
18
100
AcDbEntity
  8
1
  6
Continuous
100
AcDbLine
 10
203.6120555280351
 20
369.4876298516987
 30
0.0
 11
204.5275215280348
 21
370.0876298516987
 31
0.0
  0
LINE
  5
2C31
330
18
100
AcDbEntity
  8
1
  6
Continuous
100
AcDbLine
 10
199.6325622277079
 20
438.2876298516983
 30
0.0
 11
201.1123542277075
 21
438.7876298516983
 31
0.0
  0
ARC
  5
2C32
330
18
100
AcDbEntity
  8
1
  6
Continuous
100
AcDbCircle
 10
200.1325552277076
 20
438.5876298516986
 30
0.0
 40
1.0
100
AcDbArc
 50
11.53696000000025
 51
90.00001000000102
  0
ARC
  5
2C33
330
18
100
AcDbEntity
  8
1
  6
Continuous
100
AcDbCircle
 10
191.1325552278281
 20
373.0876498516986
 30
0.0
 40
3.0
100
AcDbArc
 50
180.0
 51
270.0
  0
LINE
  5
2C34
330
18
100
AcDbEntity
  8
1
  6
Continuous
100
AcDbLine
 10
188.1325552278281
 20
375.6876498516983
 30
0.0
 11
188.1325552278281
 21
373.0876498516986
 31
0.0
  0
ARC
  5
2C35
330
18
100
AcDbEntity
  8
1
  6
Continuous
100
AcDbCircle
 10
194.1325552277073
 20
438.5876298516986
 30
0.0
 40
1.0
100
AcDbArc
 50
89.99998999999901
 51
168.4630500000011
  0
LINE
  5
2C36
330
18
100
AcDbEntity
  8
1
  6
Continuous
100
AcDbLine
 10
178.3739286823246
 20
375.6876498516983
 30
0.0
 11
204.934625827828
 21
375.6876498516983
 31
0.0
  0
LINE
  5
2C37
330
18
100
AcDbEntity
  8
1
  6
Continuous
100
AcDbLine
 10
191.1325552278283
 20
370.0876498516984
 30
0.0
 11
205.2973367331403
 21
370.0876498516984
 31
0.0
  0
LINE
  5
2C38
330
18
100
AcDbEntity
  8
1
  6
Continuous
100
AcDbLine
 10
188.1325552278281
 20
375.1876398519491
 30
0.0
 11
204.9346258279551
 21
375.1876398520118
 31
0.0
  0
LINE
  5
2C39
330
18
100
AcDbEntity
  8
1
  6
Continuous
100
AcDbLine
 10
201.1123502277078
 20
438.7876298516983
 30
0.0
 11
193.1527592277079
 21
438.7876298516983
 31
0.0
  0
LINE
  5
2C3A
330
18
100
AcDbEntity
  8
1
  6
Continuous
100
AcDbLine
 10
194.6325582277071
 20
438.2876298516984
 30
0.0
 11
193.1527592277076
 21
438.7876298516983
 31
0.0
  0
LINE
  5
2C3B
330
18
100
AcDbEntity
  8
1
  6
Continuous
100
AcDbLine
 10
200.1325552277076
 20
439.5876298516983
 30
0.0
 11
194.1325552277076
 21
439.5876298516983
 31
0.0
  0
LINE
  5
2C3C
330
18
100
AcDbEntity
  8
1
  6
Continuous
100
AcDbLine
 10
178.3801736768541
 20
432.6876428516983
 30
0.0
 11
204.934625827828
 21
432.6876428516986
 31
0.0
  0
LINE
  5
2C3D
330
18
100
AcDbEntity
  8
1
  6
Continuous
100
AcDbLine
 10
188.1325552278278
 20
433.1876398519491
 30
0.0
 11
204.9346258279549
 21
433.1876398520119
 31
0.0
  0
ARC
  5
2C3E
330
18
100
AcDbEntity
  8
1
  6
Continuous
100
AcDbCircle
 10
206.8620575280351
 20
434.1063948516986
 30
0.0
 40
5.78125
100
AcDbArc
 50
99.8616613202447
 51
124.2054599999985
  0
LINE
  5
2C3F
330
18
100
AcDbEntity
  8
1
  6
Continuous
100
AcDbLine
 10
205.4897967070467
 20
438.8876448516986
 30
0.0
 11
203.6120595280351
 21
438.8876448516986
 31
0.0
  0
LINE
  5
2C40
330
18
100
AcDbEntity
  8
1
  6
Continuous
100
AcDbLine
 10
203.6120595280351
 20
438.8876518516986
 30
0.0
 11
204.527525528035
 21
438.2876538516986
 31
0.0
  0
ARC
  5
2C41
330
18
100
AcDbEntity
  8
1
  6
Continuous
100
AcDbCircle
 10
197.6325552277073
 20
369.0876338516984
 30
0.0
 40
4.0
100
AcDbArc
 50
345.5224880000022
 51
14.47750999999985
  0
ARC
  5
2C42
330
18
100
AcDbEntity
  8
1
  6
Continuous
100
AcDbCircle
 10
191.1325552278278
 20
435.2876458516987
 30
0.0
 40
3.0
100
AcDbArc
 50
90.0
 51
180.0
  0
ARC
  5
2C43
330
18
100
AcDbEntity
  8
1
  6
Continuous
100
AcDbCircle
 10
196.6325552277073
 20
369.0876338516984
 30
0.0
 40
4.0
100
AcDbArc
 50
165.5224900000001
 51
194.4775099999998
  0
LINE
  5
2C44
330
18
100
AcDbEntity
  8
1
  6
Continuous
100
AcDbLine
 10
191.1325552278281
 20
438.2876458516987
 30
0.0
 11
205.2973412859107
 21
438.2876458516987
 31
0.0
  0
LINE
  5
2C45
330
18
100
AcDbEntity
  8
1
  6
Continuous
100
AcDbLine
 10
201.5055382277075
 20
368.0876338516984
 30
0.0
 11
192.7595732277076
 21
368.0876338516984
 31
0.0
  0
LINE
  5
2C46
330
18
100
AcDbEntity
  8
1
  6
Continuous
100
AcDbLine
 10
188.1325552278278
 20
435.2876458516987
 30
0.0
 11
188.1325552278278
 21
432.6876428516984
 31
0.0
  0
LINE
  5
2C47
330
18
100
AcDbEntity
  8
1
  6
Continuous
100
AcDbLine
 10
204.934625827828
 20
372.6876398516983
 30
0.0
 11
204.934625827828
 21
435.6876398516982
 31
0.0
  0
LINE
  5
2C48
330
18
100
AcDbEntity
  8
1
  6
Continuous
100
AcDbLine
 10
185.4193589065048
 20
429.9876428516983
 30
0.0
 11
185.419358906505
 21
378.3876498516983
 31
0.0
  0
LINE
  5
2C49
330
18
100
AcDbEntity
  8
1
  6
Continuous
100
AcDbLine
 10
171.9303968278282
 20
376.1876398516985
 30
0.0
 11
171.9303968278282
 21
375.0876298516987
 31
0.0
  0
ARC
  5
2C4A
330
18
100
AcDbEntity
  8
1
  6
Continuous
100
AcDbCircle
 10
174.9303968278279
 20
375.0876298516987
 30
0.0
 40
3.0
100
AcDbArc
 50
180.0
 51
270.0
  0
LINE
  5
2C4B
330
18
100
AcDbEntity
  8
1
  6
Continuous
100
AcDbLine
 10
170.0002484875358
 20
377.1876398516983
 30
0.0
 11
172.9303968278284
 21
377.1876398516983
 31
0.0
  0
ARC
  5
2C4C
330
18
100
AcDbEntity
  8
1
  6
Continuous
100
AcDbCircle
 10
172.9303968278282
 20
375.1876398516983
 30
0.0
 40
2.0
100
AcDbArc
 50
0.000000000000007
 51
90.0
  0
ARC
  5
2C4D
330
18
100
AcDbEntity
  8
1
  6
Continuous
100
AcDbCircle
 10
170.0002484875356
 20
380.9398398516984
 30
0.0
 40
3.7522
100
AcDbArc
 50
193.6569954299302
 51
270.0
  0
ARC
  5
2C4E
330
18
100
AcDbEntity
  8
1
  6
Continuous
100
AcDbCircle
 10
172.299825478196
 20
380.9398398516987
 30
0.0
 40
3.7522
100
AcDbArc
 50
193.5621336244205
 51
270.0
  0
ARC
  5
2C4F
330
18
100
AcDbEntity
  8
1
  6
Continuous
100
AcDbCircle
 10
170.9303968278279
 20
376.1876398516985
 30
0.0
 40
1.0
100
AcDbArc
 50
0.000000000000007
 51
90.0
  0
ARC
  5
2C50
330
18
100
AcDbEntity
  8
1
  6
Continuous
100
AcDbCircle
 10
168.043832827828
 20
389.189399964805
 30
0.0
 40
1.5494
100
AcDbArc
 50
180.0
 51
193.5621336244205
  0
ARC
  5
2C51
330
18
100
AcDbEntity
  8
1
  6
Continuous
100
AcDbCircle
 10
165.7492848278277
 20
389.1054567071025
 30
0.0
 40
1.5494
100
AcDbArc
 50
180.0
 51
193.6569954299302
  0
LINE
  5
2C53
330
18
100
AcDbEntity
  8
1
  6
Continuous
100
AcDbLine
 10
164.2436916179203
 20
388.7396296355514
 30
0.0
 11
166.3541359005887
 21
380.0539121778415
 31
0.0
  0
LINE
  5
2C54
330
18
100
AcDbEntity
  8
1
  6
Continuous
100
AcDbLine
 10
168.6522511023449
 20
380.0599500786956
 30
0.0
 11
166.5376359998485
 21
388.8260661301774
 31
0.0
  0
ARC
  5
2C55
330
18
100
AcDbEntity
  8
1
  6
Continuous
100
AcDbCircle
 10
168.0438328278276
 20
419.1858797385923
 30
0.0
 40
1.5494
100
AcDbArc
 50
166.4378663755795
 51
180.0
  0
ARC
  5
2C56
330
18
100
AcDbEntity
  8
1
  6
Continuous
100
AcDbCircle
 10
165.7492848278277
 20
419.2698229962944
 30
0.0
 40
1.5494
100
AcDbArc
 50
166.3430045700697
 51
180.0
  0
LINE
  5
2C58
330
18
100
AcDbEntity
  8
1
  6
Continuous
100
AcDbLine
 10
171.9303968278279
 20
433.2876458516985
 30
0.0
 11
171.9303968278279
 21
432.1876398516986
 31
0.0
  0
ARC
  5
2C59
330
18
100
AcDbEntity
  8
1
  6
Continuous
100
AcDbCircle
 10
172.9303968278279
 20
433.1876398516985
 30
0.0
 40
2.0
100
AcDbArc
 50
270.0
 51
0.000000000000007
  0
ARC
  5
2C5A
330
18
100
AcDbEntity
  8
1
  6
Continuous
100
AcDbCircle
 10
170.9303968278279
 20
432.1876398516986
 30
0.0
 40
1.0
100
AcDbArc
 50
270.0
 51
0.000000000000007
  0
ARC
  5
2C5B
330
18
100
AcDbEntity
  8
1
  6
Continuous
100
AcDbCircle
 10
170.0002484875356
 20
427.4354398516987
 30
0.0
 40
3.7522
100
AcDbArc
 50
90.0
 51
166.3430045700697
  0
LINE
  5
2C5C
330
18
100
AcDbEntity
  8
1
  6
Continuous
100
AcDbLine
 10
170.0002484875356
 20
431.1876398516982
 30
0.0
 11
172.9303968278279
 21
431.1876398516982
 31
0.0
  0
ARC
  5
2C5D
330
18
100
AcDbEntity
  8
1
  6
Continuous
100
AcDbCircle
 10
172.2998254781957
 20
427.4354398516987
 30
0.0
 40
3.7522
100
AcDbArc
 50
90.0
 51
166.4378663755795
  0
LINE
  5
2C5E
330
18
100
AcDbEntity
  8
1
  6
Continuous
100
AcDbLine
 10
166.3541359005887
 20
428.3213675255558
 30
0.0
 11
164.2436916179201
 21
419.6356500678456
 31
0.0
  0
LINE
  5
2C5F
330
18
100
AcDbEntity
  8
1
  6
Continuous
100
AcDbLine
 10
166.5376359998488
 20
419.5492135732195
 30
0.0
 11
168.6522511023449
 21
428.3153296247006
 31
0.0
  0
ARC
  5
2C60
330
18
100
AcDbEntity
  8
1
  6
Continuous
100
AcDbCircle
 10
174.9303968278279
 20
433.2876458516985
 30
0.0
 40
3.0
100
AcDbArc
 50
90.0
 51
180.0
  0
LINE
  5
2C61
330
18
100
AcDbEntity
  8
1
  6
Continuous
100
AcDbLine
 10
164.1998848278281
 20
419.2698229962944
 30
0.0
 11
164.1998848278281
 21
389.1054567071025
 31
0.0
  0
LINE
  5
2C62
330
18
100
AcDbEntity
  8
1
  6
Continuous
100
AcDbLine
 10
166.4944328278281
 20
419.1858797385921
 30
0.0
 11
166.4944328278281
 21
389.189399964805
 31
0.0
  0
LINE
  5
2C63
330
18
100
AcDbEntity
  8
1
  6
Continuous
100
AcDbLine
 10
174.9303968278279
 20
433.2876458516985
 30
0.0
 11
174.9303968278281
 21
375.0876298516987
 31
0.0
  0
LINE
  5
2C64
330
18
100
AcDbEntity
  8
1
  6
Continuous
100
AcDbLine
 10
175.3801736768541
 20
429.6876428516982
 30
0.0
 11
175.3801736768543
 21
378.6876433516985
 31
0.0
  0
LINE
  5
2C65
330
18
100
AcDbEntity
  8
1
  6
Continuous
100
AcDbLine
 10
174.9303968278279
 20
436.2876458516987
 30
0.0
 11
188.3041281030818
 21
436.2876458516987
 31
0.0
  0
LINE
  5
2C66
330
18
100
AcDbEntity
  8
1
  6
Continuous
100
AcDbLine
 10
174.9303968278281
 20
372.0876298516987
 30
0.0
 11
188.3041351742292
 21
372.0876298516987
 31
0.0
  0
LINE
  5
2C67
330
18
100
AcDbEntity
  8
1
  6
Continuous
100
AcDbLine
 10
174.9303968278279
 20
433.2876458516985
 30
0.0
 11
188.1325552278281
 21
433.2876458516985
 31
0.0
  0
LINE
  5
2C68
330
18
100
AcDbEntity
  8
1
  6
Continuous
100
AcDbLine
 10
174.9303968278281
 20
375.0876298516987
 30
0.0
 11
188.1325552278281
 21
375.0876298516987
 31
0.0
  0
ARC
  5
2C69
330
18
100
AcDbEntity
  8
1
  6
Continuous
100
AcDbCircle
 10
178.3801736768541
 20
378.6876433516985
 30
0.0
 40
3.0
100
AcDbArc
 50
180.0
 51
270.0
  0
LINE
  5
2CDF
330
18
100
AcDbEntity
  8
1
  6
Continuous
100
AcDbLine
 10
86.87434110688149
 20
221.2119101005723
 30
0.0
 11
87.92750310688145
 21
221.2119101005723
 31
0.0
  0
ARC
  5
2CE0
330
18
100
AcDbEntity
  8
1
  6
Continuous
100
AcDbCircle
 10
87.92750310688145
 20
223.7119101005723
 30
0.0
 40
2.5
100
AcDbArc
 50
269.9999970000023
 51
352.134846799998
  0
ARC
  5
2CE1
330
18
100
AcDbEntity
  8
1
  6
Continuous
100
AcDbCircle
 10
87.92750310688145
 20
236.7119101005723
 30
0.0
 40
2.5
100
AcDbArc
 50
7.865149999999403
 51
90.0
  0
ARC
  5
2CE2
330
18
100
AcDbEntity
  8
1
  6
Continuous
100
AcDbCircle
 10
40.87434110688128
 20
230.2119101005723
 30
0.0
 40
50.0
100
AcDbArc
 50
352.134846799998
 51
7.865149999999403
  0
LINE
  5
2CE3
330
18
100
AcDbEntity
  8
1
  6
Continuous
100
AcDbLine
 10
86.87434110688149
 20
239.2119101005723
 30
0.0
 11
87.92750310688145
 21
239.2119101005723
 31
0.0
  0
ARC
  5
2CFA
330
18
100
AcDbEntity
  8
1
  6
Continuous
100
AcDbCircle
 10
28.45516869789708
 20
237.5731296005723
 30
0.0
 40
3.48931044130072
100
AcDbArc
 50
155.5837416246904
 51
224.6855814381506
  0
LINE
  5
2CFB
330
18
100
AcDbEntity
  8
1
  6
Continuous
100
AcDbLine
 10
26.28930686429112
 20
240.0268678579823
 30
0.0
 11
29.87436110688145
 21
240.0268678579823
 31
0.0
  0
LINE
  5
2CFC
330
18
100
AcDbEntity
  8
1
  6
Continuous
100
AcDbLine
 10
24.97435110688115
 20
238.7119121005723
 30
0.0
 11
26.28930686429112
 21
240.0268678579823
 31
0.0
  0
ARC
  5
2CFD
330
18
100
AcDbEntity
  8
1
  6
Continuous
100
AcDbCircle
 10
28.45516869789708
 20
222.8506946005722
 30
0.0
 40
3.48931044130072
100
AcDbArc
 50
135.3144185618493
 51
204.4162583753095
  0
ARC
  5
2CFE
330
18
100
AcDbEntity
  8
1
  6
Continuous
100
AcDbCircle
 10
24.57436110688127
 20
222.9119091005723
 30
0.0
 40
1.199999999999999
100
AcDbArc
 50
180.0000099999977
 51
270.0
  0
ARC
  5
2CFF
330
18
100
AcDbEntity
  8
1
  6
Continuous
100
AcDbCircle
 10
24.57436110688127
 20
237.5119111005723
 30
0.0
 40
1.199999999999999
100
AcDbArc
 50
90.00000299999769
 51
180.0
  0
ARC
  5
2D00
330
18
100
AcDbEntity
  8
1
  6
Continuous
100
AcDbCircle
 10
37.51601165494503
 20
230.2119088993031
 30
0.0
 40
12.54166054806418
100
AcDbArc
 50
156.9649307564615
 51
203.035037459681
  0
LINE
  5
2D01
330
18
100
AcDbEntity
  8
1
  6
Continuous
100
AcDbLine
 10
25.97435110688161
 20
225.3044328579822
 30
0.0
 11
29.87436110688145
 21
225.3044328579822
 31
0.0
  0
LINE
  5
2D02
330
18
100
AcDbEntity
  8
1
  6
Continuous
100
AcDbLine
 10
25.97435110688115
 20
235.119391343162
 30
0.0
 11
29.87436110688122
 21
235.119391343162
 31
0.0
  0
LINE
  5
2D03
330
18
100
AcDbEntity
  8
1
  6
Continuous
100
AcDbLine
 10
24.97435110688161
 20
221.7119121005721
 30
0.0
 11
26.28930686429112
 21
220.3969563431625
 31
0.0
  0
LINE
  5
2D04
330
18
100
AcDbEntity
  8
1
  6
Continuous
100
AcDbLine
 10
24.57436110688127
 20
221.7119121005721
 30
0.0
 11
24.97435110688161
 21
221.7119121005721
 31
0.0
  0
LINE
  5
2D05
330
18
100
AcDbEntity
  8
1
  6
Continuous
100
AcDbLine
 10
24.57436110688127
 20
238.7119121005723
 30
0.0
 11
24.97435110688161
 21
238.7119121005723
 31
0.0
  0
LINE
  5
2D06
330
18
100
AcDbEntity
  8
1
  6
Continuous
100
AcDbLine
 10
26.28930686429112
 20
220.3969563431622
 30
0.0
 11
29.87436110688145
 21
220.3969563431622
 31
0.0
  0
LINE
  5
2D07
330
18
100
AcDbEntity
  8
1
  6
Continuous
100
AcDbLine
 10
24.97435110688161
 20
221.7119121005721
 30
0.0
 11
24.97435110688161
 21
238.7119121005723
 31
0.0
  0
LINE
  5
2D08
330
18
100
AcDbEntity
  8
1
  6
Continuous
100
AcDbLine
 10
23.37436110688145
 20
222.9119091005723
 30
0.0
 11
23.37436110688145
 21
237.5119111005723
 31
0.0
  0
LINE
  5
2D09
330
18
100
AcDbEntity
  8
4
  6
CENTER
 48
0.2
100
AcDbLine
 10
277.434625827828
 20
442.1876398516984
 30
0.0
 11
277.434625827828
 21
429.1876398516984
 31
0.0
  0
LINE
  5
2D0A
330
18
100
AcDbEntity
  8
4
  6
CENTER
 48
0.2
100
AcDbLine
 10
283.9346258278279
 20
435.6876398516986
 30
0.0
 11
270.9346258278281
 21
435.6876398516986
 31
0.0
  0
ARC
  5
2D0B
330
18
100
AcDbEntity
  8
1
  6
Continuous
100
AcDbCircle
 10
277.434625827828
 20
435.6876398516986
 30
0.0
 40
9.5
100
AcDbArc
 50
0.0000400000007758
 51
90.00001799999918
  0
CIRCLE
  5
2D0C
330
18
100
AcDbEntity
  8
1
  6
Continuous
100
AcDbCircle
 10
277.434625827828
 20
435.6876398516986
 30
0.0
 40
4.400000099999996
  0
LINE
  5
2D0D
330
18
100
AcDbEntity
  8
1
  6
Continuous
100
AcDbLine
 10
277.434625827828
 20
445.1876398516986
 30
0.0
 11
214.4346258278281
 21
445.1876398516986
 31
0.0
  0
LINE
  5
2D0E
330
18
100
AcDbEntity
  8
4
  6
CENTER
 48
0.2
100
AcDbLine
 10
214.4346258278281
 20
442.1876398516984
 30
0.0
 11
214.4346258278281
 21
429.1876398516984
 31
0.0
  0
LINE
  5
2D0F
330
18
100
AcDbEntity
  8
4
  6
CENTER
 48
0.2
100
AcDbLine
 10
220.9346258278281
 20
435.6876398516986
 30
0.0
 11
207.934625827828
 21
435.6876398516986
 31
0.0
  0
ARC
  5
2D10
330
18
100
AcDbEntity
  8
1
  6
Continuous
100
AcDbCircle
 10
214.4346258278281
 20
435.6876398516986
 30
0.0
 40
9.5
100
AcDbArc
 50
90.00001799999918
 51
180.0
  0
CIRCLE
  5
2D11
330
18
100
AcDbEntity
  8
1
  6
Continuous
100
AcDbCircle
 10
214.4346258278281
 20
435.6876398516986
 30
0.0
 40
4.400000099999996
  0
LINE
  5
2D12
330
18
100
AcDbEntity
  8
4
  6
CENTER
 48
0.5
100
AcDbLine
 10
291.9346258278281
 20
404.1876398516986
 30
0.0
 11
159.199884827828
 21
404.1876398516984
 31
0.0
  0
LINE
  5
2D13
330
18
100
AcDbEntity
  8
1
  6
Continuous
100
AcDbLine
 10
204.934625827828
 20
435.6876398516986
 30
0.0
 11
204.934625827828
 21
372.6876398516985
 31
0.0
  0
LINE
  5
2D14
330
18
100
AcDbEntity
  8
4
  6
CENTER
 48
0.2
100
AcDbLine
 10
214.4346258278281
 20
379.1876398516985
 30
0.0
 11
214.4346258278281
 21
366.1876398516985
 31
0.0
  0
LINE
  5
2D15
330
18
100
AcDbEntity
  8
4
  6
CENTER
 48
0.2
100
AcDbLine
 10
220.9346258278281
 20
372.6876398516985
 30
0.0
 11
207.934625827828
 21
372.6876398516985
 31
0.0
  0
ARC
  5
2D16
330
18
100
AcDbEntity
  8
1
  6
Continuous
100
AcDbCircle
 10
214.4346258278281
 20
372.6876398516985
 30
0.0
 40
9.5
100
AcDbArc
 50
180.0
 51
269.9999800000044
  0
CIRCLE
  5
2D17
330
18
100
AcDbEntity
  8
1
  6
Continuous
100
AcDbCircle
 10
214.4346258278281
 20
372.6876398516985
 30
0.0
 40
4.400000099999996
  0
CIRCLE
  5
2D18
330
18
100
AcDbEntity
  8
1
  6
Continuous
100
AcDbCircle
 10
245.9346258278281
 20
404.1876398516984
 30
0.0
 40
12.0
  0
CIRCLE
  5
2D19
330
18
100
AcDbEntity
  8
1
  6
Continuous
100
AcDbCircle
 10
245.9346258278281
 20
404.1876398516984
 30
0.0
 40
15.5
  0
LINE
  5
2D1B
330
18
100
AcDbEntity
  8
4
  6
CENTER
 48
0.2
100
AcDbLine
 10
277.434625827828
 20
291.7706574005723
 30
0.0
 11
277.434625827828
 21
280.6611746005724
 31
0.0
  0
LINE
  5
2D1C
330
18
100
AcDbEntity
  8
1
  6
Continuous
100
AcDbLine
 10
279.9346339098881
 20
263.2119096784085
 30
0.0
 11
278.596986827828
 21
270.0935271005726
 31
0.0
  0
LINE
  5
2D1D
330
18
100
AcDbEntity
  8
1
  6
Continuous
100
AcDbLine
 10
275.934625827828
 20
273.7119101005723
 30
0.0
 11
275.934625827828
 21
272.7119101005723
 31
0.0
  0
LINE
  5
2D1E
330
18
100
AcDbEntity
  8
1
  6
Continuous
100
AcDbLine
 10
275.9346108278279
 20
280.7119125005723
 30
0.0
 11
274.878290827828
 21
277.1119121005723
 31
0.0
  0
ARC
  5
2D1F
330
18
100
AcDbEntity
  8
1
  6
Continuous
100
AcDbCircle
 10
269.934625827828
 20
273.7119101005723
 30
0.0
 40
6.0
100
AcDbArc
 50
0.000000000000007
 51
34.51812000000231
  0
ARC
  5
2D20
330
18
100
AcDbEntity
  8
1
  6
Continuous
100
AcDbCircle
 10
276.9346258278281
 20
272.7119101005723
 30
0.0
 40
1.0
100
AcDbArc
 50
179.9999799999979
 51
270.0000300000029
  0
ARC
  5
2D21
330
18
100
AcDbEntity
  8
1
  6
Continuous
100
AcDbCircle
 10
276.633722827828
 20
269.7119101005723
 30
0.0
 40
2.0
100
AcDbArc
 50
10.99994800000077
 51
89.99998200000083
  0
LINE
  5
2D23
330
18
100
AcDbEntity
  8
4
  6
CENTER
 48
0.5
100
AcDbLine
 10
245.9346258278281
 20
450.1876398516984
 30
0.0
 11
245.9346258278281
 21
358.1876398516985
 31
0.0
  0
LINE
  5
2D24
330
18
100
AcDbEntity
  8
1
  6
Continuous
100
AcDbLine
 10
286.934625827828
 20
435.6876398516986
 30
0.0
 11
286.934625827828
 21
372.6876398516985
 31
0.0
  0
LINE
  5
2D25
330
18
100
AcDbEntity
  8
1
  6
Continuous
100
AcDbLine
 10
277.434625827828
 20
363.1876398516985
 30
0.0
 11
214.4346258278281
 21
363.1876398516985
 31
0.0
  0
LINE
  5
2D26
330
18
100
AcDbEntity
  8
4
  6
CENTER
 48
0.2
100
AcDbLine
 10
277.434625827828
 20
379.1876398516985
 30
0.0
 11
277.434625827828
 21
366.1876398516985
 31
0.0
  0
LINE
  5
2D27
330
18
100
AcDbEntity
  8
4
  6
CENTER
 48
0.2
100
AcDbLine
 10
283.9346258278279
 20
372.6876398516985
 30
0.0
 11
270.9346258278281
 21
372.6876398516985
 31
0.0
  0
LINE
  5
2D28
330
18
100
AcDbEntity
  8
4
  6
CENTER
 48
0.5
100
AcDbLine
 10
245.9346258278281
 20
292.7119101005723
 30
0.0
 11
245.9346258278281
 21
260.152326115542
 31
0.0
  0
LINE
  5
2D2A
330
18
100
AcDbEntity
  8
1
  6
Continuous
100
AcDbLine
 10
204.934625827828
 20
287.7119101005723
 30
0.0
 11
286.934625827828
 21
287.7119101005723
 31
0.0
  0
LINE
  5
2D2B
330
18
100
AcDbEntity
  8
1
  6
Continuous
100
AcDbLine
 10
99.37436110688146
 20
287.7119101005723
 30
0.0
 11
17.37436110688145
 21
287.7119101005723
 31
0.0
  0
LINE
  5
2D2D
330
18
100
AcDbEntity
  8
4
  6
CENTER
 48
0.5
100
AcDbLine
 10
58.37436110688146
 20
292.7119101005723
 30
0.0
 11
58.37436110688146
 21
192.7119101005721
 31
0.0
  0
LINE
  5
2D30
330
18
100
AcDbEntity
  8
1
  6
Continuous
100
AcDbLine
 10
88.37436110688145
 20
273.7119101005723
 30
0.0
 11
88.37436110688145
 21
271.6910251005724
 31
0.0
  0
LINE
  5
2D31
330
18
100
AcDbEntity
  8
1
  6
Continuous
100
AcDbLine
 10
28.37436110688145
 20
273.7119101005723
 30
0.0
 11
28.37436110688145
 21
271.6910251005724
 31
0.0
  0
LINE
  5
2D33
330
18
100
AcDbEntity
  8
1
  6
Continuous
100
AcDbLine
 10
87.31804110688154
 20
277.1119101005723
 30
0.0
 11
29.43068110688114
 21
277.1119101005723
 31
0.0
  0
LINE
  5
2D34
330
18
100
AcDbEntity
  8
1
  6
Continuous
100
AcDbLine
 10
88.37436110688145
 20
280.7119134005722
 30
0.0
 11
87.31804110688154
 21
277.1119111005723
 31
0.0
  0
LINE
  5
2D35
330
18
100
AcDbEntity
  8
1
  6
Continuous
100
AcDbLine
 10
28.37436910688143
 20
280.7119134005722
 30
0.0
 11
29.43068910688157
 21
277.1119141005723
 31
0.0
  0
LINE
  5
2D38
330
18
100
AcDbEntity
  8
4
  6
CENTER
 48
0.5
100
AcDbLine
 10
95.87434110688127
 20
230.2119101005723
 30
0.0
 11
16.87436110688111
 21
230.2119101005724
 31
0.0
  0
LINE
  5
2D3A
330
18
100
AcDbEntity
  8
1
  6
Continuous
100
AcDbLine
 10
22.62436110688122
 20
225.2119141005723
 30
0.0
 11
21.87436110688122
 21
225.9619101005723
 31
0.0
  0
LINE
  5
2D3B
330
18
100
AcDbEntity
  8
1
  6
Continuous
100
AcDbLine
 10
21.87436110688122
 20
234.4619021005724
 30
0.0
 11
22.6243811068814
 21
235.2119101005723
 31
0.0
  0
LINE
  5
2D3C
330
18
100
AcDbEntity
  8
1
  6
Continuous
100
AcDbLine
 10
35.87436110688145
 20
216.2119101005722
 30
0.0
 11
32.17436410688151
 21
216.2119101005722
 31
0.0
  0
LINE
  5
2D3D
330
18
100
AcDbEntity
  8
1
  6
Continuous
100
AcDbLine
 10
84.57436110688147
 20
216.2119101005722
 30
0.0
 11
80.87436110688145
 21
216.2119101005722
 31
0.0
  0
LINE
  5
2D3E
330
18
100
AcDbEntity
  8
1
  6
Continuous
100
AcDbLine
 10
80.87436110688145
 20
245.6197891005723
 30
0.0
 11
80.87436110688145
 21
216.2119101005722
 31
0.0
  0
LINE
  5
2D3F
330
18
100
AcDbEntity
  8
1
  6
Continuous
100
AcDbLine
 10
29.27435510688133
 20
249.1903681005723
 30
0.0
 11
29.27435510688133
 21
240.0268678579823
 31
0.0
  0
LINE
  5
2D40
330
18
100
AcDbEntity
  8
1
  6
Continuous
100
AcDbLine
 10
87.47437110688156
 20
249.1903681005723
 30
0.0
 11
87.47437110688156
 21
239.2119101005723
 31
0.0
  0
LINE
  5
2D41
330
18
100
AcDbEntity
  8
1
  6
Continuous
100
AcDbLine
 10
21.87436110688122
 20
234.4619101005723
 30
0.0
 11
21.87436110688122
 21
225.9619101005723
 31
0.0
  0
LINE
  5
2D42
330
18
100
AcDbEntity
  8
1
  6
Continuous
100
AcDbLine
 10
22.62436110688122
 20
235.2119101005723
 30
0.0
 11
22.62436110688122
 21
225.2119101005723
 31
0.0
  0
LINE
  5
2D44
330
18
100
AcDbEntity
  8
1
  6
Continuous
100
AcDbLine
 10
22.62436110688122
 20
235.2119101005723
 30
0.0
 11
23.37436110688145
 21
235.2119101005723
 31
0.0
  0
LINE
  5
2D45
330
18
100
AcDbEntity
  8
1
  6
Continuous
100
AcDbLine
 10
22.62436110688145
 20
225.2119101005723
 30
0.0
 11
23.37436110688145
 21
225.2119101005723
 31
0.0
  0
LINE
  5
2D46
330
18
100
AcDbEntity
  8
4
  6
CENTER
 48
0.5
100
AcDbLine
 10
186.434625827828
 20
230.2119101005723
 30
0.0
 11
261.434625827828
 21
230.2119101005723
 31
0.0
  0
LINE
  5
2D47
330
18
100
AcDbEntity
  8
1
  6
Continuous
100
AcDbLine
 10
86.87434110688149
 20
249.1903681005723
 30
0.0
 11
86.87434110688149
 21
218.5044291005723
 31
0.0
  0
LINE
  5
2D48
330
18
100
AcDbEntity
  8
1
  6
Continuous
100
AcDbLine
 10
29.87436110688145
 20
249.1903681005723
 30
0.0
 11
29.87436110688145
 21
218.5119131005723
 31
0.0
  0
LINE
  5
2D49
330
18
100
AcDbEntity
  8
1
  6
Continuous
100
AcDbLine
 10
35.87436110688145
 20
245.6197891005723
 30
0.0
 11
35.87436110688145
 21
216.2119101005722
 31
0.0
  0
LINE
  5
2D4A
330
18
100
AcDbEntity
  8
1
  6
Continuous
100
AcDbLine
 10
31.87436110688145
 20
249.1903681005723
 30
0.0
 11
31.87436110688145
 21
218.2119101005723
 31
0.0
  0
LINE
  5
2D4B
330
18
100
AcDbEntity
  8
1
  6
Continuous
100
AcDbLine
 10
84.87436110688145
 20
249.1903681005723
 30
0.0
 11
84.87436110688145
 21
218.2119101005723
 31
0.0
  0
LINE
  5
2D4C
330
18
100
AcDbEntity
  8
1
  6
Continuous
100
AcDbLine
 10
35.87436110688145
 20
218.2119101005723
 30
0.0
 11
31.87436110688145
 21
218.2119101005723
 31
0.0
  0
LINE
  5
2D4F
330
18
100
AcDbEntity
  8
1
  6
Continuous
100
AcDbLine
 10
212.934625827828
 20
271.7119101005723
 30
0.0
 11
276.633722827828
 21
271.7119101005723
 31
0.0
  0
LINE
  5
2D50
330
18
100
AcDbEntity
  8
4
  6
CENTER
 48
0.2
100
AcDbLine
 10
214.4346258278281
 20
291.7706574005723
 30
0.0
 11
214.4346258278281
 21
280.6611746005724
 31
0.0
  0
LINE
  5
2D51
330
18
100
AcDbEntity
  8
1
  6
Continuous
100
AcDbLine
 10
215.934625827828
 20
273.7119101005723
 30
0.0
 11
215.934625827828
 21
272.7119101005723
 31
0.0
  0
LINE
  5
2D53
330
18
100
AcDbEntity
  8
1
  6
Continuous
100
AcDbLine
 10
216.990941827828
 20
277.1119101005723
 30
0.0
 11
274.8783058278279
 21
277.1119101005723
 31
0.0
  0
LINE
  5
2D54
330
18
100
AcDbEntity
  8
1
  6
Continuous
100
AcDbLine
 10
215.9346278278281
 20
280.7119106005723
 30
0.0
 11
216.9909438278279
 21
277.1119111005723
 31
0.0
  0
LINE
  5
2D55
330
18
100
AcDbEntity
  8
1
  6
Continuous
100
AcDbLine
 10
235.3761538278281
 20
224.0959361005723
 30
0.0
 11
226.687875827828
 21
268.7932741005722
 31
0.0
  0
LINE
  5
2D56
330
18
100
AcDbEntity
  8
1
  6
Continuous
100
AcDbLine
 10
84.87436110688145
 20
218.2119101005723
 30
0.0
 11
80.87436110688145
 21
218.2119101005723
 31
0.0
  0
LINE
  5
2D57
330
18
100
AcDbEntity
  8
1
  6
Continuous
100
AcDbLine
 10
26.27435510688155
 20
262.8474651005723
 30
0.0
 11
26.27435510688133
 21
240.0119161005723
 31
0.0
  0
LINE
  5
2D58
330
18
100
AcDbEntity
  8
1
  6
Continuous
100
AcDbLine
 10
90.47437110688134
 20
262.8474651005723
 30
0.0
 11
90.47437110688134
 21
236.5235678859003
 31
0.0
  0
LINE
  5
2D59
330
18
100
AcDbEntity
  8
1
  6
Continuous
100
AcDbLine
 10
225.587234827828
 20
267.0135921005722
 30
0.0
 11
235.3463729942632
 21
219.3429972875849
 31
0.0
  0
LINE
  5
2D5A
330
18
100
AcDbEntity
  8
1
  6
Continuous
100
AcDbLine
 10
219.387960827828
 20
271.7119101005723
 30
0.0
 11
219.387960827828
 21
269.4119111005722
 31
0.0
  0
LINE
  5
2D5B
330
18
100
AcDbEntity
  8
4
  6
CENTER
 48
0.2
100
AcDbLine
 10
197.1325552278278
 20
268.1910281005723
 30
0.0
 11
197.1325552278278
 21
257.1910281005723
 31
0.0
  0
LINE
  5
2D5C
330
18
100
AcDbEntity
  8
4
  6
CENTER
 48
0.2
100
AcDbLine
 10
202.6325552278279
 20
262.6910281005724
 30
0.0
 11
191.6325552278278
 21
262.6910281005724
 31
0.0
  0
LINE
  5
2D5D
330
18
100
AcDbEntity
  8
1
  6
Continuous
100
AcDbLine
 10
186.6211058278281
 20
269.4119111005722
 30
0.0
 11
191.126808327828
 21
269.4119111005722
 31
0.0
  0
LINE
  5
2D5E
330
18
100
AcDbEntity
  8
1
  6
Continuous
100
AcDbLine
 10
186.6211058278281
 20
271.7119101005723
 30
0.0
 11
219.9879608278279
 21
271.7119101005723
 31
0.0
  0
LINE
  5
2D5F
330
18
100
AcDbEntity
  8
1
  6
Continuous
100
AcDbLine
 10
206.4075701278279
 20
236.5416221005723
 30
0.0
 11
203.9024093278278
 21
238.1424601005722
 31
0.0
  0
LINE
  5
2D60
330
18
100
AcDbEntity
  8
1
  6
Continuous
100
AcDbLine
 10
223.9346298278281
 20
215.9119071005723
 30
0.0
 11
223.487556827828
 21
218.2119101005723
 31
0.0
  0
LINE
  5
2D61
330
18
100
AcDbEntity
  8
1
  6
Continuous
100
AcDbLine
 10
184.5717908278281
 20
270.4560891005722
 30
0.0
 11
180.2566398278283
 21
261.9871271005722
 31
0.0
  0
LINE
  5
2D62
330
18
100
AcDbEntity
  8
1
  6
Continuous
100
AcDbLine
 10
214.281715827828
 20
269.4119111005722
 30
0.0
 11
222.6481918278279
 21
269.4119111005722
 31
0.0
  0
LINE
  5
2D63
330
18
100
AcDbEntity
  8
1
  6
Continuous
100
AcDbLine
 10
184.1782548278283
 20
244.9839441005721
 30
0.0
 11
209.702089527828
 21
228.6786651005722
 31
0.0
  0
LINE
  5
2D64
330
18
100
AcDbEntity
  8
1
  6
Continuous
100
AcDbLine
 10
213.0250508278279
 20
245.7929001005723
 30
0.0
 11
207.136018927828
 21
239.8348961005723
 31
0.0
  0
LINE
  5
2D65
330
18
100
AcDbEntity
  8
1
  6
Continuous
100
AcDbLine
 10
188.2525658278279
 20
261.2261771005723
 30
0.0
 11
189.5220928278281
 21
261.2258601005722
 31
0.0
  0
LINE
  5
2D66
330
18
100
AcDbEntity
  8
1
  6
Continuous
100
AcDbLine
 10
171.9221808278278
 20
262.8474651005723
 30
0.0
 11
190.2000868278278
 21
260.9606951005723
 31
0.0
  0
LINE
  5
2D67
330
18
100
AcDbEntity
  8
1
  6
Continuous
100
AcDbLine
 10
207.0380689278276
 20
271.4746701005723
 30
0.0
 11
197.3310735278278
 21
271.6888371005723
 31
0.0
  0
LINE
  5
2D68
330
18
100
AcDbEntity
  8
1
  6
Continuous
100
AcDbLine
 10
219.0007818278281
 20
261.2343181005722
 30
0.0
 11
213.580946827828
 21
252.0986251005723
 31
0.0
  0
LINE
  5
2D69
330
18
100
AcDbEntity
  8
1
  6
Continuous
100
AcDbLine
 10
219.0007878278279
 20
261.2343181005722
 30
0.0
 11
220.850721827828
 21
261.9944191005722
 31
0.0
  0
LINE
  5
2D6A
330
18
100
AcDbEntity
  8
1
  6
Continuous
100
AcDbLine
 10
192.709275427828
 20
257.2656651005725
 30
0.0
 11
201.6454550278281
 21
249.9800261005725
 31
0.0
  0
LINE
  5
2D6B
330
18
100
AcDbEntity
  8
1
  6
Continuous
100
AcDbLine
 10
171.9303968278279
 20
262.9270571005722
 30
0.0
 11
170.544196827828
 21
249.4984131005722
 31
0.0
  0
LINE
  5
2D6C
330
18
100
AcDbEntity
  8
1
  6
Continuous
100
AcDbLine
 10
164.1998848278281
 20
272.1052511005723
 30
0.0
 11
171.930393827828
 21
262.9270591005722
 31
0.0
  0
LINE
  5
2D6D
330
18
100
AcDbEntity
  8
1
  6
Continuous
100
AcDbLine
 10
173.5283398278281
 20
249.1903681005723
 30
0.0
 11
170.5441968278282
 21
249.4984131005722
 31
0.0
  0
LINE
  5
2D6E
330
18
100
AcDbEntity
  8
1
  6
Continuous
100
AcDbLine
 10
173.5283398278281
 20
249.1903721005722
 30
0.0
 11
200.664619917828
 21
238.4722821005723
 31
0.0
  0
LINE
  5
2D6F
330
18
100
AcDbEntity
  8
1
  6
Continuous
100
AcDbLine
 10
166.4944328278281
 20
274.0378791005723
 30
0.0
 11
174.2249418278279
 21
264.8596861005724
 31
0.0
  0
LINE
  5
2D70
330
18
100
AcDbEntity
  8
1
  6
Continuous
100
AcDbLine
 10
166.4944328278281
 20
274.0378791005723
 30
0.0
 11
164.1998848278281
 21
272.1052511005723
 31
0.0
  0
LINE
  5
2D71
330
18
100
AcDbEntity
  8
1
  6
Continuous
100
AcDbLine
 10
24.27435510688133
 20
269.6910251005724
 30
0.0
 11
24.27435510688133
 21
248.1804391005723
 31
0.0
  0
LINE
  5
2D72
330
18
100
AcDbEntity
  8
1
  6
Continuous
100
AcDbLine
 10
87.37436110688145
 20
271.6910251005724
 30
0.0
 11
87.37436110688145
 21
262.8474651005723
 31
0.0
  0
LINE
  5
2D73
330
18
100
AcDbEntity
  8
1
  6
Continuous
100
AcDbLine
 10
29.37436110688145
 20
271.6910251005724
 30
0.0
 11
29.37436110688145
 21
262.8474651005723
 31
0.0
  0
LINE
  5
2D74
330
18
100
AcDbEntity
  8
1
  6
Continuous
100
AcDbLine
 10
92.47435110688162
 20
269.6910251005724
 30
0.0
 11
92.47435110688162
 21
248.1804391005723
 31
0.0
  0
LINE
  5
2D75
330
18
100
AcDbEntity
  8
4
  6
CENTER
 48
0.5
100
AcDbLine
 10
97.2370311068812
 20
262.6910281005724
 30
0.0
 11
19.27879510688126
 21
262.6910281005724
 31
0.0
  0
LINE
  5
2D76
330
18
100
AcDbEntity
  8
4
  6
CENTER
 48
0.2
100
AcDbLine
 10
96.76218110688138
 20
256.4242421005723
 30
0.0
 11
84.6809411068814
 21
256.4242421005723
 31
0.0
  0
LINE
  5
2D77
330
18
100
AcDbEntity
  8
4
  6
CENTER
 48
0.2
100
AcDbLine
 10
94.87218110688127
 20
244.052757100572
 30
0.0
 11
79.09026110688114
 21
244.052757100572
 31
0.0
  0
LINE
  5
2D78
330
18
100
AcDbEntity
  8
1
  6
Continuous
100
AcDbLine
 10
31.37436110688145
 20
267.3794651005723
 30
0.0
 11
31.37436110688145
 21
264.8474651005723
 31
0.0
  0
LINE
  5
2D79
330
18
100
AcDbEntity
  8
1
  6
Continuous
100
AcDbLine
 10
74.87436110688145
 20
274.0378791005723
 30
0.0
 11
41.87436110688145
 21
274.0378791005723
 31
0.0
  0
LINE
  5
2D7A
330
18
100
AcDbEntity
  8
1
  6
Continuous
100
AcDbLine
 10
74.87436110688145
 20
272.1052511005723
 30
0.0
 11
41.87436110688145
 21
272.1052511005723
 31
0.0
  0
LINE
  5
2D7B
330
18
100
AcDbEntity
  8
1
  6
Continuous
100
AcDbLine
 10
85.37436110688146
 20
267.3794651005723
 30
0.0
 11
85.37436110688146
 21
264.8474651005723
 31
0.0
  0
LINE
  5
2D7C
330
18
100
AcDbEntity
  8
1
  6
Continuous
100
AcDbLine
 10
86.87434110688149
 20
271.7119101005723
 30
0.0
 11
81.04862110688145
 21
271.7119101005723
 31
0.0
  0
LINE
  5
2D7D
330
18
100
AcDbEntity
  8
1
  6
Continuous
100
AcDbLine
 10
35.70010610688155
 20
271.7119101005723
 30
0.0
 11
29.87436110688168
 21
271.7119101005723
 31
0.0
  0
LINE
  5
2D7E
330
18
100
AcDbEntity
  8
1
  6
Continuous
100
AcDbLine
 10
83.10637110688162
 20
270.8256621005725
 30
0.0
 11
76.35860110688122
 21
273.7318451005726
 31
0.0
  0
LINE
  5
2D7F
330
18
100
AcDbEntity
  8
1
  6
Continuous
100
AcDbLine
 10
76.38012110688146
 20
271.7898671005723
 30
0.0
 11
83.1279011068816
 21
268.8335151005722
 31
0.0
  0
LINE
  5
2D80
330
18
100
AcDbEntity
  8
1
  6
Continuous
100
AcDbLine
 10
33.62082910688127
 20
268.8335171005722
 30
0.0
 11
40.36860110688143
 21
271.7898671005723
 31
0.0
  0
LINE
  5
2D81
330
18
100
AcDbEntity
  8
1
  6
Continuous
100
AcDbLine
 10
40.39012310688145
 20
273.7318461005723
 30
0.0
 11
33.6423511068815
 21
270.8256621005723
 31
0.0
  0
LINE
  5
2D82
330
18
100
AcDbEntity
  8
1
  6
Continuous
100
AcDbLine
 10
90.47437110688134
 20
262.8474651005723
 30
0.0
 11
87.37436110688145
 21
262.8474651005723
 31
0.0
  0
LINE
  5
2D83
330
18
100
AcDbEntity
  8
1
  6
Continuous
100
AcDbLine
 10
87.4743711068818
 20
249.4984131005722
 30
0.0
 11
29.27435510688155
 21
249.4984131005722
 31
0.0
  0
LINE
  5
2D84
330
18
100
AcDbEntity
  8
1
  6
Continuous
100
AcDbLine
 10
87.4743711068818
 20
249.1903681005723
 30
0.0
 11
29.27435510688155
 21
249.1903681005723
 31
0.0
  0
LINE
  5
2D85
330
18
100
AcDbEntity
  8
1
  6
Continuous
100
AcDbLine
 10
29.37436110688122
 20
262.8474651005723
 30
0.0
 11
26.27435510688155
 21
262.8474651005723
 31
0.0
  0
LINE
  5
2D86
330
18
100
AcDbEntity
  8
4
  6
CENTER
 48
0.2
100
AcDbLine
 10
32.74550110688142
 20
256.4242421005723
 30
0.0
 11
19.79927210688129
 21
256.4242421005723
 31
0.0
  0
LINE
  5
2D87
330
18
100
AcDbEntity
  8
4
  6
CENTER
 48
0.2
100
AcDbLine
 10
37.68022310688161
 20
244.0527571005723
 30
0.0
 11
22.35840810688137
 21
244.0527571005723
 31
0.0
  0
LINE
  5
2D88
330
18
100
AcDbEntity
  8
1
  6
Continuous
100
AcDbLine
 10
92.47435110688162
 20
248.1804391005723
 30
0.0
 11
90.47437110688155
 21
248.1804391005723
 31
0.0
  0
LINE
  5
2D89
330
18
100
AcDbEntity
  8
1
  6
Continuous
100
AcDbLine
 10
26.27435510688133
 20
248.1804391005723
 30
0.0
 11
24.27435510688133
 21
248.1804391005723
 31
0.0
  0
LINE
  5
2D8A
330
18
100
AcDbEntity
  8
1
  6
Continuous
100
AcDbLine
 10
90.4743511068816
 20
271.6910251005724
 30
0.0
 11
87.37436110688122
 21
271.6910251005724
 31
0.0
  0
LINE
  5
2D8B
330
18
100
AcDbEntity
  8
1
  6
Continuous
100
AcDbLine
 10
29.37436110688122
 20
271.6910251005724
 30
0.0
 11
26.27435510688155
 21
271.6910251005724
 31
0.0
  0
LINE
  5
2D8C
330
18
100
AcDbEntity
  8
4
  6
CENTER
 48
0.2
100
AcDbLine
 10
208.3687536278282
 20
244.0527571005723
 30
0.0
 11
197.3687555278281
 21
244.0527571005723
 31
0.0
  0
LINE
  5
2D8D
330
18
100
AcDbEntity
  8
4
  6
CENTER
 48
0.2
100
AcDbLine
 10
202.8687546278279
 20
249.5527571005723
 30
0.0
 11
202.8687546278279
 21
238.5527571005723
 31
0.0
  0
LINE
  5
2D8E
330
18
100
AcDbEntity
  8
4
  6
CENTER
 48
0.2
100
AcDbLine
 10
212.3620548278279
 20
256.4242421005723
 30
0.0
 11
201.3620564578279
 21
256.4242421005723
 31
0.0
  0
LINE
  5
2D8F
330
18
100
AcDbEntity
  8
4
  6
CENTER
 48
0.2
100
AcDbLine
 10
206.862055527828
 20
261.9242401005723
 30
0.0
 11
206.8620555278282
 21
250.9242441005723
 31
0.0
  0
LINE
  5
2D90
330
18
100
AcDbEntity
  8
4
  6
CENTER
 48
0.2
100
AcDbLine
 10
213.609478827828
 20
240.7317541005722
 30
0.0
 11
202.6094812278281
 21
240.7317541005722
 31
0.0
  0
LINE
  5
2D91
330
18
100
AcDbEntity
  8
4
  6
CENTER
 48
0.2
100
AcDbLine
 10
208.1094801278279
 20
246.2317501005723
 30
0.0
 11
208.1094801278279
 21
235.2317541005723
 31
0.0
  0
LINE
  5
2D92
330
18
100
AcDbEntity
  8
4
  6
CENTER
 48
0.2
100
AcDbLine
 10
207.3271157278282
 20
252.1129611005722
 30
0.0
 11
196.3271176278281
 21
252.1129611005722
 31
0.0
  0
LINE
  5
2D93
330
18
100
AcDbEntity
  8
4
  6
CENTER
 48
0.2
100
AcDbLine
 10
201.8271166278279
 20
257.6129611005723
 30
0.0
 11
201.8271166278279
 21
246.6129611005722
 31
0.0
  0
LINE
  5
2D94
330
18
100
AcDbEntity
  8
1
  6
Continuous
100
AcDbLine
 10
84.69418110688161
 20
262.8474651005723
 30
0.0
 11
32.3141881068816
 21
262.8474651005723
 31
0.0
  0
LINE
  5
2D95
330
18
100
AcDbEntity
  8
1
  6
Continuous
100
AcDbLine
 10
26.27435510688178
 20
246.7182501005722
 30
0.0
 11
25.67434910688144
 21
247.3027611005725
 31
0.0
  0
LINE
  5
2D96
330
18
100
AcDbEntity
  8
1
  6
Continuous
100
AcDbLine
 10
25.67435610688153
 20
247.3027571005723
 30
0.0
 11
25.67435610688153
 21
240.8027571005723
 31
0.0
  0
LINE
  5
2D97
330
18
100
AcDbEntity
  8
1
  6
Continuous
100
AcDbLine
 10
25.6743561068813
 20
240.8027571005723
 30
0.0
 11
26.27435510688155
 21
241.7182231005723
 31
0.0
  0
LINE
  5
2D98
330
18
100
AcDbEntity
  8
1
  6
Continuous
100
AcDbLine
 10
23.67435610688153
 20
258.7370906165667
 30
0.0
 11
23.67435610688153
 21
253.1742441005722
 31
0.0
  0
LINE
  5
2D99
330
18
100
AcDbEntity
  8
1
  6
Continuous
100
AcDbLine
 10
23.67434910688143
 20
253.1742441005722
 30
0.0
 11
24.27434710688157
 21
254.0897101005723
 31
0.0
  0
LINE
  5
2D9A
330
18
100
AcDbEntity
  8
1
  6
Continuous
100
AcDbLine
 10
24.27435110688156
 20
259.0897331005722
 30
0.0
 11
23.99440110688146
 21
259.3624531005723
 31
0.0
  0
LINE
  5
2D9B
330
18
100
AcDbEntity
  8
1
  6
Continuous
100
AcDbLine
 10
93.07437110688145
 20
253.1742401005723
 30
0.0
 11
92.4743711068813
 21
254.0897061005723
 31
0.0
  0
LINE
  5
2D9C
330
18
100
AcDbEntity
  8
1
  6
Continuous
100
AcDbLine
 10
93.07437110688123
 20
258.2110749501326
 30
0.0
 11
93.07437110688123
 21
253.1742441005722
 31
0.0
  0
LINE
  5
2D9D
330
18
100
AcDbEntity
  8
1
  6
Continuous
100
AcDbLine
 10
91.07437110688149
 20
247.3027571005723
 30
0.0
 11
91.07437110688149
 21
240.8027571005723
 31
0.0
  0
LINE
  5
2D9E
330
18
100
AcDbEntity
  8
1
  6
Continuous
100
AcDbLine
 10
90.47437110688134
 20
246.7182501005721
 30
0.0
 11
91.07437110688149
 21
247.3027611005722
 31
0.0
  0
LINE
  5
2D9F
330
18
100
AcDbEntity
  8
1
  6
Continuous
100
AcDbLine
 10
91.0743611068815
 20
240.8027571005723
 30
0.0
 11
90.47437110688155
 21
241.7182231005723
 31
0.0
  0
LINE
  5
2DA0
330
18
100
AcDbEntity
  8
1
  6
Continuous
100
AcDbLine
 10
94.47436710688156
 20
267.0640081005723
 30
0.0
 11
94.47436710688156
 21
258.3180431005723
 31
0.0
  0
LINE
  5
2DA1
330
18
100
AcDbEntity
  8
1
  6
Continuous
100
AcDbLine
 10
22.97437110688133
 20
265.6910251005724
 30
0.0
 11
22.97437110688133
 21
259.6910251005724
 31
0.0
  0
LINE
  5
2DA2
330
18
100
AcDbEntity
  8
1
  6
Continuous
100
AcDbLine
 10
23.77437110688151
 20
266.6708201005723
 30
0.0
 11
23.77437110688151
 21
258.7112291005723
 31
0.0
  0
LINE
  5
2DA3
330
18
100
AcDbEntity
  8
1
  6
Continuous
100
AcDbLine
 10
24.27437110688151
 20
265.1910321005723
 30
0.0
 11
23.77437110688151
 21
266.6708241005723
 31
0.0
  0
LINE
  5
2DA4
330
18
100
AcDbEntity
  8
1
  6
Continuous
100
AcDbLine
 10
24.27437110688151
 20
260.1910281005723
 30
0.0
 11
23.77437110688151
 21
258.7112291005723
 31
0.0
  0
LINE
  5
2DA5
330
18
100
AcDbEntity
  8
1
  6
Continuous
100
AcDbLine
 10
84.87436110688145
 20
237.2503091005722
 30
0.0
 11
83.67436110688164
 21
237.2503091005722
 31
0.0
  0
LINE
  5
2DA6
330
18
100
AcDbEntity
  8
1
  6
Continuous
100
AcDbLine
 10
83.37436110688145
 20
249.1903681005723
 30
0.0
 11
83.37436110688145
 21
238.9424741005723
 31
0.0
  0
LINE
  5
2DA7
330
18
100
AcDbEntity
  8
1
  6
Continuous
100
AcDbLine
 10
81.17436110688164
 20
245.6424181005723
 30
0.0
 11
81.17436110688116
 21
238.9424741005723
 31
0.0
  0
LINE
  5
2DA8
330
18
100
AcDbEntity
  8
1
  6
Continuous
100
AcDbLine
 10
83.37436110688145
 20
240.5527571005723
 30
0.0
 11
83.67436110688164
 21
240.5527571005723
 31
0.0
  0
LINE
  5
2DA9
330
18
100
AcDbEntity
  8
1
  6
Continuous
100
AcDbLine
 10
83.67436110688164
 20
249.1903681005723
 30
0.0
 11
83.67436110688164
 21
237.2503091005722
 31
0.0
  0
LINE
  5
2DAA
330
18
100
AcDbEntity
  8
1
  6
Continuous
100
AcDbLine
 10
83.37436110688145
 20
247.5527571005723
 30
0.0
 11
83.67436110688164
 21
247.5527571005723
 31
0.0
  0
LINE
  5
2DAB
330
18
100
AcDbEntity
  8
1
  6
Continuous
100
AcDbLine
 10
31.87436110688145
 20
237.2503091005722
 30
0.0
 11
33.07435810688161
 21
237.2503091005722
 31
0.0
  0
LINE
  5
2DAC
330
18
100
AcDbEntity
  8
1
  6
Continuous
100
AcDbLine
 10
33.37436110688145
 20
249.1903681005723
 30
0.0
 11
33.37436110688145
 21
238.9424768000674
 31
0.0
  0
LINE
  5
2DAD
330
18
100
AcDbEntity
  8
1
  6
Continuous
100
AcDbLine
 10
35.57435810688161
 20
245.6424181005723
 30
0.0
 11
35.57435810688161
 21
238.9424770582661
 31
0.0
  0
LINE
  5
2DAE
330
18
100
AcDbEntity
  8
1
  6
Continuous
100
AcDbLine
 10
33.37436110688145
 20
240.5527571005723
 30
0.0
 11
33.07435810688161
 21
240.5527571005723
 31
0.0
  0
LINE
  5
2DAF
330
18
100
AcDbEntity
  8
1
  6
Continuous
100
AcDbLine
 10
33.07435810688161
 20
249.1903681005723
 30
0.0
 11
33.07435810688161
 21
237.2503091005722
 31
0.0
  0
LINE
  5
2DB0
330
18
100
AcDbEntity
  8
1
  6
Continuous
100
AcDbLine
 10
33.37436110688145
 20
247.5527571005723
 30
0.0
 11
33.07435810688161
 21
247.5527571005723
 31
0.0
  0
LINE
  5
2DB1
330
18
100
AcDbEntity
  8
1
  6
Continuous
100
AcDbLine
 10
46.37436110688144
 20
249.1903681005723
 30
0.0
 11
46.37436110688144
 21
246.6197891005723
 31
0.0
  0
LINE
  5
2DB2
330
18
100
AcDbEntity
  8
1
  6
Continuous
100
AcDbLine
 10
45.37436110688146
 20
245.6197891005723
 30
0.0
 11
35.87436110688145
 21
245.6197891005723
 31
0.0
  0
LINE
  5
2DB3
330
18
100
AcDbEntity
  8
1
  6
Continuous
100
AcDbLine
 10
82.87436110688146
 20
249.1903681005723
 30
0.0
 11
82.87436110688146
 21
247.6197891005723
 31
0.0
  0
LINE
  5
2DB4
330
18
100
AcDbEntity
  8
1
  6
Continuous
100
AcDbLine
 10
33.87436110688144
 20
249.1903681005723
 30
0.0
 11
33.87436110688144
 21
247.6197891005723
 31
0.0
  0
LINE
  5
2DB5
330
18
100
AcDbEntity
  8
1
  6
Continuous
100
AcDbLine
 10
80.87436110688145
 20
245.6197891005723
 30
0.0
 11
71.37436110688145
 21
245.6197891005723
 31
0.0
  0
LINE
  5
2DB6
330
18
100
AcDbEntity
  8
1
  6
Continuous
100
AcDbLine
 10
70.37436110688145
 20
249.1903681005723
 30
0.0
 11
70.37436110688145
 21
246.6197891005723
 31
0.0
  0
LINE
  5
2DB7
330
18
100
AcDbEntity
  8
1
  6
Continuous
100
AcDbLine
 10
67.37436110688145
 20
243.8458211005722
 30
0.0
 11
49.37436110688146
 21
243.8458211005722
 31
0.0
  0
LINE
  5
2DB8
330
18
100
AcDbEntity
  8
1
  6
Continuous
100
AcDbLine
 10
67.37436110688145
 20
249.1903681005723
 30
0.0
 11
67.37436110688145
 21
243.8458211005722
 31
0.0
  0
LINE
  5
2DB9
330
18
100
AcDbEntity
  8
1
  6
Continuous
100
AcDbLine
 10
49.37436110688146
 20
249.1903681005723
 30
0.0
 11
49.37436110688146
 21
243.8458211005722
 31
0.0
  0
LINE
  5
2DBA
330
18
100
AcDbEntity
  8
1
  6
Continuous
100
AcDbLine
 10
61.37436110688145
 20
249.1903681005723
 30
0.0
 11
61.37436110688145
 21
245.5458221005723
 31
0.0
  0
LINE
  5
2DBB
330
18
100
AcDbEntity
  8
1
  6
Continuous
100
AcDbLine
 10
55.37436110688146
 20
249.1903681005723
 30
0.0
 11
55.37436110688146
 21
245.5458221005723
 31
0.0
  0
LINE
  5
2DBC
330
18
100
AcDbEntity
  8
1
  6
Continuous
100
AcDbLine
 10
60.87436110688146
 20
245.0458221005723
 30
0.0
 11
55.87436110688146
 21
245.0458221005723
 31
0.0
  0
LINE
  5
2DBD
330
18
100
AcDbEntity
  8
1
  6
Continuous
100
AcDbLine
 10
68.37436110688145
 20
245.0613551005722
 30
0.0
 11
67.37436110688145
 21
245.0613551005722
 31
0.0
  0
LINE
  5
2DBE
330
18
100
AcDbEntity
  8
1
  6
Continuous
100
AcDbLine
 10
68.37436110688145
 20
245.7299501005723
 30
0.0
 11
67.37436110688145
 21
245.7299501005723
 31
0.0
  0
LINE
  5
2DBF
330
18
100
AcDbEntity
  8
1
  6
Continuous
100
AcDbLine
 10
61.37436110688145
 20
245.7299501005723
 30
0.0
 11
55.37436110688146
 21
245.7299501005723
 31
0.0
  0
LINE
  5
2DC0
330
18
100
AcDbEntity
  8
1
  6
Continuous
100
AcDbLine
 10
49.37436110688146
 20
245.7299501005723
 30
0.0
 11
48.37436110688146
 21
245.7299501005723
 31
0.0
  0
LINE
  5
2DC1
330
18
100
AcDbEntity
  8
1
  6
Continuous
100
AcDbLine
 10
49.37436110688146
 20
245.0613551005722
 30
0.0
 11
48.37436110688146
 21
245.0613551005722
 31
0.0
  0
LINE
  5
2DC2
330
18
100
AcDbEntity
  8
5
  6
PHANTOM
 48
0.3
100
AcDbLine
 10
213.8044908278277
 20
249.0769381005723
 30
0.0
 11
214.1053618278279
 21
240.9538341005723
 31
0.0
  0
LINE
  5
2DC3
330
18
100
AcDbEntity
  8
5
  6
PHANTOM
 48
0.3
100
AcDbLine
 10
173.2222448278279
 20
231.0460581005723
 30
0.0
 11
187.112327827828
 21
243.0755001005723
 31
0.0
  0
LINE
  5
2DC4
330
18
100
AcDbEntity
  8
5
  6
PHANTOM
 48
0.3
100
AcDbLine
 10
173.1698628278279
 20
231.1065481005723
 30
0.0
 11
182.007804827828
 21
220.9016001005723
 31
0.0
  0
LINE
  5
2DC5
330
18
100
AcDbEntity
  8
5
  6
PHANTOM
 48
0.3
100
AcDbLine
 10
161.187490827828
 20
231.7567401005723
 30
0.0
 11
173.1698628278281
 21
231.1065441005721
 31
0.0
  0
LINE
  5
2DC6
330
18
100
AcDbEntity
  8
5
  6
PHANTOM
 48
0.3
100
AcDbLine
 10
184.2755698278281
 20
222.8655891005723
 30
0.0
 11
182.007804827828
 21
220.9016001005723
 31
0.0
  0
LINE
  5
2DC7
330
18
100
AcDbEntity
  8
5
  6
PHANTOM
 48
0.3
100
AcDbLine
 10
184.2755698278281
 20
222.8655891005723
 30
0.0
 11
210.6674663278281
 21
235.3043551005723
 31
0.0
  0
LINE
  5
2DC8
330
18
100
AcDbEntity
  8
5
  6
PHANTOM
 48
0.3
100
AcDbLine
 10
187.2291838278281
 20
243.1767041005723
 30
0.0
 11
192.4233238278281
 21
247.6750641005722
 31
0.0
  0
LINE
  5
2DC9
330
18
100
AcDbEntity
  8
5
  6
PHANTOM
 48
0.3
100
AcDbLine
 10
161.350038827828
 20
234.7523311005722
 30
0.0
 11
173.3324108278281
 21
234.1021381005723
 31
0.0
  0
LINE
  5
2DCA
330
18
100
AcDbEntity
  8
5
  6
PHANTOM
 48
0.3
100
AcDbLine
 10
161.350038827828
 20
234.7523311005722
 30
0.0
 11
161.187490827828
 21
231.7567401005723
 31
0.0
  0
LINE
  5
2DCB
330
18
100
AcDbEntity
  8
5
  6
PHANTOM
 48
0.3
100
AcDbLine
 10
188.9052548278282
 20
266.3395191005721
 30
0.0
 11
189.9663718278281
 21
265.6425741005723
 31
0.0
  0
LINE
  5
2DCC
330
18
100
AcDbEntity
  8
5
  6
PHANTOM
 48
0.3
100
AcDbLine
 10
210.2335016278282
 20
264.5980741005723
 30
0.0
 11
202.2362365278281
 21
270.1040171005721
 31
0.0
  0
LINE
  5
2DCD
330
18
100
AcDbEntity
  8
5
  6
PHANTOM
 48
0.3
100
AcDbLine
 10
214.6144218278279
 20
249.4726371005725
 30
0.0
 11
205.0701920278279
 21
244.8096811005721
 31
0.0
  0
LINE
  5
2DCE
330
18
100
AcDbEntity
  8
5
  6
PHANTOM
 48
0.3
100
AcDbLine
 10
214.6144258278279
 20
249.4726371005723
 30
0.0
 11
216.5780408278278
 21
249.0928721005723
 31
0.0
  0
LINE
  5
2DCF
330
18
100
AcDbEntity
  8
5
  6
PHANTOM
 48
0.3
100
AcDbLine
 10
190.4575358278277
 20
260.5829271005723
 30
0.0
 11
193.929808827828
 21
249.5884211005722
 31
0.0
  0
LINE
  5
2DD0
330
18
100
AcDbEntity
  8
1
  6
Continuous
100
AcDbLine
 10
29.87436110688145
 20
271.7119101005723
 30
0.0
 11
29.87436110688145
 21
262.8474651005723
 31
0.0
  0
LINE
  5
2DD1
330
18
100
AcDbEntity
  8
1
  6
Continuous
100
AcDbLine
 10
86.87434110688149
 20
271.7119101005723
 30
0.0
 11
86.87434110688149
 21
262.8474651005723
 31
0.0
  0
ARC
  5
2DD2
330
18
100
AcDbEntity
  8
1
  6
Continuous
100
AcDbCircle
 10
277.434625827828
 20
372.6876398516985
 30
0.0
 40
9.5
100
AcDbArc
 50
269.9999700000034
 51
0.0000200000020199
  0
CIRCLE
  5
2DD3
330
18
100
AcDbEntity
  8
1
  6
Continuous
100
AcDbCircle
 10
277.434625827828
 20
372.6876398516985
 30
0.0
 40
4.400000099999996
  0
CIRCLE
  5
2DD4
330
18
100
AcDbEntity
  8
1
  6
Continuous
100
AcDbCircle
 10
245.9346258278281
 20
404.1876398516984
 30
0.0
 40
29.0
  0
CIRCLE
  5
2DD5
330
18
100
AcDbEntity
  8
1
  6
Continuous
100
AcDbCircle
 10
245.9346258278281
 20
404.1876398516984
 30
0.0
 40
31.5
  0
ARC
  5
2DD6
330
18
100
AcDbEntity
  8
1
  6
Continuous
100
AcDbCircle
 10
34.37436110688145
 20
273.7119101005723
 30
0.0
 40
6.0
100
AcDbArc
 50
145.4818799999976
 51
180.0
  0
ARC
  5
2DD7
330
18
100
AcDbEntity
  8
1
  6
Continuous
100
AcDbCircle
 10
82.37436110688145
 20
273.7119101005723
 30
0.0
 40
6.0
100
AcDbArc
 50
359.696349999998
 51
34.51809
  0
ARC
  5
2DDA
330
18
100
AcDbEntity
  8
1
  6
Continuous
100
AcDbCircle
 10
32.17436410688151
 20
218.5119131005723
 30
0.0
 40
2.299999999999998
100
AcDbArc
 50
180.0
 51
270.0
  0
ARC
  5
2DDB
330
18
100
AcDbEntity
  8
1
  6
Continuous
100
AcDbCircle
 10
84.57436110688147
 20
218.5119131005723
 30
0.0
 40
2.299999999999998
100
AcDbArc
 50
270.0
 51
0.0000100000010064
  0
ARC
  5
2DDC
330
18
100
AcDbEntity
  8
1
  6
Continuous
100
AcDbCircle
 10
214.934625827828
 20
272.7119101005723
 30
0.0
 40
1.0
100
AcDbArc
 50
270.0000200000019
 51
0.000000000000007
  0
ARC
  5
2DDD
330
18
100
AcDbEntity
  8
1
  6
Continuous
100
AcDbCircle
 10
221.934625827828
 20
273.7119101005723
 30
0.0
 40
6.0
100
AcDbArc
 50
145.4819099999999
 51
179.9999599999992
  0
ARC
  5
2DDF
330
18
100
AcDbEntity
  8
1
  6
Continuous
100
AcDbCircle
 10
196.4377157278281
 20
308.5248731005723
 30
0.0
 40
95.0
100
AcDbArc
 50
293.8659399999995
 51
331.5117476157654
  0
ARC
  5
2DE0
330
18
100
AcDbEntity
  8
1
  6
Continuous
100
AcDbCircle
 10
223.934625827828
 20
230.2119101005723
 30
0.0
 40
14.3
100
AcDbArc
 50
270.0000200000019
 51
289.3814300000018
  0
ARC
  5
2DE1
330
18
100
AcDbEntity
  8
1
  6
Continuous
100
AcDbCircle
 10
222.6481918278279
 20
266.4119111005723
 30
0.0
 40
3.0
100
AcDbArc
 50
11.56974499999993
 51
90.00000299999769
  0
ARC
  5
2DE2
330
18
100
AcDbEntity
  8
1
  6
Continuous
100
AcDbCircle
 10
208.802003627828
 20
240.2925151005723
 30
0.0
 40
4.449999299999998
100
AcDbArc
 50
237.3941199999971
 51
56.51817999999906
  0
ARC
  5
2DE3
330
18
100
AcDbEntity
  8
1
  6
Continuous
100
AcDbCircle
 10
204.3185746278279
 20
220.2514611005723
 30
0.0
 40
10.0
100
AcDbArc
 50
26.92010800000193
 51
57.42851699999989
  0
ARC
  5
2DE4
330
18
100
AcDbEntity
  8
1
  6
Continuous
100
AcDbCircle
 10
196.4377157278281
 20
308.5248731005723
 30
0.0
 40
97.300003
100
AcDbArc
 50
289.3469700000014
 51
293.5708900000017
  0
ARC
  5
2DE5
330
18
100
AcDbEntity
  8
1
  6
Continuous
100
AcDbCircle
 10
186.6211058278281
 20
269.4119111005722
 30
0.0
 40
2.299999999999998
100
AcDbArc
 50
90.00000299999769
 51
153.0000100000006
  0
ARC
  5
2DE6
330
18
100
AcDbEntity
  8
1
  6
Continuous
100
AcDbCircle
 10
223.934625827828
 20
230.2119101005723
 30
0.0
 40
12.0
100
AcDbArc
 50
206.9201100000001
 51
267.8571200000041
  0
ARC
  5
2DE7
330
18
100
AcDbEntity
  8
1
  6
Continuous
100
AcDbCircle
 10
206.700629927828
 20
256.1804411005723
 30
0.0
 40
8.0
100
AcDbArc
 50
230.8097399999993
 51
329.3210600000002
  0
ARC
  5
2DE8
330
18
100
AcDbEntity
  8
1
  6
Continuous
100
AcDbCircle
 10
197.1325552278278
 20
262.6910251005723
 30
0.0
 40
9.0
100
AcDbArc
 50
88.73608300000027
 51
189.3671900000007
  0
ARC
  5
2DE9
330
18
100
AcDbEntity
  8
1
  6
Continuous
100
AcDbCircle
 10
206.700629927828
 20
256.1804411005723
 30
0.0
 40
15.29795
100
AcDbArc
 50
22.33673699999846
 51
88.73608300000027
  0
ARC
  5
2DEA
330
18
100
AcDbEntity
  8
1
  6
Continuous
100
AcDbCircle
 10
189.5218408278278
 20
260.2258581005723
 30
0.0
 40
1.0
100
AcDbArc
 50
17.94753599999975
 51
89.98565200000452
  0
ARC
  5
2DEB
330
18
100
AcDbEntity
  8
1
  6
Continuous
100
AcDbCircle
 10
197.1325552278278
 20
262.6910281005724
 30
0.0
 40
7.0
100
AcDbArc
 50
197.9475299999991
 51
230.8097399999993
  0
CIRCLE
  5
2DEC
330
18
100
AcDbEntity
  8
1
  6
Continuous
100
AcDbCircle
 10
197.1325552278278
 20
262.6910251005723
 30
0.0
 40
4.5
  0
CIRCLE
  5
2DED
330
18
100
AcDbEntity
  8
1
  6
Continuous
100
AcDbCircle
 10
202.8687546278279
 20
244.0527571005723
 30
0.0
 40
3.25
  0
CIRCLE
  5
2DEE
330
18
100
AcDbEntity
  8
1
  6
Continuous
100
AcDbCircle
 10
206.862055527828
 20
256.4242421005723
 30
0.0
 40
3.25
  0
ARC
  5
2DEF
330
18
100
AcDbEntity
  8
1
  6
Continuous
100
AcDbCircle
 10
206.8499810278278
 20
256.4281251005724
 30
0.0
 40
12.29794799999999
100
AcDbArc
 50
300.1404799999988
 51
18.75334599999975
  0
ARC
  5
2DF0
330
18
100
AcDbEntity
  8
1
  6
Continuous
100
AcDbCircle
 10
171.930391827828
 20
262.9270571005722
 30
0.0
 40
3.0
100
AcDbArc
 50
352.5780900000007
 51
40.10639999999783
  0
ARC
  5
2DF1
330
18
100
AcDbEntity
  8
1
  6
Continuous
100
AcDbCircle
 10
202.8687546278279
 20
244.0527531005723
 30
0.0
 40
6.0
100
AcDbArc
 50
248.3487099999968
 51
315.3335700000015
  0
ARC
  5
2DF2
330
18
100
AcDbEntity
  8
1
  6
Continuous
100
AcDbCircle
 10
81.6221311068814
 20
267.3794651005723
 30
0.0
 40
3.752229499999998
100
AcDbArc
 50
359.999989999999
 51
66.69904000000086
  0
ARC
  5
2DF3
330
18
100
AcDbEntity
  8
1
  6
Continuous
100
AcDbCircle
 10
41.87436110688145
 20
270.2856481005722
 30
0.0
 40
3.752229499999998
100
AcDbArc
 50
89.99999700000229
 51
113.3009619999976
  0
ARC
  5
2DF4
330
18
100
AcDbEntity
  8
1
  6
Continuous
100
AcDbCircle
 10
74.87436110688145
 20
268.3530211005722
 30
0.0
 40
3.752229499999998
100
AcDbArc
 50
66.34068000000114
 51
89.99999700000229
  0
ARC
  5
2DF5
330
18
100
AcDbEntity
  8
1
  6
Continuous
100
AcDbCircle
 10
41.87436110688145
 20
268.3530211005722
 30
0.0
 40
3.752229499999998
100
AcDbArc
 50
89.99999700000229
 51
113.6593219999985
  0
ARC
  5
2DF6
330
18
100
AcDbEntity
  8
1
  6
Continuous
100
AcDbCircle
 10
81.6221311068814
 20
265.3966691005723
 30
0.0
 40
3.752229499999998
100
AcDbArc
 50
359.999989999999
 51
66.34068000000114
  0
ARC
  5
2DF7
330
18
100
AcDbEntity
  8
1
  6
Continuous
100
AcDbCircle
 10
74.87436110688145
 20
270.2856481005722
 30
0.0
 40
3.752229499999998
100
AcDbArc
 50
66.69904000000086
 51
89.99999700000229
  0
ARC
  5
2DF8
330
18
100
AcDbEntity
  8
1
  6
Continuous
100
AcDbCircle
 10
35.12658910688151
 20
267.3794651005723
 30
0.0
 40
3.752229499999998
100
AcDbArc
 50
113.3009560000006
 51
180.0
  0
ARC
  5
2DF9
330
18
100
AcDbEntity
  8
1
  6
Continuous
100
AcDbCircle
 10
35.12658910688151
 20
265.3966691005723
 30
0.0
 40
3.752229499999998
100
AcDbArc
 50
113.6593149999995
 51
180.0
  0
ARC
  5
2DFA
330
18
100
AcDbEntity
  8
1
  6
Continuous
100
AcDbCircle
 10
87.47437110688156
 20
246.4984131005723
 30
0.0
 40
3.0
100
AcDbArc
 50
359.999989999999
 51
89.99999700000229
  0
ARC
  5
2DFB
330
18
100
AcDbEntity
  8
1
  6
Continuous
100
AcDbCircle
 10
29.27435510688133
 20
246.4984131005723
 30
0.0
 40
3.0
100
AcDbArc
 50
89.99999700000229
 51
180.0
  0
ARC
  5
2DFC
330
18
100
AcDbEntity
  8
1
  6
Continuous
100
AcDbCircle
 10
26.27435510688133
 20
269.6910251005724
 30
0.0
 40
2.0
100
AcDbArc
 50
89.99999700000229
 51
180.0
  0
ARC
  5
2DFD
330
18
100
AcDbEntity
  8
1
  6
Continuous
100
AcDbCircle
 10
90.4743511068816
 20
269.6910251005724
 30
0.0
 40
2.0
100
AcDbArc
 50
359.999989999999
 51
89.99999700000229
  0
ARC
  5
2DFE
330
18
100
AcDbEntity
  8
1
  6
Continuous
100
AcDbCircle
 10
87.37436110688145
 20
264.8474651005723
 30
0.0
 40
2.0
100
AcDbArc
 50
180.0
 51
270.0
  0
ARC
  5
2DFF
330
18
100
AcDbEntity
  8
1
  6
Continuous
100
AcDbCircle
 10
29.37436110688145
 20
264.8474651005723
 30
0.0
 40
2.0
100
AcDbArc
 50
270.0
 51
0.0000100000010064
  0
ARC
  5
2E00
330
18
100
AcDbEntity
  8
1
  6
Continuous
100
AcDbCircle
 10
30.45560610688153
 20
244.0527571005723
 30
0.0
 40
5.78125
100
AcDbArc
 50
145.7945419999999
 51
214.2054599999985
  0
ARC
  5
2E01
330
18
100
AcDbEntity
  8
1
  6
Continuous
100
AcDbCircle
 10
28.45560610688153
 20
256.4242421005723
 30
0.0
 40
5.78125
100
AcDbArc
 50
153.7543513697055
 51
214.2054599999985
  0
ARC
  5
2E02
330
18
100
AcDbEntity
  8
1
  6
Continuous
100
AcDbCircle
 10
88.29312110688148
 20
256.4242421005723
 30
0.0
 40
5.78125
100
AcDbArc
 50
325.7945400000013
 51
17.92752187093948
  0
ARC
  5
2E03
330
18
100
AcDbEntity
  8
1
  6
Continuous
100
AcDbCircle
 10
86.29312110688147
 20
244.0527571005723
 30
0.0
 40
5.78125
100
AcDbArc
 50
325.7945400000013
 51
34.20545999999856
  0
ARC
  5
2E04
330
18
100
AcDbEntity
  8
1
  6
Continuous
100
AcDbCircle
 10
93.47436710688134
 20
262.1910251005723
 30
0.0
 40
4.0
100
AcDbArc
 50
255.522489999997
 51
284.4775100000028
  0
ARC
  5
2E05
330
18
100
AcDbEntity
  8
1
  6
Continuous
100
AcDbCircle
 10
93.47436710688134
 20
263.1910251005724
 30
0.0
 40
4.0
100
AcDbArc
 50
75.52248800000223
 51
104.4775100000029
  0
ARC
  5
2E06
330
18
100
AcDbEntity
  8
1
  6
Continuous
100
AcDbCircle
 10
23.97437110688133
 20
265.6910251005724
 30
0.0
 40
1.0
100
AcDbArc
 50
101.5369599999963
 51
180.0000100000009
  0
ARC
  5
2E07
330
18
100
AcDbEntity
  8
1
  6
Continuous
100
AcDbCircle
 10
23.97437110688133
 20
259.6910251005724
 30
0.0
 40
1.0
100
AcDbArc
 50
179.9999899999989
 51
258.4630500000013
  0
ARC
  5
2E08
330
18
100
AcDbEntity
  8
1
  6
Continuous
100
AcDbCircle
 10
82.27436110688154
 20
243.2027591005722
 30
0.0
 40
4.400000099999996
100
AcDbArc
 50
255.522489999997
 51
284.4775100000028
  0
ARC
  5
2E09
330
18
100
AcDbEntity
  8
1
  6
Continuous
100
AcDbCircle
 10
34.47435910688112
 20
243.2027591005722
 30
0.0
 40
4.400000099999996
100
AcDbArc
 50
255.5225150479403
 51
284.477498400893
  0
ARC
  5
2E0A
330
18
100
AcDbEntity
  8
1
  6
Continuous
100
AcDbCircle
 10
35.87436110688145
 20
247.6197891005723
 30
0.0
 40
2.0
100
AcDbArc
 50
180.0
 51
270.0
  0
ARC
  5
2E0B
330
18
100
AcDbEntity
  8
1
  6
Continuous
100
AcDbCircle
 10
71.37436110688145
 20
246.6197891005723
 30
0.0
 40
1.0
100
AcDbArc
 50
180.0
 51
270.0
  0
ARC
  5
2E0C
330
18
100
AcDbEntity
  8
1
  6
Continuous
100
AcDbCircle
 10
45.37436110688146
 20
246.6197891005723
 30
0.0
 40
1.0
100
AcDbArc
 50
270.0
 51
0.0000100000010064
  0
ARC
  5
2E0D
330
18
100
AcDbEntity
  8
1
  6
Continuous
100
AcDbCircle
 10
80.87436110688145
 20
247.6197891005723
 30
0.0
 40
2.0
100
AcDbArc
 50
270.0
 51
0.0000100000010064
  0
ARC
  5
2E0E
330
18
100
AcDbEntity
  8
1
  6
Continuous
100
AcDbCircle
 10
55.87436110688146
 20
245.5458221005723
 30
0.0
 40
0.5
100
AcDbArc
 50
180.0
 51
270.0
  0
ARC
  5
2E0F
330
18
100
AcDbEntity
  8
1
  6
Continuous
100
AcDbCircle
 10
60.87436110688146
 20
245.5458221005723
 30
0.0
 40
0.5
100
AcDbArc
 50
270.0
 51
0.0000100000010064
  0
ARC
  5
2E10
330
18
100
AcDbEntity
  8
1
  6
Continuous
100
AcDbCircle
 10
68.37436110688145
 20
249.0613551005723
 30
0.0
 40
4.0
100
AcDbArc
 50
270.0
 51
306.3820600000013
  0
ARC
  5
2E11
330
18
100
AcDbEntity
  8
1
  6
Continuous
100
AcDbCircle
 10
48.37436110688146
 20
249.0613551005723
 30
0.0
 40
4.0
100
AcDbArc
 50
233.6179400000005
 51
270.0
  0
ARC
  5
2E12
330
18
100
AcDbEntity
  8
1
  6
Continuous
100
AcDbCircle
 10
68.37436110688145
 20
248.5299491005723
 30
0.0
 40
2.799999999999998
100
AcDbArc
 50
270.0
 51
315.5846900000006
  0
ARC
  5
2E13
330
18
100
AcDbEntity
  8
1
  6
Continuous
100
AcDbCircle
 10
48.37436110688146
 20
248.5299491005723
 30
0.0
 40
2.799999999999998
100
AcDbArc
 50
224.4153099999994
 51
270.0
  0
ARC
  5
2E14
330
18
100
AcDbEntity
  8
5
  6
PHANTOM
 48
0.3
100
AcDbCircle
 10
201.8271146078279
 20
252.1129641005722
 30
0.0
 40
8.5730658
100
AcDbArc
 50
182.7877100000021
 51
190.8078300000001
  0
ARC
  5
2E15
330
18
100
AcDbEntity
  8
5
  6
PHANTOM
 48
0.3
100
AcDbCircle
 10
190.4593348278281
 20
249.9428291005723
 30
0.0
 40
3.0
100
AcDbArc
 50
310.8940500000031
 51
10.80783900000229
  0
ARC
  5
2E16
330
18
100
AcDbEntity
  8
5
  6
PHANTOM
 48
0.3
100
AcDbCircle
 10
208.1094829278279
 20
240.7317501005723
 30
0.0
 40
6.0
100
AcDbArc
 50
295.1363400000021
 51
2.121207199999783
  0
ARC
  5
2E17
330
18
100
AcDbEntity
  8
5
  6
PHANTOM
 48
0.3
100
AcDbCircle
 10
173.1698648278281
 20
231.1065441005723
 30
0.0
 40
3.0
100
AcDbArc
 50
39.36573000000148
 51
86.89403500000429
  0
ARC
  5
2E18
330
18
100
AcDbEntity
  8
5
  6
PHANTOM
 48
0.3
100
AcDbCircle
 10
201.558403457828
 20
251.9976801005723
 30
0.0
 40
8.0
100
AcDbArc
 50
197.5271100000021
 51
296.0384199999977
  0
ARC
  5
2E19
330
18
100
AcDbEntity
  8
5
  6
PHANTOM
 48
0.3
100
AcDbCircle
 10
197.1325552278278
 20
262.6910251005723
 30
0.0
 40
9.0
100
AcDbArc
 50
55.45344200000138
 51
88.73608300000027
  0
ARC
  5
2E1A
330
18
100
AcDbEntity
  8
5
  6
PHANTOM
 48
0.3
100
AcDbCircle
 10
201.558403457828
 20
251.9976801005723
 30
0.0
 40
15.29795
100
AcDbArc
 50
349.054089999999
 51
55.45343799999759
  0
ARC
  5
2E1B
330
18
100
AcDbEntity
  8
5
  6
PHANTOM
 48
0.3
100
AcDbCircle
 10
189.4173918278281
 20
264.8067401005723
 30
0.0
 40
1.0
100
AcDbArc
 50
344.6648899999994
 51
56.70300800000227
  0
ARC
  5
2E1C
330
18
100
AcDbEntity
  8
5
  6
PHANTOM
 48
0.3
100
AcDbCircle
 10
197.1325573278279
 20
262.6910281005724
 30
0.0
 40
7.0
100
AcDbArc
 50
164.6648899999993
 51
197.5270999999992
  0
CIRCLE
  5
2E1D
330
18
100
AcDbEntity
  8
5
  6
PHANTOM
 48
0.3
100
AcDbCircle
 10
201.827141007828
 20
252.1129031005723
 30
0.0
 40
3.25
  0
CIRCLE
  5
2E1E
330
18
100
AcDbEntity
  8
5
  6
PHANTOM
 48
0.3
100
AcDbCircle
 10
208.1094801278279
 20
240.7317541005722
 30
0.0
 40
3.25
  0
LINE
  5
2F2C
330
18
100
AcDbEntity
  8
2
  6
Continuous
100
AcDbLine
 10
21.87436110688122
 20
234.3999101004293
 30
0.0
 11
23.37436110688145
 21
234.3999101004293
 31
0.0
  0
LINE
  5
2F2D
330
18
100
AcDbEntity
  8
2
  6
Continuous
100
AcDbLine
 10
21.87436110688122
 20
226.0239101004293
 30
0.0
 11
23.37436110688145
 21
226.0239101004293
 31
0.0
  0
LINE
  5
2F32
330
18
100
AcDbEntity
  8
4
  6
CENTER
 48
0.2
100
AcDbLine
 10
26.87436110688145
 20
291.7706574005723
 30
0.0
 11
26.87436110688145
 21
280.6611746005724
 31
0.0
  0
LINE
  5
2F33
330
18
100
AcDbEntity
  8
4
  6
CENTER
 48
0.2
100
AcDbLine
 10
89.87436110688145
 20
291.7706574005723
 30
0.0
 11
89.87436110688145
 21
280.6611746005724
 31
0.0
  0
LINE
  5
2F34
330
18
100
AcDbEntity
  8
4
  6
CENTER
 48
0.5
100
AcDbLine
 10
223.934625827828
 20
267.7119101005723
 30
0.0
 11
223.934625827828
 21
192.7119101005723
 31
0.0
  0
LINE
  5
335F
330
18
100
AcDbEntity
  8
1
  6
Continuous
100
AcDbLine
 10
394.5512105487746
 20
277.1119101005723
 30
0.0
 11
452.438570548775
 21
277.1119101005723
 31
0.0
  0
ARC
  5
3363
330
18
100
AcDbEntity
  8
1
  6
Continuous
100
AcDbCircle
 10
438.4948905487747
 20
203.4898641005722
 30
0.0
 40
5.0
100
AcDbArc
 50
275.9378099999979
 51
359.9999599999993
  0
LINE
  5
3365
330
18
100
AcDbEntity
  8
1
  6
Continuous
100
AcDbLine
 10
382.4948905487747
 20
287.7119101005723
 30
0.0
 11
464.4948905487747
 21
287.7119101005723
 31
0.0
  0
LINE
  5
3366
330
18
100
AcDbEntity
  8
4
  6
CENTER
 48
0.5
100
AcDbLine
 10
384.6322205487749
 20
262.6910281005724
 30
0.0
 11
462.5904565487748
 21
262.6910281005724
 31
0.0
  0
LINE
  5
3367
330
18
100
AcDbEntity
  8
4
  6
CENTER
 48
0.5
100
AcDbLine
 10
385.9949105487748
 20
230.2119101005723
 30
0.0
 11
464.9948905487749
 21
230.2119101005724
 31
0.0
  0
LINE
  5
336A
330
18
100
AcDbEntity
  8
1
  6
Continuous
100
AcDbLine
 10
459.9948905487749
 20
234.4619101005723
 30
0.0
 11
459.9948905487749
 21
225.9619101005723
 31
0.0
  0
LINE
  5
336B
330
18
100
AcDbEntity
  8
1
  6
Continuous
100
AcDbLine
 10
459.2448905487748
 20
235.2119101005723
 30
0.0
 11
459.2448905487748
 21
225.2119101005723
 31
0.0
  0
ARC
  5
336C
330
18
100
AcDbEntity
  8
1
  6
Continuous
100
AcDbCircle
 10
444.3532400007111
 20
230.2119088993031
 30
0.0
 40
12.54166054806418
100
AcDbArc
 50
336.9649625403189
 51
16.66692322547726
  0
LINE
  5
336E
330
18
100
AcDbEntity
  8
1
  6
Continuous
100
AcDbLine
 10
445.9948905487747
 20
243.2119101005723
 30
0.0
 11
445.9948905487747
 21
216.2119101005722
 31
0.0
  0
LINE
  5
336F
330
18
100
AcDbEntity
  8
1
  6
Continuous
100
AcDbLine
 10
451.9948905487748
 20
224.4471071336995
 30
0.0
 11
451.9948905487747
 21
218.5119131005723
 31
0.0
  0
LINE
  5
3370
330
18
100
AcDbEntity
  8
1
  6
Continuous
100
AcDbLine
 10
458.4948905487747
 20
222.9119091005723
 30
0.0
 11
458.4948905487747
 21
237.5119111005723
 31
0.0
  0
LINE
  5
3371
330
18
100
AcDbEntity
  8
1
  6
Continuous
100
AcDbLine
 10
456.8949005487745
 20
221.7119121005721
 30
0.0
 11
456.8949005487745
 21
238.7119121005723
 31
0.0
  0
LINE
  5
3372
330
18
100
AcDbEntity
  8
1
  6
Continuous
100
AcDbLine
 10
443.4948905487747
 20
203.4898641005722
 30
0.0
 11
443.494890548775
 21
252.8943684660902
 31
0.0
  0
LINE
  5
3373
330
18
100
AcDbEntity
  8
1
  6
Continuous
100
AcDbLine
 10
444.9948905487751
 20
210.211910100572
 30
0.0
 11
444.9948905487751
 21
249.4569080989692
 31
0.0
  0
LINE
  5
3374
330
18
100
AcDbEntity
  8
1
  6
Continuous
100
AcDbLine
 10
444.1685435487745
 20
209.2271041005724
 30
0.0
 11
443.4948905487747
 21
209.1083221005721
 31
0.0
  0
LINE
  5
3376
330
18
100
AcDbEntity
  8
1
  6
Continuous
100
AcDbLine
 10
445.9948905487747
 20
216.2119101005722
 30
0.0
 11
449.6948875487746
 21
216.2119101005722
 31
0.0
  0
ARC
  5
3377
330
18
100
AcDbEntity
  8
1
  6
Continuous
100
AcDbCircle
 10
449.6948875487746
 20
218.5119131005723
 30
0.0
 40
2.299999999999998
100
AcDbArc
 50
270.0
 51
0.000000000000007
  0
ARC
  5
3378
330
18
100
AcDbEntity
  8
1
  6
Continuous
100
AcDbCircle
 10
443.9948905487747
 20
210.2119101005722
 30
0.0
 40
1.0
100
AcDbArc
 50
279.9999999999986
 51
0.0000100000010134
  0
LINE
  5
3379
330
18
100
AcDbEntity
  8
2
  6
Continuous
100
AcDbLine
 10
459.9948905487749
 20
226.0239101004293
 30
0.0
 11
458.4948905487747
 21
226.0239101004293
 31
0.0
  0
LINE
  5
337A
330
18
100
AcDbEntity
  8
1
  6
Continuous
100
AcDbLine
 10
459.2448905487748
 20
225.2119141005723
 30
0.0
 11
459.9948905487749
 21
225.9619101005723
 31
0.0
  0
LINE
  5
337B
330
18
100
AcDbEntity
  8
1
  6
Continuous
100
AcDbLine
 10
459.2448905487747
 20
225.2119101005723
 30
0.0
 11
458.4948905487747
 21
225.2119101005723
 31
0.0
  0
LINE
  5
337C
330
18
100
AcDbEntity
  8
1
  6
Continuous
100
AcDbLine
 10
455.8949005487745
 20
225.3044328579822
 30
0.0
 11
452.9307740977137
 21
225.3044328579822
 31
0.0
  0
LINE
  5
337D
330
18
100
AcDbEntity
  8
1
  6
Continuous
100
AcDbLine
 10
444.9948905487748
 20
221.4119099005722
 30
0.0
 11
445.7948905487747
 21
221.4119099005722
 31
0.0
  0
ARC
  5
337E
330
18
100
AcDbEntity
  8
1
  6
Continuous
100
AcDbCircle
 10
445.7948905487747
 20
221.6119099005723
 30
0.0
 40
0.2
100
AcDbArc
 50
270.0
 51
0.000000000000007
  0
LINE
  5
337F
330
18
100
AcDbEntity
  8
1
  6
Continuous
100
AcDbLine
 10
457.2948905487748
 20
221.7119121005721
 30
0.0
 11
456.8949005487745
 21
221.7119121005721
 31
0.0
  0
ARC
  5
3380
330
18
100
AcDbEntity
  8
1
  6
Continuous
100
AcDbCircle
 10
457.2948905487748
 20
222.9119091005723
 30
0.0
 40
1.199999999999999
100
AcDbArc
 50
270.0
 51
359.9999900000022
  0
LINE
  5
3381
330
18
100
AcDbEntity
  8
1
  6
Continuous
100
AcDbLine
 10
456.8949005487745
 20
221.7119121005721
 30
0.0
 11
455.5799447913649
 21
220.3969563431625
 31
0.0
  0
LINE
  5
3382
330
18
100
AcDbEntity
  8
1
  6
Continuous
100
AcDbLine
 10
455.5799447913649
 20
220.3969563431622
 30
0.0
 11
451.9948905487747
 21
220.3969563431622
 31
0.0
  0
ARC
  5
3383
330
18
100
AcDbEntity
  8
1
  6
Continuous
100
AcDbCircle
 10
453.4140829577591
 20
222.8506946005722
 30
0.0
 40
3.48931044130072
100
AcDbArc
 50
335.5837416246903
 51
44.68558143815068
  0
LINE
  5
3384
330
18
100
AcDbEntity
  8
1
  6
Continuous
100
AcDbLine
 10
458.0948805487746
 20
266.6708201005723
 30
0.0
 11
458.0948805487746
 21
259.5768005969109
 31
0.0
  0
LINE
  5
3385
330
18
100
AcDbEntity
  8
1
  6
Continuous
100
AcDbLine
 10
458.8948805487747
 20
265.6910251005724
 30
0.0
 11
458.8948805487747
 21
259.6910251005724
 31
0.0
  0
LINE
  5
3388
330
18
100
AcDbEntity
  8
1
  6
Continuous
100
AcDbLine
 10
457.5948965487747
 20
269.6910251005724
 30
0.0
 11
457.5948965487747
 21
248.1804391005723
 31
0.0
  0
LINE
  5
338E
330
18
100
AcDbEntity
  8
2
  6
Continuous
100
AcDbLine
 10
459.9948905487749
 20
234.3999101004293
 30
0.0
 11
458.4948905487747
 21
234.3999101004293
 31
0.0
  0
LINE
  5
338F
330
18
100
AcDbEntity
  8
1
  6
Continuous
100
AcDbLine
 10
459.9948905487749
 20
234.4619021005724
 30
0.0
 11
459.2448705487747
 21
235.2119101005723
 31
0.0
  0
LINE
  5
3391
330
18
100
AcDbEntity
  8
1
  6
Continuous
100
AcDbLine
 10
456.0286682513092
 20
247.1408197609095
 30
0.0
 11
456.1949025487747
 21
247.3027611005725
 31
0.0
  0
LINE
  5
3392
330
18
100
AcDbEntity
  8
1
  6
Continuous
100
AcDbLine
 10
456.0023676480893
 20
248.1804391005723
 30
0.0
 11
457.5948965487747
 21
248.1804391005723
 31
0.0
  0
LINE
  5
3394
330
18
100
AcDbEntity
  8
1
  6
Continuous
100
AcDbLine
 10
444.9948905487747
 20
239.0119103005722
 30
0.0
 11
445.7948905487747
 21
239.0119103005722
 31
0.0
  0
ARC
  5
3395
330
18
100
AcDbEntity
  8
1
  6
Continuous
100
AcDbCircle
 10
445.7948905487747
 20
238.8119103005723
 30
0.0
 40
0.2
100
AcDbArc
 50
0.000000000000007
 51
90.0
  0
LINE
  5
3398
330
18
100
AcDbEntity
  8
1
  6
Continuous
100
AcDbLine
 10
456.1948955487748
 20
240.8027571005723
 30
0.0
 11
456.1887741874762
 21
240.8120969463764
 31
0.0
  0
LINE
  5
3399
330
18
100
AcDbEntity
  8
1
  6
Continuous
100
AcDbLine
 10
459.2448905487748
 20
235.2119101005723
 30
0.0
 11
458.4948905487747
 21
235.2119101005723
 31
0.0
  0
LINE
  5
339A
330
18
100
AcDbEntity
  8
1
  6
Continuous
100
AcDbLine
 10
457.2948905487748
 20
238.7119121005723
 30
0.0
 11
456.8949005487745
 21
238.7119121005723
 31
0.0
  0
ARC
  5
339B
330
18
100
AcDbEntity
  8
1
  6
Continuous
100
AcDbCircle
 10
457.2948905487748
 20
237.5119111005723
 30
0.0
 40
1.199999999999999
100
AcDbArc
 50
0.000000000000007
 51
89.99999700000229
  0
LINE
  5
339C
330
18
100
AcDbEntity
  8
1
  6
Continuous
100
AcDbLine
 10
456.894900548775
 20
238.7119121005723
 30
0.0
 11
456.2249568590754
 21
239.3818557902716
 31
0.0
  0
LINE
  5
33A0
330
18
100
AcDbEntity
  8
4
  6
CENTER
 48
0.2
100
AcDbLine
 10
444.1890285487745
 20
244.0527571005723
 30
0.0
 11
459.5108435487747
 21
244.0527571005723
 31
0.0
  0
LINE
  5
33A2
330
18
100
AcDbEntity
  8
1
  6
Continuous
100
AcDbLine
 10
456.1948955487746
 20
247.3027571005723
 30
0.0
 11
456.1948955487746
 21
240.8027571005723
 31
0.0
  0
ARC
  5
33A4
330
18
100
AcDbEntity
  8
1
  6
Continuous
100
AcDbCircle
 10
451.4136455487746
 20
244.0527571005723
 30
0.0
 40
5.78125
100
AcDbArc
 50
325.7945400000013
 51
34.20545800000007
  0
LINE
  5
33A5
330
18
100
AcDbEntity
  8
4
  6
CENTER
 48
0.2
100
AcDbLine
 10
449.1237505487746
 20
256.4242421005723
 30
0.0
 11
462.0699795487747
 21
256.4242421005723
 31
0.0
  0
LINE
  5
33A6
330
18
100
AcDbEntity
  8
1
  6
Continuous
100
AcDbLine
 10
457.5948805487747
 20
260.1910281005723
 30
0.0
 11
457.8748445362093
 21
259.3624472432878
 31
0.0
  0
LINE
  5
33A7
330
18
100
AcDbEntity
  8
1
  6
Continuous
100
AcDbLine
 10
457.5949005487744
 20
259.0897331005722
 30
0.0
 11
458.1948955487744
 21
259.6742326054837
 31
0.0
  0
ARC
  5
33A8
330
18
100
AcDbEntity
  8
1
  6
Continuous
100
AcDbCircle
 10
457.8948805487748
 20
259.6910251005724
 30
0.0
 40
1.0
100
AcDbArc
 50
314.7491923781561
 51
0.0000100000010134
  0
LINE
  5
33A9
330
18
100
AcDbEntity
  8
1
  6
Continuous
100
AcDbLine
 10
458.1949025487747
 20
253.1742441005722
 30
0.0
 11
457.5949045487744
 21
254.0897101005723
 31
0.0
  0
LINE
  5
33AA
330
18
100
AcDbEntity
  8
1
  6
Continuous
100
AcDbLine
 10
458.1948955487744
 20
259.6742326054837
 30
0.0
 11
458.1948955487746
 21
253.1742441005722
 31
0.0
  0
ARC
  5
33AB
330
18
100
AcDbEntity
  8
1
  6
Continuous
100
AcDbCircle
 10
453.4136455487746
 20
256.4242421005723
 30
0.0
 40
5.78125
100
AcDbArc
 50
325.7945400000013
 51
34.20545793810497
  0
LINE
  5
33AC
330
18
100
AcDbEntity
  8
1
  6
Continuous
100
AcDbLine
 10
453.4948825487747
 20
280.7119134005722
 30
0.0
 11
452.4385625487744
 21
277.1119141005723
 31
0.0
  0
ARC
  5
33AF
330
18
100
AcDbEntity
  8
1
  6
Continuous
100
AcDbCircle
 10
447.4948905487747
 20
273.7119101005723
 30
0.0
 40
6.0
100
AcDbArc
 50
0.000000000000007
 51
34.51812000000231
  0
LINE
  5
33B0
330
18
100
AcDbEntity
  8
1
  6
Continuous
100
AcDbLine
 10
454.1127544063811
 20
271.6910251005724
 30
0.0
 11
455.5948965487746
 21
271.6910251005724
 31
0.0
  0
ARC
  5
33B2
330
18
100
AcDbEntity
  8
1
  6
Continuous
100
AcDbCircle
 10
455.5948965487748
 20
269.6910251005724
 30
0.0
 40
2.0
100
AcDbArc
 50
0.000000000000007
 51
90.00000299999769
  0
LINE
  5
33B5
330
18
100
AcDbEntity
  8
1
  6
Continuous
100
AcDbLine
 10
457.5948805487747
 20
265.1910321005723
 30
0.0
 11
458.0948805487746
 21
266.6708241005723
 31
0.0
  0
ARC
  5
33BA
330
18
100
AcDbEntity
  8
1
  6
Continuous
100
AcDbCircle
 10
457.8948805487748
 20
265.6910251005724
 30
0.0
 40
1.0
100
AcDbArc
 50
359.999989999999
 51
78.4630400000036
  0
LINE
  5
33BD
330
18
100
AcDbEntity
  8
4
  6
CENTER
 48
0.2
100
AcDbLine
 10
454.9948905487747
 20
291.7706574005723
 30
0.0
 11
454.9948905487747
 21
280.6611746005724
 31
0.0
  0
LINE
  5
33BF
330
18
100
AcDbEntity
  8
4
  6
CENTER
 48
0.5
100
AcDbLine
 10
423.4948905487747
 20
292.7119101005723
 30
0.0
 11
423.4948905487747
 21
192.7119101005721
 31
0.0
  0
ARC
  5
33C2
330
18
100
AcDbEntity
  8
1
  6
Continuous
100
AcDbCircle
 10
440.9949105487749
 20
230.2119101005723
 30
0.0
 40
50.0
100
AcDbArc
 50
179.4055079397264
 51
187.8651532000019
  0
LINE
  5
33C3
330
18
100
AcDbEntity
  8
1
  6
Continuous
100
AcDbLine
 10
400.9948905487747
 20
243.2119101005722
 30
0.0
 11
400.9948905487747
 21
216.2119101005722
 31
0.0
  0
LINE
  5
33C5
330
18
100
AcDbEntity
  8
1
  6
Continuous
100
AcDbLine
 10
394.9949105487747
 20
224.4470906703635
 30
0.0
 11
394.9949105487747
 21
218.5044291005723
 31
0.0
  0
LINE
  5
33C6
330
18
100
AcDbEntity
  8
1
  6
Continuous
100
AcDbLine
 10
403.4948905487746
 20
203.4898590820126
 30
0.0
 11
403.4948905487746
 21
252.8943684660907
 31
0.0
  0
LINE
  5
33C7
330
18
100
AcDbEntity
  8
1
  6
Continuous
100
AcDbLine
 10
401.9948905487749
 20
210.2119101005721
 30
0.0
 11
401.9948905487749
 21
249.4569080989712
 31
0.0
  0
ARC
  5
33C9
330
18
100
AcDbEntity
  8
1
  6
Continuous
100
AcDbCircle
 10
408.4948905487747
 20
203.4898590820125
 30
0.0
 40
5.0
100
AcDbArc
 50
180.0
 51
264.062227548393
  0
ARC
  5
33CA
330
18
100
AcDbEntity
  8
1
  6
Continuous
100
AcDbCircle
 10
423.4948905487747
 20
347.7119101005722
 30
0.0
 40
150.0
100
AcDbArc
 50
264.062227548393
 51
275.9377899999996
  0
ARC
  5
33CB
330
18
100
AcDbEntity
  8
1
  6
Continuous
100
AcDbCircle
 10
397.2948905487746
 20
218.5119131005723
 30
0.0
 40
2.299999999999998
100
AcDbArc
 50
179.9999899999989
 51
270.0
  0
LINE
  5
33CC
330
18
100
AcDbEntity
  8
1
  6
Continuous
100
AcDbLine
 10
402.8212455487746
 20
209.2271021005722
 30
0.0
 11
403.4948905487746
 21
209.1083201005722
 31
0.0
  0
ARC
  5
33CD
330
18
100
AcDbEntity
  8
1
  6
Continuous
100
AcDbCircle
 10
402.9948905487747
 20
210.2119101005722
 30
0.0
 40
1.0
100
AcDbArc
 50
180.0
 51
260.0000000000013
  0
LINE
  5
33CF
330
18
100
AcDbEntity
  8
1
  6
Continuous
100
AcDbLine
 10
397.2948905487746
 20
216.2119101005722
 30
0.0
 11
400.9948905487747
 21
216.2119101005722
 31
0.0
  0
ARC
  5
33D0
330
18
100
AcDbEntity
  8
1
  6
Continuous
100
AcDbCircle
 10
393.9417485487748
 20
223.7119101005723
 30
0.0
 40
2.5
100
AcDbArc
 50
187.8651532000019
 51
270.0000029999976
  0
LINE
  5
33D1
330
18
100
AcDbEntity
  8
1
  6
Continuous
100
AcDbLine
 10
394.9949105487747
 20
221.2119101005723
 30
0.0
 11
393.9417485487748
 21
221.2119101005723
 31
0.0
  0
LINE
  5
33D2
330
18
100
AcDbEntity
  8
1
  6
Continuous
100
AcDbLine
 10
401.9948905487747
 20
221.4119099005721
 30
0.0
 11
401.1948905487744
 21
221.4119099005721
 31
0.0
  0
ARC
  5
33D3
330
18
100
AcDbEntity
  8
1
  6
Continuous
100
AcDbCircle
 10
401.1948905487744
 20
221.611909900572
 30
0.0
 40
0.2
100
AcDbArc
 50
180.0
 51
270.0
  0
LINE
  5
33D6
330
18
100
AcDbEntity
  8
1
  6
Continuous
100
AcDbLine
 10
387.3948845487745
 20
267.0640081005723
 30
0.0
 11
387.3948845487745
 21
258.3180431005723
 31
0.0
  0
LINE
  5
33D7
330
18
100
AcDbEntity
  8
1
  6
Continuous
100
AcDbLine
 10
389.3949005487745
 20
269.6910251005724
 30
0.0
 11
389.3949005487745
 21
248.1804391005723
 31
0.0
  0
LINE
  5
33F3
330
18
100
AcDbEntity
  8
1
  6
Continuous
100
AcDbLine
 10
390.9611128543618
 20
247.1408200819538
 30
0.0
 11
390.7948805487746
 21
247.3027611005722
 31
0.0
  0
LINE
  5
33F4
330
18
100
AcDbEntity
  8
1
  6
Continuous
100
AcDbLine
 10
389.3949005487745
 20
248.1804391005723
 30
0.0
 11
390.9874134494598
 21
248.1804391005723
 31
0.0
  0
LINE
  5
33F5
330
18
100
AcDbEntity
  8
1
  6
Continuous
100
AcDbLine
 10
390.7948905487746
 20
240.8027571005723
 30
0.0
 11
390.8010067130097
 21
240.8120891567862
 31
0.0
  0
LINE
  5
33F9
330
18
100
AcDbEntity
  8
1
  6
Continuous
100
AcDbLine
 10
390.7948805487746
 20
247.3027571005723
 30
0.0
 11
390.7948805487746
 21
240.8027571005723
 31
0.0
  0
ARC
  5
33FA
330
18
100
AcDbEntity
  8
1
  6
Continuous
100
AcDbCircle
 10
395.5761305487746
 20
244.0527571005723
 30
0.0
 40
5.78125
100
AcDbArc
 50
145.7945400000014
 51
214.2054599999985
  0
LINE
  5
33FB
330
18
100
AcDbEntity
  8
1
  6
Continuous
100
AcDbLine
 10
401.9948905487747
 20
239.0119103005722
 30
0.0
 11
401.1948905487744
 21
239.0119103005722
 31
0.0
  0
ARC
  5
33FC
330
18
100
AcDbEntity
  8
1
  6
Continuous
100
AcDbCircle
 10
401.1948905487744
 20
238.8119103005723
 30
0.0
 40
0.2
100
AcDbArc
 50
90.0
 51
180.0
  0
LINE
  5
3402
330
18
100
AcDbEntity
  8
4
  6
CENTER
 48
0.2
100
AcDbLine
 10
386.9970705487748
 20
244.052757100572
 30
0.0
 11
402.7789905487749
 21
244.052757100572
 31
0.0
  0
LINE
  5
3403
330
18
100
AcDbEntity
  8
4
  6
CENTER
 48
0.2
100
AcDbLine
 10
385.1070705487748
 20
256.4242421005723
 30
0.0
 11
397.1883105487748
 21
256.4242421005723
 31
0.0
  0
ARC
  5
3404
330
18
100
AcDbEntity
  8
1
  6
Continuous
100
AcDbCircle
 10
388.3948845487748
 20
262.1910251005723
 30
0.0
 40
4.0
100
AcDbArc
 50
255.522489999997
 51
265.4214216177054
  0
LINE
  5
3405
330
18
100
AcDbEntity
  8
1
  6
Continuous
100
AcDbLine
 10
388.7948805487746
 20
253.1742401005723
 30
0.0
 11
389.3948805487748
 21
254.0897061005723
 31
0.0
  0
LINE
  5
3406
330
18
100
AcDbEntity
  8
1
  6
Continuous
100
AcDbLine
 10
388.7948805487749
 20
259.6742421005726
 30
0.0
 11
388.7948805487749
 21
253.1742441005722
 31
0.0
  0
ARC
  5
3407
330
18
100
AcDbEntity
  8
1
  6
Continuous
100
AcDbCircle
 10
393.5761305487746
 20
256.4242421005723
 30
0.0
 40
5.78125
100
AcDbArc
 50
145.7945420618914
 51
214.2054599999985
  0
LINE
  5
340E
330
18
100
AcDbEntity
  8
1
  6
Continuous
100
AcDbLine
 10
393.4948905487747
 20
280.7119134005722
 30
0.0
 11
394.5512105487746
 21
277.1119111005723
 31
0.0
  0
ARC
  5
340F
330
18
100
AcDbEntity
  8
1
  6
Continuous
100
AcDbCircle
 10
388.3948845487748
 20
263.1910251005724
 30
0.0
 40
4.0
100
AcDbArc
 50
75.52248999999706
 51
104.4775119999977
  0
ARC
  5
3410
330
18
100
AcDbEntity
  8
1
  6
Continuous
100
AcDbCircle
 10
399.4948905487747
 20
273.7119101005723
 30
0.0
 40
6.0
100
AcDbArc
 50
145.4819099999999
 51
180.3036500000019
  0
LINE
  5
3411
330
18
100
AcDbEntity
  8
1
  6
Continuous
100
AcDbLine
 10
391.3949005487745
 20
271.6910251005724
 30
0.0
 11
392.8770466577407
 21
271.6910251005724
 31
0.0
  0
ARC
  5
3413
330
18
100
AcDbEntity
  8
1
  6
Continuous
100
AcDbCircle
 10
391.3949005487745
 20
269.6910251005724
 30
0.0
 40
2.0
100
AcDbArc
 50
90.00000299999769
 51
180.000010000001
  0
LINE
  5
341C
330
18
100
AcDbEntity
  8
4
  6
CENTER
 48
0.2
100
AcDbLine
 10
391.9948905487747
 20
291.7706574005723
 30
0.0
 11
391.9948905487747
 21
280.6611746005724
 31
0.0
  0
LINE
  5
3512
330
18
100
AcDbEntity
  8
4
  6
CENTER
 48
0.5
100
AcDbLine
 10
601.0551552697212
 20
292.7119101005723
 30
0.0
 11
601.0551552697212
 21
260.152326115542
 31
0.0
  0
LINE
  5
3514
330
18
100
AcDbEntity
  8
1
  6
Continuous
100
AcDbLine
 10
660.3686752697211
 20
269.4119111005722
 30
0.0
 11
655.8629727697214
 21
269.4119111005722
 31
0.0
  0
LINE
  5
3515
330
18
100
AcDbEntity
  8
5
  6
PHANTOM
 48
0.3
100
AcDbLine
 10
659.7605972697212
 20
243.1767041005723
 30
0.0
 11
654.5664572697212
 21
247.6750641005722
 31
0.0
  0
LINE
  5
3516
330
18
100
AcDbEntity
  8
1
  6
Continuous
100
AcDbLine
 10
673.4614412697212
 20
249.1903721005722
 30
0.0
 11
646.3251611797212
 21
238.4722821005723
 31
0.0
  0
LINE
  5
3517
330
18
100
AcDbEntity
  8
1
  6
Continuous
100
AcDbLine
 10
675.0676002697217
 20
262.8474651005723
 30
0.0
 11
656.7896942697216
 21
260.9606951005723
 31
0.0
  0
ARC
  5
3518
330
18
100
AcDbEntity
  8
1
  6
Continuous
100
AcDbCircle
 10
649.8572258697215
 20
262.6910251005723
 30
0.0
 40
9.0
100
AcDbArc
 50
350.6328099999992
 51
91.26391699999974
  0
LINE
  5
3519
330
18
100
AcDbEntity
  8
1
  6
Continuous
100
AcDbLine
 10
662.8115262697209
 20
244.9839441005721
 30
0.0
 11
637.2876915697212
 21
228.6786651005722
 31
0.0
  0
LINE
  5
351A
330
18
100
AcDbEntity
  8
4
  6
CENTER
 48
0.5
100
AcDbLine
 10
660.5551552697212
 20
230.2119101005723
 30
0.0
 11
585.5551552697212
 21
230.2119101005723
 31
0.0
  0
LINE
  5
351B
330
18
100
AcDbEntity
  8
1
  6
Continuous
100
AcDbLine
 10
660.3686752697211
 20
271.7119101005723
 30
0.0
 11
627.0018202697215
 21
271.7119101005723
 31
0.0
  0
LINE
  5
351C
330
18
100
AcDbEntity
  8
5
  6
PHANTOM
 48
0.3
100
AcDbLine
 10
662.7142112697212
 20
222.8655891005723
 30
0.0
 11
636.3223147697212
 21
235.3043551005723
 31
0.0
  0
ARC
  5
351D
330
18
100
AcDbEntity
  8
5
  6
PHANTOM
 48
0.3
100
AcDbCircle
 10
673.8199162697212
 20
231.1065441005723
 30
0.0
 40
3.0
100
AcDbArc
 50
93.10596499999569
 51
140.6342699999985
  0
LINE
  5
351E
330
18
100
AcDbEntity
  8
5
  6
PHANTOM
 48
0.3
100
AcDbLine
 10
685.6397422697214
 20
234.7523311005722
 30
0.0
 11
685.8022902697214
 21
231.7567401005723
 31
0.0
  0
LINE
  5
351F
330
18
100
AcDbEntity
  8
5
  6
PHANTOM
 48
0.3
100
AcDbLine
 10
673.7675362697212
 20
231.0460581005723
 30
0.0
 11
659.8774532697214
 21
243.0755001005723
 31
0.0
  0
LINE
  5
3520
330
18
100
AcDbEntity
  8
5
  6
PHANTOM
 48
0.3
100
AcDbLine
 10
685.8022902697214
 20
231.7567401005723
 30
0.0
 11
673.8199182697212
 21
231.1065441005721
 31
0.0
  0
LINE
  5
3521
330
18
100
AcDbEntity
  8
5
  6
PHANTOM
 48
0.3
100
AcDbLine
 10
662.7142112697212
 20
222.8655891005723
 30
0.0
 11
664.9819762697212
 21
220.9016001005723
 31
0.0
  0
LINE
  5
3522
330
18
100
AcDbEntity
  8
5
  6
PHANTOM
 48
0.3
100
AcDbLine
 10
673.8199182697215
 20
231.1065481005723
 30
0.0
 11
664.9819762697212
 21
220.9016001005723
 31
0.0
  0
ARC
  5
3523
330
18
100
AcDbEntity
  8
1
  6
Continuous
100
AcDbCircle
 10
675.0593892697212
 20
262.9270571005722
 30
0.0
 40
3.0
100
AcDbArc
 50
139.8936000000021
 51
187.4219099999992
  0
LINE
  5
3524
330
18
100
AcDbEntity
  8
1
  6
Continuous
100
AcDbLine
 10
675.0593842697213
 20
262.9270571005722
 30
0.0
 11
676.4455842697214
 21
249.4984131005722
 31
0.0
  0
LINE
  5
3525
330
18
100
AcDbEntity
  8
1
  6
Continuous
100
AcDbLine
 10
662.4179902697212
 20
270.4560891005722
 30
0.0
 11
666.733141269721
 21
261.9871271005722
 31
0.0
  0
LINE
  5
3526
330
18
100
AcDbEntity
  8
5
  6
PHANTOM
 48
0.3
100
AcDbLine
 10
685.6397422697214
 20
234.7523311005722
 30
0.0
 11
673.6573702697212
 21
234.1021381005723
 31
0.0
  0
LINE
  5
3527
330
18
100
AcDbEntity
  8
1
  6
Continuous
100
AcDbLine
 10
673.4614412697212
 20
249.1903681005723
 30
0.0
 11
676.4455842697211
 21
249.4984131005722
 31
0.0
  0
LINE
  5
3528
330
18
100
AcDbEntity
  8
1
  6
Continuous
100
AcDbLine
 10
680.4953482697213
 20
274.0378791005723
 30
0.0
 11
672.7648392697215
 21
264.8596861005724
 31
0.0
  0
LINE
  5
3529
330
18
100
AcDbEntity
  8
1
  6
Continuous
100
AcDbLine
 10
682.7898962697211
 20
272.1052511005723
 30
0.0
 11
675.0593872697212
 21
262.9270591005722
 31
0.0
  0
LINE
  5
352A
330
18
100
AcDbEntity
  8
1
  6
Continuous
100
AcDbLine
 10
680.4953482697213
 20
274.0378791005723
 30
0.0
 11
682.7898962697211
 21
272.1052511005723
 31
0.0
  0
ARC
  5
352B
330
18
100
AcDbEntity
  8
1
  6
Continuous
100
AcDbCircle
 10
660.3686752697211
 20
269.4119111005722
 30
0.0
 40
2.299999999999998
100
AcDbArc
 50
26.99998999999941
 51
89.99999700000229
  0
ARC
  5
352E
330
18
100
AcDbEntity
  8
1
  6
Continuous
100
AcDbCircle
 10
623.0551552697212
 20
230.2119101005723
 30
0.0
 40
6.0
100
AcDbArc
 50
138.5903699999986
 51
221.4096300000012
  0
LINE
  5
352F
330
18
100
AcDbEntity
  8
1
  6
Continuous
100
AcDbLine
 10
614.5551552697212
 20
235.1193893431623
 30
0.0
 11
614.5551552697212
 21
225.3044308579823
 31
0.0
  0
ARC
  5
3530
330
18
100
AcDbEntity
  8
1
  6
Continuous
100
AcDbCircle
 10
623.0551552697212
 20
230.2119101005723
 30
0.0
 40
6.0
100
AcDbArc
 50
318.5903800000012
 51
41.40962400000026
  0
LINE
  5
3531
330
18
100
AcDbEntity
  8
1
  6
Continuous
100
AcDbLine
 10
631.5551552697212
 20
235.1193807163451
 30
0.0
 11
631.5551552697212
 21
225.3044308579823
 31
0.0
  0
CIRCLE
  5
3532
330
18
100
AcDbEntity
  8
2
  6
Continuous
100
AcDbCircle
 10
623.0551552697212
 20
230.2119101005723
 30
0.0
 40
4.187999999999998
  0
CIRCLE
  5
3533
330
18
100
AcDbEntity
  8
1
  6
Continuous
100
AcDbCircle
 10
623.0551552697212
 20
230.2119101005723
 30
0.0
 40
5.0
  0
LINE
  5
3534
330
18
100
AcDbEntity
  8
4
  6
CENTER
 48
0.5
100
AcDbLine
 10
623.0551552697212
 20
267.7119101005723
 30
0.0
 11
623.0551552697212
 21
192.7119101005723
 31
0.0
  0
LINE
  5
3535
330
18
100
AcDbEntity
  8
1
  6
Continuous
100
AcDbLine
 10
611.6136272697211
 20
224.0959361005723
 30
0.0
 11
620.3019052697213
 21
268.7932741005722
 31
0.0
  0
ARC
  5
3536
330
18
100
AcDbEntity
  8
1
  6
Continuous
100
AcDbCircle
 10
623.0551552697212
 20
230.2119101005723
 30
0.0
 40
32.5
100
AcDbArc
 50
172.1981111148104
 51
16.57883846507473
  0
ARC
  5
3537
330
18
100
AcDbEntity
  8
1
  6
Continuous
100
AcDbCircle
 10
623.0551552697212
 20
230.2119101005723
 30
0.0
 40
23.0
100
AcDbArc
 50
185.5445051358484
 51
9.659712695713027
  0
CIRCLE
  5
3538
330
18
100
AcDbEntity
  8
1
  6
Continuous
100
AcDbCircle
 10
623.0551552697212
 20
230.2119101005723
 30
0.0
 40
6.5
  0
CIRCLE
  5
3539
330
18
100
AcDbEntity
  8
1
  6
Continuous
100
AcDbCircle
 10
623.0551552697212
 20
230.2119101005723
 30
0.0
 40
8.5
  0
ARC
  5
353A
330
18
100
AcDbEntity
  8
1
  6
Continuous
100
AcDbCircle
 10
650.5520653697212
 20
308.5248731005723
 30
0.0
 40
95.0
100
AcDbArc
 50
208.4882523842346
 51
246.1340600000004
  0
ARC
  5
353C
330
18
100
AcDbEntity
  8
1
  6
Continuous
100
AcDbCircle
 10
623.0551552697212
 20
230.2119101005723
 30
0.0
 40
14.3
100
AcDbArc
 50
250.618569999998
 51
269.999979999998
  0
LINE
  5
353D
330
18
100
AcDbEntity
  8
1
  6
Continuous
100
AcDbLine
 10
614.5551552697212
 20
225.3044308579823
 30
0.0
 11
623.0551552697212
 21
220.3969543431623
 31
0.0
  0
ARC
  5
353E
330
18
100
AcDbEntity
  8
1
  6
Continuous
100
AcDbCircle
 10
623.0551552697212
 20
230.2119101005723
 30
0.0
 40
21.0
100
AcDbArc
 50
189.7461522296968
 51
7.332765736582394
  0
ARC
  5
353F
330
18
100
AcDbEntity
  8
1
  6
Continuous
100
AcDbCircle
 10
623.0551552697212
 20
230.2119101005723
 30
0.0
 40
15.49999899999999
100
AcDbArc
 50
225.9769605039013
 51
357.2832110454874
  0
ARC
  5
3540
330
18
100
AcDbEntity
  8
1
  6
Continuous
100
AcDbCircle
 10
623.0551552697212
 20
230.2119101005723
 30
0.0
 40
15.0
100
AcDbArc
 50
231.5788861840474
 51
355.9199383628778
  0
ARC
  5
3541
330
18
100
AcDbEntity
  8
1
  6
Continuous
100
AcDbCircle
 10
623.0551552697212
 20
230.2119101005723
 30
0.0
 40
12.0
100
AcDbArc
 50
272.1428799999959
 51
333.0798899999999
  0
LINE
  5
3542
330
18
100
AcDbEntity
  8
1
  6
Continuous
100
AcDbLine
 10
623.0551512697212
 20
215.9119071005723
 30
0.0
 11
623.5022242697214
 21
218.2119101005723
 31
0.0
  0
ARC
  5
3543
330
18
100
AcDbEntity
  8
1
  6
Continuous
100
AcDbCircle
 10
627.3301572697213
 20
226.4417151005722
 30
0.0
 40
0.30000001
100
AcDbArc
 50
254.6357600000028
 51
318.5903800000012
  0
LINE
  5
3544
330
18
100
AcDbEntity
  8
1
  6
Continuous
100
AcDbLine
 10
626.3051552697212
 20
226.4122431005723
 30
0.0
 11
627.2506732697212
 21
226.1524391005723
 31
0.0
  0
ARC
  5
3545
330
18
100
AcDbEntity
  8
1
  6
Continuous
100
AcDbCircle
 10
642.6712064697214
 20
220.2514611005723
 30
0.0
 40
10.0
100
AcDbArc
 50
122.571483
 51
153.079891999998
  0
LINE
  5
3546
330
18
100
AcDbEntity
  8
1
  6
Continuous
100
AcDbLine
 10
623.0551552697212
 20
220.3969543431623
 30
0.0
 11
631.5551552697212
 21
225.3044308579823
 31
0.0
  0
ARC
  5
3547
330
18
100
AcDbEntity
  8
1
  6
Continuous
100
AcDbCircle
 10
650.5520653697212
 20
308.5248731005723
 30
0.0
 40
97.300003
100
AcDbArc
 50
246.4291099999984
 51
250.6530299999985
  0
ARC
  5
3548
330
18
100
AcDbEntity
  8
1
  6
Continuous
100
AcDbCircle
 10
618.7801532697213
 20
226.4417151005722
 30
0.0
 40
0.30000001
100
AcDbArc
 50
221.4096199999987
 51
285.3642399999971
  0
LINE
  5
3549
330
18
100
AcDbEntity
  8
1
  6
Continuous
100
AcDbLine
 10
619.8051472697214
 20
226.4122351005724
 30
0.0
 11
618.8596442697213
 21
226.1524391005723
 31
0.0
  0
ARC
  5
354A
330
18
100
AcDbEntity
  8
1
  6
Continuous
100
AcDbCircle
 10
623.0551552697212
 20
230.2119101005723
 30
0.0
 40
15.49999899999999
100
AcDbArc
 50
208.1113560278294
 51
222.9343232809337
  0
ARC
  5
354B
330
18
100
AcDbEntity
  8
1
  6
Continuous
100
AcDbCircle
 10
623.0551552697212
 20
230.2119101005723
 30
0.0
 40
15.0
100
AcDbArc
 50
210.7802423522588
 51
221.5603611426092
  0
LINE
  5
354C
330
18
100
AcDbEntity
  8
1
  6
Continuous
100
AcDbLine
 10
614.5551552697212
 20
233.5660482375534
 30
0.0
 11
611.6434082697215
 21
219.3429981005723
 31
0.0
  0
LINE
  5
354D
330
18
100
AcDbEntity
  8
1
  6
Continuous
100
AcDbLine
 10
629.9988392697214
 20
277.1119101005723
 30
0.0
 11
572.1114752697213
 21
277.1119101005723
 31
0.0
  0
LINE
  5
354F
330
18
100
AcDbEntity
  8
1
  6
Continuous
100
AcDbLine
 10
634.0551552697212
 20
271.7119101005723
 30
0.0
 11
570.3560582697214
 21
271.7119101005723
 31
0.0
  0
LINE
  5
3550
330
18
100
AcDbEntity
  8
1
  6
Continuous
100
AcDbLine
 10
642.0551552697212
 20
287.7119101005723
 30
0.0
 11
560.0551552697213
 21
287.7119101005723
 31
0.0
  0
ARC
  5
3552
330
18
100
AcDbEntity
  8
5
  6
PHANTOM
 48
0.3
100
AcDbCircle
 10
645.4313776397214
 20
251.9976801005723
 30
0.0
 40
15.29795
100
AcDbArc
 50
124.5465620000024
 51
190.9459100000009
  0
LINE
  5
3553
330
18
100
AcDbEntity
  8
1
  6
Continuous
100
AcDbLine
 10
621.4025462697214
 20
267.0135921005722
 30
0.0
 11
614.9157798462136
 21
235.3275960066685
 31
0.0
  0
ARC
  5
3554
330
18
100
AcDbEntity
  8
5
  6
PHANTOM
 48
0.3
100
AcDbCircle
 10
649.8572237697215
 20
262.6910281005724
 30
0.0
 40
7.0
100
AcDbArc
 50
342.4729000000007
 51
15.33511000000061
  0
CIRCLE
  5
3555
330
18
100
AcDbEntity
  8
1
  6
Continuous
100
AcDbCircle
 10
649.8572258697215
 20
262.6910251005723
 30
0.0
 40
3.979795893737161
  0
LINE
  5
3556
330
18
100
AcDbEntity
  8
4
  6
CENTER
 48
0.2
100
AcDbLine
 10
649.8572258697215
 20
268.1910281005723
 30
0.0
 11
649.8572258697215
 21
257.1910281005723
 31
0.0
  0
ARC
  5
3557
330
18
100
AcDbEntity
  8
1
  6
Continuous
100
AcDbCircle
 10
640.2891511697212
 20
256.1804411005723
 30
0.0
 40
15.29795
100
AcDbArc
 50
91.26391699999974
 51
157.6632630000015
  0
LINE
  5
3558
330
18
100
AcDbEntity
  8
1
  6
Continuous
100
AcDbLine
 10
614.5551552697212
 20
235.1193893431623
 30
0.0
 11
623.0551558125608
 21
240.0268661713908
 31
0.0
  0
LINE
  5
3559
330
18
100
AcDbEntity
  8
5
  6
PHANTOM
 48
0.3
100
AcDbLine
 10
633.1852902697217
 20
249.0769381005723
 30
0.0
 11
632.8844192697215
 21
240.9538341005723
 31
0.0
  0
ARC
  5
355A
330
18
100
AcDbEntity
  8
1
  6
Continuous
100
AcDbCircle
 10
640.1398000697215
 20
256.4281251005724
 30
0.0
 40
12.29794799999999
100
AcDbArc
 50
161.2466540000002
 51
239.8595200000011
  0
ARC
  5
355B
330
18
100
AcDbEntity
  8
5
  6
PHANTOM
 48
0.3
100
AcDbCircle
 10
656.5304462697212
 20
249.9428291005723
 30
0.0
 40
3.0
100
AcDbArc
 50
169.1921609999977
 51
229.1059499999969
  0
LINE
  5
355C
330
18
100
AcDbEntity
  8
4
  6
CENTER
 48
0.2
100
AcDbLine
 10
645.1626644697213
 20
257.6129611005723
 30
0.0
 11
645.1626644697213
 21
246.6129611005722
 31
0.0
  0
ARC
  5
355D
330
18
100
AcDbEntity
  8
5
  6
PHANTOM
 48
0.3
100
AcDbCircle
 10
645.4313776397214
 20
251.9976801005723
 30
0.0
 40
8.0
100
AcDbArc
 50
243.9615800000022
 51
342.4728899999978
  0
LINE
  5
355E
330
18
100
AcDbEntity
  8
4
  6
CENTER
 48
0.2
100
AcDbLine
 10
644.1210264697215
 20
249.5527571005723
 30
0.0
 11
644.1210264697215
 21
238.5527571005723
 31
0.0
  0
ARC
  5
355F
330
18
100
AcDbEntity
  8
1
  6
Continuous
100
AcDbCircle
 10
640.2891511697212
 20
256.1804411005723
 30
0.0
 40
8.0
100
AcDbArc
 50
210.6789399999998
 51
309.1902600000006
  0
LINE
  5
3560
330
18
100
AcDbEntity
  8
5
  6
PHANTOM
 48
0.3
100
AcDbLine
 10
632.3753592697213
 20
249.4726371005725
 30
0.0
 11
641.9195890697213
 21
244.8096811005721
 31
0.0
  0
LINE
  5
3561
330
18
100
AcDbEntity
  8
1
  6
Continuous
100
AcDbLine
 10
640.5822109697213
 20
236.5416221005723
 30
0.0
 11
643.0873717697216
 21
238.1424601005722
 31
0.0
  0
ARC
  5
3562
330
18
100
AcDbEntity
  8
1
  6
Continuous
100
AcDbCircle
 10
644.1210264697215
 20
244.0527531005723
 30
0.0
 40
6.0
100
AcDbArc
 50
224.6664299999984
 51
291.651290000003
  0
CIRCLE
  5
3563
330
18
100
AcDbEntity
  8
1
  6
Continuous
100
AcDbCircle
 10
644.1210264697215
 20
244.0527571005723
 30
0.0
 40
3.25
  0
CIRCLE
  5
3564
330
18
100
AcDbEntity
  8
5
  6
PHANTOM
 48
0.3
100
AcDbCircle
 10
638.8803009697213
 20
240.7317541005722
 30
0.0
 40
3.25
  0
LINE
  5
3565
330
18
100
AcDbEntity
  8
4
  6
CENTER
 48
0.2
100
AcDbLine
 10
638.6210274697211
 20
244.0527571005723
 30
0.0
 11
649.6210255697213
 21
244.0527571005723
 31
0.0
  0
LINE
  5
3566
330
18
100
AcDbEntity
  8
4
  6
CENTER
 48
0.2
100
AcDbLine
 10
633.3803022697212
 20
240.7317541005722
 30
0.0
 11
644.3802998697211
 21
240.7317541005722
 31
0.0
  0
ARC
  5
3567
330
18
100
AcDbEntity
  8
1
  6
Continuous
100
AcDbCircle
 10
627.3301572697213
 20
233.9821051005723
 30
0.0
 40
0.30000001
100
AcDbArc
 50
41.4096170000016
 51
105.3642400000034
  0
LINE
  5
3568
330
18
100
AcDbEntity
  8
1
  6
Continuous
100
AcDbLine
 10
626.3051552697212
 20
234.0115771005723
 30
0.0
 11
627.2506662697215
 21
234.2713811005722
 31
0.0
  0
ARC
  5
3569
330
18
100
AcDbEntity
  8
5
  6
PHANTOM
 48
0.3
100
AcDbCircle
 10
638.8802981697215
 20
240.7317501005723
 30
0.0
 40
6.0
100
AcDbArc
 50
177.8787928000002
 51
244.8636599999978
  0
LINE
  5
356A
330
18
100
AcDbEntity
  8
1
  6
Continuous
100
AcDbLine
 10
623.0551558125605
 20
240.0268661713905
 30
0.0
 11
631.5551552697212
 21
235.1193807163451
 31
0.0
  0
LINE
  5
356B
330
18
100
AcDbEntity
  8
4
  6
CENTER
 48
0.2
100
AcDbLine
 10
638.8803009697213
 20
246.2317501005723
 30
0.0
 11
638.8803009697213
 21
235.2317541005723
 31
0.0
  0
ARC
  5
356C
330
18
100
AcDbEntity
  8
1
  6
Continuous
100
AcDbCircle
 10
638.1877774697214
 20
240.2925151005723
 30
0.0
 40
4.449999299999998
100
AcDbArc
 50
123.4818200000009
 51
302.6058800000027
  0
LINE
  5
356D
330
18
100
AcDbEntity
  8
1
  6
Continuous
100
AcDbLine
 10
633.9647302697215
 20
245.7929001005723
 30
0.0
 11
639.8537621697213
 21
239.8348961005723
 31
0.0
  0
LINE
  5
356E
330
18
100
AcDbEntity
  8
4
  6
CENTER
 48
0.2
100
AcDbLine
 10
639.6626653697212
 20
252.1129611005722
 30
0.0
 11
650.6626634697212
 21
252.1129611005722
 31
0.0
  0
CIRCLE
  5
356F
330
18
100
AcDbEntity
  8
1
  6
Continuous
100
AcDbCircle
 10
640.1277255697212
 20
256.4242421005723
 30
0.0
 40
3.25
  0
LINE
  5
3570
330
18
100
AcDbEntity
  8
4
  6
CENTER
 48
0.2
100
AcDbLine
 10
634.6277262697213
 20
256.4242421005723
 30
0.0
 11
645.6277246397213
 21
256.4242421005723
 31
0.0
  0
ARC
  5
3571
330
18
100
AcDbEntity
  8
5
  6
PHANTOM
 48
0.3
100
AcDbCircle
 10
645.1626664897213
 20
252.1129641005722
 30
0.0
 40
8.5730658
100
AcDbArc
 50
349.1921699999999
 51
357.2122899999978
  0
CIRCLE
  5
3572
330
18
100
AcDbEntity
  8
5
  6
PHANTOM
 48
0.3
100
AcDbCircle
 10
645.1626400897213
 20
252.1129031005723
 30
0.0
 40
3.25
  0
LINE
  5
3573
330
18
100
AcDbEntity
  8
1
  6
Continuous
100
AcDbLine
 10
654.2805056697212
 20
257.2656651005725
 30
0.0
 11
645.3443260697212
 21
249.9800261005725
 31
0.0
  0
ARC
  5
3574
330
18
100
AcDbEntity
  8
1
  6
Continuous
100
AcDbCircle
 10
657.4679402697215
 20
260.2258581005723
 30
0.0
 40
1.0
100
AcDbArc
 50
90.01434799999548
 51
162.0524640000002
  0
LINE
  5
3575
330
18
100
AcDbEntity
  8
1
  6
Continuous
100
AcDbLine
 10
658.7372152697213
 20
261.2261771005723
 30
0.0
 11
657.4676882697211
 21
261.2258601005722
 31
0.0
  0
ARC
  5
3576
330
18
100
AcDbEntity
  8
1
  6
Continuous
100
AcDbCircle
 10
649.8572258697215
 20
262.6910281005724
 30
0.0
 40
7.0
100
AcDbArc
 50
309.1902600000006
 51
342.0524700000008
  0
LINE
  5
3577
330
18
100
AcDbEntity
  8
4
  6
CENTER
 48
0.2
100
AcDbLine
 10
644.3572258697216
 20
262.6910281005724
 30
0.0
 11
655.3572258697215
 21
262.6910281005724
 31
0.0
  0
LINE
  5
3578
330
18
100
AcDbEntity
  8
5
  6
PHANTOM
 48
0.3
100
AcDbLine
 10
656.5322452697215
 20
260.5829271005723
 30
0.0
 11
653.0599722697212
 21
249.5884211005722
 31
0.0
  0
LINE
  5
3579
330
18
100
AcDbEntity
  8
1
  6
Continuous
100
AcDbLine
 10
627.9889932697215
 20
261.2343181005722
 30
0.0
 11
626.1390592697214
 21
261.9944191005722
 31
0.0
  0
LINE
  5
357A
330
18
100
AcDbEntity
  8
5
  6
PHANTOM
 48
0.3
100
AcDbLine
 10
632.3753552697215
 20
249.4726371005723
 30
0.0
 11
630.4117402697215
 21
249.0928721005723
 31
0.0
  0
LINE
  5
357B
330
18
100
AcDbEntity
  8
1
  6
Continuous
100
AcDbLine
 10
627.9889992697213
 20
261.2343181005722
 30
0.0
 11
633.4088342697214
 21
252.0986251005723
 31
0.0
  0
LINE
  5
357C
330
18
100
AcDbEntity
  8
4
  6
CENTER
 48
0.2
100
AcDbLine
 10
640.1277255697212
 20
261.9242401005723
 30
0.0
 11
640.1277255697212
 21
250.9242441005723
 31
0.0
  0
ARC
  5
357D
330
18
100
AcDbEntity
  8
1
  6
Continuous
100
AcDbCircle
 10
618.7801532697213
 20
233.9821051005723
 30
0.0
 40
0.30000001
100
AcDbArc
 50
74.63575799999775
 51
138.5903800000012
  0
LINE
  5
357E
330
18
100
AcDbEntity
  8
1
  6
Continuous
100
AcDbLine
 10
619.8051552697212
 20
234.0115771005723
 30
0.0
 11
618.8596442697213
 21
234.2713811005722
 31
0.0
  0
ARC
  5
357F
330
18
100
AcDbEntity
  8
1
  6
Continuous
100
AcDbCircle
 10
624.3415892697213
 20
266.4119111005723
 30
0.0
 40
3.0
100
AcDbArc
 50
89.99999700000229
 51
168.430255
  0
LINE
  5
3580
330
18
100
AcDbEntity
  8
1
  6
Continuous
100
AcDbLine
 10
631.0551532697212
 20
280.7119106005723
 30
0.0
 11
629.9988372697213
 21
277.1119111005723
 31
0.0
  0
LINE
  5
3581
330
18
100
AcDbEntity
  8
1
  6
Continuous
100
AcDbLine
 10
639.9517121697217
 20
271.4746701005723
 30
0.0
 11
649.6587075697216
 21
271.6888371005723
 31
0.0
  0
LINE
  5
3582
330
18
100
AcDbEntity
  8
5
  6
PHANTOM
 48
0.3
100
AcDbLine
 10
636.7562794697212
 20
264.5980741005723
 30
0.0
 11
644.7535445697212
 21
270.1040171005721
 31
0.0
  0
ARC
  5
3583
330
18
100
AcDbEntity
  8
5
  6
PHANTOM
 48
0.3
100
AcDbCircle
 10
649.8572258697215
 20
262.6910251005723
 30
0.0
 40
9.0
100
AcDbArc
 50
91.26391699999974
 51
124.5465579999986
  0
LINE
  5
3584
330
18
100
AcDbEntity
  8
5
  6
PHANTOM
 48
0.3
100
AcDbLine
 10
658.0845262697212
 20
266.3395191005721
 30
0.0
 11
657.0234092697212
 21
265.6425741005723
 31
0.0
  0
ARC
  5
3585
330
18
100
AcDbEntity
  8
5
  6
PHANTOM
 48
0.3
100
AcDbCircle
 10
657.5723892697213
 20
264.8067401005723
 30
0.0
 40
1.0
100
AcDbArc
 50
123.2969919999977
 51
195.3351100000006
  0
ARC
  5
3586
330
18
100
AcDbEntity
  8
1
  6
Continuous
100
AcDbCircle
 10
625.0551552697212
 20
273.7119101005723
 30
0.0
 40
6.0
100
AcDbArc
 50
0.0000400000007758
 51
34.51809
  0
LINE
  5
3587
330
18
100
AcDbEntity
  8
1
  6
Continuous
100
AcDbLine
 10
631.0551552697212
 20
273.7119101005723
 30
0.0
 11
631.0551552697212
 21
272.7119101005723
 31
0.0
  0
LINE
  5
3588
330
18
100
AcDbEntity
  8
1
  6
Continuous
100
AcDbLine
 10
627.6018202697214
 20
271.7119101005723
 30
0.0
 11
627.6018202697214
 21
269.4119111005722
 31
0.0
  0
ARC
  5
3589
330
18
100
AcDbEntity
  8
1
  6
Continuous
100
AcDbCircle
 10
632.0551552697212
 20
272.7119101005723
 30
0.0
 40
1.0
100
AcDbArc
 50
180.0
 51
269.999979999998
  0
LINE
  5
358A
330
18
100
AcDbEntity
  8
1
  6
Continuous
100
AcDbLine
 10
632.7080652697214
 20
269.4119111005722
 30
0.0
 11
624.3415892697213
 21
269.4119111005722
 31
0.0
  0
LINE
  5
358D
330
18
100
AcDbEntity
  8
4
  6
CENTER
 48
0.2
100
AcDbLine
 10
632.5551552697212
 20
291.7706574005723
 30
0.0
 11
632.5551552697212
 21
280.6611746005724
 31
0.0
  0
LINE
  5
358E
330
18
100
AcDbEntity
  8
1
  6
Continuous
100
AcDbLine
 10
571.0551702697214
 20
280.7119125005723
 30
0.0
 11
572.1114902697212
 21
277.1119121005723
 31
0.0
  0
LINE
  5
358F
330
18
100
AcDbEntity
  8
1
  6
Continuous
100
AcDbLine
 10
567.0551471876613
 20
263.2119096784085
 30
0.0
 11
568.3927942697213
 21
270.0935271005726
 31
0.0
  0
ARC
  5
3590
330
18
100
AcDbEntity
  8
1
  6
Continuous
100
AcDbCircle
 10
570.0551552697212
 20
272.7119101005723
 30
0.0
 40
1.0
100
AcDbArc
 50
269.999969999997
 51
0.0000200000020199
  0
ARC
  5
3591
330
18
100
AcDbEntity
  8
1
  6
Continuous
100
AcDbCircle
 10
577.0551552697212
 20
273.7119101005723
 30
0.0
 40
6.0
100
AcDbArc
 50
145.4818799999976
 51
180.0
  0
LINE
  5
3592
330
18
100
AcDbEntity
  8
1
  6
Continuous
100
AcDbLine
 10
571.0551552697212
 20
273.7119101005723
 30
0.0
 11
571.0551552697212
 21
272.7119101005723
 31
0.0
  0
ARC
  5
3593
330
18
100
AcDbEntity
  8
1
  6
Continuous
100
AcDbCircle
 10
570.3560582697214
 20
269.7119101005723
 30
0.0
 40
2.0
100
AcDbArc
 50
90.00001799999918
 51
169.0000519999992
  0
LINE
  5
3595
330
18
100
AcDbEntity
  8
4
  6
CENTER
 48
0.2
100
AcDbLine
 10
569.5551552697212
 20
291.7706574005723
 30
0.0
 11
569.5551552697212
 21
280.6611746005724
 31
0.0
  0
CIRCLE
  5
3617
330
18
100
AcDbEntity
  8
1
  6
Continuous
100
AcDbCircle
 10
223.9346258278278
 20
230.2119101005723
 30
0.0
 40
9.0
  0
ARC
  5
3624
330
18
100
AcDbEntity
  8
1
  6
Continuous
100
AcDbCircle
 10
402.9948905487747
 20
250.2119101005724
 30
0.0
 40
1.0
100
AcDbArc
 50
99.99999999999859
 51
111.057394245471
  0
LINE
  5
3625
330
18
100
AcDbEntity
  8
1
  6
Continuous
100
AcDbLine
 10
402.8212455487746
 20
251.1967181005725
 30
0.0
 11
403.4948905487746
 21
251.3155001005725
 31
0.0
  0
ARC
  5
3626
330
18
100
AcDbEntity
  8
1
  6
Continuous
100
AcDbCircle
 10
443.9948905487747
 20
250.2119101005724
 30
0.0
 40
1.0
100
AcDbArc
 50
68.94260575452894
 51
80.0000000000014
  0
LINE
  5
3627
330
18
100
AcDbEntity
  8
1
  6
Continuous
100
AcDbLine
 10
444.1685435487745
 20
251.1967161005723
 30
0.0
 11
443.4948905487747
 21
251.3154981005725
 31
0.0
  0
LINE
  5
3628
330
18
100
AcDbEntity
  8
1
  6
Continuous
100
AcDbLine
 10
397.2948905487746
 20
219.3429972875849
 30
0.0
 11
400.4948905487746
 21
219.342997287585
 31
0.0
  0
LINE
  5
3629
330
18
100
AcDbEntity
  8
1
  6
Continuous
100
AcDbLine
 10
397.1731228146362
 20
221.6478828895386
 30
0.0
 11
400.4948905487746
 21
221.6478828895386
 31
0.0
  0
LINE
  5
362B
330
18
100
AcDbEntity
  8
1
  6
Continuous
100
AcDbLine
 10
388.7948805487746
 20
259.6742441005722
 30
0.0
 11
389.3948805487748
 21
258.7587781005722
 31
0.0
  0
ARC
  5
362D
330
18
100
AcDbEntity
  8
1
  6
Continuous
100
AcDbCircle
 10
397.2948905487746
 20
221.6429972875849
 30
0.0
 40
2.299999999999998
100
AcDbArc
 50
179.9999899999989
 51
270.0
  0
LINE
  5
362E
330
18
100
AcDbEntity
  8
1
  6
Continuous
100
AcDbLine
 10
449.8166582829131
 20
221.6478828895386
 30
0.0
 11
446.4948905487747
 21
221.6478828895386
 31
0.0
  0
LINE
  5
362F
330
18
100
AcDbEntity
  8
1
  6
Continuous
100
AcDbLine
 10
449.6948905487747
 20
219.3429972875849
 30
0.0
 11
446.4948905487747
 21
219.3429972875849
 31
0.0
  0
ARC
  5
3630
330
18
100
AcDbEntity
  8
1
  6
Continuous
100
AcDbCircle
 10
449.6948905487747
 20
221.6429972875849
 30
0.0
 40
2.299999999999998
100
AcDbArc
 50
270.0
 51
0.0000100000010134
  0
ARC
  5
3631
330
18
100
AcDbEntity
  8
1
  6
Continuous
100
AcDbCircle
 10
453.4140829577591
 20
237.5731296005723
 30
0.0
 40
3.48931044130072
100
AcDbArc
 50
326.3760166701214
 51
24.4162583753096
  0
ARC
  5
3634
330
18
100
AcDbEntity
  8
1
  6
Continuous
100
AcDbCircle
 10
391.3949005487745
 20
259.9944191005722
 30
0.0
 40
2.0
100
AcDbArc
 50
91.66290484200935
 51
180.000010000001
  0
ARC
  5
3635
330
18
100
AcDbEntity
  8
1
  6
Continuous
100
AcDbCircle
 10
455.5948805487749
 20
259.9944191005722
 30
0.0
 40
2.0
100
AcDbArc
 50
359.999989999999
 51
88.33709515799066
  0
CIRCLE
  5
3639
330
18
100
AcDbEntity
  8
1
  6
Continuous
100
AcDbCircle
 10
649.8572258697215
 20
262.6910281005724
 30
0.0
 40
1.999997000000006
  0
LINE
  5
363E
330
18
100
AcDbEntity
  8
4
  6
CENTER
 48
0.5
100
AcDbLine
 10
245.9346258278281
 20
35.23618034944593
 30
0.0
 11
245.9346258278281
 21
127.2361803494459
 31
0.0
  0
LINE
  5
3641
330
18
100
AcDbEntity
  8
1
  6
Continuous
100
AcDbLine
 10
174.9303968278279
 20
52.1361743494458
 30
0.0
 11
174.9303968278281
 21
110.3361903494458
 31
0.0
  0
LINE
  5
3642
330
18
100
AcDbEntity
  8
1
  6
Continuous
100
AcDbLine
 10
175.3801736768542
 20
55.73619034944591
 30
0.0
 11
175.3801736768542
 21
106.7361703494458
 31
0.0
  0
LINE
  5
3644
330
18
100
AcDbEntity
  8
1
  6
Continuous
100
AcDbLine
 10
164.1998848278281
 20
66.15399720484993
 30
0.0
 11
164.1998848278281
 21
96.31836349404194
 31
0.0
  0
LINE
  5
3648
330
18
100
AcDbEntity
  8
1
  6
Continuous
100
AcDbLine
 10
286.934625827828
 20
49.73618034944593
 30
0.0
 11
286.934625827828
 21
112.7361803494459
 31
0.0
  0
LINE
  5
364B
330
18
100
AcDbEntity
  8
4
  6
CENTER
 48
0.5
100
AcDbLine
 10
291.9346258278281
 20
81.23618034944582
 30
0.0
 11
159.199884827828
 21
81.23618034944593
 31
0.0
  0
LINE
  5
364C
330
18
100
AcDbEntity
  8
1
  6
Continuous
100
AcDbLine
 10
173.5441968278282
 20
113.3361903494458
 30
0.0
 11
217.6229680424999
 21
113.3361903494457
 31
0.0
  0
LINE
  5
364D
330
18
100
AcDbEntity
  8
1
  6
Continuous
100
AcDbLine
 10
173.5283398278281
 20
110.3361903494458
 30
0.0
 11
214.9346258278275
 21
110.3361903494458
 31
0.0
  0
LINE
  5
364E
330
18
100
AcDbEntity
  8
1
  6
Continuous
100
AcDbLine
 10
178.3801736768542
 20
109.7361703494461
 30
0.0
 11
233.3463725997535
 21
109.7361703494461
 31
0.0
  0
ARC
  5
364F
330
18
100
AcDbEntity
  8
1
  6
Continuous
100
AcDbCircle
 10
170.0002484875356
 20
104.483980349446
 30
0.0
 40
3.7522
100
AcDbArc
 50
90.00000000000005
 51
166.3430045700697
  0
ARC
  5
3651
330
18
100
AcDbEntity
  8
1
  6
Continuous
100
AcDbCircle
 10
178.3801736768542
 20
106.7361703494458
 30
0.0
 40
3.0
100
AcDbArc
 50
90.00000000000005
 51
180.0
  0
LINE
  5
3653
330
18
100
AcDbEntity
  8
1
  6
Continuous
100
AcDbLine
 10
170.5441968278285
 20
52.13617034944604
 30
0.0
 11
170.5441968278285
 21
110.3361903494458
 31
0.0
  0
ARC
  5
3654
330
18
100
AcDbEntity
  8
1
  6
Continuous
100
AcDbCircle
 10
173.5441968278282
 20
110.3361903494458
 30
0.0
 40
3.0
100
AcDbArc
 50
90.00000000000005
 51
180.0
  0
LINE
  5
3655
330
18
100
AcDbEntity
  8
1
  6
Continuous
100
AcDbLine
 10
170.0002484875358
 20
108.2361803494461
 30
0.0
 11
170.5441968278285
 21
108.2361803494461
 31
0.0
  0
ARC
  5
3659
330
18
100
AcDbEntity
  8
1
  6
Continuous
100
AcDbCircle
 10
165.7492848278277
 20
96.31836349404194
 30
0.0
 40
1.5494
100
AcDbArc
 50
166.3430045700697
 51
180.0
  0
LINE
  5
365A
330
18
100
AcDbEntity
  8
1
  6
Continuous
100
AcDbLine
 10
164.2436916179203
 20
96.68419056559308
 30
0.0
 11
166.3541359005887
 21
105.3699080233029
 31
0.0
  0
LINE
  5
365E
330
18
100
AcDbEntity
  8
1
  6
Continuous
100
AcDbLine
 10
277.434625827828
 20
122.2361803494459
 30
0.0
 11
214.4346258278281
 21
122.2361803494459
 31
0.0
  0
LINE
  5
365F
330
18
100
AcDbEntity
  8
4
  6
CENTER
 48
0.2
100
AcDbLine
 10
214.4346258278281
 20
106.2361803494459
 30
0.0
 11
214.4346258278281
 21
119.2361803494459
 31
0.0
  0
ARC
  5
3660
330
18
100
AcDbEntity
  8
1
  6
Continuous
100
AcDbCircle
 10
214.4346258278281
 20
112.7361803494459
 30
0.0
 40
9.5
100
AcDbArc
 50
90.00001999999552
 51
154.3346240609873
  0
ARC
  5
3661
330
18
100
AcDbEntity
  8
1
  6
Continuous
100
AcDbCircle
 10
206.8620575280351
 20
111.1549403494459
 30
0.0
 40
5.78125
100
AcDbArc
 50
55.79454206189526
 51
124.2054599999985
  0
LINE
  5
3664
330
18
100
AcDbEntity
  8
1
  6
Continuous
100
AcDbLine
 10
191.1325552278283
 20
115.336170349446
 30
0.0
 11
217.8507170340676
 21
115.336170349446
 31
0.0
  0
LINE
  5
3665
330
18
100
AcDbEntity
  8
1
  6
Continuous
100
AcDbLine
 10
201.1123502277078
 20
46.63619034944598
 30
0.0
 11
193.1527592277079
 21
46.63619034944622
 31
0.0
  0
LINE
  5
3666
330
18
100
AcDbEntity
  8
1
  6
Continuous
100
AcDbLine
 10
200.1325552277076
 20
45.83619034944604
 30
0.0
 11
194.1325552277076
 21
45.83619034944604
 31
0.0
  0
LINE
  5
3667
330
18
100
AcDbEntity
  8
1
  6
Continuous
100
AcDbLine
 10
199.6325622277079
 20
47.13619034944621
 30
0.0
 11
201.1123542277075
 21
46.63619034944622
 31
0.0
  0
ARC
  5
3668
330
18
100
AcDbEntity
  8
1
  6
Continuous
100
AcDbCircle
 10
194.1325552277073
 20
46.8361903494458
 30
0.0
 40
1.0
100
AcDbArc
 50
191.5369499999987
 51
270.000010000001
  0
LINE
  5
3669
330
18
100
AcDbEntity
  8
1
  6
Continuous
100
AcDbLine
 10
194.6325582277071
 20
47.13619034944598
 30
0.0
 11
193.1527592277076
 21
46.63619034944622
 31
0.0
  0
LINE
  5
366A
330
18
100
AcDbEntity
  8
1
  6
Continuous
100
AcDbLine
 10
210.1120575280351
 20
115.9361903494459
 30
0.0
 11
203.6120595280351
 21
115.9361903494459
 31
0.0
  0
LINE
  5
366B
330
18
100
AcDbEntity
  8
1
  6
Continuous
100
AcDbLine
 10
203.6120555280351
 20
115.9361903494457
 30
0.0
 11
204.5275215280348
 21
115.3361903494458
 31
0.0
  0
ARC
  5
366C
330
18
100
AcDbEntity
  8
1
  6
Continuous
100
AcDbCircle
 10
200.1325552277076
 20
46.8361903494458
 30
0.0
 40
1.0
100
AcDbArc
 50
269.999989999999
 51
348.4630399999997
  0
ARC
  5
366D
330
18
100
AcDbEntity
  8
1
  6
Continuous
100
AcDbCircle
 10
191.1325552278281
 20
112.3361703494458
 30
0.0
 40
3.0
100
AcDbArc
 50
90.00000000000005
 51
160.5283742226618
  0
LINE
  5
366E
330
18
100
AcDbEntity
  8
4
  6
CENTER
 48
0.2
100
AcDbLine
 10
220.9346258278281
 20
112.7361803494459
 30
0.0
 11
207.934625827828
 21
112.7361803494459
 31
0.0
  0
ARC
  5
366F
330
18
100
AcDbEntity
  8
1
  6
Continuous
100
AcDbCircle
 10
214.4346258278281
 20
112.7361803494459
 30
0.0
 40
4.400000099999996
100
AcDbArc
 50
36.17175179361112
 51
143.7786157463646
  0
LINE
  5
3670
330
18
100
AcDbEntity
  8
4
  6
CENTER
 48
0.2
100
AcDbLine
 10
277.434625827828
 20
106.2361803494459
 30
0.0
 11
277.434625827828
 21
119.2361803494459
 31
0.0
  0
ARC
  5
3672
330
18
100
AcDbEntity
  8
1
  6
Continuous
100
AcDbCircle
 10
277.434625827828
 20
112.7361803494459
 30
0.0
 40
9.5
100
AcDbArc
 50
359.9999799999979
 51
90.00002999999653
  0
LINE
  5
3673
330
18
100
AcDbEntity
  8
4
  6
CENTER
 48
0.2
100
AcDbLine
 10
283.9346258278279
 20
112.7361803494459
 30
0.0
 11
270.9346258278281
 21
112.7361803494459
 31
0.0
  0
CIRCLE
  5
3674
330
18
100
AcDbEntity
  8
1
  6
Continuous
100
AcDbCircle
 10
277.434625827828
 20
112.7361803494459
 30
0.0
 40
4.400000099999996
  0
LINE
  5
3677
330
18
100
AcDbEntity
  8
1
  6
Continuous
100
AcDbLine
 10
178.3801736768542
 20
52.73619034944591
 30
0.0
 11
233.3463725997535
 21
52.73619034944568
 31
0.0
  0
LINE
  5
3679
330
18
100
AcDbEntity
  8
1
  6
Continuous
100
AcDbLine
 10
166.3541359005887
 20
57.10245267558867
 30
0.0
 11
164.2436916179201
 21
65.78817013329876
 31
0.0
  0
ARC
  5
367D
330
18
100
AcDbEntity
  8
1
  6
Continuous
100
AcDbCircle
 10
165.7492848278277
 20
66.15399720484993
 30
0.0
 40
1.5494
100
AcDbArc
 50
180.0
 51
193.6569954299302
  0
ARC
  5
367E
330
18
100
AcDbEntity
  8
1
  6
Continuous
100
AcDbCircle
 10
170.0002484875356
 20
57.98838034944584
 30
0.0
 40
3.7522
100
AcDbArc
 50
193.6569954299302
 51
270.0
  0
LINE
  5
3685
330
18
100
AcDbEntity
  8
1
  6
Continuous
100
AcDbLine
 10
277.434625827828
 20
40.23618034944592
 30
0.0
 11
214.4346258278281
 21
40.23618034944592
 31
0.0
  0
LINE
  5
3686
330
18
100
AcDbEntity
  8
4
  6
CENTER
 48
0.2
100
AcDbLine
 10
214.4346258278281
 20
43.23618034944593
 30
0.0
 11
214.4346258278281
 21
56.23618034944593
 31
0.0
  0
LINE
  5
368C
330
18
100
AcDbEntity
  8
4
  6
CENTER
 48
0.2
100
AcDbLine
 10
220.9346258278281
 20
49.73618034944593
 30
0.0
 11
207.934625827828
 21
49.73618034944593
 31
0.0
  0
ARC
  5
368F
330
18
100
AcDbEntity
  8
1
  6
Continuous
100
AcDbCircle
 10
197.6325552277073
 20
116.336186349446
 30
0.0
 40
4.0
100
AcDbArc
 50
345.5224900000002
 51
14.47751199999776
  0
ARC
  5
3690
330
18
100
AcDbEntity
  8
1
  6
Continuous
100
AcDbCircle
 10
196.6325552277073
 20
116.336186349446
 30
0.0
 40
4.0
100
AcDbArc
 50
165.5224900000001
 51
194.4775099999998
  0
LINE
  5
3693
330
18
100
AcDbEntity
  8
1
  6
Continuous
100
AcDbLine
 10
201.5055382277075
 20
117.336186349446
 30
0.0
 11
192.7595732277076
 21
117.336186349446
 31
0.0
  0
LINE
  5
3694
330
18
100
AcDbEntity
  8
4
  6
CENTER
 48
0.2
100
AcDbLine
 10
277.434625827828
 20
43.23618034944593
 30
0.0
 11
277.434625827828
 21
56.23618034944593
 31
0.0
  0
CIRCLE
  5
3695
330
18
100
AcDbEntity
  8
1
  6
Continuous
100
AcDbCircle
 10
277.434625827828
 20
49.73618034944593
 30
0.0
 40
4.400000099999996
  0
ARC
  5
3696
330
18
100
AcDbEntity
  8
1
  6
Continuous
100
AcDbCircle
 10
277.434625827828
 20
49.73618034944593
 30
0.0
 40
9.5
100
AcDbArc
 50
269.9999820000007
 51
359.9999599999991
  0
LINE
  5
3697
330
18
100
AcDbEntity
  8
4
  6
CENTER
 48
0.2
100
AcDbLine
 10
283.9346258278279
 20
49.73618034944593
 30
0.0
 11
270.9346258278281
 21
49.73618034944593
 31
0.0
  0
LINE
  5
378C
330
18
100
AcDbEntity
  8
1
  6
Continuous
100
AcDbLine
 10
210.1120615280351
 20
115.9361903494457
 30
0.0
 11
209.1965955280354
 21
115.3361903494458
 31
0.0
  0
LINE
  5
3790
330
18
100
AcDbEntity
  8
1
  6
Continuous
100
AcDbLine
 10
173.5283398278281
 20
110.3361903494458
 30
0.0
 11
173.5283398278281
 21
52.1361743494458
 31
0.0
  0
ARC
  5
3791
330
18
100
AcDbEntity
  8
1
  6
Continuous
100
AcDbCircle
 10
173.5441968278282
 20
52.13617034944604
 30
0.0
 40
3.0
100
AcDbArc
 50
180.0
 51
270.0
  0
LINE
  5
3792
330
18
100
AcDbEntity
  8
1
  6
Continuous
100
AcDbLine
 10
170.0002484875358
 20
54.23618034944571
 30
0.0
 11
170.5441968278285
 21
54.23618034944571
 31
0.0
  0
LINE
  5
3793
330
18
100
AcDbEntity
  8
1
  6
Continuous
100
AcDbLine
 10
188.1325552278276
 20
110.2361803496964
 30
0.0
 11
214.9346258278274
 21
110.2361803497966
 31
0.0
  0
LINE
  5
3794
330
18
100
AcDbEntity
  8
1
  6
Continuous
100
AcDbLine
 10
188.1325552278276
 20
110.2361803496964
 30
0.0
 11
188.1325552278276
 21
110.3361903494458
 31
0.0
  0
ARC
  5
3795
330
18
100
AcDbEntity
  8
1
  6
Continuous
100
AcDbCircle
 10
217.8507170340676
 20
112.336170349446
 30
0.0
 40
3.0
100
AcDbArc
 50
25.38407453011565
 51
90.0
  0
LINE
  5
3798
330
18
100
AcDbEntity
  8
1
  6
Continuous
100
AcDbLine
 10
200.203261627828
 20
113.3361903494458
 30
0.0
 11
199.6187506278279
 21
113.9361903494459
 31
0.0
  0
LINE
  5
3799
330
18
100
AcDbEntity
  8
1
  6
Continuous
100
AcDbLine
 10
199.6187546278279
 20
113.9361903494459
 30
0.0
 11
206.1187546278278
 21
113.9361903494459
 31
0.0
  0
ARC
  5
379A
330
18
100
AcDbEntity
  8
1
  6
Continuous
100
AcDbCircle
 10
202.8687546278279
 20
109.1549403494459
 30
0.0
 40
5.78125
100
AcDbArc
 50
55.79454000000147
 51
124.2054599999985
  0
LINE
  5
379B
330
18
100
AcDbEntity
  8
1
  6
Continuous
100
AcDbLine
 10
206.1187546278278
 20
113.9361803494459
 30
0.0
 11
205.2032886278278
 21
113.336190349446
 31
0.0
  0
LINE
  5
379C
330
18
100
AcDbEntity
  8
1
  6
Continuous
100
AcDbLine
 10
173.5441968278282
 20
49.13617034944604
 30
0.0
 11
215.4346237900823
 21
49.13617034944604
 31
0.0
  0
LINE
  5
379D
330
18
100
AcDbEntity
  8
1
  6
Continuous
100
AcDbLine
 10
173.5283398278281
 20
52.13617034944604
 30
0.0
 11
215.4346254881947
 21
52.13617034944604
 31
0.0
  0
LINE
  5
379E
330
18
100
AcDbEntity
  8
1
  6
Continuous
100
AcDbLine
 10
199.6187546278279
 20
48.53617034944591
 30
0.0
 11
206.1187546278278
 21
48.53617034944591
 31
0.0
  0
ARC
  5
379F
330
18
100
AcDbEntity
  8
1
  6
Continuous
100
AcDbCircle
 10
202.8687546278279
 20
53.31742034944589
 30
0.0
 40
5.78125
100
AcDbArc
 50
235.7945400000013
 51
304.2054599999985
  0
LINE
  5
37A0
330
18
100
AcDbEntity
  8
1
  6
Continuous
100
AcDbLine
 10
191.1325552278283
 20
47.13619034944577
 30
0.0
 11
215.4727264579601
 21
47.13619034944577
 31
0.0
  0
LINE
  5
37A2
330
18
100
AcDbEntity
  8
1
  6
Continuous
100
AcDbLine
 10
200.203261627828
 20
49.13617034944604
 30
0.0
 11
199.6187506278279
 21
48.53617034944591
 31
0.0
  0
ARC
  5
37A3
330
18
100
AcDbEntity
  8
1
  6
Continuous
100
AcDbCircle
 10
191.1325552278281
 20
50.136190349446
 30
0.0
 40
3.0
100
AcDbArc
 50
199.4716257773381
 51
270.0
  0
LINE
  5
37A9
330
18
100
AcDbEntity
  8
1
  6
Continuous
100
AcDbLine
 10
206.1187546278278
 20
48.53618034944588
 30
0.0
 11
205.2032886278278
 21
49.13617034944582
 31
0.0
  0
ARC
  5
37AA
330
18
100
AcDbEntity
  8
1
  6
Continuous
100
AcDbCircle
 10
214.4346258278281
 20
49.73618034944593
 30
0.0
 40
4.400000099999996
100
AcDbArc
 50
216.2213842536353
 51
307.3019576583125
  0
LINE
  5
37AB
330
18
100
AcDbEntity
  8
1
  6
Continuous
100
AcDbLine
 10
210.1120615280351
 20
46.53617034944613
 30
0.0
 11
209.1965955280354
 21
47.13617034944603
 31
0.0
  0
LINE
  5
37AC
330
18
100
AcDbEntity
  8
1
  6
Continuous
100
AcDbLine
 10
210.1120575280351
 20
46.5361703494459
 30
0.0
 11
203.6120595280351
 21
46.5361703494459
 31
0.0
  0
ARC
  5
37AD
330
18
100
AcDbEntity
  8
1
  6
Continuous
100
AcDbCircle
 10
206.8620575280351
 20
51.3174203494459
 30
0.0
 40
5.78125
100
AcDbArc
 50
235.7945400000014
 51
304.2054579381047
  0
LINE
  5
37AE
330
18
100
AcDbEntity
  8
1
  6
Continuous
100
AcDbLine
 10
203.6120555280351
 20
46.53617034944613
 30
0.0
 11
204.5275215280348
 21
47.13617034944603
 31
0.0
  0
LINE
  5
37B1
330
18
100
AcDbEntity
  8
1
  6
Continuous
100
AcDbLine
 10
188.1325552278276
 20
52.23618034919535
 30
0.0
 11
215.4346255448041
 21
52.23618034909339
 31
0.0
  0
LINE
  5
37B2
330
18
100
AcDbEntity
  8
1
  6
Continuous
100
AcDbLine
 10
188.1325552278276
 20
52.23618034919535
 30
0.0
 11
188.1325552278276
 21
52.13617034944604
 31
0.0
  0
ARC
  5
37B5
330
18
100
AcDbEntity
  8
1
  6
Continuous
100
AcDbCircle
 10
214.4346258278281
 20
49.73618034944593
 30
0.0
 40
9.5
100
AcDbArc
 50
205.6653759390126
 51
269.9999800000044
  0
ARC
  5
37B6
330
18
100
AcDbEntity
  8
1
  6
Continuous
100
AcDbCircle
 10
243.9346258278287
 20
101.7361803494453
 30
0.0
 40
1.0
100
AcDbArc
 50
9.999999999998619
 51
90.0
  0
LINE
  5
37B7
330
18
100
AcDbEntity
  8
1
  6
Continuous
100
AcDbLine
 10
244.9194338278287
 20
101.9098253494452
 30
0.0
 11
245.0382158278287
 21
101.2361803494454
 31
0.0
  0
LINE
  5
37B8
330
18
100
AcDbEntity
  8
1
  6
Continuous
100
AcDbLine
 10
244.9194338278287
 20
60.56253534944644
 30
0.0
 11
245.0382158278287
 21
61.23618034944629
 31
0.0
  0
LINE
  5
3811
330
18
100
AcDbEntity
  8
1
  6
Continuous
100
AcDbLine
 10
183.7413545759686
 20
72.23618034944593
 30
0.0
 11
183.7413545759686
 21
71.23618034944593
 31
0.0
  0
ARC
  5
3812
330
18
100
AcDbEntity
  8
1
  6
Continuous
100
AcDbCircle
 10
179.7413545759686
 20
71.23618034944588
 30
0.0
 40
4.0
100
AcDbArc
 50
323.6179400000005
 51
0.0
  0
ARC
  5
3841
330
18
100
AcDbEntity
  8
1
  6
Continuous
100
AcDbCircle
 10
179.7413555759685
 20
91.23618034944588
 30
0.0
 40
2.799999999999998
100
AcDbArc
 50
0.0
 51
45.58469000000056
  0
LINE
  5
3842
330
18
100
AcDbEntity
  8
1
  6
Continuous
100
AcDbLine
 10
182.5413545759686
 20
91.23618034944591
 30
0.0
 11
182.5413545759686
 21
90.23618034944592
 31
0.0
  0
LINE
  5
3843
330
18
100
AcDbEntity
  8
1
  6
Continuous
100
AcDbLine
 10
183.7413545759686
 20
91.23618034944591
 30
0.0
 11
183.7413545759686
 21
90.23618034944592
 31
0.0
  0
ARC
  5
3844
330
18
100
AcDbEntity
  8
1
  6
Continuous
100
AcDbCircle
 10
179.7413545759686
 20
91.23618034944588
 30
0.0
 40
4.0
100
AcDbArc
 50
0.0
 51
36.38206000000142
  0
ARC
  5
3878
330
18
100
AcDbEntity
  8
1
  6
Continuous
100
AcDbCircle
 10
217.4346258278274
 20
110.7893223494458
 30
0.0
 40
2.5
100
AcDbArc
 50
97.86514999999941
 51
180.0
  0
ARC
  5
3879
330
18
100
AcDbEntity
  8
1
  6
Continuous
100
AcDbCircle
 10
223.9346258278274
 20
63.73616034944564
 30
0.0
 40
50.0
100
AcDbArc
 50
82.13484679999799
 51
97.86514999999941
  0
ARC
  5
387A
330
18
100
AcDbEntity
  8
1
  6
Continuous
100
AcDbCircle
 10
230.4346258278274
 20
110.7893223494458
 30
0.0
 40
2.5
100
AcDbArc
 50
359.9999970000022
 51
82.13484679999799
  0
LINE
  5
387B
330
18
100
AcDbEntity
  8
1
  6
Continuous
100
AcDbLine
 10
232.9346258278274
 20
109.7361603494458
 30
0.0
 11
232.9346258278274
 21
110.7893223494458
 31
0.0
  0
LINE
  5
387C
330
18
100
AcDbEntity
  8
1
  6
Continuous
100
AcDbLine
 10
214.9346258278274
 20
109.7361603494458
 30
0.0
 11
214.9346258278274
 21
110.7893223494458
 31
0.0
  0
LINE
  5
387D
330
18
100
AcDbEntity
  8
4
  6
CENTER
 48
0.5
100
AcDbLine
 10
223.9346258278274
 20
118.7361603494456
 30
0.0
 11
223.9346258278274
 21
41.73618034944562
 31
0.0
  0
LINE
  5
387E
330
18
100
AcDbEntity
  8
1
  6
Continuous
100
AcDbLine
 10
219.6846258278274
 20
44.73618034944562
 30
0.0
 11
228.1846258278274
 21
44.73618034944562
 31
0.0
  0
LINE
  5
387F
330
18
100
AcDbEntity
  8
1
  6
Continuous
100
AcDbLine
 10
218.9346258278273
 20
45.48618034944562
 30
0.0
 11
228.9346258278273
 21
45.48618034944562
 31
0.0
  0
LINE
  5
3880
330
18
100
AcDbEntity
  8
1
  6
Continuous
100
AcDbLine
 10
228.9346258278273
 20
45.48618034944584
 30
0.0
 11
228.9346258278273
 21
46.23618034944584
 31
0.0
  0
LINE
  5
3881
330
18
100
AcDbEntity
  8
2
  6
Continuous
100
AcDbLine
 10
228.1226258279704
 20
44.73618034944562
 30
0.0
 11
228.1226258279704
 21
46.23618034944584
 31
0.0
  0
LINE
  5
3882
330
18
100
AcDbEntity
  8
1
  6
Continuous
100
AcDbLine
 10
228.9346218278274
 20
45.48618034944562
 30
0.0
 11
228.1846258278274
 21
44.73618034944562
 31
0.0
  0
LINE
  5
3883
330
18
100
AcDbEntity
  8
1
  6
Continuous
100
AcDbLine
 10
218.9346258278273
 20
45.48618034944562
 30
0.0
 11
218.9346258278273
 21
46.23618034944584
 31
0.0
  0
LINE
  5
3884
330
18
100
AcDbEntity
  8
2
  6
Continuous
100
AcDbLine
 10
219.7466258279704
 20
44.73618034944562
 30
0.0
 11
219.7466258279704
 21
46.23618034944584
 31
0.0
  0
LINE
  5
3885
330
18
100
AcDbEntity
  8
1
  6
Continuous
100
AcDbLine
 10
219.6846338278273
 20
44.73618034944562
 30
0.0
 11
218.9346258278273
 21
45.48620034944579
 31
0.0
  0
LINE
  5
3886
330
18
100
AcDbEntity
  8
1
  6
Continuous
100
AcDbLine
 10
235.3463725997535
 20
107.7361703494461
 30
0.0
 11
235.3463725997534
 21
104.7361803494454
 31
0.0
  0
LINE
  5
3887
330
18
100
AcDbEntity
  8
1
  6
Continuous
100
AcDbLine
 10
223.9346258278274
 20
104.7361803494454
 30
0.0
 11
223.9346308194702
 21
107.7361803494454
 31
0.0
  0
LINE
  5
3888
330
18
100
AcDbEntity
  8
1
  6
Continuous
100
AcDbLine
 10
223.4859267126719
 20
104.7361803494454
 30
0.0
 11
223.4859267126719
 21
107.7361803494454
 31
0.0
  0
ARC
  5
3889
330
18
100
AcDbEntity
  8
1
  6
Continuous
100
AcDbCircle
 10
233.3463725997536
 20
107.7361703494461
 30
0.0
 40
2.0
100
AcDbArc
 50
359.9999999999987
 51
90.00000000000325
  0
ARC
  5
388A
330
18
100
AcDbEntity
  8
1
  6
Continuous
100
AcDbCircle
 10
221.9346308194703
 20
107.7361803494454
 30
0.0
 40
2.0
100
AcDbArc
 50
359.9999999999987
 51
90.00000000000325
  0
ARC
  5
388B
330
18
100
AcDbEntity
  8
1
  6
Continuous
100
AcDbCircle
 10
221.4859267126719
 20
107.7361803494454
 30
0.0
 40
2.0
100
AcDbArc
 50
359.9999999999987
 51
90.00000000000325
  0
LINE
  5
388C
330
18
100
AcDbEntity
  8
1
  6
Continuous
100
AcDbLine
 10
235.7736010556921
 20
107.7361803494454
 30
0.0
 11
235.3463725997286
 21
107.7361803494454
 31
0.0
  0
ARC
  5
388E
330
18
100
AcDbEntity
  8
1
  6
Continuous
100
AcDbCircle
 10
234.3463725997533
 20
104.7361803494454
 30
0.0
 40
1.0
100
AcDbArc
 50
270.0
 51
0.0
  0
ARC
  5
388F
330
18
100
AcDbEntity
  8
1
  6
Continuous
 48
0.5
100
AcDbCircle
 10
224.9346258278273
 20
104.7361803494454
 30
0.0
 40
1.0
100
AcDbArc
 50
180.0
 51
270.0
  0
ARC
  5
3890
330
18
100
AcDbEntity
  8
1
  6
Continuous
100
AcDbCircle
 10
224.4859267126719
 20
104.7361803494454
 30
0.0
 40
1.0
100
AcDbArc
 50
180.0
 51
269.9999999999998
  0
ARC
  5
3891
330
18
100
AcDbEntity
  8
1
  6
Continuous
100
AcDbCircle
 10
233.3463725997536
 20
54.73619034944568
 30
0.0
 40
2.0
100
AcDbArc
 50
269.9999999999967
 51
0.0000000000012354
  0
LINE
  5
3892
330
18
100
AcDbEntity
  8
1
  6
Continuous
100
AcDbLine
 10
235.3463725997535
 20
54.73619034944572
 30
0.0
 11
235.3463725997534
 21
57.73618034944644
 31
0.0
  0
ARC
  5
3893
330
18
100
AcDbEntity
  8
1
  6
Continuous
100
AcDbCircle
 10
234.3463725997533
 20
57.73618034944644
 30
0.0
 40
1.0
100
AcDbArc
 50
0.0
 51
90.00000000000005
  0
ARC
  5
3894
330
18
100
AcDbEntity
  8
1
  6
Continuous
 48
0.5
100
AcDbCircle
 10
224.9346258278273
 20
57.73618034944644
 30
0.0
 40
1.0
100
AcDbArc
 50
90.00000000000005
 51
180.0
  0
ARC
  5
3895
330
18
100
AcDbEntity
  8
1
  6
Continuous
100
AcDbCircle
 10
224.4859267126719
 20
57.73618034944644
 30
0.0
 40
1.0
100
AcDbArc
 50
90.00000000000012
 51
180.0
  0
LINE
  5
3896
330
18
100
AcDbEntity
  8
1
  6
Continuous
100
AcDbLine
 10
223.4859267126719
 20
57.73618034944644
 30
0.0
 11
223.4859267126719
 21
54.73618034944644
 31
0.0
  0
ARC
  5
3897
330
18
100
AcDbEntity
  8
1
  6
Continuous
100
AcDbCircle
 10
221.4859267126719
 20
54.73618034944639
 30
0.0
 40
2.0
100
AcDbArc
 50
269.9999999999967
 51
0.0000000000012354
  0
ARC
  5
3898
330
18
100
AcDbEntity
  8
1
  6
Continuous
100
AcDbCircle
 10
221.9346308194703
 20
54.73618034944639
 30
0.0
 40
2.0
100
AcDbArc
 50
269.9999999999967
 51
0.0000000000012354
  0
LINE
  5
3899
330
18
100
AcDbEntity
  8
1
  6
Continuous
100
AcDbLine
 10
223.9346258278274
 20
57.73618034944644
 30
0.0
 11
223.9346308194702
 21
54.73618034944644
 31
0.0
  0
LINE
  5
389A
330
18
100
AcDbEntity
  8
1
  6
Continuous
100
AcDbLine
 10
235.7736010556921
 20
54.73618034944542
 30
0.0
 11
235.3463725997286
 21
54.73618034944542
 31
0.0
  0
LINE
  5
389E
330
18
100
AcDbEntity
  8
1
  6
Continuous
100
AcDbLine
 10
175.8801736768542
 20
105.7361803494459
 30
0.0
 11
181.1829205759687
 21
105.7361803494459
 31
0.0
  0
LINE
  5
389F
330
18
100
AcDbEntity
  8
1
  6
Continuous
100
AcDbLine
 10
178.5936345429428
 20
93.23618034944596
 30
0.0
 11
182.1829205759686
 21
93.23618034944592
 31
0.0
  0
LINE
  5
38A3
330
18
100
AcDbEntity
  8
1
  6
Continuous
100
AcDbLine
 10
183.1829205759687
 20
103.7361803494459
 30
0.0
 11
183.1829205759686
 21
94.23618034944594
 31
0.0
  0
ARC
  5
38A4
330
18
100
AcDbEntity
  8
1
  6
Continuous
100
AcDbCircle
 10
181.1829205759687
 20
103.7361803494459
 30
0.0
 40
2.0
100
AcDbArc
 50
0.0
 51
90.0
  0
LINE
  5
38A6
330
18
100
AcDbEntity
  8
1
  6
Continuous
100
AcDbLine
 10
177.3801736768543
 20
105.7361803494459
 30
0.0
 11
177.3801736768543
 21
106.7361803494454
 31
0.0
  0
ARC
  5
38A7
330
18
100
AcDbEntity
  8
1
  6
Continuous
100
AcDbCircle
 10
178.3801736768543
 20
106.7361803494454
 30
0.0
 40
1.0
100
AcDbArc
 50
90.0
 51
179.9999999999997
  0
ARC
  5
38A8
330
18
100
AcDbEntity
  8
1
  6
Continuous
100
AcDbCircle
 10
175.8801736768542
 20
106.2361803494459
 30
0.0
 40
0.5
100
AcDbArc
 50
179.9999999999997
 51
270.0
  0
ARC
  5
38B1
330
18
100
AcDbEntity
  8
1
  6
Continuous
100
AcDbCircle
 10
178.3801736768541
 20
429.6876428516982
 30
0.0
 40
3.0
100
AcDbArc
 50
90.00000000000055
 51
180.0000000000002
  0
LINE
  5
38B3
330
18
100
AcDbEntity
  8
1
  6
Continuous
100
AcDbLine
 10
177.5936345429428
 20
92.23618034944596
 30
0.0
 11
177.5936345429428
 21
70.23618034944587
 31
0.0
  0
ARC
  5
38B5
330
18
100
AcDbEntity
  8
1
  6
Continuous
100
AcDbCircle
 10
178.5936345429428
 20
92.23618034944596
 30
0.0
 40
1.0
100
AcDbArc
 50
89.99999999999937
 51
180.0
  0
LINE
  5
38B7
330
18
100
AcDbEntity
  8
1
  6
Continuous
100
AcDbLine
 10
178.5936345429428
 20
69.23618034944587
 30
0.0
 11
182.1829205759686
 21
69.23618034944593
 31
0.0
  0
ARC
  5
38B8
330
18
100
AcDbEntity
  8
1
  6
Continuous
100
AcDbCircle
 10
178.5936345429428
 20
70.23618034944587
 30
0.0
 40
1.0
100
AcDbArc
 50
180.0
 51
270.0000000000006
  0
LINE
  5
38B9
330
18
100
AcDbEntity
  8
1
  6
Continuous
100
AcDbLine
 10
183.1829205759687
 20
58.73618034944589
 30
0.0
 11
183.1829205759686
 21
68.23618034944593
 31
0.0
  0
ARC
  5
38BA
330
18
100
AcDbEntity
  8
1
  6
Continuous
100
AcDbCircle
 10
181.1829205759687
 20
58.73618034944589
 30
0.0
 40
2.0
100
AcDbArc
 50
270.0
 51
0.0
  0
LINE
  5
38BB
330
18
100
AcDbEntity
  8
1
  6
Continuous
100
AcDbLine
 10
175.8801736768542
 20
56.73618034944589
 30
0.0
 11
181.1829205759687
 21
56.73618034944589
 31
0.0
  0
ARC
  5
38BC
330
18
100
AcDbEntity
  8
1
  6
Continuous
100
AcDbCircle
 10
178.3801736768543
 20
55.7361803494464
 30
0.0
 40
1.0
100
AcDbArc
 50
180.0000000000002
 51
270.0
  0
LINE
  5
38BD
330
18
100
AcDbEntity
  8
1
  6
Continuous
100
AcDbLine
 10
177.3801736768543
 20
56.73618034944589
 30
0.0
 11
177.3801736768543
 21
55.7361803494464
 31
0.0
  0
ARC
  5
38BE
330
18
100
AcDbEntity
  8
1
  6
Continuous
100
AcDbCircle
 10
178.3801736768542
 20
55.73619034944591
 30
0.0
 40
3.0
100
AcDbArc
 50
180.0
 51
270.0
  0
ARC
  5
38BF
330
18
100
AcDbEntity
  8
1
  6
Continuous
100
AcDbCircle
 10
175.8801736768542
 20
56.23618034944589
 30
0.0
 40
0.5
100
AcDbArc
 50
90.00000000000005
 51
180.0000000000002
  0
LINE
  5
38C1
330
18
100
AcDbEntity
  8
4
  6
CENTER
 48
0.2
100
AcDbLine
 10
206.862055527828
 20
119.3910452145825
 30
0.0
 11
206.8620555278282
 21
108.3910492145824
 31
0.0
  0
LINE
  5
38C2
330
18
100
AcDbEntity
  8
4
  6
CENTER
 48
0.2
100
AcDbLine
 10
202.8687546278279
 20
117.0101468346415
 30
0.0
 11
202.8687546278279
 21
102.6469609295413
 31
0.0
  0
LINE
  5
38C3
330
18
100
AcDbEntity
  8
4
  6
CENTER
 48
0.5
100
AcDbLine
 10
197.1325552278277
 20
43.08131548430934
 30
0.0
 11
197.132555227828
 21
120.6789281043324
 31
0.0
  0
LINE
  5
38C4
330
18
100
AcDbEntity
  8
1
  6
Continuous
100
AcDbLine
 10
180.5801736768544
 20
106.5361803494461
 30
0.0
 11
209.6712026278277
 21
106.5361803494461
 31
0.0
  0
LINE
  5
38C5
330
18
100
AcDbEntity
  8
1
  6
Continuous
100
AcDbLine
 10
206.3687546278276
 20
106.2361803494459
 30
0.0
 11
206.3687546278276
 21
106.5361803494461
 31
0.0
  0
ARC
  5
38C6
330
18
100
AcDbEntity
  8
1
  6
Continuous
100
AcDbCircle
 10
203.7187526278277
 20
105.1361803494459
 30
0.0
 40
4.400000099999996
100
AcDbArc
 50
345.522489999997
 51
14.4775100000029
  0
LINE
  5
38C7
330
18
100
AcDbEntity
  8
1
  6
Continuous
100
AcDbLine
 10
197.758474843717
 20
106.2361803494459
 30
0.0
 11
207.9790376278276
 21
106.2361803494459
 31
0.0
  0
LINE
  5
38C8
330
18
100
AcDbEntity
  8
1
  6
Continuous
100
AcDbLine
 10
197.7584748437202
 20
104.0361803494463
 30
0.0
 11
207.9790376278276
 21
104.0361803494456
 31
0.0
  0
LINE
  5
38C9
330
18
100
AcDbEntity
  8
1
  6
Continuous
100
AcDbLine
 10
199.3687546278276
 20
106.2361803494459
 30
0.0
 11
199.3687546278276
 21
106.5361803494461
 31
0.0
  0
LINE
  5
38CA
330
18
100
AcDbEntity
  8
1
  6
Continuous
100
AcDbLine
 10
209.6712026278277
 20
107.7361803494459
 30
0.0
 11
209.6712026278277
 21
106.5361803494461
 31
0.0
  0
ARC
  5
38CB
330
18
100
AcDbEntity
  8
1
  6
Continuous
100
AcDbCircle
 10
202.0187566278281
 20
105.1361803494459
 30
0.0
 40
4.400000099999996
100
AcDbArc
 50
165.5224881503019
 51
194.4775100000029
  0
ARC
  5
38CD
330
18
100
AcDbEntity
  8
1
  6
Continuous
100
AcDbCircle
 10
180.5801736768544
 20
105.7361803494454
 30
0.0
 40
2.0
100
AcDbArc
 50
90.0
 51
180.0000000000081
  0
ARC
  5
38CF
330
18
100
AcDbEntity
  8
1
  6
Continuous
100
AcDbCircle
 10
180.5801736768544
 20
105.736180349446
 30
0.0
 40
0.8
100
AcDbArc
 50
90.0
 51
180.0
  0
LINE
  5
38D0
330
18
100
AcDbEntity
  8
4
  6
CENTER
 48
0.2
100
AcDbLine
 10
202.8687546278279
 20
45.46221386425031
 30
0.0
 11
202.8687546278279
 21
59.8253997693505
 31
0.0
  0
LINE
  5
38D1
330
18
100
AcDbEntity
  8
4
  6
CENTER
 48
0.2
100
AcDbLine
 10
206.862055527828
 20
43.08131548430934
 30
0.0
 11
206.8620555278282
 21
54.08131148430936
 31
0.0
  0
LINE
  5
38D2
330
18
100
AcDbEntity
  8
1
  6
Continuous
100
AcDbLine
 10
180.5801736768544
 20
55.93618034944576
 30
0.0
 11
209.6712026278277
 21
55.93618034944576
 31
0.0
  0
LINE
  5
38D3
330
18
100
AcDbEntity
  8
1
  6
Continuous
100
AcDbLine
 10
197.7584748437202
 20
58.43618034944552
 30
0.0
 11
207.9790376278276
 21
58.4361803494462
 31
0.0
  0
LINE
  5
38D4
330
18
100
AcDbEntity
  8
1
  6
Continuous
100
AcDbLine
 10
197.758474843717
 20
56.23618034944593
 30
0.0
 11
207.9790344119386
 21
56.23618034944593
 31
0.0
  0
ARC
  5
38D5
330
18
100
AcDbEntity
  8
1
  6
Continuous
100
AcDbCircle
 10
203.7187526278277
 20
57.3361803494459
 30
0.0
 40
4.400000099999996
100
AcDbArc
 50
345.5224881503021
 51
14.47751000000295
  0
LINE
  5
38D6
330
18
100
AcDbEntity
  8
1
  6
Continuous
100
AcDbLine
 10
209.6712026278277
 20
54.73618034944593
 30
0.0
 11
209.6712026278277
 21
55.93618034944576
 31
0.0
  0
LINE
  5
38D7
330
18
100
AcDbEntity
  8
1
  6
Continuous
100
AcDbLine
 10
206.3687546278276
 20
56.23618034944593
 30
0.0
 11
206.3687546278276
 21
55.93618034944576
 31
0.0
  0
ARC
  5
38D8
330
18
100
AcDbEntity
  8
1
  6
Continuous
100
AcDbCircle
 10
202.0187566278281
 20
57.3361803494459
 30
0.0
 40
4.400000099999996
100
AcDbArc
 50
165.522489999997
 51
194.4775118496979
  0
LINE
  5
38D9
330
18
100
AcDbEntity
  8
1
  6
Continuous
100
AcDbLine
 10
199.3687546278276
 20
56.23618034944593
 30
0.0
 11
199.3687546278276
 21
55.93618034944576
 31
0.0
  0
ARC
  5
38DA
330
18
100
AcDbEntity
  8
1
  6
Continuous
100
AcDbCircle
 10
180.5801736768544
 20
56.73618034944575
 30
0.0
 40
0.8
100
AcDbArc
 50
180.0
 51
270.0
  0
ARC
  5
38DB
330
18
100
AcDbEntity
  8
1
  6
Continuous
100
AcDbCircle
 10
180.5801736768544
 20
56.73618034944644
 30
0.0
 40
2.0
100
AcDbArc
 50
179.9999999999918
 51
270.0
  0
LINE
  5
38DC
330
18
100
AcDbEntity
  8
1
  6
Continuous
100
AcDbLine
 10
194.6325552278277
 20
106.5361803494461
 30
0.0
 11
194.6325552278277
 21
100.519111467194
 31
0.0
  0
LINE
  5
38DD
330
18
100
AcDbEntity
  8
1
  6
Continuous
100
AcDbLine
 10
199.6325552278279
 20
104.0361803494462
 30
0.0
 11
199.6325552278279
 21
101.2361803494454
 31
0.0
  0
LINE
  5
38DE
330
18
100
AcDbEntity
  8
1
  6
Continuous
100
AcDbLine
 10
199.6325552278279
 20
58.43618034944563
 30
0.0
 11
199.6325552278279
 21
61.23618034944644
 31
0.0
  0
LINE
  5
38DF
330
18
100
AcDbEntity
  8
1
  6
Continuous
100
AcDbLine
 10
194.6325552278277
 20
55.93618034944576
 30
0.0
 11
194.6325552278277
 21
61.95324923169781
 31
0.0
  0
LINE
  5
38E0
330
18
100
AcDbEntity
  8
1
  6
Continuous
100
AcDbLine
 10
181.3228689237618
 20
90.23618034944592
 30
0.0
 11
191.7048692662151
 21
90.23618034944592
 31
0.0
  0
LINE
  5
38E1
330
18
100
AcDbEntity
  8
1
  6
Continuous
100
AcDbLine
 10
181.3228689237618
 20
72.23618034944593
 30
0.0
 11
191.7048692662151
 21
72.23618034944593
 31
0.0
  0
ARC
  5
38E3
330
18
100
AcDbEntity
  8
1
  6
Continuous
100
AcDbCircle
 10
182.1829205759686
 20
68.23618034944593
 30
0.0
 40
1.0
100
AcDbArc
 50
0.0
 51
90.00000000000062
  0
ARC
  5
38E4
330
18
100
AcDbEntity
  8
1
  6
Continuous
100
AcDbCircle
 10
182.1829205759686
 20
94.23618034944594
 30
0.0
 40
1.0
100
AcDbArc
 50
269.9999999999993
 51
0.0
  0
ARC
  5
38E5
330
18
100
AcDbEntity
  8
1
  6
Continuous
100
AcDbCircle
 10
179.7413555759685
 20
71.23618034944596
 30
0.0
 40
2.799999999999998
100
AcDbArc
 50
314.4153099999994
 51
0.0
  0
LINE
  5
38E6
330
18
100
AcDbEntity
  8
1
  6
Continuous
100
AcDbLine
 10
182.5413545759686
 20
71.23618034944593
 30
0.0
 11
182.5413545759686
 21
72.23618034944593
 31
0.0
  0
LINE
  5
38E8
330
18
100
AcDbEntity
  8
1
  6
Continuous
100
AcDbLine
 10
185.9598412281752
 20
89.23618034944594
 30
0.0
 11
185.9598412281753
 21
73.23618034944593
 31
0.0
  0
LINE
  5
38EA
330
18
100
AcDbEntity
  8
1
  6
Continuous
100
AcDbLine
 10
182.201316441192
 20
84.23618034944594
 30
0.0
 11
182.201316441192
 21
78.23618034944593
 31
0.0
  0
LINE
  5
38EC
330
18
100
AcDbEntity
  8
1
  6
Continuous
100
AcDbLine
 10
181.3228689237618
 20
90.23618034944592
 30
0.0
 11
181.322868923762
 21
84.23618034944594
 31
0.0
  0
LINE
  5
38EE
330
18
100
AcDbEntity
  8
1
  6
Continuous
100
AcDbLine
 10
182.5413545759686
 20
91.23618034944591
 30
0.0
 11
183.7413545759686
 21
91.23618034944591
 31
0.0
  0
LINE
  5
38EF
330
18
100
AcDbEntity
  8
1
  6
Continuous
100
AcDbLine
 10
181.322868923762
 20
84.23618034944594
 30
0.0
 11
182.201316441192
 21
84.23618034944594
 31
0.0
  0
LINE
  5
38F0
330
18
100
AcDbEntity
  8
1
  6
Continuous
100
AcDbLine
 10
181.3228689237616
 20
78.23618034944593
 30
0.0
 11
182.201316441192
 21
78.23618034944593
 31
0.0
  0
LINE
  5
38F2
330
18
100
AcDbEntity
  8
1
  6
Continuous
100
AcDbLine
 10
181.3228689237616
 20
78.23618034944593
 30
0.0
 11
181.3228689237618
 21
72.23618034944593
 31
0.0
  0
LINE
  5
4021
330
18
100
AcDbEntity
  8
4
  6
CENTER
 48
0.5
100
AcDbLine
 10
223.9346258278285
 20
366.6876598516981
 30
0.0
 11
223.9346258278285
 21
443.6876398516982
 31
0.0
  0
LINE
  5
4022
330
18
100
AcDbEntity
  8
4
  6
CENTER
 48
0.5
100
AcDbLine
 10
197.1325552278289
 20
442.3425047168357
 30
0.0
 11
197.1325552278291
 21
364.7448920968126
 31
0.0
  0
ARC
  5
405F
330
18
100
AcDbEntity
  8
1
  6
Continuous
100
AcDbCircle
 10
397.1731228146362
 20
221.9478828895386
 30
0.0
 40
0.3
100
AcDbArc
 50
193.6678354904573
 51
270.0
  0
ARC
  5
4060
330
18
100
AcDbEntity
  8
1
  6
Continuous
100
AcDbCircle
 10
449.8166582829131
 20
221.9478828895386
 30
0.0
 40
0.3
100
AcDbArc
 50
270.0
 51
346.3321645095427
  0
ARC
  5
4069
330
18
100
AcDbEntity
  8
1
  6
Continuous
100
AcDbCircle
 10
400.4948905487746
 20
218.842997287585
 30
0.0
 40
0.5
100
AcDbArc
 50
0.0
 51
90.0
  0
ARC
  5
406A
330
18
100
AcDbEntity
  8
1
  6
Continuous
100
AcDbCircle
 10
400.4948905487746
 20
221.1478828895386
 30
0.0
 40
0.5
100
AcDbArc
 50
0.0000000000012213
 51
90.0
  0
ARC
  5
406B
330
18
100
AcDbEntity
  8
1
  6
Continuous
100
AcDbCircle
 10
446.4948905487747
 20
221.1478828895386
 30
0.0
 40
0.5
100
AcDbArc
 50
90.0
 51
180.0
  0
ARC
  5
406C
330
18
100
AcDbEntity
  8
1
  6
Continuous
100
AcDbCircle
 10
446.4948905487747
 20
218.8429972875849
 30
0.0
 40
0.5
100
AcDbArc
 50
90.0
 51
180.0
  0
LINE
  5
40FE
330
18
100
AcDbEntity
  8
1
  6
Continuous
100
AcDbLine
 10
393.3938725932123
 20
280.7119101005723
 30
0.0
 11
453.5959085043371
 21
280.7119101005723
 31
0.0
  0
LINE
  5
40FF
330
18
100
AcDbEntity
  8
1
  6
Continuous
100
AcDbLine
 10
382.4948905487747
 20
284.7119101005725
 30
0.0
 11
464.4948905487747
 21
284.7119101005725
 31
0.0
  0
LINE
  5
4100
330
18
100
AcDbEntity
  8
1
  6
Continuous
100
AcDbLine
 10
382.4948905487747
 20
287.7119101005723
 30
0.0
 11
382.4948905487747
 21
284.7119101005725
 31
0.0
  0
ARC
  5
4101
330
18
100
AcDbEntity
  8
1
  6
Continuous
100
AcDbCircle
 10
393.3938725932123
 20
285.7119101005723
 30
0.0
 40
5.0
100
AcDbArc
 50
191.5369590328149
 51
270.0
  0
LINE
  5
4102
330
18
100
AcDbEntity
  8
1
  6
Continuous
100
AcDbLine
 10
464.4948905487747
 20
287.7119101005723
 30
0.0
 11
464.4948905487747
 21
284.7119101005725
 31
0.0
  0
ARC
  5
4103
330
18
100
AcDbEntity
  8
1
  6
Continuous
100
AcDbCircle
 10
453.5959085043371
 20
285.7119101005723
 30
0.0
 40
5.0
100
AcDbArc
 50
270.0
 51
348.463040967185
  0
LINE
  5
4104
330
18
100
AcDbEntity
  8
1
  6
Continuous
100
AcDbLine
 10
570.9541373141588
 20
280.7119101005723
 30
0.0
 11
631.1561732252837
 21
280.7119101005723
 31
0.0
  0
LINE
  5
4105
330
18
100
AcDbEntity
  8
1
  6
Continuous
100
AcDbLine
 10
560.0551552697213
 20
284.7119101005725
 30
0.0
 11
642.0551552697212
 21
284.7119101005725
 31
0.0
  0
LINE
  5
4106
330
18
100
AcDbEntity
  8
1
  6
Continuous
100
AcDbLine
 10
560.0551552697213
 20
287.7119101005723
 30
0.0
 11
560.0551552697213
 21
284.7119101005725
 31
0.0
  0
ARC
  5
4107
330
18
100
AcDbEntity
  8
1
  6
Continuous
100
AcDbCircle
 10
570.9541373141588
 20
285.7119101005723
 30
0.0
 40
5.0
100
AcDbArc
 50
191.5369590328149
 51
270.0
  0
LINE
  5
4108
330
18
100
AcDbEntity
  8
1
  6
Continuous
100
AcDbLine
 10
642.0551552697212
 20
287.7119101005723
 30
0.0
 11
642.0551552697212
 21
284.7119101005725
 31
0.0
  0
ARC
  5
4109
330
18
100
AcDbEntity
  8
1
  6
Continuous
100
AcDbCircle
 10
631.1561732252837
 20
285.7119101005723
 30
0.0
 40
5.0
100
AcDbArc
 50
270.0
 51
348.463040967185
  0
LINE
  5
410A
330
18
100
AcDbEntity
  8
1
  6
Continuous
100
AcDbLine
 10
215.8336078722657
 20
280.7119101005723
 30
0.0
 11
276.0356437833904
 21
280.7119101005723
 31
0.0
  0
LINE
  5
410B
330
18
100
AcDbEntity
  8
1
  6
Continuous
100
AcDbLine
 10
204.934625827828
 20
284.7119101005725
 30
0.0
 11
286.934625827828
 21
284.7119101005725
 31
0.0
  0
LINE
  5
410C
330
18
100
AcDbEntity
  8
1
  6
Continuous
100
AcDbLine
 10
204.934625827828
 20
287.7119101005723
 30
0.0
 11
204.934625827828
 21
284.7119101005725
 31
0.0
  0
ARC
  5
410D
330
18
100
AcDbEntity
  8
1
  6
Continuous
100
AcDbCircle
 10
215.8336078722657
 20
285.7119101005723
 30
0.0
 40
5.0
100
AcDbArc
 50
191.5369590328149
 51
270.0
  0
LINE
  5
410E
330
18
100
AcDbEntity
  8
1
  6
Continuous
100
AcDbLine
 10
286.934625827828
 20
287.7119101005723
 30
0.0
 11
286.934625827828
 21
284.7119101005725
 31
0.0
  0
ARC
  5
410F
330
18
100
AcDbEntity
  8
1
  6
Continuous
100
AcDbCircle
 10
276.0356437833904
 20
285.7119101005723
 30
0.0
 40
5.0
100
AcDbArc
 50
270.0
 51
348.463040967185
  0
LINE
  5
4110
330
18
100
AcDbEntity
  8
1
  6
Continuous
100
AcDbLine
 10
28.27334315131906
 20
280.7119101005723
 30
0.0
 11
88.47537906244383
 21
280.7119101005723
 31
0.0
  0
LINE
  5
4111
330
18
100
AcDbEntity
  8
1
  6
Continuous
100
AcDbLine
 10
17.37436110688145
 20
284.7119101005725
 30
0.0
 11
99.37436110688146
 21
284.7119101005725
 31
0.0
  0
LINE
  5
4112
330
18
100
AcDbEntity
  8
1
  6
Continuous
100
AcDbLine
 10
17.37436110688145
 20
287.7119101005723
 30
0.0
 11
17.37436110688145
 21
284.7119101005725
 31
0.0
  0
ARC
  5
4113
330
18
100
AcDbEntity
  8
1
  6
Continuous
100
AcDbCircle
 10
28.27334315131906
 20
285.7119101005723
 30
0.0
 40
5.0
100
AcDbArc
 50
191.5369590328149
 51
270.0
  0
LINE
  5
4114
330
18
100
AcDbEntity
  8
1
  6
Continuous
100
AcDbLine
 10
99.37436110688146
 20
287.7119101005723
 30
0.0
 11
99.37436110688146
 21
284.7119101005725
 31
0.0
  0
ARC
  5
4115
330
18
100
AcDbEntity
  8
1
  6
Continuous
100
AcDbCircle
 10
88.47537906244383
 20
285.7119101005723
 30
0.0
 40
5.0
100
AcDbArc
 50
270.0
 51
348.463040967185
  0
ENDSEC
  0
SECTION
  2
OBJECTS
  0
DICTIONARY
  5
C
330
0
100
AcDbDictionary
281
     1
  3
ACAD_CIP_PREVIOUS_PRODUCT_INFO
350
41AA
  3
ACAD_COLOR
350
418D
  3
ACAD_DETAILVIEWSTYLE
350
41A6
  3
ACAD_GROUP
350
D
  3
ACAD_LAYOUT
350
94
  3
ACAD_MATERIAL
350
415B
  3
ACAD_MLEADERSTYLE
350
41A2
  3
ACAD_MLINESTYLE
350
1B
  3
ACAD_PLOTSETTINGS
350
95
  3
ACAD_PLOTSTYLENAME
350
4159
  3
ACAD_SCALELIST
350
4190
  3
ACAD_SECTIONVIEWSTYLE
350
41A4
  3
ACAD_TABLESTYLE
350
418E
  3
ACAD_VISUALSTYLE
350
4174
  3
ACDB_RECOMPOSE_DATA
350
41C8
  3
AcDbVariableDictionary
350
41BB
  3
CONTENTDICTIONARY
350
3D
  3
DWGPROPS
350
41C9
  0
DICTIONARY
  5
41AB
330
E
100
AcDbDictionary
280
     1
281
     1
  3
ADSK_XREC_LAYER_RECONCILED
360
41AC
  0
DICTIONARY
  5
41AD
330
4E
100
AcDbDictionary
280
     1
281
     1
  3
ADSK_XREC_LAYER_RECONCILED
360
41AE
  0
DICTIONARY
  5
41AF
330
4F
100
AcDbDictionary
280
     1
281
     1
  3
ADSK_XREC_LAYER_RECONCILED
360
41B0
  0
DICTIONARY
  5
41B1
330
50
100
AcDbDictionary
280
     1
281
     1
  3
ADSK_XREC_LAYER_RECONCILED
360
41B2
  0
DICTIONARY
  5
41B3
330
51
100
AcDbDictionary
280
     1
281
     1
  3
ADSK_XREC_LAYER_RECONCILED
360
41B4
  0
DICTIONARY
  5
41B5
330
52
100
AcDbDictionary
280
     1
281
     1
  3
ADSK_XREC_LAYER_RECONCILED
360
41B6
  0
DICTIONARY
  5
41B7
330
53
100
AcDbDictionary
280
     1
281
     1
  3
ADSK_XREC_LAYER_RECONCILED
360
41B8
  0
DICTIONARY
  5
41B9
330
54
100
AcDbDictionary
280
     1
281
     1
  3
ADSK_XREC_LAYER_RECONCILED
360
41BA
  0
DICTIONARY
  5
4154
330
18
100
AcDbDictionary
281
     1
  3
ACAD_LAYOUTSELFREF
350
4155
  0
DICTIONARY
  5
4152
330
15
100
AcDbDictionary
281
     1
  3
ACAD_LAYOUTSELFREF
350
4153
  0
XRECORD
  5
41AA
102
{ACAD_REACTORS
330
C
102
}
330
C
100
AcDbXrecord
280
     1
300
ACDLT
300
2014
300
ACDLT_F_S
  0
DICTIONARY
  5
418D
102
{ACAD_REACTORS
330
C
102
}
330
C
100
AcDbDictionary
281
     1
  0
DICTIONARY
  5
41A6
102
{ACAD_REACTORS
330
C
102
}
330
C
100
AcDbDictionary
281
     1
  3
Imperial24
350
41A7
  0
DICTIONARY
  5
D
102
{ACAD_REACTORS
330
C
102
}
330
C
100
AcDbDictionary
281
     1
  0
DICTIONARY
  5
94
102
{ACAD_REACTORS
330
C
102
}
330
C
100
AcDbDictionary
281
     1
  3
Model
350
41A8
  3
レイアウト1
350
41A9
  0
DICTIONARY
  5
415B
102
{ACAD_REACTORS
330
C
102
}
330
C
100
AcDbDictionary
281
     1
  3
ByBlock
350
4164
  3
ByLayer
350
415C
  3
Global
350
416C
  0
DICTIONARY
  5
41A2
102
{ACAD_REACTORS
330
C
102
}
330
C
100
AcDbDictionary
281
     1
  3
Standard
350
41A3
  0
DICTIONARY
  5
1B
102
{ACAD_REACTORS
330
C
102
}
330
C
100
AcDbDictionary
281
     1
  3
STANDARD
350
1C
  0
DICTIONARY
  5
95
102
{ACAD_REACTORS
330
C
102
}
330
C
100
AcDbDictionary
281
     1
  0
ACDBDICTIONARYWDFLT
  5
4159
102
{ACAD_REACTORS
330
C
102
}
330
C
100
AcDbDictionary
281
     1
  3
Normal
350
415A
100
AcDbDictionaryWithDefault
340
415A
  0
DICTIONARY
  5
4190
102
{ACAD_REACTORS
330
C
102
}
330
C
100
AcDbDictionary
281
     1
  3
A0
350
4191
  3
A1
350
4192
  3
A2
350
4193
  3
A3
350
4194
  3
A4
350
4195
  3
A5
350
4196
  3
A6
350
4197
  3
A7
350
4198
  3
A8
350
4199
  3
A9
350
419A
  3
B0
350
419B
  3
B1
350
419C
  3
B2
350
419D
  3
B3
350
419E
  3
B4
350
419F
  3
B5
350
41A0
  3
B6
350
41A1
  0
DICTIONARY
  5
41A4
102
{ACAD_REACTORS
330
C
102
}
330
C
100
AcDbDictionary
281
     1
  3
Imperial24
350
41A5
  0
DICTIONARY
  5
418E
102
{ACAD_REACTORS
330
C
102
}
330
C
100
AcDbDictionary
281
     1
  3
Standard
350
418F
  0
DICTIONARY
  5
4174
102
{ACAD_REACTORS
330
C
102
}
330
C
100
AcDbDictionary
281
     1
  3
2dWireframe
350
417A
  3
Basic
350
4179
  3
Brighten
350
4180
  3
ColorChange
350
4184
  3
Conceptual
350
417D
  3
Dim
350
417F
  3
EdgeColorOff
350
418C
  3
Facepattern
350
4183
  3
Flat
350
4175
  3
FlatWithEdges
350
4176
  3
Gouraud
350
4177
  3
GouraudWithEdges
350
4178
  3
Hidden
350
417C
  3
JitterOff
350
418A
  3
Linepattern
350
4182
  3
OverhangOff
350
418B
  3
Realistic
350
417E
  3
Shaded
350
4189
  3
Shaded with edges
350
4188
  3
Shades of Gray
350
4185
  3
Sketchy
350
4186
  3
Thicken
350
4181
  3
Wireframe
350
417B
  3
X-Ray
350
4187
  0
XRECORD
  5
41C8
102
{ACAD_REACTORS
330
C
102
}
330
C
100
AcDbXrecord
280
     1
 90
        1
330
418F
  0
DICTIONARY
  5
41BB
102
{ACAD_REACTORS
330
C
102
}
330
C
100
AcDbDictionary
281
     1
  3
CANNOSCALE
350
41C0
  3
CMLEADERSTYLE
350
41BD
  3
CTABLESTYLE
350
41BC
  3
CVIEWDETAILSTYLE
350
41BE
  3
CVIEWSECTIONSTYLE
350
41BF
  3
DIMASSOC
350
41C3
  3
INDEXCTL
350
41C2
  3
SORTENTS
350
41C1
  3
XCLIPFRAME
350
41C4
  0
DICTIONARY
  5
3D
102
{ACAD_REACTORS
330
C
102
}
330
C
100
AcDbDictionary
281
     1
  0
XRECORD
  5
41C9
102
{ACAD_REACTORS
330
C
102
}
330
C
100
AcDbXrecord
280
     1
  1
DWGPROPS COOKIE
  2

  3

  4

  6

  7

  8
Yoshitsune
  9

300
=
301
=
302
=
303
=
304
=
305
=
306
=
307
=
308
=
309
=
 40
0.2474055439814815
 41
2454154.550453368
 42
2457192.690823009
  1

 90
        0
  0
XRECORD
  5
41AC
102
{ACAD_REACTORS
330
41AB
102
}
330
41AB
100
AcDbXrecord
280
     1
290
     1
  0
XRECORD
  5
41AE
102
{ACAD_REACTORS
330
41AD
102
}
330
41AD
100
AcDbXrecord
280
     1
290
     1
  0
XRECORD
  5
41B0
102
{ACAD_REACTORS
330
41AF
102
}
330
41AF
100
AcDbXrecord
280
     1
290
     1
  0
XRECORD
  5
41B2
102
{ACAD_REACTORS
330
41B1
102
}
330
41B1
100
AcDbXrecord
280
     1
290
     1
  0
XRECORD
  5
41B4
102
{ACAD_REACTORS
330
41B3
102
}
330
41B3
100
AcDbXrecord
280
     1
290
     1
  0
XRECORD
  5
41B6
102
{ACAD_REACTORS
330
41B5
102
}
330
41B5
100
AcDbXrecord
280
     1
290
     1
  0
XRECORD
  5
41B8
102
{ACAD_REACTORS
330
41B7
102
}
330
41B7
100
AcDbXrecord
280
     1
290
     1
  0
XRECORD
  5
41BA
102
{ACAD_REACTORS
330
41B9
102
}
330
41B9
100
AcDbXrecord
280
     1
290
     1
  0
XRECORD
  5
4155
102
{ACAD_REACTORS
330
4154
102
}
330
4154
100
AcDbXrecord
280
     1
340
18
  0
XRECORD
  5
4153
102
{ACAD_REACTORS
330
4152
102
}
330
4152
100
AcDbXrecord
280
     1
340
15
  0
ACDBDETAILVIEWSTYLE
  5
41A7
102
{ACAD_XDICTIONARY
360
4201
102
}
102
{ACAD_REACTORS
330
41A6
102
}
330
41A6
100
AcDbModelDocViewStyle
 70
     0
  3
Imperial24
290
     0
100
AcDbDetailViewStyle
 70
     0
 71
     0
 90
        3
 71
     1
340
F
 40
0.24
340
0
 40
0.24
300

 40
0.36
280
     3
 71
     2
340
14
 90
       25
 71
     3
340
F
 40
0.24
 90
        1
 40
0.75
 90
        1
300
%<\AcVar ViewType \f "%tc1">% %<\AcVar ViewDetailId>%\PSCALE %<\AcVar ViewScale \f "%sn">%
 71
     4
340
14
 90
       25
340
14
 90
       25
280
     0
  0
LAYOUT
  5
41A8
102
{ACAD_XDICTIONARY
360
4203
102
}
102
{ACAD_REACTORS
330
94
102
}
330
94
100
AcDbPlotSettings
  1

  2
Canon LBP9100C
  4

  6

 40
0.0
 41
0.0
 42
0.0
 43
0.0
 44
0.0
 45
0.0
 46
0.0
 47
0.0
 48
0.0
 49
0.0
140
0.0
141
0.0
142
1.0
143
1.0
 70
  1712
 72
     0
 73
     0
 74
     0
  7

 75
     0
147
1.0
148
0.0
149
0.0
100
AcDbLayout
  1
Model
 70
     1
 71
     0
 10
0.0
 20
0.0
 11
12.0
 21
9.0
 12
0.0
 22
0.0
 32
0.0
 14
0.0
 24
0.0
 34
0.0
 15
0.0
 25
0.0
 35
0.0
146
0.0
 13
0.0
 23
0.0
 33
0.0
 16
1.0
 26
0.0
 36
0.0
 17
0.0
 27
1.0
 37
0.0
 76
     0
330
18
331
4151
  0
LAYOUT
  5
41A9
102
{ACAD_XDICTIONARY
360
4205
102
}
102
{ACAD_REACTORS
330
94
102
}
330
94
100
AcDbPlotSettings
  1

  2
Canon LBP9100C
  4

  6

 40
0.0
 41
0.0
 42
0.0
 43
0.0
 44
0.0
 45
0.0
 46
0.0
 47
0.0
 48
0.0
 49
0.0
140
0.0
141
0.0
142
1.0
143
1.0
 70
   688
 72
     0
 73
     0
 74
     5
  7

 75
    16
147
1.0
148
0.0
149
0.0
100
AcDbLayout
  1
レイアウト1
 70
     1
 71
     1
 10
0.0
 20
0.0
 11
420.0
 21
297.0
 12
0.0
 22
0.0
 32
0.0
 14
1.000000000000000E+20
 24
1.000000000000000E+20
 34
1.000000000000000E+20
 15
-1.000000000000000E+20
 25
-1.000000000000000E+20
 35
-1.000000000000000E+20
146
0.0
 13
0.0
 23
0.0
 33
0.0
 16
1.0
 26
0.0
 36
0.0
 17
0.0
 27
1.0
 37
0.0
 76
     0
330
15
  0
MATERIAL
  5
4164
102
{ACAD_XDICTIONARY
360
4165
102
}
102
{ACAD_REACTORS
330
415B
102
}
330
415B
100
AcDbMaterial
  1
ByBlock
 72
     0
 43
0.0208333333333333
 43
0.0
 43
0.0
 43
0.0
 43
0.0
 43
0.0208333333333333
 43
0.0
 43
0.0
 43
0.0
 43
0.0
 43
1.0
 43
0.0
 43
0.0
 43
0.0
 43
0.0
 43
1.0
 77
     0
 47
0.0208333333333333
 47
0.0
 47
0.0
 47
0.0
 47
0.0
 47
0.0208333333333333
 47
0.0
 47
0.0
 47
0.0
 47
0.0
 47
1.0
 47
0.0
 47
0.0
 47
0.0
 47
0.0
 47
1.0
171
     0
 49
0.0208333333333333
 49
0.0
 49
0.0
 49
0.0
 49
0.0
 49
0.0208333333333333
 49
0.0
 49
0.0
 49
0.0
 49
0.0
 49
1.0
 49
0.0
 49
0.0
 49
0.0
 49
0.0
 49
1.0
175
     0
142
0.0208333333333333
142
0.0
142
0.0
142
0.0
142
0.0
142
0.0208333333333333
142
0.0
142
0.0
142
0.0
142
0.0
142
1.0
142
0.0
142
0.0
142
0.0
142
0.0
142
1.0
179
     0
144
0.0208333333333333
144
0.0
144
0.0
144
0.0
144
0.0
144
0.0208333333333333
144
0.0
144
0.0
144
0.0
144
0.0
144
1.0
144
0.0
144
0.0
144
0.0
144
0.0
144
1.0
147
0.0208333333333333
147
0.0
147
0.0
147
0.0
147
0.0
147
0.0208333333333333
147
0.0
147
0.0
147
0.0
147
0.0
147
1.0
147
0.0
147
0.0
147
0.0
147
0.0
147
1.0
  0
MATERIAL
  5
415C
102
{ACAD_XDICTIONARY
360
415D
102
}
102
{ACAD_REACTORS
330
415B
102
}
330
415B
100
AcDbMaterial
  1
ByLayer
 72
     0
 43
0.0208333333333333
 43
0.0
 43
0.0
 43
0.0
 43
0.0
 43
0.0208333333333333
 43
0.0
 43
0.0
 43
0.0
 43
0.0
 43
1.0
 43
0.0
 43
0.0
 43
0.0
 43
0.0
 43
1.0
 77
     0
 47
0.0208333333333333
 47
0.0
 47
0.0
 47
0.0
 47
0.0
 47
0.0208333333333333
 47
0.0
 47
0.0
 47
0.0
 47
0.0
 47
1.0
 47
0.0
 47
0.0
 47
0.0
 47
0.0
 47
1.0
171
     0
 49
0.0208333333333333
 49
0.0
 49
0.0
 49
0.0
 49
0.0
 49
0.0208333333333333
 49
0.0
 49
0.0
 49
0.0
 49
0.0
 49
1.0
 49
0.0
 49
0.0
 49
0.0
 49
0.0
 49
1.0
175
     0
142
0.0208333333333333
142
0.0
142
0.0
142
0.0
142
0.0
142
0.0208333333333333
142
0.0
142
0.0
142
0.0
142
0.0
142
1.0
142
0.0
142
0.0
142
0.0
142
0.0
142
1.0
179
     0
144
0.0208333333333333
144
0.0
144
0.0
144
0.0
144
0.0
144
0.0208333333333333
144
0.0
144
0.0
144
0.0
144
0.0
144
1.0
144
0.0
144
0.0
144
0.0
144
0.0
144
1.0
147
0.0208333333333333
147
0.0
147
0.0
147
0.0
147
0.0
147
0.0208333333333333
147
0.0
147
0.0
147
0.0
147
0.0
147
1.0
147
0.0
147
0.0
147
0.0
147
0.0
147
1.0
  0
MATERIAL
  5
416C
102
{ACAD_XDICTIONARY
360
416D
102
}
102
{ACAD_REACTORS
330
415B
102
}
330
415B
100
AcDbMaterial
  1
Global
 72
     0
 43
0.0208333333333333
 43
0.0
 43
0.0
 43
0.0
 43
0.0
 43
0.0208333333333333
 43
0.0
 43
0.0
 43
0.0
 43
0.0
 43
1.0
 43
0.0
 43
0.0
 43
0.0
 43
0.0
 43
1.0
 77
     0
 47
0.0208333333333333
 47
0.0
 47
0.0
 47
0.0
 47
0.0
 47
0.0208333333333333
 47
0.0
 47
0.0
 47
0.0
 47
0.0
 47
1.0
 47
0.0
 47
0.0
 47
0.0
 47
0.0
 47
1.0
171
     0
 49
0.0208333333333333
 49
0.0
 49
0.0
 49
0.0
 49
0.0
 49
0.0208333333333333
 49
0.0
 49
0.0
 49
0.0
 49
0.0
 49
1.0
 49
0.0
 49
0.0
 49
0.0
 49
0.0
 49
1.0
175
     0
142
0.0208333333333333
142
0.0
142
0.0
142
0.0
142
0.0
142
0.0208333333333333
142
0.0
142
0.0
142
0.0
142
0.0
142
1.0
142
0.0
142
0.0
142
0.0
142
0.0
142
1.0
179
     0
144
0.0208333333333333
144
0.0
144
0.0
144
0.0
144
0.0
144
0.0208333333333333
144
0.0
144
0.0
144
0.0
144
0.0
144
1.0
144
0.0
144
0.0
144
0.0
144
0.0
144
1.0
147
0.0208333333333333
147
0.0
147
0.0
147
0.0
147
0.0
147
0.0208333333333333
147
0.0
147
0.0
147
0.0
147
0.0
147
1.0
147
0.0
147
0.0
147
0.0
147
0.0
147
1.0
  0
MLEADERSTYLE
  5
41A3
102
{ACAD_REACTORS
330
41A2
102
}
330
41A2
100
AcDbMLeaderStyle
170
     2
171
     1
172
     0
 90
        2
 40
0.0
 41
0.0
173
     1
 91
-1056964608
340
12
 92
       -2
290
     1
 42
0.09
291
     1
 43
0.36
  3
Standard
 44
0.18
300

342
F
174
     1
178
     6
175
     1
176
     0
 93
-1056964608
 45
0.18
292
     0
297
     0
 46
0.18
 94
-1056964608
 47
1.0
 49
1.0
140
1.0
293
     1
141
0.0
294
     1
177
     0
142
1.0
295
     0
296
     0
143
0.125
1001
ACAD_MLEADERVER
1070
     2
  0
MLINESTYLE
  5
1C
102
{ACAD_REACTORS
330
1B
102
}
330
1B
100
AcDbMlineStyle
  2
STANDARD
 70
     0
  3

 62
   256
 51
90.0
 52
90.0
 71
     2
 49
0.5
 62
   256
  6
BYLAYER
 49
-0.5
 62
   256
  6
BYLAYER
  0
ACDBPLACEHOLDER
  5
415A
102
{ACAD_REACTORS
330
4159
102
}
330
4159
  0
SCALE
  5
4191
102
{ACAD_REACTORS
330
4190
102
}
330
4190
100
AcDbScale
 70
     0
300
1:1
140
1.0
141
1.0
290
     1
  0
SCALE
  5
4192
102
{ACAD_REACTORS
330
4190
102
}
330
4190
100
AcDbScale
 70
     0
300
1/128" = 1'-0"
140
0.0078125
141
12.0
290
     0
  0
SCALE
  5
4193
102
{ACAD_REACTORS
330
4190
102
}
330
4190
100
AcDbScale
 70
     0
300
1/64" = 1'-0"
140
0.015625
141
12.0
290
     0
  0
SCALE
  5
4194
102
{ACAD_REACTORS
330
4190
102
}
330
4190
100
AcDbScale
 70
     0
300
1/32" = 1'-0"
140
0.03125
141
12.0
290
     0
  0
SCALE
  5
4195
102
{ACAD_REACTORS
330
4190
102
}
330
4190
100
AcDbScale
 70
     0
300
1/16" = 1'-0"
140
0.0625
141
12.0
290
     0
  0
SCALE
  5
4196
102
{ACAD_REACTORS
330
4190
102
}
330
4190
100
AcDbScale
 70
     0
300
3/32" = 1'-0"
140
0.09375
141
12.0
290
     0
  0
SCALE
  5
4197
102
{ACAD_REACTORS
330
4190
102
}
330
4190
100
AcDbScale
 70
     0
300
1/8" = 1'-0"
140
0.125
141
12.0
290
     0
  0
SCALE
  5
4198
102
{ACAD_REACTORS
330
4190
102
}
330
4190
100
AcDbScale
 70
     0
300
3/16" = 1'-0"
140
0.1875
141
12.0
290
     0
  0
SCALE
  5
4199
102
{ACAD_REACTORS
330
4190
102
}
330
4190
100
AcDbScale
 70
     0
300
1/4" = 1'-0"
140
0.25
141
12.0
290
     0
  0
SCALE
  5
419A
102
{ACAD_REACTORS
330
4190
102
}
330
4190
100
AcDbScale
 70
     0
300
3/8" = 1'-0"
140
0.375
141
12.0
290
     0
  0
SCALE
  5
419B
102
{ACAD_REACTORS
330
4190
102
}
330
4190
100
AcDbScale
 70
     0
300
1/2" = 1'-0"
140
0.5
141
12.0
290
     0
  0
SCALE
  5
419C
102
{ACAD_REACTORS
330
4190
102
}
330
4190
100
AcDbScale
 70
     0
300
3/4" = 1'-0"
140
0.75
141
12.0
290
     0
  0
SCALE
  5
419D
102
{ACAD_REACTORS
330
4190
102
}
330
4190
100
AcDbScale
 70
     0
300
1" = 1'-0"
140
1.0
141
12.0
290
     0
  0
SCALE
  5
419E
102
{ACAD_REACTORS
330
4190
102
}
330
4190
100
AcDbScale
 70
     0
300
1-1/2" = 1'-0"
140
1.5
141
12.0
290
     0
  0
SCALE
  5
419F
102
{ACAD_REACTORS
330
4190
102
}
330
4190
100
AcDbScale
 70
     0
300
3" = 1'-0"
140
3.0
141
12.0
290
     0
  0
SCALE
  5
41A0
102
{ACAD_REACTORS
330
4190
102
}
330
4190
100
AcDbScale
 70
     0
300
6" = 1'-0"
140
6.0
141
12.0
290
     0
  0
SCALE
  5
41A1
102
{ACAD_REACTORS
330
4190
102
}
330
4190
100
AcDbScale
 70
     0
300
1'-0" = 1'-0"
140
12.0
141
12.0
290
     0
  0
ACDBSECTIONVIEWSTYLE
  5
41A5
102
{ACAD_XDICTIONARY
360
41FF
102
}
102
{ACAD_REACTORS
330
41A4
102
}
330
41A4
100
AcDbModelDocViewStyle
 70
     0
  3
Imperial24
290
     0
100
AcDbSectionViewStyle
 70
     0
 71
     0
 90
       78
 71
     1
340
F
 40
0.24
340
0
340
0
 40
0.24
300
I, O, Q, S, X, Z
 40
0.48
 90
        3
 40
0.18
 90
        1
 71
     2
340
14
 90
       25
340
14
 90
       50
 40
0.24
 40
0.0
 40
0.24
 71
     3
340
F
 40
0.24
 90
        1
 40
0.75
 90
        1
300
%<\AcVar ViewType \f "%tc1">% %<\AcVar ViewSectionStartId>%-%<\AcVar ViewSectionEndId>%\PSCALE %<\AcVar ViewScale \f "%sn">%
 71
     4
300
ANSI31
 40
1.0
 90
        0
290
     0
290
     0
 90
        6
 40
0.0
 40
1.570796326794896
 40
0.2617993877991494
 40
1.308996938995747
 40
-0.2617993877991494
 40
1.832595714594046
  0
TABLESTYLE
  5
418F
102
{ACAD_XDICTIONARY
360
41C6
102
}
102
{ACAD_REACTORS
330
418E
102
}
330
418E
100
AcDbTableStyle
  3
Standard
 70
     0
 71
     0
 40
0.06
 41
0.06
280
     0
281
     0
  7
STANDARD
140
0.18
170
     2
 62
     0
 63
     7
283
     0
274
    -2
284
     1
 64
     0
275
    -2
285
     1
 65
     0
276
    -2
286
     1
 66
     0
277
    -2
287
     1
 67
     0
278
    -2
288
     1
 68
     0
279
    -2
289
     1
 69
     0
  7
STANDARD
140
0.25
170
     5
 62
     0
 63
     7
283
     0
274
    -2
284
     1
 64
     0
275
    -2
285
     1
 65
     0
276
    -2
286
     1
 66
     0
277
    -2
287
     1
 67
     0
278
    -2
288
     1
 68
     0
279
    -2
289
     1
 69
     0
  7
STANDARD
140
0.18
170
     5
 62
     0
 63
     7
283
     0
274
    -2
284
     1
 64
     0
275
    -2
285
     1
 65
     0
276
    -2
286
     1
 66
     0
277
    -2
287
     1
 67
     0
278
    -2
288
     1
 68
     0
279
    -2
289
     1
 69
     0
  0
VISUALSTYLE
  5
417A
102
{ACAD_XDICTIONARY
360
41D7
102
}
102
{ACAD_REACTORS
330
4174
102
}
330
4174
100
AcDbVisualStyle
  2
2dWireframe
 70
     4
 71
     0
 72
     2
 73
     0
 90
        0
 40
-0.6
 41
-30.0
 62
     5
 63
     7
 74
     1
 91
        4
 64
     7
 65
   257
 75
     1
175
     1
 42
1.0
 92
        0
 66
   257
 43
1.0
 76
     1
 77
     6
 78
     2
 67
     7
 79
     5
170
     0
171
     0
290
     0
174
     0
 93
        1
 44
0.0
173
     0
291
     0
 45
0.0
1001
ACAD
1000
AcDbSavedByObjectVersion
1070
     0
  0
VISUALSTYLE
  5
4179
102
{ACAD_XDICTIONARY
360
41D5
102
}
102
{ACAD_REACTORS
330
4174
102
}
330
4174
100
AcDbVisualStyle
  2
Basic
 70
     7
 71
     1
 72
     0
 73
     1
 90
        0
 40
-0.6
 41
-30.0
 62
     5
 63
     7
 74
     0
 91
        4
 64
     7
 65
   257
 75
     1
175
     1
 42
1.0
 92
        8
 66
     7
 43
1.0
 76
     1
 77
     6
 78
     2
 67
     7
 79
     5
170
     0
171
     0
290
     0
174
     0
 93
        1
 44
0.0
173
     0
291
     1
 45
0.0
1001
ACAD
1000
AcDbSavedByObjectVersion
1070
     0
  0
VISUALSTYLE
  5
4180
102
{ACAD_XDICTIONARY
360
41E3
102
}
102
{ACAD_REACTORS
330
4174
102
}
330
4174
100
AcDbVisualStyle
  2
Brighten
 70
    12
 71
     2
 72
     2
 73
     0
 90
        0
 40
-0.6
 41
-30.0
 62
     5
 63
     7
 74
     1
 91
        4
 64
     7
 65
   257
 75
     1
175
     1
 42
1.0
 92
        8
 66
     7
 43
1.0
 76
     1
 77
     6
 78
     2
 67
     7
 79
     5
170
     0
171
     0
290
     0
174
     0
 93
        1
 44
50.0
173
     0
291
     1
 45
0.0
1001
ACAD
1000
AcDbSavedByObjectVersion
1070
     0
  0
VISUALSTYLE
  5
4184
102
{ACAD_XDICTIONARY
360
41EB
102
}
102
{ACAD_REACTORS
330
4174
102
}
330
4174
100
AcDbVisualStyle
  2
ColorChange
 70
    16
 71
     2
 72
     2
 73
     3
 90
        0
 40
-0.6
 41
-30.0
 62
     5
 63
     8
 74
     1
 91
        4
 64
     7
 65
   257
 75
     1
175
     1
 42
1.0
 92
        8
 66
     8
 43
1.0
 76
     1
 77
     6
 78
     2
 67
     7
 79
     5
170
     0
171
     0
290
     0
174
     0
 93
        1
 44
0.0
173
     0
291
     1
 45
0.0
1001
ACAD
1000
AcDbSavedByObjectVersion
1070
     0
  0
VISUALSTYLE
  5
417D
102
{ACAD_XDICTIONARY
360
41DD
102
}
102
{ACAD_REACTORS
330
4174
102
}
330
4174
100
AcDbVisualStyle
  2
Conceptual
 70
     9
 71
     3
 72
     2
 73
     0
 90
        0
 40
-0.6
 41
-30.0
 62
     5
 63
     7
 74
     2
 91
        2
 64
     7
 65
   257
 75
     1
175
     1
 42
179.0
 92
        8
 66
     7
 43
1.0
 76
     1
 77
     6
 78
     2
 67
     7
 79
     3
170
     0
171
     0
290
     0
174
     0
 93
        1
 44
0.0
173
     0
291
     0
 45
0.0
1001
ACAD
1000
AcDbSavedByObjectVersion
1070
     0
  0
VISUALSTYLE
  5
417F
102
{ACAD_XDICTIONARY
360
41E1
102
}
102
{ACAD_REACTORS
330
4174
102
}
330
4174
100
AcDbVisualStyle
  2
Dim
 70
    11
 71
     2
 72
     2
 73
     0
 90
        0
 40
-0.6
 41
-30.0
 62
     5
 63
     7
 74
     1
 91
        4
 64
     7
 65
   257
 75
     1
175
     1
 42
1.0
 92
        8
 66
     7
 43
1.0
 76
     1
 77
     6
 78
     2
 67
     7
 79
     5
170
     0
171
     0
290
     0
174
     0
 93
        1
 44
-50.0
173
     0
291
     1
 45
0.0
1001
ACAD
1000
AcDbSavedByObjectVersion
1070
     0
  0
VISUALSTYLE
  5
418C
102
{ACAD_XDICTIONARY
360
41FB
102
}
102
{ACAD_REACTORS
330
4174
102
}
330
4174
100
AcDbVisualStyle
  2
EdgeColorOff
 70
    22
 71
     2
 72
     2
 73
     0
 90
        0
 40
-0.6
 41
-30.0
 62
     5
 63
     7
 74
     1
 91
        4
 64
     7
 65
   257
 75
     1
175
     1
 42
1.0
 92
        8
 66
     7
 43
1.0
 76
     1
 77
     6
 78
     2
 67
     7
 79
     5
170
     0
171
     0
290
     0
174
     0
 93
        1
 44
0.0
173
     0
291
     1
 45
0.0
1001
ACAD
1000
AcDbSavedByObjectVersion
1070
     0
  0
VISUALSTYLE
  5
4183
102
{ACAD_XDICTIONARY
360
41E9
102
}
102
{ACAD_REACTORS
330
4174
102
}
330
4174
100
AcDbVisualStyle
  2
Facepattern
 70
    15
 71
     2
 72
     2
 73
     0
 90
        0
 40
-0.6
 41
-30.0
 62
     5
 63
     7
 74
     1
 91
        4
 64
     7
 65
   257
 75
     1
175
     1
 42
1.0
 92
        8
 66
     7
 43
1.0
 76
     1
 77
     6
 78
     2
 67
     7
 79
     5
170
     0
171
     0
290
     0
174
     0
 93
        1
 44
0.0
173
     0
291
     1
 45
0.0
1001
ACAD
1000
AcDbSavedByObjectVersion
1070
     0
  0
VISUALSTYLE
  5
4175
102
{ACAD_XDICTIONARY
360
41CD
102
}
102
{ACAD_REACTORS
330
4174
102
}
330
4174
100
AcDbVisualStyle
  2
Flat
 70
     0
 71
     2
 72
     1
 73
     1
 90
        2
 40
-0.6
 41
30.0
 62
     5
 63
     7
 74
     0
 91
        0
 64
     7
 65
   257
 75
     1
175
     1
 42
1.0
 92
        8
 66
     7
 43
1.0
 76
     1
 77
     6
 78
     2
 67
     7
 79
     5
170
     0
171
     0
290
     0
174
     0
 93
       13
 44
0.0
173
     0
291
     1
 45
0.0
1001
ACAD
1000
AcDbSavedByObjectVersion
1070
     0
  0
VISUALSTYLE
  5
4176
102
{ACAD_XDICTIONARY
360
41CF
102
}
102
{ACAD_REACTORS
330
4174
102
}
330
4174
100
AcDbVisualStyle
  2
FlatWithEdges
 70
     1
 71
     2
 72
     1
 73
     1
 90
        2
 40
-0.6
 41
30.0
 62
     5
 63
     7
 74
     1
 91
        0
 64
     7
 65
   257
 75
     1
175
     1
 42
1.0
 92
        0
 66
   257
 43
1.0
 76
     1
 77
     6
 78
     2
 67
     7
 79
     5
170
     0
171
     0
290
     0
174
     0
 93
       13
 44
0.0
173
     0
291
     1
 45
0.0
1001
ACAD
1000
AcDbSavedByObjectVersion
1070
     0
  0
VISUALSTYLE
  5
4177
102
{ACAD_XDICTIONARY
360
41D1
102
}
102
{ACAD_REACTORS
330
4174
102
}
330
4174
100
AcDbVisualStyle
  2
Gouraud
 70
     2
 71
     2
 72
     2
 73
     1
 90
        2
 40
-0.6
 41
30.0
 62
     5
 63
     7
 74
     0
 91
        0
 64
     7
 65
   257
 75
     1
175
     1
 42
1.0
 92
        0
 66
     7
 43
1.0
 76
     1
 77
     6
 78
     2
 67
     7
 79
     5
170
     0
171
     0
290
     0
174
     0
 93
       13
 44
0.0
173
     0
291
     1
 45
0.0
1001
ACAD
1000
AcDbSavedByObjectVersion
1070
     0
  0
VISUALSTYLE
  5
4178
102
{ACAD_XDICTIONARY
360
41D3
102
}
102
{ACAD_REACTORS
330
4174
102
}
330
4174
100
AcDbVisualStyle
  2
GouraudWithEdges
 70
     3
 71
     2
 72
     2
 73
     1
 90
        2
 40
-0.6
 41
30.0
 62
     5
 63
     7
 74
     1
 91
        0
 64
     7
 65
   257
 75
     1
175
     1
 42
1.0
 92
        0
 66
   257
 43
1.0
 76
     1
 77
     6
 78
     2
 67
     7
 79
     5
170
     0
171
     0
290
     0
174
     0
 93
       13
 44
0.0
173
     0
291
     1
 45
0.0
1001
ACAD
1000
AcDbSavedByObjectVersion
1070
     0
  0
VISUALSTYLE
  5
417C
102
{ACAD_XDICTIONARY
360
41DB
102
}
102
{ACAD_REACTORS
330
4174
102
}
330
4174
100
AcDbVisualStyle
  2
Hidden
 70
     6
 71
     1
 72
     2
 73
     2
 90
        0
 40
-0.6
 41
-30.0
 62
     5
 63
     7
 74
     2
 91
        2
 64
     7
 65
   257
 75
     2
175
     1
 42
40.0
 92
        0
 66
   257
 43
1.0
 76
     1
 77
     6
 78
     2
 67
     7
 79
     3
170
     0
171
     0
290
     0
174
     0
 93
        1
 44
0.0
173
     0
291
     0
 45
0.0
1001
ACAD
1000
AcDbSavedByObjectVersion
1070
     0
  0
VISUALSTYLE
  5
418A
102
{ACAD_XDICTIONARY
360
41F7
102
}
102
{ACAD_REACTORS
330
4174
102
}
330
4174
100
AcDbVisualStyle
  2
JitterOff
 70
    20
 71
     2
 72
     2
 73
     0
 90
        0
 40
-0.6
 41
-30.0
 62
     5
 63
     7
 74
     1
 91
        4
 64
     7
 65
   257
 75
     1
175
     1
 42
1.0
 92
       10
 66
     7
 43
1.0
 76
     1
 77
     6
 78
     2
 67
     7
 79
     5
170
     0
171
     0
290
     0
174
     0
 93
        1
 44
0.0
173
     0
291
     1
 45
0.0
1001
ACAD
1000
AcDbSavedByObjectVersion
1070
     0
  0
VISUALSTYLE
  5
4182
102
{ACAD_XDICTIONARY
360
41E7
102
}
102
{ACAD_REACTORS
330
4174
102
}
330
4174
100
AcDbVisualStyle
  2
Linepattern
 70
    14
 71
     2
 72
     2
 73
     0
 90
        0
 40
-0.6
 41
-30.0
 62
     5
 63
     7
 74
     1
 91
        4
 64
     7
 65
   257
 75
     7
175
     7
 42
1.0
 92
        8
 66
     7
 43
1.0
 76
     1
 77
     6
 78
     2
 67
     7
 79
     5
170
     0
171
     0
290
     0
174
     0
 93
        1
 44
0.0
173
     0
291
     1
 45
0.0
1001
ACAD
1000
AcDbSavedByObjectVersion
1070
     0
  0
VISUALSTYLE
  5
418B
102
{ACAD_XDICTIONARY
360
41F9
102
}
102
{ACAD_REACTORS
330
4174
102
}
330
4174
100
AcDbVisualStyle
  2
OverhangOff
 70
    21
 71
     2
 72
     2
 73
     0
 90
        0
 40
-0.6
 41
-30.0
 62
     5
 63
     7
 74
     1
 91
        4
 64
     7
 65
   257
 75
     1
175
     1
 42
1.0
 92
        9
 66
     7
 43
1.0
 76
     1
 77
     6
 78
     2
 67
     7
 79
     5
170
     0
171
     0
290
     0
174
     0
 93
        1
 44
0.0
173
     0
291
     1
 45
0.0
1001
ACAD
1000
AcDbSavedByObjectVersion
1070
     0
  0
VISUALSTYLE
  5
417E
102
{ACAD_XDICTIONARY
360
41DF
102
}
102
{ACAD_REACTORS
330
4174
102
}
330
4174
100
AcDbVisualStyle
  2
Realistic
 70
     8
 71
     2
 72
     3
 73
     0
 90
        2
 40
-0.6
 41
30.0
 62
     5
 63
     7
 74
     0
 91
        0
 64
     7
 65
   257
 75
     1
175
     1
 42
1.0
 92
        8
 66
   257
 43
1.0
 76
     1
 77
     6
 78
     2
 67
     7
 79
     3
170
     0
171
     0
290
     0
174
     0
 93
       13
 44
0.0
173
     0
291
     0
 45
0.0
1001
ACAD
1000
AcDbSavedByObjectVersion
1070
     0
  0
VISUALSTYLE
  5
4189
102
{ACAD_XDICTIONARY
360
41F5
102
}
102
{ACAD_REACTORS
330
4174
102
}
330
4174
100
AcDbVisualStyle
  2
Shaded
 70
    27
 71
     2
 72
     2
 73
     1
 90
        2
 40
-0.6
 41
30.0
 62
     5
 63
     7
 74
     0
 91
        4
 64
     7
 65
   257
 75
     1
175
     1
 42
1.0
 92
        8
 66
   257
 43
1.0
 76
     1
 77
     6
 78
     2
 67
     8
 79
     3
170
     0
171
     0
290
     0
174
     0
 93
        5
 44
0.0
173
     0
291
     0
 45
0.0
1001
ACAD
1000
AcDbSavedByObjectVersion
1070
     0
  0
VISUALSTYLE
  5
4188
102
{ACAD_XDICTIONARY
360
41F3
102
}
102
{ACAD_REACTORS
330
4174
102
}
330
4174
100
AcDbVisualStyle
  2
Shaded with edges
 70
    26
 71
     2
 72
     2
 73
     1
 90
        2
 40
-0.6
 41
30.0
 62
     5
 63
     7
 74
     1
 91
       10
 64
     7
 65
   257
 75
     2
175
     1
 42
1.0
 92
        8
 66
   257
 43
1.0
 76
     1
 77
     6
 78
     2
 67
     7
 79
     3
170
     0
171
     0
290
     0
174
     0
 93
        5
 44
0.0
173
     0
291
     0
 45
0.0
1001
ACAD
1000
AcDbSavedByObjectVersion
1070
     0
  0
VISUALSTYLE
  5
4185
102
{ACAD_XDICTIONARY
360
41ED
102
}
102
{ACAD_REACTORS
330
4174
102
}
330
4174
100
AcDbVisualStyle
  2
Shades of Gray
 70
    23
 71
     2
 72
     2
 73
     3
 90
        0
 40
-0.6
 41
-30.0
 62
     5
 63
     7
 74
     2
 91
        2
 64
     7
 65
     7
 75
     1
175
     1
 42
40.0
 92
        8
 66
     7
 43
1.0
 76
     1
 77
     6
 78
     2
 67
     7
 79
     3
170
     0
171
     0
290
     0
174
     0
 93
        1
 44
0.0
173
     0
291
     0
 45
0.0
1001
ACAD
1000
AcDbSavedByObjectVersion
1070
     0
  0
VISUALSTYLE
  5
4186
102
{ACAD_XDICTIONARY
360
41EF
102
}
102
{ACAD_REACTORS
330
4174
102
}
330
4174
100
AcDbVisualStyle
  2
Sketchy
 70
    24
 71
     1
 72
     2
 73
     2
 90
        0
 40
-0.6
 41
-30.0
 62
     5
 63
     7
 74
     2
 91
        2
 64
     7
 65
     7
 75
     1
175
     1
 42
40.0
 92
       11
 66
     7
 43
1.0
 76
     1
 77
     6
 78
     2
 67
     7
 79
     6
170
     0
171
     0
290
     0
174
     0
 93
        1
 44
0.0
173
     0
291
     0
 45
0.0
1001
ACAD
1000
AcDbSavedByObjectVersion
1070
     0
  0
VISUALSTYLE
  5
4181
102
{ACAD_XDICTIONARY
360
41E5
102
}
102
{ACAD_REACTORS
330
4174
102
}
330
4174
100
AcDbVisualStyle
  2
Thicken
 70
    13
 71
     2
 72
     2
 73
     0
 90
        0
 40
-0.6
 41
-30.0
 62
     5
 63
     7
 74
     1
 91
        4
 64
     7
 65
   257
 75
     1
175
     1
 42
1.0
 92
       12
 66
     7
 43
1.0
 76
     1
 77
     6
 78
     2
 67
     7
 79
     5
170
     0
171
     0
290
     0
174
     0
 93
        1
 44
0.0
173
     0
291
     1
 45
0.0
1001
ACAD
1000
AcDbSavedByObjectVersion
1070
     0
  0
VISUALSTYLE
  5
417B
102
{ACAD_XDICTIONARY
360
41D9
102
}
102
{ACAD_REACTORS
330
4174
102
}
330
4174
100
AcDbVisualStyle
  2
Wireframe
 70
     5
 71
     0
 72
     2
 73
     0
 90
        0
 40
-0.6
 41
-30.0
 62
     5
 63
     7
 74
     1
 91
        4
 64
     7
 65
   257
 75
     1
175
     1
 42
1.0
 92
        0
 66
   257
 43
1.0
 76
     1
 77
     6
 78
     2
 67
     7
 79
     3
170
     0
171
     0
290
     0
174
     0
 93
        1
 44
0.0
173
     0
291
     0
 45
0.0
1001
ACAD
1000
AcDbSavedByObjectVersion
1070
     0
  0
VISUALSTYLE
  5
4187
102
{ACAD_XDICTIONARY
360
41F1
102
}
102
{ACAD_REACTORS
330
4174
102
}
330
4174
100
AcDbVisualStyle
  2
X-Ray
 70
    25
 71
     2
 72
     2
 73
     1
 90
        1
 40
0.5
 41
-30.0
 62
     5
 63
     7
 74
     1
 91
        0
 64
     7
 65
   257
 75
     1
175
     1
 42
1.0
 92
        8
 66
     7
 43
1.0
 76
     1
 77
     6
 78
     2
 67
     7
 79
     3
170
     0
171
     0
290
     0
174
     0
 93
       13
 44
0.0
173
     0
291
     0
 45
0.0
1001
ACAD
1000
AcDbSavedByObjectVersion
1070
     0
  0
DICTIONARYVAR
  5
41C0
102
{ACAD_REACTORS
330
41BB
102
}
330
41BB
100
DictionaryVariables
280
     0
  1
1:1
  0
DICTIONARYVAR
  5
41BD
102
{ACAD_REACTORS
330
41BB
102
}
330
41BB
100
DictionaryVariables
280
     0
  1
STANDARD
  0
DICTIONARYVAR
  5
41BC
102
{ACAD_REACTORS
330
41BB
102
}
330
41BB
100
DictionaryVariables
280
     0
  1
STANDARD
  0
DICTIONARYVAR
  5
41BE
102
{ACAD_REACTORS
330
41BB
102
}
330
41BB
100
DictionaryVariables
280
     0
  1
Imperial24
  0
DICTIONARYVAR
  5
41BF
102
{ACAD_REACTORS
330
41BB
102
}
330
41BB
100
DictionaryVariables
280
     0
  1
Imperial24
  0
DICTIONARYVAR
  5
41C3
102
{ACAD_REACTORS
330
41BB
102
}
330
41BB
100
DictionaryVariables
280
     0
  1
1
  0
DICTIONARYVAR
  5
41C2
102
{ACAD_REACTORS
330
41BB
102
}
330
41BB
100
DictionaryVariables
280
     0
  1
0
  0
DICTIONARYVAR
  5
41C1
102
{ACAD_REACTORS
330
41BB
102
}
330
41BB
100
DictionaryVariables
280
     0
  1
127
  0
DICTIONARYVAR
  5
41C4
102
{ACAD_REACTORS
330
41BB
102
}
330
41BB
100
DictionaryVariables
280
     0
  1
2
  0
DICTIONARY
  5
4201
330
41A7
100
AcDbDictionary
280
     1
281
     1
  3
ACAD_XREC_ROUNDTRIP
360
4202
  0
DICTIONARY
  5
4203
330
41A8
100
AcDbDictionary
280
     1
281
     1
  3
ACAD_XREC_ROUNDTRIP
360
4204
  0
DICTIONARY
  5
4205
330
41A9
100
AcDbDictionary
280
     1
281
     1
  3
ACAD_XREC_ROUNDTRIP
360
4206
  0
DICTIONARY
  5
4165
330
4164
100
AcDbDictionary
280
     1
281
     1
  3
ACAD_XREC_ROUNDTRIP
360
41CB
  3
BUMPTILE
360
4167
  3
DIFFUSETILE
360
4166
  3
OPACITYTILE
360
416A
  3
REFLECTIONTILE
360
4169
  3
REFRACTIONTILE
360
416B
  3
SPECULARTILE
360
4168
  0
DICTIONARY
  5
415D
330
415C
100
AcDbDictionary
280
     1
281
     1
  3
ACAD_XREC_ROUNDTRIP
360
41CA
  3
BUMPTILE
360
415F
  3
DIFFUSETILE
360
415E
  3
OPACITYTILE
360
4162
  3
REFLECTIONTILE
360
4161
  3
REFRACTIONTILE
360
4163
  3
SPECULARTILE
360
4160
  0
DICTIONARY
  5
416D
330
416C
100
AcDbDictionary
280
     1
281
     1
  3
ACAD_XREC_ROUNDTRIP
360
41CC
  3
BUMPTILE
360
416F
  3
DIFFUSETILE
360
416E
  3
OPACITYTILE
360
4172
  3
REFLECTIONTILE
360
4171
  3
REFRACTIONTILE
360
4173
  3
SPECULARTILE
360
4170
  0
DICTIONARY
  5
41FF
330
41A5
100
AcDbDictionary
280
     1
281
     1
  3
ACAD_XREC_ROUNDTRIP
360
4200
  0
DICTIONARY
  5
41C6
330
418F
100
AcDbDictionary
280
     1
281
     1
  3
ACAD_ROUNDTRIP_2008_TABLESTYLE_CELLSTYLEMAP
360
41C7
  3
ACAD_XREC_ROUNDTRIP
360
41FD
  0
DICTIONARY
  5
41D7
330
417A
100
AcDbDictionary
280
     1
281
     1
  3
ACAD_XREC_ROUNDTRIP
360
41D8
  0
DICTIONARY
  5
41D5
330
4179
100
AcDbDictionary
280
     1
281
     1
  3
ACAD_XREC_ROUNDTRIP
360
41D6
  0
DICTIONARY
  5
41E3
330
4180
100
AcDbDictionary
280
     1
281
     1
  3
ACAD_XREC_ROUNDTRIP
360
41E4
  0
DICTIONARY
  5
41EB
330
4184
100
AcDbDictionary
280
     1
281
     1
  3
ACAD_XREC_ROUNDTRIP
360
41EC
  0
DICTIONARY
  5
41DD
330
417D
100
AcDbDictionary
280
     1
281
     1
  3
ACAD_XREC_ROUNDTRIP
360
41DE
  0
DICTIONARY
  5
41E1
330
417F
100
AcDbDictionary
280
     1
281
     1
  3
ACAD_XREC_ROUNDTRIP
360
41E2
  0
DICTIONARY
  5
41FB
330
418C
100
AcDbDictionary
280
     1
281
     1
  3
ACAD_XREC_ROUNDTRIP
360
41FC
  0
DICTIONARY
  5
41E9
330
4183
100
AcDbDictionary
280
     1
281
     1
  3
ACAD_XREC_ROUNDTRIP
360
41EA
  0
DICTIONARY
  5
41CD
330
4175
100
AcDbDictionary
280
     1
281
     1
  3
ACAD_XREC_ROUNDTRIP
360
41CE
  0
DICTIONARY
  5
41CF
330
4176
100
AcDbDictionary
280
     1
281
     1
  3
ACAD_XREC_ROUNDTRIP
360
41D0
  0
DICTIONARY
  5
41D1
330
4177
100
AcDbDictionary
280
     1
281
     1
  3
ACAD_XREC_ROUNDTRIP
360
41D2
  0
DICTIONARY
  5
41D3
330
4178
100
AcDbDictionary
280
     1
281
     1
  3
ACAD_XREC_ROUNDTRIP
360
41D4
  0
DICTIONARY
  5
41DB
330
417C
100
AcDbDictionary
280
     1
281
     1
  3
ACAD_XREC_ROUNDTRIP
360
41DC
  0
DICTIONARY
  5
41F7
330
418A
100
AcDbDictionary
280
     1
281
     1
  3
ACAD_XREC_ROUNDTRIP
360
41F8
  0
DICTIONARY
  5
41E7
330
4182
100
AcDbDictionary
280
     1
281
     1
  3
ACAD_XREC_ROUNDTRIP
360
41E8
  0
DICTIONARY
  5
41F9
330
418B
100
AcDbDictionary
280
     1
281
     1
  3
ACAD_XREC_ROUNDTRIP
360
41FA
  0
DICTIONARY
  5
41DF
330
417E
100
AcDbDictionary
280
     1
281
     1
  3
ACAD_XREC_ROUNDTRIP
360
41E0
  0
DICTIONARY
  5
41F5
330
4189
100
AcDbDictionary
280
     1
281
     1
  3
ACAD_XREC_ROUNDTRIP
360
41F6
  0
DICTIONARY
  5
41F3
330
4188
100
AcDbDictionary
280
     1
281
     1
  3
ACAD_XREC_ROUNDTRIP
360
41F4
  0
DICTIONARY
  5
41ED
330
4185
100
AcDbDictionary
280
     1
281
     1
  3
ACAD_XREC_ROUNDTRIP
360
41EE
  0
DICTIONARY
  5
41EF
330
4186
100
AcDbDictionary
280
     1
281
     1
  3
ACAD_XREC_ROUNDTRIP
360
41F0
  0
DICTIONARY
  5
41E5
330
4181
100
AcDbDictionary
280
     1
281
     1
  3
ACAD_XREC_ROUNDTRIP
360
41E6
  0
DICTIONARY
  5
41D9
330
417B
100
AcDbDictionary
280
     1
281
     1
  3
ACAD_XREC_ROUNDTRIP
360
41DA
  0
DICTIONARY
  5
41F1
330
4187
100
AcDbDictionary
280
     1
281
     1
  3
ACAD_XREC_ROUNDTRIP
360
41F2
  0
XRECORD
  5
4202
102
{ACAD_REACTORS
330
4201
102
}
330
4201
100
AcDbXrecord
280
     1
102
DISPLAYNAME
  1
Imperial24
102
FLAGS
 90
        0
  0
XRECORD
  5
4204
102
{ACAD_REACTORS
330
4203
102
}
330
4203
100
AcDbXrecord
280
     1
102
SHADEPLOT
 70
     0
102
SHADEPLOTRESLEVEL
 70
     2
102
SHADEPLOTCUSTOMDPI
 70
   300
  0
XRECORD
  5
4206
102
{ACAD_REACTORS
330
4205
102
}
330
4205
100
AcDbXrecord
280
     1
102
SHADEPLOT
 70
     0
102
SHADEPLOTRESLEVEL
 70
     2
102
SHADEPLOTCUSTOMDPI
 70
   300
  0
XRECORD
  5
41CB
102
{ACAD_REACTORS
330
4165
102
}
330
4165
100
AcDbXrecord
280
     1
102
MATERIAL
148
0.0
149
0.0
149
0.0
 93
        0
 94
      127
282
     0
 72
     0
 77
     0
171
     0
175
     0
179
     0
273
     0
  0
XRECORD
  5
4167
102
{ACAD_REACTORS
330
4165
102
}
330
4165
100
AcDbXrecord
280
     1
270
     1
271
     1
  0
XRECORD
  5
4166
102
{ACAD_REACTORS
330
4165
102
}
330
4165
100
AcDbXrecord
280
     1
270
     1
271
     1
  0
XRECORD
  5
416A
102
{ACAD_REACTORS
330
4165
102
}
330
4165
100
AcDbXrecord
280
     1
270
     1
271
     1
  0
XRECORD
  5
4169
102
{ACAD_REACTORS
330
4165
102
}
330
4165
100
AcDbXrecord
280
     1
270
     1
271
     1
  0
XRECORD
  5
416B
102
{ACAD_REACTORS
330
4165
102
}
330
4165
100
AcDbXrecord
280
     1
270
     1
271
     1
  0
XRECORD
  5
4168
102
{ACAD_REACTORS
330
4165
102
}
330
4165
100
AcDbXrecord
280
     1
270
     1
271
     1
  0
XRECORD
  5
41CA
102
{ACAD_REACTORS
330
415D
102
}
330
415D
100
AcDbXrecord
280
     1
102
MATERIAL
148
0.0
149
0.0
149
0.0
 93
        0
 94
      127
282
     0
 72
     0
 77
     0
171
     0
175
     0
179
     0
273
     0
  0
XRECORD
  5
415F
102
{ACAD_REACTORS
330
415D
102
}
330
415D
100
AcDbXrecord
280
     1
270
     1
271
     1
  0
XRECORD
  5
415E
102
{ACAD_REACTORS
330
415D
102
}
330
415D
100
AcDbXrecord
280
     1
270
     1
271
     1
  0
XRECORD
  5
4162
102
{ACAD_REACTORS
330
415D
102
}
330
415D
100
AcDbXrecord
280
     1
270
     1
271
     1
  0
XRECORD
  5
4161
102
{ACAD_REACTORS
330
415D
102
}
330
415D
100
AcDbXrecord
280
     1
270
     1
271
     1
  0
XRECORD
  5
4163
102
{ACAD_REACTORS
330
415D
102
}
330
415D
100
AcDbXrecord
280
     1
270
     1
271
     1
  0
XRECORD
  5
4160
102
{ACAD_REACTORS
330
415D
102
}
330
415D
100
AcDbXrecord
280
     1
270
     1
271
     1
  0
XRECORD
  5
41CC
102
{ACAD_REACTORS
330
416D
102
}
330
416D
100
AcDbXrecord
280
     1
102
MATERIAL
148
0.0
149
0.0
149
0.0
 93
        0
 94
      127
282
     0
 72
     0
 77
     0
171
     0
175
     0
179
     0
273
     0
  0
XRECORD
  5
416F
102
{ACAD_REACTORS
330
416D
102
}
330
416D
100
AcDbXrecord
280
     1
270
     1
271
     1
  0
XRECORD
  5
416E
102
{ACAD_REACTORS
330
416D
102
}
330
416D
100
AcDbXrecord
280
     1
270
     1
271
     1
  0
XRECORD
  5
4172
102
{ACAD_REACTORS
330
416D
102
}
330
416D
100
AcDbXrecord
280
     1
270
     1
271
     1
  0
XRECORD
  5
4171
102
{ACAD_REACTORS
330
416D
102
}
330
416D
100
AcDbXrecord
280
     1
270
     1
271
     1
  0
XRECORD
  5
4173
102
{ACAD_REACTORS
330
416D
102
}
330
416D
100
AcDbXrecord
280
     1
270
     1
271
     1
  0
XRECORD
  5
4170
102
{ACAD_REACTORS
330
416D
102
}
330
416D
100
AcDbXrecord
280
     1
270
     1
271
     1
  0
XRECORD
  5
4200
102
{ACAD_REACTORS
330
41FF
102
}
330
41FF
100
AcDbXrecord
280
     1
102
DISPLAYNAME
  1
Imperial24
102
FLAGS
 90
        0
  0
CELLSTYLEMAP
  5
41C7
102
{ACAD_REACTORS
330
41C6
102
}
330
41C6
100
AcDbCellStyleMap
 90
        3
300
CELLSTYLE
  1
TABLEFORMAT_BEGIN
 90
        5
170
     1
 91
        0
 92
    32768
 62
   257
 93
        1
300
CONTENTFORMAT
  1
CONTENTFORMAT_BEGIN
 90
        0
 91
        0
 92
      512
 93
        0
300

 40
0.0
140
1.0
 94
        5
 62
     0
340
F
144
0.25
309
CONTENTFORMAT_END
171
     0
 94
        0
309
TABLEFORMAT_END
  1
CELLSTYLE_BEGIN
 90
        1
 91
        1
300
_TITLE
309
CELLSTYLE_END
300
CELLSTYLE
  1
TABLEFORMAT_BEGIN
 90
        5
170
     1
 91
        0
 92
        0
 62
   257
 93
        1
300
CONTENTFORMAT
  1
CONTENTFORMAT_BEGIN
 90
        0
 91
        0
 92
      512
 93
        0
300

 40
0.0
140
1.0
 94
        5
 62
     0
340
F
144
0.18
309
CONTENTFORMAT_END
171
     0
 94
        0
309
TABLEFORMAT_END
  1
CELLSTYLE_BEGIN
 90
        2
 91
        1
300
_HEADER
309
CELLSTYLE_END
300
CELLSTYLE
  1
TABLEFORMAT_BEGIN
 90
        5
170
     1
 91
        0
 92
        0
 62
   257
 93
        1
300
CONTENTFORMAT
  1
CONTENTFORMAT_BEGIN
 90
        0
 91
        0
 92
      512
 93
        0
300

 40
0.0
140
1.0
 94
        2
 62
     0
340
F
144
0.18
309
CONTENTFORMAT_END
171
     0
 94
        0
309
TABLEFORMAT_END
  1
CELLSTYLE_BEGIN
 90
        3
 91
        2
300
_DATA
309
CELLSTYLE_END
  0
XRECORD
  5
41FD
102
{ACAD_REACTORS
330
41C6
102
}
330
41C6
100
AcDbXrecord
280
     1
102
ACAD_ROUNDTRIP_PRE2007_TABLESTYLE
 90
      512
 91
        0
  1

 92
      512
 93
        0
  2

 94
      512
 95
        0
  3

  0
XRECORD
  5
41D8
102
{ACAD_REACTORS
330
41D7
102
}
330
41D7
100
AcDbXrecord
280
     1
102
RTVSPost2010Prop28
280
     1
102
RTVSPost2010PropOp28
 70
     1
102
RTVSPost2010Prop29
280
     1
102
RTVSPost2010PropOp29
 70
     1
102
RTVSPost2010Prop30
280
     0
102
RTVSPost2010PropOp30
 70
     1
102
RTVSPost2010Prop31
280
     0
102
RTVSPost2010PropOp31
 70
     1
102
RTVSPost2010Prop32
280
     0
102
RTVSPost2010PropOp32
 70
     1
102
RTVSPost2010Prop33
280
     0
102
RTVSPost2010PropOp33
 70
     1
102
RTVSPost2010Prop34
280
     0
102
RTVSPost2010PropOp34
 70
     1
102
RTVSPost2010Prop35
280
     0
102
RTVSPost2010PropOp35
 70
     1
102
RTVSPost2010Prop36
280
     0
102
RTVSPost2010PropOp36
 70
     1
102
RTVSPost2010Prop37
 90
       50
102
RTVSPost2010PropOp37
 70
     1
102
RTVSPost2010Prop38
140
0.0
102
RTVSPost2010PropOp38
 70
     1
102
RTVSPost2010Prop39
140
1.0
102
RTVSPost2010PropOp39
 70
     1
102
RTVSPost2010Prop40
 90
        0
102
RTVSPost2010PropOp40
 70
     1
102
RTVSPost2010Prop41ColorIndex
 90
       18
102
RTVSPost2010Prop41ColorRGB
 90
        0
102
RTVSPost2010PropOp41
 70
     1
102
RTVSPost2010Prop42
 90
       50
102
RTVSPost2010PropOp42
 70
     1
102
RTVSPost2010Prop43
 90
        3
102
RTVSPost2010PropOp43
 70
     1
102
RTVSPost2010Prop44ColorIndex
 90
        5
102
RTVSPost2010Prop44ColorRGB
 90
      255
102
RTVSPost2010PropOp44
 70
     1
102
RTVSPost2010Prop45
280
     0
102
RTVSPost2010PropOp45
 70
     1
102
RTVSPost2010Prop46
 90
       50
102
RTVSPost2010PropOp46
 70
     1
102
RTVSPost2010Prop47
 90
       50
102
RTVSPost2010PropOp47
 70
     1
102
RTVSPost2010Prop48
 90
       50
102
RTVSPost2010PropOp48
 70
     1
102
RTVSPost2010Prop49
280
     0
102
RTVSPost2010PropOp49
 70
     1
102
RTVSPost2010Prop50
 90
       50
102
RTVSPost2010PropOp50
 70
     1
102
RTVSPost2010Prop51ColorIndex
 90
      256
102
RTVSPost2010Prop51ColorRGB
 90
-16777216
102
RTVSPost2010PropOp51
 70
     0
102
RTVSPost2010Prop52
140
1.0
102
RTVSPost2010PropOp52
 70
     0
102
RTVSPost2010Prop53
 90
        2
102
RTVSPost2010PropOp53
 70
     1
102
RTVSPost2010Prop54
  1
strokes_ogs.tif
102
RTVSPost2010PropOp54
 70
     1
102
RTVSPost2010Prop55
280
     0
102
RTVSPost2010PropOp55
 70
     1
102
RTVSPost2010Prop56
140
1.0
102
RTVSPost2010PropOp56
 70
     1
102
RTVSPost2010Prop57
140
1.0
102
RTVSPost2010PropOp57
 70
     1
102
RTVSPropertyOp0
 70
     1
102
RTVSPropertyOp1
 70
     1
102
RTVSPropertyOp2
 70
     1
102
RTVSPropertyOp3
 70
     1
102
RTVSPropertyOp4
 70
     1
102
RTVSPropertyOp5
 70
     1
102
RTVSPropertyOp6
 70
     1
102
RTVSPropertyOp7
 70
     1
102
RTVSPropertyOp8
 70
     1
102
RTVSPropertyOp9
 70
     1
102
RTVSPropertyOp10
 70
     1
102
RTVSPropertyOp11
 70
     1
102
RTVSPropertyOp12
 70
     1
102
RTVSPropertyOp13
 70
     1
102
RTVSPropertyOp14
 70
     1
102
RTVSPropertyOp15
 70
     1
102
RTVSPropertyOp16
 70
     1
102
RTVSPropertyOp17
 70
     1
102
RTVSPropertyOp18
 70
     1
102
RTVSPropertyOp19
 70
     1
102
RTVSPropertyOp20
 70
     1
102
RTVSPropertyOp21
 70
     1
102
RTVSPropertyOp22
 70
     1
102
RTVSPropertyOp23
 70
     1
102
RTVSPropertyOp24
 70
     1
102
RTVSPropertyOp25
 70
     1
102
RTVSPropertyOp26
 70
     1
102
RTVSPropertyOp27
 70
     1
102
RTVSPropertyOp28
 70
     1
102
RTVSPropertyOp29
 70
     1
102
RTVSPropertyOp30
 70
     1
102
RTVSPropertyOp31
 70
     1
102
RTVSPropertyOp32
 70
     1
102
RTVSPropertyOp33
 70
     1
102
RTVSPropertyOp34
 70
     1
102
RTVSPropertyOp35
 70
     1
102
RTVSPropertyOp36
 70
     1
102
RTVSPropertyOp37
 70
     1
102
RTVSPropertyOp38
 70
     1
102
RTVSPropertyOp39
 70
     1
102
RTVSPropertyOp40
 70
     1
102
RTVSPropertyOp41
 70
     1
102
RTVSPropertyOp42
 70
     1
102
RTVSPropertyOp43
 70
     1
102
RTVSPropertyOp44
 70
     1
102
RTVSPropertyOp45
 70
     1
102
RTVSPropertyOp46
 70
     1
102
RTVSPropertyOp47
 70
     1
102
RTVSPropertyOp48
 70
     1
102
RTVSPropertyOp49
 70
     1
102
RTVSPropertyOp50
 70
     1
102
RTVSPropertyOp51
 70
     0
102
RTVSPropertyOp52
 70
     0
102
RTVSPropertyOp53
 70
     1
102
RTVSPropertyOp54
 70
     1
102
RTVSPropertyOp55
 70
     1
102
RTVSPropertyOp56
 70
     1
102
RTVSPropertyOp57
 70
     1
102
RTVSPropertyOp58
 70
     1
102
RTVSPropertyOp59
 70
     1
102
RTVSPropertyOp60
 70
     1
102
RTVSPropertyOp61
 70
     1
102
RTVSPropertyOp62
 70
     1
  0
XRECORD
  5
41D6
102
{ACAD_REACTORS
330
41D5
102
}
330
41D5
100
AcDbXrecord
280
     1
102
RTVSPost2010Prop28
280
     0
102
RTVSPost2010PropOp28
 70
     1
102
RTVSPost2010Prop29
280
     1
102
RTVSPost2010PropOp29
 70
     1
102
RTVSPost2010Prop30
280
     1
102
RTVSPost2010PropOp30
 70
     1
102
RTVSPost2010Prop31
280
     0
102
RTVSPost2010PropOp31
 70
     1
102
RTVSPost2010Prop32
280
     0
102
RTVSPost2010PropOp32
 70
     1
102
RTVSPost2010Prop33
280
     0
102
RTVSPost2010PropOp33
 70
     1
102
RTVSPost2010Prop34
280
     0
102
RTVSPost2010PropOp34
 70
     1
102
RTVSPost2010Prop35
280
     0
102
RTVSPost2010PropOp35
 70
     1
102
RTVSPost2010Prop36
280
     0
102
RTVSPost2010PropOp36
 70
     1
102
RTVSPost2010Prop37
 90
       50
102
RTVSPost2010PropOp37
 70
     1
102
RTVSPost2010Prop38
140
0.0
102
RTVSPost2010PropOp38
 70
     1
102
RTVSPost2010Prop39
140
1.0
102
RTVSPost2010PropOp39
 70
     1
102
RTVSPost2010Prop40
 90
        0
102
RTVSPost2010PropOp40
 70
     1
102
RTVSPost2010Prop41ColorIndex
 90
       18
102
RTVSPost2010Prop41ColorRGB
 90
        0
102
RTVSPost2010PropOp41
 70
     1
102
RTVSPost2010Prop42
 90
       50
102
RTVSPost2010PropOp42
 70
     1
102
RTVSPost2010Prop43
 90
        3
102
RTVSPost2010PropOp43
 70
     1
102
RTVSPost2010Prop44ColorIndex
 90
        5
102
RTVSPost2010Prop44ColorRGB
 90
      255
102
RTVSPost2010PropOp44
 70
     1
102
RTVSPost2010Prop45
280
     0
102
RTVSPost2010PropOp45
 70
     1
102
RTVSPost2010Prop46
 90
       50
102
RTVSPost2010PropOp46
 70
     1
102
RTVSPost2010Prop47
 90
       50
102
RTVSPost2010PropOp47
 70
     1
102
RTVSPost2010Prop48
 90
       50
102
RTVSPost2010PropOp48
 70
     1
102
RTVSPost2010Prop49
280
     0
102
RTVSPost2010PropOp49
 70
     1
102
RTVSPost2010Prop50
 90
       50
102
RTVSPost2010PropOp50
 70
     1
102
RTVSPost2010Prop51ColorIndex
 90
      256
102
RTVSPost2010Prop51ColorRGB
 90
-16777216
102
RTVSPost2010PropOp51
 70
     0
102
RTVSPost2010Prop52
140
1.0
102
RTVSPost2010PropOp52
 70
     0
102
RTVSPost2010Prop53
 90
        2
102
RTVSPost2010PropOp53
 70
     1
102
RTVSPost2010Prop54
  1
strokes_ogs.tif
102
RTVSPost2010PropOp54
 70
     1
102
RTVSPost2010Prop55
280
     0
102
RTVSPost2010PropOp55
 70
     1
102
RTVSPost2010Prop56
140
1.0
102
RTVSPost2010PropOp56
 70
     1
102
RTVSPost2010Prop57
140
1.0
102
RTVSPost2010PropOp57
 70
     1
102
RTVSPropertyOp0
 70
     1
102
RTVSPropertyOp1
 70
     1
102
RTVSPropertyOp2
 70
     1
102
RTVSPropertyOp3
 70
     1
102
RTVSPropertyOp4
 70
     1
102
RTVSPropertyOp5
 70
     1
102
RTVSPropertyOp6
 70
     1
102
RTVSPropertyOp7
 70
     1
102
RTVSPropertyOp8
 70
     1
102
RTVSPropertyOp9
 70
     1
102
RTVSPropertyOp10
 70
     1
102
RTVSPropertyOp11
 70
     1
102
RTVSPropertyOp12
 70
     1
102
RTVSPropertyOp13
 70
     1
102
RTVSPropertyOp14
 70
     1
102
RTVSPropertyOp15
 70
     1
102
RTVSPropertyOp16
 70
     1
102
RTVSPropertyOp17
 70
     1
102
RTVSPropertyOp18
 70
     1
102
RTVSPropertyOp19
 70
     1
102
RTVSPropertyOp20
 70
     1
102
RTVSPropertyOp21
 70
     1
102
RTVSPropertyOp22
 70
     1
102
RTVSPropertyOp23
 70
     1
102
RTVSPropertyOp24
 70
     1
102
RTVSPropertyOp25
 70
     1
102
RTVSPropertyOp26
 70
     1
102
RTVSPropertyOp27
 70
     1
102
RTVSPropertyOp28
 70
     1
102
RTVSPropertyOp29
 70
     1
102
RTVSPropertyOp30
 70
     1
102
RTVSPropertyOp31
 70
     1
102
RTVSPropertyOp32
 70
     1
102
RTVSPropertyOp33
 70
     1
102
RTVSPropertyOp34
 70
     1
102
RTVSPropertyOp35
 70
     1
102
RTVSPropertyOp36
 70
     1
102
RTVSPropertyOp37
 70
     1
102
RTVSPropertyOp38
 70
     1
102
RTVSPropertyOp39
 70
     1
102
RTVSPropertyOp40
 70
     1
102
RTVSPropertyOp41
 70
     1
102
RTVSPropertyOp42
 70
     1
102
RTVSPropertyOp43
 70
     1
102
RTVSPropertyOp44
 70
     1
102
RTVSPropertyOp45
 70
     1
102
RTVSPropertyOp46
 70
     1
102
RTVSPropertyOp47
 70
     1
102
RTVSPropertyOp48
 70
     1
102
RTVSPropertyOp49
 70
     1
102
RTVSPropertyOp50
 70
     1
102
RTVSPropertyOp51
 70
     0
102
RTVSPropertyOp52
 70
     0
102
RTVSPropertyOp53
 70
     1
102
RTVSPropertyOp54
 70
     1
102
RTVSPropertyOp55
 70
     1
102
RTVSPropertyOp56
 70
     1
102
RTVSPropertyOp57
 70
     1
102
RTVSPropertyOp58
 70
     1
102
RTVSPropertyOp59
 70
     1
102
RTVSPropertyOp60
 70
     1
102
RTVSPropertyOp61
 70
     1
102
RTVSPropertyOp62
 70
     1
  0
XRECORD
  5
41E4
102
{ACAD_REACTORS
330
41E3
102
}
330
41E3
100
AcDbXrecord
280
     1
102
RTVSPost2010Prop28
280
     0
102
RTVSPost2010PropOp28
 70
     1
102
RTVSPost2010Prop29
280
     1
102
RTVSPost2010PropOp29
 70
     1
102
RTVSPost2010Prop30
280
     1
102
RTVSPost2010PropOp30
 70
     1
102
RTVSPost2010Prop31
280
     0
102
RTVSPost2010PropOp31
 70
     1
102
RTVSPost2010Prop32
280
     0
102
RTVSPost2010PropOp32
 70
     1
102
RTVSPost2010Prop33
280
     0
102
RTVSPost2010PropOp33
 70
     1
102
RTVSPost2010Prop34
280
     0
102
RTVSPost2010PropOp34
 70
     1
102
RTVSPost2010Prop35
280
     0
102
RTVSPost2010PropOp35
 70
     1
102
RTVSPost2010Prop36
280
     0
102
RTVSPost2010PropOp36
 70
     1
102
RTVSPost2010Prop37
 90
       50
102
RTVSPost2010PropOp37
 70
     1
102
RTVSPost2010Prop38
140
0.0
102
RTVSPost2010PropOp38
 70
     1
102
RTVSPost2010Prop39
140
1.0
102
RTVSPost2010PropOp39
 70
     1
102
RTVSPost2010Prop40
 90
        0
102
RTVSPost2010PropOp40
 70
     1
102
RTVSPost2010Prop41ColorIndex
 90
       18
102
RTVSPost2010Prop41ColorRGB
 90
        0
102
RTVSPost2010PropOp41
 70
     1
102
RTVSPost2010Prop42
 90
       50
102
RTVSPost2010PropOp42
 70
     1
102
RTVSPost2010Prop43
 90
        3
102
RTVSPost2010PropOp43
 70
     1
102
RTVSPost2010Prop44ColorIndex
 90
        5
102
RTVSPost2010Prop44ColorRGB
 90
      255
102
RTVSPost2010PropOp44
 70
     1
102
RTVSPost2010Prop45
280
     0
102
RTVSPost2010PropOp45
 70
     1
102
RTVSPost2010Prop46
 90
       50
102
RTVSPost2010PropOp46
 70
     1
102
RTVSPost2010Prop47
 90
       50
102
RTVSPost2010PropOp47
 70
     1
102
RTVSPost2010Prop48
 90
       50
102
RTVSPost2010PropOp48
 70
     1
102
RTVSPost2010Prop49
280
     0
102
RTVSPost2010PropOp49
 70
     1
102
RTVSPost2010Prop50
 90
       50
102
RTVSPost2010PropOp50
 70
     1
102
RTVSPost2010Prop51ColorIndex
 90
      256
102
RTVSPost2010Prop51ColorRGB
 90
-16777216
102
RTVSPost2010PropOp51
 70
     0
102
RTVSPost2010Prop52
140
1.0
102
RTVSPost2010PropOp52
 70
     0
102
RTVSPost2010Prop53
 90
        2
102
RTVSPost2010PropOp53
 70
     1
102
RTVSPost2010Prop54
  1
strokes_ogs.tif
102
RTVSPost2010PropOp54
 70
     1
102
RTVSPost2010Prop55
280
     0
102
RTVSPost2010PropOp55
 70
     1
102
RTVSPost2010Prop56
140
1.0
102
RTVSPost2010PropOp56
 70
     1
102
RTVSPost2010Prop57
140
1.0
102
RTVSPost2010PropOp57
 70
     1
102
RTVSPropertyOp0
 70
     1
102
RTVSPropertyOp1
 70
     1
102
RTVSPropertyOp2
 70
     1
102
RTVSPropertyOp3
 70
     1
102
RTVSPropertyOp4
 70
     1
102
RTVSPropertyOp5
 70
     1
102
RTVSPropertyOp6
 70
     1
102
RTVSPropertyOp7
 70
     1
102
RTVSPropertyOp8
 70
     1
102
RTVSPropertyOp9
 70
     1
102
RTVSPropertyOp10
 70
     1
102
RTVSPropertyOp11
 70
     1
102
RTVSPropertyOp12
 70
     1
102
RTVSPropertyOp13
 70
     1
102
RTVSPropertyOp14
 70
     1
102
RTVSPropertyOp15
 70
     1
102
RTVSPropertyOp16
 70
     1
102
RTVSPropertyOp17
 70
     1
102
RTVSPropertyOp18
 70
     1
102
RTVSPropertyOp19
 70
     1
102
RTVSPropertyOp20
 70
     1
102
RTVSPropertyOp21
 70
     1
102
RTVSPropertyOp22
 70
     1
102
RTVSPropertyOp23
 70
     1
102
RTVSPropertyOp24
 70
     1
102
RTVSPropertyOp25
 70
     1
102
RTVSPropertyOp26
 70
     1
102
RTVSPropertyOp27
 70
     1
102
RTVSPropertyOp28
 70
     1
102
RTVSPropertyOp29
 70
     1
102
RTVSPropertyOp30
 70
     1
102
RTVSPropertyOp31
 70
     1
102
RTVSPropertyOp32
 70
     1
102
RTVSPropertyOp33
 70
     1
102
RTVSPropertyOp34
 70
     1
102
RTVSPropertyOp35
 70
     1
102
RTVSPropertyOp36
 70
     1
102
RTVSPropertyOp37
 70
     1
102
RTVSPropertyOp38
 70
     1
102
RTVSPropertyOp39
 70
     1
102
RTVSPropertyOp40
 70
     1
102
RTVSPropertyOp41
 70
     1
102
RTVSPropertyOp42
 70
     1
102
RTVSPropertyOp43
 70
     1
102
RTVSPropertyOp44
 70
     1
102
RTVSPropertyOp45
 70
     1
102
RTVSPropertyOp46
 70
     1
102
RTVSPropertyOp47
 70
     1
102
RTVSPropertyOp48
 70
     1
102
RTVSPropertyOp49
 70
     1
102
RTVSPropertyOp50
 70
     1
102
RTVSPropertyOp51
 70
     0
102
RTVSPropertyOp52
 70
     0
102
RTVSPropertyOp53
 70
     1
102
RTVSPropertyOp54
 70
     1
102
RTVSPropertyOp55
 70
     1
102
RTVSPropertyOp56
 70
     1
102
RTVSPropertyOp57
 70
     1
102
RTVSPropertyOp58
 70
     1
102
RTVSPropertyOp59
 70
     1
102
RTVSPropertyOp60
 70
     1
102
RTVSPropertyOp61
 70
     1
102
RTVSPropertyOp62
 70
     1
  0
XRECORD
  5
41EC
102
{ACAD_REACTORS
330
41EB
102
}
330
41EB
100
AcDbXrecord
280
     1
102
RTVSPost2010Prop28
280
     0
102
RTVSPost2010PropOp28
 70
     1
102
RTVSPost2010Prop29
280
     1
102
RTVSPost2010PropOp29
 70
     1
102
RTVSPost2010Prop30
280
     1
102
RTVSPost2010PropOp30
 70
     1
102
RTVSPost2010Prop31
280
     0
102
RTVSPost2010PropOp31
 70
     1
102
RTVSPost2010Prop32
280
     0
102
RTVSPost2010PropOp32
 70
     1
102
RTVSPost2010Prop33
280
     0
102
RTVSPost2010PropOp33
 70
     1
102
RTVSPost2010Prop34
280
     0
102
RTVSPost2010PropOp34
 70
     1
102
RTVSPost2010Prop35
280
     0
102
RTVSPost2010PropOp35
 70
     1
102
RTVSPost2010Prop36
280
     0
102
RTVSPost2010PropOp36
 70
     1
102
RTVSPost2010Prop37
 90
       50
102
RTVSPost2010PropOp37
 70
     1
102
RTVSPost2010Prop38
140
0.0
102
RTVSPost2010PropOp38
 70
     1
102
RTVSPost2010Prop39
140
1.0
102
RTVSPost2010PropOp39
 70
     1
102
RTVSPost2010Prop40
 90
        0
102
RTVSPost2010PropOp40
 70
     1
102
RTVSPost2010Prop41ColorIndex
 90
       18
102
RTVSPost2010Prop41ColorRGB
 90
        0
102
RTVSPost2010PropOp41
 70
     1
102
RTVSPost2010Prop42
 90
       50
102
RTVSPost2010PropOp42
 70
     1
102
RTVSPost2010Prop43
 90
        3
102
RTVSPost2010PropOp43
 70
     1
102
RTVSPost2010Prop44ColorIndex
 90
        5
102
RTVSPost2010Prop44ColorRGB
 90
      255
102
RTVSPost2010PropOp44
 70
     1
102
RTVSPost2010Prop45
280
     0
102
RTVSPost2010PropOp45
 70
     1
102
RTVSPost2010Prop46
 90
       50
102
RTVSPost2010PropOp46
 70
     1
102
RTVSPost2010Prop47
 90
       50
102
RTVSPost2010PropOp47
 70
     1
102
RTVSPost2010Prop48
 90
       50
102
RTVSPost2010PropOp48
 70
     1
102
RTVSPost2010Prop49
280
     0
102
RTVSPost2010PropOp49
 70
     1
102
RTVSPost2010Prop50
 90
       50
102
RTVSPost2010PropOp50
 70
     1
102
RTVSPost2010Prop51ColorIndex
 90
      256
102
RTVSPost2010Prop51ColorRGB
 90
-16777216
102
RTVSPost2010PropOp51
 70
     0
102
RTVSPost2010Prop52
140
1.0
102
RTVSPost2010PropOp52
 70
     0
102
RTVSPost2010Prop53
 90
        2
102
RTVSPost2010PropOp53
 70
     1
102
RTVSPost2010Prop54
  1
strokes_ogs.tif
102
RTVSPost2010PropOp54
 70
     1
102
RTVSPost2010Prop55
280
     0
102
RTVSPost2010PropOp55
 70
     1
102
RTVSPost2010Prop56
140
1.0
102
RTVSPost2010PropOp56
 70
     1
102
RTVSPost2010Prop57
140
1.0
102
RTVSPost2010PropOp57
 70
     1
102
RTVSPropertyOp0
 70
     1
102
RTVSPropertyOp1
 70
     1
102
RTVSPropertyOp2
 70
     1
102
RTVSPropertyOp3
 70
     1
102
RTVSPropertyOp4
 70
     1
102
RTVSPropertyOp5
 70
     1
102
RTVSPropertyOp6
 70
     1
102
RTVSPropertyOp7
 70
     1
102
RTVSPropertyOp8
 70
     1
102
RTVSPropertyOp9
 70
     1
102
RTVSPropertyOp10
 70
     1
102
RTVSPropertyOp11
 70
     1
102
RTVSPropertyOp12
 70
     1
102
RTVSPropertyOp13
 70
     1
102
RTVSPropertyOp14
 70
     1
102
RTVSPropertyOp15
 70
     1
102
RTVSPropertyOp16
 70
     1
102
RTVSPropertyOp17
 70
     1
102
RTVSPropertyOp18
 70
     1
102
RTVSPropertyOp19
 70
     1
102
RTVSPropertyOp20
 70
     1
102
RTVSPropertyOp21
 70
     1
102
RTVSPropertyOp22
 70
     1
102
RTVSPropertyOp23
 70
     1
102
RTVSPropertyOp24
 70
     1
102
RTVSPropertyOp25
 70
     1
102
RTVSPropertyOp26
 70
     1
102
RTVSPropertyOp27
 70
     1
102
RTVSPropertyOp28
 70
     1
102
RTVSPropertyOp29
 70
     1
102
RTVSPropertyOp30
 70
     1
102
RTVSPropertyOp31
 70
     1
102
RTVSPropertyOp32
 70
     1
102
RTVSPropertyOp33
 70
     1
102
RTVSPropertyOp34
 70
     1
102
RTVSPropertyOp35
 70
     1
102
RTVSPropertyOp36
 70
     1
102
RTVSPropertyOp37
 70
     1
102
RTVSPropertyOp38
 70
     1
102
RTVSPropertyOp39
 70
     1
102
RTVSPropertyOp40
 70
     1
102
RTVSPropertyOp41
 70
     1
102
RTVSPropertyOp42
 70
     1
102
RTVSPropertyOp43
 70
     1
102
RTVSPropertyOp44
 70
     1
102
RTVSPropertyOp45
 70
     1
102
RTVSPropertyOp46
 70
     1
102
RTVSPropertyOp47
 70
     1
102
RTVSPropertyOp48
 70
     1
102
RTVSPropertyOp49
 70
     1
102
RTVSPropertyOp50
 70
     1
102
RTVSPropertyOp51
 70
     0
102
RTVSPropertyOp52
 70
     0
102
RTVSPropertyOp53
 70
     1
102
RTVSPropertyOp54
 70
     1
102
RTVSPropertyOp55
 70
     1
102
RTVSPropertyOp56
 70
     1
102
RTVSPropertyOp57
 70
     1
102
RTVSPropertyOp58
 70
     1
102
RTVSPropertyOp59
 70
     1
102
RTVSPropertyOp60
 70
     1
102
RTVSPropertyOp61
 70
     1
102
RTVSPropertyOp62
 70
     1
  0
XRECORD
  5
41DE
102
{ACAD_REACTORS
330
41DD
102
}
330
41DD
100
AcDbXrecord
280
     1
102
RTVSPost2010Prop28
280
     0
102
RTVSPost2010PropOp28
 70
     1
102
RTVSPost2010Prop29
280
     1
102
RTVSPost2010PropOp29
 70
     1
102
RTVSPost2010Prop30
280
     1
102
RTVSPost2010PropOp30
 70
     1
102
RTVSPost2010Prop31
280
     0
102
RTVSPost2010PropOp31
 70
     1
102
RTVSPost2010Prop32
280
     0
102
RTVSPost2010PropOp32
 70
     1
102
RTVSPost2010Prop33
280
     0
102
RTVSPost2010PropOp33
 70
     1
102
RTVSPost2010Prop34
280
     0
102
RTVSPost2010PropOp34
 70
     1
102
RTVSPost2010Prop35
280
     0
102
RTVSPost2010PropOp35
 70
     1
102
RTVSPost2010Prop36
280
     0
102
RTVSPost2010PropOp36
 70
     1
102
RTVSPost2010Prop37
 90
       50
102
RTVSPost2010PropOp37
 70
     1
102
RTVSPost2010Prop38
140
0.0
102
RTVSPost2010PropOp38
 70
     1
102
RTVSPost2010Prop39
140
1.0
102
RTVSPost2010PropOp39
 70
     1
102
RTVSPost2010Prop40
 90
        0
102
RTVSPost2010PropOp40
 70
     1
102
RTVSPost2010Prop41ColorIndex
 90
       18
102
RTVSPost2010Prop41ColorRGB
 90
        0
102
RTVSPost2010PropOp41
 70
     1
102
RTVSPost2010Prop42
 90
       50
102
RTVSPost2010PropOp42
 70
     1
102
RTVSPost2010Prop43
 90
        3
102
RTVSPost2010PropOp43
 70
     1
102
RTVSPost2010Prop44ColorIndex
 90
        5
102
RTVSPost2010Prop44ColorRGB
 90
      255
102
RTVSPost2010PropOp44
 70
     1
102
RTVSPost2010Prop45
280
     0
102
RTVSPost2010PropOp45
 70
     1
102
RTVSPost2010Prop46
 90
       50
102
RTVSPost2010PropOp46
 70
     1
102
RTVSPost2010Prop47
 90
       50
102
RTVSPost2010PropOp47
 70
     1
102
RTVSPost2010Prop48
 90
       50
102
RTVSPost2010PropOp48
 70
     1
102
RTVSPost2010Prop49
280
     0
102
RTVSPost2010PropOp49
 70
     1
102
RTVSPost2010Prop50
 90
       50
102
RTVSPost2010PropOp50
 70
     1
102
RTVSPost2010Prop51ColorIndex
 90
      256
102
RTVSPost2010Prop51ColorRGB
 90
-16777216
102
RTVSPost2010PropOp51
 70
     0
102
RTVSPost2010Prop52
140
1.0
102
RTVSPost2010PropOp52
 70
     0
102
RTVSPost2010Prop53
 90
        2
102
RTVSPost2010PropOp53
 70
     1
102
RTVSPost2010Prop54
  1
strokes_ogs.tif
102
RTVSPost2010PropOp54
 70
     1
102
RTVSPost2010Prop55
280
     0
102
RTVSPost2010PropOp55
 70
     1
102
RTVSPost2010Prop56
140
1.0
102
RTVSPost2010PropOp56
 70
     1
102
RTVSPost2010Prop57
140
1.0
102
RTVSPost2010PropOp57
 70
     1
102
RTVSPropertyOp0
 70
     1
102
RTVSPropertyOp1
 70
     1
102
RTVSPropertyOp2
 70
     1
102
RTVSPropertyOp3
 70
     1
102
RTVSPropertyOp4
 70
     1
102
RTVSPropertyOp5
 70
     1
102
RTVSPropertyOp6
 70
     1
102
RTVSPropertyOp7
 70
     1
102
RTVSPropertyOp8
 70
     1
102
RTVSPropertyOp9
 70
     1
102
RTVSPropertyOp10
 70
     1
102
RTVSPropertyOp11
 70
     1
102
RTVSPropertyOp12
 70
     1
102
RTVSPropertyOp13
 70
     1
102
RTVSPropertyOp14
 70
     1
102
RTVSPropertyOp15
 70
     1
102
RTVSPropertyOp16
 70
     1
102
RTVSPropertyOp17
 70
     1
102
RTVSPropertyOp18
 70
     1
102
RTVSPropertyOp19
 70
     1
102
RTVSPropertyOp20
 70
     1
102
RTVSPropertyOp21
 70
     1
102
RTVSPropertyOp22
 70
     1
102
RTVSPropertyOp23
 70
     1
102
RTVSPropertyOp24
 70
     1
102
RTVSPropertyOp25
 70
     1
102
RTVSPropertyOp26
 70
     1
102
RTVSPropertyOp27
 70
     1
102
RTVSPropertyOp28
 70
     1
102
RTVSPropertyOp29
 70
     1
102
RTVSPropertyOp30
 70
     1
102
RTVSPropertyOp31
 70
     1
102
RTVSPropertyOp32
 70
     1
102
RTVSPropertyOp33
 70
     1
102
RTVSPropertyOp34
 70
     1
102
RTVSPropertyOp35
 70
     1
102
RTVSPropertyOp36
 70
     1
102
RTVSPropertyOp37
 70
     1
102
RTVSPropertyOp38
 70
     1
102
RTVSPropertyOp39
 70
     1
102
RTVSPropertyOp40
 70
     1
102
RTVSPropertyOp41
 70
     1
102
RTVSPropertyOp42
 70
     1
102
RTVSPropertyOp43
 70
     1
102
RTVSPropertyOp44
 70
     1
102
RTVSPropertyOp45
 70
     1
102
RTVSPropertyOp46
 70
     1
102
RTVSPropertyOp47
 70
     1
102
RTVSPropertyOp48
 70
     1
102
RTVSPropertyOp49
 70
     1
102
RTVSPropertyOp50
 70
     1
102
RTVSPropertyOp51
 70
     0
102
RTVSPropertyOp52
 70
     0
102
RTVSPropertyOp53
 70
     1
102
RTVSPropertyOp54
 70
     1
102
RTVSPropertyOp55
 70
     1
102
RTVSPropertyOp56
 70
     1
102
RTVSPropertyOp57
 70
     1
102
RTVSPropertyOp58
 70
     1
102
RTVSPropertyOp59
 70
     1
102
RTVSPropertyOp60
 70
     1
102
RTVSPropertyOp61
 70
     1
102
RTVSPropertyOp62
 70
     1
  0
XRECORD
  5
41E2
102
{ACAD_REACTORS
330
41E1
102
}
330
41E1
100
AcDbXrecord
280
     1
102
RTVSPost2010Prop28
280
     0
102
RTVSPost2010PropOp28
 70
     1
102
RTVSPost2010Prop29
280
     1
102
RTVSPost2010PropOp29
 70
     1
102
RTVSPost2010Prop30
280
     1
102
RTVSPost2010PropOp30
 70
     1
102
RTVSPost2010Prop31
280
     0
102
RTVSPost2010PropOp31
 70
     1
102
RTVSPost2010Prop32
280
     0
102
RTVSPost2010PropOp32
 70
     1
102
RTVSPost2010Prop33
280
     0
102
RTVSPost2010PropOp33
 70
     1
102
RTVSPost2010Prop34
280
     0
102
RTVSPost2010PropOp34
 70
     1
102
RTVSPost2010Prop35
280
     0
102
RTVSPost2010PropOp35
 70
     1
102
RTVSPost2010Prop36
280
     0
102
RTVSPost2010PropOp36
 70
     1
102
RTVSPost2010Prop37
 90
       50
102
RTVSPost2010PropOp37
 70
     1
102
RTVSPost2010Prop38
140
0.0
102
RTVSPost2010PropOp38
 70
     1
102
RTVSPost2010Prop39
140
1.0
102
RTVSPost2010PropOp39
 70
     1
102
RTVSPost2010Prop40
 90
        0
102
RTVSPost2010PropOp40
 70
     1
102
RTVSPost2010Prop41ColorIndex
 90
       18
102
RTVSPost2010Prop41ColorRGB
 90
        0
102
RTVSPost2010PropOp41
 70
     1
102
RTVSPost2010Prop42
 90
       50
102
RTVSPost2010PropOp42
 70
     1
102
RTVSPost2010Prop43
 90
        3
102
RTVSPost2010PropOp43
 70
     1
102
RTVSPost2010Prop44ColorIndex
 90
        5
102
RTVSPost2010Prop44ColorRGB
 90
      255
102
RTVSPost2010PropOp44
 70
     1
102
RTVSPost2010Prop45
280
     0
102
RTVSPost2010PropOp45
 70
     1
102
RTVSPost2010Prop46
 90
       50
102
RTVSPost2010PropOp46
 70
     1
102
RTVSPost2010Prop47
 90
       50
102
RTVSPost2010PropOp47
 70
     1
102
RTVSPost2010Prop48
 90
       50
102
RTVSPost2010PropOp48
 70
     1
102
RTVSPost2010Prop49
280
     0
102
RTVSPost2010PropOp49
 70
     1
102
RTVSPost2010Prop50
 90
       50
102
RTVSPost2010PropOp50
 70
     1
102
RTVSPost2010Prop51ColorIndex
 90
      256
102
RTVSPost2010Prop51ColorRGB
 90
-16777216
102
RTVSPost2010PropOp51
 70
     0
102
RTVSPost2010Prop52
140
1.0
102
RTVSPost2010PropOp52
 70
     0
102
RTVSPost2010Prop53
 90
        2
102
RTVSPost2010PropOp53
 70
     1
102
RTVSPost2010Prop54
  1
strokes_ogs.tif
102
RTVSPost2010PropOp54
 70
     1
102
RTVSPost2010Prop55
280
     0
102
RTVSPost2010PropOp55
 70
     1
102
RTVSPost2010Prop56
140
1.0
102
RTVSPost2010PropOp56
 70
     1
102
RTVSPost2010Prop57
140
1.0
102
RTVSPost2010PropOp57
 70
     1
102
RTVSPropertyOp0
 70
     1
102
RTVSPropertyOp1
 70
     1
102
RTVSPropertyOp2
 70
     1
102
RTVSPropertyOp3
 70
     1
102
RTVSPropertyOp4
 70
     1
102
RTVSPropertyOp5
 70
     1
102
RTVSPropertyOp6
 70
     1
102
RTVSPropertyOp7
 70
     1
102
RTVSPropertyOp8
 70
     1
102
RTVSPropertyOp9
 70
     1
102
RTVSPropertyOp10
 70
     1
102
RTVSPropertyOp11
 70
     1
102
RTVSPropertyOp12
 70
     1
102
RTVSPropertyOp13
 70
     1
102
RTVSPropertyOp14
 70
     1
102
RTVSPropertyOp15
 70
     1
102
RTVSPropertyOp16
 70
     1
102
RTVSPropertyOp17
 70
     1
102
RTVSPropertyOp18
 70
     1
102
RTVSPropertyOp19
 70
     1
102
RTVSPropertyOp20
 70
     1
102
RTVSPropertyOp21
 70
     1
102
RTVSPropertyOp22
 70
     1
102
RTVSPropertyOp23
 70
     1
102
RTVSPropertyOp24
 70
     1
102
RTVSPropertyOp25
 70
     1
102
RTVSPropertyOp26
 70
     1
102
RTVSPropertyOp27
 70
     1
102
RTVSPropertyOp28
 70
     1
102
RTVSPropertyOp29
 70
     1
102
RTVSPropertyOp30
 70
     1
102
RTVSPropertyOp31
 70
     1
102
RTVSPropertyOp32
 70
     1
102
RTVSPropertyOp33
 70
     1
102
RTVSPropertyOp34
 70
     1
102
RTVSPropertyOp35
 70
     1
102
RTVSPropertyOp36
 70
     1
102
RTVSPropertyOp37
 70
     1
102
RTVSPropertyOp38
 70
     1
102
RTVSPropertyOp39
 70
     1
102
RTVSPropertyOp40
 70
     1
102
RTVSPropertyOp41
 70
     1
102
RTVSPropertyOp42
 70
     1
102
RTVSPropertyOp43
 70
     1
102
RTVSPropertyOp44
 70
     1
102
RTVSPropertyOp45
 70
     1
102
RTVSPropertyOp46
 70
     1
102
RTVSPropertyOp47
 70
     1
102
RTVSPropertyOp48
 70
     1
102
RTVSPropertyOp49
 70
     1
102
RTVSPropertyOp50
 70
     1
102
RTVSPropertyOp51
 70
     0
102
RTVSPropertyOp52
 70
     0
102
RTVSPropertyOp53
 70
     1
102
RTVSPropertyOp54
 70
     1
102
RTVSPropertyOp55
 70
     1
102
RTVSPropertyOp56
 70
     1
102
RTVSPropertyOp57
 70
     1
102
RTVSPropertyOp58
 70
     1
102
RTVSPropertyOp59
 70
     1
102
RTVSPropertyOp60
 70
     1
102
RTVSPropertyOp61
 70
     1
102
RTVSPropertyOp62
 70
     1
  0
XRECORD
  5
41FC
102
{ACAD_REACTORS
330
41FB
102
}
330
41FB
100
AcDbXrecord
280
     1
102
RTVSPost2010Prop28
280
     0
102
RTVSPost2010PropOp28
 70
     1
102
RTVSPost2010Prop29
280
     1
102
RTVSPost2010PropOp29
 70
     1
102
RTVSPost2010Prop30
280
     1
102
RTVSPost2010PropOp30
 70
     1
102
RTVSPost2010Prop31
280
     0
102
RTVSPost2010PropOp31
 70
     1
102
RTVSPost2010Prop32
280
     0
102
RTVSPost2010PropOp32
 70
     1
102
RTVSPost2010Prop33
280
     0
102
RTVSPost2010PropOp33
 70
     1
102
RTVSPost2010Prop34
280
     0
102
RTVSPost2010PropOp34
 70
     1
102
RTVSPost2010Prop35
280
     0
102
RTVSPost2010PropOp35
 70
     1
102
RTVSPost2010Prop36
280
     0
102
RTVSPost2010PropOp36
 70
     1
102
RTVSPost2010Prop37
 90
       50
102
RTVSPost2010PropOp37
 70
     0
102
RTVSPost2010Prop38
140
0.0
102
RTVSPost2010PropOp38
 70
     0
102
RTVSPost2010Prop39
140
1.0
102
RTVSPost2010PropOp39
 70
     0
102
RTVSPost2010Prop40
 90
        0
102
RTVSPost2010PropOp40
 70
     0
102
RTVSPost2010Prop41ColorIndex
 90
       18
102
RTVSPost2010Prop41ColorRGB
 90
        0
102
RTVSPost2010PropOp41
 70
     0
102
RTVSPost2010Prop42
 90
       50
102
RTVSPost2010PropOp42
 70
     0
102
RTVSPost2010Prop43
 90
        3
102
RTVSPost2010PropOp43
 70
     0
102
RTVSPost2010Prop44ColorIndex
 90
        5
102
RTVSPost2010Prop44ColorRGB
 90
      255
102
RTVSPost2010PropOp44
 70
     0
102
RTVSPost2010Prop45
280
     0
102
RTVSPost2010PropOp45
 70
     1
102
RTVSPost2010Prop46
 90
       50
102
RTVSPost2010PropOp46
 70
     0
102
RTVSPost2010Prop47
 90
       50
102
RTVSPost2010PropOp47
 70
     0
102
RTVSPost2010Prop48
 90
       50
102
RTVSPost2010PropOp48
 70
     0
102
RTVSPost2010Prop49
280
     0
102
RTVSPost2010PropOp49
 70
     1
102
RTVSPost2010Prop50
 90
       50
102
RTVSPost2010PropOp50
 70
     0
102
RTVSPost2010Prop51ColorIndex
 90
      256
102
RTVSPost2010Prop51ColorRGB
 90
-16777216
102
RTVSPost2010PropOp51
 70
     0
102
RTVSPost2010Prop52
140
1.0
102
RTVSPost2010PropOp52
 70
     0
102
RTVSPost2010Prop53
 90
        2
102
RTVSPost2010PropOp53
 70
     0
102
RTVSPost2010Prop54
  1
strokes_ogs.tif
102
RTVSPost2010PropOp54
 70
     0
102
RTVSPost2010Prop55
280
     0
102
RTVSPost2010PropOp55
 70
     1
102
RTVSPost2010Prop56
140
1.0
102
RTVSPost2010PropOp56
 70
     0
102
RTVSPost2010Prop57
140
1.0
102
RTVSPost2010PropOp57
 70
     0
102
RTVSPropertyOp0
 70
     0
102
RTVSPropertyOp1
 70
     0
102
RTVSPropertyOp2
 70
     0
102
RTVSPropertyOp3
 70
     0
102
RTVSPropertyOp4
 70
     0
102
RTVSPropertyOp5
 70
     0
102
RTVSPropertyOp6
 70
     0
102
RTVSPropertyOp7
 70
     0
102
RTVSPropertyOp8
 70
     0
102
RTVSPropertyOp9
 70
     0
102
RTVSPropertyOp10
 70
     0
102
RTVSPropertyOp11
 70
     0
102
RTVSPropertyOp12
 70
     0
102
RTVSPropertyOp13
 70
     0
102
RTVSPropertyOp14
 70
     2
102
RTVSPropertyOp15
 70
     0
102
RTVSPropertyOp16
 70
     0
102
RTVSPropertyOp17
 70
     0
102
RTVSPropertyOp18
 70
     0
102
RTVSPropertyOp19
 70
     0
102
RTVSPropertyOp20
 70
     0
102
RTVSPropertyOp21
 70
     0
102
RTVSPropertyOp22
 70
     0
102
RTVSPropertyOp23
 70
     0
102
RTVSPropertyOp24
 70
     0
102
RTVSPropertyOp25
 70
     0
102
RTVSPropertyOp26
 70
     0
102
RTVSPropertyOp27
 70
     0
102
RTVSPropertyOp28
 70
     1
102
RTVSPropertyOp29
 70
     1
102
RTVSPropertyOp30
 70
     1
102
RTVSPropertyOp31
 70
     1
102
RTVSPropertyOp32
 70
     1
102
RTVSPropertyOp33
 70
     1
102
RTVSPropertyOp34
 70
     1
102
RTVSPropertyOp35
 70
     1
102
RTVSPropertyOp36
 70
     1
102
RTVSPropertyOp37
 70
     0
102
RTVSPropertyOp38
 70
     0
102
RTVSPropertyOp39
 70
     0
102
RTVSPropertyOp40
 70
     0
102
RTVSPropertyOp41
 70
     0
102
RTVSPropertyOp42
 70
     0
102
RTVSPropertyOp43
 70
     0
102
RTVSPropertyOp44
 70
     0
102
RTVSPropertyOp45
 70
     1
102
RTVSPropertyOp46
 70
     0
102
RTVSPropertyOp47
 70
     0
102
RTVSPropertyOp48
 70
     0
102
RTVSPropertyOp49
 70
     1
102
RTVSPropertyOp50
 70
     0
102
RTVSPropertyOp51
 70
     0
102
RTVSPropertyOp52
 70
     0
102
RTVSPropertyOp53
 70
     0
102
RTVSPropertyOp54
 70
     0
102
RTVSPropertyOp55
 70
     1
102
RTVSPropertyOp56
 70
     0
102
RTVSPropertyOp57
 70
     0
102
RTVSPropertyOp58
 70
     0
102
RTVSPropertyOp59
 70
     0
102
RTVSPropertyOp60
 70
     0
102
RTVSPropertyOp61
 70
     0
102
RTVSPropertyOp62
 70
     0
  0
XRECORD
  5
41EA
102
{ACAD_REACTORS
330
41E9
102
}
330
41E9
100
AcDbXrecord
280
     1
102
RTVSPost2010Prop28
280
     0
102
RTVSPost2010PropOp28
 70
     1
102
RTVSPost2010Prop29
280
     1
102
RTVSPost2010PropOp29
 70
     1
102
RTVSPost2010Prop30
280
     1
102
RTVSPost2010PropOp30
 70
     1
102
RTVSPost2010Prop31
280
     0
102
RTVSPost2010PropOp31
 70
     1
102
RTVSPost2010Prop32
280
     0
102
RTVSPost2010PropOp32
 70
     1
102
RTVSPost2010Prop33
280
     0
102
RTVSPost2010PropOp33
 70
     1
102
RTVSPost2010Prop34
280
     0
102
RTVSPost2010PropOp34
 70
     1
102
RTVSPost2010Prop35
280
     0
102
RTVSPost2010PropOp35
 70
     1
102
RTVSPost2010Prop36
280
     0
102
RTVSPost2010PropOp36
 70
     1
102
RTVSPost2010Prop37
 90
       50
102
RTVSPost2010PropOp37
 70
     1
102
RTVSPost2010Prop38
140
0.0
102
RTVSPost2010PropOp38
 70
     1
102
RTVSPost2010Prop39
140
1.0
102
RTVSPost2010PropOp39
 70
     1
102
RTVSPost2010Prop40
 90
        0
102
RTVSPost2010PropOp40
 70
     1
102
RTVSPost2010Prop41ColorIndex
 90
       18
102
RTVSPost2010Prop41ColorRGB
 90
        0
102
RTVSPost2010PropOp41
 70
     1
102
RTVSPost2010Prop42
 90
       50
102
RTVSPost2010PropOp42
 70
     1
102
RTVSPost2010Prop43
 90
        3
102
RTVSPost2010PropOp43
 70
     1
102
RTVSPost2010Prop44ColorIndex
 90
        5
102
RTVSPost2010Prop44ColorRGB
 90
      255
102
RTVSPost2010PropOp44
 70
     1
102
RTVSPost2010Prop45
280
     0
102
RTVSPost2010PropOp45
 70
     1
102
RTVSPost2010Prop46
 90
       50
102
RTVSPost2010PropOp46
 70
     1
102
RTVSPost2010Prop47
 90
       50
102
RTVSPost2010PropOp47
 70
     1
102
RTVSPost2010Prop48
 90
       50
102
RTVSPost2010PropOp48
 70
     1
102
RTVSPost2010Prop49
280
     0
102
RTVSPost2010PropOp49
 70
     1
102
RTVSPost2010Prop50
 90
       50
102
RTVSPost2010PropOp50
 70
     1
102
RTVSPost2010Prop51ColorIndex
 90
      256
102
RTVSPost2010Prop51ColorRGB
 90
-16777216
102
RTVSPost2010PropOp51
 70
     0
102
RTVSPost2010Prop52
140
1.0
102
RTVSPost2010PropOp52
 70
     0
102
RTVSPost2010Prop53
 90
        2
102
RTVSPost2010PropOp53
 70
     1
102
RTVSPost2010Prop54
  1
strokes_ogs.tif
102
RTVSPost2010PropOp54
 70
     1
102
RTVSPost2010Prop55
280
     0
102
RTVSPost2010PropOp55
 70
     1
102
RTVSPost2010Prop56
140
1.0
102
RTVSPost2010PropOp56
 70
     1
102
RTVSPost2010Prop57
140
1.0
102
RTVSPost2010PropOp57
 70
     1
102
RTVSPropertyOp0
 70
     1
102
RTVSPropertyOp1
 70
     1
102
RTVSPropertyOp2
 70
     1
102
RTVSPropertyOp3
 70
     1
102
RTVSPropertyOp4
 70
     1
102
RTVSPropertyOp5
 70
     1
102
RTVSPropertyOp6
 70
     1
102
RTVSPropertyOp7
 70
     1
102
RTVSPropertyOp8
 70
     1
102
RTVSPropertyOp9
 70
     1
102
RTVSPropertyOp10
 70
     1
102
RTVSPropertyOp11
 70
     1
102
RTVSPropertyOp12
 70
     1
102
RTVSPropertyOp13
 70
     1
102
RTVSPropertyOp14
 70
     1
102
RTVSPropertyOp15
 70
     1
102
RTVSPropertyOp16
 70
     1
102
RTVSPropertyOp17
 70
     1
102
RTVSPropertyOp18
 70
     1
102
RTVSPropertyOp19
 70
     1
102
RTVSPropertyOp20
 70
     1
102
RTVSPropertyOp21
 70
     1
102
RTVSPropertyOp22
 70
     1
102
RTVSPropertyOp23
 70
     1
102
RTVSPropertyOp24
 70
     1
102
RTVSPropertyOp25
 70
     1
102
RTVSPropertyOp26
 70
     1
102
RTVSPropertyOp27
 70
     1
102
RTVSPropertyOp28
 70
     1
102
RTVSPropertyOp29
 70
     1
102
RTVSPropertyOp30
 70
     1
102
RTVSPropertyOp31
 70
     1
102
RTVSPropertyOp32
 70
     1
102
RTVSPropertyOp33
 70
     1
102
RTVSPropertyOp34
 70
     1
102
RTVSPropertyOp35
 70
     1
102
RTVSPropertyOp36
 70
     1
102
RTVSPropertyOp37
 70
     1
102
RTVSPropertyOp38
 70
     1
102
RTVSPropertyOp39
 70
     1
102
RTVSPropertyOp40
 70
     1
102
RTVSPropertyOp41
 70
     1
102
RTVSPropertyOp42
 70
     1
102
RTVSPropertyOp43
 70
     1
102
RTVSPropertyOp44
 70
     1
102
RTVSPropertyOp45
 70
     1
102
RTVSPropertyOp46
 70
     1
102
RTVSPropertyOp47
 70
     1
102
RTVSPropertyOp48
 70
     1
102
RTVSPropertyOp49
 70
     1
102
RTVSPropertyOp50
 70
     1
102
RTVSPropertyOp51
 70
     0
102
RTVSPropertyOp52
 70
     0
102
RTVSPropertyOp53
 70
     1
102
RTVSPropertyOp54
 70
     1
102
RTVSPropertyOp55
 70
     1
102
RTVSPropertyOp56
 70
     1
102
RTVSPropertyOp57
 70
     1
102
RTVSPropertyOp58
 70
     1
102
RTVSPropertyOp59
 70
     1
102
RTVSPropertyOp60
 70
     1
102
RTVSPropertyOp61
 70
     1
102
RTVSPropertyOp62
 70
     1
  0
XRECORD
  5
41CE
102
{ACAD_REACTORS
330
41CD
102
}
330
41CD
100
AcDbXrecord
280
     1
102
RTVSPost2010Prop28
280
     0
102
RTVSPost2010PropOp28
 70
     1
102
RTVSPost2010Prop29
280
     1
102
RTVSPost2010PropOp29
 70
     1
102
RTVSPost2010Prop30
280
     1
102
RTVSPost2010PropOp30
 70
     1
102
RTVSPost2010Prop31
280
     0
102
RTVSPost2010PropOp31
 70
     1
102
RTVSPost2010Prop32
280
     0
102
RTVSPost2010PropOp32
 70
     1
102
RTVSPost2010Prop33
280
     0
102
RTVSPost2010PropOp33
 70
     1
102
RTVSPost2010Prop34
280
     0
102
RTVSPost2010PropOp34
 70
     1
102
RTVSPost2010Prop35
280
     0
102
RTVSPost2010PropOp35
 70
     1
102
RTVSPost2010Prop36
280
     0
102
RTVSPost2010PropOp36
 70
     1
102
RTVSPost2010Prop37
 90
       50
102
RTVSPost2010PropOp37
 70
     1
102
RTVSPost2010Prop38
140
0.0
102
RTVSPost2010PropOp38
 70
     1
102
RTVSPost2010Prop39
140
1.0
102
RTVSPost2010PropOp39
 70
     1
102
RTVSPost2010Prop40
 90
        0
102
RTVSPost2010PropOp40
 70
     1
102
RTVSPost2010Prop41ColorIndex
 90
       18
102
RTVSPost2010Prop41ColorRGB
 90
        0
102
RTVSPost2010PropOp41
 70
     1
102
RTVSPost2010Prop42
 90
       50
102
RTVSPost2010PropOp42
 70
     1
102
RTVSPost2010Prop43
 90
        3
102
RTVSPost2010PropOp43
 70
     1
102
RTVSPost2010Prop44ColorIndex
 90
        5
102
RTVSPost2010Prop44ColorRGB
 90
      255
102
RTVSPost2010PropOp44
 70
     1
102
RTVSPost2010Prop45
280
     0
102
RTVSPost2010PropOp45
 70
     1
102
RTVSPost2010Prop46
 90
       50
102
RTVSPost2010PropOp46
 70
     1
102
RTVSPost2010Prop47
 90
       50
102
RTVSPost2010PropOp47
 70
     1
102
RTVSPost2010Prop48
 90
       50
102
RTVSPost2010PropOp48
 70
     1
102
RTVSPost2010Prop49
280
     0
102
RTVSPost2010PropOp49
 70
     1
102
RTVSPost2010Prop50
 90
       50
102
RTVSPost2010PropOp50
 70
     1
102
RTVSPost2010Prop51ColorIndex
 90
      256
102
RTVSPost2010Prop51ColorRGB
 90
-16777216
102
RTVSPost2010PropOp51
 70
     0
102
RTVSPost2010Prop52
140
1.0
102
RTVSPost2010PropOp52
 70
     0
102
RTVSPost2010Prop53
 90
        2
102
RTVSPost2010PropOp53
 70
     1
102
RTVSPost2010Prop54
  1
strokes_ogs.tif
102
RTVSPost2010PropOp54
 70
     1
102
RTVSPost2010Prop55
280
     0
102
RTVSPost2010PropOp55
 70
     1
102
RTVSPost2010Prop56
140
1.0
102
RTVSPost2010PropOp56
 70
     1
102
RTVSPost2010Prop57
140
1.0
102
RTVSPost2010PropOp57
 70
     1
102
RTVSPropertyOp0
 70
     1
102
RTVSPropertyOp1
 70
     1
102
RTVSPropertyOp2
 70
     1
102
RTVSPropertyOp3
 70
     1
102
RTVSPropertyOp4
 70
     1
102
RTVSPropertyOp5
 70
     1
102
RTVSPropertyOp6
 70
     1
102
RTVSPropertyOp7
 70
     1
102
RTVSPropertyOp8
 70
     1
102
RTVSPropertyOp9
 70
     1
102
RTVSPropertyOp10
 70
     1
102
RTVSPropertyOp11
 70
     1
102
RTVSPropertyOp12
 70
     1
102
RTVSPropertyOp13
 70
     1
102
RTVSPropertyOp14
 70
     1
102
RTVSPropertyOp15
 70
     1
102
RTVSPropertyOp16
 70
     1
102
RTVSPropertyOp17
 70
     1
102
RTVSPropertyOp18
 70
     1
102
RTVSPropertyOp19
 70
     1
102
RTVSPropertyOp20
 70
     1
102
RTVSPropertyOp21
 70
     1
102
RTVSPropertyOp22
 70
     1
102
RTVSPropertyOp23
 70
     1
102
RTVSPropertyOp24
 70
     1
102
RTVSPropertyOp25
 70
     1
102
RTVSPropertyOp26
 70
     1
102
RTVSPropertyOp27
 70
     1
102
RTVSPropertyOp28
 70
     1
102
RTVSPropertyOp29
 70
     1
102
RTVSPropertyOp30
 70
     1
102
RTVSPropertyOp31
 70
     1
102
RTVSPropertyOp32
 70
     1
102
RTVSPropertyOp33
 70
     1
102
RTVSPropertyOp34
 70
     1
102
RTVSPropertyOp35
 70
     1
102
RTVSPropertyOp36
 70
     1
102
RTVSPropertyOp37
 70
     1
102
RTVSPropertyOp38
 70
     1
102
RTVSPropertyOp39
 70
     1
102
RTVSPropertyOp40
 70
     1
102
RTVSPropertyOp41
 70
     1
102
RTVSPropertyOp42
 70
     1
102
RTVSPropertyOp43
 70
     1
102
RTVSPropertyOp44
 70
     1
102
RTVSPropertyOp45
 70
     1
102
RTVSPropertyOp46
 70
     1
102
RTVSPropertyOp47
 70
     1
102
RTVSPropertyOp48
 70
     1
102
RTVSPropertyOp49
 70
     1
102
RTVSPropertyOp50
 70
     1
102
RTVSPropertyOp51
 70
     0
102
RTVSPropertyOp52
 70
     0
102
RTVSPropertyOp53
 70
     1
102
RTVSPropertyOp54
 70
     1
102
RTVSPropertyOp55
 70
     1
102
RTVSPropertyOp56
 70
     1
102
RTVSPropertyOp57
 70
     1
102
RTVSPropertyOp58
 70
     1
102
RTVSPropertyOp59
 70
     1
102
RTVSPropertyOp60
 70
     1
102
RTVSPropertyOp61
 70
     1
102
RTVSPropertyOp62
 70
     1
  0
XRECORD
  5
41D0
102
{ACAD_REACTORS
330
41CF
102
}
330
41CF
100
AcDbXrecord
280
     1
102
RTVSPost2010Prop28
280
     0
102
RTVSPost2010PropOp28
 70
     1
102
RTVSPost2010Prop29
280
     1
102
RTVSPost2010PropOp29
 70
     1
102
RTVSPost2010Prop30
280
     1
102
RTVSPost2010PropOp30
 70
     1
102
RTVSPost2010Prop31
280
     0
102
RTVSPost2010PropOp31
 70
     1
102
RTVSPost2010Prop32
280
     0
102
RTVSPost2010PropOp32
 70
     1
102
RTVSPost2010Prop33
280
     0
102
RTVSPost2010PropOp33
 70
     1
102
RTVSPost2010Prop34
280
     0
102
RTVSPost2010PropOp34
 70
     1
102
RTVSPost2010Prop35
280
     0
102
RTVSPost2010PropOp35
 70
     1
102
RTVSPost2010Prop36
280
     0
102
RTVSPost2010PropOp36
 70
     1
102
RTVSPost2010Prop37
 90
       50
102
RTVSPost2010PropOp37
 70
     1
102
RTVSPost2010Prop38
140
0.0
102
RTVSPost2010PropOp38
 70
     1
102
RTVSPost2010Prop39
140
1.0
102
RTVSPost2010PropOp39
 70
     1
102
RTVSPost2010Prop40
 90
        0
102
RTVSPost2010PropOp40
 70
     1
102
RTVSPost2010Prop41ColorIndex
 90
       18
102
RTVSPost2010Prop41ColorRGB
 90
        0
102
RTVSPost2010PropOp41
 70
     1
102
RTVSPost2010Prop42
 90
       50
102
RTVSPost2010PropOp42
 70
     1
102
RTVSPost2010Prop43
 90
        3
102
RTVSPost2010PropOp43
 70
     1
102
RTVSPost2010Prop44ColorIndex
 90
        5
102
RTVSPost2010Prop44ColorRGB
 90
      255
102
RTVSPost2010PropOp44
 70
     1
102
RTVSPost2010Prop45
280
     0
102
RTVSPost2010PropOp45
 70
     1
102
RTVSPost2010Prop46
 90
       50
102
RTVSPost2010PropOp46
 70
     1
102
RTVSPost2010Prop47
 90
       50
102
RTVSPost2010PropOp47
 70
     1
102
RTVSPost2010Prop48
 90
       50
102
RTVSPost2010PropOp48
 70
     1
102
RTVSPost2010Prop49
280
     0
102
RTVSPost2010PropOp49
 70
     1
102
RTVSPost2010Prop50
 90
       50
102
RTVSPost2010PropOp50
 70
     1
102
RTVSPost2010Prop51ColorIndex
 90
      256
102
RTVSPost2010Prop51ColorRGB
 90
-16777216
102
RTVSPost2010PropOp51
 70
     0
102
RTVSPost2010Prop52
140
1.0
102
RTVSPost2010PropOp52
 70
     0
102
RTVSPost2010Prop53
 90
        2
102
RTVSPost2010PropOp53
 70
     1
102
RTVSPost2010Prop54
  1
strokes_ogs.tif
102
RTVSPost2010PropOp54
 70
     1
102
RTVSPost2010Prop55
280
     0
102
RTVSPost2010PropOp55
 70
     1
102
RTVSPost2010Prop56
140
1.0
102
RTVSPost2010PropOp56
 70
     1
102
RTVSPost2010Prop57
140
1.0
102
RTVSPost2010PropOp57
 70
     1
102
RTVSPropertyOp0
 70
     1
102
RTVSPropertyOp1
 70
     1
102
RTVSPropertyOp2
 70
     1
102
RTVSPropertyOp3
 70
     1
102
RTVSPropertyOp4
 70
     1
102
RTVSPropertyOp5
 70
     1
102
RTVSPropertyOp6
 70
     1
102
RTVSPropertyOp7
 70
     1
102
RTVSPropertyOp8
 70
     1
102
RTVSPropertyOp9
 70
     1
102
RTVSPropertyOp10
 70
     1
102
RTVSPropertyOp11
 70
     1
102
RTVSPropertyOp12
 70
     1
102
RTVSPropertyOp13
 70
     1
102
RTVSPropertyOp14
 70
     1
102
RTVSPropertyOp15
 70
     1
102
RTVSPropertyOp16
 70
     1
102
RTVSPropertyOp17
 70
     1
102
RTVSPropertyOp18
 70
     1
102
RTVSPropertyOp19
 70
     1
102
RTVSPropertyOp20
 70
     1
102
RTVSPropertyOp21
 70
     1
102
RTVSPropertyOp22
 70
     1
102
RTVSPropertyOp23
 70
     1
102
RTVSPropertyOp24
 70
     1
102
RTVSPropertyOp25
 70
     1
102
RTVSPropertyOp26
 70
     1
102
RTVSPropertyOp27
 70
     1
102
RTVSPropertyOp28
 70
     1
102
RTVSPropertyOp29
 70
     1
102
RTVSPropertyOp30
 70
     1
102
RTVSPropertyOp31
 70
     1
102
RTVSPropertyOp32
 70
     1
102
RTVSPropertyOp33
 70
     1
102
RTVSPropertyOp34
 70
     1
102
RTVSPropertyOp35
 70
     1
102
RTVSPropertyOp36
 70
     1
102
RTVSPropertyOp37
 70
     1
102
RTVSPropertyOp38
 70
     1
102
RTVSPropertyOp39
 70
     1
102
RTVSPropertyOp40
 70
     1
102
RTVSPropertyOp41
 70
     1
102
RTVSPropertyOp42
 70
     1
102
RTVSPropertyOp43
 70
     1
102
RTVSPropertyOp44
 70
     1
102
RTVSPropertyOp45
 70
     1
102
RTVSPropertyOp46
 70
     1
102
RTVSPropertyOp47
 70
     1
102
RTVSPropertyOp48
 70
     1
102
RTVSPropertyOp49
 70
     1
102
RTVSPropertyOp50
 70
     1
102
RTVSPropertyOp51
 70
     0
102
RTVSPropertyOp52
 70
     0
102
RTVSPropertyOp53
 70
     1
102
RTVSPropertyOp54
 70
     1
102
RTVSPropertyOp55
 70
     1
102
RTVSPropertyOp56
 70
     1
102
RTVSPropertyOp57
 70
     1
102
RTVSPropertyOp58
 70
     1
102
RTVSPropertyOp59
 70
     1
102
RTVSPropertyOp60
 70
     1
102
RTVSPropertyOp61
 70
     1
102
RTVSPropertyOp62
 70
     1
  0
XRECORD
  5
41D2
102
{ACAD_REACTORS
330
41D1
102
}
330
41D1
100
AcDbXrecord
280
     1
102
RTVSPost2010Prop28
280
     0
102
RTVSPost2010PropOp28
 70
     1
102
RTVSPost2010Prop29
280
     1
102
RTVSPost2010PropOp29
 70
     1
102
RTVSPost2010Prop30
280
     1
102
RTVSPost2010PropOp30
 70
     1
102
RTVSPost2010Prop31
280
     0
102
RTVSPost2010PropOp31
 70
     1
102
RTVSPost2010Prop32
280
     0
102
RTVSPost2010PropOp32
 70
     1
102
RTVSPost2010Prop33
280
     0
102
RTVSPost2010PropOp33
 70
     1
102
RTVSPost2010Prop34
280
     0
102
RTVSPost2010PropOp34
 70
     1
102
RTVSPost2010Prop35
280
     0
102
RTVSPost2010PropOp35
 70
     1
102
RTVSPost2010Prop36
280
     0
102
RTVSPost2010PropOp36
 70
     1
102
RTVSPost2010Prop37
 90
       50
102
RTVSPost2010PropOp37
 70
     1
102
RTVSPost2010Prop38
140
0.0
102
RTVSPost2010PropOp38
 70
     1
102
RTVSPost2010Prop39
140
1.0
102
RTVSPost2010PropOp39
 70
     1
102
RTVSPost2010Prop40
 90
        0
102
RTVSPost2010PropOp40
 70
     1
102
RTVSPost2010Prop41ColorIndex
 90
       18
102
RTVSPost2010Prop41ColorRGB
 90
        0
102
RTVSPost2010PropOp41
 70
     1
102
RTVSPost2010Prop42
 90
       50
102
RTVSPost2010PropOp42
 70
     1
102
RTVSPost2010Prop43
 90
        3
102
RTVSPost2010PropOp43
 70
     1
102
RTVSPost2010Prop44ColorIndex
 90
        5
102
RTVSPost2010Prop44ColorRGB
 90
      255
102
RTVSPost2010PropOp44
 70
     1
102
RTVSPost2010Prop45
280
     0
102
RTVSPost2010PropOp45
 70
     1
102
RTVSPost2010Prop46
 90
       50
102
RTVSPost2010PropOp46
 70
     1
102
RTVSPost2010Prop47
 90
       50
102
RTVSPost2010PropOp47
 70
     1
102
RTVSPost2010Prop48
 90
       50
102
RTVSPost2010PropOp48
 70
     1
102
RTVSPost2010Prop49
280
     0
102
RTVSPost2010PropOp49
 70
     1
102
RTVSPost2010Prop50
 90
       50
102
RTVSPost2010PropOp50
 70
     1
102
RTVSPost2010Prop51ColorIndex
 90
      256
102
RTVSPost2010Prop51ColorRGB
 90
-16777216
102
RTVSPost2010PropOp51
 70
     0
102
RTVSPost2010Prop52
140
1.0
102
RTVSPost2010PropOp52
 70
     0
102
RTVSPost2010Prop53
 90
        2
102
RTVSPost2010PropOp53
 70
     1
102
RTVSPost2010Prop54
  1
strokes_ogs.tif
102
RTVSPost2010PropOp54
 70
     1
102
RTVSPost2010Prop55
280
     0
102
RTVSPost2010PropOp55
 70
     1
102
RTVSPost2010Prop56
140
1.0
102
RTVSPost2010PropOp56
 70
     1
102
RTVSPost2010Prop57
140
1.0
102
RTVSPost2010PropOp57
 70
     1
102
RTVSPropertyOp0
 70
     1
102
RTVSPropertyOp1
 70
     1
102
RTVSPropertyOp2
 70
     1
102
RTVSPropertyOp3
 70
     1
102
RTVSPropertyOp4
 70
     1
102
RTVSPropertyOp5
 70
     1
102
RTVSPropertyOp6
 70
     1
102
RTVSPropertyOp7
 70
     1
102
RTVSPropertyOp8
 70
     1
102
RTVSPropertyOp9
 70
     1
102
RTVSPropertyOp10
 70
     1
102
RTVSPropertyOp11
 70
     1
102
RTVSPropertyOp12
 70
     1
102
RTVSPropertyOp13
 70
     1
102
RTVSPropertyOp14
 70
     1
102
RTVSPropertyOp15
 70
     1
102
RTVSPropertyOp16
 70
     1
102
RTVSPropertyOp17
 70
     1
102
RTVSPropertyOp18
 70
     1
102
RTVSPropertyOp19
 70
     1
102
RTVSPropertyOp20
 70
     1
102
RTVSPropertyOp21
 70
     1
102
RTVSPropertyOp22
 70
     1
102
RTVSPropertyOp23
 70
     1
102
RTVSPropertyOp24
 70
     1
102
RTVSPropertyOp25
 70
     1
102
RTVSPropertyOp26
 70
     1
102
RTVSPropertyOp27
 70
     1
102
RTVSPropertyOp28
 70
     1
102
RTVSPropertyOp29
 70
     1
102
RTVSPropertyOp30
 70
     1
102
RTVSPropertyOp31
 70
     1
102
RTVSPropertyOp32
 70
     1
102
RTVSPropertyOp33
 70
     1
102
RTVSPropertyOp34
 70
     1
102
RTVSPropertyOp35
 70
     1
102
RTVSPropertyOp36
 70
     1
102
RTVSPropertyOp37
 70
     1
102
RTVSPropertyOp38
 70
     1
102
RTVSPropertyOp39
 70
     1
102
RTVSPropertyOp40
 70
     1
102
RTVSPropertyOp41
 70
     1
102
RTVSPropertyOp42
 70
     1
102
RTVSPropertyOp43
 70
     1
102
RTVSPropertyOp44
 70
     1
102
RTVSPropertyOp45
 70
     1
102
RTVSPropertyOp46
 70
     1
102
RTVSPropertyOp47
 70
     1
102
RTVSPropertyOp48
 70
     1
102
RTVSPropertyOp49
 70
     1
102
RTVSPropertyOp50
 70
     1
102
RTVSPropertyOp51
 70
     0
102
RTVSPropertyOp52
 70
     0
102
RTVSPropertyOp53
 70
     1
102
RTVSPropertyOp54
 70
     1
102
RTVSPropertyOp55
 70
     1
102
RTVSPropertyOp56
 70
     1
102
RTVSPropertyOp57
 70
     1
102
RTVSPropertyOp58
 70
     1
102
RTVSPropertyOp59
 70
     1
102
RTVSPropertyOp60
 70
     1
102
RTVSPropertyOp61
 70
     1
102
RTVSPropertyOp62
 70
     1
  0
XRECORD
  5
41D4
102
{ACAD_REACTORS
330
41D3
102
}
330
41D3
100
AcDbXrecord
280
     1
102
RTVSPost2010Prop28
280
     0
102
RTVSPost2010PropOp28
 70
     1
102
RTVSPost2010Prop29
280
     1
102
RTVSPost2010PropOp29
 70
     1
102
RTVSPost2010Prop30
280
     1
102
RTVSPost2010PropOp30
 70
     1
102
RTVSPost2010Prop31
280
     0
102
RTVSPost2010PropOp31
 70
     1
102
RTVSPost2010Prop32
280
     0
102
RTVSPost2010PropOp32
 70
     1
102
RTVSPost2010Prop33
280
     0
102
RTVSPost2010PropOp33
 70
     1
102
RTVSPost2010Prop34
280
     0
102
RTVSPost2010PropOp34
 70
     1
102
RTVSPost2010Prop35
280
     0
102
RTVSPost2010PropOp35
 70
     1
102
RTVSPost2010Prop36
280
     0
102
RTVSPost2010PropOp36
 70
     1
102
RTVSPost2010Prop37
 90
       50
102
RTVSPost2010PropOp37
 70
     1
102
RTVSPost2010Prop38
140
0.0
102
RTVSPost2010PropOp38
 70
     1
102
RTVSPost2010Prop39
140
1.0
102
RTVSPost2010PropOp39
 70
     1
102
RTVSPost2010Prop40
 90
        0
102
RTVSPost2010PropOp40
 70
     1
102
RTVSPost2010Prop41ColorIndex
 90
       18
102
RTVSPost2010Prop41ColorRGB
 90
        0
102
RTVSPost2010PropOp41
 70
     1
102
RTVSPost2010Prop42
 90
       50
102
RTVSPost2010PropOp42
 70
     1
102
RTVSPost2010Prop43
 90
        3
102
RTVSPost2010PropOp43
 70
     1
102
RTVSPost2010Prop44ColorIndex
 90
        5
102
RTVSPost2010Prop44ColorRGB
 90
      255
102
RTVSPost2010PropOp44
 70
     1
102
RTVSPost2010Prop45
280
     0
102
RTVSPost2010PropOp45
 70
     1
102
RTVSPost2010Prop46
 90
       50
102
RTVSPost2010PropOp46
 70
     1
102
RTVSPost2010Prop47
 90
       50
102
RTVSPost2010PropOp47
 70
     1
102
RTVSPost2010Prop48
 90
       50
102
RTVSPost2010PropOp48
 70
     1
102
RTVSPost2010Prop49
280
     0
102
RTVSPost2010PropOp49
 70
     1
102
RTVSPost2010Prop50
 90
       50
102
RTVSPost2010PropOp50
 70
     1
102
RTVSPost2010Prop51ColorIndex
 90
      256
102
RTVSPost2010Prop51ColorRGB
 90
-16777216
102
RTVSPost2010PropOp51
 70
     0
102
RTVSPost2010Prop52
140
1.0
102
RTVSPost2010PropOp52
 70
     0
102
RTVSPost2010Prop53
 90
        2
102
RTVSPost2010PropOp53
 70
     1
102
RTVSPost2010Prop54
  1
strokes_ogs.tif
102
RTVSPost2010PropOp54
 70
     1
102
RTVSPost2010Prop55
280
     0
102
RTVSPost2010PropOp55
 70
     1
102
RTVSPost2010Prop56
140
1.0
102
RTVSPost2010PropOp56
 70
     1
102
RTVSPost2010Prop57
140
1.0
102
RTVSPost2010PropOp57
 70
     1
102
RTVSPropertyOp0
 70
     1
102
RTVSPropertyOp1
 70
     1
102
RTVSPropertyOp2
 70
     1
102
RTVSPropertyOp3
 70
     1
102
RTVSPropertyOp4
 70
     1
102
RTVSPropertyOp5
 70
     1
102
RTVSPropertyOp6
 70
     1
102
RTVSPropertyOp7
 70
     1
102
RTVSPropertyOp8
 70
     1
102
RTVSPropertyOp9
 70
     1
102
RTVSPropertyOp10
 70
     1
102
RTVSPropertyOp11
 70
     1
102
RTVSPropertyOp12
 70
     1
102
RTVSPropertyOp13
 70
     1
102
RTVSPropertyOp14
 70
     1
102
RTVSPropertyOp15
 70
     1
102
RTVSPropertyOp16
 70
     1
102
RTVSPropertyOp17
 70
     1
102
RTVSPropertyOp18
 70
     1
102
RTVSPropertyOp19
 70
     1
102
RTVSPropertyOp20
 70
     1
102
RTVSPropertyOp21
 70
     1
102
RTVSPropertyOp22
 70
     1
102
RTVSPropertyOp23
 70
     1
102
RTVSPropertyOp24
 70
     1
102
RTVSPropertyOp25
 70
     1
102
RTVSPropertyOp26
 70
     1
102
RTVSPropertyOp27
 70
     1
102
RTVSPropertyOp28
 70
     1
102
RTVSPropertyOp29
 70
     1
102
RTVSPropertyOp30
 70
     1
102
RTVSPropertyOp31
 70
     1
102
RTVSPropertyOp32
 70
     1
102
RTVSPropertyOp33
 70
     1
102
RTVSPropertyOp34
 70
     1
102
RTVSPropertyOp35
 70
     1
102
RTVSPropertyOp36
 70
     1
102
RTVSPropertyOp37
 70
     1
102
RTVSPropertyOp38
 70
     1
102
RTVSPropertyOp39
 70
     1
102
RTVSPropertyOp40
 70
     1
102
RTVSPropertyOp41
 70
     1
102
RTVSPropertyOp42
 70
     1
102
RTVSPropertyOp43
 70
     1
102
RTVSPropertyOp44
 70
     1
102
RTVSPropertyOp45
 70
     1
102
RTVSPropertyOp46
 70
     1
102
RTVSPropertyOp47
 70
     1
102
RTVSPropertyOp48
 70
     1
102
RTVSPropertyOp49
 70
     1
102
RTVSPropertyOp50
 70
     1
102
RTVSPropertyOp51
 70
     0
102
RTVSPropertyOp52
 70
     0
102
RTVSPropertyOp53
 70
     1
102
RTVSPropertyOp54
 70
     1
102
RTVSPropertyOp55
 70
     1
102
RTVSPropertyOp56
 70
     1
102
RTVSPropertyOp57
 70
     1
102
RTVSPropertyOp58
 70
     1
102
RTVSPropertyOp59
 70
     1
102
RTVSPropertyOp60
 70
     1
102
RTVSPropertyOp61
 70
     1
102
RTVSPropertyOp62
 70
     1
  0
XRECORD
  5
41DC
102
{ACAD_REACTORS
330
41DB
102
}
330
41DB
100
AcDbXrecord
280
     1
102
RTVSPost2010Prop28
280
     0
102
RTVSPost2010PropOp28
 70
     1
102
RTVSPost2010Prop29
280
     1
102
RTVSPost2010PropOp29
 70
     1
102
RTVSPost2010Prop30
280
     1
102
RTVSPost2010PropOp30
 70
     1
102
RTVSPost2010Prop31
280
     0
102
RTVSPost2010PropOp31
 70
     1
102
RTVSPost2010Prop32
280
     0
102
RTVSPost2010PropOp32
 70
     1
102
RTVSPost2010Prop33
280
     0
102
RTVSPost2010PropOp33
 70
     1
102
RTVSPost2010Prop34
280
     0
102
RTVSPost2010PropOp34
 70
     1
102
RTVSPost2010Prop35
280
     0
102
RTVSPost2010PropOp35
 70
     1
102
RTVSPost2010Prop36
280
     0
102
RTVSPost2010PropOp36
 70
     1
102
RTVSPost2010Prop37
 90
       50
102
RTVSPost2010PropOp37
 70
     1
102
RTVSPost2010Prop38
140
0.0
102
RTVSPost2010PropOp38
 70
     1
102
RTVSPost2010Prop39
140
1.0
102
RTVSPost2010PropOp39
 70
     1
102
RTVSPost2010Prop40
 90
        0
102
RTVSPost2010PropOp40
 70
     1
102
RTVSPost2010Prop41ColorIndex
 90
       18
102
RTVSPost2010Prop41ColorRGB
 90
        0
102
RTVSPost2010PropOp41
 70
     1
102
RTVSPost2010Prop42
 90
       50
102
RTVSPost2010PropOp42
 70
     1
102
RTVSPost2010Prop43
 90
        3
102
RTVSPost2010PropOp43
 70
     1
102
RTVSPost2010Prop44ColorIndex
 90
        5
102
RTVSPost2010Prop44ColorRGB
 90
      255
102
RTVSPost2010PropOp44
 70
     1
102
RTVSPost2010Prop45
280
     0
102
RTVSPost2010PropOp45
 70
     1
102
RTVSPost2010Prop46
 90
       50
102
RTVSPost2010PropOp46
 70
     1
102
RTVSPost2010Prop47
 90
       50
102
RTVSPost2010PropOp47
 70
     1
102
RTVSPost2010Prop48
 90
       50
102
RTVSPost2010PropOp48
 70
     1
102
RTVSPost2010Prop49
280
     0
102
RTVSPost2010PropOp49
 70
     1
102
RTVSPost2010Prop50
 90
       50
102
RTVSPost2010PropOp50
 70
     1
102
RTVSPost2010Prop51ColorIndex
 90
      256
102
RTVSPost2010Prop51ColorRGB
 90
-16777216
102
RTVSPost2010PropOp51
 70
     0
102
RTVSPost2010Prop52
140
1.0
102
RTVSPost2010PropOp52
 70
     0
102
RTVSPost2010Prop53
 90
        2
102
RTVSPost2010PropOp53
 70
     1
102
RTVSPost2010Prop54
  1
strokes_ogs.tif
102
RTVSPost2010PropOp54
 70
     1
102
RTVSPost2010Prop55
280
     0
102
RTVSPost2010PropOp55
 70
     1
102
RTVSPost2010Prop56
140
1.0
102
RTVSPost2010PropOp56
 70
     1
102
RTVSPost2010Prop57
140
1.0
102
RTVSPost2010PropOp57
 70
     1
102
RTVSPropertyOp0
 70
     1
102
RTVSPropertyOp1
 70
     1
102
RTVSPropertyOp2
 70
     1
102
RTVSPropertyOp3
 70
     1
102
RTVSPropertyOp4
 70
     1
102
RTVSPropertyOp5
 70
     1
102
RTVSPropertyOp6
 70
     1
102
RTVSPropertyOp7
 70
     1
102
RTVSPropertyOp8
 70
     1
102
RTVSPropertyOp9
 70
     1
102
RTVSPropertyOp10
 70
     1
102
RTVSPropertyOp11
 70
     1
102
RTVSPropertyOp12
 70
     1
102
RTVSPropertyOp13
 70
     1
102
RTVSPropertyOp14
 70
     1
102
RTVSPropertyOp15
 70
     1
102
RTVSPropertyOp16
 70
     1
102
RTVSPropertyOp17
 70
     1
102
RTVSPropertyOp18
 70
     1
102
RTVSPropertyOp19
 70
     1
102
RTVSPropertyOp20
 70
     1
102
RTVSPropertyOp21
 70
     1
102
RTVSPropertyOp22
 70
     1
102
RTVSPropertyOp23
 70
     1
102
RTVSPropertyOp24
 70
     1
102
RTVSPropertyOp25
 70
     1
102
RTVSPropertyOp26
 70
     1
102
RTVSPropertyOp27
 70
     1
102
RTVSPropertyOp28
 70
     1
102
RTVSPropertyOp29
 70
     1
102
RTVSPropertyOp30
 70
     1
102
RTVSPropertyOp31
 70
     1
102
RTVSPropertyOp32
 70
     1
102
RTVSPropertyOp33
 70
     1
102
RTVSPropertyOp34
 70
     1
102
RTVSPropertyOp35
 70
     1
102
RTVSPropertyOp36
 70
     1
102
RTVSPropertyOp37
 70
     1
102
RTVSPropertyOp38
 70
     1
102
RTVSPropertyOp39
 70
     1
102
RTVSPropertyOp40
 70
     1
102
RTVSPropertyOp41
 70
     1
102
RTVSPropertyOp42
 70
     1
102
RTVSPropertyOp43
 70
     1
102
RTVSPropertyOp44
 70
     1
102
RTVSPropertyOp45
 70
     1
102
RTVSPropertyOp46
 70
     1
102
RTVSPropertyOp47
 70
     1
102
RTVSPropertyOp48
 70
     1
102
RTVSPropertyOp49
 70
     1
102
RTVSPropertyOp50
 70
     1
102
RTVSPropertyOp51
 70
     0
102
RTVSPropertyOp52
 70
     0
102
RTVSPropertyOp53
 70
     1
102
RTVSPropertyOp54
 70
     1
102
RTVSPropertyOp55
 70
     1
102
RTVSPropertyOp56
 70
     1
102
RTVSPropertyOp57
 70
     1
102
RTVSPropertyOp58
 70
     1
102
RTVSPropertyOp59
 70
     1
102
RTVSPropertyOp60
 70
     1
102
RTVSPropertyOp61
 70
     1
102
RTVSPropertyOp62
 70
     1
  0
XRECORD
  5
41F8
102
{ACAD_REACTORS
330
41F7
102
}
330
41F7
100
AcDbXrecord
280
     1
102
RTVSPost2010Prop28
280
     0
102
RTVSPost2010PropOp28
 70
     1
102
RTVSPost2010Prop29
280
     1
102
RTVSPost2010PropOp29
 70
     1
102
RTVSPost2010Prop30
280
     1
102
RTVSPost2010PropOp30
 70
     1
102
RTVSPost2010Prop31
280
     0
102
RTVSPost2010PropOp31
 70
     1
102
RTVSPost2010Prop32
280
     0
102
RTVSPost2010PropOp32
 70
     1
102
RTVSPost2010Prop33
280
     0
102
RTVSPost2010PropOp33
 70
     1
102
RTVSPost2010Prop34
280
     0
102
RTVSPost2010PropOp34
 70
     1
102
RTVSPost2010Prop35
280
     0
102
RTVSPost2010PropOp35
 70
     1
102
RTVSPost2010Prop36
280
     0
102
RTVSPost2010PropOp36
 70
     1
102
RTVSPost2010Prop37
 90
       50
102
RTVSPost2010PropOp37
 70
     0
102
RTVSPost2010Prop38
140
0.0
102
RTVSPost2010PropOp38
 70
     0
102
RTVSPost2010Prop39
140
1.0
102
RTVSPost2010PropOp39
 70
     0
102
RTVSPost2010Prop40
 90
        0
102
RTVSPost2010PropOp40
 70
     0
102
RTVSPost2010Prop41ColorIndex
 90
       18
102
RTVSPost2010Prop41ColorRGB
 90
        0
102
RTVSPost2010PropOp41
 70
     0
102
RTVSPost2010Prop42
 90
       50
102
RTVSPost2010PropOp42
 70
     0
102
RTVSPost2010Prop43
 90
        3
102
RTVSPost2010PropOp43
 70
     0
102
RTVSPost2010Prop44ColorIndex
 90
        5
102
RTVSPost2010Prop44ColorRGB
 90
      255
102
RTVSPost2010PropOp44
 70
     0
102
RTVSPost2010Prop45
280
     0
102
RTVSPost2010PropOp45
 70
     1
102
RTVSPost2010Prop46
 90
       50
102
RTVSPost2010PropOp46
 70
     0
102
RTVSPost2010Prop47
 90
       50
102
RTVSPost2010PropOp47
 70
     0
102
RTVSPost2010Prop48
 90
       50
102
RTVSPost2010PropOp48
 70
     0
102
RTVSPost2010Prop49
280
     0
102
RTVSPost2010PropOp49
 70
     1
102
RTVSPost2010Prop50
 90
       50
102
RTVSPost2010PropOp50
 70
     0
102
RTVSPost2010Prop51ColorIndex
 90
      256
102
RTVSPost2010Prop51ColorRGB
 90
-16777216
102
RTVSPost2010PropOp51
 70
     0
102
RTVSPost2010Prop52
140
1.0
102
RTVSPost2010PropOp52
 70
     0
102
RTVSPost2010Prop53
 90
        2
102
RTVSPost2010PropOp53
 70
     0
102
RTVSPost2010Prop54
  1
strokes_ogs.tif
102
RTVSPost2010PropOp54
 70
     0
102
RTVSPost2010Prop55
280
     0
102
RTVSPost2010PropOp55
 70
     1
102
RTVSPost2010Prop56
140
1.0
102
RTVSPost2010PropOp56
 70
     0
102
RTVSPost2010Prop57
140
1.0
102
RTVSPost2010PropOp57
 70
     0
102
RTVSPropertyOp0
 70
     0
102
RTVSPropertyOp1
 70
     0
102
RTVSPropertyOp2
 70
     0
102
RTVSPropertyOp3
 70
     0
102
RTVSPropertyOp4
 70
     0
102
RTVSPropertyOp5
 70
     0
102
RTVSPropertyOp6
 70
     0
102
RTVSPropertyOp7
 70
     0
102
RTVSPropertyOp8
 70
     0
102
RTVSPropertyOp9
 70
     0
102
RTVSPropertyOp10
 70
     0
102
RTVSPropertyOp11
 70
     0
102
RTVSPropertyOp12
 70
     0
102
RTVSPropertyOp13
 70
     0
102
RTVSPropertyOp14
 70
     2
102
RTVSPropertyOp15
 70
     0
102
RTVSPropertyOp16
 70
     0
102
RTVSPropertyOp17
 70
     0
102
RTVSPropertyOp18
 70
     0
102
RTVSPropertyOp19
 70
     0
102
RTVSPropertyOp20
 70
     0
102
RTVSPropertyOp21
 70
     0
102
RTVSPropertyOp22
 70
     0
102
RTVSPropertyOp23
 70
     0
102
RTVSPropertyOp24
 70
     0
102
RTVSPropertyOp25
 70
     0
102
RTVSPropertyOp26
 70
     0
102
RTVSPropertyOp27
 70
     0
102
RTVSPropertyOp28
 70
     1
102
RTVSPropertyOp29
 70
     1
102
RTVSPropertyOp30
 70
     1
102
RTVSPropertyOp31
 70
     1
102
RTVSPropertyOp32
 70
     1
102
RTVSPropertyOp33
 70
     1
102
RTVSPropertyOp34
 70
     1
102
RTVSPropertyOp35
 70
     1
102
RTVSPropertyOp36
 70
     1
102
RTVSPropertyOp37
 70
     0
102
RTVSPropertyOp38
 70
     0
102
RTVSPropertyOp39
 70
     0
102
RTVSPropertyOp40
 70
     0
102
RTVSPropertyOp41
 70
     0
102
RTVSPropertyOp42
 70
     0
102
RTVSPropertyOp43
 70
     0
102
RTVSPropertyOp44
 70
     0
102
RTVSPropertyOp45
 70
     1
102
RTVSPropertyOp46
 70
     0
102
RTVSPropertyOp47
 70
     0
102
RTVSPropertyOp48
 70
     0
102
RTVSPropertyOp49
 70
     1
102
RTVSPropertyOp50
 70
     0
102
RTVSPropertyOp51
 70
     0
102
RTVSPropertyOp52
 70
     0
102
RTVSPropertyOp53
 70
     0
102
RTVSPropertyOp54
 70
     0
102
RTVSPropertyOp55
 70
     1
102
RTVSPropertyOp56
 70
     0
102
RTVSPropertyOp57
 70
     0
102
RTVSPropertyOp58
 70
     0
102
RTVSPropertyOp59
 70
     0
102
RTVSPropertyOp60
 70
     0
102
RTVSPropertyOp61
 70
     0
102
RTVSPropertyOp62
 70
     0
  0
XRECORD
  5
41E8
102
{ACAD_REACTORS
330
41E7
102
}
330
41E7
100
AcDbXrecord
280
     1
102
RTVSPost2010Prop28
280
     0
102
RTVSPost2010PropOp28
 70
     1
102
RTVSPost2010Prop29
280
     1
102
RTVSPost2010PropOp29
 70
     1
102
RTVSPost2010Prop30
280
     1
102
RTVSPost2010PropOp30
 70
     1
102
RTVSPost2010Prop31
280
     0
102
RTVSPost2010PropOp31
 70
     1
102
RTVSPost2010Prop32
280
     0
102
RTVSPost2010PropOp32
 70
     1
102
RTVSPost2010Prop33
280
     0
102
RTVSPost2010PropOp33
 70
     1
102
RTVSPost2010Prop34
280
     0
102
RTVSPost2010PropOp34
 70
     1
102
RTVSPost2010Prop35
280
     0
102
RTVSPost2010PropOp35
 70
     1
102
RTVSPost2010Prop36
280
     0
102
RTVSPost2010PropOp36
 70
     1
102
RTVSPost2010Prop37
 90
       50
102
RTVSPost2010PropOp37
 70
     1
102
RTVSPost2010Prop38
140
0.0
102
RTVSPost2010PropOp38
 70
     1
102
RTVSPost2010Prop39
140
1.0
102
RTVSPost2010PropOp39
 70
     1
102
RTVSPost2010Prop40
 90
        0
102
RTVSPost2010PropOp40
 70
     1
102
RTVSPost2010Prop41ColorIndex
 90
       18
102
RTVSPost2010Prop41ColorRGB
 90
        0
102
RTVSPost2010PropOp41
 70
     1
102
RTVSPost2010Prop42
 90
       50
102
RTVSPost2010PropOp42
 70
     1
102
RTVSPost2010Prop43
 90
        3
102
RTVSPost2010PropOp43
 70
     1
102
RTVSPost2010Prop44ColorIndex
 90
        5
102
RTVSPost2010Prop44ColorRGB
 90
      255
102
RTVSPost2010PropOp44
 70
     1
102
RTVSPost2010Prop45
280
     0
102
RTVSPost2010PropOp45
 70
     1
102
RTVSPost2010Prop46
 90
       50
102
RTVSPost2010PropOp46
 70
     1
102
RTVSPost2010Prop47
 90
       50
102
RTVSPost2010PropOp47
 70
     1
102
RTVSPost2010Prop48
 90
       50
102
RTVSPost2010PropOp48
 70
     1
102
RTVSPost2010Prop49
280
     0
102
RTVSPost2010PropOp49
 70
     1
102
RTVSPost2010Prop50
 90
       50
102
RTVSPost2010PropOp50
 70
     1
102
RTVSPost2010Prop51ColorIndex
 90
      256
102
RTVSPost2010Prop51ColorRGB
 90
-16777216
102
RTVSPost2010PropOp51
 70
     0
102
RTVSPost2010Prop52
140
1.0
102
RTVSPost2010PropOp52
 70
     0
102
RTVSPost2010Prop53
 90
        2
102
RTVSPost2010PropOp53
 70
     1
102
RTVSPost2010Prop54
  1
strokes_ogs.tif
102
RTVSPost2010PropOp54
 70
     1
102
RTVSPost2010Prop55
280
     0
102
RTVSPost2010PropOp55
 70
     1
102
RTVSPost2010Prop56
140
1.0
102
RTVSPost2010PropOp56
 70
     1
102
RTVSPost2010Prop57
140
1.0
102
RTVSPost2010PropOp57
 70
     1
102
RTVSPropertyOp0
 70
     1
102
RTVSPropertyOp1
 70
     1
102
RTVSPropertyOp2
 70
     1
102
RTVSPropertyOp3
 70
     1
102
RTVSPropertyOp4
 70
     1
102
RTVSPropertyOp5
 70
     1
102
RTVSPropertyOp6
 70
     1
102
RTVSPropertyOp7
 70
     1
102
RTVSPropertyOp8
 70
     1
102
RTVSPropertyOp9
 70
     1
102
RTVSPropertyOp10
 70
     1
102
RTVSPropertyOp11
 70
     1
102
RTVSPropertyOp12
 70
     1
102
RTVSPropertyOp13
 70
     1
102
RTVSPropertyOp14
 70
     1
102
RTVSPropertyOp15
 70
     1
102
RTVSPropertyOp16
 70
     1
102
RTVSPropertyOp17
 70
     1
102
RTVSPropertyOp18
 70
     1
102
RTVSPropertyOp19
 70
     1
102
RTVSPropertyOp20
 70
     1
102
RTVSPropertyOp21
 70
     1
102
RTVSPropertyOp22
 70
     1
102
RTVSPropertyOp23
 70
     1
102
RTVSPropertyOp24
 70
     1
102
RTVSPropertyOp25
 70
     1
102
RTVSPropertyOp26
 70
     1
102
RTVSPropertyOp27
 70
     1
102
RTVSPropertyOp28
 70
     1
102
RTVSPropertyOp29
 70
     1
102
RTVSPropertyOp30
 70
     1
102
RTVSPropertyOp31
 70
     1
102
RTVSPropertyOp32
 70
     1
102
RTVSPropertyOp33
 70
     1
102
RTVSPropertyOp34
 70
     1
102
RTVSPropertyOp35
 70
     1
102
RTVSPropertyOp36
 70
     1
102
RTVSPropertyOp37
 70
     1
102
RTVSPropertyOp38
 70
     1
102
RTVSPropertyOp39
 70
     1
102
RTVSPropertyOp40
 70
     1
102
RTVSPropertyOp41
 70
     1
102
RTVSPropertyOp42
 70
     1
102
RTVSPropertyOp43
 70
     1
102
RTVSPropertyOp44
 70
     1
102
RTVSPropertyOp45
 70
     1
102
RTVSPropertyOp46
 70
     1
102
RTVSPropertyOp47
 70
     1
102
RTVSPropertyOp48
 70
     1
102
RTVSPropertyOp49
 70
     1
102
RTVSPropertyOp50
 70
     1
102
RTVSPropertyOp51
 70
     0
102
RTVSPropertyOp52
 70
     0
102
RTVSPropertyOp53
 70
     1
102
RTVSPropertyOp54
 70
     1
102
RTVSPropertyOp55
 70
     1
102
RTVSPropertyOp56
 70
     1
102
RTVSPropertyOp57
 70
     1
102
RTVSPropertyOp58
 70
     1
102
RTVSPropertyOp59
 70
     1
102
RTVSPropertyOp60
 70
     1
102
RTVSPropertyOp61
 70
     1
102
RTVSPropertyOp62
 70
     1
  0
XRECORD
  5
41FA
102
{ACAD_REACTORS
330
41F9
102
}
330
41F9
100
AcDbXrecord
280
     1
102
RTVSPost2010Prop28
280
     0
102
RTVSPost2010PropOp28
 70
     1
102
RTVSPost2010Prop29
280
     1
102
RTVSPost2010PropOp29
 70
     1
102
RTVSPost2010Prop30
280
     1
102
RTVSPost2010PropOp30
 70
     1
102
RTVSPost2010Prop31
280
     0
102
RTVSPost2010PropOp31
 70
     1
102
RTVSPost2010Prop32
280
     0
102
RTVSPost2010PropOp32
 70
     1
102
RTVSPost2010Prop33
280
     0
102
RTVSPost2010PropOp33
 70
     1
102
RTVSPost2010Prop34
280
     0
102
RTVSPost2010PropOp34
 70
     1
102
RTVSPost2010Prop35
280
     0
102
RTVSPost2010PropOp35
 70
     1
102
RTVSPost2010Prop36
280
     0
102
RTVSPost2010PropOp36
 70
     1
102
RTVSPost2010Prop37
 90
       50
102
RTVSPost2010PropOp37
 70
     0
102
RTVSPost2010Prop38
140
0.0
102
RTVSPost2010PropOp38
 70
     0
102
RTVSPost2010Prop39
140
1.0
102
RTVSPost2010PropOp39
 70
     0
102
RTVSPost2010Prop40
 90
        0
102
RTVSPost2010PropOp40
 70
     0
102
RTVSPost2010Prop41ColorIndex
 90
       18
102
RTVSPost2010Prop41ColorRGB
 90
        0
102
RTVSPost2010PropOp41
 70
     0
102
RTVSPost2010Prop42
 90
       50
102
RTVSPost2010PropOp42
 70
     0
102
RTVSPost2010Prop43
 90
        3
102
RTVSPost2010PropOp43
 70
     0
102
RTVSPost2010Prop44ColorIndex
 90
        5
102
RTVSPost2010Prop44ColorRGB
 90
      255
102
RTVSPost2010PropOp44
 70
     0
102
RTVSPost2010Prop45
280
     0
102
RTVSPost2010PropOp45
 70
     1
102
RTVSPost2010Prop46
 90
       50
102
RTVSPost2010PropOp46
 70
     0
102
RTVSPost2010Prop47
 90
       50
102
RTVSPost2010PropOp47
 70
     0
102
RTVSPost2010Prop48
 90
       50
102
RTVSPost2010PropOp48
 70
     0
102
RTVSPost2010Prop49
280
     0
102
RTVSPost2010PropOp49
 70
     1
102
RTVSPost2010Prop50
 90
       50
102
RTVSPost2010PropOp50
 70
     0
102
RTVSPost2010Prop51ColorIndex
 90
      256
102
RTVSPost2010Prop51ColorRGB
 90
-16777216
102
RTVSPost2010PropOp51
 70
     0
102
RTVSPost2010Prop52
140
1.0
102
RTVSPost2010PropOp52
 70
     0
102
RTVSPost2010Prop53
 90
        2
102
RTVSPost2010PropOp53
 70
     0
102
RTVSPost2010Prop54
  1
strokes_ogs.tif
102
RTVSPost2010PropOp54
 70
     0
102
RTVSPost2010Prop55
280
     0
102
RTVSPost2010PropOp55
 70
     1
102
RTVSPost2010Prop56
140
1.0
102
RTVSPost2010PropOp56
 70
     0
102
RTVSPost2010Prop57
140
1.0
102
RTVSPost2010PropOp57
 70
     0
102
RTVSPropertyOp0
 70
     0
102
RTVSPropertyOp1
 70
     0
102
RTVSPropertyOp2
 70
     0
102
RTVSPropertyOp3
 70
     0
102
RTVSPropertyOp4
 70
     0
102
RTVSPropertyOp5
 70
     0
102
RTVSPropertyOp6
 70
     0
102
RTVSPropertyOp7
 70
     0
102
RTVSPropertyOp8
 70
     0
102
RTVSPropertyOp9
 70
     0
102
RTVSPropertyOp10
 70
     0
102
RTVSPropertyOp11
 70
     0
102
RTVSPropertyOp12
 70
     0
102
RTVSPropertyOp13
 70
     0
102
RTVSPropertyOp14
 70
     2
102
RTVSPropertyOp15
 70
     0
102
RTVSPropertyOp16
 70
     0
102
RTVSPropertyOp17
 70
     0
102
RTVSPropertyOp18
 70
     0
102
RTVSPropertyOp19
 70
     0
102
RTVSPropertyOp20
 70
     0
102
RTVSPropertyOp21
 70
     0
102
RTVSPropertyOp22
 70
     0
102
RTVSPropertyOp23
 70
     0
102
RTVSPropertyOp24
 70
     0
102
RTVSPropertyOp25
 70
     0
102
RTVSPropertyOp26
 70
     0
102
RTVSPropertyOp27
 70
     0
102
RTVSPropertyOp28
 70
     1
102
RTVSPropertyOp29
 70
     1
102
RTVSPropertyOp30
 70
     1
102
RTVSPropertyOp31
 70
     1
102
RTVSPropertyOp32
 70
     1
102
RTVSPropertyOp33
 70
     1
102
RTVSPropertyOp34
 70
     1
102
RTVSPropertyOp35
 70
     1
102
RTVSPropertyOp36
 70
     1
102
RTVSPropertyOp37
 70
     0
102
RTVSPropertyOp38
 70
     0
102
RTVSPropertyOp39
 70
     0
102
RTVSPropertyOp40
 70
     0
102
RTVSPropertyOp41
 70
     0
102
RTVSPropertyOp42
 70
     0
102
RTVSPropertyOp43
 70
     0
102
RTVSPropertyOp44
 70
     0
102
RTVSPropertyOp45
 70
     1
102
RTVSPropertyOp46
 70
     0
102
RTVSPropertyOp47
 70
     0
102
RTVSPropertyOp48
 70
     0
102
RTVSPropertyOp49
 70
     1
102
RTVSPropertyOp50
 70
     0
102
RTVSPropertyOp51
 70
     0
102
RTVSPropertyOp52
 70
     0
102
RTVSPropertyOp53
 70
     0
102
RTVSPropertyOp54
 70
     0
102
RTVSPropertyOp55
 70
     1
102
RTVSPropertyOp56
 70
     0
102
RTVSPropertyOp57
 70
     0
102
RTVSPropertyOp58
 70
     0
102
RTVSPropertyOp59
 70
     0
102
RTVSPropertyOp60
 70
     0
102
RTVSPropertyOp61
 70
     0
102
RTVSPropertyOp62
 70
     0
  0
XRECORD
  5
41E0
102
{ACAD_REACTORS
330
41DF
102
}
330
41DF
100
AcDbXrecord
280
     1
102
RTVSPost2010Prop28
280
     0
102
RTVSPost2010PropOp28
 70
     1
102
RTVSPost2010Prop29
280
     1
102
RTVSPost2010PropOp29
 70
     1
102
RTVSPost2010Prop30
280
     1
102
RTVSPost2010PropOp30
 70
     1
102
RTVSPost2010Prop31
280
     0
102
RTVSPost2010PropOp31
 70
     1
102
RTVSPost2010Prop32
280
     0
102
RTVSPost2010PropOp32
 70
     1
102
RTVSPost2010Prop33
280
     0
102
RTVSPost2010PropOp33
 70
     1
102
RTVSPost2010Prop34
280
     0
102
RTVSPost2010PropOp34
 70
     1
102
RTVSPost2010Prop35
280
     0
102
RTVSPost2010PropOp35
 70
     1
102
RTVSPost2010Prop36
280
     0
102
RTVSPost2010PropOp36
 70
     1
102
RTVSPost2010Prop37
 90
       50
102
RTVSPost2010PropOp37
 70
     1
102
RTVSPost2010Prop38
140
0.0
102
RTVSPost2010PropOp38
 70
     1
102
RTVSPost2010Prop39
140
1.0
102
RTVSPost2010PropOp39
 70
     1
102
RTVSPost2010Prop40
 90
        0
102
RTVSPost2010PropOp40
 70
     1
102
RTVSPost2010Prop41ColorIndex
 90
       18
102
RTVSPost2010Prop41ColorRGB
 90
        0
102
RTVSPost2010PropOp41
 70
     1
102
RTVSPost2010Prop42
 90
       50
102
RTVSPost2010PropOp42
 70
     1
102
RTVSPost2010Prop43
 90
        3
102
RTVSPost2010PropOp43
 70
     1
102
RTVSPost2010Prop44ColorIndex
 90
        5
102
RTVSPost2010Prop44ColorRGB
 90
      255
102
RTVSPost2010PropOp44
 70
     1
102
RTVSPost2010Prop45
280
     0
102
RTVSPost2010PropOp45
 70
     1
102
RTVSPost2010Prop46
 90
       50
102
RTVSPost2010PropOp46
 70
     1
102
RTVSPost2010Prop47
 90
       50
102
RTVSPost2010PropOp47
 70
     1
102
RTVSPost2010Prop48
 90
       50
102
RTVSPost2010PropOp48
 70
     1
102
RTVSPost2010Prop49
280
     0
102
RTVSPost2010PropOp49
 70
     1
102
RTVSPost2010Prop50
 90
       50
102
RTVSPost2010PropOp50
 70
     1
102
RTVSPost2010Prop51ColorIndex
 90
      256
102
RTVSPost2010Prop51ColorRGB
 90
-16777216
102
RTVSPost2010PropOp51
 70
     0
102
RTVSPost2010Prop52
140
1.0
102
RTVSPost2010PropOp52
 70
     0
102
RTVSPost2010Prop53
 90
        2
102
RTVSPost2010PropOp53
 70
     1
102
RTVSPost2010Prop54
  1
strokes_ogs.tif
102
RTVSPost2010PropOp54
 70
     1
102
RTVSPost2010Prop55
280
     0
102
RTVSPost2010PropOp55
 70
     1
102
RTVSPost2010Prop56
140
1.0
102
RTVSPost2010PropOp56
 70
     1
102
RTVSPost2010Prop57
140
1.0
102
RTVSPost2010PropOp57
 70
     1
102
RTVSPropertyOp0
 70
     1
102
RTVSPropertyOp1
 70
     1
102
RTVSPropertyOp2
 70
     1
102
RTVSPropertyOp3
 70
     1
102
RTVSPropertyOp4
 70
     1
102
RTVSPropertyOp5
 70
     1
102
RTVSPropertyOp6
 70
     1
102
RTVSPropertyOp7
 70
     1
102
RTVSPropertyOp8
 70
     1
102
RTVSPropertyOp9
 70
     1
102
RTVSPropertyOp10
 70
     1
102
RTVSPropertyOp11
 70
     1
102
RTVSPropertyOp12
 70
     1
102
RTVSPropertyOp13
 70
     1
102
RTVSPropertyOp14
 70
     1
102
RTVSPropertyOp15
 70
     1
102
RTVSPropertyOp16
 70
     1
102
RTVSPropertyOp17
 70
     1
102
RTVSPropertyOp18
 70
     1
102
RTVSPropertyOp19
 70
     1
102
RTVSPropertyOp20
 70
     1
102
RTVSPropertyOp21
 70
     1
102
RTVSPropertyOp22
 70
     1
102
RTVSPropertyOp23
 70
     1
102
RTVSPropertyOp24
 70
     1
102
RTVSPropertyOp25
 70
     1
102
RTVSPropertyOp26
 70
     1
102
RTVSPropertyOp27
 70
     1
102
RTVSPropertyOp28
 70
     1
102
RTVSPropertyOp29
 70
     1
102
RTVSPropertyOp30
 70
     1
102
RTVSPropertyOp31
 70
     1
102
RTVSPropertyOp32
 70
     1
102
RTVSPropertyOp33
 70
     1
102
RTVSPropertyOp34
 70
     1
102
RTVSPropertyOp35
 70
     1
102
RTVSPropertyOp36
 70
     1
102
RTVSPropertyOp37
 70
     1
102
RTVSPropertyOp38
 70
     1
102
RTVSPropertyOp39
 70
     1
102
RTVSPropertyOp40
 70
     1
102
RTVSPropertyOp41
 70
     1
102
RTVSPropertyOp42
 70
     1
102
RTVSPropertyOp43
 70
     1
102
RTVSPropertyOp44
 70
     1
102
RTVSPropertyOp45
 70
     1
102
RTVSPropertyOp46
 70
     1
102
RTVSPropertyOp47
 70
     1
102
RTVSPropertyOp48
 70
     1
102
RTVSPropertyOp49
 70
     1
102
RTVSPropertyOp50
 70
     1
102
RTVSPropertyOp51
 70
     0
102
RTVSPropertyOp52
 70
     0
102
RTVSPropertyOp53
 70
     1
102
RTVSPropertyOp54
 70
     1
102
RTVSPropertyOp55
 70
     1
102
RTVSPropertyOp56
 70
     1
102
RTVSPropertyOp57
 70
     1
102
RTVSPropertyOp58
 70
     1
102
RTVSPropertyOp59
 70
     1
102
RTVSPropertyOp60
 70
     1
102
RTVSPropertyOp61
 70
     1
102
RTVSPropertyOp62
 70
     1
  0
XRECORD
  5
41F6
102
{ACAD_REACTORS
330
41F5
102
}
330
41F5
100
AcDbXrecord
280
     1
102
RTVSPost2010Prop28
280
     0
102
RTVSPost2010PropOp28
 70
     1
102
RTVSPost2010Prop29
280
     1
102
RTVSPost2010PropOp29
 70
     1
102
RTVSPost2010Prop30
280
     1
102
RTVSPost2010PropOp30
 70
     1
102
RTVSPost2010Prop31
280
     0
102
RTVSPost2010PropOp31
 70
     1
102
RTVSPost2010Prop32
280
     0
102
RTVSPost2010PropOp32
 70
     1
102
RTVSPost2010Prop33
280
     0
102
RTVSPost2010PropOp33
 70
     1
102
RTVSPost2010Prop34
280
     0
102
RTVSPost2010PropOp34
 70
     1
102
RTVSPost2010Prop35
280
     0
102
RTVSPost2010PropOp35
 70
     1
102
RTVSPost2010Prop36
280
     0
102
RTVSPost2010PropOp36
 70
     1
102
RTVSPost2010Prop37
 90
       50
102
RTVSPost2010PropOp37
 70
     1
102
RTVSPost2010Prop38
140
0.0
102
RTVSPost2010PropOp38
 70
     1
102
RTVSPost2010Prop39
140
1.0
102
RTVSPost2010PropOp39
 70
     1
102
RTVSPost2010Prop40
 90
        0
102
RTVSPost2010PropOp40
 70
     1
102
RTVSPost2010Prop41ColorIndex
 90
       18
102
RTVSPost2010Prop41ColorRGB
 90
        0
102
RTVSPost2010PropOp41
 70
     1
102
RTVSPost2010Prop42
 90
       50
102
RTVSPost2010PropOp42
 70
     1
102
RTVSPost2010Prop43
 90
        3
102
RTVSPost2010PropOp43
 70
     1
102
RTVSPost2010Prop44ColorIndex
 90
        5
102
RTVSPost2010Prop44ColorRGB
 90
      255
102
RTVSPost2010PropOp44
 70
     1
102
RTVSPost2010Prop45
280
     0
102
RTVSPost2010PropOp45
 70
     1
102
RTVSPost2010Prop46
 90
       50
102
RTVSPost2010PropOp46
 70
     1
102
RTVSPost2010Prop47
 90
       50
102
RTVSPost2010PropOp47
 70
     1
102
RTVSPost2010Prop48
 90
       50
102
RTVSPost2010PropOp48
 70
     1
102
RTVSPost2010Prop49
280
     0
102
RTVSPost2010PropOp49
 70
     1
102
RTVSPost2010Prop50
 90
       50
102
RTVSPost2010PropOp50
 70
     1
102
RTVSPost2010Prop51ColorIndex
 90
      256
102
RTVSPost2010Prop51ColorRGB
 90
-16777216
102
RTVSPost2010PropOp51
 70
     0
102
RTVSPost2010Prop52
140
1.0
102
RTVSPost2010PropOp52
 70
     0
102
RTVSPost2010Prop53
 90
        2
102
RTVSPost2010PropOp53
 70
     1
102
RTVSPost2010Prop54
  1
strokes_ogs.tif
102
RTVSPost2010PropOp54
 70
     1
102
RTVSPost2010Prop55
280
     0
102
RTVSPost2010PropOp55
 70
     1
102
RTVSPost2010Prop56
140
1.0
102
RTVSPost2010PropOp56
 70
     1
102
RTVSPost2010Prop57
140
1.0
102
RTVSPost2010PropOp57
 70
     1
102
RTVSPropertyOp0
 70
     1
102
RTVSPropertyOp1
 70
     1
102
RTVSPropertyOp2
 70
     1
102
RTVSPropertyOp3
 70
     1
102
RTVSPropertyOp4
 70
     1
102
RTVSPropertyOp5
 70
     1
102
RTVSPropertyOp6
 70
     1
102
RTVSPropertyOp7
 70
     1
102
RTVSPropertyOp8
 70
     1
102
RTVSPropertyOp9
 70
     1
102
RTVSPropertyOp10
 70
     1
102
RTVSPropertyOp11
 70
     1
102
RTVSPropertyOp12
 70
     1
102
RTVSPropertyOp13
 70
     1
102
RTVSPropertyOp14
 70
     1
102
RTVSPropertyOp15
 70
     1
102
RTVSPropertyOp16
 70
     1
102
RTVSPropertyOp17
 70
     1
102
RTVSPropertyOp18
 70
     1
102
RTVSPropertyOp19
 70
     1
102
RTVSPropertyOp20
 70
     1
102
RTVSPropertyOp21
 70
     1
102
RTVSPropertyOp22
 70
     1
102
RTVSPropertyOp23
 70
     1
102
RTVSPropertyOp24
 70
     1
102
RTVSPropertyOp25
 70
     1
102
RTVSPropertyOp26
 70
     1
102
RTVSPropertyOp27
 70
     1
102
RTVSPropertyOp28
 70
     1
102
RTVSPropertyOp29
 70
     1
102
RTVSPropertyOp30
 70
     1
102
RTVSPropertyOp31
 70
     1
102
RTVSPropertyOp32
 70
     1
102
RTVSPropertyOp33
 70
     1
102
RTVSPropertyOp34
 70
     1
102
RTVSPropertyOp35
 70
     1
102
RTVSPropertyOp36
 70
     1
102
RTVSPropertyOp37
 70
     1
102
RTVSPropertyOp38
 70
     1
102
RTVSPropertyOp39
 70
     1
102
RTVSPropertyOp40
 70
     1
102
RTVSPropertyOp41
 70
     1
102
RTVSPropertyOp42
 70
     1
102
RTVSPropertyOp43
 70
     1
102
RTVSPropertyOp44
 70
     1
102
RTVSPropertyOp45
 70
     1
102
RTVSPropertyOp46
 70
     1
102
RTVSPropertyOp47
 70
     1
102
RTVSPropertyOp48
 70
     1
102
RTVSPropertyOp49
 70
     1
102
RTVSPropertyOp50
 70
     1
102
RTVSPropertyOp51
 70
     0
102
RTVSPropertyOp52
 70
     0
102
RTVSPropertyOp53
 70
     1
102
RTVSPropertyOp54
 70
     1
102
RTVSPropertyOp55
 70
     1
102
RTVSPropertyOp56
 70
     1
102
RTVSPropertyOp57
 70
     1
102
RTVSPropertyOp58
 70
     1
102
RTVSPropertyOp59
 70
     1
102
RTVSPropertyOp60
 70
     1
102
RTVSPropertyOp61
 70
     1
102
RTVSPropertyOp62
 70
     1
  0
XRECORD
  5
41F4
102
{ACAD_REACTORS
330
41F3
102
}
330
41F3
100
AcDbXrecord
280
     1
102
RTVSPost2010Prop28
280
     0
102
RTVSPost2010PropOp28
 70
     1
102
RTVSPost2010Prop29
280
     1
102
RTVSPost2010PropOp29
 70
     1
102
RTVSPost2010Prop30
280
     1
102
RTVSPost2010PropOp30
 70
     1
102
RTVSPost2010Prop31
280
     0
102
RTVSPost2010PropOp31
 70
     1
102
RTVSPost2010Prop32
280
     0
102
RTVSPost2010PropOp32
 70
     1
102
RTVSPost2010Prop33
280
     0
102
RTVSPost2010PropOp33
 70
     1
102
RTVSPost2010Prop34
280
     0
102
RTVSPost2010PropOp34
 70
     1
102
RTVSPost2010Prop35
280
     0
102
RTVSPost2010PropOp35
 70
     1
102
RTVSPost2010Prop36
280
     0
102
RTVSPost2010PropOp36
 70
     1
102
RTVSPost2010Prop37
 90
       50
102
RTVSPost2010PropOp37
 70
     1
102
RTVSPost2010Prop38
140
0.0
102
RTVSPost2010PropOp38
 70
     1
102
RTVSPost2010Prop39
140
1.0
102
RTVSPost2010PropOp39
 70
     1
102
RTVSPost2010Prop40
 90
        0
102
RTVSPost2010PropOp40
 70
     1
102
RTVSPost2010Prop41ColorIndex
 90
       18
102
RTVSPost2010Prop41ColorRGB
 90
        0
102
RTVSPost2010PropOp41
 70
     1
102
RTVSPost2010Prop42
 90
       50
102
RTVSPost2010PropOp42
 70
     1
102
RTVSPost2010Prop43
 90
        3
102
RTVSPost2010PropOp43
 70
     1
102
RTVSPost2010Prop44ColorIndex
 90
        5
102
RTVSPost2010Prop44ColorRGB
 90
      255
102
RTVSPost2010PropOp44
 70
     1
102
RTVSPost2010Prop45
280
     0
102
RTVSPost2010PropOp45
 70
     1
102
RTVSPost2010Prop46
 90
       50
102
RTVSPost2010PropOp46
 70
     1
102
RTVSPost2010Prop47
 90
       50
102
RTVSPost2010PropOp47
 70
     1
102
RTVSPost2010Prop48
 90
       50
102
RTVSPost2010PropOp48
 70
     1
102
RTVSPost2010Prop49
280
     0
102
RTVSPost2010PropOp49
 70
     1
102
RTVSPost2010Prop50
 90
       50
102
RTVSPost2010PropOp50
 70
     1
102
RTVSPost2010Prop51ColorIndex
 90
      256
102
RTVSPost2010Prop51ColorRGB
 90
-16777216
102
RTVSPost2010PropOp51
 70
     0
102
RTVSPost2010Prop52
140
1.0
102
RTVSPost2010PropOp52
 70
     0
102
RTVSPost2010Prop53
 90
        2
102
RTVSPost2010PropOp53
 70
     1
102
RTVSPost2010Prop54
  1
strokes_ogs.tif
102
RTVSPost2010PropOp54
 70
     1
102
RTVSPost2010Prop55
280
     0
102
RTVSPost2010PropOp55
 70
     1
102
RTVSPost2010Prop56
140
1.0
102
RTVSPost2010PropOp56
 70
     1
102
RTVSPost2010Prop57
140
1.0
102
RTVSPost2010PropOp57
 70
     1
102
RTVSPropertyOp0
 70
     1
102
RTVSPropertyOp1
 70
     1
102
RTVSPropertyOp2
 70
     1
102
RTVSPropertyOp3
 70
     1
102
RTVSPropertyOp4
 70
     1
102
RTVSPropertyOp5
 70
     1
102
RTVSPropertyOp6
 70
     1
102
RTVSPropertyOp7
 70
     1
102
RTVSPropertyOp8
 70
     1
102
RTVSPropertyOp9
 70
     1
102
RTVSPropertyOp10
 70
     1
102
RTVSPropertyOp11
 70
     1
102
RTVSPropertyOp12
 70
     1
102
RTVSPropertyOp13
 70
     1
102
RTVSPropertyOp14
 70
     1
102
RTVSPropertyOp15
 70
     1
102
RTVSPropertyOp16
 70
     1
102
RTVSPropertyOp17
 70
     1
102
RTVSPropertyOp18
 70
     1
102
RTVSPropertyOp19
 70
     1
102
RTVSPropertyOp20
 70
     1
102
RTVSPropertyOp21
 70
     1
102
RTVSPropertyOp22
 70
     1
102
RTVSPropertyOp23
 70
     1
102
RTVSPropertyOp24
 70
     1
102
RTVSPropertyOp25
 70
     1
102
RTVSPropertyOp26
 70
     1
102
RTVSPropertyOp27
 70
     1
102
RTVSPropertyOp28
 70
     1
102
RTVSPropertyOp29
 70
     1
102
RTVSPropertyOp30
 70
     1
102
RTVSPropertyOp31
 70
     1
102
RTVSPropertyOp32
 70
     1
102
RTVSPropertyOp33
 70
     1
102
RTVSPropertyOp34
 70
     1
102
RTVSPropertyOp35
 70
     1
102
RTVSPropertyOp36
 70
     1
102
RTVSPropertyOp37
 70
     1
102
RTVSPropertyOp38
 70
     1
102
RTVSPropertyOp39
 70
     1
102
RTVSPropertyOp40
 70
     1
102
RTVSPropertyOp41
 70
     1
102
RTVSPropertyOp42
 70
     1
102
RTVSPropertyOp43
 70
     1
102
RTVSPropertyOp44
 70
     1
102
RTVSPropertyOp45
 70
     1
102
RTVSPropertyOp46
 70
     1
102
RTVSPropertyOp47
 70
     1
102
RTVSPropertyOp48
 70
     1
102
RTVSPropertyOp49
 70
     1
102
RTVSPropertyOp50
 70
     1
102
RTVSPropertyOp51
 70
     0
102
RTVSPropertyOp52
 70
     0
102
RTVSPropertyOp53
 70
     1
102
RTVSPropertyOp54
 70
     1
102
RTVSPropertyOp55
 70
     1
102
RTVSPropertyOp56
 70
     1
102
RTVSPropertyOp57
 70
     1
102
RTVSPropertyOp58
 70
     1
102
RTVSPropertyOp59
 70
     1
102
RTVSPropertyOp60
 70
     1
102
RTVSPropertyOp61
 70
     1
102
RTVSPropertyOp62
 70
     1
  0
XRECORD
  5
41EE
102
{ACAD_REACTORS
330
41ED
102
}
330
41ED
100
AcDbXrecord
280
     1
102
RTVSPost2010Prop28
280
     0
102
RTVSPost2010PropOp28
 70
     1
102
RTVSPost2010Prop29
280
     1
102
RTVSPost2010PropOp29
 70
     1
102
RTVSPost2010Prop30
280
     1
102
RTVSPost2010PropOp30
 70
     1
102
RTVSPost2010Prop31
280
     0
102
RTVSPost2010PropOp31
 70
     1
102
RTVSPost2010Prop32
280
     0
102
RTVSPost2010PropOp32
 70
     1
102
RTVSPost2010Prop33
280
     0
102
RTVSPost2010PropOp33
 70
     1
102
RTVSPost2010Prop34
280
     0
102
RTVSPost2010PropOp34
 70
     1
102
RTVSPost2010Prop35
280
     0
102
RTVSPost2010PropOp35
 70
     1
102
RTVSPost2010Prop36
280
     0
102
RTVSPost2010PropOp36
 70
     1
102
RTVSPost2010Prop37
 90
       50
102
RTVSPost2010PropOp37
 70
     1
102
RTVSPost2010Prop38
140
0.0
102
RTVSPost2010PropOp38
 70
     1
102
RTVSPost2010Prop39
140
1.0
102
RTVSPost2010PropOp39
 70
     1
102
RTVSPost2010Prop40
 90
        0
102
RTVSPost2010PropOp40
 70
     1
102
RTVSPost2010Prop41ColorIndex
 90
       18
102
RTVSPost2010Prop41ColorRGB
 90
        0
102
RTVSPost2010PropOp41
 70
     1
102
RTVSPost2010Prop42
 90
       50
102
RTVSPost2010PropOp42
 70
     1
102
RTVSPost2010Prop43
 90
        3
102
RTVSPost2010PropOp43
 70
     1
102
RTVSPost2010Prop44ColorIndex
 90
        5
102
RTVSPost2010Prop44ColorRGB
 90
      255
102
RTVSPost2010PropOp44
 70
     1
102
RTVSPost2010Prop45
280
     0
102
RTVSPost2010PropOp45
 70
     1
102
RTVSPost2010Prop46
 90
       50
102
RTVSPost2010PropOp46
 70
     1
102
RTVSPost2010Prop47
 90
       50
102
RTVSPost2010PropOp47
 70
     1
102
RTVSPost2010Prop48
 90
       50
102
RTVSPost2010PropOp48
 70
     1
102
RTVSPost2010Prop49
280
     0
102
RTVSPost2010PropOp49
 70
     1
102
RTVSPost2010Prop50
 90
       50
102
RTVSPost2010PropOp50
 70
     1
102
RTVSPost2010Prop51ColorIndex
 90
      256
102
RTVSPost2010Prop51ColorRGB
 90
-16777216
102
RTVSPost2010PropOp51
 70
     0
102
RTVSPost2010Prop52
140
1.0
102
RTVSPost2010PropOp52
 70
     0
102
RTVSPost2010Prop53
 90
        2
102
RTVSPost2010PropOp53
 70
     1
102
RTVSPost2010Prop54
  1
strokes_ogs.tif
102
RTVSPost2010PropOp54
 70
     1
102
RTVSPost2010Prop55
280
     0
102
RTVSPost2010PropOp55
 70
     1
102
RTVSPost2010Prop56
140
1.0
102
RTVSPost2010PropOp56
 70
     1
102
RTVSPost2010Prop57
140
1.0
102
RTVSPost2010PropOp57
 70
     1
102
RTVSPropertyOp0
 70
     1
102
RTVSPropertyOp1
 70
     1
102
RTVSPropertyOp2
 70
     1
102
RTVSPropertyOp3
 70
     1
102
RTVSPropertyOp4
 70
     1
102
RTVSPropertyOp5
 70
     1
102
RTVSPropertyOp6
 70
     1
102
RTVSPropertyOp7
 70
     1
102
RTVSPropertyOp8
 70
     1
102
RTVSPropertyOp9
 70
     1
102
RTVSPropertyOp10
 70
     1
102
RTVSPropertyOp11
 70
     1
102
RTVSPropertyOp12
 70
     1
102
RTVSPropertyOp13
 70
     1
102
RTVSPropertyOp14
 70
     1
102
RTVSPropertyOp15
 70
     1
102
RTVSPropertyOp16
 70
     1
102
RTVSPropertyOp17
 70
     1
102
RTVSPropertyOp18
 70
     1
102
RTVSPropertyOp19
 70
     1
102
RTVSPropertyOp20
 70
     1
102
RTVSPropertyOp21
 70
     1
102
RTVSPropertyOp22
 70
     1
102
RTVSPropertyOp23
 70
     1
102
RTVSPropertyOp24
 70
     1
102
RTVSPropertyOp25
 70
     1
102
RTVSPropertyOp26
 70
     1
102
RTVSPropertyOp27
 70
     1
102
RTVSPropertyOp28
 70
     1
102
RTVSPropertyOp29
 70
     1
102
RTVSPropertyOp30
 70
     1
102
RTVSPropertyOp31
 70
     1
102
RTVSPropertyOp32
 70
     1
102
RTVSPropertyOp33
 70
     1
102
RTVSPropertyOp34
 70
     1
102
RTVSPropertyOp35
 70
     1
102
RTVSPropertyOp36
 70
     1
102
RTVSPropertyOp37
 70
     1
102
RTVSPropertyOp38
 70
     1
102
RTVSPropertyOp39
 70
     1
102
RTVSPropertyOp40
 70
     1
102
RTVSPropertyOp41
 70
     1
102
RTVSPropertyOp42
 70
     1
102
RTVSPropertyOp43
 70
     1
102
RTVSPropertyOp44
 70
     1
102
RTVSPropertyOp45
 70
     1
102
RTVSPropertyOp46
 70
     1
102
RTVSPropertyOp47
 70
     1
102
RTVSPropertyOp48
 70
     1
102
RTVSPropertyOp49
 70
     1
102
RTVSPropertyOp50
 70
     1
102
RTVSPropertyOp51
 70
     0
102
RTVSPropertyOp52
 70
     0
102
RTVSPropertyOp53
 70
     1
102
RTVSPropertyOp54
 70
     1
102
RTVSPropertyOp55
 70
     1
102
RTVSPropertyOp56
 70
     1
102
RTVSPropertyOp57
 70
     1
102
RTVSPropertyOp58
 70
     1
102
RTVSPropertyOp59
 70
     1
102
RTVSPropertyOp60
 70
     1
102
RTVSPropertyOp61
 70
     1
102
RTVSPropertyOp62
 70
     1
  0
XRECORD
  5
41F0
102
{ACAD_REACTORS
330
41EF
102
}
330
41EF
100
AcDbXrecord
280
     1
102
RTVSPost2010Prop28
280
     0
102
RTVSPost2010PropOp28
 70
     1
102
RTVSPost2010Prop29
280
     1
102
RTVSPost2010PropOp29
 70
     1
102
RTVSPost2010Prop30
280
     1
102
RTVSPost2010PropOp30
 70
     1
102
RTVSPost2010Prop31
280
     0
102
RTVSPost2010PropOp31
 70
     1
102
RTVSPost2010Prop32
280
     0
102
RTVSPost2010PropOp32
 70
     1
102
RTVSPost2010Prop33
280
     0
102
RTVSPost2010PropOp33
 70
     1
102
RTVSPost2010Prop34
280
     0
102
RTVSPost2010PropOp34
 70
     1
102
RTVSPost2010Prop35
280
     0
102
RTVSPost2010PropOp35
 70
     1
102
RTVSPost2010Prop36
280
     0
102
RTVSPost2010PropOp36
 70
     1
102
RTVSPost2010Prop37
 90
       50
102
RTVSPost2010PropOp37
 70
     1
102
RTVSPost2010Prop38
140
0.0
102
RTVSPost2010PropOp38
 70
     1
102
RTVSPost2010Prop39
140
1.0
102
RTVSPost2010PropOp39
 70
     1
102
RTVSPost2010Prop40
 90
        0
102
RTVSPost2010PropOp40
 70
     1
102
RTVSPost2010Prop41ColorIndex
 90
       18
102
RTVSPost2010Prop41ColorRGB
 90
        0
102
RTVSPost2010PropOp41
 70
     1
102
RTVSPost2010Prop42
 90
       50
102
RTVSPost2010PropOp42
 70
     1
102
RTVSPost2010Prop43
 90
        3
102
RTVSPost2010PropOp43
 70
     1
102
RTVSPost2010Prop44ColorIndex
 90
        5
102
RTVSPost2010Prop44ColorRGB
 90
      255
102
RTVSPost2010PropOp44
 70
     1
102
RTVSPost2010Prop45
280
     0
102
RTVSPost2010PropOp45
 70
     1
102
RTVSPost2010Prop46
 90
       50
102
RTVSPost2010PropOp46
 70
     1
102
RTVSPost2010Prop47
 90
       50
102
RTVSPost2010PropOp47
 70
     1
102
RTVSPost2010Prop48
 90
       50
102
RTVSPost2010PropOp48
 70
     1
102
RTVSPost2010Prop49
280
     0
102
RTVSPost2010PropOp49
 70
     1
102
RTVSPost2010Prop50
 90
       50
102
RTVSPost2010PropOp50
 70
     1
102
RTVSPost2010Prop51ColorIndex
 90
      256
102
RTVSPost2010Prop51ColorRGB
 90
-16777216
102
RTVSPost2010PropOp51
 70
     0
102
RTVSPost2010Prop52
140
1.0
102
RTVSPost2010PropOp52
 70
     0
102
RTVSPost2010Prop53
 90
        2
102
RTVSPost2010PropOp53
 70
     1
102
RTVSPost2010Prop54
  1
strokes_ogs.tif
102
RTVSPost2010PropOp54
 70
     1
102
RTVSPost2010Prop55
280
     0
102
RTVSPost2010PropOp55
 70
     1
102
RTVSPost2010Prop56
140
1.0
102
RTVSPost2010PropOp56
 70
     1
102
RTVSPost2010Prop57
140
1.0
102
RTVSPost2010PropOp57
 70
     1
102
RTVSPropertyOp0
 70
     1
102
RTVSPropertyOp1
 70
     1
102
RTVSPropertyOp2
 70
     1
102
RTVSPropertyOp3
 70
     1
102
RTVSPropertyOp4
 70
     1
102
RTVSPropertyOp5
 70
     1
102
RTVSPropertyOp6
 70
     1
102
RTVSPropertyOp7
 70
     1
102
RTVSPropertyOp8
 70
     1
102
RTVSPropertyOp9
 70
     1
102
RTVSPropertyOp10
 70
     1
102
RTVSPropertyOp11
 70
     1
102
RTVSPropertyOp12
 70
     1
102
RTVSPropertyOp13
 70
     1
102
RTVSPropertyOp14
 70
     1
102
RTVSPropertyOp15
 70
     1
102
RTVSPropertyOp16
 70
     1
102
RTVSPropertyOp17
 70
     1
102
RTVSPropertyOp18
 70
     1
102
RTVSPropertyOp19
 70
     1
102
RTVSPropertyOp20
 70
     1
102
RTVSPropertyOp21
 70
     1
102
RTVSPropertyOp22
 70
     1
102
RTVSPropertyOp23
 70
     1
102
RTVSPropertyOp24
 70
     1
102
RTVSPropertyOp25
 70
     1
102
RTVSPropertyOp26
 70
     1
102
RTVSPropertyOp27
 70
     1
102
RTVSPropertyOp28
 70
     1
102
RTVSPropertyOp29
 70
     1
102
RTVSPropertyOp30
 70
     1
102
RTVSPropertyOp31
 70
     1
102
RTVSPropertyOp32
 70
     1
102
RTVSPropertyOp33
 70
     1
102
RTVSPropertyOp34
 70
     1
102
RTVSPropertyOp35
 70
     1
102
RTVSPropertyOp36
 70
     1
102
RTVSPropertyOp37
 70
     1
102
RTVSPropertyOp38
 70
     1
102
RTVSPropertyOp39
 70
     1
102
RTVSPropertyOp40
 70
     1
102
RTVSPropertyOp41
 70
     1
102
RTVSPropertyOp42
 70
     1
102
RTVSPropertyOp43
 70
     1
102
RTVSPropertyOp44
 70
     1
102
RTVSPropertyOp45
 70
     1
102
RTVSPropertyOp46
 70
     1
102
RTVSPropertyOp47
 70
     1
102
RTVSPropertyOp48
 70
     1
102
RTVSPropertyOp49
 70
     1
102
RTVSPropertyOp50
 70
     1
102
RTVSPropertyOp51
 70
     0
102
RTVSPropertyOp52
 70
     0
102
RTVSPropertyOp53
 70
     1
102
RTVSPropertyOp54
 70
     1
102
RTVSPropertyOp55
 70
     1
102
RTVSPropertyOp56
 70
     1
102
RTVSPropertyOp57
 70
     1
102
RTVSPropertyOp58
 70
     1
102
RTVSPropertyOp59
 70
     1
102
RTVSPropertyOp60
 70
     1
102
RTVSPropertyOp61
 70
     1
102
RTVSPropertyOp62
 70
     1
  0
XRECORD
  5
41E6
102
{ACAD_REACTORS
330
41E5
102
}
330
41E5
100
AcDbXrecord
280
     1
102
RTVSPost2010Prop28
280
     0
102
RTVSPost2010PropOp28
 70
     1
102
RTVSPost2010Prop29
280
     1
102
RTVSPost2010PropOp29
 70
     1
102
RTVSPost2010Prop30
280
     1
102
RTVSPost2010PropOp30
 70
     1
102
RTVSPost2010Prop31
280
     0
102
RTVSPost2010PropOp31
 70
     1
102
RTVSPost2010Prop32
280
     0
102
RTVSPost2010PropOp32
 70
     1
102
RTVSPost2010Prop33
280
     0
102
RTVSPost2010PropOp33
 70
     1
102
RTVSPost2010Prop34
280
     0
102
RTVSPost2010PropOp34
 70
     1
102
RTVSPost2010Prop35
280
     0
102
RTVSPost2010PropOp35
 70
     1
102
RTVSPost2010Prop36
280
     0
102
RTVSPost2010PropOp36
 70
     1
102
RTVSPost2010Prop37
 90
       50
102
RTVSPost2010PropOp37
 70
     1
102
RTVSPost2010Prop38
140
0.0
102
RTVSPost2010PropOp38
 70
     1
102
RTVSPost2010Prop39
140
1.0
102
RTVSPost2010PropOp39
 70
     1
102
RTVSPost2010Prop40
 90
        0
102
RTVSPost2010PropOp40
 70
     1
102
RTVSPost2010Prop41ColorIndex
 90
       18
102
RTVSPost2010Prop41ColorRGB
 90
        0
102
RTVSPost2010PropOp41
 70
     1
102
RTVSPost2010Prop42
 90
       50
102
RTVSPost2010PropOp42
 70
     1
102
RTVSPost2010Prop43
 90
        3
102
RTVSPost2010PropOp43
 70
     1
102
RTVSPost2010Prop44ColorIndex
 90
        5
102
RTVSPost2010Prop44ColorRGB
 90
      255
102
RTVSPost2010PropOp44
 70
     1
102
RTVSPost2010Prop45
280
     0
102
RTVSPost2010PropOp45
 70
     1
102
RTVSPost2010Prop46
 90
       50
102
RTVSPost2010PropOp46
 70
     1
102
RTVSPost2010Prop47
 90
       50
102
RTVSPost2010PropOp47
 70
     1
102
RTVSPost2010Prop48
 90
       50
102
RTVSPost2010PropOp48
 70
     1
102
RTVSPost2010Prop49
280
     0
102
RTVSPost2010PropOp49
 70
     1
102
RTVSPost2010Prop50
 90
       50
102
RTVSPost2010PropOp50
 70
     1
102
RTVSPost2010Prop51ColorIndex
 90
      256
102
RTVSPost2010Prop51ColorRGB
 90
-16777216
102
RTVSPost2010PropOp51
 70
     0
102
RTVSPost2010Prop52
140
1.0
102
RTVSPost2010PropOp52
 70
     0
102
RTVSPost2010Prop53
 90
        2
102
RTVSPost2010PropOp53
 70
     1
102
RTVSPost2010Prop54
  1
strokes_ogs.tif
102
RTVSPost2010PropOp54
 70
     1
102
RTVSPost2010Prop55
280
     0
102
RTVSPost2010PropOp55
 70
     1
102
RTVSPost2010Prop56
140
1.0
102
RTVSPost2010PropOp56
 70
     1
102
RTVSPost2010Prop57
140
1.0
102
RTVSPost2010PropOp57
 70
     1
102
RTVSPropertyOp0
 70
     1
102
RTVSPropertyOp1
 70
     1
102
RTVSPropertyOp2
 70
     1
102
RTVSPropertyOp3
 70
     1
102
RTVSPropertyOp4
 70
     1
102
RTVSPropertyOp5
 70
     1
102
RTVSPropertyOp6
 70
     1
102
RTVSPropertyOp7
 70
     1
102
RTVSPropertyOp8
 70
     1
102
RTVSPropertyOp9
 70
     1
102
RTVSPropertyOp10
 70
     1
102
RTVSPropertyOp11
 70
     1
102
RTVSPropertyOp12
 70
     1
102
RTVSPropertyOp13
 70
     1
102
RTVSPropertyOp14
 70
     1
102
RTVSPropertyOp15
 70
     1
102
RTVSPropertyOp16
 70
     1
102
RTVSPropertyOp17
 70
     1
102
RTVSPropertyOp18
 70
     1
102
RTVSPropertyOp19
 70
     1
102
RTVSPropertyOp20
 70
     1
102
RTVSPropertyOp21
 70
     1
102
RTVSPropertyOp22
 70
     1
102
RTVSPropertyOp23
 70
     1
102
RTVSPropertyOp24
 70
     1
102
RTVSPropertyOp25
 70
     1
102
RTVSPropertyOp26
 70
     1
102
RTVSPropertyOp27
 70
     1
102
RTVSPropertyOp28
 70
     1
102
RTVSPropertyOp29
 70
     1
102
RTVSPropertyOp30
 70
     1
102
RTVSPropertyOp31
 70
     1
102
RTVSPropertyOp32
 70
     1
102
RTVSPropertyOp33
 70
     1
102
RTVSPropertyOp34
 70
     1
102
RTVSPropertyOp35
 70
     1
102
RTVSPropertyOp36
 70
     1
102
RTVSPropertyOp37
 70
     1
102
RTVSPropertyOp38
 70
     1
102
RTVSPropertyOp39
 70
     1
102
RTVSPropertyOp40
 70
     1
102
RTVSPropertyOp41
 70
     1
102
RTVSPropertyOp42
 70
     1
102
RTVSPropertyOp43
 70
     1
102
RTVSPropertyOp44
 70
     1
102
RTVSPropertyOp45
 70
     1
102
RTVSPropertyOp46
 70
     1
102
RTVSPropertyOp47
 70
     1
102
RTVSPropertyOp48
 70
     1
102
RTVSPropertyOp49
 70
     1
102
RTVSPropertyOp50
 70
     1
102
RTVSPropertyOp51
 70
     0
102
RTVSPropertyOp52
 70
     0
102
RTVSPropertyOp53
 70
     1
102
RTVSPropertyOp54
 70
     1
102
RTVSPropertyOp55
 70
     1
102
RTVSPropertyOp56
 70
     1
102
RTVSPropertyOp57
 70
     1
102
RTVSPropertyOp58
 70
     1
102
RTVSPropertyOp59
 70
     1
102
RTVSPropertyOp60
 70
     1
102
RTVSPropertyOp61
 70
     1
102
RTVSPropertyOp62
 70
     1
  0
XRECORD
  5
41DA
102
{ACAD_REACTORS
330
41D9
102
}
330
41D9
100
AcDbXrecord
280
     1
102
RTVSPost2010Prop28
280
     0
102
RTVSPost2010PropOp28
 70
     1
102
RTVSPost2010Prop29
280
     1
102
RTVSPost2010PropOp29
 70
     1
102
RTVSPost2010Prop30
280
     1
102
RTVSPost2010PropOp30
 70
     1
102
RTVSPost2010Prop31
280
     0
102
RTVSPost2010PropOp31
 70
     1
102
RTVSPost2010Prop32
280
     0
102
RTVSPost2010PropOp32
 70
     1
102
RTVSPost2010Prop33
280
     0
102
RTVSPost2010PropOp33
 70
     1
102
RTVSPost2010Prop34
280
     0
102
RTVSPost2010PropOp34
 70
     1
102
RTVSPost2010Prop35
280
     0
102
RTVSPost2010PropOp35
 70
     1
102
RTVSPost2010Prop36
280
     0
102
RTVSPost2010PropOp36
 70
     1
102
RTVSPost2010Prop37
 90
       50
102
RTVSPost2010PropOp37
 70
     1
102
RTVSPost2010Prop38
140
0.0
102
RTVSPost2010PropOp38
 70
     1
102
RTVSPost2010Prop39
140
1.0
102
RTVSPost2010PropOp39
 70
     1
102
RTVSPost2010Prop40
 90
        0
102
RTVSPost2010PropOp40
 70
     1
102
RTVSPost2010Prop41ColorIndex
 90
       18
102
RTVSPost2010Prop41ColorRGB
 90
        0
102
RTVSPost2010PropOp41
 70
     1
102
RTVSPost2010Prop42
 90
       50
102
RTVSPost2010PropOp42
 70
     1
102
RTVSPost2010Prop43
 90
        3
102
RTVSPost2010PropOp43
 70
     1
102
RTVSPost2010Prop44ColorIndex
 90
        5
102
RTVSPost2010Prop44ColorRGB
 90
      255
102
RTVSPost2010PropOp44
 70
     1
102
RTVSPost2010Prop45
280
     0
102
RTVSPost2010PropOp45
 70
     1
102
RTVSPost2010Prop46
 90
       50
102
RTVSPost2010PropOp46
 70
     1
102
RTVSPost2010Prop47
 90
       50
102
RTVSPost2010PropOp47
 70
     1
102
RTVSPost2010Prop48
 90
       50
102
RTVSPost2010PropOp48
 70
     1
102
RTVSPost2010Prop49
280
     0
102
RTVSPost2010PropOp49
 70
     1
102
RTVSPost2010Prop50
 90
       50
102
RTVSPost2010PropOp50
 70
     1
102
RTVSPost2010Prop51ColorIndex
 90
      256
102
RTVSPost2010Prop51ColorRGB
 90
-16777216
102
RTVSPost2010PropOp51
 70
     0
102
RTVSPost2010Prop52
140
1.0
102
RTVSPost2010PropOp52
 70
     0
102
RTVSPost2010Prop53
 90
        2
102
RTVSPost2010PropOp53
 70
     1
102
RTVSPost2010Prop54
  1
strokes_ogs.tif
102
RTVSPost2010PropOp54
 70
     1
102
RTVSPost2010Prop55
280
     0
102
RTVSPost2010PropOp55
 70
     1
102
RTVSPost2010Prop56
140
1.0
102
RTVSPost2010PropOp56
 70
     1
102
RTVSPost2010Prop57
140
1.0
102
RTVSPost2010PropOp57
 70
     1
102
RTVSPropertyOp0
 70
     1
102
RTVSPropertyOp1
 70
     1
102
RTVSPropertyOp2
 70
     1
102
RTVSPropertyOp3
 70
     1
102
RTVSPropertyOp4
 70
     1
102
RTVSPropertyOp5
 70
     1
102
RTVSPropertyOp6
 70
     1
102
RTVSPropertyOp7
 70
     1
102
RTVSPropertyOp8
 70
     1
102
RTVSPropertyOp9
 70
     1
102
RTVSPropertyOp10
 70
     1
102
RTVSPropertyOp11
 70
     1
102
RTVSPropertyOp12
 70
     1
102
RTVSPropertyOp13
 70
     1
102
RTVSPropertyOp14
 70
     1
102
RTVSPropertyOp15
 70
     1
102
RTVSPropertyOp16
 70
     1
102
RTVSPropertyOp17
 70
     1
102
RTVSPropertyOp18
 70
     1
102
RTVSPropertyOp19
 70
     1
102
RTVSPropertyOp20
 70
     1
102
RTVSPropertyOp21
 70
     1
102
RTVSPropertyOp22
 70
     1
102
RTVSPropertyOp23
 70
     1
102
RTVSPropertyOp24
 70
     1
102
RTVSPropertyOp25
 70
     1
102
RTVSPropertyOp26
 70
     1
102
RTVSPropertyOp27
 70
     1
102
RTVSPropertyOp28
 70
     1
102
RTVSPropertyOp29
 70
     1
102
RTVSPropertyOp30
 70
     1
102
RTVSPropertyOp31
 70
     1
102
RTVSPropertyOp32
 70
     1
102
RTVSPropertyOp33
 70
     1
102
RTVSPropertyOp34
 70
     1
102
RTVSPropertyOp35
 70
     1
102
RTVSPropertyOp36
 70
     1
102
RTVSPropertyOp37
 70
     1
102
RTVSPropertyOp38
 70
     1
102
RTVSPropertyOp39
 70
     1
102
RTVSPropertyOp40
 70
     1
102
RTVSPropertyOp41
 70
     1
102
RTVSPropertyOp42
 70
     1
102
RTVSPropertyOp43
 70
     1
102
RTVSPropertyOp44
 70
     1
102
RTVSPropertyOp45
 70
     1
102
RTVSPropertyOp46
 70
     1
102
RTVSPropertyOp47
 70
     1
102
RTVSPropertyOp48
 70
     1
102
RTVSPropertyOp49
 70
     1
102
RTVSPropertyOp50
 70
     1
102
RTVSPropertyOp51
 70
     0
102
RTVSPropertyOp52
 70
     0
102
RTVSPropertyOp53
 70
     1
102
RTVSPropertyOp54
 70
     1
102
RTVSPropertyOp55
 70
     1
102
RTVSPropertyOp56
 70
     1
102
RTVSPropertyOp57
 70
     1
102
RTVSPropertyOp58
 70
     1
102
RTVSPropertyOp59
 70
     1
102
RTVSPropertyOp60
 70
     1
102
RTVSPropertyOp61
 70
     1
102
RTVSPropertyOp62
 70
     1
  0
XRECORD
  5
41F2
102
{ACAD_REACTORS
330
41F1
102
}
330
41F1
100
AcDbXrecord
280
     1
102
RTVSPost2010Prop28
280
     0
102
RTVSPost2010PropOp28
 70
     1
102
RTVSPost2010Prop29
280
     1
102
RTVSPost2010PropOp29
 70
     1
102
RTVSPost2010Prop30
280
     1
102
RTVSPost2010PropOp30
 70
     1
102
RTVSPost2010Prop31
280
     0
102
RTVSPost2010PropOp31
 70
     1
102
RTVSPost2010Prop32
280
     0
102
RTVSPost2010PropOp32
 70
     1
102
RTVSPost2010Prop33
280
     0
102
RTVSPost2010PropOp33
 70
     1
102
RTVSPost2010Prop34
280
     0
102
RTVSPost2010PropOp34
 70
     1
102
RTVSPost2010Prop35
280
     0
102
RTVSPost2010PropOp35
 70
     1
102
RTVSPost2010Prop36
280
     0
102
RTVSPost2010PropOp36
 70
     1
102
RTVSPost2010Prop37
 90
       50
102
RTVSPost2010PropOp37
 70
     1
102
RTVSPost2010Prop38
140
0.0
102
RTVSPost2010PropOp38
 70
     1
102
RTVSPost2010Prop39
140
1.0
102
RTVSPost2010PropOp39
 70
     1
102
RTVSPost2010Prop40
 90
        0
102
RTVSPost2010PropOp40
 70
     1
102
RTVSPost2010Prop41ColorIndex
 90
       18
102
RTVSPost2010Prop41ColorRGB
 90
        0
102
RTVSPost2010PropOp41
 70
     1
102
RTVSPost2010Prop42
 90
       50
102
RTVSPost2010PropOp42
 70
     1
102
RTVSPost2010Prop43
 90
        3
102
RTVSPost2010PropOp43
 70
     1
102
RTVSPost2010Prop44ColorIndex
 90
        5
102
RTVSPost2010Prop44ColorRGB
 90
      255
102
RTVSPost2010PropOp44
 70
     1
102
RTVSPost2010Prop45
280
     0
102
RTVSPost2010PropOp45
 70
     1
102
RTVSPost2010Prop46
 90
       50
102
RTVSPost2010PropOp46
 70
     1
102
RTVSPost2010Prop47
 90
       50
102
RTVSPost2010PropOp47
 70
     1
102
RTVSPost2010Prop48
 90
       50
102
RTVSPost2010PropOp48
 70
     1
102
RTVSPost2010Prop49
280
     0
102
RTVSPost2010PropOp49
 70
     1
102
RTVSPost2010Prop50
 90
       50
102
RTVSPost2010PropOp50
 70
     1
102
RTVSPost2010Prop51ColorIndex
 90
      256
102
RTVSPost2010Prop51ColorRGB
 90
-16777216
102
RTVSPost2010PropOp51
 70
     0
102
RTVSPost2010Prop52
140
1.0
102
RTVSPost2010PropOp52
 70
     0
102
RTVSPost2010Prop53
 90
        2
102
RTVSPost2010PropOp53
 70
     1
102
RTVSPost2010Prop54
  1
strokes_ogs.tif
102
RTVSPost2010PropOp54
 70
     1
102
RTVSPost2010Prop55
280
     0
102
RTVSPost2010PropOp55
 70
     1
102
RTVSPost2010Prop56
140
1.0
102
RTVSPost2010PropOp56
 70
     1
102
RTVSPost2010Prop57
140
1.0
102
RTVSPost2010PropOp57
 70
     1
102
RTVSPropertyOp0
 70
     1
102
RTVSPropertyOp1
 70
     1
102
RTVSPropertyOp2
 70
     1
102
RTVSPropertyOp3
 70
     1
102
RTVSPropertyOp4
 70
     1
102
RTVSPropertyOp5
 70
     1
102
RTVSPropertyOp6
 70
     1
102
RTVSPropertyOp7
 70
     1
102
RTVSPropertyOp8
 70
     1
102
RTVSPropertyOp9
 70
     1
102
RTVSPropertyOp10
 70
     1
102
RTVSPropertyOp11
 70
     1
102
RTVSPropertyOp12
 70
     1
102
RTVSPropertyOp13
 70
     1
102
RTVSPropertyOp14
 70
     1
102
RTVSPropertyOp15
 70
     1
102
RTVSPropertyOp16
 70
     1
102
RTVSPropertyOp17
 70
     1
102
RTVSPropertyOp18
 70
     1
102
RTVSPropertyOp19
 70
     1
102
RTVSPropertyOp20
 70
     1
102
RTVSPropertyOp21
 70
     1
102
RTVSPropertyOp22
 70
     1
102
RTVSPropertyOp23
 70
     1
102
RTVSPropertyOp24
 70
     1
102
RTVSPropertyOp25
 70
     1
102
RTVSPropertyOp26
 70
     1
102
RTVSPropertyOp27
 70
     1
102
RTVSPropertyOp28
 70
     1
102
RTVSPropertyOp29
 70
     1
102
RTVSPropertyOp30
 70
     1
102
RTVSPropertyOp31
 70
     1
102
RTVSPropertyOp32
 70
     1
102
RTVSPropertyOp33
 70
     1
102
RTVSPropertyOp34
 70
     1
102
RTVSPropertyOp35
 70
     1
102
RTVSPropertyOp36
 70
     1
102
RTVSPropertyOp37
 70
     1
102
RTVSPropertyOp38
 70
     1
102
RTVSPropertyOp39
 70
     1
102
RTVSPropertyOp40
 70
     1
102
RTVSPropertyOp41
 70
     1
102
RTVSPropertyOp42
 70
     1
102
RTVSPropertyOp43
 70
     1
102
RTVSPropertyOp44
 70
     1
102
RTVSPropertyOp45
 70
     1
102
RTVSPropertyOp46
 70
     1
102
RTVSPropertyOp47
 70
     1
102
RTVSPropertyOp48
 70
     1
102
RTVSPropertyOp49
 70
     1
102
RTVSPropertyOp50
 70
     1
102
RTVSPropertyOp51
 70
     0
102
RTVSPropertyOp52
 70
     0
102
RTVSPropertyOp53
 70
     1
102
RTVSPropertyOp54
 70
     1
102
RTVSPropertyOp55
 70
     1
102
RTVSPropertyOp56
 70
     1
102
RTVSPropertyOp57
 70
     1
102
RTVSPropertyOp58
 70
     1
102
RTVSPropertyOp59
 70
     1
102
RTVSPropertyOp60
 70
     1
102
RTVSPropertyOp61
 70
     1
102
RTVSPropertyOp62
 70
     1
  0
ENDSEC
  0
EOF
