  0
SECTION
  2
HEADER
  9
$ACADVER
  1
AC1015
  9
$ACADMAINTVER
 70
    20
  9
$DWGCODEPAGE
  3
ANSI_932
  9
$INSBASE
 10
0.0
 20
0.0
 30
0.0
  9
$EXTMIN
 10
9.9999975266385
 20
10.0
 30
0.0
  9
$EXTMAX
 10
629.0994958302563
 20
457.2266348213828
 30
0.0
  9
$LIMMIN
 10
0.0000015376081137
 20
-0.0000001931532552
  9
$LIMMAX
 10
705.0000015376082
 20
486.0227270795738
  9
$ORTHOMODE
 70
     1
  9
$REGENMODE
 70
     1
  9
$FILLMODE
 70
     1
  9
$QTEXTMODE
 70
     0
  9
$MIRRTEXT
 70
     1
  9
$LTSCALE
 40
1.0
  9
$ATTMODE
 70
     1
  9
$TEXTSIZE
 40
2.5
  9
$TRACEWID
 40
1.0
  9
$TEXTSTYLE
  7
STANDARD
  9
$CLAYER
  8
0
  9
$CELTYPE
  6
BYLAYER
  9
$CECOLOR
 62
   256
  9
$CELTSCALE
 40
1.0
  9
$DISPSILH
 70
     0
  9
$DIMSCALE
 40
1.0
  9
$DIMASZ
 40
3.0
  9
$DIMEXO
 40
1.0
  9
$DIMDLI
 40
10.0
  9
$DIMRND
 40
0.0
  9
$DIMDLE
 40
0.0
  9
$DIMEXE
 40
1.0
  9
$DIMTP
 40
0.0
  9
$DIMTM
 40
0.0
  9
$DIMTXT
 40
3.2
  9
$DIMCEN
 40
0.0
  9
$DIMTSZ
 40
0.0
  9
$DIMTOL
 70
     0
  9
$DIMLIM
 70
     0
  9
$DIMTIH
 70
     0
  9
$DIMTOH
 70
     0
  9
$DIMSE1
 70
     0
  9
$DIMSE2
 70
     0
  9
$DIMTAD
 70
     3
  9
$DIMZIN
 70
     8
  9
$DIMBLK
  1

  9
$DIMASO
 70
     1
  9
$DIMSHO
 70
     1
  9
$DIMPOST
  1

  9
$DIMAPOST
  1

  9
$DIMALT
 70
     0
  9
$DIMALTD
 70
     2
  9
$DIMALTF
 40
25.4
  9
$DIMLFAC
 40
1.0
  9
$DIMTOFL
 70
     1
  9
$DIMTVP
 40
0.0
  9
$DIMTIX
 70
     0
  9
$DIMSOXD
 70
     0
  9
$DIMSAH
 70
     1
  9
$DIMBLK1
  1
OPEN
  9
$DIMBLK2
  1
OPEN
  9
$DIMSTYLE
  2
STANDARD
  9
$DIMCLRD
 70
     0
  9
$DIMCLRE
 70
     0
  9
$DIMCLRT
 70
     0
  9
$DIMTFAC
 40
1.0
  9
$DIMGAP
 40
1.0
  9
$DIMJUST
 70
     0
  9
$DIMSD1
 70
     0
  9
$DIMSD2
 70
     0
  9
$DIMTOLJ
 70
     1
  9
$DIMTZIN
 70
     0
  9
$DIMALTZ
 70
     0
  9
$DIMALTTZ
 70
     0
  9
$DIMUPT
 70
     0
  9
$DIMDEC
 70
     4
  9
$DIMTDEC
 70
     4
  9
$DIMALTU
 70
     2
  9
$DIMALTTD
 70
     2
  9
$DIMTXSTY
  7
STANDARD
  9
$DIMAUNIT
 70
     0
  9
$DIMADEC
 70
     0
  9
$DIMALTRND
 40
0.0
  9
$DIMAZIN
 70
     0
  9
$DIMDSEP
 70
    46
  9
$DIMATFIT
 70
     3
  9
$DIMFRAC
 70
     0
  9
$DIMLDRBLK
  1
OPEN
  9
$DIMLUNIT
 70
     2
  9
$DIMLWD
 70
    -2
  9
$DIMLWE
 70
    -2
  9
$DIMTMOVE
 70
     0
  9
$LUNITS
 70
     2
  9
$LUPREC
 70
     4
  9
$SKETCHINC
 40
1.0
  9
$FILLETRAD
 40
0.0
  9
$AUNITS
 70
     0
  9
$AUPREC
 70
     0
  9
$MENU
  1
.
  9
$ELEVATION
 40
0.0
  9
$PELEVATION
 40
0.0
  9
$THICKNESS
 40
0.0
  9
$LIMCHECK
 70
     0
  9
$CHAMFERA
 40
10.0
  9
$CHAMFERB
 40
10.0
  9
$CHAMFERC
 40
20.0
  9
$CHAMFERD
 40
0.0
  9
$SKPOLY
 70
     0
  9
$TDCREATE
 40
2454154.550453368
  9
$TDUCREATE
 40
2454154.175453368
  9
$TDUPDATE
 40
2457192.690869109
  9
$TDUUPDATE
 40
2457192.315869109
  9
$TDINDWG
 40
0.1842109491
  9
$TDUSRTIMER
 40
0.1842109259
  9
$USRTIMER
 70
     1
  9
$ANGBASE
 50
0.0
  9
$ANGDIR
 70
     0
  9
$PDMODE
 70
     0
  9
$PDSIZE
 40
0.0
  9
$PLINEWID
 40
0.0
  9
$SPLFRAME
 70
     0
  9
$SPLINETYPE
 70
     6
  9
$SPLINESEGS
 70
     8
  9
$HANDSEED
  5
3EFF
  9
$SURFTAB1
 70
     6
  9
$SURFTAB2
 70
     6
  9
$SURFTYPE
 70
     6
  9
$SURFU
 70
     6
  9
$SURFV
 70
     6
  9
$UCSBASE
  2

  9
$UCSNAME
  2

  9
$UCSORG
 10
0.0
 20
0.0
 30
0.0
  9
$UCSXDIR
 10
1.0
 20
0.0
 30
0.0
  9
$UCSYDIR
 10
0.0
 20
1.0
 30
0.0
  9
$UCSORTHOREF
  2

  9
$UCSORTHOVIEW
 70
     0
  9
$UCSORGTOP
 10
0.0
 20
0.0
 30
0.0
  9
$UCSORGBOTTOM
 10
0.0
 20
0.0
 30
0.0
  9
$UCSORGLEFT
 10
0.0
 20
0.0
 30
0.0
  9
$UCSORGRIGHT
 10
0.0
 20
0.0
 30
0.0
  9
$UCSORGFRONT
 10
0.0
 20
0.0
 30
0.0
  9
$UCSORGBACK
 10
0.0
 20
0.0
 30
0.0
  9
$PUCSBASE
  2

  9
$PUCSNAME
  2

  9
$PUCSORG
 10
0.0
 20
0.0
 30
0.0
  9
$PUCSXDIR
 10
1.0
 20
0.0
 30
0.0
  9
$PUCSYDIR
 10
0.0
 20
1.0
 30
0.0
  9
$PUCSORTHOREF
  2

  9
$PUCSORTHOVIEW
 70
     0
  9
$PUCSORGTOP
 10
0.0
 20
0.0
 30
0.0
  9
$PUCSORGBOTTOM
 10
0.0
 20
0.0
 30
0.0
  9
$PUCSORGLEFT
 10
0.0
 20
0.0
 30
0.0
  9
$PUCSORGRIGHT
 10
0.0
 20
0.0
 30
0.0
  9
$PUCSORGFRONT
 10
0.0
 20
0.0
 30
0.0
  9
$PUCSORGBACK
 10
0.0
 20
0.0
 30
0.0
  9
$USERI1
 70
     0
  9
$USERI2
 70
     0
  9
$USERI3
 70
     0
  9
$USERI4
 70
     0
  9
$USERI5
 70
     0
  9
$USERR1
 40
0.0
  9
$USERR2
 40
0.0
  9
$USERR3
 40
0.0
  9
$USERR4
 40
0.0
  9
$USERR5
 40
0.0
  9
$WORLDVIEW
 70
     1
  9
$SHADEDGE
 70
     3
  9
$SHADEDIF
 70
    70
  9
$TILEMODE
 70
     1
  9
$MAXACTVP
 70
    48
  9
$PINSBASE
 10
0.0
 20
0.0
 30
0.0
  9
$PLIMCHECK
 70
     0
  9
$PEXTMIN
 10
1.000000000000000E+20
 20
1.000000000000000E+20
 30
1.000000000000000E+20
  9
$PEXTMAX
 10
-1.000000000000000E+20
 20
-1.000000000000000E+20
 30
-1.000000000000000E+20
  9
$PLIMMIN
 10
0.0
 20
0.0
  9
$PLIMMAX
 10
420.0
 20
297.0
  9
$UNITMODE
 70
     0
  9
$VISRETAIN
 70
     1
  9
$PLINEGEN
 70
     0
  9
$PSLTSCALE
 70
     1
  9
$TREEDEPTH
 70
  3020
  9
$CMLSTYLE
  2
STANDARD
  9
$CMLJUST
 70
     0
  9
$CMLSCALE
 40
20.0
  9
$PROXYGRAPHICS
 70
     1
  9
$MEASUREMENT
 70
     0
  9
$CELWEIGHT
370
    -1
  9
$ENDCAPS
280
     0
  9
$JOINSTYLE
280
     0
  9
$LWDISPLAY
290
     0
  9
$INSUNITS
 70
     0
  9
$HYPERLINKBASE
  1

  9
$STYLESHEET
  1

  9
$XEDIT
290
     1
  9
$CEPSNTYPE
380
     0
  9
$PSTYLEMODE
290
     1
  9
$FINGERPRINTGUID
  2
{067642CB-F29D-420B-98A9-20F789A01F7D}
  9
$VERSIONGUID
  2
{937ADAE4-0167-4BC3-BA99-91FCA3D5A113}
  9
$EXTNAMES
290
     1
  9
$PSVPSCALE
 40
0.0
  9
$OLESTARTUP
290
     0
  0
ENDSEC
  0
SECTION
  2
CLASSES
  0
CLASS
  1
ACDBDICTIONARYWDFLT
  2
AcDbDictionaryWithDefault
  3
ObjectDBX Classes
 90
        0
280
     0
281
     0
  0
CLASS
  1
ACDBPLACEHOLDER
  2
AcDbPlaceHolder
  3
ObjectDBX Classes
 90
        0
280
     0
281
     0
  0
CLASS
  1
LAYOUT
  2
AcDbLayout
  3
ObjectDBX Classes
 90
        0
280
     0
281
     0
  0
CLASS
  1
DICTIONARYVAR
  2
AcDbDictionaryVar
  3
ObjectDBX Classes
 90
        0
280
     0
281
     0
  0
CLASS
  1
MATERIAL
  2
AcDbMaterial
  3
ObjectDBX Classes
 90
     1153
280
     0
281
     0
  0
CLASS
  1
VISUALSTYLE
  2
AcDbVisualStyle
  3
ObjectDBX Classes
 90
     4095
280
     0
281
     0
  0
CLASS
  1
TABLESTYLE
  2
AcDbTableStyle
  3
ObjectDBX Classes
 90
     4095
280
     0
281
     0
  0
CLASS
  1
SCALE
  2
AcDbScale
  3
ObjectDBX Classes
 90
     1153
280
     0
281
     0
  0
CLASS
  1
MLEADERSTYLE
  2
AcDbMLeaderStyle
  3
ACDB_MLEADERSTYLE_CLASS
 90
     4095
280
     0
281
     0
  0
CLASS
  1
ACDBSECTIONVIEWSTYLE
  2
AcDbSectionViewStyle
  3
ObjectDBX Classes
 90
     1025
280
     0
281
     0
  0
CLASS
  1
ACDBDETAILVIEWSTYLE
  2
AcDbDetailViewStyle
  3
ObjectDBX Classes
 90
     1025
280
     0
281
     0
  0
CLASS
  1
CELLSTYLEMAP
  2
AcDbCellStyleMap
  3
ObjectDBX Classes
 90
     1152
280
     0
281
     0
  0
ENDSEC
  0
SECTION
  2
TABLES
  0
TABLE
  2
VPORT
  5
8
330
0
100
AcDbSymbolTable
 70
     1
  0
VPORT
  5
3E49
330
8
100
AcDbSymbolTableRecord
100
AcDbViewportTableRecord
  2
*ACTIVE
 70
     0
 10
0.0
 20
0.0
 11
1.0
 21
1.0
 12
504.8127918201824
 22
233.6299749459788
 13
0.0
 23
0.0
 14
10.0
 24
10.0
 15
10.0
 25
10.0
 16
0.0
 26
0.0
 36
1.0
 17
0.0
 27
0.0
 37
0.0
 40
450.6673561878413
 41
2.35006605019815
 42
50.0
 43
0.0
 44
0.0
 50
0.0
 51
0.0
 71
     0
 72
   100
 73
     1
 74
     0
 75
     0
 76
     0
 77
     0
 78
     0
281
     0
 65
     1
110
0.0
120
0.0
130
0.0
111
1.0
121
0.0
131
0.0
112
0.0
122
1.0
132
0.0
 79
     0
146
0.0
1001
ACAD_NAV_VCDISPLAY
1070
     3
  0
ENDTAB
  0
TABLE
  2
LTYPE
  5
5
330
0
100
AcDbSymbolTable
 70
     4
  0
LTYPE
  5
12
330
5
100
AcDbSymbolTableRecord
100
AcDbLinetypeTableRecord
  2
BYBLOCK
 70
     0
  3

 72
    65
 73
     0
 40
0.0
  0
LTYPE
  5
13
330
5
100
AcDbSymbolTableRecord
100
AcDbLinetypeTableRecord
  2
BYLAYER
 70
     0
  3

 72
    65
 73
     0
 40
0.0
  0
LTYPE
  5
14
330
5
100
AcDbSymbolTableRecord
100
AcDbLinetypeTableRecord
  2
CONTINUOUS
 70
     0
  3
Solid line
 72
    65
 73
     0
 40
0.0
  0
LTYPE
  5
4B
330
5
100
AcDbSymbolTableRecord
100
AcDbLinetypeTableRecord
  2
DASHED
 70
     0
  3
Dashed __ __ __ __ __ __ __ __ __ __ __ __ __ _
 72
    65
 73
     2
 40
19.04999999999999
 49
12.7
 74
     0
 49
-6.349999999999998
 74
     0
  0
LTYPE
  5
4C
330
5
100
AcDbSymbolTableRecord
100
AcDbLinetypeTableRecord
  2
CENTER
 70
     0
  3
Center ____ _ ____ _ ____ _ ____ _ ____ _ ____
 72
    65
 73
     4
 40
50.8
 49
31.75
 74
     0
 49
-6.349999999999998
 74
     0
 49
6.349999999999998
 74
     0
 49
-6.349999999999998
 74
     0
  0
LTYPE
  5
4D
330
5
100
AcDbSymbolTableRecord
100
AcDbLinetypeTableRecord
  2
PHANTOM
 70
     0
  3
Phantom ______  __  __  ______  __  __  ______
 72
    65
 73
     6
 40
63.5
 49
31.75
 74
     0
 49
-6.349999999999998
 74
     0
 49
6.349999999999998
 74
     0
 49
-6.349999999999998
 74
     0
 49
6.349999999999998
 74
     0
 49
-6.349999999999998
 74
     0
  0
ENDTAB
  0
TABLE
  2
LAYER
  5
2
330
0
100
AcDbSymbolTable
 70
     8
  0
LAYER
  5
E
102
{ACAD_XDICTIONARY
360
3EA3
102
}
330
2
100
AcDbSymbolTableRecord
100
AcDbLayerTableRecord
  2
0
 70
     0
 62
     7
  6
CONTINUOUS
370
    -3
390
3E52
  0
LAYER
  5
4E
102
{ACAD_XDICTIONARY
360
3EA5
102
}
330
2
100
AcDbSymbolTableRecord
100
AcDbLayerTableRecord
  2
4
 70
     0
 62
     1
  6
CENTER
370
    -3
390
3E52
  0
LAYER
  5
4F
102
{ACAD_XDICTIONARY
360
3EA7
102
}
330
2
100
AcDbSymbolTableRecord
100
AcDbLayerTableRecord
  2
5
 70
     0
 62
     6
  6
PHANTOM
370
    -3
390
3E52
  0
LAYER
  5
50
102
{ACAD_XDICTIONARY
360
3EA9
102
}
330
2
100
AcDbSymbolTableRecord
100
AcDbLayerTableRecord
  2
1
 70
     0
 62
     7
  6
CONTINUOUS
370
    -3
390
3E52
  0
LAYER
  5
51
102
{ACAD_XDICTIONARY
360
3EAB
102
}
330
2
100
AcDbSymbolTableRecord
100
AcDbLayerTableRecord
  2
2
 70
     0
 62
     4
  6
CONTINUOUS
370
    -3
390
3E52
  0
LAYER
  5
52
102
{ACAD_XDICTIONARY
360
3EAD
102
}
330
2
100
AcDbSymbolTableRecord
100
AcDbLayerTableRecord
  2
3
 70
     0
 62
     2
  6
DASHED
370
    -3
390
3E52
  0
LAYER
  5
53
102
{ACAD_XDICTIONARY
360
3EAF
102
}
330
2
100
AcDbSymbolTableRecord
100
AcDbLayerTableRecord
  2
6
 70
     0
 62
     5
  6
CONTINUOUS
370
    -3
390
3E52
  0
LAYER
  5
54
102
{ACAD_XDICTIONARY
360
3EB1
102
}
330
2
100
AcDbSymbolTableRecord
100
AcDbLayerTableRecord
  2
7
 70
     0
 62
     3
  6
CONTINUOUS
370
    -3
390
3E52
  0
ENDTAB
  0
TABLE
  2
STYLE
  5
3
330
0
100
AcDbSymbolTable
 70
     1
  0
STYLE
  5
F
330
3
100
AcDbSymbolTableRecord
100
AcDbTextStyleTableRecord
  2
STANDARD
 70
     0
 40
0.0
 41
1.0
 50
0.0
 71
     0
 42
2.5
  3
simplex.shx
  4

  0
ENDTAB
  0
TABLE
  2
VIEW
  5
6
330
0
100
AcDbSymbolTable
 70
     0
  0
ENDTAB
  0
TABLE
  2
UCS
  5
7
330
0
100
AcDbSymbolTable
 70
     0
  0
ENDTAB
  0
TABLE
  2
APPID
  5
9
330
0
100
AcDbSymbolTable
 70
     5
  0
APPID
  5
10
330
9
100
AcDbSymbolTableRecord
100
AcDbRegAppTableRecord
  2
ACAD
 70
     0
  0
APPID
  5
3E
330
9
100
AcDbSymbolTableRecord
100
AcDbRegAppTableRecord
  2
CONTENTTABDATA
 70
     0
  0
APPID
  5
3F
330
9
100
AcDbSymbolTableRecord
100
AcDbRegAppTableRecord
  2
CONTENTCURRENTTAB
 70
     0
  0
APPID
  5
3EBD
330
9
100
AcDbSymbolTableRecord
100
AcDbRegAppTableRecord
  2
ACAD_NAV_VCDISPLAY
 70
     0
  0
APPID
  5
3EF6
330
9
100
AcDbSymbolTableRecord
100
AcDbRegAppTableRecord
  2
ACAD_MLEADERVER
 70
     0
  0
ENDTAB
  0
TABLE
  2
DIMSTYLE
  5
A
330
0
100
AcDbSymbolTable
 70
     1
100
AcDbDimStyleTable
 71
     0
  0
DIMSTYLE
105
1D
330
A
100
AcDbSymbolTableRecord
100
AcDbDimStyleTableRecord
  2
STANDARD
 70
     0
 41
3.0
 42
1.0
 43
10.0
 44
1.0
 73
     0
 74
     0
 77
     3
 78
     8
140
3.2
141
0.0
147
1.0
172
     1
173
     1
340
F
341
2E
343
2E
344
2E
  0
ENDTAB
  0
TABLE
  2
BLOCK_RECORD
  5
1
330
0
100
AcDbSymbolTable
 70
     1
  0
BLOCK_RECORD
  5
18
102
{ACAD_XDICTIONARY
360
3E4C
102
}
330
1
100
AcDbSymbolTableRecord
100
AcDbBlockTableRecord
  2
*MODEL_SPACE
340
3EA0
  0
BLOCK_RECORD
  5
15
102
{ACAD_XDICTIONARY
360
3E4A
102
}
330
1
100
AcDbSymbolTableRecord
100
AcDbBlockTableRecord
  2
*PAPER_SPACE
340
3EA1
  0
BLOCK_RECORD
  5
2E
330
1
100
AcDbSymbolTableRecord
100
AcDbBlockTableRecord
  2
_OPEN
340
0
  0
ENDTAB
  0
ENDSEC
  0
SECTION
  2
BLOCKS
  0
BLOCK
  5
19
330
18
100
AcDbEntity
  8
0
100
AcDbBlockBegin
  2
*MODEL_SPACE
 70
     0
 10
0.0
 20
0.0
 30
0.0
  3
*MODEL_SPACE
  1

  0
ENDBLK
  5
1A
330
18
100
AcDbEntity
  8
0
100
AcDbBlockEnd
  0
BLOCK
  5
16
330
15
100
AcDbEntity
 67
     1
  8
0
100
AcDbBlockBegin
  2
*PAPER_SPACE
 70
     0
 10
0.0
 20
0.0
 30
0.0
  3
*PAPER_SPACE
  1

  0
ENDBLK
  5
17
330
15
100
AcDbEntity
 67
     1
  8
0
100
AcDbBlockEnd
  0
BLOCK
  5
2F
330
2E
100
AcDbEntity
  8
0
100
AcDbBlockBegin
  2
_OPEN
 70
     0
 10
0.0
 20
0.0
 30
0.0
  3
_OPEN
  1

  0
LINE
  5
30
330
2E
100
AcDbEntity
  8
0
  6
ByBlock
 62
     0
100
AcDbLine
 10
-1.0
 20
0.1666666666666666
 30
0.0
 11
0.0
 21
0.0
 31
0.0
  0
LINE
  5
31
330
2E
100
AcDbEntity
  8
0
  6
ByBlock
 62
     0
100
AcDbLine
 10
0.0
 20
0.0
 30
0.0
 11
-1.0
 21
-0.1666666666666666
 31
0.0
  0
LINE
  5
32
330
2E
100
AcDbEntity
  8
0
  6
ByBlock
 62
     0
100
AcDbLine
 10
0.0
 20
0.0
 30
0.0
 11
-1.0
 21
0.0
 31
0.0
  0
ENDBLK
  5
33
330
2E
100
AcDbEntity
  8
0
100
AcDbBlockEnd
  0
ENDSEC
  0
SECTION
  2
ENTITIES
  0
TEXT
  5
63
330
18
100
AcDbEntity
  8
4
  6
CENTER
 48
0.25
100
AcDbText
 10
23.97950852663849
 20
10.0
 30
0.0
 40
1.399999999999999
  1
4
100
AcDbText
  0
TEXT
  5
64
330
18
100
AcDbEntity
  8
7
  6
Continuous
 48
0.25
100
AcDbText
 10
9.999997526638502
 20
26.0000007607689
 30
0.0
 40
3.0
  1
CODE No.19274
100
AcDbText
  0
TEXT
  5
65
330
18
100
AcDbEntity
  8
7
  6
Continuous
 48
0.25
100
AcDbText
 10
9.999997526638502
 20
18.00000076076889
 30
0.0
 40
3.0
  1
TYPE No.TCA-50SUS-U75
100
AcDbText
  0
TEXT
  5
66
330
18
100
AcDbEntity
  8
1
  6
Continuous
 48
0.25
100
AcDbText
 10
9.999997526638502
 20
10.00000076076889
 30
0.0
 40
1.399999999999999
  1
LAYER
100
AcDbText
  0
TEXT
  5
67
330
18
100
AcDbEntity
  8
2
  6
Continuous
 48
0.25
100
AcDbText
 10
19.9795085266385
 20
10.0
 30
0.0
 40
1.399999999999999
  1
2
100
AcDbText
  0
TEXT
  5
68
330
18
100
AcDbEntity
  8
3
  6
DASHED
 48
0.25
100
AcDbText
 10
21.9795085266385
 20
10.0
 30
0.0
 40
1.399999999999999
  1
3
100
AcDbText
  0
TEXT
  5
69
330
18
100
AcDbEntity
  8
1
  6
Continuous
 48
0.25
100
AcDbText
 10
17.9795085266385
 20
10.0
 30
0.0
 40
1.399999999999999
  1
1
100
AcDbText
  0
TEXT
  5
6A
330
18
100
AcDbEntity
  8
5
  6
PHANTOM
 48
0.25
100
AcDbText
 10
25.9795085266385
 20
10.0
 30
0.0
 40
1.399999999999999
  1
5
100
AcDbText
  0
TEXT
  5
6B
330
18
100
AcDbEntity
  8
6
  6
Continuous
 48
0.25
100
AcDbText
 10
27.9795085266385
 20
10.0
 30
0.0
 40
1.399999999999999
  1
6
100
AcDbText
  0
TEXT
  5
6C
330
18
100
AcDbEntity
  8
7
  6
Continuous
 48
0.25
100
AcDbText
 10
29.9795085266385
 20
10.0
 30
0.0
 40
1.399999999999999
  1
7
100
AcDbText
  0
LINE
  5
1D14
330
18
100
AcDbEntity
  8
1
  6
Continuous
100
AcDbLine
 10
193.7530842018729
 20
56.88547001068258
 30
0.0
 11
193.7530842018729
 21
62.18278973032911
 31
0.0
  0
ARC
  5
1D15
330
18
100
AcDbEntity
  8
1
  6
Continuous
100
AcDbCircle
 10
198.0030842018729
 20
65.97199202262945
 30
0.0
 40
8.785583093775763
100
AcDbArc
 50
241.0695841800873
 51
298.9304158199126
  0
LINE
  5
1D16
330
18
100
AcDbEntity
  8
1
  6
Continuous
100
AcDbLine
 10
210.753083201873
 20
56.88278667787542
 30
0.0
 11
210.7530842018732
 21
62.18278973032911
 31
0.0
  0
ARC
  5
1D17
330
18
100
AcDbEntity
  8
1
  6
Continuous
100
AcDbCircle
 10
206.5030842018729
 20
65.97215888603827
 30
0.0
 40
8.785729134311964
100
AcDbArc
 50
241.0701105902613
 51
298.9298894097404
  0
LINE
  5
1D19
330
18
100
AcDbEntity
  8
1
  6
Continuous
100
AcDbLine
 10
202.2530842018732
 20
58.28278073032915
 30
0.0
 11
202.2530842018732
 21
62.18278973032889
 31
0.0
  0
LINE
  5
1D1A
330
18
100
AcDbEntity
  8
1
  6
Continuous
100
AcDbLine
 10
194.9530812018729
 20
55.68278973032911
 30
0.0
 11
209.5503999215525
 21
55.68278973032911
 31
0.0
  0
LINE
  5
1D1B
330
18
100
AcDbEntity
  8
1
  6
Continuous
100
AcDbLine
 10
210.7530842018732
 20
57.18277753032745
 30
0.0
 11
193.7530842018729
 21
57.18277753032745
 31
0.0
  0
ARC
  5
1D25
330
18
100
AcDbEntity
  8
1
  6
Continuous
100
AcDbCircle
 10
209.553083201873
 20
56.88278673032911
 30
0.0
 40
1.199999999999999
100
AcDbArc
 50
269.8718826952287
 51
359.9999974955215
  0
ARC
  5
1D27
330
18
100
AcDbEntity
  8
1
  6
Continuous
100
AcDbCircle
 10
194.9530812018729
 20
56.88278673032911
 30
0.0
 40
1.199999999999999
100
AcDbArc
 50
179.8718826936495
 51
269.9999910000004
  0
LINE
  5
2ABB
330
18
100
AcDbEntity
  8
4
  6
CENTER
 48
0.5
100
AcDbLine
 10
15.07986085983611
 20
236.9547122758555
 30
0.0
 11
95.05811114308505
 21
236.9547122758555
 31
0.0
  0
LINE
  5
2ABD
330
18
100
AcDbEntity
  8
4
  6
CENTER
 48
0.5
100
AcDbLine
 10
245.7530791833096
 20
236.9547122758555
 30
0.0
 11
158.7530791833096
 21
236.9547122758555
 31
0.0
  0
ARC
  5
2ABE
330
18
100
AcDbEntity
  8
1
  6
Continuous
100
AcDbCircle
 10
59.07987085983632
 20
254.9547122758556
 30
0.0
 40
20.0
100
AcDbArc
 50
73.3398033248624
 51
87.32865525957221
  0
ARC
  5
2ABF
330
18
100
AcDbEntity
  8
1
  6
Continuous
100
AcDbCircle
 10
59.07987085983632
 20
254.9547122758556
 30
0.0
 40
20.0
100
AcDbArc
 50
0.0000399999991474
 51
28.95502437186067
  0
ARC
  5
2AC0
330
18
100
AcDbEntity
  8
1
  6
Continuous
100
AcDbCircle
 10
54.07987085983632
 20
254.9547122758556
 30
0.0
 40
20.0
100
AcDbArc
 50
151.0449756281407
 51
180.0
  0
ARC
  5
2AC1
330
18
100
AcDbEntity
  8
1
  6
Continuous
100
AcDbCircle
 10
54.07987085983632
 20
254.9547122758556
 30
0.0
 40
20.0
100
AcDbArc
 50
92.67671171259115
 51
106.6601966751371
  0
LINE
  5
2AC2
330
18
100
AcDbEntity
  8
4
  6
CENTER
 48
0.5
100
AcDbLine
 10
56.57987085983609
 20
193.4547122758553
 30
0.0
 11
56.57987085983609
 21
305.4547122758553
 31
0.0
  0
LINE
  5
2AC6
330
18
100
AcDbEntity
  8
1
  6
Continuous
100
AcDbLine
 10
79.07987085983609
 20
236.9547122758555
 30
0.0
 11
79.07987085983609
 21
245.5547124758556
 31
0.0
  0
LINE
  5
2AC7
330
18
100
AcDbEntity
  8
1
  6
Continuous
100
AcDbLine
 10
34.07987085983609
 20
236.9547122758555
 30
0.0
 11
34.07987085983609
 21
245.5547124758556
 31
0.0
  0
LINE
  5
2ADE
330
18
100
AcDbEntity
  8
1
  6
Continuous
100
AcDbLine
 10
79.07987085983609
 20
236.9547122758553
 30
0.0
 11
79.07987085983609
 21
228.3547120758553
 31
0.0
  0
LINE
  5
2ADF
330
18
100
AcDbEntity
  8
1
  6
Continuous
100
AcDbLine
 10
34.07987085983609
 20
236.9547122758553
 30
0.0
 11
34.07987085983609
 21
228.3547120758553
 31
0.0
  0
LINE
  5
2AEC
330
18
100
AcDbEntity
  8
1
  6
Continuous
100
AcDbLine
 10
21.82986085983611
 20
241.9547070745863
 30
0.0
 11
23.57987085983609
 21
241.9547070745863
 31
0.0
  0
LINE
  5
2AED
330
18
100
AcDbEntity
  8
1
  6
Continuous
100
AcDbLine
 10
21.82986085983611
 20
231.9547070745863
 30
0.0
 11
23.57987085983609
 21
231.9547070745863
 31
0.0
  0
LINE
  5
2AF0
330
18
100
AcDbEntity
  8
1
  6
Continuous
100
AcDbLine
 10
21.07986085983611
 20
232.7047070745864
 30
0.0
 11
21.07986085983611
 21
241.2047070745864
 31
0.0
  0
LINE
  5
2AF1
330
18
100
AcDbEntity
  8
1
  6
Continuous
100
AcDbLine
 10
21.82986085983611
 20
241.9547070745863
 30
0.0
 11
21.82986085983611
 21
231.9547070745863
 31
0.0
  0
LINE
  5
2AF2
330
18
100
AcDbEntity
  8
1
  6
Continuous
100
AcDbLine
 10
21.82980085983581
 20
241.9547600745863
 30
0.0
 11
21.07980085983581
 21
241.2047600745863
 31
0.0
  0
LINE
  5
2AF3
330
18
100
AcDbEntity
  8
1
  6
Continuous
100
AcDbLine
 10
21.07986085983611
 20
232.7047110745862
 30
0.0
 11
21.82986085983611
 21
231.9547070745862
 31
0.0
  0
LINE
  5
2AF4
330
18
100
AcDbEntity
  8
1
  6
Continuous
100
AcDbLine
 10
23.57987085983609
 20
229.6547092758555
 30
0.0
 11
23.57987085983609
 21
244.2547112758554
 31
0.0
  0
LINE
  5
2AF5
330
18
100
AcDbEntity
  8
1
  6
Continuous
100
AcDbLine
 10
25.17986085983625
 20
228.4547122758555
 30
0.0
 11
25.17986085983625
 21
245.4547122758554
 31
0.0
  0
LINE
  5
2AF6
330
18
100
AcDbEntity
  8
1
  6
Continuous
100
AcDbLine
 10
26.49481661724645
 20
227.1397565184455
 30
0.0
 11
30.07987085983632
 21
227.1397565184455
 31
0.0
  0
LINE
  5
2AF7
330
18
100
AcDbEntity
  8
1
  6
Continuous
100
AcDbLine
 10
24.77987085983613
 20
245.4547122758554
 30
0.0
 11
25.17986085983625
 21
245.4547122758554
 31
0.0
  0
LINE
  5
2AF8
330
18
100
AcDbEntity
  8
1
  6
Continuous
100
AcDbLine
 10
24.77987085983613
 20
228.4547122758555
 30
0.0
 11
25.17986085983625
 21
228.4547122758555
 31
0.0
  0
LINE
  5
2AF9
330
18
100
AcDbEntity
  8
1
  6
Continuous
100
AcDbLine
 10
25.17986085983625
 20
228.4547122758555
 30
0.0
 11
26.49481661724621
 21
227.1397565184455
 31
0.0
  0
LINE
  5
2AFA
330
18
100
AcDbEntity
  8
1
  6
Continuous
100
AcDbLine
 10
26.17986085983602
 20
241.8621915184455
 30
0.0
 11
30.07987085983609
 21
241.8621915184455
 31
0.0
  0
LINE
  5
2AFB
330
18
100
AcDbEntity
  8
1
  6
Continuous
100
AcDbLine
 10
26.17986085983625
 20
232.0472330332654
 30
0.0
 11
30.07987085983632
 21
232.0472330332654
 31
0.0
  0
ARC
  5
2AFC
330
18
100
AcDbEntity
  8
1
  6
Continuous
100
AcDbCircle
 10
37.7215214078999
 20
236.9547090745864
 30
0.0
 40
12.54166054806418
100
AcDbArc
 50
156.9649307564615
 51
203.035037459681
  0
ARC
  5
2AFD
330
18
100
AcDbEntity
  8
1
  6
Continuous
100
AcDbCircle
 10
24.77987085983613
 20
244.2547112758554
 30
0.0
 40
1.199999999999999
100
AcDbArc
 50
90.00000299999769
 51
180.0
  0
ARC
  5
2AFE
330
18
100
AcDbEntity
  8
1
  6
Continuous
100
AcDbCircle
 10
24.77987085983613
 20
229.6547092758555
 30
0.0
 40
1.199999999999999
100
AcDbArc
 50
180.0000099999993
 51
270.0
  0
ARC
  5
2AFF
330
18
100
AcDbEntity
  8
1
  6
Continuous
100
AcDbCircle
 10
28.66067845085217
 20
229.5934947758555
 30
0.0
 40
3.48931044130072
100
AcDbArc
 50
135.3144185618504
 51
204.4162583753081
  0
LINE
  5
2B15
330
18
100
AcDbEntity
  8
1
  6
Continuous
100
AcDbLine
 10
25.17986085983625
 20
245.4547122758556
 30
0.0
 11
26.49481661724621
 21
246.7696680332656
 31
0.0
  0
LINE
  5
2B16
330
18
100
AcDbEntity
  8
1
  6
Continuous
100
AcDbLine
 10
26.49481661724621
 20
246.7696680332654
 30
0.0
 11
30.07987085983609
 21
246.7696680332654
 31
0.0
  0
ARC
  5
2B17
330
18
100
AcDbEntity
  8
1
  6
Continuous
100
AcDbCircle
 10
28.66067845085217
 20
244.3159297758554
 30
0.0
 40
3.48931044130072
100
AcDbArc
 50
155.5837416246904
 51
224.6855814381495
  0
LINE
  5
2B8B
330
18
100
AcDbEntity
  8
1
  6
Continuous
100
AcDbLine
 10
256.7530791833096
 20
451.2266348213826
 30
0.0
 11
193.7530791833094
 21
451.2266348213826
 31
0.0
  0
LINE
  5
2B8C
330
18
100
AcDbEntity
  8
4
  6
CENTER
 48
0.5
100
AcDbLine
 10
272.2530791833095
 20
410.2266348213825
 30
0.0
 11
158.7530791833096
 21
410.2266348213825
 31
0.0
  0
LINE
  5
2B8D
330
18
100
AcDbEntity
  8
4
  6
CENTER
 48
0.5
100
AcDbLine
 10
225.2530791833098
 20
457.2266348213828
 30
0.0
 11
225.2530791833098
 21
363.2266348213826
 31
0.0
  0
LINE
  5
2B8E
330
18
100
AcDbEntity
  8
1
  6
Continuous
100
AcDbLine
 10
184.2530791833094
 20
441.7266348213827
 30
0.0
 11
184.2530791833094
 21
378.7266348213826
 31
0.0
  0
LINE
  5
2B8F
330
18
100
AcDbEntity
  8
1
  6
Continuous
100
AcDbLine
 10
266.2530791833096
 20
441.7266348213827
 30
0.0
 11
266.2530791833096
 21
378.7266348213826
 31
0.0
  0
LINE
  5
2B90
330
18
100
AcDbEntity
  8
1
  6
Continuous
100
AcDbLine
 10
256.7530791833096
 20
369.2266348213825
 30
0.0
 11
193.7530791833094
 21
369.2266348213825
 31
0.0
  0
LINE
  5
2B91
330
18
100
AcDbEntity
  8
4
  6
CENTER
 48
0.2
100
AcDbLine
 10
256.7530791833096
 20
384.7266348213826
 30
0.0
 11
256.7530791833096
 21
372.7266348213825
 31
0.0
  0
LINE
  5
2B92
330
18
100
AcDbEntity
  8
4
  6
CENTER
 48
0.2
100
AcDbLine
 10
193.7530791833094
 20
384.7266348213826
 30
0.0
 11
193.7530791833094
 21
372.7266348213825
 31
0.0
  0
LINE
  5
2B93
330
18
100
AcDbEntity
  8
4
  6
CENTER
 48
0.2
100
AcDbLine
 10
193.7530791833094
 20
447.7266348213826
 30
0.0
 11
193.7530791833094
 21
435.7266348213826
 31
0.0
  0
LINE
  5
2B94
330
18
100
AcDbEntity
  8
4
  6
CENTER
 48
0.2
100
AcDbLine
 10
256.7530791833096
 20
447.7266348213826
 30
0.0
 11
256.7530791833096
 21
435.7266348213826
 31
0.0
  0
LINE
  5
2B95
330
18
100
AcDbEntity
  8
4
  6
CENTER
 48
0.2
100
AcDbLine
 10
262.7530791833098
 20
378.7266348213826
 30
0.0
 11
250.7530791833096
 21
378.7266348213826
 31
0.0
  0
LINE
  5
2B96
330
18
100
AcDbEntity
  8
4
  6
CENTER
 48
0.2
100
AcDbLine
 10
199.7530791833096
 20
378.7266348213826
 30
0.0
 11
187.7530791833094
 21
378.7266348213826
 31
0.0
  0
LINE
  5
2B97
330
18
100
AcDbEntity
  8
4
  6
CENTER
 48
0.2
100
AcDbLine
 10
199.7530791833096
 20
441.7266348213827
 30
0.0
 11
187.7530791833094
 21
441.7266348213827
 31
0.0
  0
LINE
  5
2B98
330
18
100
AcDbEntity
  8
4
  6
CENTER
 48
0.2
100
AcDbLine
 10
262.7530791833098
 20
441.7266348213827
 30
0.0
 11
250.7530791833096
 21
441.7266348213827
 31
0.0
  0
LINE
  5
2B9B
330
18
100
AcDbEntity
  8
1
  6
Continuous
100
AcDbLine
 10
259.2530871833099
 20
274.9547122758556
 30
0.0
 11
257.9154401833097
 21
281.8363292758556
 31
0.0
  0
LINE
  5
2B9C
330
18
100
AcDbEntity
  8
1
  6
Continuous
100
AcDbLine
 10
255.2530791833099
 20
285.4547122758556
 30
0.0
 11
255.2530791833099
 21
284.4547122758556
 31
0.0
  0
LINE
  5
2B9D
330
18
100
AcDbEntity
  8
1
  6
Continuous
100
AcDbLine
 10
255.2530641833095
 20
292.4547146758555
 30
0.0
 11
254.1967441833096
 21
288.8547142758556
 31
0.0
  0
ARC
  5
2B9E
330
18
100
AcDbEntity
  8
1
  6
Continuous
100
AcDbCircle
 10
256.7530791833096
 20
378.7266348213826
 30
0.0
 40
9.5
100
AcDbArc
 50
269.9999700000034
 51
0.0000200000003914
  0
ARC
  5
2B9F
330
18
100
AcDbEntity
  8
1
  6
Continuous
100
AcDbCircle
 10
193.7530791833094
 20
441.7266348213827
 30
0.0
 40
9.5
100
AcDbArc
 50
90.00001799999918
 51
180.0
  0
ARC
  5
2BA0
330
18
100
AcDbEntity
  8
1
  6
Continuous
100
AcDbCircle
 10
256.7530791833096
 20
441.7266348213827
 30
0.0
 40
9.5
100
AcDbArc
 50
0.0000400000007758
 51
90.00001799999918
  0
ARC
  5
2BA1
330
18
100
AcDbEntity
  8
1
  6
Continuous
100
AcDbCircle
 10
193.7530791833094
 20
378.7266348213826
 30
0.0
 40
9.5
100
AcDbArc
 50
180.0
 51
269.9999800000044
  0
CIRCLE
  5
2BA2
330
18
100
AcDbEntity
  8
1
  6
Continuous
100
AcDbCircle
 10
193.7530791833094
 20
378.7266348213826
 30
0.0
 40
4.400000099999996
  0
CIRCLE
  5
2BA3
330
18
100
AcDbEntity
  8
1
  6
Continuous
100
AcDbCircle
 10
193.7530791833094
 20
441.7266348213827
 30
0.0
 40
4.400000099999996
  0
CIRCLE
  5
2BA4
330
18
100
AcDbEntity
  8
1
  6
Continuous
100
AcDbCircle
 10
256.7530791833096
 20
378.7266348213826
 30
0.0
 40
4.400000099999996
  0
CIRCLE
  5
2BA5
330
18
100
AcDbEntity
  8
1
  6
Continuous
100
AcDbCircle
 10
256.7530791833096
 20
441.7266348213827
 30
0.0
 40
4.400000099999996
  0
CIRCLE
  5
2BA6
330
18
100
AcDbEntity
  8
1
  6
Continuous
100
AcDbCircle
 10
225.2530791833098
 20
410.2266348213825
 30
0.0
 40
12.0
  0
CIRCLE
  5
2BA7
330
18
100
AcDbEntity
  8
1
  6
Continuous
100
AcDbCircle
 10
225.2530791833098
 20
410.2266348213825
 30
0.0
 40
15.5
  0
CIRCLE
  5
2BA8
330
18
100
AcDbEntity
  8
1
  6
Continuous
100
AcDbCircle
 10
225.2530791833098
 20
410.2266348213825
 30
0.0
 40
29.0
  0
CIRCLE
  5
2BA9
330
18
100
AcDbEntity
  8
1
  6
Continuous
100
AcDbCircle
 10
225.2530791833098
 20
410.2266348213825
 30
0.0
 40
31.5
  0
ARC
  5
2BAA
330
18
100
AcDbEntity
  8
1
  6
Continuous
100
AcDbCircle
 10
249.2530791833099
 20
285.4547122758556
 30
0.0
 40
6.0
100
AcDbArc
 50
0.000000000000007
 51
34.51812000000098
  0
ARC
  5
2BAB
330
18
100
AcDbEntity
  8
1
  6
Continuous
100
AcDbCircle
 10
256.2530791833098
 20
284.4547122758556
 30
0.0
 40
1.0
100
AcDbArc
 50
179.9999799999995
 51
270.0000300000029
  0
ARC
  5
2BAC
330
18
100
AcDbEntity
  8
1
  6
Continuous
100
AcDbCircle
 10
255.9521761833098
 20
281.4547122758556
 30
0.0
 40
2.0
100
AcDbArc
 50
10.99994800000077
 51
89.99998200000083
  0
LINE
  5
2BAE
330
18
100
AcDbEntity
  8
1
  6
Continuous
100
AcDbLine
 10
97.5798708598363
 20
299.4547122758553
 30
0.0
 11
15.57987085983632
 21
299.4547122758553
 31
0.0
  0
LINE
  5
2BB0
330
18
100
AcDbEntity
  8
1
  6
Continuous
100
AcDbLine
 10
87.17769085983627
 20
283.4547122758554
 30
0.0
 11
25.98205485983613
 21
283.4547122758554
 31
0.0
  0
LINE
  5
2BB3
330
18
100
AcDbEntity
  8
1
  6
Continuous
100
AcDbLine
 10
86.57987085983631
 20
285.4547122758553
 30
0.0
 11
86.57987085983631
 21
284.4547122758553
 31
0.0
  0
LINE
  5
2BB4
330
18
100
AcDbEntity
  8
1
  6
Continuous
100
AcDbLine
 10
26.57987085983632
 20
285.4547122758553
 30
0.0
 11
26.57987085983632
 21
284.4547122758553
 31
0.0
  0
LINE
  5
2BB6
330
18
100
AcDbEntity
  8
1
  6
Continuous
100
AcDbLine
 10
85.52355085983618
 20
288.8547122758554
 30
0.0
 11
27.636190859836
 21
288.8547122758554
 31
0.0
  0
LINE
  5
2BB7
330
18
100
AcDbEntity
  8
1
  6
Continuous
100
AcDbLine
 10
86.5798808598363
 20
292.4547108758554
 30
0.0
 11
85.52356085983637
 21
288.8547112758553
 31
0.0
  0
LINE
  5
2BB8
330
18
100
AcDbEntity
  8
1
  6
Continuous
100
AcDbLine
 10
26.5798818598364
 20
292.4547165758556
 30
0.0
 11
27.63619885983644
 21
288.8547162758554
 31
0.0
  0
LINE
  5
2BBB
330
18
100
AcDbEntity
  8
1
  6
Continuous
100
AcDbLine
 10
34.07987085983632
 20
274.0216059522547
 30
0.0
 11
34.07987085983609
 21
224.9547122758555
 31
0.0
  0
LINE
  5
2BBC
330
18
100
AcDbEntity
  8
1
  6
Continuous
100
AcDbLine
 10
79.07987085983631
 20
273.9908682758553
 30
0.0
 11
79.07987085983609
 21
224.9547122758555
 31
0.0
  0
LINE
  5
2BBD
330
18
100
AcDbEntity
  8
1
  6
Continuous
100
AcDbLine
 10
83.0798708598361
 20
224.9547122758555
 30
0.0
 11
79.07987085983609
 21
224.9547122758555
 31
0.0
  0
LINE
  5
2BBE
330
18
100
AcDbEntity
  8
1
  6
Continuous
100
AcDbLine
 10
83.07987085983654
 20
279.4547122758554
 30
0.0
 11
83.07987085983631
 21
224.9547122758555
 31
0.0
  0
LINE
  5
2BBF
330
18
100
AcDbEntity
  8
1
  6
Continuous
100
AcDbLine
 10
30.07987085983654
 20
279.4547122758556
 30
0.0
 11
30.07987085983632
 21
224.9547122758555
 31
0.0
  0
LINE
  5
2BC0
330
18
100
AcDbEntity
  8
1
  6
Continuous
100
AcDbLine
 10
34.07987085983609
 20
224.9547122758555
 30
0.0
 11
30.07987085983609
 21
224.9547122758555
 31
0.0
  0
LINE
  5
2BC1
330
18
100
AcDbEntity
  8
1
  6
Continuous
100
AcDbLine
 10
88.57988085983629
 20
279.9825762758554
 30
0.0
 11
89.5645318160216
 21
241.0612613384086
 31
0.0
  0
LINE
  5
2BC2
330
18
100
AcDbEntity
  8
1
  6
Continuous
100
AcDbLine
 10
24.57987485983608
 20
279.9825762758556
 30
0.0
 11
23.68863892681975
 21
244.7539235236672
 31
0.0
  0
LINE
  5
2BC3
330
18
100
AcDbEntity
  8
1
  6
Continuous
100
AcDbLine
 10
184.2530791833098
 20
299.4547122758556
 30
0.0
 11
266.2530791833098
 21
299.4547122758556
 31
0.0
  0
LINE
  5
2BC5
330
18
100
AcDbEntity
  8
4
  6
CENTER
 48
0.5
100
AcDbLine
 10
225.2530791833095
 20
305.4547122758556
 30
0.0
 11
225.2530791833096
 21
270.3225431816
 31
0.0
  0
LINE
  5
2BC7
330
18
100
AcDbEntity
  8
1
  6
Continuous
100
AcDbLine
 10
192.2530791833098
 20
283.4547122758556
 30
0.0
 11
255.9521761833098
 21
283.4547122758556
 31
0.0
  0
LINE
  5
2BC8
330
18
100
AcDbEntity
  8
1
  6
Continuous
100
AcDbLine
 10
187.9334094833096
 20
274.9547122758556
 30
0.0
 11
196.3635721833096
 21
274.9547122758556
 31
0.0
  0
LINE
  5
2BCA
330
18
100
AcDbEntity
  8
1
  6
Continuous
100
AcDbLine
 10
214.3279391833098
 20
232.4842452758556
 30
0.0
 11
205.0247011833095
 21
280.3452662758555
 31
0.0
  0
LINE
  5
2BCB
330
18
100
AcDbEntity
  8
1
  6
Continuous
100
AcDbLine
 10
197.7319763690619
 20
275.9363394945111
 30
0.0
 11
196.4613629975575
 21
282.4730850572001
 31
0.0
  0
LINE
  5
2BCC
330
18
100
AcDbEntity
  8
1
  6
Continuous
100
AcDbLine
 10
187.2530786833095
 20
278.4547122758556
 30
0.0
 11
187.9334094833096
 21
274.9547102758556
 31
0.0
  0
LINE
  5
2BCD
330
18
100
AcDbEntity
  8
1
  6
Continuous
100
AcDbLine
 10
195.2530791833098
 20
285.4547122758556
 30
0.0
 11
195.2530791833098
 21
284.4547122758556
 31
0.0
  0
LINE
  5
2BCF
330
18
100
AcDbEntity
  8
1
  6
Continuous
100
AcDbLine
 10
196.3093951833096
 20
288.8547122758557
 30
0.0
 11
254.1967591833097
 21
288.8547122758557
 31
0.0
  0
LINE
  5
2BD0
330
18
100
AcDbEntity
  8
1
  6
Continuous
100
AcDbLine
 10
195.2530811833096
 20
292.4547127758555
 30
0.0
 11
196.3093971833098
 21
288.8547132758557
 31
0.0
  0
LINE
  5
2BD1
330
18
100
AcDbEntity
  8
1
  6
Continuous
100
AcDbLine
 10
84.4798728598362
 20
245.3098832758554
 30
0.0
 11
84.4798728598362
 21
228.5358732758555
 31
0.0
  0
LINE
  5
2BD2
330
18
100
AcDbEntity
  8
1
  6
Continuous
100
AcDbLine
 10
84.43629285983661
 20
228.2066122758556
 30
0.0
 11
83.07987085983631
 21
228.3252792758555
 31
0.0
  0
LINE
  5
2BD3
330
18
100
AcDbEntity
  8
1
  6
Continuous
100
AcDbLine
 10
84.43629285983616
 20
245.7028082758554
 30
0.0
 11
83.07987485983607
 21
245.5841372758553
 31
0.0
  0
ARC
  5
2BD4
330
18
100
AcDbEntity
  8
1
  6
Continuous
100
AcDbCircle
 10
32.57987085983632
 20
285.4547122758553
 30
0.0
 40
6.0
100
AcDbArc
 50
145.481879999999
 51
180.0
  0
ARC
  5
2BD5
330
18
100
AcDbEntity
  8
1
  6
Continuous
100
AcDbCircle
 10
87.5798708598363
 20
284.4547122758553
 30
0.0
 40
1.0
100
AcDbArc
 50
180.0
 51
228.1897799999989
  0
ARC
  5
2BD6
330
18
100
AcDbEntity
  8
1
  6
Continuous
100
AcDbCircle
 10
25.57987085983632
 20
284.4547122758553
 30
0.0
 40
1.0
100
AcDbArc
 50
311.810410000002
 51
0.0000200000003914
  0
ARC
  5
2BD7
330
18
100
AcDbEntity
  8
1
  6
Continuous
100
AcDbCircle
 10
80.57987085983631
 20
285.4547122758553
 30
0.0
 40
6.0
100
AcDbArc
 50
0.0000399999991474
 51
34.51809000000135
  0
ARC
  5
2BDA
330
18
100
AcDbEntity
  8
1
  6
Continuous
100
AcDbCircle
 10
83.5798708598363
 20
279.9825762758554
 30
0.0
 40
5.0
100
AcDbArc
 50
0.0000399999991474
 51
53.13007999999682
  0
ARC
  5
2BDB
330
18
100
AcDbEntity
  8
1
  6
Continuous
100
AcDbCircle
 10
29.57987085983631
 20
279.9825762758556
 30
0.0
 40
5.0
100
AcDbArc
 50
131.8103039999998
 51
180.0
  0
ARC
  5
2BDC
330
18
100
AcDbEntity
  8
1
  6
Continuous
100
AcDbCircle
 10
77.57987085983609
 20
240.4547122758556
 30
0.0
 40
12.0
100
AcDbArc
 50
314.6280500000004
 51
2.897293043028133
  0
ARC
  5
2BDD
330
18
100
AcDbEntity
  8
1
  6
Continuous
100
AcDbCircle
 10
202.2530791833098
 20
236.9547122758555
 30
0.0
 40
12.0
100
AcDbArc
 50
128.1445300000018
 51
291.7750299999996
  0
ARC
  5
2BDE
330
18
100
AcDbEntity
  8
1
  6
Continuous
100
AcDbCircle
 10
192.2530791833098
 20
278.4547122758556
 30
0.0
 40
5.0
100
AcDbArc
 50
89.99998200000083
 51
179.9999600000008
  0
ARC
  5
2BDF
330
18
100
AcDbEntity
  8
1
  6
Continuous
100
AcDbCircle
 10
181.2530791833098
 20
263.6941992758555
 30
0.0
 40
22.0
100
AcDbArc
 50
308.1445100000008
 51
19.19487000000042
  0
ARC
  5
2BE0
330
18
100
AcDbEntity
  8
1
  6
Continuous
100
AcDbCircle
 10
196.3635721833096
 20
268.9547122758556
 30
0.0
 40
6.0
100
AcDbArc
 50
19.19486899999969
 51
89.99998200000083
  0
ARC
  5
2BE1
330
18
100
AcDbEntity
  8
1
  6
Continuous
100
AcDbCircle
 10
169.9792521833098
 20
317.7470362758555
 30
0.0
 40
99.0
100
AcDbArc
 50
291.7750500000003
 51
334.3898500000002
  0
ARC
  5
2BE2
330
18
100
AcDbEntity
  8
1
  6
Continuous
100
AcDbCircle
 10
194.2530791833098
 20
284.4547122758556
 30
0.0
 40
1.0
100
AcDbArc
 50
270.0000200000019
 51
0.000000000000007
  0
ARC
  5
2BE3
330
18
100
AcDbEntity
  8
1
  6
Continuous
100
AcDbCircle
 10
201.2530791833099
 20
285.4547122758556
 30
0.0
 40
6.0
100
AcDbArc
 50
145.4819099999985
 51
179.9999600000008
  0
ARC
  5
2BE5
330
18
100
AcDbEntity
  8
1
  6
Continuous
100
AcDbCircle
 10
64.01033685983612
 20
236.9547122758555
 30
0.0
 40
22.56953
100
AcDbArc
 50
338.0486999999987
 51
21.9513080000005
  0
ARC
  5
2BE6
330
18
100
AcDbEntity
  8
1
  6
Continuous
100
AcDbCircle
 10
84.4798728598362
 20
245.2047122758556
 30
0.0
 40
0.5
100
AcDbArc
 50
21.9513080000005
 51
95.00000199999858
  0
ARC
  5
2BE7
330
18
100
AcDbEntity
  8
1
  6
Continuous
100
AcDbCircle
 10
84.4798728598362
 20
228.7047122758555
 30
0.0
 40
0.5
100
AcDbArc
 50
265.0000000000003
 51
338.0486899999998
  0
ARC
  5
2BE8
330
18
100
AcDbEntity
  8
1
  6
Continuous
100
AcDbCircle
 10
56.58239509683675
 20
3.127572434818375
 30
0.0
 40
271.827042422903
100
AcDbArc
 50
84.39442065376923
 51
95.5950977359112
  0
ARC
  5
2BE9
330
18
100
AcDbEntity
  8
1
  6
Continuous
100
AcDbCircle
 10
79.07987085983631
 20
279.4547122758554
 30
0.0
 40
4.0
100
AcDbArc
 50
359.999989999999
 51
89.99999700000229
  0
ARC
  5
2BEA
330
18
100
AcDbEntity
  8
1
  6
Continuous
100
AcDbCircle
 10
34.07987085983632
 20
279.4547122758556
 30
0.0
 40
4.0
100
AcDbArc
 50
89.99999700000229
 51
180.0
  0
LINE
  5
2C15
330
18
100
AcDbEntity
  8
2
  6
Continuous
100
AcDbLine
 10
21.07986085983611
 20
241.1427070744433
 30
0.0
 11
23.57987085983609
 21
241.1427070744433
 31
0.0
  0
LINE
  5
2C16
330
18
100
AcDbEntity
  8
2
  6
Continuous
100
AcDbLine
 10
21.07986085983611
 20
232.7667070744433
 30
0.0
 11
23.57987085983609
 21
232.7667070744433
 31
0.0
  0
LINE
  5
2C1B
330
18
100
AcDbEntity
  8
4
  6
CENTER
 48
0.5
100
AcDbLine
 10
202.2530791833096
 20
193.4547122758556
 30
0.0
 11
202.2530791833096
 21
280.4547122758556
 31
0.0
  0
LINE
  5
2C7F
330
18
100
AcDbEntity
  8
4
  6
CENTER
 48
0.2
100
AcDbLine
 10
193.7530791833095
 20
302.8487475758556
 30
0.0
 11
193.7530791833095
 21
292.6698611758558
 31
0.0
  0
LINE
  5
2C80
330
18
100
AcDbEntity
  8
4
  6
CENTER
 48
0.2
100
AcDbLine
 10
256.7530791833095
 20
302.8487475758556
 30
0.0
 11
256.7530791833095
 21
292.6698611758558
 31
0.0
  0
LINE
  5
2C81
330
18
100
AcDbEntity
  8
4
  6
CENTER
 48
0.2
100
AcDbLine
 10
25.07987085983609
 20
302.8487475758554
 30
0.0
 11
25.07987085983609
 21
292.6698611758557
 31
0.0
  0
LINE
  5
2C82
330
18
100
AcDbEntity
  8
4
  6
CENTER
 48
0.2
100
AcDbLine
 10
88.0798708598361
 20
302.8487475758554
 30
0.0
 11
88.0798708598361
 21
292.6698611758557
 31
0.0
  0
LINE
  5
2E2D
330
18
100
AcDbEntity
  8
4
  6
CENTER
 48
0.5
100
AcDbLine
 10
435.4262975067828
 20
236.9547122758555
 30
0.0
 11
355.448047223534
 21
236.9547122758555
 31
0.0
  0
LINE
  5
2E2F
330
18
100
AcDbEntity
  8
1
  6
Continuous
100
AcDbLine
 10
352.9262875067827
 20
299.4547122758553
 30
0.0
 11
434.9262875067826
 21
299.4547122758553
 31
0.0
  0
ARC
  5
2E34
330
18
100
AcDbEntity
  8
1
  6
Continuous
100
AcDbCircle
 10
386.4958215067828
 20
236.9547122758555
 30
0.0
 40
22.56953
100
AcDbArc
 50
192.9040096447031
 51
201.9513000000013
  0
ARC
  5
2E35
330
18
100
AcDbEntity
  8
1
  6
Continuous
100
AcDbCircle
 10
372.9262875067828
 20
240.4547122758556
 30
0.0
 40
12.0
100
AcDbArc
 50
157.9624566560264
 51
233.5764263576675
  0
LINE
  5
2E36
330
18
100
AcDbEntity
  8
1
  6
Continuous
100
AcDbLine
 10
366.0262855067828
 20
230.6200576276593
 30
0.0
 11
366.0262855067828
 21
228.5358732758555
 31
0.0
  0
LINE
  5
2E38
330
18
100
AcDbEntity
  8
1
  6
Continuous
100
AcDbLine
 10
367.4262875067827
 20
227.580319086272
 30
0.0
 11
367.4262875067827
 21
224.9547122758555
 31
0.0
  0
LINE
  5
2E39
330
18
100
AcDbEntity
  8
1
  6
Continuous
100
AcDbLine
 10
371.4262875067829
 20
254.9547122758555
 30
0.0
 11
371.4262875067829
 21
224.9547122758555
 31
0.0
  0
LINE
  5
2E3A
330
18
100
AcDbEntity
  8
1
  6
Continuous
100
AcDbLine
 10
416.4262875067828
 20
254.9547122758557
 30
0.0
 11
416.4262875067828
 21
224.9547122758555
 31
0.0
  0
ARC
  5
2E3B
330
18
100
AcDbEntity
  8
1
  6
Continuous
100
AcDbCircle
 10
412.784636958719
 20
236.9547090745864
 30
0.0
 40
12.54166054806418
100
AcDbArc
 50
336.9649625403189
 51
345.5597330849276
  0
LINE
  5
2E3C
330
18
100
AcDbEntity
  8
1
  6
Continuous
100
AcDbLine
 10
425.3262975067826
 20
228.4547122758555
 30
0.0
 11
425.3262975067826
 21
234.4680778290313
 31
0.0
  0
LINE
  5
2E3D
330
18
100
AcDbEntity
  8
1
  6
Continuous
100
AcDbLine
 10
426.926287506783
 20
229.6547092758555
 30
0.0
 11
426.926287506783
 21
244.2547112758554
 31
0.0
  0
LINE
  5
2E3E
330
18
100
AcDbEntity
  8
1
  6
Continuous
100
AcDbLine
 10
428.6762975067828
 20
241.9547070745863
 30
0.0
 11
428.6762975067828
 21
231.9547070745863
 31
0.0
  0
LINE
  5
2E3F
330
18
100
AcDbEntity
  8
1
  6
Continuous
100
AcDbLine
 10
429.4262975067828
 20
232.7047070745864
 30
0.0
 11
429.4262975067828
 21
241.2047070745864
 31
0.0
  0
LINE
  5
2E46
330
18
100
AcDbEntity
  8
4
  6
CENTER
 48
0.5
100
AcDbLine
 10
393.9262875067829
 20
193.4547122758553
 30
0.0
 11
393.9262875067829
 21
305.4547122758553
 31
0.0
  0
LINE
  5
2E4F
330
18
100
AcDbEntity
  8
1
  6
Continuous
100
AcDbLine
 10
425.3262975067826
 20
228.4547122758555
 30
0.0
 11
424.0113417493727
 21
227.1397565184455
 31
0.0
  0
LINE
  5
2E51
330
18
100
AcDbEntity
  8
1
  6
Continuous
100
AcDbLine
 10
416.4262875067828
 20
224.9547122758555
 30
0.0
 11
420.4262875067828
 21
224.9547122758555
 31
0.0
  0
LINE
  5
2E52
330
18
100
AcDbEntity
  8
1
  6
Continuous
100
AcDbLine
 10
424.0113417493724
 20
227.1397565184455
 30
0.0
 11
420.4262875067827
 21
227.1397565184455
 31
0.0
  0
LINE
  5
2E53
330
18
100
AcDbEntity
  8
2
  6
Continuous
100
AcDbLine
 10
429.4262975067828
 20
232.7667070744433
 30
0.0
 11
426.9262875067828
 21
232.7667070744433
 31
0.0
  0
LINE
  5
2E54
330
18
100
AcDbEntity
  8
1
  6
Continuous
100
AcDbLine
 10
428.6762975067828
 20
231.9547070745863
 30
0.0
 11
426.926287506783
 21
231.9547070745863
 31
0.0
  0
ARC
  5
2E55
330
18
100
AcDbEntity
  8
1
  6
Continuous
100
AcDbCircle
 10
421.8454799157668
 20
229.5934947758555
 30
0.0
 40
3.48931044130072
100
AcDbArc
 50
335.5837416246918
 51
44.68558143814952
  0
ARC
  5
2E56
330
18
100
AcDbEntity
  8
1
  6
Continuous
100
AcDbCircle
 10
425.7262875067828
 20
229.6547092758555
 30
0.0
 40
1.199999999999999
100
AcDbArc
 50
270.0
 51
359.9999900000006
  0
LINE
  5
2E57
330
18
100
AcDbEntity
  8
1
  6
Continuous
100
AcDbLine
 10
424.3262975067827
 20
232.0472330332654
 30
0.0
 11
423.4886640919031
 21
232.0472330332654
 31
0.0
  0
LINE
  5
2E58
330
18
100
AcDbEntity
  8
1
  6
Continuous
100
AcDbLine
 10
425.7262875067828
 20
228.4547122758555
 30
0.0
 11
425.3262975067826
 21
228.4547122758555
 31
0.0
  0
LINE
  5
2E59
330
18
100
AcDbEntity
  8
1
  6
Continuous
100
AcDbLine
 10
429.4262975067828
 20
232.7047110745862
 30
0.0
 11
428.6762975067828
 21
231.9547070745862
 31
0.0
  0
LINE
  5
2E62
330
18
100
AcDbEntity
  8
1
  6
Continuous
100
AcDbLine
 10
367.4262875067829
 20
224.9547122758555
 30
0.0
 11
371.4262875067829
 21
224.9547122758555
 31
0.0
  0
ARC
  5
2E66
330
18
100
AcDbEntity
  8
1
  6
Continuous
100
AcDbCircle
 10
366.0262855067828
 20
228.7047122758555
 30
0.0
 40
0.5
100
AcDbArc
 50
201.9513100000001
 51
274.9999999999997
  0
LINE
  5
2E67
330
18
100
AcDbEntity
  8
1
  6
Continuous
100
AcDbLine
 10
366.0698655067824
 20
228.2066122758556
 30
0.0
 11
367.4262875067827
 21
228.3252792758555
 31
0.0
  0
ARC
  5
2E6A
330
18
100
AcDbEntity
  8
1
  6
Continuous
100
AcDbCircle
 10
420.9262875067826
 20
279.9825762758556
 30
0.0
 40
5.0
100
AcDbArc
 50
0.000000000000007
 51
48.18969600000015
  0
ARC
  5
2E6B
330
18
100
AcDbEntity
  8
1
  6
Continuous
100
AcDbCircle
 10
366.9262875067827
 20
279.9825762758554
 30
0.0
 40
5.0
100
AcDbArc
 50
126.8699200000031
 51
179.9999600000008
  0
LINE
  5
2E6E
330
18
100
AcDbEntity
  8
1
  6
Continuous
100
AcDbLine
 10
425.9262835067828
 20
279.9825762758556
 30
0.0
 11
426.9109288661011
 21
241.0616484244915
 31
0.0
  0
LINE
  5
2E70
330
18
100
AcDbEntity
  8
2
  6
Continuous
100
AcDbLine
 10
429.4262975067828
 20
241.1427070744433
 30
0.0
 11
426.9262875067828
 21
241.1427070744433
 31
0.0
  0
LINE
  5
2E71
330
18
100
AcDbEntity
  8
1
  6
Continuous
100
AcDbLine
 10
428.6762975067828
 20
241.9547070745863
 30
0.0
 11
426.926287506783
 21
241.9547070745863
 31
0.0
  0
ARC
  5
2E75
330
18
100
AcDbEntity
  8
1
  6
Continuous
100
AcDbCircle
 10
425.7262875067828
 20
244.2547112758554
 30
0.0
 40
1.199999999999999
100
AcDbArc
 50
0.000000000000007
 51
24.58295012092763
  0
LINE
  5
2E78
330
18
100
AcDbEntity
  8
1
  6
Continuous
100
AcDbLine
 10
428.6763575067832
 20
241.9547600745863
 30
0.0
 11
429.4263575067832
 21
241.2047600745863
 31
0.0
  0
ARC
  5
2E7E
330
18
100
AcDbEntity
  8
1
  6
Continuous
100
AcDbCircle
 10
396.4262875067827
 20
254.9547122758556
 30
0.0
 40
20.0
100
AcDbArc
 50
0.0000000000002443
 51
91.53799920212104
  0
ARC
  5
2E7F
330
18
100
AcDbEntity
  8
1
  6
Continuous
100
AcDbCircle
 10
391.4262875067827
 20
254.9547122758556
 30
0.0
 40
20.0
100
AcDbArc
 50
88.46507073606257
 51
180.0000000000002
  0
LINE
  5
2E80
330
18
100
AcDbEntity
  8
1
  6
Continuous
100
AcDbLine
 10
361.9262775067827
 20
279.9825762758554
 30
0.0
 11
360.9416265505974
 21
241.0612613384086
 31
0.0
  0
LINE
  5
2E89
330
18
100
AcDbEntity
  8
1
  6
Continuous
100
AcDbLine
 10
364.9826075067828
 20
288.8547122758554
 30
0.0
 11
422.8699675067829
 21
288.8547122758554
 31
0.0
  0
LINE
  5
2E8B
330
18
100
AcDbEntity
  8
1
  6
Continuous
100
AcDbLine
 10
363.3284675067827
 20
283.4547122758554
 30
0.0
 11
424.5241035067828
 21
283.4547122758554
 31
0.0
  0
LINE
  5
2E8D
330
18
100
AcDbEntity
  8
4
  6
CENTER
 48
0.2
100
AcDbLine
 10
425.4262875067828
 20
302.8487475758554
 30
0.0
 11
425.4262875067828
 21
292.6698611758557
 31
0.0
  0
LINE
  5
2E8E
330
18
100
AcDbEntity
  8
1
  6
Continuous
100
AcDbLine
 10
423.9262765067826
 20
292.4547165758556
 30
0.0
 11
422.8699595067825
 21
288.8547162758554
 31
0.0
  0
ARC
  5
2E8F
330
18
100
AcDbEntity
  8
1
  6
Continuous
100
AcDbCircle
 10
424.9262875067826
 20
284.4547122758553
 30
0.0
 40
1.0
100
AcDbArc
 50
179.9999799999995
 51
228.1895899999979
  0
ARC
  5
2E90
330
18
100
AcDbEntity
  8
1
  6
Continuous
100
AcDbCircle
 10
417.9262875067826
 20
285.4547122758553
 30
0.0
 40
6.0
100
AcDbArc
 50
0.000000000000007
 51
34.51812000000098
  0
LINE
  5
2E91
330
18
100
AcDbEntity
  8
1
  6
Continuous
100
AcDbLine
 10
423.9262875067827
 20
285.4547122758553
 30
0.0
 11
423.9262875067827
 21
284.4547122758553
 31
0.0
  0
LINE
  5
2E94
330
18
100
AcDbEntity
  8
4
  6
CENTER
 48
0.2
100
AcDbLine
 10
362.4262875067828
 20
302.8487475758554
 30
0.0
 11
362.4262875067828
 21
292.6698611758557
 31
0.0
  0
LINE
  5
2E95
330
18
100
AcDbEntity
  8
1
  6
Continuous
100
AcDbLine
 10
363.9262775067827
 20
292.4547108758554
 30
0.0
 11
364.9825975067826
 21
288.8547112758553
 31
0.0
  0
ARC
  5
2E96
330
18
100
AcDbEntity
  8
1
  6
Continuous
100
AcDbCircle
 10
369.9262875067827
 20
285.4547122758553
 30
0.0
 40
6.0
100
AcDbArc
 50
145.4819099999985
 51
179.9999600000008
  0
ARC
  5
2E97
330
18
100
AcDbEntity
  8
1
  6
Continuous
100
AcDbCircle
 10
362.9262875067827
 20
284.4547122758553
 30
0.0
 40
1.0
100
AcDbArc
 50
311.8102200000011
 51
0.000000000000007
  0
LINE
  5
2E98
330
18
100
AcDbEntity
  8
1
  6
Continuous
100
AcDbLine
 10
363.9262875067827
 20
285.4547122758553
 30
0.0
 11
363.9262875067827
 21
284.4547122758553
 31
0.0
  0
LINE
  5
30E1
330
18
100
AcDbEntity
  8
4
  6
CENTER
 48
0.5
100
AcDbLine
 10
585.5994958302562
 20
193.4547122758556
 30
0.0
 11
585.5994958302562
 21
280.4547122758556
 31
0.0
  0
ARC
  5
30E2
330
18
100
AcDbEntity
  8
1
  6
Continuous
100
AcDbCircle
 10
585.5994958302559
 20
236.9547122758555
 30
0.0
 40
12.0
100
AcDbArc
 50
248.2249700000003
 51
51.85546999999814
  0
LINE
  5
30E3
330
18
100
AcDbEntity
  8
1
  6
Continuous
100
AcDbLine
 10
573.5246358302561
 20
232.4842452758556
 30
0.0
 11
582.8278738302563
 21
280.3452662758555
 31
0.0
  0
LINE
  5
30E4
330
18
100
AcDbEntity
  8
1
  6
Continuous
100
AcDbLine
 10
577.0994958302559
 20
241.8621915184455
 30
0.0
 11
577.0994958302559
 21
232.0472330332656
 31
0.0
  0
CIRCLE
  5
30E5
330
18
100
AcDbEntity
  8
1
  6
Continuous
100
AcDbCircle
 10
585.5994958302559
 20
236.9547122758555
 30
0.0
 40
5.0
  0
CIRCLE
  5
30E6
330
18
100
AcDbEntity
  8
2
  6
Continuous
100
AcDbCircle
 10
585.5994958302559
 20
236.9547122758555
 30
0.0
 40
4.187999999999998
  0
ARC
  5
30E7
330
18
100
AcDbEntity
  8
1
  6
Continuous
100
AcDbCircle
 10
585.5994958302559
 20
236.9547122758555
 30
0.0
 40
6.0
100
AcDbArc
 50
138.5903699999986
 51
221.4096300000012
  0
LINE
  5
30E8
330
18
100
AcDbEntity
  8
1
  6
Continuous
100
AcDbLine
 10
594.0994958302559
 20
241.8621828916284
 30
0.0
 11
594.0994958302559
 21
232.0472330332656
 31
0.0
  0
CIRCLE
  5
30E9
330
18
100
AcDbEntity
  8
1
  6
Continuous
100
AcDbCircle
 10
585.5994958302559
 20
236.9547122758555
 30
0.0
 40
8.5
  0
CIRCLE
  5
30EA
330
18
100
AcDbEntity
  8
1
  6
Continuous
100
AcDbCircle
 10
585.5994958302559
 20
236.9547122758555
 30
0.0
 40
6.5
  0
ARC
  5
30EB
330
18
100
AcDbEntity
  8
1
  6
Continuous
100
AcDbCircle
 10
585.5994958302559
 20
236.9547122758555
 30
0.0
 40
6.0
100
AcDbArc
 50
318.5903800000012
 51
41.40962399999905
  0
CIRCLE
  5
30EF
330
18
100
AcDbEntity
  8
1
  6
Continuous
100
AcDbCircle
 10
585.5994958302562
 20
236.9547122758555
 30
0.0
 40
5.0
  0
ARC
  5
30F4
330
18
100
AcDbEntity
  8
1
  6
Continuous
100
AcDbCircle
 10
617.8733228302559
 20
317.7470362758555
 30
0.0
 40
99.0
100
AcDbArc
 50
205.6101499999997
 51
248.2249499999995
  0
LINE
  5
30F7
330
18
100
AcDbEntity
  8
1
  6
Continuous
100
AcDbLine
 10
577.0994958302557
 20
232.0472330332655
 30
0.0
 11
585.5994958302557
 21
227.1397565184455
 31
0.0
  0
LINE
  5
30F8
330
18
100
AcDbEntity
  8
4
  6
CENTER
 48
0.5
100
AcDbLine
 10
542.0994958302562
 20
236.9547122758555
 30
0.0
 11
629.0994958302563
 21
236.9547122758555
 31
0.0
  0
LINE
  5
30F9
330
18
100
AcDbEntity
  8
1
  6
Continuous
100
AcDbLine
 10
585.5994958302562
 20
227.1397565184455
 30
0.0
 11
594.0994958302562
 21
232.0472330332655
 31
0.0
  0
LINE
  5
30FA
330
18
100
AcDbEntity
  8
1
  6
Continuous
100
AcDbLine
 10
582.3494878302557
 20
233.1550372758556
 30
0.0
 11
581.4039848302559
 21
232.8952412758555
 31
0.0
  0
ARC
  5
30FB
330
18
100
AcDbEntity
  8
1
  6
Continuous
100
AcDbCircle
 10
581.3244938302561
 20
233.1845172758555
 30
0.0
 40
0.30000001
100
AcDbArc
 50
221.4096199999987
 51
285.3642399999976
  0
LINE
  5
30FC
330
18
100
AcDbEntity
  8
1
  6
Continuous
100
AcDbLine
 10
588.8494958302559
 20
233.1550452758557
 30
0.0
 11
589.7950138302562
 21
232.8952412758555
 31
0.0
  0
ARC
  5
30FD
330
18
100
AcDbEntity
  8
1
  6
Continuous
100
AcDbCircle
 10
589.8744978302561
 20
233.1845172758555
 30
0.0
 40
0.30000001
100
AcDbArc
 50
254.6357600000024
 51
318.5903800000012
  0
LINE
  5
30FF
330
18
100
AcDbEntity
  8
1
  6
Continuous
100
AcDbLine
 10
603.5994958302559
 20
299.4547122758556
 30
0.0
 11
521.5994958302559
 21
299.4547122758556
 31
0.0
  0
LINE
  5
3100
330
18
100
AcDbEntity
  8
1
  6
Continuous
100
AcDbLine
 10
528.5994878302559
 20
274.9547122758556
 30
0.0
 11
529.9371348302561
 21
281.8363292758556
 31
0.0
  0
ARC
  5
3101
330
18
100
AcDbEntity
  8
1
  6
Continuous
100
AcDbCircle
 10
595.5994958302559
 20
278.4547122758556
 30
0.0
 40
5.0
100
AcDbArc
 50
0.0000399999991474
 51
90.00001799999918
  0
LINE
  5
3102
330
18
100
AcDbEntity
  8
1
  6
Continuous
100
AcDbLine
 10
590.1205986445038
 20
275.9363394945111
 30
0.0
 11
591.3912120160082
 21
282.4730850572001
 31
0.0
  0
LINE
  5
3103
330
18
100
AcDbEntity
  8
4
  6
CENTER
 48
0.5
100
AcDbLine
 10
562.5994958302563
 20
305.4547122758556
 30
0.0
 11
562.5994958302563
 21
270.3225431816
 31
0.0
  0
LINE
  5
3104
330
18
100
AcDbEntity
  8
1
  6
Continuous
100
AcDbLine
 10
577.0994958302557
 20
241.8621915184455
 30
0.0
 11
585.5994963730952
 21
246.769668346674
 31
0.0
  0
ARC
  5
3105
330
18
100
AcDbEntity
  8
1
  6
Continuous
100
AcDbCircle
 10
606.5994958302559
 20
263.6941992758555
 30
0.0
 40
22.0
100
AcDbArc
 50
160.8051299999995
 51
231.8554899999991
  0
LINE
  5
3106
330
18
100
AcDbEntity
  8
1
  6
Continuous
100
AcDbLine
 10
585.5994963730953
 20
246.7696683466738
 30
0.0
 11
594.0994958302562
 21
241.8621828916282
 31
0.0
  0
LINE
  5
3107
330
18
100
AcDbEntity
  8
1
  6
Continuous
100
AcDbLine
 10
582.3494958302559
 20
240.7543792758556
 30
0.0
 11
581.4039848302561
 21
241.0141832758556
 31
0.0
  0
ARC
  5
3108
330
18
100
AcDbEntity
  8
1
  6
Continuous
100
AcDbCircle
 10
581.3244938302561
 20
240.7249072758555
 30
0.0
 40
0.30000001
100
AcDbArc
 50
74.63575799999734
 51
138.5903800000012
  0
LINE
  5
3109
330
18
100
AcDbEntity
  8
1
  6
Continuous
100
AcDbLine
 10
588.8494958302559
 20
240.7543792758556
 30
0.0
 11
589.7950068302559
 21
241.0141832758556
 31
0.0
  0
ARC
  5
310A
330
18
100
AcDbEntity
  8
1
  6
Continuous
100
AcDbCircle
 10
589.8744978302561
 20
240.7249072758555
 30
0.0
 40
0.30000001
100
AcDbArc
 50
41.4096170000004
 51
105.3642400000038
  0
LINE
  5
310B
330
18
100
AcDbEntity
  8
1
  6
Continuous
100
AcDbLine
 10
599.9191655302561
 20
274.9547122758556
 30
0.0
 11
591.4890028302561
 21
274.9547122758556
 31
0.0
  0
LINE
  5
310C
330
18
100
AcDbEntity
  8
1
  6
Continuous
100
AcDbLine
 10
600.5994963302562
 20
278.4547122758556
 30
0.0
 11
599.9191655302561
 21
274.9547102758556
 31
0.0
  0
ARC
  5
310D
330
18
100
AcDbEntity
  8
1
  6
Continuous
100
AcDbCircle
 10
591.4890028302561
 20
268.9547122758556
 30
0.0
 40
6.0
100
AcDbArc
 50
90.00001799999918
 51
160.8051310000003
  0
LINE
  5
310E
330
18
100
AcDbEntity
  8
1
  6
Continuous
100
AcDbLine
 10
591.5431798302561
 20
288.8547122758557
 30
0.0
 11
533.6558158302562
 21
288.8547122758557
 31
0.0
  0
LINE
  5
3110
330
18
100
AcDbEntity
  8
1
  6
Continuous
100
AcDbLine
 10
595.5994958302559
 20
283.4547122758556
 30
0.0
 11
531.9003988302561
 21
283.4547122758556
 31
0.0
  0
LINE
  5
3112
330
18
100
AcDbEntity
  8
4
  6
CENTER
 48
0.2
100
AcDbLine
 10
594.0994958302564
 20
302.8487475758556
 30
0.0
 11
594.0994958302564
 21
292.6698611758558
 31
0.0
  0
LINE
  5
3113
330
18
100
AcDbEntity
  8
1
  6
Continuous
100
AcDbLine
 10
592.5994938302562
 20
292.4547127758555
 30
0.0
 11
591.543177830256
 21
288.8547132758557
 31
0.0
  0
ARC
  5
3114
330
18
100
AcDbEntity
  8
1
  6
Continuous
100
AcDbCircle
 10
586.5994958302559
 20
285.4547122758556
 30
0.0
 40
6.0
100
AcDbArc
 50
0.0000399999991474
 51
34.51809000000135
  0
ARC
  5
3115
330
18
100
AcDbEntity
  8
1
  6
Continuous
100
AcDbCircle
 10
593.5994958302559
 20
284.4547122758556
 30
0.0
 40
1.0
100
AcDbArc
 50
180.0
 51
269.999979999998
  0
LINE
  5
3116
330
18
100
AcDbEntity
  8
1
  6
Continuous
100
AcDbLine
 10
592.5994958302559
 20
285.4547122758556
 30
0.0
 11
592.5994958302559
 21
284.4547122758556
 31
0.0
  0
LINE
  5
3119
330
18
100
AcDbEntity
  8
4
  6
CENTER
 48
0.2
100
AcDbLine
 10
531.0994958302564
 20
302.8487475758556
 30
0.0
 11
531.0994958302564
 21
292.6698611758558
 31
0.0
  0
LINE
  5
311A
330
18
100
AcDbEntity
  8
1
  6
Continuous
100
AcDbLine
 10
532.5995108302563
 20
292.4547146758555
 30
0.0
 11
533.6558308302564
 21
288.8547142758556
 31
0.0
  0
ARC
  5
311B
330
18
100
AcDbEntity
  8
1
  6
Continuous
100
AcDbCircle
 10
531.9003988302561
 20
281.4547122758556
 30
0.0
 40
2.0
100
AcDbArc
 50
90.00001799999918
 51
169.0000519999992
  0
ARC
  5
311C
330
18
100
AcDbEntity
  8
1
  6
Continuous
100
AcDbCircle
 10
531.5994958302559
 20
284.4547122758556
 30
0.0
 40
1.0
100
AcDbArc
 50
269.999969999997
 51
0.0000200000003914
  0
ARC
  5
311D
330
18
100
AcDbEntity
  8
1
  6
Continuous
100
AcDbCircle
 10
538.5994958302559
 20
285.4547122758556
 30
0.0
 40
6.0
100
AcDbArc
 50
145.481879999999
 51
180.0
  0
LINE
  5
311E
330
18
100
AcDbEntity
  8
1
  6
Continuous
100
AcDbLine
 10
532.5994958302559
 20
285.4547122758556
 30
0.0
 11
532.5994958302559
 21
284.4547122758556
 31
0.0
  0
CIRCLE
  5
31C8
330
18
100
AcDbEntity
  8
1
  6
Continuous
100
AcDbCircle
 10
202.2530791833096
 20
236.9547122758555
 30
0.0
 40
8.75
  0
LINE
  5
3243
330
18
100
AcDbEntity
  8
1
  6
Continuous
100
AcDbLine
 10
266.2530791833096
 20
57.18278973032806
 30
0.0
 11
266.2530791833096
 21
120.1827897303281
 31
0.0
  0
LINE
  5
3246
330
18
100
AcDbEntity
  8
1
  6
Continuous
100
AcDbLine
 10
184.2530791833094
 20
57.18278973032806
 30
0.0
 11
184.2530791833094
 21
68.68278973032829
 31
0.0
  0
LINE
  5
3247
330
18
100
AcDbEntity
  8
4
  6
CENTER
 48
0.5
100
AcDbLine
 10
225.2530791833098
 20
41.682789730328
 30
0.0
 11
225.2530791833098
 21
135.6827897303281
 31
0.0
  0
ARC
  5
324D
330
18
100
AcDbEntity
  8
1
  6
Continuous
100
AcDbCircle
 10
256.7530791833096
 20
120.1827897303281
 30
0.0
 40
9.5
100
AcDbArc
 50
359.9999799999995
 51
90.00002999999653
  0
LINE
  5
324E
330
18
100
AcDbEntity
  8
4
  6
CENTER
 48
0.2
100
AcDbLine
 10
262.7530791833098
 20
120.1827897303281
 30
0.0
 11
250.7530791833096
 21
120.1827897303281
 31
0.0
  0
LINE
  5
3252
330
18
100
AcDbEntity
  8
1
  6
Continuous
100
AcDbLine
 10
256.7530791833096
 20
129.6827897303282
 30
0.0
 11
193.7530791833094
 21
129.6827897303282
 31
0.0
  0
ARC
  5
3253
330
18
100
AcDbEntity
  8
1
  6
Continuous
100
AcDbCircle
 10
193.7530791833094
 20
120.1827897303281
 30
0.0
 40
9.5
100
AcDbArc
 50
90.00001999999552
 51
180.0
  0
ARC
  5
3254
330
18
100
AcDbEntity
  8
1
  6
Continuous
100
AcDbCircle
 10
193.7530791833094
 20
120.1827897303281
 30
0.0
 40
4.400000099999996
100
AcDbArc
 50
333.4568107797783
 51
267.6261283695636
  0
LINE
  5
3255
330
18
100
AcDbEntity
  8
4
  6
CENTER
 48
0.2
100
AcDbLine
 10
193.7530791833094
 20
114.1827897303281
 30
0.0
 11
193.7530791833094
 21
126.1827897303282
 31
0.0
  0
LINE
  5
3256
330
18
100
AcDbEntity
  8
4
  6
CENTER
 48
0.2
100
AcDbLine
 10
199.7530791833096
 20
120.1827897303281
 30
0.0
 11
187.7530791833094
 21
120.1827897303281
 31
0.0
  0
LINE
  5
3259
330
18
100
AcDbEntity
  8
4
  6
CENTER
 48
0.2
100
AcDbLine
 10
256.7530791833096
 20
114.1827897303281
 30
0.0
 11
256.7530791833096
 21
126.1827897303282
 31
0.0
  0
CIRCLE
  5
325A
330
18
100
AcDbEntity
  8
1
  6
Continuous
100
AcDbCircle
 10
256.7530791833096
 20
120.1827897303281
 30
0.0
 40
4.400000099999996
  0
LINE
  5
325B
330
18
100
AcDbEntity
  8
4
  6
CENTER
 48
0.2
100
AcDbLine
 10
262.7530791833098
 20
57.18278973032806
 30
0.0
 11
250.7530791833096
 21
57.18278973032806
 31
0.0
  0
ARC
  5
325C
330
18
100
AcDbEntity
  8
1
  6
Continuous
100
AcDbCircle
 10
256.7530791833096
 20
57.18278973032806
 30
0.0
 40
9.5
100
AcDbArc
 50
269.9999820000007
 51
359.9999599999991
  0
LINE
  5
325D
330
18
100
AcDbEntity
  8
4
  6
CENTER
 48
0.5
100
AcDbLine
 10
272.2530791833095
 20
88.68278973032829
 30
0.0
 11
158.7530791833096
 21
88.68278973032824
 31
0.0
  0
ARC
  5
325E
330
18
100
AcDbEntity
  8
1
  6
Continuous
100
AcDbCircle
 10
193.7530791833094
 20
57.18278973032806
 30
0.0
 40
9.5
100
AcDbArc
 50
180.0
 51
269.9999820000007
  0
LINE
  5
325F
330
18
100
AcDbEntity
  8
1
  6
Continuous
100
AcDbLine
 10
256.7530791833096
 20
47.68278973032805
 30
0.0
 11
193.7530791833094
 21
47.68278973032805
 31
0.0
  0
ARC
  5
3263
330
18
100
AcDbEntity
  8
1
  6
Continuous
100
AcDbCircle
 10
193.7530791833094
 20
57.18278973032806
 30
0.0
 40
4.400000099999996
100
AcDbArc
 50
90.0
 51
322.6983197615248
  0
LINE
  5
3264
330
18
100
AcDbEntity
  8
4
  6
CENTER
 48
0.2
100
AcDbLine
 10
193.7530791833094
 20
51.18278973032808
 30
0.0
 11
193.7530791833094
 21
63.18278973032807
 31
0.0
  0
LINE
  5
3265
330
18
100
AcDbEntity
  8
4
  6
CENTER
 48
0.2
100
AcDbLine
 10
199.7530791833096
 20
57.18278973032806
 30
0.0
 11
187.7530791833094
 21
57.18278973032806
 31
0.0
  0
LINE
  5
3266
330
18
100
AcDbEntity
  8
4
  6
CENTER
 48
0.2
100
AcDbLine
 10
256.7530791833096
 20
51.18278973032808
 30
0.0
 11
256.7530791833096
 21
63.18278973032807
 31
0.0
  0
CIRCLE
  5
3267
330
18
100
AcDbEntity
  8
1
  6
Continuous
100
AcDbCircle
 10
256.7530791833096
 20
57.18278973032806
 30
0.0
 40
4.400000099999996
  0
LINE
  5
32F6
330
18
100
AcDbEntity
  8
1
  6
Continuous
100
AcDbLine
 10
184.2530791833093
 20
108.6827897303283
 30
0.0
 11
184.2530791833094
 21
120.1827897303281
 31
0.0
  0
LINE
  5
32FD
330
18
100
AcDbEntity
  8
1
  6
Continuous
100
AcDbLine
 10
206.5030843845787
 20
53.18277973032831
 30
0.0
 11
198.0030843845787
 21
53.18277973032831
 31
0.0
  0
LINE
  5
32FE
330
18
100
AcDbEntity
  8
1
  6
Continuous
100
AcDbLine
 10
197.2530843845787
 20
53.93277973032829
 30
0.0
 11
207.2530843845787
 21
53.93277973032829
 31
0.0
  0
LINE
  5
3302
330
18
100
AcDbEntity
  8
1
  6
Continuous
100
AcDbLine
 10
190.2530791833098
 20
66.18278973032852
 30
0.0
 11
214.9028723677324
 21
66.18278973032841
 31
0.0
  0
LINE
  5
3303
330
18
100
AcDbEntity
  8
1
  6
Continuous
100
AcDbLine
 10
190.2530791833098
 20
111.1827897303285
 30
0.0
 11
214.9028723677324
 21
111.1827897303284
 31
0.0
  0
LINE
  5
3305
330
18
100
AcDbEntity
  8
1
  6
Continuous
100
AcDbLine
 10
190.2530791833098
 20
62.18278973032872
 30
0.0
 11
214.9028723677324
 21
62.18278973032862
 31
0.0
  0
LINE
  5
3306
330
18
100
AcDbEntity
  8
1
  6
Continuous
100
AcDbLine
 10
193.8979081833096
 20
116.5827917303283
 30
0.0
 11
210.6719181833095
 21
116.5827917303283
 31
0.0
  0
ARC
  5
3308
330
18
100
AcDbEntity
  8
1
  6
Continuous
100
AcDbCircle
 10
202.2530791833096
 20
96.11325573032836
 30
0.0
 40
22.56953
100
AcDbArc
 50
68.04869999999867
 51
111.9513080000005
  0
LINE
  5
3310
330
18
100
AcDbEntity
  8
4
  6
CENTER
 48
0.5
100
AcDbLine
 10
202.2530842018732
 20
50.18277973038066
 30
0.0
 11
202.2530842018732
 21
124.1610300136296
 31
0.0
  0
LINE
  5
3318
330
18
100
AcDbEntity
  8
1
  6
Continuous
100
AcDbLine
 10
206.5030803845788
 20
53.18277973032831
 30
0.0
 11
207.2530843845788
 21
53.93277973032829
 31
0.0
  0
LINE
  5
331A
330
18
100
AcDbEntity
  8
1
  6
Continuous
100
AcDbLine
 10
207.2530843845787
 20
53.93277973032829
 30
0.0
 11
207.2530843845787
 21
55.68278973032828
 31
0.0
  0
LINE
  5
331B
330
18
100
AcDbEntity
  8
2
  6
Continuous
100
AcDbLine
 10
206.4410843847217
 20
53.18277973032831
 30
0.0
 11
206.4410843847217
 21
55.68278973032828
 31
0.0
  0
LINE
  5
332A
330
18
100
AcDbEntity
  8
1
  6
Continuous
100
AcDbLine
 10
211.0011791833095
 20
116.5392117303288
 30
0.0
 11
210.8825121833096
 21
115.1827897303285
 31
0.0
  0
ARC
  5
332B
330
18
100
AcDbEntity
  8
1
  6
Continuous
100
AcDbCircle
 10
210.5030791833096
 20
116.5827917303284
 30
0.0
 40
0.5
100
AcDbArc
 50
355.0000000000002
 51
68.04868999999985
  0
LINE
  5
3339
330
18
100
AcDbEntity
  8
1
  6
Continuous
100
AcDbLine
 10
197.2530313845787
 20
53.93271973032799
 30
0.0
 11
198.0030313845787
 21
53.182719730328
 31
0.0
  0
LINE
  5
333B
330
18
100
AcDbEntity
  8
1
  6
Continuous
100
AcDbLine
 10
197.2530843845787
 20
53.93277973032829
 30
0.0
 11
197.2530843845787
 21
55.68278973032828
 31
0.0
  0
LINE
  5
333C
330
18
100
AcDbEntity
  8
2
  6
Continuous
100
AcDbLine
 10
198.0650843847216
 20
53.18277973032831
 30
0.0
 11
198.0650843847216
 21
55.68278973032828
 31
0.0
  0
LINE
  5
334B
330
18
100
AcDbEntity
  8
1
  6
Continuous
100
AcDbLine
 10
193.5049831833096
 20
116.5392117303283
 30
0.0
 11
193.6236541833096
 21
115.1827937303282
 31
0.0
  0
ARC
  5
334C
330
18
100
AcDbEntity
  8
1
  6
Continuous
100
AcDbCircle
 10
194.0030791833095
 20
116.5827917303284
 30
0.0
 40
0.5
100
AcDbArc
 50
111.9513080000005
 51
185.0000019999985
  0
LINE
  5
33EC
330
18
100
AcDbEntity
  8
1
  6
Continuous
100
AcDbLine
 10
190.2530791833098
 20
115.1827897303285
 30
0.0
 11
214.9028723677324
 21
115.1827897303284
 31
0.0
  0
LINE
  5
33ED
330
18
100
AcDbEntity
  8
1
  6
Continuous
100
AcDbLine
 10
190.2530791833098
 20
115.1827897303285
 30
0.0
 11
190.2530791833098
 21
111.1827897303285
 31
0.0
  0
LINE
  5
33EE
330
18
100
AcDbEntity
  8
1
  6
Continuous
100
AcDbLine
 10
190.2530791833098
 20
62.18278973032872
 30
0.0
 11
190.2530791833098
 21
66.18278973032852
 31
0.0
  0
LINE
  5
3458
330
18
100
AcDbEntity
  8
1
  6
Continuous
100
AcDbLine
 10
387.9620148100148
 20
274.9475358947587
 30
0.0
 11
399.890560203551
 21
274.9475358947587
 31
0.0
  0
ARC
  5
3459
330
18
100
AcDbEntity
  8
1
  6
Continuous
100
AcDbCircle
 10
363.4262875067826
 20
227.580319086272
 30
0.0
 40
4.0
100
AcDbArc
 50
0.0
 51
53.57642635766779
  0
ARC
  5
345A
330
18
100
AcDbEntity
  8
1
  6
Continuous
100
AcDbCircle
 10
363.4262875067826
 20
227.580319086272
 30
0.0
 40
8.0
100
AcDbArc
 50
0.0
 51
53.57642635766779
  0
ARC
  5
345B
330
18
100
AcDbEntity
  8
1
  6
Continuous
100
AcDbCircle
 10
372.9262875067828
 20
240.4547122758556
 30
0.0
 40
8.0
100
AcDbArc
 50
158.7874293974524
 51
233.5764263576675
  0
LINE
  5
345C
330
18
100
AcDbEntity
  8
1
  6
Continuous
100
AcDbLine
 10
372.7813987283062
 20
262.1912945104633
 30
0.0
 11
365.4683319953923
 21
243.3493451696987
 31
0.0
  0
ARC
  5
345E
330
18
100
AcDbEntity
  8
1
  6
Continuous
100
AcDbCircle
 10
387.4262875067827
 20
254.9547122758556
 30
0.0
 40
20.0
100
AcDbArc
 50
88.46507073606257
 51
157.9624566560263
  0
LINE
  5
345F
330
18
100
AcDbEntity
  8
1
  6
Continuous
100
AcDbLine
 10
368.8875236526452
 20
262.4589933713721
 30
0.0
 11
361.8030291943004
 21
244.9572809331655
 31
0.0
  0
LINE
  5
3460
330
18
100
AcDbEntity
  8
1
  6
Continuous
100
AcDbLine
 10
418.9650513609207
 20
262.4589933713721
 30
0.0
 11
426.0495458192655
 21
244.9572809331655
 31
0.0
  0
ARC
  5
3461
330
18
100
AcDbEntity
  8
1
  6
Continuous
100
AcDbCircle
 10
414.9262875067828
 20
240.4547122758556
 30
0.0
 40
12.0
100
AcDbArc
 50
306.4235736423324
 51
22.03754334397359
  0
ARC
  5
3462
330
18
100
AcDbEntity
  8
1
  6
Continuous
100
AcDbCircle
 10
424.4262875067832
 20
227.580319086272
 30
0.0
 40
4.0
100
AcDbArc
 50
126.4235736423322
 51
180.0
  0
LINE
  5
3463
330
18
100
AcDbEntity
  8
1
  6
Continuous
100
AcDbLine
 10
420.4262875067831
 20
227.580319086272
 30
0.0
 11
420.4262875067831
 21
224.9547122758555
 31
0.0
  0
ARC
  5
3464
330
18
100
AcDbEntity
  8
1
  6
Continuous
100
AcDbCircle
 10
414.9262875067828
 20
240.4547122758556
 30
0.0
 40
8.0
100
AcDbArc
 50
306.4235736423324
 51
21.21257060254755
  0
LINE
  5
3465
330
18
100
AcDbEntity
  8
1
  6
Continuous
100
AcDbLine
 10
415.0711762852597
 20
262.1912945104633
 30
0.0
 11
422.3842430181735
 21
243.3493451696987
 31
0.0
  0
ARC
  5
3466
330
18
100
AcDbEntity
  8
1
  6
Continuous
100
AcDbCircle
 10
400.4262875067832
 20
254.9547122758556
 30
0.0
 40
20.0
100
AcDbArc
 50
22.03754334397369
 51
91.53492926393743
  0
ARC
  5
3467
330
18
100
AcDbEntity
  8
1
  6
Continuous
100
AcDbCircle
 10
424.4262875067832
 20
227.580319086272
 30
0.0
 40
8.0
100
AcDbArc
 50
126.4235736423322
 51
180.0
  0
ARC
  5
3470
330
18
100
AcDbEntity
  8
1
  6
Continuous
100
AcDbCircle
 10
226.9351819601816
 20
88.68278973032827
 30
0.0
 40
32.31791104197503
100
AcDbArc
 50
314.144890965369
 51
45.85510903463099
  0
ARC
  5
3471
330
18
100
AcDbEntity
  8
1
  6
Continuous
100
AcDbCircle
 10
225.2530791833098
 20
86.94971343765066
 30
0.0
 40
34.73307629267761
100
AcDbArc
 50
45.85510903463099
 51
90.0
  0
ARC
  5
3472
330
18
100
AcDbEntity
  8
1
  6
Continuous
100
AcDbCircle
 10
225.2530791833098
 20
90.41586602300586
 30
0.0
 40
34.73307629267761
100
AcDbArc
 50
270.0
 51
314.144890965369
  0
ARC
  5
3473
330
18
100
AcDbEntity
  8
1
  6
Continuous
100
AcDbCircle
 10
226.9351819601816
 20
88.68278973032827
 30
0.0
 40
28.31791104197503
100
AcDbArc
 50
314.144890965369
 51
45.85510903463099
  0
ARC
  5
3474
330
18
100
AcDbEntity
  8
1
  6
Continuous
100
AcDbCircle
 10
225.2530791833098
 20
90.41586602300586
 30
0.0
 40
30.73307629267761
100
AcDbArc
 50
270.0
 51
314.144890965369
  0
ARC
  5
3475
330
18
100
AcDbEntity
  8
1
  6
Continuous
100
AcDbCircle
 10
225.2530791833098
 20
86.94971343765066
 30
0.0
 40
30.73307629267761
100
AcDbArc
 50
45.85510903463099
 51
90.0
  0
ARC
  5
3477
330
18
100
AcDbEntity
  8
1
  6
Continuous
100
AcDbCircle
 10
214.9028723677324
 20
118.1827897303284
 30
0.0
 40
3.0
100
AcDbArc
 50
270.0
 51
317.5580029063457
  0
ARC
  5
3478
330
18
100
AcDbEntity
  8
1
  6
Continuous
100
AcDbCircle
 10
214.9028723677324
 20
118.1827897303284
 30
0.0
 40
7.0
100
AcDbArc
 50
269.9999999999995
 51
317.5580029063457
  0
ARC
  5
3479
330
18
100
AcDbEntity
  8
1
  6
Continuous
100
AcDbCircle
 10
225.2530791833098
 20
114.6827897303282
 30
0.0
 40
3.0
100
AcDbArc
 50
90.0
 51
137.5580029063457
  0
ARC
  5
347A
330
18
100
AcDbEntity
  8
1
  6
Continuous
100
AcDbCircle
 10
225.2530791833098
 20
114.6827897303282
 30
0.0
 40
7.0
100
AcDbArc
 50
90.0
 51
137.5580029063457
  0
LINE
  5
347B
330
18
100
AcDbEntity
  8
1
  6
Continuous
100
AcDbLine
 10
220.0873529740804
 20
119.4066941251355
 30
0.0
 11
217.1167550288307
 21
116.1582592754109
 31
0.0
  0
LINE
  5
347C
330
18
100
AcDbEntity
  8
1
  6
Continuous
100
AcDbLine
 10
223.0391965222115
 20
116.7073201852456
 30
0.0
 11
220.0685985769618
 21
113.458885335521
 31
0.0
  0
ARC
  5
347D
330
18
100
AcDbEntity
  8
1
  6
Continuous
100
AcDbCircle
 10
214.9028723677324
 20
59.18278973032812
 30
0.0
 40
3.0
100
AcDbArc
 50
42.44199709365421
 51
90.00000000000005
  0
LINE
  5
347E
330
18
100
AcDbEntity
  8
1
  6
Continuous
100
AcDbLine
 10
220.0873529740804
 20
57.95888533552092
 30
0.0
 11
217.1167550288307
 21
61.20732018524554
 31
0.0
  0
ARC
  5
347F
330
18
100
AcDbEntity
  8
1
  6
Continuous
100
AcDbCircle
 10
225.2530791833098
 20
62.68278973032825
 30
0.0
 40
7.0
100
AcDbArc
 50
222.4419970936541
 51
270.0
  0
ARC
  5
3480
330
18
100
AcDbEntity
  8
1
  6
Continuous
100
AcDbCircle
 10
225.2530791833098
 20
62.68278973032825
 30
0.0
 40
3.0
100
AcDbArc
 50
222.4419970936541
 51
270.0
  0
LINE
  5
3481
330
18
100
AcDbEntity
  8
1
  6
Continuous
100
AcDbLine
 10
223.0391965222115
 20
60.65825927541082
 30
0.0
 11
220.0685985769618
 21
63.90669412513543
 31
0.0
  0
ARC
  5
3482
330
18
100
AcDbEntity
  8
1
  6
Continuous
100
AcDbCircle
 10
214.9028723677324
 20
59.18278973032812
 30
0.0
 40
7.0
100
AcDbArc
 50
42.44199709365431
 51
90.00000000000047
  0
ARC
  5
3484
330
18
100
AcDbEntity
  8
1
  6
Continuous
100
AcDbCircle
 10
225.2530791833098
 20
88.68278973032827
 30
0.0
 40
26.80001381884681
100
AcDbArc
 50
262.3889884418853
 51
97.61101155811434
  0
ARC
  5
3485
330
18
100
AcDbEntity
  8
1
  6
Continuous
100
AcDbCircle
 10
225.2530791833098
 20
88.68278973032827
 30
0.0
 40
15.5
100
AcDbArc
 50
337.542873536427
 51
22.45712646357279
  0
LINE
  5
39D6
330
18
100
AcDbEntity
  8
4
  6
CENTER
 48
0.5
100
AcDbLine
 10
202.2530842018732
 20
448.7266448213301
 30
0.0
 11
202.2530842018732
 21
374.7483945380811
 31
0.0
  0
LINE
  5
3B84
330
18
100
AcDbEntity
  8
1
  6
Continuous
100
AcDbLine
 10
413.9262875067828
 20
254.4547122758554
 30
0.0
 11
414.4262875067828
 21
254.4547122758554
 31
0.0
  0
LINE
  5
3B85
330
18
100
AcDbEntity
  8
1
  6
Continuous
100
AcDbLine
 10
373.4262875067829
 20
254.4547122758554
 30
0.0
 11
373.9262875067828
 21
254.4547122758554
 31
0.0
  0
LINE
  5
3B86
330
18
100
AcDbEntity
  8
1
  6
Continuous
100
AcDbLine
 10
415.4262875067828
 20
245.7547122258555
 30
0.0
 11
416.2262864963109
 21
245.7547122258555
 31
0.0
  0
LINE
  5
3B87
330
18
100
AcDbEntity
  8
1
  6
Continuous
100
AcDbLine
 10
415.4262875067828
 20
220.4547122758556
 30
0.0
 11
415.4262875067827
 21
253.4547122758555
 31
0.0
  0
LINE
  5
3B88
330
18
100
AcDbEntity
  8
1
  6
Continuous
100
AcDbLine
 10
413.9262875067828
 20
203.9560211853489
 30
0.0
 11
413.9262875067828
 21
264.6371706413737
 31
0.0
  0
LINE
  5
3B89
330
18
100
AcDbEntity
  8
1
  6
Continuous
100
AcDbLine
 10
373.9262875067828
 20
203.956021185349
 30
0.0
 11
373.9262875067828
 21
264.6371706413745
 31
0.0
  0
LINE
  5
3B8A
330
18
100
AcDbEntity
  8
1
  6
Continuous
100
AcDbLine
 10
372.4262875067828
 20
220.4547122758556
 30
0.0
 11
372.4262875067828
 21
253.4547122758555
 31
0.0
  0
LINE
  5
3B8B
330
18
100
AcDbEntity
  8
1
  6
Continuous
100
AcDbLine
 10
371.626288517255
 20
245.7547122258555
 30
0.0
 11
372.4262875067828
 21
245.7547122258555
 31
0.0
  0
ARC
  5
3B8C
330
18
100
AcDbEntity
  8
1
  6
Continuous
100
AcDbCircle
 10
373.4262875067829
 20
220.4547122758556
 30
0.0
 40
1.0
100
AcDbArc
 50
180.0
 51
270.0
  0
ARC
  5
3B8D
330
18
100
AcDbEntity
  8
1
  6
Continuous
100
AcDbCircle
 10
414.4262875067828
 20
220.4547122758556
 30
0.0
 40
1.0
100
AcDbArc
 50
270.0
 51
0.0
  0
ARC
  5
3B8E
330
18
100
AcDbEntity
  8
1
  6
Continuous
100
AcDbCircle
 10
414.4262875067828
 20
253.4547122758555
 30
0.0
 40
1.0
100
AcDbArc
 50
0.0
 51
90.0
  0
ARC
  5
3B8F
330
18
100
AcDbEntity
  8
1
  6
Continuous
100
AcDbCircle
 10
373.4262875067829
 20
253.4547122758555
 30
0.0
 40
1.0
100
AcDbArc
 50
90.0
 51
180.0
  0
ARC
  5
3B90
330
18
100
AcDbEntity
  8
1
  6
Continuous
100
AcDbCircle
 10
410.9262875067828
 20
203.956021185349
 30
0.0
 40
3.0
100
AcDbArc
 50
280.0936568592259
 51
0.0
  0
ARC
  5
3B91
330
18
100
AcDbEntity
  8
1
  6
Continuous
100
AcDbCircle
 10
376.9262875067828
 20
203.956021185349
 30
0.0
 40
3.0
100
AcDbArc
 50
180.0
 51
259.9063431407739
  0
ARC
  5
3B92
330
18
100
AcDbEntity
  8
1
  6
Continuous
100
AcDbCircle
 10
393.9262875067829
 20
299.4547122758555
 30
0.0
 40
100.0
100
AcDbArc
 50
259.9063431407739
 51
280.0936568592259
  0
ARC
  5
3B95
330
18
100
AcDbEntity
  8
1
  6
Continuous
100
AcDbCircle
 10
393.9262875067829
 20
174.4547122758555
 30
0.0
 40
100.0
100
AcDbArc
 50
85.27697513360156
 51
94.72302486639884
  0
ARC
  5
3B96
330
18
100
AcDbEntity
  8
1
  6
Continuous
100
AcDbCircle
 10
371.626288506783
 20
245.5547122258554
 30
0.0
 40
0.2
100
AcDbArc
 50
89.99999700000229
 51
180.0
  0
ARC
  5
3B97
330
18
100
AcDbEntity
  8
1
  6
Continuous
100
AcDbCircle
 10
371.626288506783
 20
228.3547123258555
 30
0.0
 40
0.2
100
AcDbArc
 50
180.0
 51
270.0
  0
LINE
  5
3B98
330
18
100
AcDbEntity
  8
1
  6
Continuous
100
AcDbLine
 10
372.4262875067828
 20
228.1547122258555
 30
0.0
 11
371.626288506783
 21
228.1547122258555
 31
0.0
  0
ARC
  5
3B99
330
18
100
AcDbEntity
  8
1
  6
Continuous
100
AcDbCircle
 10
416.2262865067829
 20
245.5547122258554
 30
0.0
 40
0.2
100
AcDbArc
 50
0.0
 51
90.00000299999769
  0
ARC
  5
3B9A
330
18
100
AcDbEntity
  8
1
  6
Continuous
100
AcDbCircle
 10
416.2262865067829
 20
228.3547123258555
 30
0.0
 40
0.2
100
AcDbArc
 50
270.0
 51
0.0
  0
LINE
  5
3B9B
330
18
100
AcDbEntity
  8
1
  6
Continuous
100
AcDbLine
 10
415.4262875067828
 20
228.1547122258555
 30
0.0
 11
416.2262865067829
 21
228.1547122258555
 31
0.0
  0
LINE
  5
3B9C
330
18
100
AcDbEntity
  8
1
  6
Continuous
100
AcDbLine
 10
413.9262875067828
 20
219.4547122758556
 30
0.0
 11
414.4262875067828
 21
219.4547122758556
 31
0.0
  0
LINE
  5
3B9D
330
18
100
AcDbEntity
  8
1
  6
Continuous
100
AcDbLine
 10
373.4262875067829
 20
219.4547122758555
 30
0.0
 11
373.9262875067828
 21
219.4547122758554
 31
0.0
  0
ARC
  5
3B9E
330
18
100
AcDbEntity
  8
1
  6
Continuous
100
AcDbCircle
 10
202.2530791833095
 20
236.9547122758552
 30
0.0
 40
17.50000005000001
100
AcDbArc
 50
93.43594196628528
 51
342.5453930656922
  0
ARC
  5
3B9F
330
18
100
AcDbEntity
  8
1
  6
Continuous
100
AcDbCircle
 10
202.2530791833095
 20
236.9547122758552
 30
0.0
 40
15.0
100
AcDbArc
 50
99.71600797725814
 51
331.5139512955207
  0
ARC
  5
3BA0
330
18
100
AcDbEntity
  8
1
  6
Continuous
100
AcDbCircle
 10
202.2530791833095
 20
236.9547122758552
 30
0.0
 40
12.8
100
AcDbArc
 50
111.9446234627325
 51
313.5586368020235
  0
ARC
  5
3BA1
330
18
100
AcDbEntity
  8
1
  6
Continuous
100
AcDbCircle
 10
190.8232002547086
 20
252.1322571764436
 30
0.0
 40
1.5
100
AcDbArc
 50
225.0
 51
306.9826082464133
  0
ARC
  5
3BA2
330
18
100
AcDbEntity
  8
1
  6
Continuous
100
AcDbCircle
 10
194.8238792399227
 20
254.4420502654985
 30
0.0
 40
1.5
100
AcDbArc
 50
293.0173917535856
 51
15.00000000000159
  0
ARC
  5
3BA3
330
18
100
AcDbEntity
  8
1
  6
Continuous
100
AcDbCircle
 10
186.1933193628744
 20
256.7621380682779
 30
0.0
 40
1.5
100
AcDbArc
 50
129.0349629308593
 51
225.0
  0
ARC
  5
3BA4
330
18
100
AcDbEntity
  8
1
  6
Continuous
100
AcDbCircle
 10
193.1292252170153
 20
260.76658518024
 30
0.0
 40
1.5
100
AcDbArc
 50
15.00000000000075
 51
110.9650370691386
  0
LINE
  5
3BA5
330
18
100
AcDbEntity
  8
1
  6
Continuous
100
AcDbLine
 10
196.2727679793562
 20
254.830278833152
 30
0.0
 11
194.5781139564488
 21
261.1548137478937
 31
0.0
  0
LINE
  5
3BA6
330
18
100
AcDbEntity
  8
1
  6
Continuous
100
AcDbLine
 10
189.7625400829289
 20
251.0715970046641
 30
0.0
 11
185.1326591910947
 21
255.7014778964982
 31
0.0
  0
ARC
  5
3BA7
330
18
100
AcDbEntity
  8
1
  6
Continuous
100
AcDbCircle
 10
202.2530792083094
 20
236.9547122825542
 30
0.0
 40
27.00000005000001
100
AcDbArc
 50
110.9650370691386
 51
129.0349629308593
  0
ARC
  5
3BA8
330
18
100
AcDbEntity
  8
1
  6
Continuous
100
AcDbCircle
 10
184.7657412436664
 20
244.3839122692422
 30
0.0
 40
1.5
100
AcDbArc
 50
254.9999999999983
 51
336.9826082464113
  0
ARC
  5
3BA9
330
18
100
AcDbEntity
  8
1
  6
Continuous
100
AcDbCircle
 10
187.0755343327213
 20
248.3845912544562
 30
0.0
 40
1.5
100
AcDbArc
 50
323.0173917535867
 51
45.0
  0
ARC
  5
3BAA
330
18
100
AcDbEntity
  8
1
  6
Continuous
100
AcDbCircle
 10
178.4412063289248
 20
246.0785662921497
 30
0.0
 40
1.5
100
AcDbArc
 50
159.0349629308613
 51
254.9999999999983
  0
ARC
  5
3BAB
330
18
100
AcDbEntity
  8
1
  6
Continuous
100
AcDbCircle
 10
182.445653440887
 20
253.0144721462904
 30
0.0
 40
1.5
100
AcDbArc
 50
45.0
 51
140.9650370691386
  0
LINE
  5
3BAC
330
18
100
AcDbEntity
  8
1
  6
Continuous
100
AcDbLine
 10
188.136194504501
 20
249.4452514262362
 30
0.0
 11
183.5063136126668
 21
254.0751323180703
 31
0.0
  0
LINE
  5
3BAD
330
18
100
AcDbEntity
  8
1
  6
Continuous
100
AcDbLine
 10
184.3775126760128
 20
242.9350235298087
 30
0.0
 11
178.0529777612713
 21
244.629677552716
 31
0.0
  0
ARC
  5
3BAE
330
18
100
AcDbEntity
  8
1
  6
Continuous
100
AcDbCircle
 10
202.2530792266106
 20
236.9547123008554
 30
0.0
 40
27.00000005000001
100
AcDbArc
 50
140.9650370691386
 51
159.0349629308613
  0
ARC
  5
3BAF
330
18
100
AcDbEntity
  8
1
  6
Continuous
100
AcDbCircle
 10
183.394000311322
 20
234.6449192368008
 30
0.0
 40
1.5
100
AcDbArc
 50
285.0000000000006
 51
6.982608246412417
  0
ARC
  5
3BB0
330
18
100
AcDbEntity
  8
1
  6
Continuous
100
AcDbCircle
 10
183.394000311322
 20
239.26450541491
 30
0.0
 40
1.5
100
AcDbArc
 50
353.0173917535877
 51
75.0000000000024
  0
ARC
  5
3BB1
330
18
100
AcDbEntity
  8
1
  6
Continuous
100
AcDbCircle
 10
177.0694653965805
 20
232.9502652138932
 30
0.0
 40
1.5
100
AcDbArc
 50
189.0349629308599
 51
285.0000000000006
  0
ARC
  5
3BB2
330
18
100
AcDbEntity
  8
1
  6
Continuous
100
AcDbCircle
 10
177.0694653965805
 20
240.9591594378175
 30
0.0
 40
1.5
100
AcDbArc
 50
74.99999999999928
 51
170.96503706914
  0
LINE
  5
3BB3
330
18
100
AcDbEntity
  8
1
  6
Continuous
100
AcDbLine
 10
183.7822288789756
 20
240.7133941543437
 30
0.0
 11
177.457693964234
 21
242.408048177251
 31
0.0
  0
LINE
  5
3BB4
330
18
100
AcDbEntity
  8
1
  6
Continuous
100
AcDbLine
 10
183.7822288789755
 20
233.1960304973673
 30
0.0
 11
177.457693964234
 21
231.5013764744596
 31
0.0
  0
ARC
  5
3BB5
330
18
100
AcDbEntity
  8
1
  6
Continuous
100
AcDbCircle
 10
202.2530792333094
 20
236.9547123258555
 30
0.0
 40
27.00000005000001
100
AcDbArc
 50
170.96503706914
 51
189.0349629308599
  0
ARC
  5
3BB6
330
18
100
AcDbEntity
  8
1
  6
Continuous
100
AcDbCircle
 10
187.0755343327213
 20
225.5248333972544
 30
0.0
 40
1.5
100
AcDbArc
 50
315.0
 51
36.98260824641335
  0
ARC
  5
3BB7
330
18
100
AcDbEntity
  8
1
  6
Continuous
100
AcDbCircle
 10
184.7657412436664
 20
229.5255123824686
 30
0.0
 40
1.5
100
AcDbArc
 50
23.01739175358873
 51
105.0000000000016
  0
ARC
  5
3BB8
330
18
100
AcDbEntity
  8
1
  6
Continuous
100
AcDbCircle
 10
182.445653440887
 20
220.8949525054203
 30
0.0
 40
1.5
100
AcDbArc
 50
219.0349629308593
 51
315.0
  0
ARC
  5
3BB9
330
18
100
AcDbEntity
  8
1
  6
Continuous
100
AcDbCircle
 10
178.4412063289248
 20
227.8308583595613
 30
0.0
 40
1.5
100
AcDbArc
 50
105.0000000000016
 51
200.9650370691386
  0
LINE
  5
3BBA
330
18
100
AcDbEntity
  8
1
  6
Continuous
100
AcDbLine
 10
184.3775126760124
 20
230.9744011219023
 30
0.0
 11
178.0529777612711
 21
229.2797470989949
 31
0.0
  0
LINE
  5
3BBB
330
18
100
AcDbEntity
  8
1
  6
Continuous
100
AcDbLine
 10
188.136194504501
 20
224.4641732254748
 30
0.0
 11
183.506313612667
 21
219.8342923336406
 31
0.0
  0
ARC
  5
3BBC
330
18
100
AcDbEntity
  8
1
  6
Continuous
100
AcDbCircle
 10
202.2530792266106
 20
236.9547123508552
 30
0.0
 40
27.00000005000001
100
AcDbArc
 50
200.9650370691386
 51
219.0349629308613
  0
ARC
  5
3BBD
330
18
100
AcDbEntity
  8
1
  6
Continuous
100
AcDbCircle
 10
194.8238792399229
 20
219.4673743862122
 30
0.0
 40
1.5
100
AcDbArc
 50
344.9999999999984
 51
66.9826082464143
  0
ARC
  5
3BBE
330
18
100
AcDbEntity
  8
1
  6
Continuous
100
AcDbCircle
 10
190.8232002547089
 20
221.7771674752671
 30
0.0
 40
1.5
100
AcDbArc
 50
53.01739175358665
 51
135.0
  0
ARC
  5
3BBF
330
18
100
AcDbEntity
  8
1
  6
Continuous
100
AcDbCircle
 10
193.1292252170153
 20
213.1428394714708
 30
0.0
 40
1.5
100
AcDbArc
 50
249.0349629308614
 51
344.9999999999984
  0
ARC
  5
3BC0
330
18
100
AcDbEntity
  8
1
  6
Continuous
100
AcDbCircle
 10
186.1933193628744
 20
217.1472865834328
 30
0.0
 40
1.5
100
AcDbArc
 50
135.0
 51
230.9650370691386
  0
LINE
  5
3BC1
330
18
100
AcDbEntity
  8
1
  6
Continuous
100
AcDbLine
 10
189.7625400829289
 20
222.8378276470467
 30
0.0
 11
185.1326591910947
 21
218.2079467552126
 31
0.0
  0
LINE
  5
3BC2
330
18
100
AcDbEntity
  8
1
  6
Continuous
100
AcDbLine
 10
196.2727679793564
 20
219.0791458185585
 30
0.0
 11
194.5781139564491
 21
212.754610903817
 31
0.0
  0
ARC
  5
3BC3
330
18
100
AcDbEntity
  8
1
  6
Continuous
100
AcDbCircle
 10
202.2530792083097
 20
236.9547123691567
 30
0.0
 40
27.00000005000001
100
AcDbArc
 50
230.9650370691407
 51
249.0349629308614
  0
ARC
  5
3BC4
330
18
100
AcDbEntity
  8
1
  6
Continuous
100
AcDbCircle
 10
204.5628722723642
 20
218.0956334538678
 30
0.0
 40
1.5
100
AcDbArc
 50
14.9999999999976
 51
96.98260824641241
  0
ARC
  5
3BC5
330
18
100
AcDbEntity
  8
1
  6
Continuous
100
AcDbCircle
 10
199.943286094255
 20
218.0956334538678
 30
0.0
 40
1.5
100
AcDbArc
 50
83.01739175358759
 51
165.0000000000024
  0
ARC
  5
3BC6
330
18
100
AcDbEntity
  8
1
  6
Continuous
100
AcDbCircle
 10
206.2575262952715
 20
211.7710985391263
 30
0.0
 40
1.5
100
AcDbArc
 50
279.0349629308599
 51
14.9999999999976
  0
ARC
  5
3BC7
330
18
100
AcDbEntity
  8
1
  6
Continuous
100
AcDbCircle
 10
198.2486320713475
 20
211.7710985391263
 30
0.0
 40
1.5
100
AcDbArc
 50
164.9999999999991
 51
260.96503706914
  0
LINE
  5
3BC8
330
18
100
AcDbEntity
  8
1
  6
Continuous
100
AcDbLine
 10
198.4943973548214
 20
218.4838620215215
 30
0.0
 11
196.7997433319141
 21
212.1593271067799
 31
0.0
  0
LINE
  5
3BC9
330
18
100
AcDbEntity
  8
1
  6
Continuous
100
AcDbLine
 10
206.0117610117978
 20
218.4838620215213
 30
0.0
 11
207.7064150347053
 21
212.1593271067798
 31
0.0
  0
ARC
  5
3BCA
330
18
100
AcDbEntity
  8
1
  6
Continuous
100
AcDbCircle
 10
202.2530791833095
 20
236.9547123758553
 30
0.0
 40
27.00000005000001
100
AcDbArc
 50
260.96503706914
 51
279.034962930863
  0
ARC
  5
3BCB
330
18
100
AcDbEntity
  8
1
  6
Continuous
100
AcDbCircle
 10
213.6829581119104
 20
221.7771674752671
 30
0.0
 40
1.5
100
AcDbArc
 50
45.0
 51
126.9826082464133
  0
ARC
  5
3BCC
330
18
100
AcDbEntity
  8
1
  6
Continuous
100
AcDbCircle
 10
209.6822791266964
 20
219.4673743862122
 30
0.0
 40
1.5
100
AcDbArc
 50
113.0173917535856
 51
195.0000000000016
  0
ARC
  5
3BCD
330
18
100
AcDbEntity
  8
1
  6
Continuous
100
AcDbCircle
 10
218.3128390037446
 20
217.1472865834328
 30
0.0
 40
1.5
100
AcDbArc
 50
309.0349629308593
 51
45.0
  0
ARC
  5
3BCE
330
18
100
AcDbEntity
  8
1
  6
Continuous
100
AcDbCircle
 10
211.3769331496036
 20
213.1428394714708
 30
0.0
 40
1.5
100
AcDbArc
 50
195.0000000000016
 51
290.9650370691386
  0
LINE
  5
3BCF
330
18
100
AcDbEntity
  8
1
  6
Continuous
100
AcDbLine
 10
208.2333903872628
 20
219.0791458185586
 30
0.0
 11
209.9280444101702
 21
212.7546109038171
 31
0.0
  0
LINE
  5
3BD0
330
18
100
AcDbEntity
  8
1
  6
Continuous
100
AcDbLine
 10
214.7436182836903
 20
222.8378276470469
 30
0.0
 11
219.3734991755243
 21
218.2079467552127
 31
0.0
  0
ARC
  5
3BD1
330
18
100
AcDbEntity
  8
1
  6
Continuous
100
AcDbCircle
 10
202.2530791583096
 20
236.9547123691567
 30
0.0
 40
27.00000005000001
100
AcDbArc
 50
290.9650370691386
 51
309.0349629308593
  0
ARC
  5
3BD2
330
18
100
AcDbEntity
  8
1
  6
Continuous
100
AcDbCircle
 10
219.7404171229524
 20
229.5255123824686
 30
0.0
 40
1.5
100
AcDbArc
 50
74.99999999999841
 51
156.9826082464112
  0
ARC
  5
3BD3
330
18
100
AcDbEntity
  8
1
  6
Continuous
100
AcDbCircle
 10
217.4306240338979
 20
225.5248333972544
 30
0.0
 40
1.5
100
AcDbArc
 50
143.0173917535866
 51
225.0
  0
ARC
  5
3BD4
330
18
100
AcDbEntity
  8
1
  6
Continuous
100
AcDbCircle
 10
226.064952037694
 20
227.8308583595611
 30
0.0
 40
1.5
100
AcDbArc
 50
339.0349629308614
 51
74.99999999999841
  0
ARC
  5
3BD5
330
18
100
AcDbEntity
  8
1
  6
Continuous
100
AcDbCircle
 10
222.0605049257318
 20
220.8949525054203
 30
0.0
 40
1.5
100
AcDbArc
 50
225.0
 51
320.9650370691386
  0
LINE
  5
3BD6
330
18
100
AcDbEntity
  8
1
  6
Continuous
100
AcDbLine
 10
216.3699638621181
 20
224.4641732254745
 30
0.0
 11
220.9998447539522
 21
219.8342923336404
 31
0.0
  0
LINE
  5
3BD7
330
18
100
AcDbEntity
  8
1
  6
Continuous
100
AcDbLine
 10
220.1286456906062
 20
230.9744011219021
 30
0.0
 11
226.453180605348
 21
229.2797470989946
 31
0.0
  0
ARC
  5
3BD8
330
18
100
AcDbEntity
  8
1
  6
Continuous
100
AcDbCircle
 10
202.2530791400082
 20
236.9547123508552
 30
0.0
 40
27.00000005000001
100
AcDbArc
 50
320.9650370691386
 51
339.0349629308614
  0
ARC
  5
3BD9
330
18
100
AcDbEntity
  8
1
  6
Continuous
100
AcDbCircle
 10
227.4366929700388
 20
232.9502652138932
 30
0.0
 40
1.5
100
AcDbArc
 50
254.9999999999993
 51
350.96503706914
  0
LINE
  5
3BDA
330
18
100
AcDbEntity
  8
1
  6
Continuous
100
AcDbLine
 10
221.2471696573781
 20
233.0558287164393
 30
0.0
 11
227.048464402385
 21
231.5013764744596
 31
0.0
  0
ARC
  5
3BDB
330
18
100
AcDbEntity
  8
1
  6
Continuous
100
AcDbCircle
 10
202.2530791333096
 20
236.9547123258555
 30
0.0
 40
27.00000005000001
100
AcDbArc
 50
350.96503706914
 51
3.116755985455208
  0
ARC
  5
3BDC
330
18
100
AcDbEntity
  8
1
  6
Continuous
100
AcDbCircle
 10
199.943286094255
 20
255.813791197843
 30
0.0
 40
1.5
100
AcDbArc
 50
194.9999999999976
 51
276.9826082464124
  0
ARC
  5
3BDD
330
18
100
AcDbEntity
  8
1
  6
Continuous
100
AcDbCircle
 10
198.2486320713475
 20
262.1383261125846
 30
0.0
 40
1.5
100
AcDbArc
 50
99.03496293085993
 51
194.9999999999976
  0
LINE
  5
3BDE
330
18
100
AcDbEntity
  8
1
  6
Continuous
100
AcDbLine
 10
198.4943973548213
 20
255.4255626301895
 30
0.0
 11
196.7997433319138
 21
261.7500975449309
 31
0.0
  0
ARC
  5
3BDF
330
18
100
AcDbEntity
  8
1
  6
Continuous
100
AcDbCircle
 10
202.2530791833095
 20
236.9547122758552
 30
0.0
 40
37.5
100
AcDbArc
 50
94.89459576342182
 51
14.50467443737928
  0
ARC
  5
3BE0
330
18
100
AcDbEntity
  8
1
  6
Continuous
100
AcDbCircle
 10
202.2530791833095
 20
236.9547123258555
 30
0.0
 40
30.0
100
AcDbArc
 50
88.55125352205165
 51
6.991245934584764
  0
ARC
  5
3BE1
330
18
100
AcDbEntity
  8
1
  6
Continuous
100
AcDbCircle
 10
202.2530791833095
 20
236.9547122758552
 30
0.0
 40
27.00000005000001
100
AcDbArc
 50
87.88027600949623
 51
99.03496293085993
  0
ARC
  5
3CCA
330
18
100
AcDbEntity
  8
1
  6
Continuous
100
AcDbCircle
 10
585.5994958302564
 20
236.9547123258556
 30
0.0
 40
30.0
100
AcDbArc
 50
173.0087540654152
 51
91.44874647794834
  0
ARC
  5
3CCB
330
18
100
AcDbEntity
  8
1
  6
Continuous
100
AcDbCircle
 10
585.5994958302564
 20
236.9547122758553
 30
0.0
 40
37.5
100
AcDbArc
 50
165.4953255626207
 51
85.10540423657817
  0
LINE
  5
3CCC
330
18
100
AcDbEntity
  8
1
  6
Continuous
100
AcDbLine
 10
589.3581776587446
 20
255.4255626301896
 30
0.0
 11
591.052831681652
 21
261.7500975449309
 31
0.0
  0
ARC
  5
3CCD
330
18
100
AcDbEntity
  8
1
  6
Continuous
100
AcDbCircle
 10
585.5994958052563
 20
236.9547122825543
 30
0.0
 40
27.00000005000001
100
AcDbArc
 50
50.96503706914068
 51
69.03496293086138
  0
LINE
  5
3CCE
330
18
100
AcDbEntity
  8
1
  6
Continuous
100
AcDbLine
 10
591.5798070342097
 20
254.8302788331521
 30
0.0
 11
593.274461057117
 21
261.1548137478937
 31
0.0
  0
LINE
  5
3CCF
330
18
100
AcDbEntity
  8
1
  6
Continuous
100
AcDbLine
 10
579.619184626303
 20
219.0791458185587
 30
0.0
 11
577.9245306033955
 21
212.7546109038173
 31
0.0
  0
ARC
  5
3CD0
330
18
100
AcDbEntity
  8
1
  6
Continuous
100
AcDbCircle
 10
569.5397360098212
 20
217.1472865834329
 30
0.0
 40
1.5
100
AcDbArc
 50
135.0
 51
230.9650370691407
  0
LINE
  5
3CD1
330
18
100
AcDbEntity
  8
1
  6
Continuous
100
AcDbLine
 10
581.840814001768
 20
218.4838620215214
 30
0.0
 11
580.1461599788606
 21
212.1593271067799
 31
0.0
  0
LINE
  5
3CD2
330
18
100
AcDbEntity
  8
1
  6
Continuous
100
AcDbLine
 10
589.3581776587445
 20
218.4838620215216
 30
0.0
 11
591.0528316816518
 21
212.15932710678
 31
0.0
  0
LINE
  5
3CD3
330
18
100
AcDbEntity
  8
1
  6
Continuous
100
AcDbLine
 10
591.5798070342093
 20
219.0791458185586
 30
0.0
 11
593.2744610571168
 21
212.754610903817
 31
0.0
  0
ARC
  5
3CD4
330
18
100
AcDbEntity
  8
1
  6
Continuous
100
AcDbCircle
 10
601.6592556506914
 20
217.1472865834329
 30
0.0
 40
1.5
100
AcDbArc
 50
309.0349629308613
 51
45.0
  0
ARC
  5
3CD5
330
18
100
AcDbEntity
  8
1
  6
Continuous
100
AcDbCircle
 10
585.5994958302564
 20
236.9547123758554
 30
0.0
 40
27.00000005000001
100
AcDbArc
 50
260.9650370691368
 51
279.0349629308599
  0
ARC
  5
3CD6
330
18
100
AcDbEntity
  8
1
  6
Continuous
100
AcDbCircle
 10
585.5994958552562
 20
236.9547123691567
 30
0.0
 40
27.00000005000001
100
AcDbArc
 50
230.9650370691407
 51
249.0349629308614
  0
ARC
  5
3CD7
330
18
100
AcDbEntity
  8
1
  6
Continuous
100
AcDbCircle
 10
581.5950487182942
 20
211.7710985391263
 30
0.0
 40
1.5
100
AcDbArc
 50
165.0000000000024
 51
260.96503706914
  0
ARC
  5
3CD8
330
18
100
AcDbEntity
  8
1
  6
Continuous
100
AcDbCircle
 10
576.475641863962
 20
213.1428394714709
 30
0.0
 40
1.5
100
AcDbArc
 50
249.0349629308614
 51
344.9999999999984
  0
ARC
  5
3CD9
330
18
100
AcDbEntity
  8
1
  6
Continuous
100
AcDbCircle
 10
585.599495805256
 20
236.9547123691567
 30
0.0
 40
27.00000005000001
100
AcDbArc
 50
290.9650370691386
 51
309.0349629308593
  0
ARC
  5
3CDA
330
18
100
AcDbEntity
  8
1
  6
Continuous
100
AcDbCircle
 10
589.6039429422184
 20
211.7710985391263
 30
0.0
 40
1.5
100
AcDbArc
 50
279.0349629308599
 51
15.00000000000074
  0
ARC
  5
3CDB
330
18
100
AcDbEntity
  8
1
  6
Continuous
100
AcDbCircle
 10
594.7233497965505
 20
213.1428394714709
 30
0.0
 40
1.5
100
AcDbArc
 50
195.0000000000015
 51
290.9650370691386
  0
ARC
  5
3CDC
330
18
100
AcDbEntity
  8
1
  6
Continuous
100
AcDbCircle
 10
587.9092889193107
 20
255.8137911978431
 30
0.0
 40
1.5
100
AcDbArc
 50
263.0173917535876
 51
345.0000000000024
  0
ARC
  5
3CDD
330
18
100
AcDbEntity
  8
1
  6
Continuous
100
AcDbCircle
 10
587.9092889193107
 20
218.0956334538679
 30
0.0
 40
1.5
100
AcDbArc
 50
14.9999999999976
 51
96.98260824641241
  0
ARC
  5
3CDE
330
18
100
AcDbEntity
  8
1
  6
Continuous
100
AcDbCircle
 10
585.5994958302564
 20
236.9547122758553
 30
0.0
 40
12.8
100
AcDbArc
 50
226.4413631979764
 51
68.05537653726748
  0
ARC
  5
3CDF
330
18
100
AcDbEntity
  8
1
  6
Continuous
100
AcDbCircle
 10
585.5994958302564
 20
236.9547122758553
 30
0.0
 40
15.0
100
AcDbArc
 50
208.4860487044794
 51
80.28399202274185
  0
ARC
  5
3CE0
330
18
100
AcDbEntity
  8
1
  6
Continuous
100
AcDbCircle
 10
585.5994958302564
 20
236.9547122758553
 30
0.0
 40
17.50000005000001
100
AcDbArc
 50
197.4546069343078
 51
86.56405803371475
  0
ARC
  5
3CE1
330
18
100
AcDbEntity
  8
1
  6
Continuous
100
AcDbCircle
 10
574.1696169016553
 20
221.7771674752671
 30
0.0
 40
1.5
100
AcDbArc
 50
53.01739175358664
 51
135.0
  0
ARC
  5
3CE2
330
18
100
AcDbEntity
  8
1
  6
Continuous
100
AcDbCircle
 10
561.7876229758718
 20
227.8308583595612
 30
0.0
 40
1.5
100
AcDbArc
 50
105.0000000000016
 51
200.9650370691386
  0
ARC
  5
3CE3
330
18
100
AcDbEntity
  8
1
  6
Continuous
100
AcDbCircle
 10
565.792070087834
 20
220.8949525054204
 30
0.0
 40
1.5
100
AcDbArc
 50
219.0349629308613
 51
315.0
  0
ARC
  5
3CE4
330
18
100
AcDbEntity
  8
1
  6
Continuous
100
AcDbCircle
 10
585.5994958735577
 20
236.9547123508553
 30
0.0
 40
27.00000005000001
100
AcDbArc
 50
200.9650370691386
 51
219.0349629308613
  0
LINE
  5
3CE5
330
18
100
AcDbEntity
  8
1
  6
Continuous
100
AcDbLine
 10
571.4826111514477
 20
224.4641732254746
 30
0.0
 11
566.8527302596136
 21
219.8342923336405
 31
0.0
  0
ARC
  5
3CE6
330
18
100
AcDbEntity
  8
1
  6
Continuous
100
AcDbCircle
 10
570.4219509796679
 20
225.5248333972545
 30
0.0
 40
1.5
100
AcDbArc
 50
315.0
 51
36.98260824641335
  0
LINE
  5
3CE7
330
18
100
AcDbEntity
  8
1
  6
Continuous
100
AcDbLine
 10
573.1089567298754
 20
222.837827647047
 30
0.0
 11
568.4790758380415
 21
218.2079467552128
 31
0.0
  0
LINE
  5
3CE8
330
18
100
AcDbEntity
  8
1
  6
Continuous
100
AcDbLine
 10
566.6054053561877
 20
233.0558287164393
 30
0.0
 11
560.8041106111808
 21
231.5013764744597
 31
0.0
  0
LINE
  5
3CE9
330
18
100
AcDbEntity
  8
1
  6
Continuous
100
AcDbLine
 10
567.7239293229596
 20
230.9744011219021
 30
0.0
 11
561.3993944082178
 21
229.2797470989947
 31
0.0
  0
ARC
  5
3CEA
330
18
100
AcDbEntity
  8
1
  6
Continuous
100
AcDbCircle
 10
585.599495880256
 20
236.9547123258556
 30
0.0
 40
27.00000005000001
100
AcDbArc
 50
176.8832440145448
 51
189.0349629308599
  0
ARC
  5
3CEB
330
18
100
AcDbEntity
  8
1
  6
Continuous
100
AcDbCircle
 10
560.4158820435269
 20
232.9502652138933
 30
0.0
 40
1.5
100
AcDbArc
 50
189.0349629308599
 51
285.0000000000007
  0
ARC
  5
3CEC
330
18
100
AcDbEntity
  8
1
  6
Continuous
100
AcDbCircle
 10
568.1121578906135
 20
229.5255123824687
 30
0.0
 40
1.5
100
AcDbArc
 50
23.01739175358871
 51
105.0000000000016
  0
ARC
  5
3CED
330
18
100
AcDbEntity
  8
1
  6
Continuous
100
AcDbCircle
 10
578.1702958868693
 20
219.4673743862123
 30
0.0
 40
1.5
100
AcDbArc
 50
344.9999999999984
 51
66.98260824641429
  0
ARC
  5
3CEE
330
18
100
AcDbEntity
  8
1
  6
Continuous
100
AcDbCircle
 10
583.2897027412014
 20
218.0956334538679
 30
0.0
 40
1.5
100
AcDbArc
 50
83.01739175358759
 51
165.0000000000024
  0
ARC
  5
3CEF
330
18
100
AcDbEntity
  8
1
  6
Continuous
100
AcDbCircle
 10
585.5994957802563
 20
236.9547123258556
 30
0.0
 40
27.00000005000001
100
AcDbArc
 50
350.96503706914
 51
9.034962930859952
  0
ARC
  5
3CF0
330
18
100
AcDbEntity
  8
1
  6
Continuous
100
AcDbCircle
 10
604.4585747022437
 20
239.2645054149101
 30
0.0
 40
1.5
100
AcDbArc
 50
104.9999999999975
 51
186.9826082464124
  0
LINE
  5
3CF1
330
18
100
AcDbEntity
  8
1
  6
Continuous
100
AcDbLine
 10
599.7163805090647
 20
224.4641732254748
 30
0.0
 11
604.3462614008987
 21
219.8342923336407
 31
0.0
  0
LINE
  5
3CF2
330
18
100
AcDbEntity
  8
1
  6
Continuous
100
AcDbLine
 10
603.4750623375535
 20
230.9744011219024
 30
0.0
 11
609.7995972522948
 21
229.2797470989949
 31
0.0
  0
LINE
  5
3CF3
330
18
100
AcDbEntity
  8
1
  6
Continuous
100
AcDbLine
 10
604.0703461345904
 20
233.1960304973674
 30
0.0
 11
610.3948810493317
 21
231.5013764744597
 31
0.0
  0
ARC
  5
3CF4
330
18
100
AcDbEntity
  8
1
  6
Continuous
100
AcDbCircle
 10
597.0293747588568
 20
221.7771674752671
 30
0.0
 40
1.5
100
AcDbArc
 50
45.0
 51
126.9826082464133
  0
ARC
  5
3CF5
330
18
100
AcDbEntity
  8
1
  6
Continuous
100
AcDbCircle
 10
593.028695773643
 20
219.4673743862123
 30
0.0
 40
1.5
100
AcDbArc
 50
113.0173917535856
 51
195.0000000000015
  0
LINE
  5
3CF6
330
18
100
AcDbEntity
  8
1
  6
Continuous
100
AcDbLine
 10
598.0900349306368
 20
222.8378276470468
 30
0.0
 11
602.7199158224711
 21
218.2079467552127
 31
0.0
  0
ARC
  5
3CF7
330
18
100
AcDbEntity
  8
1
  6
Continuous
100
AcDbCircle
 10
600.7770406808446
 20
225.5248333972545
 30
0.0
 40
1.5
100
AcDbArc
 50
143.0173917535866
 51
225.0
  0
ARC
  5
3CF8
330
18
100
AcDbEntity
  8
1
  6
Continuous
100
AcDbCircle
 10
603.0868337698993
 20
229.5255123824687
 30
0.0
 40
1.5
100
AcDbArc
 50
74.99999999999841
 51
156.9826082464112
  0
ARC
  5
3CF9
330
18
100
AcDbEntity
  8
1
  6
Continuous
100
AcDbCircle
 10
604.4585747022437
 20
234.6449192368009
 30
0.0
 40
1.5
100
AcDbArc
 50
173.0173917535875
 51
254.9999999999993
  0
ARC
  5
3CFA
330
18
100
AcDbEntity
  8
1
  6
Continuous
100
AcDbCircle
 10
609.411368684641
 20
227.8308583595614
 30
0.0
 40
1.5
100
AcDbArc
 50
339.0349629308614
 51
74.99999999999841
  0
ARC
  5
3CFB
330
18
100
AcDbEntity
  8
1
  6
Continuous
100
AcDbCircle
 10
585.5994957869552
 20
236.9547123508553
 30
0.0
 40
27.00000005000001
100
AcDbArc
 50
320.9650370691386
 51
339.0349629308614
  0
ARC
  5
3CFC
330
18
100
AcDbEntity
  8
1
  6
Continuous
100
AcDbCircle
 10
605.4069215726788
 20
220.8949525054204
 30
0.0
 40
1.5
100
AcDbArc
 50
225.0
 51
320.9650370691406
  0
ARC
  5
3CFD
330
18
100
AcDbEntity
  8
1
  6
Continuous
100
AcDbCircle
 10
610.7831096169852
 20
232.9502652138933
 30
0.0
 40
1.5
100
AcDbArc
 50
254.9999999999993
 51
350.96503706914
  0
LINE
  5
3CFE
330
18
100
AcDbEntity
  8
1
  6
Continuous
100
AcDbLine
 10
604.0703461345901
 20
240.7133941543438
 30
0.0
 11
610.3948810493317
 21
242.4080481772511
 31
0.0
  0
LINE
  5
3CFF
330
18
100
AcDbEntity
  8
1
  6
Continuous
100
AcDbLine
 10
603.475062337553
 20
242.9350235298088
 30
0.0
 11
609.7995972522944
 21
244.6296775527161
 31
0.0
  0
LINE
  5
3D00
330
18
100
AcDbEntity
  8
1
  6
Continuous
100
AcDbLine
 10
599.7163805090647
 20
249.4452514262363
 30
0.0
 11
604.3462614008989
 21
254.0751323180704
 31
0.0
  0
ARC
  5
3D01
330
18
100
AcDbEntity
  8
1
  6
Continuous
100
AcDbCircle
 10
600.7770406808446
 20
248.3845912544563
 30
0.0
 40
1.5
100
AcDbArc
 50
135.0
 51
216.9826082464133
  0
ARC
  5
3D02
330
18
100
AcDbEntity
  8
1
  6
Continuous
100
AcDbCircle
 10
603.0868337698993
 20
244.3839122692423
 30
0.0
 40
1.5
100
AcDbArc
 50
203.0173917535887
 51
285.0000000000015
  0
ARC
  5
3D03
330
18
100
AcDbEntity
  8
1
  6
Continuous
100
AcDbCircle
 10
597.0293747588572
 20
252.1322571764437
 30
0.0
 40
1.5
100
AcDbArc
 50
233.0173917535866
 51
315.0
  0
ARC
  5
3D04
330
18
100
AcDbEntity
  8
1
  6
Continuous
100
AcDbCircle
 10
593.0286957736432
 20
254.4420502654986
 30
0.0
 40
1.5
100
AcDbArc
 50
164.9999999999984
 51
246.9826082464142
  0
LINE
  5
3D05
330
18
100
AcDbEntity
  8
1
  6
Continuous
100
AcDbLine
 10
598.0900349306368
 20
251.0715970046641
 30
0.0
 11
602.7199158224711
 21
255.7014778964983
 31
0.0
  0
ARC
  5
3D06
330
18
100
AcDbEntity
  8
1
  6
Continuous
100
AcDbCircle
 10
601.6592556506914
 20
256.762138068278
 30
0.0
 40
1.5
100
AcDbArc
 50
315.0
 51
50.96503706914068
  0
ARC
  5
3D07
330
18
100
AcDbEntity
  8
1
  6
Continuous
100
AcDbCircle
 10
585.5994957869552
 20
236.9547123008555
 30
0.0
 40
27.00000005000001
100
AcDbArc
 50
20.96503706913861
 51
39.03496293086137
  0
ARC
  5
3D08
330
18
100
AcDbEntity
  8
1
  6
Continuous
100
AcDbCircle
 10
610.7831096169852
 20
240.9591594378176
 30
0.0
 40
1.5
100
AcDbArc
 50
9.034962930859952
 51
105.0000000000007
  0
ARC
  5
3D09
330
18
100
AcDbEntity
  8
1
  6
Continuous
100
AcDbCircle
 10
609.411368684641
 20
246.0785662921498
 30
0.0
 40
1.5
100
AcDbArc
 50
285.0000000000015
 51
20.96503706913861
  0
ARC
  5
3D0A
330
18
100
AcDbEntity
  8
1
  6
Continuous
100
AcDbCircle
 10
605.4069215726788
 20
253.0144721462905
 30
0.0
 40
1.5
100
AcDbArc
 50
39.03496293086137
 51
135.0
  0
ARC
  5
3D0B
330
18
100
AcDbEntity
  8
1
  6
Continuous
100
AcDbCircle
 10
585.5994958302564
 20
236.9547122758553
 30
0.0
 40
27.00000005000001
100
AcDbArc
 50
80.96503706914004
 51
92.11972399050377
  0
ARC
  5
3D0C
330
18
100
AcDbEntity
  8
1
  6
Continuous
100
AcDbCircle
 10
589.6039429422184
 20
262.1383261125846
 30
0.0
 40
1.5
100
AcDbArc
 50
345.0000000000024
 51
80.96503706914004
  0
ARC
  5
3D0D
330
18
100
AcDbEntity
  8
1
  6
Continuous
100
AcDbCircle
 10
594.7233497965505
 20
260.7665851802401
 30
0.0
 40
1.5
100
AcDbArc
 50
69.03496293086138
 51
164.9999999999991
  0
LINE
  5
3D3A
330
18
100
AcDbEntity
  8
1
  6
Continuous
100
AcDbLine
 10
235.2517752923797
 20
68.68278973032829
 30
0.0
 11
169.2543931113666
 21
68.68278973032829
 31
0.0
  0
LINE
  5
3D3B
330
18
100
AcDbEntity
  8
1
  6
Continuous
100
AcDbLine
 10
235.2517752923798
 20
108.6827897303282
 30
0.0
 11
169.2543931113666
 21
108.6827897303282
 31
0.0
  0
ARC
  5
3D3C
330
18
100
AcDbEntity
  8
1
  6
Continuous
100
AcDbCircle
 10
139.7530842018732
 20
88.68278973032834
 30
0.0
 40
100.0
100
AcDbArc
 50
349.9063431407738
 51
10.09365685922598
  0
ARC
  5
3D3D
330
18
100
AcDbEntity
  8
1
  6
Continuous
100
AcDbCircle
 10
235.2517752923797
 20
71.6827897303283
 30
0.0
 40
3.0
100
AcDbArc
 50
270.0
 51
349.9063431407738
  0
ARC
  5
3D3E
330
18
100
AcDbEntity
  8
1
  6
Continuous
100
AcDbCircle
 10
235.2517752923797
 20
105.6827897303282
 30
0.0
 40
3.0
100
AcDbArc
 50
10.09365685922598
 51
90.0
  0
LINE
  5
3D3F
330
18
100
AcDbEntity
  8
1
  6
Continuous
100
AcDbLine
 10
218.7530842018731
 20
67.1827897303283
 30
0.0
 11
185.7530842018731
 21
67.1827897303283
 31
0.0
  0
LINE
  5
3D40
330
18
100
AcDbEntity
  8
1
  6
Continuous
100
AcDbLine
 10
219.7530842018732
 20
68.18278973032829
 30
0.0
 11
219.7530842018733
 21
68.68278973032829
 31
0.0
  0
LINE
  5
3D41
330
18
100
AcDbEntity
  8
1
  6
Continuous
100
AcDbLine
 10
211.0530842518732
 20
67.1827897303283
 30
0.0
 11
211.0530842518732
 21
66.38279073032845
 31
0.0
  0
ARC
  5
3D42
330
18
100
AcDbEntity
  8
1
  6
Continuous
100
AcDbCircle
 10
210.8530841518732
 20
66.38279073032851
 30
0.0
 40
0.2
100
AcDbArc
 50
270.0
 51
0.0
  0
ARC
  5
3D43
330
18
100
AcDbEntity
  8
1
  6
Continuous
100
AcDbCircle
 10
218.7530842018731
 20
68.18278973032835
 30
0.0
 40
1.0
100
AcDbArc
 50
270.0
 51
0.0
  0
ARC
  5
3D44
330
18
100
AcDbEntity
  8
1
  6
Continuous
100
AcDbCircle
 10
193.6530842518731
 20
66.38279073032851
 30
0.0
 40
0.2
100
AcDbArc
 50
179.9999970000023
 51
270.0
  0
LINE
  5
3D45
330
18
100
AcDbEntity
  8
1
  6
Continuous
100
AcDbLine
 10
193.4530842518731
 20
66.38279074080037
 30
0.0
 11
193.4530842518731
 21
67.1827897303283
 31
0.0
  0
ARC
  5
3D46
330
18
100
AcDbEntity
  8
1
  6
Continuous
100
AcDbCircle
 10
185.7530842018731
 20
68.18278973032835
 30
0.0
 40
1.0
100
AcDbArc
 50
180.0
 51
270.0
  0
LINE
  5
3D47
330
18
100
AcDbEntity
  8
1
  6
Continuous
100
AcDbLine
 10
184.7530842018731
 20
68.18278973032829
 30
0.0
 11
184.7530842018731
 21
68.68278973032829
 31
0.0
  0
LINE
  5
3D48
330
18
100
AcDbEntity
  8
1
  6
Continuous
100
AcDbLine
 10
218.7530842018732
 20
110.1827897303282
 30
0.0
 11
185.7530842018733
 21
110.182789730328
 31
0.0
  0
LINE
  5
3D49
330
18
100
AcDbEntity
  8
1
  6
Continuous
100
AcDbLine
 10
219.7530842018732
 20
108.6827897303282
 30
0.0
 11
219.7530842018732
 21
109.1827897303282
 31
0.0
  0
LINE
  5
3D4A
330
18
100
AcDbEntity
  8
1
  6
Continuous
100
AcDbLine
 10
211.0530842518733
 20
110.1827897303282
 30
0.0
 11
211.0530842518733
 21
110.9827887303283
 31
0.0
  0
ARC
  5
3D4B
330
18
100
AcDbEntity
  8
1
  6
Continuous
100
AcDbCircle
 10
210.8530841518732
 20
110.9827887303284
 30
0.0
 40
0.2
100
AcDbArc
 50
0.0
 51
90.0
  0
ARC
  5
3D4C
330
18
100
AcDbEntity
  8
1
  6
Continuous
100
AcDbCircle
 10
218.7530842018731
 20
109.1827897303283
 30
0.0
 40
1.0
100
AcDbArc
 50
0.0
 51
90.0
  0
ARC
  5
3D4D
330
18
100
AcDbEntity
  8
1
  6
Continuous
100
AcDbCircle
 10
193.6530842518731
 20
110.9827887303284
 30
0.0
 40
0.2
100
AcDbArc
 50
90.0
 51
180.0000029999976
  0
LINE
  5
3D4E
330
18
100
AcDbEntity
  8
1
  6
Continuous
100
AcDbLine
 10
193.4530842518731
 20
110.1827897303282
 30
0.0
 11
193.4530842518731
 21
110.9827887198562
 31
0.0
  0
ARC
  5
3D4F
330
18
100
AcDbEntity
  8
1
  6
Continuous
100
AcDbCircle
 10
185.7530842018731
 20
109.1827897303283
 30
0.0
 40
1.0
100
AcDbArc
 50
90.0
 51
180.0
  0
LINE
  5
3D50
330
18
100
AcDbEntity
  8
1
  6
Continuous
100
AcDbLine
 10
184.7530842018733
 20
108.6827897303282
 30
0.0
 11
184.7530842018733
 21
109.1827897303282
 31
0.0
  0
ARC
  5
3D51
330
18
100
AcDbEntity
  8
1
  6
Continuous
100
AcDbCircle
 10
264.7530842018731
 20
88.68278973032829
 30
0.0
 40
100.0
100
AcDbArc
 50
169.9063431407739
 51
190.093656859226
  0
ARC
  5
3D52
330
18
100
AcDbEntity
  8
1
  6
Continuous
100
AcDbCircle
 10
169.2543931113666
 20
71.68278973032833
 30
0.0
 40
3.0
100
AcDbArc
 50
190.093656859226
 51
270.0
  0
ARC
  5
3D53
330
18
100
AcDbEntity
  8
1
  6
Continuous
100
AcDbCircle
 10
169.2543931113666
 20
105.6827897303283
 30
0.0
 40
3.0
100
AcDbArc
 50
90.0
 51
169.9063431407739
  0
LINE
  5
3D54
330
18
100
AcDbEntity
  8
1
  6
Continuous
100
AcDbLine
 10
184.2530791833094
 20
430.2266348213826
 30
0.0
 11
169.2543931113666
 21
430.2266348213826
 31
0.0
  0
ARC
  5
3D55
330
18
100
AcDbEntity
  8
1
  6
Continuous
100
AcDbCircle
 10
264.7530842018731
 20
410.2266348213825
 30
0.0
 40
100.0
100
AcDbArc
 50
169.9063431407739
 51
190.093656859226
  0
ARC
  5
3D56
330
18
100
AcDbEntity
  8
1
  6
Continuous
100
AcDbCircle
 10
169.2543931113666
 20
427.2266348213825
 30
0.0
 40
3.0
100
AcDbArc
 50
90.0
 51
169.9063431407739
  0
LINE
  5
3D57
330
18
100
AcDbEntity
  8
1
  6
Continuous
100
AcDbLine
 10
184.2530791833093
 20
390.2266348213825
 30
0.0
 11
169.2543931113666
 21
390.2266348213825
 31
0.0
  0
ARC
  5
3D58
330
18
100
AcDbEntity
  8
1
  6
Continuous
100
AcDbCircle
 10
169.2543931113666
 20
393.2266348213826
 30
0.0
 40
3.0
100
AcDbArc
 50
190.093656859226
 51
270.0
  0
LINE
  5
3D86
330
18
100
AcDbEntity
  8
1
  6
Continuous
100
AcDbLine
 10
36.57987085983609
 20
203.956021185349
 30
0.0
 11
36.57987085983609
 21
269.9534033663621
 31
0.0
  0
LINE
  5
3D87
330
18
100
AcDbEntity
  8
1
  6
Continuous
100
AcDbLine
 10
76.57987085983609
 20
203.9560211853489
 30
0.0
 11
76.57987085983609
 21
269.9534033663621
 31
0.0
  0
ARC
  5
3D88
330
18
100
AcDbEntity
  8
1
  6
Continuous
100
AcDbCircle
 10
56.57987085983609
 20
299.4547122758555
 30
0.0
 40
100.0
100
AcDbArc
 50
259.9063431407739
 51
280.0936568592259
  0
ARC
  5
3D89
330
18
100
AcDbEntity
  8
1
  6
Continuous
100
AcDbCircle
 10
39.57987085983609
 20
203.956021185349
 30
0.0
 40
3.0
100
AcDbArc
 50
180.0
 51
259.9063431407739
  0
ARC
  5
3D8A
330
18
100
AcDbEntity
  8
1
  6
Continuous
100
AcDbCircle
 10
73.57987085983609
 20
203.956021185349
 30
0.0
 40
3.0
100
AcDbArc
 50
280.0936568592259
 51
0.0
  0
LINE
  5
3D8B
330
18
100
AcDbEntity
  8
1
  6
Continuous
100
AcDbLine
 10
35.07987085983609
 20
220.4547122758556
 30
0.0
 11
35.07987085983609
 21
253.4547122758555
 31
0.0
  0
LINE
  5
3D8C
330
18
100
AcDbEntity
  8
1
  6
Continuous
100
AcDbLine
 10
36.07987085983609
 20
219.4547122758555
 30
0.0
 11
36.57987085983609
 21
219.4547122758554
 31
0.0
  0
LINE
  5
3D8D
330
18
100
AcDbEntity
  8
1
  6
Continuous
100
AcDbLine
 10
35.07987085983609
 20
228.1547122258555
 30
0.0
 11
34.27987185983624
 21
228.1547122258555
 31
0.0
  0
ARC
  5
3D8E
330
18
100
AcDbEntity
  8
1
  6
Continuous
100
AcDbCircle
 10
34.27987185983624
 20
228.3547123258555
 30
0.0
 40
0.2
100
AcDbArc
 50
180.0
 51
270.0
  0
ARC
  5
3D8F
330
18
100
AcDbEntity
  8
1
  6
Continuous
100
AcDbCircle
 10
36.07987085983609
 20
220.4547122758556
 30
0.0
 40
1.0
100
AcDbArc
 50
180.0
 51
270.0
  0
ARC
  5
3D90
330
18
100
AcDbEntity
  8
1
  6
Continuous
100
AcDbCircle
 10
34.27987185983624
 20
245.5547122258554
 30
0.0
 40
0.2
100
AcDbArc
 50
89.99999700000229
 51
180.0
  0
LINE
  5
3D91
330
18
100
AcDbEntity
  8
1
  6
Continuous
100
AcDbLine
 10
34.27987187030817
 20
245.7547122258555
 30
0.0
 11
35.07987085983609
 21
245.7547122258555
 31
0.0
  0
ARC
  5
3D92
330
18
100
AcDbEntity
  8
1
  6
Continuous
100
AcDbCircle
 10
36.07987085983609
 20
253.4547122758555
 30
0.0
 40
1.0
100
AcDbArc
 50
90.0
 51
180.0
  0
LINE
  5
3D93
330
18
100
AcDbEntity
  8
1
  6
Continuous
100
AcDbLine
 10
36.07987085983609
 20
254.4547122758554
 30
0.0
 11
36.57987085983609
 21
254.4547122758554
 31
0.0
  0
LINE
  5
3D94
330
18
100
AcDbEntity
  8
1
  6
Continuous
100
AcDbLine
 10
78.07987085983609
 20
220.4547122758556
 30
0.0
 11
78.07987085983588
 21
253.4547122758555
 31
0.0
  0
LINE
  5
3D95
330
18
100
AcDbEntity
  8
1
  6
Continuous
100
AcDbLine
 10
76.57987085983609
 20
219.4547122758556
 30
0.0
 11
77.07987085983609
 21
219.4547122758556
 31
0.0
  0
LINE
  5
3D96
330
18
100
AcDbEntity
  8
1
  6
Continuous
100
AcDbLine
 10
78.07987085983609
 20
228.1547122258555
 30
0.0
 11
78.87986985983616
 21
228.1547122258555
 31
0.0
  0
ARC
  5
3D97
330
18
100
AcDbEntity
  8
1
  6
Continuous
100
AcDbCircle
 10
78.87986985983616
 20
228.3547123258555
 30
0.0
 40
0.2
100
AcDbArc
 50
270.0
 51
0.0
  0
ARC
  5
3D98
330
18
100
AcDbEntity
  8
1
  6
Continuous
100
AcDbCircle
 10
77.07987085983609
 20
220.4547122758556
 30
0.0
 40
1.0
100
AcDbArc
 50
270.0
 51
0.0
  0
ARC
  5
3D99
330
18
100
AcDbEntity
  8
1
  6
Continuous
100
AcDbCircle
 10
78.87986985983616
 20
245.5547122258554
 30
0.0
 40
0.2
100
AcDbArc
 50
0.0
 51
90.00000299999769
  0
LINE
  5
3D9A
330
18
100
AcDbEntity
  8
1
  6
Continuous
100
AcDbLine
 10
78.07987085983609
 20
245.7547122258555
 30
0.0
 11
78.87986984936401
 21
245.7547122258555
 31
0.0
  0
ARC
  5
3D9B
330
18
100
AcDbEntity
  8
1
  6
Continuous
100
AcDbCircle
 10
77.07987085983609
 20
253.4547122758555
 30
0.0
 40
1.0
100
AcDbArc
 50
0.0
 51
90.0
  0
LINE
  5
3D9C
330
18
100
AcDbEntity
  8
1
  6
Continuous
100
AcDbLine
 10
76.57987085983609
 20
254.4547122758554
 30
0.0
 11
77.07987085983609
 21
254.4547122758554
 31
0.0
  0
ARC
  5
3D9D
330
18
100
AcDbEntity
  8
1
  6
Continuous
100
AcDbCircle
 10
56.57987085983609
 20
174.4547122758555
 30
0.0
 40
100.0
100
AcDbArc
 50
79.90634314077396
 51
100.093656859226
  0
ARC
  5
3D9E
330
18
100
AcDbEntity
  8
1
  6
Continuous
100
AcDbCircle
 10
39.57987085983609
 20
269.9534033663621
 30
0.0
 40
3.0
100
AcDbArc
 50
100.093656859226
 51
180.0
  0
ARC
  5
3D9F
330
18
100
AcDbEntity
  8
1
  6
Continuous
100
AcDbCircle
 10
73.57987085983609
 20
269.9534033663621
 30
0.0
 40
3.0
100
AcDbArc
 50
0.0
 51
79.90634314077396
  0
LINE
  5
3DF9
330
18
100
AcDbEntity
  8
1
  6
Continuous
100
AcDbLine
 10
363.8252695512205
 20
292.4547122758553
 30
0.0
 11
424.0273054623452
 21
292.4547122758553
 31
0.0
  0
LINE
  5
3DFA
330
18
100
AcDbEntity
  8
1
  6
Continuous
100
AcDbLine
 10
352.9262875067828
 20
296.4547122758554
 30
0.0
 11
434.9262875067828
 21
296.4547122758554
 31
0.0
  0
ARC
  5
3DFB
330
18
100
AcDbEntity
  8
1
  6
Continuous
100
AcDbCircle
 10
424.0273054623452
 20
297.4547122758553
 30
0.0
 40
5.0
100
AcDbArc
 50
270.0
 51
348.463040967185
  0
LINE
  5
3DFC
330
18
100
AcDbEntity
  8
1
  6
Continuous
100
AcDbLine
 10
434.9262875067828
 20
299.4547122758553
 30
0.0
 11
434.9262875067828
 21
296.4547122758554
 31
0.0
  0
LINE
  5
3DFD
330
18
100
AcDbEntity
  8
1
  6
Continuous
100
AcDbLine
 10
352.9262875067828
 20
299.4547122758553
 30
0.0
 11
352.9262875067828
 21
296.4547122758554
 31
0.0
  0
ARC
  5
3DFE
330
18
100
AcDbEntity
  8
1
  6
Continuous
100
AcDbCircle
 10
363.8252695512205
 20
297.4547122758553
 30
0.0
 40
5.0
100
AcDbArc
 50
191.5369590328149
 51
270.0
  0
LINE
  5
3DFF
330
18
100
AcDbEntity
  8
1
  6
Continuous
100
AcDbLine
 10
532.498477874694
 20
292.4547122758556
 30
0.0
 11
592.7005137858187
 21
292.4547122758556
 31
0.0
  0
LINE
  5
3E00
330
18
100
AcDbEntity
  8
1
  6
Continuous
100
AcDbLine
 10
521.5994958302563
 20
296.4547122758558
 30
0.0
 11
603.5994958302564
 21
296.4547122758558
 31
0.0
  0
ARC
  5
3E01
330
18
100
AcDbEntity
  8
1
  6
Continuous
100
AcDbCircle
 10
592.7005137858187
 20
297.4547122758556
 30
0.0
 40
5.0
100
AcDbArc
 50
270.0
 51
348.463040967185
  0
LINE
  5
3E02
330
18
100
AcDbEntity
  8
1
  6
Continuous
100
AcDbLine
 10
603.5994958302564
 20
299.4547122758556
 30
0.0
 11
603.5994958302564
 21
296.4547122758558
 31
0.0
  0
LINE
  5
3E03
330
18
100
AcDbEntity
  8
1
  6
Continuous
100
AcDbLine
 10
521.5994958302563
 20
299.4547122758556
 30
0.0
 11
521.5994958302563
 21
296.4547122758558
 31
0.0
  0
ARC
  5
3E04
330
18
100
AcDbEntity
  8
1
  6
Continuous
100
AcDbCircle
 10
532.498477874694
 20
297.4547122758556
 30
0.0
 40
5.0
100
AcDbArc
 50
191.5369590328149
 51
270.0
  0
LINE
  5
3E05
330
18
100
AcDbEntity
  8
1
  6
Continuous
100
AcDbLine
 10
195.1520612277471
 20
292.4547122758556
 30
0.0
 11
255.3540971388719
 21
292.4547122758556
 31
0.0
  0
LINE
  5
3E06
330
18
100
AcDbEntity
  8
1
  6
Continuous
100
AcDbLine
 10
184.2530791833095
 20
296.4547122758558
 30
0.0
 11
266.2530791833095
 21
296.4547122758558
 31
0.0
  0
ARC
  5
3E07
330
18
100
AcDbEntity
  8
1
  6
Continuous
100
AcDbCircle
 10
255.3540971388719
 20
297.4547122758556
 30
0.0
 40
5.0
100
AcDbArc
 50
270.0
 51
348.463040967185
  0
LINE
  5
3E08
330
18
100
AcDbEntity
  8
1
  6
Continuous
100
AcDbLine
 10
266.2530791833095
 20
299.4547122758556
 30
0.0
 11
266.2530791833095
 21
296.4547122758558
 31
0.0
  0
LINE
  5
3E09
330
18
100
AcDbEntity
  8
1
  6
Continuous
100
AcDbLine
 10
184.2530791833095
 20
299.4547122758556
 30
0.0
 11
184.2530791833095
 21
296.4547122758558
 31
0.0
  0
ARC
  5
3E0A
330
18
100
AcDbEntity
  8
1
  6
Continuous
100
AcDbCircle
 10
195.1520612277471
 20
297.4547122758556
 30
0.0
 40
5.0
100
AcDbArc
 50
191.5369590328149
 51
270.0
  0
LINE
  5
3E0B
330
18
100
AcDbEntity
  8
1
  6
Continuous
100
AcDbLine
 10
26.47885290427371
 20
292.4547122758553
 30
0.0
 11
86.6808888153985
 21
292.4547122758553
 31
0.0
  0
LINE
  5
3E0C
330
18
100
AcDbEntity
  8
1
  6
Continuous
100
AcDbLine
 10
15.57987085983609
 20
296.4547122758554
 30
0.0
 11
97.57987085983607
 21
296.4547122758554
 31
0.0
  0
ARC
  5
3E0D
330
18
100
AcDbEntity
  8
1
  6
Continuous
100
AcDbCircle
 10
86.6808888153985
 20
297.4547122758553
 30
0.0
 40
5.0
100
AcDbArc
 50
270.0
 51
348.463040967185
  0
LINE
  5
3E0E
330
18
100
AcDbEntity
  8
1
  6
Continuous
100
AcDbLine
 10
97.57987085983607
 20
299.4547122758553
 30
0.0
 11
97.57987085983607
 21
296.4547122758554
 31
0.0
  0
LINE
  5
3E0F
330
18
100
AcDbEntity
  8
1
  6
Continuous
100
AcDbLine
 10
15.57987085983609
 20
299.4547122758553
 30
0.0
 11
15.57987085983609
 21
296.4547122758554
 31
0.0
  0
ARC
  5
3E10
330
18
100
AcDbEntity
  8
1
  6
Continuous
100
AcDbCircle
 10
26.47885290427371
 20
297.4547122758553
 30
0.0
 40
5.0
100
AcDbArc
 50
191.5369590328149
 51
270.0
  0
ENDSEC
  0
SECTION
  2
OBJECTS
  0
DICTIONARY
  5
C
330
0
100
AcDbDictionary
281
     1
  3
ACAD_CIP_PREVIOUS_PRODUCT_INFO
350
3EA2
  3
ACAD_COLOR
350
3E85
  3
ACAD_DETAILVIEWSTYLE
350
3E9E
  3
ACAD_GROUP
350
D
  3
ACAD_LAYOUT
350
94
  3
ACAD_MATERIAL
350
3E53
  3
ACAD_MLEADERSTYLE
350
3E9A
  3
ACAD_MLINESTYLE
350
1B
  3
ACAD_PLOTSETTINGS
350
95
  3
ACAD_PLOTSTYLENAME
350
3E51
  3
ACAD_SCALELIST
350
3E88
  3
ACAD_SECTIONVIEWSTYLE
350
3E9C
  3
ACAD_TABLESTYLE
350
3E86
  3
ACAD_VISUALSTYLE
350
3E6C
  3
ACDB_RECOMPOSE_DATA
350
3EC0
  3
AcDbVariableDictionary
350
3EB3
  3
CONTENTDICTIONARY
350
3D
  3
DWGPROPS
350
3EC1
  0
DICTIONARY
  5
3EA3
330
E
100
AcDbDictionary
280
     1
281
     1
  3
ADSK_XREC_LAYER_RECONCILED
360
3EA4
  0
DICTIONARY
  5
3EA5
330
4E
100
AcDbDictionary
280
     1
281
     1
  3
ADSK_XREC_LAYER_RECONCILED
360
3EA6
  0
DICTIONARY
  5
3EA7
330
4F
100
AcDbDictionary
280
     1
281
     1
  3
ADSK_XREC_LAYER_RECONCILED
360
3EA8
  0
DICTIONARY
  5
3EA9
330
50
100
AcDbDictionary
280
     1
281
     1
  3
ADSK_XREC_LAYER_RECONCILED
360
3EAA
  0
DICTIONARY
  5
3EAB
330
51
100
AcDbDictionary
280
     1
281
     1
  3
ADSK_XREC_LAYER_RECONCILED
360
3EAC
  0
DICTIONARY
  5
3EAD
330
52
100
AcDbDictionary
280
     1
281
     1
  3
ADSK_XREC_LAYER_RECONCILED
360
3EAE
  0
DICTIONARY
  5
3EAF
330
53
100
AcDbDictionary
280
     1
281
     1
  3
ADSK_XREC_LAYER_RECONCILED
360
3EB0
  0
DICTIONARY
  5
3EB1
330
54
100
AcDbDictionary
280
     1
281
     1
  3
ADSK_XREC_LAYER_RECONCILED
360
3EB2
  0
DICTIONARY
  5
3E4C
330
18
100
AcDbDictionary
281
     1
  3
ACAD_LAYOUTSELFREF
350
3E4D
  0
DICTIONARY
  5
3E4A
330
15
100
AcDbDictionary
281
     1
  3
ACAD_LAYOUTSELFREF
350
3E4B
  0
XRECORD
  5
3EA2
102
{ACAD_REACTORS
330
C
102
}
330
C
100
AcDbXrecord
280
     1
300
ACDLT
300
2014
300
ACDLT_F_S
  0
DICTIONARY
  5
3E85
102
{ACAD_REACTORS
330
C
102
}
330
C
100
AcDbDictionary
281
     1
  0
DICTIONARY
  5
3E9E
102
{ACAD_REACTORS
330
C
102
}
330
C
100
AcDbDictionary
281
     1
  3
Imperial24
350
3E9F
  0
DICTIONARY
  5
D
102
{ACAD_REACTORS
330
C
102
}
330
C
100
AcDbDictionary
281
     1
  0
DICTIONARY
  5
94
102
{ACAD_REACTORS
330
C
102
}
330
C
100
AcDbDictionary
281
     1
  3
Model
350
3EA0
  3
レイアウト1
350
3EA1
  0
DICTIONARY
  5
3E53
102
{ACAD_REACTORS
330
C
102
}
330
C
100
AcDbDictionary
281
     1
  3
ByBlock
350
3E5C
  3
ByLayer
350
3E54
  3
Global
350
3E64
  0
DICTIONARY
  5
3E9A
102
{ACAD_REACTORS
330
C
102
}
330
C
100
AcDbDictionary
281
     1
  3
Standard
350
3E9B
  0
DICTIONARY
  5
1B
102
{ACAD_REACTORS
330
C
102
}
330
C
100
AcDbDictionary
281
     1
  3
STANDARD
350
1C
  0
DICTIONARY
  5
95
102
{ACAD_REACTORS
330
C
102
}
330
C
100
AcDbDictionary
281
     1
  0
ACDBDICTIONARYWDFLT
  5
3E51
102
{ACAD_REACTORS
330
C
102
}
330
C
100
AcDbDictionary
281
     1
  3
Normal
350
3E52
100
AcDbDictionaryWithDefault
340
3E52
  0
DICTIONARY
  5
3E88
102
{ACAD_REACTORS
330
C
102
}
330
C
100
AcDbDictionary
281
     1
  3
A0
350
3E89
  3
A1
350
3E8A
  3
A2
350
3E8B
  3
A3
350
3E8C
  3
A4
350
3E8D
  3
A5
350
3E8E
  3
A6
350
3E8F
  3
A7
350
3E90
  3
A8
350
3E91
  3
A9
350
3E92
  3
B0
350
3E93
  3
B1
350
3E94
  3
B2
350
3E95
  3
B3
350
3E96
  3
B4
350
3E97
  3
B5
350
3E98
  3
B6
350
3E99
  0
DICTIONARY
  5
3E9C
102
{ACAD_REACTORS
330
C
102
}
330
C
100
AcDbDictionary
281
     1
  3
Imperial24
350
3E9D
  0
DICTIONARY
  5
3E86
102
{ACAD_REACTORS
330
C
102
}
330
C
100
AcDbDictionary
281
     1
  3
Standard
350
3E87
  0
DICTIONARY
  5
3E6C
102
{ACAD_REACTORS
330
C
102
}
330
C
100
AcDbDictionary
281
     1
  3
2dWireframe
350
3E72
  3
Basic
350
3E71
  3
Brighten
350
3E78
  3
ColorChange
350
3E7C
  3
Conceptual
350
3E75
  3
Dim
350
3E77
  3
EdgeColorOff
350
3E84
  3
Facepattern
350
3E7B
  3
Flat
350
3E6D
  3
FlatWithEdges
350
3E6E
  3
Gouraud
350
3E6F
  3
GouraudWithEdges
350
3E70
  3
Hidden
350
3E74
  3
JitterOff
350
3E82
  3
Linepattern
350
3E7A
  3
OverhangOff
350
3E83
  3
Realistic
350
3E76
  3
Shaded
350
3E81
  3
Shaded with edges
350
3E80
  3
Shades of Gray
350
3E7D
  3
Sketchy
350
3E7E
  3
Thicken
350
3E79
  3
Wireframe
350
3E73
  3
X-Ray
350
3E7F
  0
XRECORD
  5
3EC0
102
{ACAD_REACTORS
330
C
102
}
330
C
100
AcDbXrecord
280
     1
 90
        1
330
3E87
  0
DICTIONARY
  5
3EB3
102
{ACAD_REACTORS
330
C
102
}
330
C
100
AcDbDictionary
281
     1
  3
CANNOSCALE
350
3EB8
  3
CMLEADERSTYLE
350
3EB5
  3
CTABLESTYLE
350
3EB4
  3
CVIEWDETAILSTYLE
350
3EB6
  3
CVIEWSECTIONSTYLE
350
3EB7
  3
DIMASSOC
350
3EBB
  3
INDEXCTL
350
3EBA
  3
SORTENTS
350
3EB9
  3
XCLIPFRAME
350
3EBC
  0
DICTIONARY
  5
3D
102
{ACAD_REACTORS
330
C
102
}
330
C
100
AcDbDictionary
281
     1
  0
XRECORD
  5
3EC1
102
{ACAD_REACTORS
330
C
102
}
330
C
100
AcDbXrecord
280
     1
  1
DWGPROPS COOKIE
  2

  3

  4

  6

  7

  8
Yoshitsune
  9

300
=
301
=
302
=
303
=
304
=
305
=
306
=
307
=
308
=
309
=
 40
0.1842102777777778
 41
2454154.550453368
 42
2457192.690869109
  1

 90
        0
  0
XRECORD
  5
3EA4
102
{ACAD_REACTORS
330
3EA3
102
}
330
3EA3
100
AcDbXrecord
280
     1
290
     1
  0
XRECORD
  5
3EA6
102
{ACAD_REACTORS
330
3EA5
102
}
330
3EA5
100
AcDbXrecord
280
     1
290
     1
  0
XRECORD
  5
3EA8
102
{ACAD_REACTORS
330
3EA7
102
}
330
3EA7
100
AcDbXrecord
280
     1
290
     1
  0
XRECORD
  5
3EAA
102
{ACAD_REACTORS
330
3EA9
102
}
330
3EA9
100
AcDbXrecord
280
     1
290
     1
  0
XRECORD
  5
3EAC
102
{ACAD_REACTORS
330
3EAB
102
}
330
3EAB
100
AcDbXrecord
280
     1
290
     1
  0
XRECORD
  5
3EAE
102
{ACAD_REACTORS
330
3EAD
102
}
330
3EAD
100
AcDbXrecord
280
     1
290
     1
  0
XRECORD
  5
3EB0
102
{ACAD_REACTORS
330
3EAF
102
}
330
3EAF
100
AcDbXrecord
280
     1
290
     1
  0
XRECORD
  5
3EB2
102
{ACAD_REACTORS
330
3EB1
102
}
330
3EB1
100
AcDbXrecord
280
     1
290
     1
  0
XRECORD
  5
3E4D
102
{ACAD_REACTORS
330
3E4C
102
}
330
3E4C
100
AcDbXrecord
280
     1
340
18
  0
XRECORD
  5
3E4B
102
{ACAD_REACTORS
330
3E4A
102
}
330
3E4A
100
AcDbXrecord
280
     1
340
15
  0
ACDBDETAILVIEWSTYLE
  5
3E9F
102
{ACAD_XDICTIONARY
360
3EF9
102
}
102
{ACAD_REACTORS
330
3E9E
102
}
330
3E9E
100
AcDbModelDocViewStyle
 70
     0
  3
Imperial24
290
     0
100
AcDbDetailViewStyle
 70
     0
 71
     0
 90
        3
 71
     1
340
F
 40
0.24
340
0
 40
0.24
300

 40
0.36
280
     3
 71
     2
340
14
 90
       25
 71
     3
340
F
 40
0.24
 90
        1
 40
0.75
 90
        1
300
%<\AcVar ViewType \f "%tc1">% %<\AcVar ViewDetailId>%\PSCALE %<\AcVar ViewScale \f "%sn">%
 71
     4
340
14
 90
       25
340
14
 90
       25
280
     0
  0
LAYOUT
  5
3EA0
102
{ACAD_XDICTIONARY
360
3EFB
102
}
102
{ACAD_REACTORS
330
94
102
}
330
94
100
AcDbPlotSettings
  1

  2
Canon LBP9100C
  4

  6

 40
0.0
 41
0.0
 42
0.0
 43
0.0
 44
0.0
 45
0.0
 46
0.0
 47
0.0
 48
0.0
 49
0.0
140
0.0
141
0.0
142
1.0
143
1.0
 70
  1712
 72
     0
 73
     0
 74
     0
  7

 75
     0
147
1.0
148
0.0
149
0.0
100
AcDbLayout
  1
Model
 70
     1
 71
     0
 10
0.0
 20
0.0
 11
12.0
 21
9.0
 12
0.0
 22
0.0
 32
0.0
 14
0.0
 24
0.0
 34
0.0
 15
0.0
 25
0.0
 35
0.0
146
0.0
 13
0.0
 23
0.0
 33
0.0
 16
1.0
 26
0.0
 36
0.0
 17
0.0
 27
1.0
 37
0.0
 76
     0
330
18
331
3E49
  0
LAYOUT
  5
3EA1
102
{ACAD_XDICTIONARY
360
3EFD
102
}
102
{ACAD_REACTORS
330
94
102
}
330
94
100
AcDbPlotSettings
  1

  2
Canon LBP9100C
  4

  6

 40
0.0
 41
0.0
 42
0.0
 43
0.0
 44
0.0
 45
0.0
 46
0.0
 47
0.0
 48
0.0
 49
0.0
140
0.0
141
0.0
142
1.0
143
1.0
 70
   688
 72
     0
 73
     0
 74
     5
  7

 75
    16
147
1.0
148
0.0
149
0.0
100
AcDbLayout
  1
レイアウト1
 70
     1
 71
     1
 10
0.0
 20
0.0
 11
420.0
 21
297.0
 12
0.0
 22
0.0
 32
0.0
 14
1.000000000000000E+20
 24
1.000000000000000E+20
 34
1.000000000000000E+20
 15
-1.000000000000000E+20
 25
-1.000000000000000E+20
 35
-1.000000000000000E+20
146
0.0
 13
0.0
 23
0.0
 33
0.0
 16
1.0
 26
0.0
 36
0.0
 17
0.0
 27
1.0
 37
0.0
 76
     0
330
15
  0
MATERIAL
  5
3E5C
102
{ACAD_XDICTIONARY
360
3E5D
102
}
102
{ACAD_REACTORS
330
3E53
102
}
330
3E53
100
AcDbMaterial
  1
ByBlock
 72
     0
 43
0.0208333333333333
 43
0.0
 43
0.0
 43
0.0
 43
0.0
 43
0.0208333333333333
 43
0.0
 43
0.0
 43
0.0
 43
0.0
 43
1.0
 43
0.0
 43
0.0
 43
0.0
 43
0.0
 43
1.0
 77
     0
 47
0.0208333333333333
 47
0.0
 47
0.0
 47
0.0
 47
0.0
 47
0.0208333333333333
 47
0.0
 47
0.0
 47
0.0
 47
0.0
 47
1.0
 47
0.0
 47
0.0
 47
0.0
 47
0.0
 47
1.0
171
     0
 49
0.0208333333333333
 49
0.0
 49
0.0
 49
0.0
 49
0.0
 49
0.0208333333333333
 49
0.0
 49
0.0
 49
0.0
 49
0.0
 49
1.0
 49
0.0
 49
0.0
 49
0.0
 49
0.0
 49
1.0
175
     0
142
0.0208333333333333
142
0.0
142
0.0
142
0.0
142
0.0
142
0.0208333333333333
142
0.0
142
0.0
142
0.0
142
0.0
142
1.0
142
0.0
142
0.0
142
0.0
142
0.0
142
1.0
179
     0
144
0.0208333333333333
144
0.0
144
0.0
144
0.0
144
0.0
144
0.0208333333333333
144
0.0
144
0.0
144
0.0
144
0.0
144
1.0
144
0.0
144
0.0
144
0.0
144
0.0
144
1.0
147
0.0208333333333333
147
0.0
147
0.0
147
0.0
147
0.0
147
0.0208333333333333
147
0.0
147
0.0
147
0.0
147
0.0
147
1.0
147
0.0
147
0.0
147
0.0
147
0.0
147
1.0
  0
MATERIAL
  5
3E54
102
{ACAD_XDICTIONARY
360
3E55
102
}
102
{ACAD_REACTORS
330
3E53
102
}
330
3E53
100
AcDbMaterial
  1
ByLayer
 72
     0
 43
0.0208333333333333
 43
0.0
 43
0.0
 43
0.0
 43
0.0
 43
0.0208333333333333
 43
0.0
 43
0.0
 43
0.0
 43
0.0
 43
1.0
 43
0.0
 43
0.0
 43
0.0
 43
0.0
 43
1.0
 77
     0
 47
0.0208333333333333
 47
0.0
 47
0.0
 47
0.0
 47
0.0
 47
0.0208333333333333
 47
0.0
 47
0.0
 47
0.0
 47
0.0
 47
1.0
 47
0.0
 47
0.0
 47
0.0
 47
0.0
 47
1.0
171
     0
 49
0.0208333333333333
 49
0.0
 49
0.0
 49
0.0
 49
0.0
 49
0.0208333333333333
 49
0.0
 49
0.0
 49
0.0
 49
0.0
 49
1.0
 49
0.0
 49
0.0
 49
0.0
 49
0.0
 49
1.0
175
     0
142
0.0208333333333333
142
0.0
142
0.0
142
0.0
142
0.0
142
0.0208333333333333
142
0.0
142
0.0
142
0.0
142
0.0
142
1.0
142
0.0
142
0.0
142
0.0
142
0.0
142
1.0
179
     0
144
0.0208333333333333
144
0.0
144
0.0
144
0.0
144
0.0
144
0.0208333333333333
144
0.0
144
0.0
144
0.0
144
0.0
144
1.0
144
0.0
144
0.0
144
0.0
144
0.0
144
1.0
147
0.0208333333333333
147
0.0
147
0.0
147
0.0
147
0.0
147
0.0208333333333333
147
0.0
147
0.0
147
0.0
147
0.0
147
1.0
147
0.0
147
0.0
147
0.0
147
0.0
147
1.0
  0
MATERIAL
  5
3E64
102
{ACAD_XDICTIONARY
360
3E65
102
}
102
{ACAD_REACTORS
330
3E53
102
}
330
3E53
100
AcDbMaterial
  1
Global
 72
     0
 43
0.0208333333333333
 43
0.0
 43
0.0
 43
0.0
 43
0.0
 43
0.0208333333333333
 43
0.0
 43
0.0
 43
0.0
 43
0.0
 43
1.0
 43
0.0
 43
0.0
 43
0.0
 43
0.0
 43
1.0
 77
     0
 47
0.0208333333333333
 47
0.0
 47
0.0
 47
0.0
 47
0.0
 47
0.0208333333333333
 47
0.0
 47
0.0
 47
0.0
 47
0.0
 47
1.0
 47
0.0
 47
0.0
 47
0.0
 47
0.0
 47
1.0
171
     0
 49
0.0208333333333333
 49
0.0
 49
0.0
 49
0.0
 49
0.0
 49
0.0208333333333333
 49
0.0
 49
0.0
 49
0.0
 49
0.0
 49
1.0
 49
0.0
 49
0.0
 49
0.0
 49
0.0
 49
1.0
175
     0
142
0.0208333333333333
142
0.0
142
0.0
142
0.0
142
0.0
142
0.0208333333333333
142
0.0
142
0.0
142
0.0
142
0.0
142
1.0
142
0.0
142
0.0
142
0.0
142
0.0
142
1.0
179
     0
144
0.0208333333333333
144
0.0
144
0.0
144
0.0
144
0.0
144
0.0208333333333333
144
0.0
144
0.0
144
0.0
144
0.0
144
1.0
144
0.0
144
0.0
144
0.0
144
0.0
144
1.0
147
0.0208333333333333
147
0.0
147
0.0
147
0.0
147
0.0
147
0.0208333333333333
147
0.0
147
0.0
147
0.0
147
0.0
147
1.0
147
0.0
147
0.0
147
0.0
147
0.0
147
1.0
  0
MLEADERSTYLE
  5
3E9B
102
{ACAD_REACTORS
330
3E9A
102
}
330
3E9A
100
AcDbMLeaderStyle
170
     2
171
     1
172
     0
 90
        2
 40
0.0
 41
0.0
173
     1
 91
-1056964608
340
12
 92
       -2
290
     1
 42
0.09
291
     1
 43
0.36
  3
Standard
 44
0.18
300

342
F
174
     1
178
     6
175
     1
176
     0
 93
-1056964608
 45
0.18
292
     0
297
     0
 46
0.18
 94
-1056964608
 47
1.0
 49
1.0
140
1.0
293
     1
141
0.0
294
     1
177
     0
142
1.0
295
     0
296
     0
143
0.125
1001
ACAD_MLEADERVER
1070
     2
  0
MLINESTYLE
  5
1C
102
{ACAD_REACTORS
330
1B
102
}
330
1B
100
AcDbMlineStyle
  2
STANDARD
 70
     0
  3

 62
   256
 51
90.0
 52
90.0
 71
     2
 49
0.5
 62
   256
  6
BYLAYER
 49
-0.5
 62
   256
  6
BYLAYER
  0
ACDBPLACEHOLDER
  5
3E52
102
{ACAD_REACTORS
330
3E51
102
}
330
3E51
  0
SCALE
  5
3E89
102
{ACAD_REACTORS
330
3E88
102
}
330
3E88
100
AcDbScale
 70
     0
300
1:1
140
1.0
141
1.0
290
     1
  0
SCALE
  5
3E8A
102
{ACAD_REACTORS
330
3E88
102
}
330
3E88
100
AcDbScale
 70
     0
300
1/128" = 1'-0"
140
0.0078125
141
12.0
290
     0
  0
SCALE
  5
3E8B
102
{ACAD_REACTORS
330
3E88
102
}
330
3E88
100
AcDbScale
 70
     0
300
1/64" = 1'-0"
140
0.015625
141
12.0
290
     0
  0
SCALE
  5
3E8C
102
{ACAD_REACTORS
330
3E88
102
}
330
3E88
100
AcDbScale
 70
     0
300
1/32" = 1'-0"
140
0.03125
141
12.0
290
     0
  0
SCALE
  5
3E8D
102
{ACAD_REACTORS
330
3E88
102
}
330
3E88
100
AcDbScale
 70
     0
300
1/16" = 1'-0"
140
0.0625
141
12.0
290
     0
  0
SCALE
  5
3E8E
102
{ACAD_REACTORS
330
3E88
102
}
330
3E88
100
AcDbScale
 70
     0
300
3/32" = 1'-0"
140
0.09375
141
12.0
290
     0
  0
SCALE
  5
3E8F
102
{ACAD_REACTORS
330
3E88
102
}
330
3E88
100
AcDbScale
 70
     0
300
1/8" = 1'-0"
140
0.125
141
12.0
290
     0
  0
SCALE
  5
3E90
102
{ACAD_REACTORS
330
3E88
102
}
330
3E88
100
AcDbScale
 70
     0
300
3/16" = 1'-0"
140
0.1875
141
12.0
290
     0
  0
SCALE
  5
3E91
102
{ACAD_REACTORS
330
3E88
102
}
330
3E88
100
AcDbScale
 70
     0
300
1/4" = 1'-0"
140
0.25
141
12.0
290
     0
  0
SCALE
  5
3E92
102
{ACAD_REACTORS
330
3E88
102
}
330
3E88
100
AcDbScale
 70
     0
300
3/8" = 1'-0"
140
0.375
141
12.0
290
     0
  0
SCALE
  5
3E93
102
{ACAD_REACTORS
330
3E88
102
}
330
3E88
100
AcDbScale
 70
     0
300
1/2" = 1'-0"
140
0.5
141
12.0
290
     0
  0
SCALE
  5
3E94
102
{ACAD_REACTORS
330
3E88
102
}
330
3E88
100
AcDbScale
 70
     0
300
3/4" = 1'-0"
140
0.75
141
12.0
290
     0
  0
SCALE
  5
3E95
102
{ACAD_REACTORS
330
3E88
102
}
330
3E88
100
AcDbScale
 70
     0
300
1" = 1'-0"
140
1.0
141
12.0
290
     0
  0
SCALE
  5
3E96
102
{ACAD_REACTORS
330
3E88
102
}
330
3E88
100
AcDbScale
 70
     0
300
1-1/2" = 1'-0"
140
1.5
141
12.0
290
     0
  0
SCALE
  5
3E97
102
{ACAD_REACTORS
330
3E88
102
}
330
3E88
100
AcDbScale
 70
     0
300
3" = 1'-0"
140
3.0
141
12.0
290
     0
  0
SCALE
  5
3E98
102
{ACAD_REACTORS
330
3E88
102
}
330
3E88
100
AcDbScale
 70
     0
300
6" = 1'-0"
140
6.0
141
12.0
290
     0
  0
SCALE
  5
3E99
102
{ACAD_REACTORS
330
3E88
102
}
330
3E88
100
AcDbScale
 70
     0
300
1'-0" = 1'-0"
140
12.0
141
12.0
290
     0
  0
ACDBSECTIONVIEWSTYLE
  5
3E9D
102
{ACAD_XDICTIONARY
360
3EF7
102
}
102
{ACAD_REACTORS
330
3E9C
102
}
330
3E9C
100
AcDbModelDocViewStyle
 70
     0
  3
Imperial24
290
     0
100
AcDbSectionViewStyle
 70
     0
 71
     0
 90
       78
 71
     1
340
F
 40
0.24
340
0
340
0
 40
0.24
300
I, O, Q, S, X, Z
 40
0.48
 90
        3
 40
0.18
 90
        1
 71
     2
340
14
 90
       25
340
14
 90
       50
 40
0.24
 40
0.0
 40
0.24
 71
     3
340
F
 40
0.24
 90
        1
 40
0.75
 90
        1
300
%<\AcVar ViewType \f "%tc1">% %<\AcVar ViewSectionStartId>%-%<\AcVar ViewSectionEndId>%\PSCALE %<\AcVar ViewScale \f "%sn">%
 71
     4
300
ANSI31
 40
1.0
 90
        0
290
     0
290
     0
 90
        6
 40
0.0
 40
1.570796326794896
 40
0.2617993877991494
 40
1.308996938995747
 40
-0.2617993877991494
 40
1.832595714594046
  0
TABLESTYLE
  5
3E87
102
{ACAD_XDICTIONARY
360
3EBE
102
}
102
{ACAD_REACTORS
330
3E86
102
}
330
3E86
100
AcDbTableStyle
  3
Standard
 70
     0
 71
     0
 40
0.06
 41
0.06
280
     0
281
     0
  7
STANDARD
140
0.18
170
     2
 62
     0
 63
     7
283
     0
274
    -2
284
     1
 64
     0
275
    -2
285
     1
 65
     0
276
    -2
286
     1
 66
     0
277
    -2
287
     1
 67
     0
278
    -2
288
     1
 68
     0
279
    -2
289
     1
 69
     0
  7
STANDARD
140
0.25
170
     5
 62
     0
 63
     7
283
     0
274
    -2
284
     1
 64
     0
275
    -2
285
     1
 65
     0
276
    -2
286
     1
 66
     0
277
    -2
287
     1
 67
     0
278
    -2
288
     1
 68
     0
279
    -2
289
     1
 69
     0
  7
STANDARD
140
0.18
170
     5
 62
     0
 63
     7
283
     0
274
    -2
284
     1
 64
     0
275
    -2
285
     1
 65
     0
276
    -2
286
     1
 66
     0
277
    -2
287
     1
 67
     0
278
    -2
288
     1
 68
     0
279
    -2
289
     1
 69
     0
  0
VISUALSTYLE
  5
3E72
102
{ACAD_XDICTIONARY
360
3ECF
102
}
102
{ACAD_REACTORS
330
3E6C
102
}
330
3E6C
100
AcDbVisualStyle
  2
2dWireframe
 70
     4
 71
     0
 72
     2
 73
     0
 90
        0
 40
-0.6
 41
-30.0
 62
     5
 63
     7
 74
     1
 91
        4
 64
     7
 65
   257
 75
     1
175
     1
 42
1.0
 92
        0
 66
   257
 43
1.0
 76
     1
 77
     6
 78
     2
 67
     7
 79
     5
170
     0
171
     0
290
     0
174
     0
 93
        1
 44
0.0
173
     0
291
     0
 45
0.0
1001
ACAD
1000
AcDbSavedByObjectVersion
1070
     0
  0
VISUALSTYLE
  5
3E71
102
{ACAD_XDICTIONARY
360
3ECD
102
}
102
{ACAD_REACTORS
330
3E6C
102
}
330
3E6C
100
AcDbVisualStyle
  2
Basic
 70
     7
 71
     1
 72
     0
 73
     1
 90
        0
 40
-0.6
 41
-30.0
 62
     5
 63
     7
 74
     0
 91
        4
 64
     7
 65
   257
 75
     1
175
     1
 42
1.0
 92
        8
 66
     7
 43
1.0
 76
     1
 77
     6
 78
     2
 67
     7
 79
     5
170
     0
171
     0
290
     0
174
     0
 93
        1
 44
0.0
173
     0
291
     1
 45
0.0
1001
ACAD
1000
AcDbSavedByObjectVersion
1070
     0
  0
VISUALSTYLE
  5
3E78
102
{ACAD_XDICTIONARY
360
3EDB
102
}
102
{ACAD_REACTORS
330
3E6C
102
}
330
3E6C
100
AcDbVisualStyle
  2
Brighten
 70
    12
 71
     2
 72
     2
 73
     0
 90
        0
 40
-0.6
 41
-30.0
 62
     5
 63
     7
 74
     1
 91
        4
 64
     7
 65
   257
 75
     1
175
     1
 42
1.0
 92
        8
 66
     7
 43
1.0
 76
     1
 77
     6
 78
     2
 67
     7
 79
     5
170
     0
171
     0
290
     0
174
     0
 93
        1
 44
50.0
173
     0
291
     1
 45
0.0
1001
ACAD
1000
AcDbSavedByObjectVersion
1070
     0
  0
VISUALSTYLE
  5
3E7C
102
{ACAD_XDICTIONARY
360
3EE3
102
}
102
{ACAD_REACTORS
330
3E6C
102
}
330
3E6C
100
AcDbVisualStyle
  2
ColorChange
 70
    16
 71
     2
 72
     2
 73
     3
 90
        0
 40
-0.6
 41
-30.0
 62
     5
 63
     8
 74
     1
 91
        4
 64
     7
 65
   257
 75
     1
175
     1
 42
1.0
 92
        8
 66
     8
 43
1.0
 76
     1
 77
     6
 78
     2
 67
     7
 79
     5
170
     0
171
     0
290
     0
174
     0
 93
        1
 44
0.0
173
     0
291
     1
 45
0.0
1001
ACAD
1000
AcDbSavedByObjectVersion
1070
     0
  0
VISUALSTYLE
  5
3E75
102
{ACAD_XDICTIONARY
360
3ED5
102
}
102
{ACAD_REACTORS
330
3E6C
102
}
330
3E6C
100
AcDbVisualStyle
  2
Conceptual
 70
     9
 71
     3
 72
     2
 73
     0
 90
        0
 40
-0.6
 41
-30.0
 62
     5
 63
     7
 74
     2
 91
        2
 64
     7
 65
   257
 75
     1
175
     1
 42
179.0
 92
        8
 66
     7
 43
1.0
 76
     1
 77
     6
 78
     2
 67
     7
 79
     3
170
     0
171
     0
290
     0
174
     0
 93
        1
 44
0.0
173
     0
291
     0
 45
0.0
1001
ACAD
1000
AcDbSavedByObjectVersion
1070
     0
  0
VISUALSTYLE
  5
3E77
102
{ACAD_XDICTIONARY
360
3ED9
102
}
102
{ACAD_REACTORS
330
3E6C
102
}
330
3E6C
100
AcDbVisualStyle
  2
Dim
 70
    11
 71
     2
 72
     2
 73
     0
 90
        0
 40
-0.6
 41
-30.0
 62
     5
 63
     7
 74
     1
 91
        4
 64
     7
 65
   257
 75
     1
175
     1
 42
1.0
 92
        8
 66
     7
 43
1.0
 76
     1
 77
     6
 78
     2
 67
     7
 79
     5
170
     0
171
     0
290
     0
174
     0
 93
        1
 44
-50.0
173
     0
291
     1
 45
0.0
1001
ACAD
1000
AcDbSavedByObjectVersion
1070
     0
  0
VISUALSTYLE
  5
3E84
102
{ACAD_XDICTIONARY
360
3EF3
102
}
102
{ACAD_REACTORS
330
3E6C
102
}
330
3E6C
100
AcDbVisualStyle
  2
EdgeColorOff
 70
    22
 71
     2
 72
     2
 73
     0
 90
        0
 40
-0.6
 41
-30.0
 62
     5
 63
     7
 74
     1
 91
        4
 64
     7
 65
   257
 75
     1
175
     1
 42
1.0
 92
        8
 66
     7
 43
1.0
 76
     1
 77
     6
 78
     2
 67
     7
 79
     5
170
     0
171
     0
290
     0
174
     0
 93
        1
 44
0.0
173
     0
291
     1
 45
0.0
1001
ACAD
1000
AcDbSavedByObjectVersion
1070
     0
  0
VISUALSTYLE
  5
3E7B
102
{ACAD_XDICTIONARY
360
3EE1
102
}
102
{ACAD_REACTORS
330
3E6C
102
}
330
3E6C
100
AcDbVisualStyle
  2
Facepattern
 70
    15
 71
     2
 72
     2
 73
     0
 90
        0
 40
-0.6
 41
-30.0
 62
     5
 63
     7
 74
     1
 91
        4
 64
     7
 65
   257
 75
     1
175
     1
 42
1.0
 92
        8
 66
     7
 43
1.0
 76
     1
 77
     6
 78
     2
 67
     7
 79
     5
170
     0
171
     0
290
     0
174
     0
 93
        1
 44
0.0
173
     0
291
     1
 45
0.0
1001
ACAD
1000
AcDbSavedByObjectVersion
1070
     0
  0
VISUALSTYLE
  5
3E6D
102
{ACAD_XDICTIONARY
360
3EC5
102
}
102
{ACAD_REACTORS
330
3E6C
102
}
330
3E6C
100
AcDbVisualStyle
  2
Flat
 70
     0
 71
     2
 72
     1
 73
     1
 90
        2
 40
-0.6
 41
30.0
 62
     5
 63
     7
 74
     0
 91
        0
 64
     7
 65
   257
 75
     1
175
     1
 42
1.0
 92
        8
 66
     7
 43
1.0
 76
     1
 77
     6
 78
     2
 67
     7
 79
     5
170
     0
171
     0
290
     0
174
     0
 93
       13
 44
0.0
173
     0
291
     1
 45
0.0
1001
ACAD
1000
AcDbSavedByObjectVersion
1070
     0
  0
VISUALSTYLE
  5
3E6E
102
{ACAD_XDICTIONARY
360
3EC7
102
}
102
{ACAD_REACTORS
330
3E6C
102
}
330
3E6C
100
AcDbVisualStyle
  2
FlatWithEdges
 70
     1
 71
     2
 72
     1
 73
     1
 90
        2
 40
-0.6
 41
30.0
 62
     5
 63
     7
 74
     1
 91
        0
 64
     7
 65
   257
 75
     1
175
     1
 42
1.0
 92
        0
 66
   257
 43
1.0
 76
     1
 77
     6
 78
     2
 67
     7
 79
     5
170
     0
171
     0
290
     0
174
     0
 93
       13
 44
0.0
173
     0
291
     1
 45
0.0
1001
ACAD
1000
AcDbSavedByObjectVersion
1070
     0
  0
VISUALSTYLE
  5
3E6F
102
{ACAD_XDICTIONARY
360
3EC9
102
}
102
{ACAD_REACTORS
330
3E6C
102
}
330
3E6C
100
AcDbVisualStyle
  2
Gouraud
 70
     2
 71
     2
 72
     2
 73
     1
 90
        2
 40
-0.6
 41
30.0
 62
     5
 63
     7
 74
     0
 91
        0
 64
     7
 65
   257
 75
     1
175
     1
 42
1.0
 92
        0
 66
     7
 43
1.0
 76
     1
 77
     6
 78
     2
 67
     7
 79
     5
170
     0
171
     0
290
     0
174
     0
 93
       13
 44
0.0
173
     0
291
     1
 45
0.0
1001
ACAD
1000
AcDbSavedByObjectVersion
1070
     0
  0
VISUALSTYLE
  5
3E70
102
{ACAD_XDICTIONARY
360
3ECB
102
}
102
{ACAD_REACTORS
330
3E6C
102
}
330
3E6C
100
AcDbVisualStyle
  2
GouraudWithEdges
 70
     3
 71
     2
 72
     2
 73
     1
 90
        2
 40
-0.6
 41
30.0
 62
     5
 63
     7
 74
     1
 91
        0
 64
     7
 65
   257
 75
     1
175
     1
 42
1.0
 92
        0
 66
   257
 43
1.0
 76
     1
 77
     6
 78
     2
 67
     7
 79
     5
170
     0
171
     0
290
     0
174
     0
 93
       13
 44
0.0
173
     0
291
     1
 45
0.0
1001
ACAD
1000
AcDbSavedByObjectVersion
1070
     0
  0
VISUALSTYLE
  5
3E74
102
{ACAD_XDICTIONARY
360
3ED3
102
}
102
{ACAD_REACTORS
330
3E6C
102
}
330
3E6C
100
AcDbVisualStyle
  2
Hidden
 70
     6
 71
     1
 72
     2
 73
     2
 90
        0
 40
-0.6
 41
-30.0
 62
     5
 63
     7
 74
     2
 91
        2
 64
     7
 65
   257
 75
     2
175
     1
 42
40.0
 92
        0
 66
   257
 43
1.0
 76
     1
 77
     6
 78
     2
 67
     7
 79
     3
170
     0
171
     0
290
     0
174
     0
 93
        1
 44
0.0
173
     0
291
     0
 45
0.0
1001
ACAD
1000
AcDbSavedByObjectVersion
1070
     0
  0
VISUALSTYLE
  5
3E82
102
{ACAD_XDICTIONARY
360
3EEF
102
}
102
{ACAD_REACTORS
330
3E6C
102
}
330
3E6C
100
AcDbVisualStyle
  2
JitterOff
 70
    20
 71
     2
 72
     2
 73
     0
 90
        0
 40
-0.6
 41
-30.0
 62
     5
 63
     7
 74
     1
 91
        4
 64
     7
 65
   257
 75
     1
175
     1
 42
1.0
 92
       10
 66
     7
 43
1.0
 76
     1
 77
     6
 78
     2
 67
     7
 79
     5
170
     0
171
     0
290
     0
174
     0
 93
        1
 44
0.0
173
     0
291
     1
 45
0.0
1001
ACAD
1000
AcDbSavedByObjectVersion
1070
     0
  0
VISUALSTYLE
  5
3E7A
102
{ACAD_XDICTIONARY
360
3EDF
102
}
102
{ACAD_REACTORS
330
3E6C
102
}
330
3E6C
100
AcDbVisualStyle
  2
Linepattern
 70
    14
 71
     2
 72
     2
 73
     0
 90
        0
 40
-0.6
 41
-30.0
 62
     5
 63
     7
 74
     1
 91
        4
 64
     7
 65
   257
 75
     7
175
     7
 42
1.0
 92
        8
 66
     7
 43
1.0
 76
     1
 77
     6
 78
     2
 67
     7
 79
     5
170
     0
171
     0
290
     0
174
     0
 93
        1
 44
0.0
173
     0
291
     1
 45
0.0
1001
ACAD
1000
AcDbSavedByObjectVersion
1070
     0
  0
VISUALSTYLE
  5
3E83
102
{ACAD_XDICTIONARY
360
3EF1
102
}
102
{ACAD_REACTORS
330
3E6C
102
}
330
3E6C
100
AcDbVisualStyle
  2
OverhangOff
 70
    21
 71
     2
 72
     2
 73
     0
 90
        0
 40
-0.6
 41
-30.0
 62
     5
 63
     7
 74
     1
 91
        4
 64
     7
 65
   257
 75
     1
175
     1
 42
1.0
 92
        9
 66
     7
 43
1.0
 76
     1
 77
     6
 78
     2
 67
     7
 79
     5
170
     0
171
     0
290
     0
174
     0
 93
        1
 44
0.0
173
     0
291
     1
 45
0.0
1001
ACAD
1000
AcDbSavedByObjectVersion
1070
     0
  0
VISUALSTYLE
  5
3E76
102
{ACAD_XDICTIONARY
360
3ED7
102
}
102
{ACAD_REACTORS
330
3E6C
102
}
330
3E6C
100
AcDbVisualStyle
  2
Realistic
 70
     8
 71
     2
 72
     3
 73
     0
 90
        2
 40
-0.6
 41
30.0
 62
     5
 63
     7
 74
     0
 91
        0
 64
     7
 65
   257
 75
     1
175
     1
 42
1.0
 92
        8
 66
   257
 43
1.0
 76
     1
 77
     6
 78
     2
 67
     7
 79
     3
170
     0
171
     0
290
     0
174
     0
 93
       13
 44
0.0
173
     0
291
     0
 45
0.0
1001
ACAD
1000
AcDbSavedByObjectVersion
1070
     0
  0
VISUALSTYLE
  5
3E81
102
{ACAD_XDICTIONARY
360
3EED
102
}
102
{ACAD_REACTORS
330
3E6C
102
}
330
3E6C
100
AcDbVisualStyle
  2
Shaded
 70
    27
 71
     2
 72
     2
 73
     1
 90
        2
 40
-0.6
 41
30.0
 62
     5
 63
     7
 74
     0
 91
        4
 64
     7
 65
   257
 75
     1
175
     1
 42
1.0
 92
        8
 66
   257
 43
1.0
 76
     1
 77
     6
 78
     2
 67
     8
 79
     3
170
     0
171
     0
290
     0
174
     0
 93
        5
 44
0.0
173
     0
291
     0
 45
0.0
1001
ACAD
1000
AcDbSavedByObjectVersion
1070
     0
  0
VISUALSTYLE
  5
3E80
102
{ACAD_XDICTIONARY
360
3EEB
102
}
102
{ACAD_REACTORS
330
3E6C
102
}
330
3E6C
100
AcDbVisualStyle
  2
Shaded with edges
 70
    26
 71
     2
 72
     2
 73
     1
 90
        2
 40
-0.6
 41
30.0
 62
     5
 63
     7
 74
     1
 91
       10
 64
     7
 65
   257
 75
     2
175
     1
 42
1.0
 92
        8
 66
   257
 43
1.0
 76
     1
 77
     6
 78
     2
 67
     7
 79
     3
170
     0
171
     0
290
     0
174
     0
 93
        5
 44
0.0
173
     0
291
     0
 45
0.0
1001
ACAD
1000
AcDbSavedByObjectVersion
1070
     0
  0
VISUALSTYLE
  5
3E7D
102
{ACAD_XDICTIONARY
360
3EE5
102
}
102
{ACAD_REACTORS
330
3E6C
102
}
330
3E6C
100
AcDbVisualStyle
  2
Shades of Gray
 70
    23
 71
     2
 72
     2
 73
     3
 90
        0
 40
-0.6
 41
-30.0
 62
     5
 63
     7
 74
     2
 91
        2
 64
     7
 65
     7
 75
     1
175
     1
 42
40.0
 92
        8
 66
     7
 43
1.0
 76
     1
 77
     6
 78
     2
 67
     7
 79
     3
170
     0
171
     0
290
     0
174
     0
 93
        1
 44
0.0
173
     0
291
     0
 45
0.0
1001
ACAD
1000
AcDbSavedByObjectVersion
1070
     0
  0
VISUALSTYLE
  5
3E7E
102
{ACAD_XDICTIONARY
360
3EE7
102
}
102
{ACAD_REACTORS
330
3E6C
102
}
330
3E6C
100
AcDbVisualStyle
  2
Sketchy
 70
    24
 71
     1
 72
     2
 73
     2
 90
        0
 40
-0.6
 41
-30.0
 62
     5
 63
     7
 74
     2
 91
        2
 64
     7
 65
     7
 75
     1
175
     1
 42
40.0
 92
       11
 66
     7
 43
1.0
 76
     1
 77
     6
 78
     2
 67
     7
 79
     6
170
     0
171
     0
290
     0
174
     0
 93
        1
 44
0.0
173
     0
291
     0
 45
0.0
1001
ACAD
1000
AcDbSavedByObjectVersion
1070
     0
  0
VISUALSTYLE
  5
3E79
102
{ACAD_XDICTIONARY
360
3EDD
102
}
102
{ACAD_REACTORS
330
3E6C
102
}
330
3E6C
100
AcDbVisualStyle
  2
Thicken
 70
    13
 71
     2
 72
     2
 73
     0
 90
        0
 40
-0.6
 41
-30.0
 62
     5
 63
     7
 74
     1
 91
        4
 64
     7
 65
   257
 75
     1
175
     1
 42
1.0
 92
       12
 66
     7
 43
1.0
 76
     1
 77
     6
 78
     2
 67
     7
 79
     5
170
     0
171
     0
290
     0
174
     0
 93
        1
 44
0.0
173
     0
291
     1
 45
0.0
1001
ACAD
1000
AcDbSavedByObjectVersion
1070
     0
  0
VISUALSTYLE
  5
3E73
102
{ACAD_XDICTIONARY
360
3ED1
102
}
102
{ACAD_REACTORS
330
3E6C
102
}
330
3E6C
100
AcDbVisualStyle
  2
Wireframe
 70
     5
 71
     0
 72
     2
 73
     0
 90
        0
 40
-0.6
 41
-30.0
 62
     5
 63
     7
 74
     1
 91
        4
 64
     7
 65
   257
 75
     1
175
     1
 42
1.0
 92
        0
 66
   257
 43
1.0
 76
     1
 77
     6
 78
     2
 67
     7
 79
     3
170
     0
171
     0
290
     0
174
     0
 93
        1
 44
0.0
173
     0
291
     0
 45
0.0
1001
ACAD
1000
AcDbSavedByObjectVersion
1070
     0
  0
VISUALSTYLE
  5
3E7F
102
{ACAD_XDICTIONARY
360
3EE9
102
}
102
{ACAD_REACTORS
330
3E6C
102
}
330
3E6C
100
AcDbVisualStyle
  2
X-Ray
 70
    25
 71
     2
 72
     2
 73
     1
 90
        1
 40
0.5
 41
-30.0
 62
     5
 63
     7
 74
     1
 91
        0
 64
     7
 65
   257
 75
     1
175
     1
 42
1.0
 92
        8
 66
     7
 43
1.0
 76
     1
 77
     6
 78
     2
 67
     7
 79
     3
170
     0
171
     0
290
     0
174
     0
 93
       13
 44
0.0
173
     0
291
     0
 45
0.0
1001
ACAD
1000
AcDbSavedByObjectVersion
1070
     0
  0
DICTIONARYVAR
  5
3EB8
102
{ACAD_REACTORS
330
3EB3
102
}
330
3EB3
100
DictionaryVariables
280
     0
  1
1:1
  0
DICTIONARYVAR
  5
3EB5
102
{ACAD_REACTORS
330
3EB3
102
}
330
3EB3
100
DictionaryVariables
280
     0
  1
STANDARD
  0
DICTIONARYVAR
  5
3EB4
102
{ACAD_REACTORS
330
3EB3
102
}
330
3EB3
100
DictionaryVariables
280
     0
  1
STANDARD
  0
DICTIONARYVAR
  5
3EB6
102
{ACAD_REACTORS
330
3EB3
102
}
330
3EB3
100
DictionaryVariables
280
     0
  1
Imperial24
  0
DICTIONARYVAR
  5
3EB7
102
{ACAD_REACTORS
330
3EB3
102
}
330
3EB3
100
DictionaryVariables
280
     0
  1
Imperial24
  0
DICTIONARYVAR
  5
3EBB
102
{ACAD_REACTORS
330
3EB3
102
}
330
3EB3
100
DictionaryVariables
280
     0
  1
1
  0
DICTIONARYVAR
  5
3EBA
102
{ACAD_REACTORS
330
3EB3
102
}
330
3EB3
100
DictionaryVariables
280
     0
  1
0
  0
DICTIONARYVAR
  5
3EB9
102
{ACAD_REACTORS
330
3EB3
102
}
330
3EB3
100
DictionaryVariables
280
     0
  1
127
  0
DICTIONARYVAR
  5
3EBC
102
{ACAD_REACTORS
330
3EB3
102
}
330
3EB3
100
DictionaryVariables
280
     0
  1
2
  0
DICTIONARY
  5
3EF9
330
3E9F
100
AcDbDictionary
280
     1
281
     1
  3
ACAD_XREC_ROUNDTRIP
360
3EFA
  0
DICTIONARY
  5
3EFB
330
3EA0
100
AcDbDictionary
280
     1
281
     1
  3
ACAD_XREC_ROUNDTRIP
360
3EFC
  0
DICTIONARY
  5
3EFD
330
3EA1
100
AcDbDictionary
280
     1
281
     1
  3
ACAD_XREC_ROUNDTRIP
360
3EFE
  0
DICTIONARY
  5
3E5D
330
3E5C
100
AcDbDictionary
280
     1
281
     1
  3
ACAD_XREC_ROUNDTRIP
360
3EC3
  3
BUMPTILE
360
3E5F
  3
DIFFUSETILE
360
3E5E
  3
OPACITYTILE
360
3E62
  3
REFLECTIONTILE
360
3E61
  3
REFRACTIONTILE
360
3E63
  3
SPECULARTILE
360
3E60
  0
DICTIONARY
  5
3E55
330
3E54
100
AcDbDictionary
280
     1
281
     1
  3
ACAD_XREC_ROUNDTRIP
360
3EC2
  3
BUMPTILE
360
3E57
  3
DIFFUSETILE
360
3E56
  3
OPACITYTILE
360
3E5A
  3
REFLECTIONTILE
360
3E59
  3
REFRACTIONTILE
360
3E5B
  3
SPECULARTILE
360
3E58
  0
DICTIONARY
  5
3E65
330
3E64
100
AcDbDictionary
280
     1
281
     1
  3
ACAD_XREC_ROUNDTRIP
360
3EC4
  3
BUMPTILE
360
3E67
  3
DIFFUSETILE
360
3E66
  3
OPACITYTILE
360
3E6A
  3
REFLECTIONTILE
360
3E69
  3
REFRACTIONTILE
360
3E6B
  3
SPECULARTILE
360
3E68
  0
DICTIONARY
  5
3EF7
330
3E9D
100
AcDbDictionary
280
     1
281
     1
  3
ACAD_XREC_ROUNDTRIP
360
3EF8
  0
DICTIONARY
  5
3EBE
330
3E87
100
AcDbDictionary
280
     1
281
     1
  3
ACAD_ROUNDTRIP_2008_TABLESTYLE_CELLSTYLEMAP
360
3EBF
  3
ACAD_XREC_ROUNDTRIP
360
3EF5
  0
DICTIONARY
  5
3ECF
330
3E72
100
AcDbDictionary
280
     1
281
     1
  3
ACAD_XREC_ROUNDTRIP
360
3ED0
  0
DICTIONARY
  5
3ECD
330
3E71
100
AcDbDictionary
280
     1
281
     1
  3
ACAD_XREC_ROUNDTRIP
360
3ECE
  0
DICTIONARY
  5
3EDB
330
3E78
100
AcDbDictionary
280
     1
281
     1
  3
ACAD_XREC_ROUNDTRIP
360
3EDC
  0
DICTIONARY
  5
3EE3
330
3E7C
100
AcDbDictionary
280
     1
281
     1
  3
ACAD_XREC_ROUNDTRIP
360
3EE4
  0
DICTIONARY
  5
3ED5
330
3E75
100
AcDbDictionary
280
     1
281
     1
  3
ACAD_XREC_ROUNDTRIP
360
3ED6
  0
DICTIONARY
  5
3ED9
330
3E77
100
AcDbDictionary
280
     1
281
     1
  3
ACAD_XREC_ROUNDTRIP
360
3EDA
  0
DICTIONARY
  5
3EF3
330
3E84
100
AcDbDictionary
280
     1
281
     1
  3
ACAD_XREC_ROUNDTRIP
360
3EF4
  0
DICTIONARY
  5
3EE1
330
3E7B
100
AcDbDictionary
280
     1
281
     1
  3
ACAD_XREC_ROUNDTRIP
360
3EE2
  0
DICTIONARY
  5
3EC5
330
3E6D
100
AcDbDictionary
280
     1
281
     1
  3
ACAD_XREC_ROUNDTRIP
360
3EC6
  0
DICTIONARY
  5
3EC7
330
3E6E
100
AcDbDictionary
280
     1
281
     1
  3
ACAD_XREC_ROUNDTRIP
360
3EC8
  0
DICTIONARY
  5
3EC9
330
3E6F
100
AcDbDictionary
280
     1
281
     1
  3
ACAD_XREC_ROUNDTRIP
360
3ECA
  0
DICTIONARY
  5
3ECB
330
3E70
100
AcDbDictionary
280
     1
281
     1
  3
ACAD_XREC_ROUNDTRIP
360
3ECC
  0
DICTIONARY
  5
3ED3
330
3E74
100
AcDbDictionary
280
     1
281
     1
  3
ACAD_XREC_ROUNDTRIP
360
3ED4
  0
DICTIONARY
  5
3EEF
330
3E82
100
AcDbDictionary
280
     1
281
     1
  3
ACAD_XREC_ROUNDTRIP
360
3EF0
  0
DICTIONARY
  5
3EDF
330
3E7A
100
AcDbDictionary
280
     1
281
     1
  3
ACAD_XREC_ROUNDTRIP
360
3EE0
  0
DICTIONARY
  5
3EF1
330
3E83
100
AcDbDictionary
280
     1
281
     1
  3
ACAD_XREC_ROUNDTRIP
360
3EF2
  0
DICTIONARY
  5
3ED7
330
3E76
100
AcDbDictionary
280
     1
281
     1
  3
ACAD_XREC_ROUNDTRIP
360
3ED8
  0
DICTIONARY
  5
3EED
330
3E81
100
AcDbDictionary
280
     1
281
     1
  3
ACAD_XREC_ROUNDTRIP
360
3EEE
  0
DICTIONARY
  5
3EEB
330
3E80
100
AcDbDictionary
280
     1
281
     1
  3
ACAD_XREC_ROUNDTRIP
360
3EEC
  0
DICTIONARY
  5
3EE5
330
3E7D
100
AcDbDictionary
280
     1
281
     1
  3
ACAD_XREC_ROUNDTRIP
360
3EE6
  0
DICTIONARY
  5
3EE7
330
3E7E
100
AcDbDictionary
280
     1
281
     1
  3
ACAD_XREC_ROUNDTRIP
360
3EE8
  0
DICTIONARY
  5
3EDD
330
3E79
100
AcDbDictionary
280
     1
281
     1
  3
ACAD_XREC_ROUNDTRIP
360
3EDE
  0
DICTIONARY
  5
3ED1
330
3E73
100
AcDbDictionary
280
     1
281
     1
  3
ACAD_XREC_ROUNDTRIP
360
3ED2
  0
DICTIONARY
  5
3EE9
330
3E7F
100
AcDbDictionary
280
     1
281
     1
  3
ACAD_XREC_ROUNDTRIP
360
3EEA
  0
XRECORD
  5
3EFA
102
{ACAD_REACTORS
330
3EF9
102
}
330
3EF9
100
AcDbXrecord
280
     1
102
DISPLAYNAME
  1
Imperial24
102
FLAGS
 90
        0
  0
XRECORD
  5
3EFC
102
{ACAD_REACTORS
330
3EFB
102
}
330
3EFB
100
AcDbXrecord
280
     1
102
SHADEPLOT
 70
     0
102
SHADEPLOTRESLEVEL
 70
     2
102
SHADEPLOTCUSTOMDPI
 70
   300
  0
XRECORD
  5
3EFE
102
{ACAD_REACTORS
330
3EFD
102
}
330
3EFD
100
AcDbXrecord
280
     1
102
SHADEPLOT
 70
     0
102
SHADEPLOTRESLEVEL
 70
     2
102
SHADEPLOTCUSTOMDPI
 70
   300
  0
XRECORD
  5
3EC3
102
{ACAD_REACTORS
330
3E5D
102
}
330
3E5D
100
AcDbXrecord
280
     1
102
MATERIAL
148
0.0
149
0.0
149
0.0
 93
        0
 94
      127
282
     0
 72
     0
 77
     0
171
     0
175
     0
179
     0
273
     0
  0
XRECORD
  5
3E5F
102
{ACAD_REACTORS
330
3E5D
102
}
330
3E5D
100
AcDbXrecord
280
     1
270
     1
271
     1
  0
XRECORD
  5
3E5E
102
{ACAD_REACTORS
330
3E5D
102
}
330
3E5D
100
AcDbXrecord
280
     1
270
     1
271
     1
  0
XRECORD
  5
3E62
102
{ACAD_REACTORS
330
3E5D
102
}
330
3E5D
100
AcDbXrecord
280
     1
270
     1
271
     1
  0
XRECORD
  5
3E61
102
{ACAD_REACTORS
330
3E5D
102
}
330
3E5D
100
AcDbXrecord
280
     1
270
     1
271
     1
  0
XRECORD
  5
3E63
102
{ACAD_REACTORS
330
3E5D
102
}
330
3E5D
100
AcDbXrecord
280
     1
270
     1
271
     1
  0
XRECORD
  5
3E60
102
{ACAD_REACTORS
330
3E5D
102
}
330
3E5D
100
AcDbXrecord
280
     1
270
     1
271
     1
  0
XRECORD
  5
3EC2
102
{ACAD_REACTORS
330
3E55
102
}
330
3E55
100
AcDbXrecord
280
     1
102
MATERIAL
148
0.0
149
0.0
149
0.0
 93
        0
 94
      127
282
     0
 72
     0
 77
     0
171
     0
175
     0
179
     0
273
     0
  0
XRECORD
  5
3E57
102
{ACAD_REACTORS
330
3E55
102
}
330
3E55
100
AcDbXrecord
280
     1
270
     1
271
     1
  0
XRECORD
  5
3E56
102
{ACAD_REACTORS
330
3E55
102
}
330
3E55
100
AcDbXrecord
280
     1
270
     1
271
     1
  0
XRECORD
  5
3E5A
102
{ACAD_REACTORS
330
3E55
102
}
330
3E55
100
AcDbXrecord
280
     1
270
     1
271
     1
  0
XRECORD
  5
3E59
102
{ACAD_REACTORS
330
3E55
102
}
330
3E55
100
AcDbXrecord
280
     1
270
     1
271
     1
  0
XRECORD
  5
3E5B
102
{ACAD_REACTORS
330
3E55
102
}
330
3E55
100
AcDbXrecord
280
     1
270
     1
271
     1
  0
XRECORD
  5
3E58
102
{ACAD_REACTORS
330
3E55
102
}
330
3E55
100
AcDbXrecord
280
     1
270
     1
271
     1
  0
XRECORD
  5
3EC4
102
{ACAD_REACTORS
330
3E65
102
}
330
3E65
100
AcDbXrecord
280
     1
102
MATERIAL
148
0.0
149
0.0
149
0.0
 93
        0
 94
      127
282
     0
 72
     0
 77
     0
171
     0
175
     0
179
     0
273
     0
  0
XRECORD
  5
3E67
102
{ACAD_REACTORS
330
3E65
102
}
330
3E65
100
AcDbXrecord
280
     1
270
     1
271
     1
  0
XRECORD
  5
3E66
102
{ACAD_REACTORS
330
3E65
102
}
330
3E65
100
AcDbXrecord
280
     1
270
     1
271
     1
  0
XRECORD
  5
3E6A
102
{ACAD_REACTORS
330
3E65
102
}
330
3E65
100
AcDbXrecord
280
     1
270
     1
271
     1
  0
XRECORD
  5
3E69
102
{ACAD_REACTORS
330
3E65
102
}
330
3E65
100
AcDbXrecord
280
     1
270
     1
271
     1
  0
XRECORD
  5
3E6B
102
{ACAD_REACTORS
330
3E65
102
}
330
3E65
100
AcDbXrecord
280
     1
270
     1
271
     1
  0
XRECORD
  5
3E68
102
{ACAD_REACTORS
330
3E65
102
}
330
3E65
100
AcDbXrecord
280
     1
270
     1
271
     1
  0
XRECORD
  5
3EF8
102
{ACAD_REACTORS
330
3EF7
102
}
330
3EF7
100
AcDbXrecord
280
     1
102
DISPLAYNAME
  1
Imperial24
102
FLAGS
 90
        0
  0
CELLSTYLEMAP
  5
3EBF
102
{ACAD_REACTORS
330
3EBE
102
}
330
3EBE
100
AcDbCellStyleMap
 90
        3
300
CELLSTYLE
  1
TABLEFORMAT_BEGIN
 90
        5
170
     1
 91
        0
 92
    32768
 62
   257
 93
        1
300
CONTENTFORMAT
  1
CONTENTFORMAT_BEGIN
 90
        0
 91
        0
 92
      512
 93
        0
300

 40
0.0
140
1.0
 94
        5
 62
     0
340
F
144
0.25
309
CONTENTFORMAT_END
171
     0
 94
        0
309
TABLEFORMAT_END
  1
CELLSTYLE_BEGIN
 90
        1
 91
        1
300
_TITLE
309
CELLSTYLE_END
300
CELLSTYLE
  1
TABLEFORMAT_BEGIN
 90
        5
170
     1
 91
        0
 92
        0
 62
   257
 93
        1
300
CONTENTFORMAT
  1
CONTENTFORMAT_BEGIN
 90
        0
 91
        0
 92
      512
 93
        0
300

 40
0.0
140
1.0
 94
        5
 62
     0
340
F
144
0.18
309
CONTENTFORMAT_END
171
     0
 94
        0
309
TABLEFORMAT_END
  1
CELLSTYLE_BEGIN
 90
        2
 91
        1
300
_HEADER
309
CELLSTYLE_END
300
CELLSTYLE
  1
TABLEFORMAT_BEGIN
 90
        5
170
     1
 91
        0
 92
        0
 62
   257
 93
        1
300
CONTENTFORMAT
  1
CONTENTFORMAT_BEGIN
 90
        0
 91
        0
 92
      512
 93
        0
300

 40
0.0
140
1.0
 94
        2
 62
     0
340
F
144
0.18
309
CONTENTFORMAT_END
171
     0
 94
        0
309
TABLEFORMAT_END
  1
CELLSTYLE_BEGIN
 90
        3
 91
        2
300
_DATA
309
CELLSTYLE_END
  0
XRECORD
  5
3EF5
102
{ACAD_REACTORS
330
3EBE
102
}
330
3EBE
100
AcDbXrecord
280
     1
102
ACAD_ROUNDTRIP_PRE2007_TABLESTYLE
 90
      512
 91
        0
  1

 92
      512
 93
        0
  2

 94
      512
 95
        0
  3

  0
XRECORD
  5
3ED0
102
{ACAD_REACTORS
330
3ECF
102
}
330
3ECF
100
AcDbXrecord
280
     1
102
RTVSPost2010Prop28
280
     1
102
RTVSPost2010PropOp28
 70
     1
102
RTVSPost2010Prop29
280
     1
102
RTVSPost2010PropOp29
 70
     1
102
RTVSPost2010Prop30
280
     0
102
RTVSPost2010PropOp30
 70
     1
102
RTVSPost2010Prop31
280
     0
102
RTVSPost2010PropOp31
 70
     1
102
RTVSPost2010Prop32
280
     0
102
RTVSPost2010PropOp32
 70
     1
102
RTVSPost2010Prop33
280
     0
102
RTVSPost2010PropOp33
 70
     1
102
RTVSPost2010Prop34
280
     0
102
RTVSPost2010PropOp34
 70
     1
102
RTVSPost2010Prop35
280
     0
102
RTVSPost2010PropOp35
 70
     1
102
RTVSPost2010Prop36
280
     0
102
RTVSPost2010PropOp36
 70
     1
102
RTVSPost2010Prop37
 90
       50
102
RTVSPost2010PropOp37
 70
     1
102
RTVSPost2010Prop38
140
0.0
102
RTVSPost2010PropOp38
 70
     1
102
RTVSPost2010Prop39
140
1.0
102
RTVSPost2010PropOp39
 70
     1
102
RTVSPost2010Prop40
 90
        0
102
RTVSPost2010PropOp40
 70
     1
102
RTVSPost2010Prop41ColorIndex
 90
       18
102
RTVSPost2010Prop41ColorRGB
 90
        0
102
RTVSPost2010PropOp41
 70
     1
102
RTVSPost2010Prop42
 90
       50
102
RTVSPost2010PropOp42
 70
     1
102
RTVSPost2010Prop43
 90
        3
102
RTVSPost2010PropOp43
 70
     1
102
RTVSPost2010Prop44ColorIndex
 90
        5
102
RTVSPost2010Prop44ColorRGB
 90
      255
102
RTVSPost2010PropOp44
 70
     1
102
RTVSPost2010Prop45
280
     0
102
RTVSPost2010PropOp45
 70
     1
102
RTVSPost2010Prop46
 90
       50
102
RTVSPost2010PropOp46
 70
     1
102
RTVSPost2010Prop47
 90
       50
102
RTVSPost2010PropOp47
 70
     1
102
RTVSPost2010Prop48
 90
       50
102
RTVSPost2010PropOp48
 70
     1
102
RTVSPost2010Prop49
280
     0
102
RTVSPost2010PropOp49
 70
     1
102
RTVSPost2010Prop50
 90
       50
102
RTVSPost2010PropOp50
 70
     1
102
RTVSPost2010Prop51ColorIndex
 90
      256
102
RTVSPost2010Prop51ColorRGB
 90
-16777216
102
RTVSPost2010PropOp51
 70
     0
102
RTVSPost2010Prop52
140
1.0
102
RTVSPost2010PropOp52
 70
     0
102
RTVSPost2010Prop53
 90
        2
102
RTVSPost2010PropOp53
 70
     1
102
RTVSPost2010Prop54
  1
strokes_ogs.tif
102
RTVSPost2010PropOp54
 70
     1
102
RTVSPost2010Prop55
280
     0
102
RTVSPost2010PropOp55
 70
     1
102
RTVSPost2010Prop56
140
1.0
102
RTVSPost2010PropOp56
 70
     1
102
RTVSPost2010Prop57
140
1.0
102
RTVSPost2010PropOp57
 70
     1
102
RTVSPropertyOp0
 70
     1
102
RTVSPropertyOp1
 70
     1
102
RTVSPropertyOp2
 70
     1
102
RTVSPropertyOp3
 70
     1
102
RTVSPropertyOp4
 70
     1
102
RTVSPropertyOp5
 70
     1
102
RTVSPropertyOp6
 70
     1
102
RTVSPropertyOp7
 70
     1
102
RTVSPropertyOp8
 70
     1
102
RTVSPropertyOp9
 70
     1
102
RTVSPropertyOp10
 70
     1
102
RTVSPropertyOp11
 70
     1
102
RTVSPropertyOp12
 70
     1
102
RTVSPropertyOp13
 70
     1
102
RTVSPropertyOp14
 70
     1
102
RTVSPropertyOp15
 70
     1
102
RTVSPropertyOp16
 70
     1
102
RTVSPropertyOp17
 70
     1
102
RTVSPropertyOp18
 70
     1
102
RTVSPropertyOp19
 70
     1
102
RTVSPropertyOp20
 70
     1
102
RTVSPropertyOp21
 70
     1
102
RTVSPropertyOp22
 70
     1
102
RTVSPropertyOp23
 70
     1
102
RTVSPropertyOp24
 70
     1
102
RTVSPropertyOp25
 70
     1
102
RTVSPropertyOp26
 70
     1
102
RTVSPropertyOp27
 70
     1
102
RTVSPropertyOp28
 70
     1
102
RTVSPropertyOp29
 70
     1
102
RTVSPropertyOp30
 70
     1
102
RTVSPropertyOp31
 70
     1
102
RTVSPropertyOp32
 70
     1
102
RTVSPropertyOp33
 70
     1
102
RTVSPropertyOp34
 70
     1
102
RTVSPropertyOp35
 70
     1
102
RTVSPropertyOp36
 70
     1
102
RTVSPropertyOp37
 70
     1
102
RTVSPropertyOp38
 70
     1
102
RTVSPropertyOp39
 70
     1
102
RTVSPropertyOp40
 70
     1
102
RTVSPropertyOp41
 70
     1
102
RTVSPropertyOp42
 70
     1
102
RTVSPropertyOp43
 70
     1
102
RTVSPropertyOp44
 70
     1
102
RTVSPropertyOp45
 70
     1
102
RTVSPropertyOp46
 70
     1
102
RTVSPropertyOp47
 70
     1
102
RTVSPropertyOp48
 70
     1
102
RTVSPropertyOp49
 70
     1
102
RTVSPropertyOp50
 70
     1
102
RTVSPropertyOp51
 70
     0
102
RTVSPropertyOp52
 70
     0
102
RTVSPropertyOp53
 70
     1
102
RTVSPropertyOp54
 70
     1
102
RTVSPropertyOp55
 70
     1
102
RTVSPropertyOp56
 70
     1
102
RTVSPropertyOp57
 70
     1
102
RTVSPropertyOp58
 70
     1
102
RTVSPropertyOp59
 70
     1
102
RTVSPropertyOp60
 70
     1
102
RTVSPropertyOp61
 70
     1
102
RTVSPropertyOp62
 70
     1
  0
XRECORD
  5
3ECE
102
{ACAD_REACTORS
330
3ECD
102
}
330
3ECD
100
AcDbXrecord
280
     1
102
RTVSPost2010Prop28
280
     0
102
RTVSPost2010PropOp28
 70
     1
102
RTVSPost2010Prop29
280
     1
102
RTVSPost2010PropOp29
 70
     1
102
RTVSPost2010Prop30
280
     1
102
RTVSPost2010PropOp30
 70
     1
102
RTVSPost2010Prop31
280
     0
102
RTVSPost2010PropOp31
 70
     1
102
RTVSPost2010Prop32
280
     0
102
RTVSPost2010PropOp32
 70
     1
102
RTVSPost2010Prop33
280
     0
102
RTVSPost2010PropOp33
 70
     1
102
RTVSPost2010Prop34
280
     0
102
RTVSPost2010PropOp34
 70
     1
102
RTVSPost2010Prop35
280
     0
102
RTVSPost2010PropOp35
 70
     1
102
RTVSPost2010Prop36
280
     0
102
RTVSPost2010PropOp36
 70
     1
102
RTVSPost2010Prop37
 90
       50
102
RTVSPost2010PropOp37
 70
     1
102
RTVSPost2010Prop38
140
0.0
102
RTVSPost2010PropOp38
 70
     1
102
RTVSPost2010Prop39
140
1.0
102
RTVSPost2010PropOp39
 70
     1
102
RTVSPost2010Prop40
 90
        0
102
RTVSPost2010PropOp40
 70
     1
102
RTVSPost2010Prop41ColorIndex
 90
       18
102
RTVSPost2010Prop41ColorRGB
 90
        0
102
RTVSPost2010PropOp41
 70
     1
102
RTVSPost2010Prop42
 90
       50
102
RTVSPost2010PropOp42
 70
     1
102
RTVSPost2010Prop43
 90
        3
102
RTVSPost2010PropOp43
 70
     1
102
RTVSPost2010Prop44ColorIndex
 90
        5
102
RTVSPost2010Prop44ColorRGB
 90
      255
102
RTVSPost2010PropOp44
 70
     1
102
RTVSPost2010Prop45
280
     0
102
RTVSPost2010PropOp45
 70
     1
102
RTVSPost2010Prop46
 90
       50
102
RTVSPost2010PropOp46
 70
     1
102
RTVSPost2010Prop47
 90
       50
102
RTVSPost2010PropOp47
 70
     1
102
RTVSPost2010Prop48
 90
       50
102
RTVSPost2010PropOp48
 70
     1
102
RTVSPost2010Prop49
280
     0
102
RTVSPost2010PropOp49
 70
     1
102
RTVSPost2010Prop50
 90
       50
102
RTVSPost2010PropOp50
 70
     1
102
RTVSPost2010Prop51ColorIndex
 90
      256
102
RTVSPost2010Prop51ColorRGB
 90
-16777216
102
RTVSPost2010PropOp51
 70
     0
102
RTVSPost2010Prop52
140
1.0
102
RTVSPost2010PropOp52
 70
     0
102
RTVSPost2010Prop53
 90
        2
102
RTVSPost2010PropOp53
 70
     1
102
RTVSPost2010Prop54
  1
strokes_ogs.tif
102
RTVSPost2010PropOp54
 70
     1
102
RTVSPost2010Prop55
280
     0
102
RTVSPost2010PropOp55
 70
     1
102
RTVSPost2010Prop56
140
1.0
102
RTVSPost2010PropOp56
 70
     1
102
RTVSPost2010Prop57
140
1.0
102
RTVSPost2010PropOp57
 70
     1
102
RTVSPropertyOp0
 70
     1
102
RTVSPropertyOp1
 70
     1
102
RTVSPropertyOp2
 70
     1
102
RTVSPropertyOp3
 70
     1
102
RTVSPropertyOp4
 70
     1
102
RTVSPropertyOp5
 70
     1
102
RTVSPropertyOp6
 70
     1
102
RTVSPropertyOp7
 70
     1
102
RTVSPropertyOp8
 70
     1
102
RTVSPropertyOp9
 70
     1
102
RTVSPropertyOp10
 70
     1
102
RTVSPropertyOp11
 70
     1
102
RTVSPropertyOp12
 70
     1
102
RTVSPropertyOp13
 70
     1
102
RTVSPropertyOp14
 70
     1
102
RTVSPropertyOp15
 70
     1
102
RTVSPropertyOp16
 70
     1
102
RTVSPropertyOp17
 70
     1
102
RTVSPropertyOp18
 70
     1
102
RTVSPropertyOp19
 70
     1
102
RTVSPropertyOp20
 70
     1
102
RTVSPropertyOp21
 70
     1
102
RTVSPropertyOp22
 70
     1
102
RTVSPropertyOp23
 70
     1
102
RTVSPropertyOp24
 70
     1
102
RTVSPropertyOp25
 70
     1
102
RTVSPropertyOp26
 70
     1
102
RTVSPropertyOp27
 70
     1
102
RTVSPropertyOp28
 70
     1
102
RTVSPropertyOp29
 70
     1
102
RTVSPropertyOp30
 70
     1
102
RTVSPropertyOp31
 70
     1
102
RTVSPropertyOp32
 70
     1
102
RTVSPropertyOp33
 70
     1
102
RTVSPropertyOp34
 70
     1
102
RTVSPropertyOp35
 70
     1
102
RTVSPropertyOp36
 70
     1
102
RTVSPropertyOp37
 70
     1
102
RTVSPropertyOp38
 70
     1
102
RTVSPropertyOp39
 70
     1
102
RTVSPropertyOp40
 70
     1
102
RTVSPropertyOp41
 70
     1
102
RTVSPropertyOp42
 70
     1
102
RTVSPropertyOp43
 70
     1
102
RTVSPropertyOp44
 70
     1
102
RTVSPropertyOp45
 70
     1
102
RTVSPropertyOp46
 70
     1
102
RTVSPropertyOp47
 70
     1
102
RTVSPropertyOp48
 70
     1
102
RTVSPropertyOp49
 70
     1
102
RTVSPropertyOp50
 70
     1
102
RTVSPropertyOp51
 70
     0
102
RTVSPropertyOp52
 70
     0
102
RTVSPropertyOp53
 70
     1
102
RTVSPropertyOp54
 70
     1
102
RTVSPropertyOp55
 70
     1
102
RTVSPropertyOp56
 70
     1
102
RTVSPropertyOp57
 70
     1
102
RTVSPropertyOp58
 70
     1
102
RTVSPropertyOp59
 70
     1
102
RTVSPropertyOp60
 70
     1
102
RTVSPropertyOp61
 70
     1
102
RTVSPropertyOp62
 70
     1
  0
XRECORD
  5
3EDC
102
{ACAD_REACTORS
330
3EDB
102
}
330
3EDB
100
AcDbXrecord
280
     1
102
RTVSPost2010Prop28
280
     0
102
RTVSPost2010PropOp28
 70
     1
102
RTVSPost2010Prop29
280
     1
102
RTVSPost2010PropOp29
 70
     1
102
RTVSPost2010Prop30
280
     1
102
RTVSPost2010PropOp30
 70
     1
102
RTVSPost2010Prop31
280
     0
102
RTVSPost2010PropOp31
 70
     1
102
RTVSPost2010Prop32
280
     0
102
RTVSPost2010PropOp32
 70
     1
102
RTVSPost2010Prop33
280
     0
102
RTVSPost2010PropOp33
 70
     1
102
RTVSPost2010Prop34
280
     0
102
RTVSPost2010PropOp34
 70
     1
102
RTVSPost2010Prop35
280
     0
102
RTVSPost2010PropOp35
 70
     1
102
RTVSPost2010Prop36
280
     0
102
RTVSPost2010PropOp36
 70
     1
102
RTVSPost2010Prop37
 90
       50
102
RTVSPost2010PropOp37
 70
     1
102
RTVSPost2010Prop38
140
0.0
102
RTVSPost2010PropOp38
 70
     1
102
RTVSPost2010Prop39
140
1.0
102
RTVSPost2010PropOp39
 70
     1
102
RTVSPost2010Prop40
 90
        0
102
RTVSPost2010PropOp40
 70
     1
102
RTVSPost2010Prop41ColorIndex
 90
       18
102
RTVSPost2010Prop41ColorRGB
 90
        0
102
RTVSPost2010PropOp41
 70
     1
102
RTVSPost2010Prop42
 90
       50
102
RTVSPost2010PropOp42
 70
     1
102
RTVSPost2010Prop43
 90
        3
102
RTVSPost2010PropOp43
 70
     1
102
RTVSPost2010Prop44ColorIndex
 90
        5
102
RTVSPost2010Prop44ColorRGB
 90
      255
102
RTVSPost2010PropOp44
 70
     1
102
RTVSPost2010Prop45
280
     0
102
RTVSPost2010PropOp45
 70
     1
102
RTVSPost2010Prop46
 90
       50
102
RTVSPost2010PropOp46
 70
     1
102
RTVSPost2010Prop47
 90
       50
102
RTVSPost2010PropOp47
 70
     1
102
RTVSPost2010Prop48
 90
       50
102
RTVSPost2010PropOp48
 70
     1
102
RTVSPost2010Prop49
280
     0
102
RTVSPost2010PropOp49
 70
     1
102
RTVSPost2010Prop50
 90
       50
102
RTVSPost2010PropOp50
 70
     1
102
RTVSPost2010Prop51ColorIndex
 90
      256
102
RTVSPost2010Prop51ColorRGB
 90
-16777216
102
RTVSPost2010PropOp51
 70
     0
102
RTVSPost2010Prop52
140
1.0
102
RTVSPost2010PropOp52
 70
     0
102
RTVSPost2010Prop53
 90
        2
102
RTVSPost2010PropOp53
 70
     1
102
RTVSPost2010Prop54
  1
strokes_ogs.tif
102
RTVSPost2010PropOp54
 70
     1
102
RTVSPost2010Prop55
280
     0
102
RTVSPost2010PropOp55
 70
     1
102
RTVSPost2010Prop56
140
1.0
102
RTVSPost2010PropOp56
 70
     1
102
RTVSPost2010Prop57
140
1.0
102
RTVSPost2010PropOp57
 70
     1
102
RTVSPropertyOp0
 70
     1
102
RTVSPropertyOp1
 70
     1
102
RTVSPropertyOp2
 70
     1
102
RTVSPropertyOp3
 70
     1
102
RTVSPropertyOp4
 70
     1
102
RTVSPropertyOp5
 70
     1
102
RTVSPropertyOp6
 70
     1
102
RTVSPropertyOp7
 70
     1
102
RTVSPropertyOp8
 70
     1
102
RTVSPropertyOp9
 70
     1
102
RTVSPropertyOp10
 70
     1
102
RTVSPropertyOp11
 70
     1
102
RTVSPropertyOp12
 70
     1
102
RTVSPropertyOp13
 70
     1
102
RTVSPropertyOp14
 70
     1
102
RTVSPropertyOp15
 70
     1
102
RTVSPropertyOp16
 70
     1
102
RTVSPropertyOp17
 70
     1
102
RTVSPropertyOp18
 70
     1
102
RTVSPropertyOp19
 70
     1
102
RTVSPropertyOp20
 70
     1
102
RTVSPropertyOp21
 70
     1
102
RTVSPropertyOp22
 70
     1
102
RTVSPropertyOp23
 70
     1
102
RTVSPropertyOp24
 70
     1
102
RTVSPropertyOp25
 70
     1
102
RTVSPropertyOp26
 70
     1
102
RTVSPropertyOp27
 70
     1
102
RTVSPropertyOp28
 70
     1
102
RTVSPropertyOp29
 70
     1
102
RTVSPropertyOp30
 70
     1
102
RTVSPropertyOp31
 70
     1
102
RTVSPropertyOp32
 70
     1
102
RTVSPropertyOp33
 70
     1
102
RTVSPropertyOp34
 70
     1
102
RTVSPropertyOp35
 70
     1
102
RTVSPropertyOp36
 70
     1
102
RTVSPropertyOp37
 70
     1
102
RTVSPropertyOp38
 70
     1
102
RTVSPropertyOp39
 70
     1
102
RTVSPropertyOp40
 70
     1
102
RTVSPropertyOp41
 70
     1
102
RTVSPropertyOp42
 70
     1
102
RTVSPropertyOp43
 70
     1
102
RTVSPropertyOp44
 70
     1
102
RTVSPropertyOp45
 70
     1
102
RTVSPropertyOp46
 70
     1
102
RTVSPropertyOp47
 70
     1
102
RTVSPropertyOp48
 70
     1
102
RTVSPropertyOp49
 70
     1
102
RTVSPropertyOp50
 70
     1
102
RTVSPropertyOp51
 70
     0
102
RTVSPropertyOp52
 70
     0
102
RTVSPropertyOp53
 70
     1
102
RTVSPropertyOp54
 70
     1
102
RTVSPropertyOp55
 70
     1
102
RTVSPropertyOp56
 70
     1
102
RTVSPropertyOp57
 70
     1
102
RTVSPropertyOp58
 70
     1
102
RTVSPropertyOp59
 70
     1
102
RTVSPropertyOp60
 70
     1
102
RTVSPropertyOp61
 70
     1
102
RTVSPropertyOp62
 70
     1
  0
XRECORD
  5
3EE4
102
{ACAD_REACTORS
330
3EE3
102
}
330
3EE3
100
AcDbXrecord
280
     1
102
RTVSPost2010Prop28
280
     0
102
RTVSPost2010PropOp28
 70
     1
102
RTVSPost2010Prop29
280
     1
102
RTVSPost2010PropOp29
 70
     1
102
RTVSPost2010Prop30
280
     1
102
RTVSPost2010PropOp30
 70
     1
102
RTVSPost2010Prop31
280
     0
102
RTVSPost2010PropOp31
 70
     1
102
RTVSPost2010Prop32
280
     0
102
RTVSPost2010PropOp32
 70
     1
102
RTVSPost2010Prop33
280
     0
102
RTVSPost2010PropOp33
 70
     1
102
RTVSPost2010Prop34
280
     0
102
RTVSPost2010PropOp34
 70
     1
102
RTVSPost2010Prop35
280
     0
102
RTVSPost2010PropOp35
 70
     1
102
RTVSPost2010Prop36
280
     0
102
RTVSPost2010PropOp36
 70
     1
102
RTVSPost2010Prop37
 90
       50
102
RTVSPost2010PropOp37
 70
     1
102
RTVSPost2010Prop38
140
0.0
102
RTVSPost2010PropOp38
 70
     1
102
RTVSPost2010Prop39
140
1.0
102
RTVSPost2010PropOp39
 70
     1
102
RTVSPost2010Prop40
 90
        0
102
RTVSPost2010PropOp40
 70
     1
102
RTVSPost2010Prop41ColorIndex
 90
       18
102
RTVSPost2010Prop41ColorRGB
 90
        0
102
RTVSPost2010PropOp41
 70
     1
102
RTVSPost2010Prop42
 90
       50
102
RTVSPost2010PropOp42
 70
     1
102
RTVSPost2010Prop43
 90
        3
102
RTVSPost2010PropOp43
 70
     1
102
RTVSPost2010Prop44ColorIndex
 90
        5
102
RTVSPost2010Prop44ColorRGB
 90
      255
102
RTVSPost2010PropOp44
 70
     1
102
RTVSPost2010Prop45
280
     0
102
RTVSPost2010PropOp45
 70
     1
102
RTVSPost2010Prop46
 90
       50
102
RTVSPost2010PropOp46
 70
     1
102
RTVSPost2010Prop47
 90
       50
102
RTVSPost2010PropOp47
 70
     1
102
RTVSPost2010Prop48
 90
       50
102
RTVSPost2010PropOp48
 70
     1
102
RTVSPost2010Prop49
280
     0
102
RTVSPost2010PropOp49
 70
     1
102
RTVSPost2010Prop50
 90
       50
102
RTVSPost2010PropOp50
 70
     1
102
RTVSPost2010Prop51ColorIndex
 90
      256
102
RTVSPost2010Prop51ColorRGB
 90
-16777216
102
RTVSPost2010PropOp51
 70
     0
102
RTVSPost2010Prop52
140
1.0
102
RTVSPost2010PropOp52
 70
     0
102
RTVSPost2010Prop53
 90
        2
102
RTVSPost2010PropOp53
 70
     1
102
RTVSPost2010Prop54
  1
strokes_ogs.tif
102
RTVSPost2010PropOp54
 70
     1
102
RTVSPost2010Prop55
280
     0
102
RTVSPost2010PropOp55
 70
     1
102
RTVSPost2010Prop56
140
1.0
102
RTVSPost2010PropOp56
 70
     1
102
RTVSPost2010Prop57
140
1.0
102
RTVSPost2010PropOp57
 70
     1
102
RTVSPropertyOp0
 70
     1
102
RTVSPropertyOp1
 70
     1
102
RTVSPropertyOp2
 70
     1
102
RTVSPropertyOp3
 70
     1
102
RTVSPropertyOp4
 70
     1
102
RTVSPropertyOp5
 70
     1
102
RTVSPropertyOp6
 70
     1
102
RTVSPropertyOp7
 70
     1
102
RTVSPropertyOp8
 70
     1
102
RTVSPropertyOp9
 70
     1
102
RTVSPropertyOp10
 70
     1
102
RTVSPropertyOp11
 70
     1
102
RTVSPropertyOp12
 70
     1
102
RTVSPropertyOp13
 70
     1
102
RTVSPropertyOp14
 70
     1
102
RTVSPropertyOp15
 70
     1
102
RTVSPropertyOp16
 70
     1
102
RTVSPropertyOp17
 70
     1
102
RTVSPropertyOp18
 70
     1
102
RTVSPropertyOp19
 70
     1
102
RTVSPropertyOp20
 70
     1
102
RTVSPropertyOp21
 70
     1
102
RTVSPropertyOp22
 70
     1
102
RTVSPropertyOp23
 70
     1
102
RTVSPropertyOp24
 70
     1
102
RTVSPropertyOp25
 70
     1
102
RTVSPropertyOp26
 70
     1
102
RTVSPropertyOp27
 70
     1
102
RTVSPropertyOp28
 70
     1
102
RTVSPropertyOp29
 70
     1
102
RTVSPropertyOp30
 70
     1
102
RTVSPropertyOp31
 70
     1
102
RTVSPropertyOp32
 70
     1
102
RTVSPropertyOp33
 70
     1
102
RTVSPropertyOp34
 70
     1
102
RTVSPropertyOp35
 70
     1
102
RTVSPropertyOp36
 70
     1
102
RTVSPropertyOp37
 70
     1
102
RTVSPropertyOp38
 70
     1
102
RTVSPropertyOp39
 70
     1
102
RTVSPropertyOp40
 70
     1
102
RTVSPropertyOp41
 70
     1
102
RTVSPropertyOp42
 70
     1
102
RTVSPropertyOp43
 70
     1
102
RTVSPropertyOp44
 70
     1
102
RTVSPropertyOp45
 70
     1
102
RTVSPropertyOp46
 70
     1
102
RTVSPropertyOp47
 70
     1
102
RTVSPropertyOp48
 70
     1
102
RTVSPropertyOp49
 70
     1
102
RTVSPropertyOp50
 70
     1
102
RTVSPropertyOp51
 70
     0
102
RTVSPropertyOp52
 70
     0
102
RTVSPropertyOp53
 70
     1
102
RTVSPropertyOp54
 70
     1
102
RTVSPropertyOp55
 70
     1
102
RTVSPropertyOp56
 70
     1
102
RTVSPropertyOp57
 70
     1
102
RTVSPropertyOp58
 70
     1
102
RTVSPropertyOp59
 70
     1
102
RTVSPropertyOp60
 70
     1
102
RTVSPropertyOp61
 70
     1
102
RTVSPropertyOp62
 70
     1
  0
XRECORD
  5
3ED6
102
{ACAD_REACTORS
330
3ED5
102
}
330
3ED5
100
AcDbXrecord
280
     1
102
RTVSPost2010Prop28
280
     0
102
RTVSPost2010PropOp28
 70
     1
102
RTVSPost2010Prop29
280
     1
102
RTVSPost2010PropOp29
 70
     1
102
RTVSPost2010Prop30
280
     1
102
RTVSPost2010PropOp30
 70
     1
102
RTVSPost2010Prop31
280
     0
102
RTVSPost2010PropOp31
 70
     1
102
RTVSPost2010Prop32
280
     0
102
RTVSPost2010PropOp32
 70
     1
102
RTVSPost2010Prop33
280
     0
102
RTVSPost2010PropOp33
 70
     1
102
RTVSPost2010Prop34
280
     0
102
RTVSPost2010PropOp34
 70
     1
102
RTVSPost2010Prop35
280
     0
102
RTVSPost2010PropOp35
 70
     1
102
RTVSPost2010Prop36
280
     0
102
RTVSPost2010PropOp36
 70
     1
102
RTVSPost2010Prop37
 90
       50
102
RTVSPost2010PropOp37
 70
     1
102
RTVSPost2010Prop38
140
0.0
102
RTVSPost2010PropOp38
 70
     1
102
RTVSPost2010Prop39
140
1.0
102
RTVSPost2010PropOp39
 70
     1
102
RTVSPost2010Prop40
 90
        0
102
RTVSPost2010PropOp40
 70
     1
102
RTVSPost2010Prop41ColorIndex
 90
       18
102
RTVSPost2010Prop41ColorRGB
 90
        0
102
RTVSPost2010PropOp41
 70
     1
102
RTVSPost2010Prop42
 90
       50
102
RTVSPost2010PropOp42
 70
     1
102
RTVSPost2010Prop43
 90
        3
102
RTVSPost2010PropOp43
 70
     1
102
RTVSPost2010Prop44ColorIndex
 90
        5
102
RTVSPost2010Prop44ColorRGB
 90
      255
102
RTVSPost2010PropOp44
 70
     1
102
RTVSPost2010Prop45
280
     0
102
RTVSPost2010PropOp45
 70
     1
102
RTVSPost2010Prop46
 90
       50
102
RTVSPost2010PropOp46
 70
     1
102
RTVSPost2010Prop47
 90
       50
102
RTVSPost2010PropOp47
 70
     1
102
RTVSPost2010Prop48
 90
       50
102
RTVSPost2010PropOp48
 70
     1
102
RTVSPost2010Prop49
280
     0
102
RTVSPost2010PropOp49
 70
     1
102
RTVSPost2010Prop50
 90
       50
102
RTVSPost2010PropOp50
 70
     1
102
RTVSPost2010Prop51ColorIndex
 90
      256
102
RTVSPost2010Prop51ColorRGB
 90
-16777216
102
RTVSPost2010PropOp51
 70
     0
102
RTVSPost2010Prop52
140
1.0
102
RTVSPost2010PropOp52
 70
     0
102
RTVSPost2010Prop53
 90
        2
102
RTVSPost2010PropOp53
 70
     1
102
RTVSPost2010Prop54
  1
strokes_ogs.tif
102
RTVSPost2010PropOp54
 70
     1
102
RTVSPost2010Prop55
280
     0
102
RTVSPost2010PropOp55
 70
     1
102
RTVSPost2010Prop56
140
1.0
102
RTVSPost2010PropOp56
 70
     1
102
RTVSPost2010Prop57
140
1.0
102
RTVSPost2010PropOp57
 70
     1
102
RTVSPropertyOp0
 70
     1
102
RTVSPropertyOp1
 70
     1
102
RTVSPropertyOp2
 70
     1
102
RTVSPropertyOp3
 70
     1
102
RTVSPropertyOp4
 70
     1
102
RTVSPropertyOp5
 70
     1
102
RTVSPropertyOp6
 70
     1
102
RTVSPropertyOp7
 70
     1
102
RTVSPropertyOp8
 70
     1
102
RTVSPropertyOp9
 70
     1
102
RTVSPropertyOp10
 70
     1
102
RTVSPropertyOp11
 70
     1
102
RTVSPropertyOp12
 70
     1
102
RTVSPropertyOp13
 70
     1
102
RTVSPropertyOp14
 70
     1
102
RTVSPropertyOp15
 70
     1
102
RTVSPropertyOp16
 70
     1
102
RTVSPropertyOp17
 70
     1
102
RTVSPropertyOp18
 70
     1
102
RTVSPropertyOp19
 70
     1
102
RTVSPropertyOp20
 70
     1
102
RTVSPropertyOp21
 70
     1
102
RTVSPropertyOp22
 70
     1
102
RTVSPropertyOp23
 70
     1
102
RTVSPropertyOp24
 70
     1
102
RTVSPropertyOp25
 70
     1
102
RTVSPropertyOp26
 70
     1
102
RTVSPropertyOp27
 70
     1
102
RTVSPropertyOp28
 70
     1
102
RTVSPropertyOp29
 70
     1
102
RTVSPropertyOp30
 70
     1
102
RTVSPropertyOp31
 70
     1
102
RTVSPropertyOp32
 70
     1
102
RTVSPropertyOp33
 70
     1
102
RTVSPropertyOp34
 70
     1
102
RTVSPropertyOp35
 70
     1
102
RTVSPropertyOp36
 70
     1
102
RTVSPropertyOp37
 70
     1
102
RTVSPropertyOp38
 70
     1
102
RTVSPropertyOp39
 70
     1
102
RTVSPropertyOp40
 70
     1
102
RTVSPropertyOp41
 70
     1
102
RTVSPropertyOp42
 70
     1
102
RTVSPropertyOp43
 70
     1
102
RTVSPropertyOp44
 70
     1
102
RTVSPropertyOp45
 70
     1
102
RTVSPropertyOp46
 70
     1
102
RTVSPropertyOp47
 70
     1
102
RTVSPropertyOp48
 70
     1
102
RTVSPropertyOp49
 70
     1
102
RTVSPropertyOp50
 70
     1
102
RTVSPropertyOp51
 70
     0
102
RTVSPropertyOp52
 70
     0
102
RTVSPropertyOp53
 70
     1
102
RTVSPropertyOp54
 70
     1
102
RTVSPropertyOp55
 70
     1
102
RTVSPropertyOp56
 70
     1
102
RTVSPropertyOp57
 70
     1
102
RTVSPropertyOp58
 70
     1
102
RTVSPropertyOp59
 70
     1
102
RTVSPropertyOp60
 70
     1
102
RTVSPropertyOp61
 70
     1
102
RTVSPropertyOp62
 70
     1
  0
XRECORD
  5
3EDA
102
{ACAD_REACTORS
330
3ED9
102
}
330
3ED9
100
AcDbXrecord
280
     1
102
RTVSPost2010Prop28
280
     0
102
RTVSPost2010PropOp28
 70
     1
102
RTVSPost2010Prop29
280
     1
102
RTVSPost2010PropOp29
 70
     1
102
RTVSPost2010Prop30
280
     1
102
RTVSPost2010PropOp30
 70
     1
102
RTVSPost2010Prop31
280
     0
102
RTVSPost2010PropOp31
 70
     1
102
RTVSPost2010Prop32
280
     0
102
RTVSPost2010PropOp32
 70
     1
102
RTVSPost2010Prop33
280
     0
102
RTVSPost2010PropOp33
 70
     1
102
RTVSPost2010Prop34
280
     0
102
RTVSPost2010PropOp34
 70
     1
102
RTVSPost2010Prop35
280
     0
102
RTVSPost2010PropOp35
 70
     1
102
RTVSPost2010Prop36
280
     0
102
RTVSPost2010PropOp36
 70
     1
102
RTVSPost2010Prop37
 90
       50
102
RTVSPost2010PropOp37
 70
     1
102
RTVSPost2010Prop38
140
0.0
102
RTVSPost2010PropOp38
 70
     1
102
RTVSPost2010Prop39
140
1.0
102
RTVSPost2010PropOp39
 70
     1
102
RTVSPost2010Prop40
 90
        0
102
RTVSPost2010PropOp40
 70
     1
102
RTVSPost2010Prop41ColorIndex
 90
       18
102
RTVSPost2010Prop41ColorRGB
 90
        0
102
RTVSPost2010PropOp41
 70
     1
102
RTVSPost2010Prop42
 90
       50
102
RTVSPost2010PropOp42
 70
     1
102
RTVSPost2010Prop43
 90
        3
102
RTVSPost2010PropOp43
 70
     1
102
RTVSPost2010Prop44ColorIndex
 90
        5
102
RTVSPost2010Prop44ColorRGB
 90
      255
102
RTVSPost2010PropOp44
 70
     1
102
RTVSPost2010Prop45
280
     0
102
RTVSPost2010PropOp45
 70
     1
102
RTVSPost2010Prop46
 90
       50
102
RTVSPost2010PropOp46
 70
     1
102
RTVSPost2010Prop47
 90
       50
102
RTVSPost2010PropOp47
 70
     1
102
RTVSPost2010Prop48
 90
       50
102
RTVSPost2010PropOp48
 70
     1
102
RTVSPost2010Prop49
280
     0
102
RTVSPost2010PropOp49
 70
     1
102
RTVSPost2010Prop50
 90
       50
102
RTVSPost2010PropOp50
 70
     1
102
RTVSPost2010Prop51ColorIndex
 90
      256
102
RTVSPost2010Prop51ColorRGB
 90
-16777216
102
RTVSPost2010PropOp51
 70
     0
102
RTVSPost2010Prop52
140
1.0
102
RTVSPost2010PropOp52
 70
     0
102
RTVSPost2010Prop53
 90
        2
102
RTVSPost2010PropOp53
 70
     1
102
RTVSPost2010Prop54
  1
strokes_ogs.tif
102
RTVSPost2010PropOp54
 70
     1
102
RTVSPost2010Prop55
280
     0
102
RTVSPost2010PropOp55
 70
     1
102
RTVSPost2010Prop56
140
1.0
102
RTVSPost2010PropOp56
 70
     1
102
RTVSPost2010Prop57
140
1.0
102
RTVSPost2010PropOp57
 70
     1
102
RTVSPropertyOp0
 70
     1
102
RTVSPropertyOp1
 70
     1
102
RTVSPropertyOp2
 70
     1
102
RTVSPropertyOp3
 70
     1
102
RTVSPropertyOp4
 70
     1
102
RTVSPropertyOp5
 70
     1
102
RTVSPropertyOp6
 70
     1
102
RTVSPropertyOp7
 70
     1
102
RTVSPropertyOp8
 70
     1
102
RTVSPropertyOp9
 70
     1
102
RTVSPropertyOp10
 70
     1
102
RTVSPropertyOp11
 70
     1
102
RTVSPropertyOp12
 70
     1
102
RTVSPropertyOp13
 70
     1
102
RTVSPropertyOp14
 70
     1
102
RTVSPropertyOp15
 70
     1
102
RTVSPropertyOp16
 70
     1
102
RTVSPropertyOp17
 70
     1
102
RTVSPropertyOp18
 70
     1
102
RTVSPropertyOp19
 70
     1
102
RTVSPropertyOp20
 70
     1
102
RTVSPropertyOp21
 70
     1
102
RTVSPropertyOp22
 70
     1
102
RTVSPropertyOp23
 70
     1
102
RTVSPropertyOp24
 70
     1
102
RTVSPropertyOp25
 70
     1
102
RTVSPropertyOp26
 70
     1
102
RTVSPropertyOp27
 70
     1
102
RTVSPropertyOp28
 70
     1
102
RTVSPropertyOp29
 70
     1
102
RTVSPropertyOp30
 70
     1
102
RTVSPropertyOp31
 70
     1
102
RTVSPropertyOp32
 70
     1
102
RTVSPropertyOp33
 70
     1
102
RTVSPropertyOp34
 70
     1
102
RTVSPropertyOp35
 70
     1
102
RTVSPropertyOp36
 70
     1
102
RTVSPropertyOp37
 70
     1
102
RTVSPropertyOp38
 70
     1
102
RTVSPropertyOp39
 70
     1
102
RTVSPropertyOp40
 70
     1
102
RTVSPropertyOp41
 70
     1
102
RTVSPropertyOp42
 70
     1
102
RTVSPropertyOp43
 70
     1
102
RTVSPropertyOp44
 70
     1
102
RTVSPropertyOp45
 70
     1
102
RTVSPropertyOp46
 70
     1
102
RTVSPropertyOp47
 70
     1
102
RTVSPropertyOp48
 70
     1
102
RTVSPropertyOp49
 70
     1
102
RTVSPropertyOp50
 70
     1
102
RTVSPropertyOp51
 70
     0
102
RTVSPropertyOp52
 70
     0
102
RTVSPropertyOp53
 70
     1
102
RTVSPropertyOp54
 70
     1
102
RTVSPropertyOp55
 70
     1
102
RTVSPropertyOp56
 70
     1
102
RTVSPropertyOp57
 70
     1
102
RTVSPropertyOp58
 70
     1
102
RTVSPropertyOp59
 70
     1
102
RTVSPropertyOp60
 70
     1
102
RTVSPropertyOp61
 70
     1
102
RTVSPropertyOp62
 70
     1
  0
XRECORD
  5
3EF4
102
{ACAD_REACTORS
330
3EF3
102
}
330
3EF3
100
AcDbXrecord
280
     1
102
RTVSPost2010Prop28
280
     0
102
RTVSPost2010PropOp28
 70
     1
102
RTVSPost2010Prop29
280
     1
102
RTVSPost2010PropOp29
 70
     1
102
RTVSPost2010Prop30
280
     1
102
RTVSPost2010PropOp30
 70
     1
102
RTVSPost2010Prop31
280
     0
102
RTVSPost2010PropOp31
 70
     1
102
RTVSPost2010Prop32
280
     0
102
RTVSPost2010PropOp32
 70
     1
102
RTVSPost2010Prop33
280
     0
102
RTVSPost2010PropOp33
 70
     1
102
RTVSPost2010Prop34
280
     0
102
RTVSPost2010PropOp34
 70
     1
102
RTVSPost2010Prop35
280
     0
102
RTVSPost2010PropOp35
 70
     1
102
RTVSPost2010Prop36
280
     0
102
RTVSPost2010PropOp36
 70
     1
102
RTVSPost2010Prop37
 90
       50
102
RTVSPost2010PropOp37
 70
     0
102
RTVSPost2010Prop38
140
0.0
102
RTVSPost2010PropOp38
 70
     0
102
RTVSPost2010Prop39
140
1.0
102
RTVSPost2010PropOp39
 70
     0
102
RTVSPost2010Prop40
 90
        0
102
RTVSPost2010PropOp40
 70
     0
102
RTVSPost2010Prop41ColorIndex
 90
       18
102
RTVSPost2010Prop41ColorRGB
 90
        0
102
RTVSPost2010PropOp41
 70
     0
102
RTVSPost2010Prop42
 90
       50
102
RTVSPost2010PropOp42
 70
     0
102
RTVSPost2010Prop43
 90
        3
102
RTVSPost2010PropOp43
 70
     0
102
RTVSPost2010Prop44ColorIndex
 90
        5
102
RTVSPost2010Prop44ColorRGB
 90
      255
102
RTVSPost2010PropOp44
 70
     0
102
RTVSPost2010Prop45
280
     0
102
RTVSPost2010PropOp45
 70
     1
102
RTVSPost2010Prop46
 90
       50
102
RTVSPost2010PropOp46
 70
     0
102
RTVSPost2010Prop47
 90
       50
102
RTVSPost2010PropOp47
 70
     0
102
RTVSPost2010Prop48
 90
       50
102
RTVSPost2010PropOp48
 70
     0
102
RTVSPost2010Prop49
280
     0
102
RTVSPost2010PropOp49
 70
     1
102
RTVSPost2010Prop50
 90
       50
102
RTVSPost2010PropOp50
 70
     0
102
RTVSPost2010Prop51ColorIndex
 90
      256
102
RTVSPost2010Prop51ColorRGB
 90
-16777216
102
RTVSPost2010PropOp51
 70
     0
102
RTVSPost2010Prop52
140
1.0
102
RTVSPost2010PropOp52
 70
     0
102
RTVSPost2010Prop53
 90
        2
102
RTVSPost2010PropOp53
 70
     0
102
RTVSPost2010Prop54
  1
strokes_ogs.tif
102
RTVSPost2010PropOp54
 70
     0
102
RTVSPost2010Prop55
280
     0
102
RTVSPost2010PropOp55
 70
     1
102
RTVSPost2010Prop56
140
1.0
102
RTVSPost2010PropOp56
 70
     0
102
RTVSPost2010Prop57
140
1.0
102
RTVSPost2010PropOp57
 70
     0
102
RTVSPropertyOp0
 70
     0
102
RTVSPropertyOp1
 70
     0
102
RTVSPropertyOp2
 70
     0
102
RTVSPropertyOp3
 70
     0
102
RTVSPropertyOp4
 70
     0
102
RTVSPropertyOp5
 70
     0
102
RTVSPropertyOp6
 70
     0
102
RTVSPropertyOp7
 70
     0
102
RTVSPropertyOp8
 70
     0
102
RTVSPropertyOp9
 70
     0
102
RTVSPropertyOp10
 70
     0
102
RTVSPropertyOp11
 70
     0
102
RTVSPropertyOp12
 70
     0
102
RTVSPropertyOp13
 70
     0
102
RTVSPropertyOp14
 70
     2
102
RTVSPropertyOp15
 70
     0
102
RTVSPropertyOp16
 70
     0
102
RTVSPropertyOp17
 70
     0
102
RTVSPropertyOp18
 70
     0
102
RTVSPropertyOp19
 70
     0
102
RTVSPropertyOp20
 70
     0
102
RTVSPropertyOp21
 70
     0
102
RTVSPropertyOp22
 70
     0
102
RTVSPropertyOp23
 70
     0
102
RTVSPropertyOp24
 70
     0
102
RTVSPropertyOp25
 70
     0
102
RTVSPropertyOp26
 70
     0
102
RTVSPropertyOp27
 70
     0
102
RTVSPropertyOp28
 70
     1
102
RTVSPropertyOp29
 70
     1
102
RTVSPropertyOp30
 70
     1
102
RTVSPropertyOp31
 70
     1
102
RTVSPropertyOp32
 70
     1
102
RTVSPropertyOp33
 70
     1
102
RTVSPropertyOp34
 70
     1
102
RTVSPropertyOp35
 70
     1
102
RTVSPropertyOp36
 70
     1
102
RTVSPropertyOp37
 70
     0
102
RTVSPropertyOp38
 70
     0
102
RTVSPropertyOp39
 70
     0
102
RTVSPropertyOp40
 70
     0
102
RTVSPropertyOp41
 70
     0
102
RTVSPropertyOp42
 70
     0
102
RTVSPropertyOp43
 70
     0
102
RTVSPropertyOp44
 70
     0
102
RTVSPropertyOp45
 70
     1
102
RTVSPropertyOp46
 70
     0
102
RTVSPropertyOp47
 70
     0
102
RTVSPropertyOp48
 70
     0
102
RTVSPropertyOp49
 70
     1
102
RTVSPropertyOp50
 70
     0
102
RTVSPropertyOp51
 70
     0
102
RTVSPropertyOp52
 70
     0
102
RTVSPropertyOp53
 70
     0
102
RTVSPropertyOp54
 70
     0
102
RTVSPropertyOp55
 70
     1
102
RTVSPropertyOp56
 70
     0
102
RTVSPropertyOp57
 70
     0
102
RTVSPropertyOp58
 70
     0
102
RTVSPropertyOp59
 70
     0
102
RTVSPropertyOp60
 70
     0
102
RTVSPropertyOp61
 70
     0
102
RTVSPropertyOp62
 70
     0
  0
XRECORD
  5
3EE2
102
{ACAD_REACTORS
330
3EE1
102
}
330
3EE1
100
AcDbXrecord
280
     1
102
RTVSPost2010Prop28
280
     0
102
RTVSPost2010PropOp28
 70
     1
102
RTVSPost2010Prop29
280
     1
102
RTVSPost2010PropOp29
 70
     1
102
RTVSPost2010Prop30
280
     1
102
RTVSPost2010PropOp30
 70
     1
102
RTVSPost2010Prop31
280
     0
102
RTVSPost2010PropOp31
 70
     1
102
RTVSPost2010Prop32
280
     0
102
RTVSPost2010PropOp32
 70
     1
102
RTVSPost2010Prop33
280
     0
102
RTVSPost2010PropOp33
 70
     1
102
RTVSPost2010Prop34
280
     0
102
RTVSPost2010PropOp34
 70
     1
102
RTVSPost2010Prop35
280
     0
102
RTVSPost2010PropOp35
 70
     1
102
RTVSPost2010Prop36
280
     0
102
RTVSPost2010PropOp36
 70
     1
102
RTVSPost2010Prop37
 90
       50
102
RTVSPost2010PropOp37
 70
     1
102
RTVSPost2010Prop38
140
0.0
102
RTVSPost2010PropOp38
 70
     1
102
RTVSPost2010Prop39
140
1.0
102
RTVSPost2010PropOp39
 70
     1
102
RTVSPost2010Prop40
 90
        0
102
RTVSPost2010PropOp40
 70
     1
102
RTVSPost2010Prop41ColorIndex
 90
       18
102
RTVSPost2010Prop41ColorRGB
 90
        0
102
RTVSPost2010PropOp41
 70
     1
102
RTVSPost2010Prop42
 90
       50
102
RTVSPost2010PropOp42
 70
     1
102
RTVSPost2010Prop43
 90
        3
102
RTVSPost2010PropOp43
 70
     1
102
RTVSPost2010Prop44ColorIndex
 90
        5
102
RTVSPost2010Prop44ColorRGB
 90
      255
102
RTVSPost2010PropOp44
 70
     1
102
RTVSPost2010Prop45
280
     0
102
RTVSPost2010PropOp45
 70
     1
102
RTVSPost2010Prop46
 90
       50
102
RTVSPost2010PropOp46
 70
     1
102
RTVSPost2010Prop47
 90
       50
102
RTVSPost2010PropOp47
 70
     1
102
RTVSPost2010Prop48
 90
       50
102
RTVSPost2010PropOp48
 70
     1
102
RTVSPost2010Prop49
280
     0
102
RTVSPost2010PropOp49
 70
     1
102
RTVSPost2010Prop50
 90
       50
102
RTVSPost2010PropOp50
 70
     1
102
RTVSPost2010Prop51ColorIndex
 90
      256
102
RTVSPost2010Prop51ColorRGB
 90
-16777216
102
RTVSPost2010PropOp51
 70
     0
102
RTVSPost2010Prop52
140
1.0
102
RTVSPost2010PropOp52
 70
     0
102
RTVSPost2010Prop53
 90
        2
102
RTVSPost2010PropOp53
 70
     1
102
RTVSPost2010Prop54
  1
strokes_ogs.tif
102
RTVSPost2010PropOp54
 70
     1
102
RTVSPost2010Prop55
280
     0
102
RTVSPost2010PropOp55
 70
     1
102
RTVSPost2010Prop56
140
1.0
102
RTVSPost2010PropOp56
 70
     1
102
RTVSPost2010Prop57
140
1.0
102
RTVSPost2010PropOp57
 70
     1
102
RTVSPropertyOp0
 70
     1
102
RTVSPropertyOp1
 70
     1
102
RTVSPropertyOp2
 70
     1
102
RTVSPropertyOp3
 70
     1
102
RTVSPropertyOp4
 70
     1
102
RTVSPropertyOp5
 70
     1
102
RTVSPropertyOp6
 70
     1
102
RTVSPropertyOp7
 70
     1
102
RTVSPropertyOp8
 70
     1
102
RTVSPropertyOp9
 70
     1
102
RTVSPropertyOp10
 70
     1
102
RTVSPropertyOp11
 70
     1
102
RTVSPropertyOp12
 70
     1
102
RTVSPropertyOp13
 70
     1
102
RTVSPropertyOp14
 70
     1
102
RTVSPropertyOp15
 70
     1
102
RTVSPropertyOp16
 70
     1
102
RTVSPropertyOp17
 70
     1
102
RTVSPropertyOp18
 70
     1
102
RTVSPropertyOp19
 70
     1
102
RTVSPropertyOp20
 70
     1
102
RTVSPropertyOp21
 70
     1
102
RTVSPropertyOp22
 70
     1
102
RTVSPropertyOp23
 70
     1
102
RTVSPropertyOp24
 70
     1
102
RTVSPropertyOp25
 70
     1
102
RTVSPropertyOp26
 70
     1
102
RTVSPropertyOp27
 70
     1
102
RTVSPropertyOp28
 70
     1
102
RTVSPropertyOp29
 70
     1
102
RTVSPropertyOp30
 70
     1
102
RTVSPropertyOp31
 70
     1
102
RTVSPropertyOp32
 70
     1
102
RTVSPropertyOp33
 70
     1
102
RTVSPropertyOp34
 70
     1
102
RTVSPropertyOp35
 70
     1
102
RTVSPropertyOp36
 70
     1
102
RTVSPropertyOp37
 70
     1
102
RTVSPropertyOp38
 70
     1
102
RTVSPropertyOp39
 70
     1
102
RTVSPropertyOp40
 70
     1
102
RTVSPropertyOp41
 70
     1
102
RTVSPropertyOp42
 70
     1
102
RTVSPropertyOp43
 70
     1
102
RTVSPropertyOp44
 70
     1
102
RTVSPropertyOp45
 70
     1
102
RTVSPropertyOp46
 70
     1
102
RTVSPropertyOp47
 70
     1
102
RTVSPropertyOp48
 70
     1
102
RTVSPropertyOp49
 70
     1
102
RTVSPropertyOp50
 70
     1
102
RTVSPropertyOp51
 70
     0
102
RTVSPropertyOp52
 70
     0
102
RTVSPropertyOp53
 70
     1
102
RTVSPropertyOp54
 70
     1
102
RTVSPropertyOp55
 70
     1
102
RTVSPropertyOp56
 70
     1
102
RTVSPropertyOp57
 70
     1
102
RTVSPropertyOp58
 70
     1
102
RTVSPropertyOp59
 70
     1
102
RTVSPropertyOp60
 70
     1
102
RTVSPropertyOp61
 70
     1
102
RTVSPropertyOp62
 70
     1
  0
XRECORD
  5
3EC6
102
{ACAD_REACTORS
330
3EC5
102
}
330
3EC5
100
AcDbXrecord
280
     1
102
RTVSPost2010Prop28
280
     0
102
RTVSPost2010PropOp28
 70
     1
102
RTVSPost2010Prop29
280
     1
102
RTVSPost2010PropOp29
 70
     1
102
RTVSPost2010Prop30
280
     1
102
RTVSPost2010PropOp30
 70
     1
102
RTVSPost2010Prop31
280
     0
102
RTVSPost2010PropOp31
 70
     1
102
RTVSPost2010Prop32
280
     0
102
RTVSPost2010PropOp32
 70
     1
102
RTVSPost2010Prop33
280
     0
102
RTVSPost2010PropOp33
 70
     1
102
RTVSPost2010Prop34
280
     0
102
RTVSPost2010PropOp34
 70
     1
102
RTVSPost2010Prop35
280
     0
102
RTVSPost2010PropOp35
 70
     1
102
RTVSPost2010Prop36
280
     0
102
RTVSPost2010PropOp36
 70
     1
102
RTVSPost2010Prop37
 90
       50
102
RTVSPost2010PropOp37
 70
     1
102
RTVSPost2010Prop38
140
0.0
102
RTVSPost2010PropOp38
 70
     1
102
RTVSPost2010Prop39
140
1.0
102
RTVSPost2010PropOp39
 70
     1
102
RTVSPost2010Prop40
 90
        0
102
RTVSPost2010PropOp40
 70
     1
102
RTVSPost2010Prop41ColorIndex
 90
       18
102
RTVSPost2010Prop41ColorRGB
 90
        0
102
RTVSPost2010PropOp41
 70
     1
102
RTVSPost2010Prop42
 90
       50
102
RTVSPost2010PropOp42
 70
     1
102
RTVSPost2010Prop43
 90
        3
102
RTVSPost2010PropOp43
 70
     1
102
RTVSPost2010Prop44ColorIndex
 90
        5
102
RTVSPost2010Prop44ColorRGB
 90
      255
102
RTVSPost2010PropOp44
 70
     1
102
RTVSPost2010Prop45
280
     0
102
RTVSPost2010PropOp45
 70
     1
102
RTVSPost2010Prop46
 90
       50
102
RTVSPost2010PropOp46
 70
     1
102
RTVSPost2010Prop47
 90
       50
102
RTVSPost2010PropOp47
 70
     1
102
RTVSPost2010Prop48
 90
       50
102
RTVSPost2010PropOp48
 70
     1
102
RTVSPost2010Prop49
280
     0
102
RTVSPost2010PropOp49
 70
     1
102
RTVSPost2010Prop50
 90
       50
102
RTVSPost2010PropOp50
 70
     1
102
RTVSPost2010Prop51ColorIndex
 90
      256
102
RTVSPost2010Prop51ColorRGB
 90
-16777216
102
RTVSPost2010PropOp51
 70
     0
102
RTVSPost2010Prop52
140
1.0
102
RTVSPost2010PropOp52
 70
     0
102
RTVSPost2010Prop53
 90
        2
102
RTVSPost2010PropOp53
 70
     1
102
RTVSPost2010Prop54
  1
strokes_ogs.tif
102
RTVSPost2010PropOp54
 70
     1
102
RTVSPost2010Prop55
280
     0
102
RTVSPost2010PropOp55
 70
     1
102
RTVSPost2010Prop56
140
1.0
102
RTVSPost2010PropOp56
 70
     1
102
RTVSPost2010Prop57
140
1.0
102
RTVSPost2010PropOp57
 70
     1
102
RTVSPropertyOp0
 70
     1
102
RTVSPropertyOp1
 70
     1
102
RTVSPropertyOp2
 70
     1
102
RTVSPropertyOp3
 70
     1
102
RTVSPropertyOp4
 70
     1
102
RTVSPropertyOp5
 70
     1
102
RTVSPropertyOp6
 70
     1
102
RTVSPropertyOp7
 70
     1
102
RTVSPropertyOp8
 70
     1
102
RTVSPropertyOp9
 70
     1
102
RTVSPropertyOp10
 70
     1
102
RTVSPropertyOp11
 70
     1
102
RTVSPropertyOp12
 70
     1
102
RTVSPropertyOp13
 70
     1
102
RTVSPropertyOp14
 70
     1
102
RTVSPropertyOp15
 70
     1
102
RTVSPropertyOp16
 70
     1
102
RTVSPropertyOp17
 70
     1
102
RTVSPropertyOp18
 70
     1
102
RTVSPropertyOp19
 70
     1
102
RTVSPropertyOp20
 70
     1
102
RTVSPropertyOp21
 70
     1
102
RTVSPropertyOp22
 70
     1
102
RTVSPropertyOp23
 70
     1
102
RTVSPropertyOp24
 70
     1
102
RTVSPropertyOp25
 70
     1
102
RTVSPropertyOp26
 70
     1
102
RTVSPropertyOp27
 70
     1
102
RTVSPropertyOp28
 70
     1
102
RTVSPropertyOp29
 70
     1
102
RTVSPropertyOp30
 70
     1
102
RTVSPropertyOp31
 70
     1
102
RTVSPropertyOp32
 70
     1
102
RTVSPropertyOp33
 70
     1
102
RTVSPropertyOp34
 70
     1
102
RTVSPropertyOp35
 70
     1
102
RTVSPropertyOp36
 70
     1
102
RTVSPropertyOp37
 70
     1
102
RTVSPropertyOp38
 70
     1
102
RTVSPropertyOp39
 70
     1
102
RTVSPropertyOp40
 70
     1
102
RTVSPropertyOp41
 70
     1
102
RTVSPropertyOp42
 70
     1
102
RTVSPropertyOp43
 70
     1
102
RTVSPropertyOp44
 70
     1
102
RTVSPropertyOp45
 70
     1
102
RTVSPropertyOp46
 70
     1
102
RTVSPropertyOp47
 70
     1
102
RTVSPropertyOp48
 70
     1
102
RTVSPropertyOp49
 70
     1
102
RTVSPropertyOp50
 70
     1
102
RTVSPropertyOp51
 70
     0
102
RTVSPropertyOp52
 70
     0
102
RTVSPropertyOp53
 70
     1
102
RTVSPropertyOp54
 70
     1
102
RTVSPropertyOp55
 70
     1
102
RTVSPropertyOp56
 70
     1
102
RTVSPropertyOp57
 70
     1
102
RTVSPropertyOp58
 70
     1
102
RTVSPropertyOp59
 70
     1
102
RTVSPropertyOp60
 70
     1
102
RTVSPropertyOp61
 70
     1
102
RTVSPropertyOp62
 70
     1
  0
XRECORD
  5
3EC8
102
{ACAD_REACTORS
330
3EC7
102
}
330
3EC7
100
AcDbXrecord
280
     1
102
RTVSPost2010Prop28
280
     0
102
RTVSPost2010PropOp28
 70
     1
102
RTVSPost2010Prop29
280
     1
102
RTVSPost2010PropOp29
 70
     1
102
RTVSPost2010Prop30
280
     1
102
RTVSPost2010PropOp30
 70
     1
102
RTVSPost2010Prop31
280
     0
102
RTVSPost2010PropOp31
 70
     1
102
RTVSPost2010Prop32
280
     0
102
RTVSPost2010PropOp32
 70
     1
102
RTVSPost2010Prop33
280
     0
102
RTVSPost2010PropOp33
 70
     1
102
RTVSPost2010Prop34
280
     0
102
RTVSPost2010PropOp34
 70
     1
102
RTVSPost2010Prop35
280
     0
102
RTVSPost2010PropOp35
 70
     1
102
RTVSPost2010Prop36
280
     0
102
RTVSPost2010PropOp36
 70
     1
102
RTVSPost2010Prop37
 90
       50
102
RTVSPost2010PropOp37
 70
     1
102
RTVSPost2010Prop38
140
0.0
102
RTVSPost2010PropOp38
 70
     1
102
RTVSPost2010Prop39
140
1.0
102
RTVSPost2010PropOp39
 70
     1
102
RTVSPost2010Prop40
 90
        0
102
RTVSPost2010PropOp40
 70
     1
102
RTVSPost2010Prop41ColorIndex
 90
       18
102
RTVSPost2010Prop41ColorRGB
 90
        0
102
RTVSPost2010PropOp41
 70
     1
102
RTVSPost2010Prop42
 90
       50
102
RTVSPost2010PropOp42
 70
     1
102
RTVSPost2010Prop43
 90
        3
102
RTVSPost2010PropOp43
 70
     1
102
RTVSPost2010Prop44ColorIndex
 90
        5
102
RTVSPost2010Prop44ColorRGB
 90
      255
102
RTVSPost2010PropOp44
 70
     1
102
RTVSPost2010Prop45
280
     0
102
RTVSPost2010PropOp45
 70
     1
102
RTVSPost2010Prop46
 90
       50
102
RTVSPost2010PropOp46
 70
     1
102
RTVSPost2010Prop47
 90
       50
102
RTVSPost2010PropOp47
 70
     1
102
RTVSPost2010Prop48
 90
       50
102
RTVSPost2010PropOp48
 70
     1
102
RTVSPost2010Prop49
280
     0
102
RTVSPost2010PropOp49
 70
     1
102
RTVSPost2010Prop50
 90
       50
102
RTVSPost2010PropOp50
 70
     1
102
RTVSPost2010Prop51ColorIndex
 90
      256
102
RTVSPost2010Prop51ColorRGB
 90
-16777216
102
RTVSPost2010PropOp51
 70
     0
102
RTVSPost2010Prop52
140
1.0
102
RTVSPost2010PropOp52
 70
     0
102
RTVSPost2010Prop53
 90
        2
102
RTVSPost2010PropOp53
 70
     1
102
RTVSPost2010Prop54
  1
strokes_ogs.tif
102
RTVSPost2010PropOp54
 70
     1
102
RTVSPost2010Prop55
280
     0
102
RTVSPost2010PropOp55
 70
     1
102
RTVSPost2010Prop56
140
1.0
102
RTVSPost2010PropOp56
 70
     1
102
RTVSPost2010Prop57
140
1.0
102
RTVSPost2010PropOp57
 70
     1
102
RTVSPropertyOp0
 70
     1
102
RTVSPropertyOp1
 70
     1
102
RTVSPropertyOp2
 70
     1
102
RTVSPropertyOp3
 70
     1
102
RTVSPropertyOp4
 70
     1
102
RTVSPropertyOp5
 70
     1
102
RTVSPropertyOp6
 70
     1
102
RTVSPropertyOp7
 70
     1
102
RTVSPropertyOp8
 70
     1
102
RTVSPropertyOp9
 70
     1
102
RTVSPropertyOp10
 70
     1
102
RTVSPropertyOp11
 70
     1
102
RTVSPropertyOp12
 70
     1
102
RTVSPropertyOp13
 70
     1
102
RTVSPropertyOp14
 70
     1
102
RTVSPropertyOp15
 70
     1
102
RTVSPropertyOp16
 70
     1
102
RTVSPropertyOp17
 70
     1
102
RTVSPropertyOp18
 70
     1
102
RTVSPropertyOp19
 70
     1
102
RTVSPropertyOp20
 70
     1
102
RTVSPropertyOp21
 70
     1
102
RTVSPropertyOp22
 70
     1
102
RTVSPropertyOp23
 70
     1
102
RTVSPropertyOp24
 70
     1
102
RTVSPropertyOp25
 70
     1
102
RTVSPropertyOp26
 70
     1
102
RTVSPropertyOp27
 70
     1
102
RTVSPropertyOp28
 70
     1
102
RTVSPropertyOp29
 70
     1
102
RTVSPropertyOp30
 70
     1
102
RTVSPropertyOp31
 70
     1
102
RTVSPropertyOp32
 70
     1
102
RTVSPropertyOp33
 70
     1
102
RTVSPropertyOp34
 70
     1
102
RTVSPropertyOp35
 70
     1
102
RTVSPropertyOp36
 70
     1
102
RTVSPropertyOp37
 70
     1
102
RTVSPropertyOp38
 70
     1
102
RTVSPropertyOp39
 70
     1
102
RTVSPropertyOp40
 70
     1
102
RTVSPropertyOp41
 70
     1
102
RTVSPropertyOp42
 70
     1
102
RTVSPropertyOp43
 70
     1
102
RTVSPropertyOp44
 70
     1
102
RTVSPropertyOp45
 70
     1
102
RTVSPropertyOp46
 70
     1
102
RTVSPropertyOp47
 70
     1
102
RTVSPropertyOp48
 70
     1
102
RTVSPropertyOp49
 70
     1
102
RTVSPropertyOp50
 70
     1
102
RTVSPropertyOp51
 70
     0
102
RTVSPropertyOp52
 70
     0
102
RTVSPropertyOp53
 70
     1
102
RTVSPropertyOp54
 70
     1
102
RTVSPropertyOp55
 70
     1
102
RTVSPropertyOp56
 70
     1
102
RTVSPropertyOp57
 70
     1
102
RTVSPropertyOp58
 70
     1
102
RTVSPropertyOp59
 70
     1
102
RTVSPropertyOp60
 70
     1
102
RTVSPropertyOp61
 70
     1
102
RTVSPropertyOp62
 70
     1
  0
XRECORD
  5
3ECA
102
{ACAD_REACTORS
330
3EC9
102
}
330
3EC9
100
AcDbXrecord
280
     1
102
RTVSPost2010Prop28
280
     0
102
RTVSPost2010PropOp28
 70
     1
102
RTVSPost2010Prop29
280
     1
102
RTVSPost2010PropOp29
 70
     1
102
RTVSPost2010Prop30
280
     1
102
RTVSPost2010PropOp30
 70
     1
102
RTVSPost2010Prop31
280
     0
102
RTVSPost2010PropOp31
 70
     1
102
RTVSPost2010Prop32
280
     0
102
RTVSPost2010PropOp32
 70
     1
102
RTVSPost2010Prop33
280
     0
102
RTVSPost2010PropOp33
 70
     1
102
RTVSPost2010Prop34
280
     0
102
RTVSPost2010PropOp34
 70
     1
102
RTVSPost2010Prop35
280
     0
102
RTVSPost2010PropOp35
 70
     1
102
RTVSPost2010Prop36
280
     0
102
RTVSPost2010PropOp36
 70
     1
102
RTVSPost2010Prop37
 90
       50
102
RTVSPost2010PropOp37
 70
     1
102
RTVSPost2010Prop38
140
0.0
102
RTVSPost2010PropOp38
 70
     1
102
RTVSPost2010Prop39
140
1.0
102
RTVSPost2010PropOp39
 70
     1
102
RTVSPost2010Prop40
 90
        0
102
RTVSPost2010PropOp40
 70
     1
102
RTVSPost2010Prop41ColorIndex
 90
       18
102
RTVSPost2010Prop41ColorRGB
 90
        0
102
RTVSPost2010PropOp41
 70
     1
102
RTVSPost2010Prop42
 90
       50
102
RTVSPost2010PropOp42
 70
     1
102
RTVSPost2010Prop43
 90
        3
102
RTVSPost2010PropOp43
 70
     1
102
RTVSPost2010Prop44ColorIndex
 90
        5
102
RTVSPost2010Prop44ColorRGB
 90
      255
102
RTVSPost2010PropOp44
 70
     1
102
RTVSPost2010Prop45
280
     0
102
RTVSPost2010PropOp45
 70
     1
102
RTVSPost2010Prop46
 90
       50
102
RTVSPost2010PropOp46
 70
     1
102
RTVSPost2010Prop47
 90
       50
102
RTVSPost2010PropOp47
 70
     1
102
RTVSPost2010Prop48
 90
       50
102
RTVSPost2010PropOp48
 70
     1
102
RTVSPost2010Prop49
280
     0
102
RTVSPost2010PropOp49
 70
     1
102
RTVSPost2010Prop50
 90
       50
102
RTVSPost2010PropOp50
 70
     1
102
RTVSPost2010Prop51ColorIndex
 90
      256
102
RTVSPost2010Prop51ColorRGB
 90
-16777216
102
RTVSPost2010PropOp51
 70
     0
102
RTVSPost2010Prop52
140
1.0
102
RTVSPost2010PropOp52
 70
     0
102
RTVSPost2010Prop53
 90
        2
102
RTVSPost2010PropOp53
 70
     1
102
RTVSPost2010Prop54
  1
strokes_ogs.tif
102
RTVSPost2010PropOp54
 70
     1
102
RTVSPost2010Prop55
280
     0
102
RTVSPost2010PropOp55
 70
     1
102
RTVSPost2010Prop56
140
1.0
102
RTVSPost2010PropOp56
 70
     1
102
RTVSPost2010Prop57
140
1.0
102
RTVSPost2010PropOp57
 70
     1
102
RTVSPropertyOp0
 70
     1
102
RTVSPropertyOp1
 70
     1
102
RTVSPropertyOp2
 70
     1
102
RTVSPropertyOp3
 70
     1
102
RTVSPropertyOp4
 70
     1
102
RTVSPropertyOp5
 70
     1
102
RTVSPropertyOp6
 70
     1
102
RTVSPropertyOp7
 70
     1
102
RTVSPropertyOp8
 70
     1
102
RTVSPropertyOp9
 70
     1
102
RTVSPropertyOp10
 70
     1
102
RTVSPropertyOp11
 70
     1
102
RTVSPropertyOp12
 70
     1
102
RTVSPropertyOp13
 70
     1
102
RTVSPropertyOp14
 70
     1
102
RTVSPropertyOp15
 70
     1
102
RTVSPropertyOp16
 70
     1
102
RTVSPropertyOp17
 70
     1
102
RTVSPropertyOp18
 70
     1
102
RTVSPropertyOp19
 70
     1
102
RTVSPropertyOp20
 70
     1
102
RTVSPropertyOp21
 70
     1
102
RTVSPropertyOp22
 70
     1
102
RTVSPropertyOp23
 70
     1
102
RTVSPropertyOp24
 70
     1
102
RTVSPropertyOp25
 70
     1
102
RTVSPropertyOp26
 70
     1
102
RTVSPropertyOp27
 70
     1
102
RTVSPropertyOp28
 70
     1
102
RTVSPropertyOp29
 70
     1
102
RTVSPropertyOp30
 70
     1
102
RTVSPropertyOp31
 70
     1
102
RTVSPropertyOp32
 70
     1
102
RTVSPropertyOp33
 70
     1
102
RTVSPropertyOp34
 70
     1
102
RTVSPropertyOp35
 70
     1
102
RTVSPropertyOp36
 70
     1
102
RTVSPropertyOp37
 70
     1
102
RTVSPropertyOp38
 70
     1
102
RTVSPropertyOp39
 70
     1
102
RTVSPropertyOp40
 70
     1
102
RTVSPropertyOp41
 70
     1
102
RTVSPropertyOp42
 70
     1
102
RTVSPropertyOp43
 70
     1
102
RTVSPropertyOp44
 70
     1
102
RTVSPropertyOp45
 70
     1
102
RTVSPropertyOp46
 70
     1
102
RTVSPropertyOp47
 70
     1
102
RTVSPropertyOp48
 70
     1
102
RTVSPropertyOp49
 70
     1
102
RTVSPropertyOp50
 70
     1
102
RTVSPropertyOp51
 70
     0
102
RTVSPropertyOp52
 70
     0
102
RTVSPropertyOp53
 70
     1
102
RTVSPropertyOp54
 70
     1
102
RTVSPropertyOp55
 70
     1
102
RTVSPropertyOp56
 70
     1
102
RTVSPropertyOp57
 70
     1
102
RTVSPropertyOp58
 70
     1
102
RTVSPropertyOp59
 70
     1
102
RTVSPropertyOp60
 70
     1
102
RTVSPropertyOp61
 70
     1
102
RTVSPropertyOp62
 70
     1
  0
XRECORD
  5
3ECC
102
{ACAD_REACTORS
330
3ECB
102
}
330
3ECB
100
AcDbXrecord
280
     1
102
RTVSPost2010Prop28
280
     0
102
RTVSPost2010PropOp28
 70
     1
102
RTVSPost2010Prop29
280
     1
102
RTVSPost2010PropOp29
 70
     1
102
RTVSPost2010Prop30
280
     1
102
RTVSPost2010PropOp30
 70
     1
102
RTVSPost2010Prop31
280
     0
102
RTVSPost2010PropOp31
 70
     1
102
RTVSPost2010Prop32
280
     0
102
RTVSPost2010PropOp32
 70
     1
102
RTVSPost2010Prop33
280
     0
102
RTVSPost2010PropOp33
 70
     1
102
RTVSPost2010Prop34
280
     0
102
RTVSPost2010PropOp34
 70
     1
102
RTVSPost2010Prop35
280
     0
102
RTVSPost2010PropOp35
 70
     1
102
RTVSPost2010Prop36
280
     0
102
RTVSPost2010PropOp36
 70
     1
102
RTVSPost2010Prop37
 90
       50
102
RTVSPost2010PropOp37
 70
     1
102
RTVSPost2010Prop38
140
0.0
102
RTVSPost2010PropOp38
 70
     1
102
RTVSPost2010Prop39
140
1.0
102
RTVSPost2010PropOp39
 70
     1
102
RTVSPost2010Prop40
 90
        0
102
RTVSPost2010PropOp40
 70
     1
102
RTVSPost2010Prop41ColorIndex
 90
       18
102
RTVSPost2010Prop41ColorRGB
 90
        0
102
RTVSPost2010PropOp41
 70
     1
102
RTVSPost2010Prop42
 90
       50
102
RTVSPost2010PropOp42
 70
     1
102
RTVSPost2010Prop43
 90
        3
102
RTVSPost2010PropOp43
 70
     1
102
RTVSPost2010Prop44ColorIndex
 90
        5
102
RTVSPost2010Prop44ColorRGB
 90
      255
102
RTVSPost2010PropOp44
 70
     1
102
RTVSPost2010Prop45
280
     0
102
RTVSPost2010PropOp45
 70
     1
102
RTVSPost2010Prop46
 90
       50
102
RTVSPost2010PropOp46
 70
     1
102
RTVSPost2010Prop47
 90
       50
102
RTVSPost2010PropOp47
 70
     1
102
RTVSPost2010Prop48
 90
       50
102
RTVSPost2010PropOp48
 70
     1
102
RTVSPost2010Prop49
280
     0
102
RTVSPost2010PropOp49
 70
     1
102
RTVSPost2010Prop50
 90
       50
102
RTVSPost2010PropOp50
 70
     1
102
RTVSPost2010Prop51ColorIndex
 90
      256
102
RTVSPost2010Prop51ColorRGB
 90
-16777216
102
RTVSPost2010PropOp51
 70
     0
102
RTVSPost2010Prop52
140
1.0
102
RTVSPost2010PropOp52
 70
     0
102
RTVSPost2010Prop53
 90
        2
102
RTVSPost2010PropOp53
 70
     1
102
RTVSPost2010Prop54
  1
strokes_ogs.tif
102
RTVSPost2010PropOp54
 70
     1
102
RTVSPost2010Prop55
280
     0
102
RTVSPost2010PropOp55
 70
     1
102
RTVSPost2010Prop56
140
1.0
102
RTVSPost2010PropOp56
 70
     1
102
RTVSPost2010Prop57
140
1.0
102
RTVSPost2010PropOp57
 70
     1
102
RTVSPropertyOp0
 70
     1
102
RTVSPropertyOp1
 70
     1
102
RTVSPropertyOp2
 70
     1
102
RTVSPropertyOp3
 70
     1
102
RTVSPropertyOp4
 70
     1
102
RTVSPropertyOp5
 70
     1
102
RTVSPropertyOp6
 70
     1
102
RTVSPropertyOp7
 70
     1
102
RTVSPropertyOp8
 70
     1
102
RTVSPropertyOp9
 70
     1
102
RTVSPropertyOp10
 70
     1
102
RTVSPropertyOp11
 70
     1
102
RTVSPropertyOp12
 70
     1
102
RTVSPropertyOp13
 70
     1
102
RTVSPropertyOp14
 70
     1
102
RTVSPropertyOp15
 70
     1
102
RTVSPropertyOp16
 70
     1
102
RTVSPropertyOp17
 70
     1
102
RTVSPropertyOp18
 70
     1
102
RTVSPropertyOp19
 70
     1
102
RTVSPropertyOp20
 70
     1
102
RTVSPropertyOp21
 70
     1
102
RTVSPropertyOp22
 70
     1
102
RTVSPropertyOp23
 70
     1
102
RTVSPropertyOp24
 70
     1
102
RTVSPropertyOp25
 70
     1
102
RTVSPropertyOp26
 70
     1
102
RTVSPropertyOp27
 70
     1
102
RTVSPropertyOp28
 70
     1
102
RTVSPropertyOp29
 70
     1
102
RTVSPropertyOp30
 70
     1
102
RTVSPropertyOp31
 70
     1
102
RTVSPropertyOp32
 70
     1
102
RTVSPropertyOp33
 70
     1
102
RTVSPropertyOp34
 70
     1
102
RTVSPropertyOp35
 70
     1
102
RTVSPropertyOp36
 70
     1
102
RTVSPropertyOp37
 70
     1
102
RTVSPropertyOp38
 70
     1
102
RTVSPropertyOp39
 70
     1
102
RTVSPropertyOp40
 70
     1
102
RTVSPropertyOp41
 70
     1
102
RTVSPropertyOp42
 70
     1
102
RTVSPropertyOp43
 70
     1
102
RTVSPropertyOp44
 70
     1
102
RTVSPropertyOp45
 70
     1
102
RTVSPropertyOp46
 70
     1
102
RTVSPropertyOp47
 70
     1
102
RTVSPropertyOp48
 70
     1
102
RTVSPropertyOp49
 70
     1
102
RTVSPropertyOp50
 70
     1
102
RTVSPropertyOp51
 70
     0
102
RTVSPropertyOp52
 70
     0
102
RTVSPropertyOp53
 70
     1
102
RTVSPropertyOp54
 70
     1
102
RTVSPropertyOp55
 70
     1
102
RTVSPropertyOp56
 70
     1
102
RTVSPropertyOp57
 70
     1
102
RTVSPropertyOp58
 70
     1
102
RTVSPropertyOp59
 70
     1
102
RTVSPropertyOp60
 70
     1
102
RTVSPropertyOp61
 70
     1
102
RTVSPropertyOp62
 70
     1
  0
XRECORD
  5
3ED4
102
{ACAD_REACTORS
330
3ED3
102
}
330
3ED3
100
AcDbXrecord
280
     1
102
RTVSPost2010Prop28
280
     0
102
RTVSPost2010PropOp28
 70
     1
102
RTVSPost2010Prop29
280
     1
102
RTVSPost2010PropOp29
 70
     1
102
RTVSPost2010Prop30
280
     1
102
RTVSPost2010PropOp30
 70
     1
102
RTVSPost2010Prop31
280
     0
102
RTVSPost2010PropOp31
 70
     1
102
RTVSPost2010Prop32
280
     0
102
RTVSPost2010PropOp32
 70
     1
102
RTVSPost2010Prop33
280
     0
102
RTVSPost2010PropOp33
 70
     1
102
RTVSPost2010Prop34
280
     0
102
RTVSPost2010PropOp34
 70
     1
102
RTVSPost2010Prop35
280
     0
102
RTVSPost2010PropOp35
 70
     1
102
RTVSPost2010Prop36
280
     0
102
RTVSPost2010PropOp36
 70
     1
102
RTVSPost2010Prop37
 90
       50
102
RTVSPost2010PropOp37
 70
     1
102
RTVSPost2010Prop38
140
0.0
102
RTVSPost2010PropOp38
 70
     1
102
RTVSPost2010Prop39
140
1.0
102
RTVSPost2010PropOp39
 70
     1
102
RTVSPost2010Prop40
 90
        0
102
RTVSPost2010PropOp40
 70
     1
102
RTVSPost2010Prop41ColorIndex
 90
       18
102
RTVSPost2010Prop41ColorRGB
 90
        0
102
RTVSPost2010PropOp41
 70
     1
102
RTVSPost2010Prop42
 90
       50
102
RTVSPost2010PropOp42
 70
     1
102
RTVSPost2010Prop43
 90
        3
102
RTVSPost2010PropOp43
 70
     1
102
RTVSPost2010Prop44ColorIndex
 90
        5
102
RTVSPost2010Prop44ColorRGB
 90
      255
102
RTVSPost2010PropOp44
 70
     1
102
RTVSPost2010Prop45
280
     0
102
RTVSPost2010PropOp45
 70
     1
102
RTVSPost2010Prop46
 90
       50
102
RTVSPost2010PropOp46
 70
     1
102
RTVSPost2010Prop47
 90
       50
102
RTVSPost2010PropOp47
 70
     1
102
RTVSPost2010Prop48
 90
       50
102
RTVSPost2010PropOp48
 70
     1
102
RTVSPost2010Prop49
280
     0
102
RTVSPost2010PropOp49
 70
     1
102
RTVSPost2010Prop50
 90
       50
102
RTVSPost2010PropOp50
 70
     1
102
RTVSPost2010Prop51ColorIndex
 90
      256
102
RTVSPost2010Prop51ColorRGB
 90
-16777216
102
RTVSPost2010PropOp51
 70
     0
102
RTVSPost2010Prop52
140
1.0
102
RTVSPost2010PropOp52
 70
     0
102
RTVSPost2010Prop53
 90
        2
102
RTVSPost2010PropOp53
 70
     1
102
RTVSPost2010Prop54
  1
strokes_ogs.tif
102
RTVSPost2010PropOp54
 70
     1
102
RTVSPost2010Prop55
280
     0
102
RTVSPost2010PropOp55
 70
     1
102
RTVSPost2010Prop56
140
1.0
102
RTVSPost2010PropOp56
 70
     1
102
RTVSPost2010Prop57
140
1.0
102
RTVSPost2010PropOp57
 70
     1
102
RTVSPropertyOp0
 70
     1
102
RTVSPropertyOp1
 70
     1
102
RTVSPropertyOp2
 70
     1
102
RTVSPropertyOp3
 70
     1
102
RTVSPropertyOp4
 70
     1
102
RTVSPropertyOp5
 70
     1
102
RTVSPropertyOp6
 70
     1
102
RTVSPropertyOp7
 70
     1
102
RTVSPropertyOp8
 70
     1
102
RTVSPropertyOp9
 70
     1
102
RTVSPropertyOp10
 70
     1
102
RTVSPropertyOp11
 70
     1
102
RTVSPropertyOp12
 70
     1
102
RTVSPropertyOp13
 70
     1
102
RTVSPropertyOp14
 70
     1
102
RTVSPropertyOp15
 70
     1
102
RTVSPropertyOp16
 70
     1
102
RTVSPropertyOp17
 70
     1
102
RTVSPropertyOp18
 70
     1
102
RTVSPropertyOp19
 70
     1
102
RTVSPropertyOp20
 70
     1
102
RTVSPropertyOp21
 70
     1
102
RTVSPropertyOp22
 70
     1
102
RTVSPropertyOp23
 70
     1
102
RTVSPropertyOp24
 70
     1
102
RTVSPropertyOp25
 70
     1
102
RTVSPropertyOp26
 70
     1
102
RTVSPropertyOp27
 70
     1
102
RTVSPropertyOp28
 70
     1
102
RTVSPropertyOp29
 70
     1
102
RTVSPropertyOp30
 70
     1
102
RTVSPropertyOp31
 70
     1
102
RTVSPropertyOp32
 70
     1
102
RTVSPropertyOp33
 70
     1
102
RTVSPropertyOp34
 70
     1
102
RTVSPropertyOp35
 70
     1
102
RTVSPropertyOp36
 70
     1
102
RTVSPropertyOp37
 70
     1
102
RTVSPropertyOp38
 70
     1
102
RTVSPropertyOp39
 70
     1
102
RTVSPropertyOp40
 70
     1
102
RTVSPropertyOp41
 70
     1
102
RTVSPropertyOp42
 70
     1
102
RTVSPropertyOp43
 70
     1
102
RTVSPropertyOp44
 70
     1
102
RTVSPropertyOp45
 70
     1
102
RTVSPropertyOp46
 70
     1
102
RTVSPropertyOp47
 70
     1
102
RTVSPropertyOp48
 70
     1
102
RTVSPropertyOp49
 70
     1
102
RTVSPropertyOp50
 70
     1
102
RTVSPropertyOp51
 70
     0
102
RTVSPropertyOp52
 70
     0
102
RTVSPropertyOp53
 70
     1
102
RTVSPropertyOp54
 70
     1
102
RTVSPropertyOp55
 70
     1
102
RTVSPropertyOp56
 70
     1
102
RTVSPropertyOp57
 70
     1
102
RTVSPropertyOp58
 70
     1
102
RTVSPropertyOp59
 70
     1
102
RTVSPropertyOp60
 70
     1
102
RTVSPropertyOp61
 70
     1
102
RTVSPropertyOp62
 70
     1
  0
XRECORD
  5
3EF0
102
{ACAD_REACTORS
330
3EEF
102
}
330
3EEF
100
AcDbXrecord
280
     1
102
RTVSPost2010Prop28
280
     0
102
RTVSPost2010PropOp28
 70
     1
102
RTVSPost2010Prop29
280
     1
102
RTVSPost2010PropOp29
 70
     1
102
RTVSPost2010Prop30
280
     1
102
RTVSPost2010PropOp30
 70
     1
102
RTVSPost2010Prop31
280
     0
102
RTVSPost2010PropOp31
 70
     1
102
RTVSPost2010Prop32
280
     0
102
RTVSPost2010PropOp32
 70
     1
102
RTVSPost2010Prop33
280
     0
102
RTVSPost2010PropOp33
 70
     1
102
RTVSPost2010Prop34
280
     0
102
RTVSPost2010PropOp34
 70
     1
102
RTVSPost2010Prop35
280
     0
102
RTVSPost2010PropOp35
 70
     1
102
RTVSPost2010Prop36
280
     0
102
RTVSPost2010PropOp36
 70
     1
102
RTVSPost2010Prop37
 90
       50
102
RTVSPost2010PropOp37
 70
     0
102
RTVSPost2010Prop38
140
0.0
102
RTVSPost2010PropOp38
 70
     0
102
RTVSPost2010Prop39
140
1.0
102
RTVSPost2010PropOp39
 70
     0
102
RTVSPost2010Prop40
 90
        0
102
RTVSPost2010PropOp40
 70
     0
102
RTVSPost2010Prop41ColorIndex
 90
       18
102
RTVSPost2010Prop41ColorRGB
 90
        0
102
RTVSPost2010PropOp41
 70
     0
102
RTVSPost2010Prop42
 90
       50
102
RTVSPost2010PropOp42
 70
     0
102
RTVSPost2010Prop43
 90
        3
102
RTVSPost2010PropOp43
 70
     0
102
RTVSPost2010Prop44ColorIndex
 90
        5
102
RTVSPost2010Prop44ColorRGB
 90
      255
102
RTVSPost2010PropOp44
 70
     0
102
RTVSPost2010Prop45
280
     0
102
RTVSPost2010PropOp45
 70
     1
102
RTVSPost2010Prop46
 90
       50
102
RTVSPost2010PropOp46
 70
     0
102
RTVSPost2010Prop47
 90
       50
102
RTVSPost2010PropOp47
 70
     0
102
RTVSPost2010Prop48
 90
       50
102
RTVSPost2010PropOp48
 70
     0
102
RTVSPost2010Prop49
280
     0
102
RTVSPost2010PropOp49
 70
     1
102
RTVSPost2010Prop50
 90
       50
102
RTVSPost2010PropOp50
 70
     0
102
RTVSPost2010Prop51ColorIndex
 90
      256
102
RTVSPost2010Prop51ColorRGB
 90
-16777216
102
RTVSPost2010PropOp51
 70
     0
102
RTVSPost2010Prop52
140
1.0
102
RTVSPost2010PropOp52
 70
     0
102
RTVSPost2010Prop53
 90
        2
102
RTVSPost2010PropOp53
 70
     0
102
RTVSPost2010Prop54
  1
strokes_ogs.tif
102
RTVSPost2010PropOp54
 70
     0
102
RTVSPost2010Prop55
280
     0
102
RTVSPost2010PropOp55
 70
     1
102
RTVSPost2010Prop56
140
1.0
102
RTVSPost2010PropOp56
 70
     0
102
RTVSPost2010Prop57
140
1.0
102
RTVSPost2010PropOp57
 70
     0
102
RTVSPropertyOp0
 70
     0
102
RTVSPropertyOp1
 70
     0
102
RTVSPropertyOp2
 70
     0
102
RTVSPropertyOp3
 70
     0
102
RTVSPropertyOp4
 70
     0
102
RTVSPropertyOp5
 70
     0
102
RTVSPropertyOp6
 70
     0
102
RTVSPropertyOp7
 70
     0
102
RTVSPropertyOp8
 70
     0
102
RTVSPropertyOp9
 70
     0
102
RTVSPropertyOp10
 70
     0
102
RTVSPropertyOp11
 70
     0
102
RTVSPropertyOp12
 70
     0
102
RTVSPropertyOp13
 70
     0
102
RTVSPropertyOp14
 70
     2
102
RTVSPropertyOp15
 70
     0
102
RTVSPropertyOp16
 70
     0
102
RTVSPropertyOp17
 70
     0
102
RTVSPropertyOp18
 70
     0
102
RTVSPropertyOp19
 70
     0
102
RTVSPropertyOp20
 70
     0
102
RTVSPropertyOp21
 70
     0
102
RTVSPropertyOp22
 70
     0
102
RTVSPropertyOp23
 70
     0
102
RTVSPropertyOp24
 70
     0
102
RTVSPropertyOp25
 70
     0
102
RTVSPropertyOp26
 70
     0
102
RTVSPropertyOp27
 70
     0
102
RTVSPropertyOp28
 70
     1
102
RTVSPropertyOp29
 70
     1
102
RTVSPropertyOp30
 70
     1
102
RTVSPropertyOp31
 70
     1
102
RTVSPropertyOp32
 70
     1
102
RTVSPropertyOp33
 70
     1
102
RTVSPropertyOp34
 70
     1
102
RTVSPropertyOp35
 70
     1
102
RTVSPropertyOp36
 70
     1
102
RTVSPropertyOp37
 70
     0
102
RTVSPropertyOp38
 70
     0
102
RTVSPropertyOp39
 70
     0
102
RTVSPropertyOp40
 70
     0
102
RTVSPropertyOp41
 70
     0
102
RTVSPropertyOp42
 70
     0
102
RTVSPropertyOp43
 70
     0
102
RTVSPropertyOp44
 70
     0
102
RTVSPropertyOp45
 70
     1
102
RTVSPropertyOp46
 70
     0
102
RTVSPropertyOp47
 70
     0
102
RTVSPropertyOp48
 70
     0
102
RTVSPropertyOp49
 70
     1
102
RTVSPropertyOp50
 70
     0
102
RTVSPropertyOp51
 70
     0
102
RTVSPropertyOp52
 70
     0
102
RTVSPropertyOp53
 70
     0
102
RTVSPropertyOp54
 70
     0
102
RTVSPropertyOp55
 70
     1
102
RTVSPropertyOp56
 70
     0
102
RTVSPropertyOp57
 70
     0
102
RTVSPropertyOp58
 70
     0
102
RTVSPropertyOp59
 70
     0
102
RTVSPropertyOp60
 70
     0
102
RTVSPropertyOp61
 70
     0
102
RTVSPropertyOp62
 70
     0
  0
XRECORD
  5
3EE0
102
{ACAD_REACTORS
330
3EDF
102
}
330
3EDF
100
AcDbXrecord
280
     1
102
RTVSPost2010Prop28
280
     0
102
RTVSPost2010PropOp28
 70
     1
102
RTVSPost2010Prop29
280
     1
102
RTVSPost2010PropOp29
 70
     1
102
RTVSPost2010Prop30
280
     1
102
RTVSPost2010PropOp30
 70
     1
102
RTVSPost2010Prop31
280
     0
102
RTVSPost2010PropOp31
 70
     1
102
RTVSPost2010Prop32
280
     0
102
RTVSPost2010PropOp32
 70
     1
102
RTVSPost2010Prop33
280
     0
102
RTVSPost2010PropOp33
 70
     1
102
RTVSPost2010Prop34
280
     0
102
RTVSPost2010PropOp34
 70
     1
102
RTVSPost2010Prop35
280
     0
102
RTVSPost2010PropOp35
 70
     1
102
RTVSPost2010Prop36
280
     0
102
RTVSPost2010PropOp36
 70
     1
102
RTVSPost2010Prop37
 90
       50
102
RTVSPost2010PropOp37
 70
     1
102
RTVSPost2010Prop38
140
0.0
102
RTVSPost2010PropOp38
 70
     1
102
RTVSPost2010Prop39
140
1.0
102
RTVSPost2010PropOp39
 70
     1
102
RTVSPost2010Prop40
 90
        0
102
RTVSPost2010PropOp40
 70
     1
102
RTVSPost2010Prop41ColorIndex
 90
       18
102
RTVSPost2010Prop41ColorRGB
 90
        0
102
RTVSPost2010PropOp41
 70
     1
102
RTVSPost2010Prop42
 90
       50
102
RTVSPost2010PropOp42
 70
     1
102
RTVSPost2010Prop43
 90
        3
102
RTVSPost2010PropOp43
 70
     1
102
RTVSPost2010Prop44ColorIndex
 90
        5
102
RTVSPost2010Prop44ColorRGB
 90
      255
102
RTVSPost2010PropOp44
 70
     1
102
RTVSPost2010Prop45
280
     0
102
RTVSPost2010PropOp45
 70
     1
102
RTVSPost2010Prop46
 90
       50
102
RTVSPost2010PropOp46
 70
     1
102
RTVSPost2010Prop47
 90
       50
102
RTVSPost2010PropOp47
 70
     1
102
RTVSPost2010Prop48
 90
       50
102
RTVSPost2010PropOp48
 70
     1
102
RTVSPost2010Prop49
280
     0
102
RTVSPost2010PropOp49
 70
     1
102
RTVSPost2010Prop50
 90
       50
102
RTVSPost2010PropOp50
 70
     1
102
RTVSPost2010Prop51ColorIndex
 90
      256
102
RTVSPost2010Prop51ColorRGB
 90
-16777216
102
RTVSPost2010PropOp51
 70
     0
102
RTVSPost2010Prop52
140
1.0
102
RTVSPost2010PropOp52
 70
     0
102
RTVSPost2010Prop53
 90
        2
102
RTVSPost2010PropOp53
 70
     1
102
RTVSPost2010Prop54
  1
strokes_ogs.tif
102
RTVSPost2010PropOp54
 70
     1
102
RTVSPost2010Prop55
280
     0
102
RTVSPost2010PropOp55
 70
     1
102
RTVSPost2010Prop56
140
1.0
102
RTVSPost2010PropOp56
 70
     1
102
RTVSPost2010Prop57
140
1.0
102
RTVSPost2010PropOp57
 70
     1
102
RTVSPropertyOp0
 70
     1
102
RTVSPropertyOp1
 70
     1
102
RTVSPropertyOp2
 70
     1
102
RTVSPropertyOp3
 70
     1
102
RTVSPropertyOp4
 70
     1
102
RTVSPropertyOp5
 70
     1
102
RTVSPropertyOp6
 70
     1
102
RTVSPropertyOp7
 70
     1
102
RTVSPropertyOp8
 70
     1
102
RTVSPropertyOp9
 70
     1
102
RTVSPropertyOp10
 70
     1
102
RTVSPropertyOp11
 70
     1
102
RTVSPropertyOp12
 70
     1
102
RTVSPropertyOp13
 70
     1
102
RTVSPropertyOp14
 70
     1
102
RTVSPropertyOp15
 70
     1
102
RTVSPropertyOp16
 70
     1
102
RTVSPropertyOp17
 70
     1
102
RTVSPropertyOp18
 70
     1
102
RTVSPropertyOp19
 70
     1
102
RTVSPropertyOp20
 70
     1
102
RTVSPropertyOp21
 70
     1
102
RTVSPropertyOp22
 70
     1
102
RTVSPropertyOp23
 70
     1
102
RTVSPropertyOp24
 70
     1
102
RTVSPropertyOp25
 70
     1
102
RTVSPropertyOp26
 70
     1
102
RTVSPropertyOp27
 70
     1
102
RTVSPropertyOp28
 70
     1
102
RTVSPropertyOp29
 70
     1
102
RTVSPropertyOp30
 70
     1
102
RTVSPropertyOp31
 70
     1
102
RTVSPropertyOp32
 70
     1
102
RTVSPropertyOp33
 70
     1
102
RTVSPropertyOp34
 70
     1
102
RTVSPropertyOp35
 70
     1
102
RTVSPropertyOp36
 70
     1
102
RTVSPropertyOp37
 70
     1
102
RTVSPropertyOp38
 70
     1
102
RTVSPropertyOp39
 70
     1
102
RTVSPropertyOp40
 70
     1
102
RTVSPropertyOp41
 70
     1
102
RTVSPropertyOp42
 70
     1
102
RTVSPropertyOp43
 70
     1
102
RTVSPropertyOp44
 70
     1
102
RTVSPropertyOp45
 70
     1
102
RTVSPropertyOp46
 70
     1
102
RTVSPropertyOp47
 70
     1
102
RTVSPropertyOp48
 70
     1
102
RTVSPropertyOp49
 70
     1
102
RTVSPropertyOp50
 70
     1
102
RTVSPropertyOp51
 70
     0
102
RTVSPropertyOp52
 70
     0
102
RTVSPropertyOp53
 70
     1
102
RTVSPropertyOp54
 70
     1
102
RTVSPropertyOp55
 70
     1
102
RTVSPropertyOp56
 70
     1
102
RTVSPropertyOp57
 70
     1
102
RTVSPropertyOp58
 70
     1
102
RTVSPropertyOp59
 70
     1
102
RTVSPropertyOp60
 70
     1
102
RTVSPropertyOp61
 70
     1
102
RTVSPropertyOp62
 70
     1
  0
XRECORD
  5
3EF2
102
{ACAD_REACTORS
330
3EF1
102
}
330
3EF1
100
AcDbXrecord
280
     1
102
RTVSPost2010Prop28
280
     0
102
RTVSPost2010PropOp28
 70
     1
102
RTVSPost2010Prop29
280
     1
102
RTVSPost2010PropOp29
 70
     1
102
RTVSPost2010Prop30
280
     1
102
RTVSPost2010PropOp30
 70
     1
102
RTVSPost2010Prop31
280
     0
102
RTVSPost2010PropOp31
 70
     1
102
RTVSPost2010Prop32
280
     0
102
RTVSPost2010PropOp32
 70
     1
102
RTVSPost2010Prop33
280
     0
102
RTVSPost2010PropOp33
 70
     1
102
RTVSPost2010Prop34
280
     0
102
RTVSPost2010PropOp34
 70
     1
102
RTVSPost2010Prop35
280
     0
102
RTVSPost2010PropOp35
 70
     1
102
RTVSPost2010Prop36
280
     0
102
RTVSPost2010PropOp36
 70
     1
102
RTVSPost2010Prop37
 90
       50
102
RTVSPost2010PropOp37
 70
     0
102
RTVSPost2010Prop38
140
0.0
102
RTVSPost2010PropOp38
 70
     0
102
RTVSPost2010Prop39
140
1.0
102
RTVSPost2010PropOp39
 70
     0
102
RTVSPost2010Prop40
 90
        0
102
RTVSPost2010PropOp40
 70
     0
102
RTVSPost2010Prop41ColorIndex
 90
       18
102
RTVSPost2010Prop41ColorRGB
 90
        0
102
RTVSPost2010PropOp41
 70
     0
102
RTVSPost2010Prop42
 90
       50
102
RTVSPost2010PropOp42
 70
     0
102
RTVSPost2010Prop43
 90
        3
102
RTVSPost2010PropOp43
 70
     0
102
RTVSPost2010Prop44ColorIndex
 90
        5
102
RTVSPost2010Prop44ColorRGB
 90
      255
102
RTVSPost2010PropOp44
 70
     0
102
RTVSPost2010Prop45
280
     0
102
RTVSPost2010PropOp45
 70
     1
102
RTVSPost2010Prop46
 90
       50
102
RTVSPost2010PropOp46
 70
     0
102
RTVSPost2010Prop47
 90
       50
102
RTVSPost2010PropOp47
 70
     0
102
RTVSPost2010Prop48
 90
       50
102
RTVSPost2010PropOp48
 70
     0
102
RTVSPost2010Prop49
280
     0
102
RTVSPost2010PropOp49
 70
     1
102
RTVSPost2010Prop50
 90
       50
102
RTVSPost2010PropOp50
 70
     0
102
RTVSPost2010Prop51ColorIndex
 90
      256
102
RTVSPost2010Prop51ColorRGB
 90
-16777216
102
RTVSPost2010PropOp51
 70
     0
102
RTVSPost2010Prop52
140
1.0
102
RTVSPost2010PropOp52
 70
     0
102
RTVSPost2010Prop53
 90
        2
102
RTVSPost2010PropOp53
 70
     0
102
RTVSPost2010Prop54
  1
strokes_ogs.tif
102
RTVSPost2010PropOp54
 70
     0
102
RTVSPost2010Prop55
280
     0
102
RTVSPost2010PropOp55
 70
     1
102
RTVSPost2010Prop56
140
1.0
102
RTVSPost2010PropOp56
 70
     0
102
RTVSPost2010Prop57
140
1.0
102
RTVSPost2010PropOp57
 70
     0
102
RTVSPropertyOp0
 70
     0
102
RTVSPropertyOp1
 70
     0
102
RTVSPropertyOp2
 70
     0
102
RTVSPropertyOp3
 70
     0
102
RTVSPropertyOp4
 70
     0
102
RTVSPropertyOp5
 70
     0
102
RTVSPropertyOp6
 70
     0
102
RTVSPropertyOp7
 70
     0
102
RTVSPropertyOp8
 70
     0
102
RTVSPropertyOp9
 70
     0
102
RTVSPropertyOp10
 70
     0
102
RTVSPropertyOp11
 70
     0
102
RTVSPropertyOp12
 70
     0
102
RTVSPropertyOp13
 70
     0
102
RTVSPropertyOp14
 70
     2
102
RTVSPropertyOp15
 70
     0
102
RTVSPropertyOp16
 70
     0
102
RTVSPropertyOp17
 70
     0
102
RTVSPropertyOp18
 70
     0
102
RTVSPropertyOp19
 70
     0
102
RTVSPropertyOp20
 70
     0
102
RTVSPropertyOp21
 70
     0
102
RTVSPropertyOp22
 70
     0
102
RTVSPropertyOp23
 70
     0
102
RTVSPropertyOp24
 70
     0
102
RTVSPropertyOp25
 70
     0
102
RTVSPropertyOp26
 70
     0
102
RTVSPropertyOp27
 70
     0
102
RTVSPropertyOp28
 70
     1
102
RTVSPropertyOp29
 70
     1
102
RTVSPropertyOp30
 70
     1
102
RTVSPropertyOp31
 70
     1
102
RTVSPropertyOp32
 70
     1
102
RTVSPropertyOp33
 70
     1
102
RTVSPropertyOp34
 70
     1
102
RTVSPropertyOp35
 70
     1
102
RTVSPropertyOp36
 70
     1
102
RTVSPropertyOp37
 70
     0
102
RTVSPropertyOp38
 70
     0
102
RTVSPropertyOp39
 70
     0
102
RTVSPropertyOp40
 70
     0
102
RTVSPropertyOp41
 70
     0
102
RTVSPropertyOp42
 70
     0
102
RTVSPropertyOp43
 70
     0
102
RTVSPropertyOp44
 70
     0
102
RTVSPropertyOp45
 70
     1
102
RTVSPropertyOp46
 70
     0
102
RTVSPropertyOp47
 70
     0
102
RTVSPropertyOp48
 70
     0
102
RTVSPropertyOp49
 70
     1
102
RTVSPropertyOp50
 70
     0
102
RTVSPropertyOp51
 70
     0
102
RTVSPropertyOp52
 70
     0
102
RTVSPropertyOp53
 70
     0
102
RTVSPropertyOp54
 70
     0
102
RTVSPropertyOp55
 70
     1
102
RTVSPropertyOp56
 70
     0
102
RTVSPropertyOp57
 70
     0
102
RTVSPropertyOp58
 70
     0
102
RTVSPropertyOp59
 70
     0
102
RTVSPropertyOp60
 70
     0
102
RTVSPropertyOp61
 70
     0
102
RTVSPropertyOp62
 70
     0
  0
XRECORD
  5
3ED8
102
{ACAD_REACTORS
330
3ED7
102
}
330
3ED7
100
AcDbXrecord
280
     1
102
RTVSPost2010Prop28
280
     0
102
RTVSPost2010PropOp28
 70
     1
102
RTVSPost2010Prop29
280
     1
102
RTVSPost2010PropOp29
 70
     1
102
RTVSPost2010Prop30
280
     1
102
RTVSPost2010PropOp30
 70
     1
102
RTVSPost2010Prop31
280
     0
102
RTVSPost2010PropOp31
 70
     1
102
RTVSPost2010Prop32
280
     0
102
RTVSPost2010PropOp32
 70
     1
102
RTVSPost2010Prop33
280
     0
102
RTVSPost2010PropOp33
 70
     1
102
RTVSPost2010Prop34
280
     0
102
RTVSPost2010PropOp34
 70
     1
102
RTVSPost2010Prop35
280
     0
102
RTVSPost2010PropOp35
 70
     1
102
RTVSPost2010Prop36
280
     0
102
RTVSPost2010PropOp36
 70
     1
102
RTVSPost2010Prop37
 90
       50
102
RTVSPost2010PropOp37
 70
     1
102
RTVSPost2010Prop38
140
0.0
102
RTVSPost2010PropOp38
 70
     1
102
RTVSPost2010Prop39
140
1.0
102
RTVSPost2010PropOp39
 70
     1
102
RTVSPost2010Prop40
 90
        0
102
RTVSPost2010PropOp40
 70
     1
102
RTVSPost2010Prop41ColorIndex
 90
       18
102
RTVSPost2010Prop41ColorRGB
 90
        0
102
RTVSPost2010PropOp41
 70
     1
102
RTVSPost2010Prop42
 90
       50
102
RTVSPost2010PropOp42
 70
     1
102
RTVSPost2010Prop43
 90
        3
102
RTVSPost2010PropOp43
 70
     1
102
RTVSPost2010Prop44ColorIndex
 90
        5
102
RTVSPost2010Prop44ColorRGB
 90
      255
102
RTVSPost2010PropOp44
 70
     1
102
RTVSPost2010Prop45
280
     0
102
RTVSPost2010PropOp45
 70
     1
102
RTVSPost2010Prop46
 90
       50
102
RTVSPost2010PropOp46
 70
     1
102
RTVSPost2010Prop47
 90
       50
102
RTVSPost2010PropOp47
 70
     1
102
RTVSPost2010Prop48
 90
       50
102
RTVSPost2010PropOp48
 70
     1
102
RTVSPost2010Prop49
280
     0
102
RTVSPost2010PropOp49
 70
     1
102
RTVSPost2010Prop50
 90
       50
102
RTVSPost2010PropOp50
 70
     1
102
RTVSPost2010Prop51ColorIndex
 90
      256
102
RTVSPost2010Prop51ColorRGB
 90
-16777216
102
RTVSPost2010PropOp51
 70
     0
102
RTVSPost2010Prop52
140
1.0
102
RTVSPost2010PropOp52
 70
     0
102
RTVSPost2010Prop53
 90
        2
102
RTVSPost2010PropOp53
 70
     1
102
RTVSPost2010Prop54
  1
strokes_ogs.tif
102
RTVSPost2010PropOp54
 70
     1
102
RTVSPost2010Prop55
280
     0
102
RTVSPost2010PropOp55
 70
     1
102
RTVSPost2010Prop56
140
1.0
102
RTVSPost2010PropOp56
 70
     1
102
RTVSPost2010Prop57
140
1.0
102
RTVSPost2010PropOp57
 70
     1
102
RTVSPropertyOp0
 70
     1
102
RTVSPropertyOp1
 70
     1
102
RTVSPropertyOp2
 70
     1
102
RTVSPropertyOp3
 70
     1
102
RTVSPropertyOp4
 70
     1
102
RTVSPropertyOp5
 70
     1
102
RTVSPropertyOp6
 70
     1
102
RTVSPropertyOp7
 70
     1
102
RTVSPropertyOp8
 70
     1
102
RTVSPropertyOp9
 70
     1
102
RTVSPropertyOp10
 70
     1
102
RTVSPropertyOp11
 70
     1
102
RTVSPropertyOp12
 70
     1
102
RTVSPropertyOp13
 70
     1
102
RTVSPropertyOp14
 70
     1
102
RTVSPropertyOp15
 70
     1
102
RTVSPropertyOp16
 70
     1
102
RTVSPropertyOp17
 70
     1
102
RTVSPropertyOp18
 70
     1
102
RTVSPropertyOp19
 70
     1
102
RTVSPropertyOp20
 70
     1
102
RTVSPropertyOp21
 70
     1
102
RTVSPropertyOp22
 70
     1
102
RTVSPropertyOp23
 70
     1
102
RTVSPropertyOp24
 70
     1
102
RTVSPropertyOp25
 70
     1
102
RTVSPropertyOp26
 70
     1
102
RTVSPropertyOp27
 70
     1
102
RTVSPropertyOp28
 70
     1
102
RTVSPropertyOp29
 70
     1
102
RTVSPropertyOp30
 70
     1
102
RTVSPropertyOp31
 70
     1
102
RTVSPropertyOp32
 70
     1
102
RTVSPropertyOp33
 70
     1
102
RTVSPropertyOp34
 70
     1
102
RTVSPropertyOp35
 70
     1
102
RTVSPropertyOp36
 70
     1
102
RTVSPropertyOp37
 70
     1
102
RTVSPropertyOp38
 70
     1
102
RTVSPropertyOp39
 70
     1
102
RTVSPropertyOp40
 70
     1
102
RTVSPropertyOp41
 70
     1
102
RTVSPropertyOp42
 70
     1
102
RTVSPropertyOp43
 70
     1
102
RTVSPropertyOp44
 70
     1
102
RTVSPropertyOp45
 70
     1
102
RTVSPropertyOp46
 70
     1
102
RTVSPropertyOp47
 70
     1
102
RTVSPropertyOp48
 70
     1
102
RTVSPropertyOp49
 70
     1
102
RTVSPropertyOp50
 70
     1
102
RTVSPropertyOp51
 70
     0
102
RTVSPropertyOp52
 70
     0
102
RTVSPropertyOp53
 70
     1
102
RTVSPropertyOp54
 70
     1
102
RTVSPropertyOp55
 70
     1
102
RTVSPropertyOp56
 70
     1
102
RTVSPropertyOp57
 70
     1
102
RTVSPropertyOp58
 70
     1
102
RTVSPropertyOp59
 70
     1
102
RTVSPropertyOp60
 70
     1
102
RTVSPropertyOp61
 70
     1
102
RTVSPropertyOp62
 70
     1
  0
XRECORD
  5
3EEE
102
{ACAD_REACTORS
330
3EED
102
}
330
3EED
100
AcDbXrecord
280
     1
102
RTVSPost2010Prop28
280
     0
102
RTVSPost2010PropOp28
 70
     1
102
RTVSPost2010Prop29
280
     1
102
RTVSPost2010PropOp29
 70
     1
102
RTVSPost2010Prop30
280
     1
102
RTVSPost2010PropOp30
 70
     1
102
RTVSPost2010Prop31
280
     0
102
RTVSPost2010PropOp31
 70
     1
102
RTVSPost2010Prop32
280
     0
102
RTVSPost2010PropOp32
 70
     1
102
RTVSPost2010Prop33
280
     0
102
RTVSPost2010PropOp33
 70
     1
102
RTVSPost2010Prop34
280
     0
102
RTVSPost2010PropOp34
 70
     1
102
RTVSPost2010Prop35
280
     0
102
RTVSPost2010PropOp35
 70
     1
102
RTVSPost2010Prop36
280
     0
102
RTVSPost2010PropOp36
 70
     1
102
RTVSPost2010Prop37
 90
       50
102
RTVSPost2010PropOp37
 70
     1
102
RTVSPost2010Prop38
140
0.0
102
RTVSPost2010PropOp38
 70
     1
102
RTVSPost2010Prop39
140
1.0
102
RTVSPost2010PropOp39
 70
     1
102
RTVSPost2010Prop40
 90
        0
102
RTVSPost2010PropOp40
 70
     1
102
RTVSPost2010Prop41ColorIndex
 90
       18
102
RTVSPost2010Prop41ColorRGB
 90
        0
102
RTVSPost2010PropOp41
 70
     1
102
RTVSPost2010Prop42
 90
       50
102
RTVSPost2010PropOp42
 70
     1
102
RTVSPost2010Prop43
 90
        3
102
RTVSPost2010PropOp43
 70
     1
102
RTVSPost2010Prop44ColorIndex
 90
        5
102
RTVSPost2010Prop44ColorRGB
 90
      255
102
RTVSPost2010PropOp44
 70
     1
102
RTVSPost2010Prop45
280
     0
102
RTVSPost2010PropOp45
 70
     1
102
RTVSPost2010Prop46
 90
       50
102
RTVSPost2010PropOp46
 70
     1
102
RTVSPost2010Prop47
 90
       50
102
RTVSPost2010PropOp47
 70
     1
102
RTVSPost2010Prop48
 90
       50
102
RTVSPost2010PropOp48
 70
     1
102
RTVSPost2010Prop49
280
     0
102
RTVSPost2010PropOp49
 70
     1
102
RTVSPost2010Prop50
 90
       50
102
RTVSPost2010PropOp50
 70
     1
102
RTVSPost2010Prop51ColorIndex
 90
      256
102
RTVSPost2010Prop51ColorRGB
 90
-16777216
102
RTVSPost2010PropOp51
 70
     0
102
RTVSPost2010Prop52
140
1.0
102
RTVSPost2010PropOp52
 70
     0
102
RTVSPost2010Prop53
 90
        2
102
RTVSPost2010PropOp53
 70
     1
102
RTVSPost2010Prop54
  1
strokes_ogs.tif
102
RTVSPost2010PropOp54
 70
     1
102
RTVSPost2010Prop55
280
     0
102
RTVSPost2010PropOp55
 70
     1
102
RTVSPost2010Prop56
140
1.0
102
RTVSPost2010PropOp56
 70
     1
102
RTVSPost2010Prop57
140
1.0
102
RTVSPost2010PropOp57
 70
     1
102
RTVSPropertyOp0
 70
     1
102
RTVSPropertyOp1
 70
     1
102
RTVSPropertyOp2
 70
     1
102
RTVSPropertyOp3
 70
     1
102
RTVSPropertyOp4
 70
     1
102
RTVSPropertyOp5
 70
     1
102
RTVSPropertyOp6
 70
     1
102
RTVSPropertyOp7
 70
     1
102
RTVSPropertyOp8
 70
     1
102
RTVSPropertyOp9
 70
     1
102
RTVSPropertyOp10
 70
     1
102
RTVSPropertyOp11
 70
     1
102
RTVSPropertyOp12
 70
     1
102
RTVSPropertyOp13
 70
     1
102
RTVSPropertyOp14
 70
     1
102
RTVSPropertyOp15
 70
     1
102
RTVSPropertyOp16
 70
     1
102
RTVSPropertyOp17
 70
     1
102
RTVSPropertyOp18
 70
     1
102
RTVSPropertyOp19
 70
     1
102
RTVSPropertyOp20
 70
     1
102
RTVSPropertyOp21
 70
     1
102
RTVSPropertyOp22
 70
     1
102
RTVSPropertyOp23
 70
     1
102
RTVSPropertyOp24
 70
     1
102
RTVSPropertyOp25
 70
     1
102
RTVSPropertyOp26
 70
     1
102
RTVSPropertyOp27
 70
     1
102
RTVSPropertyOp28
 70
     1
102
RTVSPropertyOp29
 70
     1
102
RTVSPropertyOp30
 70
     1
102
RTVSPropertyOp31
 70
     1
102
RTVSPropertyOp32
 70
     1
102
RTVSPropertyOp33
 70
     1
102
RTVSPropertyOp34
 70
     1
102
RTVSPropertyOp35
 70
     1
102
RTVSPropertyOp36
 70
     1
102
RTVSPropertyOp37
 70
     1
102
RTVSPropertyOp38
 70
     1
102
RTVSPropertyOp39
 70
     1
102
RTVSPropertyOp40
 70
     1
102
RTVSPropertyOp41
 70
     1
102
RTVSPropertyOp42
 70
     1
102
RTVSPropertyOp43
 70
     1
102
RTVSPropertyOp44
 70
     1
102
RTVSPropertyOp45
 70
     1
102
RTVSPropertyOp46
 70
     1
102
RTVSPropertyOp47
 70
     1
102
RTVSPropertyOp48
 70
     1
102
RTVSPropertyOp49
 70
     1
102
RTVSPropertyOp50
 70
     1
102
RTVSPropertyOp51
 70
     0
102
RTVSPropertyOp52
 70
     0
102
RTVSPropertyOp53
 70
     1
102
RTVSPropertyOp54
 70
     1
102
RTVSPropertyOp55
 70
     1
102
RTVSPropertyOp56
 70
     1
102
RTVSPropertyOp57
 70
     1
102
RTVSPropertyOp58
 70
     1
102
RTVSPropertyOp59
 70
     1
102
RTVSPropertyOp60
 70
     1
102
RTVSPropertyOp61
 70
     1
102
RTVSPropertyOp62
 70
     1
  0
XRECORD
  5
3EEC
102
{ACAD_REACTORS
330
3EEB
102
}
330
3EEB
100
AcDbXrecord
280
     1
102
RTVSPost2010Prop28
280
     0
102
RTVSPost2010PropOp28
 70
     1
102
RTVSPost2010Prop29
280
     1
102
RTVSPost2010PropOp29
 70
     1
102
RTVSPost2010Prop30
280
     1
102
RTVSPost2010PropOp30
 70
     1
102
RTVSPost2010Prop31
280
     0
102
RTVSPost2010PropOp31
 70
     1
102
RTVSPost2010Prop32
280
     0
102
RTVSPost2010PropOp32
 70
     1
102
RTVSPost2010Prop33
280
     0
102
RTVSPost2010PropOp33
 70
     1
102
RTVSPost2010Prop34
280
     0
102
RTVSPost2010PropOp34
 70
     1
102
RTVSPost2010Prop35
280
     0
102
RTVSPost2010PropOp35
 70
     1
102
RTVSPost2010Prop36
280
     0
102
RTVSPost2010PropOp36
 70
     1
102
RTVSPost2010Prop37
 90
       50
102
RTVSPost2010PropOp37
 70
     1
102
RTVSPost2010Prop38
140
0.0
102
RTVSPost2010PropOp38
 70
     1
102
RTVSPost2010Prop39
140
1.0
102
RTVSPost2010PropOp39
 70
     1
102
RTVSPost2010Prop40
 90
        0
102
RTVSPost2010PropOp40
 70
     1
102
RTVSPost2010Prop41ColorIndex
 90
       18
102
RTVSPost2010Prop41ColorRGB
 90
        0
102
RTVSPost2010PropOp41
 70
     1
102
RTVSPost2010Prop42
 90
       50
102
RTVSPost2010PropOp42
 70
     1
102
RTVSPost2010Prop43
 90
        3
102
RTVSPost2010PropOp43
 70
     1
102
RTVSPost2010Prop44ColorIndex
 90
        5
102
RTVSPost2010Prop44ColorRGB
 90
      255
102
RTVSPost2010PropOp44
 70
     1
102
RTVSPost2010Prop45
280
     0
102
RTVSPost2010PropOp45
 70
     1
102
RTVSPost2010Prop46
 90
       50
102
RTVSPost2010PropOp46
 70
     1
102
RTVSPost2010Prop47
 90
       50
102
RTVSPost2010PropOp47
 70
     1
102
RTVSPost2010Prop48
 90
       50
102
RTVSPost2010PropOp48
 70
     1
102
RTVSPost2010Prop49
280
     0
102
RTVSPost2010PropOp49
 70
     1
102
RTVSPost2010Prop50
 90
       50
102
RTVSPost2010PropOp50
 70
     1
102
RTVSPost2010Prop51ColorIndex
 90
      256
102
RTVSPost2010Prop51ColorRGB
 90
-16777216
102
RTVSPost2010PropOp51
 70
     0
102
RTVSPost2010Prop52
140
1.0
102
RTVSPost2010PropOp52
 70
     0
102
RTVSPost2010Prop53
 90
        2
102
RTVSPost2010PropOp53
 70
     1
102
RTVSPost2010Prop54
  1
strokes_ogs.tif
102
RTVSPost2010PropOp54
 70
     1
102
RTVSPost2010Prop55
280
     0
102
RTVSPost2010PropOp55
 70
     1
102
RTVSPost2010Prop56
140
1.0
102
RTVSPost2010PropOp56
 70
     1
102
RTVSPost2010Prop57
140
1.0
102
RTVSPost2010PropOp57
 70
     1
102
RTVSPropertyOp0
 70
     1
102
RTVSPropertyOp1
 70
     1
102
RTVSPropertyOp2
 70
     1
102
RTVSPropertyOp3
 70
     1
102
RTVSPropertyOp4
 70
     1
102
RTVSPropertyOp5
 70
     1
102
RTVSPropertyOp6
 70
     1
102
RTVSPropertyOp7
 70
     1
102
RTVSPropertyOp8
 70
     1
102
RTVSPropertyOp9
 70
     1
102
RTVSPropertyOp10
 70
     1
102
RTVSPropertyOp11
 70
     1
102
RTVSPropertyOp12
 70
     1
102
RTVSPropertyOp13
 70
     1
102
RTVSPropertyOp14
 70
     1
102
RTVSPropertyOp15
 70
     1
102
RTVSPropertyOp16
 70
     1
102
RTVSPropertyOp17
 70
     1
102
RTVSPropertyOp18
 70
     1
102
RTVSPropertyOp19
 70
     1
102
RTVSPropertyOp20
 70
     1
102
RTVSPropertyOp21
 70
     1
102
RTVSPropertyOp22
 70
     1
102
RTVSPropertyOp23
 70
     1
102
RTVSPropertyOp24
 70
     1
102
RTVSPropertyOp25
 70
     1
102
RTVSPropertyOp26
 70
     1
102
RTVSPropertyOp27
 70
     1
102
RTVSPropertyOp28
 70
     1
102
RTVSPropertyOp29
 70
     1
102
RTVSPropertyOp30
 70
     1
102
RTVSPropertyOp31
 70
     1
102
RTVSPropertyOp32
 70
     1
102
RTVSPropertyOp33
 70
     1
102
RTVSPropertyOp34
 70
     1
102
RTVSPropertyOp35
 70
     1
102
RTVSPropertyOp36
 70
     1
102
RTVSPropertyOp37
 70
     1
102
RTVSPropertyOp38
 70
     1
102
RTVSPropertyOp39
 70
     1
102
RTVSPropertyOp40
 70
     1
102
RTVSPropertyOp41
 70
     1
102
RTVSPropertyOp42
 70
     1
102
RTVSPropertyOp43
 70
     1
102
RTVSPropertyOp44
 70
     1
102
RTVSPropertyOp45
 70
     1
102
RTVSPropertyOp46
 70
     1
102
RTVSPropertyOp47
 70
     1
102
RTVSPropertyOp48
 70
     1
102
RTVSPropertyOp49
 70
     1
102
RTVSPropertyOp50
 70
     1
102
RTVSPropertyOp51
 70
     0
102
RTVSPropertyOp52
 70
     0
102
RTVSPropertyOp53
 70
     1
102
RTVSPropertyOp54
 70
     1
102
RTVSPropertyOp55
 70
     1
102
RTVSPropertyOp56
 70
     1
102
RTVSPropertyOp57
 70
     1
102
RTVSPropertyOp58
 70
     1
102
RTVSPropertyOp59
 70
     1
102
RTVSPropertyOp60
 70
     1
102
RTVSPropertyOp61
 70
     1
102
RTVSPropertyOp62
 70
     1
  0
XRECORD
  5
3EE6
102
{ACAD_REACTORS
330
3EE5
102
}
330
3EE5
100
AcDbXrecord
280
     1
102
RTVSPost2010Prop28
280
     0
102
RTVSPost2010PropOp28
 70
     1
102
RTVSPost2010Prop29
280
     1
102
RTVSPost2010PropOp29
 70
     1
102
RTVSPost2010Prop30
280
     1
102
RTVSPost2010PropOp30
 70
     1
102
RTVSPost2010Prop31
280
     0
102
RTVSPost2010PropOp31
 70
     1
102
RTVSPost2010Prop32
280
     0
102
RTVSPost2010PropOp32
 70
     1
102
RTVSPost2010Prop33
280
     0
102
RTVSPost2010PropOp33
 70
     1
102
RTVSPost2010Prop34
280
     0
102
RTVSPost2010PropOp34
 70
     1
102
RTVSPost2010Prop35
280
     0
102
RTVSPost2010PropOp35
 70
     1
102
RTVSPost2010Prop36
280
     0
102
RTVSPost2010PropOp36
 70
     1
102
RTVSPost2010Prop37
 90
       50
102
RTVSPost2010PropOp37
 70
     1
102
RTVSPost2010Prop38
140
0.0
102
RTVSPost2010PropOp38
 70
     1
102
RTVSPost2010Prop39
140
1.0
102
RTVSPost2010PropOp39
 70
     1
102
RTVSPost2010Prop40
 90
        0
102
RTVSPost2010PropOp40
 70
     1
102
RTVSPost2010Prop41ColorIndex
 90
       18
102
RTVSPost2010Prop41ColorRGB
 90
        0
102
RTVSPost2010PropOp41
 70
     1
102
RTVSPost2010Prop42
 90
       50
102
RTVSPost2010PropOp42
 70
     1
102
RTVSPost2010Prop43
 90
        3
102
RTVSPost2010PropOp43
 70
     1
102
RTVSPost2010Prop44ColorIndex
 90
        5
102
RTVSPost2010Prop44ColorRGB
 90
      255
102
RTVSPost2010PropOp44
 70
     1
102
RTVSPost2010Prop45
280
     0
102
RTVSPost2010PropOp45
 70
     1
102
RTVSPost2010Prop46
 90
       50
102
RTVSPost2010PropOp46
 70
     1
102
RTVSPost2010Prop47
 90
       50
102
RTVSPost2010PropOp47
 70
     1
102
RTVSPost2010Prop48
 90
       50
102
RTVSPost2010PropOp48
 70
     1
102
RTVSPost2010Prop49
280
     0
102
RTVSPost2010PropOp49
 70
     1
102
RTVSPost2010Prop50
 90
       50
102
RTVSPost2010PropOp50
 70
     1
102
RTVSPost2010Prop51ColorIndex
 90
      256
102
RTVSPost2010Prop51ColorRGB
 90
-16777216
102
RTVSPost2010PropOp51
 70
     0
102
RTVSPost2010Prop52
140
1.0
102
RTVSPost2010PropOp52
 70
     0
102
RTVSPost2010Prop53
 90
        2
102
RTVSPost2010PropOp53
 70
     1
102
RTVSPost2010Prop54
  1
strokes_ogs.tif
102
RTVSPost2010PropOp54
 70
     1
102
RTVSPost2010Prop55
280
     0
102
RTVSPost2010PropOp55
 70
     1
102
RTVSPost2010Prop56
140
1.0
102
RTVSPost2010PropOp56
 70
     1
102
RTVSPost2010Prop57
140
1.0
102
RTVSPost2010PropOp57
 70
     1
102
RTVSPropertyOp0
 70
     1
102
RTVSPropertyOp1
 70
     1
102
RTVSPropertyOp2
 70
     1
102
RTVSPropertyOp3
 70
     1
102
RTVSPropertyOp4
 70
     1
102
RTVSPropertyOp5
 70
     1
102
RTVSPropertyOp6
 70
     1
102
RTVSPropertyOp7
 70
     1
102
RTVSPropertyOp8
 70
     1
102
RTVSPropertyOp9
 70
     1
102
RTVSPropertyOp10
 70
     1
102
RTVSPropertyOp11
 70
     1
102
RTVSPropertyOp12
 70
     1
102
RTVSPropertyOp13
 70
     1
102
RTVSPropertyOp14
 70
     1
102
RTVSPropertyOp15
 70
     1
102
RTVSPropertyOp16
 70
     1
102
RTVSPropertyOp17
 70
     1
102
RTVSPropertyOp18
 70
     1
102
RTVSPropertyOp19
 70
     1
102
RTVSPropertyOp20
 70
     1
102
RTVSPropertyOp21
 70
     1
102
RTVSPropertyOp22
 70
     1
102
RTVSPropertyOp23
 70
     1
102
RTVSPropertyOp24
 70
     1
102
RTVSPropertyOp25
 70
     1
102
RTVSPropertyOp26
 70
     1
102
RTVSPropertyOp27
 70
     1
102
RTVSPropertyOp28
 70
     1
102
RTVSPropertyOp29
 70
     1
102
RTVSPropertyOp30
 70
     1
102
RTVSPropertyOp31
 70
     1
102
RTVSPropertyOp32
 70
     1
102
RTVSPropertyOp33
 70
     1
102
RTVSPropertyOp34
 70
     1
102
RTVSPropertyOp35
 70
     1
102
RTVSPropertyOp36
 70
     1
102
RTVSPropertyOp37
 70
     1
102
RTVSPropertyOp38
 70
     1
102
RTVSPropertyOp39
 70
     1
102
RTVSPropertyOp40
 70
     1
102
RTVSPropertyOp41
 70
     1
102
RTVSPropertyOp42
 70
     1
102
RTVSPropertyOp43
 70
     1
102
RTVSPropertyOp44
 70
     1
102
RTVSPropertyOp45
 70
     1
102
RTVSPropertyOp46
 70
     1
102
RTVSPropertyOp47
 70
     1
102
RTVSPropertyOp48
 70
     1
102
RTVSPropertyOp49
 70
     1
102
RTVSPropertyOp50
 70
     1
102
RTVSPropertyOp51
 70
     0
102
RTVSPropertyOp52
 70
     0
102
RTVSPropertyOp53
 70
     1
102
RTVSPropertyOp54
 70
     1
102
RTVSPropertyOp55
 70
     1
102
RTVSPropertyOp56
 70
     1
102
RTVSPropertyOp57
 70
     1
102
RTVSPropertyOp58
 70
     1
102
RTVSPropertyOp59
 70
     1
102
RTVSPropertyOp60
 70
     1
102
RTVSPropertyOp61
 70
     1
102
RTVSPropertyOp62
 70
     1
  0
XRECORD
  5
3EE8
102
{ACAD_REACTORS
330
3EE7
102
}
330
3EE7
100
AcDbXrecord
280
     1
102
RTVSPost2010Prop28
280
     0
102
RTVSPost2010PropOp28
 70
     1
102
RTVSPost2010Prop29
280
     1
102
RTVSPost2010PropOp29
 70
     1
102
RTVSPost2010Prop30
280
     1
102
RTVSPost2010PropOp30
 70
     1
102
RTVSPost2010Prop31
280
     0
102
RTVSPost2010PropOp31
 70
     1
102
RTVSPost2010Prop32
280
     0
102
RTVSPost2010PropOp32
 70
     1
102
RTVSPost2010Prop33
280
     0
102
RTVSPost2010PropOp33
 70
     1
102
RTVSPost2010Prop34
280
     0
102
RTVSPost2010PropOp34
 70
     1
102
RTVSPost2010Prop35
280
     0
102
RTVSPost2010PropOp35
 70
     1
102
RTVSPost2010Prop36
280
     0
102
RTVSPost2010PropOp36
 70
     1
102
RTVSPost2010Prop37
 90
       50
102
RTVSPost2010PropOp37
 70
     1
102
RTVSPost2010Prop38
140
0.0
102
RTVSPost2010PropOp38
 70
     1
102
RTVSPost2010Prop39
140
1.0
102
RTVSPost2010PropOp39
 70
     1
102
RTVSPost2010Prop40
 90
        0
102
RTVSPost2010PropOp40
 70
     1
102
RTVSPost2010Prop41ColorIndex
 90
       18
102
RTVSPost2010Prop41ColorRGB
 90
        0
102
RTVSPost2010PropOp41
 70
     1
102
RTVSPost2010Prop42
 90
       50
102
RTVSPost2010PropOp42
 70
     1
102
RTVSPost2010Prop43
 90
        3
102
RTVSPost2010PropOp43
 70
     1
102
RTVSPost2010Prop44ColorIndex
 90
        5
102
RTVSPost2010Prop44ColorRGB
 90
      255
102
RTVSPost2010PropOp44
 70
     1
102
RTVSPost2010Prop45
280
     0
102
RTVSPost2010PropOp45
 70
     1
102
RTVSPost2010Prop46
 90
       50
102
RTVSPost2010PropOp46
 70
     1
102
RTVSPost2010Prop47
 90
       50
102
RTVSPost2010PropOp47
 70
     1
102
RTVSPost2010Prop48
 90
       50
102
RTVSPost2010PropOp48
 70
     1
102
RTVSPost2010Prop49
280
     0
102
RTVSPost2010PropOp49
 70
     1
102
RTVSPost2010Prop50
 90
       50
102
RTVSPost2010PropOp50
 70
     1
102
RTVSPost2010Prop51ColorIndex
 90
      256
102
RTVSPost2010Prop51ColorRGB
 90
-16777216
102
RTVSPost2010PropOp51
 70
     0
102
RTVSPost2010Prop52
140
1.0
102
RTVSPost2010PropOp52
 70
     0
102
RTVSPost2010Prop53
 90
        2
102
RTVSPost2010PropOp53
 70
     1
102
RTVSPost2010Prop54
  1
strokes_ogs.tif
102
RTVSPost2010PropOp54
 70
     1
102
RTVSPost2010Prop55
280
     0
102
RTVSPost2010PropOp55
 70
     1
102
RTVSPost2010Prop56
140
1.0
102
RTVSPost2010PropOp56
 70
     1
102
RTVSPost2010Prop57
140
1.0
102
RTVSPost2010PropOp57
 70
     1
102
RTVSPropertyOp0
 70
     1
102
RTVSPropertyOp1
 70
     1
102
RTVSPropertyOp2
 70
     1
102
RTVSPropertyOp3
 70
     1
102
RTVSPropertyOp4
 70
     1
102
RTVSPropertyOp5
 70
     1
102
RTVSPropertyOp6
 70
     1
102
RTVSPropertyOp7
 70
     1
102
RTVSPropertyOp8
 70
     1
102
RTVSPropertyOp9
 70
     1
102
RTVSPropertyOp10
 70
     1
102
RTVSPropertyOp11
 70
     1
102
RTVSPropertyOp12
 70
     1
102
RTVSPropertyOp13
 70
     1
102
RTVSPropertyOp14
 70
     1
102
RTVSPropertyOp15
 70
     1
102
RTVSPropertyOp16
 70
     1
102
RTVSPropertyOp17
 70
     1
102
RTVSPropertyOp18
 70
     1
102
RTVSPropertyOp19
 70
     1
102
RTVSPropertyOp20
 70
     1
102
RTVSPropertyOp21
 70
     1
102
RTVSPropertyOp22
 70
     1
102
RTVSPropertyOp23
 70
     1
102
RTVSPropertyOp24
 70
     1
102
RTVSPropertyOp25
 70
     1
102
RTVSPropertyOp26
 70
     1
102
RTVSPropertyOp27
 70
     1
102
RTVSPropertyOp28
 70
     1
102
RTVSPropertyOp29
 70
     1
102
RTVSPropertyOp30
 70
     1
102
RTVSPropertyOp31
 70
     1
102
RTVSPropertyOp32
 70
     1
102
RTVSPropertyOp33
 70
     1
102
RTVSPropertyOp34
 70
     1
102
RTVSPropertyOp35
 70
     1
102
RTVSPropertyOp36
 70
     1
102
RTVSPropertyOp37
 70
     1
102
RTVSPropertyOp38
 70
     1
102
RTVSPropertyOp39
 70
     1
102
RTVSPropertyOp40
 70
     1
102
RTVSPropertyOp41
 70
     1
102
RTVSPropertyOp42
 70
     1
102
RTVSPropertyOp43
 70
     1
102
RTVSPropertyOp44
 70
     1
102
RTVSPropertyOp45
 70
     1
102
RTVSPropertyOp46
 70
     1
102
RTVSPropertyOp47
 70
     1
102
RTVSPropertyOp48
 70
     1
102
RTVSPropertyOp49
 70
     1
102
RTVSPropertyOp50
 70
     1
102
RTVSPropertyOp51
 70
     0
102
RTVSPropertyOp52
 70
     0
102
RTVSPropertyOp53
 70
     1
102
RTVSPropertyOp54
 70
     1
102
RTVSPropertyOp55
 70
     1
102
RTVSPropertyOp56
 70
     1
102
RTVSPropertyOp57
 70
     1
102
RTVSPropertyOp58
 70
     1
102
RTVSPropertyOp59
 70
     1
102
RTVSPropertyOp60
 70
     1
102
RTVSPropertyOp61
 70
     1
102
RTVSPropertyOp62
 70
     1
  0
XRECORD
  5
3EDE
102
{ACAD_REACTORS
330
3EDD
102
}
330
3EDD
100
AcDbXrecord
280
     1
102
RTVSPost2010Prop28
280
     0
102
RTVSPost2010PropOp28
 70
     1
102
RTVSPost2010Prop29
280
     1
102
RTVSPost2010PropOp29
 70
     1
102
RTVSPost2010Prop30
280
     1
102
RTVSPost2010PropOp30
 70
     1
102
RTVSPost2010Prop31
280
     0
102
RTVSPost2010PropOp31
 70
     1
102
RTVSPost2010Prop32
280
     0
102
RTVSPost2010PropOp32
 70
     1
102
RTVSPost2010Prop33
280
     0
102
RTVSPost2010PropOp33
 70
     1
102
RTVSPost2010Prop34
280
     0
102
RTVSPost2010PropOp34
 70
     1
102
RTVSPost2010Prop35
280
     0
102
RTVSPost2010PropOp35
 70
     1
102
RTVSPost2010Prop36
280
     0
102
RTVSPost2010PropOp36
 70
     1
102
RTVSPost2010Prop37
 90
       50
102
RTVSPost2010PropOp37
 70
     1
102
RTVSPost2010Prop38
140
0.0
102
RTVSPost2010PropOp38
 70
     1
102
RTVSPost2010Prop39
140
1.0
102
RTVSPost2010PropOp39
 70
     1
102
RTVSPost2010Prop40
 90
        0
102
RTVSPost2010PropOp40
 70
     1
102
RTVSPost2010Prop41ColorIndex
 90
       18
102
RTVSPost2010Prop41ColorRGB
 90
        0
102
RTVSPost2010PropOp41
 70
     1
102
RTVSPost2010Prop42
 90
       50
102
RTVSPost2010PropOp42
 70
     1
102
RTVSPost2010Prop43
 90
        3
102
RTVSPost2010PropOp43
 70
     1
102
RTVSPost2010Prop44ColorIndex
 90
        5
102
RTVSPost2010Prop44ColorRGB
 90
      255
102
RTVSPost2010PropOp44
 70
     1
102
RTVSPost2010Prop45
280
     0
102
RTVSPost2010PropOp45
 70
     1
102
RTVSPost2010Prop46
 90
       50
102
RTVSPost2010PropOp46
 70
     1
102
RTVSPost2010Prop47
 90
       50
102
RTVSPost2010PropOp47
 70
     1
102
RTVSPost2010Prop48
 90
       50
102
RTVSPost2010PropOp48
 70
     1
102
RTVSPost2010Prop49
280
     0
102
RTVSPost2010PropOp49
 70
     1
102
RTVSPost2010Prop50
 90
       50
102
RTVSPost2010PropOp50
 70
     1
102
RTVSPost2010Prop51ColorIndex
 90
      256
102
RTVSPost2010Prop51ColorRGB
 90
-16777216
102
RTVSPost2010PropOp51
 70
     0
102
RTVSPost2010Prop52
140
1.0
102
RTVSPost2010PropOp52
 70
     0
102
RTVSPost2010Prop53
 90
        2
102
RTVSPost2010PropOp53
 70
     1
102
RTVSPost2010Prop54
  1
strokes_ogs.tif
102
RTVSPost2010PropOp54
 70
     1
102
RTVSPost2010Prop55
280
     0
102
RTVSPost2010PropOp55
 70
     1
102
RTVSPost2010Prop56
140
1.0
102
RTVSPost2010PropOp56
 70
     1
102
RTVSPost2010Prop57
140
1.0
102
RTVSPost2010PropOp57
 70
     1
102
RTVSPropertyOp0
 70
     1
102
RTVSPropertyOp1
 70
     1
102
RTVSPropertyOp2
 70
     1
102
RTVSPropertyOp3
 70
     1
102
RTVSPropertyOp4
 70
     1
102
RTVSPropertyOp5
 70
     1
102
RTVSPropertyOp6
 70
     1
102
RTVSPropertyOp7
 70
     1
102
RTVSPropertyOp8
 70
     1
102
RTVSPropertyOp9
 70
     1
102
RTVSPropertyOp10
 70
     1
102
RTVSPropertyOp11
 70
     1
102
RTVSPropertyOp12
 70
     1
102
RTVSPropertyOp13
 70
     1
102
RTVSPropertyOp14
 70
     1
102
RTVSPropertyOp15
 70
     1
102
RTVSPropertyOp16
 70
     1
102
RTVSPropertyOp17
 70
     1
102
RTVSPropertyOp18
 70
     1
102
RTVSPropertyOp19
 70
     1
102
RTVSPropertyOp20
 70
     1
102
RTVSPropertyOp21
 70
     1
102
RTVSPropertyOp22
 70
     1
102
RTVSPropertyOp23
 70
     1
102
RTVSPropertyOp24
 70
     1
102
RTVSPropertyOp25
 70
     1
102
RTVSPropertyOp26
 70
     1
102
RTVSPropertyOp27
 70
     1
102
RTVSPropertyOp28
 70
     1
102
RTVSPropertyOp29
 70
     1
102
RTVSPropertyOp30
 70
     1
102
RTVSPropertyOp31
 70
     1
102
RTVSPropertyOp32
 70
     1
102
RTVSPropertyOp33
 70
     1
102
RTVSPropertyOp34
 70
     1
102
RTVSPropertyOp35
 70
     1
102
RTVSPropertyOp36
 70
     1
102
RTVSPropertyOp37
 70
     1
102
RTVSPropertyOp38
 70
     1
102
RTVSPropertyOp39
 70
     1
102
RTVSPropertyOp40
 70
     1
102
RTVSPropertyOp41
 70
     1
102
RTVSPropertyOp42
 70
     1
102
RTVSPropertyOp43
 70
     1
102
RTVSPropertyOp44
 70
     1
102
RTVSPropertyOp45
 70
     1
102
RTVSPropertyOp46
 70
     1
102
RTVSPropertyOp47
 70
     1
102
RTVSPropertyOp48
 70
     1
102
RTVSPropertyOp49
 70
     1
102
RTVSPropertyOp50
 70
     1
102
RTVSPropertyOp51
 70
     0
102
RTVSPropertyOp52
 70
     0
102
RTVSPropertyOp53
 70
     1
102
RTVSPropertyOp54
 70
     1
102
RTVSPropertyOp55
 70
     1
102
RTVSPropertyOp56
 70
     1
102
RTVSPropertyOp57
 70
     1
102
RTVSPropertyOp58
 70
     1
102
RTVSPropertyOp59
 70
     1
102
RTVSPropertyOp60
 70
     1
102
RTVSPropertyOp61
 70
     1
102
RTVSPropertyOp62
 70
     1
  0
XRECORD
  5
3ED2
102
{ACAD_REACTORS
330
3ED1
102
}
330
3ED1
100
AcDbXrecord
280
     1
102
RTVSPost2010Prop28
280
     0
102
RTVSPost2010PropOp28
 70
     1
102
RTVSPost2010Prop29
280
     1
102
RTVSPost2010PropOp29
 70
     1
102
RTVSPost2010Prop30
280
     1
102
RTVSPost2010PropOp30
 70
     1
102
RTVSPost2010Prop31
280
     0
102
RTVSPost2010PropOp31
 70
     1
102
RTVSPost2010Prop32
280
     0
102
RTVSPost2010PropOp32
 70
     1
102
RTVSPost2010Prop33
280
     0
102
RTVSPost2010PropOp33
 70
     1
102
RTVSPost2010Prop34
280
     0
102
RTVSPost2010PropOp34
 70
     1
102
RTVSPost2010Prop35
280
     0
102
RTVSPost2010PropOp35
 70
     1
102
RTVSPost2010Prop36
280
     0
102
RTVSPost2010PropOp36
 70
     1
102
RTVSPost2010Prop37
 90
       50
102
RTVSPost2010PropOp37
 70
     1
102
RTVSPost2010Prop38
140
0.0
102
RTVSPost2010PropOp38
 70
     1
102
RTVSPost2010Prop39
140
1.0
102
RTVSPost2010PropOp39
 70
     1
102
RTVSPost2010Prop40
 90
        0
102
RTVSPost2010PropOp40
 70
     1
102
RTVSPost2010Prop41ColorIndex
 90
       18
102
RTVSPost2010Prop41ColorRGB
 90
        0
102
RTVSPost2010PropOp41
 70
     1
102
RTVSPost2010Prop42
 90
       50
102
RTVSPost2010PropOp42
 70
     1
102
RTVSPost2010Prop43
 90
        3
102
RTVSPost2010PropOp43
 70
     1
102
RTVSPost2010Prop44ColorIndex
 90
        5
102
RTVSPost2010Prop44ColorRGB
 90
      255
102
RTVSPost2010PropOp44
 70
     1
102
RTVSPost2010Prop45
280
     0
102
RTVSPost2010PropOp45
 70
     1
102
RTVSPost2010Prop46
 90
       50
102
RTVSPost2010PropOp46
 70
     1
102
RTVSPost2010Prop47
 90
       50
102
RTVSPost2010PropOp47
 70
     1
102
RTVSPost2010Prop48
 90
       50
102
RTVSPost2010PropOp48
 70
     1
102
RTVSPost2010Prop49
280
     0
102
RTVSPost2010PropOp49
 70
     1
102
RTVSPost2010Prop50
 90
       50
102
RTVSPost2010PropOp50
 70
     1
102
RTVSPost2010Prop51ColorIndex
 90
      256
102
RTVSPost2010Prop51ColorRGB
 90
-16777216
102
RTVSPost2010PropOp51
 70
     0
102
RTVSPost2010Prop52
140
1.0
102
RTVSPost2010PropOp52
 70
     0
102
RTVSPost2010Prop53
 90
        2
102
RTVSPost2010PropOp53
 70
     1
102
RTVSPost2010Prop54
  1
strokes_ogs.tif
102
RTVSPost2010PropOp54
 70
     1
102
RTVSPost2010Prop55
280
     0
102
RTVSPost2010PropOp55
 70
     1
102
RTVSPost2010Prop56
140
1.0
102
RTVSPost2010PropOp56
 70
     1
102
RTVSPost2010Prop57
140
1.0
102
RTVSPost2010PropOp57
 70
     1
102
RTVSPropertyOp0
 70
     1
102
RTVSPropertyOp1
 70
     1
102
RTVSPropertyOp2
 70
     1
102
RTVSPropertyOp3
 70
     1
102
RTVSPropertyOp4
 70
     1
102
RTVSPropertyOp5
 70
     1
102
RTVSPropertyOp6
 70
     1
102
RTVSPropertyOp7
 70
     1
102
RTVSPropertyOp8
 70
     1
102
RTVSPropertyOp9
 70
     1
102
RTVSPropertyOp10
 70
     1
102
RTVSPropertyOp11
 70
     1
102
RTVSPropertyOp12
 70
     1
102
RTVSPropertyOp13
 70
     1
102
RTVSPropertyOp14
 70
     1
102
RTVSPropertyOp15
 70
     1
102
RTVSPropertyOp16
 70
     1
102
RTVSPropertyOp17
 70
     1
102
RTVSPropertyOp18
 70
     1
102
RTVSPropertyOp19
 70
     1
102
RTVSPropertyOp20
 70
     1
102
RTVSPropertyOp21
 70
     1
102
RTVSPropertyOp22
 70
     1
102
RTVSPropertyOp23
 70
     1
102
RTVSPropertyOp24
 70
     1
102
RTVSPropertyOp25
 70
     1
102
RTVSPropertyOp26
 70
     1
102
RTVSPropertyOp27
 70
     1
102
RTVSPropertyOp28
 70
     1
102
RTVSPropertyOp29
 70
     1
102
RTVSPropertyOp30
 70
     1
102
RTVSPropertyOp31
 70
     1
102
RTVSPropertyOp32
 70
     1
102
RTVSPropertyOp33
 70
     1
102
RTVSPropertyOp34
 70
     1
102
RTVSPropertyOp35
 70
     1
102
RTVSPropertyOp36
 70
     1
102
RTVSPropertyOp37
 70
     1
102
RTVSPropertyOp38
 70
     1
102
RTVSPropertyOp39
 70
     1
102
RTVSPropertyOp40
 70
     1
102
RTVSPropertyOp41
 70
     1
102
RTVSPropertyOp42
 70
     1
102
RTVSPropertyOp43
 70
     1
102
RTVSPropertyOp44
 70
     1
102
RTVSPropertyOp45
 70
     1
102
RTVSPropertyOp46
 70
     1
102
RTVSPropertyOp47
 70
     1
102
RTVSPropertyOp48
 70
     1
102
RTVSPropertyOp49
 70
     1
102
RTVSPropertyOp50
 70
     1
102
RTVSPropertyOp51
 70
     0
102
RTVSPropertyOp52
 70
     0
102
RTVSPropertyOp53
 70
     1
102
RTVSPropertyOp54
 70
     1
102
RTVSPropertyOp55
 70
     1
102
RTVSPropertyOp56
 70
     1
102
RTVSPropertyOp57
 70
     1
102
RTVSPropertyOp58
 70
     1
102
RTVSPropertyOp59
 70
     1
102
RTVSPropertyOp60
 70
     1
102
RTVSPropertyOp61
 70
     1
102
RTVSPropertyOp62
 70
     1
  0
XRECORD
  5
3EEA
102
{ACAD_REACTORS
330
3EE9
102
}
330
3EE9
100
AcDbXrecord
280
     1
102
RTVSPost2010Prop28
280
     0
102
RTVSPost2010PropOp28
 70
     1
102
RTVSPost2010Prop29
280
     1
102
RTVSPost2010PropOp29
 70
     1
102
RTVSPost2010Prop30
280
     1
102
RTVSPost2010PropOp30
 70
     1
102
RTVSPost2010Prop31
280
     0
102
RTVSPost2010PropOp31
 70
     1
102
RTVSPost2010Prop32
280
     0
102
RTVSPost2010PropOp32
 70
     1
102
RTVSPost2010Prop33
280
     0
102
RTVSPost2010PropOp33
 70
     1
102
RTVSPost2010Prop34
280
     0
102
RTVSPost2010PropOp34
 70
     1
102
RTVSPost2010Prop35
280
     0
102
RTVSPost2010PropOp35
 70
     1
102
RTVSPost2010Prop36
280
     0
102
RTVSPost2010PropOp36
 70
     1
102
RTVSPost2010Prop37
 90
       50
102
RTVSPost2010PropOp37
 70
     1
102
RTVSPost2010Prop38
140
0.0
102
RTVSPost2010PropOp38
 70
     1
102
RTVSPost2010Prop39
140
1.0
102
RTVSPost2010PropOp39
 70
     1
102
RTVSPost2010Prop40
 90
        0
102
RTVSPost2010PropOp40
 70
     1
102
RTVSPost2010Prop41ColorIndex
 90
       18
102
RTVSPost2010Prop41ColorRGB
 90
        0
102
RTVSPost2010PropOp41
 70
     1
102
RTVSPost2010Prop42
 90
       50
102
RTVSPost2010PropOp42
 70
     1
102
RTVSPost2010Prop43
 90
        3
102
RTVSPost2010PropOp43
 70
     1
102
RTVSPost2010Prop44ColorIndex
 90
        5
102
RTVSPost2010Prop44ColorRGB
 90
      255
102
RTVSPost2010PropOp44
 70
     1
102
RTVSPost2010Prop45
280
     0
102
RTVSPost2010PropOp45
 70
     1
102
RTVSPost2010Prop46
 90
       50
102
RTVSPost2010PropOp46
 70
     1
102
RTVSPost2010Prop47
 90
       50
102
RTVSPost2010PropOp47
 70
     1
102
RTVSPost2010Prop48
 90
       50
102
RTVSPost2010PropOp48
 70
     1
102
RTVSPost2010Prop49
280
     0
102
RTVSPost2010PropOp49
 70
     1
102
RTVSPost2010Prop50
 90
       50
102
RTVSPost2010PropOp50
 70
     1
102
RTVSPost2010Prop51ColorIndex
 90
      256
102
RTVSPost2010Prop51ColorRGB
 90
-16777216
102
RTVSPost2010PropOp51
 70
     0
102
RTVSPost2010Prop52
140
1.0
102
RTVSPost2010PropOp52
 70
     0
102
RTVSPost2010Prop53
 90
        2
102
RTVSPost2010PropOp53
 70
     1
102
RTVSPost2010Prop54
  1
strokes_ogs.tif
102
RTVSPost2010PropOp54
 70
     1
102
RTVSPost2010Prop55
280
     0
102
RTVSPost2010PropOp55
 70
     1
102
RTVSPost2010Prop56
140
1.0
102
RTVSPost2010PropOp56
 70
     1
102
RTVSPost2010Prop57
140
1.0
102
RTVSPost2010PropOp57
 70
     1
102
RTVSPropertyOp0
 70
     1
102
RTVSPropertyOp1
 70
     1
102
RTVSPropertyOp2
 70
     1
102
RTVSPropertyOp3
 70
     1
102
RTVSPropertyOp4
 70
     1
102
RTVSPropertyOp5
 70
     1
102
RTVSPropertyOp6
 70
     1
102
RTVSPropertyOp7
 70
     1
102
RTVSPropertyOp8
 70
     1
102
RTVSPropertyOp9
 70
     1
102
RTVSPropertyOp10
 70
     1
102
RTVSPropertyOp11
 70
     1
102
RTVSPropertyOp12
 70
     1
102
RTVSPropertyOp13
 70
     1
102
RTVSPropertyOp14
 70
     1
102
RTVSPropertyOp15
 70
     1
102
RTVSPropertyOp16
 70
     1
102
RTVSPropertyOp17
 70
     1
102
RTVSPropertyOp18
 70
     1
102
RTVSPropertyOp19
 70
     1
102
RTVSPropertyOp20
 70
     1
102
RTVSPropertyOp21
 70
     1
102
RTVSPropertyOp22
 70
     1
102
RTVSPropertyOp23
 70
     1
102
RTVSPropertyOp24
 70
     1
102
RTVSPropertyOp25
 70
     1
102
RTVSPropertyOp26
 70
     1
102
RTVSPropertyOp27
 70
     1
102
RTVSPropertyOp28
 70
     1
102
RTVSPropertyOp29
 70
     1
102
RTVSPropertyOp30
 70
     1
102
RTVSPropertyOp31
 70
     1
102
RTVSPropertyOp32
 70
     1
102
RTVSPropertyOp33
 70
     1
102
RTVSPropertyOp34
 70
     1
102
RTVSPropertyOp35
 70
     1
102
RTVSPropertyOp36
 70
     1
102
RTVSPropertyOp37
 70
     1
102
RTVSPropertyOp38
 70
     1
102
RTVSPropertyOp39
 70
     1
102
RTVSPropertyOp40
 70
     1
102
RTVSPropertyOp41
 70
     1
102
RTVSPropertyOp42
 70
     1
102
RTVSPropertyOp43
 70
     1
102
RTVSPropertyOp44
 70
     1
102
RTVSPropertyOp45
 70
     1
102
RTVSPropertyOp46
 70
     1
102
RTVSPropertyOp47
 70
     1
102
RTVSPropertyOp48
 70
     1
102
RTVSPropertyOp49
 70
     1
102
RTVSPropertyOp50
 70
     1
102
RTVSPropertyOp51
 70
     0
102
RTVSPropertyOp52
 70
     0
102
RTVSPropertyOp53
 70
     1
102
RTVSPropertyOp54
 70
     1
102
RTVSPropertyOp55
 70
     1
102
RTVSPropertyOp56
 70
     1
102
RTVSPropertyOp57
 70
     1
102
RTVSPropertyOp58
 70
     1
102
RTVSPropertyOp59
 70
     1
102
RTVSPropertyOp60
 70
     1
102
RTVSPropertyOp61
 70
     1
102
RTVSPropertyOp62
 70
     1
  0
ENDSEC
  0
EOF
