  0
SECTION
  2
HEADER
  9
$ACADVER
  1
AC1015
  9
$ACADMAINTVER
 70
    20
  9
$DWGCODEPAGE
  3
ANSI_932
  9
$INSBASE
 10
0.0
 20
0.0
 30
0.0
  9
$EXTMIN
 10
9.9999975266385
 20
10.0
 30
0.0
  9
$EXTMAX
 10
775.7424304619974
 20
541.3673039082319
 30
0.0
  9
$LIMMIN
 10
0.0000015376081137
 20
-0.0000001931532552
  9
$LIMMAX
 10
792.0000015376079
 20
545.9999998068465
  9
$ORTHOMODE
 70
     0
  9
$REGENMODE
 70
     1
  9
$FILLMODE
 70
     1
  9
$QTEXTMODE
 70
     0
  9
$MIRRTEXT
 70
     1
  9
$LTSCALE
 40
1.0
  9
$ATTMODE
 70
     1
  9
$TEXTSIZE
 40
2.5
  9
$TRACEWID
 40
1.0
  9
$TEXTSTYLE
  7
STANDARD
  9
$CLAYER
  8
0
  9
$CELTYPE
  6
BYLAYER
  9
$CECOLOR
 62
   256
  9
$CELTSCALE
 40
1.0
  9
$DISPSILH
 70
     0
  9
$DIMSCALE
 40
1.0
  9
$DIMASZ
 40
3.0
  9
$DIMEXO
 40
1.0
  9
$DIMDLI
 40
10.0
  9
$DIMRND
 40
0.0
  9
$DIMDLE
 40
0.0
  9
$DIMEXE
 40
1.0
  9
$DIMTP
 40
0.0
  9
$DIMTM
 40
0.0
  9
$DIMTXT
 40
3.2
  9
$DIMCEN
 40
0.0
  9
$DIMTSZ
 40
0.0
  9
$DIMTOL
 70
     0
  9
$DIMLIM
 70
     0
  9
$DIMTIH
 70
     0
  9
$DIMTOH
 70
     0
  9
$DIMSE1
 70
     0
  9
$DIMSE2
 70
     0
  9
$DIMTAD
 70
     3
  9
$DIMZIN
 70
     8
  9
$DIMBLK
  1

  9
$DIMASO
 70
     1
  9
$DIMSHO
 70
     1
  9
$DIMPOST
  1

  9
$DIMAPOST
  1

  9
$DIMALT
 70
     0
  9
$DIMALTD
 70
     2
  9
$DIMALTF
 40
25.4
  9
$DIMLFAC
 40
1.0
  9
$DIMTOFL
 70
     1
  9
$DIMTVP
 40
0.0
  9
$DIMTIX
 70
     0
  9
$DIMSOXD
 70
     0
  9
$DIMSAH
 70
     1
  9
$DIMBLK1
  1
OPEN
  9
$DIMBLK2
  1
OPEN
  9
$DIMSTYLE
  2
STANDARD
  9
$DIMCLRD
 70
     0
  9
$DIMCLRE
 70
     0
  9
$DIMCLRT
 70
     0
  9
$DIMTFAC
 40
1.0
  9
$DIMGAP
 40
1.0
  9
$DIMJUST
 70
     0
  9
$DIMSD1
 70
     0
  9
$DIMSD2
 70
     0
  9
$DIMTOLJ
 70
     1
  9
$DIMTZIN
 70
     0
  9
$DIMALTZ
 70
     0
  9
$DIMALTTZ
 70
     0
  9
$DIMUPT
 70
     0
  9
$DIMDEC
 70
     4
  9
$DIMTDEC
 70
     4
  9
$DIMALTU
 70
     2
  9
$DIMALTTD
 70
     2
  9
$DIMTXSTY
  7
STANDARD
  9
$DIMAUNIT
 70
     0
  9
$DIMADEC
 70
     0
  9
$DIMALTRND
 40
0.0
  9
$DIMAZIN
 70
     0
  9
$DIMDSEP
 70
    46
  9
$DIMATFIT
 70
     3
  9
$DIMFRAC
 70
     0
  9
$DIMLDRBLK
  1
OPEN
  9
$DIMLUNIT
 70
     2
  9
$DIMLWD
 70
    -2
  9
$DIMLWE
 70
    -2
  9
$DIMTMOVE
 70
     0
  9
$LUNITS
 70
     2
  9
$LUPREC
 70
     4
  9
$SKETCHINC
 40
1.0
  9
$FILLETRAD
 40
10.0
  9
$AUNITS
 70
     0
  9
$AUPREC
 70
     0
  9
$MENU
  1
.
  9
$ELEVATION
 40
0.0
  9
$PELEVATION
 40
0.0
  9
$THICKNESS
 40
0.0
  9
$LIMCHECK
 70
     0
  9
$CHAMFERA
 40
10.0
  9
$CHAMFERB
 40
10.0
  9
$CHAMFERC
 40
20.0
  9
$CHAMFERD
 40
0.0
  9
$SKPOLY
 70
     0
  9
$TDCREATE
 40
2454865.715274236
  9
$TDUCREATE
 40
2454865.340274236
  9
$TDUPDATE
 40
2457192.690886459
  9
$TDUUPDATE
 40
2457192.315886458
  9
$TDINDWG
 40
0.0758867708
  9
$TDUSRTIMER
 40
0.0758867477
  9
$USRTIMER
 70
     1
  9
$ANGBASE
 50
0.0
  9
$ANGDIR
 70
     0
  9
$PDMODE
 70
     0
  9
$PDSIZE
 40
0.0
  9
$PLINEWID
 40
0.0
  9
$SPLFRAME
 70
     0
  9
$SPLINETYPE
 70
     6
  9
$SPLINESEGS
 70
     8
  9
$HANDSEED
  5
D2C
  9
$SURFTAB1
 70
     6
  9
$SURFTAB2
 70
     6
  9
$SURFTYPE
 70
     6
  9
$SURFU
 70
     6
  9
$SURFV
 70
     6
  9
$UCSBASE
  2

  9
$UCSNAME
  2

  9
$UCSORG
 10
0.0
 20
0.0
 30
0.0
  9
$UCSXDIR
 10
1.0
 20
0.0
 30
0.0
  9
$UCSYDIR
 10
0.0
 20
1.0
 30
0.0
  9
$UCSORTHOREF
  2

  9
$UCSORTHOVIEW
 70
     0
  9
$UCSORGTOP
 10
0.0
 20
0.0
 30
0.0
  9
$UCSORGBOTTOM
 10
0.0
 20
0.0
 30
0.0
  9
$UCSORGLEFT
 10
0.0
 20
0.0
 30
0.0
  9
$UCSORGRIGHT
 10
0.0
 20
0.0
 30
0.0
  9
$UCSORGFRONT
 10
0.0
 20
0.0
 30
0.0
  9
$UCSORGBACK
 10
0.0
 20
0.0
 30
0.0
  9
$PUCSBASE
  2

  9
$PUCSNAME
  2

  9
$PUCSORG
 10
0.0
 20
0.0
 30
0.0
  9
$PUCSXDIR
 10
1.0
 20
0.0
 30
0.0
  9
$PUCSYDIR
 10
0.0
 20
1.0
 30
0.0
  9
$PUCSORTHOREF
  2

  9
$PUCSORTHOVIEW
 70
     0
  9
$PUCSORGTOP
 10
0.0
 20
0.0
 30
0.0
  9
$PUCSORGBOTTOM
 10
0.0
 20
0.0
 30
0.0
  9
$PUCSORGLEFT
 10
0.0
 20
0.0
 30
0.0
  9
$PUCSORGRIGHT
 10
0.0
 20
0.0
 30
0.0
  9
$PUCSORGFRONT
 10
0.0
 20
0.0
 30
0.0
  9
$PUCSORGBACK
 10
0.0
 20
0.0
 30
0.0
  9
$USERI1
 70
     0
  9
$USERI2
 70
     0
  9
$USERI3
 70
     0
  9
$USERI4
 70
     0
  9
$USERI5
 70
     0
  9
$USERR1
 40
0.0
  9
$USERR2
 40
0.0
  9
$USERR3
 40
0.0
  9
$USERR4
 40
0.0
  9
$USERR5
 40
0.0
  9
$WORLDVIEW
 70
     1
  9
$SHADEDGE
 70
     3
  9
$SHADEDIF
 70
    70
  9
$TILEMODE
 70
     1
  9
$MAXACTVP
 70
    48
  9
$PINSBASE
 10
0.0
 20
0.0
 30
0.0
  9
$PLIMCHECK
 70
     0
  9
$PEXTMIN
 10
1.000000000000000E+20
 20
1.000000000000000E+20
 30
1.000000000000000E+20
  9
$PEXTMAX
 10
-1.000000000000000E+20
 20
-1.000000000000000E+20
 30
-1.000000000000000E+20
  9
$PLIMMIN
 10
0.0
 20
0.0
  9
$PLIMMAX
 10
420.0
 20
297.0
  9
$UNITMODE
 70
     0
  9
$VISRETAIN
 70
     1
  9
$PLINEGEN
 70
     0
  9
$PSLTSCALE
 70
     1
  9
$TREEDEPTH
 70
  3020
  9
$CMLSTYLE
  2
STANDARD
  9
$CMLJUST
 70
     0
  9
$CMLSCALE
 40
20.0
  9
$PROXYGRAPHICS
 70
     1
  9
$MEASUREMENT
 70
     0
  9
$CELWEIGHT
370
    -1
  9
$ENDCAPS
280
     0
  9
$JOINSTYLE
280
     0
  9
$LWDISPLAY
290
     0
  9
$INSUNITS
 70
     0
  9
$HYPERLINKBASE
  1

  9
$STYLESHEET
  1

  9
$XEDIT
290
     1
  9
$CEPSNTYPE
380
     0
  9
$PSTYLEMODE
290
     1
  9
$FINGERPRINTGUID
  2
{43DA5D11-7E38-4542-A1F2-85132AAEDBB3}
  9
$VERSIONGUID
  2
{B6D5959B-585C-4A26-A3BC-1C35EA683DC4}
  9
$EXTNAMES
290
     1
  9
$PSVPSCALE
 40
0.0
  9
$OLESTARTUP
290
     0
  0
ENDSEC
  0
SECTION
  2
CLASSES
  0
CLASS
  1
ACDBDICTIONARYWDFLT
  2
AcDbDictionaryWithDefault
  3
ObjectDBX Classes
 90
        0
280
     0
281
     0
  0
CLASS
  1
ACDBPLACEHOLDER
  2
AcDbPlaceHolder
  3
ObjectDBX Classes
 90
        0
280
     0
281
     0
  0
CLASS
  1
LAYOUT
  2
AcDbLayout
  3
ObjectDBX Classes
 90
        0
280
     0
281
     0
  0
CLASS
  1
MATERIAL
  2
AcDbMaterial
  3
ObjectDBX Classes
 90
     1153
280
     0
281
     0
  0
CLASS
  1
VISUALSTYLE
  2
AcDbVisualStyle
  3
ObjectDBX Classes
 90
     4095
280
     0
281
     0
  0
CLASS
  1
TABLESTYLE
  2
AcDbTableStyle
  3
ObjectDBX Classes
 90
     4095
280
     0
281
     0
  0
CLASS
  1
SCALE
  2
AcDbScale
  3
ObjectDBX Classes
 90
     1153
280
     0
281
     0
  0
CLASS
  1
MLEADERSTYLE
  2
AcDbMLeaderStyle
  3
ACDB_MLEADERSTYLE_CLASS
 90
     4095
280
     0
281
     0
  0
CLASS
  1
ACDBSECTIONVIEWSTYLE
  2
AcDbSectionViewStyle
  3
ObjectDBX Classes
 90
     1025
280
     0
281
     0
  0
CLASS
  1
ACDBDETAILVIEWSTYLE
  2
AcDbDetailViewStyle
  3
ObjectDBX Classes
 90
     1025
280
     0
281
     0
  0
CLASS
  1
DICTIONARYVAR
  2
AcDbDictionaryVar
  3
ObjectDBX Classes
 90
        0
280
     0
281
     0
  0
CLASS
  1
CELLSTYLEMAP
  2
AcDbCellStyleMap
  3
ObjectDBX Classes
 90
     1152
280
     0
281
     0
  0
ENDSEC
  0
SECTION
  2
TABLES
  0
TABLE
  2
VPORT
  5
8
330
0
100
AcDbSymbolTable
 70
     1
  0
VPORT
  5
C76
330
8
100
AcDbSymbolTableRecord
100
AcDbViewportTableRecord
  2
*ACTIVE
 70
     0
 10
0.0
 20
0.0
 11
1.0
 21
1.0
 12
612.9685451040394
 22
275.6868449533001
 13
0.0
 23
0.0
 14
10.0
 24
10.0
 15
10.0
 25
10.0
 16
0.0
 26
0.0
 36
1.0
 17
0.0
 27
0.0
 37
0.0
 40
535.4530508356162
 41
2.35006605019815
 42
50.0
 43
0.0
 44
0.0
 50
0.0
 51
0.0
 71
     0
 72
   100
 73
     1
 74
     0
 75
     0
 76
     0
 77
     0
 78
     0
281
     0
 65
     1
110
0.0
120
0.0
130
0.0
111
1.0
121
0.0
131
0.0
112
0.0
122
1.0
132
0.0
 79
     0
146
0.0
1001
ACAD_NAV_VCDISPLAY
1070
     3
  0
ENDTAB
  0
TABLE
  2
LTYPE
  5
5
330
0
100
AcDbSymbolTable
 70
     4
  0
LTYPE
  5
12
330
5
100
AcDbSymbolTableRecord
100
AcDbLinetypeTableRecord
  2
BYBLOCK
 70
     0
  3

 72
    65
 73
     0
 40
0.0
  0
LTYPE
  5
13
330
5
100
AcDbSymbolTableRecord
100
AcDbLinetypeTableRecord
  2
BYLAYER
 70
     0
  3

 72
    65
 73
     0
 40
0.0
  0
LTYPE
  5
14
330
5
100
AcDbSymbolTableRecord
100
AcDbLinetypeTableRecord
  2
CONTINUOUS
 70
     0
  3
Solid line
 72
    65
 73
     0
 40
0.0
  0
LTYPE
  5
4B
330
5
100
AcDbSymbolTableRecord
100
AcDbLinetypeTableRecord
  2
DASHED
 70
     0
  3
Dashed __ __ __ __ __ __ __ __ __ __ __ __ __ _
 72
    65
 73
     2
 40
19.04999999999999
 49
12.7
 74
     0
 49
-6.349999999999998
 74
     0
  0
LTYPE
  5
4C
330
5
100
AcDbSymbolTableRecord
100
AcDbLinetypeTableRecord
  2
CENTER
 70
     0
  3
Center ____ _ ____ _ ____ _ ____ _ ____ _ ____
 72
    65
 73
     4
 40
50.8
 49
31.75
 74
     0
 49
-6.349999999999998
 74
     0
 49
6.349999999999998
 74
     0
 49
-6.349999999999998
 74
     0
  0
LTYPE
  5
4D
330
5
100
AcDbSymbolTableRecord
100
AcDbLinetypeTableRecord
  2
PHANTOM
 70
     0
  3
Phantom ______  __  __  ______  __  __  ______
 72
    65
 73
     6
 40
63.5
 49
31.75
 74
     0
 49
-6.349999999999998
 74
     0
 49
6.349999999999998
 74
     0
 49
-6.349999999999998
 74
     0
 49
6.349999999999998
 74
     0
 49
-6.349999999999998
 74
     0
  0
ENDTAB
  0
TABLE
  2
LAYER
  5
2
330
0
100
AcDbSymbolTable
 70
     8
  0
LAYER
  5
E
102
{ACAD_XDICTIONARY
360
CD0
102
}
330
2
100
AcDbSymbolTableRecord
100
AcDbLayerTableRecord
  2
0
 70
     0
 62
     7
  6
CONTINUOUS
370
    -3
390
C7F
  0
LAYER
  5
4E
102
{ACAD_XDICTIONARY
360
CD2
102
}
330
2
100
AcDbSymbolTableRecord
100
AcDbLayerTableRecord
  2
4
 70
     0
 62
     1
  6
CENTER
370
    -3
390
C7F
  0
LAYER
  5
4F
102
{ACAD_XDICTIONARY
360
CD4
102
}
330
2
100
AcDbSymbolTableRecord
100
AcDbLayerTableRecord
  2
5
 70
     0
 62
     6
  6
PHANTOM
370
    -3
390
C7F
  0
LAYER
  5
50
102
{ACAD_XDICTIONARY
360
CD6
102
}
330
2
100
AcDbSymbolTableRecord
100
AcDbLayerTableRecord
  2
1
 70
     0
 62
     7
  6
CONTINUOUS
370
    -3
390
C7F
  0
LAYER
  5
51
102
{ACAD_XDICTIONARY
360
CD8
102
}
330
2
100
AcDbSymbolTableRecord
100
AcDbLayerTableRecord
  2
2
 70
     0
 62
     4
  6
CONTINUOUS
370
    -3
390
C7F
  0
LAYER
  5
52
102
{ACAD_XDICTIONARY
360
CDA
102
}
330
2
100
AcDbSymbolTableRecord
100
AcDbLayerTableRecord
  2
3
 70
     0
 62
     2
  6
DASHED
370
    -3
390
C7F
  0
LAYER
  5
53
102
{ACAD_XDICTIONARY
360
CDC
102
}
330
2
100
AcDbSymbolTableRecord
100
AcDbLayerTableRecord
  2
6
 70
     0
 62
     5
  6
CONTINUOUS
370
    -3
390
C7F
  0
LAYER
  5
54
102
{ACAD_XDICTIONARY
360
CDE
102
}
330
2
100
AcDbSymbolTableRecord
100
AcDbLayerTableRecord
  2
7
 70
     0
 62
     3
  6
CONTINUOUS
370
    -3
390
C7F
  0
ENDTAB
  0
TABLE
  2
STYLE
  5
3
330
0
100
AcDbSymbolTable
 70
     1
  0
STYLE
  5
F
330
3
100
AcDbSymbolTableRecord
100
AcDbTextStyleTableRecord
  2
STANDARD
 70
     0
 40
0.0
 41
1.0
 50
0.0
 71
     0
 42
2.5
  3
simplex.shx
  4

  0
ENDTAB
  0
TABLE
  2
VIEW
  5
6
330
0
100
AcDbSymbolTable
 70
     0
  0
ENDTAB
  0
TABLE
  2
UCS
  5
7
330
0
100
AcDbSymbolTable
 70
     0
  0
ENDTAB
  0
TABLE
  2
APPID
  5
9
330
0
100
AcDbSymbolTable
 70
     5
  0
APPID
  5
10
330
9
100
AcDbSymbolTableRecord
100
AcDbRegAppTableRecord
  2
ACAD
 70
     0
  0
APPID
  5
3E
330
9
100
AcDbSymbolTableRecord
100
AcDbRegAppTableRecord
  2
CONTENTTABDATA
 70
     0
  0
APPID
  5
3F
330
9
100
AcDbSymbolTableRecord
100
AcDbRegAppTableRecord
  2
CONTENTCURRENTTAB
 70
     0
  0
APPID
  5
CEA
330
9
100
AcDbSymbolTableRecord
100
AcDbRegAppTableRecord
  2
ACAD_NAV_VCDISPLAY
 70
     0
  0
APPID
  5
D23
330
9
100
AcDbSymbolTableRecord
100
AcDbRegAppTableRecord
  2
ACAD_MLEADERVER
 70
     0
  0
ENDTAB
  0
TABLE
  2
DIMSTYLE
  5
A
330
0
100
AcDbSymbolTable
 70
     1
100
AcDbDimStyleTable
 71
     0
  0
DIMSTYLE
105
1D
330
A
100
AcDbSymbolTableRecord
100
AcDbDimStyleTableRecord
  2
STANDARD
 70
     0
 41
3.0
 42
1.0
 43
10.0
 44
1.0
 73
     0
 74
     0
 77
     3
 78
     8
140
3.2
141
0.0
147
1.0
172
     1
173
     1
340
F
341
2E
343
2E
344
2E
  0
ENDTAB
  0
TABLE
  2
BLOCK_RECORD
  5
1
330
0
100
AcDbSymbolTable
 70
     1
  0
BLOCK_RECORD
  5
18
102
{ACAD_XDICTIONARY
360
C79
102
}
330
1
100
AcDbSymbolTableRecord
100
AcDbBlockTableRecord
  2
*MODEL_SPACE
340
CCD
  0
BLOCK_RECORD
  5
15
102
{ACAD_XDICTIONARY
360
C77
102
}
330
1
100
AcDbSymbolTableRecord
100
AcDbBlockTableRecord
  2
*PAPER_SPACE
340
CCE
  0
BLOCK_RECORD
  5
2E
330
1
100
AcDbSymbolTableRecord
100
AcDbBlockTableRecord
  2
_OPEN
340
0
  0
ENDTAB
  0
ENDSEC
  0
SECTION
  2
BLOCKS
  0
BLOCK
  5
19
330
18
100
AcDbEntity
  8
0
100
AcDbBlockBegin
  2
*MODEL_SPACE
 70
     0
 10
0.0
 20
0.0
 30
0.0
  3
*MODEL_SPACE
  1

  0
ENDBLK
  5
1A
330
18
100
AcDbEntity
  8
0
100
AcDbBlockEnd
  0
BLOCK
  5
16
330
15
100
AcDbEntity
 67
     1
  8
0
100
AcDbBlockBegin
  2
*PAPER_SPACE
 70
     0
 10
0.0
 20
0.0
 30
0.0
  3
*PAPER_SPACE
  1

  0
ENDBLK
  5
17
330
15
100
AcDbEntity
 67
     1
  8
0
100
AcDbBlockEnd
  0
BLOCK
  5
2F
330
2E
100
AcDbEntity
  8
0
100
AcDbBlockBegin
  2
_OPEN
 70
     0
 10
0.0
 20
0.0
 30
0.0
  3
_OPEN
  1

  0
LINE
  5
30
330
2E
100
AcDbEntity
  8
0
  6
ByBlock
 62
     0
100
AcDbLine
 10
-1.0
 20
0.1666666666666666
 30
0.0
 11
0.0
 21
0.0
 31
0.0
  0
LINE
  5
31
330
2E
100
AcDbEntity
  8
0
  6
ByBlock
 62
     0
100
AcDbLine
 10
0.0
 20
0.0
 30
0.0
 11
-1.0
 21
-0.1666666666666666
 31
0.0
  0
LINE
  5
32
330
2E
100
AcDbEntity
  8
0
  6
ByBlock
 62
     0
100
AcDbLine
 10
0.0
 20
0.0
 30
0.0
 11
-1.0
 21
0.0
 31
0.0
  0
ENDBLK
  5
33
330
2E
100
AcDbEntity
  8
0
100
AcDbBlockEnd
  0
ENDSEC
  0
SECTION
  2
ENTITIES
  0
TEXT
  5
63
330
18
100
AcDbEntity
  8
4
  6
CENTER
 48
0.25
100
AcDbText
 10
23.97950852663849
 20
10.0
 30
0.0
 40
1.399999999999999
  1
4
100
AcDbText
  0
TEXT
  5
64
330
18
100
AcDbEntity
  8
7
  6
Continuous
 48
0.25
100
AcDbText
 10
9.999997526638502
 20
26.0000007607689
 30
0.0
 40
3.0
  1
CODE No.19305
100
AcDbText
  0
TEXT
  5
65
330
18
100
AcDbEntity
  8
7
  6
Continuous
 48
0.25
100
AcDbText
 10
9.999997526638502
 20
18.00000076076889
 30
0.0
 40
3.0
  1
TYPE No.TCA-520TS-P100
100
AcDbText
  0
TEXT
  5
66
330
18
100
AcDbEntity
  8
1
  6
Continuous
 48
0.25
100
AcDbText
 10
9.999997526638502
 20
10.00000076076889
 30
0.0
 40
1.399999999999999
  1
LAYER
100
AcDbText
  0
TEXT
  5
67
330
18
100
AcDbEntity
  8
2
  6
Continuous
 48
0.25
100
AcDbText
 10
19.9795085266385
 20
10.0
 30
0.0
 40
1.399999999999999
  1
2
100
AcDbText
  0
TEXT
  5
68
330
18
100
AcDbEntity
  8
3
  6
DASHED
 48
0.25
100
AcDbText
 10
21.9795085266385
 20
10.0
 30
0.0
 40
1.399999999999999
  1
3
100
AcDbText
  0
TEXT
  5
69
330
18
100
AcDbEntity
  8
1
  6
Continuous
 48
0.25
100
AcDbText
 10
17.9795085266385
 20
10.0
 30
0.0
 40
1.399999999999999
  1
1
100
AcDbText
  0
TEXT
  5
6A
330
18
100
AcDbEntity
  8
5
  6
PHANTOM
 48
0.25
100
AcDbText
 10
25.9795085266385
 20
10.0
 30
0.0
 40
1.399999999999999
  1
5
100
AcDbText
  0
TEXT
  5
6B
330
18
100
AcDbEntity
  8
6
  6
Continuous
 48
0.25
100
AcDbText
 10
27.9795085266385
 20
10.0
 30
0.0
 40
1.399999999999999
  1
6
100
AcDbText
  0
TEXT
  5
6C
330
18
100
AcDbEntity
  8
7
  6
Continuous
 48
0.25
100
AcDbText
 10
29.9795085266385
 20
10.0
 30
0.0
 40
1.399999999999999
  1
7
100
AcDbText
  0
ARC
  5
244
330
18
100
AcDbEntity
  8
1
  6
Continuous
100
AcDbCircle
 10
440.7173949968841
 20
330.9956448210568
 30
0.0
 40
3.0
100
AcDbArc
 50
89.99998199999998
 51
179.9999639999999
  0
ARC
  5
245
330
18
100
AcDbEntity
  8
1
  6
Continuous
100
AcDbCircle
 10
444.3413419968838
 20
343.3706538210568
 30
0.0
 40
4.875008999999998
100
AcDbArc
 50
202.6199349999999
 51
270.0
  0
ARC
  5
246
330
18
100
AcDbEntity
  8
1
  6
Continuous
100
AcDbCircle
 10
460.5822739968838
 20
270.9956448210568
 30
0.0
 40
18.364875
100
AcDbArc
 50
157.5259789937268
 51
237.7570453391935
  0
LINE
  5
247
330
18
100
AcDbEntity
  8
4
  6
CENTER
 48
0.7
100
AcDbLine
 10
543.7174289968841
 20
255.9956448210568
 30
0.0
 11
437.7174289968841
 21
255.9956448210568
 31
0.0
  0
LINE
  5
248
330
18
100
AcDbEntity
  8
1
  6
Continuous
100
AcDbLine
 10
536.7174029968841
 20
323.9956448210568
 30
0.0
 11
437.717394996884
 21
323.9956448210568
 31
0.0
  0
LINE
  5
249
330
18
100
AcDbEntity
  8
1
  6
Continuous
100
AcDbLine
 10
542.2173999968841
 20
341.4956448210568
 30
0.0
 11
432.2173999968838
 21
341.4956448210568
 31
0.0
  0
LINE
  5
24A
330
18
100
AcDbEntity
  8
1
  6
Continuous
100
AcDbLine
 10
542.2173999968841
 20
345.9956448210569
 30
0.0
 11
432.2173999968838
 21
345.9956448210569
 31
0.0
  0
LINE
  5
24B
330
18
100
AcDbEntity
  8
4
  6
CENTER
 48
0.7
100
AcDbLine
 10
256.6923675317706
 20
197.9956448210568
 30
0.0
 11
256.6923675317706
 21
313.9956448210568
 31
0.0
  0
ARC
  5
255
330
18
100
AcDbEntity
  8
1
  6
Continuous
100
AcDbCircle
 10
268.6923675317706
 20
287.8075918210569
 30
0.0
 40
17.0
100
AcDbArc
 50
180.0
 51
240.0
  0
LINE
  5
256
330
18
100
AcDbEntity
  8
1
  6
Continuous
100
AcDbLine
 10
215.9683225317702
 20
314.9967598210569
 30
0.0
 11
237.7165375317701
 21
249.6775858210567
 31
0.0
  0
LINE
  5
257
330
18
100
AcDbEntity
  8
1
  6
Continuous
100
AcDbLine
 10
307.6107725317704
 20
301.3467858210568
 30
0.0
 11
273.7916603563425
 21
245.6219191210231
 31
0.0
  0
ARC
  5
258
330
18
100
AcDbEntity
  8
1
  6
Continuous
100
AcDbCircle
 10
256.6923675317706
 20
255.9956448210568
 30
0.0
 40
50.0
100
AcDbArc
 50
131.9935130000002
 51
35.16849000000001
  0
ARC
  5
28F
330
18
100
AcDbEntity
  8
1
  6
Continuous
100
AcDbCircle
 10
281.6923685317703
 20
73.6239857338815
 30
0.0
 40
35.99999900000023
100
AcDbArc
 50
278.4797580130555
 51
81.52024198694418
  0
ARC
  5
290
330
18
100
AcDbEntity
  8
1
  6
Continuous
100
AcDbCircle
 10
281.6923685317703
 20
73.6239857338815
 30
0.0
 40
41.49999900000023
100
AcDbArc
 50
292.3145512639458
 51
67.68544873605442
  0
ARC
  5
291
330
18
100
AcDbEntity
  8
1
  6
Continuous
100
AcDbCircle
 10
281.6923685317703
 20
73.6239857338815
 30
0.0
 40
45.49999900000023
100
AcDbArc
 50
292.3145512639451
 51
67.68544873605488
  0
ARC
  5
292
330
18
100
AcDbEntity
  8
1
  6
Continuous
100
AcDbCircle
 10
281.6923685317703
 20
73.6239857338815
 30
0.0
 40
47.20000300000022
100
AcDbArc
 50
247.5407873972302
 51
118.4495887801447
  0
ARC
  5
293
330
18
100
AcDbEntity
  8
1
  6
Continuous
100
AcDbCircle
 10
281.6923685317703
 20
73.6239857338815
 30
0.0
 40
49.50000300000022
100
AcDbArc
 50
247.4283555635488
 51
123.0302206512368
  0
LINE
  5
296
330
18
100
AcDbEntity
  8
4
  6
CENTER
 48
0.7
100
AcDbLine
 10
256.6923675317706
 20
17.12395573388153
 30
0.0
 11
256.6923675317706
 21
123.1239557338815
 31
0.0
  0
LINE
  5
297
330
18
100
AcDbEntity
  8
4
  6
CENTER
 48
0.7
100
AcDbLine
 10
281.6923685317703
 20
10.62398573388179
 30
0.0
 11
281.6923685317703
 21
136.6239857338815
 31
0.0
  0
LINE
  5
298
330
18
100
AcDbEntity
  8
1
  6
Continuous
100
AcDbLine
 10
356.6923685317703
 20
28.62398573388178
 30
0.0
 11
356.6923685317703
 21
118.6239857338815
 31
0.0
  0
LINE
  5
299
330
18
100
AcDbEntity
  8
1
  6
Continuous
100
AcDbLine
 10
206.6923685317703
 20
28.62398573388178
 30
0.0
 11
206.6923685317703
 21
118.6239857338815
 31
0.0
  0
LINE
  5
29B
330
18
100
AcDbEntity
  8
1
  6
Continuous
100
AcDbLine
 10
346.6923685317703
 20
18.62398573388178
 30
0.0
 11
216.6923685317703
 21
18.62398573388178
 31
0.0
  0
LINE
  5
29C
330
18
100
AcDbEntity
  8
4
  6
CENTER
 48
0.7
100
AcDbLine
 10
364.6923685317704
 20
73.6239857338815
 30
0.0
 11
198.6923685317703
 21
73.6239857338815
 31
0.0
  0
LINE
  5
29D
330
18
100
AcDbEntity
  8
1
  6
Continuous
100
AcDbLine
 10
281.2761600727625
 20
38.12398573388156
 30
0.0
 11
215.0572392627751
 21
38.12398573388156
 31
0.0
  0
LINE
  5
29E
330
18
100
AcDbEntity
  8
1
  6
Continuous
100
AcDbLine
 10
281.2761533939438
 20
42.12400073388153
 30
0.0
 11
214.1178740253392
 21
42.12400073388153
 31
0.0
  0
LINE
  5
2A0
330
18
100
AcDbEntity
  8
4
  6
CENTER
 48
0.3
100
AcDbLine
 10
210.6923685317703
 20
44.1239857338818
 30
0.0
 11
231.6923685317703
 21
44.1239857338818
 31
0.0
  0
LINE
  5
2A1
330
18
100
AcDbEntity
  8
4
  6
CENTER
 48
0.3
100
AcDbLine
 10
221.1923685317703
 20
33.62398573388179
 30
0.0
 11
221.1923685317703
 21
54.62398573388179
 31
0.0
  0
ARC
  5
2A2
330
18
100
AcDbEntity
  8
1
  6
Continuous
100
AcDbCircle
 10
216.6923685317703
 20
28.62398573388178
 30
0.0
 40
10.0
100
AcDbArc
 50
180.0
 51
270.0
  0
ARC
  5
2A3
330
18
100
AcDbEntity
  8
1
  6
Continuous
100
AcDbCircle
 10
357.2375794037457
 20
73.62398573388159
 30
0.0
 40
146.545211871975
100
AcDbArc
 50
191.0038310668589
 51
194.0191425686172
  0
ARC
  5
2A5
330
18
100
AcDbEntity
  8
1
  6
Continuous
100
AcDbCircle
 10
221.1923685317703
 20
44.1239857338818
 30
0.0
 40
6.5
100
AcDbArc
 50
247.3801350519647
 51
292.619864948035
  0
LINE
  5
2A6
330
18
100
AcDbEntity
  8
1
  6
Continuous
100
AcDbLine
 10
283.1032334061676
 20
36.93749850843437
 30
0.0
 11
285.2199964438416
 21
32.18344741022316
 31
0.0
  0
LINE
  5
2A7
330
18
100
AcDbEntity
  8
1
  6
Continuous
100
AcDbLine
 10
286.7573733941586
 20
38.56453905753997
 30
0.0
 11
288.8741431106515
 21
33.81047295932879
 31
0.0
  0
LINE
  5
2A8
330
18
100
AcDbEntity
  8
1
  6
Continuous
100
AcDbLine
 10
247.1923675317706
 20
31.38192313009406
 30
0.0
 11
247.1923675317706
 21
36.96406768629275
 31
0.0
  0
LINE
  5
2A9
330
18
100
AcDbEntity
  8
1
  6
Continuous
100
AcDbLine
 10
266.1923675317708
 20
31.38215773388199
 30
0.0
 11
266.1923675317706
 21
36.96406768629275
 31
0.0
  0
LINE
  5
2AA
330
18
100
AcDbEntity
  8
1
  6
Continuous
100
AcDbLine
 10
256.6923675317706
 20
33.48403273388157
 30
0.0
 11
256.6923675317706
 21
36.96404373388179
 31
0.0
  0
ARC
  5
2AB
330
18
100
AcDbEntity
  8
1
  6
Continuous
100
AcDbCircle
 10
261.4423905912287
 20
42.62990587020152
 30
0.0
 40
10.30576723149781
100
AcDbArc
 50
242.5542070982816
 51
297.445792901718
  0
LINE
  5
2AC
330
18
100
AcDbEntity
  8
1
  6
Continuous
100
AcDbLine
 10
264.8141995317704
 20
30.00398973388156
 30
0.0
 11
266.1923675317708
 21
31.38215773388199
 31
0.0
  0
ARC
  5
2AD
330
18
100
AcDbEntity
  8
1
  6
Continuous
100
AcDbCircle
 10
251.9423444724548
 20
42.62990587020152
 30
0.0
 40
10.30576723149781
100
AcDbArc
 50
242.5542070982816
 51
297.445792901718
  0
LINE
  5
2AE
330
18
100
AcDbEntity
  8
1
  6
Continuous
100
AcDbLine
 10
248.5704175317704
 20
30.0038727338815
 30
0.0
 11
247.1923675317706
 21
31.38192313009406
 31
0.0
  0
LINE
  5
2AF
330
18
100
AcDbEntity
  8
1
  6
Continuous
100
AcDbLine
 10
264.8141325317706
 20
30.00402173388148
 30
0.0
 11
248.5705715317706
 21
30.00402173388148
 31
0.0
  0
LINE
  5
2B0
330
18
100
AcDbEntity
  8
1
  6
Continuous
100
AcDbLine
 10
262.6923675317706
 20
25.87398273388156
 30
0.0
 11
250.6923675317707
 21
25.87398273388156
 31
0.0
  0
LINE
  5
2B1
330
18
100
AcDbEntity
  8
1
  6
Continuous
100
AcDbLine
 10
261.9423675317706
 20
25.12395573388153
 30
0.0
 11
251.4423675317706
 21
25.12395573388153
 31
0.0
  0
LINE
  5
2B2
330
18
100
AcDbEntity
  8
2
  6
Continuous
 48
0.25
100
AcDbLine
 10
251.6393675317706
 20
25.12395573388153
 30
0.0
 11
251.6393675317706
 21
30.00402173388148
 31
0.0
  0
LINE
  5
2B3
330
18
100
AcDbEntity
  8
1
  6
Continuous
100
AcDbLine
 10
250.6923675317707
 20
25.87398273388156
 30
0.0
 11
250.6923675317707
 21
30.00402173388148
 31
0.0
  0
LINE
  5
2B4
330
18
100
AcDbEntity
  8
1
  6
Continuous
100
AcDbLine
 10
250.6923675317707
 20
25.87398273388156
 30
0.0
 11
251.4423825317704
 21
25.12396773388173
 31
0.0
  0
LINE
  5
2B5
330
18
100
AcDbEntity
  8
2
  6
Continuous
 48
0.25
100
AcDbLine
 10
261.7453675317706
 20
25.12395573388153
 30
0.0
 11
261.7453675317706
 21
30.00402173388148
 31
0.0
  0
LINE
  5
2B6
330
18
100
AcDbEntity
  8
1
  6
Continuous
100
AcDbLine
 10
262.6923675317706
 20
25.87398273388156
 30
0.0
 11
262.6923675317706
 21
30.00402173388148
 31
0.0
  0
LINE
  5
2B7
330
18
100
AcDbEntity
  8
1
  6
Continuous
100
AcDbLine
 10
262.6923675317706
 20
25.87398273388192
 30
0.0
 11
261.9423525317705
 21
25.12396773388173
 31
0.0
  0
ARC
  5
2B8
330
18
100
AcDbEntity
  8
1
  6
Continuous
100
AcDbCircle
 10
287.9592016424169
 20
102.2037021147616
 30
0.0
 40
73.63079048783311
100
AcDbArc
 50
252.8051996844867
 51
272.134191553718
  0
LINE
  5
2B9
330
18
100
AcDbEntity
  8
1
  6
Continuous
100
AcDbLine
 10
291.4605986849704
 20
32.77375909582221
 30
0.0
 11
297.4495496510438
 21
35.23178391926271
 31
0.0
  0
ARC
  5
2BA
330
18
100
AcDbEntity
  8
1
  6
Continuous
100
AcDbCircle
 10
290.7012164440565
 20
34.62398573388159
 30
0.0
 40
6.0
100
AcDbArc
 50
204.0012383234991
 51
292.3145512639451
  0
ARC
  5
2BB
330
18
100
AcDbEntity
  8
1
  6
Continuous
100
AcDbCircle
 10
290.7012164440565
 20
34.62398573388159
 30
0.0
 40
2.0
100
AcDbArc
 50
204.0012383235
 51
292.3145512639456
  0
LINE
  5
2BC
330
18
100
AcDbEntity
  8
1
  6
Continuous
100
AcDbLine
 10
298.9683141328717
 20
31.53133064314385
 30
0.0
 11
292.9793631667982
 21
29.07330581970346
 31
0.0
  0
ARC
  5
2BD
330
18
100
AcDbEntity
  8
1
  6
Continuous
100
AcDbCircle
 10
261.4423905912287
 20
27.81821850238376
 30
0.0
 40
10.30576723149781
100
AcDbArc
 50
62.55420709828171
 51
117.4457929017183
  0
ARC
  5
2BE
330
18
100
AcDbEntity
  8
1
  6
Continuous
100
AcDbCircle
 10
251.9423444724548
 20
27.81821850238376
 30
0.0
 40
10.30576723149781
100
AcDbArc
 50
62.55420709828171
 51
117.4457929017183
  0
ARC
  5
2C3
330
18
100
AcDbEntity
  8
1
  6
Continuous
100
AcDbCircle
 10
281.2761600727625
 20
36.12398573388157
 30
0.0
 40
2.0
100
AcDbArc
 50
24.00123832349913
 51
90.0
  0
ARC
  5
2C4
330
18
100
AcDbEntity
  8
1
  6
Continuous
100
AcDbCircle
 10
281.2761533939438
 20
36.12400073388153
 30
0.0
 40
6.0
100
AcDbArc
 50
24.00123832349913
 51
90.0
  0
LINE
  5
2C5
330
18
100
AcDbEntity
  8
4
  6
CENTER
 48
0.3
100
AcDbLine
 10
342.1923685317703
 20
33.62398573388179
 30
0.0
 11
342.1923685317703
 21
54.62398573388179
 31
0.0
  0
ARC
  5
2C6
330
18
100
AcDbEntity
  8
1
  6
Continuous
100
AcDbCircle
 10
346.6923685317703
 20
28.62398573388178
 30
0.0
 40
10.0
100
AcDbArc
 50
270.0
 51
0.0
  0
LINE
  5
2C7
330
18
100
AcDbEntity
  8
4
  6
CENTER
 48
0.3
100
AcDbLine
 10
352.6923685317703
 20
44.1239857338818
 30
0.0
 11
331.6923685317703
 21
44.1239857338818
 31
0.0
  0
CIRCLE
  5
2C8
330
18
100
AcDbEntity
  8
1
  6
Continuous
100
AcDbCircle
 10
342.1923685317703
 20
44.1239857338818
 30
0.0
 40
6.5
  0
LINE
  5
2CA
330
18
100
AcDbEntity
  8
1
  6
Continuous
100
AcDbLine
 10
346.6923685317703
 20
128.6239857338815
 30
0.0
 11
216.6923685317703
 21
128.6239857338815
 31
0.0
  0
LINE
  5
2CB
330
18
100
AcDbEntity
  8
4
  6
CENTER
 48
0.7
100
AcDbLine
 10
198.6923675317706
 20
255.9956448210568
 30
0.0
 11
314.6923675317706
 21
255.9956448210568
 31
0.0
  0
LINE
  5
2CD
330
18
100
AcDbEntity
  8
1
  6
Continuous
100
AcDbLine
 10
281.2761600727625
 20
109.1239857338815
 30
0.0
 11
215.0572392627751
 21
109.1239857338815
 31
0.0
  0
LINE
  5
2CE
330
18
100
AcDbEntity
  8
1
  6
Continuous
100
AcDbLine
 10
281.2761533939438
 20
105.1239707338815
 30
0.0
 11
214.1178740253392
 21
105.1239707338815
 31
0.0
  0
LINE
  5
2CF
330
18
100
AcDbEntity
  8
4
  6
CENTER
 48
0.3
100
AcDbLine
 10
210.6923685317703
 20
103.1239857338815
 30
0.0
 11
231.6923685317703
 21
103.1239857338815
 31
0.0
  0
ARC
  5
2D0
330
18
100
AcDbEntity
  8
1
  6
Continuous
100
AcDbCircle
 10
357.2375794037457
 20
73.62398573388159
 30
0.0
 40
146.545211871975
100
AcDbArc
 50
165.9808574313827
 51
168.996168933141
  0
LINE
  5
2D1
330
18
100
AcDbEntity
  8
4
  6
CENTER
 48
0.3
100
AcDbLine
 10
221.1923685317703
 20
113.6239857338815
 30
0.0
 11
221.1923685317703
 21
92.6239857338815
 31
0.0
  0
ARC
  5
2D3
330
18
100
AcDbEntity
  8
1
  6
Continuous
100
AcDbCircle
 10
216.6923685317703
 20
118.6239857338815
 30
0.0
 40
10.0
100
AcDbArc
 50
90.0
 51
180.0
  0
ARC
  5
2D4
330
18
100
AcDbEntity
  8
1
  6
Continuous
100
AcDbCircle
 10
221.1923685317703
 20
103.1239857338815
 30
0.0
 40
6.5
100
AcDbArc
 50
67.38013505195964
 51
112.6198649480405
  0
LINE
  5
2D5
330
18
100
AcDbEntity
  8
1
  6
Continuous
100
AcDbLine
 10
266.1923675317706
 20
115.1239557338815
 30
0.0
 11
247.1923675317706
 21
115.1239557338815
 31
0.0
  0
ARC
  5
2DB
330
18
100
AcDbEntity
  8
1
  6
Continuous
100
AcDbCircle
 10
251.0670872767394
 20
112.1239557338814
 30
0.0
 40
3.0
100
AcDbArc
 50
90.0
 51
270.0000049999997
  0
LINE
  5
2DC
330
18
100
AcDbEntity
  8
1
  6
Continuous
100
AcDbLine
 10
256.6923675317706
 20
109.1239557338814
 30
0.0
 11
246.4923675317706
 21
109.1239557338814
 31
0.0
  0
LINE
  5
2DD
330
18
100
AcDbEntity
  8
1
  6
Continuous
100
AcDbLine
 10
246.1923675317706
 20
114.1239557338814
 30
0.0
 11
246.1923675317706
 21
110.1239557338814
 31
0.0
  0
ARC
  5
2DE
330
18
100
AcDbEntity
  8
1
  6
Continuous
100
AcDbCircle
 10
247.1923675317706
 20
114.1239557338814
 30
0.0
 40
1.0
100
AcDbArc
 50
90.0
 51
180.0000030000001
  0
ARC
  5
2DF
330
18
100
AcDbEntity
  8
1
  6
Continuous
100
AcDbCircle
 10
247.1923675317706
 20
110.1239557338814
 30
0.0
 40
1.0
100
AcDbArc
 50
179.9999990000002
 51
270.0000090000004
  0
ARC
  5
2E0
330
18
100
AcDbEntity
  8
1
  6
Continuous
100
AcDbCircle
 10
251.8176477868016
 20
112.1239557338814
 30
0.0
 40
3.0
100
AcDbArc
 50
269.9999909999995
 51
90.00001000000018
  0
ARC
  5
2E1
330
18
100
AcDbEntity
  8
1
  6
Continuous
100
AcDbCircle
 10
261.5670872767396
 20
112.1239557338814
 30
0.0
 40
3.0
100
AcDbArc
 50
89.99998999999981
 51
270.0000090000004
  0
ARC
  5
2E2
330
18
100
AcDbEntity
  8
1
  6
Continuous
100
AcDbCircle
 10
262.3176477868019
 20
112.1239557338814
 30
0.0
 40
3.0
100
AcDbArc
 50
269.9999950000003
 51
90.0
  0
ARC
  5
2E3
330
18
100
AcDbEntity
  8
1
  6
Continuous
100
AcDbCircle
 10
281.2761533939438
 20
111.1239707338816
 30
0.0
 40
6.0
100
AcDbArc
 50
270.0
 51
335.9987616765008
  0
ARC
  5
2E4
330
18
100
AcDbEntity
  8
1
  6
Continuous
100
AcDbCircle
 10
287.9592016424169
 20
45.04426935300137
 30
0.0
 40
73.63079048783311
100
AcDbArc
 50
87.86580844628195
 51
107.194800315513
  0
ARC
  5
2E5
330
18
100
AcDbEntity
  8
1
  6
Continuous
100
AcDbCircle
 10
281.2761600727625
 20
111.1239857338815
 30
0.0
 40
2.0
100
AcDbArc
 50
270.0
 51
335.9987616765008
  0
LINE
  5
2E6
330
18
100
AcDbEntity
  8
1
  6
Continuous
100
AcDbLine
 10
283.1032334061676
 20
110.3104729593286
 30
0.0
 11
285.2199964438416
 21
115.0645240575399
 31
0.0
  0
ARC
  5
2E7
330
18
100
AcDbEntity
  8
1
  6
Continuous
100
AcDbCircle
 10
266.1923675317706
 20
114.1239557338814
 30
0.0
 40
1.0
100
AcDbArc
 50
359.9999969999998
 51
90.0
  0
LINE
  5
2E8
330
18
100
AcDbEntity
  8
1
  6
Continuous
100
AcDbLine
 10
267.1923675317706
 20
114.1239557338814
 30
0.0
 11
267.1923675317706
 21
110.1239557338814
 31
0.0
  0
ARC
  5
2E9
330
18
100
AcDbEntity
  8
1
  6
Continuous
100
AcDbCircle
 10
266.1923675317706
 20
110.1239557338814
 30
0.0
 40
1.0
100
AcDbArc
 50
269.9999909999995
 51
0.000000999999775
  0
LINE
  5
2EA
330
18
100
AcDbEntity
  8
1
  6
Continuous
100
AcDbLine
 10
291.4605986849704
 20
114.4742123719409
 30
0.0
 11
297.4495496510438
 21
112.0161875485004
 31
0.0
  0
ARC
  5
2EB
330
18
100
AcDbEntity
  8
1
  6
Continuous
100
AcDbCircle
 10
290.7012164440565
 20
112.6239857338815
 30
0.0
 40
6.0
100
AcDbArc
 50
67.68544873605465
 51
155.9987616765008
  0
ARC
  5
2EC
330
18
100
AcDbEntity
  8
1
  6
Continuous
100
AcDbCircle
 10
290.7012164440565
 20
112.6239857338815
 30
0.0
 40
2.0
100
AcDbArc
 50
67.68544873605442
 51
155.9987616764999
  0
LINE
  5
2ED
330
18
100
AcDbEntity
  8
1
  6
Continuous
100
AcDbLine
 10
286.7573733941586
 20
108.6834324102231
 30
0.0
 11
288.8741431106515
 21
113.4374985084342
 31
0.0
  0
LINE
  5
2EE
330
18
100
AcDbEntity
  8
1
  6
Continuous
100
AcDbLine
 10
298.9683141328717
 20
115.7166408246191
 30
0.0
 11
292.9793631667982
 21
118.1746656480596
 31
0.0
  0
ARC
  5
2EF
330
18
100
AcDbEntity
  8
1
  6
Continuous
100
AcDbCircle
 10
256.6923675317706
 20
255.9956448210568
 30
0.0
 40
11.20000100000003
100
AcDbArc
 50
20.36414858839902
 51
39.63585141159546
  0
ARC
  5
2F0
330
18
100
AcDbEntity
  8
1
  6
Continuous
100
AcDbCircle
 10
256.6923675317706
 20
255.9956448210568
 30
0.0
 40
11.20000100000003
100
AcDbArc
 50
320.3641485884025
 51
339.6358514115992
  0
CIRCLE
  5
2F1
330
18
100
AcDbEntity
  8
1
  6
Continuous
100
AcDbCircle
 10
256.6923675317706
 20
255.9956448210568
 30
0.0
 40
9.75
  0
LINE
  5
2F2
330
18
100
AcDbEntity
  8
1
  6
Continuous
100
AcDbLine
 10
260.1923675317704
 20
273.0851608210567
 30
0.0
 11
282.5749445317707
 21
260.1625738210567
 31
0.0
  0
ARC
  5
2F3
330
18
100
AcDbEntity
  8
1
  6
Continuous
100
AcDbCircle
 10
256.6923675317706
 20
255.9956448210568
 30
0.0
 40
20.0
100
AcDbArc
 50
198.4153339999998
 51
328.7558287190837
  0
LINE
  5
2F4
330
18
100
AcDbEntity
  8
1
  6
Continuous
100
AcDbLine
 10
246.1923675317708
 20
259.8930827487221
 30
0.0
 11
246.1923675317708
 21
252.0982068933915
 31
0.0
  0
LINE
  5
2F5
330
18
100
AcDbEntity
  8
1
  6
Continuous
100
AcDbLine
 10
248.0670872767395
 20
248.851097045153
 30
0.0
 11
254.8176477868019
 21
244.9536591174876
 31
0.0
  0
ARC
  5
2F6
330
18
100
AcDbEntity
  8
1
  6
Continuous
100
AcDbCircle
 10
256.6923675317706
 20
255.9956448210568
 30
0.0
 40
11.20000100000003
100
AcDbArc
 50
200.3641485884037
 51
219.6358514115974
  0
ARC
  5
2F7
330
18
100
AcDbEntity
  8
1
  6
Continuous
100
AcDbCircle
 10
256.6923675317706
 20
255.9956448210568
 30
0.0
 40
11.20000100000003
100
AcDbArc
 50
260.3641485884033
 51
279.6358514115979
  0
LINE
  5
2F8
330
18
100
AcDbEntity
  8
1
  6
Continuous
100
AcDbLine
 10
265.3176477868017
 20
248.8510970451529
 30
0.0
 11
258.5670872767396
 21
244.9536591174876
 31
0.0
  0
LINE
  5
2F9
330
18
100
AcDbEntity
  8
1
  6
Continuous
100
AcDbLine
 10
248.0670872767396
 20
263.1401925969607
 30
0.0
 11
254.8176477868017
 21
267.0376305246259
 31
0.0
  0
ARC
  5
2FA
330
18
100
AcDbEntity
  8
1
  6
Continuous
100
AcDbCircle
 10
256.6923675317706
 20
255.9956448210568
 30
0.0
 40
11.20000100000003
100
AcDbArc
 50
140.3641485884019
 51
159.6358514115961
  0
LINE
  5
2FB
330
18
100
AcDbEntity
  8
1
  6
Continuous
100
AcDbLine
 10
265.3176477868019
 20
263.1401925969604
 30
0.0
 11
258.5670872767396
 21
267.0376305246259
 31
0.0
  0
CIRCLE
  5
2FC
330
18
100
AcDbEntity
  8
1
  6
Continuous
100
AcDbCircle
 10
256.6923675317706
 20
255.9956448210568
 30
0.0
 40
3.0
  0
ARC
  5
2FD
330
18
100
AcDbEntity
  8
1
  6
Continuous
100
AcDbCircle
 10
256.6923675317706
 20
255.9956448210568
 30
0.0
 40
11.20000100000003
100
AcDbArc
 50
80.36414858840274
 51
99.6358514115985
  0
LINE
  5
2FE
330
18
100
AcDbEntity
  8
1
  6
Continuous
100
AcDbLine
 10
267.1923675317708
 20
259.8930827487215
 30
0.0
 11
267.1923675317706
 21
252.0982068933919
 31
0.0
  0
LINE
  5
2FF
330
18
100
AcDbEntity
  8
4
  6
CENTER
 48
0.3
100
AcDbLine
 10
352.6923685317703
 20
103.1239857338815
 30
0.0
 11
331.6923685317703
 21
103.1239857338815
 31
0.0
  0
CIRCLE
  5
300
330
18
100
AcDbEntity
  8
1
  6
Continuous
100
AcDbCircle
 10
342.1923685317703
 20
103.1239857338815
 30
0.0
 40
6.5
  0
LINE
  5
301
330
18
100
AcDbEntity
  8
4
  6
CENTER
 48
0.3
100
AcDbLine
 10
342.1923685317703
 20
113.6239857338815
 30
0.0
 11
342.1923685317703
 21
92.6239857338815
 31
0.0
  0
ARC
  5
302
330
18
100
AcDbEntity
  8
1
  6
Continuous
100
AcDbCircle
 10
346.6923685317703
 20
118.6239857338815
 30
0.0
 40
10.0
100
AcDbArc
 50
0.0
 51
90.0
  0
LINE
  5
325
330
18
100
AcDbEntity
  8
4
  6
CENTER
 48
0.7
100
AcDbLine
 10
256.6923675317706
 20
431.3673039082321
 30
0.0
 11
256.6923675317706
 21
525.3673039082321
 31
0.0
  0
LINE
  5
326
330
18
100
AcDbEntity
  8
1
  6
Continuous
100
AcDbLine
 10
206.6923685317703
 20
523.367303908232
 30
0.0
 11
206.6923685317703
 21
433.3673039082324
 31
0.0
  0
LINE
  5
327
330
18
100
AcDbEntity
  8
4
  6
CENTER
 48
0.7
100
AcDbLine
 10
281.6923685317703
 20
541.3673039082319
 30
0.0
 11
281.6923685317703
 21
415.3673039082321
 31
0.0
  0
LINE
  5
328
330
18
100
AcDbEntity
  8
1
  6
Continuous
100
AcDbLine
 10
356.6923685317703
 20
523.367303908232
 30
0.0
 11
356.6923685317703
 21
433.3673039082324
 31
0.0
  0
CIRCLE
  5
329
330
18
100
AcDbEntity
  8
1
  6
Continuous
100
AcDbCircle
 10
281.6923685317703
 20
478.3673039082322
 30
0.0
 40
44.500002
  0
CIRCLE
  5
32A
330
18
100
AcDbEntity
  8
1
  6
Continuous
100
AcDbCircle
 10
281.6923685317703
 20
478.3673039082322
 30
0.0
 40
41.500002
  0
CIRCLE
  5
32B
330
18
100
AcDbEntity
  8
1
  6
Continuous
100
AcDbCircle
 10
281.6923685317703
 20
478.3673039082322
 30
0.0
 40
16.499999
  0
CIRCLE
  5
32C
330
18
100
AcDbEntity
  8
1
  6
Continuous
100
AcDbCircle
 10
281.6923685317703
 20
478.3673039082322
 30
0.0
 40
12.999999
  0
CIRCLE
  5
32D
330
18
100
AcDbEntity
  8
1
  6
Continuous
100
AcDbCircle
 10
281.6923685317703
 20
478.3673039082322
 30
0.0
 40
26.458466
  0
LINE
  5
32E
330
18
100
AcDbEntity
  8
1
  6
Continuous
100
AcDbLine
 10
346.6923685317703
 20
423.3673039082321
 30
0.0
 11
216.6923685317703
 21
423.3673039082321
 31
0.0
  0
LINE
  5
32F
330
18
100
AcDbEntity
  8
1
  6
Continuous
100
AcDbLine
 10
356.6923675317706
 20
345.9956448210569
 30
0.0
 11
206.6923675317705
 21
345.9956448210569
 31
0.0
  0
LINE
  5
330
330
18
100
AcDbEntity
  8
1
  6
Continuous
100
AcDbLine
 10
356.6923675317706
 20
341.4956448210568
 30
0.0
 11
206.6923675317705
 21
341.4956448210568
 31
0.0
  0
LINE
  5
331
330
18
100
AcDbEntity
  8
1
  6
Continuous
100
AcDbLine
 10
328.1923715317706
 20
333.9956448210565
 30
0.0
 11
235.1923635317705
 21
333.9956448210565
 31
0.0
  0
LINE
  5
332
330
18
100
AcDbEntity
  8
1
  6
Continuous
100
AcDbLine
 10
324.6923705317704
 20
338.4956448210568
 30
0.0
 11
238.6923645317704
 21
338.4956448210568
 31
0.0
  0
LINE
  5
333
330
18
100
AcDbEntity
  8
1
  6
Continuous
100
AcDbLine
 10
331.1923715317705
 20
323.9956448210567
 30
0.0
 11
232.1923635317705
 21
323.9956448210568
 31
0.0
  0
LINE
  5
334
330
18
100
AcDbEntity
  8
1
  6
Continuous
100
AcDbLine
 10
210.6923675317705
 20
317.7331318210568
 30
0.0
 11
247.6923675317706
 21
317.7331318210568
 31
0.0
  0
ARC
  5
335
330
18
100
AcDbEntity
  8
1
  6
Continuous
100
AcDbCircle
 10
212.1731565317701
 20
313.7331478210569
 30
0.0
 40
4.0
100
AcDbArc
 50
18.41533399999984
 51
89.99998199999998
  0
LINE
  5
336
330
18
100
AcDbEntity
  8
1
  6
Continuous
100
AcDbLine
 10
210.6923675317705
 20
314.2331318210568
 30
0.0
 11
214.7805355317703
 21
314.2331318210568
 31
0.0
  0
LINE
  5
337
330
18
100
AcDbEntity
  8
1
  6
Continuous
100
AcDbLine
 10
210.6923675317705
 20
317.7331318210568
 30
0.0
 11
210.6923675317705
 21
314.2331318210568
 31
0.0
  0
ARC
  5
338
330
18
100
AcDbEntity
  8
1
  6
Continuous
100
AcDbCircle
 10
214.7805355317703
 20
312.2331318210568
 30
0.0
 40
2.0
100
AcDbArc
 50
18.41533399999984
 51
90.0
  0
LINE
  5
339
330
18
100
AcDbEntity
  8
4
  6
CENTER
 48
0.2
100
AcDbLine
 10
221.1923685316464
 20
350.9956448210568
 30
0.0
 11
221.1923685316284
 21
336.4956448210568
 31
0.0
  0
LINE
  5
33A
330
18
100
AcDbEntity
  8
1
  6
Continuous
100
AcDbLine
 10
206.6923675317705
 20
341.4956448210568
 30
0.0
 11
206.6923675317705
 21
345.9956448210569
 31
0.0
  0
LINE
  5
33B
330
18
100
AcDbEntity
  8
1
  6
Continuous
100
AcDbLine
 10
232.1923635317705
 20
330.9956448210568
 30
0.0
 11
232.1923635317705
 21
323.9956448210568
 31
0.0
  0
LINE
  5
33C
330
18
100
AcDbEntity
  8
4
  6
CENTER
 48
0.7
100
AcDbLine
 10
281.6923675317706
 20
287.3143738210568
 30
0.0
 11
281.6923675317706
 21
353.9956448210568
 31
0.0
  0
LINE
  5
33D
330
18
100
AcDbEntity
  8
1
  6
Continuous
100
AcDbLine
 10
251.6923675317706
 20
316.0951088210568
 30
0.0
 11
251.6923675317706
 21
287.8075918210569
 31
0.0
  0
ARC
  5
33E
330
18
100
AcDbEntity
  8
1
  6
Continuous
100
AcDbCircle
 10
247.6923675317706
 20
321.7331318210568
 30
0.0
 40
4.0
100
AcDbArc
 50
270.0
 51
340.6875600000002
  0
LINE
  5
33F
330
18
100
AcDbEntity
  8
1
  6
Continuous
100
AcDbLine
 10
236.4250065317705
 20
323.9956448210567
 30
0.0
 11
235.5603465317705
 21
320.7139918210565
 31
0.0
  0
ARC
  5
340
330
18
100
AcDbEntity
  8
1
  6
Continuous
100
AcDbCircle
 10
231.6923635317705
 20
321.7331438210568
 30
0.0
 40
4.0
100
AcDbArc
 50
270.0000179999998
 51
345.2390120000003
  0
ARC
  5
341
330
18
100
AcDbEntity
  8
1
  6
Continuous
100
AcDbCircle
 10
247.0861025317703
 20
333.4724098210569
 30
0.0
 40
8.023234999999999
100
AcDbArc
 50
141.2380579999996
 51
170.2812150000004
  0
ARC
  5
342
330
18
100
AcDbEntity
  8
1
  6
Continuous
100
AcDbCircle
 10
235.1923635317705
 20
330.9956448210568
 30
0.0
 40
3.0
100
AcDbArc
 50
89.99998199999998
 51
179.9999639999999
  0
ARC
  5
343
330
18
100
AcDbEntity
  8
1
  6
Continuous
100
AcDbCircle
 10
238.1923675317707
 20
334.9956448210568
 30
0.0
 40
1.0
100
AcDbArc
 50
270.0000179999998
 51
350.2812150000004
  0
ARC
  5
344
330
18
100
AcDbEntity
  8
1
  6
Continuous
100
AcDbCircle
 10
238.6923645317704
 20
343.3706538210568
 30
0.0
 40
4.875008999999998
100
AcDbArc
 50
202.6199349999999
 51
270.0
  0
LINE
  5
345
330
18
100
AcDbEntity
  8
4
  6
CENTER
 48
0.3
100
AcDbLine
 10
210.6923685317703
 20
448.8673039082321
 30
0.0
 11
231.6923685317703
 21
448.8673039082321
 31
0.0
  0
LINE
  5
346
330
18
100
AcDbEntity
  8
4
  6
CENTER
 48
0.3
100
AcDbLine
 10
221.1923685317703
 20
438.3673039082323
 30
0.0
 11
221.1923685317703
 21
459.3673039082323
 31
0.0
  0
CIRCLE
  5
347
330
18
100
AcDbEntity
  8
1
  6
Continuous
100
AcDbCircle
 10
221.1923685317703
 20
448.8673039082321
 30
0.0
 40
6.5
  0
ARC
  5
348
330
18
100
AcDbEntity
  8
1
  6
Continuous
100
AcDbCircle
 10
216.6923685317703
 20
433.3673039082324
 30
0.0
 40
10.0
100
AcDbArc
 50
180.0
 51
270.0
  0
LINE
  5
349
330
18
100
AcDbEntity
  8
1
  6
Continuous
100
AcDbLine
 10
331.1923715317706
 20
330.9956448210568
 30
0.0
 11
331.1923715317706
 21
323.9956448210568
 31
0.0
  0
ARC
  5
34A
330
18
100
AcDbEntity
  8
1
  6
Continuous
100
AcDbCircle
 10
325.5632885317701
 20
290.4515038210568
 30
0.0
 40
21.0
100
AcDbArc
 50
93.77531400000002
 51
148.7466689999997
  0
LINE
  5
34B
330
18
100
AcDbEntity
  8
1
  6
Continuous
100
AcDbLine
 10
327.1923675317706
 20
311.7331318210565
 30
0.0
 11
326.7064865317706
 21
323.9956448210567
 31
0.0
  0
LINE
  5
34C
330
18
100
AcDbEntity
  8
1
  6
Continuous
100
AcDbLine
 10
324.2678495317701
 20
311.4515038210569
 30
0.0
 11
327.1923675317705
 21
311.7331318210568
 31
0.0
  0
ARC
  5
34D
330
18
100
AcDbEntity
  8
1
  6
Continuous
100
AcDbCircle
 10
316.2986325317703
 20
333.4724098210569
 30
0.0
 40
8.023234999999999
100
AcDbArc
 50
9.718784999999597
 51
38.76194200000039
  0
ARC
  5
34E
330
18
100
AcDbEntity
  8
1
  6
Continuous
100
AcDbCircle
 10
325.1923675317706
 20
334.9956448210568
 30
0.0
 40
1.0
100
AcDbArc
 50
189.7187850000004
 51
269.9999819999999
  0
ARC
  5
34F
330
18
100
AcDbEntity
  8
1
  6
Continuous
100
AcDbCircle
 10
328.1923715317706
 20
330.9956448210568
 30
0.0
 40
3.0
100
AcDbArc
 50
0.0000360000000406
 51
90.00001800000003
  0
ARC
  5
350
330
18
100
AcDbEntity
  8
1
  6
Continuous
100
AcDbCircle
 10
324.6923705317704
 20
343.3706538210568
 30
0.0
 40
4.875008999999998
100
AcDbArc
 50
270.0
 51
337.380065
  0
LINE
  5
351
330
18
100
AcDbEntity
  8
4
  6
CENTER
 48
0.2
100
AcDbLine
 10
342.1923685316463
 20
350.9956448210568
 30
0.0
 11
342.1923685316282
 21
336.4956448210568
 31
0.0
  0
LINE
  5
352
330
18
100
AcDbEntity
  8
1
  6
Continuous
100
AcDbLine
 10
356.6923675317706
 20
345.9956448210569
 30
0.0
 11
356.6923675317706
 21
341.4956448210568
 31
0.0
  0
LINE
  5
353
330
18
100
AcDbEntity
  8
1
  6
Continuous
100
AcDbLine
 10
437.717394996884
 20
330.9956448210568
 30
0.0
 11
437.717394996884
 21
323.9956448210568
 31
0.0
  0
LINE
  5
354
330
18
100
AcDbEntity
  8
1
  6
Continuous
100
AcDbLine
 10
432.2173979968843
 20
341.4956448210568
 30
0.0
 11
432.2173979968843
 21
345.9956448210569
 31
0.0
  0
LINE
  5
355
330
18
100
AcDbEntity
  8
4
  6
CENTER
 48
0.3
100
AcDbLine
 10
352.6923685317703
 20
448.8673039082321
 30
0.0
 11
331.6923685317703
 21
448.8673039082321
 31
0.0
  0
LINE
  5
356
330
18
100
AcDbEntity
  8
4
  6
CENTER
 48
0.3
100
AcDbLine
 10
342.1923685317703
 20
438.3673039082323
 30
0.0
 11
342.1923685317703
 21
459.3673039082323
 31
0.0
  0
CIRCLE
  5
357
330
18
100
AcDbEntity
  8
1
  6
Continuous
100
AcDbCircle
 10
342.1923685317703
 20
448.8673039082321
 30
0.0
 40
6.5
  0
ARC
  5
358
330
18
100
AcDbEntity
  8
1
  6
Continuous
100
AcDbCircle
 10
346.6923685317703
 20
433.3673039082324
 30
0.0
 40
10.0
100
AcDbArc
 50
270.0
 51
0.0
  0
LINE
  5
359
330
18
100
AcDbEntity
  8
1
  6
Continuous
100
AcDbLine
 10
346.6923685317703
 20
533.3673039082319
 30
0.0
 11
216.6923685317703
 21
533.3673039082319
 31
0.0
  0
LINE
  5
35A
330
18
100
AcDbEntity
  8
4
  6
CENTER
 48
0.7
100
AcDbLine
 10
364.6923685317704
 20
478.3673039082322
 30
0.0
 11
198.6923685317703
 21
478.3673039082322
 31
0.0
  0
LINE
  5
35B
330
18
100
AcDbEntity
  8
4
  6
CENTER
 48
0.3
100
AcDbLine
 10
210.6923685317703
 20
507.8673039082318
 30
0.0
 11
231.6923685317703
 21
507.8673039082318
 31
0.0
  0
LINE
  5
35C
330
18
100
AcDbEntity
  8
4
  6
CENTER
 48
0.3
100
AcDbLine
 10
221.1923685317703
 20
518.3673039082321
 30
0.0
 11
221.1923685317703
 21
497.3673039082321
 31
0.0
  0
CIRCLE
  5
35D
330
18
100
AcDbEntity
  8
1
  6
Continuous
100
AcDbCircle
 10
221.1923685317703
 20
507.8673039082318
 30
0.0
 40
6.5
  0
ARC
  5
35E
330
18
100
AcDbEntity
  8
1
  6
Continuous
100
AcDbCircle
 10
216.6923685317703
 20
523.367303908232
 30
0.0
 40
10.0
100
AcDbArc
 50
90.0
 51
180.0
  0
LINE
  5
35F
330
18
100
AcDbEntity
  8
4
  6
CENTER
 48
0.3
100
AcDbLine
 10
342.1923685317703
 20
518.3673039082321
 30
0.0
 11
342.1923685317703
 21
497.3673039082321
 31
0.0
  0
LINE
  5
360
330
18
100
AcDbEntity
  8
4
  6
CENTER
 48
0.3
100
AcDbLine
 10
352.6923685317703
 20
507.8673039082318
 30
0.0
 11
331.6923685317703
 21
507.8673039082318
 31
0.0
  0
CIRCLE
  5
361
330
18
100
AcDbEntity
  8
1
  6
Continuous
100
AcDbCircle
 10
342.1923685317703
 20
507.8673039082318
 30
0.0
 40
6.5
  0
ARC
  5
362
330
18
100
AcDbEntity
  8
1
  6
Continuous
100
AcDbCircle
 10
346.6923685317703
 20
523.367303908232
 30
0.0
 40
10.0
100
AcDbArc
 50
0.0
 51
90.0
  0
LINE
  5
363
330
18
100
AcDbEntity
  8
1
  6
Continuous
100
AcDbLine
 10
457.6676790271388
 20
301.5285226066783
 30
0.0
 11
447.3083688269628
 21
276.4868264157196
 31
0.0
  0
LINE
  5
364
330
18
100
AcDbEntity
  8
1
  6
Continuous
100
AcDbLine
 10
516.7671189666291
 20
301.5285226066783
 30
0.0
 11
527.126429166805
 21
276.4868264157196
 31
0.0
  0
ARC
  5
365
330
18
100
AcDbEntity
  8
1
  6
Continuous
100
AcDbCircle
 10
705.7424304619972
 20
287.8075918210569
 30
0.0
 40
17.0
100
AcDbArc
 50
299.9999999999999
 51
0.0
  0
LINE
  5
366
330
18
100
AcDbEntity
  8
1
  6
Continuous
100
AcDbLine
 10
666.8240254619977
 20
301.3467858210568
 30
0.0
 11
700.6431376374254
 21
245.6219191210231
 31
0.0
  0
LINE
  5
367
330
18
100
AcDbEntity
  8
1
  6
Continuous
100
AcDbLine
 10
758.4664754619977
 20
314.9967598210569
 30
0.0
 11
736.7182604619976
 21
249.6775858210567
 31
0.0
  0
ARC
  5
36A
330
18
100
AcDbEntity
  8
1
  6
Continuous
100
AcDbCircle
 10
717.7424304619972
 20
255.9956448210568
 30
0.0
 40
50.0
100
AcDbArc
 50
144.8315099999997
 51
48.00648699999947
  0
LINE
  5
36B
330
18
100
AcDbEntity
  8
4
  6
CENTER
 48
0.7
100
AcDbLine
 10
717.7424304619972
 20
197.9956448210568
 30
0.0
 11
717.7424304619972
 21
313.9956448210568
 31
0.0
  0
ARC
  5
36C
330
18
100
AcDbEntity
  8
1
  6
Continuous
100
AcDbCircle
 10
513.8525239968839
 20
270.9956448210568
 30
0.0
 40
18.364875
100
AcDbArc
 50
302.2429546608078
 51
22.47402100627314
  0
LINE
  5
36D
330
18
100
AcDbEntity
  8
1
  6
Continuous
100
AcDbLine
 10
532.2173989968839
 20
323.9956448210568
 30
0.0
 11
532.2173989968839
 21
270.9956448210568
 31
0.0
  0
LINE
  5
36E
330
18
100
AcDbEntity
  8
1
  6
Continuous
100
AcDbLine
 10
442.2173989968841
 20
323.9956448210568
 30
0.0
 11
442.2173989968841
 21
270.9956448210568
 31
0.0
  0
LINE
  5
36F
330
18
100
AcDbEntity
  8
4
  6
CENTER
 48
0.7
100
AcDbLine
 10
487.2173989968841
 20
197.9956448210568
 30
0.0
 11
487.2173989968841
 21
353.9956448210568
 31
0.0
  0
LINE
  5
372
330
18
100
AcDbEntity
  8
1
  6
Continuous
100
AcDbLine
 10
518.717383351949
 20
294.4160488417978
 30
0.0
 11
518.7173839968841
 21
235.9956448210567
 31
0.0
  0
LINE
  5
373
330
18
100
AcDbEntity
  8
1
  6
Continuous
100
AcDbLine
 10
455.7174139968841
 20
294.4160443627115
 30
0.0
 11
455.7174139968841
 21
235.9956448210567
 31
0.0
  0
LINE
  5
374
330
18
100
AcDbEntity
  8
4
  6
CENTER
 48
0.7
100
AcDbLine
 10
775.7424304619974
 20
255.9956448210568
 30
0.0
 11
659.7424304619972
 21
255.9956448210568
 31
0.0
  0
ARC
  5
375
330
18
100
AcDbEntity
  8
1
  6
Continuous
100
AcDbCircle
 10
717.7424304619972
 20
255.9956448210568
 30
0.0
 40
20.0
100
AcDbArc
 50
211.2441712809161
 51
341.5846660000001
  0
LINE
  5
377
330
18
100
AcDbEntity
  8
1
  6
Continuous
100
AcDbLine
 10
727.2424304619974
 20
261.4804718210568
 30
0.0
 11
717.7424314619972
 21
266.9652988210566
 31
0.0
  0
CIRCLE
  5
378
330
18
100
AcDbEntity
  8
1
  6
Continuous
100
AcDbCircle
 10
717.7424304619976
 20
255.9956448210568
 30
0.0
 40
7.5
  0
CIRCLE
  5
379
330
18
100
AcDbEntity
  8
1
  6
Continuous
100
AcDbCircle
 10
717.7424304619976
 20
255.9956448210568
 30
0.0
 40
6.0
  0
LINE
  5
37A
330
18
100
AcDbEntity
  8
1
  6
Continuous
100
AcDbLine
 10
727.2424304619976
 20
250.5108178210566
 30
0.0
 11
717.7424314619976
 21
245.0259908210566
 31
0.0
  0
ARC
  5
37E
330
18
100
AcDbEntity
  8
1
  6
Continuous
100
AcDbCircle
 10
448.7174289968841
 20
255.0982098210569
 30
0.0
 40
3.0
100
AcDbArc
 50
179.9999899999997
 51
345.8798672379812
  0
LINE
  5
37F
330
18
100
AcDbEntity
  8
1
  6
Continuous
100
AcDbLine
 10
445.7174289968842
 20
260.2111644491702
 30
0.0
 11
445.7174289968842
 21
245.7956448210568
 31
0.0
  0
LINE
  5
381
330
18
100
AcDbEntity
  8
1
  6
Continuous
100
AcDbLine
 10
451.7173989968841
 20
253.7711673253529
 30
0.0
 11
451.7173989968841
 21
235.9956448210567
 31
0.0
  0
LINE
  5
383
330
18
100
AcDbEntity
  8
1
  6
Continuous
100
AcDbLine
 10
455.7174139968841
 20
235.9956448210567
 30
0.0
 11
451.7173989968841
 21
235.9956448210567
 31
0.0
  0
ARC
  5
384
330
18
100
AcDbEntity
  8
1
  6
Continuous
100
AcDbCircle
 10
448.7174289968841
 20
245.8510958210567
 30
0.0
 40
3.0
100
AcDbArc
 50
359.9999950000003
 51
180.0
  0
LINE
  5
385
330
18
100
AcDbEntity
  8
1
  6
Continuous
100
AcDbLine
 10
446.717428996884
 20
244.7956448210569
 30
0.0
 11
450.717428996884
 21
244.7956448210569
 31
0.0
  0
ARC
  5
386
330
18
100
AcDbEntity
  8
1
  6
Continuous
100
AcDbCircle
 10
446.717428996884
 20
245.7956448210568
 30
0.0
 40
1.0
100
AcDbArc
 50
180.0
 51
270.0000029999999
  0
ARC
  5
388
330
18
100
AcDbEntity
  8
1
  6
Continuous
100
AcDbCircle
 10
450.717428996884
 20
245.7956448210568
 30
0.0
 40
1.0
100
AcDbArc
 50
269.9999990000002
 51
0.0000090000004173
  0
ARC
  5
389
330
18
100
AcDbEntity
  8
1
  6
Continuous
100
AcDbCircle
 10
441.7173989968841
 20
242.0391858210568
 30
0.0
 40
10.0
100
AcDbArc
 50
0.0
 51
17.0312300000001
  0
ARC
  5
38C
330
18
100
AcDbEntity
  8
1
  6
Continuous
100
AcDbCircle
 10
460.5822739968841
 20
270.9956448210568
 30
0.0
 40
14.364875
100
AcDbArc
 50
157.5259789937268
 51
237.7570952354199
  0
ARC
  5
38D
330
18
100
AcDbEntity
  8
1
  6
Continuous
100
AcDbCircle
 10
448.7174289968841
 20
256.8930798210568
 30
0.0
 40
3.0
100
AcDbArc
 50
134.0140032507706
 51
180.0
  0
ARC
  5
38E
330
18
100
AcDbEntity
  8
1
  6
Continuous
100
AcDbCircle
 10
449.7173989968841
 20
253.7711673253529
 30
0.0
 40
2.0
100
AcDbArc
 50
0.0
 51
57.75704533919427
  0
ARC
  5
38F
330
18
100
AcDbEntity
  8
1
  6
Continuous
100
AcDbCircle
 10
449.717413996884
 20
253.7711578636457
 30
0.0
 40
6.0
100
AcDbArc
 50
0.0
 51
57.75709523542022
  0
LINE
  5
390
330
18
100
AcDbEntity
  8
1
  6
Continuous
100
AcDbLine
 10
534.9674019968841
 20
261.9956448210567
 30
0.0
 11
534.9674019968841
 21
249.9956448210568
 31
0.0
  0
LINE
  5
391
330
18
100
AcDbEntity
  8
1
  6
Continuous
100
AcDbLine
 10
535.7174289968841
 20
261.2456448210567
 30
0.0
 11
535.7174289968841
 21
250.7456448210567
 31
0.0
  0
ARC
  5
392
330
18
100
AcDbEntity
  8
1
  6
Continuous
100
AcDbCircle
 10
513.4373539968843
 20
255.9956448210568
 30
0.0
 40
15.08
100
AcDbArc
 50
337.3801709999996
 51
13.17558242579829
  0
LINE
  5
393
330
18
100
AcDbEntity
  8
1
  6
Continuous
100
AcDbLine
 10
530.8373629968841
 20
264.0110991730069
 30
0.0
 11
530.8373629968841
 21
247.8738488210566
 31
0.0
  0
ARC
  5
394
330
18
100
AcDbEntity
  8
1
  6
Continuous
100
AcDbCircle
 10
537.7973849968841
 20
255.9956448210568
 30
0.0
 40
15.08
100
AcDbArc
 50
186.2239915167204
 51
202.6198649999999
  0
LINE
  5
396
330
18
100
AcDbEntity
  8
1
  6
Continuous
100
AcDbLine
 10
522.7173989968841
 20
253.7711673253532
 30
0.0
 11
522.7173989968841
 21
235.9956448210567
 31
0.0
  0
LINE
  5
397
330
18
100
AcDbEntity
  8
1
  6
Continuous
100
AcDbLine
 10
527.3573519968842
 20
250.1956268210568
 30
0.0
 11
523.8773409968838
 21
250.1956268210568
 31
0.0
  0
LINE
  5
398
330
18
100
AcDbEntity
  8
1
  6
Continuous
100
AcDbLine
 10
527.3573519968842
 20
244.3956388210567
 30
0.0
 11
523.8773409968838
 21
244.3956388210567
 31
0.0
  0
LINE
  5
399
330
18
100
AcDbEntity
  8
1
  6
Continuous
100
AcDbLine
 10
518.7173839968841
 20
235.9956448210567
 30
0.0
 11
522.7173989968841
 21
235.9956448210567
 31
0.0
  0
ARC
  5
39B
330
18
100
AcDbEntity
  8
1
  6
Continuous
100
AcDbCircle
 10
526.9223549968843
 20
247.2956328210567
 30
0.0
 40
4.204998999999999
100
AcDbArc
 50
136.3972330000002
 51
223.6028889999999
  0
ARC
  5
39D
330
18
100
AcDbEntity
  8
1
  6
Continuous
100
AcDbCircle
 10
532.7173989968839
 20
242.0391858210568
 30
0.0
 40
10.0
100
AcDbArc
 50
161.2609220000002
 51
180.0
  0
LINE
  5
39E
330
18
100
AcDbEntity
  8
1
  6
Continuous
100
AcDbLine
 10
534.9674019968841
 20
249.9956448210568
 30
0.0
 11
535.7174169968836
 21
250.7456598210566
 31
0.0
  0
LINE
  5
39F
330
18
100
AcDbEntity
  8
1
  6
Continuous
100
AcDbLine
 10
530.8375119968841
 20
247.8736948210565
 30
0.0
 11
527.3594549968842
 21
244.3956388210567
 31
0.0
  0
ARC
  5
3A0
330
18
100
AcDbEntity
  8
1
  6
Continuous
100
AcDbCircle
 10
524.3123389968841
 20
247.2956328210567
 30
0.0
 40
4.205
100
AcDbArc
 50
316.3972829999999
 51
43.60287100000014
  0
LINE
  5
3A1
330
18
100
AcDbEntity
  8
2
  6
Continuous
100
AcDbLine
 10
535.7174289968841
 20
250.9426448210567
 30
0.0
 11
530.8373629968841
 21
250.9426448210567
 31
0.0
  0
LINE
  5
3A2
330
18
100
AcDbEntity
  8
1
  6
Continuous
100
AcDbLine
 10
534.9674019968841
 20
249.9956448210568
 30
0.0
 11
530.8373629968841
 21
249.9956448210568
 31
0.0
  0
ARC
  5
3A3
330
18
100
AcDbEntity
  8
1
  6
Continuous
100
AcDbCircle
 10
513.8525239968839
 20
270.9956448210568
 30
0.0
 40
14.364875
100
AcDbArc
 50
302.24290476458
 51
22.47402100627314
  0
ARC
  5
3A5
330
18
100
AcDbEntity
  8
1
  6
Continuous
100
AcDbCircle
 10
524.7173839968841
 20
253.7711578636457
 30
0.0
 40
6.0
100
AcDbArc
 50
122.2429047645795
 51
180.0
  0
ARC
  5
3A6
330
18
100
AcDbEntity
  8
1
  6
Continuous
100
AcDbCircle
 10
524.7173989968842
 20
253.7711673253532
 30
0.0
 40
2.0
100
AcDbArc
 50
122.2429546608078
 51
180.0
  0
LINE
  5
3A8
330
18
100
AcDbEntity
  8
1
  6
Continuous
100
AcDbLine
 10
534.9674019968837
 20
261.9956448210567
 30
0.0
 11
535.7174169968836
 21
261.2456298210567
 31
0.0
  0
LINE
  5
3A9
330
18
100
AcDbEntity
  8
2
  6
Continuous
100
AcDbLine
 10
535.7174289968841
 20
261.0486448210567
 30
0.0
 11
530.8373629968841
 21
261.0486448210567
 31
0.0
  0
LINE
  5
3AA
330
18
100
AcDbEntity
  8
1
  6
Continuous
100
AcDbLine
 10
534.9674019968841
 20
261.9956448210567
 30
0.0
 11
530.8373629968841
 21
261.9956448210567
 31
0.0
  0
LINE
  5
3AB
330
18
100
AcDbEntity
  8
1
  6
Continuous
100
AcDbLine
 10
708.2424304619976
 20
261.4804728210566
 30
0.0
 11
708.2424304619976
 21
250.5108168210568
 31
0.0
  0
LINE
  5
3AC
330
18
100
AcDbEntity
  8
1
  6
Continuous
100
AcDbLine
 10
708.2424314619976
 20
250.5108158210566
 30
0.0
 11
717.7424304619972
 21
245.0259888210567
 31
0.0
  0
LINE
  5
3AD
330
18
100
AcDbEntity
  8
1
  6
Continuous
100
AcDbLine
 10
714.2424304619976
 20
273.0851608210567
 30
0.0
 11
691.8598534619974
 21
260.1625738210567
 31
0.0
  0
LINE
  5
3AE
330
18
100
AcDbEntity
  8
1
  6
Continuous
100
AcDbLine
 10
708.2424314619976
 20
261.4804738210566
 30
0.0
 11
717.7424304619976
 21
266.9653008210566
 31
0.0
  0
LINE
  5
3AF
330
18
100
AcDbEntity
  8
1
  6
Continuous
100
AcDbLine
 10
727.2424304619976
 20
261.4804728210566
 30
0.0
 11
727.2424304619976
 21
250.5108168210568
 31
0.0
  0
LINE
  5
3B0
330
18
100
AcDbEntity
  8
1
  6
Continuous
100
AcDbLine
 10
649.7424274619977
 20
338.4956448210568
 30
0.0
 11
735.7424334619977
 21
338.4956448210568
 31
0.0
  0
LINE
  5
3B1
330
18
100
AcDbEntity
  8
1
  6
Continuous
100
AcDbLine
 10
617.7424304619975
 20
345.9956448210569
 30
0.0
 11
767.7424304619972
 21
345.9956448210569
 31
0.0
  0
LINE
  5
3B2
330
18
100
AcDbEntity
  8
1
  6
Continuous
100
AcDbLine
 10
617.7424304619975
 20
341.4956448210568
 30
0.0
 11
767.7424304619972
 21
341.4956448210568
 31
0.0
  0
LINE
  5
3B3
330
18
100
AcDbEntity
  8
1
  6
Continuous
100
AcDbLine
 10
646.2424264619975
 20
333.9956448210565
 30
0.0
 11
739.2424344619974
 21
333.9956448210565
 31
0.0
  0
LINE
  5
3B4
330
18
100
AcDbEntity
  8
1
  6
Continuous
100
AcDbLine
 10
643.2424264619977
 20
323.9956448210567
 30
0.0
 11
742.2424344619972
 21
323.9956448210568
 31
0.0
  0
ARC
  5
3B6
330
18
100
AcDbEntity
  8
1
  6
Continuous
100
AcDbCircle
 10
507.8683969968841
 20
301.4416688210569
 30
0.0
 40
8.0
100
AcDbArc
 50
31.29198299999961
 51
78.19263499999967
  0
ARC
  5
3B7
330
18
100
AcDbEntity
  8
1
  6
Continuous
100
AcDbCircle
 10
487.2173989968841
 20
202.6543538210567
 30
0.0
 40
108.9227289999999
100
AcDbArc
 50
74.18470666805345
 51
105.8152933319465
  0
LINE
  5
3B8
330
18
100
AcDbEntity
  8
1
  6
Continuous
100
AcDbLine
 10
533.7174029968844
 20
333.9956448210565
 30
0.0
 11
440.7173949968841
 21
333.9956448210569
 31
0.0
  0
LINE
  5
3B9
330
18
100
AcDbEntity
  8
1
  6
Continuous
100
AcDbLine
 10
530.0934559968841
 20
338.4956448210567
 30
0.0
 11
444.3413419968841
 21
338.4956448210567
 31
0.0
  0
LINE
  5
3BB
330
18
100
AcDbEntity
  8
1
  6
Continuous
100
AcDbLine
 10
453.9714672132745
 20
303.0575805607957
 30
0.0
 11
443.6121570130986
 21
278.0158843698369
 31
0.0
  0
ARC
  5
3BC
330
18
100
AcDbEntity
  8
1
  6
Continuous
100
AcDbCircle
 10
485.0812659968841
 20
290.1880028210568
 30
0.0
 40
29.66668400000001
100
AcDbArc
 50
148.7080170000003
 51
171.806403
  0
ARC
  5
3BE
330
18
100
AcDbEntity
  8
1
  6
Continuous
100
AcDbCircle
 10
458.6220656910535
 20
303.6052625536477
 30
0.0
 40
4.0
100
AcDbArc
 50
105.8152933319461
 51
153.1107796772054
  0
ARC
  5
3BF
330
18
100
AcDbEntity
  8
1
  6
Continuous
100
AcDbCircle
 10
485.0812659968841
 20
290.1880028210568
 30
0.0
 40
33.666684
100
AcDbArc
 50
153.1107796772054
 51
157.5259789937268
  0
ARC
  5
3C0
330
18
100
AcDbEntity
  8
1
  6
Continuous
100
AcDbCircle
 10
466.5664009968842
 20
301.4416688210569
 30
0.0
 40
8.0
100
AcDbArc
 50
101.8073650000003
 51
148.7080170000003
  0
LINE
  5
3C1
330
18
100
AcDbEntity
  8
4
  6
CENTER
 48
0.2
100
AcDbLine
 10
457.7173989968843
 20
336.4956448210568
 30
0.0
 11
457.7173989968843
 21
350.9956448210568
 31
0.0
  0
ARC
  5
3C2
330
18
100
AcDbEntity
  8
1
  6
Continuous
100
AcDbCircle
 10
452.6111339968841
 20
333.4724098210569
 30
0.0
 40
8.023234999999999
100
AcDbArc
 50
141.2380579999996
 51
170.2812150000004
  0
ARC
  5
3C3
330
18
100
AcDbEntity
  8
1
  6
Continuous
100
AcDbCircle
 10
443.7173989968841
 20
334.9956448210568
 30
0.0
 40
1.0
100
AcDbArc
 50
270.0000179999998
 51
350.2812150000004
  0
LINE
  5
3C4
330
18
100
AcDbEntity
  8
1
  6
Continuous
100
AcDbLine
 10
536.7174029968841
 20
330.9956448210568
 30
0.0
 11
536.7174029968841
 21
323.9956448210568
 31
0.0
  0
LINE
  5
3C5
330
18
100
AcDbEntity
  8
1
  6
Continuous
100
AcDbLine
 10
520.4633307804936
 20
303.0575805607957
 30
0.0
 11
530.8226409806693
 21
278.0158843698369
 31
0.0
  0
ARC
  5
3C6
330
18
100
AcDbEntity
  8
1
  6
Continuous
100
AcDbCircle
 10
489.3535319968839
 20
290.1880028210568
 30
0.0
 40
29.66668400000001
100
AcDbArc
 50
8.193596999999888
 51
31.29198299999961
  0
ARC
  5
3C7
330
18
100
AcDbEntity
  8
1
  6
Continuous
100
AcDbCircle
 10
515.8127323027144
 20
303.6052625536477
 30
0.0
 40
4.0
100
AcDbArc
 50
26.88922032279411
 51
74.18470666805365
  0
ARC
  5
3C8
330
18
100
AcDbEntity
  8
1
  6
Continuous
100
AcDbCircle
 10
489.3535319968839
 20
290.1880028210568
 30
0.0
 40
33.666684
100
AcDbArc
 50
22.47402100627314
 51
26.88922032279456
  0
LINE
  5
3C9
330
18
100
AcDbEntity
  8
4
  6
CENTER
 48
0.2
100
AcDbLine
 10
516.7173989968842
 20
336.4956448210568
 30
0.0
 11
516.7173989968842
 21
350.9956448210568
 31
0.0
  0
ARC
  5
3CA
330
18
100
AcDbEntity
  8
1
  6
Continuous
100
AcDbCircle
 10
521.8236629968839
 20
333.4724098210569
 30
0.0
 40
8.023234999999999
100
AcDbArc
 50
9.718784999999597
 51
38.76194200000039
  0
ARC
  5
3CB
330
18
100
AcDbEntity
  8
1
  6
Continuous
100
AcDbCircle
 10
533.7174029968841
 20
330.9956448210568
 30
0.0
 40
3.0
100
AcDbArc
 50
0.0000360000000406
 51
90.00001800000003
  0
ARC
  5
3CC
330
18
100
AcDbEntity
  8
1
  6
Continuous
100
AcDbCircle
 10
530.7173989968841
 20
334.9956448210568
 30
0.0
 40
1.0
100
AcDbArc
 50
189.7187850000004
 51
269.9999819999999
  0
ARC
  5
3CD
330
18
100
AcDbEntity
  8
1
  6
Continuous
100
AcDbCircle
 10
530.0934559968841
 20
343.3706538210568
 30
0.0
 40
4.875008999999998
100
AcDbArc
 50
270.0
 51
337.3800649999996
  0
LINE
  5
3CE
330
18
100
AcDbEntity
  8
1
  6
Continuous
100
AcDbLine
 10
542.2173999968841
 20
341.4956448210568
 30
0.0
 11
542.2173999968841
 21
345.9956448210569
 31
0.0
  0
ARC
  5
3CF
330
18
100
AcDbEntity
  8
1
  6
Continuous
100
AcDbCircle
 10
649.7424274619977
 20
343.3706538210568
 30
0.0
 40
4.875008999999998
100
AcDbArc
 50
202.6199349999999
 51
270.0
  0
LINE
  5
3D0
330
18
100
AcDbEntity
  8
1
  6
Continuous
100
AcDbLine
 10
650.1669484619977
 20
311.4515038210569
 30
0.0
 11
647.2424304619976
 21
311.7331318210568
 31
0.0
  0
LINE
  5
3D1
330
18
100
AcDbEntity
  8
1
  6
Continuous
100
AcDbLine
 10
643.2424264619974
 20
330.9956448210568
 30
0.0
 11
643.2424264619974
 21
323.9956448210568
 31
0.0
  0
LINE
  5
3D2
330
18
100
AcDbEntity
  8
1
  6
Continuous
100
AcDbLine
 10
647.2424304619975
 20
311.7331318210565
 30
0.0
 11
647.7283114619973
 21
323.9956448210567
 31
0.0
  0
LINE
  5
3D3
330
18
100
AcDbEntity
  8
4
  6
CENTER
 48
0.2
100
AcDbLine
 10
632.2424294621217
 20
350.9956448210568
 30
0.0
 11
632.2424294621397
 21
336.4956448210568
 31
0.0
  0
LINE
  5
3D4
330
18
100
AcDbEntity
  8
1
  6
Continuous
100
AcDbLine
 10
617.7424304619975
 20
345.9956448210569
 30
0.0
 11
617.7424304619975
 21
341.4956448210568
 31
0.0
  0
ARC
  5
3D5
330
18
100
AcDbEntity
  8
1
  6
Continuous
100
AcDbCircle
 10
646.2424264619975
 20
330.9956448210568
 30
0.0
 40
3.0
100
AcDbArc
 50
89.99998199999998
 51
179.9999639999999
  0
LINE
  5
3D6
330
18
100
AcDbEntity
  8
4
  6
CENTER
 48
0.7
100
AcDbLine
 10
692.7424304619972
 20
287.3143738210568
 30
0.0
 11
692.7424304619972
 21
353.9956448210568
 31
0.0
  0
ARC
  5
3D7
330
18
100
AcDbEntity
  8
1
  6
Continuous
100
AcDbCircle
 10
648.8715094619979
 20
290.4515038210568
 30
0.0
 40
21.0
100
AcDbArc
 50
31.25333100000029
 51
86.22468599999995
  0
ARC
  5
3D8
330
18
100
AcDbEntity
  8
1
  6
Continuous
100
AcDbCircle
 10
658.1361654619977
 20
333.4724098210569
 30
0.0
 40
8.023234999999999
100
AcDbArc
 50
141.2380579999996
 51
170.2812150000004
  0
ARC
  5
3D9
330
18
100
AcDbEntity
  8
1
  6
Continuous
100
AcDbCircle
 10
649.2424304619975
 20
334.9956448210568
 30
0.0
 40
1.0
100
AcDbArc
 50
270.0000179999998
 51
350.2812149999996
  0
LINE
  5
3DA
330
18
100
AcDbEntity
  8
1
  6
Continuous
100
AcDbLine
 10
742.2424344619972
 20
330.9956448210568
 30
0.0
 11
742.2424344619972
 21
323.9956448210568
 31
0.0
  0
LINE
  5
3DB
330
18
100
AcDbEntity
  8
1
  6
Continuous
100
AcDbLine
 10
763.7424304619972
 20
317.7331318210568
 30
0.0
 11
726.7424304619972
 21
317.7331318210568
 31
0.0
  0
LINE
  5
3DC
330
18
100
AcDbEntity
  8
1
  6
Continuous
100
AcDbLine
 10
722.7424304619971
 20
316.0951088210568
 30
0.0
 11
722.7424304619971
 21
287.8075918210569
 31
0.0
  0
ARC
  5
3DD
330
18
100
AcDbEntity
  8
1
  6
Continuous
100
AcDbCircle
 10
726.7424304619972
 20
321.7331318210568
 30
0.0
 40
4.0
100
AcDbArc
 50
199.3124399999997
 51
270.0
  0
LINE
  5
3DE
330
18
100
AcDbEntity
  8
1
  6
Continuous
100
AcDbLine
 10
738.0097914619973
 20
323.9956448210567
 30
0.0
 11
738.8744514619974
 21
320.7139918210565
 31
0.0
  0
ARC
  5
3DF
330
18
100
AcDbEntity
  8
1
  6
Continuous
100
AcDbCircle
 10
742.7424344619972
 20
321.7331438210568
 30
0.0
 40
4.0
100
AcDbArc
 50
194.7609879999997
 51
269.9999819999999
  0
LINE
  5
3E0
330
18
100
AcDbEntity
  8
1
  6
Continuous
100
AcDbLine
 10
763.7424304619972
 20
314.2331318210568
 30
0.0
 11
759.6542624619976
 21
314.2331318210568
 31
0.0
  0
ARC
  5
3E1
330
18
100
AcDbEntity
  8
1
  6
Continuous
100
AcDbCircle
 10
759.6542624619976
 20
312.2331318210568
 30
0.0
 40
2.0
100
AcDbArc
 50
90.0
 51
161.584666
  0
ARC
  5
3E2
330
18
100
AcDbEntity
  8
1
  6
Continuous
100
AcDbCircle
 10
762.2616414619978
 20
313.7331478210569
 30
0.0
 40
4.0
100
AcDbArc
 50
90.00001800000003
 51
161.584666
  0
LINE
  5
3E3
330
18
100
AcDbEntity
  8
1
  6
Continuous
100
AcDbLine
 10
763.7424304619972
 20
317.7331318210568
 30
0.0
 11
763.7424304619972
 21
314.2331318210568
 31
0.0
  0
LINE
  5
3E4
330
18
100
AcDbEntity
  8
4
  6
CENTER
 48
0.2
100
AcDbLine
 10
753.2424294621217
 20
350.9956448210568
 30
0.0
 11
753.2424294621397
 21
336.4956448210568
 31
0.0
  0
ARC
  5
3E5
330
18
100
AcDbEntity
  8
1
  6
Continuous
100
AcDbCircle
 10
736.2424304619971
 20
334.9956448210568
 30
0.0
 40
1.0
100
AcDbArc
 50
189.7187849999995
 51
269.9999819999999
  0
ARC
  5
3E6
330
18
100
AcDbEntity
  8
1
  6
Continuous
100
AcDbCircle
 10
735.7424334619977
 20
343.3706538210568
 30
0.0
 40
4.875008999999998
100
AcDbArc
 50
270.0
 51
337.3800649999996
  0
ARC
  5
3E7
330
18
100
AcDbEntity
  8
1
  6
Continuous
100
AcDbCircle
 10
727.3486954619976
 20
333.4724098210569
 30
0.0
 40
8.023234999999999
100
AcDbArc
 50
9.718784999999597
 51
38.76194200000039
  0
ARC
  5
3E8
330
18
100
AcDbEntity
  8
1
  6
Continuous
100
AcDbCircle
 10
739.2424344619974
 20
330.9956448210568
 30
0.0
 40
3.0
100
AcDbArc
 50
0.0000360000000406
 51
90.00001800000003
  0
LINE
  5
3E9
330
18
100
AcDbEntity
  8
1
  6
Continuous
100
AcDbLine
 10
767.7424304619972
 20
341.4956448210568
 30
0.0
 11
767.7424304619972
 21
345.9956448210569
 31
0.0
  0
LINE
  5
5C4
330
18
100
AcDbEntity
  8
1
  6
Continuous
 48
0.25
100
AcDbLine
 10
48.16733806665675
 20
213.220434821057
 30
0.0
 11
48.16733806665671
 21
298.7708548210568
 31
0.0
  0
LINE
  5
5C5
330
18
100
AcDbEntity
  8
1
  6
Continuous
 48
0.25
100
AcDbLine
 10
104.1673380666566
 20
213.220434821057
 30
0.0
 11
104.1673380666565
 21
298.7708548210568
 31
0.0
  0
LINE
  5
5C6
330
18
100
AcDbEntity
  8
4
  6
CENTER
 48
0.25
100
AcDbLine
 10
76.16733806665672
 20
197.9956048210568
 30
0.0
 11
76.16733806665672
 21
353.9956448210568
 31
0.0
  0
ARC
  5
5C7
330
18
100
AcDbEntity
  8
1
  6
Continuous
 48
0.25
100
AcDbCircle
 10
76.16733806665675
 20
330.9956448210568
 30
0.0
 40
125.0
100
AcDbArc
 50
258.9499349999991
 51
281.0500650000008
  0
ARC
  5
5C8
330
18
100
AcDbEntity
  8
1
  6
Continuous
 48
0.25
100
AcDbCircle
 10
53.16733806665675
 20
213.220434821057
 30
0.0
 40
5.0
100
AcDbArc
 50
180.0
 51
258.9499349999991
  0
ARC
  5
5C9
330
18
100
AcDbEntity
  8
1
  6
Continuous
 48
0.25
100
AcDbCircle
 10
99.16733806665664
 20
213.220434821057
 30
0.0
 40
5.0
100
AcDbArc
 50
281.0500650000008
 51
0.0
  0
LINE
  5
5CA
330
18
100
AcDbEntity
  8
1
  6
Continuous
 48
0.25
100
AcDbLine
 10
26.66733406665673
 20
323.9956448210568
 30
0.0
 11
125.6673420666567
 21
323.9956448210568
 31
0.0
  0
LINE
  5
5CB
330
18
100
AcDbEntity
  8
1
  6
Continuous
 48
0.25
100
AcDbLine
 10
29.66733406665656
 20
333.9956448210569
 30
0.0
 11
122.6673420666567
 21
333.9956448210569
 31
0.0
  0
LINE
  5
5CC
330
18
100
AcDbEntity
  8
1
  6
Continuous
 48
0.25
100
AcDbLine
 10
33.29128106665672
 20
338.4956448210568
 30
0.0
 11
119.0433950666566
 21
338.4956448210568
 31
0.0
  0
LINE
  5
5CD
330
18
100
AcDbEntity
  8
1
  6
Continuous
 48
0.25
100
AcDbLine
 10
21.16733706665673
 20
341.4956448210568
 30
0.0
 11
131.1673370666566
 21
341.4956448210568
 31
0.0
  0
LINE
  5
5CE
330
18
100
AcDbEntity
  8
1
  6
Continuous
 48
0.25
100
AcDbLine
 10
21.16733706665673
 20
345.9956448210569
 30
0.0
 11
131.1673370666566
 21
345.9956448210569
 31
0.0
  0
ARC
  5
5CF
330
18
100
AcDbEntity
  8
1
  6
Continuous
 48
0.25
100
AcDbCircle
 10
74.03120506665676
 20
290.188002821057
 30
0.0
 40
29.66668400000001
100
AcDbArc
 50
148.7080169999999
 51
171.8064029999992
  0
LINE
  5
5D0
330
18
100
AcDbEntity
  8
1
  6
Continuous
 48
0.25
100
AcDbLine
 10
45.66735306665669
 20
313.7331308210568
 30
0.0
 11
106.6673230666566
 21
313.7331308210568
 31
0.0
  0
LINE
  5
5D1
330
18
100
AcDbEntity
  8
1
  6
Continuous
 48
0.25
100
AcDbLine
 10
45.66733806665673
 20
317.7331308210568
 30
0.0
 11
106.6673380666566
 21
317.7331308210568
 31
0.0
  0
LINE
  5
5D2
330
18
100
AcDbEntity
  8
4
  6
CENTER
 48
0.25
100
AcDbLine
 10
24.66730806665674
 20
255.9956448210568
 30
0.0
 11
120.6673080666567
 21
255.9956448210568
 31
0.0
  0
LINE
  5
5D3
330
18
100
AcDbEntity
  8
1
  6
Continuous
 48
0.25
100
AcDbLine
 10
48.16733806665661
 20
277.7276954877235
 30
0.0
 11
45.16733806665661
 21
275.9956448210568
 31
0.0
  0
LINE
  5
5D4
330
18
100
AcDbEntity
  8
1
  6
Continuous
 48
0.25
100
AcDbLine
 10
48.16733806665673
 20
234.2635938210569
 30
0.0
 11
45.16733806665672
 21
235.9956448210569
 31
0.0
  0
LINE
  5
5D5
330
18
100
AcDbEntity
  8
1
  6
Continuous
 48
0.25
100
AcDbLine
 10
40.66733806665673
 20
312.7331308210568
 30
0.0
 11
40.66733806665673
 21
235.9956448210569
 31
0.0
  0
LINE
  5
5D6
330
18
100
AcDbEntity
  8
1
  6
Continuous
 48
0.25
100
AcDbLine
 10
44.66735306665667
 20
312.7331308210568
 30
0.0
 11
44.66735306665667
 21
235.9956448210569
 31
0.0
  0
LINE
  5
5D8
330
18
100
AcDbEntity
  8
1
  6
Continuous
 48
0.25
100
AcDbLine
 10
45.16733806665672
 20
235.9956448210569
 30
0.0
 11
45.16733806665672
 21
275.9956448210568
 31
0.0
  0
ARC
  5
5D9
330
18
100
AcDbEntity
  8
1
  6
Continuous
 48
0.25
100
AcDbCircle
 10
25.58735206665676
 20
255.9956448210568
 30
0.0
 40
15.08
100
AcDbArc
 50
337.3801349999996
 51
22.61981100000119
  0
LINE
  5
5DA
330
18
100
AcDbEntity
  8
1
  6
Continuous
 48
0.25
100
AcDbLine
 10
28.41733506665674
 20
261.9956448210568
 30
0.0
 11
28.41733506665674
 21
249.9956448210568
 31
0.0
  0
LINE
  5
5DB
330
18
100
AcDbEntity
  8
1
  6
Continuous
 48
0.25
100
AcDbLine
 10
32.54737406665674
 20
264.1174098210568
 30
0.0
 11
32.54737406665674
 21
247.8738488210569
 31
0.0
  0
LINE
  5
5DC
330
18
100
AcDbEntity
  8
1
  6
Continuous
 48
0.25
100
AcDbLine
 10
27.66730806665674
 20
261.2456448210568
 30
0.0
 11
27.66730806665674
 21
250.7456448210569
 31
0.0
  0
ARC
  5
5DD
330
18
100
AcDbEntity
  8
1
  6
Continuous
 48
0.25
100
AcDbCircle
 10
49.9473830666567
 20
255.9956448210568
 30
0.0
 40
15.08
100
AcDbArc
 50
157.3801529999999
 51
202.6198289999993
  0
ARC
  5
5DE
330
18
100
AcDbEntity
  8
1
  6
Continuous
 48
0.25
100
AcDbCircle
 10
39.07239806665671
 20
247.2956328210568
 30
0.0
 40
4.205
100
AcDbArc
 50
136.3971290000004
 51
223.602717
  0
LINE
  5
5DF
330
18
100
AcDbEntity
  8
1
  6
Continuous
 48
0.25
100
AcDbLine
 10
32.54722506665672
 20
247.8736948210571
 30
0.0
 11
36.02528206665676
 21
244.395638821057
 31
0.0
  0
LINE
  5
5E0
330
18
100
AcDbEntity
  8
1
  6
Continuous
 48
0.25
100
AcDbLine
 10
28.41733506665674
 20
249.9956448210568
 30
0.0
 11
32.54737406665674
 21
249.9956448210568
 31
0.0
  0
LINE
  5
5E1
330
18
100
AcDbEntity
  8
2
  6
Continuous
 48
0.25
100
AcDbLine
 10
27.66730806665674
 20
250.7456448210569
 30
0.0
 11
32.54737406665674
 21
250.7456448210569
 31
0.0
  0
LINE
  5
5E2
330
18
100
AcDbEntity
  8
1
  6
Continuous
 48
0.25
100
AcDbLine
 10
28.41733506665679
 20
249.995644821057
 30
0.0
 11
27.66732006665688
 21
250.745659821057
 31
0.0
  0
LINE
  5
5E3
330
18
100
AcDbEntity
  8
1
  6
Continuous
 48
0.25
100
AcDbLine
 10
44.66735306665667
 20
235.9956448210569
 30
0.0
 11
40.66733806665673
 21
235.9956448210569
 31
0.0
  0
ARC
  5
5E4
330
18
100
AcDbEntity
  8
1
  6
Continuous
 48
0.25
100
AcDbCircle
 10
36.46238206665675
 20
247.2956328210568
 30
0.0
 40
4.204998999999999
100
AcDbArc
 50
316.3971109999999
 51
43.60276699999906
  0
LINE
  5
5E5
330
18
100
AcDbEntity
  8
1
  6
Continuous
 48
0.25
100
AcDbLine
 10
36.02738506665673
 20
244.3956388210569
 30
0.0
 11
39.50739606665672
 21
244.3956388210569
 31
0.0
  0
ARC
  5
5E6
330
18
100
AcDbEntity
  8
1
  6
Continuous
 48
0.25
100
AcDbCircle
 10
30.66733806665672
 20
242.0391858210568
 30
0.0
 40
10.0
100
AcDbArc
 50
0.0
 51
18.73907799999995
  0
LINE
  5
5E7
330
18
100
AcDbEntity
  8
1
  6
Continuous
 48
0.25
100
AcDbLine
 10
36.02738506665673
 20
250.1956268210569
 30
0.0
 11
39.50739606665672
 21
250.1956268210569
 31
0.0
  0
LINE
  5
5E8
330
18
100
AcDbEntity
  8
1
  6
Continuous
 48
0.25
100
AcDbLine
 10
44.66733806665672
 20
247.9956448210568
 30
0.0
 11
45.16733806665672
 21
247.9956448210568
 31
0.0
  0
LINE
  5
5E9
330
18
100
AcDbEntity
  8
1
  6
Continuous
 48
0.25
100
AcDbLine
 10
32.54734206665671
 20
264.1174768210571
 30
0.0
 11
36.02551606665656
 21
267.595650821057
 31
0.0
  0
ARC
  5
5EA
330
18
100
AcDbEntity
  8
1
  6
Continuous
 48
0.25
100
AcDbCircle
 10
39.07239806665671
 20
264.6956418210568
 30
0.0
 40
4.205
100
AcDbArc
 50
136.3971969999995
 51
223.6027850000003
  0
LINE
  5
5EC
330
18
100
AcDbEntity
  8
1
  6
Continuous
 48
0.25
100
AcDbLine
 10
28.41733506665674
 20
261.9956448210568
 30
0.0
 11
32.54737406665674
 21
261.9956448210568
 31
0.0
  0
LINE
  5
5ED
330
18
100
AcDbEntity
  8
2
  6
Continuous
 48
0.25
100
AcDbLine
 10
27.66730806665674
 20
261.2456448210568
 30
0.0
 11
32.54737406665674
 21
261.2456448210568
 31
0.0
  0
LINE
  5
5EE
330
18
100
AcDbEntity
  8
1
  6
Continuous
 48
0.25
100
AcDbLine
 10
28.41733506665674
 20
261.9956448210568
 30
0.0
 11
27.66732006665682
 21
261.2456298210569
 31
0.0
  0
ARC
  5
5EF
330
18
100
AcDbEntity
  8
1
  6
Continuous
 48
0.25
100
AcDbCircle
 10
36.46238206665675
 20
264.6956418210568
 30
0.0
 40
4.204998999999999
100
AcDbArc
 50
316.3971650000008
 51
43.60299799999879
  0
LINE
  5
5F0
330
18
100
AcDbEntity
  8
1
  6
Continuous
 48
0.25
100
AcDbLine
 10
36.02738506665673
 20
261.7956478210568
 30
0.0
 11
39.50739606665672
 21
261.7956478210568
 31
0.0
  0
LINE
  5
5F1
330
18
100
AcDbEntity
  8
1
  6
Continuous
 48
0.25
100
AcDbLine
 10
36.02738506665673
 20
267.595650821057
 30
0.0
 11
39.50739606665672
 21
267.595650821057
 31
0.0
  0
LINE
  5
5F2
330
18
100
AcDbEntity
  8
1
  6
Continuous
 48
0.25
100
AcDbLine
 10
44.66733806665672
 20
263.9956448210571
 30
0.0
 11
45.16733806665672
 21
263.9956448210571
 31
0.0
  0
LINE
  5
5F3
330
18
100
AcDbEntity
  8
1
  6
Continuous
 48
0.25
100
AcDbLine
 10
21.16733706665673
 20
341.4956448210568
 30
0.0
 11
21.16733706665673
 21
345.9956448210569
 31
0.0
  0
ARC
  5
5F4
330
18
100
AcDbEntity
  8
1
  6
Continuous
 48
0.25
100
AcDbCircle
 10
45.66733806665673
 20
312.7331308210568
 30
0.0
 40
5.0
100
AcDbArc
 50
90.0
 51
180.0
  0
ARC
  5
5F5
330
18
100
AcDbEntity
  8
1
  6
Continuous
 48
0.25
100
AcDbCircle
 10
45.66735306665669
 20
312.7331308210568
 30
0.0
 40
1.0
100
AcDbArc
 50
90.0
 51
179.2182419999998
  0
ARC
  5
5F6
330
18
100
AcDbEntity
  8
1
  6
Continuous
 48
0.25
100
AcDbCircle
 10
33.29128106665672
 20
343.3706538210568
 30
0.0
 40
4.875008999999999
100
AcDbArc
 50
202.6199349999997
 51
270.0
  0
ARC
  5
5F7
330
18
100
AcDbEntity
  8
1
  6
Continuous
 48
0.25
100
AcDbCircle
 10
41.56107406665671
 20
333.4724098210569
 30
0.0
 40
8.023234999999999
100
AcDbArc
 50
141.2380579999991
 51
170.2812150000004
  0
LINE
  5
5F8
330
18
100
AcDbEntity
  8
1
  6
Continuous
 48
0.25
100
AcDbLine
 10
26.66733406665673
 20
330.9956448210568
 30
0.0
 11
26.66733406665673
 21
323.9956448210568
 31
0.0
  0
ARC
  5
5F9
330
18
100
AcDbEntity
  8
1
  6
Continuous
 48
0.25
100
AcDbCircle
 10
29.66733406665673
 20
330.9956448210568
 30
0.0
 40
3.0
100
AcDbArc
 50
89.9999820000008
 51
179.9999639999999
  0
ARC
  5
5FA
330
18
100
AcDbEntity
  8
1
  6
Continuous
 48
0.25
100
AcDbCircle
 10
32.66733806665672
 20
334.9956448210568
 30
0.0
 40
1.0
100
AcDbArc
 50
270.0000179999992
 51
350.2812150000004
  0
ARC
  5
5FC
330
18
100
AcDbEntity
  8
1
  6
Continuous
 48
0.25
100
AcDbCircle
 10
76.16733806665672
 20
202.6543538210569
 30
0.0
 40
108.9227289999999
100
AcDbArc
 50
78.19263499999884
 51
101.8073650000011
  0
ARC
  5
5FD
330
18
100
AcDbEntity
  8
1
  6
Continuous
 48
0.25
100
AcDbCircle
 10
76.1673380666567
 20
180.9956448210568
 30
0.0
 40
125.0
100
AcDbArc
 50
78.94993499999912
 51
101.0500650000008
  0
ARC
  5
5FE
330
18
100
AcDbEntity
  8
1
  6
Continuous
 48
0.25
100
AcDbCircle
 10
53.16733806665671
 20
298.7708548210568
 30
0.0
 40
5.0
100
AcDbArc
 50
101.0500650000008
 51
180.0
  0
ARC
  5
5FF
330
18
100
AcDbEntity
  8
1
  6
Continuous
 48
0.25
100
AcDbCircle
 10
55.51634006665654
 20
301.441668821057
 30
0.0
 40
8.0
100
AcDbArc
 50
101.8073650000011
 51
148.7080169999999
  0
LINE
  5
601
330
18
100
AcDbEntity
  8
1
  6
Continuous
 48
0.25
100
AcDbLine
 10
107.6673230666566
 20
312.7331308210568
 30
0.0
 11
107.6673230666566
 21
235.9956448210569
 31
0.0
  0
LINE
  5
602
330
18
100
AcDbEntity
  8
1
  6
Continuous
 48
0.25
100
AcDbLine
 10
111.6673080666568
 20
312.7505998210569
 30
0.0
 11
111.6673080666568
 21
235.9956448210569
 31
0.0
  0
ARC
  5
603
330
18
100
AcDbEntity
  8
1
  6
Continuous
 48
0.25
100
AcDbCircle
 10
114.6673080666568
 20
245.851095821057
 30
0.0
 40
3.0
100
AcDbArc
 50
0.0
 51
180.0000050000005
  0
ARC
  5
604
330
18
100
AcDbEntity
  8
1
  6
Continuous
 48
0.25
100
AcDbCircle
 10
114.6673080666568
 20
266.1401928210568
 30
0.0
 40
3.0
100
AcDbArc
 50
180.0
 51
0.000009999999378
  0
ARC
  5
605
330
18
100
AcDbEntity
  8
1
  6
Continuous
 48
0.25
100
AcDbCircle
 10
114.6673080666568
 20
256.8930798210568
 30
0.0
 40
3.0
100
AcDbArc
 50
0.0
 51
180.0000050000005
  0
ARC
  5
606
330
18
100
AcDbEntity
  8
1
  6
Continuous
 48
0.25
100
AcDbCircle
 10
114.6673080666568
 20
255.098209821057
 30
0.0
 40
3.0
100
AcDbArc
 50
179.9999910000003
 51
0.000009999999378
  0
ARC
  5
607
330
18
100
AcDbEntity
  8
1
  6
Continuous
 48
0.25
100
AcDbCircle
 10
116.6673080666567
 20
266.1956458210569
 30
0.0
 40
1.0
100
AcDbArc
 50
0.0
 51
90.00000300000095
  0
ARC
  5
608
330
18
100
AcDbEntity
  8
1
  6
Continuous
 48
0.25
100
AcDbCircle
 10
116.6673080666567
 20
245.795644821057
 30
0.0
 40
1.0
100
AcDbArc
 50
269.999996999999
 51
0.0
  0
LINE
  5
60A
330
18
100
AcDbEntity
  8
1
  6
Continuous
 48
0.25
100
AcDbLine
 10
107.1673380666566
 20
235.9956448210569
 30
0.0
 11
107.1673380666566
 21
275.9956448210568
 31
0.0
  0
LINE
  5
60B
330
18
100
AcDbEntity
  8
1
  6
Continuous
 48
0.25
100
AcDbLine
 10
104.1673380666566
 20
234.263593821057
 30
0.0
 11
107.1673380666566
 21
235.9956448210569
 31
0.0
  0
LINE
  5
60C
330
18
100
AcDbEntity
  8
1
  6
Continuous
 48
0.25
100
AcDbLine
 10
107.6673230666566
 20
235.9956448210569
 30
0.0
 11
111.6673080666568
 21
235.9956448210569
 31
0.0
  0
LINE
  5
60D
330
18
100
AcDbEntity
  8
1
  6
Continuous
 48
0.25
100
AcDbLine
 10
107.6673380666566
 20
247.9956448210568
 30
0.0
 11
107.1673380666566
 21
247.9956448210568
 31
0.0
  0
LINE
  5
60E
330
18
100
AcDbEntity
  8
1
  6
Continuous
 48
0.25
100
AcDbLine
 10
116.6673080666567
 20
244.795644821057
 30
0.0
 11
112.6673080666568
 21
244.795644821057
 31
0.0
  0
ARC
  5
60F
330
18
100
AcDbEntity
  8
1
  6
Continuous
 48
0.25
100
AcDbCircle
 10
121.6673380666566
 20
242.0391858210568
 30
0.0
 40
10.0
100
AcDbArc
 50
162.9687700000008
 51
180.0
  0
ARC
  5
610
330
18
100
AcDbEntity
  8
1
  6
Continuous
 48
0.25
100
AcDbCircle
 10
112.6673080666568
 20
245.795644821057
 30
0.0
 40
1.0
100
AcDbArc
 50
179.9999910000003
 51
270.0000010000014
  0
LINE
  5
611
330
18
100
AcDbEntity
  8
1
  6
Continuous
 48
0.25
100
AcDbLine
 10
104.1673380666566
 20
277.7276954877233
 30
0.0
 11
107.1673380666565
 21
275.9956448210568
 31
0.0
  0
LINE
  5
612
330
18
100
AcDbEntity
  8
1
  6
Continuous
 48
0.25
100
AcDbLine
 10
107.6673380666566
 20
263.9956448210571
 30
0.0
 11
107.1673380666566
 21
263.9956448210571
 31
0.0
  0
LINE
  5
613
330
18
100
AcDbEntity
  8
1
  6
Continuous
 48
0.25
100
AcDbLine
 10
116.6673080666567
 20
267.1956458210569
 30
0.0
 11
112.6673080666568
 21
267.1956458210569
 31
0.0
  0
ARC
  5
614
330
18
100
AcDbEntity
  8
1
  6
Continuous
 48
0.25
100
AcDbCircle
 10
112.6673080666568
 20
266.1956448210569
 30
0.0
 40
1.0
100
AcDbArc
 50
89.9999989999986
 51
180.0000089999995
  0
LINE
  5
616
330
18
100
AcDbEntity
  8
1
  6
Continuous
 48
0.25
100
AcDbLine
 10
117.6673080666567
 20
266.1956458210569
 30
0.0
 11
117.6673080666567
 21
245.795644821057
 31
0.0
  0
ARC
  5
617
330
18
100
AcDbEntity
  8
1
  6
Continuous
 48
0.25
100
AcDbCircle
 10
78.30347106665668
 20
290.188002821057
 30
0.0
 40
29.66668400000001
100
AcDbArc
 50
8.193597000000753
 51
31.29198300000004
  0
ARC
  5
618
330
18
100
AcDbEntity
  8
1
  6
Continuous
 48
0.25
100
AcDbCircle
 10
99.16733806665659
 20
298.7708548210568
 30
0.0
 40
5.0
100
AcDbArc
 50
0.0
 51
78.94993499999912
  0
ARC
  5
619
330
18
100
AcDbEntity
  8
1
  6
Continuous
 48
0.25
100
AcDbCircle
 10
96.8183360666568
 20
301.441668821057
 30
0.0
 40
8.0
100
AcDbArc
 50
31.29198300000004
 51
78.19263499999884
  0
ARC
  5
61A
330
18
100
AcDbEntity
  8
1
  6
Continuous
 48
0.25
100
AcDbCircle
 10
106.6673380666566
 20
312.7331308210568
 30
0.0
 40
5.0
100
AcDbArc
 50
0.20018800000063
 51
90.0
  0
ARC
  5
61B
330
18
100
AcDbEntity
  8
1
  6
Continuous
 48
0.25
100
AcDbCircle
 10
106.6673230666566
 20
312.7331308210568
 30
0.0
 40
1.0
100
AcDbArc
 50
0.7817580000001878
 51
90.0
  0
ARC
  5
61D
330
18
100
AcDbEntity
  8
1
  6
Continuous
 48
0.25
100
AcDbCircle
 10
110.7736030666566
 20
333.4724098210569
 30
0.0
 40
8.023234999999999
100
AcDbArc
 50
9.718784999999495
 51
38.76194200000083
  0
ARC
  5
61E
330
18
100
AcDbEntity
  8
1
  6
Continuous
 48
0.25
100
AcDbCircle
 10
119.0433950666566
 20
343.3706538210568
 30
0.0
 40
4.875008999999999
100
AcDbArc
 50
270.0
 51
337.3800650000002
  0
ARC
  5
61F
330
18
100
AcDbEntity
  8
1
  6
Continuous
 48
0.25
100
AcDbCircle
 10
119.6673380666566
 20
334.9956448210568
 30
0.0
 40
1.0
100
AcDbArc
 50
189.7187849999995
 51
269.9999820000007
  0
LINE
  5
620
330
18
100
AcDbEntity
  8
1
  6
Continuous
 48
0.25
100
AcDbLine
 10
125.6673420666567
 20
330.9956448210568
 30
0.0
 11
125.6673420666567
 21
323.9956448210568
 31
0.0
  0
ARC
  5
621
330
18
100
AcDbEntity
  8
1
  6
Continuous
 48
0.25
100
AcDbCircle
 10
122.6673420666567
 20
330.9956448210568
 30
0.0
 40
3.0
100
AcDbArc
 50
0.0000360000000406
 51
90.00001799999918
  0
LINE
  5
622
330
18
100
AcDbEntity
  8
1
  6
Continuous
 48
0.25
100
AcDbLine
 10
131.1673370666566
 20
341.4956448210568
 30
0.0
 11
131.1673370666566
 21
345.9956448210569
 31
0.0
  0
LINE
  5
692
330
18
100
AcDbEntity
  8
1
  6
Continuous
 48
0.25
100
AcDbLine
 10
456.2173989968839
 20
235.9956448210569
 30
0.0
 11
456.2173989968839
 21
275.9956448210568
 31
0.0
  0
LINE
  5
693
330
18
100
AcDbEntity
  8
1
  6
Continuous
 48
0.25
100
AcDbLine
 10
459.217398996884
 20
234.2635938210569
 30
0.0
 11
456.2173989968839
 21
235.9956448210569
 31
0.0
  0
LINE
  5
694
330
18
100
AcDbEntity
  8
1
  6
Continuous
 48
0.25
100
AcDbLine
 10
455.7173989968839
 20
247.9956448210568
 30
0.0
 11
456.2173989968839
 21
247.9956448210568
 31
0.0
  0
LINE
  5
695
330
18
100
AcDbEntity
  8
1
  6
Continuous
 48
0.25
100
AcDbLine
 10
455.7173989968839
 20
263.9956448210571
 30
0.0
 11
456.2173989968839
 21
263.9956448210571
 31
0.0
  0
LINE
  5
696
330
18
100
AcDbEntity
  8
1
  6
Continuous
 48
0.25
100
AcDbLine
 10
459.217398996884
 20
277.7276954877235
 30
0.0
 11
456.2173989968838
 21
275.9956448210568
 31
0.0
  0
LINE
  5
69A
330
18
100
AcDbEntity
  8
1
  6
Continuous
 48
0.25
100
AcDbLine
 10
515.2173989968838
 20
234.263593821057
 30
0.0
 11
518.2173989968838
 21
235.9956448210569
 31
0.0
  0
LINE
  5
69B
330
18
100
AcDbEntity
  8
1
  6
Continuous
 48
0.25
100
AcDbLine
 10
518.2173989968838
 20
235.9956448210569
 30
0.0
 11
518.2173989968838
 21
275.9956448210568
 31
0.0
  0
LINE
  5
69C
330
18
100
AcDbEntity
  8
1
  6
Continuous
 48
0.25
100
AcDbLine
 10
515.2173989968838
 20
277.7276954877233
 30
0.0
 11
518.2173989968838
 21
275.9956448210568
 31
0.0
  0
LINE
  5
69D
330
18
100
AcDbEntity
  8
1
  6
Continuous
 48
0.25
100
AcDbLine
 10
518.7173989968838
 20
247.9956448210568
 30
0.0
 11
518.2173989968838
 21
247.9956448210568
 31
0.0
  0
LINE
  5
69E
330
18
100
AcDbEntity
  8
1
  6
Continuous
 48
0.25
100
AcDbLine
 10
518.7173989968838
 20
263.9956448210571
 30
0.0
 11
518.2173989968838
 21
263.9956448210571
 31
0.0
  0
LINE
  5
765
330
18
100
AcDbEntity
  8
1
  6
Continuous
 48
0.25
100
AcDbLine
 10
213.9171585317704
 20
101.6239857338814
 30
0.0
 11
299.4675775317708
 21
101.6239857338814
 31
0.0
  0
ARC
  5
766
330
18
100
AcDbEntity
  8
1
  6
Continuous
 48
0.25
100
AcDbCircle
 10
331.6923685317703
 20
73.62398573388148
 30
0.0
 40
125.0
100
AcDbArc
 50
168.9499349999991
 51
191.0500650000008
  0
ARC
  5
767
330
18
100
AcDbEntity
  8
1
  6
Continuous
 48
0.25
100
AcDbCircle
 10
213.9171585317704
 20
96.6239857338815
 30
0.0
 40
5.0
100
AcDbArc
 50
89.99999999999998
 51
168.9499349999991
  0
LINE
  5
768
330
18
100
AcDbEntity
  8
1
  6
Continuous
 48
0.25
100
AcDbLine
 10
213.9171585317704
 20
45.6239857338816
 30
0.0
 11
299.4675775317708
 21
45.62398573388157
 31
0.0
  0
ARC
  5
769
330
18
100
AcDbEntity
  8
1
  6
Continuous
 48
0.25
100
AcDbCircle
 10
213.9171585317704
 20
50.6239857338816
 30
0.0
 40
5.0
100
AcDbArc
 50
191.0500650000008
 51
270.0
  0
ARC
  5
76A
330
18
100
AcDbEntity
  8
1
  6
Continuous
 48
0.25
100
AcDbCircle
 10
299.4675775317708
 20
50.62398573388158
 30
0.0
 40
5.0
100
AcDbArc
 50
270.0
 51
348.9499349999992
  0
ARC
  5
76B
330
18
100
AcDbEntity
  8
1
  6
Continuous
 48
0.25
100
AcDbCircle
 10
181.6923675317706
 20
73.6239857338815
 30
0.0
 40
125.0
100
AcDbArc
 50
348.9499349999992
 51
11.05006500000085
  0
ARC
  5
76C
330
18
100
AcDbEntity
  8
1
  6
Continuous
 48
0.25
100
AcDbCircle
 10
299.4675775317708
 20
96.6239857338815
 30
0.0
 40
5.0
100
AcDbArc
 50
11.05006500000085
 51
89.99999999999998
  0
LINE
  5
76D
330
18
100
AcDbEntity
  8
1
  6
Continuous
 48
0.25
100
AcDbLine
 10
264.6923675317709
 20
105.1239857338815
 30
0.0
 11
264.6923675317709
 21
104.6239857338814
 31
0.0
  0
LINE
  5
76E
330
18
100
AcDbEntity
  8
1
  6
Continuous
 48
0.25
100
AcDbLine
 10
278.4244181984373
 20
101.6239857338816
 30
0.0
 11
276.6923675317705
 21
104.6239857338816
 31
0.0
  0
LINE
  5
76F
330
18
100
AcDbEntity
  8
1
  6
Continuous
 48
0.25
100
AcDbLine
 10
236.6923675317706
 20
104.6239857338814
 30
0.0
 11
276.6923675317705
 21
104.6239857338814
 31
0.0
  0
LINE
  5
770
330
18
100
AcDbEntity
  8
1
  6
Continuous
 48
0.25
100
AcDbLine
 10
234.9603165317707
 20
101.6239857338814
 30
0.0
 11
236.6923675317706
 21
104.6239857338814
 31
0.0
  0
LINE
  5
771
330
18
100
AcDbEntity
  8
1
  6
Continuous
 48
0.25
100
AcDbLine
 10
248.6923675317707
 20
105.1239857338815
 30
0.0
 11
248.6923675317707
 21
104.6239857338814
 31
0.0
  0
LINE
  5
772
330
18
100
AcDbEntity
  8
1
  6
Continuous
 48
0.25
100
AcDbLine
 10
234.9603165317708
 20
45.6239857338816
 30
0.0
 11
236.6923675317706
 21
42.6239857338816
 31
0.0
  0
LINE
  5
773
330
18
100
AcDbEntity
  8
1
  6
Continuous
 48
0.25
100
AcDbLine
 10
248.6923675317707
 20
42.1239857338816
 30
0.0
 11
248.6923675317707
 21
42.6239857338816
 31
0.0
  0
LINE
  5
774
330
18
100
AcDbEntity
  8
1
  6
Continuous
 48
0.25
100
AcDbLine
 10
236.6923675317706
 20
42.6239857338816
 30
0.0
 11
276.6923675317705
 21
42.6239857338816
 31
0.0
  0
LINE
  5
775
330
18
100
AcDbEntity
  8
1
  6
Continuous
 48
0.25
100
AcDbLine
 10
264.6923675317709
 20
42.1239857338816
 30
0.0
 11
264.6923675317709
 21
42.6239857338816
 31
0.0
  0
LINE
  5
776
330
18
100
AcDbEntity
  8
1
  6
Continuous
 48
0.25
100
AcDbLine
 10
278.4244181984372
 20
45.6239857338816
 30
0.0
 11
276.6923675317705
 21
42.62398573388171
 31
0.0
  0
ARC
  5
79C
330
18
100
AcDbEntity
  8
1
  6
Continuous
 48
0.25
100
AcDbCircle
 10
717.7424304619972
 20
255.9956448210568
 30
0.0
 40
22.598076
100
AcDbArc
 50
183.508678158153
 51
9.32931817791127
  0
ARC
  5
79D
330
18
100
AcDbEntity
  8
1
  6
Continuous
 48
0.25
100
AcDbCircle
 10
717.7424304619972
 20
255.9956448210568
 30
0.0
 40
31.633975
100
AcDbArc
 50
160.4682922817199
 51
32.36970436052252
  0
ARC
  5
79E
330
18
100
AcDbEntity
  8
1
  6
Continuous
 48
0.25
100
AcDbCircle
 10
717.7424304619972
 20
255.9956448210568
 30
0.0
 40
32.5
100
AcDbArc
 50
159.2332030327717
 51
33.60479361942968
  0
ARC
  5
7B7
330
18
100
AcDbEntity
  8
1
  6
Continuous
 48
0.25
100
AcDbCircle
 10
256.6923675317706
 20
255.9956448210568
 30
0.0
 40
22.598076
100
AcDbArc
 50
170.670681822089
 51
356.4913218418477
  0
ARC
  5
7B8
330
18
100
AcDbEntity
  8
1
  6
Continuous
 48
0.25
100
AcDbCircle
 10
256.6923675317706
 20
255.9956448210568
 30
0.0
 40
31.633975
100
AcDbArc
 50
147.6302956394776
 51
19.53170771828039
  0
ARC
  5
7B9
330
18
100
AcDbEntity
  8
1
  6
Continuous
 48
0.25
100
AcDbCircle
 10
256.6923675317706
 20
255.9956448210568
 30
0.0
 40
32.5
100
AcDbArc
 50
146.3952063805704
 51
20.76679696722844
  0
LINE
  5
7C1
330
18
100
AcDbEntity
  8
4
  6
CENTER
 48
0.2
100
AcDbLine
 10
46.66733806666295
 20
350.9956448210568
 30
0.0
 11
46.66733806664487
 21
336.4956448210568
 31
0.0
  0
LINE
  5
7C2
330
18
100
AcDbEntity
  8
4
  6
CENTER
 48
0.2
100
AcDbLine
 10
105.6673380666628
 20
350.9956448210568
 30
0.0
 11
105.6673380666447
 21
336.4956448210568
 31
0.0
  0
CIRCLE
  5
7CB
330
18
100
AcDbEntity
  8
2
  6
Continuous
100
AcDbCircle
 10
717.7424304619976
 20
255.9956448210568
 30
0.0
 40
5.052999999999999
  0
LINE
  5
B55
330
18
100
AcDbEntity
  8
1
  6
Continuous
100
AcDbLine
 10
121.1673380666566
 20
323.9956448210568
 30
0.0
 11
121.1673380666566
 21
270.9956448210568
 31
0.0
  0
ARC
  5
B56
330
18
100
AcDbEntity
  8
1
  6
Continuous
100
AcDbCircle
 10
102.8024630666568
 20
270.9956448210568
 30
0.0
 40
18.364875
100
AcDbArc
 50
324.0390229999988
 51
0.0
  0
LINE
  5
B57
330
18
100
AcDbEntity
  8
1
  6
Continuous
100
AcDbLine
 10
31.16733806665672
 20
323.9956448210568
 30
0.0
 11
31.16733806665672
 21
270.9956448210568
 31
0.0
  0
ARC
  5
B58
330
18
100
AcDbEntity
  8
1
  6
Continuous
100
AcDbCircle
 10
49.53221306665692
 20
270.9956448210568
 30
0.0
 40
18.364875
100
AcDbArc
 50
180.0
 51
202.353555999999
  0
LINE
  5
BA8
330
18
100
AcDbEntity
  8
1
  6
Continuous
 48
0.25
100
AcDbLine
 10
515.2173989968838
 20
213.220434821057
 30
0.0
 11
515.2173989968838
 21
298.7708548210568
 31
0.0
  0
ARC
  5
BA9
330
18
100
AcDbEntity
  8
1
  6
Continuous
 48
0.25
100
AcDbCircle
 10
510.2173989968838
 20
298.7708548210568
 30
0.0
 40
5.0
100
AcDbArc
 50
0.0
 51
78.94993499999912
  0
ARC
  5
BAA
330
18
100
AcDbEntity
  8
1
  6
Continuous
 48
0.25
100
AcDbCircle
 10
487.2173989968841
 20
180.9956448210568
 30
0.0
 40
125.0
100
AcDbArc
 50
78.94993499999912
 51
101.0500650000008
  0
LINE
  5
BAB
330
18
100
AcDbEntity
  8
1
  6
Continuous
 48
0.25
100
AcDbLine
 10
459.217398996884
 20
213.220434821057
 30
0.0
 11
459.217398996884
 21
298.7708548210568
 31
0.0
  0
ARC
  5
BAC
330
18
100
AcDbEntity
  8
1
  6
Continuous
 48
0.25
100
AcDbCircle
 10
464.2173989968839
 20
298.7708548210568
 30
0.0
 40
5.0
100
AcDbArc
 50
101.0500650000008
 51
180.0
  0
ARC
  5
BAD
330
18
100
AcDbEntity
  8
1
  6
Continuous
 48
0.25
100
AcDbCircle
 10
487.2173989968841
 20
330.9956448210568
 30
0.0
 40
125.0
100
AcDbArc
 50
258.9499349999991
 51
281.0500650000008
  0
ARC
  5
BAE
330
18
100
AcDbEntity
  8
1
  6
Continuous
 48
0.25
100
AcDbCircle
 10
464.2173989968839
 20
213.220434821057
 30
0.0
 40
5.0
100
AcDbArc
 50
180.0
 51
258.9499349999991
  0
ARC
  5
BAF
330
18
100
AcDbEntity
  8
1
  6
Continuous
 48
0.25
100
AcDbCircle
 10
510.2173989968838
 20
213.220434821057
 30
0.0
 40
5.0
100
AcDbArc
 50
281.0500650000008
 51
0.0
  0
ENDSEC
  0
SECTION
  2
OBJECTS
  0
DICTIONARY
  5
C
330
0
100
AcDbDictionary
281
     1
  3
ACAD_CIP_PREVIOUS_PRODUCT_INFO
350
CCF
  3
ACAD_COLOR
350
CB2
  3
ACAD_DETAILVIEWSTYLE
350
CCB
  3
ACAD_GROUP
350
D
  3
ACAD_LAYOUT
350
94
  3
ACAD_MATERIAL
350
C80
  3
ACAD_MLEADERSTYLE
350
CC7
  3
ACAD_MLINESTYLE
350
1B
  3
ACAD_PLOTSETTINGS
350
95
  3
ACAD_PLOTSTYLENAME
350
C7E
  3
ACAD_SCALELIST
350
CB5
  3
ACAD_SECTIONVIEWSTYLE
350
CC9
  3
ACAD_TABLESTYLE
350
CB3
  3
ACAD_VISUALSTYLE
350
C99
  3
ACDB_RECOMPOSE_DATA
350
CED
  3
AcDbVariableDictionary
350
CE0
  3
CONTENTDICTIONARY
350
3D
  3
DWGPROPS
350
CEE
  0
DICTIONARY
  5
CD0
330
E
100
AcDbDictionary
280
     1
281
     1
  3
ADSK_XREC_LAYER_RECONCILED
360
CD1
  0
DICTIONARY
  5
CD2
330
4E
100
AcDbDictionary
280
     1
281
     1
  3
ADSK_XREC_LAYER_RECONCILED
360
CD3
  0
DICTIONARY
  5
CD4
330
4F
100
AcDbDictionary
280
     1
281
     1
  3
ADSK_XREC_LAYER_RECONCILED
360
CD5
  0
DICTIONARY
  5
CD6
330
50
100
AcDbDictionary
280
     1
281
     1
  3
ADSK_XREC_LAYER_RECONCILED
360
CD7
  0
DICTIONARY
  5
CD8
330
51
100
AcDbDictionary
280
     1
281
     1
  3
ADSK_XREC_LAYER_RECONCILED
360
CD9
  0
DICTIONARY
  5
CDA
330
52
100
AcDbDictionary
280
     1
281
     1
  3
ADSK_XREC_LAYER_RECONCILED
360
CDB
  0
DICTIONARY
  5
CDC
330
53
100
AcDbDictionary
280
     1
281
     1
  3
ADSK_XREC_LAYER_RECONCILED
360
CDD
  0
DICTIONARY
  5
CDE
330
54
100
AcDbDictionary
280
     1
281
     1
  3
ADSK_XREC_LAYER_RECONCILED
360
CDF
  0
DICTIONARY
  5
C79
330
18
100
AcDbDictionary
281
     1
  3
ACAD_LAYOUTSELFREF
350
C7A
  0
DICTIONARY
  5
C77
330
15
100
AcDbDictionary
281
     1
  3
ACAD_LAYOUTSELFREF
350
C78
  0
XRECORD
  5
CCF
102
{ACAD_REACTORS
330
C
102
}
330
C
100
AcDbXrecord
280
     1
300
ACDLT
300
2014
300
ACDLT_F_S
  0
DICTIONARY
  5
CB2
102
{ACAD_REACTORS
330
C
102
}
330
C
100
AcDbDictionary
281
     1
  0
DICTIONARY
  5
CCB
102
{ACAD_REACTORS
330
C
102
}
330
C
100
AcDbDictionary
281
     1
  3
Imperial24
350
CCC
  0
DICTIONARY
  5
D
102
{ACAD_REACTORS
330
C
102
}
330
C
100
AcDbDictionary
281
     1
  0
DICTIONARY
  5
94
102
{ACAD_REACTORS
330
C
102
}
330
C
100
AcDbDictionary
281
     1
  3
Model
350
CCD
  3
レイアウト1
350
CCE
  0
DICTIONARY
  5
C80
102
{ACAD_REACTORS
330
C
102
}
330
C
100
AcDbDictionary
281
     1
  3
ByBlock
350
C89
  3
ByLayer
350
C81
  3
Global
350
C91
  0
DICTIONARY
  5
CC7
102
{ACAD_REACTORS
330
C
102
}
330
C
100
AcDbDictionary
281
     1
  3
Standard
350
CC8
  0
DICTIONARY
  5
1B
102
{ACAD_REACTORS
330
C
102
}
330
C
100
AcDbDictionary
281
     1
  3
STANDARD
350
1C
  0
DICTIONARY
  5
95
102
{ACAD_REACTORS
330
C
102
}
330
C
100
AcDbDictionary
281
     1
  0
ACDBDICTIONARYWDFLT
  5
C7E
102
{ACAD_REACTORS
330
C
102
}
330
C
100
AcDbDictionary
281
     1
  3
Normal
350
C7F
100
AcDbDictionaryWithDefault
340
C7F
  0
DICTIONARY
  5
CB5
102
{ACAD_REACTORS
330
C
102
}
330
C
100
AcDbDictionary
281
     1
  3
A0
350
CB6
  3
A1
350
CB7
  3
A2
350
CB8
  3
A3
350
CB9
  3
A4
350
CBA
  3
A5
350
CBB
  3
A6
350
CBC
  3
A7
350
CBD
  3
A8
350
CBE
  3
A9
350
CBF
  3
B0
350
CC0
  3
B1
350
CC1
  3
B2
350
CC2
  3
B3
350
CC3
  3
B4
350
CC4
  3
B5
350
CC5
  3
B6
350
CC6
  0
DICTIONARY
  5
CC9
102
{ACAD_REACTORS
330
C
102
}
330
C
100
AcDbDictionary
281
     1
  3
Imperial24
350
CCA
  0
DICTIONARY
  5
CB3
102
{ACAD_REACTORS
330
C
102
}
330
C
100
AcDbDictionary
281
     1
  3
Standard
350
CB4
  0
DICTIONARY
  5
C99
102
{ACAD_REACTORS
330
C
102
}
330
C
100
AcDbDictionary
281
     1
  3
2dWireframe
350
C9F
  3
Basic
350
C9E
  3
Brighten
350
CA5
  3
ColorChange
350
CA9
  3
Conceptual
350
CA2
  3
Dim
350
CA4
  3
EdgeColorOff
350
CB1
  3
Facepattern
350
CA8
  3
Flat
350
C9A
  3
FlatWithEdges
350
C9B
  3
Gouraud
350
C9C
  3
GouraudWithEdges
350
C9D
  3
Hidden
350
CA1
  3
JitterOff
350
CAF
  3
Linepattern
350
CA7
  3
OverhangOff
350
CB0
  3
Realistic
350
CA3
  3
Shaded
350
CAE
  3
Shaded with edges
350
CAD
  3
Shades of Gray
350
CAA
  3
Sketchy
350
CAB
  3
Thicken
350
CA6
  3
Wireframe
350
CA0
  3
X-Ray
350
CAC
  0
XRECORD
  5
CED
102
{ACAD_REACTORS
330
C
102
}
330
C
100
AcDbXrecord
280
     1
 90
        1
330
CB4
  0
DICTIONARY
  5
CE0
102
{ACAD_REACTORS
330
C
102
}
330
C
100
AcDbDictionary
281
     1
  3
CANNOSCALE
350
CE5
  3
CMLEADERSTYLE
350
CE2
  3
CTABLESTYLE
350
CE1
  3
CVIEWDETAILSTYLE
350
CE3
  3
CVIEWSECTIONSTYLE
350
CE4
  3
DIMASSOC
350
CE8
  3
INDEXCTL
350
CE7
  3
SORTENTS
350
CE6
  3
XCLIPFRAME
350
CE9
  0
DICTIONARY
  5
3D
102
{ACAD_REACTORS
330
C
102
}
330
C
100
AcDbDictionary
281
     1
  0
XRECORD
  5
CEE
102
{ACAD_REACTORS
330
C
102
}
330
C
100
AcDbXrecord
280
     1
  1
DWGPROPS COOKIE
  2

  3

  4

  6

  7

  8
Yoshitsune
  9

300
=
301
=
302
=
303
=
304
=
305
=
306
=
307
=
308
=
309
=
 40
0.075886087962963
 41
2454865.715274236
 42
2457192.690886459
  1

 90
        0
  0
XRECORD
  5
CD1
102
{ACAD_REACTORS
330
CD0
102
}
330
CD0
100
AcDbXrecord
280
     1
290
     1
  0
XRECORD
  5
CD3
102
{ACAD_REACTORS
330
CD2
102
}
330
CD2
100
AcDbXrecord
280
     1
290
     1
  0
XRECORD
  5
CD5
102
{ACAD_REACTORS
330
CD4
102
}
330
CD4
100
AcDbXrecord
280
     1
290
     1
  0
XRECORD
  5
CD7
102
{ACAD_REACTORS
330
CD6
102
}
330
CD6
100
AcDbXrecord
280
     1
290
     1
  0
XRECORD
  5
CD9
102
{ACAD_REACTORS
330
CD8
102
}
330
CD8
100
AcDbXrecord
280
     1
290
     1
  0
XRECORD
  5
CDB
102
{ACAD_REACTORS
330
CDA
102
}
330
CDA
100
AcDbXrecord
280
     1
290
     1
  0
XRECORD
  5
CDD
102
{ACAD_REACTORS
330
CDC
102
}
330
CDC
100
AcDbXrecord
280
     1
290
     1
  0
XRECORD
  5
CDF
102
{ACAD_REACTORS
330
CDE
102
}
330
CDE
100
AcDbXrecord
280
     1
290
     1
  0
XRECORD
  5
C7A
102
{ACAD_REACTORS
330
C79
102
}
330
C79
100
AcDbXrecord
280
     1
340
18
  0
XRECORD
  5
C78
102
{ACAD_REACTORS
330
C77
102
}
330
C77
100
AcDbXrecord
280
     1
340
15
  0
ACDBDETAILVIEWSTYLE
  5
CCC
102
{ACAD_XDICTIONARY
360
D26
102
}
102
{ACAD_REACTORS
330
CCB
102
}
330
CCB
100
AcDbModelDocViewStyle
 70
     0
  3
Imperial24
290
     0
100
AcDbDetailViewStyle
 70
     0
 71
     0
 90
        3
 71
     1
340
F
 40
0.24
340
0
 40
0.24
300

 40
0.36
280
     3
 71
     2
340
14
 90
       25
 71
     3
340
F
 40
0.24
 90
        1
 40
0.75
 90
        1
300
%<\AcVar ViewType \f "%tc1">% %<\AcVar ViewDetailId>%\PSCALE %<\AcVar ViewScale \f "%sn">%
 71
     4
340
14
 90
       25
340
14
 90
       25
280
     0
  0
LAYOUT
  5
CCD
102
{ACAD_XDICTIONARY
360
D28
102
}
102
{ACAD_REACTORS
330
94
102
}
330
94
100
AcDbPlotSettings
  1

  2
Canon LBP9100C
  4

  6

 40
0.0
 41
0.0
 42
0.0
 43
0.0
 44
0.0
 45
0.0
 46
0.0
 47
0.0
 48
0.0
 49
0.0
140
0.0
141
0.0
142
1.0
143
1.0
 70
  1712
 72
     0
 73
     0
 74
     0
  7

 75
     0
147
1.0
148
0.0
149
0.0
100
AcDbLayout
  1
Model
 70
     1
 71
     0
 10
0.0
 20
0.0
 11
12.0
 21
9.0
 12
0.0
 22
0.0
 32
0.0
 14
0.0
 24
0.0
 34
0.0
 15
0.0
 25
0.0
 35
0.0
146
0.0
 13
0.0
 23
0.0
 33
0.0
 16
1.0
 26
0.0
 36
0.0
 17
0.0
 27
1.0
 37
0.0
 76
     0
330
18
331
C76
  0
LAYOUT
  5
CCE
102
{ACAD_XDICTIONARY
360
D2A
102
}
102
{ACAD_REACTORS
330
94
102
}
330
94
100
AcDbPlotSettings
  1

  2
Canon LBP9100C
  4

  6

 40
0.0
 41
0.0
 42
0.0
 43
0.0
 44
0.0
 45
0.0
 46
0.0
 47
0.0
 48
0.0
 49
0.0
140
0.0
141
0.0
142
1.0
143
1.0
 70
   688
 72
     0
 73
     0
 74
     5
  7

 75
    16
147
1.0
148
0.0
149
0.0
100
AcDbLayout
  1
レイアウト1
 70
     1
 71
     1
 10
0.0
 20
0.0
 11
420.0
 21
297.0
 12
0.0
 22
0.0
 32
0.0
 14
1.000000000000000E+20
 24
1.000000000000000E+20
 34
1.000000000000000E+20
 15
-1.000000000000000E+20
 25
-1.000000000000000E+20
 35
-1.000000000000000E+20
146
0.0
 13
0.0
 23
0.0
 33
0.0
 16
1.0
 26
0.0
 36
0.0
 17
0.0
 27
1.0
 37
0.0
 76
     0
330
15
  0
MATERIAL
  5
C89
102
{ACAD_XDICTIONARY
360
C8A
102
}
102
{ACAD_REACTORS
330
C80
102
}
330
C80
100
AcDbMaterial
  1
ByBlock
 72
     0
 43
0.0208333333333333
 43
0.0
 43
0.0
 43
0.0
 43
0.0
 43
0.0208333333333333
 43
0.0
 43
0.0
 43
0.0
 43
0.0
 43
1.0
 43
0.0
 43
0.0
 43
0.0
 43
0.0
 43
1.0
 77
     0
 47
0.0208333333333333
 47
0.0
 47
0.0
 47
0.0
 47
0.0
 47
0.0208333333333333
 47
0.0
 47
0.0
 47
0.0
 47
0.0
 47
1.0
 47
0.0
 47
0.0
 47
0.0
 47
0.0
 47
1.0
171
     0
 49
0.0208333333333333
 49
0.0
 49
0.0
 49
0.0
 49
0.0
 49
0.0208333333333333
 49
0.0
 49
0.0
 49
0.0
 49
0.0
 49
1.0
 49
0.0
 49
0.0
 49
0.0
 49
0.0
 49
1.0
175
     0
142
0.0208333333333333
142
0.0
142
0.0
142
0.0
142
0.0
142
0.0208333333333333
142
0.0
142
0.0
142
0.0
142
0.0
142
1.0
142
0.0
142
0.0
142
0.0
142
0.0
142
1.0
179
     0
144
0.0208333333333333
144
0.0
144
0.0
144
0.0
144
0.0
144
0.0208333333333333
144
0.0
144
0.0
144
0.0
144
0.0
144
1.0
144
0.0
144
0.0
144
0.0
144
0.0
144
1.0
147
0.0208333333333333
147
0.0
147
0.0
147
0.0
147
0.0
147
0.0208333333333333
147
0.0
147
0.0
147
0.0
147
0.0
147
1.0
147
0.0
147
0.0
147
0.0
147
0.0
147
1.0
  0
MATERIAL
  5
C81
102
{ACAD_XDICTIONARY
360
C82
102
}
102
{ACAD_REACTORS
330
C80
102
}
330
C80
100
AcDbMaterial
  1
ByLayer
 72
     0
 43
0.0208333333333333
 43
0.0
 43
0.0
 43
0.0
 43
0.0
 43
0.0208333333333333
 43
0.0
 43
0.0
 43
0.0
 43
0.0
 43
1.0
 43
0.0
 43
0.0
 43
0.0
 43
0.0
 43
1.0
 77
     0
 47
0.0208333333333333
 47
0.0
 47
0.0
 47
0.0
 47
0.0
 47
0.0208333333333333
 47
0.0
 47
0.0
 47
0.0
 47
0.0
 47
1.0
 47
0.0
 47
0.0
 47
0.0
 47
0.0
 47
1.0
171
     0
 49
0.0208333333333333
 49
0.0
 49
0.0
 49
0.0
 49
0.0
 49
0.0208333333333333
 49
0.0
 49
0.0
 49
0.0
 49
0.0
 49
1.0
 49
0.0
 49
0.0
 49
0.0
 49
0.0
 49
1.0
175
     0
142
0.0208333333333333
142
0.0
142
0.0
142
0.0
142
0.0
142
0.0208333333333333
142
0.0
142
0.0
142
0.0
142
0.0
142
1.0
142
0.0
142
0.0
142
0.0
142
0.0
142
1.0
179
     0
144
0.0208333333333333
144
0.0
144
0.0
144
0.0
144
0.0
144
0.0208333333333333
144
0.0
144
0.0
144
0.0
144
0.0
144
1.0
144
0.0
144
0.0
144
0.0
144
0.0
144
1.0
147
0.0208333333333333
147
0.0
147
0.0
147
0.0
147
0.0
147
0.0208333333333333
147
0.0
147
0.0
147
0.0
147
0.0
147
1.0
147
0.0
147
0.0
147
0.0
147
0.0
147
1.0
  0
MATERIAL
  5
C91
102
{ACAD_XDICTIONARY
360
C92
102
}
102
{ACAD_REACTORS
330
C80
102
}
330
C80
100
AcDbMaterial
  1
Global
 72
     0
 43
0.0208333333333333
 43
0.0
 43
0.0
 43
0.0
 43
0.0
 43
0.0208333333333333
 43
0.0
 43
0.0
 43
0.0
 43
0.0
 43
1.0
 43
0.0
 43
0.0
 43
0.0
 43
0.0
 43
1.0
 77
     0
 47
0.0208333333333333
 47
0.0
 47
0.0
 47
0.0
 47
0.0
 47
0.0208333333333333
 47
0.0
 47
0.0
 47
0.0
 47
0.0
 47
1.0
 47
0.0
 47
0.0
 47
0.0
 47
0.0
 47
1.0
171
     0
 49
0.0208333333333333
 49
0.0
 49
0.0
 49
0.0
 49
0.0
 49
0.0208333333333333
 49
0.0
 49
0.0
 49
0.0
 49
0.0
 49
1.0
 49
0.0
 49
0.0
 49
0.0
 49
0.0
 49
1.0
175
     0
142
0.0208333333333333
142
0.0
142
0.0
142
0.0
142
0.0
142
0.0208333333333333
142
0.0
142
0.0
142
0.0
142
0.0
142
1.0
142
0.0
142
0.0
142
0.0
142
0.0
142
1.0
179
     0
144
0.0208333333333333
144
0.0
144
0.0
144
0.0
144
0.0
144
0.0208333333333333
144
0.0
144
0.0
144
0.0
144
0.0
144
1.0
144
0.0
144
0.0
144
0.0
144
0.0
144
1.0
147
0.0208333333333333
147
0.0
147
0.0
147
0.0
147
0.0
147
0.0208333333333333
147
0.0
147
0.0
147
0.0
147
0.0
147
1.0
147
0.0
147
0.0
147
0.0
147
0.0
147
1.0
  0
MLEADERSTYLE
  5
CC8
102
{ACAD_REACTORS
330
CC7
102
}
330
CC7
100
AcDbMLeaderStyle
170
     2
171
     1
172
     0
 90
        2
 40
0.0
 41
0.0
173
     1
 91
-1056964608
340
12
 92
       -2
290
     1
 42
0.09
291
     1
 43
0.36
  3
Standard
 44
0.18
300

342
F
174
     1
178
     6
175
     1
176
     0
 93
-1056964608
 45
0.18
292
     0
297
     0
 46
0.18
 94
-1056964608
 47
1.0
 49
1.0
140
1.0
293
     1
141
0.0
294
     1
177
     0
142
1.0
295
     0
296
     0
143
0.125
1001
ACAD_MLEADERVER
1070
     2
  0
MLINESTYLE
  5
1C
102
{ACAD_REACTORS
330
1B
102
}
330
1B
100
AcDbMlineStyle
  2
STANDARD
 70
     0
  3

 62
   256
 51
90.0
 52
90.0
 71
     2
 49
0.5
 62
   256
  6
BYLAYER
 49
-0.5
 62
   256
  6
BYLAYER
  0
ACDBPLACEHOLDER
  5
C7F
102
{ACAD_REACTORS
330
C7E
102
}
330
C7E
  0
SCALE
  5
CB6
102
{ACAD_REACTORS
330
CB5
102
}
330
CB5
100
AcDbScale
 70
     0
300
1:1
140
1.0
141
1.0
290
     1
  0
SCALE
  5
CB7
102
{ACAD_REACTORS
330
CB5
102
}
330
CB5
100
AcDbScale
 70
     0
300
1/128" = 1'-0"
140
0.0078125
141
12.0
290
     0
  0
SCALE
  5
CB8
102
{ACAD_REACTORS
330
CB5
102
}
330
CB5
100
AcDbScale
 70
     0
300
1/64" = 1'-0"
140
0.015625
141
12.0
290
     0
  0
SCALE
  5
CB9
102
{ACAD_REACTORS
330
CB5
102
}
330
CB5
100
AcDbScale
 70
     0
300
1/32" = 1'-0"
140
0.03125
141
12.0
290
     0
  0
SCALE
  5
CBA
102
{ACAD_REACTORS
330
CB5
102
}
330
CB5
100
AcDbScale
 70
     0
300
1/16" = 1'-0"
140
0.0625
141
12.0
290
     0
  0
SCALE
  5
CBB
102
{ACAD_REACTORS
330
CB5
102
}
330
CB5
100
AcDbScale
 70
     0
300
3/32" = 1'-0"
140
0.09375
141
12.0
290
     0
  0
SCALE
  5
CBC
102
{ACAD_REACTORS
330
CB5
102
}
330
CB5
100
AcDbScale
 70
     0
300
1/8" = 1'-0"
140
0.125
141
12.0
290
     0
  0
SCALE
  5
CBD
102
{ACAD_REACTORS
330
CB5
102
}
330
CB5
100
AcDbScale
 70
     0
300
3/16" = 1'-0"
140
0.1875
141
12.0
290
     0
  0
SCALE
  5
CBE
102
{ACAD_REACTORS
330
CB5
102
}
330
CB5
100
AcDbScale
 70
     0
300
1/4" = 1'-0"
140
0.25
141
12.0
290
     0
  0
SCALE
  5
CBF
102
{ACAD_REACTORS
330
CB5
102
}
330
CB5
100
AcDbScale
 70
     0
300
3/8" = 1'-0"
140
0.375
141
12.0
290
     0
  0
SCALE
  5
CC0
102
{ACAD_REACTORS
330
CB5
102
}
330
CB5
100
AcDbScale
 70
     0
300
1/2" = 1'-0"
140
0.5
141
12.0
290
     0
  0
SCALE
  5
CC1
102
{ACAD_REACTORS
330
CB5
102
}
330
CB5
100
AcDbScale
 70
     0
300
3/4" = 1'-0"
140
0.75
141
12.0
290
     0
  0
SCALE
  5
CC2
102
{ACAD_REACTORS
330
CB5
102
}
330
CB5
100
AcDbScale
 70
     0
300
1" = 1'-0"
140
1.0
141
12.0
290
     0
  0
SCALE
  5
CC3
102
{ACAD_REACTORS
330
CB5
102
}
330
CB5
100
AcDbScale
 70
     0
300
1-1/2" = 1'-0"
140
1.5
141
12.0
290
     0
  0
SCALE
  5
CC4
102
{ACAD_REACTORS
330
CB5
102
}
330
CB5
100
AcDbScale
 70
     0
300
3" = 1'-0"
140
3.0
141
12.0
290
     0
  0
SCALE
  5
CC5
102
{ACAD_REACTORS
330
CB5
102
}
330
CB5
100
AcDbScale
 70
     0
300
6" = 1'-0"
140
6.0
141
12.0
290
     0
  0
SCALE
  5
CC6
102
{ACAD_REACTORS
330
CB5
102
}
330
CB5
100
AcDbScale
 70
     0
300
1'-0" = 1'-0"
140
12.0
141
12.0
290
     0
  0
ACDBSECTIONVIEWSTYLE
  5
CCA
102
{ACAD_XDICTIONARY
360
D24
102
}
102
{ACAD_REACTORS
330
CC9
102
}
330
CC9
100
AcDbModelDocViewStyle
 70
     0
  3
Imperial24
290
     0
100
AcDbSectionViewStyle
 70
     0
 71
     0
 90
       78
 71
     1
340
F
 40
0.24
340
0
340
0
 40
0.24
300
I, O, Q, S, X, Z
 40
0.48
 90
        3
 40
0.18
 90
        1
 71
     2
340
14
 90
       25
340
14
 90
       50
 40
0.24
 40
0.0
 40
0.24
 71
     3
340
F
 40
0.24
 90
        1
 40
0.75
 90
        1
300
%<\AcVar ViewType \f "%tc1">% %<\AcVar ViewSectionStartId>%-%<\AcVar ViewSectionEndId>%\PSCALE %<\AcVar ViewScale \f "%sn">%
 71
     4
300
ANSI31
 40
1.0
 90
        0
290
     0
290
     0
 90
        6
 40
0.0
 40
1.570796326794896
 40
0.2617993877991494
 40
1.308996938995747
 40
-0.2617993877991494
 40
1.832595714594046
  0
TABLESTYLE
  5
CB4
102
{ACAD_XDICTIONARY
360
CEB
102
}
102
{ACAD_REACTORS
330
CB3
102
}
330
CB3
100
AcDbTableStyle
  3
Standard
 70
     0
 71
     0
 40
0.06
 41
0.06
280
     0
281
     0
  7
STANDARD
140
0.18
170
     2
 62
     0
 63
     7
283
     0
274
    -2
284
     1
 64
     0
275
    -2
285
     1
 65
     0
276
    -2
286
     1
 66
     0
277
    -2
287
     1
 67
     0
278
    -2
288
     1
 68
     0
279
    -2
289
     1
 69
     0
  7
STANDARD
140
0.25
170
     5
 62
     0
 63
     7
283
     0
274
    -2
284
     1
 64
     0
275
    -2
285
     1
 65
     0
276
    -2
286
     1
 66
     0
277
    -2
287
     1
 67
     0
278
    -2
288
     1
 68
     0
279
    -2
289
     1
 69
     0
  7
STANDARD
140
0.18
170
     5
 62
     0
 63
     7
283
     0
274
    -2
284
     1
 64
     0
275
    -2
285
     1
 65
     0
276
    -2
286
     1
 66
     0
277
    -2
287
     1
 67
     0
278
    -2
288
     1
 68
     0
279
    -2
289
     1
 69
     0
  0
VISUALSTYLE
  5
C9F
102
{ACAD_XDICTIONARY
360
CFC
102
}
102
{ACAD_REACTORS
330
C99
102
}
330
C99
100
AcDbVisualStyle
  2
2dWireframe
 70
     4
 71
     0
 72
     2
 73
     0
 90
        0
 40
-0.6
 41
-30.0
 62
     5
 63
     7
 74
     1
 91
        4
 64
     7
 65
   257
 75
     1
175
     1
 42
1.0
 92
        0
 66
   257
 43
1.0
 76
     1
 77
     6
 78
     2
 67
     7
 79
     5
170
     0
171
     0
290
     0
174
     0
 93
        1
 44
0.0
173
     0
291
     0
 45
0.0
1001
ACAD
1000
AcDbSavedByObjectVersion
1070
     0
  0
VISUALSTYLE
  5
C9E
102
{ACAD_XDICTIONARY
360
CFA
102
}
102
{ACAD_REACTORS
330
C99
102
}
330
C99
100
AcDbVisualStyle
  2
Basic
 70
     7
 71
     1
 72
     0
 73
     1
 90
        0
 40
-0.6
 41
-30.0
 62
     5
 63
     7
 74
     0
 91
        4
 64
     7
 65
   257
 75
     1
175
     1
 42
1.0
 92
        8
 66
     7
 43
1.0
 76
     1
 77
     6
 78
     2
 67
     7
 79
     5
170
     0
171
     0
290
     0
174
     0
 93
        1
 44
0.0
173
     0
291
     1
 45
0.0
1001
ACAD
1000
AcDbSavedByObjectVersion
1070
     0
  0
VISUALSTYLE
  5
CA5
102
{ACAD_XDICTIONARY
360
D08
102
}
102
{ACAD_REACTORS
330
C99
102
}
330
C99
100
AcDbVisualStyle
  2
Brighten
 70
    12
 71
     2
 72
     2
 73
     0
 90
        0
 40
-0.6
 41
-30.0
 62
     5
 63
     7
 74
     1
 91
        4
 64
     7
 65
   257
 75
     1
175
     1
 42
1.0
 92
        8
 66
     7
 43
1.0
 76
     1
 77
     6
 78
     2
 67
     7
 79
     5
170
     0
171
     0
290
     0
174
     0
 93
        1
 44
50.0
173
     0
291
     1
 45
0.0
1001
ACAD
1000
AcDbSavedByObjectVersion
1070
     0
  0
VISUALSTYLE
  5
CA9
102
{ACAD_XDICTIONARY
360
D10
102
}
102
{ACAD_REACTORS
330
C99
102
}
330
C99
100
AcDbVisualStyle
  2
ColorChange
 70
    16
 71
     2
 72
     2
 73
     3
 90
        0
 40
-0.6
 41
-30.0
 62
     5
 63
     8
 74
     1
 91
        4
 64
     7
 65
   257
 75
     1
175
     1
 42
1.0
 92
        8
 66
     8
 43
1.0
 76
     1
 77
     6
 78
     2
 67
     7
 79
     5
170
     0
171
     0
290
     0
174
     0
 93
        1
 44
0.0
173
     0
291
     1
 45
0.0
1001
ACAD
1000
AcDbSavedByObjectVersion
1070
     0
  0
VISUALSTYLE
  5
CA2
102
{ACAD_XDICTIONARY
360
D02
102
}
102
{ACAD_REACTORS
330
C99
102
}
330
C99
100
AcDbVisualStyle
  2
Conceptual
 70
     9
 71
     3
 72
     2
 73
     0
 90
        0
 40
-0.6
 41
-30.0
 62
     5
 63
     7
 74
     2
 91
        2
 64
     7
 65
   257
 75
     1
175
     1
 42
179.0
 92
        8
 66
     7
 43
1.0
 76
     1
 77
     6
 78
     2
 67
     7
 79
     3
170
     0
171
     0
290
     0
174
     0
 93
        1
 44
0.0
173
     0
291
     0
 45
0.0
1001
ACAD
1000
AcDbSavedByObjectVersion
1070
     0
  0
VISUALSTYLE
  5
CA4
102
{ACAD_XDICTIONARY
360
D06
102
}
102
{ACAD_REACTORS
330
C99
102
}
330
C99
100
AcDbVisualStyle
  2
Dim
 70
    11
 71
     2
 72
     2
 73
     0
 90
        0
 40
-0.6
 41
-30.0
 62
     5
 63
     7
 74
     1
 91
        4
 64
     7
 65
   257
 75
     1
175
     1
 42
1.0
 92
        8
 66
     7
 43
1.0
 76
     1
 77
     6
 78
     2
 67
     7
 79
     5
170
     0
171
     0
290
     0
174
     0
 93
        1
 44
-50.0
173
     0
291
     1
 45
0.0
1001
ACAD
1000
AcDbSavedByObjectVersion
1070
     0
  0
VISUALSTYLE
  5
CB1
102
{ACAD_XDICTIONARY
360
D20
102
}
102
{ACAD_REACTORS
330
C99
102
}
330
C99
100
AcDbVisualStyle
  2
EdgeColorOff
 70
    22
 71
     2
 72
     2
 73
     0
 90
        0
 40
-0.6
 41
-30.0
 62
     5
 63
     7
 74
     1
 91
        4
 64
     7
 65
   257
 75
     1
175
     1
 42
1.0
 92
        8
 66
     7
 43
1.0
 76
     1
 77
     6
 78
     2
 67
     7
 79
     5
170
     0
171
     0
290
     0
174
     0
 93
        1
 44
0.0
173
     0
291
     1
 45
0.0
1001
ACAD
1000
AcDbSavedByObjectVersion
1070
     0
  0
VISUALSTYLE
  5
CA8
102
{ACAD_XDICTIONARY
360
D0E
102
}
102
{ACAD_REACTORS
330
C99
102
}
330
C99
100
AcDbVisualStyle
  2
Facepattern
 70
    15
 71
     2
 72
     2
 73
     0
 90
        0
 40
-0.6
 41
-30.0
 62
     5
 63
     7
 74
     1
 91
        4
 64
     7
 65
   257
 75
     1
175
     1
 42
1.0
 92
        8
 66
     7
 43
1.0
 76
     1
 77
     6
 78
     2
 67
     7
 79
     5
170
     0
171
     0
290
     0
174
     0
 93
        1
 44
0.0
173
     0
291
     1
 45
0.0
1001
ACAD
1000
AcDbSavedByObjectVersion
1070
     0
  0
VISUALSTYLE
  5
C9A
102
{ACAD_XDICTIONARY
360
CF2
102
}
102
{ACAD_REACTORS
330
C99
102
}
330
C99
100
AcDbVisualStyle
  2
Flat
 70
     0
 71
     2
 72
     1
 73
     1
 90
        2
 40
-0.6
 41
30.0
 62
     5
 63
     7
 74
     0
 91
        0
 64
     7
 65
   257
 75
     1
175
     1
 42
1.0
 92
        8
 66
     7
 43
1.0
 76
     1
 77
     6
 78
     2
 67
     7
 79
     5
170
     0
171
     0
290
     0
174
     0
 93
       13
 44
0.0
173
     0
291
     1
 45
0.0
1001
ACAD
1000
AcDbSavedByObjectVersion
1070
     0
  0
VISUALSTYLE
  5
C9B
102
{ACAD_XDICTIONARY
360
CF4
102
}
102
{ACAD_REACTORS
330
C99
102
}
330
C99
100
AcDbVisualStyle
  2
FlatWithEdges
 70
     1
 71
     2
 72
     1
 73
     1
 90
        2
 40
-0.6
 41
30.0
 62
     5
 63
     7
 74
     1
 91
        0
 64
     7
 65
   257
 75
     1
175
     1
 42
1.0
 92
        0
 66
   257
 43
1.0
 76
     1
 77
     6
 78
     2
 67
     7
 79
     5
170
     0
171
     0
290
     0
174
     0
 93
       13
 44
0.0
173
     0
291
     1
 45
0.0
1001
ACAD
1000
AcDbSavedByObjectVersion
1070
     0
  0
VISUALSTYLE
  5
C9C
102
{ACAD_XDICTIONARY
360
CF6
102
}
102
{ACAD_REACTORS
330
C99
102
}
330
C99
100
AcDbVisualStyle
  2
Gouraud
 70
     2
 71
     2
 72
     2
 73
     1
 90
        2
 40
-0.6
 41
30.0
 62
     5
 63
     7
 74
     0
 91
        0
 64
     7
 65
   257
 75
     1
175
     1
 42
1.0
 92
        0
 66
     7
 43
1.0
 76
     1
 77
     6
 78
     2
 67
     7
 79
     5
170
     0
171
     0
290
     0
174
     0
 93
       13
 44
0.0
173
     0
291
     1
 45
0.0
1001
ACAD
1000
AcDbSavedByObjectVersion
1070
     0
  0
VISUALSTYLE
  5
C9D
102
{ACAD_XDICTIONARY
360
CF8
102
}
102
{ACAD_REACTORS
330
C99
102
}
330
C99
100
AcDbVisualStyle
  2
GouraudWithEdges
 70
     3
 71
     2
 72
     2
 73
     1
 90
        2
 40
-0.6
 41
30.0
 62
     5
 63
     7
 74
     1
 91
        0
 64
     7
 65
   257
 75
     1
175
     1
 42
1.0
 92
        0
 66
   257
 43
1.0
 76
     1
 77
     6
 78
     2
 67
     7
 79
     5
170
     0
171
     0
290
     0
174
     0
 93
       13
 44
0.0
173
     0
291
     1
 45
0.0
1001
ACAD
1000
AcDbSavedByObjectVersion
1070
     0
  0
VISUALSTYLE
  5
CA1
102
{ACAD_XDICTIONARY
360
D00
102
}
102
{ACAD_REACTORS
330
C99
102
}
330
C99
100
AcDbVisualStyle
  2
Hidden
 70
     6
 71
     1
 72
     2
 73
     2
 90
        0
 40
-0.6
 41
-30.0
 62
     5
 63
     7
 74
     2
 91
        2
 64
     7
 65
   257
 75
     2
175
     1
 42
40.0
 92
        0
 66
   257
 43
1.0
 76
     1
 77
     6
 78
     2
 67
     7
 79
     3
170
     0
171
     0
290
     0
174
     0
 93
        1
 44
0.0
173
     0
291
     0
 45
0.0
1001
ACAD
1000
AcDbSavedByObjectVersion
1070
     0
  0
VISUALSTYLE
  5
CAF
102
{ACAD_XDICTIONARY
360
D1C
102
}
102
{ACAD_REACTORS
330
C99
102
}
330
C99
100
AcDbVisualStyle
  2
JitterOff
 70
    20
 71
     2
 72
     2
 73
     0
 90
        0
 40
-0.6
 41
-30.0
 62
     5
 63
     7
 74
     1
 91
        4
 64
     7
 65
   257
 75
     1
175
     1
 42
1.0
 92
       10
 66
     7
 43
1.0
 76
     1
 77
     6
 78
     2
 67
     7
 79
     5
170
     0
171
     0
290
     0
174
     0
 93
        1
 44
0.0
173
     0
291
     1
 45
0.0
1001
ACAD
1000
AcDbSavedByObjectVersion
1070
     0
  0
VISUALSTYLE
  5
CA7
102
{ACAD_XDICTIONARY
360
D0C
102
}
102
{ACAD_REACTORS
330
C99
102
}
330
C99
100
AcDbVisualStyle
  2
Linepattern
 70
    14
 71
     2
 72
     2
 73
     0
 90
        0
 40
-0.6
 41
-30.0
 62
     5
 63
     7
 74
     1
 91
        4
 64
     7
 65
   257
 75
     7
175
     7
 42
1.0
 92
        8
 66
     7
 43
1.0
 76
     1
 77
     6
 78
     2
 67
     7
 79
     5
170
     0
171
     0
290
     0
174
     0
 93
        1
 44
0.0
173
     0
291
     1
 45
0.0
1001
ACAD
1000
AcDbSavedByObjectVersion
1070
     0
  0
VISUALSTYLE
  5
CB0
102
{ACAD_XDICTIONARY
360
D1E
102
}
102
{ACAD_REACTORS
330
C99
102
}
330
C99
100
AcDbVisualStyle
  2
OverhangOff
 70
    21
 71
     2
 72
     2
 73
     0
 90
        0
 40
-0.6
 41
-30.0
 62
     5
 63
     7
 74
     1
 91
        4
 64
     7
 65
   257
 75
     1
175
     1
 42
1.0
 92
        9
 66
     7
 43
1.0
 76
     1
 77
     6
 78
     2
 67
     7
 79
     5
170
     0
171
     0
290
     0
174
     0
 93
        1
 44
0.0
173
     0
291
     1
 45
0.0
1001
ACAD
1000
AcDbSavedByObjectVersion
1070
     0
  0
VISUALSTYLE
  5
CA3
102
{ACAD_XDICTIONARY
360
D04
102
}
102
{ACAD_REACTORS
330
C99
102
}
330
C99
100
AcDbVisualStyle
  2
Realistic
 70
     8
 71
     2
 72
     3
 73
     0
 90
        2
 40
-0.6
 41
30.0
 62
     5
 63
     7
 74
     0
 91
        0
 64
     7
 65
   257
 75
     1
175
     1
 42
1.0
 92
        8
 66
   257
 43
1.0
 76
     1
 77
     6
 78
     2
 67
     7
 79
     3
170
     0
171
     0
290
     0
174
     0
 93
       13
 44
0.0
173
     0
291
     0
 45
0.0
1001
ACAD
1000
AcDbSavedByObjectVersion
1070
     0
  0
VISUALSTYLE
  5
CAE
102
{ACAD_XDICTIONARY
360
D1A
102
}
102
{ACAD_REACTORS
330
C99
102
}
330
C99
100
AcDbVisualStyle
  2
Shaded
 70
    27
 71
     2
 72
     2
 73
     1
 90
        2
 40
-0.6
 41
30.0
 62
     5
 63
     7
 74
     0
 91
        4
 64
     7
 65
   257
 75
     1
175
     1
 42
1.0
 92
        8
 66
   257
 43
1.0
 76
     1
 77
     6
 78
     2
 67
     8
 79
     3
170
     0
171
     0
290
     0
174
     0
 93
        5
 44
0.0
173
     0
291
     0
 45
0.0
1001
ACAD
1000
AcDbSavedByObjectVersion
1070
     0
  0
VISUALSTYLE
  5
CAD
102
{ACAD_XDICTIONARY
360
D18
102
}
102
{ACAD_REACTORS
330
C99
102
}
330
C99
100
AcDbVisualStyle
  2
Shaded with edges
 70
    26
 71
     2
 72
     2
 73
     1
 90
        2
 40
-0.6
 41
30.0
 62
     5
 63
     7
 74
     1
 91
       10
 64
     7
 65
   257
 75
     2
175
     1
 42
1.0
 92
        8
 66
   257
 43
1.0
 76
     1
 77
     6
 78
     2
 67
     7
 79
     3
170
     0
171
     0
290
     0
174
     0
 93
        5
 44
0.0
173
     0
291
     0
 45
0.0
1001
ACAD
1000
AcDbSavedByObjectVersion
1070
     0
  0
VISUALSTYLE
  5
CAA
102
{ACAD_XDICTIONARY
360
D12
102
}
102
{ACAD_REACTORS
330
C99
102
}
330
C99
100
AcDbVisualStyle
  2
Shades of Gray
 70
    23
 71
     2
 72
     2
 73
     3
 90
        0
 40
-0.6
 41
-30.0
 62
     5
 63
     7
 74
     2
 91
        2
 64
     7
 65
     7
 75
     1
175
     1
 42
40.0
 92
        8
 66
     7
 43
1.0
 76
     1
 77
     6
 78
     2
 67
     7
 79
     3
170
     0
171
     0
290
     0
174
     0
 93
        1
 44
0.0
173
     0
291
     0
 45
0.0
1001
ACAD
1000
AcDbSavedByObjectVersion
1070
     0
  0
VISUALSTYLE
  5
CAB
102
{ACAD_XDICTIONARY
360
D14
102
}
102
{ACAD_REACTORS
330
C99
102
}
330
C99
100
AcDbVisualStyle
  2
Sketchy
 70
    24
 71
     1
 72
     2
 73
     2
 90
        0
 40
-0.6
 41
-30.0
 62
     5
 63
     7
 74
     2
 91
        2
 64
     7
 65
     7
 75
     1
175
     1
 42
40.0
 92
       11
 66
     7
 43
1.0
 76
     1
 77
     6
 78
     2
 67
     7
 79
     6
170
     0
171
     0
290
     0
174
     0
 93
        1
 44
0.0
173
     0
291
     0
 45
0.0
1001
ACAD
1000
AcDbSavedByObjectVersion
1070
     0
  0
VISUALSTYLE
  5
CA6
102
{ACAD_XDICTIONARY
360
D0A
102
}
102
{ACAD_REACTORS
330
C99
102
}
330
C99
100
AcDbVisualStyle
  2
Thicken
 70
    13
 71
     2
 72
     2
 73
     0
 90
        0
 40
-0.6
 41
-30.0
 62
     5
 63
     7
 74
     1
 91
        4
 64
     7
 65
   257
 75
     1
175
     1
 42
1.0
 92
       12
 66
     7
 43
1.0
 76
     1
 77
     6
 78
     2
 67
     7
 79
     5
170
     0
171
     0
290
     0
174
     0
 93
        1
 44
0.0
173
     0
291
     1
 45
0.0
1001
ACAD
1000
AcDbSavedByObjectVersion
1070
     0
  0
VISUALSTYLE
  5
CA0
102
{ACAD_XDICTIONARY
360
CFE
102
}
102
{ACAD_REACTORS
330
C99
102
}
330
C99
100
AcDbVisualStyle
  2
Wireframe
 70
     5
 71
     0
 72
     2
 73
     0
 90
        0
 40
-0.6
 41
-30.0
 62
     5
 63
     7
 74
     1
 91
        4
 64
     7
 65
   257
 75
     1
175
     1
 42
1.0
 92
        0
 66
   257
 43
1.0
 76
     1
 77
     6
 78
     2
 67
     7
 79
     3
170
     0
171
     0
290
     0
174
     0
 93
        1
 44
0.0
173
     0
291
     0
 45
0.0
1001
ACAD
1000
AcDbSavedByObjectVersion
1070
     0
  0
VISUALSTYLE
  5
CAC
102
{ACAD_XDICTIONARY
360
D16
102
}
102
{ACAD_REACTORS
330
C99
102
}
330
C99
100
AcDbVisualStyle
  2
X-Ray
 70
    25
 71
     2
 72
     2
 73
     1
 90
        1
 40
0.5
 41
-30.0
 62
     5
 63
     7
 74
     1
 91
        0
 64
     7
 65
   257
 75
     1
175
     1
 42
1.0
 92
        8
 66
     7
 43
1.0
 76
     1
 77
     6
 78
     2
 67
     7
 79
     3
170
     0
171
     0
290
     0
174
     0
 93
       13
 44
0.0
173
     0
291
     0
 45
0.0
1001
ACAD
1000
AcDbSavedByObjectVersion
1070
     0
  0
DICTIONARYVAR
  5
CE5
102
{ACAD_REACTORS
330
CE0
102
}
330
CE0
100
DictionaryVariables
280
     0
  1
1:1
  0
DICTIONARYVAR
  5
CE2
102
{ACAD_REACTORS
330
CE0
102
}
330
CE0
100
DictionaryVariables
280
     0
  1
STANDARD
  0
DICTIONARYVAR
  5
CE1
102
{ACAD_REACTORS
330
CE0
102
}
330
CE0
100
DictionaryVariables
280
     0
  1
STANDARD
  0
DICTIONARYVAR
  5
CE3
102
{ACAD_REACTORS
330
CE0
102
}
330
CE0
100
DictionaryVariables
280
     0
  1
Imperial24
  0
DICTIONARYVAR
  5
CE4
102
{ACAD_REACTORS
330
CE0
102
}
330
CE0
100
DictionaryVariables
280
     0
  1
Imperial24
  0
DICTIONARYVAR
  5
CE8
102
{ACAD_REACTORS
330
CE0
102
}
330
CE0
100
DictionaryVariables
280
     0
  1
1
  0
DICTIONARYVAR
  5
CE7
102
{ACAD_REACTORS
330
CE0
102
}
330
CE0
100
DictionaryVariables
280
     0
  1
0
  0
DICTIONARYVAR
  5
CE6
102
{ACAD_REACTORS
330
CE0
102
}
330
CE0
100
DictionaryVariables
280
     0
  1
127
  0
DICTIONARYVAR
  5
CE9
102
{ACAD_REACTORS
330
CE0
102
}
330
CE0
100
DictionaryVariables
280
     0
  1
2
  0
DICTIONARY
  5
D26
330
CCC
100
AcDbDictionary
280
     1
281
     1
  3
ACAD_XREC_ROUNDTRIP
360
D27
  0
DICTIONARY
  5
D28
330
CCD
100
AcDbDictionary
280
     1
281
     1
  3
ACAD_XREC_ROUNDTRIP
360
D29
  0
DICTIONARY
  5
D2A
330
CCE
100
AcDbDictionary
280
     1
281
     1
  3
ACAD_XREC_ROUNDTRIP
360
D2B
  0
DICTIONARY
  5
C8A
330
C89
100
AcDbDictionary
280
     1
281
     1
  3
ACAD_XREC_ROUNDTRIP
360
CF0
  3
BUMPTILE
360
C8C
  3
DIFFUSETILE
360
C8B
  3
OPACITYTILE
360
C8F
  3
REFLECTIONTILE
360
C8E
  3
REFRACTIONTILE
360
C90
  3
SPECULARTILE
360
C8D
  0
DICTIONARY
  5
C82
330
C81
100
AcDbDictionary
280
     1
281
     1
  3
ACAD_XREC_ROUNDTRIP
360
CEF
  3
BUMPTILE
360
C84
  3
DIFFUSETILE
360
C83
  3
OPACITYTILE
360
C87
  3
REFLECTIONTILE
360
C86
  3
REFRACTIONTILE
360
C88
  3
SPECULARTILE
360
C85
  0
DICTIONARY
  5
C92
330
C91
100
AcDbDictionary
280
     1
281
     1
  3
ACAD_XREC_ROUNDTRIP
360
CF1
  3
BUMPTILE
360
C94
  3
DIFFUSETILE
360
C93
  3
OPACITYTILE
360
C97
  3
REFLECTIONTILE
360
C96
  3
REFRACTIONTILE
360
C98
  3
SPECULARTILE
360
C95
  0
DICTIONARY
  5
D24
330
CCA
100
AcDbDictionary
280
     1
281
     1
  3
ACAD_XREC_ROUNDTRIP
360
D25
  0
DICTIONARY
  5
CEB
330
CB4
100
AcDbDictionary
280
     1
281
     1
  3
ACAD_ROUNDTRIP_2008_TABLESTYLE_CELLSTYLEMAP
360
CEC
  3
ACAD_XREC_ROUNDTRIP
360
D22
  0
DICTIONARY
  5
CFC
330
C9F
100
AcDbDictionary
280
     1
281
     1
  3
ACAD_XREC_ROUNDTRIP
360
CFD
  0
DICTIONARY
  5
CFA
330
C9E
100
AcDbDictionary
280
     1
281
     1
  3
ACAD_XREC_ROUNDTRIP
360
CFB
  0
DICTIONARY
  5
D08
330
CA5
100
AcDbDictionary
280
     1
281
     1
  3
ACAD_XREC_ROUNDTRIP
360
D09
  0
DICTIONARY
  5
D10
330
CA9
100
AcDbDictionary
280
     1
281
     1
  3
ACAD_XREC_ROUNDTRIP
360
D11
  0
DICTIONARY
  5
D02
330
CA2
100
AcDbDictionary
280
     1
281
     1
  3
ACAD_XREC_ROUNDTRIP
360
D03
  0
DICTIONARY
  5
D06
330
CA4
100
AcDbDictionary
280
     1
281
     1
  3
ACAD_XREC_ROUNDTRIP
360
D07
  0
DICTIONARY
  5
D20
330
CB1
100
AcDbDictionary
280
     1
281
     1
  3
ACAD_XREC_ROUNDTRIP
360
D21
  0
DICTIONARY
  5
D0E
330
CA8
100
AcDbDictionary
280
     1
281
     1
  3
ACAD_XREC_ROUNDTRIP
360
D0F
  0
DICTIONARY
  5
CF2
330
C9A
100
AcDbDictionary
280
     1
281
     1
  3
ACAD_XREC_ROUNDTRIP
360
CF3
  0
DICTIONARY
  5
CF4
330
C9B
100
AcDbDictionary
280
     1
281
     1
  3
ACAD_XREC_ROUNDTRIP
360
CF5
  0
DICTIONARY
  5
CF6
330
C9C
100
AcDbDictionary
280
     1
281
     1
  3
ACAD_XREC_ROUNDTRIP
360
CF7
  0
DICTIONARY
  5
CF8
330
C9D
100
AcDbDictionary
280
     1
281
     1
  3
ACAD_XREC_ROUNDTRIP
360
CF9
  0
DICTIONARY
  5
D00
330
CA1
100
AcDbDictionary
280
     1
281
     1
  3
ACAD_XREC_ROUNDTRIP
360
D01
  0
DICTIONARY
  5
D1C
330
CAF
100
AcDbDictionary
280
     1
281
     1
  3
ACAD_XREC_ROUNDTRIP
360
D1D
  0
DICTIONARY
  5
D0C
330
CA7
100
AcDbDictionary
280
     1
281
     1
  3
ACAD_XREC_ROUNDTRIP
360
D0D
  0
DICTIONARY
  5
D1E
330
CB0
100
AcDbDictionary
280
     1
281
     1
  3
ACAD_XREC_ROUNDTRIP
360
D1F
  0
DICTIONARY
  5
D04
330
CA3
100
AcDbDictionary
280
     1
281
     1
  3
ACAD_XREC_ROUNDTRIP
360
D05
  0
DICTIONARY
  5
D1A
330
CAE
100
AcDbDictionary
280
     1
281
     1
  3
ACAD_XREC_ROUNDTRIP
360
D1B
  0
DICTIONARY
  5
D18
330
CAD
100
AcDbDictionary
280
     1
281
     1
  3
ACAD_XREC_ROUNDTRIP
360
D19
  0
DICTIONARY
  5
D12
330
CAA
100
AcDbDictionary
280
     1
281
     1
  3
ACAD_XREC_ROUNDTRIP
360
D13
  0
DICTIONARY
  5
D14
330
CAB
100
AcDbDictionary
280
     1
281
     1
  3
ACAD_XREC_ROUNDTRIP
360
D15
  0
DICTIONARY
  5
D0A
330
CA6
100
AcDbDictionary
280
     1
281
     1
  3
ACAD_XREC_ROUNDTRIP
360
D0B
  0
DICTIONARY
  5
CFE
330
CA0
100
AcDbDictionary
280
     1
281
     1
  3
ACAD_XREC_ROUNDTRIP
360
CFF
  0
DICTIONARY
  5
D16
330
CAC
100
AcDbDictionary
280
     1
281
     1
  3
ACAD_XREC_ROUNDTRIP
360
D17
  0
XRECORD
  5
D27
102
{ACAD_REACTORS
330
D26
102
}
330
D26
100
AcDbXrecord
280
     1
102
DISPLAYNAME
  1
Imperial24
102
FLAGS
 90
        0
  0
XRECORD
  5
D29
102
{ACAD_REACTORS
330
D28
102
}
330
D28
100
AcDbXrecord
280
     1
102
SHADEPLOT
 70
     0
102
SHADEPLOTRESLEVEL
 70
     2
102
SHADEPLOTCUSTOMDPI
 70
   300
  0
XRECORD
  5
D2B
102
{ACAD_REACTORS
330
D2A
102
}
330
D2A
100
AcDbXrecord
280
     1
102
SHADEPLOT
 70
     0
102
SHADEPLOTRESLEVEL
 70
     2
102
SHADEPLOTCUSTOMDPI
 70
   300
  0
XRECORD
  5
CF0
102
{ACAD_REACTORS
330
C8A
102
}
330
C8A
100
AcDbXrecord
280
     1
102
MATERIAL
148
0.0
149
0.0
149
0.0
 93
        0
 94
      127
282
     0
 72
     0
 77
     0
171
     0
175
     0
179
     0
273
     0
  0
XRECORD
  5
C8C
102
{ACAD_REACTORS
330
C8A
102
}
330
C8A
100
AcDbXrecord
280
     1
270
     1
271
     1
  0
XRECORD
  5
C8B
102
{ACAD_REACTORS
330
C8A
102
}
330
C8A
100
AcDbXrecord
280
     1
270
     1
271
     1
  0
XRECORD
  5
C8F
102
{ACAD_REACTORS
330
C8A
102
}
330
C8A
100
AcDbXrecord
280
     1
270
     1
271
     1
  0
XRECORD
  5
C8E
102
{ACAD_REACTORS
330
C8A
102
}
330
C8A
100
AcDbXrecord
280
     1
270
     1
271
     1
  0
XRECORD
  5
C90
102
{ACAD_REACTORS
330
C8A
102
}
330
C8A
100
AcDbXrecord
280
     1
270
     1
271
     1
  0
XRECORD
  5
C8D
102
{ACAD_REACTORS
330
C8A
102
}
330
C8A
100
AcDbXrecord
280
     1
270
     1
271
     1
  0
XRECORD
  5
CEF
102
{ACAD_REACTORS
330
C82
102
}
330
C82
100
AcDbXrecord
280
     1
102
MATERIAL
148
0.0
149
0.0
149
0.0
 93
        0
 94
      127
282
     0
 72
     0
 77
     0
171
     0
175
     0
179
     0
273
     0
  0
XRECORD
  5
C84
102
{ACAD_REACTORS
330
C82
102
}
330
C82
100
AcDbXrecord
280
     1
270
     1
271
     1
  0
XRECORD
  5
C83
102
{ACAD_REACTORS
330
C82
102
}
330
C82
100
AcDbXrecord
280
     1
270
     1
271
     1
  0
XRECORD
  5
C87
102
{ACAD_REACTORS
330
C82
102
}
330
C82
100
AcDbXrecord
280
     1
270
     1
271
     1
  0
XRECORD
  5
C86
102
{ACAD_REACTORS
330
C82
102
}
330
C82
100
AcDbXrecord
280
     1
270
     1
271
     1
  0
XRECORD
  5
C88
102
{ACAD_REACTORS
330
C82
102
}
330
C82
100
AcDbXrecord
280
     1
270
     1
271
     1
  0
XRECORD
  5
C85
102
{ACAD_REACTORS
330
C82
102
}
330
C82
100
AcDbXrecord
280
     1
270
     1
271
     1
  0
XRECORD
  5
CF1
102
{ACAD_REACTORS
330
C92
102
}
330
C92
100
AcDbXrecord
280
     1
102
MATERIAL
148
0.0
149
0.0
149
0.0
 93
        0
 94
      127
282
     0
 72
     0
 77
     0
171
     0
175
     0
179
     0
273
     0
  0
XRECORD
  5
C94
102
{ACAD_REACTORS
330
C92
102
}
330
C92
100
AcDbXrecord
280
     1
270
     1
271
     1
  0
XRECORD
  5
C93
102
{ACAD_REACTORS
330
C92
102
}
330
C92
100
AcDbXrecord
280
     1
270
     1
271
     1
  0
XRECORD
  5
C97
102
{ACAD_REACTORS
330
C92
102
}
330
C92
100
AcDbXrecord
280
     1
270
     1
271
     1
  0
XRECORD
  5
C96
102
{ACAD_REACTORS
330
C92
102
}
330
C92
100
AcDbXrecord
280
     1
270
     1
271
     1
  0
XRECORD
  5
C98
102
{ACAD_REACTORS
330
C92
102
}
330
C92
100
AcDbXrecord
280
     1
270
     1
271
     1
  0
XRECORD
  5
C95
102
{ACAD_REACTORS
330
C92
102
}
330
C92
100
AcDbXrecord
280
     1
270
     1
271
     1
  0
XRECORD
  5
D25
102
{ACAD_REACTORS
330
D24
102
}
330
D24
100
AcDbXrecord
280
     1
102
DISPLAYNAME
  1
Imperial24
102
FLAGS
 90
        0
  0
CELLSTYLEMAP
  5
CEC
102
{ACAD_REACTORS
330
CEB
102
}
330
CEB
100
AcDbCellStyleMap
 90
        3
300
CELLSTYLE
  1
TABLEFORMAT_BEGIN
 90
        5
170
     1
 91
        0
 92
    32768
 62
   257
 93
        1
300
CONTENTFORMAT
  1
CONTENTFORMAT_BEGIN
 90
        0
 91
        0
 92
      512
 93
        0
300

 40
0.0
140
1.0
 94
        5
 62
     0
340
F
144
0.25
309
CONTENTFORMAT_END
171
     0
 94
        0
309
TABLEFORMAT_END
  1
CELLSTYLE_BEGIN
 90
        1
 91
        1
300
_TITLE
309
CELLSTYLE_END
300
CELLSTYLE
  1
TABLEFORMAT_BEGIN
 90
        5
170
     1
 91
        0
 92
        0
 62
   257
 93
        1
300
CONTENTFORMAT
  1
CONTENTFORMAT_BEGIN
 90
        0
 91
        0
 92
      512
 93
        0
300

 40
0.0
140
1.0
 94
        5
 62
     0
340
F
144
0.18
309
CONTENTFORMAT_END
171
     0
 94
        0
309
TABLEFORMAT_END
  1
CELLSTYLE_BEGIN
 90
        2
 91
        1
300
_HEADER
309
CELLSTYLE_END
300
CELLSTYLE
  1
TABLEFORMAT_BEGIN
 90
        5
170
     1
 91
        0
 92
        0
 62
   257
 93
        1
300
CONTENTFORMAT
  1
CONTENTFORMAT_BEGIN
 90
        0
 91
        0
 92
      512
 93
        0
300

 40
0.0
140
1.0
 94
        2
 62
     0
340
F
144
0.18
309
CONTENTFORMAT_END
171
     0
 94
        0
309
TABLEFORMAT_END
  1
CELLSTYLE_BEGIN
 90
        3
 91
        2
300
_DATA
309
CELLSTYLE_END
  0
XRECORD
  5
D22
102
{ACAD_REACTORS
330
CEB
102
}
330
CEB
100
AcDbXrecord
280
     1
102
ACAD_ROUNDTRIP_PRE2007_TABLESTYLE
 90
      512
 91
        0
  1

 92
      512
 93
        0
  2

 94
      512
 95
        0
  3

  0
XRECORD
  5
CFD
102
{ACAD_REACTORS
330
CFC
102
}
330
CFC
100
AcDbXrecord
280
     1
102
RTVSPost2010Prop28
280
     1
102
RTVSPost2010PropOp28
 70
     1
102
RTVSPost2010Prop29
280
     1
102
RTVSPost2010PropOp29
 70
     1
102
RTVSPost2010Prop30
280
     0
102
RTVSPost2010PropOp30
 70
     1
102
RTVSPost2010Prop31
280
     0
102
RTVSPost2010PropOp31
 70
     1
102
RTVSPost2010Prop32
280
     0
102
RTVSPost2010PropOp32
 70
     1
102
RTVSPost2010Prop33
280
     0
102
RTVSPost2010PropOp33
 70
     1
102
RTVSPost2010Prop34
280
     0
102
RTVSPost2010PropOp34
 70
     1
102
RTVSPost2010Prop35
280
     0
102
RTVSPost2010PropOp35
 70
     1
102
RTVSPost2010Prop36
280
     0
102
RTVSPost2010PropOp36
 70
     1
102
RTVSPost2010Prop37
 90
       50
102
RTVSPost2010PropOp37
 70
     1
102
RTVSPost2010Prop38
140
0.0
102
RTVSPost2010PropOp38
 70
     1
102
RTVSPost2010Prop39
140
1.0
102
RTVSPost2010PropOp39
 70
     1
102
RTVSPost2010Prop40
 90
        0
102
RTVSPost2010PropOp40
 70
     1
102
RTVSPost2010Prop41ColorIndex
 90
       18
102
RTVSPost2010Prop41ColorRGB
 90
        0
102
RTVSPost2010PropOp41
 70
     1
102
RTVSPost2010Prop42
 90
       50
102
RTVSPost2010PropOp42
 70
     1
102
RTVSPost2010Prop43
 90
        3
102
RTVSPost2010PropOp43
 70
     1
102
RTVSPost2010Prop44ColorIndex
 90
        5
102
RTVSPost2010Prop44ColorRGB
 90
      255
102
RTVSPost2010PropOp44
 70
     1
102
RTVSPost2010Prop45
280
     0
102
RTVSPost2010PropOp45
 70
     1
102
RTVSPost2010Prop46
 90
       50
102
RTVSPost2010PropOp46
 70
     1
102
RTVSPost2010Prop47
 90
       50
102
RTVSPost2010PropOp47
 70
     1
102
RTVSPost2010Prop48
 90
       50
102
RTVSPost2010PropOp48
 70
     1
102
RTVSPost2010Prop49
280
     0
102
RTVSPost2010PropOp49
 70
     1
102
RTVSPost2010Prop50
 90
       50
102
RTVSPost2010PropOp50
 70
     1
102
RTVSPost2010Prop51ColorIndex
 90
      256
102
RTVSPost2010Prop51ColorRGB
 90
-16777216
102
RTVSPost2010PropOp51
 70
     0
102
RTVSPost2010Prop52
140
1.0
102
RTVSPost2010PropOp52
 70
     0
102
RTVSPost2010Prop53
 90
        2
102
RTVSPost2010PropOp53
 70
     1
102
RTVSPost2010Prop54
  1
strokes_ogs.tif
102
RTVSPost2010PropOp54
 70
     1
102
RTVSPost2010Prop55
280
     0
102
RTVSPost2010PropOp55
 70
     1
102
RTVSPost2010Prop56
140
1.0
102
RTVSPost2010PropOp56
 70
     1
102
RTVSPost2010Prop57
140
1.0
102
RTVSPost2010PropOp57
 70
     1
102
RTVSPropertyOp0
 70
     1
102
RTVSPropertyOp1
 70
     1
102
RTVSPropertyOp2
 70
     1
102
RTVSPropertyOp3
 70
     1
102
RTVSPropertyOp4
 70
     1
102
RTVSPropertyOp5
 70
     1
102
RTVSPropertyOp6
 70
     1
102
RTVSPropertyOp7
 70
     1
102
RTVSPropertyOp8
 70
     1
102
RTVSPropertyOp9
 70
     1
102
RTVSPropertyOp10
 70
     1
102
RTVSPropertyOp11
 70
     1
102
RTVSPropertyOp12
 70
     1
102
RTVSPropertyOp13
 70
     1
102
RTVSPropertyOp14
 70
     1
102
RTVSPropertyOp15
 70
     1
102
RTVSPropertyOp16
 70
     1
102
RTVSPropertyOp17
 70
     1
102
RTVSPropertyOp18
 70
     1
102
RTVSPropertyOp19
 70
     1
102
RTVSPropertyOp20
 70
     1
102
RTVSPropertyOp21
 70
     1
102
RTVSPropertyOp22
 70
     1
102
RTVSPropertyOp23
 70
     1
102
RTVSPropertyOp24
 70
     1
102
RTVSPropertyOp25
 70
     1
102
RTVSPropertyOp26
 70
     1
102
RTVSPropertyOp27
 70
     1
102
RTVSPropertyOp28
 70
     1
102
RTVSPropertyOp29
 70
     1
102
RTVSPropertyOp30
 70
     1
102
RTVSPropertyOp31
 70
     1
102
RTVSPropertyOp32
 70
     1
102
RTVSPropertyOp33
 70
     1
102
RTVSPropertyOp34
 70
     1
102
RTVSPropertyOp35
 70
     1
102
RTVSPropertyOp36
 70
     1
102
RTVSPropertyOp37
 70
     1
102
RTVSPropertyOp38
 70
     1
102
RTVSPropertyOp39
 70
     1
102
RTVSPropertyOp40
 70
     1
102
RTVSPropertyOp41
 70
     1
102
RTVSPropertyOp42
 70
     1
102
RTVSPropertyOp43
 70
     1
102
RTVSPropertyOp44
 70
     1
102
RTVSPropertyOp45
 70
     1
102
RTVSPropertyOp46
 70
     1
102
RTVSPropertyOp47
 70
     1
102
RTVSPropertyOp48
 70
     1
102
RTVSPropertyOp49
 70
     1
102
RTVSPropertyOp50
 70
     1
102
RTVSPropertyOp51
 70
     0
102
RTVSPropertyOp52
 70
     0
102
RTVSPropertyOp53
 70
     1
102
RTVSPropertyOp54
 70
     1
102
RTVSPropertyOp55
 70
     1
102
RTVSPropertyOp56
 70
     1
102
RTVSPropertyOp57
 70
     1
102
RTVSPropertyOp58
 70
     1
102
RTVSPropertyOp59
 70
     1
102
RTVSPropertyOp60
 70
     1
102
RTVSPropertyOp61
 70
     1
102
RTVSPropertyOp62
 70
     1
  0
XRECORD
  5
CFB
102
{ACAD_REACTORS
330
CFA
102
}
330
CFA
100
AcDbXrecord
280
     1
102
RTVSPost2010Prop28
280
     0
102
RTVSPost2010PropOp28
 70
     1
102
RTVSPost2010Prop29
280
     1
102
RTVSPost2010PropOp29
 70
     1
102
RTVSPost2010Prop30
280
     1
102
RTVSPost2010PropOp30
 70
     1
102
RTVSPost2010Prop31
280
     0
102
RTVSPost2010PropOp31
 70
     1
102
RTVSPost2010Prop32
280
     0
102
RTVSPost2010PropOp32
 70
     1
102
RTVSPost2010Prop33
280
     0
102
RTVSPost2010PropOp33
 70
     1
102
RTVSPost2010Prop34
280
     0
102
RTVSPost2010PropOp34
 70
     1
102
RTVSPost2010Prop35
280
     0
102
RTVSPost2010PropOp35
 70
     1
102
RTVSPost2010Prop36
280
     0
102
RTVSPost2010PropOp36
 70
     1
102
RTVSPost2010Prop37
 90
       50
102
RTVSPost2010PropOp37
 70
     1
102
RTVSPost2010Prop38
140
0.0
102
RTVSPost2010PropOp38
 70
     1
102
RTVSPost2010Prop39
140
1.0
102
RTVSPost2010PropOp39
 70
     1
102
RTVSPost2010Prop40
 90
        0
102
RTVSPost2010PropOp40
 70
     1
102
RTVSPost2010Prop41ColorIndex
 90
       18
102
RTVSPost2010Prop41ColorRGB
 90
        0
102
RTVSPost2010PropOp41
 70
     1
102
RTVSPost2010Prop42
 90
       50
102
RTVSPost2010PropOp42
 70
     1
102
RTVSPost2010Prop43
 90
        3
102
RTVSPost2010PropOp43
 70
     1
102
RTVSPost2010Prop44ColorIndex
 90
        5
102
RTVSPost2010Prop44ColorRGB
 90
      255
102
RTVSPost2010PropOp44
 70
     1
102
RTVSPost2010Prop45
280
     0
102
RTVSPost2010PropOp45
 70
     1
102
RTVSPost2010Prop46
 90
       50
102
RTVSPost2010PropOp46
 70
     1
102
RTVSPost2010Prop47
 90
       50
102
RTVSPost2010PropOp47
 70
     1
102
RTVSPost2010Prop48
 90
       50
102
RTVSPost2010PropOp48
 70
     1
102
RTVSPost2010Prop49
280
     0
102
RTVSPost2010PropOp49
 70
     1
102
RTVSPost2010Prop50
 90
       50
102
RTVSPost2010PropOp50
 70
     1
102
RTVSPost2010Prop51ColorIndex
 90
      256
102
RTVSPost2010Prop51ColorRGB
 90
-16777216
102
RTVSPost2010PropOp51
 70
     0
102
RTVSPost2010Prop52
140
1.0
102
RTVSPost2010PropOp52
 70
     0
102
RTVSPost2010Prop53
 90
        2
102
RTVSPost2010PropOp53
 70
     1
102
RTVSPost2010Prop54
  1
strokes_ogs.tif
102
RTVSPost2010PropOp54
 70
     1
102
RTVSPost2010Prop55
280
     0
102
RTVSPost2010PropOp55
 70
     1
102
RTVSPost2010Prop56
140
1.0
102
RTVSPost2010PropOp56
 70
     1
102
RTVSPost2010Prop57
140
1.0
102
RTVSPost2010PropOp57
 70
     1
102
RTVSPropertyOp0
 70
     1
102
RTVSPropertyOp1
 70
     1
102
RTVSPropertyOp2
 70
     1
102
RTVSPropertyOp3
 70
     1
102
RTVSPropertyOp4
 70
     1
102
RTVSPropertyOp5
 70
     1
102
RTVSPropertyOp6
 70
     1
102
RTVSPropertyOp7
 70
     1
102
RTVSPropertyOp8
 70
     1
102
RTVSPropertyOp9
 70
     1
102
RTVSPropertyOp10
 70
     1
102
RTVSPropertyOp11
 70
     1
102
RTVSPropertyOp12
 70
     1
102
RTVSPropertyOp13
 70
     1
102
RTVSPropertyOp14
 70
     1
102
RTVSPropertyOp15
 70
     1
102
RTVSPropertyOp16
 70
     1
102
RTVSPropertyOp17
 70
     1
102
RTVSPropertyOp18
 70
     1
102
RTVSPropertyOp19
 70
     1
102
RTVSPropertyOp20
 70
     1
102
RTVSPropertyOp21
 70
     1
102
RTVSPropertyOp22
 70
     1
102
RTVSPropertyOp23
 70
     1
102
RTVSPropertyOp24
 70
     1
102
RTVSPropertyOp25
 70
     1
102
RTVSPropertyOp26
 70
     1
102
RTVSPropertyOp27
 70
     1
102
RTVSPropertyOp28
 70
     1
102
RTVSPropertyOp29
 70
     1
102
RTVSPropertyOp30
 70
     1
102
RTVSPropertyOp31
 70
     1
102
RTVSPropertyOp32
 70
     1
102
RTVSPropertyOp33
 70
     1
102
RTVSPropertyOp34
 70
     1
102
RTVSPropertyOp35
 70
     1
102
RTVSPropertyOp36
 70
     1
102
RTVSPropertyOp37
 70
     1
102
RTVSPropertyOp38
 70
     1
102
RTVSPropertyOp39
 70
     1
102
RTVSPropertyOp40
 70
     1
102
RTVSPropertyOp41
 70
     1
102
RTVSPropertyOp42
 70
     1
102
RTVSPropertyOp43
 70
     1
102
RTVSPropertyOp44
 70
     1
102
RTVSPropertyOp45
 70
     1
102
RTVSPropertyOp46
 70
     1
102
RTVSPropertyOp47
 70
     1
102
RTVSPropertyOp48
 70
     1
102
RTVSPropertyOp49
 70
     1
102
RTVSPropertyOp50
 70
     1
102
RTVSPropertyOp51
 70
     0
102
RTVSPropertyOp52
 70
     0
102
RTVSPropertyOp53
 70
     1
102
RTVSPropertyOp54
 70
     1
102
RTVSPropertyOp55
 70
     1
102
RTVSPropertyOp56
 70
     1
102
RTVSPropertyOp57
 70
     1
102
RTVSPropertyOp58
 70
     1
102
RTVSPropertyOp59
 70
     1
102
RTVSPropertyOp60
 70
     1
102
RTVSPropertyOp61
 70
     1
102
RTVSPropertyOp62
 70
     1
  0
XRECORD
  5
D09
102
{ACAD_REACTORS
330
D08
102
}
330
D08
100
AcDbXrecord
280
     1
102
RTVSPost2010Prop28
280
     0
102
RTVSPost2010PropOp28
 70
     1
102
RTVSPost2010Prop29
280
     1
102
RTVSPost2010PropOp29
 70
     1
102
RTVSPost2010Prop30
280
     1
102
RTVSPost2010PropOp30
 70
     1
102
RTVSPost2010Prop31
280
     0
102
RTVSPost2010PropOp31
 70
     1
102
RTVSPost2010Prop32
280
     0
102
RTVSPost2010PropOp32
 70
     1
102
RTVSPost2010Prop33
280
     0
102
RTVSPost2010PropOp33
 70
     1
102
RTVSPost2010Prop34
280
     0
102
RTVSPost2010PropOp34
 70
     1
102
RTVSPost2010Prop35
280
     0
102
RTVSPost2010PropOp35
 70
     1
102
RTVSPost2010Prop36
280
     0
102
RTVSPost2010PropOp36
 70
     1
102
RTVSPost2010Prop37
 90
       50
102
RTVSPost2010PropOp37
 70
     1
102
RTVSPost2010Prop38
140
0.0
102
RTVSPost2010PropOp38
 70
     1
102
RTVSPost2010Prop39
140
1.0
102
RTVSPost2010PropOp39
 70
     1
102
RTVSPost2010Prop40
 90
        0
102
RTVSPost2010PropOp40
 70
     1
102
RTVSPost2010Prop41ColorIndex
 90
       18
102
RTVSPost2010Prop41ColorRGB
 90
        0
102
RTVSPost2010PropOp41
 70
     1
102
RTVSPost2010Prop42
 90
       50
102
RTVSPost2010PropOp42
 70
     1
102
RTVSPost2010Prop43
 90
        3
102
RTVSPost2010PropOp43
 70
     1
102
RTVSPost2010Prop44ColorIndex
 90
        5
102
RTVSPost2010Prop44ColorRGB
 90
      255
102
RTVSPost2010PropOp44
 70
     1
102
RTVSPost2010Prop45
280
     0
102
RTVSPost2010PropOp45
 70
     1
102
RTVSPost2010Prop46
 90
       50
102
RTVSPost2010PropOp46
 70
     1
102
RTVSPost2010Prop47
 90
       50
102
RTVSPost2010PropOp47
 70
     1
102
RTVSPost2010Prop48
 90
       50
102
RTVSPost2010PropOp48
 70
     1
102
RTVSPost2010Prop49
280
     0
102
RTVSPost2010PropOp49
 70
     1
102
RTVSPost2010Prop50
 90
       50
102
RTVSPost2010PropOp50
 70
     1
102
RTVSPost2010Prop51ColorIndex
 90
      256
102
RTVSPost2010Prop51ColorRGB
 90
-16777216
102
RTVSPost2010PropOp51
 70
     0
102
RTVSPost2010Prop52
140
1.0
102
RTVSPost2010PropOp52
 70
     0
102
RTVSPost2010Prop53
 90
        2
102
RTVSPost2010PropOp53
 70
     1
102
RTVSPost2010Prop54
  1
strokes_ogs.tif
102
RTVSPost2010PropOp54
 70
     1
102
RTVSPost2010Prop55
280
     0
102
RTVSPost2010PropOp55
 70
     1
102
RTVSPost2010Prop56
140
1.0
102
RTVSPost2010PropOp56
 70
     1
102
RTVSPost2010Prop57
140
1.0
102
RTVSPost2010PropOp57
 70
     1
102
RTVSPropertyOp0
 70
     1
102
RTVSPropertyOp1
 70
     1
102
RTVSPropertyOp2
 70
     1
102
RTVSPropertyOp3
 70
     1
102
RTVSPropertyOp4
 70
     1
102
RTVSPropertyOp5
 70
     1
102
RTVSPropertyOp6
 70
     1
102
RTVSPropertyOp7
 70
     1
102
RTVSPropertyOp8
 70
     1
102
RTVSPropertyOp9
 70
     1
102
RTVSPropertyOp10
 70
     1
102
RTVSPropertyOp11
 70
     1
102
RTVSPropertyOp12
 70
     1
102
RTVSPropertyOp13
 70
     1
102
RTVSPropertyOp14
 70
     1
102
RTVSPropertyOp15
 70
     1
102
RTVSPropertyOp16
 70
     1
102
RTVSPropertyOp17
 70
     1
102
RTVSPropertyOp18
 70
     1
102
RTVSPropertyOp19
 70
     1
102
RTVSPropertyOp20
 70
     1
102
RTVSPropertyOp21
 70
     1
102
RTVSPropertyOp22
 70
     1
102
RTVSPropertyOp23
 70
     1
102
RTVSPropertyOp24
 70
     1
102
RTVSPropertyOp25
 70
     1
102
RTVSPropertyOp26
 70
     1
102
RTVSPropertyOp27
 70
     1
102
RTVSPropertyOp28
 70
     1
102
RTVSPropertyOp29
 70
     1
102
RTVSPropertyOp30
 70
     1
102
RTVSPropertyOp31
 70
     1
102
RTVSPropertyOp32
 70
     1
102
RTVSPropertyOp33
 70
     1
102
RTVSPropertyOp34
 70
     1
102
RTVSPropertyOp35
 70
     1
102
RTVSPropertyOp36
 70
     1
102
RTVSPropertyOp37
 70
     1
102
RTVSPropertyOp38
 70
     1
102
RTVSPropertyOp39
 70
     1
102
RTVSPropertyOp40
 70
     1
102
RTVSPropertyOp41
 70
     1
102
RTVSPropertyOp42
 70
     1
102
RTVSPropertyOp43
 70
     1
102
RTVSPropertyOp44
 70
     1
102
RTVSPropertyOp45
 70
     1
102
RTVSPropertyOp46
 70
     1
102
RTVSPropertyOp47
 70
     1
102
RTVSPropertyOp48
 70
     1
102
RTVSPropertyOp49
 70
     1
102
RTVSPropertyOp50
 70
     1
102
RTVSPropertyOp51
 70
     0
102
RTVSPropertyOp52
 70
     0
102
RTVSPropertyOp53
 70
     1
102
RTVSPropertyOp54
 70
     1
102
RTVSPropertyOp55
 70
     1
102
RTVSPropertyOp56
 70
     1
102
RTVSPropertyOp57
 70
     1
102
RTVSPropertyOp58
 70
     1
102
RTVSPropertyOp59
 70
     1
102
RTVSPropertyOp60
 70
     1
102
RTVSPropertyOp61
 70
     1
102
RTVSPropertyOp62
 70
     1
  0
XRECORD
  5
D11
102
{ACAD_REACTORS
330
D10
102
}
330
D10
100
AcDbXrecord
280
     1
102
RTVSPost2010Prop28
280
     0
102
RTVSPost2010PropOp28
 70
     1
102
RTVSPost2010Prop29
280
     1
102
RTVSPost2010PropOp29
 70
     1
102
RTVSPost2010Prop30
280
     1
102
RTVSPost2010PropOp30
 70
     1
102
RTVSPost2010Prop31
280
     0
102
RTVSPost2010PropOp31
 70
     1
102
RTVSPost2010Prop32
280
     0
102
RTVSPost2010PropOp32
 70
     1
102
RTVSPost2010Prop33
280
     0
102
RTVSPost2010PropOp33
 70
     1
102
RTVSPost2010Prop34
280
     0
102
RTVSPost2010PropOp34
 70
     1
102
RTVSPost2010Prop35
280
     0
102
RTVSPost2010PropOp35
 70
     1
102
RTVSPost2010Prop36
280
     0
102
RTVSPost2010PropOp36
 70
     1
102
RTVSPost2010Prop37
 90
       50
102
RTVSPost2010PropOp37
 70
     1
102
RTVSPost2010Prop38
140
0.0
102
RTVSPost2010PropOp38
 70
     1
102
RTVSPost2010Prop39
140
1.0
102
RTVSPost2010PropOp39
 70
     1
102
RTVSPost2010Prop40
 90
        0
102
RTVSPost2010PropOp40
 70
     1
102
RTVSPost2010Prop41ColorIndex
 90
       18
102
RTVSPost2010Prop41ColorRGB
 90
        0
102
RTVSPost2010PropOp41
 70
     1
102
RTVSPost2010Prop42
 90
       50
102
RTVSPost2010PropOp42
 70
     1
102
RTVSPost2010Prop43
 90
        3
102
RTVSPost2010PropOp43
 70
     1
102
RTVSPost2010Prop44ColorIndex
 90
        5
102
RTVSPost2010Prop44ColorRGB
 90
      255
102
RTVSPost2010PropOp44
 70
     1
102
RTVSPost2010Prop45
280
     0
102
RTVSPost2010PropOp45
 70
     1
102
RTVSPost2010Prop46
 90
       50
102
RTVSPost2010PropOp46
 70
     1
102
RTVSPost2010Prop47
 90
       50
102
RTVSPost2010PropOp47
 70
     1
102
RTVSPost2010Prop48
 90
       50
102
RTVSPost2010PropOp48
 70
     1
102
RTVSPost2010Prop49
280
     0
102
RTVSPost2010PropOp49
 70
     1
102
RTVSPost2010Prop50
 90
       50
102
RTVSPost2010PropOp50
 70
     1
102
RTVSPost2010Prop51ColorIndex
 90
      256
102
RTVSPost2010Prop51ColorRGB
 90
-16777216
102
RTVSPost2010PropOp51
 70
     0
102
RTVSPost2010Prop52
140
1.0
102
RTVSPost2010PropOp52
 70
     0
102
RTVSPost2010Prop53
 90
        2
102
RTVSPost2010PropOp53
 70
     1
102
RTVSPost2010Prop54
  1
strokes_ogs.tif
102
RTVSPost2010PropOp54
 70
     1
102
RTVSPost2010Prop55
280
     0
102
RTVSPost2010PropOp55
 70
     1
102
RTVSPost2010Prop56
140
1.0
102
RTVSPost2010PropOp56
 70
     1
102
RTVSPost2010Prop57
140
1.0
102
RTVSPost2010PropOp57
 70
     1
102
RTVSPropertyOp0
 70
     1
102
RTVSPropertyOp1
 70
     1
102
RTVSPropertyOp2
 70
     1
102
RTVSPropertyOp3
 70
     1
102
RTVSPropertyOp4
 70
     1
102
RTVSPropertyOp5
 70
     1
102
RTVSPropertyOp6
 70
     1
102
RTVSPropertyOp7
 70
     1
102
RTVSPropertyOp8
 70
     1
102
RTVSPropertyOp9
 70
     1
102
RTVSPropertyOp10
 70
     1
102
RTVSPropertyOp11
 70
     1
102
RTVSPropertyOp12
 70
     1
102
RTVSPropertyOp13
 70
     1
102
RTVSPropertyOp14
 70
     1
102
RTVSPropertyOp15
 70
     1
102
RTVSPropertyOp16
 70
     1
102
RTVSPropertyOp17
 70
     1
102
RTVSPropertyOp18
 70
     1
102
RTVSPropertyOp19
 70
     1
102
RTVSPropertyOp20
 70
     1
102
RTVSPropertyOp21
 70
     1
102
RTVSPropertyOp22
 70
     1
102
RTVSPropertyOp23
 70
     1
102
RTVSPropertyOp24
 70
     1
102
RTVSPropertyOp25
 70
     1
102
RTVSPropertyOp26
 70
     1
102
RTVSPropertyOp27
 70
     1
102
RTVSPropertyOp28
 70
     1
102
RTVSPropertyOp29
 70
     1
102
RTVSPropertyOp30
 70
     1
102
RTVSPropertyOp31
 70
     1
102
RTVSPropertyOp32
 70
     1
102
RTVSPropertyOp33
 70
     1
102
RTVSPropertyOp34
 70
     1
102
RTVSPropertyOp35
 70
     1
102
RTVSPropertyOp36
 70
     1
102
RTVSPropertyOp37
 70
     1
102
RTVSPropertyOp38
 70
     1
102
RTVSPropertyOp39
 70
     1
102
RTVSPropertyOp40
 70
     1
102
RTVSPropertyOp41
 70
     1
102
RTVSPropertyOp42
 70
     1
102
RTVSPropertyOp43
 70
     1
102
RTVSPropertyOp44
 70
     1
102
RTVSPropertyOp45
 70
     1
102
RTVSPropertyOp46
 70
     1
102
RTVSPropertyOp47
 70
     1
102
RTVSPropertyOp48
 70
     1
102
RTVSPropertyOp49
 70
     1
102
RTVSPropertyOp50
 70
     1
102
RTVSPropertyOp51
 70
     0
102
RTVSPropertyOp52
 70
     0
102
RTVSPropertyOp53
 70
     1
102
RTVSPropertyOp54
 70
     1
102
RTVSPropertyOp55
 70
     1
102
RTVSPropertyOp56
 70
     1
102
RTVSPropertyOp57
 70
     1
102
RTVSPropertyOp58
 70
     1
102
RTVSPropertyOp59
 70
     1
102
RTVSPropertyOp60
 70
     1
102
RTVSPropertyOp61
 70
     1
102
RTVSPropertyOp62
 70
     1
  0
XRECORD
  5
D03
102
{ACAD_REACTORS
330
D02
102
}
330
D02
100
AcDbXrecord
280
     1
102
RTVSPost2010Prop28
280
     0
102
RTVSPost2010PropOp28
 70
     1
102
RTVSPost2010Prop29
280
     1
102
RTVSPost2010PropOp29
 70
     1
102
RTVSPost2010Prop30
280
     1
102
RTVSPost2010PropOp30
 70
     1
102
RTVSPost2010Prop31
280
     0
102
RTVSPost2010PropOp31
 70
     1
102
RTVSPost2010Prop32
280
     0
102
RTVSPost2010PropOp32
 70
     1
102
RTVSPost2010Prop33
280
     0
102
RTVSPost2010PropOp33
 70
     1
102
RTVSPost2010Prop34
280
     0
102
RTVSPost2010PropOp34
 70
     1
102
RTVSPost2010Prop35
280
     0
102
RTVSPost2010PropOp35
 70
     1
102
RTVSPost2010Prop36
280
     0
102
RTVSPost2010PropOp36
 70
     1
102
RTVSPost2010Prop37
 90
       50
102
RTVSPost2010PropOp37
 70
     1
102
RTVSPost2010Prop38
140
0.0
102
RTVSPost2010PropOp38
 70
     1
102
RTVSPost2010Prop39
140
1.0
102
RTVSPost2010PropOp39
 70
     1
102
RTVSPost2010Prop40
 90
        0
102
RTVSPost2010PropOp40
 70
     1
102
RTVSPost2010Prop41ColorIndex
 90
       18
102
RTVSPost2010Prop41ColorRGB
 90
        0
102
RTVSPost2010PropOp41
 70
     1
102
RTVSPost2010Prop42
 90
       50
102
RTVSPost2010PropOp42
 70
     1
102
RTVSPost2010Prop43
 90
        3
102
RTVSPost2010PropOp43
 70
     1
102
RTVSPost2010Prop44ColorIndex
 90
        5
102
RTVSPost2010Prop44ColorRGB
 90
      255
102
RTVSPost2010PropOp44
 70
     1
102
RTVSPost2010Prop45
280
     0
102
RTVSPost2010PropOp45
 70
     1
102
RTVSPost2010Prop46
 90
       50
102
RTVSPost2010PropOp46
 70
     1
102
RTVSPost2010Prop47
 90
       50
102
RTVSPost2010PropOp47
 70
     1
102
RTVSPost2010Prop48
 90
       50
102
RTVSPost2010PropOp48
 70
     1
102
RTVSPost2010Prop49
280
     0
102
RTVSPost2010PropOp49
 70
     1
102
RTVSPost2010Prop50
 90
       50
102
RTVSPost2010PropOp50
 70
     1
102
RTVSPost2010Prop51ColorIndex
 90
      256
102
RTVSPost2010Prop51ColorRGB
 90
-16777216
102
RTVSPost2010PropOp51
 70
     0
102
RTVSPost2010Prop52
140
1.0
102
RTVSPost2010PropOp52
 70
     0
102
RTVSPost2010Prop53
 90
        2
102
RTVSPost2010PropOp53
 70
     1
102
RTVSPost2010Prop54
  1
strokes_ogs.tif
102
RTVSPost2010PropOp54
 70
     1
102
RTVSPost2010Prop55
280
     0
102
RTVSPost2010PropOp55
 70
     1
102
RTVSPost2010Prop56
140
1.0
102
RTVSPost2010PropOp56
 70
     1
102
RTVSPost2010Prop57
140
1.0
102
RTVSPost2010PropOp57
 70
     1
102
RTVSPropertyOp0
 70
     1
102
RTVSPropertyOp1
 70
     1
102
RTVSPropertyOp2
 70
     1
102
RTVSPropertyOp3
 70
     1
102
RTVSPropertyOp4
 70
     1
102
RTVSPropertyOp5
 70
     1
102
RTVSPropertyOp6
 70
     1
102
RTVSPropertyOp7
 70
     1
102
RTVSPropertyOp8
 70
     1
102
RTVSPropertyOp9
 70
     1
102
RTVSPropertyOp10
 70
     1
102
RTVSPropertyOp11
 70
     1
102
RTVSPropertyOp12
 70
     1
102
RTVSPropertyOp13
 70
     1
102
RTVSPropertyOp14
 70
     1
102
RTVSPropertyOp15
 70
     1
102
RTVSPropertyOp16
 70
     1
102
RTVSPropertyOp17
 70
     1
102
RTVSPropertyOp18
 70
     1
102
RTVSPropertyOp19
 70
     1
102
RTVSPropertyOp20
 70
     1
102
RTVSPropertyOp21
 70
     1
102
RTVSPropertyOp22
 70
     1
102
RTVSPropertyOp23
 70
     1
102
RTVSPropertyOp24
 70
     1
102
RTVSPropertyOp25
 70
     1
102
RTVSPropertyOp26
 70
     1
102
RTVSPropertyOp27
 70
     1
102
RTVSPropertyOp28
 70
     1
102
RTVSPropertyOp29
 70
     1
102
RTVSPropertyOp30
 70
     1
102
RTVSPropertyOp31
 70
     1
102
RTVSPropertyOp32
 70
     1
102
RTVSPropertyOp33
 70
     1
102
RTVSPropertyOp34
 70
     1
102
RTVSPropertyOp35
 70
     1
102
RTVSPropertyOp36
 70
     1
102
RTVSPropertyOp37
 70
     1
102
RTVSPropertyOp38
 70
     1
102
RTVSPropertyOp39
 70
     1
102
RTVSPropertyOp40
 70
     1
102
RTVSPropertyOp41
 70
     1
102
RTVSPropertyOp42
 70
     1
102
RTVSPropertyOp43
 70
     1
102
RTVSPropertyOp44
 70
     1
102
RTVSPropertyOp45
 70
     1
102
RTVSPropertyOp46
 70
     1
102
RTVSPropertyOp47
 70
     1
102
RTVSPropertyOp48
 70
     1
102
RTVSPropertyOp49
 70
     1
102
RTVSPropertyOp50
 70
     1
102
RTVSPropertyOp51
 70
     0
102
RTVSPropertyOp52
 70
     0
102
RTVSPropertyOp53
 70
     1
102
RTVSPropertyOp54
 70
     1
102
RTVSPropertyOp55
 70
     1
102
RTVSPropertyOp56
 70
     1
102
RTVSPropertyOp57
 70
     1
102
RTVSPropertyOp58
 70
     1
102
RTVSPropertyOp59
 70
     1
102
RTVSPropertyOp60
 70
     1
102
RTVSPropertyOp61
 70
     1
102
RTVSPropertyOp62
 70
     1
  0
XRECORD
  5
D07
102
{ACAD_REACTORS
330
D06
102
}
330
D06
100
AcDbXrecord
280
     1
102
RTVSPost2010Prop28
280
     0
102
RTVSPost2010PropOp28
 70
     1
102
RTVSPost2010Prop29
280
     1
102
RTVSPost2010PropOp29
 70
     1
102
RTVSPost2010Prop30
280
     1
102
RTVSPost2010PropOp30
 70
     1
102
RTVSPost2010Prop31
280
     0
102
RTVSPost2010PropOp31
 70
     1
102
RTVSPost2010Prop32
280
     0
102
RTVSPost2010PropOp32
 70
     1
102
RTVSPost2010Prop33
280
     0
102
RTVSPost2010PropOp33
 70
     1
102
RTVSPost2010Prop34
280
     0
102
RTVSPost2010PropOp34
 70
     1
102
RTVSPost2010Prop35
280
     0
102
RTVSPost2010PropOp35
 70
     1
102
RTVSPost2010Prop36
280
     0
102
RTVSPost2010PropOp36
 70
     1
102
RTVSPost2010Prop37
 90
       50
102
RTVSPost2010PropOp37
 70
     1
102
RTVSPost2010Prop38
140
0.0
102
RTVSPost2010PropOp38
 70
     1
102
RTVSPost2010Prop39
140
1.0
102
RTVSPost2010PropOp39
 70
     1
102
RTVSPost2010Prop40
 90
        0
102
RTVSPost2010PropOp40
 70
     1
102
RTVSPost2010Prop41ColorIndex
 90
       18
102
RTVSPost2010Prop41ColorRGB
 90
        0
102
RTVSPost2010PropOp41
 70
     1
102
RTVSPost2010Prop42
 90
       50
102
RTVSPost2010PropOp42
 70
     1
102
RTVSPost2010Prop43
 90
        3
102
RTVSPost2010PropOp43
 70
     1
102
RTVSPost2010Prop44ColorIndex
 90
        5
102
RTVSPost2010Prop44ColorRGB
 90
      255
102
RTVSPost2010PropOp44
 70
     1
102
RTVSPost2010Prop45
280
     0
102
RTVSPost2010PropOp45
 70
     1
102
RTVSPost2010Prop46
 90
       50
102
RTVSPost2010PropOp46
 70
     1
102
RTVSPost2010Prop47
 90
       50
102
RTVSPost2010PropOp47
 70
     1
102
RTVSPost2010Prop48
 90
       50
102
RTVSPost2010PropOp48
 70
     1
102
RTVSPost2010Prop49
280
     0
102
RTVSPost2010PropOp49
 70
     1
102
RTVSPost2010Prop50
 90
       50
102
RTVSPost2010PropOp50
 70
     1
102
RTVSPost2010Prop51ColorIndex
 90
      256
102
RTVSPost2010Prop51ColorRGB
 90
-16777216
102
RTVSPost2010PropOp51
 70
     0
102
RTVSPost2010Prop52
140
1.0
102
RTVSPost2010PropOp52
 70
     0
102
RTVSPost2010Prop53
 90
        2
102
RTVSPost2010PropOp53
 70
     1
102
RTVSPost2010Prop54
  1
strokes_ogs.tif
102
RTVSPost2010PropOp54
 70
     1
102
RTVSPost2010Prop55
280
     0
102
RTVSPost2010PropOp55
 70
     1
102
RTVSPost2010Prop56
140
1.0
102
RTVSPost2010PropOp56
 70
     1
102
RTVSPost2010Prop57
140
1.0
102
RTVSPost2010PropOp57
 70
     1
102
RTVSPropertyOp0
 70
     1
102
RTVSPropertyOp1
 70
     1
102
RTVSPropertyOp2
 70
     1
102
RTVSPropertyOp3
 70
     1
102
RTVSPropertyOp4
 70
     1
102
RTVSPropertyOp5
 70
     1
102
RTVSPropertyOp6
 70
     1
102
RTVSPropertyOp7
 70
     1
102
RTVSPropertyOp8
 70
     1
102
RTVSPropertyOp9
 70
     1
102
RTVSPropertyOp10
 70
     1
102
RTVSPropertyOp11
 70
     1
102
RTVSPropertyOp12
 70
     1
102
RTVSPropertyOp13
 70
     1
102
RTVSPropertyOp14
 70
     1
102
RTVSPropertyOp15
 70
     1
102
RTVSPropertyOp16
 70
     1
102
RTVSPropertyOp17
 70
     1
102
RTVSPropertyOp18
 70
     1
102
RTVSPropertyOp19
 70
     1
102
RTVSPropertyOp20
 70
     1
102
RTVSPropertyOp21
 70
     1
102
RTVSPropertyOp22
 70
     1
102
RTVSPropertyOp23
 70
     1
102
RTVSPropertyOp24
 70
     1
102
RTVSPropertyOp25
 70
     1
102
RTVSPropertyOp26
 70
     1
102
RTVSPropertyOp27
 70
     1
102
RTVSPropertyOp28
 70
     1
102
RTVSPropertyOp29
 70
     1
102
RTVSPropertyOp30
 70
     1
102
RTVSPropertyOp31
 70
     1
102
RTVSPropertyOp32
 70
     1
102
RTVSPropertyOp33
 70
     1
102
RTVSPropertyOp34
 70
     1
102
RTVSPropertyOp35
 70
     1
102
RTVSPropertyOp36
 70
     1
102
RTVSPropertyOp37
 70
     1
102
RTVSPropertyOp38
 70
     1
102
RTVSPropertyOp39
 70
     1
102
RTVSPropertyOp40
 70
     1
102
RTVSPropertyOp41
 70
     1
102
RTVSPropertyOp42
 70
     1
102
RTVSPropertyOp43
 70
     1
102
RTVSPropertyOp44
 70
     1
102
RTVSPropertyOp45
 70
     1
102
RTVSPropertyOp46
 70
     1
102
RTVSPropertyOp47
 70
     1
102
RTVSPropertyOp48
 70
     1
102
RTVSPropertyOp49
 70
     1
102
RTVSPropertyOp50
 70
     1
102
RTVSPropertyOp51
 70
     0
102
RTVSPropertyOp52
 70
     0
102
RTVSPropertyOp53
 70
     1
102
RTVSPropertyOp54
 70
     1
102
RTVSPropertyOp55
 70
     1
102
RTVSPropertyOp56
 70
     1
102
RTVSPropertyOp57
 70
     1
102
RTVSPropertyOp58
 70
     1
102
RTVSPropertyOp59
 70
     1
102
RTVSPropertyOp60
 70
     1
102
RTVSPropertyOp61
 70
     1
102
RTVSPropertyOp62
 70
     1
  0
XRECORD
  5
D21
102
{ACAD_REACTORS
330
D20
102
}
330
D20
100
AcDbXrecord
280
     1
102
RTVSPost2010Prop28
280
     0
102
RTVSPost2010PropOp28
 70
     1
102
RTVSPost2010Prop29
280
     1
102
RTVSPost2010PropOp29
 70
     1
102
RTVSPost2010Prop30
280
     1
102
RTVSPost2010PropOp30
 70
     1
102
RTVSPost2010Prop31
280
     0
102
RTVSPost2010PropOp31
 70
     1
102
RTVSPost2010Prop32
280
     0
102
RTVSPost2010PropOp32
 70
     1
102
RTVSPost2010Prop33
280
     0
102
RTVSPost2010PropOp33
 70
     1
102
RTVSPost2010Prop34
280
     0
102
RTVSPost2010PropOp34
 70
     1
102
RTVSPost2010Prop35
280
     0
102
RTVSPost2010PropOp35
 70
     1
102
RTVSPost2010Prop36
280
     0
102
RTVSPost2010PropOp36
 70
     1
102
RTVSPost2010Prop37
 90
       50
102
RTVSPost2010PropOp37
 70
     0
102
RTVSPost2010Prop38
140
0.0
102
RTVSPost2010PropOp38
 70
     0
102
RTVSPost2010Prop39
140
1.0
102
RTVSPost2010PropOp39
 70
     0
102
RTVSPost2010Prop40
 90
        0
102
RTVSPost2010PropOp40
 70
     0
102
RTVSPost2010Prop41ColorIndex
 90
       18
102
RTVSPost2010Prop41ColorRGB
 90
        0
102
RTVSPost2010PropOp41
 70
     0
102
RTVSPost2010Prop42
 90
       50
102
RTVSPost2010PropOp42
 70
     0
102
RTVSPost2010Prop43
 90
        3
102
RTVSPost2010PropOp43
 70
     0
102
RTVSPost2010Prop44ColorIndex
 90
        5
102
RTVSPost2010Prop44ColorRGB
 90
      255
102
RTVSPost2010PropOp44
 70
     0
102
RTVSPost2010Prop45
280
     0
102
RTVSPost2010PropOp45
 70
     1
102
RTVSPost2010Prop46
 90
       50
102
RTVSPost2010PropOp46
 70
     0
102
RTVSPost2010Prop47
 90
       50
102
RTVSPost2010PropOp47
 70
     0
102
RTVSPost2010Prop48
 90
       50
102
RTVSPost2010PropOp48
 70
     0
102
RTVSPost2010Prop49
280
     0
102
RTVSPost2010PropOp49
 70
     1
102
RTVSPost2010Prop50
 90
       50
102
RTVSPost2010PropOp50
 70
     0
102
RTVSPost2010Prop51ColorIndex
 90
      256
102
RTVSPost2010Prop51ColorRGB
 90
-16777216
102
RTVSPost2010PropOp51
 70
     0
102
RTVSPost2010Prop52
140
1.0
102
RTVSPost2010PropOp52
 70
     0
102
RTVSPost2010Prop53
 90
        2
102
RTVSPost2010PropOp53
 70
     0
102
RTVSPost2010Prop54
  1
strokes_ogs.tif
102
RTVSPost2010PropOp54
 70
     0
102
RTVSPost2010Prop55
280
     0
102
RTVSPost2010PropOp55
 70
     1
102
RTVSPost2010Prop56
140
1.0
102
RTVSPost2010PropOp56
 70
     0
102
RTVSPost2010Prop57
140
1.0
102
RTVSPost2010PropOp57
 70
     0
102
RTVSPropertyOp0
 70
     0
102
RTVSPropertyOp1
 70
     0
102
RTVSPropertyOp2
 70
     0
102
RTVSPropertyOp3
 70
     0
102
RTVSPropertyOp4
 70
     0
102
RTVSPropertyOp5
 70
     0
102
RTVSPropertyOp6
 70
     0
102
RTVSPropertyOp7
 70
     0
102
RTVSPropertyOp8
 70
     0
102
RTVSPropertyOp9
 70
     0
102
RTVSPropertyOp10
 70
     0
102
RTVSPropertyOp11
 70
     0
102
RTVSPropertyOp12
 70
     0
102
RTVSPropertyOp13
 70
     0
102
RTVSPropertyOp14
 70
     2
102
RTVSPropertyOp15
 70
     0
102
RTVSPropertyOp16
 70
     0
102
RTVSPropertyOp17
 70
     0
102
RTVSPropertyOp18
 70
     0
102
RTVSPropertyOp19
 70
     0
102
RTVSPropertyOp20
 70
     0
102
RTVSPropertyOp21
 70
     0
102
RTVSPropertyOp22
 70
     0
102
RTVSPropertyOp23
 70
     0
102
RTVSPropertyOp24
 70
     0
102
RTVSPropertyOp25
 70
     0
102
RTVSPropertyOp26
 70
     0
102
RTVSPropertyOp27
 70
     0
102
RTVSPropertyOp28
 70
     1
102
RTVSPropertyOp29
 70
     1
102
RTVSPropertyOp30
 70
     1
102
RTVSPropertyOp31
 70
     1
102
RTVSPropertyOp32
 70
     1
102
RTVSPropertyOp33
 70
     1
102
RTVSPropertyOp34
 70
     1
102
RTVSPropertyOp35
 70
     1
102
RTVSPropertyOp36
 70
     1
102
RTVSPropertyOp37
 70
     0
102
RTVSPropertyOp38
 70
     0
102
RTVSPropertyOp39
 70
     0
102
RTVSPropertyOp40
 70
     0
102
RTVSPropertyOp41
 70
     0
102
RTVSPropertyOp42
 70
     0
102
RTVSPropertyOp43
 70
     0
102
RTVSPropertyOp44
 70
     0
102
RTVSPropertyOp45
 70
     1
102
RTVSPropertyOp46
 70
     0
102
RTVSPropertyOp47
 70
     0
102
RTVSPropertyOp48
 70
     0
102
RTVSPropertyOp49
 70
     1
102
RTVSPropertyOp50
 70
     0
102
RTVSPropertyOp51
 70
     0
102
RTVSPropertyOp52
 70
     0
102
RTVSPropertyOp53
 70
     0
102
RTVSPropertyOp54
 70
     0
102
RTVSPropertyOp55
 70
     1
102
RTVSPropertyOp56
 70
     0
102
RTVSPropertyOp57
 70
     0
102
RTVSPropertyOp58
 70
     0
102
RTVSPropertyOp59
 70
     0
102
RTVSPropertyOp60
 70
     0
102
RTVSPropertyOp61
 70
     0
102
RTVSPropertyOp62
 70
     0
  0
XRECORD
  5
D0F
102
{ACAD_REACTORS
330
D0E
102
}
330
D0E
100
AcDbXrecord
280
     1
102
RTVSPost2010Prop28
280
     0
102
RTVSPost2010PropOp28
 70
     1
102
RTVSPost2010Prop29
280
     1
102
RTVSPost2010PropOp29
 70
     1
102
RTVSPost2010Prop30
280
     1
102
RTVSPost2010PropOp30
 70
     1
102
RTVSPost2010Prop31
280
     0
102
RTVSPost2010PropOp31
 70
     1
102
RTVSPost2010Prop32
280
     0
102
RTVSPost2010PropOp32
 70
     1
102
RTVSPost2010Prop33
280
     0
102
RTVSPost2010PropOp33
 70
     1
102
RTVSPost2010Prop34
280
     0
102
RTVSPost2010PropOp34
 70
     1
102
RTVSPost2010Prop35
280
     0
102
RTVSPost2010PropOp35
 70
     1
102
RTVSPost2010Prop36
280
     0
102
RTVSPost2010PropOp36
 70
     1
102
RTVSPost2010Prop37
 90
       50
102
RTVSPost2010PropOp37
 70
     1
102
RTVSPost2010Prop38
140
0.0
102
RTVSPost2010PropOp38
 70
     1
102
RTVSPost2010Prop39
140
1.0
102
RTVSPost2010PropOp39
 70
     1
102
RTVSPost2010Prop40
 90
        0
102
RTVSPost2010PropOp40
 70
     1
102
RTVSPost2010Prop41ColorIndex
 90
       18
102
RTVSPost2010Prop41ColorRGB
 90
        0
102
RTVSPost2010PropOp41
 70
     1
102
RTVSPost2010Prop42
 90
       50
102
RTVSPost2010PropOp42
 70
     1
102
RTVSPost2010Prop43
 90
        3
102
RTVSPost2010PropOp43
 70
     1
102
RTVSPost2010Prop44ColorIndex
 90
        5
102
RTVSPost2010Prop44ColorRGB
 90
      255
102
RTVSPost2010PropOp44
 70
     1
102
RTVSPost2010Prop45
280
     0
102
RTVSPost2010PropOp45
 70
     1
102
RTVSPost2010Prop46
 90
       50
102
RTVSPost2010PropOp46
 70
     1
102
RTVSPost2010Prop47
 90
       50
102
RTVSPost2010PropOp47
 70
     1
102
RTVSPost2010Prop48
 90
       50
102
RTVSPost2010PropOp48
 70
     1
102
RTVSPost2010Prop49
280
     0
102
RTVSPost2010PropOp49
 70
     1
102
RTVSPost2010Prop50
 90
       50
102
RTVSPost2010PropOp50
 70
     1
102
RTVSPost2010Prop51ColorIndex
 90
      256
102
RTVSPost2010Prop51ColorRGB
 90
-16777216
102
RTVSPost2010PropOp51
 70
     0
102
RTVSPost2010Prop52
140
1.0
102
RTVSPost2010PropOp52
 70
     0
102
RTVSPost2010Prop53
 90
        2
102
RTVSPost2010PropOp53
 70
     1
102
RTVSPost2010Prop54
  1
strokes_ogs.tif
102
RTVSPost2010PropOp54
 70
     1
102
RTVSPost2010Prop55
280
     0
102
RTVSPost2010PropOp55
 70
     1
102
RTVSPost2010Prop56
140
1.0
102
RTVSPost2010PropOp56
 70
     1
102
RTVSPost2010Prop57
140
1.0
102
RTVSPost2010PropOp57
 70
     1
102
RTVSPropertyOp0
 70
     1
102
RTVSPropertyOp1
 70
     1
102
RTVSPropertyOp2
 70
     1
102
RTVSPropertyOp3
 70
     1
102
RTVSPropertyOp4
 70
     1
102
RTVSPropertyOp5
 70
     1
102
RTVSPropertyOp6
 70
     1
102
RTVSPropertyOp7
 70
     1
102
RTVSPropertyOp8
 70
     1
102
RTVSPropertyOp9
 70
     1
102
RTVSPropertyOp10
 70
     1
102
RTVSPropertyOp11
 70
     1
102
RTVSPropertyOp12
 70
     1
102
RTVSPropertyOp13
 70
     1
102
RTVSPropertyOp14
 70
     1
102
RTVSPropertyOp15
 70
     1
102
RTVSPropertyOp16
 70
     1
102
RTVSPropertyOp17
 70
     1
102
RTVSPropertyOp18
 70
     1
102
RTVSPropertyOp19
 70
     1
102
RTVSPropertyOp20
 70
     1
102
RTVSPropertyOp21
 70
     1
102
RTVSPropertyOp22
 70
     1
102
RTVSPropertyOp23
 70
     1
102
RTVSPropertyOp24
 70
     1
102
RTVSPropertyOp25
 70
     1
102
RTVSPropertyOp26
 70
     1
102
RTVSPropertyOp27
 70
     1
102
RTVSPropertyOp28
 70
     1
102
RTVSPropertyOp29
 70
     1
102
RTVSPropertyOp30
 70
     1
102
RTVSPropertyOp31
 70
     1
102
RTVSPropertyOp32
 70
     1
102
RTVSPropertyOp33
 70
     1
102
RTVSPropertyOp34
 70
     1
102
RTVSPropertyOp35
 70
     1
102
RTVSPropertyOp36
 70
     1
102
RTVSPropertyOp37
 70
     1
102
RTVSPropertyOp38
 70
     1
102
RTVSPropertyOp39
 70
     1
102
RTVSPropertyOp40
 70
     1
102
RTVSPropertyOp41
 70
     1
102
RTVSPropertyOp42
 70
     1
102
RTVSPropertyOp43
 70
     1
102
RTVSPropertyOp44
 70
     1
102
RTVSPropertyOp45
 70
     1
102
RTVSPropertyOp46
 70
     1
102
RTVSPropertyOp47
 70
     1
102
RTVSPropertyOp48
 70
     1
102
RTVSPropertyOp49
 70
     1
102
RTVSPropertyOp50
 70
     1
102
RTVSPropertyOp51
 70
     0
102
RTVSPropertyOp52
 70
     0
102
RTVSPropertyOp53
 70
     1
102
RTVSPropertyOp54
 70
     1
102
RTVSPropertyOp55
 70
     1
102
RTVSPropertyOp56
 70
     1
102
RTVSPropertyOp57
 70
     1
102
RTVSPropertyOp58
 70
     1
102
RTVSPropertyOp59
 70
     1
102
RTVSPropertyOp60
 70
     1
102
RTVSPropertyOp61
 70
     1
102
RTVSPropertyOp62
 70
     1
  0
XRECORD
  5
CF3
102
{ACAD_REACTORS
330
CF2
102
}
330
CF2
100
AcDbXrecord
280
     1
102
RTVSPost2010Prop28
280
     0
102
RTVSPost2010PropOp28
 70
     1
102
RTVSPost2010Prop29
280
     1
102
RTVSPost2010PropOp29
 70
     1
102
RTVSPost2010Prop30
280
     1
102
RTVSPost2010PropOp30
 70
     1
102
RTVSPost2010Prop31
280
     0
102
RTVSPost2010PropOp31
 70
     1
102
RTVSPost2010Prop32
280
     0
102
RTVSPost2010PropOp32
 70
     1
102
RTVSPost2010Prop33
280
     0
102
RTVSPost2010PropOp33
 70
     1
102
RTVSPost2010Prop34
280
     0
102
RTVSPost2010PropOp34
 70
     1
102
RTVSPost2010Prop35
280
     0
102
RTVSPost2010PropOp35
 70
     1
102
RTVSPost2010Prop36
280
     0
102
RTVSPost2010PropOp36
 70
     1
102
RTVSPost2010Prop37
 90
       50
102
RTVSPost2010PropOp37
 70
     1
102
RTVSPost2010Prop38
140
0.0
102
RTVSPost2010PropOp38
 70
     1
102
RTVSPost2010Prop39
140
1.0
102
RTVSPost2010PropOp39
 70
     1
102
RTVSPost2010Prop40
 90
        0
102
RTVSPost2010PropOp40
 70
     1
102
RTVSPost2010Prop41ColorIndex
 90
       18
102
RTVSPost2010Prop41ColorRGB
 90
        0
102
RTVSPost2010PropOp41
 70
     1
102
RTVSPost2010Prop42
 90
       50
102
RTVSPost2010PropOp42
 70
     1
102
RTVSPost2010Prop43
 90
        3
102
RTVSPost2010PropOp43
 70
     1
102
RTVSPost2010Prop44ColorIndex
 90
        5
102
RTVSPost2010Prop44ColorRGB
 90
      255
102
RTVSPost2010PropOp44
 70
     1
102
RTVSPost2010Prop45
280
     0
102
RTVSPost2010PropOp45
 70
     1
102
RTVSPost2010Prop46
 90
       50
102
RTVSPost2010PropOp46
 70
     1
102
RTVSPost2010Prop47
 90
       50
102
RTVSPost2010PropOp47
 70
     1
102
RTVSPost2010Prop48
 90
       50
102
RTVSPost2010PropOp48
 70
     1
102
RTVSPost2010Prop49
280
     0
102
RTVSPost2010PropOp49
 70
     1
102
RTVSPost2010Prop50
 90
       50
102
RTVSPost2010PropOp50
 70
     1
102
RTVSPost2010Prop51ColorIndex
 90
      256
102
RTVSPost2010Prop51ColorRGB
 90
-16777216
102
RTVSPost2010PropOp51
 70
     0
102
RTVSPost2010Prop52
140
1.0
102
RTVSPost2010PropOp52
 70
     0
102
RTVSPost2010Prop53
 90
        2
102
RTVSPost2010PropOp53
 70
     1
102
RTVSPost2010Prop54
  1
strokes_ogs.tif
102
RTVSPost2010PropOp54
 70
     1
102
RTVSPost2010Prop55
280
     0
102
RTVSPost2010PropOp55
 70
     1
102
RTVSPost2010Prop56
140
1.0
102
RTVSPost2010PropOp56
 70
     1
102
RTVSPost2010Prop57
140
1.0
102
RTVSPost2010PropOp57
 70
     1
102
RTVSPropertyOp0
 70
     1
102
RTVSPropertyOp1
 70
     1
102
RTVSPropertyOp2
 70
     1
102
RTVSPropertyOp3
 70
     1
102
RTVSPropertyOp4
 70
     1
102
RTVSPropertyOp5
 70
     1
102
RTVSPropertyOp6
 70
     1
102
RTVSPropertyOp7
 70
     1
102
RTVSPropertyOp8
 70
     1
102
RTVSPropertyOp9
 70
     1
102
RTVSPropertyOp10
 70
     1
102
RTVSPropertyOp11
 70
     1
102
RTVSPropertyOp12
 70
     1
102
RTVSPropertyOp13
 70
     1
102
RTVSPropertyOp14
 70
     1
102
RTVSPropertyOp15
 70
     1
102
RTVSPropertyOp16
 70
     1
102
RTVSPropertyOp17
 70
     1
102
RTVSPropertyOp18
 70
     1
102
RTVSPropertyOp19
 70
     1
102
RTVSPropertyOp20
 70
     1
102
RTVSPropertyOp21
 70
     1
102
RTVSPropertyOp22
 70
     1
102
RTVSPropertyOp23
 70
     1
102
RTVSPropertyOp24
 70
     1
102
RTVSPropertyOp25
 70
     1
102
RTVSPropertyOp26
 70
     1
102
RTVSPropertyOp27
 70
     1
102
RTVSPropertyOp28
 70
     1
102
RTVSPropertyOp29
 70
     1
102
RTVSPropertyOp30
 70
     1
102
RTVSPropertyOp31
 70
     1
102
RTVSPropertyOp32
 70
     1
102
RTVSPropertyOp33
 70
     1
102
RTVSPropertyOp34
 70
     1
102
RTVSPropertyOp35
 70
     1
102
RTVSPropertyOp36
 70
     1
102
RTVSPropertyOp37
 70
     1
102
RTVSPropertyOp38
 70
     1
102
RTVSPropertyOp39
 70
     1
102
RTVSPropertyOp40
 70
     1
102
RTVSPropertyOp41
 70
     1
102
RTVSPropertyOp42
 70
     1
102
RTVSPropertyOp43
 70
     1
102
RTVSPropertyOp44
 70
     1
102
RTVSPropertyOp45
 70
     1
102
RTVSPropertyOp46
 70
     1
102
RTVSPropertyOp47
 70
     1
102
RTVSPropertyOp48
 70
     1
102
RTVSPropertyOp49
 70
     1
102
RTVSPropertyOp50
 70
     1
102
RTVSPropertyOp51
 70
     0
102
RTVSPropertyOp52
 70
     0
102
RTVSPropertyOp53
 70
     1
102
RTVSPropertyOp54
 70
     1
102
RTVSPropertyOp55
 70
     1
102
RTVSPropertyOp56
 70
     1
102
RTVSPropertyOp57
 70
     1
102
RTVSPropertyOp58
 70
     1
102
RTVSPropertyOp59
 70
     1
102
RTVSPropertyOp60
 70
     1
102
RTVSPropertyOp61
 70
     1
102
RTVSPropertyOp62
 70
     1
  0
XRECORD
  5
CF5
102
{ACAD_REACTORS
330
CF4
102
}
330
CF4
100
AcDbXrecord
280
     1
102
RTVSPost2010Prop28
280
     0
102
RTVSPost2010PropOp28
 70
     1
102
RTVSPost2010Prop29
280
     1
102
RTVSPost2010PropOp29
 70
     1
102
RTVSPost2010Prop30
280
     1
102
RTVSPost2010PropOp30
 70
     1
102
RTVSPost2010Prop31
280
     0
102
RTVSPost2010PropOp31
 70
     1
102
RTVSPost2010Prop32
280
     0
102
RTVSPost2010PropOp32
 70
     1
102
RTVSPost2010Prop33
280
     0
102
RTVSPost2010PropOp33
 70
     1
102
RTVSPost2010Prop34
280
     0
102
RTVSPost2010PropOp34
 70
     1
102
RTVSPost2010Prop35
280
     0
102
RTVSPost2010PropOp35
 70
     1
102
RTVSPost2010Prop36
280
     0
102
RTVSPost2010PropOp36
 70
     1
102
RTVSPost2010Prop37
 90
       50
102
RTVSPost2010PropOp37
 70
     1
102
RTVSPost2010Prop38
140
0.0
102
RTVSPost2010PropOp38
 70
     1
102
RTVSPost2010Prop39
140
1.0
102
RTVSPost2010PropOp39
 70
     1
102
RTVSPost2010Prop40
 90
        0
102
RTVSPost2010PropOp40
 70
     1
102
RTVSPost2010Prop41ColorIndex
 90
       18
102
RTVSPost2010Prop41ColorRGB
 90
        0
102
RTVSPost2010PropOp41
 70
     1
102
RTVSPost2010Prop42
 90
       50
102
RTVSPost2010PropOp42
 70
     1
102
RTVSPost2010Prop43
 90
        3
102
RTVSPost2010PropOp43
 70
     1
102
RTVSPost2010Prop44ColorIndex
 90
        5
102
RTVSPost2010Prop44ColorRGB
 90
      255
102
RTVSPost2010PropOp44
 70
     1
102
RTVSPost2010Prop45
280
     0
102
RTVSPost2010PropOp45
 70
     1
102
RTVSPost2010Prop46
 90
       50
102
RTVSPost2010PropOp46
 70
     1
102
RTVSPost2010Prop47
 90
       50
102
RTVSPost2010PropOp47
 70
     1
102
RTVSPost2010Prop48
 90
       50
102
RTVSPost2010PropOp48
 70
     1
102
RTVSPost2010Prop49
280
     0
102
RTVSPost2010PropOp49
 70
     1
102
RTVSPost2010Prop50
 90
       50
102
RTVSPost2010PropOp50
 70
     1
102
RTVSPost2010Prop51ColorIndex
 90
      256
102
RTVSPost2010Prop51ColorRGB
 90
-16777216
102
RTVSPost2010PropOp51
 70
     0
102
RTVSPost2010Prop52
140
1.0
102
RTVSPost2010PropOp52
 70
     0
102
RTVSPost2010Prop53
 90
        2
102
RTVSPost2010PropOp53
 70
     1
102
RTVSPost2010Prop54
  1
strokes_ogs.tif
102
RTVSPost2010PropOp54
 70
     1
102
RTVSPost2010Prop55
280
     0
102
RTVSPost2010PropOp55
 70
     1
102
RTVSPost2010Prop56
140
1.0
102
RTVSPost2010PropOp56
 70
     1
102
RTVSPost2010Prop57
140
1.0
102
RTVSPost2010PropOp57
 70
     1
102
RTVSPropertyOp0
 70
     1
102
RTVSPropertyOp1
 70
     1
102
RTVSPropertyOp2
 70
     1
102
RTVSPropertyOp3
 70
     1
102
RTVSPropertyOp4
 70
     1
102
RTVSPropertyOp5
 70
     1
102
RTVSPropertyOp6
 70
     1
102
RTVSPropertyOp7
 70
     1
102
RTVSPropertyOp8
 70
     1
102
RTVSPropertyOp9
 70
     1
102
RTVSPropertyOp10
 70
     1
102
RTVSPropertyOp11
 70
     1
102
RTVSPropertyOp12
 70
     1
102
RTVSPropertyOp13
 70
     1
102
RTVSPropertyOp14
 70
     1
102
RTVSPropertyOp15
 70
     1
102
RTVSPropertyOp16
 70
     1
102
RTVSPropertyOp17
 70
     1
102
RTVSPropertyOp18
 70
     1
102
RTVSPropertyOp19
 70
     1
102
RTVSPropertyOp20
 70
     1
102
RTVSPropertyOp21
 70
     1
102
RTVSPropertyOp22
 70
     1
102
RTVSPropertyOp23
 70
     1
102
RTVSPropertyOp24
 70
     1
102
RTVSPropertyOp25
 70
     1
102
RTVSPropertyOp26
 70
     1
102
RTVSPropertyOp27
 70
     1
102
RTVSPropertyOp28
 70
     1
102
RTVSPropertyOp29
 70
     1
102
RTVSPropertyOp30
 70
     1
102
RTVSPropertyOp31
 70
     1
102
RTVSPropertyOp32
 70
     1
102
RTVSPropertyOp33
 70
     1
102
RTVSPropertyOp34
 70
     1
102
RTVSPropertyOp35
 70
     1
102
RTVSPropertyOp36
 70
     1
102
RTVSPropertyOp37
 70
     1
102
RTVSPropertyOp38
 70
     1
102
RTVSPropertyOp39
 70
     1
102
RTVSPropertyOp40
 70
     1
102
RTVSPropertyOp41
 70
     1
102
RTVSPropertyOp42
 70
     1
102
RTVSPropertyOp43
 70
     1
102
RTVSPropertyOp44
 70
     1
102
RTVSPropertyOp45
 70
     1
102
RTVSPropertyOp46
 70
     1
102
RTVSPropertyOp47
 70
     1
102
RTVSPropertyOp48
 70
     1
102
RTVSPropertyOp49
 70
     1
102
RTVSPropertyOp50
 70
     1
102
RTVSPropertyOp51
 70
     0
102
RTVSPropertyOp52
 70
     0
102
RTVSPropertyOp53
 70
     1
102
RTVSPropertyOp54
 70
     1
102
RTVSPropertyOp55
 70
     1
102
RTVSPropertyOp56
 70
     1
102
RTVSPropertyOp57
 70
     1
102
RTVSPropertyOp58
 70
     1
102
RTVSPropertyOp59
 70
     1
102
RTVSPropertyOp60
 70
     1
102
RTVSPropertyOp61
 70
     1
102
RTVSPropertyOp62
 70
     1
  0
XRECORD
  5
CF7
102
{ACAD_REACTORS
330
CF6
102
}
330
CF6
100
AcDbXrecord
280
     1
102
RTVSPost2010Prop28
280
     0
102
RTVSPost2010PropOp28
 70
     1
102
RTVSPost2010Prop29
280
     1
102
RTVSPost2010PropOp29
 70
     1
102
RTVSPost2010Prop30
280
     1
102
RTVSPost2010PropOp30
 70
     1
102
RTVSPost2010Prop31
280
     0
102
RTVSPost2010PropOp31
 70
     1
102
RTVSPost2010Prop32
280
     0
102
RTVSPost2010PropOp32
 70
     1
102
RTVSPost2010Prop33
280
     0
102
RTVSPost2010PropOp33
 70
     1
102
RTVSPost2010Prop34
280
     0
102
RTVSPost2010PropOp34
 70
     1
102
RTVSPost2010Prop35
280
     0
102
RTVSPost2010PropOp35
 70
     1
102
RTVSPost2010Prop36
280
     0
102
RTVSPost2010PropOp36
 70
     1
102
RTVSPost2010Prop37
 90
       50
102
RTVSPost2010PropOp37
 70
     1
102
RTVSPost2010Prop38
140
0.0
102
RTVSPost2010PropOp38
 70
     1
102
RTVSPost2010Prop39
140
1.0
102
RTVSPost2010PropOp39
 70
     1
102
RTVSPost2010Prop40
 90
        0
102
RTVSPost2010PropOp40
 70
     1
102
RTVSPost2010Prop41ColorIndex
 90
       18
102
RTVSPost2010Prop41ColorRGB
 90
        0
102
RTVSPost2010PropOp41
 70
     1
102
RTVSPost2010Prop42
 90
       50
102
RTVSPost2010PropOp42
 70
     1
102
RTVSPost2010Prop43
 90
        3
102
RTVSPost2010PropOp43
 70
     1
102
RTVSPost2010Prop44ColorIndex
 90
        5
102
RTVSPost2010Prop44ColorRGB
 90
      255
102
RTVSPost2010PropOp44
 70
     1
102
RTVSPost2010Prop45
280
     0
102
RTVSPost2010PropOp45
 70
     1
102
RTVSPost2010Prop46
 90
       50
102
RTVSPost2010PropOp46
 70
     1
102
RTVSPost2010Prop47
 90
       50
102
RTVSPost2010PropOp47
 70
     1
102
RTVSPost2010Prop48
 90
       50
102
RTVSPost2010PropOp48
 70
     1
102
RTVSPost2010Prop49
280
     0
102
RTVSPost2010PropOp49
 70
     1
102
RTVSPost2010Prop50
 90
       50
102
RTVSPost2010PropOp50
 70
     1
102
RTVSPost2010Prop51ColorIndex
 90
      256
102
RTVSPost2010Prop51ColorRGB
 90
-16777216
102
RTVSPost2010PropOp51
 70
     0
102
RTVSPost2010Prop52
140
1.0
102
RTVSPost2010PropOp52
 70
     0
102
RTVSPost2010Prop53
 90
        2
102
RTVSPost2010PropOp53
 70
     1
102
RTVSPost2010Prop54
  1
strokes_ogs.tif
102
RTVSPost2010PropOp54
 70
     1
102
RTVSPost2010Prop55
280
     0
102
RTVSPost2010PropOp55
 70
     1
102
RTVSPost2010Prop56
140
1.0
102
RTVSPost2010PropOp56
 70
     1
102
RTVSPost2010Prop57
140
1.0
102
RTVSPost2010PropOp57
 70
     1
102
RTVSPropertyOp0
 70
     1
102
RTVSPropertyOp1
 70
     1
102
RTVSPropertyOp2
 70
     1
102
RTVSPropertyOp3
 70
     1
102
RTVSPropertyOp4
 70
     1
102
RTVSPropertyOp5
 70
     1
102
RTVSPropertyOp6
 70
     1
102
RTVSPropertyOp7
 70
     1
102
RTVSPropertyOp8
 70
     1
102
RTVSPropertyOp9
 70
     1
102
RTVSPropertyOp10
 70
     1
102
RTVSPropertyOp11
 70
     1
102
RTVSPropertyOp12
 70
     1
102
RTVSPropertyOp13
 70
     1
102
RTVSPropertyOp14
 70
     1
102
RTVSPropertyOp15
 70
     1
102
RTVSPropertyOp16
 70
     1
102
RTVSPropertyOp17
 70
     1
102
RTVSPropertyOp18
 70
     1
102
RTVSPropertyOp19
 70
     1
102
RTVSPropertyOp20
 70
     1
102
RTVSPropertyOp21
 70
     1
102
RTVSPropertyOp22
 70
     1
102
RTVSPropertyOp23
 70
     1
102
RTVSPropertyOp24
 70
     1
102
RTVSPropertyOp25
 70
     1
102
RTVSPropertyOp26
 70
     1
102
RTVSPropertyOp27
 70
     1
102
RTVSPropertyOp28
 70
     1
102
RTVSPropertyOp29
 70
     1
102
RTVSPropertyOp30
 70
     1
102
RTVSPropertyOp31
 70
     1
102
RTVSPropertyOp32
 70
     1
102
RTVSPropertyOp33
 70
     1
102
RTVSPropertyOp34
 70
     1
102
RTVSPropertyOp35
 70
     1
102
RTVSPropertyOp36
 70
     1
102
RTVSPropertyOp37
 70
     1
102
RTVSPropertyOp38
 70
     1
102
RTVSPropertyOp39
 70
     1
102
RTVSPropertyOp40
 70
     1
102
RTVSPropertyOp41
 70
     1
102
RTVSPropertyOp42
 70
     1
102
RTVSPropertyOp43
 70
     1
102
RTVSPropertyOp44
 70
     1
102
RTVSPropertyOp45
 70
     1
102
RTVSPropertyOp46
 70
     1
102
RTVSPropertyOp47
 70
     1
102
RTVSPropertyOp48
 70
     1
102
RTVSPropertyOp49
 70
     1
102
RTVSPropertyOp50
 70
     1
102
RTVSPropertyOp51
 70
     0
102
RTVSPropertyOp52
 70
     0
102
RTVSPropertyOp53
 70
     1
102
RTVSPropertyOp54
 70
     1
102
RTVSPropertyOp55
 70
     1
102
RTVSPropertyOp56
 70
     1
102
RTVSPropertyOp57
 70
     1
102
RTVSPropertyOp58
 70
     1
102
RTVSPropertyOp59
 70
     1
102
RTVSPropertyOp60
 70
     1
102
RTVSPropertyOp61
 70
     1
102
RTVSPropertyOp62
 70
     1
  0
XRECORD
  5
CF9
102
{ACAD_REACTORS
330
CF8
102
}
330
CF8
100
AcDbXrecord
280
     1
102
RTVSPost2010Prop28
280
     0
102
RTVSPost2010PropOp28
 70
     1
102
RTVSPost2010Prop29
280
     1
102
RTVSPost2010PropOp29
 70
     1
102
RTVSPost2010Prop30
280
     1
102
RTVSPost2010PropOp30
 70
     1
102
RTVSPost2010Prop31
280
     0
102
RTVSPost2010PropOp31
 70
     1
102
RTVSPost2010Prop32
280
     0
102
RTVSPost2010PropOp32
 70
     1
102
RTVSPost2010Prop33
280
     0
102
RTVSPost2010PropOp33
 70
     1
102
RTVSPost2010Prop34
280
     0
102
RTVSPost2010PropOp34
 70
     1
102
RTVSPost2010Prop35
280
     0
102
RTVSPost2010PropOp35
 70
     1
102
RTVSPost2010Prop36
280
     0
102
RTVSPost2010PropOp36
 70
     1
102
RTVSPost2010Prop37
 90
       50
102
RTVSPost2010PropOp37
 70
     1
102
RTVSPost2010Prop38
140
0.0
102
RTVSPost2010PropOp38
 70
     1
102
RTVSPost2010Prop39
140
1.0
102
RTVSPost2010PropOp39
 70
     1
102
RTVSPost2010Prop40
 90
        0
102
RTVSPost2010PropOp40
 70
     1
102
RTVSPost2010Prop41ColorIndex
 90
       18
102
RTVSPost2010Prop41ColorRGB
 90
        0
102
RTVSPost2010PropOp41
 70
     1
102
RTVSPost2010Prop42
 90
       50
102
RTVSPost2010PropOp42
 70
     1
102
RTVSPost2010Prop43
 90
        3
102
RTVSPost2010PropOp43
 70
     1
102
RTVSPost2010Prop44ColorIndex
 90
        5
102
RTVSPost2010Prop44ColorRGB
 90
      255
102
RTVSPost2010PropOp44
 70
     1
102
RTVSPost2010Prop45
280
     0
102
RTVSPost2010PropOp45
 70
     1
102
RTVSPost2010Prop46
 90
       50
102
RTVSPost2010PropOp46
 70
     1
102
RTVSPost2010Prop47
 90
       50
102
RTVSPost2010PropOp47
 70
     1
102
RTVSPost2010Prop48
 90
       50
102
RTVSPost2010PropOp48
 70
     1
102
RTVSPost2010Prop49
280
     0
102
RTVSPost2010PropOp49
 70
     1
102
RTVSPost2010Prop50
 90
       50
102
RTVSPost2010PropOp50
 70
     1
102
RTVSPost2010Prop51ColorIndex
 90
      256
102
RTVSPost2010Prop51ColorRGB
 90
-16777216
102
RTVSPost2010PropOp51
 70
     0
102
RTVSPost2010Prop52
140
1.0
102
RTVSPost2010PropOp52
 70
     0
102
RTVSPost2010Prop53
 90
        2
102
RTVSPost2010PropOp53
 70
     1
102
RTVSPost2010Prop54
  1
strokes_ogs.tif
102
RTVSPost2010PropOp54
 70
     1
102
RTVSPost2010Prop55
280
     0
102
RTVSPost2010PropOp55
 70
     1
102
RTVSPost2010Prop56
140
1.0
102
RTVSPost2010PropOp56
 70
     1
102
RTVSPost2010Prop57
140
1.0
102
RTVSPost2010PropOp57
 70
     1
102
RTVSPropertyOp0
 70
     1
102
RTVSPropertyOp1
 70
     1
102
RTVSPropertyOp2
 70
     1
102
RTVSPropertyOp3
 70
     1
102
RTVSPropertyOp4
 70
     1
102
RTVSPropertyOp5
 70
     1
102
RTVSPropertyOp6
 70
     1
102
RTVSPropertyOp7
 70
     1
102
RTVSPropertyOp8
 70
     1
102
RTVSPropertyOp9
 70
     1
102
RTVSPropertyOp10
 70
     1
102
RTVSPropertyOp11
 70
     1
102
RTVSPropertyOp12
 70
     1
102
RTVSPropertyOp13
 70
     1
102
RTVSPropertyOp14
 70
     1
102
RTVSPropertyOp15
 70
     1
102
RTVSPropertyOp16
 70
     1
102
RTVSPropertyOp17
 70
     1
102
RTVSPropertyOp18
 70
     1
102
RTVSPropertyOp19
 70
     1
102
RTVSPropertyOp20
 70
     1
102
RTVSPropertyOp21
 70
     1
102
RTVSPropertyOp22
 70
     1
102
RTVSPropertyOp23
 70
     1
102
RTVSPropertyOp24
 70
     1
102
RTVSPropertyOp25
 70
     1
102
RTVSPropertyOp26
 70
     1
102
RTVSPropertyOp27
 70
     1
102
RTVSPropertyOp28
 70
     1
102
RTVSPropertyOp29
 70
     1
102
RTVSPropertyOp30
 70
     1
102
RTVSPropertyOp31
 70
     1
102
RTVSPropertyOp32
 70
     1
102
RTVSPropertyOp33
 70
     1
102
RTVSPropertyOp34
 70
     1
102
RTVSPropertyOp35
 70
     1
102
RTVSPropertyOp36
 70
     1
102
RTVSPropertyOp37
 70
     1
102
RTVSPropertyOp38
 70
     1
102
RTVSPropertyOp39
 70
     1
102
RTVSPropertyOp40
 70
     1
102
RTVSPropertyOp41
 70
     1
102
RTVSPropertyOp42
 70
     1
102
RTVSPropertyOp43
 70
     1
102
RTVSPropertyOp44
 70
     1
102
RTVSPropertyOp45
 70
     1
102
RTVSPropertyOp46
 70
     1
102
RTVSPropertyOp47
 70
     1
102
RTVSPropertyOp48
 70
     1
102
RTVSPropertyOp49
 70
     1
102
RTVSPropertyOp50
 70
     1
102
RTVSPropertyOp51
 70
     0
102
RTVSPropertyOp52
 70
     0
102
RTVSPropertyOp53
 70
     1
102
RTVSPropertyOp54
 70
     1
102
RTVSPropertyOp55
 70
     1
102
RTVSPropertyOp56
 70
     1
102
RTVSPropertyOp57
 70
     1
102
RTVSPropertyOp58
 70
     1
102
RTVSPropertyOp59
 70
     1
102
RTVSPropertyOp60
 70
     1
102
RTVSPropertyOp61
 70
     1
102
RTVSPropertyOp62
 70
     1
  0
XRECORD
  5
D01
102
{ACAD_REACTORS
330
D00
102
}
330
D00
100
AcDbXrecord
280
     1
102
RTVSPost2010Prop28
280
     0
102
RTVSPost2010PropOp28
 70
     1
102
RTVSPost2010Prop29
280
     1
102
RTVSPost2010PropOp29
 70
     1
102
RTVSPost2010Prop30
280
     1
102
RTVSPost2010PropOp30
 70
     1
102
RTVSPost2010Prop31
280
     0
102
RTVSPost2010PropOp31
 70
     1
102
RTVSPost2010Prop32
280
     0
102
RTVSPost2010PropOp32
 70
     1
102
RTVSPost2010Prop33
280
     0
102
RTVSPost2010PropOp33
 70
     1
102
RTVSPost2010Prop34
280
     0
102
RTVSPost2010PropOp34
 70
     1
102
RTVSPost2010Prop35
280
     0
102
RTVSPost2010PropOp35
 70
     1
102
RTVSPost2010Prop36
280
     0
102
RTVSPost2010PropOp36
 70
     1
102
RTVSPost2010Prop37
 90
       50
102
RTVSPost2010PropOp37
 70
     1
102
RTVSPost2010Prop38
140
0.0
102
RTVSPost2010PropOp38
 70
     1
102
RTVSPost2010Prop39
140
1.0
102
RTVSPost2010PropOp39
 70
     1
102
RTVSPost2010Prop40
 90
        0
102
RTVSPost2010PropOp40
 70
     1
102
RTVSPost2010Prop41ColorIndex
 90
       18
102
RTVSPost2010Prop41ColorRGB
 90
        0
102
RTVSPost2010PropOp41
 70
     1
102
RTVSPost2010Prop42
 90
       50
102
RTVSPost2010PropOp42
 70
     1
102
RTVSPost2010Prop43
 90
        3
102
RTVSPost2010PropOp43
 70
     1
102
RTVSPost2010Prop44ColorIndex
 90
        5
102
RTVSPost2010Prop44ColorRGB
 90
      255
102
RTVSPost2010PropOp44
 70
     1
102
RTVSPost2010Prop45
280
     0
102
RTVSPost2010PropOp45
 70
     1
102
RTVSPost2010Prop46
 90
       50
102
RTVSPost2010PropOp46
 70
     1
102
RTVSPost2010Prop47
 90
       50
102
RTVSPost2010PropOp47
 70
     1
102
RTVSPost2010Prop48
 90
       50
102
RTVSPost2010PropOp48
 70
     1
102
RTVSPost2010Prop49
280
     0
102
RTVSPost2010PropOp49
 70
     1
102
RTVSPost2010Prop50
 90
       50
102
RTVSPost2010PropOp50
 70
     1
102
RTVSPost2010Prop51ColorIndex
 90
      256
102
RTVSPost2010Prop51ColorRGB
 90
-16777216
102
RTVSPost2010PropOp51
 70
     0
102
RTVSPost2010Prop52
140
1.0
102
RTVSPost2010PropOp52
 70
     0
102
RTVSPost2010Prop53
 90
        2
102
RTVSPost2010PropOp53
 70
     1
102
RTVSPost2010Prop54
  1
strokes_ogs.tif
102
RTVSPost2010PropOp54
 70
     1
102
RTVSPost2010Prop55
280
     0
102
RTVSPost2010PropOp55
 70
     1
102
RTVSPost2010Prop56
140
1.0
102
RTVSPost2010PropOp56
 70
     1
102
RTVSPost2010Prop57
140
1.0
102
RTVSPost2010PropOp57
 70
     1
102
RTVSPropertyOp0
 70
     1
102
RTVSPropertyOp1
 70
     1
102
RTVSPropertyOp2
 70
     1
102
RTVSPropertyOp3
 70
     1
102
RTVSPropertyOp4
 70
     1
102
RTVSPropertyOp5
 70
     1
102
RTVSPropertyOp6
 70
     1
102
RTVSPropertyOp7
 70
     1
102
RTVSPropertyOp8
 70
     1
102
RTVSPropertyOp9
 70
     1
102
RTVSPropertyOp10
 70
     1
102
RTVSPropertyOp11
 70
     1
102
RTVSPropertyOp12
 70
     1
102
RTVSPropertyOp13
 70
     1
102
RTVSPropertyOp14
 70
     1
102
RTVSPropertyOp15
 70
     1
102
RTVSPropertyOp16
 70
     1
102
RTVSPropertyOp17
 70
     1
102
RTVSPropertyOp18
 70
     1
102
RTVSPropertyOp19
 70
     1
102
RTVSPropertyOp20
 70
     1
102
RTVSPropertyOp21
 70
     1
102
RTVSPropertyOp22
 70
     1
102
RTVSPropertyOp23
 70
     1
102
RTVSPropertyOp24
 70
     1
102
RTVSPropertyOp25
 70
     1
102
RTVSPropertyOp26
 70
     1
102
RTVSPropertyOp27
 70
     1
102
RTVSPropertyOp28
 70
     1
102
RTVSPropertyOp29
 70
     1
102
RTVSPropertyOp30
 70
     1
102
RTVSPropertyOp31
 70
     1
102
RTVSPropertyOp32
 70
     1
102
RTVSPropertyOp33
 70
     1
102
RTVSPropertyOp34
 70
     1
102
RTVSPropertyOp35
 70
     1
102
RTVSPropertyOp36
 70
     1
102
RTVSPropertyOp37
 70
     1
102
RTVSPropertyOp38
 70
     1
102
RTVSPropertyOp39
 70
     1
102
RTVSPropertyOp40
 70
     1
102
RTVSPropertyOp41
 70
     1
102
RTVSPropertyOp42
 70
     1
102
RTVSPropertyOp43
 70
     1
102
RTVSPropertyOp44
 70
     1
102
RTVSPropertyOp45
 70
     1
102
RTVSPropertyOp46
 70
     1
102
RTVSPropertyOp47
 70
     1
102
RTVSPropertyOp48
 70
     1
102
RTVSPropertyOp49
 70
     1
102
RTVSPropertyOp50
 70
     1
102
RTVSPropertyOp51
 70
     0
102
RTVSPropertyOp52
 70
     0
102
RTVSPropertyOp53
 70
     1
102
RTVSPropertyOp54
 70
     1
102
RTVSPropertyOp55
 70
     1
102
RTVSPropertyOp56
 70
     1
102
RTVSPropertyOp57
 70
     1
102
RTVSPropertyOp58
 70
     1
102
RTVSPropertyOp59
 70
     1
102
RTVSPropertyOp60
 70
     1
102
RTVSPropertyOp61
 70
     1
102
RTVSPropertyOp62
 70
     1
  0
XRECORD
  5
D1D
102
{ACAD_REACTORS
330
D1C
102
}
330
D1C
100
AcDbXrecord
280
     1
102
RTVSPost2010Prop28
280
     0
102
RTVSPost2010PropOp28
 70
     1
102
RTVSPost2010Prop29
280
     1
102
RTVSPost2010PropOp29
 70
     1
102
RTVSPost2010Prop30
280
     1
102
RTVSPost2010PropOp30
 70
     1
102
RTVSPost2010Prop31
280
     0
102
RTVSPost2010PropOp31
 70
     1
102
RTVSPost2010Prop32
280
     0
102
RTVSPost2010PropOp32
 70
     1
102
RTVSPost2010Prop33
280
     0
102
RTVSPost2010PropOp33
 70
     1
102
RTVSPost2010Prop34
280
     0
102
RTVSPost2010PropOp34
 70
     1
102
RTVSPost2010Prop35
280
     0
102
RTVSPost2010PropOp35
 70
     1
102
RTVSPost2010Prop36
280
     0
102
RTVSPost2010PropOp36
 70
     1
102
RTVSPost2010Prop37
 90
       50
102
RTVSPost2010PropOp37
 70
     0
102
RTVSPost2010Prop38
140
0.0
102
RTVSPost2010PropOp38
 70
     0
102
RTVSPost2010Prop39
140
1.0
102
RTVSPost2010PropOp39
 70
     0
102
RTVSPost2010Prop40
 90
        0
102
RTVSPost2010PropOp40
 70
     0
102
RTVSPost2010Prop41ColorIndex
 90
       18
102
RTVSPost2010Prop41ColorRGB
 90
        0
102
RTVSPost2010PropOp41
 70
     0
102
RTVSPost2010Prop42
 90
       50
102
RTVSPost2010PropOp42
 70
     0
102
RTVSPost2010Prop43
 90
        3
102
RTVSPost2010PropOp43
 70
     0
102
RTVSPost2010Prop44ColorIndex
 90
        5
102
RTVSPost2010Prop44ColorRGB
 90
      255
102
RTVSPost2010PropOp44
 70
     0
102
RTVSPost2010Prop45
280
     0
102
RTVSPost2010PropOp45
 70
     1
102
RTVSPost2010Prop46
 90
       50
102
RTVSPost2010PropOp46
 70
     0
102
RTVSPost2010Prop47
 90
       50
102
RTVSPost2010PropOp47
 70
     0
102
RTVSPost2010Prop48
 90
       50
102
RTVSPost2010PropOp48
 70
     0
102
RTVSPost2010Prop49
280
     0
102
RTVSPost2010PropOp49
 70
     1
102
RTVSPost2010Prop50
 90
       50
102
RTVSPost2010PropOp50
 70
     0
102
RTVSPost2010Prop51ColorIndex
 90
      256
102
RTVSPost2010Prop51ColorRGB
 90
-16777216
102
RTVSPost2010PropOp51
 70
     0
102
RTVSPost2010Prop52
140
1.0
102
RTVSPost2010PropOp52
 70
     0
102
RTVSPost2010Prop53
 90
        2
102
RTVSPost2010PropOp53
 70
     0
102
RTVSPost2010Prop54
  1
strokes_ogs.tif
102
RTVSPost2010PropOp54
 70
     0
102
RTVSPost2010Prop55
280
     0
102
RTVSPost2010PropOp55
 70
     1
102
RTVSPost2010Prop56
140
1.0
102
RTVSPost2010PropOp56
 70
     0
102
RTVSPost2010Prop57
140
1.0
102
RTVSPost2010PropOp57
 70
     0
102
RTVSPropertyOp0
 70
     0
102
RTVSPropertyOp1
 70
     0
102
RTVSPropertyOp2
 70
     0
102
RTVSPropertyOp3
 70
     0
102
RTVSPropertyOp4
 70
     0
102
RTVSPropertyOp5
 70
     0
102
RTVSPropertyOp6
 70
     0
102
RTVSPropertyOp7
 70
     0
102
RTVSPropertyOp8
 70
     0
102
RTVSPropertyOp9
 70
     0
102
RTVSPropertyOp10
 70
     0
102
RTVSPropertyOp11
 70
     0
102
RTVSPropertyOp12
 70
     0
102
RTVSPropertyOp13
 70
     0
102
RTVSPropertyOp14
 70
     2
102
RTVSPropertyOp15
 70
     0
102
RTVSPropertyOp16
 70
     0
102
RTVSPropertyOp17
 70
     0
102
RTVSPropertyOp18
 70
     0
102
RTVSPropertyOp19
 70
     0
102
RTVSPropertyOp20
 70
     0
102
RTVSPropertyOp21
 70
     0
102
RTVSPropertyOp22
 70
     0
102
RTVSPropertyOp23
 70
     0
102
RTVSPropertyOp24
 70
     0
102
RTVSPropertyOp25
 70
     0
102
RTVSPropertyOp26
 70
     0
102
RTVSPropertyOp27
 70
     0
102
RTVSPropertyOp28
 70
     1
102
RTVSPropertyOp29
 70
     1
102
RTVSPropertyOp30
 70
     1
102
RTVSPropertyOp31
 70
     1
102
RTVSPropertyOp32
 70
     1
102
RTVSPropertyOp33
 70
     1
102
RTVSPropertyOp34
 70
     1
102
RTVSPropertyOp35
 70
     1
102
RTVSPropertyOp36
 70
     1
102
RTVSPropertyOp37
 70
     0
102
RTVSPropertyOp38
 70
     0
102
RTVSPropertyOp39
 70
     0
102
RTVSPropertyOp40
 70
     0
102
RTVSPropertyOp41
 70
     0
102
RTVSPropertyOp42
 70
     0
102
RTVSPropertyOp43
 70
     0
102
RTVSPropertyOp44
 70
     0
102
RTVSPropertyOp45
 70
     1
102
RTVSPropertyOp46
 70
     0
102
RTVSPropertyOp47
 70
     0
102
RTVSPropertyOp48
 70
     0
102
RTVSPropertyOp49
 70
     1
102
RTVSPropertyOp50
 70
     0
102
RTVSPropertyOp51
 70
     0
102
RTVSPropertyOp52
 70
     0
102
RTVSPropertyOp53
 70
     0
102
RTVSPropertyOp54
 70
     0
102
RTVSPropertyOp55
 70
     1
102
RTVSPropertyOp56
 70
     0
102
RTVSPropertyOp57
 70
     0
102
RTVSPropertyOp58
 70
     0
102
RTVSPropertyOp59
 70
     0
102
RTVSPropertyOp60
 70
     0
102
RTVSPropertyOp61
 70
     0
102
RTVSPropertyOp62
 70
     0
  0
XRECORD
  5
D0D
102
{ACAD_REACTORS
330
D0C
102
}
330
D0C
100
AcDbXrecord
280
     1
102
RTVSPost2010Prop28
280
     0
102
RTVSPost2010PropOp28
 70
     1
102
RTVSPost2010Prop29
280
     1
102
RTVSPost2010PropOp29
 70
     1
102
RTVSPost2010Prop30
280
     1
102
RTVSPost2010PropOp30
 70
     1
102
RTVSPost2010Prop31
280
     0
102
RTVSPost2010PropOp31
 70
     1
102
RTVSPost2010Prop32
280
     0
102
RTVSPost2010PropOp32
 70
     1
102
RTVSPost2010Prop33
280
     0
102
RTVSPost2010PropOp33
 70
     1
102
RTVSPost2010Prop34
280
     0
102
RTVSPost2010PropOp34
 70
     1
102
RTVSPost2010Prop35
280
     0
102
RTVSPost2010PropOp35
 70
     1
102
RTVSPost2010Prop36
280
     0
102
RTVSPost2010PropOp36
 70
     1
102
RTVSPost2010Prop37
 90
       50
102
RTVSPost2010PropOp37
 70
     1
102
RTVSPost2010Prop38
140
0.0
102
RTVSPost2010PropOp38
 70
     1
102
RTVSPost2010Prop39
140
1.0
102
RTVSPost2010PropOp39
 70
     1
102
RTVSPost2010Prop40
 90
        0
102
RTVSPost2010PropOp40
 70
     1
102
RTVSPost2010Prop41ColorIndex
 90
       18
102
RTVSPost2010Prop41ColorRGB
 90
        0
102
RTVSPost2010PropOp41
 70
     1
102
RTVSPost2010Prop42
 90
       50
102
RTVSPost2010PropOp42
 70
     1
102
RTVSPost2010Prop43
 90
        3
102
RTVSPost2010PropOp43
 70
     1
102
RTVSPost2010Prop44ColorIndex
 90
        5
102
RTVSPost2010Prop44ColorRGB
 90
      255
102
RTVSPost2010PropOp44
 70
     1
102
RTVSPost2010Prop45
280
     0
102
RTVSPost2010PropOp45
 70
     1
102
RTVSPost2010Prop46
 90
       50
102
RTVSPost2010PropOp46
 70
     1
102
RTVSPost2010Prop47
 90
       50
102
RTVSPost2010PropOp47
 70
     1
102
RTVSPost2010Prop48
 90
       50
102
RTVSPost2010PropOp48
 70
     1
102
RTVSPost2010Prop49
280
     0
102
RTVSPost2010PropOp49
 70
     1
102
RTVSPost2010Prop50
 90
       50
102
RTVSPost2010PropOp50
 70
     1
102
RTVSPost2010Prop51ColorIndex
 90
      256
102
RTVSPost2010Prop51ColorRGB
 90
-16777216
102
RTVSPost2010PropOp51
 70
     0
102
RTVSPost2010Prop52
140
1.0
102
RTVSPost2010PropOp52
 70
     0
102
RTVSPost2010Prop53
 90
        2
102
RTVSPost2010PropOp53
 70
     1
102
RTVSPost2010Prop54
  1
strokes_ogs.tif
102
RTVSPost2010PropOp54
 70
     1
102
RTVSPost2010Prop55
280
     0
102
RTVSPost2010PropOp55
 70
     1
102
RTVSPost2010Prop56
140
1.0
102
RTVSPost2010PropOp56
 70
     1
102
RTVSPost2010Prop57
140
1.0
102
RTVSPost2010PropOp57
 70
     1
102
RTVSPropertyOp0
 70
     1
102
RTVSPropertyOp1
 70
     1
102
RTVSPropertyOp2
 70
     1
102
RTVSPropertyOp3
 70
     1
102
RTVSPropertyOp4
 70
     1
102
RTVSPropertyOp5
 70
     1
102
RTVSPropertyOp6
 70
     1
102
RTVSPropertyOp7
 70
     1
102
RTVSPropertyOp8
 70
     1
102
RTVSPropertyOp9
 70
     1
102
RTVSPropertyOp10
 70
     1
102
RTVSPropertyOp11
 70
     1
102
RTVSPropertyOp12
 70
     1
102
RTVSPropertyOp13
 70
     1
102
RTVSPropertyOp14
 70
     1
102
RTVSPropertyOp15
 70
     1
102
RTVSPropertyOp16
 70
     1
102
RTVSPropertyOp17
 70
     1
102
RTVSPropertyOp18
 70
     1
102
RTVSPropertyOp19
 70
     1
102
RTVSPropertyOp20
 70
     1
102
RTVSPropertyOp21
 70
     1
102
RTVSPropertyOp22
 70
     1
102
RTVSPropertyOp23
 70
     1
102
RTVSPropertyOp24
 70
     1
102
RTVSPropertyOp25
 70
     1
102
RTVSPropertyOp26
 70
     1
102
RTVSPropertyOp27
 70
     1
102
RTVSPropertyOp28
 70
     1
102
RTVSPropertyOp29
 70
     1
102
RTVSPropertyOp30
 70
     1
102
RTVSPropertyOp31
 70
     1
102
RTVSPropertyOp32
 70
     1
102
RTVSPropertyOp33
 70
     1
102
RTVSPropertyOp34
 70
     1
102
RTVSPropertyOp35
 70
     1
102
RTVSPropertyOp36
 70
     1
102
RTVSPropertyOp37
 70
     1
102
RTVSPropertyOp38
 70
     1
102
RTVSPropertyOp39
 70
     1
102
RTVSPropertyOp40
 70
     1
102
RTVSPropertyOp41
 70
     1
102
RTVSPropertyOp42
 70
     1
102
RTVSPropertyOp43
 70
     1
102
RTVSPropertyOp44
 70
     1
102
RTVSPropertyOp45
 70
     1
102
RTVSPropertyOp46
 70
     1
102
RTVSPropertyOp47
 70
     1
102
RTVSPropertyOp48
 70
     1
102
RTVSPropertyOp49
 70
     1
102
RTVSPropertyOp50
 70
     1
102
RTVSPropertyOp51
 70
     0
102
RTVSPropertyOp52
 70
     0
102
RTVSPropertyOp53
 70
     1
102
RTVSPropertyOp54
 70
     1
102
RTVSPropertyOp55
 70
     1
102
RTVSPropertyOp56
 70
     1
102
RTVSPropertyOp57
 70
     1
102
RTVSPropertyOp58
 70
     1
102
RTVSPropertyOp59
 70
     1
102
RTVSPropertyOp60
 70
     1
102
RTVSPropertyOp61
 70
     1
102
RTVSPropertyOp62
 70
     1
  0
XRECORD
  5
D1F
102
{ACAD_REACTORS
330
D1E
102
}
330
D1E
100
AcDbXrecord
280
     1
102
RTVSPost2010Prop28
280
     0
102
RTVSPost2010PropOp28
 70
     1
102
RTVSPost2010Prop29
280
     1
102
RTVSPost2010PropOp29
 70
     1
102
RTVSPost2010Prop30
280
     1
102
RTVSPost2010PropOp30
 70
     1
102
RTVSPost2010Prop31
280
     0
102
RTVSPost2010PropOp31
 70
     1
102
RTVSPost2010Prop32
280
     0
102
RTVSPost2010PropOp32
 70
     1
102
RTVSPost2010Prop33
280
     0
102
RTVSPost2010PropOp33
 70
     1
102
RTVSPost2010Prop34
280
     0
102
RTVSPost2010PropOp34
 70
     1
102
RTVSPost2010Prop35
280
     0
102
RTVSPost2010PropOp35
 70
     1
102
RTVSPost2010Prop36
280
     0
102
RTVSPost2010PropOp36
 70
     1
102
RTVSPost2010Prop37
 90
       50
102
RTVSPost2010PropOp37
 70
     0
102
RTVSPost2010Prop38
140
0.0
102
RTVSPost2010PropOp38
 70
     0
102
RTVSPost2010Prop39
140
1.0
102
RTVSPost2010PropOp39
 70
     0
102
RTVSPost2010Prop40
 90
        0
102
RTVSPost2010PropOp40
 70
     0
102
RTVSPost2010Prop41ColorIndex
 90
       18
102
RTVSPost2010Prop41ColorRGB
 90
        0
102
RTVSPost2010PropOp41
 70
     0
102
RTVSPost2010Prop42
 90
       50
102
RTVSPost2010PropOp42
 70
     0
102
RTVSPost2010Prop43
 90
        3
102
RTVSPost2010PropOp43
 70
     0
102
RTVSPost2010Prop44ColorIndex
 90
        5
102
RTVSPost2010Prop44ColorRGB
 90
      255
102
RTVSPost2010PropOp44
 70
     0
102
RTVSPost2010Prop45
280
     0
102
RTVSPost2010PropOp45
 70
     1
102
RTVSPost2010Prop46
 90
       50
102
RTVSPost2010PropOp46
 70
     0
102
RTVSPost2010Prop47
 90
       50
102
RTVSPost2010PropOp47
 70
     0
102
RTVSPost2010Prop48
 90
       50
102
RTVSPost2010PropOp48
 70
     0
102
RTVSPost2010Prop49
280
     0
102
RTVSPost2010PropOp49
 70
     1
102
RTVSPost2010Prop50
 90
       50
102
RTVSPost2010PropOp50
 70
     0
102
RTVSPost2010Prop51ColorIndex
 90
      256
102
RTVSPost2010Prop51ColorRGB
 90
-16777216
102
RTVSPost2010PropOp51
 70
     0
102
RTVSPost2010Prop52
140
1.0
102
RTVSPost2010PropOp52
 70
     0
102
RTVSPost2010Prop53
 90
        2
102
RTVSPost2010PropOp53
 70
     0
102
RTVSPost2010Prop54
  1
strokes_ogs.tif
102
RTVSPost2010PropOp54
 70
     0
102
RTVSPost2010Prop55
280
     0
102
RTVSPost2010PropOp55
 70
     1
102
RTVSPost2010Prop56
140
1.0
102
RTVSPost2010PropOp56
 70
     0
102
RTVSPost2010Prop57
140
1.0
102
RTVSPost2010PropOp57
 70
     0
102
RTVSPropertyOp0
 70
     0
102
RTVSPropertyOp1
 70
     0
102
RTVSPropertyOp2
 70
     0
102
RTVSPropertyOp3
 70
     0
102
RTVSPropertyOp4
 70
     0
102
RTVSPropertyOp5
 70
     0
102
RTVSPropertyOp6
 70
     0
102
RTVSPropertyOp7
 70
     0
102
RTVSPropertyOp8
 70
     0
102
RTVSPropertyOp9
 70
     0
102
RTVSPropertyOp10
 70
     0
102
RTVSPropertyOp11
 70
     0
102
RTVSPropertyOp12
 70
     0
102
RTVSPropertyOp13
 70
     0
102
RTVSPropertyOp14
 70
     2
102
RTVSPropertyOp15
 70
     0
102
RTVSPropertyOp16
 70
     0
102
RTVSPropertyOp17
 70
     0
102
RTVSPropertyOp18
 70
     0
102
RTVSPropertyOp19
 70
     0
102
RTVSPropertyOp20
 70
     0
102
RTVSPropertyOp21
 70
     0
102
RTVSPropertyOp22
 70
     0
102
RTVSPropertyOp23
 70
     0
102
RTVSPropertyOp24
 70
     0
102
RTVSPropertyOp25
 70
     0
102
RTVSPropertyOp26
 70
     0
102
RTVSPropertyOp27
 70
     0
102
RTVSPropertyOp28
 70
     1
102
RTVSPropertyOp29
 70
     1
102
RTVSPropertyOp30
 70
     1
102
RTVSPropertyOp31
 70
     1
102
RTVSPropertyOp32
 70
     1
102
RTVSPropertyOp33
 70
     1
102
RTVSPropertyOp34
 70
     1
102
RTVSPropertyOp35
 70
     1
102
RTVSPropertyOp36
 70
     1
102
RTVSPropertyOp37
 70
     0
102
RTVSPropertyOp38
 70
     0
102
RTVSPropertyOp39
 70
     0
102
RTVSPropertyOp40
 70
     0
102
RTVSPropertyOp41
 70
     0
102
RTVSPropertyOp42
 70
     0
102
RTVSPropertyOp43
 70
     0
102
RTVSPropertyOp44
 70
     0
102
RTVSPropertyOp45
 70
     1
102
RTVSPropertyOp46
 70
     0
102
RTVSPropertyOp47
 70
     0
102
RTVSPropertyOp48
 70
     0
102
RTVSPropertyOp49
 70
     1
102
RTVSPropertyOp50
 70
     0
102
RTVSPropertyOp51
 70
     0
102
RTVSPropertyOp52
 70
     0
102
RTVSPropertyOp53
 70
     0
102
RTVSPropertyOp54
 70
     0
102
RTVSPropertyOp55
 70
     1
102
RTVSPropertyOp56
 70
     0
102
RTVSPropertyOp57
 70
     0
102
RTVSPropertyOp58
 70
     0
102
RTVSPropertyOp59
 70
     0
102
RTVSPropertyOp60
 70
     0
102
RTVSPropertyOp61
 70
     0
102
RTVSPropertyOp62
 70
     0
  0
XRECORD
  5
D05
102
{ACAD_REACTORS
330
D04
102
}
330
D04
100
AcDbXrecord
280
     1
102
RTVSPost2010Prop28
280
     0
102
RTVSPost2010PropOp28
 70
     1
102
RTVSPost2010Prop29
280
     1
102
RTVSPost2010PropOp29
 70
     1
102
RTVSPost2010Prop30
280
     1
102
RTVSPost2010PropOp30
 70
     1
102
RTVSPost2010Prop31
280
     0
102
RTVSPost2010PropOp31
 70
     1
102
RTVSPost2010Prop32
280
     0
102
RTVSPost2010PropOp32
 70
     1
102
RTVSPost2010Prop33
280
     0
102
RTVSPost2010PropOp33
 70
     1
102
RTVSPost2010Prop34
280
     0
102
RTVSPost2010PropOp34
 70
     1
102
RTVSPost2010Prop35
280
     0
102
RTVSPost2010PropOp35
 70
     1
102
RTVSPost2010Prop36
280
     0
102
RTVSPost2010PropOp36
 70
     1
102
RTVSPost2010Prop37
 90
       50
102
RTVSPost2010PropOp37
 70
     1
102
RTVSPost2010Prop38
140
0.0
102
RTVSPost2010PropOp38
 70
     1
102
RTVSPost2010Prop39
140
1.0
102
RTVSPost2010PropOp39
 70
     1
102
RTVSPost2010Prop40
 90
        0
102
RTVSPost2010PropOp40
 70
     1
102
RTVSPost2010Prop41ColorIndex
 90
       18
102
RTVSPost2010Prop41ColorRGB
 90
        0
102
RTVSPost2010PropOp41
 70
     1
102
RTVSPost2010Prop42
 90
       50
102
RTVSPost2010PropOp42
 70
     1
102
RTVSPost2010Prop43
 90
        3
102
RTVSPost2010PropOp43
 70
     1
102
RTVSPost2010Prop44ColorIndex
 90
        5
102
RTVSPost2010Prop44ColorRGB
 90
      255
102
RTVSPost2010PropOp44
 70
     1
102
RTVSPost2010Prop45
280
     0
102
RTVSPost2010PropOp45
 70
     1
102
RTVSPost2010Prop46
 90
       50
102
RTVSPost2010PropOp46
 70
     1
102
RTVSPost2010Prop47
 90
       50
102
RTVSPost2010PropOp47
 70
     1
102
RTVSPost2010Prop48
 90
       50
102
RTVSPost2010PropOp48
 70
     1
102
RTVSPost2010Prop49
280
     0
102
RTVSPost2010PropOp49
 70
     1
102
RTVSPost2010Prop50
 90
       50
102
RTVSPost2010PropOp50
 70
     1
102
RTVSPost2010Prop51ColorIndex
 90
      256
102
RTVSPost2010Prop51ColorRGB
 90
-16777216
102
RTVSPost2010PropOp51
 70
     0
102
RTVSPost2010Prop52
140
1.0
102
RTVSPost2010PropOp52
 70
     0
102
RTVSPost2010Prop53
 90
        2
102
RTVSPost2010PropOp53
 70
     1
102
RTVSPost2010Prop54
  1
strokes_ogs.tif
102
RTVSPost2010PropOp54
 70
     1
102
RTVSPost2010Prop55
280
     0
102
RTVSPost2010PropOp55
 70
     1
102
RTVSPost2010Prop56
140
1.0
102
RTVSPost2010PropOp56
 70
     1
102
RTVSPost2010Prop57
140
1.0
102
RTVSPost2010PropOp57
 70
     1
102
RTVSPropertyOp0
 70
     1
102
RTVSPropertyOp1
 70
     1
102
RTVSPropertyOp2
 70
     1
102
RTVSPropertyOp3
 70
     1
102
RTVSPropertyOp4
 70
     1
102
RTVSPropertyOp5
 70
     1
102
RTVSPropertyOp6
 70
     1
102
RTVSPropertyOp7
 70
     1
102
RTVSPropertyOp8
 70
     1
102
RTVSPropertyOp9
 70
     1
102
RTVSPropertyOp10
 70
     1
102
RTVSPropertyOp11
 70
     1
102
RTVSPropertyOp12
 70
     1
102
RTVSPropertyOp13
 70
     1
102
RTVSPropertyOp14
 70
     1
102
RTVSPropertyOp15
 70
     1
102
RTVSPropertyOp16
 70
     1
102
RTVSPropertyOp17
 70
     1
102
RTVSPropertyOp18
 70
     1
102
RTVSPropertyOp19
 70
     1
102
RTVSPropertyOp20
 70
     1
102
RTVSPropertyOp21
 70
     1
102
RTVSPropertyOp22
 70
     1
102
RTVSPropertyOp23
 70
     1
102
RTVSPropertyOp24
 70
     1
102
RTVSPropertyOp25
 70
     1
102
RTVSPropertyOp26
 70
     1
102
RTVSPropertyOp27
 70
     1
102
RTVSPropertyOp28
 70
     1
102
RTVSPropertyOp29
 70
     1
102
RTVSPropertyOp30
 70
     1
102
RTVSPropertyOp31
 70
     1
102
RTVSPropertyOp32
 70
     1
102
RTVSPropertyOp33
 70
     1
102
RTVSPropertyOp34
 70
     1
102
RTVSPropertyOp35
 70
     1
102
RTVSPropertyOp36
 70
     1
102
RTVSPropertyOp37
 70
     1
102
RTVSPropertyOp38
 70
     1
102
RTVSPropertyOp39
 70
     1
102
RTVSPropertyOp40
 70
     1
102
RTVSPropertyOp41
 70
     1
102
RTVSPropertyOp42
 70
     1
102
RTVSPropertyOp43
 70
     1
102
RTVSPropertyOp44
 70
     1
102
RTVSPropertyOp45
 70
     1
102
RTVSPropertyOp46
 70
     1
102
RTVSPropertyOp47
 70
     1
102
RTVSPropertyOp48
 70
     1
102
RTVSPropertyOp49
 70
     1
102
RTVSPropertyOp50
 70
     1
102
RTVSPropertyOp51
 70
     0
102
RTVSPropertyOp52
 70
     0
102
RTVSPropertyOp53
 70
     1
102
RTVSPropertyOp54
 70
     1
102
RTVSPropertyOp55
 70
     1
102
RTVSPropertyOp56
 70
     1
102
RTVSPropertyOp57
 70
     1
102
RTVSPropertyOp58
 70
     1
102
RTVSPropertyOp59
 70
     1
102
RTVSPropertyOp60
 70
     1
102
RTVSPropertyOp61
 70
     1
102
RTVSPropertyOp62
 70
     1
  0
XRECORD
  5
D1B
102
{ACAD_REACTORS
330
D1A
102
}
330
D1A
100
AcDbXrecord
280
     1
102
RTVSPost2010Prop28
280
     0
102
RTVSPost2010PropOp28
 70
     1
102
RTVSPost2010Prop29
280
     1
102
RTVSPost2010PropOp29
 70
     1
102
RTVSPost2010Prop30
280
     1
102
RTVSPost2010PropOp30
 70
     1
102
RTVSPost2010Prop31
280
     0
102
RTVSPost2010PropOp31
 70
     1
102
RTVSPost2010Prop32
280
     0
102
RTVSPost2010PropOp32
 70
     1
102
RTVSPost2010Prop33
280
     0
102
RTVSPost2010PropOp33
 70
     1
102
RTVSPost2010Prop34
280
     0
102
RTVSPost2010PropOp34
 70
     1
102
RTVSPost2010Prop35
280
     0
102
RTVSPost2010PropOp35
 70
     1
102
RTVSPost2010Prop36
280
     0
102
RTVSPost2010PropOp36
 70
     1
102
RTVSPost2010Prop37
 90
       50
102
RTVSPost2010PropOp37
 70
     1
102
RTVSPost2010Prop38
140
0.0
102
RTVSPost2010PropOp38
 70
     1
102
RTVSPost2010Prop39
140
1.0
102
RTVSPost2010PropOp39
 70
     1
102
RTVSPost2010Prop40
 90
        0
102
RTVSPost2010PropOp40
 70
     1
102
RTVSPost2010Prop41ColorIndex
 90
       18
102
RTVSPost2010Prop41ColorRGB
 90
        0
102
RTVSPost2010PropOp41
 70
     1
102
RTVSPost2010Prop42
 90
       50
102
RTVSPost2010PropOp42
 70
     1
102
RTVSPost2010Prop43
 90
        3
102
RTVSPost2010PropOp43
 70
     1
102
RTVSPost2010Prop44ColorIndex
 90
        5
102
RTVSPost2010Prop44ColorRGB
 90
      255
102
RTVSPost2010PropOp44
 70
     1
102
RTVSPost2010Prop45
280
     0
102
RTVSPost2010PropOp45
 70
     1
102
RTVSPost2010Prop46
 90
       50
102
RTVSPost2010PropOp46
 70
     1
102
RTVSPost2010Prop47
 90
       50
102
RTVSPost2010PropOp47
 70
     1
102
RTVSPost2010Prop48
 90
       50
102
RTVSPost2010PropOp48
 70
     1
102
RTVSPost2010Prop49
280
     0
102
RTVSPost2010PropOp49
 70
     1
102
RTVSPost2010Prop50
 90
       50
102
RTVSPost2010PropOp50
 70
     1
102
RTVSPost2010Prop51ColorIndex
 90
      256
102
RTVSPost2010Prop51ColorRGB
 90
-16777216
102
RTVSPost2010PropOp51
 70
     0
102
RTVSPost2010Prop52
140
1.0
102
RTVSPost2010PropOp52
 70
     0
102
RTVSPost2010Prop53
 90
        2
102
RTVSPost2010PropOp53
 70
     1
102
RTVSPost2010Prop54
  1
strokes_ogs.tif
102
RTVSPost2010PropOp54
 70
     1
102
RTVSPost2010Prop55
280
     0
102
RTVSPost2010PropOp55
 70
     1
102
RTVSPost2010Prop56
140
1.0
102
RTVSPost2010PropOp56
 70
     1
102
RTVSPost2010Prop57
140
1.0
102
RTVSPost2010PropOp57
 70
     1
102
RTVSPropertyOp0
 70
     1
102
RTVSPropertyOp1
 70
     1
102
RTVSPropertyOp2
 70
     1
102
RTVSPropertyOp3
 70
     1
102
RTVSPropertyOp4
 70
     1
102
RTVSPropertyOp5
 70
     1
102
RTVSPropertyOp6
 70
     1
102
RTVSPropertyOp7
 70
     1
102
RTVSPropertyOp8
 70
     1
102
RTVSPropertyOp9
 70
     1
102
RTVSPropertyOp10
 70
     1
102
RTVSPropertyOp11
 70
     1
102
RTVSPropertyOp12
 70
     1
102
RTVSPropertyOp13
 70
     1
102
RTVSPropertyOp14
 70
     1
102
RTVSPropertyOp15
 70
     1
102
RTVSPropertyOp16
 70
     1
102
RTVSPropertyOp17
 70
     1
102
RTVSPropertyOp18
 70
     1
102
RTVSPropertyOp19
 70
     1
102
RTVSPropertyOp20
 70
     1
102
RTVSPropertyOp21
 70
     1
102
RTVSPropertyOp22
 70
     1
102
RTVSPropertyOp23
 70
     1
102
RTVSPropertyOp24
 70
     1
102
RTVSPropertyOp25
 70
     1
102
RTVSPropertyOp26
 70
     1
102
RTVSPropertyOp27
 70
     1
102
RTVSPropertyOp28
 70
     1
102
RTVSPropertyOp29
 70
     1
102
RTVSPropertyOp30
 70
     1
102
RTVSPropertyOp31
 70
     1
102
RTVSPropertyOp32
 70
     1
102
RTVSPropertyOp33
 70
     1
102
RTVSPropertyOp34
 70
     1
102
RTVSPropertyOp35
 70
     1
102
RTVSPropertyOp36
 70
     1
102
RTVSPropertyOp37
 70
     1
102
RTVSPropertyOp38
 70
     1
102
RTVSPropertyOp39
 70
     1
102
RTVSPropertyOp40
 70
     1
102
RTVSPropertyOp41
 70
     1
102
RTVSPropertyOp42
 70
     1
102
RTVSPropertyOp43
 70
     1
102
RTVSPropertyOp44
 70
     1
102
RTVSPropertyOp45
 70
     1
102
RTVSPropertyOp46
 70
     1
102
RTVSPropertyOp47
 70
     1
102
RTVSPropertyOp48
 70
     1
102
RTVSPropertyOp49
 70
     1
102
RTVSPropertyOp50
 70
     1
102
RTVSPropertyOp51
 70
     0
102
RTVSPropertyOp52
 70
     0
102
RTVSPropertyOp53
 70
     1
102
RTVSPropertyOp54
 70
     1
102
RTVSPropertyOp55
 70
     1
102
RTVSPropertyOp56
 70
     1
102
RTVSPropertyOp57
 70
     1
102
RTVSPropertyOp58
 70
     1
102
RTVSPropertyOp59
 70
     1
102
RTVSPropertyOp60
 70
     1
102
RTVSPropertyOp61
 70
     1
102
RTVSPropertyOp62
 70
     1
  0
XRECORD
  5
D19
102
{ACAD_REACTORS
330
D18
102
}
330
D18
100
AcDbXrecord
280
     1
102
RTVSPost2010Prop28
280
     0
102
RTVSPost2010PropOp28
 70
     1
102
RTVSPost2010Prop29
280
     1
102
RTVSPost2010PropOp29
 70
     1
102
RTVSPost2010Prop30
280
     1
102
RTVSPost2010PropOp30
 70
     1
102
RTVSPost2010Prop31
280
     0
102
RTVSPost2010PropOp31
 70
     1
102
RTVSPost2010Prop32
280
     0
102
RTVSPost2010PropOp32
 70
     1
102
RTVSPost2010Prop33
280
     0
102
RTVSPost2010PropOp33
 70
     1
102
RTVSPost2010Prop34
280
     0
102
RTVSPost2010PropOp34
 70
     1
102
RTVSPost2010Prop35
280
     0
102
RTVSPost2010PropOp35
 70
     1
102
RTVSPost2010Prop36
280
     0
102
RTVSPost2010PropOp36
 70
     1
102
RTVSPost2010Prop37
 90
       50
102
RTVSPost2010PropOp37
 70
     1
102
RTVSPost2010Prop38
140
0.0
102
RTVSPost2010PropOp38
 70
     1
102
RTVSPost2010Prop39
140
1.0
102
RTVSPost2010PropOp39
 70
     1
102
RTVSPost2010Prop40
 90
        0
102
RTVSPost2010PropOp40
 70
     1
102
RTVSPost2010Prop41ColorIndex
 90
       18
102
RTVSPost2010Prop41ColorRGB
 90
        0
102
RTVSPost2010PropOp41
 70
     1
102
RTVSPost2010Prop42
 90
       50
102
RTVSPost2010PropOp42
 70
     1
102
RTVSPost2010Prop43
 90
        3
102
RTVSPost2010PropOp43
 70
     1
102
RTVSPost2010Prop44ColorIndex
 90
        5
102
RTVSPost2010Prop44ColorRGB
 90
      255
102
RTVSPost2010PropOp44
 70
     1
102
RTVSPost2010Prop45
280
     0
102
RTVSPost2010PropOp45
 70
     1
102
RTVSPost2010Prop46
 90
       50
102
RTVSPost2010PropOp46
 70
     1
102
RTVSPost2010Prop47
 90
       50
102
RTVSPost2010PropOp47
 70
     1
102
RTVSPost2010Prop48
 90
       50
102
RTVSPost2010PropOp48
 70
     1
102
RTVSPost2010Prop49
280
     0
102
RTVSPost2010PropOp49
 70
     1
102
RTVSPost2010Prop50
 90
       50
102
RTVSPost2010PropOp50
 70
     1
102
RTVSPost2010Prop51ColorIndex
 90
      256
102
RTVSPost2010Prop51ColorRGB
 90
-16777216
102
RTVSPost2010PropOp51
 70
     0
102
RTVSPost2010Prop52
140
1.0
102
RTVSPost2010PropOp52
 70
     0
102
RTVSPost2010Prop53
 90
        2
102
RTVSPost2010PropOp53
 70
     1
102
RTVSPost2010Prop54
  1
strokes_ogs.tif
102
RTVSPost2010PropOp54
 70
     1
102
RTVSPost2010Prop55
280
     0
102
RTVSPost2010PropOp55
 70
     1
102
RTVSPost2010Prop56
140
1.0
102
RTVSPost2010PropOp56
 70
     1
102
RTVSPost2010Prop57
140
1.0
102
RTVSPost2010PropOp57
 70
     1
102
RTVSPropertyOp0
 70
     1
102
RTVSPropertyOp1
 70
     1
102
RTVSPropertyOp2
 70
     1
102
RTVSPropertyOp3
 70
     1
102
RTVSPropertyOp4
 70
     1
102
RTVSPropertyOp5
 70
     1
102
RTVSPropertyOp6
 70
     1
102
RTVSPropertyOp7
 70
     1
102
RTVSPropertyOp8
 70
     1
102
RTVSPropertyOp9
 70
     1
102
RTVSPropertyOp10
 70
     1
102
RTVSPropertyOp11
 70
     1
102
RTVSPropertyOp12
 70
     1
102
RTVSPropertyOp13
 70
     1
102
RTVSPropertyOp14
 70
     1
102
RTVSPropertyOp15
 70
     1
102
RTVSPropertyOp16
 70
     1
102
RTVSPropertyOp17
 70
     1
102
RTVSPropertyOp18
 70
     1
102
RTVSPropertyOp19
 70
     1
102
RTVSPropertyOp20
 70
     1
102
RTVSPropertyOp21
 70
     1
102
RTVSPropertyOp22
 70
     1
102
RTVSPropertyOp23
 70
     1
102
RTVSPropertyOp24
 70
     1
102
RTVSPropertyOp25
 70
     1
102
RTVSPropertyOp26
 70
     1
102
RTVSPropertyOp27
 70
     1
102
RTVSPropertyOp28
 70
     1
102
RTVSPropertyOp29
 70
     1
102
RTVSPropertyOp30
 70
     1
102
RTVSPropertyOp31
 70
     1
102
RTVSPropertyOp32
 70
     1
102
RTVSPropertyOp33
 70
     1
102
RTVSPropertyOp34
 70
     1
102
RTVSPropertyOp35
 70
     1
102
RTVSPropertyOp36
 70
     1
102
RTVSPropertyOp37
 70
     1
102
RTVSPropertyOp38
 70
     1
102
RTVSPropertyOp39
 70
     1
102
RTVSPropertyOp40
 70
     1
102
RTVSPropertyOp41
 70
     1
102
RTVSPropertyOp42
 70
     1
102
RTVSPropertyOp43
 70
     1
102
RTVSPropertyOp44
 70
     1
102
RTVSPropertyOp45
 70
     1
102
RTVSPropertyOp46
 70
     1
102
RTVSPropertyOp47
 70
     1
102
RTVSPropertyOp48
 70
     1
102
RTVSPropertyOp49
 70
     1
102
RTVSPropertyOp50
 70
     1
102
RTVSPropertyOp51
 70
     0
102
RTVSPropertyOp52
 70
     0
102
RTVSPropertyOp53
 70
     1
102
RTVSPropertyOp54
 70
     1
102
RTVSPropertyOp55
 70
     1
102
RTVSPropertyOp56
 70
     1
102
RTVSPropertyOp57
 70
     1
102
RTVSPropertyOp58
 70
     1
102
RTVSPropertyOp59
 70
     1
102
RTVSPropertyOp60
 70
     1
102
RTVSPropertyOp61
 70
     1
102
RTVSPropertyOp62
 70
     1
  0
XRECORD
  5
D13
102
{ACAD_REACTORS
330
D12
102
}
330
D12
100
AcDbXrecord
280
     1
102
RTVSPost2010Prop28
280
     0
102
RTVSPost2010PropOp28
 70
     1
102
RTVSPost2010Prop29
280
     1
102
RTVSPost2010PropOp29
 70
     1
102
RTVSPost2010Prop30
280
     1
102
RTVSPost2010PropOp30
 70
     1
102
RTVSPost2010Prop31
280
     0
102
RTVSPost2010PropOp31
 70
     1
102
RTVSPost2010Prop32
280
     0
102
RTVSPost2010PropOp32
 70
     1
102
RTVSPost2010Prop33
280
     0
102
RTVSPost2010PropOp33
 70
     1
102
RTVSPost2010Prop34
280
     0
102
RTVSPost2010PropOp34
 70
     1
102
RTVSPost2010Prop35
280
     0
102
RTVSPost2010PropOp35
 70
     1
102
RTVSPost2010Prop36
280
     0
102
RTVSPost2010PropOp36
 70
     1
102
RTVSPost2010Prop37
 90
       50
102
RTVSPost2010PropOp37
 70
     1
102
RTVSPost2010Prop38
140
0.0
102
RTVSPost2010PropOp38
 70
     1
102
RTVSPost2010Prop39
140
1.0
102
RTVSPost2010PropOp39
 70
     1
102
RTVSPost2010Prop40
 90
        0
102
RTVSPost2010PropOp40
 70
     1
102
RTVSPost2010Prop41ColorIndex
 90
       18
102
RTVSPost2010Prop41ColorRGB
 90
        0
102
RTVSPost2010PropOp41
 70
     1
102
RTVSPost2010Prop42
 90
       50
102
RTVSPost2010PropOp42
 70
     1
102
RTVSPost2010Prop43
 90
        3
102
RTVSPost2010PropOp43
 70
     1
102
RTVSPost2010Prop44ColorIndex
 90
        5
102
RTVSPost2010Prop44ColorRGB
 90
      255
102
RTVSPost2010PropOp44
 70
     1
102
RTVSPost2010Prop45
280
     0
102
RTVSPost2010PropOp45
 70
     1
102
RTVSPost2010Prop46
 90
       50
102
RTVSPost2010PropOp46
 70
     1
102
RTVSPost2010Prop47
 90
       50
102
RTVSPost2010PropOp47
 70
     1
102
RTVSPost2010Prop48
 90
       50
102
RTVSPost2010PropOp48
 70
     1
102
RTVSPost2010Prop49
280
     0
102
RTVSPost2010PropOp49
 70
     1
102
RTVSPost2010Prop50
 90
       50
102
RTVSPost2010PropOp50
 70
     1
102
RTVSPost2010Prop51ColorIndex
 90
      256
102
RTVSPost2010Prop51ColorRGB
 90
-16777216
102
RTVSPost2010PropOp51
 70
     0
102
RTVSPost2010Prop52
140
1.0
102
RTVSPost2010PropOp52
 70
     0
102
RTVSPost2010Prop53
 90
        2
102
RTVSPost2010PropOp53
 70
     1
102
RTVSPost2010Prop54
  1
strokes_ogs.tif
102
RTVSPost2010PropOp54
 70
     1
102
RTVSPost2010Prop55
280
     0
102
RTVSPost2010PropOp55
 70
     1
102
RTVSPost2010Prop56
140
1.0
102
RTVSPost2010PropOp56
 70
     1
102
RTVSPost2010Prop57
140
1.0
102
RTVSPost2010PropOp57
 70
     1
102
RTVSPropertyOp0
 70
     1
102
RTVSPropertyOp1
 70
     1
102
RTVSPropertyOp2
 70
     1
102
RTVSPropertyOp3
 70
     1
102
RTVSPropertyOp4
 70
     1
102
RTVSPropertyOp5
 70
     1
102
RTVSPropertyOp6
 70
     1
102
RTVSPropertyOp7
 70
     1
102
RTVSPropertyOp8
 70
     1
102
RTVSPropertyOp9
 70
     1
102
RTVSPropertyOp10
 70
     1
102
RTVSPropertyOp11
 70
     1
102
RTVSPropertyOp12
 70
     1
102
RTVSPropertyOp13
 70
     1
102
RTVSPropertyOp14
 70
     1
102
RTVSPropertyOp15
 70
     1
102
RTVSPropertyOp16
 70
     1
102
RTVSPropertyOp17
 70
     1
102
RTVSPropertyOp18
 70
     1
102
RTVSPropertyOp19
 70
     1
102
RTVSPropertyOp20
 70
     1
102
RTVSPropertyOp21
 70
     1
102
RTVSPropertyOp22
 70
     1
102
RTVSPropertyOp23
 70
     1
102
RTVSPropertyOp24
 70
     1
102
RTVSPropertyOp25
 70
     1
102
RTVSPropertyOp26
 70
     1
102
RTVSPropertyOp27
 70
     1
102
RTVSPropertyOp28
 70
     1
102
RTVSPropertyOp29
 70
     1
102
RTVSPropertyOp30
 70
     1
102
RTVSPropertyOp31
 70
     1
102
RTVSPropertyOp32
 70
     1
102
RTVSPropertyOp33
 70
     1
102
RTVSPropertyOp34
 70
     1
102
RTVSPropertyOp35
 70
     1
102
RTVSPropertyOp36
 70
     1
102
RTVSPropertyOp37
 70
     1
102
RTVSPropertyOp38
 70
     1
102
RTVSPropertyOp39
 70
     1
102
RTVSPropertyOp40
 70
     1
102
RTVSPropertyOp41
 70
     1
102
RTVSPropertyOp42
 70
     1
102
RTVSPropertyOp43
 70
     1
102
RTVSPropertyOp44
 70
     1
102
RTVSPropertyOp45
 70
     1
102
RTVSPropertyOp46
 70
     1
102
RTVSPropertyOp47
 70
     1
102
RTVSPropertyOp48
 70
     1
102
RTVSPropertyOp49
 70
     1
102
RTVSPropertyOp50
 70
     1
102
RTVSPropertyOp51
 70
     0
102
RTVSPropertyOp52
 70
     0
102
RTVSPropertyOp53
 70
     1
102
RTVSPropertyOp54
 70
     1
102
RTVSPropertyOp55
 70
     1
102
RTVSPropertyOp56
 70
     1
102
RTVSPropertyOp57
 70
     1
102
RTVSPropertyOp58
 70
     1
102
RTVSPropertyOp59
 70
     1
102
RTVSPropertyOp60
 70
     1
102
RTVSPropertyOp61
 70
     1
102
RTVSPropertyOp62
 70
     1
  0
XRECORD
  5
D15
102
{ACAD_REACTORS
330
D14
102
}
330
D14
100
AcDbXrecord
280
     1
102
RTVSPost2010Prop28
280
     0
102
RTVSPost2010PropOp28
 70
     1
102
RTVSPost2010Prop29
280
     1
102
RTVSPost2010PropOp29
 70
     1
102
RTVSPost2010Prop30
280
     1
102
RTVSPost2010PropOp30
 70
     1
102
RTVSPost2010Prop31
280
     0
102
RTVSPost2010PropOp31
 70
     1
102
RTVSPost2010Prop32
280
     0
102
RTVSPost2010PropOp32
 70
     1
102
RTVSPost2010Prop33
280
     0
102
RTVSPost2010PropOp33
 70
     1
102
RTVSPost2010Prop34
280
     0
102
RTVSPost2010PropOp34
 70
     1
102
RTVSPost2010Prop35
280
     0
102
RTVSPost2010PropOp35
 70
     1
102
RTVSPost2010Prop36
280
     0
102
RTVSPost2010PropOp36
 70
     1
102
RTVSPost2010Prop37
 90
       50
102
RTVSPost2010PropOp37
 70
     1
102
RTVSPost2010Prop38
140
0.0
102
RTVSPost2010PropOp38
 70
     1
102
RTVSPost2010Prop39
140
1.0
102
RTVSPost2010PropOp39
 70
     1
102
RTVSPost2010Prop40
 90
        0
102
RTVSPost2010PropOp40
 70
     1
102
RTVSPost2010Prop41ColorIndex
 90
       18
102
RTVSPost2010Prop41ColorRGB
 90
        0
102
RTVSPost2010PropOp41
 70
     1
102
RTVSPost2010Prop42
 90
       50
102
RTVSPost2010PropOp42
 70
     1
102
RTVSPost2010Prop43
 90
        3
102
RTVSPost2010PropOp43
 70
     1
102
RTVSPost2010Prop44ColorIndex
 90
        5
102
RTVSPost2010Prop44ColorRGB
 90
      255
102
RTVSPost2010PropOp44
 70
     1
102
RTVSPost2010Prop45
280
     0
102
RTVSPost2010PropOp45
 70
     1
102
RTVSPost2010Prop46
 90
       50
102
RTVSPost2010PropOp46
 70
     1
102
RTVSPost2010Prop47
 90
       50
102
RTVSPost2010PropOp47
 70
     1
102
RTVSPost2010Prop48
 90
       50
102
RTVSPost2010PropOp48
 70
     1
102
RTVSPost2010Prop49
280
     0
102
RTVSPost2010PropOp49
 70
     1
102
RTVSPost2010Prop50
 90
       50
102
RTVSPost2010PropOp50
 70
     1
102
RTVSPost2010Prop51ColorIndex
 90
      256
102
RTVSPost2010Prop51ColorRGB
 90
-16777216
102
RTVSPost2010PropOp51
 70
     0
102
RTVSPost2010Prop52
140
1.0
102
RTVSPost2010PropOp52
 70
     0
102
RTVSPost2010Prop53
 90
        2
102
RTVSPost2010PropOp53
 70
     1
102
RTVSPost2010Prop54
  1
strokes_ogs.tif
102
RTVSPost2010PropOp54
 70
     1
102
RTVSPost2010Prop55
280
     0
102
RTVSPost2010PropOp55
 70
     1
102
RTVSPost2010Prop56
140
1.0
102
RTVSPost2010PropOp56
 70
     1
102
RTVSPost2010Prop57
140
1.0
102
RTVSPost2010PropOp57
 70
     1
102
RTVSPropertyOp0
 70
     1
102
RTVSPropertyOp1
 70
     1
102
RTVSPropertyOp2
 70
     1
102
RTVSPropertyOp3
 70
     1
102
RTVSPropertyOp4
 70
     1
102
RTVSPropertyOp5
 70
     1
102
RTVSPropertyOp6
 70
     1
102
RTVSPropertyOp7
 70
     1
102
RTVSPropertyOp8
 70
     1
102
RTVSPropertyOp9
 70
     1
102
RTVSPropertyOp10
 70
     1
102
RTVSPropertyOp11
 70
     1
102
RTVSPropertyOp12
 70
     1
102
RTVSPropertyOp13
 70
     1
102
RTVSPropertyOp14
 70
     1
102
RTVSPropertyOp15
 70
     1
102
RTVSPropertyOp16
 70
     1
102
RTVSPropertyOp17
 70
     1
102
RTVSPropertyOp18
 70
     1
102
RTVSPropertyOp19
 70
     1
102
RTVSPropertyOp20
 70
     1
102
RTVSPropertyOp21
 70
     1
102
RTVSPropertyOp22
 70
     1
102
RTVSPropertyOp23
 70
     1
102
RTVSPropertyOp24
 70
     1
102
RTVSPropertyOp25
 70
     1
102
RTVSPropertyOp26
 70
     1
102
RTVSPropertyOp27
 70
     1
102
RTVSPropertyOp28
 70
     1
102
RTVSPropertyOp29
 70
     1
102
RTVSPropertyOp30
 70
     1
102
RTVSPropertyOp31
 70
     1
102
RTVSPropertyOp32
 70
     1
102
RTVSPropertyOp33
 70
     1
102
RTVSPropertyOp34
 70
     1
102
RTVSPropertyOp35
 70
     1
102
RTVSPropertyOp36
 70
     1
102
RTVSPropertyOp37
 70
     1
102
RTVSPropertyOp38
 70
     1
102
RTVSPropertyOp39
 70
     1
102
RTVSPropertyOp40
 70
     1
102
RTVSPropertyOp41
 70
     1
102
RTVSPropertyOp42
 70
     1
102
RTVSPropertyOp43
 70
     1
102
RTVSPropertyOp44
 70
     1
102
RTVSPropertyOp45
 70
     1
102
RTVSPropertyOp46
 70
     1
102
RTVSPropertyOp47
 70
     1
102
RTVSPropertyOp48
 70
     1
102
RTVSPropertyOp49
 70
     1
102
RTVSPropertyOp50
 70
     1
102
RTVSPropertyOp51
 70
     0
102
RTVSPropertyOp52
 70
     0
102
RTVSPropertyOp53
 70
     1
102
RTVSPropertyOp54
 70
     1
102
RTVSPropertyOp55
 70
     1
102
RTVSPropertyOp56
 70
     1
102
RTVSPropertyOp57
 70
     1
102
RTVSPropertyOp58
 70
     1
102
RTVSPropertyOp59
 70
     1
102
RTVSPropertyOp60
 70
     1
102
RTVSPropertyOp61
 70
     1
102
RTVSPropertyOp62
 70
     1
  0
XRECORD
  5
D0B
102
{ACAD_REACTORS
330
D0A
102
}
330
D0A
100
AcDbXrecord
280
     1
102
RTVSPost2010Prop28
280
     0
102
RTVSPost2010PropOp28
 70
     1
102
RTVSPost2010Prop29
280
     1
102
RTVSPost2010PropOp29
 70
     1
102
RTVSPost2010Prop30
280
     1
102
RTVSPost2010PropOp30
 70
     1
102
RTVSPost2010Prop31
280
     0
102
RTVSPost2010PropOp31
 70
     1
102
RTVSPost2010Prop32
280
     0
102
RTVSPost2010PropOp32
 70
     1
102
RTVSPost2010Prop33
280
     0
102
RTVSPost2010PropOp33
 70
     1
102
RTVSPost2010Prop34
280
     0
102
RTVSPost2010PropOp34
 70
     1
102
RTVSPost2010Prop35
280
     0
102
RTVSPost2010PropOp35
 70
     1
102
RTVSPost2010Prop36
280
     0
102
RTVSPost2010PropOp36
 70
     1
102
RTVSPost2010Prop37
 90
       50
102
RTVSPost2010PropOp37
 70
     1
102
RTVSPost2010Prop38
140
0.0
102
RTVSPost2010PropOp38
 70
     1
102
RTVSPost2010Prop39
140
1.0
102
RTVSPost2010PropOp39
 70
     1
102
RTVSPost2010Prop40
 90
        0
102
RTVSPost2010PropOp40
 70
     1
102
RTVSPost2010Prop41ColorIndex
 90
       18
102
RTVSPost2010Prop41ColorRGB
 90
        0
102
RTVSPost2010PropOp41
 70
     1
102
RTVSPost2010Prop42
 90
       50
102
RTVSPost2010PropOp42
 70
     1
102
RTVSPost2010Prop43
 90
        3
102
RTVSPost2010PropOp43
 70
     1
102
RTVSPost2010Prop44ColorIndex
 90
        5
102
RTVSPost2010Prop44ColorRGB
 90
      255
102
RTVSPost2010PropOp44
 70
     1
102
RTVSPost2010Prop45
280
     0
102
RTVSPost2010PropOp45
 70
     1
102
RTVSPost2010Prop46
 90
       50
102
RTVSPost2010PropOp46
 70
     1
102
RTVSPost2010Prop47
 90
       50
102
RTVSPost2010PropOp47
 70
     1
102
RTVSPost2010Prop48
 90
       50
102
RTVSPost2010PropOp48
 70
     1
102
RTVSPost2010Prop49
280
     0
102
RTVSPost2010PropOp49
 70
     1
102
RTVSPost2010Prop50
 90
       50
102
RTVSPost2010PropOp50
 70
     1
102
RTVSPost2010Prop51ColorIndex
 90
      256
102
RTVSPost2010Prop51ColorRGB
 90
-16777216
102
RTVSPost2010PropOp51
 70
     0
102
RTVSPost2010Prop52
140
1.0
102
RTVSPost2010PropOp52
 70
     0
102
RTVSPost2010Prop53
 90
        2
102
RTVSPost2010PropOp53
 70
     1
102
RTVSPost2010Prop54
  1
strokes_ogs.tif
102
RTVSPost2010PropOp54
 70
     1
102
RTVSPost2010Prop55
280
     0
102
RTVSPost2010PropOp55
 70
     1
102
RTVSPost2010Prop56
140
1.0
102
RTVSPost2010PropOp56
 70
     1
102
RTVSPost2010Prop57
140
1.0
102
RTVSPost2010PropOp57
 70
     1
102
RTVSPropertyOp0
 70
     1
102
RTVSPropertyOp1
 70
     1
102
RTVSPropertyOp2
 70
     1
102
RTVSPropertyOp3
 70
     1
102
RTVSPropertyOp4
 70
     1
102
RTVSPropertyOp5
 70
     1
102
RTVSPropertyOp6
 70
     1
102
RTVSPropertyOp7
 70
     1
102
RTVSPropertyOp8
 70
     1
102
RTVSPropertyOp9
 70
     1
102
RTVSPropertyOp10
 70
     1
102
RTVSPropertyOp11
 70
     1
102
RTVSPropertyOp12
 70
     1
102
RTVSPropertyOp13
 70
     1
102
RTVSPropertyOp14
 70
     1
102
RTVSPropertyOp15
 70
     1
102
RTVSPropertyOp16
 70
     1
102
RTVSPropertyOp17
 70
     1
102
RTVSPropertyOp18
 70
     1
102
RTVSPropertyOp19
 70
     1
102
RTVSPropertyOp20
 70
     1
102
RTVSPropertyOp21
 70
     1
102
RTVSPropertyOp22
 70
     1
102
RTVSPropertyOp23
 70
     1
102
RTVSPropertyOp24
 70
     1
102
RTVSPropertyOp25
 70
     1
102
RTVSPropertyOp26
 70
     1
102
RTVSPropertyOp27
 70
     1
102
RTVSPropertyOp28
 70
     1
102
RTVSPropertyOp29
 70
     1
102
RTVSPropertyOp30
 70
     1
102
RTVSPropertyOp31
 70
     1
102
RTVSPropertyOp32
 70
     1
102
RTVSPropertyOp33
 70
     1
102
RTVSPropertyOp34
 70
     1
102
RTVSPropertyOp35
 70
     1
102
RTVSPropertyOp36
 70
     1
102
RTVSPropertyOp37
 70
     1
102
RTVSPropertyOp38
 70
     1
102
RTVSPropertyOp39
 70
     1
102
RTVSPropertyOp40
 70
     1
102
RTVSPropertyOp41
 70
     1
102
RTVSPropertyOp42
 70
     1
102
RTVSPropertyOp43
 70
     1
102
RTVSPropertyOp44
 70
     1
102
RTVSPropertyOp45
 70
     1
102
RTVSPropertyOp46
 70
     1
102
RTVSPropertyOp47
 70
     1
102
RTVSPropertyOp48
 70
     1
102
RTVSPropertyOp49
 70
     1
102
RTVSPropertyOp50
 70
     1
102
RTVSPropertyOp51
 70
     0
102
RTVSPropertyOp52
 70
     0
102
RTVSPropertyOp53
 70
     1
102
RTVSPropertyOp54
 70
     1
102
RTVSPropertyOp55
 70
     1
102
RTVSPropertyOp56
 70
     1
102
RTVSPropertyOp57
 70
     1
102
RTVSPropertyOp58
 70
     1
102
RTVSPropertyOp59
 70
     1
102
RTVSPropertyOp60
 70
     1
102
RTVSPropertyOp61
 70
     1
102
RTVSPropertyOp62
 70
     1
  0
XRECORD
  5
CFF
102
{ACAD_REACTORS
330
CFE
102
}
330
CFE
100
AcDbXrecord
280
     1
102
RTVSPost2010Prop28
280
     0
102
RTVSPost2010PropOp28
 70
     1
102
RTVSPost2010Prop29
280
     1
102
RTVSPost2010PropOp29
 70
     1
102
RTVSPost2010Prop30
280
     1
102
RTVSPost2010PropOp30
 70
     1
102
RTVSPost2010Prop31
280
     0
102
RTVSPost2010PropOp31
 70
     1
102
RTVSPost2010Prop32
280
     0
102
RTVSPost2010PropOp32
 70
     1
102
RTVSPost2010Prop33
280
     0
102
RTVSPost2010PropOp33
 70
     1
102
RTVSPost2010Prop34
280
     0
102
RTVSPost2010PropOp34
 70
     1
102
RTVSPost2010Prop35
280
     0
102
RTVSPost2010PropOp35
 70
     1
102
RTVSPost2010Prop36
280
     0
102
RTVSPost2010PropOp36
 70
     1
102
RTVSPost2010Prop37
 90
       50
102
RTVSPost2010PropOp37
 70
     1
102
RTVSPost2010Prop38
140
0.0
102
RTVSPost2010PropOp38
 70
     1
102
RTVSPost2010Prop39
140
1.0
102
RTVSPost2010PropOp39
 70
     1
102
RTVSPost2010Prop40
 90
        0
102
RTVSPost2010PropOp40
 70
     1
102
RTVSPost2010Prop41ColorIndex
 90
       18
102
RTVSPost2010Prop41ColorRGB
 90
        0
102
RTVSPost2010PropOp41
 70
     1
102
RTVSPost2010Prop42
 90
       50
102
RTVSPost2010PropOp42
 70
     1
102
RTVSPost2010Prop43
 90
        3
102
RTVSPost2010PropOp43
 70
     1
102
RTVSPost2010Prop44ColorIndex
 90
        5
102
RTVSPost2010Prop44ColorRGB
 90
      255
102
RTVSPost2010PropOp44
 70
     1
102
RTVSPost2010Prop45
280
     0
102
RTVSPost2010PropOp45
 70
     1
102
RTVSPost2010Prop46
 90
       50
102
RTVSPost2010PropOp46
 70
     1
102
RTVSPost2010Prop47
 90
       50
102
RTVSPost2010PropOp47
 70
     1
102
RTVSPost2010Prop48
 90
       50
102
RTVSPost2010PropOp48
 70
     1
102
RTVSPost2010Prop49
280
     0
102
RTVSPost2010PropOp49
 70
     1
102
RTVSPost2010Prop50
 90
       50
102
RTVSPost2010PropOp50
 70
     1
102
RTVSPost2010Prop51ColorIndex
 90
      256
102
RTVSPost2010Prop51ColorRGB
 90
-16777216
102
RTVSPost2010PropOp51
 70
     0
102
RTVSPost2010Prop52
140
1.0
102
RTVSPost2010PropOp52
 70
     0
102
RTVSPost2010Prop53
 90
        2
102
RTVSPost2010PropOp53
 70
     1
102
RTVSPost2010Prop54
  1
strokes_ogs.tif
102
RTVSPost2010PropOp54
 70
     1
102
RTVSPost2010Prop55
280
     0
102
RTVSPost2010PropOp55
 70
     1
102
RTVSPost2010Prop56
140
1.0
102
RTVSPost2010PropOp56
 70
     1
102
RTVSPost2010Prop57
140
1.0
102
RTVSPost2010PropOp57
 70
     1
102
RTVSPropertyOp0
 70
     1
102
RTVSPropertyOp1
 70
     1
102
RTVSPropertyOp2
 70
     1
102
RTVSPropertyOp3
 70
     1
102
RTVSPropertyOp4
 70
     1
102
RTVSPropertyOp5
 70
     1
102
RTVSPropertyOp6
 70
     1
102
RTVSPropertyOp7
 70
     1
102
RTVSPropertyOp8
 70
     1
102
RTVSPropertyOp9
 70
     1
102
RTVSPropertyOp10
 70
     1
102
RTVSPropertyOp11
 70
     1
102
RTVSPropertyOp12
 70
     1
102
RTVSPropertyOp13
 70
     1
102
RTVSPropertyOp14
 70
     1
102
RTVSPropertyOp15
 70
     1
102
RTVSPropertyOp16
 70
     1
102
RTVSPropertyOp17
 70
     1
102
RTVSPropertyOp18
 70
     1
102
RTVSPropertyOp19
 70
     1
102
RTVSPropertyOp20
 70
     1
102
RTVSPropertyOp21
 70
     1
102
RTVSPropertyOp22
 70
     1
102
RTVSPropertyOp23
 70
     1
102
RTVSPropertyOp24
 70
     1
102
RTVSPropertyOp25
 70
     1
102
RTVSPropertyOp26
 70
     1
102
RTVSPropertyOp27
 70
     1
102
RTVSPropertyOp28
 70
     1
102
RTVSPropertyOp29
 70
     1
102
RTVSPropertyOp30
 70
     1
102
RTVSPropertyOp31
 70
     1
102
RTVSPropertyOp32
 70
     1
102
RTVSPropertyOp33
 70
     1
102
RTVSPropertyOp34
 70
     1
102
RTVSPropertyOp35
 70
     1
102
RTVSPropertyOp36
 70
     1
102
RTVSPropertyOp37
 70
     1
102
RTVSPropertyOp38
 70
     1
102
RTVSPropertyOp39
 70
     1
102
RTVSPropertyOp40
 70
     1
102
RTVSPropertyOp41
 70
     1
102
RTVSPropertyOp42
 70
     1
102
RTVSPropertyOp43
 70
     1
102
RTVSPropertyOp44
 70
     1
102
RTVSPropertyOp45
 70
     1
102
RTVSPropertyOp46
 70
     1
102
RTVSPropertyOp47
 70
     1
102
RTVSPropertyOp48
 70
     1
102
RTVSPropertyOp49
 70
     1
102
RTVSPropertyOp50
 70
     1
102
RTVSPropertyOp51
 70
     0
102
RTVSPropertyOp52
 70
     0
102
RTVSPropertyOp53
 70
     1
102
RTVSPropertyOp54
 70
     1
102
RTVSPropertyOp55
 70
     1
102
RTVSPropertyOp56
 70
     1
102
RTVSPropertyOp57
 70
     1
102
RTVSPropertyOp58
 70
     1
102
RTVSPropertyOp59
 70
     1
102
RTVSPropertyOp60
 70
     1
102
RTVSPropertyOp61
 70
     1
102
RTVSPropertyOp62
 70
     1
  0
XRECORD
  5
D17
102
{ACAD_REACTORS
330
D16
102
}
330
D16
100
AcDbXrecord
280
     1
102
RTVSPost2010Prop28
280
     0
102
RTVSPost2010PropOp28
 70
     1
102
RTVSPost2010Prop29
280
     1
102
RTVSPost2010PropOp29
 70
     1
102
RTVSPost2010Prop30
280
     1
102
RTVSPost2010PropOp30
 70
     1
102
RTVSPost2010Prop31
280
     0
102
RTVSPost2010PropOp31
 70
     1
102
RTVSPost2010Prop32
280
     0
102
RTVSPost2010PropOp32
 70
     1
102
RTVSPost2010Prop33
280
     0
102
RTVSPost2010PropOp33
 70
     1
102
RTVSPost2010Prop34
280
     0
102
RTVSPost2010PropOp34
 70
     1
102
RTVSPost2010Prop35
280
     0
102
RTVSPost2010PropOp35
 70
     1
102
RTVSPost2010Prop36
280
     0
102
RTVSPost2010PropOp36
 70
     1
102
RTVSPost2010Prop37
 90
       50
102
RTVSPost2010PropOp37
 70
     1
102
RTVSPost2010Prop38
140
0.0
102
RTVSPost2010PropOp38
 70
     1
102
RTVSPost2010Prop39
140
1.0
102
RTVSPost2010PropOp39
 70
     1
102
RTVSPost2010Prop40
 90
        0
102
RTVSPost2010PropOp40
 70
     1
102
RTVSPost2010Prop41ColorIndex
 90
       18
102
RTVSPost2010Prop41ColorRGB
 90
        0
102
RTVSPost2010PropOp41
 70
     1
102
RTVSPost2010Prop42
 90
       50
102
RTVSPost2010PropOp42
 70
     1
102
RTVSPost2010Prop43
 90
        3
102
RTVSPost2010PropOp43
 70
     1
102
RTVSPost2010Prop44ColorIndex
 90
        5
102
RTVSPost2010Prop44ColorRGB
 90
      255
102
RTVSPost2010PropOp44
 70
     1
102
RTVSPost2010Prop45
280
     0
102
RTVSPost2010PropOp45
 70
     1
102
RTVSPost2010Prop46
 90
       50
102
RTVSPost2010PropOp46
 70
     1
102
RTVSPost2010Prop47
 90
       50
102
RTVSPost2010PropOp47
 70
     1
102
RTVSPost2010Prop48
 90
       50
102
RTVSPost2010PropOp48
 70
     1
102
RTVSPost2010Prop49
280
     0
102
RTVSPost2010PropOp49
 70
     1
102
RTVSPost2010Prop50
 90
       50
102
RTVSPost2010PropOp50
 70
     1
102
RTVSPost2010Prop51ColorIndex
 90
      256
102
RTVSPost2010Prop51ColorRGB
 90
-16777216
102
RTVSPost2010PropOp51
 70
     0
102
RTVSPost2010Prop52
140
1.0
102
RTVSPost2010PropOp52
 70
     0
102
RTVSPost2010Prop53
 90
        2
102
RTVSPost2010PropOp53
 70
     1
102
RTVSPost2010Prop54
  1
strokes_ogs.tif
102
RTVSPost2010PropOp54
 70
     1
102
RTVSPost2010Prop55
280
     0
102
RTVSPost2010PropOp55
 70
     1
102
RTVSPost2010Prop56
140
1.0
102
RTVSPost2010PropOp56
 70
     1
102
RTVSPost2010Prop57
140
1.0
102
RTVSPost2010PropOp57
 70
     1
102
RTVSPropertyOp0
 70
     1
102
RTVSPropertyOp1
 70
     1
102
RTVSPropertyOp2
 70
     1
102
RTVSPropertyOp3
 70
     1
102
RTVSPropertyOp4
 70
     1
102
RTVSPropertyOp5
 70
     1
102
RTVSPropertyOp6
 70
     1
102
RTVSPropertyOp7
 70
     1
102
RTVSPropertyOp8
 70
     1
102
RTVSPropertyOp9
 70
     1
102
RTVSPropertyOp10
 70
     1
102
RTVSPropertyOp11
 70
     1
102
RTVSPropertyOp12
 70
     1
102
RTVSPropertyOp13
 70
     1
102
RTVSPropertyOp14
 70
     1
102
RTVSPropertyOp15
 70
     1
102
RTVSPropertyOp16
 70
     1
102
RTVSPropertyOp17
 70
     1
102
RTVSPropertyOp18
 70
     1
102
RTVSPropertyOp19
 70
     1
102
RTVSPropertyOp20
 70
     1
102
RTVSPropertyOp21
 70
     1
102
RTVSPropertyOp22
 70
     1
102
RTVSPropertyOp23
 70
     1
102
RTVSPropertyOp24
 70
     1
102
RTVSPropertyOp25
 70
     1
102
RTVSPropertyOp26
 70
     1
102
RTVSPropertyOp27
 70
     1
102
RTVSPropertyOp28
 70
     1
102
RTVSPropertyOp29
 70
     1
102
RTVSPropertyOp30
 70
     1
102
RTVSPropertyOp31
 70
     1
102
RTVSPropertyOp32
 70
     1
102
RTVSPropertyOp33
 70
     1
102
RTVSPropertyOp34
 70
     1
102
RTVSPropertyOp35
 70
     1
102
RTVSPropertyOp36
 70
     1
102
RTVSPropertyOp37
 70
     1
102
RTVSPropertyOp38
 70
     1
102
RTVSPropertyOp39
 70
     1
102
RTVSPropertyOp40
 70
     1
102
RTVSPropertyOp41
 70
     1
102
RTVSPropertyOp42
 70
     1
102
RTVSPropertyOp43
 70
     1
102
RTVSPropertyOp44
 70
     1
102
RTVSPropertyOp45
 70
     1
102
RTVSPropertyOp46
 70
     1
102
RTVSPropertyOp47
 70
     1
102
RTVSPropertyOp48
 70
     1
102
RTVSPropertyOp49
 70
     1
102
RTVSPropertyOp50
 70
     1
102
RTVSPropertyOp51
 70
     0
102
RTVSPropertyOp52
 70
     0
102
RTVSPropertyOp53
 70
     1
102
RTVSPropertyOp54
 70
     1
102
RTVSPropertyOp55
 70
     1
102
RTVSPropertyOp56
 70
     1
102
RTVSPropertyOp57
 70
     1
102
RTVSPropertyOp58
 70
     1
102
RTVSPropertyOp59
 70
     1
102
RTVSPropertyOp60
 70
     1
102
RTVSPropertyOp61
 70
     1
102
RTVSPropertyOp62
 70
     1
  0
ENDSEC
  0
EOF
