  0
SECTION
  2
HEADER
  9
$ACADVER
  1
AC1015
  9
$ACADMAINTVER
 70
    20
  9
$DWGCODEPAGE
  3
ANSI_932
  9
$INSBASE
 10
0.0
 20
0.0
 30
0.0
  9
$EXTMIN
 10
9.9999975266385
 20
10.0
 30
0.0
  9
$EXTMAX
 10
669.5130074534737
 20
464.0905526543543
 30
0.0
  9
$LIMMIN
 10
0.0000015376081137
 20
-0.0000001931532552
  9
$LIMMAX
 10
692.0000015376082
 20
477.0606058674526
  9
$ORTHOMODE
 70
     1
  9
$REGENMODE
 70
     1
  9
$FILLMODE
 70
     1
  9
$QTEXTMODE
 70
     0
  9
$MIRRTEXT
 70
     1
  9
$LTSCALE
 40
0.5
  9
$ATTMODE
 70
     1
  9
$TEXTSIZE
 40
2.5
  9
$TRACEWID
 40
1.0
  9
$TEXTSTYLE
  7
STANDARD
  9
$CLAYER
  8
0
  9
$CELTYPE
  6
BYLAYER
  9
$CECOLOR
 62
   256
  9
$CELTSCALE
 40
1.0
  9
$DISPSILH
 70
     0
  9
$DIMSCALE
 40
1.0
  9
$DIMASZ
 40
3.0
  9
$DIMEXO
 40
1.0
  9
$DIMDLI
 40
10.0
  9
$DIMRND
 40
0.0
  9
$DIMDLE
 40
0.0
  9
$DIMEXE
 40
1.0
  9
$DIMTP
 40
0.0
  9
$DIMTM
 40
0.0
  9
$DIMTXT
 40
3.2
  9
$DIMCEN
 40
0.0
  9
$DIMTSZ
 40
0.0
  9
$DIMTOL
 70
     0
  9
$DIMLIM
 70
     0
  9
$DIMTIH
 70
     0
  9
$DIMTOH
 70
     0
  9
$DIMSE1
 70
     0
  9
$DIMSE2
 70
     0
  9
$DIMTAD
 70
     3
  9
$DIMZIN
 70
     8
  9
$DIMBLK
  1

  9
$DIMASO
 70
     1
  9
$DIMSHO
 70
     1
  9
$DIMPOST
  1

  9
$DIMAPOST
  1

  9
$DIMALT
 70
     0
  9
$DIMALTD
 70
     2
  9
$DIMALTF
 40
25.4
  9
$DIMLFAC
 40
1.0
  9
$DIMTOFL
 70
     1
  9
$DIMTVP
 40
0.0
  9
$DIMTIX
 70
     0
  9
$DIMSOXD
 70
     0
  9
$DIMSAH
 70
     1
  9
$DIMBLK1
  1
OPEN
  9
$DIMBLK2
  1
OPEN
  9
$DIMSTYLE
  2
STANDARD
  9
$DIMCLRD
 70
     0
  9
$DIMCLRE
 70
     0
  9
$DIMCLRT
 70
     0
  9
$DIMTFAC
 40
1.0
  9
$DIMGAP
 40
1.0
  9
$DIMJUST
 70
     0
  9
$DIMSD1
 70
     0
  9
$DIMSD2
 70
     0
  9
$DIMTOLJ
 70
     1
  9
$DIMTZIN
 70
     0
  9
$DIMALTZ
 70
     0
  9
$DIMALTTZ
 70
     0
  9
$DIMUPT
 70
     0
  9
$DIMDEC
 70
     4
  9
$DIMTDEC
 70
     4
  9
$DIMALTU
 70
     2
  9
$DIMALTTD
 70
     2
  9
$DIMTXSTY
  7
STANDARD
  9
$DIMAUNIT
 70
     0
  9
$DIMADEC
 70
     0
  9
$DIMALTRND
 40
0.0
  9
$DIMAZIN
 70
     0
  9
$DIMDSEP
 70
    46
  9
$DIMATFIT
 70
     3
  9
$DIMFRAC
 70
     0
  9
$DIMLDRBLK
  1
OPEN
  9
$DIMLUNIT
 70
     2
  9
$DIMLWD
 70
    -2
  9
$DIMLWE
 70
    -2
  9
$DIMTMOVE
 70
     0
  9
$LUNITS
 70
     2
  9
$LUPREC
 70
     4
  9
$SKETCHINC
 40
1.0
  9
$FILLETRAD
 40
1.0
  9
$AUNITS
 70
     0
  9
$AUPREC
 70
     0
  9
$MENU
  1
.
  9
$ELEVATION
 40
0.0
  9
$PELEVATION
 40
0.0
  9
$THICKNESS
 40
0.0
  9
$LIMCHECK
 70
     0
  9
$CHAMFERA
 40
10.0
  9
$CHAMFERB
 40
10.0
  9
$CHAMFERC
 40
20.0
  9
$CHAMFERD
 40
0.0
  9
$SKPOLY
 70
     0
  9
$TDCREATE
 40
2452933.409272639
  9
$TDUCREATE
 40
2452933.034272639
  9
$TDUPDATE
 40
2457192.691019167
  9
$TDUUPDATE
 40
2457192.316019167
  9
$TDINDWG
 40
0.2587081019
  9
$TDUSRTIMER
 40
0.2587080903
  9
$USRTIMER
 70
     1
  9
$ANGBASE
 50
0.0
  9
$ANGDIR
 70
     0
  9
$PDMODE
 70
     0
  9
$PDSIZE
 40
0.0
  9
$PLINEWID
 40
0.0
  9
$SPLFRAME
 70
     0
  9
$SPLINETYPE
 70
     6
  9
$SPLINESEGS
 70
     8
  9
$HANDSEED
  5
27B9
  9
$SURFTAB1
 70
     6
  9
$SURFTAB2
 70
     6
  9
$SURFTYPE
 70
     6
  9
$SURFU
 70
     6
  9
$SURFV
 70
     6
  9
$UCSBASE
  2

  9
$UCSNAME
  2

  9
$UCSORG
 10
0.0
 20
0.0
 30
0.0
  9
$UCSXDIR
 10
1.0
 20
0.0
 30
0.0
  9
$UCSYDIR
 10
0.0
 20
1.0
 30
0.0
  9
$UCSORTHOREF
  2

  9
$UCSORTHOVIEW
 70
     0
  9
$UCSORGTOP
 10
0.0
 20
0.0
 30
0.0
  9
$UCSORGBOTTOM
 10
0.0
 20
0.0
 30
0.0
  9
$UCSORGLEFT
 10
0.0
 20
0.0
 30
0.0
  9
$UCSORGRIGHT
 10
0.0
 20
0.0
 30
0.0
  9
$UCSORGFRONT
 10
0.0
 20
0.0
 30
0.0
  9
$UCSORGBACK
 10
0.0
 20
0.0
 30
0.0
  9
$PUCSBASE
  2

  9
$PUCSNAME
  2

  9
$PUCSORG
 10
0.0
 20
0.0
 30
0.0
  9
$PUCSXDIR
 10
1.0
 20
0.0
 30
0.0
  9
$PUCSYDIR
 10
0.0
 20
1.0
 30
0.0
  9
$PUCSORTHOREF
  2

  9
$PUCSORTHOVIEW
 70
     0
  9
$PUCSORGTOP
 10
0.0
 20
0.0
 30
0.0
  9
$PUCSORGBOTTOM
 10
0.0
 20
0.0
 30
0.0
  9
$PUCSORGLEFT
 10
0.0
 20
0.0
 30
0.0
  9
$PUCSORGRIGHT
 10
0.0
 20
0.0
 30
0.0
  9
$PUCSORGFRONT
 10
0.0
 20
0.0
 30
0.0
  9
$PUCSORGBACK
 10
0.0
 20
0.0
 30
0.0
  9
$USERI1
 70
     0
  9
$USERI2
 70
     0
  9
$USERI3
 70
     0
  9
$USERI4
 70
     0
  9
$USERI5
 70
     0
  9
$USERR1
 40
0.0
  9
$USERR2
 40
0.0
  9
$USERR3
 40
0.0
  9
$USERR4
 40
0.0
  9
$USERR5
 40
0.0
  9
$WORLDVIEW
 70
     1
  9
$SHADEDGE
 70
     3
  9
$SHADEDIF
 70
    70
  9
$TILEMODE
 70
     1
  9
$MAXACTVP
 70
    48
  9
$PINSBASE
 10
0.0
 20
0.0
 30
0.0
  9
$PLIMCHECK
 70
     0
  9
$PEXTMIN
 10
1.000000000000000E+20
 20
1.000000000000000E+20
 30
1.000000000000000E+20
  9
$PEXTMAX
 10
-1.000000000000000E+20
 20
-1.000000000000000E+20
 30
-1.000000000000000E+20
  9
$PLIMMIN
 10
0.0
 20
0.0
  9
$PLIMMAX
 10
420.0
 20
297.0
  9
$UNITMODE
 70
     0
  9
$VISRETAIN
 70
     1
  9
$PLINEGEN
 70
     0
  9
$PSLTSCALE
 70
     1
  9
$TREEDEPTH
 70
  3020
  9
$CMLSTYLE
  2
STANDARD
  9
$CMLJUST
 70
     0
  9
$CMLSCALE
 40
20.0
  9
$PROXYGRAPHICS
 70
     1
  9
$MEASUREMENT
 70
     0
  9
$CELWEIGHT
370
    -1
  9
$ENDCAPS
280
     0
  9
$JOINSTYLE
280
     0
  9
$LWDISPLAY
290
     0
  9
$INSUNITS
 70
     0
  9
$HYPERLINKBASE
  1

  9
$STYLESHEET
  1

  9
$XEDIT
290
     1
  9
$CEPSNTYPE
380
     0
  9
$PSTYLEMODE
290
     1
  9
$FINGERPRINTGUID
  2
{C41E49E3-8F7B-454F-8409-FA15578451DF}
  9
$VERSIONGUID
  2
{F88E8B93-3B35-4892-900C-8820E2F775A4}
  9
$EXTNAMES
290
     1
  9
$PSVPSCALE
 40
0.0
  9
$OLESTARTUP
290
     0
  0
ENDSEC
  0
SECTION
  2
CLASSES
  0
CLASS
  1
ACDBDICTIONARYWDFLT
  2
AcDbDictionaryWithDefault
  3
ObjectDBX Classes
 90
        0
280
     0
281
     0
  0
CLASS
  1
ACDBPLACEHOLDER
  2
AcDbPlaceHolder
  3
ObjectDBX Classes
 90
        0
280
     0
281
     0
  0
CLASS
  1
LAYOUT
  2
AcDbLayout
  3
ObjectDBX Classes
 90
        0
280
     0
281
     0
  0
CLASS
  1
DICTIONARYVAR
  2
AcDbDictionaryVar
  3
ObjectDBX Classes
 90
        0
280
     0
281
     0
  0
CLASS
  1
MATERIAL
  2
AcDbMaterial
  3
ObjectDBX Classes
 90
     1153
280
     0
281
     0
  0
CLASS
  1
VISUALSTYLE
  2
AcDbVisualStyle
  3
ObjectDBX Classes
 90
     4095
280
     0
281
     0
  0
CLASS
  1
TABLESTYLE
  2
AcDbTableStyle
  3
ObjectDBX Classes
 90
     4095
280
     0
281
     0
  0
CLASS
  1
SCALE
  2
AcDbScale
  3
ObjectDBX Classes
 90
     1153
280
     0
281
     0
  0
CLASS
  1
MLEADERSTYLE
  2
AcDbMLeaderStyle
  3
ACDB_MLEADERSTYLE_CLASS
 90
     4095
280
     0
281
     0
  0
CLASS
  1
ACDBSECTIONVIEWSTYLE
  2
AcDbSectionViewStyle
  3
ObjectDBX Classes
 90
     1025
280
     0
281
     0
  0
CLASS
  1
ACDBDETAILVIEWSTYLE
  2
AcDbDetailViewStyle
  3
ObjectDBX Classes
 90
     1025
280
     0
281
     0
  0
CLASS
  1
CELLSTYLEMAP
  2
AcDbCellStyleMap
  3
ObjectDBX Classes
 90
     1152
280
     0
281
     0
  0
ENDSEC
  0
SECTION
  2
TABLES
  0
TABLE
  2
VPORT
  5
8
330
0
100
AcDbSymbolTable
 70
     1
  0
VPORT
  5
2705
330
8
100
AcDbSymbolTableRecord
100
AcDbViewportTableRecord
  2
*ACTIVE
 70
     0
 10
0.0
 20
0.0
 11
1.0
 21
1.0
 12
514.5353678305021
 22
237.0562320967007
 13
0.0
 23
0.0
 14
10.0
 24
10.0
 15
10.0
 25
10.0
 16
0.0
 26
0.0
 36
1.0
 17
0.0
 27
0.0
 37
0.0
 40
457.7085042255429
 41
2.35006605019815
 42
50.0
 43
0.0
 44
0.0
 50
0.0
 51
0.0
 71
     0
 72
   100
 73
     1
 74
     0
 75
     0
 76
     0
 77
     0
 78
     0
281
     0
 65
     1
110
0.0
120
0.0
130
0.0
111
1.0
121
0.0
131
0.0
112
0.0
122
1.0
132
0.0
 79
     0
146
0.0
1001
ACAD_NAV_VCDISPLAY
1070
     3
  0
ENDTAB
  0
TABLE
  2
LTYPE
  5
5
330
0
100
AcDbSymbolTable
 70
     4
  0
LTYPE
  5
12
330
5
100
AcDbSymbolTableRecord
100
AcDbLinetypeTableRecord
  2
BYBLOCK
 70
     0
  3

 72
    65
 73
     0
 40
0.0
  0
LTYPE
  5
13
330
5
100
AcDbSymbolTableRecord
100
AcDbLinetypeTableRecord
  2
BYLAYER
 70
     0
  3

 72
    65
 73
     0
 40
0.0
  0
LTYPE
  5
14
330
5
100
AcDbSymbolTableRecord
100
AcDbLinetypeTableRecord
  2
CONTINUOUS
 70
     0
  3
Solid line
 72
    65
 73
     0
 40
0.0
  0
LTYPE
  5
4B
330
5
100
AcDbSymbolTableRecord
100
AcDbLinetypeTableRecord
  2
DASHED
 70
     0
  3
Dashed __ __ __ __ __ __ __ __ __ __ __ __ __ _
 72
    65
 73
     2
 40
19.04999999999998
 49
12.7
 74
     0
 49
-6.349999999999997
 74
     0
  0
LTYPE
  5
4C
330
5
100
AcDbSymbolTableRecord
100
AcDbLinetypeTableRecord
  2
CENTER
 70
     0
  3
Center ____ _ ____ _ ____ _ ____ _ ____ _ ____
 72
    65
 73
     4
 40
50.8
 49
31.75
 74
     0
 49
-6.349999999999997
 74
     0
 49
6.349999999999997
 74
     0
 49
-6.349999999999997
 74
     0
  0
LTYPE
  5
4D
330
5
100
AcDbSymbolTableRecord
100
AcDbLinetypeTableRecord
  2
PHANTOM
 70
     0
  3
Phantom ______  __  __  ______  __  __  ______
 72
    65
 73
     6
 40
63.5
 49
31.75
 74
     0
 49
-6.349999999999997
 74
     0
 49
6.349999999999997
 74
     0
 49
-6.349999999999997
 74
     0
 49
6.349999999999997
 74
     0
 49
-6.349999999999997
 74
     0
  0
ENDTAB
  0
TABLE
  2
LAYER
  5
2
330
0
100
AcDbSymbolTable
 70
     8
  0
LAYER
  5
E
102
{ACAD_XDICTIONARY
360
275D
102
}
330
2
100
AcDbSymbolTableRecord
100
AcDbLayerTableRecord
  2
0
 70
     0
 62
     7
  6
CONTINUOUS
370
    -3
390
270C
  0
LAYER
  5
4E
102
{ACAD_XDICTIONARY
360
275F
102
}
330
2
100
AcDbSymbolTableRecord
100
AcDbLayerTableRecord
  2
4
 70
     0
 62
     1
  6
CENTER
370
    -3
390
270C
  0
LAYER
  5
4F
102
{ACAD_XDICTIONARY
360
2761
102
}
330
2
100
AcDbSymbolTableRecord
100
AcDbLayerTableRecord
  2
5
 70
     0
 62
     6
  6
PHANTOM
370
    -3
390
270C
  0
LAYER
  5
50
102
{ACAD_XDICTIONARY
360
2763
102
}
330
2
100
AcDbSymbolTableRecord
100
AcDbLayerTableRecord
  2
1
 70
     0
 62
     7
  6
CONTINUOUS
370
    -3
390
270C
  0
LAYER
  5
51
102
{ACAD_XDICTIONARY
360
2765
102
}
330
2
100
AcDbSymbolTableRecord
100
AcDbLayerTableRecord
  2
2
 70
     0
 62
     4
  6
CONTINUOUS
370
    -3
390
270C
  0
LAYER
  5
52
102
{ACAD_XDICTIONARY
360
2767
102
}
330
2
100
AcDbSymbolTableRecord
100
AcDbLayerTableRecord
  2
3
 70
     0
 62
     2
  6
DASHED
370
    -3
390
270C
  0
LAYER
  5
53
102
{ACAD_XDICTIONARY
360
2769
102
}
330
2
100
AcDbSymbolTableRecord
100
AcDbLayerTableRecord
  2
6
 70
     0
 62
     5
  6
CONTINUOUS
370
    -3
390
270C
  0
LAYER
  5
54
102
{ACAD_XDICTIONARY
360
276B
102
}
330
2
100
AcDbSymbolTableRecord
100
AcDbLayerTableRecord
  2
7
 70
     0
 62
     3
  6
CONTINUOUS
370
    -3
390
270C
  0
ENDTAB
  0
TABLE
  2
STYLE
  5
3
330
0
100
AcDbSymbolTable
 70
     1
  0
STYLE
  5
F
330
3
100
AcDbSymbolTableRecord
100
AcDbTextStyleTableRecord
  2
STANDARD
 70
     0
 40
0.0
 41
1.0
 50
0.0
 71
     0
 42
2.5
  3
simplex.shx
  4

  0
ENDTAB
  0
TABLE
  2
VIEW
  5
6
330
0
100
AcDbSymbolTable
 70
     0
  0
ENDTAB
  0
TABLE
  2
UCS
  5
7
330
0
100
AcDbSymbolTable
 70
     0
  0
ENDTAB
  0
TABLE
  2
APPID
  5
9
330
0
100
AcDbSymbolTable
 70
     5
  0
APPID
  5
10
330
9
100
AcDbSymbolTableRecord
100
AcDbRegAppTableRecord
  2
ACAD
 70
     0
  0
APPID
  5
3E
330
9
100
AcDbSymbolTableRecord
100
AcDbRegAppTableRecord
  2
CONTENTTABDATA
 70
     0
  0
APPID
  5
3F
330
9
100
AcDbSymbolTableRecord
100
AcDbRegAppTableRecord
  2
CONTENTCURRENTTAB
 70
     0
  0
APPID
  5
2777
330
9
100
AcDbSymbolTableRecord
100
AcDbRegAppTableRecord
  2
ACAD_NAV_VCDISPLAY
 70
     0
  0
APPID
  5
27B0
330
9
100
AcDbSymbolTableRecord
100
AcDbRegAppTableRecord
  2
ACAD_MLEADERVER
 70
     0
  0
ENDTAB
  0
TABLE
  2
DIMSTYLE
  5
A
330
0
100
AcDbSymbolTable
 70
     1
100
AcDbDimStyleTable
 71
     0
  0
DIMSTYLE
105
1D
330
A
100
AcDbSymbolTableRecord
100
AcDbDimStyleTableRecord
  2
STANDARD
 70
     0
 41
3.0
 42
1.0
 43
10.0
 44
1.0
 73
     0
 74
     0
 77
     3
 78
     8
140
3.2
141
0.0
147
1.0
172
     1
173
     1
340
F
341
2E
343
2E
344
2E
  0
ENDTAB
  0
TABLE
  2
BLOCK_RECORD
  5
1
330
0
100
AcDbSymbolTable
 70
     1
  0
BLOCK_RECORD
  5
18
102
{ACAD_XDICTIONARY
360
26F2
102
}
330
1
100
AcDbSymbolTableRecord
100
AcDbBlockTableRecord
  2
*MODEL_SPACE
340
275A
  0
BLOCK_RECORD
  5
15
102
{ACAD_XDICTIONARY
360
26F0
102
}
330
1
100
AcDbSymbolTableRecord
100
AcDbBlockTableRecord
  2
*PAPER_SPACE
340
275B
  0
BLOCK_RECORD
  5
2E
330
1
100
AcDbSymbolTableRecord
100
AcDbBlockTableRecord
  2
_OPEN
340
0
  0
ENDTAB
  0
ENDSEC
  0
SECTION
  2
BLOCKS
  0
BLOCK
  5
19
330
18
100
AcDbEntity
  8
0
100
AcDbBlockBegin
  2
*MODEL_SPACE
 70
     0
 10
0.0
 20
0.0
 30
0.0
  3
*MODEL_SPACE
  1

  0
ENDBLK
  5
1A
330
18
100
AcDbEntity
  8
0
100
AcDbBlockEnd
  0
BLOCK
  5
16
330
15
100
AcDbEntity
 67
     1
  8
0
100
AcDbBlockBegin
  2
*PAPER_SPACE
 70
     0
 10
0.0
 20
0.0
 30
0.0
  3
*PAPER_SPACE
  1

  0
ENDBLK
  5
17
330
15
100
AcDbEntity
 67
     1
  8
0
100
AcDbBlockEnd
  0
BLOCK
  5
2F
330
2E
100
AcDbEntity
  8
0
100
AcDbBlockBegin
  2
_OPEN
 70
     0
 10
0.0
 20
0.0
 30
0.0
  3
_OPEN
  1

  0
LINE
  5
30
330
2E
100
AcDbEntity
  8
0
  6
ByBlock
 62
     0
100
AcDbLine
 10
-1.0
 20
0.1666666666666666
 30
0.0
 11
0.0
 21
0.0
 31
0.0
  0
LINE
  5
31
330
2E
100
AcDbEntity
  8
0
  6
ByBlock
 62
     0
100
AcDbLine
 10
0.0
 20
0.0
 30
0.0
 11
-1.0
 21
-0.1666666666666666
 31
0.0
  0
LINE
  5
32
330
2E
100
AcDbEntity
  8
0
  6
ByBlock
 62
     0
100
AcDbLine
 10
0.0
 20
0.0
 30
0.0
 11
-1.0
 21
0.0
 31
0.0
  0
ENDBLK
  5
33
330
2E
100
AcDbEntity
  8
0
100
AcDbBlockEnd
  0
ENDSEC
  0
SECTION
  2
ENTITIES
  0
TEXT
  5
63
330
18
100
AcDbEntity
  8
4
  6
CENTER
 48
0.25
100
AcDbText
 10
23.97950852663849
 20
10.0
 30
0.0
 40
1.399999999999999
  1
4
100
AcDbText
  0
TEXT
  5
64
330
18
100
AcDbEntity
  8
7
  6
Continuous
 48
0.25
100
AcDbText
 10
9.999997526638502
 20
26.0000007607689
 30
0.0
 40
3.0
  1
CODE No.9489
100
AcDbText
  0
TEXT
  5
65
330
18
100
AcDbEntity
  8
7
  6
Continuous
 48
0.25
100
AcDbText
 10
9.999997526638502
 20
18.00000076076889
 30
0.0
 40
3.0
  1
TYPE No.TCA-545S-NRB75
100
AcDbText
  0
TEXT
  5
66
330
18
100
AcDbEntity
  8
1
  6
Continuous
 48
0.25
100
AcDbText
 10
9.999997526638502
 20
10.00000076076889
 30
0.0
 40
1.399999999999999
  1
LAYER
100
AcDbText
  0
TEXT
  5
67
330
18
100
AcDbEntity
  8
2
  6
Continuous
 48
0.25
100
AcDbText
 10
19.9795085266385
 20
10.0
 30
0.0
 40
1.399999999999999
  1
2
100
AcDbText
  0
TEXT
  5
68
330
18
100
AcDbEntity
  8
3
  6
DASHED
 48
0.25
100
AcDbText
 10
21.97950852663849
 20
10.0
 30
0.0
 40
1.399999999999999
  1
3
100
AcDbText
  0
TEXT
  5
69
330
18
100
AcDbEntity
  8
1
  6
Continuous
 48
0.25
100
AcDbText
 10
17.9795085266385
 20
10.0
 30
0.0
 40
1.399999999999999
  1
1
100
AcDbText
  0
TEXT
  5
6A
330
18
100
AcDbEntity
  8
5
  6
PHANTOM
 48
0.25
100
AcDbText
 10
25.97950852663849
 20
10.0
 30
0.0
 40
1.399999999999999
  1
5
100
AcDbText
  0
TEXT
  5
6B
330
18
100
AcDbEntity
  8
6
  6
Continuous
 48
0.25
100
AcDbText
 10
27.97950852663849
 20
10.0
 30
0.0
 40
1.399999999999999
  1
6
100
AcDbText
  0
TEXT
  5
6C
330
18
100
AcDbEntity
  8
7
  6
Continuous
 48
0.25
100
AcDbText
 10
29.9795085266385
 20
10.0
 30
0.0
 40
1.399999999999999
  1
7
100
AcDbText
  0
LINE
  5
A61
330
18
100
AcDbEntity
  8
1
  6
Continuous
100
AcDbLine
 10
614.8649509534735
 20
238.15397977577
 30
0.0
 11
614.8649509534735
 21
229.6686605713873
 31
0.0
  0
LINE
  5
A62
330
18
100
AcDbEntity
  8
1
  6
Continuous
100
AcDbLine
 10
597.8649519534737
 20
238.1539797757699
 30
0.0
 11
597.8649519534737
 21
229.6686605713876
 31
0.0
  0
CIRCLE
  5
A63
330
18
100
AcDbEntity
  8
1
  6
Continuous
100
AcDbCircle
 10
606.3649514534736
 20
233.9113201735786
 30
0.0
 40
8.500003000000162
  0
CIRCLE
  5
A64
330
18
100
AcDbEntity
  8
1
  6
Continuous
100
AcDbCircle
 10
606.3649514534736
 20
233.9113201735786
 30
0.0
 40
5.000003999999761
  0
CIRCLE
  5
A65
330
18
100
AcDbEntity
  8
2
  6
Continuous
100
AcDbCircle
 10
606.3649514534736
 20
233.9113201735786
 30
0.0
 40
4.25
  0
ARC
  5
A66
330
18
100
AcDbEntity
  8
1
  6
Continuous
100
AcDbCircle
 10
606.3649514534736
 20
233.9113201735786
 30
0.0
 40
9.500008000000008
100
AcDbArc
 50
266.5254419295598
 51
273.4745580704402
  0
LINE
  5
A67
330
18
100
AcDbEntity
  8
1
  6
Continuous
100
AcDbLine
 10
598.4407019434142
 20
228.6714326077631
 30
0.0
 11
605.7892004635332
 21
224.428775009033
 31
0.0
  0
ARC
  5
A68
330
18
100
AcDbEntity
  8
1
  6
Continuous
100
AcDbCircle
 10
606.3649514534736
 20
233.9113201735786
 30
0.0
 40
9.500008000000008
100
AcDbArc
 50
206.5254554342501
 51
213.474558070439
  0
LINE
  5
A69
330
18
100
AcDbEntity
  8
1
  6
Continuous
100
AcDbLine
 10
614.2892009635326
 20
228.6714326077631
 30
0.0
 11
606.9407024434142
 21
224.428775009033
 31
0.0
  0
ARC
  5
A6A
330
18
100
AcDbEntity
  8
1
  6
Continuous
100
AcDbCircle
 10
606.3649514534736
 20
233.9113201735786
 30
0.0
 40
9.500008000000008
100
AcDbArc
 50
326.5254419295609
 51
333.4745445657499
  0
ARC
  5
A6B
330
18
100
AcDbEntity
  8
1
  6
Continuous
100
AcDbCircle
 10
606.3649514534736
 20
233.9113201735786
 30
0.0
 40
9.500008000000008
100
AcDbArc
 50
86.5254419295598
 51
93.47455807044015
  0
LINE
  5
A6C
330
18
100
AcDbEntity
  8
1
  6
Continuous
100
AcDbLine
 10
598.4407019434142
 20
239.1512077393942
 30
0.0
 11
605.7892004635332
 21
243.3938653381243
 31
0.0
  0
ARC
  5
A6D
330
18
100
AcDbEntity
  8
1
  6
Continuous
100
AcDbCircle
 10
606.3649514534736
 20
233.9113201735786
 30
0.0
 40
9.500008000000008
100
AcDbArc
 50
146.5254419295594
 51
153.4745445657499
  0
ARC
  5
A6E
330
18
100
AcDbEntity
  8
1
  6
Continuous
100
AcDbCircle
 10
606.3649514534736
 20
233.9113201735786
 30
0.0
 40
9.500008000000008
100
AcDbArc
 50
26.52545543425008
 51
33.47455807043905
  0
LINE
  5
A6F
330
18
100
AcDbEntity
  8
1
  6
Continuous
100
AcDbLine
 10
614.2892009635333
 20
239.1512077393942
 30
0.0
 11
606.9407024434142
 21
243.3938653381243
 31
0.0
  0
LINE
  5
14F8
330
18
100
AcDbEntity
  8
4
  6
CENTER
100
AcDbLine
 10
78.45259076117098
 20
300.9765056735786
 30
0.0
 11
78.45259076117098
 21
192.4083601735786
 31
0.0
  0
LINE
  5
14F9
330
18
100
AcDbEntity
  8
1
  6
Continuous
100
AcDbLine
 10
48.45259076117098
 20
289.4113282735787
 30
0.0
 11
49.5089107611709
 21
285.8113221735786
 31
0.0
  0
LINE
  5
14FA
330
18
100
AcDbEntity
  8
1
  6
Continuous
100
AcDbLine
 10
108.4525757611709
 20
289.4113263735786
 30
0.0
 11
107.396255761171
 21
285.8113311735787
 31
0.0
  0
LINE
  5
14FB
330
18
100
AcDbEntity
  8
1
  6
Continuous
100
AcDbLine
 10
301.5146955815016
 20
289.4113225735786
 30
0.0
 11
300.4583755815015
 21
285.8113211735787
 31
0.0
  0
LINE
  5
14FC
330
18
100
AcDbEntity
  8
1
  6
Continuous
100
AcDbLine
 10
241.5147105815015
 20
289.4113191735787
 30
0.0
 11
242.5710265815014
 21
285.8113191735786
 31
0.0
  0
LINE
  5
14FD
330
18
100
AcDbEntity
  8
4
  6
CENTER
100
AcDbLine
 10
271.5147105815014
 20
300.9765056735786
 30
0.0
 11
271.5147105815014
 21
258.9204601735787
 31
0.0
  0
ARC
  5
1500
330
18
100
AcDbEntity
  8
1
  6
Continuous
100
AcDbCircle
 10
102.3525927611707
 20
247.8305401735786
 30
0.0
 40
4.400000099999997
100
AcDbArc
 50
255.5224899999974
 51
284.4775100000024
  0
ARC
  5
1501
330
18
100
AcDbEntity
  8
1
  6
Continuous
100
AcDbCircle
 10
100.952590761171
 20
252.3191991735787
 30
0.0
 40
2.0
100
AcDbArc
 50
270.0
 51
0.0
  0
LINE
  5
1502
330
18
100
AcDbEntity
  8
1
  6
Continuous
100
AcDbLine
 10
51.952590761171
 20
266.7876971735787
 30
0.0
 11
104.952590761171
 21
266.7876971735787
 31
0.0
  0
LINE
  5
1503
330
18
100
AcDbEntity
  8
1
  6
Continuous
100
AcDbLine
 10
98.8777387611708
 20
276.4113201735788
 30
0.0
 11
107.252593761171
 21
276.4113201735788
 31
0.0
  0
LINE
  5
1504
330
18
100
AcDbEntity
  8
1
  6
Continuous
100
AcDbLine
 10
96.54055776117091
 20
275.5202181735786
 30
0.0
 11
103.2883297611707
 21
272.3683441735786
 31
0.0
  0
LINE
  5
1505
330
18
100
AcDbEntity
  8
1
  6
Continuous
100
AcDbLine
 10
96.54055776117091
 20
277.5030141735787
 30
0.0
 11
103.2883297611711
 21
274.3511411735787
 31
0.0
  0
LINE
  5
1506
330
18
100
AcDbEntity
  8
1
  6
Continuous
100
AcDbLine
 10
49.35258076117088
 20
253.4114841735787
 30
0.0
 11
107.5525967611707
 21
253.4114841735787
 31
0.0
  0
LINE
  5
1507
330
18
100
AcDbEntity
  8
1
  6
Continuous
100
AcDbLine
 10
49.35258076117088
 20
253.1693731735786
 30
0.0
 11
107.5525967611707
 21
253.1693731735786
 31
0.0
  0
LINE
  5
1508
330
18
100
AcDbEntity
  8
1
  6
Continuous
100
AcDbLine
 10
100.952590761171
 20
219.6113171735786
 30
0.0
 11
104.952590761171
 21
219.6113171735786
 31
0.0
  0
LINE
  5
1509
330
18
100
AcDbEntity
  8
1
  6
Continuous
100
AcDbLine
 10
47.85478076117079
 20
280.4113201735788
 30
0.0
 11
109.0503997611707
 21
280.4113201735788
 31
0.0
  0
LINE
  5
150A
330
18
100
AcDbEntity
  8
1
  6
Continuous
100
AcDbLine
 10
49.50893076117107
 20
285.8113201735786
 30
0.0
 11
107.3962707611707
 21
285.8113201735786
 31
0.0
  0
LINE
  5
150B
330
18
100
AcDbEntity
  8
4
  6
CENTER
100
AcDbLine
 10
35.1525907611708
 20
233.9113201735786
 30
0.0
 11
115.4003297611709
 21
233.9113201735786
 31
0.0
  0
LINE
  5
150C
330
18
100
AcDbEntity
  8
1
  6
Continuous
100
AcDbLine
 10
100.952590761171
 20
221.9113201735786
 30
0.0
 11
104.952590761171
 21
221.9113201735786
 31
0.0
  0
ARC
  5
1511
330
18
100
AcDbEntity
  8
1
  6
Continuous
100
AcDbCircle
 10
48.46260076117096
 20
241.2725341735786
 30
0.0
 40
3.8100059
100
AcDbArc
 50
150.3156199999998
 51
209.6843800000002
  0
ARC
  5
1512
330
18
100
AcDbEntity
  8
1
  6
Continuous
100
AcDbCircle
 10
44.25259076117095
 20
241.2113191735786
 30
0.0
 40
1.199999999999999
100
AcDbArc
 50
90.00000299999769
 51
180.0000099999993
  0
ARC
  5
1513
330
18
100
AcDbEntity
  8
1
  6
Continuous
100
AcDbCircle
 10
44.86549076117078
 20
241.2812661735786
 30
0.0
 40
4.787128
100
AcDbArc
 50
333.5795799999996
 51
26.42042000000029
  0
LINE
  5
1514
330
18
100
AcDbEntity
  8
1
  6
Continuous
100
AcDbLine
 10
53.15259076117081
 20
253.1693731735786
 30
0.0
 11
53.15259076117081
 21
241.9497191735786
 31
0.0
  0
LINE
  5
1515
330
18
100
AcDbEntity
  8
1
  6
Continuous
100
AcDbLine
 10
49.65260076117099
 20
253.1693731735786
 30
0.0
 11
49.65260076117099
 21
221.9113201735786
 31
0.0
  0
LINE
  5
1516
330
18
100
AcDbEntity
  8
1
  6
Continuous
100
AcDbLine
 10
100.952590761171
 20
250.3191991735786
 30
0.0
 11
100.952590761171
 21
219.6113171735786
 31
0.0
  0
LINE
  5
1517
330
18
100
AcDbEntity
  8
1
  6
Continuous
100
AcDbLine
 10
51.952590761171
 20
253.1693731735786
 30
0.0
 11
51.952590761171
 21
221.9113201735786
 31
0.0
  0
LINE
  5
1518
330
18
100
AcDbEntity
  8
1
  6
Continuous
100
AcDbLine
 10
55.95259076117098
 20
250.3191991735786
 30
0.0
 11
55.95259076117098
 21
219.6113171735786
 31
0.0
  0
LINE
  5
1519
330
18
100
AcDbEntity
  8
1
  6
Continuous
100
AcDbLine
 10
58.45259076117098
 20
250.3191991735786
 30
0.0
 11
58.45259076117098
 21
202.1892741735786
 31
0.0
  0
LINE
  5
151A
330
18
100
AcDbEntity
  8
1
  6
Continuous
100
AcDbLine
 10
98.452590761171
 20
250.3191991735786
 30
0.0
 11
98.452590761171
 21
202.1892741735786
 31
0.0
  0
LINE
  5
151B
330
18
100
AcDbEntity
  8
1
  6
Continuous
100
AcDbLine
 10
100.1525877611709
 20
250.3191991735786
 30
0.0
 11
100.1525877611709
 21
215.9113201735786
 31
0.0
  0
LINE
  5
151C
330
18
100
AcDbEntity
  8
1
  6
Continuous
100
AcDbLine
 10
56.75259076117095
 20
250.3191991735786
 30
0.0
 11
56.75259076117095
 21
215.9113201735786
 31
0.0
  0
LINE
  5
151D
330
18
100
AcDbEntity
  8
1
  6
Continuous
100
AcDbLine
 10
44.65259076117081
 20
242.4113201735786
 30
0.0
 11
44.65259076117081
 21
233.9113201735786
 31
0.0
  0
ARC
  5
151E
330
18
100
AcDbEntity
  8
1
  6
Continuous
100
AcDbCircle
 10
78.45259076117098
 20
346.4113201735788
 30
0.0
 40
150.0
100
AcDbArc
 50
264.0622100000005
 51
275.9377700000019
  0
ARC
  5
151F
330
18
100
AcDbEntity
  8
1
  6
Continuous
100
AcDbCircle
 10
63.45259076117098
 20
202.1892741735786
 30
0.0
 40
5.0
100
AcDbArc
 50
179.9999799999995
 51
264.062190000002
  0
LINE
  5
1520
330
18
100
AcDbEntity
  8
1
  6
Continuous
100
AcDbLine
 10
56.75259076117095
 20
215.9113201735786
 30
0.0
 11
58.45259076117098
 21
215.9113201735786
 31
0.0
  0
LINE
  5
1521
330
18
100
AcDbEntity
  8
1
  6
Continuous
100
AcDbLine
 10
51.952590761171
 20
219.6113171735786
 30
0.0
 11
55.95259076117098
 21
219.6113171735786
 31
0.0
  0
LINE
  5
1522
330
18
100
AcDbEntity
  8
1
  6
Continuous
100
AcDbLine
 10
51.952590761171
 20
221.9113201735786
 30
0.0
 11
55.95259076117098
 21
221.9113201735786
 31
0.0
  0
ARC
  5
1523
330
18
100
AcDbEntity
  8
1
  6
Continuous
100
AcDbCircle
 10
31.4025907611708
 20
233.9113201735786
 30
0.0
 40
18.25
100
AcDbArc
 50
346.5572599999986
 51
13.44273899999898
  0
ARC
  5
1524
330
18
100
AcDbEntity
  8
1
  6
Continuous
100
AcDbCircle
 10
59.14259076117104
 20
233.9113201735786
 30
0.0
 40
14.49
100
AcDbArc
 50
164.9045800000001
 51
195.0954199999998
  0
LINE
  5
1525
330
18
100
AcDbEntity
  8
1
  6
Continuous
100
AcDbLine
 10
40.65259076117081
 20
238.1613201735786
 30
0.0
 11
40.65259076117081
 21
229.6613201735786
 31
0.0
  0
LINE
  5
1526
330
18
100
AcDbEntity
  8
1
  6
Continuous
100
AcDbLine
 10
41.40259076117081
 20
238.9113201735786
 30
0.0
 11
41.40259076117081
 21
228.9113201735786
 31
0.0
  0
LINE
  5
1527
330
18
100
AcDbEntity
  8
1
  6
Continuous
100
AcDbLine
 10
43.05261076117085
 20
226.6113171735786
 30
0.0
 11
43.05261076117085
 21
233.9113201735786
 31
0.0
  0
LINE
  5
1528
330
18
100
AcDbEntity
  8
1
  6
Continuous
100
AcDbLine
 10
44.65259076117081
 20
225.4113201735786
 30
0.0
 11
44.65259076117081
 21
233.9113201735786
 31
0.0
  0
LINE
  5
1529
330
18
100
AcDbEntity
  8
1
  6
Continuous
100
AcDbLine
 10
45.15260076117079
 20
228.4369011735786
 30
0.0
 11
49.15259076117081
 21
228.6714211735787
 31
0.0
  0
LINE
  5
152A
330
18
100
AcDbEntity
  8
1
  6
Continuous
100
AcDbLine
 10
45.15259076117081
 20
224.6113251735786
 30
0.0
 11
49.15260076117101
 21
224.4113281735786
 31
0.0
  0
LINE
  5
152B
330
18
100
AcDbEntity
  8
1
  6
Continuous
100
AcDbLine
 10
49.15259076117103
 20
229.6686751735788
 30
0.0
 11
45.15259076117103
 21
230.1377221735789
 31
0.0
  0
LINE
  5
152C
330
18
100
AcDbEntity
  8
1
  6
Continuous
100
AcDbLine
 10
49.15260076117078
 20
224.4113121735786
 30
0.0
 11
45.15259076117081
 21
224.6633041735786
 31
0.0
  0
ARC
  5
152D
330
18
100
AcDbEntity
  8
1
  6
Continuous
100
AcDbCircle
 10
44.25259076117095
 20
226.6113171735786
 30
0.0
 40
1.199999999999999
100
AcDbArc
 50
180.0000099999993
 51
270.0
  0
ARC
  5
152E
330
18
100
AcDbEntity
  8
1
  6
Continuous
100
AcDbCircle
 10
48.46260076117096
 20
226.5501061735786
 30
0.0
 40
3.8100059
100
AcDbArc
 50
150.3156199999998
 51
209.6843800000002
  0
LINE
  5
152F
330
18
100
AcDbEntity
  8
1
  6
Continuous
100
AcDbLine
 10
41.40259076117081
 20
228.9113201735786
 30
0.0
 11
43.05261076117085
 21
228.9113201735786
 31
0.0
  0
LINE
  5
1530
330
18
100
AcDbEntity
  8
2
  6
Continuous
100
AcDbLine
 10
40.65259076117081
 20
229.6613201735786
 30
0.0
 11
43.05261076117085
 21
229.6613201735786
 31
0.0
  0
LINE
  5
1531
330
18
100
AcDbEntity
  8
1
  6
Continuous
100
AcDbLine
 10
41.40257076117086
 20
228.9113051735788
 30
0.0
 11
40.65257076117084
 21
229.6612971735787
 31
0.0
  0
LINE
  5
1532
330
18
100
AcDbEntity
  8
1
  6
Continuous
100
AcDbLine
 10
45.15260076117099
 20
228.4369011735786
 30
0.0
 11
45.15260076117099
 21
230.1377301735787
 31
0.0
  0
LINE
  5
1533
330
18
100
AcDbEntity
  8
1
  6
Continuous
100
AcDbLine
 10
45.15260076117099
 20
224.6113171735786
 30
0.0
 11
45.15260076117099
 21
224.6633111735786
 31
0.0
  0
LINE
  5
1534
330
18
100
AcDbEntity
  8
1
  6
Continuous
100
AcDbLine
 10
45.15262076117095
 20
224.6113251735784
 30
0.0
 11
44.65262076117094
 21
225.4113281735786
 31
0.0
  0
LINE
  5
1535
330
18
100
AcDbEntity
  8
1
  6
Continuous
100
AcDbLine
 10
44.25259076117095
 20
225.4113201735786
 30
0.0
 11
44.65259076117081
 21
225.4113201735786
 31
0.0
  0
ARC
  5
1536
330
18
100
AcDbEntity
  8
1
  6
Continuous
100
AcDbCircle
 10
51.952590761171
 20
221.9113201735786
 30
0.0
 40
2.299999999999998
100
AcDbArc
 50
179.9999899999988
 51
270.0
  0
ARC
  5
1537
330
18
100
AcDbEntity
  8
1
  6
Continuous
100
AcDbCircle
 10
44.86549076117078
 20
226.5413711735786
 30
0.0
 40
4.787128
100
AcDbArc
 50
333.5795799999996
 51
26.42042000000029
  0
LINE
  5
1538
330
18
100
AcDbEntity
  8
1
  6
Continuous
100
AcDbLine
 10
49.15260076117101
 20
229.6686821735786
 30
0.0
 11
49.15260076117101
 21
228.6714291735786
 31
0.0
  0
LINE
  5
1539
330
18
100
AcDbEntity
  8
1
  6
Continuous
100
AcDbLine
 10
49.65259076117103
 20
225.4113121735787
 30
0.0
 11
49.15259076117103
 21
224.4113201735786
 31
0.0
  0
LINE
  5
153A
330
18
100
AcDbEntity
  8
1
  6
Continuous
100
AcDbLine
 10
45.15260076117099
 20
239.3857271735788
 30
0.0
 11
49.15260076117078
 21
239.1512031735786
 31
0.0
  0
LINE
  5
153B
330
18
100
AcDbEntity
  8
1
  6
Continuous
100
AcDbLine
 10
49.15260076117078
 20
238.1539651735786
 30
0.0
 11
45.15260076117079
 21
237.6849181735786
 31
0.0
  0
LINE
  5
153C
330
18
100
AcDbEntity
  8
2
  6
Continuous
100
AcDbLine
 10
40.65259076117081
 20
238.1613201735786
 30
0.0
 11
43.05261076117085
 21
238.1613201735786
 31
0.0
  0
LINE
  5
153D
330
18
100
AcDbEntity
  8
1
  6
Continuous
100
AcDbLine
 10
41.40259076117081
 20
238.9113201735786
 30
0.0
 11
43.05261076117085
 21
238.9113201735786
 31
0.0
  0
LINE
  5
153E
330
18
100
AcDbEntity
  8
1
  6
Continuous
100
AcDbLine
 10
40.65257076117084
 20
238.1612971735787
 30
0.0
 11
41.40257076117109
 21
238.9113051735788
 31
0.0
  0
LINE
  5
153F
330
18
100
AcDbEntity
  8
1
  6
Continuous
100
AcDbLine
 10
45.15260076117099
 20
239.3857391735787
 30
0.0
 11
45.15260076117099
 21
237.6849141735786
 31
0.0
  0
LINE
  5
1540
330
18
100
AcDbEntity
  8
1
  6
Continuous
100
AcDbLine
 10
43.05261076117085
 20
241.2113191735786
 30
0.0
 11
43.05261076117085
 21
233.9113201735786
 31
0.0
  0
LINE
  5
1541
330
18
100
AcDbEntity
  8
1
  6
Continuous
100
AcDbLine
 10
51.952590761171
 20
241.9497191735786
 30
0.0
 11
53.15259076117081
 21
241.9497191735786
 31
0.0
  0
LINE
  5
1542
330
18
100
AcDbEntity
  8
1
  6
Continuous
100
AcDbLine
 10
49.15260076117101
 20
238.1539611735786
 30
0.0
 11
49.15260076117101
 21
239.1512151735787
 31
0.0
  0
LINE
  5
1543
330
18
100
AcDbEntity
  8
1
  6
Continuous
100
AcDbLine
 10
55.95259076117098
 20
228.9113201735786
 30
0.0
 11
56.75259076117095
 21
228.9113201735786
 31
0.0
  0
LINE
  5
1544
330
18
100
AcDbEntity
  8
1
  6
Continuous
100
AcDbLine
 10
55.95259076117098
 20
238.9113201735786
 30
0.0
 11
56.75259076117095
 21
238.9113201735786
 31
0.0
  0
ARC
  5
1545
330
18
100
AcDbEntity
  8
1
  6
Continuous
100
AcDbCircle
 10
93.452590761171
 20
202.1892741735786
 30
0.0
 40
5.0
100
AcDbArc
 50
275.9377999999985
 51
0.0
  0
LINE
  5
1546
330
18
100
AcDbEntity
  8
1
  6
Continuous
100
AcDbLine
 10
98.452590761171
 20
215.9113201735786
 30
0.0
 11
100.1525877611709
 21
215.9113201735786
 31
0.0
  0
LINE
  5
1547
330
18
100
AcDbEntity
  8
1
  6
Continuous
100
AcDbLine
 10
100.1525877611709
 20
228.9113201735786
 30
0.0
 11
100.952590761171
 21
228.9113201735786
 31
0.0
  0
LINE
  5
1548
330
18
100
AcDbEntity
  8
1
  6
Continuous
100
AcDbLine
 10
100.1525877611709
 20
238.9113201735786
 30
0.0
 11
100.952590761171
 21
238.9113201735786
 31
0.0
  0
LINE
  5
1549
330
18
100
AcDbEntity
  8
1
  6
Continuous
100
AcDbLine
 10
61.952590761171
 20
275.8728011735787
 30
0.0
 11
94.95259076117099
 21
275.8728011735787
 31
0.0
  0
LINE
  5
154A
330
18
100
AcDbEntity
  8
1
  6
Continuous
100
AcDbLine
 10
61.952590761171
 20
277.8555971735787
 30
0.0
 11
94.95259076117099
 21
277.8555971735787
 31
0.0
  0
ARC
  5
154B
330
18
100
AcDbEntity
  8
1
  6
Continuous
100
AcDbCircle
 10
45.35260076117082
 20
264.5272071735786
 30
0.0
 40
1.0
100
AcDbArc
 50
90.00000299999769
 51
180.0000099999993
  0
LINE
  5
154C
330
18
100
AcDbEntity
  8
1
  6
Continuous
100
AcDbLine
 10
43.85260076117083
 20
271.1674671735786
 30
0.0
 11
43.85260076117083
 21
263.2078751735786
 31
0.0
  0
LINE
  5
154D
330
18
100
AcDbEntity
  8
1
  6
Continuous
100
AcDbLine
 10
43.05260076117089
 20
270.1876721735786
 30
0.0
 11
43.05260076117089
 21
264.1876721735787
 31
0.0
  0
LINE
  5
154E
330
18
100
AcDbEntity
  8
1
  6
Continuous
100
AcDbLine
 10
44.35260076117081
 20
274.1876721735786
 30
0.0
 11
44.35260076117081
 21
252.8898361735786
 31
0.0
  0
LINE
  5
154F
330
18
100
AcDbEntity
  8
1
  6
Continuous
100
AcDbLine
 10
46.35258076117088
 20
266.7876971735787
 30
0.0
 11
46.35258076117088
 21
243.2713241735786
 31
0.0
  0
ARC
  5
1550
330
18
100
AcDbEntity
  8
1
  6
Continuous
100
AcDbCircle
 10
54.55259076117091
 20
247.8305401735786
 30
0.0
 40
4.400000099999997
100
AcDbArc
 50
255.5224899999974
 51
284.4775100000024
  0
ARC
  5
1551
330
18
100
AcDbEntity
  8
1
  6
Continuous
100
AcDbCircle
 10
55.95259076117098
 20
252.3191991735787
 30
0.0
 40
2.0
100
AcDbArc
 50
179.9999899999988
 51
270.0
  0
ARC
  5
1552
330
18
100
AcDbEntity
  8
1
  6
Continuous
100
AcDbCircle
 10
49.35258076117088
 20
250.4114841735786
 30
0.0
 40
3.0
100
AcDbArc
 50
90.00000299999769
 51
180.0000099999993
  0
ARC
  5
1553
330
18
100
AcDbEntity
  8
1
  6
Continuous
100
AcDbCircle
 10
50.53383076117096
 20
248.6805381735786
 30
0.0
 40
5.78125
100
AcDbArc
 50
145.7945399999999
 51
214.2054599999999
  0
LINE
  5
1554
330
18
100
AcDbEntity
  8
1
  6
Continuous
100
AcDbLine
 10
44.35260076117081
 20
252.8898361735786
 30
0.0
 11
46.35258076117088
 21
252.8898361735786
 31
0.0
  0
LINE
  5
1555
330
18
100
AcDbEntity
  8
1
  6
Continuous
100
AcDbLine
 10
49.15262076117095
 20
243.4113241735786
 30
0.0
 11
45.15262076117095
 21
243.1593361735786
 31
0.0
  0
LINE
  5
1556
330
18
100
AcDbEntity
  8
1
  6
Continuous
100
AcDbLine
 10
45.15259076117103
 20
243.2113231735786
 30
0.0
 11
49.15259076117103
 21
243.4113201735786
 31
0.0
  0
LINE
  5
1557
330
18
100
AcDbEntity
  8
1
  6
Continuous
100
AcDbLine
 10
44.25259076117095
 20
242.4113201735786
 30
0.0
 11
44.65259076117081
 21
242.4113201735786
 31
0.0
  0
LINE
  5
1558
330
18
100
AcDbEntity
  8
1
  6
Continuous
100
AcDbLine
 10
45.15259076117081
 20
243.2113231735786
 30
0.0
 11
44.65259076117081
 21
242.4113311735788
 31
0.0
  0
LINE
  5
1559
330
18
100
AcDbEntity
  8
1
  6
Continuous
100
AcDbLine
 10
45.15260076117099
 20
243.2113191735786
 30
0.0
 11
45.15260076117099
 21
243.1593331735786
 31
0.0
  0
LINE
  5
155A
330
18
100
AcDbEntity
  8
1
  6
Continuous
100
AcDbLine
 10
53.45259076117098
 20
245.1805381735786
 30
0.0
 11
53.15259076117081
 21
245.1805381735786
 31
0.0
  0
LINE
  5
155B
330
18
100
AcDbEntity
  8
1
  6
Continuous
100
AcDbLine
 10
53.45259076117098
 20
252.1805381735786
 30
0.0
 11
53.15259076117081
 21
252.1805381735786
 31
0.0
  0
LINE
  5
155C
330
18
100
AcDbEntity
  8
1
  6
Continuous
100
AcDbLine
 10
53.45259076117098
 20
253.1693731735786
 30
0.0
 11
53.45259076117098
 21
243.5702561735786
 31
0.0
  0
LINE
  5
155D
330
18
100
AcDbEntity
  8
1
  6
Continuous
100
AcDbLine
 10
45.75259076117094
 20
245.4305381735786
 30
0.0
 11
46.35258076117088
 21
246.3460051735786
 31
0.0
  0
LINE
  5
155E
330
18
100
AcDbEntity
  8
1
  6
Continuous
100
AcDbLine
 10
45.75258076117097
 20
251.9305381735786
 30
0.0
 11
45.75258076117097
 21
245.4305381735786
 31
0.0
  0
LINE
  5
155F
330
18
100
AcDbEntity
  8
1
  6
Continuous
100
AcDbLine
 10
46.35258076117088
 20
251.3460351735786
 30
0.0
 11
45.75259076117094
 21
251.9305381735786
 31
0.0
  0
LINE
  5
1560
330
18
100
AcDbEntity
  8
1
  6
Continuous
100
AcDbLine
 10
49.35258076117088
 20
253.1693731735786
 30
0.0
 11
49.35258076117088
 21
242.9493301735786
 31
0.0
  0
LINE
  5
1561
330
18
100
AcDbEntity
  8
1
  6
Continuous
100
AcDbLine
 10
49.65260076117099
 20
242.4113241735787
 30
0.0
 11
49.15260076117101
 21
243.4113241735786
 31
0.0
  0
ARC
  5
1562
330
18
100
AcDbEntity
  8
1
  6
Continuous
100
AcDbCircle
 10
44.05260076117087
 20
264.1876721735787
 30
0.0
 40
1.0
100
AcDbArc
 50
179.9999899999988
 51
258.4630500000013
  0
ARC
  5
1563
330
18
100
AcDbEntity
  8
1
  6
Continuous
100
AcDbCircle
 10
48.53383076117097
 20
261.1371391735788
 30
0.0
 40
5.78125
100
AcDbArc
 50
155.3140199999991
 51
214.2054599999999
  0
LINE
  5
1564
330
18
100
AcDbEntity
  8
1
  6
Continuous
100
AcDbLine
 10
44.35260076117081
 20
264.6876741735786
 30
0.0
 11
43.85260076117083
 21
263.2078751735786
 31
0.0
  0
LINE
  5
1565
330
18
100
AcDbEntity
  8
1
  6
Continuous
100
AcDbLine
 10
44.35258076117088
 20
263.8026321735786
 30
0.0
 11
44.1276107611709
 21
264.0217941735786
 31
0.0
  0
LINE
  5
1566
330
18
100
AcDbEntity
  8
1
  6
Continuous
100
AcDbLine
 10
43.75258076117098
 20
263.2337381735788
 30
0.0
 11
43.75258076117098
 21
257.8871391735788
 31
0.0
  0
LINE
  5
1567
330
18
100
AcDbEntity
  8
1
  6
Continuous
100
AcDbLine
 10
43.75258076117098
 20
257.8871351735787
 30
0.0
 11
44.35258076117088
 21
258.8026091735788
 31
0.0
  0
LINE
  5
1568
330
18
100
AcDbEntity
  8
1
  6
Continuous
100
AcDbLine
 10
55.95259076117098
 20
250.3191991735786
 30
0.0
 11
65.45259076117098
 21
250.3191991735786
 31
0.0
  0
LINE
  5
1569
330
18
100
AcDbEntity
  8
1
  6
Continuous
100
AcDbLine
 10
55.65259076117081
 20
250.3418281735786
 30
0.0
 11
55.65259076117081
 21
243.5702561735786
 31
0.0
  0
LINE
  5
156A
330
18
100
AcDbEntity
  8
1
  6
Continuous
100
AcDbLine
 10
53.95259076117099
 20
253.1693731735786
 30
0.0
 11
53.95259076117099
 21
252.3191991735787
 31
0.0
  0
ARC
  5
156B
330
18
100
AcDbEntity
  8
1
  6
Continuous
100
AcDbCircle
 10
65.45259076117098
 20
251.3191991735785
 30
0.0
 40
1.0
100
AcDbArc
 50
270.0
 51
0.0
  0
LINE
  5
156C
330
18
100
AcDbEntity
  8
1
  6
Continuous
100
AcDbLine
 10
66.45259076117098
 20
253.1693731735786
 30
0.0
 11
66.45259076117098
 21
251.3191991735785
 31
0.0
  0
LINE
  5
156D
330
18
100
AcDbEntity
  8
1
  6
Continuous
100
AcDbLine
 10
60.36462076117095
 20
275.5202161735786
 30
0.0
 11
53.61686076117099
 21
272.3683461735786
 31
0.0
  0
LINE
  5
156E
330
18
100
AcDbEntity
  8
1
  6
Continuous
100
AcDbLine
 10
49.65260076117099
 20
276.4113201735788
 30
0.0
 11
58.02745076117094
 21
276.4113201735788
 31
0.0
  0
LINE
  5
156F
330
18
100
AcDbEntity
  8
1
  6
Continuous
100
AcDbLine
 10
60.36462076117095
 20
277.5030081735788
 30
0.0
 11
53.61685076117101
 21
274.3511371735787
 31
0.0
  0
LINE
  5
1570
330
18
100
AcDbEntity
  8
1
  6
Continuous
100
AcDbLine
 10
46.45259076117098
 20
276.9391841735786
 30
0.0
 11
46.43358076117102
 21
276.1876721735786
 31
0.0
  0
ARC
  5
1571
330
18
100
AcDbEntity
  8
1
  6
Continuous
100
AcDbCircle
 10
46.35260076117083
 20
274.1876721735786
 30
0.0
 40
2.0
100
AcDbArc
 50
90.00000299999769
 51
180.0000099999993
  0
LINE
  5
1572
330
18
100
AcDbEntity
  8
1
  6
Continuous
100
AcDbLine
 10
45.35260076117082
 20
265.5272071735786
 30
0.0
 11
46.35258076117088
 21
265.5272071735786
 31
0.0
  0
ARC
  5
1573
330
18
100
AcDbEntity
  8
1
  6
Continuous
100
AcDbCircle
 10
44.05260076117087
 20
270.1876721735786
 30
0.0
 40
1.0
100
AcDbArc
 50
101.5369600000027
 51
180.0000099999993
  0
LINE
  5
1574
330
18
100
AcDbEntity
  8
1
  6
Continuous
100
AcDbLine
 10
44.35260076117081
 20
269.6876801735786
 30
0.0
 11
43.85260076117083
 21
271.1674711735787
 31
0.0
  0
ARC
  5
1575
330
18
100
AcDbEntity
  8
1
  6
Continuous
100
AcDbCircle
 10
49.452590761171
 20
268.7876971735787
 30
0.0
 40
2.0
100
AcDbArc
 50
270.0
 51
0.0
  0
ARC
  5
1576
330
18
100
AcDbEntity
  8
1
  6
Continuous
100
AcDbCircle
 10
55.20482076117104
 20
268.9686991735786
 30
0.0
 40
3.752229499999998
100
AcDbArc
 50
115.0371999999981
 51
180.0000099999993
  0
ARC
  5
1577
330
18
100
AcDbEntity
  8
1
  6
Continuous
100
AcDbCircle
 10
55.20482076117104
 20
270.9514941735786
 30
0.0
 40
3.752229499999998
100
AcDbArc
 50
115.0371999999981
 51
180.0000099999993
  0
LINE
  5
1578
330
18
100
AcDbEntity
  8
1
  6
Continuous
100
AcDbLine
 10
46.35260076117083
 20
276.1876721735786
 30
0.0
 11
49.452590761171
 21
276.1876721735786
 31
0.0
  0
LINE
  5
1579
330
18
100
AcDbEntity
  8
1
  6
Continuous
100
AcDbLine
 10
46.35258076117088
 20
266.7876971735787
 30
0.0
 11
49.452590761171
 21
266.7876971735787
 31
0.0
  0
LINE
  5
157A
330
18
100
AcDbEntity
  8
1
  6
Continuous
100
AcDbLine
 10
51.45259076117099
 20
270.9514941735786
 30
0.0
 11
51.45259076117099
 21
268.7876971735787
 31
0.0
  0
LINE
  5
157B
330
18
100
AcDbEntity
  8
1
  6
Continuous
100
AcDbLine
 10
49.452590761171
 20
276.1876721735786
 30
0.0
 11
49.452590761171
 21
266.7860301735787
 31
0.0
  0
LINE
  5
157C
330
18
100
AcDbEntity
  8
1
  6
Continuous
100
AcDbLine
 10
49.65260076117099
 20
276.4113201735788
 30
0.0
 11
49.65260076117099
 21
266.7876971735787
 31
0.0
  0
ARC
  5
157D
330
18
100
AcDbEntity
  8
1
  6
Continuous
100
AcDbCircle
 10
47.452590761171
 20
281.4113201735788
 30
0.0
 40
1.0
100
AcDbArc
 50
311.7693699999981
 51
0.0
  0
ARC
  5
157E
330
18
100
AcDbEntity
  8
1
  6
Continuous
100
AcDbCircle
 10
54.452590761171
 20
282.4113201735788
 30
0.0
 40
6.0
100
AcDbArc
 50
145.4819099999985
 51
179.9999599999992
  0
ARC
  5
157F
330
18
100
AcDbEntity
  8
1
  6
Continuous
100
AcDbCircle
 10
51.45259076117099
 20
276.9391841735786
 30
0.0
 40
5.0
100
AcDbArc
 50
131.8021299999975
 51
179.9999599999992
  0
LINE
  5
1580
330
18
100
AcDbEntity
  8
1
  6
Continuous
100
AcDbLine
 10
48.45259076117098
 20
282.4113201735788
 30
0.0
 11
48.45259076117098
 21
281.4113201735788
 31
0.0
  0
ARC
  5
1581
330
18
100
AcDbEntity
  8
1
  6
Continuous
100
AcDbCircle
 10
61.952590761171
 20
272.1205711735787
 30
0.0
 40
3.752229499999998
100
AcDbArc
 50
90.00000299999769
 51
115.0371999999981
  0
ARC
  5
1582
330
18
100
AcDbEntity
  8
1
  6
Continuous
100
AcDbCircle
 10
61.952590761171
 20
274.1033671735788
 30
0.0
 40
3.752229499999998
100
AcDbArc
 50
90.00000299999769
 51
115.0371999999981
  0
LINE
  5
1583
330
18
100
AcDbEntity
  8
1
  6
Continuous
100
AcDbLine
 10
91.45259076117099
 20
250.3191991735786
 30
0.0
 11
100.952590761171
 21
250.3191991735786
 31
0.0
  0
ARC
  5
1584
330
18
100
AcDbEntity
  8
1
  6
Continuous
100
AcDbCircle
 10
91.45259076117099
 20
251.3191991735785
 30
0.0
 40
1.0
100
AcDbArc
 50
179.9999899999988
 51
270.0
  0
LINE
  5
1585
330
18
100
AcDbEntity
  8
1
  6
Continuous
100
AcDbLine
 10
90.45259076117099
 20
253.1693731735786
 30
0.0
 11
90.45259076117099
 21
251.3191991735785
 31
0.0
  0
LINE
  5
1586
330
18
100
AcDbEntity
  8
1
  6
Continuous
100
AcDbLine
 10
101.2525937611709
 20
250.3418281735786
 30
0.0
 11
101.2525937611709
 21
243.5702561735786
 31
0.0
  0
LINE
  5
1587
330
18
100
AcDbEntity
  8
1
  6
Continuous
100
AcDbLine
 10
102.952590761171
 20
253.1693731735786
 30
0.0
 11
102.952590761171
 21
252.3191991735787
 31
0.0
  0
ARC
  5
1588
330
18
100
AcDbEntity
  8
1
  6
Continuous
100
AcDbCircle
 10
94.95259076117099
 20
272.1205711735787
 30
0.0
 40
3.752229499999998
100
AcDbArc
 50
64.96279700000065
 51
90.00000299999769
  0
ARC
  5
1589
330
18
100
AcDbEntity
  8
1
  6
Continuous
100
AcDbCircle
 10
94.95259076117099
 20
274.1033671735788
 30
0.0
 40
3.752229499999998
100
AcDbArc
 50
64.96279700000065
 51
90.00000299999769
  0
LINE
  5
158A
330
18
100
AcDbEntity
  8
5
  6
PHANTOM
100
AcDbLine
 10
197.3572265815013
 20
235.2572251735786
 30
0.0
 11
206.3429955815014
 21
225.1822021735786
 31
0.0
  0
LINE
  5
158B
330
18
100
AcDbEntity
  8
5
  6
PHANTOM
100
AcDbLine
 10
197.4104855815013
 20
235.1975141735786
 30
0.0
 11
211.1237265815015
 21
247.4281621735787
 31
0.0
  0
LINE
  5
158C
330
18
100
AcDbEntity
  8
1
  6
Continuous
100
AcDbLine
 10
197.5564265815015
 20
253.1693771735787
 30
0.0
 11
224.9226352815013
 21
243.0527771735787
 31
0.0
  0
LINE
  5
158D
330
18
100
AcDbEntity
  8
1
  6
Continuous
100
AcDbLine
 10
195.6492515815015
 20
266.7876991735786
 30
0.0
 11
213.9643465815014
 21
265.3047701735786
 31
0.0
  0
ARC
  5
158E
330
18
100
AcDbEntity
  8
1
  6
Continuous
100
AcDbCircle
 10
108.3057557611708
 20
240.4113201735786
 30
0.0
 40
2.5
100
AcDbArc
 50
7.8651532000004
 51
90.00000299999769
  0
LINE
  5
158F
330
18
100
AcDbEntity
  8
1
  6
Continuous
100
AcDbLine
 10
103.752593761171
 20
253.1693731735786
 30
0.0
 11
103.752593761171
 21
241.9497191735786
 31
0.0
  0
LINE
  5
1590
330
18
100
AcDbEntity
  8
1
  6
Continuous
100
AcDbLine
 10
107.252593761171
 20
253.1693731735786
 30
0.0
 11
107.252593761171
 21
221.9113201735786
 31
0.0
  0
LINE
  5
1591
330
18
100
AcDbEntity
  8
1
  6
Continuous
100
AcDbLine
 10
104.952590761171
 20
253.1693731735786
 30
0.0
 11
104.952590761171
 21
221.9113201735786
 31
0.0
  0
ARC
  5
1593
330
18
100
AcDbEntity
  8
1
  6
Continuous
100
AcDbCircle
 10
61.25259076117095
 20
233.9113201735786
 30
0.0
 40
50.0
100
AcDbArc
 50
352.134849999999
 51
7.8651532000004
  0
ARC
  5
1594
330
18
100
AcDbEntity
  8
1
  6
Continuous
100
AcDbCircle
 10
108.3057557611708
 20
227.4113201735786
 30
0.0
 40
2.5
100
AcDbArc
 50
270.0
 51
352.134849999999
  0
ARC
  5
1595
330
18
100
AcDbEntity
  8
1
  6
Continuous
100
AcDbCircle
 10
104.952590761171
 20
221.9113201735786
 30
0.0
 40
2.299999999999998
100
AcDbArc
 50
270.0
 51
0.0
  0
LINE
  5
1596
330
18
100
AcDbEntity
  8
1
  6
Continuous
100
AcDbLine
 10
107.252593761171
 20
224.9113201735786
 30
0.0
 11
108.3057557611708
 21
224.9113201735786
 31
0.0
  0
LINE
  5
1597
330
18
100
AcDbEntity
  8
1
  6
Continuous
100
AcDbLine
 10
103.752593761171
 20
241.9497191735786
 30
0.0
 11
104.952590761171
 21
241.9497191735786
 31
0.0
  0
ARC
  5
1598
330
18
100
AcDbEntity
  8
1
  6
Continuous
100
AcDbCircle
 10
111.5525967611707
 20
264.5272071735786
 30
0.0
 40
1.0
100
AcDbArc
 50
0.0
 51
90.00000299999769
  0
LINE
  5
1599
330
18
100
AcDbEntity
  8
1
  6
Continuous
100
AcDbLine
 10
114.5525967611707
 20
271.5606561735786
 30
0.0
 11
114.5525967611707
 21
262.8146901735788
 31
0.0
  0
LINE
  5
159A
330
18
100
AcDbEntity
  8
1
  6
Continuous
100
AcDbLine
 10
112.5525967611707
 20
274.1876721735786
 30
0.0
 11
112.5525967611707
 21
252.8898361735786
 31
0.0
  0
LINE
  5
159B
330
18
100
AcDbEntity
  8
1
  6
Continuous
100
AcDbLine
 10
110.5525967611707
 20
266.7876971735787
 30
0.0
 11
110.5525967611707
 21
242.6805351735786
 31
0.0
  0
ARC
  5
159C
330
18
100
AcDbEntity
  8
1
  6
Continuous
100
AcDbCircle
 10
107.5525967611707
 20
250.4114841735786
 30
0.0
 40
3.0
100
AcDbArc
 50
0.0
 51
90.00000299999769
  0
ARC
  5
159D
330
18
100
AcDbEntity
  8
1
  6
Continuous
100
AcDbCircle
 10
106.3713457611709
 20
248.6805381735786
 30
0.0
 40
5.78125
100
AcDbArc
 50
325.79454
 51
34.20545800000007
  0
LINE
  5
159E
330
18
100
AcDbEntity
  8
1
  6
Continuous
100
AcDbLine
 10
110.5525967611707
 20
252.8898361735786
 30
0.0
 11
112.5525967611707
 21
252.8898361735786
 31
0.0
  0
LINE
  5
159F
330
18
100
AcDbEntity
  8
1
  6
Continuous
100
AcDbLine
 10
103.4525907611709
 20
252.1805381735786
 30
0.0
 11
103.752593761171
 21
252.1805381735786
 31
0.0
  0
LINE
  5
15A0
330
18
100
AcDbEntity
  8
1
  6
Continuous
100
AcDbLine
 10
103.4525907611709
 20
245.1805381735786
 30
0.0
 11
103.752593761171
 21
245.1805381735786
 31
0.0
  0
LINE
  5
15A1
330
18
100
AcDbEntity
  8
1
  6
Continuous
100
AcDbLine
 10
103.4525907611709
 20
253.1693731735786
 30
0.0
 11
103.4525907611709
 21
243.5702561735786
 31
0.0
  0
LINE
  5
15A2
330
18
100
AcDbEntity
  8
1
  6
Continuous
100
AcDbLine
 10
107.252593761171
 20
242.9113201735786
 30
0.0
 11
108.3057557611708
 21
242.9113201735786
 31
0.0
  0
LINE
  5
15A3
330
18
100
AcDbEntity
  8
1
  6
Continuous
100
AcDbLine
 10
109.3548807611709
 20
242.6805351735786
 30
0.0
 11
110.5525967611707
 21
242.6805351735786
 31
0.0
  0
LINE
  5
15A4
330
18
100
AcDbEntity
  8
1
  6
Continuous
100
AcDbLine
 10
110.5525967611707
 20
251.3460311735789
 30
0.0
 11
111.1525957611709
 21
251.9305381735786
 31
0.0
  0
LINE
  5
15A5
330
18
100
AcDbEntity
  8
1
  6
Continuous
100
AcDbLine
 10
111.1525957611709
 20
245.4305381735786
 30
0.0
 11
110.5525967611707
 21
246.3460051735786
 31
0.0
  0
LINE
  5
15A6
330
18
100
AcDbEntity
  8
1
  6
Continuous
100
AcDbLine
 10
111.1525957611709
 20
251.9305381735786
 30
0.0
 11
111.1525957611709
 21
245.4305381735786
 31
0.0
  0
LINE
  5
15A7
330
18
100
AcDbEntity
  8
1
  6
Continuous
100
AcDbLine
 10
107.5525967611707
 20
253.1693731735786
 30
0.0
 11
107.5525967611707
 21
242.9113201735786
 31
0.0
  0
ARC
  5
15A8
330
18
100
AcDbEntity
  8
1
  6
Continuous
100
AcDbCircle
 10
113.5525967611707
 20
266.6876721735786
 30
0.0
 40
4.0
100
AcDbArc
 50
255.5224899999974
 51
284.4775100000024
  0
ARC
  5
15A9
330
18
100
AcDbEntity
  8
1
  6
Continuous
100
AcDbCircle
 10
108.3713457611709
 20
261.1371391735788
 30
0.0
 40
5.78125
100
AcDbArc
 50
325.79454
 51
15.74640299999978
  0
LINE
  5
15AA
330
18
100
AcDbEntity
  8
1
  6
Continuous
100
AcDbLine
 10
113.1525957611708
 20
257.8871391735788
 30
0.0
 11
112.5525967611707
 21
258.8026051735786
 31
0.0
  0
LINE
  5
15AB
330
18
100
AcDbEntity
  8
1
  6
Continuous
100
AcDbLine
 10
113.1525957611708
 20
262.7077221735786
 30
0.0
 11
113.1525957611708
 21
257.8871391735788
 31
0.0
  0
LINE
  5
15AC
330
18
100
AcDbEntity
  8
1
  6
Continuous
100
AcDbLine
 10
110.452582761171
 20
276.9391831735786
 30
0.0
 11
110.471595761171
 21
276.1876721735786
 31
0.0
  0
ARC
  5
15AD
330
18
100
AcDbEntity
  8
1
  6
Continuous
100
AcDbCircle
 10
110.5525967611707
 20
274.1876721735786
 30
0.0
 40
2.0
100
AcDbArc
 50
0.0
 51
90.00000299999769
  0
LINE
  5
15AE
330
18
100
AcDbEntity
  8
1
  6
Continuous
100
AcDbLine
 10
110.5525967611707
 20
265.5272071735786
 30
0.0
 11
111.5525967611707
 21
265.5272071735786
 31
0.0
  0
ARC
  5
15AF
330
18
100
AcDbEntity
  8
1
  6
Continuous
100
AcDbCircle
 10
107.4525907611709
 20
268.7876971735787
 30
0.0
 40
2.0
100
AcDbArc
 50
179.9999899999988
 51
270.0
  0
ARC
  5
15B0
330
18
100
AcDbEntity
  8
1
  6
Continuous
100
AcDbCircle
 10
101.7003627611709
 20
268.9686991735786
 30
0.0
 40
3.752229499999998
100
AcDbArc
 50
0.0
 51
64.96279700000065
  0
ARC
  5
15B1
330
18
100
AcDbEntity
  8
1
  6
Continuous
100
AcDbCircle
 10
101.7003627611709
 20
270.9514941735786
 30
0.0
 40
3.752229499999998
100
AcDbArc
 50
0.0
 51
64.96279700000065
  0
LINE
  5
15B2
330
18
100
AcDbEntity
  8
1
  6
Continuous
100
AcDbLine
 10
107.4525907611709
 20
266.7876971735787
 30
0.0
 11
110.5525967611707
 21
266.7876971735787
 31
0.0
  0
LINE
  5
15B3
330
18
100
AcDbEntity
  8
1
  6
Continuous
100
AcDbLine
 10
107.4525907611709
 20
276.1876721735786
 30
0.0
 11
110.5525967611707
 21
276.1876721735786
 31
0.0
  0
LINE
  5
15B4
330
18
100
AcDbEntity
  8
1
  6
Continuous
100
AcDbLine
 10
105.4525907611709
 20
270.9514941735786
 30
0.0
 11
105.4525907611709
 21
268.7876971735787
 31
0.0
  0
LINE
  5
15B5
330
18
100
AcDbEntity
  8
1
  6
Continuous
100
AcDbLine
 10
107.4525907611709
 20
276.1876721735786
 30
0.0
 11
107.4525907611709
 21
266.7876971735787
 31
0.0
  0
LINE
  5
15B6
330
18
100
AcDbEntity
  8
1
  6
Continuous
100
AcDbLine
 10
107.252593761171
 20
276.4113201735788
 30
0.0
 11
107.252593761171
 21
266.7876971735787
 31
0.0
  0
ARC
  5
15B7
330
18
100
AcDbEntity
  8
1
  6
Continuous
100
AcDbCircle
 10
113.5525967611707
 20
267.6876721735786
 30
0.0
 40
4.0
100
AcDbArc
 50
75.52248800000183
 51
104.4775100000024
  0
ARC
  5
15B8
330
18
100
AcDbEntity
  8
1
  6
Continuous
100
AcDbCircle
 10
102.4525907611709
 20
282.4113201735788
 30
0.0
 40
6.0
100
AcDbArc
 50
0.0
 51
34.51812000000097
  0
ARC
  5
15B9
330
18
100
AcDbEntity
  8
1
  6
Continuous
100
AcDbCircle
 10
109.4525907611709
 20
281.4113201735788
 30
0.0
 40
1.0
100
AcDbArc
 50
179.9999799999995
 51
228.1895899999978
  0
ARC
  5
15BA
330
18
100
AcDbEntity
  8
1
  6
Continuous
100
AcDbCircle
 10
105.4525907611709
 20
276.9391841735786
 30
0.0
 40
5.0
100
AcDbArc
 50
0.0
 51
48.18969600000014
  0
LINE
  5
15BB
330
18
100
AcDbEntity
  8
1
  6
Continuous
100
AcDbLine
 10
108.4525907611709
 20
282.4113201735788
 30
0.0
 11
108.4525907611709
 21
281.4113201735788
 31
0.0
  0
LINE
  5
15BD
330
18
100
AcDbEntity
  8
5
  6
PHANTOM
100
AcDbLine
 10
185.4855125815014
 20
238.7303201735786
 30
0.0
 11
197.4760885815015
 21
238.2548721735787
 31
0.0
  0
LINE
  5
15BE
330
18
100
AcDbEntity
  8
5
  6
PHANTOM
100
AcDbLine
 10
185.3666505815015
 20
235.7326741735787
 30
0.0
 11
197.3572265815013
 21
235.2572251735786
 31
0.0
  0
LINE
  5
15BF
330
18
100
AcDbEntity
  8
5
  6
PHANTOM
100
AcDbLine
 10
185.4855125815014
 20
238.7303201735789
 30
0.0
 11
185.3666505815015
 21
235.7326741735787
 31
0.0
  0
ARC
  5
15C0
330
18
100
AcDbEntity
  8
5
  6
PHANTOM
100
AcDbCircle
 10
197.3572285815015
 20
235.2572291735786
 30
0.0
 40
3.0
100
AcDbArc
 50
40.20100100000084
 51
87.72930600000192
  0
LINE
  5
15C1
330
18
100
AcDbEntity
  8
1
  6
Continuous
100
AcDbLine
 10
195.6557055815014
 20
266.8674531735786
 30
0.0
 11
194.5662055815013
 21
253.4114841735787
 31
0.0
  0
LINE
  5
15C2
330
18
100
AcDbEntity
  8
1
  6
Continuous
100
AcDbLine
 10
197.5564205815013
 20
253.1693731735788
 30
0.0
 11
194.5662055815013
 21
253.4114841735787
 31
0.0
  0
LINE
  5
15C3
330
18
100
AcDbEntity
  8
1
  6
Continuous
100
AcDbLine
 10
189.9758615815013
 20
277.8555971735788
 30
0.0
 11
187.7245225815014
 21
275.8728011735787
 31
0.0
  0
LINE
  5
15C4
330
18
100
AcDbEntity
  8
1
  6
Continuous
100
AcDbLine
 10
189.9758615815013
 20
277.8555971735788
 30
0.0
 11
197.9070445815015
 21
268.8502471735789
 31
0.0
  0
LINE
  5
15C5
330
18
100
AcDbEntity
  8
1
  6
Continuous
100
AcDbLine
 10
196.5851789118751
 20
270.3511368714369
 30
0.0
 11
194.3338399118752
 21
268.3683408714368
 31
0.0
  0
LINE
  5
15C6
330
18
100
AcDbEntity
  8
1
  6
Continuous
100
AcDbLine
 10
187.7245225815014
 20
275.8728011735787
 30
0.0
 11
195.6557075815015
 21
266.8674511735786
 31
0.0
  0
ARC
  5
15C7
330
18
100
AcDbEntity
  8
1
  6
Continuous
100
AcDbCircle
 10
195.6557095815013
 20
266.8674511735786
 30
0.0
 40
3.0
100
AcDbArc
 50
353.8426799999998
 51
41.37098200000028
  0
LINE
  5
15CA
330
18
100
AcDbEntity
  8
4
  6
CENTER
100
AcDbLine
 10
248.5147065815015
 20
274.9493701735786
 30
0.0
 11
248.5147065815015
 21
192.6355131735786
 31
0.0
  0
ARC
  5
15CB
330
18
100
AcDbEntity
  8
1
  6
Continuous
100
AcDbCircle
 10
248.5147065815015
 20
233.9113201735786
 30
0.0
 40
22.120001
100
AcDbArc
 50
169.8431160339223
 51
354.8526965838088
  0
ARC
  5
15CC
330
18
100
AcDbEntity
  8
1
  6
Continuous
100
AcDbCircle
 10
216.2408805815015
 20
314.7036441735788
 30
0.0
 40
99.0
100
AcDbArc
 50
295.8466920768282
 51
334.3898409974048
  0
ARC
  5
15CD
330
18
100
AcDbEntity
  8
1
  6
Continuous
100
AcDbCircle
 10
248.5147065815015
 20
233.9113201735786
 30
0.0
 40
37.5
100
AcDbArc
 50
160.4266800000006
 51
14.50468200000018
  0
LINE
  5
15CE
330
18
100
AcDbEntity
  8
1
  6
Continuous
100
AcDbLine
 10
242.5710265815014
 20
285.8113201735786
 30
0.0
 11
300.4583905815016
 21
285.8113201735786
 31
0.0
  0
LINE
  5
15CF
330
18
100
AcDbEntity
  8
1
  6
Continuous
100
AcDbLine
 10
238.5147065815015
 20
280.4113201735788
 30
0.0
 11
302.2138075815013
 21
280.4113201735788
 31
0.0
  0
LINE
  5
15D0
330
18
100
AcDbEntity
  8
4
  6
CENTER
100
AcDbLine
 10
207.2388995815015
 20
233.9113201735786
 30
0.0
 11
289.7905135815014
 21
233.9113201735786
 31
0.0
  0
ARC
  5
15D1
330
18
100
AcDbEntity
  8
5
  6
PHANTOM
100
AcDbCircle
 10
232.1528197815013
 20
245.3907511735786
 30
0.0
 40
6.0
100
AcDbArc
 50
295.9716100000017
 51
2.956479200000087
  0
ARC
  5
15D2
330
18
100
AcDbEntity
  8
1
  6
Continuous
100
AcDbCircle
 10
232.7742091815015
 20
244.9943771735786
 30
0.0
 40
4.449999299999999
100
AcDbArc
 50
237.3879100000011
 51
55.98559200000082
  0
CIRCLE
  5
15D3
330
18
100
AcDbEntity
  8
1
  6
Continuous
100
AcDbCircle
 10
248.5147065815015
 20
233.9113201735786
 30
0.0
 40
9.0
  0
LINE
  5
15D4
330
18
100
AcDbEntity
  8
1
  6
Continuous
100
AcDbLine
 10
249.9618995815013
 20
271.7164041735786
 30
0.0
 11
259.8770225815013
 21
223.2838561735786
 31
0.0
  0
LINE
  5
15D5
330
18
100
AcDbEntity
  8
1
  6
Continuous
100
AcDbLine
 10
230.3793717815015
 20
241.2437481735786
 30
0.0
 11
228.0007798815014
 21
242.7640691735787
 31
0.0
  0
LINE
  5
15D6
330
18
100
AcDbEntity
  8
1
  6
Continuous
100
AcDbLine
 10
260.5895665815015
 20
229.4408531735786
 30
0.0
 11
251.2863305815013
 21
277.3018741735786
 31
0.0
  0
LINE
  5
15D7
330
18
100
AcDbEntity
  8
1
  6
Continuous
100
AcDbLine
 10
209.7680085815015
 20
248.6550601735786
 30
0.0
 11
233.8553882815014
 21
233.2674261735786
 31
0.0
  0
ARC
  5
15D8
330
18
100
AcDbEntity
  8
1
  6
Continuous
100
AcDbCircle
 10
248.5147065815015
 20
233.9113201735786
 30
0.0
 40
12.75
100
AcDbArc
 50
191.324045642999
 51
268.6428387505874
  0
ARC
  5
15D9
330
18
100
AcDbEntity
  8
1
  6
Continuous
100
AcDbCircle
 10
248.5147065815015
 20
233.9113201735786
 30
0.0
 40
17.1
100
AcDbArc
 50
176.9825995092235
 51
341.0918905330643
  0
ARC
  5
15DA
330
18
100
AcDbEntity
  8
1
  6
Continuous
100
AcDbCircle
 10
248.5147065815015
 20
233.9113201735786
 30
0.0
 40
18.5
100
AcDbArc
 50
174.5525485294167
 51
345.8263015286203
  0
ARC
  5
15DB
330
18
100
AcDbEntity
  8
1
  6
Continuous
100
AcDbCircle
 10
228.4718753815015
 20
224.8402141735787
 30
0.0
 40
10.0
100
AcDbArc
 50
24.35084499999993
 51
57.42851699999897
  0
LINE
  5
15DC
330
18
100
AcDbEntity
  8
5
  6
PHANTOM
100
AcDbLine
 10
208.5818895815013
 20
227.1790431735786
 30
0.0
 11
234.7896500815014
 21
240.0012211735786
 31
0.0
  0
LINE
  5
15DD
330
18
100
AcDbEntity
  8
5
  6
PHANTOM
100
AcDbLine
 10
208.5818875815015
 20
227.1790431735786
 30
0.0
 11
206.3429955815014
 21
225.1822021735786
 31
0.0
  0
ARC
  5
15DE
330
18
100
AcDbEntity
  8
1
  6
Continuous
100
AcDbCircle
 10
248.5147065815015
 20
233.9113201735786
 30
0.0
 40
14.3
100
AcDbArc
 50
270.0
 51
291.7750500000003
  0
ARC
  5
15DF
330
18
100
AcDbEntity
  8
1
  6
Continuous
100
AcDbCircle
 10
248.5147065815015
 20
233.9113201735786
 30
0.0
 40
12.0
100
AcDbArc
 50
204.3508499999997
 51
267.8570900000023
  0
LINE
  5
15E0
330
18
100
AcDbEntity
  8
1
  6
Continuous
100
AcDbLine
 10
248.5147125815013
 20
219.6113171735786
 30
0.0
 11
248.0676375815014
 21
221.9113121735786
 31
0.0
  0
ARC
  5
15E1
330
18
100
AcDbEntity
  8
1
  6
Continuous
100
AcDbCircle
 10
216.2408875815015
 20
314.7036481735788
 30
0.0
 40
101.2999999999999
100
AcDbArc
 50
291.7750500000003
 51
295.5158899999982
  0
CIRCLE
  5
15E2
330
18
100
AcDbEntity
  8
5
  6
PHANTOM
100
AcDbCircle
 10
232.1528168815016
 20
245.3907511735786
 30
0.0
 40
3.25
  0
ARC
  5
15E3
330
18
100
AcDbEntity
  8
5
  6
PHANTOM
100
AcDbCircle
 10
225.4382041815015
 20
256.5599831735787
 30
0.0
 40
15.29795
100
AcDbArc
 50
349.8893699999994
 51
56.28871599999833
  0
ARC
  5
15E4
330
18
100
AcDbEntity
  8
1
  6
Continuous
100
AcDbCircle
 10
230.5663691815015
 20
260.8898361735786
 30
0.0
 40
15.29795
100
AcDbArc
 50
23.60132100000024
 51
90.00066500000178
  0
ARC
  5
15E5
330
18
100
AcDbEntity
  8
1
  6
Continuous
100
AcDbCircle
 10
230.5663691815015
 20
260.8898361735786
 30
0.0
 40
8.0
100
AcDbArc
 50
232.0743299999989
 51
330.5856399999997
  0
ARC
  5
15E6
330
18
100
AcDbEntity
  8
1
  6
Continuous
100
AcDbCircle
 10
238.5147065815015
 20
275.4113201735788
 30
0.0
 40
5.0
100
AcDbArc
 50
89.99998200000083
 51
168.4630399999996
  0
LINE
  5
15E7
330
18
100
AcDbEntity
  8
5
  6
PHANTOM
100
AcDbLine
 10
238.5296455815014
 20
254.2255371735789
 30
0.0
 11
229.0544065815014
 21
249.4239431735786
 31
0.0
  0
LINE
  5
15E8
330
18
100
AcDbEntity
  8
1
  6
Continuous
100
AcDbLine
 10
210.6011855815014
 20
276.4113201735788
 30
0.0
 11
243.9680415815014
 21
276.4113201735788
 31
0.0
  0
LINE
  5
15E9
330
18
100
AcDbEntity
  8
1
  6
Continuous
100
AcDbLine
 10
237.1184965815013
 20
250.6443981735788
 30
0.0
 11
231.3623868815015
 21
244.5578771735786
 31
0.0
  0
ARC
  5
15EA
330
18
100
AcDbEntity
  8
5
  6
PHANTOM
100
AcDbCircle
 10
220.8569423815015
 20
267.1876761735786
 30
0.0
 40
7.0
100
AcDbArc
 50
165.500169999999
 51
198.3623799999991
  0
CIRCLE
  5
15EB
330
18
100
AcDbEntity
  8
1
  6
Continuous
100
AcDbCircle
 10
220.8569403815015
 20
267.1876721735786
 30
0.0
 40
4.5
  0
ARC
  5
15EC
330
18
100
AcDbEntity
  8
1
  6
Continuous
100
AcDbCircle
 10
213.3024855815015
 20
264.5551441735788
 30
0.0
 40
1.0
100
AcDbArc
 50
19.21212000000029
 51
91.25023400000099
  0
ARC
  5
15ED
330
18
100
AcDbEntity
  8
5
  6
PHANTOM
100
AcDbCircle
 10
225.4382041815015
 20
256.5599831735787
 30
0.0
 40
8.0
100
AcDbArc
 50
198.3623799999991
 51
296.8736999999972
  0
LINE
  5
15EE
330
18
100
AcDbEntity
  8
1
  6
Continuous
100
AcDbLine
 10
216.5544720815014
 20
261.6660121735788
 30
0.0
 11
225.6492649715013
 21
254.5793651735786
 31
0.0
  0
ARC
  5
15EF
330
18
100
AcDbEntity
  8
5
  6
PHANTOM
100
AcDbCircle
 10
214.3702705815013
 20
254.3435481735786
 30
0.0
 40
3.0
100
AcDbArc
 50
311.7293200000016
 51
11.64310999999963
  0
LINE
  5
15F0
330
18
100
AcDbEntity
  8
5
  6
PHANTOM
100
AcDbLine
 10
211.2390945815015
 20
247.5310561735789
 30
0.0
 11
216.3671075815015
 21
252.1046561735786
 31
0.0
  0
ARC
  5
15F1
330
18
100
AcDbEntity
  8
5
  6
PHANTOM
100
AcDbCircle
 10
225.7052067315016
 20
256.6791731735786
 30
0.0
 40
8.5730658
100
AcDbArc
 50
183.6229999999995
 51
191.6431000000016
  0
ARC
  5
15F2
330
18
100
AcDbEntity
  8
1
  6
Continuous
100
AcDbCircle
 10
220.8569403815015
 20
267.1876761735786
 30
0.0
 40
7.0
100
AcDbArc
 50
199.2121200000001
 51
232.0743299999989
  0
LINE
  5
15F3
330
18
100
AcDbEntity
  8
5
  6
PHANTOM
100
AcDbLine
 10
214.2133635815015
 20
264.9824911735787
 30
0.0
 11
217.8455430815014
 21
254.0397721735786
 31
0.0
  0
CIRCLE
  5
15F4
330
18
100
AcDbEntity
  8
5
  6
PHANTOM
100
AcDbCircle
 10
225.7052334915015
 20
256.6791121735787
 30
0.0
 40
3.25
  0
CIRCLE
  5
15F5
330
18
100
AcDbEntity
  8
1
  6
Continuous
100
AcDbCircle
 10
227.0030776615015
 20
248.6805381735786
 30
0.0
 40
3.25
  0
ARC
  5
15F6
330
18
100
AcDbEntity
  8
1
  6
Continuous
100
AcDbCircle
 10
227.0030776615015
 20
248.6805351735786
 30
0.0
 40
6.0
100
AcDbArc
 50
249.6132899999981
 51
316.5981500000002
  0
CIRCLE
  5
15F7
330
18
100
AcDbEntity
  8
1
  6
Continuous
100
AcDbCircle
 10
230.7223750815013
 20
261.1371391735788
 30
0.0
 40
3.25
  0
ARC
  5
15F8
330
18
100
AcDbEntity
  8
1
  6
Continuous
100
AcDbCircle
 10
220.8569403815015
 20
267.1876721735786
 30
0.0
 40
9.0
100
AcDbArc
 50
90.00066500000178
 51
190.6317699999999
  0
LINE
  5
15F9
330
18
100
AcDbEntity
  8
1
  6
Continuous
100
AcDbLine
 10
210.6011855815014
 20
274.1113211735787
 30
0.0
 11
215.1068885815015
 21
274.1113211735787
 31
0.0
  0
ARC
  5
15FA
330
18
100
AcDbEntity
  8
1
  6
Continuous
100
AcDbCircle
 10
210.6011855815014
 20
274.1113211735787
 30
0.0
 40
2.299999999999998
100
AcDbArc
 50
90.00000299999769
 51
153.0000100000006
  0
LINE
  5
15FB
330
18
100
AcDbEntity
  8
1
  6
Continuous
100
AcDbLine
 10
208.5518715815013
 20
275.1554991735786
 30
0.0
 11
203.9735915815014
 21
266.1701221735784
 31
0.0
  0
ARC
  5
15FC
330
18
100
AcDbEntity
  8
5
  6
PHANTOM
100
AcDbCircle
 10
213.1117545815015
 20
269.1906911735786
 30
0.0
 40
1.0
100
AcDbArc
 50
345.5001699999992
 51
57.53828500000141
  0
LINE
  5
15FD
330
18
100
AcDbEntity
  8
5
  6
PHANTOM
100
AcDbLine
 10
212.5773275815014
 20
270.7158421735786
 30
0.0
 11
213.6484915815015
 21
270.0344411735786
 31
0.0
  0
LINE
  5
15FE
330
18
100
AcDbEntity
  8
1
  6
Continuous
100
AcDbLine
 10
212.0114425815015
 20
265.5272071735786
 30
0.0
 11
213.2806675815015
 21
265.5549051735786
 31
0.0
  0
LINE
  5
15FF
330
18
100
AcDbEntity
  8
5
  6
PHANTOM
100
AcDbLine
 10
233.9286924815013
 20
269.2855041735786
 30
0.0
 11
225.8520135615015
 21
274.6742771735786
 31
0.0
  0
LINE
  5
1600
330
18
100
AcDbEntity
  8
1
  6
Continuous
100
AcDbLine
 10
230.5661922815015
 20
276.1877861735786
 30
0.0
 11
220.8568340815014
 21
276.1876721735786
 31
0.0
  0
ARC
  5
1601
330
18
100
AcDbEntity
  8
5
  6
PHANTOM
100
AcDbCircle
 10
220.8569403815015
 20
267.1876721735786
 30
0.0
 40
9.0
100
AcDbArc
 50
56.28871900000183
 51
90.00066500000178
  0
ARC
  5
1602
330
18
100
AcDbEntity
  8
1
  6
Continuous
100
AcDbCircle
 10
230.7102175815015
 20
261.1407551735786
 30
0.0
 40
12.297948
100
AcDbArc
 50
301.4050599999986
 51
20.01792999999892
  0
LINE
  5
1603
330
18
100
AcDbEntity
  8
1
  6
Continuous
100
AcDbLine
 10
242.7519905815015
 20
266.2139381735787
 30
0.0
 11
237.5350945815015
 21
256.9608581735788
 31
0.0
  0
LINE
  5
1604
330
18
100
AcDbEntity
  8
5
  6
PHANTOM
100
AcDbLine
 10
237.7255685815014
 20
253.8180701735786
 30
0.0
 11
238.1448245815014
 21
245.7002151735786
 31
0.0
  0
LINE
  5
1605
330
18
100
AcDbEntity
  8
5
  6
PHANTOM
100
AcDbLine
 10
238.5296475815013
 20
254.2255371735786
 30
0.0
 11
240.4985935815013
 21
253.8744361735786
 31
0.0
  0
LINE
  5
1606
330
18
100
AcDbEntity
  8
1
  6
Continuous
100
AcDbLine
 10
242.7519965815015
 20
266.2139381735787
 30
0.0
 11
244.5847045815015
 21
267.0146791735786
 31
0.0
  0
LINE
  5
1607
330
18
100
AcDbEntity
  8
1
  6
Continuous
100
AcDbLine
 10
238.2617965815014
 20
274.1113211735787
 30
0.0
 11
247.0235525815013
 21
274.1113211735787
 31
0.0
  0
ARC
  5
1608
330
18
100
AcDbEntity
  8
1
  6
Continuous
100
AcDbCircle
 10
247.0235525815013
 20
271.1113211735786
 30
0.0
 40
3.0
100
AcDbArc
 50
11.50342900000067
 51
90.00000299999769
  0
LINE
  5
1609
330
18
100
AcDbEntity
  8
1
  6
Continuous
100
AcDbLine
 10
243.9680415815014
 20
276.4113201735788
 30
0.0
 11
243.9680415815014
 21
274.1113211735787
 31
0.0
  0
ARC
  5
160A
330
18
100
AcDbEntity
  8
1
  6
Continuous
100
AcDbCircle
 10
247.5147065815014
 20
282.4113201735788
 30
0.0
 40
6.0
100
AcDbArc
 50
145.4819099999985
 51
179.9999599999992
  0
ARC
  5
160B
330
18
100
AcDbEntity
  8
1
  6
Continuous
100
AcDbCircle
 10
240.5147065815015
 20
281.4113201735788
 30
0.0
 40
1.0
100
AcDbArc
 50
270.0000200000018
 51
0.0
  0
LINE
  5
160C
330
18
100
AcDbEntity
  8
1
  6
Continuous
100
AcDbLine
 10
241.5147065815015
 20
282.4113201735788
 30
0.0
 11
241.5147065815015
 21
281.4113201735788
 31
0.0
  0
ARC
  5
160D
330
18
100
AcDbEntity
  8
1
  6
Continuous
100
AcDbCircle
 10
295.5147105815015
 20
282.4113201735788
 30
0.0
 40
6.0
100
AcDbArc
 50
0.0
 51
34.51812000000097
  0
LINE
  5
160E
330
18
100
AcDbEntity
  8
1
  6
Continuous
100
AcDbLine
 10
305.5147255815018
 20
271.9113201735788
 30
0.0
 11
304.1770795815017
 21
278.7929381735787
 31
0.0
  0
ARC
  5
160F
330
18
100
AcDbEntity
  8
1
  6
Continuous
100
AcDbCircle
 10
302.5147105815016
 20
281.4113201735788
 30
0.0
 40
1.0
100
AcDbArc
 50
179.9999799999995
 51
270.0000299999965
  0
ARC
  5
1610
330
18
100
AcDbEntity
  8
1
  6
Continuous
100
AcDbCircle
 10
302.2138075815013
 20
278.4113201735788
 30
0.0
 40
2.0
100
AcDbArc
 50
10.99994800000075
 51
89.99998200000083
  0
LINE
  5
1611
330
18
100
AcDbEntity
  8
1
  6
Continuous
100
AcDbLine
 10
301.5147105815016
 20
282.4113201735788
 30
0.0
 11
301.5147105815016
 21
281.4113201735788
 31
0.0
  0
LINE
  5
1612
330
18
100
AcDbEntity
  8
1
  6
Continuous
100
AcDbLine
 10
37.452590761171
 20
296.4113201735788
 30
0.0
 11
119.452590761171
 21
296.4113201735788
 31
0.0
  0
LINE
  5
1613
330
18
100
AcDbEntity
  8
1
  6
Continuous
100
AcDbLine
 10
37.452590761171
 20
293.2113201735786
 30
0.0
 11
119.452590761171
 21
293.2113201735786
 31
0.0
  0
LINE
  5
1614
330
18
100
AcDbEntity
  8
1
  6
Continuous
100
AcDbLine
 10
48.30647076117088
 20
289.4113201735788
 30
0.0
 11
108.5987237611709
 21
289.4113201735788
 31
0.0
  0
ARC
  5
1616
330
18
100
AcDbEntity
  8
1
  6
Continuous
100
AcDbCircle
 10
48.30647076117088
 20
294.4113201735788
 30
0.0
 40
5.0
100
AcDbArc
 50
193.88652
 51
270.0000200000018
  0
LINE
  5
1617
330
18
100
AcDbEntity
  8
1
  6
Continuous
100
AcDbLine
 10
37.452590761171
 20
296.4113201735788
 30
0.0
 11
37.452590761171
 21
293.2113201735786
 31
0.0
  0
LINE
  5
1619
330
18
100
AcDbEntity
  8
4
  6
CENTER
100
AcDbLine
 10
46.95259076117099
 20
298.9700674735786
 30
0.0
 11
46.95259076117099
 21
290.8605846735787
 31
0.0
  0
LINE
  5
161C
330
18
100
AcDbEntity
  8
4
  6
CENTER
100
AcDbLine
 10
271.5147105815014
 20
464.0905526543543
 30
0.0
 11
271.5147105815014
 21
374.0905526543544
 31
0.0
  0
ARC
  5
161E
330
18
100
AcDbEntity
  8
1
  6
Continuous
100
AcDbCircle
 10
203.8557055815017
 20
444.6905426541888
 30
0.0
 40
3.2
100
AcDbArc
 50
90.0
 51
180.0
  0
ARC
  5
161F
330
18
100
AcDbEntity
  8
1
  6
Continuous
100
AcDbCircle
 10
203.8557055815014
 20
393.490549654321
 30
0.0
 40
3.2
100
AcDbArc
 50
180.0
 51
270.0
  0
LINE
  5
1620
330
18
100
AcDbEntity
  8
1
  6
Continuous
100
AcDbLine
 10
198.6557055815017
 20
389.9905466543543
 30
0.0
 11
211.8569403815015
 21
389.9905466543543
 31
0.0
  0
LINE
  5
1621
330
18
100
AcDbEntity
  8
1
  6
Continuous
100
AcDbLine
 10
198.6557055815017
 20
448.1905626543543
 30
0.0
 11
211.8569403815015
 21
448.1905626543543
 31
0.0
  0
LINE
  5
1622
330
18
100
AcDbEntity
  8
1
  6
Continuous
100
AcDbLine
 10
198.6557055815017
 20
451.1905626543543
 30
0.0
 11
212.2911997684705
 21
451.1905626543543
 31
0.0
  0
LINE
  5
1623
330
18
100
AcDbEntity
  8
1
  6
Continuous
100
AcDbLine
 10
198.6557055815017
 20
386.9905466543544
 30
0.0
 11
212.2911892064538
 21
386.9905466543544
 31
0.0
  0
LINE
  5
1624
330
18
100
AcDbEntity
  8
4
  6
CENTER
100
AcDbLine
 10
181.6969861753903
 20
419.0905526543543
 30
0.0
 11
318.0665213600373
 21
419.0905526543543
 31
0.0
  0
ARC
  5
1625
330
18
100
AcDbEntity
  8
1
  6
Continuous
100
AcDbCircle
 10
108.5987237611709
 20
294.4113201735788
 30
0.0
 40
5.0
100
AcDbArc
 50
270.0000200000018
 51
346.1134599999998
  0
LINE
  5
1628
330
18
100
AcDbEntity
  8
1
  6
Continuous
100
AcDbLine
 10
119.452590761171
 20
296.4113201735788
 30
0.0
 11
119.452590761171
 21
293.2113201735786
 31
0.0
  0
LINE
  5
162A
330
18
100
AcDbEntity
  8
1
  6
Continuous
100
AcDbLine
 10
200.6557055815016
 20
393.490549654321
 30
0.0
 11
200.6557055815016
 21
444.6905426541888
 31
0.0
  0
LINE
  5
162B
330
18
100
AcDbEntity
  8
1
  6
Continuous
100
AcDbLine
 10
198.6557055815017
 20
389.9905466543543
 30
0.0
 11
198.6557055815017
 21
448.1905626543543
 31
0.0
  0
LINE
  5
162C
330
18
100
AcDbEntity
  8
1
  6
Continuous
100
AcDbLine
 10
189.9758615815017
 20
403.6731695620783
 30
0.0
 11
189.9758615815017
 21
434.5079357466308
 31
0.0
  0
LINE
  5
162D
330
18
100
AcDbEntity
  8
1
  6
Continuous
100
AcDbLine
 10
187.7245225815014
 20
403.6731695620783
 30
0.0
 11
187.7245225815014
 21
434.5079357466308
 31
0.0
  0
LINE
  5
162E
330
18
100
AcDbEntity
  8
1
  6
Continuous
100
AcDbLine
 10
188.3012431439111
 20
401.6743361069248
 30
0.0
 11
194.3338399118752
 21
392.0905526543559
 31
0.0
  0
LINE
  5
162F
330
18
100
AcDbEntity
  8
1
  6
Continuous
100
AcDbLine
 10
190.5525821439113
 20
401.6743361069248
 30
0.0
 11
196.5851789118751
 21
392.0905526543559
 31
0.0
  0
LINE
  5
1630
330
18
100
AcDbEntity
  8
1
  6
Continuous
100
AcDbLine
 10
196.6557055815014
 20
392.0905526543559
 30
0.0
 11
194.3338399118752
 21
392.0905526543559
 31
0.0
  0
ARC
  5
1631
330
18
100
AcDbEntity
  8
1
  6
Continuous
100
AcDbCircle
 10
194.6557055815017
 20
391.0905526543558
 30
0.0
 40
1.0
100
AcDbArc
 50
0.0
 51
90.0
  0
ARC
  5
1632
330
18
100
AcDbEntity
  8
1
  6
Continuous
100
AcDbCircle
 10
196.6557055815017
 20
390.0905526543559
 30
0.0
 40
2.0
100
AcDbArc
 50
0.0
 51
90.0
  0
ARC
  5
1633
330
18
100
AcDbEntity
  8
1
  6
Continuous
100
AcDbCircle
 10
198.6557055815017
 20
389.9905466543543
 30
0.0
 40
3.0
100
AcDbArc
 50
180.0
 51
270.0
  0
LINE
  5
1634
330
18
100
AcDbEntity
  8
1
  6
Continuous
100
AcDbLine
 10
195.6557055815017
 20
389.9905466543543
 30
0.0
 11
195.6557055815017
 21
391.0905526543558
 31
0.0
  0
ARC
  5
1635
330
18
100
AcDbEntity
  8
1
  6
Continuous
100
AcDbCircle
 10
191.4767225815015
 20
403.6731695620783
 30
0.0
 40
3.7522
100
AcDbArc
 50
180.0
 51
212.1887239690425
  0
ARC
  5
1636
330
18
100
AcDbEntity
  8
1
  6
Continuous
100
AcDbCircle
 10
193.7280615815015
 20
403.6731695620783
 30
0.0
 40
3.7522
100
AcDbArc
 50
180.0
 51
212.1887239690425
  0
LINE
  5
1637
330
18
100
AcDbEntity
  8
1
  6
Continuous
100
AcDbLine
 10
188.3020013099833
 20
402.5905526543543
 30
0.0
 11
189.7204954821672
 21
402.5905526543543
 31
0.0
  0
LINE
  5
1638
330
18
100
AcDbEntity
  8
1
  6
Continuous
100
AcDbLine
 10
188.301243143911
 20
436.5067692017841
 30
0.0
 11
194.3338399118752
 21
446.0905526543556
 31
0.0
  0
LINE
  5
1639
330
18
100
AcDbEntity
  8
1
  6
Continuous
100
AcDbLine
 10
190.5525821439113
 20
436.5067692017841
 30
0.0
 11
196.5851789118751
 21
446.0905526543556
 31
0.0
  0
ARC
  5
163A
330
18
100
AcDbEntity
  8
1
  6
Continuous
100
AcDbCircle
 10
193.7280615815015
 20
434.5079357466308
 30
0.0
 40
3.7522
100
AcDbArc
 50
147.8112760309649
 51
180.0
  0
ARC
  5
163B
330
18
100
AcDbEntity
  8
1
  6
Continuous
100
AcDbCircle
 10
191.4767225815015
 20
434.5079357466308
 30
0.0
 40
3.7522
100
AcDbArc
 50
147.8112760309649
 51
180.0
  0
LINE
  5
163C
330
18
100
AcDbEntity
  8
1
  6
Continuous
100
AcDbLine
 10
188.3020013099833
 20
435.5905526543547
 30
0.0
 11
189.7204954821672
 21
435.5905526543547
 31
0.0
  0
LINE
  5
163D
330
18
100
AcDbEntity
  8
1
  6
Continuous
100
AcDbLine
 10
196.6557055815017
 20
446.0905526543558
 30
0.0
 11
194.3338399118752
 21
446.0905526543558
 31
0.0
  0
ARC
  5
163E
330
18
100
AcDbEntity
  8
1
  6
Continuous
100
AcDbCircle
 10
194.6557055815017
 20
447.0905526543559
 30
0.0
 40
1.0
100
AcDbArc
 50
270.0
 51
0.0
  0
ARC
  5
163F
330
18
100
AcDbEntity
  8
1
  6
Continuous
100
AcDbCircle
 10
196.6557055815017
 20
448.0905526543558
 30
0.0
 40
2.0
100
AcDbArc
 50
270.0
 51
0.0
  0
ARC
  5
1640
330
18
100
AcDbEntity
  8
1
  6
Continuous
100
AcDbCircle
 10
198.6557055815017
 20
448.1905626543543
 30
0.0
 40
3.0
100
AcDbArc
 50
90.0
 51
180.0
  0
LINE
  5
1641
330
18
100
AcDbEntity
  8
1
  6
Continuous
100
AcDbLine
 10
195.6557055815017
 20
447.0905526543559
 30
0.0
 11
195.6557055815017
 21
448.1905626543543
 31
0.0
  0
LINE
  5
1644
330
18
100
AcDbEntity
  8
1
  6
Continuous
100
AcDbLine
 10
241.3685735815014
 20
289.4113201735788
 30
0.0
 11
301.6608435815014
 21
289.4113201735788
 31
0.0
  0
LINE
  5
1645
330
18
100
AcDbEntity
  8
1
  6
Continuous
100
AcDbLine
 10
230.5147067815013
 20
296.4113201735788
 30
0.0
 11
312.5147105815016
 21
296.4113201735788
 31
0.0
  0
LINE
  5
1646
330
18
100
AcDbEntity
  8
1
  6
Continuous
100
AcDbLine
 10
230.5147067815013
 20
293.2113201735786
 30
0.0
 11
312.5147105815016
 21
293.2113201735786
 31
0.0
  0
LINE
  5
1647
330
18
100
AcDbEntity
  8
1
  6
Continuous
100
AcDbLine
 10
230.5147067815013
 20
296.4113201735788
 30
0.0
 11
230.5147067815013
 21
293.2113201735786
 31
0.0
  0
ARC
  5
1648
330
18
100
AcDbEntity
  8
1
  6
Continuous
100
AcDbCircle
 10
241.3685735815014
 20
294.4113201735788
 30
0.0
 40
5.0
100
AcDbArc
 50
193.88652
 51
270.0000200000018
  0
ARC
  5
164D
330
18
100
AcDbEntity
  8
1
  6
Continuous
100
AcDbCircle
 10
301.6608435815014
 20
294.4113201735788
 30
0.0
 40
5.0
100
AcDbArc
 50
270.0000200000018
 51
346.1134599999998
  0
LINE
  5
1650
330
18
100
AcDbEntity
  8
1
  6
Continuous
100
AcDbLine
 10
312.5147105815016
 20
296.4113201735788
 30
0.0
 11
312.5147105815016
 21
293.2113201735786
 31
0.0
  0
CIRCLE
  5
1651
330
18
100
AcDbEntity
  8
1
  6
Continuous
100
AcDbCircle
 10
271.5147105815014
 20
419.0905526543543
 30
0.0
 40
31.5
  0
CIRCLE
  5
1652
330
18
100
AcDbEntity
  8
1
  6
Continuous
100
AcDbCircle
 10
271.5147105815014
 20
419.0905526543543
 30
0.0
 40
29.0
  0
CIRCLE
  5
1653
330
18
100
AcDbEntity
  8
1
  6
Continuous
100
AcDbCircle
 10
271.5147105815014
 20
419.0905526543543
 30
0.0
 40
15.5
  0
CIRCLE
  5
1654
330
18
100
AcDbEntity
  8
1
  6
Continuous
100
AcDbCircle
 10
271.5147105815014
 20
419.0905526543543
 30
0.0
 40
12.0
  0
LINE
  5
1655
330
18
100
AcDbEntity
  8
1
  6
Continuous
100
AcDbLine
 10
240.0147105815015
 20
460.0905526543543
 30
0.0
 11
303.0147105815016
 21
460.0905526543543
 31
0.0
  0
LINE
  5
1656
330
18
100
AcDbEntity
  8
1
  6
Continuous
100
AcDbLine
 10
240.0147105815015
 20
378.0905526543544
 30
0.0
 11
303.0147105815016
 21
378.0905526543544
 31
0.0
  0
LINE
  5
1657
330
18
100
AcDbEntity
  8
1
  6
Continuous
100
AcDbLine
 10
209.3994386601784
 20
395.799035090285
 30
0.0
 11
209.3994386601784
 21
443.8809100221667
 31
0.0
  0
LINE
  5
1658
330
18
100
AcDbEntity
  8
1
  6
Continuous
100
AcDbLine
 10
230.5147105815015
 20
450.5905526543545
 30
0.0
 11
230.5147105815015
 21
387.5905526543545
 31
0.0
  0
ARC
  5
1659
330
18
100
AcDbEntity
  8
1
  6
Continuous
100
AcDbCircle
 10
240.0147105815015
 20
387.5905526543545
 30
0.0
 40
9.5
100
AcDbArc
 50
179.9999799999995
 51
270.0000299999965
  0
LINE
  5
165A
330
18
100
AcDbEntity
  8
4
  6
CENTER
100
AcDbLine
 10
234.0147105815014
 20
387.5905526543545
 30
0.0
 11
246.0147105815015
 21
387.5905526543545
 31
0.0
  0
LINE
  5
165B
330
18
100
AcDbEntity
  8
1
  6
Continuous
100
AcDbLine
 10
225.2299243813576
 20
382.9905466543543
 30
0.0
 11
216.4839583813577
 21
382.9905466543543
 31
0.0
  0
LINE
  5
165C
330
18
100
AcDbEntity
  8
1
  6
Continuous
100
AcDbLine
 10
215.6091403815016
 20
384.9905466543546
 30
0.0
 11
230.8774260395839
 21
384.9905466543546
 31
0.0
  0
LINE
  5
165D
330
18
100
AcDbEntity
  8
1
  6
Continuous
100
AcDbLine
 10
211.8569403815015
 20
390.0905526543707
 30
0.0
 11
230.5147105814981
 21
390.0905526543753
 31
0.0
  0
LINE
  5
165E
330
18
100
AcDbEntity
  8
1
  6
Continuous
100
AcDbLine
 10
203.8557055814997
 20
390.2905496543212
 30
0.0
 11
230.5147105814981
 21
390.2905496543059
 31
0.0
  0
ARC
  5
165F
330
18
100
AcDbEntity
  8
1
  6
Continuous
100
AcDbCircle
 10
220.3569403813576
 20
383.9905466543543
 30
0.0
 40
4.0
100
AcDbArc
 50
165.5224900000001
 51
194.4775099999997
  0
LINE
  5
1660
330
18
100
AcDbEntity
  8
1
  6
Continuous
100
AcDbLine
 10
211.8569403815015
 20
388.7427466543545
 30
0.0
 11
211.8569403815015
 21
390.2905496543167
 31
0.0
  0
ARC
  5
1661
330
18
100
AcDbEntity
  8
1
  6
Continuous
100
AcDbCircle
 10
215.6091403815016
 20
388.7427466543545
 30
0.0
 40
3.7522
100
AcDbArc
 50
180.0
 51
270.0
  0
ARC
  5
1662
330
18
100
AcDbEntity
  8
1
  6
Continuous
100
AcDbCircle
 10
221.3569403813576
 20
383.9905466543543
 30
0.0
 40
4.0
100
AcDbArc
 50
345.5224880000006
 51
14.47750999999979
  0
LINE
  5
1663
330
18
100
AcDbEntity
  8
1
  6
Continuous
100
AcDbLine
 10
227.4723750814231
 20
384.3905476543543
 30
0.0
 11
228.3878410814234
 21
384.9905466543543
 31
0.0
  0
LINE
  5
1664
330
18
100
AcDbEntity
  8
1
  6
Continuous
100
AcDbLine
 10
231.0698814607203
 20
384.3905476543544
 30
0.0
 11
227.4723750814231
 21
384.3905476543544
 31
0.0
  0
ARC
  5
1665
330
18
100
AcDbEntity
  8
1
  6
Continuous
100
AcDbCircle
 10
230.7223750814232
 20
389.1717976543544
 30
0.0
 40
5.78125
100
AcDbArc
 50
235.7945400000013
 51
277.4284215052375
  0
LINE
  5
1666
330
18
100
AcDbEntity
  8
4
  6
CENTER
100
AcDbLine
 10
240.0147105815015
 20
393.5905526543545
 30
0.0
 11
240.0147105815015
 21
381.5905526543545
 31
0.0
  0
CIRCLE
  5
1667
330
18
100
AcDbEntity
  8
1
  6
Continuous
100
AcDbCircle
 10
240.0147105815015
 20
387.5905526543545
 30
0.0
 40
4.400000099999997
  0
ARC
  5
1668
330
18
100
AcDbEntity
  8
1
  6
Continuous
100
AcDbCircle
 10
240.0147105815015
 20
450.5905526543545
 30
0.0
 40
9.5
100
AcDbArc
 50
89.99998200000083
 51
179.9999599999992
  0
LINE
  5
1669
330
18
100
AcDbEntity
  8
4
  6
CENTER
100
AcDbLine
 10
234.0147105815014
 20
450.5905526543545
 30
0.0
 11
246.0147105815015
 21
450.5905526543545
 31
0.0
  0
LINE
  5
166A
330
18
100
AcDbEntity
  8
1
  6
Continuous
100
AcDbLine
 10
224.8367353813577
 20
453.6905426543543
 30
0.0
 11
216.8771433813576
 21
453.6905426543543
 31
0.0
  0
LINE
  5
166B
330
18
100
AcDbEntity
  8
1
  6
Continuous
100
AcDbLine
 10
223.8569403813576
 20
454.4905426543543
 30
0.0
 11
217.8569403813576
 21
454.4905426543543
 31
0.0
  0
LINE
  5
166C
330
18
100
AcDbEntity
  8
1
  6
Continuous
100
AcDbLine
 10
211.8569403815015
 20
448.0905526543706
 30
0.0
 11
230.5147105814981
 21
448.0905526543753
 31
0.0
  0
LINE
  5
166D
330
18
100
AcDbEntity
  8
1
  6
Continuous
100
AcDbLine
 10
215.6091403815016
 20
453.1905426543543
 30
0.0
 11
230.8774214868136
 21
453.1905426543543
 31
0.0
  0
LINE
  5
166E
330
18
100
AcDbEntity
  8
1
  6
Continuous
100
AcDbLine
 10
203.8557055815105
 20
447.8905426541888
 30
0.0
 11
230.5147105814981
 21
447.8905426541126
 31
0.0
  0
ARC
  5
166F
330
18
100
AcDbEntity
  8
1
  6
Continuous
100
AcDbCircle
 10
215.6091403815016
 20
449.4383426543544
 30
0.0
 40
3.7522
100
AcDbArc
 50
90.0
 51
180.0
  0
LINE
  5
1670
330
18
100
AcDbEntity
  8
1
  6
Continuous
100
AcDbLine
 10
211.8569403815015
 20
447.890542654166
 30
0.0
 11
211.8569403815015
 21
449.4383426543544
 31
0.0
  0
LINE
  5
1671
330
18
100
AcDbEntity
  8
1
  6
Continuous
100
AcDbLine
 10
218.3569423813578
 20
453.1905426543543
 30
0.0
 11
216.8771433813576
 21
453.6905426543545
 31
0.0
  0
ARC
  5
1672
330
18
100
AcDbEntity
  8
1
  6
Continuous
100
AcDbCircle
 10
217.8569403813576
 20
453.4905426543543
 30
0.0
 40
1.0
100
AcDbArc
 50
89.99998999999899
 51
168.4630499999997
  0
LINE
  5
1673
330
18
100
AcDbEntity
  8
1
  6
Continuous
100
AcDbLine
 10
223.3569483813576
 20
453.1905426543543
 30
0.0
 11
224.8367393813575
 21
453.690542654354
 31
0.0
  0
ARC
  5
1674
330
18
100
AcDbEntity
  8
1
  6
Continuous
100
AcDbCircle
 10
223.8569403813576
 20
453.4905426543543
 30
0.0
 40
1.0
100
AcDbArc
 50
11.53696000000024
 51
90.00001000000102
  0
ARC
  5
1675
330
18
100
AcDbEntity
  8
1
  6
Continuous
100
AcDbCircle
 10
230.7223750814232
 20
449.0093126543544
 30
0.0
 40
5.78125
100
AcDbArc
 50
82.57155566223682
 51
124.2054599999985
  0
LINE
  5
1676
330
18
100
AcDbEntity
  8
1
  6
Continuous
100
AcDbLine
 10
227.4723710814231
 20
453.7905626543544
 30
0.0
 11
228.3878450814234
 21
453.1905626543546
 31
0.0
  0
LINE
  5
1677
330
18
100
AcDbEntity
  8
1
  6
Continuous
100
AcDbLine
 10
231.0698832494677
 20
453.7905626543544
 30
0.0
 11
227.4723750814231
 21
453.7905626543544
 31
0.0
  0
CIRCLE
  5
1678
330
18
100
AcDbEntity
  8
1
  6
Continuous
100
AcDbCircle
 10
240.0147105815015
 20
450.5905526543545
 30
0.0
 40
4.400000099999997
  0
LINE
  5
1679
330
18
100
AcDbEntity
  8
4
  6
CENTER
100
AcDbLine
 10
240.0147105815015
 20
456.5905526543543
 30
0.0
 11
240.0147105815015
 21
444.5905526543545
 31
0.0
  0
LINE
  5
167A
330
18
100
AcDbEntity
  8
1
  6
Continuous
100
AcDbLine
 10
312.5147105815016
 20
450.5905526543545
 30
0.0
 11
312.5147105815016
 21
387.5905526543545
 31
0.0
  0
CIRCLE
  5
167B
330
18
100
AcDbEntity
  8
1
  6
Continuous
100
AcDbCircle
 10
303.0147105815016
 20
387.5905526543545
 30
0.0
 40
4.400000099999997
  0
LINE
  5
167C
330
18
100
AcDbEntity
  8
4
  6
CENTER
100
AcDbLine
 10
297.0147105815015
 20
387.5905526543545
 30
0.0
 11
309.0147105815016
 21
387.5905526543545
 31
0.0
  0
ARC
  5
167D
330
18
100
AcDbEntity
  8
1
  6
Continuous
100
AcDbCircle
 10
303.0147105815016
 20
387.5905526543545
 30
0.0
 40
9.5
100
AcDbArc
 50
270.0000200000018
 51
0.0
  0
LINE
  5
167E
330
18
100
AcDbEntity
  8
4
  6
CENTER
100
AcDbLine
 10
303.0147105815016
 20
393.5905526543545
 30
0.0
 11
303.0147105815016
 21
381.5905526543545
 31
0.0
  0
CIRCLE
  5
167F
330
18
100
AcDbEntity
  8
1
  6
Continuous
100
AcDbCircle
 10
303.0147105815016
 20
450.5905526543545
 30
0.0
 40
4.400000099999997
  0
LINE
  5
1680
330
18
100
AcDbEntity
  8
4
  6
CENTER
100
AcDbLine
 10
297.0147105815015
 20
450.5905526543545
 30
0.0
 11
309.0147105815016
 21
450.5905526543545
 31
0.0
  0
ARC
  5
1681
330
18
100
AcDbEntity
  8
1
  6
Continuous
100
AcDbCircle
 10
303.0147105815016
 20
450.5905526543545
 30
0.0
 40
9.5
100
AcDbArc
 50
0.0
 51
89.99998200000083
  0
LINE
  5
1682
330
18
100
AcDbEntity
  8
4
  6
CENTER
100
AcDbLine
 10
303.0147105815016
 20
456.5905526543543
 30
0.0
 11
303.0147105815016
 21
444.5905526543545
 31
0.0
  0
LINE
  5
1756
330
18
100
AcDbEntity
  8
4
  6
CENTER
100
AcDbLine
 10
109.9525907611708
 20
298.9700674735786
 30
0.0
 11
109.9525907611708
 21
290.8605846735787
 31
0.0
  0
LINE
  5
1757
330
18
100
AcDbEntity
  8
4
  6
CENTER
100
AcDbLine
 10
240.0147105815015
 20
298.9700674735786
 30
0.0
 11
240.0147105815015
 21
290.8605846735787
 31
0.0
  0
LINE
  5
1758
330
18
100
AcDbEntity
  8
4
  6
CENTER
100
AcDbLine
 10
303.0147105815014
 20
298.9700674735786
 30
0.0
 11
303.0147105815014
 21
290.8605846735787
 31
0.0
  0
LINE
  5
18A1
330
18
100
AcDbEntity
  8
4
  6
CENTER
100
AcDbLine
 10
432.4077474783016
 20
300.9765056735786
 30
0.0
 11
432.4077474783016
 21
192.4083601735786
 31
0.0
  0
LINE
  5
18A2
330
18
100
AcDbEntity
  8
4
  6
CENTER
100
AcDbLine
 10
463.9077474783016
 20
298.9700674735786
 30
0.0
 11
463.9077474783016
 21
290.8605846735787
 31
0.0
  0
LINE
  5
18A3
330
18
100
AcDbEntity
  8
4
  6
CENTER
100
AcDbLine
 10
400.9077474783016
 20
298.9700674735786
 30
0.0
 11
400.9077474783016
 21
290.8605846735787
 31
0.0
  0
LINE
  5
18A6
330
18
100
AcDbEntity
  8
1
  6
Continuous
100
AcDbLine
 10
412.4077474783016
 20
261.5937785390973
 30
0.0
 11
412.4077474783016
 21
202.1892741735786
 31
0.0
  0
LINE
  5
18A7
330
18
100
AcDbEntity
  8
1
  6
Continuous
100
AcDbLine
 10
452.4077474783016
 20
261.5937785390973
 30
0.0
 11
452.4077474783016
 21
202.1892741735786
 31
0.0
  0
ARC
  5
18A9
330
18
100
AcDbEntity
  8
1
  6
Continuous
100
AcDbCircle
 10
432.4077474783016
 20
346.4113201735788
 30
0.0
 40
150.0
100
AcDbArc
 50
264.062229999998
 51
275.9377899999995
  0
ARC
  5
18AA
330
18
100
AcDbEntity
  8
1
  6
Continuous
100
AcDbCircle
 10
447.4077474783016
 20
202.1892741735786
 30
0.0
 40
5.0
100
AcDbArc
 50
275.9378099999979
 51
0.0000200000003914
  0
ARC
  5
18AB
330
18
100
AcDbEntity
  8
1
  6
Continuous
100
AcDbCircle
 10
417.4077474783016
 20
202.1892741735786
 30
0.0
 40
5.0
100
AcDbArc
 50
180.0
 51
264.0622000000012
  0
LINE
  5
18AD
330
18
100
AcDbEntity
  8
4
  6
CENTER
100
AcDbLine
 10
475.7077474783018
 20
233.9113201735786
 30
0.0
 11
395.4600084783017
 21
233.9113201735786
 31
0.0
  0
LINE
  5
18B1
330
18
100
AcDbEntity
  8
1
  6
Continuous
100
AcDbLine
 10
463.0055574783018
 20
280.4113201735788
 30
0.0
 11
401.8099384783018
 21
280.4113201735788
 31
0.0
  0
LINE
  5
18B2
330
18
100
AcDbEntity
  8
1
  6
Continuous
100
AcDbLine
 10
461.3514074783013
 20
285.8113201735786
 30
0.0
 11
403.4640674783018
 21
285.8113201735786
 31
0.0
  0
LINE
  5
18B5
330
18
100
AcDbEntity
  8
1
  6
Continuous
100
AcDbLine
 10
473.4077474783016
 20
296.4113201735788
 30
0.0
 11
391.4077474783017
 21
296.4113201735788
 31
0.0
  0
LINE
  5
18B6
330
18
100
AcDbEntity
  8
1
  6
Continuous
100
AcDbLine
 10
473.4077474783016
 20
293.2113201735786
 30
0.0
 11
391.4077474783017
 21
293.2113201735786
 31
0.0
  0
LINE
  5
18B7
330
18
100
AcDbEntity
  8
1
  6
Continuous
100
AcDbLine
 10
462.5538674783016
 20
289.4113201735788
 30
0.0
 11
402.2616144783014
 21
289.4113201735788
 31
0.0
  0
LINE
  5
18B8
330
18
100
AcDbEntity
  8
1
  6
Continuous
100
AcDbLine
 10
466.5077374783018
 20
274.1876721735786
 30
0.0
 11
466.5077374783018
 21
252.8898361735786
 31
0.0
  0
LINE
  5
18BE
330
18
100
AcDbEntity
  8
1
  6
Continuous
100
AcDbLine
 10
454.1077474783016
 20
251.9113201735786
 30
0.0
 11
454.1077474783016
 21
215.9113201735786
 31
0.0
  0
ARC
  5
18C0
330
18
100
AcDbEntity
  8
1
  6
Continuous
100
AcDbCircle
 10
451.7177474783014
 20
233.9113201735786
 30
0.0
 40
14.49
100
AcDbArc
 50
344.9045800000002
 51
15.09541999999981
  0
LINE
  5
18C1
330
18
100
AcDbEntity
  8
1
  6
Continuous
100
AcDbLine
 10
466.2077474783018
 20
225.4113201735786
 30
0.0
 11
466.2077474783018
 21
233.9113201735786
 31
0.0
  0
LINE
  5
18C2
330
18
100
AcDbEntity
  8
1
  6
Continuous
100
AcDbLine
 10
470.2077474783018
 20
238.1613201735786
 30
0.0
 11
470.2077474783018
 21
229.6613201735786
 31
0.0
  0
LINE
  5
18C3
330
18
100
AcDbEntity
  8
1
  6
Continuous
100
AcDbLine
 10
469.4577474783018
 20
238.9113201735786
 30
0.0
 11
469.4577474783018
 21
228.9113201735786
 31
0.0
  0
LINE
  5
18C4
330
18
100
AcDbEntity
  8
1
  6
Continuous
100
AcDbLine
 10
467.8077274783015
 20
226.6113171735786
 30
0.0
 11
467.8077274783015
 21
233.9113201735786
 31
0.0
  0
ARC
  5
18C5
330
18
100
AcDbEntity
  8
1
  6
Continuous
100
AcDbCircle
 10
462.3977374783017
 20
226.5501061735786
 30
0.0
 40
3.8100059
100
AcDbArc
 50
330.3156199999996
 51
29.68438000000021
  0
LINE
  5
18C6
330
18
100
AcDbEntity
  8
1
  6
Continuous
100
AcDbLine
 10
465.7077174783016
 20
224.6113251735784
 30
0.0
 11
466.2077174783016
 21
225.4113281735786
 31
0.0
  0
LINE
  5
18C7
330
18
100
AcDbEntity
  8
1
  6
Continuous
100
AcDbLine
 10
466.6077474783016
 20
225.4113201735786
 30
0.0
 11
466.2077474783018
 21
225.4113201735786
 31
0.0
  0
LINE
  5
18C8
330
18
100
AcDbEntity
  8
2
  6
Continuous
100
AcDbLine
 10
470.2077474783018
 20
229.6613201735786
 30
0.0
 11
467.8077274783015
 21
229.6613201735786
 31
0.0
  0
LINE
  5
18C9
330
18
100
AcDbEntity
  8
1
  6
Continuous
100
AcDbLine
 10
469.4577474783018
 20
228.9113201735786
 30
0.0
 11
467.8077274783015
 21
228.9113201735786
 31
0.0
  0
LINE
  5
18CA
330
18
100
AcDbEntity
  8
1
  6
Continuous
100
AcDbLine
 10
469.4577674783017
 20
228.9113051735788
 30
0.0
 11
470.2077674783017
 21
229.6612971735787
 31
0.0
  0
ARC
  5
18CB
330
18
100
AcDbEntity
  8
1
  6
Continuous
100
AcDbCircle
 10
466.6077474783016
 20
226.6113171735786
 30
0.0
 40
1.199999999999999
100
AcDbArc
 50
270.0
 51
359.9999900000006
  0
LINE
  5
18CF
330
18
100
AcDbEntity
  8
1
  6
Continuous
100
AcDbLine
 10
454.1077474783016
 20
215.9113201735786
 30
0.0
 11
452.4077474783016
 21
215.9113201735786
 31
0.0
  0
LINE
  5
18D0
330
18
100
AcDbEntity
  8
1
  6
Continuous
100
AcDbLine
 10
465.7077374783018
 20
228.4369011735786
 30
0.0
 11
461.7077474783018
 21
228.6714211735787
 31
0.0
  0
LINE
  5
18D1
330
18
100
AcDbEntity
  8
1
  6
Continuous
100
AcDbLine
 10
465.7077474783018
 20
224.6113251735786
 30
0.0
 11
461.7077374783016
 21
224.4113281735786
 31
0.0
  0
LINE
  5
18D2
330
18
100
AcDbEntity
  8
1
  6
Continuous
100
AcDbLine
 10
462.6698018465738
 20
229.7814873523975
 30
0.0
 11
465.7077474783013
 21
230.1377221735789
 31
0.0
  0
LINE
  5
18D3
330
18
100
AcDbEntity
  8
1
  6
Continuous
100
AcDbLine
 10
461.7077374783018
 20
224.4113121735786
 30
0.0
 11
465.7077474783018
 21
224.6633041735786
 31
0.0
  0
LINE
  5
18D4
330
18
100
AcDbEntity
  8
1
  6
Continuous
100
AcDbLine
 10
465.7077374783016
 20
228.4369011735786
 30
0.0
 11
465.7077374783016
 21
230.1377301735787
 31
0.0
  0
LINE
  5
18D5
330
18
100
AcDbEntity
  8
1
  6
Continuous
100
AcDbLine
 10
465.7077374783016
 20
224.6113171735786
 30
0.0
 11
465.7077374783016
 21
224.6633111735786
 31
0.0
  0
ARC
  5
18D6
330
18
100
AcDbEntity
  8
1
  6
Continuous
100
AcDbCircle
 10
465.9948474783018
 20
226.5413711735786
 30
0.0
 40
4.787128
100
AcDbArc
 50
153.5795799999997
 51
206.4204200000001
  0
LINE
  5
18D7
330
18
100
AcDbEntity
  8
1
  6
Continuous
100
AcDbLine
 10
461.7077374783016
 20
228.7447080327304
 30
0.0
 11
461.7077374783016
 21
228.6714291735786
 31
0.0
  0
LINE
  5
18D8
330
18
100
AcDbEntity
  8
1
  6
Continuous
100
AcDbLine
 10
461.2077474783013
 20
225.4113121735787
 30
0.0
 11
461.7077474783013
 21
224.4113201735786
 31
0.0
  0
LINE
  5
18D9
330
18
100
AcDbEntity
  8
1
  6
Continuous
100
AcDbLine
 10
454.9077474783016
 20
228.9113201735786
 30
0.0
 11
454.1077474783016
 21
228.9113201735786
 31
0.0
  0
ARC
  5
18DA
330
18
100
AcDbEntity
  8
1
  6
Continuous
100
AcDbCircle
 10
460.3265074783016
 20
248.6805381735786
 30
0.0
 40
5.78125
100
AcDbArc
 50
327.4799191803507
 51
34.20545999999993
  0
LINE
  5
18DB
330
18
100
AcDbEntity
  8
1
  6
Continuous
100
AcDbLine
 10
466.5077374783018
 20
252.8898361735786
 30
0.0
 11
465.0161585446965
 21
252.8898361735786
 31
0.0
  0
ARC
  5
18DC
330
18
100
AcDbEntity
  8
1
  6
Continuous
100
AcDbCircle
 10
462.3977374783017
 20
241.2725341735786
 30
0.0
 40
3.8100059
100
AcDbArc
 50
330.3156199999996
 51
29.68438000000021
  0
LINE
  5
18DD
330
18
100
AcDbEntity
  8
1
  6
Continuous
100
AcDbLine
 10
465.7077474783018
 20
243.2113231735786
 30
0.0
 11
466.2077474783018
 21
242.4113311735788
 31
0.0
  0
LINE
  5
18DE
330
18
100
AcDbEntity
  8
1
  6
Continuous
100
AcDbLine
 10
466.2077474783018
 20
242.4113201735786
 30
0.0
 11
466.2077474783018
 21
233.9113201735786
 31
0.0
  0
LINE
  5
18DF
330
18
100
AcDbEntity
  8
1
  6
Continuous
100
AcDbLine
 10
466.6077474783016
 20
242.4113201735786
 30
0.0
 11
466.2077474783018
 21
242.4113201735786
 31
0.0
  0
LINE
  5
18E0
330
18
100
AcDbEntity
  8
2
  6
Continuous
100
AcDbLine
 10
470.2077474783018
 20
238.1613201735786
 30
0.0
 11
467.8077274783015
 21
238.1613201735786
 31
0.0
  0
LINE
  5
18E1
330
18
100
AcDbEntity
  8
1
  6
Continuous
100
AcDbLine
 10
469.4577474783018
 20
238.9113201735786
 30
0.0
 11
467.8077274783015
 21
238.9113201735786
 31
0.0
  0
LINE
  5
18E2
330
18
100
AcDbEntity
  8
1
  6
Continuous
100
AcDbLine
 10
470.2077674783017
 20
238.1612971735787
 30
0.0
 11
469.4577674783015
 21
238.9113051735788
 31
0.0
  0
LINE
  5
18E3
330
18
100
AcDbEntity
  8
1
  6
Continuous
100
AcDbLine
 10
467.8077274783015
 20
241.2113191735786
 30
0.0
 11
467.8077274783015
 21
233.9113201735786
 31
0.0
  0
ARC
  5
18E4
330
18
100
AcDbEntity
  8
1
  6
Continuous
100
AcDbCircle
 10
466.6077474783016
 20
241.2113191735786
 30
0.0
 40
1.199999999999999
100
AcDbArc
 50
359.9999900000006
 51
89.99999700000229
  0
LINE
  5
18EB
330
18
100
AcDbEntity
  8
1
  6
Continuous
100
AcDbLine
 10
465.7077374783016
 20
239.3857271735788
 30
0.0
 11
465.3583120231606
 21
239.3652400097185
 31
0.0
  0
LINE
  5
18EC
330
18
100
AcDbEntity
  8
1
  6
Continuous
100
AcDbLine
 10
465.3999086368171
 20
237.7210147222315
 30
0.0
 11
465.7077374783018
 21
237.6849181735786
 31
0.0
  0
LINE
  5
18ED
330
18
100
AcDbEntity
  8
1
  6
Continuous
100
AcDbLine
 10
465.7077374783016
 20
239.3857391735787
 30
0.0
 11
465.7077374783016
 21
237.6849141735786
 31
0.0
  0
LINE
  5
18EF
330
18
100
AcDbEntity
  8
1
  6
Continuous
100
AcDbLine
 10
465.2616156967972
 20
243.187439247508
 30
0.0
 11
465.7077174783016
 21
243.1593361735786
 31
0.0
  0
LINE
  5
18F0
330
18
100
AcDbEntity
  8
1
  6
Continuous
100
AcDbLine
 10
465.7077474783013
 20
243.2113231735786
 30
0.0
 11
465.2604456694708
 21
243.2336879285438
 31
0.0
  0
LINE
  5
18F1
330
18
100
AcDbEntity
  8
1
  6
Continuous
100
AcDbLine
 10
465.7077374783016
 20
243.2113191735786
 30
0.0
 11
465.7077374783016
 21
243.1593331735786
 31
0.0
  0
LINE
  5
18F3
330
18
100
AcDbEntity
  8
1
  6
Continuous
100
AcDbLine
 10
454.9077474783016
 20
238.9113201735786
 30
0.0
 11
454.1077474783016
 21
238.9113201735786
 31
0.0
  0
LINE
  5
18F7
330
18
100
AcDbEntity
  8
1
  6
Continuous
100
AcDbLine
 10
465.1077574783014
 20
251.9305381735786
 30
0.0
 11
465.1077574783014
 21
249.2691259834827
 31
0.0
  0
LINE
  5
18F8
330
18
100
AcDbEntity
  8
1
  6
Continuous
100
AcDbLine
 10
465.042046685714
 20
251.8665332562135
 30
0.0
 11
465.1077474783017
 21
251.9305381735786
 31
0.0
  0
ARC
  5
1902
330
18
100
AcDbEntity
  8
1
  6
Continuous
100
AcDbCircle
 10
464.5077374783018
 20
274.1876721735786
 30
0.0
 40
2.0
100
AcDbArc
 50
359.9999900000006
 51
89.99999700000229
  0
LINE
  5
1906
330
18
100
AcDbEntity
  8
1
  6
Continuous
100
AcDbLine
 10
467.0077374783017
 20
271.1674671735786
 30
0.0
 11
467.0077374783018
 21
264.2897043021294
 31
0.0
  0
LINE
  5
1907
330
18
100
AcDbEntity
  8
1
  6
Continuous
100
AcDbLine
 10
467.8077374783017
 20
270.1876721735786
 30
0.0
 11
467.8077374783017
 21
264.1876721735787
 31
0.0
  0
LINE
  5
1908
330
18
100
AcDbEntity
  8
1
  6
Continuous
100
AcDbLine
 10
466.5077374783018
 20
264.6876741735786
 30
0.0
 11
466.7327274899903
 21
264.0217941849655
 31
0.0
  0
LINE
  5
1909
330
18
100
AcDbEntity
  8
1
  6
Continuous
100
AcDbLine
 10
466.5077574783016
 20
263.8026321735786
 30
0.0
 11
467.1077574783017
 21
264.3871421082363
 31
0.0
  0
LINE
  5
190A
330
18
100
AcDbEntity
  8
1
  6
Continuous
100
AcDbLine
 10
467.1077574783017
 20
264.3871421082363
 30
0.0
 11
467.1077574783017
 21
257.8871391735788
 31
0.0
  0
LINE
  5
190B
330
18
100
AcDbEntity
  8
1
  6
Continuous
100
AcDbLine
 10
467.1077574783017
 20
257.8871351735787
 30
0.0
 11
466.5077574783016
 21
258.8026091735788
 31
0.0
  0
ARC
  5
190C
330
18
100
AcDbEntity
  8
1
  6
Continuous
100
AcDbCircle
 10
466.8077374783017
 20
264.1876721735787
 30
0.0
 40
1.0
100
AcDbArc
 50
320.5042849167684
 51
0.0000100000010134
  0
ARC
  5
190D
330
18
100
AcDbEntity
  8
1
  6
Continuous
100
AcDbCircle
 10
462.3265074783017
 20
261.1371391735788
 30
0.0
 40
5.78125
100
AcDbArc
 50
325.79454
 51
34.20545793810544
  0
LINE
  5
190E
330
18
100
AcDbEntity
  8
1
  6
Continuous
100
AcDbLine
 10
466.5077374783018
 20
269.6876801735786
 30
0.0
 11
467.0077374783017
 21
271.1674711735787
 31
0.0
  0
ARC
  5
190F
330
18
100
AcDbEntity
  8
1
  6
Continuous
100
AcDbCircle
 10
466.8077374783017
 20
270.1876721735786
 30
0.0
 40
1.0
100
AcDbArc
 50
359.9999900000006
 51
78.46303999999723
  0
ARC
  5
1916
330
18
100
AcDbEntity
  8
1
  6
Continuous
100
AcDbCircle
 10
462.5538674783016
 20
294.4113201735788
 30
0.0
 40
5.0
100
AcDbArc
 50
269.999979999998
 51
346.1134799999999
  0
LINE
  5
1917
330
18
100
AcDbEntity
  8
1
  6
Continuous
100
AcDbLine
 10
473.4077474783016
 20
296.4113201735788
 30
0.0
 11
473.4077474783016
 21
293.2113201735786
 31
0.0
  0
LINE
  5
1918
330
18
100
AcDbEntity
  8
1
  6
Continuous
100
AcDbLine
 10
462.4077474783016
 20
289.4113282735787
 30
0.0
 11
461.3514274783017
 21
285.8113221735786
 31
0.0
  0
LINE
  5
191B
330
18
100
AcDbEntity
  8
1
  6
Continuous
100
AcDbLine
 10
464.5077374783018
 20
276.1876721735786
 30
0.0
 11
464.4267556870055
 21
276.1876721735786
 31
0.0
  0
ARC
  5
191C
330
18
100
AcDbEntity
  8
1
  6
Continuous
100
AcDbCircle
 10
463.4077474783016
 20
281.4113201735788
 30
0.0
 40
1.0
100
AcDbArc
 50
180.0
 51
228.2306300000018
  0
ARC
  5
191D
330
18
100
AcDbEntity
  8
1
  6
Continuous
100
AcDbCircle
 10
456.4077474783016
 20
282.4113201735788
 30
0.0
 40
6.0
100
AcDbArc
 50
0.0000400000007758
 51
34.51809000000135
  0
ARC
  5
191E
330
18
100
AcDbEntity
  8
1
  6
Continuous
100
AcDbCircle
 10
459.4077474783016
 20
276.9391841735786
 30
0.0
 40
5.0
100
AcDbArc
 50
0.0000400000007758
 51
48.19787000000229
  0
LINE
  5
191F
330
18
100
AcDbEntity
  8
1
  6
Continuous
100
AcDbLine
 10
462.4077474783016
 20
282.4113201735788
 30
0.0
 11
462.4077474783016
 21
281.4113201735788
 31
0.0
  0
LINE
  5
1923
330
18
100
AcDbEntity
  8
1
  6
Continuous
100
AcDbLine
 10
398.3077414783016
 20
274.1876721735786
 30
0.0
 11
398.3077414783016
 21
252.8898361735786
 31
0.0
  0
LINE
  5
1925
330
18
100
AcDbEntity
  8
1
  6
Continuous
100
AcDbLine
 10
403.6077444783016
 20
228.2921122474489
 30
0.0
 11
403.6077444783016
 21
221.9113201735786
 31
0.0
  0
ARC
  5
1926
330
18
100
AcDbEntity
  8
1
  6
Continuous
100
AcDbCircle
 10
449.6077474783017
 20
233.9113201735786
 30
0.0
 40
50.0
100
AcDbArc
 50
178.5823066098669
 51
187.8651500000009
  0
LINE
  5
1927
330
18
100
AcDbEntity
  8
1
  6
Continuous
100
AcDbLine
 10
409.9077474783016
 20
251.9113201735786
 30
0.0
 11
409.9077474783016
 21
220.6113171735786
 31
0.0
  0
LINE
  5
1928
330
18
100
AcDbEntity
  8
1
  6
Continuous
100
AcDbLine
 10
410.7077504783017
 20
251.9113201735786
 30
0.0
 11
410.7077504783017
 21
215.9113201735786
 31
0.0
  0
ARC
  5
192A
330
18
100
AcDbEntity
  8
1
  6
Continuous
100
AcDbCircle
 10
405.9077474783016
 20
221.9113201735786
 30
0.0
 40
2.299999999999998
100
AcDbArc
 50
180.0
 51
270.0
  0
LINE
  5
192B
330
18
100
AcDbEntity
  8
1
  6
Continuous
100
AcDbLine
 10
412.4077474783016
 20
215.9113201735786
 30
0.0
 11
410.7077504783017
 21
215.9113201735786
 31
0.0
  0
LINE
  5
192C
330
18
100
AcDbEntity
  8
1
  6
Continuous
100
AcDbLine
 10
408.9077474783016
 20
219.6113171735786
 30
0.0
 11
405.9077474783016
 21
219.6113171735786
 31
0.0
  0
LINE
  5
192D
330
18
100
AcDbEntity
  8
1
  6
Continuous
100
AcDbLine
 10
408.9077474783016
 20
223.2838570838388
 30
0.0
 11
405.9077474783016
 21
223.2838570838388
 31
0.0
  0
LINE
  5
192E
330
18
100
AcDbEntity
  8
1
  6
Continuous
100
AcDbLine
 10
410.7077504783017
 20
228.9113201735786
 30
0.0
 11
409.9077474783016
 21
228.9113201735786
 31
0.0
  0
ARC
  5
192F
330
18
100
AcDbEntity
  8
1
  6
Continuous
100
AcDbCircle
 10
402.5545824783016
 20
227.4113201735786
 30
0.0
 40
2.5
100
AcDbArc
 50
187.8651500000009
 51
270.0
  0
LINE
  5
1930
330
18
100
AcDbEntity
  8
1
  6
Continuous
100
AcDbLine
 10
403.6077444783016
 20
224.9113201735786
 30
0.0
 11
402.5545824783016
 21
224.9113201735786
 31
0.0
  0
LINE
  5
1935
330
18
100
AcDbEntity
  8
1
  6
Continuous
100
AcDbLine
 10
410.7077504783017
 20
238.9113201735786
 30
0.0
 11
409.9077474783016
 21
238.9113201735786
 31
0.0
  0
ARC
  5
1941
330
18
100
AcDbEntity
  8
1
  6
Continuous
100
AcDbCircle
 10
404.4889924783017
 20
248.6805381735786
 30
0.0
 40
5.78125
100
AcDbArc
 50
145.7945419999999
 51
212.5199921619888
  0
LINE
  5
1942
330
18
100
AcDbEntity
  8
1
  6
Continuous
100
AcDbLine
 10
399.7993364119069
 20
252.8898361735786
 30
0.0
 11
398.3077414783016
 21
252.8898361735786
 31
0.0
  0
LINE
  5
1943
330
18
100
AcDbEntity
  8
1
  6
Continuous
100
AcDbLine
 10
399.7734481635161
 20
251.8665290119837
 30
0.0
 11
399.7077424783017
 21
251.9305381735786
 31
0.0
  0
LINE
  5
1945
330
18
100
AcDbEntity
  8
1
  6
Continuous
100
AcDbLine
 10
399.7077424783017
 20
251.9305381735786
 30
0.0
 11
399.7077424783017
 21
249.2693236228042
 31
0.0
  0
ARC
  5
1946
330
18
100
AcDbEntity
  8
1
  6
Continuous
100
AcDbCircle
 10
400.3077414783017
 20
274.1876721735786
 30
0.0
 40
2.0
100
AcDbArc
 50
89.99999700000229
 51
180.0
  0
ARC
  5
1950
330
18
100
AcDbEntity
  8
1
  6
Continuous
100
AcDbCircle
 10
399.3077414783016
 20
266.0146771458239
 30
0.0
 40
1.0
100
AcDbArc
 50
89.99999700000229
 51
180.0
  0
LINE
  5
1951
330
18
100
AcDbEntity
  8
1
  6
Continuous
100
AcDbLine
 10
396.3077414783017
 20
271.5606561735786
 30
0.0
 11
396.3077414783017
 21
262.8146901735788
 31
0.0
  0
ARC
  5
1952
330
18
100
AcDbEntity
  8
1
  6
Continuous
100
AcDbCircle
 10
402.4889924783017
 20
261.1371391735788
 30
0.0
 40
5.78125
100
AcDbArc
 50
145.7945420618957
 51
214.2054599999999
  0
ARC
  5
1953
330
18
100
AcDbEntity
  8
1
  6
Continuous
100
AcDbCircle
 10
397.3077414783017
 20
266.6876721735786
 30
0.0
 40
4.0
100
AcDbArc
 50
255.5224899999974
 51
264.5049078294257
  0
LINE
  5
1954
330
18
100
AcDbEntity
  8
1
  6
Continuous
100
AcDbLine
 10
397.7077424783017
 20
264.3871391735787
 30
0.0
 11
397.7077424783017
 21
257.8871391735788
 31
0.0
  0
LINE
  5
1955
330
18
100
AcDbEntity
  8
1
  6
Continuous
100
AcDbLine
 10
397.7077424783017
 20
257.8871391735788
 30
0.0
 11
398.3077414783016
 21
258.8026051735786
 31
0.0
  0
ARC
  5
1956
330
18
100
AcDbEntity
  8
1
  6
Continuous
100
AcDbCircle
 10
397.3077414783017
 20
267.6876721735786
 30
0.0
 40
4.0
100
AcDbArc
 50
75.52248999999743
 51
104.477511999998
  0
LINE
  5
1957
330
18
100
AcDbEntity
  8
1
  6
Continuous
100
AcDbLine
 10
400.1190443273157
 20
267.0146771458238
 30
0.0
 11
399.3077414783016
 21
267.0146771458238
 31
0.0
  0
LINE
  5
195B
330
18
100
AcDbEntity
  8
1
  6
Continuous
100
AcDbLine
 10
402.4077624783017
 20
289.4113263735786
 30
0.0
 11
403.4640824783016
 21
285.8113311735787
 31
0.0
  0
LINE
  5
195D
330
18
100
AcDbEntity
  8
1
  6
Continuous
100
AcDbLine
 10
400.3887392695976
 20
276.1876721735786
 30
0.0
 11
400.3077414783017
 21
276.1876721735786
 31
0.0
  0
ARC
  5
195E
330
18
100
AcDbEntity
  8
1
  6
Continuous
100
AcDbCircle
 10
408.4077474783016
 20
282.4113201735788
 30
0.0
 40
6.0
100
AcDbArc
 50
145.481879999999
 51
180.0
  0
ARC
  5
195F
330
18
100
AcDbEntity
  8
1
  6
Continuous
100
AcDbCircle
 10
401.4077474783016
 20
281.4113201735788
 30
0.0
 40
1.0
100
AcDbArc
 50
311.810410000002
 51
0.0000200000003914
  0
ARC
  5
1960
330
18
100
AcDbEntity
  8
1
  6
Continuous
100
AcDbCircle
 10
405.4077474783016
 20
276.9391841735786
 30
0.0
 40
5.0
100
AcDbArc
 50
131.8103039999998
 51
180.0
  0
LINE
  5
1961
330
18
100
AcDbEntity
  8
1
  6
Continuous
100
AcDbLine
 10
402.4077474783016
 20
282.4113201735788
 30
0.0
 11
402.4077474783016
 21
281.4113201735788
 31
0.0
  0
ARC
  5
1962
330
18
100
AcDbEntity
  8
1
  6
Continuous
100
AcDbCircle
 10
402.2616144783014
 20
294.4113201735788
 30
0.0
 40
5.0
100
AcDbArc
 50
193.8865400000002
 51
269.999979999998
  0
LINE
  5
1963
330
18
100
AcDbEntity
  8
1
  6
Continuous
100
AcDbLine
 10
391.4077474783017
 20
296.4113201735788
 30
0.0
 11
391.4077474783017
 21
293.2113201735786
 31
0.0
  0
LINE
  5
19E9
330
18
100
AcDbEntity
  8
4
  6
CENTER
100
AcDbLine
 10
551.8649474534738
 20
298.9700674735786
 30
0.0
 11
551.8649474534738
 21
290.8605846735787
 31
0.0
  0
LINE
  5
19EA
330
18
100
AcDbEntity
  8
4
  6
CENTER
100
AcDbLine
 10
614.8649474534737
 20
298.9700674735786
 30
0.0
 11
614.8649474534737
 21
290.8605846735787
 31
0.0
  0
LINE
  5
19EB
330
18
100
AcDbEntity
  8
4
  6
CENTER
100
AcDbLine
 10
583.3649474534737
 20
300.9765056735786
 30
0.0
 11
583.3649474534737
 21
258.9204601735787
 31
0.0
  0
LINE
  5
19EF
330
18
100
AcDbEntity
  8
1
  6
Continuous
100
AcDbLine
 10
624.3649512534739
 20
293.2113201735786
 30
0.0
 11
542.3649474534736
 21
293.2113201735786
 31
0.0
  0
LINE
  5
19F0
330
18
100
AcDbEntity
  8
1
  6
Continuous
100
AcDbLine
 10
624.3649512534739
 20
296.4113201735788
 30
0.0
 11
542.3649474534736
 21
296.4113201735788
 31
0.0
  0
LINE
  5
19F1
330
18
100
AcDbEntity
  8
1
  6
Continuous
100
AcDbLine
 10
613.5110844534737
 20
289.4113201735788
 30
0.0
 11
553.2188144534739
 21
289.4113201735788
 31
0.0
  0
LINE
  5
19F2
330
18
100
AcDbEntity
  8
1
  6
Continuous
100
AcDbLine
 10
616.3649514534737
 20
280.4113201735788
 30
0.0
 11
552.6658504534739
 21
280.4113201735788
 31
0.0
  0
LINE
  5
19F3
330
18
100
AcDbEntity
  8
1
  6
Continuous
100
AcDbLine
 10
612.3086314534739
 20
285.8113201735786
 30
0.0
 11
554.4212674534738
 21
285.8113201735786
 31
0.0
  0
ARC
  5
19F4
330
18
100
AcDbEntity
  8
1
  6
Continuous
100
AcDbCircle
 10
638.6387774534737
 20
314.7036441735788
 30
0.0
 40
99.0
100
AcDbArc
 50
205.6101590025951
 51
244.1533079231717
  0
LINE
  5
19F6
330
18
100
AcDbEntity
  8
4
  6
CENTER
100
AcDbLine
 10
606.3649514534737
 20
274.9493701735786
 30
0.0
 11
606.3649514534737
 21
192.6355131735786
 31
0.0
  0
ARC
  5
19F7
330
18
100
AcDbEntity
  8
1
  6
Continuous
100
AcDbCircle
 10
606.3649514534737
 20
233.9113201735786
 30
0.0
 40
37.5
100
AcDbArc
 50
165.4953179999997
 51
19.57331999999923
  0
ARC
  5
19F8
330
18
100
AcDbEntity
  8
1
  6
Continuous
100
AcDbCircle
 10
606.3649514534737
 20
233.9113201735786
 30
0.0
 40
22.120001
100
AcDbArc
 50
185.1473034161911
 51
10.15688396607763
  0
LINE
  5
19F9
330
18
100
AcDbEntity
  8
4
  6
CENTER
100
AcDbLine
 10
647.6407584534737
 20
233.9113201735786
 30
0.0
 11
565.0891444534737
 21
233.9113201735786
 31
0.0
  0
LINE
  5
19FA
330
18
100
AcDbEntity
  8
1
  6
Continuous
100
AcDbLine
 10
624.3134657534738
 20
276.1877861735786
 30
0.0
 11
634.0228239534738
 21
276.1876721735786
 31
0.0
  0
CIRCLE
  5
19FB
330
18
100
AcDbEntity
  8
1
  6
Continuous
100
AcDbCircle
 10
624.1572829534739
 20
261.1371391735788
 30
0.0
 40
3.25
  0
ARC
  5
19FC
330
18
100
AcDbEntity
  8
1
  6
Continuous
100
AcDbCircle
 10
627.8765803734739
 20
248.6805351735786
 30
0.0
 40
6.0
100
AcDbArc
 50
223.4018499999996
 51
290.3867100000018
  0
CIRCLE
  5
19FD
330
18
100
AcDbEntity
  8
1
  6
Continuous
100
AcDbCircle
 10
627.8765803734739
 20
248.6805381735786
 30
0.0
 40
3.25
  0
LINE
  5
19FE
330
18
100
AcDbEntity
  8
1
  6
Continuous
100
AcDbLine
 10
644.2784724534738
 20
276.4113201735788
 30
0.0
 11
610.9116164534739
 21
276.4113201735788
 31
0.0
  0
ARC
  5
19FF
330
18
100
AcDbEntity
  8
1
  6
Continuous
100
AcDbCircle
 10
624.3132888534737
 20
260.8898361735786
 30
0.0
 40
8.0
100
AcDbArc
 50
209.4143600000001
 51
307.9256700000011
  0
ARC
  5
1A00
330
18
100
AcDbEntity
  8
1
  6
Continuous
100
AcDbCircle
 10
606.3649514534737
 20
233.9113201735786
 30
0.0
 40
18.5
100
AcDbArc
 50
194.1736984713797
 51
5.447451470583288
  0
LINE
  5
1A01
330
18
100
AcDbEntity
  8
1
  6
Continuous
100
AcDbLine
 10
645.1116494534737
 20
248.6550601735786
 30
0.0
 11
621.0242697534737
 21
233.2674261735786
 31
0.0
  0
LINE
  5
1A02
330
18
100
AcDbEntity
  8
1
  6
Continuous
100
AcDbLine
 10
624.5002862534739
 20
241.2437481735786
 30
0.0
 11
626.8788781534737
 21
242.7640691735787
 31
0.0
  0
LINE
  5
1A03
330
18
100
AcDbEntity
  8
5
  6
PHANTOM
100
AcDbLine
 10
620.9509655534739
 20
269.2855041735786
 30
0.0
 11
629.0276444734737
 21
274.6742771735786
 31
0.0
  0
CIRCLE
  5
1A04
330
18
100
AcDbEntity
  8
5
  6
PHANTOM
100
AcDbCircle
 10
629.1744245434736
 20
256.6791121735787
 30
0.0
 40
3.25
  0
ARC
  5
1A05
330
18
100
AcDbEntity
  8
5
  6
PHANTOM
100
AcDbCircle
 10
629.4414538534737
 20
256.5599831735787
 30
0.0
 40
8.0
100
AcDbArc
 50
243.1263000000028
 51
341.6376200000008
  0
LINE
  5
1A06
330
18
100
AcDbEntity
  8
5
  6
PHANTOM
100
AcDbLine
 10
646.2977684534737
 20
227.1790431735786
 30
0.0
 11
620.0900079534737
 21
240.0012211735786
 31
0.0
  0
LINE
  5
1A07
330
18
100
AcDbEntity
  8
1
  6
Continuous
100
AcDbLine
 10
638.3251859534737
 20
261.6660121735788
 30
0.0
 11
629.2303930634739
 21
254.5793651735786
 31
0.0
  0
LINE
  5
1A08
330
18
100
AcDbEntity
  8
1
  6
Continuous
100
AcDbLine
 10
659.2239524534739
 20
266.8674531735786
 30
0.0
 11
660.3134524534739
 21
253.4114841735787
 31
0.0
  0
LINE
  5
1A09
330
18
100
AcDbEntity
  8
5
  6
PHANTOM
100
AcDbLine
 10
640.6662944534737
 20
264.9824911735787
 30
0.0
 11
637.0341149534737
 21
254.0397721735786
 31
0.0
  0
ARC
  5
1A0A
330
18
100
AcDbEntity
  8
5
  6
PHANTOM
100
AcDbCircle
 10
640.5093874534737
 20
254.3435481735786
 30
0.0
 40
3.0
100
AcDbArc
 50
168.3568900000003
 51
228.2706799999983
  0
LINE
  5
1A0B
330
18
100
AcDbEntity
  8
1
  6
Continuous
100
AcDbLine
 10
657.3232374534739
 20
253.1693731735788
 30
0.0
 11
660.3134524534739
 21
253.4114841735787
 31
0.0
  0
LINE
  5
1A0C
330
18
100
AcDbEntity
  8
5
  6
PHANTOM
100
AcDbLine
 10
669.3941454534737
 20
238.7303201735786
 30
0.0
 11
657.4035694534735
 21
238.2548721735787
 31
0.0
  0
LINE
  5
1A0D
330
18
100
AcDbEntity
  8
5
  6
PHANTOM
100
AcDbLine
 10
657.5224314534739
 20
235.2572251735786
 30
0.0
 11
648.5366624534735
 21
225.1822021735786
 31
0.0
  0
LINE
  5
1A0E
330
18
100
AcDbEntity
  8
5
  6
PHANTOM
100
AcDbLine
 10
669.5130074534737
 20
235.7326741735787
 30
0.0
 11
657.5224314534739
 21
235.2572251735786
 31
0.0
  0
LINE
  5
1A0F
330
18
100
AcDbEntity
  8
5
  6
PHANTOM
100
AcDbLine
 10
669.3941454534737
 20
238.7303201735789
 30
0.0
 11
669.5130074534737
 21
235.7326741735787
 31
0.0
  0
LINE
  5
1A10
330
18
100
AcDbEntity
  8
5
  6
PHANTOM
100
AcDbLine
 10
646.2977704534737
 20
227.1790431735786
 30
0.0
 11
648.5366624534735
 21
225.1822021735786
 31
0.0
  0
LINE
  5
1A11
330
18
100
AcDbEntity
  8
1
  6
Continuous
100
AcDbLine
 10
657.3232314534735
 20
253.1693771735787
 30
0.0
 11
629.9570227534737
 21
243.0527771735787
 31
0.0
  0
LINE
  5
1A12
330
18
100
AcDbEntity
  8
5
  6
PHANTOM
100
AcDbLine
 10
643.6405634534737
 20
247.5310561735789
 30
0.0
 11
638.5125504534737
 21
252.1046561735786
 31
0.0
  0
LINE
  5
1A13
330
18
100
AcDbEntity
  8
5
  6
PHANTOM
100
AcDbLine
 10
657.4691724534739
 20
235.1975141735786
 30
0.0
 11
643.7559314534738
 21
247.4281621735787
 31
0.0
  0
ARC
  5
1A14
330
18
100
AcDbEntity
  8
5
  6
PHANTOM
100
AcDbCircle
 10
657.5224294534737
 20
235.2572291735786
 30
0.0
 40
3.0
100
AcDbArc
 50
92.27069399999807
 51
139.798998999999
  0
LINE
  5
1A15
330
18
100
AcDbEntity
  8
1
  6
Continuous
100
AcDbLine
 10
664.9037964534739
 20
277.8555971735788
 30
0.0
 11
656.9726134534737
 21
268.8502471735789
 31
0.0
  0
LINE
  5
1A16
330
18
100
AcDbEntity
  8
1
  6
Continuous
100
AcDbLine
 10
659.2304064534737
 20
266.7876991735786
 30
0.0
 11
640.9153114534737
 21
265.3047701735786
 31
0.0
  0
LINE
  5
1A17
330
18
100
AcDbEntity
  8
1
  6
Continuous
100
AcDbLine
 10
664.9037964534739
 20
277.8555971735788
 30
0.0
 11
667.1551354534735
 21
275.8728011735787
 31
0.0
  0
LINE
  5
1A18
330
18
100
AcDbEntity
  8
1
  6
Continuous
100
AcDbLine
 10
667.1551354534735
 20
275.8728011735787
 30
0.0
 11
659.2239504534735
 21
266.8674511735786
 31
0.0
  0
LINE
  5
1A19
330
18
100
AcDbEntity
  8
1
  6
Continuous
100
AcDbLine
 10
658.2944791231002
 20
270.3511368714369
 30
0.0
 11
660.5458181231001
 21
268.3683408714368
 31
0.0
  0
ARC
  5
1A1A
330
18
100
AcDbEntity
  8
1
  6
Continuous
100
AcDbCircle
 10
644.2784724534738
 20
274.1113211735787
 30
0.0
 40
2.299999999999998
100
AcDbArc
 50
26.9999899999994
 51
89.99999700000229
  0
ARC
  5
1A1B
330
18
100
AcDbEntity
  8
1
  6
Continuous
100
AcDbCircle
 10
634.0227176534737
 20
267.1876721735786
 30
0.0
 40
9.0
100
AcDbArc
 50
349.3682299999999
 51
89.99933499999821
  0
ARC
  5
1A1C
330
18
100
AcDbEntity
  8
5
  6
PHANTOM
100
AcDbCircle
 10
634.0227176534737
 20
267.1876721735786
 30
0.0
 40
9.0
100
AcDbArc
 50
89.99933499999821
 51
123.7112809999981
  0
LINE
  5
1A1D
330
18
100
AcDbEntity
  8
1
  6
Continuous
100
AcDbLine
 10
642.8682154534738
 20
265.5272071735786
 30
0.0
 11
641.5989904534738
 21
265.5549051735786
 31
0.0
  0
LINE
  5
1A1E
330
18
100
AcDbEntity
  8
1
  6
Continuous
100
AcDbLine
 10
644.2784724534738
 20
274.1113211735787
 30
0.0
 11
639.7727694534737
 21
274.1113211735787
 31
0.0
  0
LINE
  5
1A1F
330
18
100
AcDbEntity
  8
5
  6
PHANTOM
100
AcDbLine
 10
642.3023304534737
 20
270.7158421735786
 30
0.0
 11
641.2311664534739
 21
270.0344411735786
 31
0.0
  0
LINE
  5
1A20
330
18
100
AcDbEntity
  8
1
  6
Continuous
100
AcDbLine
 10
646.3277864534737
 20
275.1554991735786
 30
0.0
 11
650.9060664534737
 21
266.1701221735784
 31
0.0
  0
ARC
  5
1A21
330
18
100
AcDbEntity
  8
1
  6
Continuous
100
AcDbCircle
 10
659.2239484534737
 20
266.8674511735786
 30
0.0
 40
3.0
100
AcDbArc
 50
138.6290179999996
 51
186.1573200000002
  0
ARC
  5
1A22
330
18
100
AcDbEntity
  8
1
  6
Continuous
100
AcDbCircle
 10
641.5771724534737
 20
264.5551441735788
 30
0.0
 40
1.0
100
AcDbArc
 50
88.74976599999902
 51
160.7878799999996
  0
CIRCLE
  5
1A23
330
18
100
AcDbEntity
  8
1
  6
Continuous
100
AcDbCircle
 10
634.0227176534737
 20
267.1876721735786
 30
0.0
 40
3.979795968271702
  0
ARC
  5
1A24
330
18
100
AcDbEntity
  8
5
  6
PHANTOM
100
AcDbCircle
 10
634.0227156534737
 20
267.1876761735786
 30
0.0
 40
7.0
100
AcDbArc
 50
341.6376200000008
 51
14.49983000000077
  0
ARC
  5
1A25
330
18
100
AcDbEntity
  8
1
  6
Continuous
100
AcDbCircle
 10
634.0227176534737
 20
267.1876761735786
 30
0.0
 40
7.0
100
AcDbArc
 50
307.9256700000011
 51
340.7878799999997
  0
ARC
  5
1A26
330
18
100
AcDbEntity
  8
5
  6
PHANTOM
100
AcDbCircle
 10
629.1744513034736
 20
256.6791731735786
 30
0.0
 40
8.5730658
100
AcDbArc
 50
348.3568999999981
 51
356.3770000000004
  0
ARC
  5
1A27
330
18
100
AcDbEntity
  8
5
  6
PHANTOM
100
AcDbCircle
 10
641.7679034534737
 20
269.1906911735786
 30
0.0
 40
1.0
100
AcDbArc
 50
122.4617149999985
 51
194.4998300000006
  0
ARC
  5
1A28
330
18
100
AcDbEntity
  8
1
  6
Continuous
100
AcDbCircle
 10
624.1694404534737
 20
261.1407551735786
 30
0.0
 40
12.297948
100
AcDbArc
 50
159.982070000001
 51
238.5949400000011
  0
LINE
  5
1A29
330
18
100
AcDbEntity
  8
1
  6
Continuous
100
AcDbLine
 10
594.2900914534735
 20
229.4408531735786
 30
0.0
 11
603.5933274534738
 21
277.3018741735786
 31
0.0
  0
LINE
  5
1A2A
330
18
100
AcDbEntity
  8
1
  6
Continuous
100
AcDbLine
 10
604.9177584534739
 20
271.7164041735786
 30
0.0
 11
598.1578091306702
 21
238.6959797114471
 31
0.0
  0
ARC
  5
1A2B
330
18
100
AcDbEntity
  8
5
  6
PHANTOM
100
AcDbCircle
 10
629.4414538534737
 20
256.5599831735787
 30
0.0
 40
15.29795
100
AcDbArc
 50
123.7112840000016
 51
190.1106300000005
  0
ARC
  5
1A2C
330
18
100
AcDbEntity
  8
1
  6
Continuous
100
AcDbCircle
 10
638.6387704534739
 20
314.7036481735788
 30
0.0
 40
101.2999999999999
100
AcDbArc
 50
244.4841100000016
 51
248.2249499999995
  0
ARC
  5
1A2D
330
18
100
AcDbEntity
  8
1
  6
Continuous
100
AcDbCircle
 10
606.3649514534737
 20
233.9113201735786
 30
0.0
 40
17.1
100
AcDbArc
 50
198.9081094669355
 51
3.017400490776528
  0
ARC
  5
1A2E
330
18
100
AcDbEntity
  8
1
  6
Continuous
100
AcDbCircle
 10
626.4077826534737
 20
224.8402141735787
 30
0.0
 40
10.0
100
AcDbArc
 50
122.5714830000009
 51
155.649155
  0
ARC
  5
1A30
330
18
100
AcDbEntity
  8
1
  6
Continuous
100
AcDbCircle
 10
606.3649514534737
 20
233.9113201735786
 30
0.0
 40
12.0
100
AcDbArc
 50
272.1429099999975
 51
335.6491500000001
  0
ARC
  5
1A31
330
18
100
AcDbEntity
  8
1
  6
Continuous
100
AcDbCircle
 10
606.3649514534737
 20
233.9113201735786
 30
0.0
 40
12.75
100
AcDbArc
 50
271.3571612494125
 51
348.6759543570008
  0
ARC
  5
1A32
330
18
100
AcDbEntity
  8
1
  6
Continuous
100
AcDbCircle
 10
606.3649514534737
 20
233.9113201735786
 30
0.0
 40
14.3
100
AcDbArc
 50
248.2249499999995
 51
270.0
  0
LINE
  5
1A33
330
18
100
AcDbEntity
  8
1
  6
Continuous
100
AcDbLine
 10
606.3649454534737
 20
219.6113171735786
 30
0.0
 11
606.8120204534737
 21
221.9113121735786
 31
0.0
  0
ARC
  5
1A34
330
18
100
AcDbEntity
  8
1
  6
Continuous
100
AcDbCircle
 10
622.1054488534737
 20
244.9943771735786
 30
0.0
 40
4.449999299999999
100
AcDbArc
 50
124.0144079999992
 51
302.6120899999988
  0
CIRCLE
  5
1A35
330
18
100
AcDbEntity
  8
5
  6
PHANTOM
100
AcDbCircle
 10
622.7268411534737
 20
245.3907511735786
 30
0.0
 40
3.25
  0
ARC
  5
1A36
330
18
100
AcDbEntity
  8
5
  6
PHANTOM
100
AcDbCircle
 10
622.7268382534739
 20
245.3907511735786
 30
0.0
 40
6.0
100
AcDbArc
 50
177.0435207999999
 51
244.0283899999982
  0
LINE
  5
1A37
330
18
100
AcDbEntity
  8
1
  6
Continuous
100
AcDbLine
 10
617.761161453474
 20
250.6443981735788
 30
0.0
 11
623.5172711534737
 21
244.5578771735786
 31
0.0
  0
LINE
  5
1A38
330
18
100
AcDbEntity
  8
5
  6
PHANTOM
100
AcDbLine
 10
616.3500124534739
 20
254.2255371735789
 30
0.0
 11
625.8252514534737
 21
249.4239431735786
 31
0.0
  0
LINE
  5
1A39
330
18
100
AcDbEntity
  8
5
  6
PHANTOM
100
AcDbLine
 10
616.3500104534739
 20
254.2255371735786
 30
0.0
 11
614.3810644534737
 21
253.8744361735786
 31
0.0
  0
LINE
  5
1A3A
330
18
100
AcDbEntity
  8
5
  6
PHANTOM
100
AcDbLine
 10
617.1540894534739
 20
253.8180701735786
 30
0.0
 11
616.7348334534737
 21
245.7002151735786
 31
0.0
  0
LINE
  5
1A3B
330
18
100
AcDbEntity
  8
1
  6
Continuous
100
AcDbLine
 10
610.9116164534739
 20
276.4113201735788
 30
0.0
 11
610.9116164534739
 21
274.1113211735787
 31
0.0
  0
ARC
  5
1A3C
330
18
100
AcDbEntity
  8
1
  6
Continuous
100
AcDbCircle
 10
624.3132888534737
 20
260.8898361735786
 30
0.0
 40
15.29795
100
AcDbArc
 50
89.99933499999821
 51
156.3986789999997
  0
LINE
  5
1A3D
330
18
100
AcDbEntity
  8
1
  6
Continuous
100
AcDbLine
 10
616.6178614534738
 20
274.1113211735787
 30
0.0
 11
607.8561054534739
 21
274.1113211735787
 31
0.0
  0
LINE
  5
1A3E
330
18
100
AcDbEntity
  8
1
  6
Continuous
100
AcDbLine
 10
612.1276614534735
 20
266.2139381735787
 30
0.0
 11
610.2949534534737
 21
267.0146791735786
 31
0.0
  0
LINE
  5
1A3F
330
18
100
AcDbEntity
  8
1
  6
Continuous
100
AcDbLine
 10
612.1276674534737
 20
266.2139381735787
 30
0.0
 11
617.3445634534735
 21
256.9608581735788
 31
0.0
  0
ARC
  5
1A40
330
18
100
AcDbEntity
  8
1
  6
Continuous
100
AcDbCircle
 10
607.8561054534739
 20
271.1113211735786
 30
0.0
 40
3.0
100
AcDbArc
 50
89.99999700000229
 51
168.4965709999993
  0
LINE
  5
1A41
330
18
100
AcDbEntity
  8
1
  6
Continuous
100
AcDbLine
 10
613.3649474534737
 20
289.4113191735787
 30
0.0
 11
612.3086314534739
 21
285.8113191735786
 31
0.0
  0
ARC
  5
1A42
330
18
100
AcDbEntity
  8
1
  6
Continuous
100
AcDbCircle
 10
616.3649514534737
 20
275.4113201735788
 30
0.0
 40
5.0
100
AcDbArc
 50
11.53696000000024
 51
90.00001799999918
  0
LINE
  5
1A43
330
18
100
AcDbEntity
  8
1
  6
Continuous
100
AcDbLine
 10
613.3649514534737
 20
282.4113201735788
 30
0.0
 11
613.3649514534737
 21
281.4113201735788
 31
0.0
  0
ARC
  5
1A44
330
18
100
AcDbEntity
  8
1
  6
Continuous
100
AcDbCircle
 10
614.3649514534737
 20
281.4113201735788
 30
0.0
 40
1.0
100
AcDbArc
 50
180.0
 51
269.999979999998
  0
ARC
  5
1A45
330
18
100
AcDbEntity
  8
1
  6
Continuous
100
AcDbCircle
 10
607.3649514534737
 20
282.4113201735788
 30
0.0
 40
6.0
100
AcDbArc
 50
0.0000400000007758
 51
34.51809000000135
  0
ARC
  5
1A46
330
18
100
AcDbEntity
  8
1
  6
Continuous
100
AcDbCircle
 10
613.5110844534737
 20
294.4113201735788
 30
0.0
 40
5.0
100
AcDbArc
 50
269.999979999998
 51
346.1134799999999
  0
LINE
  5
1A47
330
18
100
AcDbEntity
  8
1
  6
Continuous
100
AcDbLine
 10
624.3649512534739
 20
296.4113201735788
 30
0.0
 11
624.3649512534739
 21
293.2113201735786
 31
0.0
  0
LINE
  5
1A48
330
18
100
AcDbEntity
  8
1
  6
Continuous
100
AcDbLine
 10
549.3649324534735
 20
271.9113201735788
 30
0.0
 11
550.7025784534735
 21
278.7929381735787
 31
0.0
  0
ARC
  5
1A49
330
18
100
AcDbEntity
  8
1
  6
Continuous
100
AcDbCircle
 10
553.2188144534739
 20
294.4113201735788
 30
0.0
 40
5.0
100
AcDbArc
 50
193.8865400000002
 51
269.999979999998
  0
LINE
  5
1A4A
330
18
100
AcDbEntity
  8
1
  6
Continuous
100
AcDbLine
 10
553.3649624534737
 20
289.4113225735786
 30
0.0
 11
554.4212824534738
 21
285.8113211735787
 31
0.0
  0
LINE
  5
1A4B
330
18
100
AcDbEntity
  8
1
  6
Continuous
100
AcDbLine
 10
553.3649474534736
 20
282.4113201735788
 30
0.0
 11
553.3649474534736
 21
281.4113201735788
 31
0.0
  0
ARC
  5
1A4C
330
18
100
AcDbEntity
  8
1
  6
Continuous
100
AcDbCircle
 10
552.6658504534739
 20
278.4113201735788
 30
0.0
 40
2.0
100
AcDbArc
 50
90.00001799999918
 51
169.0000519999991
  0
ARC
  5
1A4D
330
18
100
AcDbEntity
  8
1
  6
Continuous
100
AcDbCircle
 10
552.3649474534736
 20
281.4113201735788
 30
0.0
 40
1.0
100
AcDbArc
 50
269.9999700000033
 51
0.0000200000003914
  0
ARC
  5
1A4E
330
18
100
AcDbEntity
  8
1
  6
Continuous
100
AcDbCircle
 10
559.3649474534738
 20
282.4113201735788
 30
0.0
 40
6.0
100
AcDbArc
 50
145.481879999999
 51
180.0
  0
LINE
  5
1A4F
330
18
100
AcDbEntity
  8
1
  6
Continuous
100
AcDbLine
 10
542.3649474534736
 20
296.4113201735788
 30
0.0
 11
542.3649474534736
 21
293.2113201735786
 31
0.0
  0
LINE
  5
1AEA
330
18
100
AcDbEntity
  8
1
  6
Continuous
100
AcDbLine
 10
240.0147105815015
 20
47.07102439746107
 30
0.0
 11
303.0147105815016
 21
47.07102439746107
 31
0.0
  0
LINE
  5
1AEB
330
18
100
AcDbEntity
  8
1
  6
Continuous
100
AcDbLine
 10
240.0147105815015
 20
129.071024397461
 30
0.0
 11
303.0147105815016
 21
129.071024397461
 31
0.0
  0
LINE
  5
1AEC
330
18
100
AcDbEntity
  8
4
  6
CENTER
100
AcDbLine
 10
181.6969861753903
 20
88.07102439746108
 30
0.0
 11
321.4090295334695
 21
88.07102439746108
 31
0.0
  0
LINE
  5
1AEF
330
18
100
AcDbEntity
  8
4
  6
CENTER
100
AcDbLine
 10
240.0147105815015
 20
113.5710243974609
 30
0.0
 11
240.0147105815015
 21
125.5710243974609
 31
0.0
  0
ARC
  5
1AF0
330
18
100
AcDbEntity
  8
1
  6
Continuous
100
AcDbCircle
 10
240.0147105815015
 20
119.5710243974611
 30
0.0
 40
9.5
100
AcDbArc
 50
89.99997000000352
 51
154.087482904129
  0
LINE
  5
1AF1
330
18
100
AcDbEntity
  8
4
  6
CENTER
100
AcDbLine
 10
271.5147105815014
 20
43.07102439746109
 30
0.0
 11
271.5147105815014
 21
133.071024397461
 31
0.0
  0
LINE
  5
1AF2
330
18
100
AcDbEntity
  8
1
  6
Continuous
100
AcDbLine
 10
215.6091403815016
 20
122.1710303974608
 30
0.0
 11
244.5847045815015
 21
122.1710303974608
 31
0.0
  0
LINE
  5
1AF4
330
18
100
AcDbEntity
  8
1
  6
Continuous
100
AcDbLine
 10
203.8557055814997
 20
116.8710273974941
 30
0.0
 11
258.8770170742543
 21
116.8710273975094
 31
0.0
  0
LINE
  5
1AF5
330
18
100
AcDbEntity
  8
1
  6
Continuous
100
AcDbLine
 10
227.4723750814231
 20
122.7710293974612
 30
0.0
 11
228.3878410814234
 21
122.1710303974612
 31
0.0
  0
LINE
  5
1AF6
330
18
100
AcDbEntity
  8
1
  6
Continuous
100
AcDbLine
 10
233.972375081423
 20
122.7710293974609
 30
0.0
 11
227.4723750814231
 21
122.7710293974609
 31
0.0
  0
ARC
  5
1AF7
330
18
100
AcDbEntity
  8
1
  6
Continuous
100
AcDbCircle
 10
230.7223750814232
 20
117.9897793974612
 30
0.0
 40
5.78125
100
AcDbArc
 50
55.79454206189526
 51
124.2054599999985
  0
LINE
  5
1AF9
330
18
100
AcDbEntity
  8
1
  6
Continuous
100
AcDbLine
 10
215.6091403815016
 20
53.97103439746103
 30
0.0
 11
240.0147105815015
 21
53.97103439746103
 31
0.0
  0
ARC
  5
1AFB
330
18
100
AcDbEntity
  8
1
  6
Continuous
100
AcDbCircle
 10
230.7223750814232
 20
58.15226439746117
 30
0.0
 40
5.78125
100
AcDbArc
 50
235.7945400000013
 51
304.2054814680319
  0
LINE
  5
1AFC
330
18
100
AcDbEntity
  8
1
  6
Continuous
100
AcDbLine
 10
227.4723710814231
 20
53.37101439746106
 30
0.0
 11
228.3878450814234
 21
53.97101439746098
 31
0.0
  0
LINE
  5
1AFD
330
18
100
AcDbEntity
  8
1
  6
Continuous
100
AcDbLine
 10
233.9723790814229
 20
53.37101439746117
 30
0.0
 11
227.4723750814231
 21
53.37101439746117
 31
0.0
  0
LINE
  5
1AFE
330
18
100
AcDbEntity
  8
1
  6
Continuous
100
AcDbLine
 10
200.6557055815016
 20
113.6710273974945
 30
0.0
 11
200.6557055815016
 21
62.47103439762668
 31
0.0
  0
LINE
  5
1AFF
330
18
100
AcDbEntity
  8
1
  6
Continuous
100
AcDbLine
 10
198.6557055815017
 20
117.1710303974612
 30
0.0
 11
198.6557055815017
 21
58.9710143974612
 31
0.0
  0
LINE
  5
1B01
330
18
100
AcDbEntity
  8
1
  6
Continuous
100
AcDbLine
 10
187.7245225815014
 20
103.4884074897371
 30
0.0
 11
187.7245225815014
 21
72.65364130518469
 31
0.0
  0
ARC
  5
1B04
330
18
100
AcDbEntity
  8
1
  6
Continuous
100
AcDbCircle
 10
197.5662055815013
 20
117.1710303974612
 30
0.0
 40
3.0
100
AcDbArc
 50
90.00000000000005
 51
180.0
  0
LINE
  5
1B05
330
18
100
AcDbEntity
  8
1
  6
Continuous
100
AcDbLine
 10
188.3012431439111
 20
105.4872409448907
 30
0.0
 11
194.3338399118752
 21
115.0710243974596
 31
0.0
  0
LINE
  5
1B07
330
18
100
AcDbEntity
  8
1
  6
Continuous
100
AcDbLine
 10
194.5662055815013
 20
115.0710243974596
 30
0.0
 11
194.3338399118752
 21
115.0710243974596
 31
0.0
  0
ARC
  5
1B0B
330
18
100
AcDbEntity
  8
1
  6
Continuous
100
AcDbCircle
 10
191.4767225815015
 20
103.4884074897371
 30
0.0
 40
3.7522
100
AcDbArc
 50
147.8112760309573
 51
180.0
  0
ARC
  5
1B0D
330
18
100
AcDbEntity
  8
1
  6
Continuous
100
AcDbCircle
 10
215.6091403815016
 20
118.4188303974609
 30
0.0
 40
3.7522
100
AcDbArc
 50
90.00000000000005
 51
152.1616009919184
  0
ARC
  5
1B0E
330
18
100
AcDbEntity
  8
1
  6
Continuous
100
AcDbCircle
 10
203.8557055815014
 20
113.6710273974945
 30
0.0
 40
3.2
100
AcDbArc
 50
90.00000000000005
 51
180.0
  0
LINE
  5
1B0F
330
18
100
AcDbEntity
  8
1
  6
Continuous
100
AcDbLine
 10
197.5564205815013
 20
117.1710303974612
 30
0.0
 11
239.5147065815013
 21
117.1710303974612
 31
0.0
  0
LINE
  5
1B10
330
18
100
AcDbEntity
  8
1
  6
Continuous
100
AcDbLine
 10
197.5662055815013
 20
120.1710303974612
 30
0.0
 11
240.9184832827528
 21
120.1710303974612
 31
0.0
  0
LINE
  5
1B12
330
18
100
AcDbEntity
  8
1
  6
Continuous
100
AcDbLine
 10
225.2299243813576
 20
124.1710303974612
 30
0.0
 11
216.4839583813577
 21
124.1710303974612
 31
0.0
  0
ARC
  5
1B13
330
18
100
AcDbEntity
  8
1
  6
Continuous
100
AcDbCircle
 10
220.3569403813576
 20
123.1710303974612
 30
0.0
 40
4.0
100
AcDbArc
 50
165.5224900000001
 51
194.4775099999997
  0
ARC
  5
1B14
330
18
100
AcDbEntity
  8
1
  6
Continuous
100
AcDbCircle
 10
221.3569403813576
 20
123.1710303974612
 30
0.0
 40
4.0
100
AcDbArc
 50
345.5224900000002
 51
14.47751199999935
  0
ARC
  5
1B16
330
18
100
AcDbEntity
  8
1
  6
Continuous
100
AcDbCircle
 10
197.5662055815013
 20
58.9710143974612
 30
0.0
 40
3.0
100
AcDbArc
 50
180.0
 51
270.0
  0
ARC
  5
1B19
330
18
100
AcDbEntity
  8
1
  6
Continuous
100
AcDbCircle
 10
191.4767225815015
 20
72.65364130518469
 30
0.0
 40
3.7522
100
AcDbArc
 50
180.0
 51
212.1887239690351
  0
LINE
  5
1B1B
330
18
100
AcDbEntity
  8
1
  6
Continuous
100
AcDbLine
 10
188.301243143911
 20
70.65480785003147
 30
0.0
 11
194.3338399118752
 21
61.07102439745982
 31
0.0
  0
LINE
  5
1B1D
330
18
100
AcDbEntity
  8
1
  6
Continuous
100
AcDbLine
 10
194.5662055815013
 20
61.07102439745972
 30
0.0
 11
194.3338399118752
 21
61.07102439745972
 31
0.0
  0
ARC
  5
1B1F
330
18
100
AcDbEntity
  8
1
  6
Continuous
100
AcDbCircle
 10
203.8557055815017
 20
62.47103439762668
 30
0.0
 40
3.2
100
AcDbArc
 50
180.0
 51
270.0
  0
ARC
  5
1B20
330
18
100
AcDbEntity
  8
1
  6
Continuous
100
AcDbCircle
 10
215.6091403815016
 20
57.72323439746106
 30
0.0
 40
3.7522
100
AcDbArc
 50
207.838744377057
 51
270.0
  0
LINE
  5
1B21
330
18
100
AcDbEntity
  8
1
  6
Continuous
100
AcDbLine
 10
197.5564205815013
 20
58.9710143974612
 30
0.0
 11
240.0147065815015
 21
58.9710143974612
 31
0.0
  0
LINE
  5
1B22
330
18
100
AcDbEntity
  8
1
  6
Continuous
100
AcDbLine
 10
197.5662055815013
 20
55.9710143974612
 30
0.0
 11
240.0147065815015
 21
55.9710143974612
 31
0.0
  0
LINE
  5
1B24
330
18
100
AcDbEntity
  8
1
  6
Continuous
100
AcDbLine
 10
224.8367353813577
 20
53.47103439746113
 30
0.0
 11
216.8771433813576
 21
53.47103439746113
 31
0.0
  0
LINE
  5
1B25
330
18
100
AcDbEntity
  8
1
  6
Continuous
100
AcDbLine
 10
223.8569403813576
 20
52.6710343974612
 30
0.0
 11
217.8569403813576
 21
52.6710343974612
 31
0.0
  0
LINE
  5
1B26
330
18
100
AcDbEntity
  8
1
  6
Continuous
100
AcDbLine
 10
218.3569423813578
 20
53.97103439746103
 30
0.0
 11
216.8771433813576
 21
53.47103439746104
 31
0.0
  0
ARC
  5
1B27
330
18
100
AcDbEntity
  8
1
  6
Continuous
100
AcDbCircle
 10
217.8569403813576
 20
53.6710343974612
 30
0.0
 40
1.0
100
AcDbArc
 50
191.5369500000003
 51
270.000010000001
  0
LINE
  5
1B28
330
18
100
AcDbEntity
  8
1
  6
Continuous
100
AcDbLine
 10
223.3569483813576
 20
53.97103439746114
 30
0.0
 11
224.8367393813575
 21
53.47103439746149
 31
0.0
  0
ARC
  5
1B29
330
18
100
AcDbEntity
  8
1
  6
Continuous
100
AcDbCircle
 10
223.8569403813576
 20
53.6710343974612
 30
0.0
 40
1.0
100
AcDbArc
 50
269.999989999999
 51
348.4630399999996
  0
LINE
  5
1B2C
330
18
100
AcDbEntity
  8
1
  6
Continuous
100
AcDbLine
 10
230.5147105815015
 20
66.37102439746104
 30
0.0
 11
230.5147105815017
 21
68.07102439746109
 31
0.0
  0
LINE
  5
1B2D
330
18
100
AcDbEntity
  8
4
  6
CENTER
100
AcDbLine
 10
234.0147105815014
 20
119.5710243974611
 30
0.0
 11
246.0147105815015
 21
119.5710243974611
 31
0.0
  0
ARC
  5
1B2E
330
18
100
AcDbEntity
  8
1
  6
Continuous
100
AcDbCircle
 10
240.0147105815015
 20
119.5710243974611
 30
0.0
 40
4.400000099999997
100
AcDbArc
 50
36.22164251363268
 51
143.7783574863673
  0
LINE
  5
1B2F
330
18
100
AcDbEntity
  8
4
  6
CENTER
100
AcDbLine
 10
240.0147105815015
 20
50.57102439746109
 30
0.0
 11
240.0147105815015
 21
62.57102439746109
 31
0.0
  0
ARC
  5
1B30
330
18
100
AcDbEntity
  8
1
  6
Continuous
100
AcDbCircle
 10
240.0147105815015
 20
56.57102439746108
 30
0.0
 40
4.400000099999997
100
AcDbArc
 50
216.2213842536343
 51
297.5807641990101
  0
LINE
  5
1B31
330
18
100
AcDbEntity
  8
4
  6
CENTER
100
AcDbLine
 10
234.0147105815014
 20
56.57102439746108
 30
0.0
 11
246.0147105815015
 21
56.57102439746108
 31
0.0
  0
ARC
  5
1B32
330
18
100
AcDbEntity
  8
1
  6
Continuous
100
AcDbCircle
 10
240.0147105815015
 20
56.57102439746108
 30
0.0
 40
9.5
100
AcDbArc
 50
205.9125486249846
 51
270.0000179999992
  0
LINE
  5
1B36
330
18
100
AcDbEntity
  8
4
  6
CENTER
100
AcDbLine
 10
303.0147105815016
 20
113.5710243974609
 30
0.0
 11
303.0147105815016
 21
125.5710243974609
 31
0.0
  0
ARC
  5
1B37
330
18
100
AcDbEntity
  8
1
  6
Continuous
100
AcDbCircle
 10
303.0147105815016
 20
119.5710243974611
 30
0.0
 40
9.5
100
AcDbArc
 50
0.0
 51
89.999979999998
  0
LINE
  5
1B39
330
18
100
AcDbEntity
  8
1
  6
Continuous
100
AcDbLine
 10
312.5147105815016
 20
56.57102439746108
 30
0.0
 11
312.5147105815016
 21
119.5710243974611
 31
0.0
  0
LINE
  5
1B3A
330
18
100
AcDbEntity
  8
4
  6
CENTER
100
AcDbLine
 10
297.0147105815015
 20
119.5710243974611
 30
0.0
 11
309.0147105815016
 21
119.5710243974611
 31
0.0
  0
CIRCLE
  5
1B3B
330
18
100
AcDbEntity
  8
1
  6
Continuous
100
AcDbCircle
 10
303.0147105815016
 20
119.5710243974611
 30
0.0
 40
4.400000099999997
  0
LINE
  5
1B3C
330
18
100
AcDbEntity
  8
4
  6
CENTER
100
AcDbLine
 10
303.0147105815016
 20
50.57102439746109
 30
0.0
 11
303.0147105815016
 21
62.57102439746109
 31
0.0
  0
CIRCLE
  5
1B3D
330
18
100
AcDbEntity
  8
1
  6
Continuous
100
AcDbCircle
 10
303.0147105815016
 20
56.57102439746108
 30
0.0
 40
4.400000099999997
  0
LINE
  5
1B3E
330
18
100
AcDbEntity
  8
4
  6
CENTER
100
AcDbLine
 10
297.0147105815015
 20
56.57102439746108
 30
0.0
 11
309.0147105815016
 21
56.57102439746108
 31
0.0
  0
ARC
  5
1B3F
330
18
100
AcDbEntity
  8
1
  6
Continuous
100
AcDbCircle
 10
303.0147105815016
 20
56.57102439746108
 30
0.0
 40
9.5
100
AcDbArc
 50
270.0000179999992
 51
0.0
  0
LINE
  5
1BE0
330
18
100
AcDbEntity
  8
1
  6
Continuous
100
AcDbLine
 10
597.8649519534737
 20
237.2654559255377
 30
0.0
 11
595.0026354534737
 21
223.2838561735786
 31
0.0
  0
ARC
  5
1E4E
330
18
100
AcDbEntity
  8
1
  6
Continuous
100
AcDbCircle
 10
272.5147244003483
 20
88.07102439746108
 30
0.0
 40
29.00000000000001
100
AcDbArc
 50
270.0000008155508
 51
90.0
  0
ARC
  5
1E4F
330
18
100
AcDbEntity
  8
1
  6
Continuous
100
AcDbCircle
 10
272.5147244003483
 20
88.07102439746108
 30
0.0
 40
33.0
100
AcDbArc
 50
270.0000008155508
 51
90.0
  0
ARC
  5
1E62
330
18
100
AcDbEntity
  8
1
  6
Continuous
100
AcDbCircle
 10
258.0925068658618
 20
58.57102439746109
 30
0.0
 40
7.0
100
AcDbArc
 50
41.47843854440306
 51
90.0
  0
LINE
  5
1E63
330
18
100
AcDbEntity
  8
1
  6
Continuous
100
AcDbLine
 10
236.5147105815015
 20
65.57102439746109
 30
0.0
 11
236.5147105815015
 21
61.57102439746108
 31
0.0
  0
ARC
  5
1E64
330
18
100
AcDbEntity
  8
1
  6
Continuous
100
AcDbCircle
 10
272.514724638767
 20
71.32105251200755
 30
0.0
 40
12.25002811454647
100
AcDbArc
 50
221.4784385444029
 51
269.9999991593581
  0
ARC
  5
1E65
330
18
100
AcDbEntity
  8
1
  6
Continuous
100
AcDbCircle
 10
272.514724638767
 20
71.32105251200755
 30
0.0
 40
16.25002811454647
100
AcDbArc
 50
221.4784385444029
 51
269.9999991593581
  0
LINE
  5
1E67
330
18
100
AcDbEntity
  8
1
  6
Continuous
100
AcDbLine
 10
255.8147055815013
 20
52.67104439746095
 30
0.0
 11
248.5147065815015
 21
52.67104439746095
 31
0.0
  0
ARC
  5
1E68
330
18
100
AcDbEntity
  8
1
  6
Continuous
100
AcDbCircle
 10
252.7647065815015
 20
45.52103239746087
 30
0.0
 40
13.75000299999999
100
AcDbArc
 50
74.50126999999766
 51
105.4987300000022
  0
LINE
  5
1E69
330
18
100
AcDbEntity
  8
1
  6
Continuous
100
AcDbLine
 10
257.0147065815015
 20
54.27103539746076
 30
0.0
 11
248.5147065815015
 21
54.27103539746076
 31
0.0
  0
LINE
  5
1E6A
330
18
100
AcDbEntity
  8
1
  6
Continuous
100
AcDbLine
 10
249.4966785815015
 20
54.77103539746075
 30
0.0
 11
248.5147065815015
 21
54.77103539746075
 31
0.0
  0
LINE
  5
1E6B
330
18
100
AcDbEntity
  8
1
  6
Continuous
100
AcDbLine
 10
249.496678581501
 20
54.77103539746099
 30
0.0
 11
249.0904725815012
 21
58.77103539746109
 31
0.0
  0
LINE
  5
1E71
330
18
100
AcDbEntity
  8
1
  6
Continuous
100
AcDbLine
 10
241.2147065815013
 20
52.67104439746095
 30
0.0
 11
248.5147065815015
 21
52.67104439746095
 31
0.0
  0
ARC
  5
1E72
330
18
100
AcDbEntity
  8
1
  6
Continuous
100
AcDbCircle
 10
244.2647065815015
 20
65.20103539746083
 30
0.0
 40
10.93000299999999
100
AcDbArc
 50
252.6026900000076
 51
287.3973090000038
  0
LINE
  5
1E73
330
18
100
AcDbEntity
  8
1
  6
Continuous
100
AcDbLine
 10
240.0147065815015
 20
54.27103539746076
 30
0.0
 11
248.5147065815015
 21
54.27103539746076
 31
0.0
  0
ARC
  5
1E74
330
18
100
AcDbEntity
  8
1
  6
Continuous
100
AcDbCircle
 10
244.2647065815015
 20
45.52103239746087
 30
0.0
 40
13.75000299999999
100
AcDbArc
 50
74.50126999999766
 51
105.4987300000022
  0
ARC
  5
1E76
330
18
100
AcDbEntity
  8
1
  6
Continuous
100
AcDbCircle
 10
241.2147065815013
 20
53.87104139746089
 30
0.0
 40
1.199999999999999
100
AcDbArc
 50
179.9999899999988
 51
269.9999909999938
  0
LINE
  5
1E77
330
18
100
AcDbEntity
  8
1
  6
Continuous
100
AcDbLine
 10
240.0147065815015
 20
58.77103539746078
 30
0.0
 11
240.5904725815013
 21
58.77103539746078
 31
0.0
  0
LINE
  5
1E78
330
18
100
AcDbEntity
  8
1
  6
Continuous
100
AcDbLine
 10
240.0147065815015
 20
54.77103539746075
 30
0.0
 11
240.9966795815013
 21
54.77103539746075
 31
0.0
  0
LINE
  5
1E79
330
18
100
AcDbEntity
  8
1
  6
Continuous
100
AcDbLine
 10
240.5904715815015
 20
58.77103539746078
 30
0.0
 11
240.9966795815013
 21
54.77103539746075
 31
0.0
  0
LINE
  5
1E7A
330
18
100
AcDbEntity
  8
1
  6
Continuous
100
AcDbLine
 10
240.0147065815015
 20
53.87104139746089
 30
0.0
 11
240.0147065815015
 21
59.27103539746076
 31
0.0
  0
LINE
  5
1E7B
330
18
100
AcDbEntity
  8
1
  6
Continuous
100
AcDbLine
 10
247.9389425815013
 20
58.77103539746078
 30
0.0
 11
248.5147065815015
 21
58.77103539746078
 31
0.0
  0
LINE
  5
1E7C
330
18
100
AcDbEntity
  8
1
  6
Continuous
100
AcDbLine
 10
249.0904705815013
 20
58.77103539746078
 30
0.0
 11
248.5147065815015
 21
58.77103539746078
 31
0.0
  0
LINE
  5
1E7D
330
18
100
AcDbEntity
  8
1
  6
Continuous
100
AcDbLine
 10
247.5327345815014
 20
54.77103539746075
 30
0.0
 11
248.5147065815015
 21
54.77103539746075
 31
0.0
  0
LINE
  5
1E7E
330
18
100
AcDbEntity
  8
1
  6
Continuous
100
AcDbLine
 10
247.532734581501
 20
54.77103539746099
 30
0.0
 11
247.938940581501
 21
58.77103539746109
 31
0.0
  0
ARC
  5
1E82
330
18
100
AcDbEntity
  8
1
  6
Continuous
100
AcDbCircle
 10
255.8147055815013
 20
53.87104139746089
 30
0.0
 40
1.199999999999999
100
AcDbArc
 50
269.9999970000023
 51
359.9999974955214
  0
LINE
  5
1E83
330
18
100
AcDbEntity
  8
1
  6
Continuous
100
AcDbLine
 10
257.0147065815015
 20
58.77103539746078
 30
0.0
 11
256.4389425815012
 21
58.77103539746078
 31
0.0
  0
ARC
  5
1E84
330
18
100
AcDbEntity
  8
1
  6
Continuous
100
AcDbCircle
 10
252.7647065815015
 20
65.20103539746083
 30
0.0
 40
10.93000299999999
100
AcDbArc
 50
252.6026900000076
 51
287.3973090000038
  0
LINE
  5
1E85
330
18
100
AcDbEntity
  8
1
  6
Continuous
100
AcDbLine
 10
257.0147065815015
 20
54.77103539746075
 30
0.0
 11
256.0327325815013
 21
54.77103539746075
 31
0.0
  0
LINE
  5
1E86
330
18
100
AcDbEntity
  8
1
  6
Continuous
100
AcDbLine
 10
257.0147065815015
 20
53.87104139746089
 30
0.0
 11
257.0147065815015
 21
59.27103539746076
 31
0.0
  0
LINE
  5
1E87
330
18
100
AcDbEntity
  8
1
  6
Continuous
100
AcDbLine
 10
256.438940581501
 20
58.77103539746078
 30
0.0
 11
256.0327345815011
 21
54.77103539746075
 31
0.0
  0
LINE
  5
1E8C
330
18
100
AcDbEntity
  8
1
  6
Continuous
100
AcDbLine
 10
236.5147105815015
 20
65.57102439746109
 30
0.0
 11
258.0925068658618
 21
65.57102439746109
 31
0.0
  0
ARC
  5
1E9E
330
18
100
AcDbEntity
  8
1
  6
Continuous
100
AcDbCircle
 10
272.514724638767
 20
104.8209962829146
 30
0.0
 40
12.25002811454647
100
AcDbArc
 50
90.00000084064188
 51
138.5215614555969
  0
ARC
  5
1E9F
330
18
100
AcDbEntity
  8
1
  6
Continuous
100
AcDbCircle
 10
272.514724638767
 20
104.8209962829146
 30
0.0
 40
16.25002811454647
100
AcDbArc
 50
90.00000084064188
 51
138.5215614555969
  0
LINE
  5
1EA0
330
18
100
AcDbEntity
  8
1
  6
Continuous
100
AcDbLine
 10
236.5147105815015
 20
110.5710243974609
 30
0.0
 11
257.8770170742543
 21
110.5710243974609
 31
0.0
  0
LINE
  5
1EA1
330
18
100
AcDbEntity
  8
1
  6
Continuous
100
AcDbLine
 10
203.9557055815016
 20
114.5710243974609
 30
0.0
 11
248.0660011875535
 21
114.5710243974609
 31
0.0
  0
LINE
  5
1EA7
330
18
100
AcDbEntity
  8
1
  6
Continuous
100
AcDbLine
 10
236.5147105815015
 20
114.5710243974609
 30
0.0
 11
236.5147105815015
 21
110.5710243974609
 31
0.0
  0
ARC
  5
1EAD
330
18
100
AcDbEntity
  8
1
  6
Continuous
100
AcDbCircle
 10
258.0925068658618
 20
117.5710243974609
 30
0.0
 40
7.0
100
AcDbArc
 50
270.0
 51
318.5215614555969
  0
ARC
  5
1EAE
330
18
100
AcDbEntity
  8
1
  6
Continuous
100
AcDbCircle
 10
258.0925068658618
 20
117.5710243974609
 30
0.0
 40
3.0
100
AcDbArc
 50
306.5009942637124
 51
318.5215614555969
  0
LINE
  5
1F73
330
18
100
AcDbEntity
  8
1
  6
Continuous
100
AcDbLine
 10
216.7926605815015
 20
108.0710243974609
 30
0.0
 11
280.2367525815016
 21
108.0710243974609
 31
0.0
  0
LINE
  5
1F74
330
18
100
AcDbEntity
  8
1
  6
Continuous
100
AcDbLine
 10
216.7926605815015
 20
68.07102439746109
 30
0.0
 11
280.2367525815014
 21
68.07102439746109
 31
0.0
  0
ARC
  5
1F76
330
18
100
AcDbEntity
  8
1
  6
Continuous
100
AcDbCircle
 10
136.0147065815012
 20
88.07102439746115
 30
0.0
 40
150.0
100
AcDbArc
 50
354.0622100000005
 51
5.937770000001883
  0
ARC
  5
1F77
330
18
100
AcDbEntity
  8
1
  6
Continuous
100
AcDbCircle
 10
280.2367525815014
 20
73.07102439746114
 30
0.0
 40
5.0
100
AcDbArc
 50
269.9999799999996
 51
354.0621900000019
  0
ARC
  5
1F78
330
18
100
AcDbEntity
  8
1
  6
Continuous
100
AcDbCircle
 10
280.2367525815014
 20
103.071024397461
 30
0.0
 40
5.0
100
AcDbArc
 50
5.937799999998611
 51
90.0
  0
LINE
  5
1F8B
330
18
100
AcDbEntity
  8
1
  6
Continuous
100
AcDbLine
 10
230.5147105815015
 20
66.37102439746104
 30
0.0
 11
266.5147065815015
 21
66.37102439746104
 31
0.0
  0
LINE
  5
1F8F
330
18
100
AcDbEntity
  8
1
  6
Continuous
100
AcDbLine
 10
244.2647065815015
 20
50.27102439746091
 30
0.0
 11
252.7647065815015
 21
50.27102439746091
 31
0.0
  0
LINE
  5
1F90
330
18
100
AcDbEntity
  8
1
  6
Continuous
100
AcDbLine
 10
243.5147065815015
 20
51.0210243974609
 30
0.0
 11
253.5147065815015
 21
51.0210243974609
 31
0.0
  0
LINE
  5
1F95
330
18
100
AcDbEntity
  8
2
  6
Continuous
100
AcDbLine
 10
252.7647065815015
 20
50.27102439746091
 30
0.0
 11
252.7647065815015
 21
52.67104439746095
 31
0.0
  0
LINE
  5
1F96
330
18
100
AcDbEntity
  8
1
  6
Continuous
100
AcDbLine
 10
253.5147065815015
 20
51.0210243974609
 30
0.0
 11
253.5147065815015
 21
52.67104439746095
 31
0.0
  0
LINE
  5
1F97
330
18
100
AcDbEntity
  8
1
  6
Continuous
100
AcDbLine
 10
253.5147215815013
 20
51.02100439746095
 30
0.0
 11
252.7647295815013
 21
50.27100439746096
 31
0.0
  0
LINE
  5
1F9C
330
18
100
AcDbEntity
  8
1
  6
Continuous
100
AcDbLine
 10
266.5147065815015
 20
66.37102439746104
 30
0.0
 11
266.5147065815015
 21
68.07102439746109
 31
0.0
  0
LINE
  5
1FA6
330
18
100
AcDbEntity
  8
1
  6
Continuous
100
AcDbLine
 10
253.5147065815015
 20
65.57102439746109
 30
0.0
 11
253.5147065815015
 21
66.37102439746104
 31
0.0
  0
LINE
  5
1FAD
330
18
100
AcDbEntity
  8
2
  6
Continuous
100
AcDbLine
 10
244.2647065815015
 20
50.27102439746091
 30
0.0
 11
244.2647065815015
 21
52.67104439746095
 31
0.0
  0
LINE
  5
1FAE
330
18
100
AcDbEntity
  8
1
  6
Continuous
100
AcDbLine
 10
243.5147065815015
 20
51.0210243974609
 30
0.0
 11
243.5147065815015
 21
52.67104439746095
 31
0.0
  0
LINE
  5
1FAF
330
18
100
AcDbEntity
  8
1
  6
Continuous
100
AcDbLine
 10
244.2647295815013
 20
50.27100439746096
 30
0.0
 11
243.5147215815013
 21
51.02100439746117
 31
0.0
  0
LINE
  5
1FC0
330
18
100
AcDbEntity
  8
1
  6
Continuous
100
AcDbLine
 10
243.5147065815015
 20
65.57102439746109
 30
0.0
 11
243.5147065815015
 21
66.37102439746104
 31
0.0
  0
ARC
  5
1FF3
330
18
100
AcDbEntity
  8
1
  6
Continuous
100
AcDbCircle
 10
248.5147065815012
 20
70.87102439746108
 30
0.0
 40
50.0
100
AcDbArc
 50
82.13484999999897
 51
97.86515320000042
  0
LINE
  5
1FF5
330
18
100
AcDbEntity
  8
1
  6
Continuous
100
AcDbLine
 10
230.5147105815015
 20
109.7710213974609
 30
0.0
 11
266.5147065815015
 21
109.7710213974609
 31
0.0
  0
LINE
  5
1FF8
330
18
100
AcDbEntity
  8
1
  6
Continuous
100
AcDbLine
 10
266.5147065815015
 20
108.0710243974609
 30
0.0
 11
266.5147065815015
 21
109.7710213974609
 31
0.0
  0
LINE
  5
1FFB
330
18
100
AcDbEntity
  8
1
  6
Continuous
100
AcDbLine
 10
253.5147065815015
 20
109.7710213974609
 30
0.0
 11
253.5147065815015
 21
110.5710243974609
 31
0.0
  0
ARC
  5
1FFC
330
18
100
AcDbEntity
  8
1
  6
Continuous
100
AcDbCircle
 10
255.0147065815012
 20
117.924189397461
 30
0.0
 40
2.5
100
AcDbArc
 50
0.0
 51
82.13484999999897
  0
LINE
  5
1FFD
330
18
100
AcDbEntity
  8
1
  6
Continuous
100
AcDbLine
 10
257.5147065815015
 20
116.871027397461
 30
0.0
 11
257.5147065815015
 21
117.9241893974609
 31
0.0
  0
LINE
  5
2002
330
18
100
AcDbEntity
  8
1
  6
Continuous
100
AcDbLine
 10
243.5147065815015
 20
109.7710213974609
 30
0.0
 11
243.5147065815015
 21
110.5710243974609
 31
0.0
  0
ARC
  5
200A
330
18
100
AcDbEntity
  8
1
  6
Continuous
100
AcDbCircle
 10
242.0147065815013
 20
117.924189397461
 30
0.0
 40
2.5
100
AcDbArc
 50
97.86515320000042
 51
180.0000029999976
  0
LINE
  5
200B
330
18
100
AcDbEntity
  8
1
  6
Continuous
100
AcDbLine
 10
239.5147065815015
 20
116.871027397461
 30
0.0
 11
239.5147065815015
 21
117.9241893974609
 31
0.0
  0
LINE
  5
2070
330
18
100
AcDbEntity
  8
1
  6
Continuous
100
AcDbLine
 10
248.5147065815016
 20
116.4223220035583
 30
0.0
 11
248.5147065815015
 21
112.571024397461
 31
0.0
  0
ARC
  5
2071
330
18
100
AcDbEntity
  8
1
  6
Continuous
100
AcDbCircle
 10
361.0147065815016
 20
88.07102439746115
 30
0.0
 40
150.0
100
AcDbArc
 50
174.062229999998
 51
185.9377899999993
  0
ARC
  5
2072
330
18
100
AcDbEntity
  8
1
  6
Continuous
100
AcDbCircle
 10
216.7926605815015
 20
73.07102439746114
 30
0.0
 40
5.0
100
AcDbArc
 50
185.9378099999979
 51
270.0000200000004
  0
ARC
  5
2073
330
18
100
AcDbEntity
  8
1
  6
Continuous
100
AcDbCircle
 10
216.7926605815015
 20
103.071024397461
 30
0.0
 40
5.0
100
AcDbArc
 50
90.0
 51
174.0622000000012
  0
LINE
  5
2076
330
18
100
AcDbEntity
  8
1
  6
Continuous
100
AcDbLine
 10
230.5147105815015
 20
108.0710243974609
 30
0.0
 11
230.5147105815015
 21
109.7710213974609
 31
0.0
  0
LINE
  5
2077
330
18
100
AcDbEntity
  8
1
  6
Continuous
100
AcDbLine
 10
259.8770170742543
 20
112.5710243974609
 30
0.0
 11
259.8770170742544
 21
115.8710273975094
 31
0.0
  0
LINE
  5
2078
330
18
100
AcDbEntity
  8
1
  6
Continuous
100
AcDbLine
 10
248.5147065815015
 20
112.5710243974609
 30
0.0
 11
248.5147065815012
 21
116.4223220035583
 31
0.0
  0
LINE
  5
2079
330
18
100
AcDbEntity
  8
1
  6
Continuous
100
AcDbLine
 10
248.0660011875535
 20
112.5710243974609
 30
0.0
 11
248.0660011875535
 21
114.5710243974609
 31
0.0
  0
ARC
  5
207A
330
18
100
AcDbEntity
  8
1
  6
Continuous
100
AcDbCircle
 10
257.8770170742543
 20
112.571024397461
 30
0.0
 40
2.0
100
AcDbArc
 50
270.0
 51
359.9999999999987
  0
ARC
  5
207B
330
18
100
AcDbEntity
  8
1
  6
Continuous
100
AcDbCircle
 10
250.5147065815017
 20
112.571024397461
 30
0.0
 40
2.0
100
AcDbArc
 50
180.0000000000012
 51
269.9999999999934
  0
ARC
  5
207C
330
18
100
AcDbEntity
  8
1
  6
Continuous
100
AcDbCircle
 10
250.0660011875538
 20
112.571024397461
 30
0.0
 40
2.0
100
AcDbArc
 50
180.0000000000012
 51
269.9999999999934
  0
ARC
  5
207D
330
18
100
AcDbEntity
  8
1
  6
Continuous
100
AcDbCircle
 10
258.8770170742544
 20
115.8710273975094
 30
0.0
 40
1.0
100
AcDbArc
 50
0.0
 51
90.00000000001589
  0
ARC
  5
207E
330
18
100
AcDbEntity
  8
1
  6
Continuous
100
AcDbCircle
 10
248.0660011875531
 20
116.4223220035583
 30
0.0
 40
0.4487053939480261
100
AcDbArc
 50
0.0
 51
90.00000000002904
  0
ARC
  5
2080
330
18
100
AcDbEntity
  8
1
  6
Continuous
100
AcDbCircle
 10
258.8770170742544
 20
60.27102139741271
 30
0.0
 40
1.0
100
AcDbArc
 50
269.999999999984
 51
0.0
  0
LINE
  5
2081
330
18
100
AcDbEntity
  8
1
  6
Continuous
100
AcDbLine
 10
203.8557055814997
 20
59.27102139742792
 30
0.0
 11
258.8770170742543
 21
59.27102139741271
 31
0.0
  0
LINE
  5
2082
330
18
100
AcDbEntity
  8
1
  6
Continuous
100
AcDbLine
 10
259.8770170742543
 20
63.57102439746109
 30
0.0
 11
259.8770170742544
 21
60.27102139741271
 31
0.0
  0
ARC
  5
2083
330
18
100
AcDbEntity
  8
1
  6
Continuous
100
AcDbCircle
 10
257.8770170742543
 20
63.57102439746103
 30
0.0
 40
2.0
100
AcDbArc
 50
0.0000000000012354
 51
90.00000000000005
  0
LINE
  5
2084
330
18
100
AcDbEntity
  8
1
  6
Continuous
100
AcDbLine
 10
248.5147065815015
 20
63.57102439746109
 30
0.0
 11
248.5147065815012
 21
59.71972679136371
 31
0.0
  0
LINE
  5
2085
330
18
100
AcDbEntity
  8
1
  6
Continuous
100
AcDbLine
 10
248.5147065815016
 20
59.71972679136371
 30
0.0
 11
248.5147065815015
 21
63.57102439746103
 31
0.0
  0
LINE
  5
2086
330
18
100
AcDbEntity
  8
1
  6
Continuous
100
AcDbLine
 10
248.0660011875535
 20
63.57102439746109
 30
0.0
 11
248.0660011875535
 21
61.57102439746108
 31
0.0
  0
ARC
  5
2087
330
18
100
AcDbEntity
  8
1
  6
Continuous
100
AcDbCircle
 10
250.0660011875538
 20
63.57102439746103
 30
0.0
 40
2.0
100
AcDbArc
 50
90.00000000000651
 51
179.9999999999986
  0
ARC
  5
2088
330
18
100
AcDbEntity
  8
1
  6
Continuous
100
AcDbCircle
 10
250.5147065815017
 20
63.57102439746103
 30
0.0
 40
2.0
100
AcDbArc
 50
90.00000000000651
 51
179.9999999999986
  0
LINE
  5
2089
330
18
100
AcDbEntity
  8
1
  6
Continuous
100
AcDbLine
 10
203.9557055815016
 20
61.57102439746103
 30
0.0
 11
248.0660011875535
 21
61.57102439746108
 31
0.0
  0
ARC
  5
208A
330
18
100
AcDbEntity
  8
1
  6
Continuous
100
AcDbCircle
 10
248.0660011875531
 20
59.71972679136371
 30
0.0
 40
0.4487053939480261
100
AcDbArc
 50
269.999999999971
 51
0.0
  0
LINE
  5
208B
330
18
100
AcDbEntity
  8
1
  6
Continuous
100
AcDbLine
 10
236.5147105815015
 20
65.57102439746109
 30
0.0
 11
257.8770170742543
 21
65.57102439746109
 31
0.0
  0
ARC
  5
208C
330
18
100
AcDbEntity
  8
1
  6
Continuous
100
AcDbCircle
 10
258.0925068658618
 20
58.57102439746109
 30
0.0
 40
3.0
100
AcDbArc
 50
41.47843854440306
 51
53.49900573628753
  0
LINE
  5
2091
330
18
100
AcDbEntity
  8
1
  6
Continuous
100
AcDbLine
 10
194.5662055815013
 20
117.1710303974612
 30
0.0
 11
194.5662055815013
 21
58.9710143974612
 31
0.0
  0
LINE
  5
2092
330
18
100
AcDbEntity
  8
1
  6
Continuous
100
AcDbLine
 10
197.5564205815013
 20
117.1710303974612
 30
0.0
 11
197.5564205815013
 21
58.9710143974612
 31
0.0
  0
LINE
  5
2094
330
18
100
AcDbEntity
  8
1
  6
Continuous
100
AcDbLine
 10
202.9557055815015
 20
113.571024397461
 30
0.0
 11
202.9557055815015
 21
62.57102439746103
 31
0.0
  0
LINE
  5
2097
330
18
100
AcDbEntity
  8
1
  6
Continuous
100
AcDbLine
 10
233.9723750814231
 20
122.7710293974612
 30
0.0
 11
233.056909081423
 21
122.1710303974612
 31
0.0
  0
ARC
  5
20CF
330
18
100
AcDbEntity
  8
1
  6
Continuous
100
AcDbCircle
 10
204.9557055815015
 20
112.571024397461
 30
0.0
 40
2.0
100
AcDbArc
 50
90.0
 51
162.8855668360935
  0
ARC
  5
20D0
330
18
100
AcDbEntity
  8
1
  6
Continuous
100
AcDbCircle
 10
203.9557055815016
 20
113.571024397461
 30
0.0
 40
1.0
100
AcDbArc
 50
90.0
 51
270.0
  0
ARC
  5
20D1
330
18
100
AcDbEntity
  8
1
  6
Continuous
100
AcDbCircle
 10
205.1557055815016
 20
112.3710273974612
 30
0.0
 40
1.0
100
AcDbArc
 50
90.0
 51
168.4632163989165
  0
ARC
  5
20D2
330
18
100
AcDbEntity
  8
1
  6
Continuous
100
AcDbCircle
 10
205.4775701759258
 20
111.571024397461
 30
0.0
 40
1.0
100
AcDbArc
 50
359.9999999999992
 51
90.0
  0
ARC
  5
20D3
330
18
100
AcDbEntity
  8
1
  6
Continuous
100
AcDbCircle
 10
206.1630110902316
 20
111.5710243974609
 30
0.0
 40
1.0
100
AcDbArc
 50
359.9999999999992
 51
90.0
  0
LINE
  5
20D4
330
18
100
AcDbEntity
  8
1
  6
Continuous
100
AcDbLine
 10
203.9557055815016
 20
112.5710243974609
 30
0.0
 11
206.1630110902316
 21
112.5710243974609
 31
0.0
  0
LINE
  5
20D5
330
18
100
AcDbEntity
  8
1
  6
Continuous
100
AcDbLine
 10
203.2104873420911
 20
113.571024397461
 30
0.0
 11
203.2104873420911
 21
113.5710243974609
 31
0.0
  0
LINE
  5
20D6
330
18
100
AcDbEntity
  8
1
  6
Continuous
100
AcDbLine
 10
206.4775701759258
 20
111.571024397461
 30
0.0
 11
206.4775701759258
 21
100.5710243974609
 31
0.0
  0
LINE
  5
20D7
330
18
100
AcDbEntity
  8
1
  6
Continuous
100
AcDbLine
 10
207.1630110902316
 20
111.5710243974609
 30
0.0
 11
207.1630110902316
 21
100.5710243974609
 31
0.0
  0
ARC
  5
20D8
330
18
100
AcDbEntity
  8
1
  6
Continuous
100
AcDbCircle
 10
205.6630110902316
 20
99.57102429746113
 30
0.0
 40
0.5
100
AcDbArc
 50
89.99999999999348
 51
180.0000000000039
  0
ARC
  5
20D9
330
18
100
AcDbEntity
  8
1
  6
Continuous
100
AcDbCircle
 10
204.9775701759255
 20
99.57102439746115
 30
0.0
 40
0.5
100
AcDbArc
 50
89.99999999999348
 51
180.0000000000039
  0
ARC
  5
20DA
330
18
100
AcDbEntity
  8
1
  6
Continuous
100
AcDbCircle
 10
206.6630110902317
 20
100.5710243974609
 30
0.0
 40
0.5
100
AcDbArc
 50
270.0
 51
0.0
  0
ARC
  5
20DB
330
18
100
AcDbEntity
  8
1
  6
Continuous
100
AcDbCircle
 10
205.9775701759258
 20
100.5710243974609
 30
0.0
 40
0.5
100
AcDbArc
 50
270.0
 51
0.0
  0
LINE
  5
20DC
330
18
100
AcDbEntity
  8
1
  6
Continuous
100
AcDbLine
 10
206.6630110902317
 20
100.0710243974609
 30
0.0
 11
204.9775701759258
 21
100.0710243974609
 31
0.0
  0
LINE
  5
20DD
330
18
100
AcDbEntity
  8
1
  6
Continuous
100
AcDbLine
 10
207.1630110902316
 20
97.07102439746108
 30
0.0
 11
207.1630110902316
 21
91.07102439746107
 31
0.0
  0
LINE
  5
20DE
330
18
100
AcDbEntity
  8
1
  6
Continuous
100
AcDbLine
 10
205.1630110902316
 20
99.57102439746108
 30
0.0
 11
205.1630110902316
 21
76.57102449746104
 31
0.0
  0
ARC
  5
20DF
330
18
100
AcDbEntity
  8
1
  6
Continuous
100
AcDbCircle
 10
206.1630110902316
 20
98.0710243974611
 30
0.0
 40
2.799999999999998
100
AcDbArc
 50
0.0
 51
69.07516757236166
  0
ARC
  5
20E0
330
18
100
AcDbEntity
  8
1
  6
Continuous
100
AcDbCircle
 10
206.1630110902316
 20
98.0710243974611
 30
0.0
 40
4.0
100
AcDbArc
 50
0.0
 51
75.52248781407008
  0
LINE
  5
20E1
330
18
100
AcDbEntity
  8
1
  6
Continuous
100
AcDbLine
 10
207.1630110902316
 20
102.0710243974609
 30
0.0
 11
211.6694689607458
 21
102.0710243974609
 31
0.0
  0
LINE
  5
20E2
330
18
100
AcDbEntity
  8
1
  6
Continuous
100
AcDbLine
 10
211.2849500198882
 20
97.07102439746108
 30
0.0
 11
207.1630110902316
 21
97.07102439746108
 31
0.0
  0
LINE
  5
20E4
330
18
100
AcDbEntity
  8
1
  6
Continuous
100
AcDbLine
 10
208.9630110902317
 20
98.0710243974611
 30
0.0
 11
208.9630110902317
 21
97.07102439746108
 31
0.0
  0
LINE
  5
20E5
330
18
100
AcDbEntity
  8
1
  6
Continuous
100
AcDbLine
 10
210.1630110902316
 20
98.0710243974611
 30
0.0
 11
210.1630110902316
 21
97.07102439746108
 31
0.0
  0
LINE
  5
20E6
330
18
100
AcDbEntity
  8
1
  6
Continuous
100
AcDbLine
 10
204.4775701759258
 20
99.57102439746108
 30
0.0
 11
204.4775701759258
 21
76.57102439746103
 31
0.0
  0
LINE
  5
20E7
330
18
100
AcDbEntity
  8
1
  6
Continuous
100
AcDbLine
 10
207.6630110902316
 20
91.07102439746107
 30
0.0
 11
207.1630110902316
 21
91.07102439746107
 31
0.0
  0
LINE
  5
20E8
330
18
100
AcDbEntity
  8
1
  6
Continuous
100
AcDbLine
 10
207.6630110902316
 20
91.07102439746107
 30
0.0
 11
207.6630110902316
 21
85.07102439746109
 31
0.0
  0
ARC
  5
20E9
330
18
100
AcDbEntity
  8
1
  6
Continuous
100
AcDbCircle
 10
206.1630110902316
 20
78.07102439746109
 30
0.0
 40
4.0
100
AcDbArc
 50
284.4775121859298
 51
0.0
  0
ARC
  5
20EA
330
18
100
AcDbEntity
  8
1
  6
Continuous
100
AcDbCircle
 10
206.1630110902316
 20
78.07102439746109
 30
0.0
 40
2.799999999999998
100
AcDbArc
 50
290.9248324276383
 51
0.0
  0
LINE
  5
20EB
330
18
100
AcDbEntity
  8
1
  6
Continuous
100
AcDbLine
 10
211.2849500198882
 20
79.07102439746108
 30
0.0
 11
207.1630110902316
 21
79.07102439746108
 31
0.0
  0
LINE
  5
20EC
330
18
100
AcDbEntity
  8
1
  6
Continuous
100
AcDbLine
 10
207.6630110902316
 20
85.07102439746109
 30
0.0
 11
207.1630110902316
 21
85.07102439746109
 31
0.0
  0
LINE
  5
20ED
330
18
100
AcDbEntity
  8
1
  6
Continuous
100
AcDbLine
 10
206.4775701759258
 20
64.57102439746103
 30
0.0
 11
206.4775701759258
 21
75.57102439746106
 31
0.0
  0
LINE
  5
20EE
330
18
100
AcDbEntity
  8
1
  6
Continuous
100
AcDbLine
 10
207.1630110902316
 20
64.57102439746108
 30
0.0
 11
207.1630110902316
 21
75.57102439746106
 31
0.0
  0
LINE
  5
20EF
330
18
100
AcDbEntity
  8
1
  6
Continuous
100
AcDbLine
 10
207.1630110902316
 20
79.07102439746108
 30
0.0
 11
207.1630110902316
 21
85.07102439746109
 31
0.0
  0
ARC
  5
20F1
330
18
100
AcDbEntity
  8
1
  6
Continuous
100
AcDbCircle
 10
205.9775701759258
 20
75.57102439746106
 30
0.0
 40
0.5
100
AcDbArc
 50
0.0
 51
90.0
  0
ARC
  5
20F2
330
18
100
AcDbEntity
  8
1
  6
Continuous
100
AcDbCircle
 10
206.6630110902317
 20
75.57102439746106
 30
0.0
 40
0.5
100
AcDbArc
 50
0.0
 51
90.0
  0
LINE
  5
20F3
330
18
100
AcDbEntity
  8
1
  6
Continuous
100
AcDbLine
 10
206.6630110902317
 20
76.07102439746106
 30
0.0
 11
204.9775701759258
 21
76.07102439746106
 31
0.0
  0
ARC
  5
20F4
330
18
100
AcDbEntity
  8
1
  6
Continuous
100
AcDbCircle
 10
204.9775701759255
 20
76.57102439746103
 30
0.0
 40
0.5
100
AcDbArc
 50
179.9999999999959
 51
270.0000000000065
  0
ARC
  5
20F5
330
18
100
AcDbEntity
  8
1
  6
Continuous
100
AcDbCircle
 10
205.6630110902316
 20
76.57102449746104
 30
0.0
 40
0.5
100
AcDbArc
 50
179.9999999999959
 51
270.0000000000065
  0
LINE
  5
20F6
330
18
100
AcDbEntity
  8
1
  6
Continuous
100
AcDbLine
 10
210.1630110902316
 20
78.07102439746109
 30
0.0
 11
210.1630110902316
 21
79.07102439746108
 31
0.0
  0
LINE
  5
20F7
330
18
100
AcDbEntity
  8
1
  6
Continuous
100
AcDbLine
 10
208.9630110902317
 20
78.07102439746109
 30
0.0
 11
208.9630110902317
 21
79.07102439746108
 31
0.0
  0
LINE
  5
20F8
330
18
100
AcDbEntity
  8
1
  6
Continuous
100
AcDbLine
 10
207.1630110902315
 20
74.07102439746108
 30
0.0
 11
211.6694689607458
 21
74.07102439746106
 31
0.0
  0
ARC
  5
20FA
330
18
100
AcDbEntity
  8
1
  6
Continuous
100
AcDbCircle
 10
206.1630110902316
 20
64.57102439746108
 30
0.0
 40
1.0
100
AcDbArc
 50
269.9999999999934
 51
0.0000000000008142
  0
ARC
  5
20FB
330
18
100
AcDbEntity
  8
1
  6
Continuous
100
AcDbCircle
 10
205.4775701759258
 20
64.57102439746103
 30
0.0
 40
1.0
100
AcDbArc
 50
269.9999999999934
 51
0.0000000000008142
  0
LINE
  5
20FC
330
18
100
AcDbEntity
  8
1
  6
Continuous
100
AcDbLine
 10
203.9557055815016
 20
63.57102439746109
 30
0.0
 11
206.1630110902316
 21
63.57102439746109
 31
0.0
  0
ARC
  5
20FD
330
18
100
AcDbEntity
  8
1
  6
Continuous
100
AcDbCircle
 10
203.9557055815016
 20
62.57102439746103
 30
0.0
 40
1.0
100
AcDbArc
 50
90.0
 51
270.0
  0
ARC
  5
20FE
330
18
100
AcDbEntity
  8
1
  6
Continuous
100
AcDbCircle
 10
204.9557055815015
 20
63.57102439746103
 30
0.0
 40
2.0
100
AcDbArc
 50
197.1144331639063
 51
270.0
  0
ARC
  5
20FF
330
18
100
AcDbEntity
  8
1
  6
Continuous
100
AcDbCircle
 10
205.1557055815016
 20
63.77102139746096
 30
0.0
 40
1.0
100
AcDbArc
 50
191.5367836010833
 51
270.0
  0
LINE
  5
2102
330
18
100
AcDbEntity
  8
1
  6
Continuous
100
AcDbLine
 10
205.1557055815016
 20
113.3710273974612
 30
0.0
 11
233.7338966615015
 21
113.3710273974609
 31
0.0
  0
LINE
  5
2105
330
18
100
AcDbEntity
  8
1
  6
Continuous
100
AcDbLine
 10
223.7530776615013
 20
120.771029397461
 30
0.0
 11
224.6685446615015
 21
120.1710303974609
 31
0.0
  0
LINE
  5
2106
330
18
100
AcDbEntity
  8
1
  6
Continuous
100
AcDbLine
 10
223.7530776615013
 20
120.771029397461
 30
0.0
 11
230.2530776615014
 21
120.771029397461
 31
0.0
  0
ARC
  5
2107
330
18
100
AcDbEntity
  8
1
  6
Continuous
100
AcDbCircle
 10
227.0030776615015
 20
115.989779397461
 30
0.0
 40
5.78125
100
AcDbArc
 50
55.79454000000005
 51
124.205458
  0
LINE
  5
2108
330
18
100
AcDbEntity
  8
1
  6
Continuous
100
AcDbLine
 10
230.2530776615014
 20
120.771029397461
 30
0.0
 11
229.3376106615014
 21
120.1710303974609
 31
0.0
  0
LINE
  5
2109
330
18
100
AcDbEntity
  8
1
  6
Continuous
100
AcDbLine
 10
221.8927973609965
 20
113.0710243974609
 30
0.0
 11
232.1133596615016
 21
113.0710243974609
 31
0.0
  0
LINE
  5
210A
330
18
100
AcDbEntity
  8
1
  6
Continuous
100
AcDbLine
 10
230.5030776615013
 20
113.0710243974609
 30
0.0
 11
230.5030776615013
 21
113.371027397461
 31
0.0
  0
LINE
  5
210B
330
18
100
AcDbEntity
  8
1
  6
Continuous
100
AcDbLine
 10
233.7338966615015
 20
113.371027397461
 30
0.0
 11
233.7338966615015
 21
114.5710243974609
 31
0.0
  0
ARC
  5
210C
330
18
100
AcDbEntity
  8
1
  6
Continuous
100
AcDbCircle
 10
227.8530756615013
 20
111.9710263974609
 30
0.0
 40
4.400000099999997
100
AcDbArc
 50
345.5224899999973
 51
14.4775100000025
  0
LINE
  5
210D
330
18
100
AcDbEntity
  8
1
  6
Continuous
100
AcDbLine
 10
221.8927976191951
 20
110.871027397461
 30
0.0
 11
232.1133596615016
 21
110.871027397461
 31
0.0
  0
LINE
  5
210E
330
18
100
AcDbEntity
  8
1
  6
Continuous
100
AcDbLine
 10
223.5030776615015
 20
113.0710243974609
 30
0.0
 11
223.5030776615015
 21
113.371027397461
 31
0.0
  0
ARC
  5
210F
330
18
100
AcDbEntity
  8
1
  6
Continuous
100
AcDbCircle
 10
226.1530796615014
 20
111.9710263974609
 30
0.0
 40
4.400000099999997
100
AcDbArc
 50
165.5224899999974
 51
194.4775100000025
  0
LINE
  5
2111
330
18
100
AcDbEntity
  8
1
  6
Continuous
100
AcDbLine
 10
244.5847045815015
 20
122.1710303974608
 30
0.0
 11
244.5847045815015
 21
120.7163359551191
 31
0.0
  0
LINE
  5
2112
330
18
100
AcDbEntity
  8
1
  6
Continuous
100
AcDbLine
 10
205.1557055815016
 20
62.77102139746095
 30
0.0
 11
233.7338966615015
 21
62.77102139746109
 31
0.0
  0
LINE
  5
2113
330
18
100
AcDbEntity
  8
1
  6
Continuous
100
AcDbLine
 10
221.8927976191951
 20
65.27102139746102
 30
0.0
 11
232.1133596615016
 21
65.27102139746102
 31
0.0
  0
LINE
  5
2114
330
18
100
AcDbEntity
  8
1
  6
Continuous
100
AcDbLine
 10
221.8927973609965
 20
63.07102439746109
 30
0.0
 11
232.1133596615016
 21
63.07102439746109
 31
0.0
  0
ARC
  5
2115
330
18
100
AcDbEntity
  8
1
  6
Continuous
100
AcDbCircle
 10
226.1530796615014
 20
64.17102239746117
 30
0.0
 40
4.400000099999997
100
AcDbArc
 50
165.5224899999974
 51
194.4775100000025
  0
LINE
  5
2116
330
18
100
AcDbEntity
  8
1
  6
Continuous
100
AcDbLine
 10
223.5030776615015
 20
63.07102439746109
 30
0.0
 11
223.5030776615015
 21
62.77102139746101
 31
0.0
  0
ARC
  5
2117
330
18
100
AcDbEntity
  8
1
  6
Continuous
100
AcDbCircle
 10
227.8530756615013
 20
64.17102239746117
 30
0.0
 40
4.400000099999997
100
AcDbArc
 50
345.5224899999975
 51
14.47751000000255
  0
LINE
  5
2118
330
18
100
AcDbEntity
  8
1
  6
Continuous
100
AcDbLine
 10
233.7338966615015
 20
62.77102139746101
 30
0.0
 11
233.7338966615015
 21
61.57102439746108
 31
0.0
  0
LINE
  5
2119
330
18
100
AcDbEntity
  8
1
  6
Continuous
100
AcDbLine
 10
230.5030776615013
 20
63.07102439746109
 30
0.0
 11
230.5030776615013
 21
62.77102139746101
 31
0.0
  0
ARC
  5
211A
330
18
100
AcDbEntity
  8
1
  6
Continuous
100
AcDbCircle
 10
227.0030776615015
 20
60.15226939746111
 30
0.0
 40
5.78125
100
AcDbArc
 50
235.7945419999999
 51
304.2054599999999
  0
LINE
  5
211B
330
18
100
AcDbEntity
  8
1
  6
Continuous
100
AcDbLine
 10
223.7530776615013
 20
55.37101939746118
 30
0.0
 11
230.2530776615014
 21
55.37101939746118
 31
0.0
  0
LINE
  5
211C
330
18
100
AcDbEntity
  8
1
  6
Continuous
100
AcDbLine
 10
223.7530776615013
 20
55.37101939746118
 30
0.0
 11
224.6685446615015
 21
55.9710183974612
 31
0.0
  0
LINE
  5
211D
330
18
100
AcDbEntity
  8
1
  6
Continuous
100
AcDbLine
 10
230.2530776615014
 20
55.37101939746118
 30
0.0
 11
229.3376106615014
 21
55.9710183974612
 31
0.0
  0
LINE
  5
211E
330
18
100
AcDbEntity
  8
1
  6
Continuous
100
AcDbLine
 10
233.9723790814232
 20
53.37101439746106
 30
0.0
 11
233.0569050814231
 21
53.97101439746098
 31
0.0
  0
LINE
  5
211F
330
18
100
AcDbEntity
  8
4
  6
CENTER
100
AcDbLine
 10
248.5147065815015
 20
125.1090743974609
 30
0.0
 11
248.5147065815015
 21
48.7952173974611
 31
0.0
  0
LINE
  5
2120
330
18
100
AcDbEntity
  8
4
  6
CENTER
100
AcDbLine
 10
248.5147065815015
 20
458.1286026543543
 30
0.0
 11
248.5147065815015
 21
381.8147456543544
 31
0.0
  0
LINE
  5
220C
330
18
100
AcDbEntity
  8
1
  6
Continuous
100
AcDbLine
 10
400.4077514783016
 20
276.9391841735786
 30
0.0
 11
399.4077514783016
 21
237.4113201735784
 31
0.0
  0
LINE
  5
220D
330
18
100
AcDbEntity
  8
1
  6
Continuous
100
AcDbLine
 10
464.4077434783016
 20
276.9391841735786
 30
0.0
 11
465.4077434783014
 21
237.4113201735784
 31
0.0
  0
ARC
  5
220E
330
18
100
AcDbEntity
  8
1
  6
Continuous
100
AcDbCircle
 10
427.9768924673733
 20
251.701100408671
 30
0.0
 40
22.29399163628448
100
AcDbArc
 50
90.0
 51
156.4876405314103
  0
ARC
  5
220F
330
18
100
AcDbEntity
  8
1
  6
Continuous
100
AcDbCircle
 10
429.9077474783016
 20
251.9113201735786
 30
0.0
 40
20.0
100
AcDbArc
 50
90.0
 51
180.0
  0
ARC
  5
2210
330
18
100
AcDbEntity
  8
1
  6
Continuous
100
AcDbCircle
 10
432.4077474783016
 20
121.4113201735784
 30
0.0
 40
150.0
100
AcDbArc
 50
87.04016778721621
 51
92.95983221278378
  0
LINE
  5
2211
330
18
100
AcDbEntity
  8
1
  6
Continuous
100
AcDbLine
 10
436.8386024892297
 20
273.9950920449554
 30
0.0
 11
427.9768924673733
 21
273.9950920449554
 31
0.0
  0
LINE
  5
2212
330
18
100
AcDbEntity
  8
1
  6
Continuous
100
AcDbLine
 10
434.9077474783016
 20
271.9113201735785
 30
0.0
 11
429.9077474783016
 21
271.9113201735785
 31
0.0
  0
ARC
  5
2213
330
18
100
AcDbEntity
  8
1
  6
Continuous
100
AcDbCircle
 10
434.9077474783016
 20
251.9113201735786
 30
0.0
 40
20.0
100
AcDbArc
 50
0.0000400000007688
 51
90.0
  0
ARC
  5
2214
330
18
100
AcDbEntity
  8
1
  6
Continuous
100
AcDbCircle
 10
436.8386024892297
 20
251.7011004086709
 30
0.0
 40
22.29399163628452
100
AcDbArc
 50
23.51235946858969
 51
90.0
  0
LINE
  5
2215
330
18
100
AcDbEntity
  8
1
  6
Continuous
100
AcDbLine
 10
457.2816140124731
 20
260.5952188551081
 30
0.0
 11
464.5946807453873
 21
241.7532695143433
 31
0.0
  0
LINE
  5
2216
330
18
100
AcDbEntity
  8
1
  6
Continuous
100
AcDbLine
 10
453.552636256778
 20
259.1479024081866
 30
0.0
 11
460.8657029896922
 21
240.3059530674218
 31
0.0
  0
LINE
  5
2217
330
18
100
AcDbEntity
  8
1
  6
Continuous
100
AcDbLine
 10
411.2628586998253
 20
259.1479024081866
 30
0.0
 11
403.9497919669111
 21
240.3059530674218
 31
0.0
  0
LINE
  5
2218
330
18
100
AcDbEntity
  8
1
  6
Continuous
100
AcDbLine
 10
407.5338809441298
 20
260.5952188551081
 30
0.0
 11
400.2208142112158
 21
241.7532695143433
 31
0.0
  0
ARC
  5
2219
330
18
100
AcDbEntity
  8
1
  6
Continuous
100
AcDbCircle
 10
411.4077474783016
 20
237.4113201735786
 30
0.0
 40
8.0
100
AcDbArc
 50
158.7874293974513
 51
239.9999999999995
  0
ARC
  5
221A
330
18
100
AcDbEntity
  8
1
  6
Continuous
100
AcDbCircle
 10
411.4077474783016
 20
237.4113201735786
 30
0.0
 40
12.0
100
AcDbArc
 50
158.7874293974513
 51
239.9999999999995
  0
LINE
  5
221B
330
18
100
AcDbEntity
  8
1
  6
Continuous
100
AcDbLine
 10
405.9077474783016
 20
226.1529899243809
 30
0.0
 11
405.9077474783016
 21
225.5838600838388
 31
0.0
  0
ARC
  5
221D
330
18
100
AcDbEntity
  8
1
  6
Continuous
100
AcDbCircle
 10
404.9077474783016
 20
226.1529899243809
 30
0.0
 40
1.0
100
AcDbArc
 50
359.9999999999967
 51
59.99999999999944
  0
ARC
  5
221E
330
18
100
AcDbEntity
  8
1
  6
Continuous
100
AcDbCircle
 10
404.9077474783016
 20
226.1529899243809
 30
0.0
 40
5.0
100
AcDbArc
 50
0.0
 51
59.99999999999944
  0
LINE
  5
221F
330
18
100
AcDbEntity
  8
1
  6
Continuous
100
AcDbLine
 10
397.7077424783017
 20
264.3871391735788
 30
0.0
 11
398.3077414783016
 21
263.4716731735788
 31
0.0
  0
LINE
  5
2221
330
18
100
AcDbEntity
  8
1
  6
Continuous
100
AcDbLine
 10
464.6964506292873
 20
267.0146771458238
 30
0.0
 11
465.5077534783013
 21
267.0146771458238
 31
0.0
  0
ARC
  5
2222
330
18
100
AcDbEntity
  8
1
  6
Continuous
100
AcDbCircle
 10
465.5077534783013
 20
266.0146771458239
 30
0.0
 40
1.0
100
AcDbArc
 50
0.000000000000007
 51
90.00000299999769
  0
LINE
  5
2226
330
18
100
AcDbEntity
  8
1
  6
Continuous
100
AcDbLine
 10
412.4077474783016
 20
251.9113201735786
 30
0.0
 11
410.7077504783017
 21
251.9113201735786
 31
0.0
  0
LINE
  5
2227
330
18
100
AcDbEntity
  8
1
  6
Continuous
100
AcDbLine
 10
454.1077474783016
 20
251.9113201735786
 30
0.0
 11
452.4077474783016
 21
251.9113201735786
 31
0.0
  0
ARC
  5
222B
330
18
100
AcDbEntity
  8
1
  6
Continuous
100
AcDbCircle
 10
405.9077474783016
 20
225.5838600838388
 30
0.0
 40
2.299999999999998
100
AcDbArc
 50
180.0
 51
270.0
  0
LINE
  5
222C
330
18
100
AcDbEntity
  8
1
  6
Continuous
100
AcDbLine
 10
408.9077474783016
 20
225.5838600838388
 30
0.0
 11
405.9077474783016
 21
225.5838600838388
 31
0.0
  0
ARC
  5
222E
330
18
100
AcDbEntity
  8
1
  6
Continuous
100
AcDbCircle
 10
408.9077474783016
 20
222.2838570838387
 30
0.0
 40
1.0
100
AcDbArc
 50
0.0
 51
90.0
  0
ARC
  5
222F
330
18
100
AcDbEntity
  8
1
  6
Continuous
100
AcDbCircle
 10
408.9077474783016
 20
220.6113171735786
 30
0.0
 40
1.0
100
AcDbArc
 50
270.0
 51
0.0
  0
ARC
  5
2230
330
18
100
AcDbEntity
  8
1
  6
Continuous
100
AcDbCircle
 10
408.9077474783016
 20
224.5838600838387
 30
0.0
 40
1.0
100
AcDbArc
 50
0.0
 51
90.0
  0
LINE
  5
2231
330
18
100
AcDbEntity
  8
1
  6
Continuous
100
AcDbLine
 10
454.9077474783016
 20
251.9113201735786
 30
0.0
 11
454.9077474783016
 21
220.6113171735786
 31
0.0
  0
ARC
  5
2232
330
18
100
AcDbEntity
  8
1
  6
Continuous
100
AcDbCircle
 10
453.4077474783016
 20
237.4113201735786
 30
0.0
 40
12.0
100
AcDbArc
 50
300.0000000000005
 51
21.21257060254865
  0
ARC
  5
2233
330
18
100
AcDbEntity
  8
1
  6
Continuous
100
AcDbCircle
 10
453.4077474783016
 20
237.4113201735786
 30
0.0
 40
8.0
100
AcDbArc
 50
300.0000000000005
 51
21.21257060254865
  0
LINE
  5
2234
330
18
100
AcDbEntity
  8
1
  6
Continuous
100
AcDbLine
 10
455.9077474783016
 20
219.6113171735786
 30
0.0
 11
458.9077474783016
 21
219.6113171735786
 31
0.0
  0
ARC
  5
2235
330
18
100
AcDbEntity
  8
1
  6
Continuous
100
AcDbCircle
 10
458.9077474783016
 20
221.9113201735786
 30
0.0
 40
2.299999999999998
100
AcDbArc
 50
270.0
 51
0.000000000000007
  0
LINE
  5
2236
330
18
100
AcDbEntity
  8
1
  6
Continuous
100
AcDbLine
 10
455.9077474783016
 20
225.5838600838388
 30
0.0
 11
458.9077474783016
 21
225.5838600838388
 31
0.0
  0
LINE
  5
2237
330
18
100
AcDbEntity
  8
1
  6
Continuous
100
AcDbLine
 10
455.9077474783016
 20
223.2838570838388
 30
0.0
 11
458.9077474783016
 21
223.2838570838388
 31
0.0
  0
LINE
  5
2238
330
18
100
AcDbEntity
  8
1
  6
Continuous
100
AcDbLine
 10
458.9077474783016
 20
226.1529899243809
 30
0.0
 11
458.9077474783016
 21
225.5838600838388
 31
0.0
  0
ARC
  5
2239
330
18
100
AcDbEntity
  8
1
  6
Continuous
100
AcDbCircle
 10
458.9077474783016
 20
225.5838600838388
 30
0.0
 40
2.299999999999998
100
AcDbArc
 50
270.0
 51
0.000000000000007
  0
ARC
  5
223A
330
18
100
AcDbEntity
  8
1
  6
Continuous
100
AcDbCircle
 10
459.9077474783016
 20
226.1529899243809
 30
0.0
 40
5.0
100
AcDbArc
 50
120.0000000000005
 51
180.0
  0
ARC
  5
223B
330
18
100
AcDbEntity
  8
1
  6
Continuous
100
AcDbCircle
 10
459.9077474783016
 20
226.1529899243809
 30
0.0
 40
1.0
100
AcDbArc
 50
120.0000000000005
 51
180.0000000000032
  0
LINE
  5
223C
330
18
100
AcDbEntity
  8
1
  6
Continuous
100
AcDbLine
 10
461.2077504783017
 20
228.2921122474489
 30
0.0
 11
461.2077504783017
 21
221.9113201735786
 31
0.0
  0
ARC
  5
223D
330
18
100
AcDbEntity
  8
1
  6
Continuous
100
AcDbCircle
 10
455.9077474783016
 20
222.2838570838387
 30
0.0
 40
1.0
100
AcDbArc
 50
90.0
 51
180.0
  0
ARC
  5
223E
330
18
100
AcDbEntity
  8
1
  6
Continuous
100
AcDbCircle
 10
455.9077474783016
 20
220.6113171735786
 30
0.0
 40
1.0
100
AcDbArc
 50
180.0
 51
270.0
  0
ARC
  5
223F
330
18
100
AcDbEntity
  8
1
  6
Continuous
100
AcDbCircle
 10
455.9077474783016
 20
224.5838600838387
 30
0.0
 40
1.0
100
AcDbArc
 50
90.0
 51
180.0
  0
ENDSEC
  0
SECTION
  2
OBJECTS
  0
DICTIONARY
  5
C
330
0
100
AcDbDictionary
281
     1
  3
ACAD_CIP_PREVIOUS_PRODUCT_INFO
350
275C
  3
ACAD_COLOR
350
273F
  3
ACAD_DETAILVIEWSTYLE
350
2758
  3
ACAD_GROUP
350
D
  3
ACAD_LAYOUT
350
94
  3
ACAD_MATERIAL
350
270D
  3
ACAD_MLEADERSTYLE
350
2754
  3
ACAD_MLINESTYLE
350
1B
  3
ACAD_PLOTSETTINGS
350
95
  3
ACAD_PLOTSTYLENAME
350
270B
  3
ACAD_SCALELIST
350
2742
  3
ACAD_SECTIONVIEWSTYLE
350
2756
  3
ACAD_TABLESTYLE
350
2740
  3
ACAD_VISUALSTYLE
350
2726
  3
ACDB_RECOMPOSE_DATA
350
277A
  3
AcDbVariableDictionary
350
276D
  3
CONTENTDICTIONARY
350
3D
  3
DWGPROPS
350
277B
  0
DICTIONARY
  5
275D
330
E
100
AcDbDictionary
280
     1
281
     1
  3
ADSK_XREC_LAYER_RECONCILED
360
275E
  0
DICTIONARY
  5
275F
330
4E
100
AcDbDictionary
280
     1
281
     1
  3
ADSK_XREC_LAYER_RECONCILED
360
2760
  0
DICTIONARY
  5
2761
330
4F
100
AcDbDictionary
280
     1
281
     1
  3
ADSK_XREC_LAYER_RECONCILED
360
2762
  0
DICTIONARY
  5
2763
330
50
100
AcDbDictionary
280
     1
281
     1
  3
ADSK_XREC_LAYER_RECONCILED
360
2764
  0
DICTIONARY
  5
2765
330
51
100
AcDbDictionary
280
     1
281
     1
  3
ADSK_XREC_LAYER_RECONCILED
360
2766
  0
DICTIONARY
  5
2767
330
52
100
AcDbDictionary
280
     1
281
     1
  3
ADSK_XREC_LAYER_RECONCILED
360
2768
  0
DICTIONARY
  5
2769
330
53
100
AcDbDictionary
280
     1
281
     1
  3
ADSK_XREC_LAYER_RECONCILED
360
276A
  0
DICTIONARY
  5
276B
330
54
100
AcDbDictionary
280
     1
281
     1
  3
ADSK_XREC_LAYER_RECONCILED
360
276C
  0
DICTIONARY
  5
26F2
330
18
100
AcDbDictionary
281
     1
  3
ACAD_LAYOUTSELFREF
350
2707
  0
DICTIONARY
  5
26F0
330
15
100
AcDbDictionary
281
     1
  3
ACAD_LAYOUTSELFREF
350
2706
  0
XRECORD
  5
275C
102
{ACAD_REACTORS
330
C
102
}
330
C
100
AcDbXrecord
280
     1
300
ACDLT
300
2014
300
ACDLT_F_S
  0
DICTIONARY
  5
273F
102
{ACAD_REACTORS
330
C
102
}
330
C
100
AcDbDictionary
281
     1
  0
DICTIONARY
  5
2758
102
{ACAD_REACTORS
330
C
102
}
330
C
100
AcDbDictionary
281
     1
  3
Imperial24
350
2759
  0
DICTIONARY
  5
D
102
{ACAD_REACTORS
330
C
102
}
330
C
100
AcDbDictionary
281
     1
  0
DICTIONARY
  5
94
102
{ACAD_REACTORS
330
C
102
}
330
C
100
AcDbDictionary
281
     1
  3
Model
350
275A
  3
レイアウト1
350
275B
  0
DICTIONARY
  5
270D
102
{ACAD_REACTORS
330
C
102
}
330
C
100
AcDbDictionary
281
     1
  3
ByBlock
350
2716
  3
ByLayer
350
270E
  3
Global
350
271E
  0
DICTIONARY
  5
2754
102
{ACAD_REACTORS
330
C
102
}
330
C
100
AcDbDictionary
281
     1
  3
Standard
350
2755
  0
DICTIONARY
  5
1B
102
{ACAD_REACTORS
330
C
102
}
330
C
100
AcDbDictionary
281
     1
  3
STANDARD
350
1C
  0
DICTIONARY
  5
95
102
{ACAD_REACTORS
330
C
102
}
330
C
100
AcDbDictionary
281
     1
  0
ACDBDICTIONARYWDFLT
  5
270B
102
{ACAD_REACTORS
330
C
102
}
330
C
100
AcDbDictionary
281
     1
  3
Normal
350
270C
100
AcDbDictionaryWithDefault
340
270C
  0
DICTIONARY
  5
2742
102
{ACAD_REACTORS
330
C
102
}
330
C
100
AcDbDictionary
281
     1
  3
A0
350
2743
  3
A1
350
2744
  3
A2
350
2745
  3
A3
350
2746
  3
A4
350
2747
  3
A5
350
2748
  3
A6
350
2749
  3
A7
350
274A
  3
A8
350
274B
  3
A9
350
274C
  3
B0
350
274D
  3
B1
350
274E
  3
B2
350
274F
  3
B3
350
2750
  3
B4
350
2751
  3
B5
350
2752
  3
B6
350
2753
  0
DICTIONARY
  5
2756
102
{ACAD_REACTORS
330
C
102
}
330
C
100
AcDbDictionary
281
     1
  3
Imperial24
350
2757
  0
DICTIONARY
  5
2740
102
{ACAD_REACTORS
330
C
102
}
330
C
100
AcDbDictionary
281
     1
  3
Standard
350
2741
  0
DICTIONARY
  5
2726
102
{ACAD_REACTORS
330
C
102
}
330
C
100
AcDbDictionary
281
     1
  3
2dWireframe
350
272C
  3
Basic
350
272B
  3
Brighten
350
2732
  3
ColorChange
350
2736
  3
Conceptual
350
272F
  3
Dim
350
2731
  3
EdgeColorOff
350
273E
  3
Facepattern
350
2735
  3
Flat
350
2727
  3
FlatWithEdges
350
2728
  3
Gouraud
350
2729
  3
GouraudWithEdges
350
272A
  3
Hidden
350
272E
  3
JitterOff
350
273C
  3
Linepattern
350
2734
  3
OverhangOff
350
273D
  3
Realistic
350
2730
  3
Shaded
350
273B
  3
Shaded with edges
350
273A
  3
Shades of Gray
350
2737
  3
Sketchy
350
2738
  3
Thicken
350
2733
  3
Wireframe
350
272D
  3
X-Ray
350
2739
  0
XRECORD
  5
277A
102
{ACAD_REACTORS
330
C
102
}
330
C
100
AcDbXrecord
280
     1
 90
        1
330
2741
  0
DICTIONARY
  5
276D
102
{ACAD_REACTORS
330
C
102
}
330
C
100
AcDbDictionary
281
     1
  3
CANNOSCALE
350
2772
  3
CMLEADERSTYLE
350
276F
  3
CTABLESTYLE
350
276E
  3
CVIEWDETAILSTYLE
350
2770
  3
CVIEWSECTIONSTYLE
350
2771
  3
DIMASSOC
350
2775
  3
INDEXCTL
350
2774
  3
SORTENTS
350
2773
  3
XCLIPFRAME
350
2776
  0
DICTIONARY
  5
3D
102
{ACAD_REACTORS
330
C
102
}
330
C
100
AcDbDictionary
281
     1
  0
XRECORD
  5
277B
102
{ACAD_REACTORS
330
C
102
}
330
C
100
AcDbXrecord
280
     1
  1
DWGPROPS COOKIE
  2

  3

  4

  6

  7

  8
Yoshitsune
  9

300
=
301
=
302
=
303
=
304
=
305
=
306
=
307
=
308
=
309
=
 40
0.2587074305555555
 41
2452933.409272639
 42
2457192.691019167
  1

 90
        0
  0
XRECORD
  5
275E
102
{ACAD_REACTORS
330
275D
102
}
330
275D
100
AcDbXrecord
280
     1
290
     1
  0
XRECORD
  5
2760
102
{ACAD_REACTORS
330
275F
102
}
330
275F
100
AcDbXrecord
280
     1
290
     1
  0
XRECORD
  5
2762
102
{ACAD_REACTORS
330
2761
102
}
330
2761
100
AcDbXrecord
280
     1
290
     1
  0
XRECORD
  5
2764
102
{ACAD_REACTORS
330
2763
102
}
330
2763
100
AcDbXrecord
280
     1
290
     1
  0
XRECORD
  5
2766
102
{ACAD_REACTORS
330
2765
102
}
330
2765
100
AcDbXrecord
280
     1
290
     1
  0
XRECORD
  5
2768
102
{ACAD_REACTORS
330
2767
102
}
330
2767
100
AcDbXrecord
280
     1
290
     1
  0
XRECORD
  5
276A
102
{ACAD_REACTORS
330
2769
102
}
330
2769
100
AcDbXrecord
280
     1
290
     1
  0
XRECORD
  5
276C
102
{ACAD_REACTORS
330
276B
102
}
330
276B
100
AcDbXrecord
280
     1
290
     1
  0
XRECORD
  5
2707
102
{ACAD_REACTORS
330
26F2
102
}
330
26F2
100
AcDbXrecord
280
     1
340
18
  0
XRECORD
  5
2706
102
{ACAD_REACTORS
330
26F0
102
}
330
26F0
100
AcDbXrecord
280
     1
340
15
  0
ACDBDETAILVIEWSTYLE
  5
2759
102
{ACAD_XDICTIONARY
360
27B3
102
}
102
{ACAD_REACTORS
330
2758
102
}
330
2758
100
AcDbModelDocViewStyle
 70
     0
  3
Imperial24
290
     0
100
AcDbDetailViewStyle
 70
     0
 71
     0
 90
        3
 71
     1
340
F
 40
0.24
340
0
 40
0.24
300

 40
0.36
280
     3
 71
     2
340
14
 90
       25
 71
     3
340
F
 40
0.24
 90
        1
 40
0.75
 90
        1
300
%<\AcVar ViewType \f "%tc1">% %<\AcVar ViewDetailId>%\PSCALE %<\AcVar ViewScale \f "%sn">%
 71
     4
340
14
 90
       25
340
14
 90
       25
280
     0
  0
LAYOUT
  5
275A
102
{ACAD_XDICTIONARY
360
27B5
102
}
102
{ACAD_REACTORS
330
94
102
}
330
94
100
AcDbPlotSettings
  1

  2
Canon LBP9100C
  4

  6

 40
0.0
 41
0.0
 42
0.0
 43
0.0
 44
0.0
 45
0.0
 46
0.0
 47
0.0
 48
0.0
 49
0.0
140
0.0
141
0.0
142
1.0
143
1.0
 70
  1712
 72
     0
 73
     0
 74
     0
  7

 75
     0
147
1.0
148
0.0
149
0.0
100
AcDbLayout
  1
Model
 70
     1
 71
     0
 10
0.0
 20
0.0
 11
12.0
 21
9.0
 12
0.0
 22
0.0
 32
0.0
 14
0.0
 24
0.0
 34
0.0
 15
0.0
 25
0.0
 35
0.0
146
0.0
 13
0.0
 23
0.0
 33
0.0
 16
1.0
 26
0.0
 36
0.0
 17
0.0
 27
1.0
 37
0.0
 76
     0
330
18
331
2705
  0
LAYOUT
  5
275B
102
{ACAD_XDICTIONARY
360
27B7
102
}
102
{ACAD_REACTORS
330
94
102
}
330
94
100
AcDbPlotSettings
  1

  2
Canon LBP9100C
  4

  6

 40
0.0
 41
0.0
 42
0.0
 43
0.0
 44
0.0
 45
0.0
 46
0.0
 47
0.0
 48
0.0
 49
0.0
140
0.0
141
0.0
142
1.0
143
1.0
 70
   688
 72
     0
 73
     0
 74
     5
  7

 75
    16
147
1.0
148
0.0
149
0.0
100
AcDbLayout
  1
レイアウト1
 70
     1
 71
     1
 10
0.0
 20
0.0
 11
420.0
 21
297.0
 12
0.0
 22
0.0
 32
0.0
 14
1.000000000000000E+20
 24
1.000000000000000E+20
 34
1.000000000000000E+20
 15
-1.000000000000000E+20
 25
-1.000000000000000E+20
 35
-1.000000000000000E+20
146
0.0
 13
0.0
 23
0.0
 33
0.0
 16
1.0
 26
0.0
 36
0.0
 17
0.0
 27
1.0
 37
0.0
 76
     0
330
15
  0
MATERIAL
  5
2716
102
{ACAD_XDICTIONARY
360
2717
102
}
102
{ACAD_REACTORS
330
270D
102
}
330
270D
100
AcDbMaterial
  1
ByBlock
 72
     0
 43
0.0208333333333333
 43
0.0
 43
0.0
 43
0.0
 43
0.0
 43
0.0208333333333333
 43
0.0
 43
0.0
 43
0.0
 43
0.0
 43
1.0
 43
0.0
 43
0.0
 43
0.0
 43
0.0
 43
1.0
 77
     0
 47
0.0208333333333333
 47
0.0
 47
0.0
 47
0.0
 47
0.0
 47
0.0208333333333333
 47
0.0
 47
0.0
 47
0.0
 47
0.0
 47
1.0
 47
0.0
 47
0.0
 47
0.0
 47
0.0
 47
1.0
171
     0
 49
0.0208333333333333
 49
0.0
 49
0.0
 49
0.0
 49
0.0
 49
0.0208333333333333
 49
0.0
 49
0.0
 49
0.0
 49
0.0
 49
1.0
 49
0.0
 49
0.0
 49
0.0
 49
0.0
 49
1.0
175
     0
142
0.0208333333333333
142
0.0
142
0.0
142
0.0
142
0.0
142
0.0208333333333333
142
0.0
142
0.0
142
0.0
142
0.0
142
1.0
142
0.0
142
0.0
142
0.0
142
0.0
142
1.0
179
     0
144
0.0208333333333333
144
0.0
144
0.0
144
0.0
144
0.0
144
0.0208333333333333
144
0.0
144
0.0
144
0.0
144
0.0
144
1.0
144
0.0
144
0.0
144
0.0
144
0.0
144
1.0
147
0.0208333333333333
147
0.0
147
0.0
147
0.0
147
0.0
147
0.0208333333333333
147
0.0
147
0.0
147
0.0
147
0.0
147
1.0
147
0.0
147
0.0
147
0.0
147
0.0
147
1.0
  0
MATERIAL
  5
270E
102
{ACAD_XDICTIONARY
360
270F
102
}
102
{ACAD_REACTORS
330
270D
102
}
330
270D
100
AcDbMaterial
  1
ByLayer
 72
     0
 43
0.0208333333333333
 43
0.0
 43
0.0
 43
0.0
 43
0.0
 43
0.0208333333333333
 43
0.0
 43
0.0
 43
0.0
 43
0.0
 43
1.0
 43
0.0
 43
0.0
 43
0.0
 43
0.0
 43
1.0
 77
     0
 47
0.0208333333333333
 47
0.0
 47
0.0
 47
0.0
 47
0.0
 47
0.0208333333333333
 47
0.0
 47
0.0
 47
0.0
 47
0.0
 47
1.0
 47
0.0
 47
0.0
 47
0.0
 47
0.0
 47
1.0
171
     0
 49
0.0208333333333333
 49
0.0
 49
0.0
 49
0.0
 49
0.0
 49
0.0208333333333333
 49
0.0
 49
0.0
 49
0.0
 49
0.0
 49
1.0
 49
0.0
 49
0.0
 49
0.0
 49
0.0
 49
1.0
175
     0
142
0.0208333333333333
142
0.0
142
0.0
142
0.0
142
0.0
142
0.0208333333333333
142
0.0
142
0.0
142
0.0
142
0.0
142
1.0
142
0.0
142
0.0
142
0.0
142
0.0
142
1.0
179
     0
144
0.0208333333333333
144
0.0
144
0.0
144
0.0
144
0.0
144
0.0208333333333333
144
0.0
144
0.0
144
0.0
144
0.0
144
1.0
144
0.0
144
0.0
144
0.0
144
0.0
144
1.0
147
0.0208333333333333
147
0.0
147
0.0
147
0.0
147
0.0
147
0.0208333333333333
147
0.0
147
0.0
147
0.0
147
0.0
147
1.0
147
0.0
147
0.0
147
0.0
147
0.0
147
1.0
  0
MATERIAL
  5
271E
102
{ACAD_XDICTIONARY
360
271F
102
}
102
{ACAD_REACTORS
330
270D
102
}
330
270D
100
AcDbMaterial
  1
Global
 72
     0
 43
0.0208333333333333
 43
0.0
 43
0.0
 43
0.0
 43
0.0
 43
0.0208333333333333
 43
0.0
 43
0.0
 43
0.0
 43
0.0
 43
1.0
 43
0.0
 43
0.0
 43
0.0
 43
0.0
 43
1.0
 77
     0
 47
0.0208333333333333
 47
0.0
 47
0.0
 47
0.0
 47
0.0
 47
0.0208333333333333
 47
0.0
 47
0.0
 47
0.0
 47
0.0
 47
1.0
 47
0.0
 47
0.0
 47
0.0
 47
0.0
 47
1.0
171
     0
 49
0.0208333333333333
 49
0.0
 49
0.0
 49
0.0
 49
0.0
 49
0.0208333333333333
 49
0.0
 49
0.0
 49
0.0
 49
0.0
 49
1.0
 49
0.0
 49
0.0
 49
0.0
 49
0.0
 49
1.0
175
     0
142
0.0208333333333333
142
0.0
142
0.0
142
0.0
142
0.0
142
0.0208333333333333
142
0.0
142
0.0
142
0.0
142
0.0
142
1.0
142
0.0
142
0.0
142
0.0
142
0.0
142
1.0
179
     0
144
0.0208333333333333
144
0.0
144
0.0
144
0.0
144
0.0
144
0.0208333333333333
144
0.0
144
0.0
144
0.0
144
0.0
144
1.0
144
0.0
144
0.0
144
0.0
144
0.0
144
1.0
147
0.0208333333333333
147
0.0
147
0.0
147
0.0
147
0.0
147
0.0208333333333333
147
0.0
147
0.0
147
0.0
147
0.0
147
1.0
147
0.0
147
0.0
147
0.0
147
0.0
147
1.0
  0
MLEADERSTYLE
  5
2755
102
{ACAD_REACTORS
330
2754
102
}
330
2754
100
AcDbMLeaderStyle
170
     2
171
     1
172
     0
 90
        2
 40
0.0
 41
0.0
173
     1
 91
-1056964608
340
12
 92
       -2
290
     1
 42
0.09
291
     1
 43
0.36
  3
Standard
 44
0.18
300

342
F
174
     1
178
     6
175
     1
176
     0
 93
-1056964608
 45
0.18
292
     0
297
     0
 46
0.18
 94
-1056964608
 47
1.0
 49
1.0
140
1.0
293
     1
141
0.0
294
     1
177
     0
142
1.0
295
     0
296
     0
143
0.125
1001
ACAD_MLEADERVER
1070
     2
  0
MLINESTYLE
  5
1C
102
{ACAD_REACTORS
330
1B
102
}
330
1B
100
AcDbMlineStyle
  2
STANDARD
 70
     0
  3

 62
   256
 51
90.0
 52
90.0
 71
     2
 49
0.5
 62
   256
  6
BYLAYER
 49
-0.5
 62
   256
  6
BYLAYER
  0
ACDBPLACEHOLDER
  5
270C
102
{ACAD_REACTORS
330
270B
102
}
330
270B
  0
SCALE
  5
2743
102
{ACAD_REACTORS
330
2742
102
}
330
2742
100
AcDbScale
 70
     0
300
1:1
140
1.0
141
1.0
290
     1
  0
SCALE
  5
2744
102
{ACAD_REACTORS
330
2742
102
}
330
2742
100
AcDbScale
 70
     0
300
1/128" = 1'-0"
140
0.0078125
141
12.0
290
     0
  0
SCALE
  5
2745
102
{ACAD_REACTORS
330
2742
102
}
330
2742
100
AcDbScale
 70
     0
300
1/64" = 1'-0"
140
0.015625
141
12.0
290
     0
  0
SCALE
  5
2746
102
{ACAD_REACTORS
330
2742
102
}
330
2742
100
AcDbScale
 70
     0
300
1/32" = 1'-0"
140
0.03125
141
12.0
290
     0
  0
SCALE
  5
2747
102
{ACAD_REACTORS
330
2742
102
}
330
2742
100
AcDbScale
 70
     0
300
1/16" = 1'-0"
140
0.0625
141
12.0
290
     0
  0
SCALE
  5
2748
102
{ACAD_REACTORS
330
2742
102
}
330
2742
100
AcDbScale
 70
     0
300
3/32" = 1'-0"
140
0.09375
141
12.0
290
     0
  0
SCALE
  5
2749
102
{ACAD_REACTORS
330
2742
102
}
330
2742
100
AcDbScale
 70
     0
300
1/8" = 1'-0"
140
0.125
141
12.0
290
     0
  0
SCALE
  5
274A
102
{ACAD_REACTORS
330
2742
102
}
330
2742
100
AcDbScale
 70
     0
300
3/16" = 1'-0"
140
0.1875
141
12.0
290
     0
  0
SCALE
  5
274B
102
{ACAD_REACTORS
330
2742
102
}
330
2742
100
AcDbScale
 70
     0
300
1/4" = 1'-0"
140
0.25
141
12.0
290
     0
  0
SCALE
  5
274C
102
{ACAD_REACTORS
330
2742
102
}
330
2742
100
AcDbScale
 70
     0
300
3/8" = 1'-0"
140
0.375
141
12.0
290
     0
  0
SCALE
  5
274D
102
{ACAD_REACTORS
330
2742
102
}
330
2742
100
AcDbScale
 70
     0
300
1/2" = 1'-0"
140
0.5
141
12.0
290
     0
  0
SCALE
  5
274E
102
{ACAD_REACTORS
330
2742
102
}
330
2742
100
AcDbScale
 70
     0
300
3/4" = 1'-0"
140
0.75
141
12.0
290
     0
  0
SCALE
  5
274F
102
{ACAD_REACTORS
330
2742
102
}
330
2742
100
AcDbScale
 70
     0
300
1" = 1'-0"
140
1.0
141
12.0
290
     0
  0
SCALE
  5
2750
102
{ACAD_REACTORS
330
2742
102
}
330
2742
100
AcDbScale
 70
     0
300
1-1/2" = 1'-0"
140
1.5
141
12.0
290
     0
  0
SCALE
  5
2751
102
{ACAD_REACTORS
330
2742
102
}
330
2742
100
AcDbScale
 70
     0
300
3" = 1'-0"
140
3.0
141
12.0
290
     0
  0
SCALE
  5
2752
102
{ACAD_REACTORS
330
2742
102
}
330
2742
100
AcDbScale
 70
     0
300
6" = 1'-0"
140
6.0
141
12.0
290
     0
  0
SCALE
  5
2753
102
{ACAD_REACTORS
330
2742
102
}
330
2742
100
AcDbScale
 70
     0
300
1'-0" = 1'-0"
140
12.0
141
12.0
290
     0
  0
ACDBSECTIONVIEWSTYLE
  5
2757
102
{ACAD_XDICTIONARY
360
27B1
102
}
102
{ACAD_REACTORS
330
2756
102
}
330
2756
100
AcDbModelDocViewStyle
 70
     0
  3
Imperial24
290
     0
100
AcDbSectionViewStyle
 70
     0
 71
     0
 90
       78
 71
     1
340
F
 40
0.24
340
0
340
0
 40
0.24
300
I, O, Q, S, X, Z
 40
0.48
 90
        3
 40
0.18
 90
        1
 71
     2
340
14
 90
       25
340
14
 90
       50
 40
0.24
 40
0.0
 40
0.24
 71
     3
340
F
 40
0.24
 90
        1
 40
0.75
 90
        1
300
%<\AcVar ViewType \f "%tc1">% %<\AcVar ViewSectionStartId>%-%<\AcVar ViewSectionEndId>%\PSCALE %<\AcVar ViewScale \f "%sn">%
 71
     4
300
ANSI31
 40
1.0
 90
        0
290
     0
290
     0
 90
        6
 40
0.0
 40
1.570796326794896
 40
0.2617993877991494
 40
1.308996938995747
 40
-0.2617993877991494
 40
1.832595714594046
  0
TABLESTYLE
  5
2741
102
{ACAD_XDICTIONARY
360
2778
102
}
102
{ACAD_REACTORS
330
2740
102
}
330
2740
100
AcDbTableStyle
  3
Standard
 70
     0
 71
     0
 40
0.06
 41
0.06
280
     0
281
     0
  7
STANDARD
140
0.18
170
     2
 62
     0
 63
     7
283
     0
274
    -2
284
     1
 64
     0
275
    -2
285
     1
 65
     0
276
    -2
286
     1
 66
     0
277
    -2
287
     1
 67
     0
278
    -2
288
     1
 68
     0
279
    -2
289
     1
 69
     0
  7
STANDARD
140
0.25
170
     5
 62
     0
 63
     7
283
     0
274
    -2
284
     1
 64
     0
275
    -2
285
     1
 65
     0
276
    -2
286
     1
 66
     0
277
    -2
287
     1
 67
     0
278
    -2
288
     1
 68
     0
279
    -2
289
     1
 69
     0
  7
STANDARD
140
0.18
170
     5
 62
     0
 63
     7
283
     0
274
    -2
284
     1
 64
     0
275
    -2
285
     1
 65
     0
276
    -2
286
     1
 66
     0
277
    -2
287
     1
 67
     0
278
    -2
288
     1
 68
     0
279
    -2
289
     1
 69
     0
  0
VISUALSTYLE
  5
272C
102
{ACAD_XDICTIONARY
360
2789
102
}
102
{ACAD_REACTORS
330
2726
102
}
330
2726
100
AcDbVisualStyle
  2
2dWireframe
 70
     4
 71
     0
 72
     2
 73
     0
 90
        0
 40
-0.6
 41
-30.0
 62
     5
 63
     7
 74
     1
 91
        4
 64
     7
 65
   257
 75
     1
175
     1
 42
1.0
 92
        0
 66
   257
 43
1.0
 76
     1
 77
     6
 78
     2
 67
     7
 79
     5
170
     0
171
     0
290
     0
174
     0
 93
        1
 44
0.0
173
     0
291
     0
 45
0.0
1001
ACAD
1000
AcDbSavedByObjectVersion
1070
     0
  0
VISUALSTYLE
  5
272B
102
{ACAD_XDICTIONARY
360
2787
102
}
102
{ACAD_REACTORS
330
2726
102
}
330
2726
100
AcDbVisualStyle
  2
Basic
 70
     7
 71
     1
 72
     0
 73
     1
 90
        0
 40
-0.6
 41
-30.0
 62
     5
 63
     7
 74
     0
 91
        4
 64
     7
 65
   257
 75
     1
175
     1
 42
1.0
 92
        8
 66
     7
 43
1.0
 76
     1
 77
     6
 78
     2
 67
     7
 79
     5
170
     0
171
     0
290
     0
174
     0
 93
        1
 44
0.0
173
     0
291
     1
 45
0.0
1001
ACAD
1000
AcDbSavedByObjectVersion
1070
     0
  0
VISUALSTYLE
  5
2732
102
{ACAD_XDICTIONARY
360
2795
102
}
102
{ACAD_REACTORS
330
2726
102
}
330
2726
100
AcDbVisualStyle
  2
Brighten
 70
    12
 71
     2
 72
     2
 73
     0
 90
        0
 40
-0.6
 41
-30.0
 62
     5
 63
     7
 74
     1
 91
        4
 64
     7
 65
   257
 75
     1
175
     1
 42
1.0
 92
        8
 66
     7
 43
1.0
 76
     1
 77
     6
 78
     2
 67
     7
 79
     5
170
     0
171
     0
290
     0
174
     0
 93
        1
 44
50.0
173
     0
291
     1
 45
0.0
1001
ACAD
1000
AcDbSavedByObjectVersion
1070
     0
  0
VISUALSTYLE
  5
2736
102
{ACAD_XDICTIONARY
360
279D
102
}
102
{ACAD_REACTORS
330
2726
102
}
330
2726
100
AcDbVisualStyle
  2
ColorChange
 70
    16
 71
     2
 72
     2
 73
     3
 90
        0
 40
-0.6
 41
-30.0
 62
     5
 63
     8
 74
     1
 91
        4
 64
     7
 65
   257
 75
     1
175
     1
 42
1.0
 92
        8
 66
     8
 43
1.0
 76
     1
 77
     6
 78
     2
 67
     7
 79
     5
170
     0
171
     0
290
     0
174
     0
 93
        1
 44
0.0
173
     0
291
     1
 45
0.0
1001
ACAD
1000
AcDbSavedByObjectVersion
1070
     0
  0
VISUALSTYLE
  5
272F
102
{ACAD_XDICTIONARY
360
278F
102
}
102
{ACAD_REACTORS
330
2726
102
}
330
2726
100
AcDbVisualStyle
  2
Conceptual
 70
     9
 71
     3
 72
     2
 73
     0
 90
        0
 40
-0.6
 41
-30.0
 62
     5
 63
     7
 74
     2
 91
        2
 64
     7
 65
   257
 75
     1
175
     1
 42
179.0
 92
        8
 66
     7
 43
1.0
 76
     1
 77
     6
 78
     2
 67
     7
 79
     3
170
     0
171
     0
290
     0
174
     0
 93
        1
 44
0.0
173
     0
291
     0
 45
0.0
1001
ACAD
1000
AcDbSavedByObjectVersion
1070
     0
  0
VISUALSTYLE
  5
2731
102
{ACAD_XDICTIONARY
360
2793
102
}
102
{ACAD_REACTORS
330
2726
102
}
330
2726
100
AcDbVisualStyle
  2
Dim
 70
    11
 71
     2
 72
     2
 73
     0
 90
        0
 40
-0.6
 41
-30.0
 62
     5
 63
     7
 74
     1
 91
        4
 64
     7
 65
   257
 75
     1
175
     1
 42
1.0
 92
        8
 66
     7
 43
1.0
 76
     1
 77
     6
 78
     2
 67
     7
 79
     5
170
     0
171
     0
290
     0
174
     0
 93
        1
 44
-50.0
173
     0
291
     1
 45
0.0
1001
ACAD
1000
AcDbSavedByObjectVersion
1070
     0
  0
VISUALSTYLE
  5
273E
102
{ACAD_XDICTIONARY
360
27AD
102
}
102
{ACAD_REACTORS
330
2726
102
}
330
2726
100
AcDbVisualStyle
  2
EdgeColorOff
 70
    22
 71
     2
 72
     2
 73
     0
 90
        0
 40
-0.6
 41
-30.0
 62
     5
 63
     7
 74
     1
 91
        4
 64
     7
 65
   257
 75
     1
175
     1
 42
1.0
 92
        8
 66
     7
 43
1.0
 76
     1
 77
     6
 78
     2
 67
     7
 79
     5
170
     0
171
     0
290
     0
174
     0
 93
        1
 44
0.0
173
     0
291
     1
 45
0.0
1001
ACAD
1000
AcDbSavedByObjectVersion
1070
     0
  0
VISUALSTYLE
  5
2735
102
{ACAD_XDICTIONARY
360
279B
102
}
102
{ACAD_REACTORS
330
2726
102
}
330
2726
100
AcDbVisualStyle
  2
Facepattern
 70
    15
 71
     2
 72
     2
 73
     0
 90
        0
 40
-0.6
 41
-30.0
 62
     5
 63
     7
 74
     1
 91
        4
 64
     7
 65
   257
 75
     1
175
     1
 42
1.0
 92
        8
 66
     7
 43
1.0
 76
     1
 77
     6
 78
     2
 67
     7
 79
     5
170
     0
171
     0
290
     0
174
     0
 93
        1
 44
0.0
173
     0
291
     1
 45
0.0
1001
ACAD
1000
AcDbSavedByObjectVersion
1070
     0
  0
VISUALSTYLE
  5
2727
102
{ACAD_XDICTIONARY
360
277F
102
}
102
{ACAD_REACTORS
330
2726
102
}
330
2726
100
AcDbVisualStyle
  2
Flat
 70
     0
 71
     2
 72
     1
 73
     1
 90
        2
 40
-0.6
 41
30.0
 62
     5
 63
     7
 74
     0
 91
        0
 64
     7
 65
   257
 75
     1
175
     1
 42
1.0
 92
        8
 66
     7
 43
1.0
 76
     1
 77
     6
 78
     2
 67
     7
 79
     5
170
     0
171
     0
290
     0
174
     0
 93
       13
 44
0.0
173
     0
291
     1
 45
0.0
1001
ACAD
1000
AcDbSavedByObjectVersion
1070
     0
  0
VISUALSTYLE
  5
2728
102
{ACAD_XDICTIONARY
360
2781
102
}
102
{ACAD_REACTORS
330
2726
102
}
330
2726
100
AcDbVisualStyle
  2
FlatWithEdges
 70
     1
 71
     2
 72
     1
 73
     1
 90
        2
 40
-0.6
 41
30.0
 62
     5
 63
     7
 74
     1
 91
        0
 64
     7
 65
   257
 75
     1
175
     1
 42
1.0
 92
        0
 66
   257
 43
1.0
 76
     1
 77
     6
 78
     2
 67
     7
 79
     5
170
     0
171
     0
290
     0
174
     0
 93
       13
 44
0.0
173
     0
291
     1
 45
0.0
1001
ACAD
1000
AcDbSavedByObjectVersion
1070
     0
  0
VISUALSTYLE
  5
2729
102
{ACAD_XDICTIONARY
360
2783
102
}
102
{ACAD_REACTORS
330
2726
102
}
330
2726
100
AcDbVisualStyle
  2
Gouraud
 70
     2
 71
     2
 72
     2
 73
     1
 90
        2
 40
-0.6
 41
30.0
 62
     5
 63
     7
 74
     0
 91
        0
 64
     7
 65
   257
 75
     1
175
     1
 42
1.0
 92
        0
 66
     7
 43
1.0
 76
     1
 77
     6
 78
     2
 67
     7
 79
     5
170
     0
171
     0
290
     0
174
     0
 93
       13
 44
0.0
173
     0
291
     1
 45
0.0
1001
ACAD
1000
AcDbSavedByObjectVersion
1070
     0
  0
VISUALSTYLE
  5
272A
102
{ACAD_XDICTIONARY
360
2785
102
}
102
{ACAD_REACTORS
330
2726
102
}
330
2726
100
AcDbVisualStyle
  2
GouraudWithEdges
 70
     3
 71
     2
 72
     2
 73
     1
 90
        2
 40
-0.6
 41
30.0
 62
     5
 63
     7
 74
     1
 91
        0
 64
     7
 65
   257
 75
     1
175
     1
 42
1.0
 92
        0
 66
   257
 43
1.0
 76
     1
 77
     6
 78
     2
 67
     7
 79
     5
170
     0
171
     0
290
     0
174
     0
 93
       13
 44
0.0
173
     0
291
     1
 45
0.0
1001
ACAD
1000
AcDbSavedByObjectVersion
1070
     0
  0
VISUALSTYLE
  5
272E
102
{ACAD_XDICTIONARY
360
278D
102
}
102
{ACAD_REACTORS
330
2726
102
}
330
2726
100
AcDbVisualStyle
  2
Hidden
 70
     6
 71
     1
 72
     2
 73
     2
 90
        0
 40
-0.6
 41
-30.0
 62
     5
 63
     7
 74
     2
 91
        2
 64
     7
 65
   257
 75
     2
175
     1
 42
40.0
 92
        0
 66
   257
 43
1.0
 76
     1
 77
     6
 78
     2
 67
     7
 79
     3
170
     0
171
     0
290
     0
174
     0
 93
        1
 44
0.0
173
     0
291
     0
 45
0.0
1001
ACAD
1000
AcDbSavedByObjectVersion
1070
     0
  0
VISUALSTYLE
  5
273C
102
{ACAD_XDICTIONARY
360
27A9
102
}
102
{ACAD_REACTORS
330
2726
102
}
330
2726
100
AcDbVisualStyle
  2
JitterOff
 70
    20
 71
     2
 72
     2
 73
     0
 90
        0
 40
-0.6
 41
-30.0
 62
     5
 63
     7
 74
     1
 91
        4
 64
     7
 65
   257
 75
     1
175
     1
 42
1.0
 92
       10
 66
     7
 43
1.0
 76
     1
 77
     6
 78
     2
 67
     7
 79
     5
170
     0
171
     0
290
     0
174
     0
 93
        1
 44
0.0
173
     0
291
     1
 45
0.0
1001
ACAD
1000
AcDbSavedByObjectVersion
1070
     0
  0
VISUALSTYLE
  5
2734
102
{ACAD_XDICTIONARY
360
2799
102
}
102
{ACAD_REACTORS
330
2726
102
}
330
2726
100
AcDbVisualStyle
  2
Linepattern
 70
    14
 71
     2
 72
     2
 73
     0
 90
        0
 40
-0.6
 41
-30.0
 62
     5
 63
     7
 74
     1
 91
        4
 64
     7
 65
   257
 75
     7
175
     7
 42
1.0
 92
        8
 66
     7
 43
1.0
 76
     1
 77
     6
 78
     2
 67
     7
 79
     5
170
     0
171
     0
290
     0
174
     0
 93
        1
 44
0.0
173
     0
291
     1
 45
0.0
1001
ACAD
1000
AcDbSavedByObjectVersion
1070
     0
  0
VISUALSTYLE
  5
273D
102
{ACAD_XDICTIONARY
360
27AB
102
}
102
{ACAD_REACTORS
330
2726
102
}
330
2726
100
AcDbVisualStyle
  2
OverhangOff
 70
    21
 71
     2
 72
     2
 73
     0
 90
        0
 40
-0.6
 41
-30.0
 62
     5
 63
     7
 74
     1
 91
        4
 64
     7
 65
   257
 75
     1
175
     1
 42
1.0
 92
        9
 66
     7
 43
1.0
 76
     1
 77
     6
 78
     2
 67
     7
 79
     5
170
     0
171
     0
290
     0
174
     0
 93
        1
 44
0.0
173
     0
291
     1
 45
0.0
1001
ACAD
1000
AcDbSavedByObjectVersion
1070
     0
  0
VISUALSTYLE
  5
2730
102
{ACAD_XDICTIONARY
360
2791
102
}
102
{ACAD_REACTORS
330
2726
102
}
330
2726
100
AcDbVisualStyle
  2
Realistic
 70
     8
 71
     2
 72
     3
 73
     0
 90
        2
 40
-0.6
 41
30.0
 62
     5
 63
     7
 74
     0
 91
        0
 64
     7
 65
   257
 75
     1
175
     1
 42
1.0
 92
        8
 66
   257
 43
1.0
 76
     1
 77
     6
 78
     2
 67
     7
 79
     3
170
     0
171
     0
290
     0
174
     0
 93
       13
 44
0.0
173
     0
291
     0
 45
0.0
1001
ACAD
1000
AcDbSavedByObjectVersion
1070
     0
  0
VISUALSTYLE
  5
273B
102
{ACAD_XDICTIONARY
360
27A7
102
}
102
{ACAD_REACTORS
330
2726
102
}
330
2726
100
AcDbVisualStyle
  2
Shaded
 70
    27
 71
     2
 72
     2
 73
     1
 90
        2
 40
-0.6
 41
30.0
 62
     5
 63
     7
 74
     0
 91
        4
 64
     7
 65
   257
 75
     1
175
     1
 42
1.0
 92
        8
 66
   257
 43
1.0
 76
     1
 77
     6
 78
     2
 67
     8
 79
     3
170
     0
171
     0
290
     0
174
     0
 93
        5
 44
0.0
173
     0
291
     0
 45
0.0
1001
ACAD
1000
AcDbSavedByObjectVersion
1070
     0
  0
VISUALSTYLE
  5
273A
102
{ACAD_XDICTIONARY
360
27A5
102
}
102
{ACAD_REACTORS
330
2726
102
}
330
2726
100
AcDbVisualStyle
  2
Shaded with edges
 70
    26
 71
     2
 72
     2
 73
     1
 90
        2
 40
-0.6
 41
30.0
 62
     5
 63
     7
 74
     1
 91
       10
 64
     7
 65
   257
 75
     2
175
     1
 42
1.0
 92
        8
 66
   257
 43
1.0
 76
     1
 77
     6
 78
     2
 67
     7
 79
     3
170
     0
171
     0
290
     0
174
     0
 93
        5
 44
0.0
173
     0
291
     0
 45
0.0
1001
ACAD
1000
AcDbSavedByObjectVersion
1070
     0
  0
VISUALSTYLE
  5
2737
102
{ACAD_XDICTIONARY
360
279F
102
}
102
{ACAD_REACTORS
330
2726
102
}
330
2726
100
AcDbVisualStyle
  2
Shades of Gray
 70
    23
 71
     2
 72
     2
 73
     3
 90
        0
 40
-0.6
 41
-30.0
 62
     5
 63
     7
 74
     2
 91
        2
 64
     7
 65
     7
 75
     1
175
     1
 42
40.0
 92
        8
 66
     7
 43
1.0
 76
     1
 77
     6
 78
     2
 67
     7
 79
     3
170
     0
171
     0
290
     0
174
     0
 93
        1
 44
0.0
173
     0
291
     0
 45
0.0
1001
ACAD
1000
AcDbSavedByObjectVersion
1070
     0
  0
VISUALSTYLE
  5
2738
102
{ACAD_XDICTIONARY
360
27A1
102
}
102
{ACAD_REACTORS
330
2726
102
}
330
2726
100
AcDbVisualStyle
  2
Sketchy
 70
    24
 71
     1
 72
     2
 73
     2
 90
        0
 40
-0.6
 41
-30.0
 62
     5
 63
     7
 74
     2
 91
        2
 64
     7
 65
     7
 75
     1
175
     1
 42
40.0
 92
       11
 66
     7
 43
1.0
 76
     1
 77
     6
 78
     2
 67
     7
 79
     6
170
     0
171
     0
290
     0
174
     0
 93
        1
 44
0.0
173
     0
291
     0
 45
0.0
1001
ACAD
1000
AcDbSavedByObjectVersion
1070
     0
  0
VISUALSTYLE
  5
2733
102
{ACAD_XDICTIONARY
360
2797
102
}
102
{ACAD_REACTORS
330
2726
102
}
330
2726
100
AcDbVisualStyle
  2
Thicken
 70
    13
 71
     2
 72
     2
 73
     0
 90
        0
 40
-0.6
 41
-30.0
 62
     5
 63
     7
 74
     1
 91
        4
 64
     7
 65
   257
 75
     1
175
     1
 42
1.0
 92
       12
 66
     7
 43
1.0
 76
     1
 77
     6
 78
     2
 67
     7
 79
     5
170
     0
171
     0
290
     0
174
     0
 93
        1
 44
0.0
173
     0
291
     1
 45
0.0
1001
ACAD
1000
AcDbSavedByObjectVersion
1070
     0
  0
VISUALSTYLE
  5
272D
102
{ACAD_XDICTIONARY
360
278B
102
}
102
{ACAD_REACTORS
330
2726
102
}
330
2726
100
AcDbVisualStyle
  2
Wireframe
 70
     5
 71
     0
 72
     2
 73
     0
 90
        0
 40
-0.6
 41
-30.0
 62
     5
 63
     7
 74
     1
 91
        4
 64
     7
 65
   257
 75
     1
175
     1
 42
1.0
 92
        0
 66
   257
 43
1.0
 76
     1
 77
     6
 78
     2
 67
     7
 79
     3
170
     0
171
     0
290
     0
174
     0
 93
        1
 44
0.0
173
     0
291
     0
 45
0.0
1001
ACAD
1000
AcDbSavedByObjectVersion
1070
     0
  0
VISUALSTYLE
  5
2739
102
{ACAD_XDICTIONARY
360
27A3
102
}
102
{ACAD_REACTORS
330
2726
102
}
330
2726
100
AcDbVisualStyle
  2
X-Ray
 70
    25
 71
     2
 72
     2
 73
     1
 90
        1
 40
0.5
 41
-30.0
 62
     5
 63
     7
 74
     1
 91
        0
 64
     7
 65
   257
 75
     1
175
     1
 42
1.0
 92
        8
 66
     7
 43
1.0
 76
     1
 77
     6
 78
     2
 67
     7
 79
     3
170
     0
171
     0
290
     0
174
     0
 93
       13
 44
0.0
173
     0
291
     0
 45
0.0
1001
ACAD
1000
AcDbSavedByObjectVersion
1070
     0
  0
DICTIONARYVAR
  5
2772
102
{ACAD_REACTORS
330
276D
102
}
330
276D
100
DictionaryVariables
280
     0
  1
1:1
  0
DICTIONARYVAR
  5
276F
102
{ACAD_REACTORS
330
276D
102
}
330
276D
100
DictionaryVariables
280
     0
  1
STANDARD
  0
DICTIONARYVAR
  5
276E
102
{ACAD_REACTORS
330
276D
102
}
330
276D
100
DictionaryVariables
280
     0
  1
STANDARD
  0
DICTIONARYVAR
  5
2770
102
{ACAD_REACTORS
330
276D
102
}
330
276D
100
DictionaryVariables
280
     0
  1
Imperial24
  0
DICTIONARYVAR
  5
2771
102
{ACAD_REACTORS
330
276D
102
}
330
276D
100
DictionaryVariables
280
     0
  1
Imperial24
  0
DICTIONARYVAR
  5
2775
102
{ACAD_REACTORS
330
276D
102
}
330
276D
100
DictionaryVariables
280
     0
  1
1
  0
DICTIONARYVAR
  5
2774
102
{ACAD_REACTORS
330
276D
102
}
330
276D
100
DictionaryVariables
280
     0
  1
0
  0
DICTIONARYVAR
  5
2773
102
{ACAD_REACTORS
330
276D
102
}
330
276D
100
DictionaryVariables
280
     0
  1
127
  0
DICTIONARYVAR
  5
2776
102
{ACAD_REACTORS
330
276D
102
}
330
276D
100
DictionaryVariables
280
     0
  1
2
  0
DICTIONARY
  5
27B3
330
2759
100
AcDbDictionary
280
     1
281
     1
  3
ACAD_XREC_ROUNDTRIP
360
27B4
  0
DICTIONARY
  5
27B5
330
275A
100
AcDbDictionary
280
     1
281
     1
  3
ACAD_XREC_ROUNDTRIP
360
27B6
  0
DICTIONARY
  5
27B7
330
275B
100
AcDbDictionary
280
     1
281
     1
  3
ACAD_XREC_ROUNDTRIP
360
27B8
  0
DICTIONARY
  5
2717
330
2716
100
AcDbDictionary
280
     1
281
     1
  3
ACAD_XREC_ROUNDTRIP
360
277D
  3
BUMPTILE
360
2719
  3
DIFFUSETILE
360
2718
  3
OPACITYTILE
360
271C
  3
REFLECTIONTILE
360
271B
  3
REFRACTIONTILE
360
271D
  3
SPECULARTILE
360
271A
  0
DICTIONARY
  5
270F
330
270E
100
AcDbDictionary
280
     1
281
     1
  3
ACAD_XREC_ROUNDTRIP
360
277C
  3
BUMPTILE
360
2711
  3
DIFFUSETILE
360
2710
  3
OPACITYTILE
360
2714
  3
REFLECTIONTILE
360
2713
  3
REFRACTIONTILE
360
2715
  3
SPECULARTILE
360
2712
  0
DICTIONARY
  5
271F
330
271E
100
AcDbDictionary
280
     1
281
     1
  3
ACAD_XREC_ROUNDTRIP
360
277E
  3
BUMPTILE
360
2721
  3
DIFFUSETILE
360
2720
  3
OPACITYTILE
360
2724
  3
REFLECTIONTILE
360
2723
  3
REFRACTIONTILE
360
2725
  3
SPECULARTILE
360
2722
  0
DICTIONARY
  5
27B1
330
2757
100
AcDbDictionary
280
     1
281
     1
  3
ACAD_XREC_ROUNDTRIP
360
27B2
  0
DICTIONARY
  5
2778
330
2741
100
AcDbDictionary
280
     1
281
     1
  3
ACAD_ROUNDTRIP_2008_TABLESTYLE_CELLSTYLEMAP
360
2779
  3
ACAD_XREC_ROUNDTRIP
360
27AF
  0
DICTIONARY
  5
2789
330
272C
100
AcDbDictionary
280
     1
281
     1
  3
ACAD_XREC_ROUNDTRIP
360
278A
  0
DICTIONARY
  5
2787
330
272B
100
AcDbDictionary
280
     1
281
     1
  3
ACAD_XREC_ROUNDTRIP
360
2788
  0
DICTIONARY
  5
2795
330
2732
100
AcDbDictionary
280
     1
281
     1
  3
ACAD_XREC_ROUNDTRIP
360
2796
  0
DICTIONARY
  5
279D
330
2736
100
AcDbDictionary
280
     1
281
     1
  3
ACAD_XREC_ROUNDTRIP
360
279E
  0
DICTIONARY
  5
278F
330
272F
100
AcDbDictionary
280
     1
281
     1
  3
ACAD_XREC_ROUNDTRIP
360
2790
  0
DICTIONARY
  5
2793
330
2731
100
AcDbDictionary
280
     1
281
     1
  3
ACAD_XREC_ROUNDTRIP
360
2794
  0
DICTIONARY
  5
27AD
330
273E
100
AcDbDictionary
280
     1
281
     1
  3
ACAD_XREC_ROUNDTRIP
360
27AE
  0
DICTIONARY
  5
279B
330
2735
100
AcDbDictionary
280
     1
281
     1
  3
ACAD_XREC_ROUNDTRIP
360
279C
  0
DICTIONARY
  5
277F
330
2727
100
AcDbDictionary
280
     1
281
     1
  3
ACAD_XREC_ROUNDTRIP
360
2780
  0
DICTIONARY
  5
2781
330
2728
100
AcDbDictionary
280
     1
281
     1
  3
ACAD_XREC_ROUNDTRIP
360
2782
  0
DICTIONARY
  5
2783
330
2729
100
AcDbDictionary
280
     1
281
     1
  3
ACAD_XREC_ROUNDTRIP
360
2784
  0
DICTIONARY
  5
2785
330
272A
100
AcDbDictionary
280
     1
281
     1
  3
ACAD_XREC_ROUNDTRIP
360
2786
  0
DICTIONARY
  5
278D
330
272E
100
AcDbDictionary
280
     1
281
     1
  3
ACAD_XREC_ROUNDTRIP
360
278E
  0
DICTIONARY
  5
27A9
330
273C
100
AcDbDictionary
280
     1
281
     1
  3
ACAD_XREC_ROUNDTRIP
360
27AA
  0
DICTIONARY
  5
2799
330
2734
100
AcDbDictionary
280
     1
281
     1
  3
ACAD_XREC_ROUNDTRIP
360
279A
  0
DICTIONARY
  5
27AB
330
273D
100
AcDbDictionary
280
     1
281
     1
  3
ACAD_XREC_ROUNDTRIP
360
27AC
  0
DICTIONARY
  5
2791
330
2730
100
AcDbDictionary
280
     1
281
     1
  3
ACAD_XREC_ROUNDTRIP
360
2792
  0
DICTIONARY
  5
27A7
330
273B
100
AcDbDictionary
280
     1
281
     1
  3
ACAD_XREC_ROUNDTRIP
360
27A8
  0
DICTIONARY
  5
27A5
330
273A
100
AcDbDictionary
280
     1
281
     1
  3
ACAD_XREC_ROUNDTRIP
360
27A6
  0
DICTIONARY
  5
279F
330
2737
100
AcDbDictionary
280
     1
281
     1
  3
ACAD_XREC_ROUNDTRIP
360
27A0
  0
DICTIONARY
  5
27A1
330
2738
100
AcDbDictionary
280
     1
281
     1
  3
ACAD_XREC_ROUNDTRIP
360
27A2
  0
DICTIONARY
  5
2797
330
2733
100
AcDbDictionary
280
     1
281
     1
  3
ACAD_XREC_ROUNDTRIP
360
2798
  0
DICTIONARY
  5
278B
330
272D
100
AcDbDictionary
280
     1
281
     1
  3
ACAD_XREC_ROUNDTRIP
360
278C
  0
DICTIONARY
  5
27A3
330
2739
100
AcDbDictionary
280
     1
281
     1
  3
ACAD_XREC_ROUNDTRIP
360
27A4
  0
XRECORD
  5
27B4
102
{ACAD_REACTORS
330
27B3
102
}
330
27B3
100
AcDbXrecord
280
     1
102
DISPLAYNAME
  1
Imperial24
102
FLAGS
 90
        0
  0
XRECORD
  5
27B6
102
{ACAD_REACTORS
330
27B5
102
}
330
27B5
100
AcDbXrecord
280
     1
102
SHADEPLOT
 70
     0
102
SHADEPLOTRESLEVEL
 70
     2
102
SHADEPLOTCUSTOMDPI
 70
   300
  0
XRECORD
  5
27B8
102
{ACAD_REACTORS
330
27B7
102
}
330
27B7
100
AcDbXrecord
280
     1
102
SHADEPLOT
 70
     0
102
SHADEPLOTRESLEVEL
 70
     2
102
SHADEPLOTCUSTOMDPI
 70
   300
  0
XRECORD
  5
277D
102
{ACAD_REACTORS
330
2717
102
}
330
2717
100
AcDbXrecord
280
     1
102
MATERIAL
148
0.0
149
0.0
149
0.0
 93
        0
 94
      127
282
     0
 72
     0
 77
     0
171
     0
175
     0
179
     0
273
     0
  0
XRECORD
  5
2719
102
{ACAD_REACTORS
330
2717
102
}
330
2717
100
AcDbXrecord
280
     1
270
     1
271
     1
  0
XRECORD
  5
2718
102
{ACAD_REACTORS
330
2717
102
}
330
2717
100
AcDbXrecord
280
     1
270
     1
271
     1
  0
XRECORD
  5
271C
102
{ACAD_REACTORS
330
2717
102
}
330
2717
100
AcDbXrecord
280
     1
270
     1
271
     1
  0
XRECORD
  5
271B
102
{ACAD_REACTORS
330
2717
102
}
330
2717
100
AcDbXrecord
280
     1
270
     1
271
     1
  0
XRECORD
  5
271D
102
{ACAD_REACTORS
330
2717
102
}
330
2717
100
AcDbXrecord
280
     1
270
     1
271
     1
  0
XRECORD
  5
271A
102
{ACAD_REACTORS
330
2717
102
}
330
2717
100
AcDbXrecord
280
     1
270
     1
271
     1
  0
XRECORD
  5
277C
102
{ACAD_REACTORS
330
270F
102
}
330
270F
100
AcDbXrecord
280
     1
102
MATERIAL
148
0.0
149
0.0
149
0.0
 93
        0
 94
      127
282
     0
 72
     0
 77
     0
171
     0
175
     0
179
     0
273
     0
  0
XRECORD
  5
2711
102
{ACAD_REACTORS
330
270F
102
}
330
270F
100
AcDbXrecord
280
     1
270
     1
271
     1
  0
XRECORD
  5
2710
102
{ACAD_REACTORS
330
270F
102
}
330
270F
100
AcDbXrecord
280
     1
270
     1
271
     1
  0
XRECORD
  5
2714
102
{ACAD_REACTORS
330
270F
102
}
330
270F
100
AcDbXrecord
280
     1
270
     1
271
     1
  0
XRECORD
  5
2713
102
{ACAD_REACTORS
330
270F
102
}
330
270F
100
AcDbXrecord
280
     1
270
     1
271
     1
  0
XRECORD
  5
2715
102
{ACAD_REACTORS
330
270F
102
}
330
270F
100
AcDbXrecord
280
     1
270
     1
271
     1
  0
XRECORD
  5
2712
102
{ACAD_REACTORS
330
270F
102
}
330
270F
100
AcDbXrecord
280
     1
270
     1
271
     1
  0
XRECORD
  5
277E
102
{ACAD_REACTORS
330
271F
102
}
330
271F
100
AcDbXrecord
280
     1
102
MATERIAL
148
0.0
149
0.0
149
0.0
 93
        0
 94
      127
282
     0
 72
     0
 77
     0
171
     0
175
     0
179
     0
273
     0
  0
XRECORD
  5
2721
102
{ACAD_REACTORS
330
271F
102
}
330
271F
100
AcDbXrecord
280
     1
270
     1
271
     1
  0
XRECORD
  5
2720
102
{ACAD_REACTORS
330
271F
102
}
330
271F
100
AcDbXrecord
280
     1
270
     1
271
     1
  0
XRECORD
  5
2724
102
{ACAD_REACTORS
330
271F
102
}
330
271F
100
AcDbXrecord
280
     1
270
     1
271
     1
  0
XRECORD
  5
2723
102
{ACAD_REACTORS
330
271F
102
}
330
271F
100
AcDbXrecord
280
     1
270
     1
271
     1
  0
XRECORD
  5
2725
102
{ACAD_REACTORS
330
271F
102
}
330
271F
100
AcDbXrecord
280
     1
270
     1
271
     1
  0
XRECORD
  5
2722
102
{ACAD_REACTORS
330
271F
102
}
330
271F
100
AcDbXrecord
280
     1
270
     1
271
     1
  0
XRECORD
  5
27B2
102
{ACAD_REACTORS
330
27B1
102
}
330
27B1
100
AcDbXrecord
280
     1
102
DISPLAYNAME
  1
Imperial24
102
FLAGS
 90
        0
  0
CELLSTYLEMAP
  5
2779
102
{ACAD_REACTORS
330
2778
102
}
330
2778
100
AcDbCellStyleMap
 90
        3
300
CELLSTYLE
  1
TABLEFORMAT_BEGIN
 90
        5
170
     1
 91
        0
 92
    32768
 62
   257
 93
        1
300
CONTENTFORMAT
  1
CONTENTFORMAT_BEGIN
 90
        0
 91
        0
 92
      512
 93
        0
300

 40
0.0
140
1.0
 94
        5
 62
     0
340
F
144
0.25
309
CONTENTFORMAT_END
171
     0
 94
        0
309
TABLEFORMAT_END
  1
CELLSTYLE_BEGIN
 90
        1
 91
        1
300
_TITLE
309
CELLSTYLE_END
300
CELLSTYLE
  1
TABLEFORMAT_BEGIN
 90
        5
170
     1
 91
        0
 92
        0
 62
   257
 93
        1
300
CONTENTFORMAT
  1
CONTENTFORMAT_BEGIN
 90
        0
 91
        0
 92
      512
 93
        0
300

 40
0.0
140
1.0
 94
        5
 62
     0
340
F
144
0.18
309
CONTENTFORMAT_END
171
     0
 94
        0
309
TABLEFORMAT_END
  1
CELLSTYLE_BEGIN
 90
        2
 91
        1
300
_HEADER
309
CELLSTYLE_END
300
CELLSTYLE
  1
TABLEFORMAT_BEGIN
 90
        5
170
     1
 91
        0
 92
        0
 62
   257
 93
        1
300
CONTENTFORMAT
  1
CONTENTFORMAT_BEGIN
 90
        0
 91
        0
 92
      512
 93
        0
300

 40
0.0
140
1.0
 94
        2
 62
     0
340
F
144
0.18
309
CONTENTFORMAT_END
171
     0
 94
        0
309
TABLEFORMAT_END
  1
CELLSTYLE_BEGIN
 90
        3
 91
        2
300
_DATA
309
CELLSTYLE_END
  0
XRECORD
  5
27AF
102
{ACAD_REACTORS
330
2778
102
}
330
2778
100
AcDbXrecord
280
     1
102
ACAD_ROUNDTRIP_PRE2007_TABLESTYLE
 90
      512
 91
        0
  1

 92
      512
 93
        0
  2

 94
      512
 95
        0
  3

  0
XRECORD
  5
278A
102
{ACAD_REACTORS
330
2789
102
}
330
2789
100
AcDbXrecord
280
     1
102
RTVSPost2010Prop28
280
     1
102
RTVSPost2010PropOp28
 70
     1
102
RTVSPost2010Prop29
280
     1
102
RTVSPost2010PropOp29
 70
     1
102
RTVSPost2010Prop30
280
     0
102
RTVSPost2010PropOp30
 70
     1
102
RTVSPost2010Prop31
280
     0
102
RTVSPost2010PropOp31
 70
     1
102
RTVSPost2010Prop32
280
     0
102
RTVSPost2010PropOp32
 70
     1
102
RTVSPost2010Prop33
280
     0
102
RTVSPost2010PropOp33
 70
     1
102
RTVSPost2010Prop34
280
     0
102
RTVSPost2010PropOp34
 70
     1
102
RTVSPost2010Prop35
280
     0
102
RTVSPost2010PropOp35
 70
     1
102
RTVSPost2010Prop36
280
     0
102
RTVSPost2010PropOp36
 70
     1
102
RTVSPost2010Prop37
 90
       50
102
RTVSPost2010PropOp37
 70
     1
102
RTVSPost2010Prop38
140
0.0
102
RTVSPost2010PropOp38
 70
     1
102
RTVSPost2010Prop39
140
1.0
102
RTVSPost2010PropOp39
 70
     1
102
RTVSPost2010Prop40
 90
        0
102
RTVSPost2010PropOp40
 70
     1
102
RTVSPost2010Prop41ColorIndex
 90
       18
102
RTVSPost2010Prop41ColorRGB
 90
        0
102
RTVSPost2010PropOp41
 70
     1
102
RTVSPost2010Prop42
 90
       50
102
RTVSPost2010PropOp42
 70
     1
102
RTVSPost2010Prop43
 90
        3
102
RTVSPost2010PropOp43
 70
     1
102
RTVSPost2010Prop44ColorIndex
 90
        5
102
RTVSPost2010Prop44ColorRGB
 90
      255
102
RTVSPost2010PropOp44
 70
     1
102
RTVSPost2010Prop45
280
     0
102
RTVSPost2010PropOp45
 70
     1
102
RTVSPost2010Prop46
 90
       50
102
RTVSPost2010PropOp46
 70
     1
102
RTVSPost2010Prop47
 90
       50
102
RTVSPost2010PropOp47
 70
     1
102
RTVSPost2010Prop48
 90
       50
102
RTVSPost2010PropOp48
 70
     1
102
RTVSPost2010Prop49
280
     0
102
RTVSPost2010PropOp49
 70
     1
102
RTVSPost2010Prop50
 90
       50
102
RTVSPost2010PropOp50
 70
     1
102
RTVSPost2010Prop51ColorIndex
 90
      256
102
RTVSPost2010Prop51ColorRGB
 90
-16777216
102
RTVSPost2010PropOp51
 70
     0
102
RTVSPost2010Prop52
140
1.0
102
RTVSPost2010PropOp52
 70
     0
102
RTVSPost2010Prop53
 90
        2
102
RTVSPost2010PropOp53
 70
     1
102
RTVSPost2010Prop54
  1
strokes_ogs.tif
102
RTVSPost2010PropOp54
 70
     1
102
RTVSPost2010Prop55
280
     0
102
RTVSPost2010PropOp55
 70
     1
102
RTVSPost2010Prop56
140
1.0
102
RTVSPost2010PropOp56
 70
     1
102
RTVSPost2010Prop57
140
1.0
102
RTVSPost2010PropOp57
 70
     1
102
RTVSPropertyOp0
 70
     1
102
RTVSPropertyOp1
 70
     1
102
RTVSPropertyOp2
 70
     1
102
RTVSPropertyOp3
 70
     1
102
RTVSPropertyOp4
 70
     1
102
RTVSPropertyOp5
 70
     1
102
RTVSPropertyOp6
 70
     1
102
RTVSPropertyOp7
 70
     1
102
RTVSPropertyOp8
 70
     1
102
RTVSPropertyOp9
 70
     1
102
RTVSPropertyOp10
 70
     1
102
RTVSPropertyOp11
 70
     1
102
RTVSPropertyOp12
 70
     1
102
RTVSPropertyOp13
 70
     1
102
RTVSPropertyOp14
 70
     1
102
RTVSPropertyOp15
 70
     1
102
RTVSPropertyOp16
 70
     1
102
RTVSPropertyOp17
 70
     1
102
RTVSPropertyOp18
 70
     1
102
RTVSPropertyOp19
 70
     1
102
RTVSPropertyOp20
 70
     1
102
RTVSPropertyOp21
 70
     1
102
RTVSPropertyOp22
 70
     1
102
RTVSPropertyOp23
 70
     1
102
RTVSPropertyOp24
 70
     1
102
RTVSPropertyOp25
 70
     1
102
RTVSPropertyOp26
 70
     1
102
RTVSPropertyOp27
 70
     1
102
RTVSPropertyOp28
 70
     1
102
RTVSPropertyOp29
 70
     1
102
RTVSPropertyOp30
 70
     1
102
RTVSPropertyOp31
 70
     1
102
RTVSPropertyOp32
 70
     1
102
RTVSPropertyOp33
 70
     1
102
RTVSPropertyOp34
 70
     1
102
RTVSPropertyOp35
 70
     1
102
RTVSPropertyOp36
 70
     1
102
RTVSPropertyOp37
 70
     1
102
RTVSPropertyOp38
 70
     1
102
RTVSPropertyOp39
 70
     1
102
RTVSPropertyOp40
 70
     1
102
RTVSPropertyOp41
 70
     1
102
RTVSPropertyOp42
 70
     1
102
RTVSPropertyOp43
 70
     1
102
RTVSPropertyOp44
 70
     1
102
RTVSPropertyOp45
 70
     1
102
RTVSPropertyOp46
 70
     1
102
RTVSPropertyOp47
 70
     1
102
RTVSPropertyOp48
 70
     1
102
RTVSPropertyOp49
 70
     1
102
RTVSPropertyOp50
 70
     1
102
RTVSPropertyOp51
 70
     0
102
RTVSPropertyOp52
 70
     0
102
RTVSPropertyOp53
 70
     1
102
RTVSPropertyOp54
 70
     1
102
RTVSPropertyOp55
 70
     1
102
RTVSPropertyOp56
 70
     1
102
RTVSPropertyOp57
 70
     1
102
RTVSPropertyOp58
 70
     1
102
RTVSPropertyOp59
 70
     1
102
RTVSPropertyOp60
 70
     1
102
RTVSPropertyOp61
 70
     1
102
RTVSPropertyOp62
 70
     1
  0
XRECORD
  5
2788
102
{ACAD_REACTORS
330
2787
102
}
330
2787
100
AcDbXrecord
280
     1
102
RTVSPost2010Prop28
280
     0
102
RTVSPost2010PropOp28
 70
     1
102
RTVSPost2010Prop29
280
     1
102
RTVSPost2010PropOp29
 70
     1
102
RTVSPost2010Prop30
280
     1
102
RTVSPost2010PropOp30
 70
     1
102
RTVSPost2010Prop31
280
     0
102
RTVSPost2010PropOp31
 70
     1
102
RTVSPost2010Prop32
280
     0
102
RTVSPost2010PropOp32
 70
     1
102
RTVSPost2010Prop33
280
     0
102
RTVSPost2010PropOp33
 70
     1
102
RTVSPost2010Prop34
280
     0
102
RTVSPost2010PropOp34
 70
     1
102
RTVSPost2010Prop35
280
     0
102
RTVSPost2010PropOp35
 70
     1
102
RTVSPost2010Prop36
280
     0
102
RTVSPost2010PropOp36
 70
     1
102
RTVSPost2010Prop37
 90
       50
102
RTVSPost2010PropOp37
 70
     1
102
RTVSPost2010Prop38
140
0.0
102
RTVSPost2010PropOp38
 70
     1
102
RTVSPost2010Prop39
140
1.0
102
RTVSPost2010PropOp39
 70
     1
102
RTVSPost2010Prop40
 90
        0
102
RTVSPost2010PropOp40
 70
     1
102
RTVSPost2010Prop41ColorIndex
 90
       18
102
RTVSPost2010Prop41ColorRGB
 90
        0
102
RTVSPost2010PropOp41
 70
     1
102
RTVSPost2010Prop42
 90
       50
102
RTVSPost2010PropOp42
 70
     1
102
RTVSPost2010Prop43
 90
        3
102
RTVSPost2010PropOp43
 70
     1
102
RTVSPost2010Prop44ColorIndex
 90
        5
102
RTVSPost2010Prop44ColorRGB
 90
      255
102
RTVSPost2010PropOp44
 70
     1
102
RTVSPost2010Prop45
280
     0
102
RTVSPost2010PropOp45
 70
     1
102
RTVSPost2010Prop46
 90
       50
102
RTVSPost2010PropOp46
 70
     1
102
RTVSPost2010Prop47
 90
       50
102
RTVSPost2010PropOp47
 70
     1
102
RTVSPost2010Prop48
 90
       50
102
RTVSPost2010PropOp48
 70
     1
102
RTVSPost2010Prop49
280
     0
102
RTVSPost2010PropOp49
 70
     1
102
RTVSPost2010Prop50
 90
       50
102
RTVSPost2010PropOp50
 70
     1
102
RTVSPost2010Prop51ColorIndex
 90
      256
102
RTVSPost2010Prop51ColorRGB
 90
-16777216
102
RTVSPost2010PropOp51
 70
     0
102
RTVSPost2010Prop52
140
1.0
102
RTVSPost2010PropOp52
 70
     0
102
RTVSPost2010Prop53
 90
        2
102
RTVSPost2010PropOp53
 70
     1
102
RTVSPost2010Prop54
  1
strokes_ogs.tif
102
RTVSPost2010PropOp54
 70
     1
102
RTVSPost2010Prop55
280
     0
102
RTVSPost2010PropOp55
 70
     1
102
RTVSPost2010Prop56
140
1.0
102
RTVSPost2010PropOp56
 70
     1
102
RTVSPost2010Prop57
140
1.0
102
RTVSPost2010PropOp57
 70
     1
102
RTVSPropertyOp0
 70
     1
102
RTVSPropertyOp1
 70
     1
102
RTVSPropertyOp2
 70
     1
102
RTVSPropertyOp3
 70
     1
102
RTVSPropertyOp4
 70
     1
102
RTVSPropertyOp5
 70
     1
102
RTVSPropertyOp6
 70
     1
102
RTVSPropertyOp7
 70
     1
102
RTVSPropertyOp8
 70
     1
102
RTVSPropertyOp9
 70
     1
102
RTVSPropertyOp10
 70
     1
102
RTVSPropertyOp11
 70
     1
102
RTVSPropertyOp12
 70
     1
102
RTVSPropertyOp13
 70
     1
102
RTVSPropertyOp14
 70
     1
102
RTVSPropertyOp15
 70
     1
102
RTVSPropertyOp16
 70
     1
102
RTVSPropertyOp17
 70
     1
102
RTVSPropertyOp18
 70
     1
102
RTVSPropertyOp19
 70
     1
102
RTVSPropertyOp20
 70
     1
102
RTVSPropertyOp21
 70
     1
102
RTVSPropertyOp22
 70
     1
102
RTVSPropertyOp23
 70
     1
102
RTVSPropertyOp24
 70
     1
102
RTVSPropertyOp25
 70
     1
102
RTVSPropertyOp26
 70
     1
102
RTVSPropertyOp27
 70
     1
102
RTVSPropertyOp28
 70
     1
102
RTVSPropertyOp29
 70
     1
102
RTVSPropertyOp30
 70
     1
102
RTVSPropertyOp31
 70
     1
102
RTVSPropertyOp32
 70
     1
102
RTVSPropertyOp33
 70
     1
102
RTVSPropertyOp34
 70
     1
102
RTVSPropertyOp35
 70
     1
102
RTVSPropertyOp36
 70
     1
102
RTVSPropertyOp37
 70
     1
102
RTVSPropertyOp38
 70
     1
102
RTVSPropertyOp39
 70
     1
102
RTVSPropertyOp40
 70
     1
102
RTVSPropertyOp41
 70
     1
102
RTVSPropertyOp42
 70
     1
102
RTVSPropertyOp43
 70
     1
102
RTVSPropertyOp44
 70
     1
102
RTVSPropertyOp45
 70
     1
102
RTVSPropertyOp46
 70
     1
102
RTVSPropertyOp47
 70
     1
102
RTVSPropertyOp48
 70
     1
102
RTVSPropertyOp49
 70
     1
102
RTVSPropertyOp50
 70
     1
102
RTVSPropertyOp51
 70
     0
102
RTVSPropertyOp52
 70
     0
102
RTVSPropertyOp53
 70
     1
102
RTVSPropertyOp54
 70
     1
102
RTVSPropertyOp55
 70
     1
102
RTVSPropertyOp56
 70
     1
102
RTVSPropertyOp57
 70
     1
102
RTVSPropertyOp58
 70
     1
102
RTVSPropertyOp59
 70
     1
102
RTVSPropertyOp60
 70
     1
102
RTVSPropertyOp61
 70
     1
102
RTVSPropertyOp62
 70
     1
  0
XRECORD
  5
2796
102
{ACAD_REACTORS
330
2795
102
}
330
2795
100
AcDbXrecord
280
     1
102
RTVSPost2010Prop28
280
     0
102
RTVSPost2010PropOp28
 70
     1
102
RTVSPost2010Prop29
280
     1
102
RTVSPost2010PropOp29
 70
     1
102
RTVSPost2010Prop30
280
     1
102
RTVSPost2010PropOp30
 70
     1
102
RTVSPost2010Prop31
280
     0
102
RTVSPost2010PropOp31
 70
     1
102
RTVSPost2010Prop32
280
     0
102
RTVSPost2010PropOp32
 70
     1
102
RTVSPost2010Prop33
280
     0
102
RTVSPost2010PropOp33
 70
     1
102
RTVSPost2010Prop34
280
     0
102
RTVSPost2010PropOp34
 70
     1
102
RTVSPost2010Prop35
280
     0
102
RTVSPost2010PropOp35
 70
     1
102
RTVSPost2010Prop36
280
     0
102
RTVSPost2010PropOp36
 70
     1
102
RTVSPost2010Prop37
 90
       50
102
RTVSPost2010PropOp37
 70
     1
102
RTVSPost2010Prop38
140
0.0
102
RTVSPost2010PropOp38
 70
     1
102
RTVSPost2010Prop39
140
1.0
102
RTVSPost2010PropOp39
 70
     1
102
RTVSPost2010Prop40
 90
        0
102
RTVSPost2010PropOp40
 70
     1
102
RTVSPost2010Prop41ColorIndex
 90
       18
102
RTVSPost2010Prop41ColorRGB
 90
        0
102
RTVSPost2010PropOp41
 70
     1
102
RTVSPost2010Prop42
 90
       50
102
RTVSPost2010PropOp42
 70
     1
102
RTVSPost2010Prop43
 90
        3
102
RTVSPost2010PropOp43
 70
     1
102
RTVSPost2010Prop44ColorIndex
 90
        5
102
RTVSPost2010Prop44ColorRGB
 90
      255
102
RTVSPost2010PropOp44
 70
     1
102
RTVSPost2010Prop45
280
     0
102
RTVSPost2010PropOp45
 70
     1
102
RTVSPost2010Prop46
 90
       50
102
RTVSPost2010PropOp46
 70
     1
102
RTVSPost2010Prop47
 90
       50
102
RTVSPost2010PropOp47
 70
     1
102
RTVSPost2010Prop48
 90
       50
102
RTVSPost2010PropOp48
 70
     1
102
RTVSPost2010Prop49
280
     0
102
RTVSPost2010PropOp49
 70
     1
102
RTVSPost2010Prop50
 90
       50
102
RTVSPost2010PropOp50
 70
     1
102
RTVSPost2010Prop51ColorIndex
 90
      256
102
RTVSPost2010Prop51ColorRGB
 90
-16777216
102
RTVSPost2010PropOp51
 70
     0
102
RTVSPost2010Prop52
140
1.0
102
RTVSPost2010PropOp52
 70
     0
102
RTVSPost2010Prop53
 90
        2
102
RTVSPost2010PropOp53
 70
     1
102
RTVSPost2010Prop54
  1
strokes_ogs.tif
102
RTVSPost2010PropOp54
 70
     1
102
RTVSPost2010Prop55
280
     0
102
RTVSPost2010PropOp55
 70
     1
102
RTVSPost2010Prop56
140
1.0
102
RTVSPost2010PropOp56
 70
     1
102
RTVSPost2010Prop57
140
1.0
102
RTVSPost2010PropOp57
 70
     1
102
RTVSPropertyOp0
 70
     1
102
RTVSPropertyOp1
 70
     1
102
RTVSPropertyOp2
 70
     1
102
RTVSPropertyOp3
 70
     1
102
RTVSPropertyOp4
 70
     1
102
RTVSPropertyOp5
 70
     1
102
RTVSPropertyOp6
 70
     1
102
RTVSPropertyOp7
 70
     1
102
RTVSPropertyOp8
 70
     1
102
RTVSPropertyOp9
 70
     1
102
RTVSPropertyOp10
 70
     1
102
RTVSPropertyOp11
 70
     1
102
RTVSPropertyOp12
 70
     1
102
RTVSPropertyOp13
 70
     1
102
RTVSPropertyOp14
 70
     1
102
RTVSPropertyOp15
 70
     1
102
RTVSPropertyOp16
 70
     1
102
RTVSPropertyOp17
 70
     1
102
RTVSPropertyOp18
 70
     1
102
RTVSPropertyOp19
 70
     1
102
RTVSPropertyOp20
 70
     1
102
RTVSPropertyOp21
 70
     1
102
RTVSPropertyOp22
 70
     1
102
RTVSPropertyOp23
 70
     1
102
RTVSPropertyOp24
 70
     1
102
RTVSPropertyOp25
 70
     1
102
RTVSPropertyOp26
 70
     1
102
RTVSPropertyOp27
 70
     1
102
RTVSPropertyOp28
 70
     1
102
RTVSPropertyOp29
 70
     1
102
RTVSPropertyOp30
 70
     1
102
RTVSPropertyOp31
 70
     1
102
RTVSPropertyOp32
 70
     1
102
RTVSPropertyOp33
 70
     1
102
RTVSPropertyOp34
 70
     1
102
RTVSPropertyOp35
 70
     1
102
RTVSPropertyOp36
 70
     1
102
RTVSPropertyOp37
 70
     1
102
RTVSPropertyOp38
 70
     1
102
RTVSPropertyOp39
 70
     1
102
RTVSPropertyOp40
 70
     1
102
RTVSPropertyOp41
 70
     1
102
RTVSPropertyOp42
 70
     1
102
RTVSPropertyOp43
 70
     1
102
RTVSPropertyOp44
 70
     1
102
RTVSPropertyOp45
 70
     1
102
RTVSPropertyOp46
 70
     1
102
RTVSPropertyOp47
 70
     1
102
RTVSPropertyOp48
 70
     1
102
RTVSPropertyOp49
 70
     1
102
RTVSPropertyOp50
 70
     1
102
RTVSPropertyOp51
 70
     0
102
RTVSPropertyOp52
 70
     0
102
RTVSPropertyOp53
 70
     1
102
RTVSPropertyOp54
 70
     1
102
RTVSPropertyOp55
 70
     1
102
RTVSPropertyOp56
 70
     1
102
RTVSPropertyOp57
 70
     1
102
RTVSPropertyOp58
 70
     1
102
RTVSPropertyOp59
 70
     1
102
RTVSPropertyOp60
 70
     1
102
RTVSPropertyOp61
 70
     1
102
RTVSPropertyOp62
 70
     1
  0
XRECORD
  5
279E
102
{ACAD_REACTORS
330
279D
102
}
330
279D
100
AcDbXrecord
280
     1
102
RTVSPost2010Prop28
280
     0
102
RTVSPost2010PropOp28
 70
     1
102
RTVSPost2010Prop29
280
     1
102
RTVSPost2010PropOp29
 70
     1
102
RTVSPost2010Prop30
280
     1
102
RTVSPost2010PropOp30
 70
     1
102
RTVSPost2010Prop31
280
     0
102
RTVSPost2010PropOp31
 70
     1
102
RTVSPost2010Prop32
280
     0
102
RTVSPost2010PropOp32
 70
     1
102
RTVSPost2010Prop33
280
     0
102
RTVSPost2010PropOp33
 70
     1
102
RTVSPost2010Prop34
280
     0
102
RTVSPost2010PropOp34
 70
     1
102
RTVSPost2010Prop35
280
     0
102
RTVSPost2010PropOp35
 70
     1
102
RTVSPost2010Prop36
280
     0
102
RTVSPost2010PropOp36
 70
     1
102
RTVSPost2010Prop37
 90
       50
102
RTVSPost2010PropOp37
 70
     1
102
RTVSPost2010Prop38
140
0.0
102
RTVSPost2010PropOp38
 70
     1
102
RTVSPost2010Prop39
140
1.0
102
RTVSPost2010PropOp39
 70
     1
102
RTVSPost2010Prop40
 90
        0
102
RTVSPost2010PropOp40
 70
     1
102
RTVSPost2010Prop41ColorIndex
 90
       18
102
RTVSPost2010Prop41ColorRGB
 90
        0
102
RTVSPost2010PropOp41
 70
     1
102
RTVSPost2010Prop42
 90
       50
102
RTVSPost2010PropOp42
 70
     1
102
RTVSPost2010Prop43
 90
        3
102
RTVSPost2010PropOp43
 70
     1
102
RTVSPost2010Prop44ColorIndex
 90
        5
102
RTVSPost2010Prop44ColorRGB
 90
      255
102
RTVSPost2010PropOp44
 70
     1
102
RTVSPost2010Prop45
280
     0
102
RTVSPost2010PropOp45
 70
     1
102
RTVSPost2010Prop46
 90
       50
102
RTVSPost2010PropOp46
 70
     1
102
RTVSPost2010Prop47
 90
       50
102
RTVSPost2010PropOp47
 70
     1
102
RTVSPost2010Prop48
 90
       50
102
RTVSPost2010PropOp48
 70
     1
102
RTVSPost2010Prop49
280
     0
102
RTVSPost2010PropOp49
 70
     1
102
RTVSPost2010Prop50
 90
       50
102
RTVSPost2010PropOp50
 70
     1
102
RTVSPost2010Prop51ColorIndex
 90
      256
102
RTVSPost2010Prop51ColorRGB
 90
-16777216
102
RTVSPost2010PropOp51
 70
     0
102
RTVSPost2010Prop52
140
1.0
102
RTVSPost2010PropOp52
 70
     0
102
RTVSPost2010Prop53
 90
        2
102
RTVSPost2010PropOp53
 70
     1
102
RTVSPost2010Prop54
  1
strokes_ogs.tif
102
RTVSPost2010PropOp54
 70
     1
102
RTVSPost2010Prop55
280
     0
102
RTVSPost2010PropOp55
 70
     1
102
RTVSPost2010Prop56
140
1.0
102
RTVSPost2010PropOp56
 70
     1
102
RTVSPost2010Prop57
140
1.0
102
RTVSPost2010PropOp57
 70
     1
102
RTVSPropertyOp0
 70
     1
102
RTVSPropertyOp1
 70
     1
102
RTVSPropertyOp2
 70
     1
102
RTVSPropertyOp3
 70
     1
102
RTVSPropertyOp4
 70
     1
102
RTVSPropertyOp5
 70
     1
102
RTVSPropertyOp6
 70
     1
102
RTVSPropertyOp7
 70
     1
102
RTVSPropertyOp8
 70
     1
102
RTVSPropertyOp9
 70
     1
102
RTVSPropertyOp10
 70
     1
102
RTVSPropertyOp11
 70
     1
102
RTVSPropertyOp12
 70
     1
102
RTVSPropertyOp13
 70
     1
102
RTVSPropertyOp14
 70
     1
102
RTVSPropertyOp15
 70
     1
102
RTVSPropertyOp16
 70
     1
102
RTVSPropertyOp17
 70
     1
102
RTVSPropertyOp18
 70
     1
102
RTVSPropertyOp19
 70
     1
102
RTVSPropertyOp20
 70
     1
102
RTVSPropertyOp21
 70
     1
102
RTVSPropertyOp22
 70
     1
102
RTVSPropertyOp23
 70
     1
102
RTVSPropertyOp24
 70
     1
102
RTVSPropertyOp25
 70
     1
102
RTVSPropertyOp26
 70
     1
102
RTVSPropertyOp27
 70
     1
102
RTVSPropertyOp28
 70
     1
102
RTVSPropertyOp29
 70
     1
102
RTVSPropertyOp30
 70
     1
102
RTVSPropertyOp31
 70
     1
102
RTVSPropertyOp32
 70
     1
102
RTVSPropertyOp33
 70
     1
102
RTVSPropertyOp34
 70
     1
102
RTVSPropertyOp35
 70
     1
102
RTVSPropertyOp36
 70
     1
102
RTVSPropertyOp37
 70
     1
102
RTVSPropertyOp38
 70
     1
102
RTVSPropertyOp39
 70
     1
102
RTVSPropertyOp40
 70
     1
102
RTVSPropertyOp41
 70
     1
102
RTVSPropertyOp42
 70
     1
102
RTVSPropertyOp43
 70
     1
102
RTVSPropertyOp44
 70
     1
102
RTVSPropertyOp45
 70
     1
102
RTVSPropertyOp46
 70
     1
102
RTVSPropertyOp47
 70
     1
102
RTVSPropertyOp48
 70
     1
102
RTVSPropertyOp49
 70
     1
102
RTVSPropertyOp50
 70
     1
102
RTVSPropertyOp51
 70
     0
102
RTVSPropertyOp52
 70
     0
102
RTVSPropertyOp53
 70
     1
102
RTVSPropertyOp54
 70
     1
102
RTVSPropertyOp55
 70
     1
102
RTVSPropertyOp56
 70
     1
102
RTVSPropertyOp57
 70
     1
102
RTVSPropertyOp58
 70
     1
102
RTVSPropertyOp59
 70
     1
102
RTVSPropertyOp60
 70
     1
102
RTVSPropertyOp61
 70
     1
102
RTVSPropertyOp62
 70
     1
  0
XRECORD
  5
2790
102
{ACAD_REACTORS
330
278F
102
}
330
278F
100
AcDbXrecord
280
     1
102
RTVSPost2010Prop28
280
     0
102
RTVSPost2010PropOp28
 70
     1
102
RTVSPost2010Prop29
280
     1
102
RTVSPost2010PropOp29
 70
     1
102
RTVSPost2010Prop30
280
     1
102
RTVSPost2010PropOp30
 70
     1
102
RTVSPost2010Prop31
280
     0
102
RTVSPost2010PropOp31
 70
     1
102
RTVSPost2010Prop32
280
     0
102
RTVSPost2010PropOp32
 70
     1
102
RTVSPost2010Prop33
280
     0
102
RTVSPost2010PropOp33
 70
     1
102
RTVSPost2010Prop34
280
     0
102
RTVSPost2010PropOp34
 70
     1
102
RTVSPost2010Prop35
280
     0
102
RTVSPost2010PropOp35
 70
     1
102
RTVSPost2010Prop36
280
     0
102
RTVSPost2010PropOp36
 70
     1
102
RTVSPost2010Prop37
 90
       50
102
RTVSPost2010PropOp37
 70
     1
102
RTVSPost2010Prop38
140
0.0
102
RTVSPost2010PropOp38
 70
     1
102
RTVSPost2010Prop39
140
1.0
102
RTVSPost2010PropOp39
 70
     1
102
RTVSPost2010Prop40
 90
        0
102
RTVSPost2010PropOp40
 70
     1
102
RTVSPost2010Prop41ColorIndex
 90
       18
102
RTVSPost2010Prop41ColorRGB
 90
        0
102
RTVSPost2010PropOp41
 70
     1
102
RTVSPost2010Prop42
 90
       50
102
RTVSPost2010PropOp42
 70
     1
102
RTVSPost2010Prop43
 90
        3
102
RTVSPost2010PropOp43
 70
     1
102
RTVSPost2010Prop44ColorIndex
 90
        5
102
RTVSPost2010Prop44ColorRGB
 90
      255
102
RTVSPost2010PropOp44
 70
     1
102
RTVSPost2010Prop45
280
     0
102
RTVSPost2010PropOp45
 70
     1
102
RTVSPost2010Prop46
 90
       50
102
RTVSPost2010PropOp46
 70
     1
102
RTVSPost2010Prop47
 90
       50
102
RTVSPost2010PropOp47
 70
     1
102
RTVSPost2010Prop48
 90
       50
102
RTVSPost2010PropOp48
 70
     1
102
RTVSPost2010Prop49
280
     0
102
RTVSPost2010PropOp49
 70
     1
102
RTVSPost2010Prop50
 90
       50
102
RTVSPost2010PropOp50
 70
     1
102
RTVSPost2010Prop51ColorIndex
 90
      256
102
RTVSPost2010Prop51ColorRGB
 90
-16777216
102
RTVSPost2010PropOp51
 70
     0
102
RTVSPost2010Prop52
140
1.0
102
RTVSPost2010PropOp52
 70
     0
102
RTVSPost2010Prop53
 90
        2
102
RTVSPost2010PropOp53
 70
     1
102
RTVSPost2010Prop54
  1
strokes_ogs.tif
102
RTVSPost2010PropOp54
 70
     1
102
RTVSPost2010Prop55
280
     0
102
RTVSPost2010PropOp55
 70
     1
102
RTVSPost2010Prop56
140
1.0
102
RTVSPost2010PropOp56
 70
     1
102
RTVSPost2010Prop57
140
1.0
102
RTVSPost2010PropOp57
 70
     1
102
RTVSPropertyOp0
 70
     1
102
RTVSPropertyOp1
 70
     1
102
RTVSPropertyOp2
 70
     1
102
RTVSPropertyOp3
 70
     1
102
RTVSPropertyOp4
 70
     1
102
RTVSPropertyOp5
 70
     1
102
RTVSPropertyOp6
 70
     1
102
RTVSPropertyOp7
 70
     1
102
RTVSPropertyOp8
 70
     1
102
RTVSPropertyOp9
 70
     1
102
RTVSPropertyOp10
 70
     1
102
RTVSPropertyOp11
 70
     1
102
RTVSPropertyOp12
 70
     1
102
RTVSPropertyOp13
 70
     1
102
RTVSPropertyOp14
 70
     1
102
RTVSPropertyOp15
 70
     1
102
RTVSPropertyOp16
 70
     1
102
RTVSPropertyOp17
 70
     1
102
RTVSPropertyOp18
 70
     1
102
RTVSPropertyOp19
 70
     1
102
RTVSPropertyOp20
 70
     1
102
RTVSPropertyOp21
 70
     1
102
RTVSPropertyOp22
 70
     1
102
RTVSPropertyOp23
 70
     1
102
RTVSPropertyOp24
 70
     1
102
RTVSPropertyOp25
 70
     1
102
RTVSPropertyOp26
 70
     1
102
RTVSPropertyOp27
 70
     1
102
RTVSPropertyOp28
 70
     1
102
RTVSPropertyOp29
 70
     1
102
RTVSPropertyOp30
 70
     1
102
RTVSPropertyOp31
 70
     1
102
RTVSPropertyOp32
 70
     1
102
RTVSPropertyOp33
 70
     1
102
RTVSPropertyOp34
 70
     1
102
RTVSPropertyOp35
 70
     1
102
RTVSPropertyOp36
 70
     1
102
RTVSPropertyOp37
 70
     1
102
RTVSPropertyOp38
 70
     1
102
RTVSPropertyOp39
 70
     1
102
RTVSPropertyOp40
 70
     1
102
RTVSPropertyOp41
 70
     1
102
RTVSPropertyOp42
 70
     1
102
RTVSPropertyOp43
 70
     1
102
RTVSPropertyOp44
 70
     1
102
RTVSPropertyOp45
 70
     1
102
RTVSPropertyOp46
 70
     1
102
RTVSPropertyOp47
 70
     1
102
RTVSPropertyOp48
 70
     1
102
RTVSPropertyOp49
 70
     1
102
RTVSPropertyOp50
 70
     1
102
RTVSPropertyOp51
 70
     0
102
RTVSPropertyOp52
 70
     0
102
RTVSPropertyOp53
 70
     1
102
RTVSPropertyOp54
 70
     1
102
RTVSPropertyOp55
 70
     1
102
RTVSPropertyOp56
 70
     1
102
RTVSPropertyOp57
 70
     1
102
RTVSPropertyOp58
 70
     1
102
RTVSPropertyOp59
 70
     1
102
RTVSPropertyOp60
 70
     1
102
RTVSPropertyOp61
 70
     1
102
RTVSPropertyOp62
 70
     1
  0
XRECORD
  5
2794
102
{ACAD_REACTORS
330
2793
102
}
330
2793
100
AcDbXrecord
280
     1
102
RTVSPost2010Prop28
280
     0
102
RTVSPost2010PropOp28
 70
     1
102
RTVSPost2010Prop29
280
     1
102
RTVSPost2010PropOp29
 70
     1
102
RTVSPost2010Prop30
280
     1
102
RTVSPost2010PropOp30
 70
     1
102
RTVSPost2010Prop31
280
     0
102
RTVSPost2010PropOp31
 70
     1
102
RTVSPost2010Prop32
280
     0
102
RTVSPost2010PropOp32
 70
     1
102
RTVSPost2010Prop33
280
     0
102
RTVSPost2010PropOp33
 70
     1
102
RTVSPost2010Prop34
280
     0
102
RTVSPost2010PropOp34
 70
     1
102
RTVSPost2010Prop35
280
     0
102
RTVSPost2010PropOp35
 70
     1
102
RTVSPost2010Prop36
280
     0
102
RTVSPost2010PropOp36
 70
     1
102
RTVSPost2010Prop37
 90
       50
102
RTVSPost2010PropOp37
 70
     1
102
RTVSPost2010Prop38
140
0.0
102
RTVSPost2010PropOp38
 70
     1
102
RTVSPost2010Prop39
140
1.0
102
RTVSPost2010PropOp39
 70
     1
102
RTVSPost2010Prop40
 90
        0
102
RTVSPost2010PropOp40
 70
     1
102
RTVSPost2010Prop41ColorIndex
 90
       18
102
RTVSPost2010Prop41ColorRGB
 90
        0
102
RTVSPost2010PropOp41
 70
     1
102
RTVSPost2010Prop42
 90
       50
102
RTVSPost2010PropOp42
 70
     1
102
RTVSPost2010Prop43
 90
        3
102
RTVSPost2010PropOp43
 70
     1
102
RTVSPost2010Prop44ColorIndex
 90
        5
102
RTVSPost2010Prop44ColorRGB
 90
      255
102
RTVSPost2010PropOp44
 70
     1
102
RTVSPost2010Prop45
280
     0
102
RTVSPost2010PropOp45
 70
     1
102
RTVSPost2010Prop46
 90
       50
102
RTVSPost2010PropOp46
 70
     1
102
RTVSPost2010Prop47
 90
       50
102
RTVSPost2010PropOp47
 70
     1
102
RTVSPost2010Prop48
 90
       50
102
RTVSPost2010PropOp48
 70
     1
102
RTVSPost2010Prop49
280
     0
102
RTVSPost2010PropOp49
 70
     1
102
RTVSPost2010Prop50
 90
       50
102
RTVSPost2010PropOp50
 70
     1
102
RTVSPost2010Prop51ColorIndex
 90
      256
102
RTVSPost2010Prop51ColorRGB
 90
-16777216
102
RTVSPost2010PropOp51
 70
     0
102
RTVSPost2010Prop52
140
1.0
102
RTVSPost2010PropOp52
 70
     0
102
RTVSPost2010Prop53
 90
        2
102
RTVSPost2010PropOp53
 70
     1
102
RTVSPost2010Prop54
  1
strokes_ogs.tif
102
RTVSPost2010PropOp54
 70
     1
102
RTVSPost2010Prop55
280
     0
102
RTVSPost2010PropOp55
 70
     1
102
RTVSPost2010Prop56
140
1.0
102
RTVSPost2010PropOp56
 70
     1
102
RTVSPost2010Prop57
140
1.0
102
RTVSPost2010PropOp57
 70
     1
102
RTVSPropertyOp0
 70
     1
102
RTVSPropertyOp1
 70
     1
102
RTVSPropertyOp2
 70
     1
102
RTVSPropertyOp3
 70
     1
102
RTVSPropertyOp4
 70
     1
102
RTVSPropertyOp5
 70
     1
102
RTVSPropertyOp6
 70
     1
102
RTVSPropertyOp7
 70
     1
102
RTVSPropertyOp8
 70
     1
102
RTVSPropertyOp9
 70
     1
102
RTVSPropertyOp10
 70
     1
102
RTVSPropertyOp11
 70
     1
102
RTVSPropertyOp12
 70
     1
102
RTVSPropertyOp13
 70
     1
102
RTVSPropertyOp14
 70
     1
102
RTVSPropertyOp15
 70
     1
102
RTVSPropertyOp16
 70
     1
102
RTVSPropertyOp17
 70
     1
102
RTVSPropertyOp18
 70
     1
102
RTVSPropertyOp19
 70
     1
102
RTVSPropertyOp20
 70
     1
102
RTVSPropertyOp21
 70
     1
102
RTVSPropertyOp22
 70
     1
102
RTVSPropertyOp23
 70
     1
102
RTVSPropertyOp24
 70
     1
102
RTVSPropertyOp25
 70
     1
102
RTVSPropertyOp26
 70
     1
102
RTVSPropertyOp27
 70
     1
102
RTVSPropertyOp28
 70
     1
102
RTVSPropertyOp29
 70
     1
102
RTVSPropertyOp30
 70
     1
102
RTVSPropertyOp31
 70
     1
102
RTVSPropertyOp32
 70
     1
102
RTVSPropertyOp33
 70
     1
102
RTVSPropertyOp34
 70
     1
102
RTVSPropertyOp35
 70
     1
102
RTVSPropertyOp36
 70
     1
102
RTVSPropertyOp37
 70
     1
102
RTVSPropertyOp38
 70
     1
102
RTVSPropertyOp39
 70
     1
102
RTVSPropertyOp40
 70
     1
102
RTVSPropertyOp41
 70
     1
102
RTVSPropertyOp42
 70
     1
102
RTVSPropertyOp43
 70
     1
102
RTVSPropertyOp44
 70
     1
102
RTVSPropertyOp45
 70
     1
102
RTVSPropertyOp46
 70
     1
102
RTVSPropertyOp47
 70
     1
102
RTVSPropertyOp48
 70
     1
102
RTVSPropertyOp49
 70
     1
102
RTVSPropertyOp50
 70
     1
102
RTVSPropertyOp51
 70
     0
102
RTVSPropertyOp52
 70
     0
102
RTVSPropertyOp53
 70
     1
102
RTVSPropertyOp54
 70
     1
102
RTVSPropertyOp55
 70
     1
102
RTVSPropertyOp56
 70
     1
102
RTVSPropertyOp57
 70
     1
102
RTVSPropertyOp58
 70
     1
102
RTVSPropertyOp59
 70
     1
102
RTVSPropertyOp60
 70
     1
102
RTVSPropertyOp61
 70
     1
102
RTVSPropertyOp62
 70
     1
  0
XRECORD
  5
27AE
102
{ACAD_REACTORS
330
27AD
102
}
330
27AD
100
AcDbXrecord
280
     1
102
RTVSPost2010Prop28
280
     0
102
RTVSPost2010PropOp28
 70
     1
102
RTVSPost2010Prop29
280
     1
102
RTVSPost2010PropOp29
 70
     1
102
RTVSPost2010Prop30
280
     1
102
RTVSPost2010PropOp30
 70
     1
102
RTVSPost2010Prop31
280
     0
102
RTVSPost2010PropOp31
 70
     1
102
RTVSPost2010Prop32
280
     0
102
RTVSPost2010PropOp32
 70
     1
102
RTVSPost2010Prop33
280
     0
102
RTVSPost2010PropOp33
 70
     1
102
RTVSPost2010Prop34
280
     0
102
RTVSPost2010PropOp34
 70
     1
102
RTVSPost2010Prop35
280
     0
102
RTVSPost2010PropOp35
 70
     1
102
RTVSPost2010Prop36
280
     0
102
RTVSPost2010PropOp36
 70
     1
102
RTVSPost2010Prop37
 90
       50
102
RTVSPost2010PropOp37
 70
     0
102
RTVSPost2010Prop38
140
0.0
102
RTVSPost2010PropOp38
 70
     0
102
RTVSPost2010Prop39
140
1.0
102
RTVSPost2010PropOp39
 70
     0
102
RTVSPost2010Prop40
 90
        0
102
RTVSPost2010PropOp40
 70
     0
102
RTVSPost2010Prop41ColorIndex
 90
       18
102
RTVSPost2010Prop41ColorRGB
 90
        0
102
RTVSPost2010PropOp41
 70
     0
102
RTVSPost2010Prop42
 90
       50
102
RTVSPost2010PropOp42
 70
     0
102
RTVSPost2010Prop43
 90
        3
102
RTVSPost2010PropOp43
 70
     0
102
RTVSPost2010Prop44ColorIndex
 90
        5
102
RTVSPost2010Prop44ColorRGB
 90
      255
102
RTVSPost2010PropOp44
 70
     0
102
RTVSPost2010Prop45
280
     0
102
RTVSPost2010PropOp45
 70
     1
102
RTVSPost2010Prop46
 90
       50
102
RTVSPost2010PropOp46
 70
     0
102
RTVSPost2010Prop47
 90
       50
102
RTVSPost2010PropOp47
 70
     0
102
RTVSPost2010Prop48
 90
       50
102
RTVSPost2010PropOp48
 70
     0
102
RTVSPost2010Prop49
280
     0
102
RTVSPost2010PropOp49
 70
     1
102
RTVSPost2010Prop50
 90
       50
102
RTVSPost2010PropOp50
 70
     0
102
RTVSPost2010Prop51ColorIndex
 90
      256
102
RTVSPost2010Prop51ColorRGB
 90
-16777216
102
RTVSPost2010PropOp51
 70
     0
102
RTVSPost2010Prop52
140
1.0
102
RTVSPost2010PropOp52
 70
     0
102
RTVSPost2010Prop53
 90
        2
102
RTVSPost2010PropOp53
 70
     0
102
RTVSPost2010Prop54
  1
strokes_ogs.tif
102
RTVSPost2010PropOp54
 70
     0
102
RTVSPost2010Prop55
280
     0
102
RTVSPost2010PropOp55
 70
     1
102
RTVSPost2010Prop56
140
1.0
102
RTVSPost2010PropOp56
 70
     0
102
RTVSPost2010Prop57
140
1.0
102
RTVSPost2010PropOp57
 70
     0
102
RTVSPropertyOp0
 70
     0
102
RTVSPropertyOp1
 70
     0
102
RTVSPropertyOp2
 70
     0
102
RTVSPropertyOp3
 70
     0
102
RTVSPropertyOp4
 70
     0
102
RTVSPropertyOp5
 70
     0
102
RTVSPropertyOp6
 70
     0
102
RTVSPropertyOp7
 70
     0
102
RTVSPropertyOp8
 70
     0
102
RTVSPropertyOp9
 70
     0
102
RTVSPropertyOp10
 70
     0
102
RTVSPropertyOp11
 70
     0
102
RTVSPropertyOp12
 70
     0
102
RTVSPropertyOp13
 70
     0
102
RTVSPropertyOp14
 70
     2
102
RTVSPropertyOp15
 70
     0
102
RTVSPropertyOp16
 70
     0
102
RTVSPropertyOp17
 70
     0
102
RTVSPropertyOp18
 70
     0
102
RTVSPropertyOp19
 70
     0
102
RTVSPropertyOp20
 70
     0
102
RTVSPropertyOp21
 70
     0
102
RTVSPropertyOp22
 70
     0
102
RTVSPropertyOp23
 70
     0
102
RTVSPropertyOp24
 70
     0
102
RTVSPropertyOp25
 70
     0
102
RTVSPropertyOp26
 70
     0
102
RTVSPropertyOp27
 70
     0
102
RTVSPropertyOp28
 70
     1
102
RTVSPropertyOp29
 70
     1
102
RTVSPropertyOp30
 70
     1
102
RTVSPropertyOp31
 70
     1
102
RTVSPropertyOp32
 70
     1
102
RTVSPropertyOp33
 70
     1
102
RTVSPropertyOp34
 70
     1
102
RTVSPropertyOp35
 70
     1
102
RTVSPropertyOp36
 70
     1
102
RTVSPropertyOp37
 70
     0
102
RTVSPropertyOp38
 70
     0
102
RTVSPropertyOp39
 70
     0
102
RTVSPropertyOp40
 70
     0
102
RTVSPropertyOp41
 70
     0
102
RTVSPropertyOp42
 70
     0
102
RTVSPropertyOp43
 70
     0
102
RTVSPropertyOp44
 70
     0
102
RTVSPropertyOp45
 70
     1
102
RTVSPropertyOp46
 70
     0
102
RTVSPropertyOp47
 70
     0
102
RTVSPropertyOp48
 70
     0
102
RTVSPropertyOp49
 70
     1
102
RTVSPropertyOp50
 70
     0
102
RTVSPropertyOp51
 70
     0
102
RTVSPropertyOp52
 70
     0
102
RTVSPropertyOp53
 70
     0
102
RTVSPropertyOp54
 70
     0
102
RTVSPropertyOp55
 70
     1
102
RTVSPropertyOp56
 70
     0
102
RTVSPropertyOp57
 70
     0
102
RTVSPropertyOp58
 70
     0
102
RTVSPropertyOp59
 70
     0
102
RTVSPropertyOp60
 70
     0
102
RTVSPropertyOp61
 70
     0
102
RTVSPropertyOp62
 70
     0
  0
XRECORD
  5
279C
102
{ACAD_REACTORS
330
279B
102
}
330
279B
100
AcDbXrecord
280
     1
102
RTVSPost2010Prop28
280
     0
102
RTVSPost2010PropOp28
 70
     1
102
RTVSPost2010Prop29
280
     1
102
RTVSPost2010PropOp29
 70
     1
102
RTVSPost2010Prop30
280
     1
102
RTVSPost2010PropOp30
 70
     1
102
RTVSPost2010Prop31
280
     0
102
RTVSPost2010PropOp31
 70
     1
102
RTVSPost2010Prop32
280
     0
102
RTVSPost2010PropOp32
 70
     1
102
RTVSPost2010Prop33
280
     0
102
RTVSPost2010PropOp33
 70
     1
102
RTVSPost2010Prop34
280
     0
102
RTVSPost2010PropOp34
 70
     1
102
RTVSPost2010Prop35
280
     0
102
RTVSPost2010PropOp35
 70
     1
102
RTVSPost2010Prop36
280
     0
102
RTVSPost2010PropOp36
 70
     1
102
RTVSPost2010Prop37
 90
       50
102
RTVSPost2010PropOp37
 70
     1
102
RTVSPost2010Prop38
140
0.0
102
RTVSPost2010PropOp38
 70
     1
102
RTVSPost2010Prop39
140
1.0
102
RTVSPost2010PropOp39
 70
     1
102
RTVSPost2010Prop40
 90
        0
102
RTVSPost2010PropOp40
 70
     1
102
RTVSPost2010Prop41ColorIndex
 90
       18
102
RTVSPost2010Prop41ColorRGB
 90
        0
102
RTVSPost2010PropOp41
 70
     1
102
RTVSPost2010Prop42
 90
       50
102
RTVSPost2010PropOp42
 70
     1
102
RTVSPost2010Prop43
 90
        3
102
RTVSPost2010PropOp43
 70
     1
102
RTVSPost2010Prop44ColorIndex
 90
        5
102
RTVSPost2010Prop44ColorRGB
 90
      255
102
RTVSPost2010PropOp44
 70
     1
102
RTVSPost2010Prop45
280
     0
102
RTVSPost2010PropOp45
 70
     1
102
RTVSPost2010Prop46
 90
       50
102
RTVSPost2010PropOp46
 70
     1
102
RTVSPost2010Prop47
 90
       50
102
RTVSPost2010PropOp47
 70
     1
102
RTVSPost2010Prop48
 90
       50
102
RTVSPost2010PropOp48
 70
     1
102
RTVSPost2010Prop49
280
     0
102
RTVSPost2010PropOp49
 70
     1
102
RTVSPost2010Prop50
 90
       50
102
RTVSPost2010PropOp50
 70
     1
102
RTVSPost2010Prop51ColorIndex
 90
      256
102
RTVSPost2010Prop51ColorRGB
 90
-16777216
102
RTVSPost2010PropOp51
 70
     0
102
RTVSPost2010Prop52
140
1.0
102
RTVSPost2010PropOp52
 70
     0
102
RTVSPost2010Prop53
 90
        2
102
RTVSPost2010PropOp53
 70
     1
102
RTVSPost2010Prop54
  1
strokes_ogs.tif
102
RTVSPost2010PropOp54
 70
     1
102
RTVSPost2010Prop55
280
     0
102
RTVSPost2010PropOp55
 70
     1
102
RTVSPost2010Prop56
140
1.0
102
RTVSPost2010PropOp56
 70
     1
102
RTVSPost2010Prop57
140
1.0
102
RTVSPost2010PropOp57
 70
     1
102
RTVSPropertyOp0
 70
     1
102
RTVSPropertyOp1
 70
     1
102
RTVSPropertyOp2
 70
     1
102
RTVSPropertyOp3
 70
     1
102
RTVSPropertyOp4
 70
     1
102
RTVSPropertyOp5
 70
     1
102
RTVSPropertyOp6
 70
     1
102
RTVSPropertyOp7
 70
     1
102
RTVSPropertyOp8
 70
     1
102
RTVSPropertyOp9
 70
     1
102
RTVSPropertyOp10
 70
     1
102
RTVSPropertyOp11
 70
     1
102
RTVSPropertyOp12
 70
     1
102
RTVSPropertyOp13
 70
     1
102
RTVSPropertyOp14
 70
     1
102
RTVSPropertyOp15
 70
     1
102
RTVSPropertyOp16
 70
     1
102
RTVSPropertyOp17
 70
     1
102
RTVSPropertyOp18
 70
     1
102
RTVSPropertyOp19
 70
     1
102
RTVSPropertyOp20
 70
     1
102
RTVSPropertyOp21
 70
     1
102
RTVSPropertyOp22
 70
     1
102
RTVSPropertyOp23
 70
     1
102
RTVSPropertyOp24
 70
     1
102
RTVSPropertyOp25
 70
     1
102
RTVSPropertyOp26
 70
     1
102
RTVSPropertyOp27
 70
     1
102
RTVSPropertyOp28
 70
     1
102
RTVSPropertyOp29
 70
     1
102
RTVSPropertyOp30
 70
     1
102
RTVSPropertyOp31
 70
     1
102
RTVSPropertyOp32
 70
     1
102
RTVSPropertyOp33
 70
     1
102
RTVSPropertyOp34
 70
     1
102
RTVSPropertyOp35
 70
     1
102
RTVSPropertyOp36
 70
     1
102
RTVSPropertyOp37
 70
     1
102
RTVSPropertyOp38
 70
     1
102
RTVSPropertyOp39
 70
     1
102
RTVSPropertyOp40
 70
     1
102
RTVSPropertyOp41
 70
     1
102
RTVSPropertyOp42
 70
     1
102
RTVSPropertyOp43
 70
     1
102
RTVSPropertyOp44
 70
     1
102
RTVSPropertyOp45
 70
     1
102
RTVSPropertyOp46
 70
     1
102
RTVSPropertyOp47
 70
     1
102
RTVSPropertyOp48
 70
     1
102
RTVSPropertyOp49
 70
     1
102
RTVSPropertyOp50
 70
     1
102
RTVSPropertyOp51
 70
     0
102
RTVSPropertyOp52
 70
     0
102
RTVSPropertyOp53
 70
     1
102
RTVSPropertyOp54
 70
     1
102
RTVSPropertyOp55
 70
     1
102
RTVSPropertyOp56
 70
     1
102
RTVSPropertyOp57
 70
     1
102
RTVSPropertyOp58
 70
     1
102
RTVSPropertyOp59
 70
     1
102
RTVSPropertyOp60
 70
     1
102
RTVSPropertyOp61
 70
     1
102
RTVSPropertyOp62
 70
     1
  0
XRECORD
  5
2780
102
{ACAD_REACTORS
330
277F
102
}
330
277F
100
AcDbXrecord
280
     1
102
RTVSPost2010Prop28
280
     0
102
RTVSPost2010PropOp28
 70
     1
102
RTVSPost2010Prop29
280
     1
102
RTVSPost2010PropOp29
 70
     1
102
RTVSPost2010Prop30
280
     1
102
RTVSPost2010PropOp30
 70
     1
102
RTVSPost2010Prop31
280
     0
102
RTVSPost2010PropOp31
 70
     1
102
RTVSPost2010Prop32
280
     0
102
RTVSPost2010PropOp32
 70
     1
102
RTVSPost2010Prop33
280
     0
102
RTVSPost2010PropOp33
 70
     1
102
RTVSPost2010Prop34
280
     0
102
RTVSPost2010PropOp34
 70
     1
102
RTVSPost2010Prop35
280
     0
102
RTVSPost2010PropOp35
 70
     1
102
RTVSPost2010Prop36
280
     0
102
RTVSPost2010PropOp36
 70
     1
102
RTVSPost2010Prop37
 90
       50
102
RTVSPost2010PropOp37
 70
     1
102
RTVSPost2010Prop38
140
0.0
102
RTVSPost2010PropOp38
 70
     1
102
RTVSPost2010Prop39
140
1.0
102
RTVSPost2010PropOp39
 70
     1
102
RTVSPost2010Prop40
 90
        0
102
RTVSPost2010PropOp40
 70
     1
102
RTVSPost2010Prop41ColorIndex
 90
       18
102
RTVSPost2010Prop41ColorRGB
 90
        0
102
RTVSPost2010PropOp41
 70
     1
102
RTVSPost2010Prop42
 90
       50
102
RTVSPost2010PropOp42
 70
     1
102
RTVSPost2010Prop43
 90
        3
102
RTVSPost2010PropOp43
 70
     1
102
RTVSPost2010Prop44ColorIndex
 90
        5
102
RTVSPost2010Prop44ColorRGB
 90
      255
102
RTVSPost2010PropOp44
 70
     1
102
RTVSPost2010Prop45
280
     0
102
RTVSPost2010PropOp45
 70
     1
102
RTVSPost2010Prop46
 90
       50
102
RTVSPost2010PropOp46
 70
     1
102
RTVSPost2010Prop47
 90
       50
102
RTVSPost2010PropOp47
 70
     1
102
RTVSPost2010Prop48
 90
       50
102
RTVSPost2010PropOp48
 70
     1
102
RTVSPost2010Prop49
280
     0
102
RTVSPost2010PropOp49
 70
     1
102
RTVSPost2010Prop50
 90
       50
102
RTVSPost2010PropOp50
 70
     1
102
RTVSPost2010Prop51ColorIndex
 90
      256
102
RTVSPost2010Prop51ColorRGB
 90
-16777216
102
RTVSPost2010PropOp51
 70
     0
102
RTVSPost2010Prop52
140
1.0
102
RTVSPost2010PropOp52
 70
     0
102
RTVSPost2010Prop53
 90
        2
102
RTVSPost2010PropOp53
 70
     1
102
RTVSPost2010Prop54
  1
strokes_ogs.tif
102
RTVSPost2010PropOp54
 70
     1
102
RTVSPost2010Prop55
280
     0
102
RTVSPost2010PropOp55
 70
     1
102
RTVSPost2010Prop56
140
1.0
102
RTVSPost2010PropOp56
 70
     1
102
RTVSPost2010Prop57
140
1.0
102
RTVSPost2010PropOp57
 70
     1
102
RTVSPropertyOp0
 70
     1
102
RTVSPropertyOp1
 70
     1
102
RTVSPropertyOp2
 70
     1
102
RTVSPropertyOp3
 70
     1
102
RTVSPropertyOp4
 70
     1
102
RTVSPropertyOp5
 70
     1
102
RTVSPropertyOp6
 70
     1
102
RTVSPropertyOp7
 70
     1
102
RTVSPropertyOp8
 70
     1
102
RTVSPropertyOp9
 70
     1
102
RTVSPropertyOp10
 70
     1
102
RTVSPropertyOp11
 70
     1
102
RTVSPropertyOp12
 70
     1
102
RTVSPropertyOp13
 70
     1
102
RTVSPropertyOp14
 70
     1
102
RTVSPropertyOp15
 70
     1
102
RTVSPropertyOp16
 70
     1
102
RTVSPropertyOp17
 70
     1
102
RTVSPropertyOp18
 70
     1
102
RTVSPropertyOp19
 70
     1
102
RTVSPropertyOp20
 70
     1
102
RTVSPropertyOp21
 70
     1
102
RTVSPropertyOp22
 70
     1
102
RTVSPropertyOp23
 70
     1
102
RTVSPropertyOp24
 70
     1
102
RTVSPropertyOp25
 70
     1
102
RTVSPropertyOp26
 70
     1
102
RTVSPropertyOp27
 70
     1
102
RTVSPropertyOp28
 70
     1
102
RTVSPropertyOp29
 70
     1
102
RTVSPropertyOp30
 70
     1
102
RTVSPropertyOp31
 70
     1
102
RTVSPropertyOp32
 70
     1
102
RTVSPropertyOp33
 70
     1
102
RTVSPropertyOp34
 70
     1
102
RTVSPropertyOp35
 70
     1
102
RTVSPropertyOp36
 70
     1
102
RTVSPropertyOp37
 70
     1
102
RTVSPropertyOp38
 70
     1
102
RTVSPropertyOp39
 70
     1
102
RTVSPropertyOp40
 70
     1
102
RTVSPropertyOp41
 70
     1
102
RTVSPropertyOp42
 70
     1
102
RTVSPropertyOp43
 70
     1
102
RTVSPropertyOp44
 70
     1
102
RTVSPropertyOp45
 70
     1
102
RTVSPropertyOp46
 70
     1
102
RTVSPropertyOp47
 70
     1
102
RTVSPropertyOp48
 70
     1
102
RTVSPropertyOp49
 70
     1
102
RTVSPropertyOp50
 70
     1
102
RTVSPropertyOp51
 70
     0
102
RTVSPropertyOp52
 70
     0
102
RTVSPropertyOp53
 70
     1
102
RTVSPropertyOp54
 70
     1
102
RTVSPropertyOp55
 70
     1
102
RTVSPropertyOp56
 70
     1
102
RTVSPropertyOp57
 70
     1
102
RTVSPropertyOp58
 70
     1
102
RTVSPropertyOp59
 70
     1
102
RTVSPropertyOp60
 70
     1
102
RTVSPropertyOp61
 70
     1
102
RTVSPropertyOp62
 70
     1
  0
XRECORD
  5
2782
102
{ACAD_REACTORS
330
2781
102
}
330
2781
100
AcDbXrecord
280
     1
102
RTVSPost2010Prop28
280
     0
102
RTVSPost2010PropOp28
 70
     1
102
RTVSPost2010Prop29
280
     1
102
RTVSPost2010PropOp29
 70
     1
102
RTVSPost2010Prop30
280
     1
102
RTVSPost2010PropOp30
 70
     1
102
RTVSPost2010Prop31
280
     0
102
RTVSPost2010PropOp31
 70
     1
102
RTVSPost2010Prop32
280
     0
102
RTVSPost2010PropOp32
 70
     1
102
RTVSPost2010Prop33
280
     0
102
RTVSPost2010PropOp33
 70
     1
102
RTVSPost2010Prop34
280
     0
102
RTVSPost2010PropOp34
 70
     1
102
RTVSPost2010Prop35
280
     0
102
RTVSPost2010PropOp35
 70
     1
102
RTVSPost2010Prop36
280
     0
102
RTVSPost2010PropOp36
 70
     1
102
RTVSPost2010Prop37
 90
       50
102
RTVSPost2010PropOp37
 70
     1
102
RTVSPost2010Prop38
140
0.0
102
RTVSPost2010PropOp38
 70
     1
102
RTVSPost2010Prop39
140
1.0
102
RTVSPost2010PropOp39
 70
     1
102
RTVSPost2010Prop40
 90
        0
102
RTVSPost2010PropOp40
 70
     1
102
RTVSPost2010Prop41ColorIndex
 90
       18
102
RTVSPost2010Prop41ColorRGB
 90
        0
102
RTVSPost2010PropOp41
 70
     1
102
RTVSPost2010Prop42
 90
       50
102
RTVSPost2010PropOp42
 70
     1
102
RTVSPost2010Prop43
 90
        3
102
RTVSPost2010PropOp43
 70
     1
102
RTVSPost2010Prop44ColorIndex
 90
        5
102
RTVSPost2010Prop44ColorRGB
 90
      255
102
RTVSPost2010PropOp44
 70
     1
102
RTVSPost2010Prop45
280
     0
102
RTVSPost2010PropOp45
 70
     1
102
RTVSPost2010Prop46
 90
       50
102
RTVSPost2010PropOp46
 70
     1
102
RTVSPost2010Prop47
 90
       50
102
RTVSPost2010PropOp47
 70
     1
102
RTVSPost2010Prop48
 90
       50
102
RTVSPost2010PropOp48
 70
     1
102
RTVSPost2010Prop49
280
     0
102
RTVSPost2010PropOp49
 70
     1
102
RTVSPost2010Prop50
 90
       50
102
RTVSPost2010PropOp50
 70
     1
102
RTVSPost2010Prop51ColorIndex
 90
      256
102
RTVSPost2010Prop51ColorRGB
 90
-16777216
102
RTVSPost2010PropOp51
 70
     0
102
RTVSPost2010Prop52
140
1.0
102
RTVSPost2010PropOp52
 70
     0
102
RTVSPost2010Prop53
 90
        2
102
RTVSPost2010PropOp53
 70
     1
102
RTVSPost2010Prop54
  1
strokes_ogs.tif
102
RTVSPost2010PropOp54
 70
     1
102
RTVSPost2010Prop55
280
     0
102
RTVSPost2010PropOp55
 70
     1
102
RTVSPost2010Prop56
140
1.0
102
RTVSPost2010PropOp56
 70
     1
102
RTVSPost2010Prop57
140
1.0
102
RTVSPost2010PropOp57
 70
     1
102
RTVSPropertyOp0
 70
     1
102
RTVSPropertyOp1
 70
     1
102
RTVSPropertyOp2
 70
     1
102
RTVSPropertyOp3
 70
     1
102
RTVSPropertyOp4
 70
     1
102
RTVSPropertyOp5
 70
     1
102
RTVSPropertyOp6
 70
     1
102
RTVSPropertyOp7
 70
     1
102
RTVSPropertyOp8
 70
     1
102
RTVSPropertyOp9
 70
     1
102
RTVSPropertyOp10
 70
     1
102
RTVSPropertyOp11
 70
     1
102
RTVSPropertyOp12
 70
     1
102
RTVSPropertyOp13
 70
     1
102
RTVSPropertyOp14
 70
     1
102
RTVSPropertyOp15
 70
     1
102
RTVSPropertyOp16
 70
     1
102
RTVSPropertyOp17
 70
     1
102
RTVSPropertyOp18
 70
     1
102
RTVSPropertyOp19
 70
     1
102
RTVSPropertyOp20
 70
     1
102
RTVSPropertyOp21
 70
     1
102
RTVSPropertyOp22
 70
     1
102
RTVSPropertyOp23
 70
     1
102
RTVSPropertyOp24
 70
     1
102
RTVSPropertyOp25
 70
     1
102
RTVSPropertyOp26
 70
     1
102
RTVSPropertyOp27
 70
     1
102
RTVSPropertyOp28
 70
     1
102
RTVSPropertyOp29
 70
     1
102
RTVSPropertyOp30
 70
     1
102
RTVSPropertyOp31
 70
     1
102
RTVSPropertyOp32
 70
     1
102
RTVSPropertyOp33
 70
     1
102
RTVSPropertyOp34
 70
     1
102
RTVSPropertyOp35
 70
     1
102
RTVSPropertyOp36
 70
     1
102
RTVSPropertyOp37
 70
     1
102
RTVSPropertyOp38
 70
     1
102
RTVSPropertyOp39
 70
     1
102
RTVSPropertyOp40
 70
     1
102
RTVSPropertyOp41
 70
     1
102
RTVSPropertyOp42
 70
     1
102
RTVSPropertyOp43
 70
     1
102
RTVSPropertyOp44
 70
     1
102
RTVSPropertyOp45
 70
     1
102
RTVSPropertyOp46
 70
     1
102
RTVSPropertyOp47
 70
     1
102
RTVSPropertyOp48
 70
     1
102
RTVSPropertyOp49
 70
     1
102
RTVSPropertyOp50
 70
     1
102
RTVSPropertyOp51
 70
     0
102
RTVSPropertyOp52
 70
     0
102
RTVSPropertyOp53
 70
     1
102
RTVSPropertyOp54
 70
     1
102
RTVSPropertyOp55
 70
     1
102
RTVSPropertyOp56
 70
     1
102
RTVSPropertyOp57
 70
     1
102
RTVSPropertyOp58
 70
     1
102
RTVSPropertyOp59
 70
     1
102
RTVSPropertyOp60
 70
     1
102
RTVSPropertyOp61
 70
     1
102
RTVSPropertyOp62
 70
     1
  0
XRECORD
  5
2784
102
{ACAD_REACTORS
330
2783
102
}
330
2783
100
AcDbXrecord
280
     1
102
RTVSPost2010Prop28
280
     0
102
RTVSPost2010PropOp28
 70
     1
102
RTVSPost2010Prop29
280
     1
102
RTVSPost2010PropOp29
 70
     1
102
RTVSPost2010Prop30
280
     1
102
RTVSPost2010PropOp30
 70
     1
102
RTVSPost2010Prop31
280
     0
102
RTVSPost2010PropOp31
 70
     1
102
RTVSPost2010Prop32
280
     0
102
RTVSPost2010PropOp32
 70
     1
102
RTVSPost2010Prop33
280
     0
102
RTVSPost2010PropOp33
 70
     1
102
RTVSPost2010Prop34
280
     0
102
RTVSPost2010PropOp34
 70
     1
102
RTVSPost2010Prop35
280
     0
102
RTVSPost2010PropOp35
 70
     1
102
RTVSPost2010Prop36
280
     0
102
RTVSPost2010PropOp36
 70
     1
102
RTVSPost2010Prop37
 90
       50
102
RTVSPost2010PropOp37
 70
     1
102
RTVSPost2010Prop38
140
0.0
102
RTVSPost2010PropOp38
 70
     1
102
RTVSPost2010Prop39
140
1.0
102
RTVSPost2010PropOp39
 70
     1
102
RTVSPost2010Prop40
 90
        0
102
RTVSPost2010PropOp40
 70
     1
102
RTVSPost2010Prop41ColorIndex
 90
       18
102
RTVSPost2010Prop41ColorRGB
 90
        0
102
RTVSPost2010PropOp41
 70
     1
102
RTVSPost2010Prop42
 90
       50
102
RTVSPost2010PropOp42
 70
     1
102
RTVSPost2010Prop43
 90
        3
102
RTVSPost2010PropOp43
 70
     1
102
RTVSPost2010Prop44ColorIndex
 90
        5
102
RTVSPost2010Prop44ColorRGB
 90
      255
102
RTVSPost2010PropOp44
 70
     1
102
RTVSPost2010Prop45
280
     0
102
RTVSPost2010PropOp45
 70
     1
102
RTVSPost2010Prop46
 90
       50
102
RTVSPost2010PropOp46
 70
     1
102
RTVSPost2010Prop47
 90
       50
102
RTVSPost2010PropOp47
 70
     1
102
RTVSPost2010Prop48
 90
       50
102
RTVSPost2010PropOp48
 70
     1
102
RTVSPost2010Prop49
280
     0
102
RTVSPost2010PropOp49
 70
     1
102
RTVSPost2010Prop50
 90
       50
102
RTVSPost2010PropOp50
 70
     1
102
RTVSPost2010Prop51ColorIndex
 90
      256
102
RTVSPost2010Prop51ColorRGB
 90
-16777216
102
RTVSPost2010PropOp51
 70
     0
102
RTVSPost2010Prop52
140
1.0
102
RTVSPost2010PropOp52
 70
     0
102
RTVSPost2010Prop53
 90
        2
102
RTVSPost2010PropOp53
 70
     1
102
RTVSPost2010Prop54
  1
strokes_ogs.tif
102
RTVSPost2010PropOp54
 70
     1
102
RTVSPost2010Prop55
280
     0
102
RTVSPost2010PropOp55
 70
     1
102
RTVSPost2010Prop56
140
1.0
102
RTVSPost2010PropOp56
 70
     1
102
RTVSPost2010Prop57
140
1.0
102
RTVSPost2010PropOp57
 70
     1
102
RTVSPropertyOp0
 70
     1
102
RTVSPropertyOp1
 70
     1
102
RTVSPropertyOp2
 70
     1
102
RTVSPropertyOp3
 70
     1
102
RTVSPropertyOp4
 70
     1
102
RTVSPropertyOp5
 70
     1
102
RTVSPropertyOp6
 70
     1
102
RTVSPropertyOp7
 70
     1
102
RTVSPropertyOp8
 70
     1
102
RTVSPropertyOp9
 70
     1
102
RTVSPropertyOp10
 70
     1
102
RTVSPropertyOp11
 70
     1
102
RTVSPropertyOp12
 70
     1
102
RTVSPropertyOp13
 70
     1
102
RTVSPropertyOp14
 70
     1
102
RTVSPropertyOp15
 70
     1
102
RTVSPropertyOp16
 70
     1
102
RTVSPropertyOp17
 70
     1
102
RTVSPropertyOp18
 70
     1
102
RTVSPropertyOp19
 70
     1
102
RTVSPropertyOp20
 70
     1
102
RTVSPropertyOp21
 70
     1
102
RTVSPropertyOp22
 70
     1
102
RTVSPropertyOp23
 70
     1
102
RTVSPropertyOp24
 70
     1
102
RTVSPropertyOp25
 70
     1
102
RTVSPropertyOp26
 70
     1
102
RTVSPropertyOp27
 70
     1
102
RTVSPropertyOp28
 70
     1
102
RTVSPropertyOp29
 70
     1
102
RTVSPropertyOp30
 70
     1
102
RTVSPropertyOp31
 70
     1
102
RTVSPropertyOp32
 70
     1
102
RTVSPropertyOp33
 70
     1
102
RTVSPropertyOp34
 70
     1
102
RTVSPropertyOp35
 70
     1
102
RTVSPropertyOp36
 70
     1
102
RTVSPropertyOp37
 70
     1
102
RTVSPropertyOp38
 70
     1
102
RTVSPropertyOp39
 70
     1
102
RTVSPropertyOp40
 70
     1
102
RTVSPropertyOp41
 70
     1
102
RTVSPropertyOp42
 70
     1
102
RTVSPropertyOp43
 70
     1
102
RTVSPropertyOp44
 70
     1
102
RTVSPropertyOp45
 70
     1
102
RTVSPropertyOp46
 70
     1
102
RTVSPropertyOp47
 70
     1
102
RTVSPropertyOp48
 70
     1
102
RTVSPropertyOp49
 70
     1
102
RTVSPropertyOp50
 70
     1
102
RTVSPropertyOp51
 70
     0
102
RTVSPropertyOp52
 70
     0
102
RTVSPropertyOp53
 70
     1
102
RTVSPropertyOp54
 70
     1
102
RTVSPropertyOp55
 70
     1
102
RTVSPropertyOp56
 70
     1
102
RTVSPropertyOp57
 70
     1
102
RTVSPropertyOp58
 70
     1
102
RTVSPropertyOp59
 70
     1
102
RTVSPropertyOp60
 70
     1
102
RTVSPropertyOp61
 70
     1
102
RTVSPropertyOp62
 70
     1
  0
XRECORD
  5
2786
102
{ACAD_REACTORS
330
2785
102
}
330
2785
100
AcDbXrecord
280
     1
102
RTVSPost2010Prop28
280
     0
102
RTVSPost2010PropOp28
 70
     1
102
RTVSPost2010Prop29
280
     1
102
RTVSPost2010PropOp29
 70
     1
102
RTVSPost2010Prop30
280
     1
102
RTVSPost2010PropOp30
 70
     1
102
RTVSPost2010Prop31
280
     0
102
RTVSPost2010PropOp31
 70
     1
102
RTVSPost2010Prop32
280
     0
102
RTVSPost2010PropOp32
 70
     1
102
RTVSPost2010Prop33
280
     0
102
RTVSPost2010PropOp33
 70
     1
102
RTVSPost2010Prop34
280
     0
102
RTVSPost2010PropOp34
 70
     1
102
RTVSPost2010Prop35
280
     0
102
RTVSPost2010PropOp35
 70
     1
102
RTVSPost2010Prop36
280
     0
102
RTVSPost2010PropOp36
 70
     1
102
RTVSPost2010Prop37
 90
       50
102
RTVSPost2010PropOp37
 70
     1
102
RTVSPost2010Prop38
140
0.0
102
RTVSPost2010PropOp38
 70
     1
102
RTVSPost2010Prop39
140
1.0
102
RTVSPost2010PropOp39
 70
     1
102
RTVSPost2010Prop40
 90
        0
102
RTVSPost2010PropOp40
 70
     1
102
RTVSPost2010Prop41ColorIndex
 90
       18
102
RTVSPost2010Prop41ColorRGB
 90
        0
102
RTVSPost2010PropOp41
 70
     1
102
RTVSPost2010Prop42
 90
       50
102
RTVSPost2010PropOp42
 70
     1
102
RTVSPost2010Prop43
 90
        3
102
RTVSPost2010PropOp43
 70
     1
102
RTVSPost2010Prop44ColorIndex
 90
        5
102
RTVSPost2010Prop44ColorRGB
 90
      255
102
RTVSPost2010PropOp44
 70
     1
102
RTVSPost2010Prop45
280
     0
102
RTVSPost2010PropOp45
 70
     1
102
RTVSPost2010Prop46
 90
       50
102
RTVSPost2010PropOp46
 70
     1
102
RTVSPost2010Prop47
 90
       50
102
RTVSPost2010PropOp47
 70
     1
102
RTVSPost2010Prop48
 90
       50
102
RTVSPost2010PropOp48
 70
     1
102
RTVSPost2010Prop49
280
     0
102
RTVSPost2010PropOp49
 70
     1
102
RTVSPost2010Prop50
 90
       50
102
RTVSPost2010PropOp50
 70
     1
102
RTVSPost2010Prop51ColorIndex
 90
      256
102
RTVSPost2010Prop51ColorRGB
 90
-16777216
102
RTVSPost2010PropOp51
 70
     0
102
RTVSPost2010Prop52
140
1.0
102
RTVSPost2010PropOp52
 70
     0
102
RTVSPost2010Prop53
 90
        2
102
RTVSPost2010PropOp53
 70
     1
102
RTVSPost2010Prop54
  1
strokes_ogs.tif
102
RTVSPost2010PropOp54
 70
     1
102
RTVSPost2010Prop55
280
     0
102
RTVSPost2010PropOp55
 70
     1
102
RTVSPost2010Prop56
140
1.0
102
RTVSPost2010PropOp56
 70
     1
102
RTVSPost2010Prop57
140
1.0
102
RTVSPost2010PropOp57
 70
     1
102
RTVSPropertyOp0
 70
     1
102
RTVSPropertyOp1
 70
     1
102
RTVSPropertyOp2
 70
     1
102
RTVSPropertyOp3
 70
     1
102
RTVSPropertyOp4
 70
     1
102
RTVSPropertyOp5
 70
     1
102
RTVSPropertyOp6
 70
     1
102
RTVSPropertyOp7
 70
     1
102
RTVSPropertyOp8
 70
     1
102
RTVSPropertyOp9
 70
     1
102
RTVSPropertyOp10
 70
     1
102
RTVSPropertyOp11
 70
     1
102
RTVSPropertyOp12
 70
     1
102
RTVSPropertyOp13
 70
     1
102
RTVSPropertyOp14
 70
     1
102
RTVSPropertyOp15
 70
     1
102
RTVSPropertyOp16
 70
     1
102
RTVSPropertyOp17
 70
     1
102
RTVSPropertyOp18
 70
     1
102
RTVSPropertyOp19
 70
     1
102
RTVSPropertyOp20
 70
     1
102
RTVSPropertyOp21
 70
     1
102
RTVSPropertyOp22
 70
     1
102
RTVSPropertyOp23
 70
     1
102
RTVSPropertyOp24
 70
     1
102
RTVSPropertyOp25
 70
     1
102
RTVSPropertyOp26
 70
     1
102
RTVSPropertyOp27
 70
     1
102
RTVSPropertyOp28
 70
     1
102
RTVSPropertyOp29
 70
     1
102
RTVSPropertyOp30
 70
     1
102
RTVSPropertyOp31
 70
     1
102
RTVSPropertyOp32
 70
     1
102
RTVSPropertyOp33
 70
     1
102
RTVSPropertyOp34
 70
     1
102
RTVSPropertyOp35
 70
     1
102
RTVSPropertyOp36
 70
     1
102
RTVSPropertyOp37
 70
     1
102
RTVSPropertyOp38
 70
     1
102
RTVSPropertyOp39
 70
     1
102
RTVSPropertyOp40
 70
     1
102
RTVSPropertyOp41
 70
     1
102
RTVSPropertyOp42
 70
     1
102
RTVSPropertyOp43
 70
     1
102
RTVSPropertyOp44
 70
     1
102
RTVSPropertyOp45
 70
     1
102
RTVSPropertyOp46
 70
     1
102
RTVSPropertyOp47
 70
     1
102
RTVSPropertyOp48
 70
     1
102
RTVSPropertyOp49
 70
     1
102
RTVSPropertyOp50
 70
     1
102
RTVSPropertyOp51
 70
     0
102
RTVSPropertyOp52
 70
     0
102
RTVSPropertyOp53
 70
     1
102
RTVSPropertyOp54
 70
     1
102
RTVSPropertyOp55
 70
     1
102
RTVSPropertyOp56
 70
     1
102
RTVSPropertyOp57
 70
     1
102
RTVSPropertyOp58
 70
     1
102
RTVSPropertyOp59
 70
     1
102
RTVSPropertyOp60
 70
     1
102
RTVSPropertyOp61
 70
     1
102
RTVSPropertyOp62
 70
     1
  0
XRECORD
  5
278E
102
{ACAD_REACTORS
330
278D
102
}
330
278D
100
AcDbXrecord
280
     1
102
RTVSPost2010Prop28
280
     0
102
RTVSPost2010PropOp28
 70
     1
102
RTVSPost2010Prop29
280
     1
102
RTVSPost2010PropOp29
 70
     1
102
RTVSPost2010Prop30
280
     1
102
RTVSPost2010PropOp30
 70
     1
102
RTVSPost2010Prop31
280
     0
102
RTVSPost2010PropOp31
 70
     1
102
RTVSPost2010Prop32
280
     0
102
RTVSPost2010PropOp32
 70
     1
102
RTVSPost2010Prop33
280
     0
102
RTVSPost2010PropOp33
 70
     1
102
RTVSPost2010Prop34
280
     0
102
RTVSPost2010PropOp34
 70
     1
102
RTVSPost2010Prop35
280
     0
102
RTVSPost2010PropOp35
 70
     1
102
RTVSPost2010Prop36
280
     0
102
RTVSPost2010PropOp36
 70
     1
102
RTVSPost2010Prop37
 90
       50
102
RTVSPost2010PropOp37
 70
     1
102
RTVSPost2010Prop38
140
0.0
102
RTVSPost2010PropOp38
 70
     1
102
RTVSPost2010Prop39
140
1.0
102
RTVSPost2010PropOp39
 70
     1
102
RTVSPost2010Prop40
 90
        0
102
RTVSPost2010PropOp40
 70
     1
102
RTVSPost2010Prop41ColorIndex
 90
       18
102
RTVSPost2010Prop41ColorRGB
 90
        0
102
RTVSPost2010PropOp41
 70
     1
102
RTVSPost2010Prop42
 90
       50
102
RTVSPost2010PropOp42
 70
     1
102
RTVSPost2010Prop43
 90
        3
102
RTVSPost2010PropOp43
 70
     1
102
RTVSPost2010Prop44ColorIndex
 90
        5
102
RTVSPost2010Prop44ColorRGB
 90
      255
102
RTVSPost2010PropOp44
 70
     1
102
RTVSPost2010Prop45
280
     0
102
RTVSPost2010PropOp45
 70
     1
102
RTVSPost2010Prop46
 90
       50
102
RTVSPost2010PropOp46
 70
     1
102
RTVSPost2010Prop47
 90
       50
102
RTVSPost2010PropOp47
 70
     1
102
RTVSPost2010Prop48
 90
       50
102
RTVSPost2010PropOp48
 70
     1
102
RTVSPost2010Prop49
280
     0
102
RTVSPost2010PropOp49
 70
     1
102
RTVSPost2010Prop50
 90
       50
102
RTVSPost2010PropOp50
 70
     1
102
RTVSPost2010Prop51ColorIndex
 90
      256
102
RTVSPost2010Prop51ColorRGB
 90
-16777216
102
RTVSPost2010PropOp51
 70
     0
102
RTVSPost2010Prop52
140
1.0
102
RTVSPost2010PropOp52
 70
     0
102
RTVSPost2010Prop53
 90
        2
102
RTVSPost2010PropOp53
 70
     1
102
RTVSPost2010Prop54
  1
strokes_ogs.tif
102
RTVSPost2010PropOp54
 70
     1
102
RTVSPost2010Prop55
280
     0
102
RTVSPost2010PropOp55
 70
     1
102
RTVSPost2010Prop56
140
1.0
102
RTVSPost2010PropOp56
 70
     1
102
RTVSPost2010Prop57
140
1.0
102
RTVSPost2010PropOp57
 70
     1
102
RTVSPropertyOp0
 70
     1
102
RTVSPropertyOp1
 70
     1
102
RTVSPropertyOp2
 70
     1
102
RTVSPropertyOp3
 70
     1
102
RTVSPropertyOp4
 70
     1
102
RTVSPropertyOp5
 70
     1
102
RTVSPropertyOp6
 70
     1
102
RTVSPropertyOp7
 70
     1
102
RTVSPropertyOp8
 70
     1
102
RTVSPropertyOp9
 70
     1
102
RTVSPropertyOp10
 70
     1
102
RTVSPropertyOp11
 70
     1
102
RTVSPropertyOp12
 70
     1
102
RTVSPropertyOp13
 70
     1
102
RTVSPropertyOp14
 70
     1
102
RTVSPropertyOp15
 70
     1
102
RTVSPropertyOp16
 70
     1
102
RTVSPropertyOp17
 70
     1
102
RTVSPropertyOp18
 70
     1
102
RTVSPropertyOp19
 70
     1
102
RTVSPropertyOp20
 70
     1
102
RTVSPropertyOp21
 70
     1
102
RTVSPropertyOp22
 70
     1
102
RTVSPropertyOp23
 70
     1
102
RTVSPropertyOp24
 70
     1
102
RTVSPropertyOp25
 70
     1
102
RTVSPropertyOp26
 70
     1
102
RTVSPropertyOp27
 70
     1
102
RTVSPropertyOp28
 70
     1
102
RTVSPropertyOp29
 70
     1
102
RTVSPropertyOp30
 70
     1
102
RTVSPropertyOp31
 70
     1
102
RTVSPropertyOp32
 70
     1
102
RTVSPropertyOp33
 70
     1
102
RTVSPropertyOp34
 70
     1
102
RTVSPropertyOp35
 70
     1
102
RTVSPropertyOp36
 70
     1
102
RTVSPropertyOp37
 70
     1
102
RTVSPropertyOp38
 70
     1
102
RTVSPropertyOp39
 70
     1
102
RTVSPropertyOp40
 70
     1
102
RTVSPropertyOp41
 70
     1
102
RTVSPropertyOp42
 70
     1
102
RTVSPropertyOp43
 70
     1
102
RTVSPropertyOp44
 70
     1
102
RTVSPropertyOp45
 70
     1
102
RTVSPropertyOp46
 70
     1
102
RTVSPropertyOp47
 70
     1
102
RTVSPropertyOp48
 70
     1
102
RTVSPropertyOp49
 70
     1
102
RTVSPropertyOp50
 70
     1
102
RTVSPropertyOp51
 70
     0
102
RTVSPropertyOp52
 70
     0
102
RTVSPropertyOp53
 70
     1
102
RTVSPropertyOp54
 70
     1
102
RTVSPropertyOp55
 70
     1
102
RTVSPropertyOp56
 70
     1
102
RTVSPropertyOp57
 70
     1
102
RTVSPropertyOp58
 70
     1
102
RTVSPropertyOp59
 70
     1
102
RTVSPropertyOp60
 70
     1
102
RTVSPropertyOp61
 70
     1
102
RTVSPropertyOp62
 70
     1
  0
XRECORD
  5
27AA
102
{ACAD_REACTORS
330
27A9
102
}
330
27A9
100
AcDbXrecord
280
     1
102
RTVSPost2010Prop28
280
     0
102
RTVSPost2010PropOp28
 70
     1
102
RTVSPost2010Prop29
280
     1
102
RTVSPost2010PropOp29
 70
     1
102
RTVSPost2010Prop30
280
     1
102
RTVSPost2010PropOp30
 70
     1
102
RTVSPost2010Prop31
280
     0
102
RTVSPost2010PropOp31
 70
     1
102
RTVSPost2010Prop32
280
     0
102
RTVSPost2010PropOp32
 70
     1
102
RTVSPost2010Prop33
280
     0
102
RTVSPost2010PropOp33
 70
     1
102
RTVSPost2010Prop34
280
     0
102
RTVSPost2010PropOp34
 70
     1
102
RTVSPost2010Prop35
280
     0
102
RTVSPost2010PropOp35
 70
     1
102
RTVSPost2010Prop36
280
     0
102
RTVSPost2010PropOp36
 70
     1
102
RTVSPost2010Prop37
 90
       50
102
RTVSPost2010PropOp37
 70
     0
102
RTVSPost2010Prop38
140
0.0
102
RTVSPost2010PropOp38
 70
     0
102
RTVSPost2010Prop39
140
1.0
102
RTVSPost2010PropOp39
 70
     0
102
RTVSPost2010Prop40
 90
        0
102
RTVSPost2010PropOp40
 70
     0
102
RTVSPost2010Prop41ColorIndex
 90
       18
102
RTVSPost2010Prop41ColorRGB
 90
        0
102
RTVSPost2010PropOp41
 70
     0
102
RTVSPost2010Prop42
 90
       50
102
RTVSPost2010PropOp42
 70
     0
102
RTVSPost2010Prop43
 90
        3
102
RTVSPost2010PropOp43
 70
     0
102
RTVSPost2010Prop44ColorIndex
 90
        5
102
RTVSPost2010Prop44ColorRGB
 90
      255
102
RTVSPost2010PropOp44
 70
     0
102
RTVSPost2010Prop45
280
     0
102
RTVSPost2010PropOp45
 70
     1
102
RTVSPost2010Prop46
 90
       50
102
RTVSPost2010PropOp46
 70
     0
102
RTVSPost2010Prop47
 90
       50
102
RTVSPost2010PropOp47
 70
     0
102
RTVSPost2010Prop48
 90
       50
102
RTVSPost2010PropOp48
 70
     0
102
RTVSPost2010Prop49
280
     0
102
RTVSPost2010PropOp49
 70
     1
102
RTVSPost2010Prop50
 90
       50
102
RTVSPost2010PropOp50
 70
     0
102
RTVSPost2010Prop51ColorIndex
 90
      256
102
RTVSPost2010Prop51ColorRGB
 90
-16777216
102
RTVSPost2010PropOp51
 70
     0
102
RTVSPost2010Prop52
140
1.0
102
RTVSPost2010PropOp52
 70
     0
102
RTVSPost2010Prop53
 90
        2
102
RTVSPost2010PropOp53
 70
     0
102
RTVSPost2010Prop54
  1
strokes_ogs.tif
102
RTVSPost2010PropOp54
 70
     0
102
RTVSPost2010Prop55
280
     0
102
RTVSPost2010PropOp55
 70
     1
102
RTVSPost2010Prop56
140
1.0
102
RTVSPost2010PropOp56
 70
     0
102
RTVSPost2010Prop57
140
1.0
102
RTVSPost2010PropOp57
 70
     0
102
RTVSPropertyOp0
 70
     0
102
RTVSPropertyOp1
 70
     0
102
RTVSPropertyOp2
 70
     0
102
RTVSPropertyOp3
 70
     0
102
RTVSPropertyOp4
 70
     0
102
RTVSPropertyOp5
 70
     0
102
RTVSPropertyOp6
 70
     0
102
RTVSPropertyOp7
 70
     0
102
RTVSPropertyOp8
 70
     0
102
RTVSPropertyOp9
 70
     0
102
RTVSPropertyOp10
 70
     0
102
RTVSPropertyOp11
 70
     0
102
RTVSPropertyOp12
 70
     0
102
RTVSPropertyOp13
 70
     0
102
RTVSPropertyOp14
 70
     2
102
RTVSPropertyOp15
 70
     0
102
RTVSPropertyOp16
 70
     0
102
RTVSPropertyOp17
 70
     0
102
RTVSPropertyOp18
 70
     0
102
RTVSPropertyOp19
 70
     0
102
RTVSPropertyOp20
 70
     0
102
RTVSPropertyOp21
 70
     0
102
RTVSPropertyOp22
 70
     0
102
RTVSPropertyOp23
 70
     0
102
RTVSPropertyOp24
 70
     0
102
RTVSPropertyOp25
 70
     0
102
RTVSPropertyOp26
 70
     0
102
RTVSPropertyOp27
 70
     0
102
RTVSPropertyOp28
 70
     1
102
RTVSPropertyOp29
 70
     1
102
RTVSPropertyOp30
 70
     1
102
RTVSPropertyOp31
 70
     1
102
RTVSPropertyOp32
 70
     1
102
RTVSPropertyOp33
 70
     1
102
RTVSPropertyOp34
 70
     1
102
RTVSPropertyOp35
 70
     1
102
RTVSPropertyOp36
 70
     1
102
RTVSPropertyOp37
 70
     0
102
RTVSPropertyOp38
 70
     0
102
RTVSPropertyOp39
 70
     0
102
RTVSPropertyOp40
 70
     0
102
RTVSPropertyOp41
 70
     0
102
RTVSPropertyOp42
 70
     0
102
RTVSPropertyOp43
 70
     0
102
RTVSPropertyOp44
 70
     0
102
RTVSPropertyOp45
 70
     1
102
RTVSPropertyOp46
 70
     0
102
RTVSPropertyOp47
 70
     0
102
RTVSPropertyOp48
 70
     0
102
RTVSPropertyOp49
 70
     1
102
RTVSPropertyOp50
 70
     0
102
RTVSPropertyOp51
 70
     0
102
RTVSPropertyOp52
 70
     0
102
RTVSPropertyOp53
 70
     0
102
RTVSPropertyOp54
 70
     0
102
RTVSPropertyOp55
 70
     1
102
RTVSPropertyOp56
 70
     0
102
RTVSPropertyOp57
 70
     0
102
RTVSPropertyOp58
 70
     0
102
RTVSPropertyOp59
 70
     0
102
RTVSPropertyOp60
 70
     0
102
RTVSPropertyOp61
 70
     0
102
RTVSPropertyOp62
 70
     0
  0
XRECORD
  5
279A
102
{ACAD_REACTORS
330
2799
102
}
330
2799
100
AcDbXrecord
280
     1
102
RTVSPost2010Prop28
280
     0
102
RTVSPost2010PropOp28
 70
     1
102
RTVSPost2010Prop29
280
     1
102
RTVSPost2010PropOp29
 70
     1
102
RTVSPost2010Prop30
280
     1
102
RTVSPost2010PropOp30
 70
     1
102
RTVSPost2010Prop31
280
     0
102
RTVSPost2010PropOp31
 70
     1
102
RTVSPost2010Prop32
280
     0
102
RTVSPost2010PropOp32
 70
     1
102
RTVSPost2010Prop33
280
     0
102
RTVSPost2010PropOp33
 70
     1
102
RTVSPost2010Prop34
280
     0
102
RTVSPost2010PropOp34
 70
     1
102
RTVSPost2010Prop35
280
     0
102
RTVSPost2010PropOp35
 70
     1
102
RTVSPost2010Prop36
280
     0
102
RTVSPost2010PropOp36
 70
     1
102
RTVSPost2010Prop37
 90
       50
102
RTVSPost2010PropOp37
 70
     1
102
RTVSPost2010Prop38
140
0.0
102
RTVSPost2010PropOp38
 70
     1
102
RTVSPost2010Prop39
140
1.0
102
RTVSPost2010PropOp39
 70
     1
102
RTVSPost2010Prop40
 90
        0
102
RTVSPost2010PropOp40
 70
     1
102
RTVSPost2010Prop41ColorIndex
 90
       18
102
RTVSPost2010Prop41ColorRGB
 90
        0
102
RTVSPost2010PropOp41
 70
     1
102
RTVSPost2010Prop42
 90
       50
102
RTVSPost2010PropOp42
 70
     1
102
RTVSPost2010Prop43
 90
        3
102
RTVSPost2010PropOp43
 70
     1
102
RTVSPost2010Prop44ColorIndex
 90
        5
102
RTVSPost2010Prop44ColorRGB
 90
      255
102
RTVSPost2010PropOp44
 70
     1
102
RTVSPost2010Prop45
280
     0
102
RTVSPost2010PropOp45
 70
     1
102
RTVSPost2010Prop46
 90
       50
102
RTVSPost2010PropOp46
 70
     1
102
RTVSPost2010Prop47
 90
       50
102
RTVSPost2010PropOp47
 70
     1
102
RTVSPost2010Prop48
 90
       50
102
RTVSPost2010PropOp48
 70
     1
102
RTVSPost2010Prop49
280
     0
102
RTVSPost2010PropOp49
 70
     1
102
RTVSPost2010Prop50
 90
       50
102
RTVSPost2010PropOp50
 70
     1
102
RTVSPost2010Prop51ColorIndex
 90
      256
102
RTVSPost2010Prop51ColorRGB
 90
-16777216
102
RTVSPost2010PropOp51
 70
     0
102
RTVSPost2010Prop52
140
1.0
102
RTVSPost2010PropOp52
 70
     0
102
RTVSPost2010Prop53
 90
        2
102
RTVSPost2010PropOp53
 70
     1
102
RTVSPost2010Prop54
  1
strokes_ogs.tif
102
RTVSPost2010PropOp54
 70
     1
102
RTVSPost2010Prop55
280
     0
102
RTVSPost2010PropOp55
 70
     1
102
RTVSPost2010Prop56
140
1.0
102
RTVSPost2010PropOp56
 70
     1
102
RTVSPost2010Prop57
140
1.0
102
RTVSPost2010PropOp57
 70
     1
102
RTVSPropertyOp0
 70
     1
102
RTVSPropertyOp1
 70
     1
102
RTVSPropertyOp2
 70
     1
102
RTVSPropertyOp3
 70
     1
102
RTVSPropertyOp4
 70
     1
102
RTVSPropertyOp5
 70
     1
102
RTVSPropertyOp6
 70
     1
102
RTVSPropertyOp7
 70
     1
102
RTVSPropertyOp8
 70
     1
102
RTVSPropertyOp9
 70
     1
102
RTVSPropertyOp10
 70
     1
102
RTVSPropertyOp11
 70
     1
102
RTVSPropertyOp12
 70
     1
102
RTVSPropertyOp13
 70
     1
102
RTVSPropertyOp14
 70
     1
102
RTVSPropertyOp15
 70
     1
102
RTVSPropertyOp16
 70
     1
102
RTVSPropertyOp17
 70
     1
102
RTVSPropertyOp18
 70
     1
102
RTVSPropertyOp19
 70
     1
102
RTVSPropertyOp20
 70
     1
102
RTVSPropertyOp21
 70
     1
102
RTVSPropertyOp22
 70
     1
102
RTVSPropertyOp23
 70
     1
102
RTVSPropertyOp24
 70
     1
102
RTVSPropertyOp25
 70
     1
102
RTVSPropertyOp26
 70
     1
102
RTVSPropertyOp27
 70
     1
102
RTVSPropertyOp28
 70
     1
102
RTVSPropertyOp29
 70
     1
102
RTVSPropertyOp30
 70
     1
102
RTVSPropertyOp31
 70
     1
102
RTVSPropertyOp32
 70
     1
102
RTVSPropertyOp33
 70
     1
102
RTVSPropertyOp34
 70
     1
102
RTVSPropertyOp35
 70
     1
102
RTVSPropertyOp36
 70
     1
102
RTVSPropertyOp37
 70
     1
102
RTVSPropertyOp38
 70
     1
102
RTVSPropertyOp39
 70
     1
102
RTVSPropertyOp40
 70
     1
102
RTVSPropertyOp41
 70
     1
102
RTVSPropertyOp42
 70
     1
102
RTVSPropertyOp43
 70
     1
102
RTVSPropertyOp44
 70
     1
102
RTVSPropertyOp45
 70
     1
102
RTVSPropertyOp46
 70
     1
102
RTVSPropertyOp47
 70
     1
102
RTVSPropertyOp48
 70
     1
102
RTVSPropertyOp49
 70
     1
102
RTVSPropertyOp50
 70
     1
102
RTVSPropertyOp51
 70
     0
102
RTVSPropertyOp52
 70
     0
102
RTVSPropertyOp53
 70
     1
102
RTVSPropertyOp54
 70
     1
102
RTVSPropertyOp55
 70
     1
102
RTVSPropertyOp56
 70
     1
102
RTVSPropertyOp57
 70
     1
102
RTVSPropertyOp58
 70
     1
102
RTVSPropertyOp59
 70
     1
102
RTVSPropertyOp60
 70
     1
102
RTVSPropertyOp61
 70
     1
102
RTVSPropertyOp62
 70
     1
  0
XRECORD
  5
27AC
102
{ACAD_REACTORS
330
27AB
102
}
330
27AB
100
AcDbXrecord
280
     1
102
RTVSPost2010Prop28
280
     0
102
RTVSPost2010PropOp28
 70
     1
102
RTVSPost2010Prop29
280
     1
102
RTVSPost2010PropOp29
 70
     1
102
RTVSPost2010Prop30
280
     1
102
RTVSPost2010PropOp30
 70
     1
102
RTVSPost2010Prop31
280
     0
102
RTVSPost2010PropOp31
 70
     1
102
RTVSPost2010Prop32
280
     0
102
RTVSPost2010PropOp32
 70
     1
102
RTVSPost2010Prop33
280
     0
102
RTVSPost2010PropOp33
 70
     1
102
RTVSPost2010Prop34
280
     0
102
RTVSPost2010PropOp34
 70
     1
102
RTVSPost2010Prop35
280
     0
102
RTVSPost2010PropOp35
 70
     1
102
RTVSPost2010Prop36
280
     0
102
RTVSPost2010PropOp36
 70
     1
102
RTVSPost2010Prop37
 90
       50
102
RTVSPost2010PropOp37
 70
     0
102
RTVSPost2010Prop38
140
0.0
102
RTVSPost2010PropOp38
 70
     0
102
RTVSPost2010Prop39
140
1.0
102
RTVSPost2010PropOp39
 70
     0
102
RTVSPost2010Prop40
 90
        0
102
RTVSPost2010PropOp40
 70
     0
102
RTVSPost2010Prop41ColorIndex
 90
       18
102
RTVSPost2010Prop41ColorRGB
 90
        0
102
RTVSPost2010PropOp41
 70
     0
102
RTVSPost2010Prop42
 90
       50
102
RTVSPost2010PropOp42
 70
     0
102
RTVSPost2010Prop43
 90
        3
102
RTVSPost2010PropOp43
 70
     0
102
RTVSPost2010Prop44ColorIndex
 90
        5
102
RTVSPost2010Prop44ColorRGB
 90
      255
102
RTVSPost2010PropOp44
 70
     0
102
RTVSPost2010Prop45
280
     0
102
RTVSPost2010PropOp45
 70
     1
102
RTVSPost2010Prop46
 90
       50
102
RTVSPost2010PropOp46
 70
     0
102
RTVSPost2010Prop47
 90
       50
102
RTVSPost2010PropOp47
 70
     0
102
RTVSPost2010Prop48
 90
       50
102
RTVSPost2010PropOp48
 70
     0
102
RTVSPost2010Prop49
280
     0
102
RTVSPost2010PropOp49
 70
     1
102
RTVSPost2010Prop50
 90
       50
102
RTVSPost2010PropOp50
 70
     0
102
RTVSPost2010Prop51ColorIndex
 90
      256
102
RTVSPost2010Prop51ColorRGB
 90
-16777216
102
RTVSPost2010PropOp51
 70
     0
102
RTVSPost2010Prop52
140
1.0
102
RTVSPost2010PropOp52
 70
     0
102
RTVSPost2010Prop53
 90
        2
102
RTVSPost2010PropOp53
 70
     0
102
RTVSPost2010Prop54
  1
strokes_ogs.tif
102
RTVSPost2010PropOp54
 70
     0
102
RTVSPost2010Prop55
280
     0
102
RTVSPost2010PropOp55
 70
     1
102
RTVSPost2010Prop56
140
1.0
102
RTVSPost2010PropOp56
 70
     0
102
RTVSPost2010Prop57
140
1.0
102
RTVSPost2010PropOp57
 70
     0
102
RTVSPropertyOp0
 70
     0
102
RTVSPropertyOp1
 70
     0
102
RTVSPropertyOp2
 70
     0
102
RTVSPropertyOp3
 70
     0
102
RTVSPropertyOp4
 70
     0
102
RTVSPropertyOp5
 70
     0
102
RTVSPropertyOp6
 70
     0
102
RTVSPropertyOp7
 70
     0
102
RTVSPropertyOp8
 70
     0
102
RTVSPropertyOp9
 70
     0
102
RTVSPropertyOp10
 70
     0
102
RTVSPropertyOp11
 70
     0
102
RTVSPropertyOp12
 70
     0
102
RTVSPropertyOp13
 70
     0
102
RTVSPropertyOp14
 70
     2
102
RTVSPropertyOp15
 70
     0
102
RTVSPropertyOp16
 70
     0
102
RTVSPropertyOp17
 70
     0
102
RTVSPropertyOp18
 70
     0
102
RTVSPropertyOp19
 70
     0
102
RTVSPropertyOp20
 70
     0
102
RTVSPropertyOp21
 70
     0
102
RTVSPropertyOp22
 70
     0
102
RTVSPropertyOp23
 70
     0
102
RTVSPropertyOp24
 70
     0
102
RTVSPropertyOp25
 70
     0
102
RTVSPropertyOp26
 70
     0
102
RTVSPropertyOp27
 70
     0
102
RTVSPropertyOp28
 70
     1
102
RTVSPropertyOp29
 70
     1
102
RTVSPropertyOp30
 70
     1
102
RTVSPropertyOp31
 70
     1
102
RTVSPropertyOp32
 70
     1
102
RTVSPropertyOp33
 70
     1
102
RTVSPropertyOp34
 70
     1
102
RTVSPropertyOp35
 70
     1
102
RTVSPropertyOp36
 70
     1
102
RTVSPropertyOp37
 70
     0
102
RTVSPropertyOp38
 70
     0
102
RTVSPropertyOp39
 70
     0
102
RTVSPropertyOp40
 70
     0
102
RTVSPropertyOp41
 70
     0
102
RTVSPropertyOp42
 70
     0
102
RTVSPropertyOp43
 70
     0
102
RTVSPropertyOp44
 70
     0
102
RTVSPropertyOp45
 70
     1
102
RTVSPropertyOp46
 70
     0
102
RTVSPropertyOp47
 70
     0
102
RTVSPropertyOp48
 70
     0
102
RTVSPropertyOp49
 70
     1
102
RTVSPropertyOp50
 70
     0
102
RTVSPropertyOp51
 70
     0
102
RTVSPropertyOp52
 70
     0
102
RTVSPropertyOp53
 70
     0
102
RTVSPropertyOp54
 70
     0
102
RTVSPropertyOp55
 70
     1
102
RTVSPropertyOp56
 70
     0
102
RTVSPropertyOp57
 70
     0
102
RTVSPropertyOp58
 70
     0
102
RTVSPropertyOp59
 70
     0
102
RTVSPropertyOp60
 70
     0
102
RTVSPropertyOp61
 70
     0
102
RTVSPropertyOp62
 70
     0
  0
XRECORD
  5
2792
102
{ACAD_REACTORS
330
2791
102
}
330
2791
100
AcDbXrecord
280
     1
102
RTVSPost2010Prop28
280
     0
102
RTVSPost2010PropOp28
 70
     1
102
RTVSPost2010Prop29
280
     1
102
RTVSPost2010PropOp29
 70
     1
102
RTVSPost2010Prop30
280
     1
102
RTVSPost2010PropOp30
 70
     1
102
RTVSPost2010Prop31
280
     0
102
RTVSPost2010PropOp31
 70
     1
102
RTVSPost2010Prop32
280
     0
102
RTVSPost2010PropOp32
 70
     1
102
RTVSPost2010Prop33
280
     0
102
RTVSPost2010PropOp33
 70
     1
102
RTVSPost2010Prop34
280
     0
102
RTVSPost2010PropOp34
 70
     1
102
RTVSPost2010Prop35
280
     0
102
RTVSPost2010PropOp35
 70
     1
102
RTVSPost2010Prop36
280
     0
102
RTVSPost2010PropOp36
 70
     1
102
RTVSPost2010Prop37
 90
       50
102
RTVSPost2010PropOp37
 70
     1
102
RTVSPost2010Prop38
140
0.0
102
RTVSPost2010PropOp38
 70
     1
102
RTVSPost2010Prop39
140
1.0
102
RTVSPost2010PropOp39
 70
     1
102
RTVSPost2010Prop40
 90
        0
102
RTVSPost2010PropOp40
 70
     1
102
RTVSPost2010Prop41ColorIndex
 90
       18
102
RTVSPost2010Prop41ColorRGB
 90
        0
102
RTVSPost2010PropOp41
 70
     1
102
RTVSPost2010Prop42
 90
       50
102
RTVSPost2010PropOp42
 70
     1
102
RTVSPost2010Prop43
 90
        3
102
RTVSPost2010PropOp43
 70
     1
102
RTVSPost2010Prop44ColorIndex
 90
        5
102
RTVSPost2010Prop44ColorRGB
 90
      255
102
RTVSPost2010PropOp44
 70
     1
102
RTVSPost2010Prop45
280
     0
102
RTVSPost2010PropOp45
 70
     1
102
RTVSPost2010Prop46
 90
       50
102
RTVSPost2010PropOp46
 70
     1
102
RTVSPost2010Prop47
 90
       50
102
RTVSPost2010PropOp47
 70
     1
102
RTVSPost2010Prop48
 90
       50
102
RTVSPost2010PropOp48
 70
     1
102
RTVSPost2010Prop49
280
     0
102
RTVSPost2010PropOp49
 70
     1
102
RTVSPost2010Prop50
 90
       50
102
RTVSPost2010PropOp50
 70
     1
102
RTVSPost2010Prop51ColorIndex
 90
      256
102
RTVSPost2010Prop51ColorRGB
 90
-16777216
102
RTVSPost2010PropOp51
 70
     0
102
RTVSPost2010Prop52
140
1.0
102
RTVSPost2010PropOp52
 70
     0
102
RTVSPost2010Prop53
 90
        2
102
RTVSPost2010PropOp53
 70
     1
102
RTVSPost2010Prop54
  1
strokes_ogs.tif
102
RTVSPost2010PropOp54
 70
     1
102
RTVSPost2010Prop55
280
     0
102
RTVSPost2010PropOp55
 70
     1
102
RTVSPost2010Prop56
140
1.0
102
RTVSPost2010PropOp56
 70
     1
102
RTVSPost2010Prop57
140
1.0
102
RTVSPost2010PropOp57
 70
     1
102
RTVSPropertyOp0
 70
     1
102
RTVSPropertyOp1
 70
     1
102
RTVSPropertyOp2
 70
     1
102
RTVSPropertyOp3
 70
     1
102
RTVSPropertyOp4
 70
     1
102
RTVSPropertyOp5
 70
     1
102
RTVSPropertyOp6
 70
     1
102
RTVSPropertyOp7
 70
     1
102
RTVSPropertyOp8
 70
     1
102
RTVSPropertyOp9
 70
     1
102
RTVSPropertyOp10
 70
     1
102
RTVSPropertyOp11
 70
     1
102
RTVSPropertyOp12
 70
     1
102
RTVSPropertyOp13
 70
     1
102
RTVSPropertyOp14
 70
     1
102
RTVSPropertyOp15
 70
     1
102
RTVSPropertyOp16
 70
     1
102
RTVSPropertyOp17
 70
     1
102
RTVSPropertyOp18
 70
     1
102
RTVSPropertyOp19
 70
     1
102
RTVSPropertyOp20
 70
     1
102
RTVSPropertyOp21
 70
     1
102
RTVSPropertyOp22
 70
     1
102
RTVSPropertyOp23
 70
     1
102
RTVSPropertyOp24
 70
     1
102
RTVSPropertyOp25
 70
     1
102
RTVSPropertyOp26
 70
     1
102
RTVSPropertyOp27
 70
     1
102
RTVSPropertyOp28
 70
     1
102
RTVSPropertyOp29
 70
     1
102
RTVSPropertyOp30
 70
     1
102
RTVSPropertyOp31
 70
     1
102
RTVSPropertyOp32
 70
     1
102
RTVSPropertyOp33
 70
     1
102
RTVSPropertyOp34
 70
     1
102
RTVSPropertyOp35
 70
     1
102
RTVSPropertyOp36
 70
     1
102
RTVSPropertyOp37
 70
     1
102
RTVSPropertyOp38
 70
     1
102
RTVSPropertyOp39
 70
     1
102
RTVSPropertyOp40
 70
     1
102
RTVSPropertyOp41
 70
     1
102
RTVSPropertyOp42
 70
     1
102
RTVSPropertyOp43
 70
     1
102
RTVSPropertyOp44
 70
     1
102
RTVSPropertyOp45
 70
     1
102
RTVSPropertyOp46
 70
     1
102
RTVSPropertyOp47
 70
     1
102
RTVSPropertyOp48
 70
     1
102
RTVSPropertyOp49
 70
     1
102
RTVSPropertyOp50
 70
     1
102
RTVSPropertyOp51
 70
     0
102
RTVSPropertyOp52
 70
     0
102
RTVSPropertyOp53
 70
     1
102
RTVSPropertyOp54
 70
     1
102
RTVSPropertyOp55
 70
     1
102
RTVSPropertyOp56
 70
     1
102
RTVSPropertyOp57
 70
     1
102
RTVSPropertyOp58
 70
     1
102
RTVSPropertyOp59
 70
     1
102
RTVSPropertyOp60
 70
     1
102
RTVSPropertyOp61
 70
     1
102
RTVSPropertyOp62
 70
     1
  0
XRECORD
  5
27A8
102
{ACAD_REACTORS
330
27A7
102
}
330
27A7
100
AcDbXrecord
280
     1
102
RTVSPost2010Prop28
280
     0
102
RTVSPost2010PropOp28
 70
     1
102
RTVSPost2010Prop29
280
     1
102
RTVSPost2010PropOp29
 70
     1
102
RTVSPost2010Prop30
280
     1
102
RTVSPost2010PropOp30
 70
     1
102
RTVSPost2010Prop31
280
     0
102
RTVSPost2010PropOp31
 70
     1
102
RTVSPost2010Prop32
280
     0
102
RTVSPost2010PropOp32
 70
     1
102
RTVSPost2010Prop33
280
     0
102
RTVSPost2010PropOp33
 70
     1
102
RTVSPost2010Prop34
280
     0
102
RTVSPost2010PropOp34
 70
     1
102
RTVSPost2010Prop35
280
     0
102
RTVSPost2010PropOp35
 70
     1
102
RTVSPost2010Prop36
280
     0
102
RTVSPost2010PropOp36
 70
     1
102
RTVSPost2010Prop37
 90
       50
102
RTVSPost2010PropOp37
 70
     1
102
RTVSPost2010Prop38
140
0.0
102
RTVSPost2010PropOp38
 70
     1
102
RTVSPost2010Prop39
140
1.0
102
RTVSPost2010PropOp39
 70
     1
102
RTVSPost2010Prop40
 90
        0
102
RTVSPost2010PropOp40
 70
     1
102
RTVSPost2010Prop41ColorIndex
 90
       18
102
RTVSPost2010Prop41ColorRGB
 90
        0
102
RTVSPost2010PropOp41
 70
     1
102
RTVSPost2010Prop42
 90
       50
102
RTVSPost2010PropOp42
 70
     1
102
RTVSPost2010Prop43
 90
        3
102
RTVSPost2010PropOp43
 70
     1
102
RTVSPost2010Prop44ColorIndex
 90
        5
102
RTVSPost2010Prop44ColorRGB
 90
      255
102
RTVSPost2010PropOp44
 70
     1
102
RTVSPost2010Prop45
280
     0
102
RTVSPost2010PropOp45
 70
     1
102
RTVSPost2010Prop46
 90
       50
102
RTVSPost2010PropOp46
 70
     1
102
RTVSPost2010Prop47
 90
       50
102
RTVSPost2010PropOp47
 70
     1
102
RTVSPost2010Prop48
 90
       50
102
RTVSPost2010PropOp48
 70
     1
102
RTVSPost2010Prop49
280
     0
102
RTVSPost2010PropOp49
 70
     1
102
RTVSPost2010Prop50
 90
       50
102
RTVSPost2010PropOp50
 70
     1
102
RTVSPost2010Prop51ColorIndex
 90
      256
102
RTVSPost2010Prop51ColorRGB
 90
-16777216
102
RTVSPost2010PropOp51
 70
     0
102
RTVSPost2010Prop52
140
1.0
102
RTVSPost2010PropOp52
 70
     0
102
RTVSPost2010Prop53
 90
        2
102
RTVSPost2010PropOp53
 70
     1
102
RTVSPost2010Prop54
  1
strokes_ogs.tif
102
RTVSPost2010PropOp54
 70
     1
102
RTVSPost2010Prop55
280
     0
102
RTVSPost2010PropOp55
 70
     1
102
RTVSPost2010Prop56
140
1.0
102
RTVSPost2010PropOp56
 70
     1
102
RTVSPost2010Prop57
140
1.0
102
RTVSPost2010PropOp57
 70
     1
102
RTVSPropertyOp0
 70
     1
102
RTVSPropertyOp1
 70
     1
102
RTVSPropertyOp2
 70
     1
102
RTVSPropertyOp3
 70
     1
102
RTVSPropertyOp4
 70
     1
102
RTVSPropertyOp5
 70
     1
102
RTVSPropertyOp6
 70
     1
102
RTVSPropertyOp7
 70
     1
102
RTVSPropertyOp8
 70
     1
102
RTVSPropertyOp9
 70
     1
102
RTVSPropertyOp10
 70
     1
102
RTVSPropertyOp11
 70
     1
102
RTVSPropertyOp12
 70
     1
102
RTVSPropertyOp13
 70
     1
102
RTVSPropertyOp14
 70
     1
102
RTVSPropertyOp15
 70
     1
102
RTVSPropertyOp16
 70
     1
102
RTVSPropertyOp17
 70
     1
102
RTVSPropertyOp18
 70
     1
102
RTVSPropertyOp19
 70
     1
102
RTVSPropertyOp20
 70
     1
102
RTVSPropertyOp21
 70
     1
102
RTVSPropertyOp22
 70
     1
102
RTVSPropertyOp23
 70
     1
102
RTVSPropertyOp24
 70
     1
102
RTVSPropertyOp25
 70
     1
102
RTVSPropertyOp26
 70
     1
102
RTVSPropertyOp27
 70
     1
102
RTVSPropertyOp28
 70
     1
102
RTVSPropertyOp29
 70
     1
102
RTVSPropertyOp30
 70
     1
102
RTVSPropertyOp31
 70
     1
102
RTVSPropertyOp32
 70
     1
102
RTVSPropertyOp33
 70
     1
102
RTVSPropertyOp34
 70
     1
102
RTVSPropertyOp35
 70
     1
102
RTVSPropertyOp36
 70
     1
102
RTVSPropertyOp37
 70
     1
102
RTVSPropertyOp38
 70
     1
102
RTVSPropertyOp39
 70
     1
102
RTVSPropertyOp40
 70
     1
102
RTVSPropertyOp41
 70
     1
102
RTVSPropertyOp42
 70
     1
102
RTVSPropertyOp43
 70
     1
102
RTVSPropertyOp44
 70
     1
102
RTVSPropertyOp45
 70
     1
102
RTVSPropertyOp46
 70
     1
102
RTVSPropertyOp47
 70
     1
102
RTVSPropertyOp48
 70
     1
102
RTVSPropertyOp49
 70
     1
102
RTVSPropertyOp50
 70
     1
102
RTVSPropertyOp51
 70
     0
102
RTVSPropertyOp52
 70
     0
102
RTVSPropertyOp53
 70
     1
102
RTVSPropertyOp54
 70
     1
102
RTVSPropertyOp55
 70
     1
102
RTVSPropertyOp56
 70
     1
102
RTVSPropertyOp57
 70
     1
102
RTVSPropertyOp58
 70
     1
102
RTVSPropertyOp59
 70
     1
102
RTVSPropertyOp60
 70
     1
102
RTVSPropertyOp61
 70
     1
102
RTVSPropertyOp62
 70
     1
  0
XRECORD
  5
27A6
102
{ACAD_REACTORS
330
27A5
102
}
330
27A5
100
AcDbXrecord
280
     1
102
RTVSPost2010Prop28
280
     0
102
RTVSPost2010PropOp28
 70
     1
102
RTVSPost2010Prop29
280
     1
102
RTVSPost2010PropOp29
 70
     1
102
RTVSPost2010Prop30
280
     1
102
RTVSPost2010PropOp30
 70
     1
102
RTVSPost2010Prop31
280
     0
102
RTVSPost2010PropOp31
 70
     1
102
RTVSPost2010Prop32
280
     0
102
RTVSPost2010PropOp32
 70
     1
102
RTVSPost2010Prop33
280
     0
102
RTVSPost2010PropOp33
 70
     1
102
RTVSPost2010Prop34
280
     0
102
RTVSPost2010PropOp34
 70
     1
102
RTVSPost2010Prop35
280
     0
102
RTVSPost2010PropOp35
 70
     1
102
RTVSPost2010Prop36
280
     0
102
RTVSPost2010PropOp36
 70
     1
102
RTVSPost2010Prop37
 90
       50
102
RTVSPost2010PropOp37
 70
     1
102
RTVSPost2010Prop38
140
0.0
102
RTVSPost2010PropOp38
 70
     1
102
RTVSPost2010Prop39
140
1.0
102
RTVSPost2010PropOp39
 70
     1
102
RTVSPost2010Prop40
 90
        0
102
RTVSPost2010PropOp40
 70
     1
102
RTVSPost2010Prop41ColorIndex
 90
       18
102
RTVSPost2010Prop41ColorRGB
 90
        0
102
RTVSPost2010PropOp41
 70
     1
102
RTVSPost2010Prop42
 90
       50
102
RTVSPost2010PropOp42
 70
     1
102
RTVSPost2010Prop43
 90
        3
102
RTVSPost2010PropOp43
 70
     1
102
RTVSPost2010Prop44ColorIndex
 90
        5
102
RTVSPost2010Prop44ColorRGB
 90
      255
102
RTVSPost2010PropOp44
 70
     1
102
RTVSPost2010Prop45
280
     0
102
RTVSPost2010PropOp45
 70
     1
102
RTVSPost2010Prop46
 90
       50
102
RTVSPost2010PropOp46
 70
     1
102
RTVSPost2010Prop47
 90
       50
102
RTVSPost2010PropOp47
 70
     1
102
RTVSPost2010Prop48
 90
       50
102
RTVSPost2010PropOp48
 70
     1
102
RTVSPost2010Prop49
280
     0
102
RTVSPost2010PropOp49
 70
     1
102
RTVSPost2010Prop50
 90
       50
102
RTVSPost2010PropOp50
 70
     1
102
RTVSPost2010Prop51ColorIndex
 90
      256
102
RTVSPost2010Prop51ColorRGB
 90
-16777216
102
RTVSPost2010PropOp51
 70
     0
102
RTVSPost2010Prop52
140
1.0
102
RTVSPost2010PropOp52
 70
     0
102
RTVSPost2010Prop53
 90
        2
102
RTVSPost2010PropOp53
 70
     1
102
RTVSPost2010Prop54
  1
strokes_ogs.tif
102
RTVSPost2010PropOp54
 70
     1
102
RTVSPost2010Prop55
280
     0
102
RTVSPost2010PropOp55
 70
     1
102
RTVSPost2010Prop56
140
1.0
102
RTVSPost2010PropOp56
 70
     1
102
RTVSPost2010Prop57
140
1.0
102
RTVSPost2010PropOp57
 70
     1
102
RTVSPropertyOp0
 70
     1
102
RTVSPropertyOp1
 70
     1
102
RTVSPropertyOp2
 70
     1
102
RTVSPropertyOp3
 70
     1
102
RTVSPropertyOp4
 70
     1
102
RTVSPropertyOp5
 70
     1
102
RTVSPropertyOp6
 70
     1
102
RTVSPropertyOp7
 70
     1
102
RTVSPropertyOp8
 70
     1
102
RTVSPropertyOp9
 70
     1
102
RTVSPropertyOp10
 70
     1
102
RTVSPropertyOp11
 70
     1
102
RTVSPropertyOp12
 70
     1
102
RTVSPropertyOp13
 70
     1
102
RTVSPropertyOp14
 70
     1
102
RTVSPropertyOp15
 70
     1
102
RTVSPropertyOp16
 70
     1
102
RTVSPropertyOp17
 70
     1
102
RTVSPropertyOp18
 70
     1
102
RTVSPropertyOp19
 70
     1
102
RTVSPropertyOp20
 70
     1
102
RTVSPropertyOp21
 70
     1
102
RTVSPropertyOp22
 70
     1
102
RTVSPropertyOp23
 70
     1
102
RTVSPropertyOp24
 70
     1
102
RTVSPropertyOp25
 70
     1
102
RTVSPropertyOp26
 70
     1
102
RTVSPropertyOp27
 70
     1
102
RTVSPropertyOp28
 70
     1
102
RTVSPropertyOp29
 70
     1
102
RTVSPropertyOp30
 70
     1
102
RTVSPropertyOp31
 70
     1
102
RTVSPropertyOp32
 70
     1
102
RTVSPropertyOp33
 70
     1
102
RTVSPropertyOp34
 70
     1
102
RTVSPropertyOp35
 70
     1
102
RTVSPropertyOp36
 70
     1
102
RTVSPropertyOp37
 70
     1
102
RTVSPropertyOp38
 70
     1
102
RTVSPropertyOp39
 70
     1
102
RTVSPropertyOp40
 70
     1
102
RTVSPropertyOp41
 70
     1
102
RTVSPropertyOp42
 70
     1
102
RTVSPropertyOp43
 70
     1
102
RTVSPropertyOp44
 70
     1
102
RTVSPropertyOp45
 70
     1
102
RTVSPropertyOp46
 70
     1
102
RTVSPropertyOp47
 70
     1
102
RTVSPropertyOp48
 70
     1
102
RTVSPropertyOp49
 70
     1
102
RTVSPropertyOp50
 70
     1
102
RTVSPropertyOp51
 70
     0
102
RTVSPropertyOp52
 70
     0
102
RTVSPropertyOp53
 70
     1
102
RTVSPropertyOp54
 70
     1
102
RTVSPropertyOp55
 70
     1
102
RTVSPropertyOp56
 70
     1
102
RTVSPropertyOp57
 70
     1
102
RTVSPropertyOp58
 70
     1
102
RTVSPropertyOp59
 70
     1
102
RTVSPropertyOp60
 70
     1
102
RTVSPropertyOp61
 70
     1
102
RTVSPropertyOp62
 70
     1
  0
XRECORD
  5
27A0
102
{ACAD_REACTORS
330
279F
102
}
330
279F
100
AcDbXrecord
280
     1
102
RTVSPost2010Prop28
280
     0
102
RTVSPost2010PropOp28
 70
     1
102
RTVSPost2010Prop29
280
     1
102
RTVSPost2010PropOp29
 70
     1
102
RTVSPost2010Prop30
280
     1
102
RTVSPost2010PropOp30
 70
     1
102
RTVSPost2010Prop31
280
     0
102
RTVSPost2010PropOp31
 70
     1
102
RTVSPost2010Prop32
280
     0
102
RTVSPost2010PropOp32
 70
     1
102
RTVSPost2010Prop33
280
     0
102
RTVSPost2010PropOp33
 70
     1
102
RTVSPost2010Prop34
280
     0
102
RTVSPost2010PropOp34
 70
     1
102
RTVSPost2010Prop35
280
     0
102
RTVSPost2010PropOp35
 70
     1
102
RTVSPost2010Prop36
280
     0
102
RTVSPost2010PropOp36
 70
     1
102
RTVSPost2010Prop37
 90
       50
102
RTVSPost2010PropOp37
 70
     1
102
RTVSPost2010Prop38
140
0.0
102
RTVSPost2010PropOp38
 70
     1
102
RTVSPost2010Prop39
140
1.0
102
RTVSPost2010PropOp39
 70
     1
102
RTVSPost2010Prop40
 90
        0
102
RTVSPost2010PropOp40
 70
     1
102
RTVSPost2010Prop41ColorIndex
 90
       18
102
RTVSPost2010Prop41ColorRGB
 90
        0
102
RTVSPost2010PropOp41
 70
     1
102
RTVSPost2010Prop42
 90
       50
102
RTVSPost2010PropOp42
 70
     1
102
RTVSPost2010Prop43
 90
        3
102
RTVSPost2010PropOp43
 70
     1
102
RTVSPost2010Prop44ColorIndex
 90
        5
102
RTVSPost2010Prop44ColorRGB
 90
      255
102
RTVSPost2010PropOp44
 70
     1
102
RTVSPost2010Prop45
280
     0
102
RTVSPost2010PropOp45
 70
     1
102
RTVSPost2010Prop46
 90
       50
102
RTVSPost2010PropOp46
 70
     1
102
RTVSPost2010Prop47
 90
       50
102
RTVSPost2010PropOp47
 70
     1
102
RTVSPost2010Prop48
 90
       50
102
RTVSPost2010PropOp48
 70
     1
102
RTVSPost2010Prop49
280
     0
102
RTVSPost2010PropOp49
 70
     1
102
RTVSPost2010Prop50
 90
       50
102
RTVSPost2010PropOp50
 70
     1
102
RTVSPost2010Prop51ColorIndex
 90
      256
102
RTVSPost2010Prop51ColorRGB
 90
-16777216
102
RTVSPost2010PropOp51
 70
     0
102
RTVSPost2010Prop52
140
1.0
102
RTVSPost2010PropOp52
 70
     0
102
RTVSPost2010Prop53
 90
        2
102
RTVSPost2010PropOp53
 70
     1
102
RTVSPost2010Prop54
  1
strokes_ogs.tif
102
RTVSPost2010PropOp54
 70
     1
102
RTVSPost2010Prop55
280
     0
102
RTVSPost2010PropOp55
 70
     1
102
RTVSPost2010Prop56
140
1.0
102
RTVSPost2010PropOp56
 70
     1
102
RTVSPost2010Prop57
140
1.0
102
RTVSPost2010PropOp57
 70
     1
102
RTVSPropertyOp0
 70
     1
102
RTVSPropertyOp1
 70
     1
102
RTVSPropertyOp2
 70
     1
102
RTVSPropertyOp3
 70
     1
102
RTVSPropertyOp4
 70
     1
102
RTVSPropertyOp5
 70
     1
102
RTVSPropertyOp6
 70
     1
102
RTVSPropertyOp7
 70
     1
102
RTVSPropertyOp8
 70
     1
102
RTVSPropertyOp9
 70
     1
102
RTVSPropertyOp10
 70
     1
102
RTVSPropertyOp11
 70
     1
102
RTVSPropertyOp12
 70
     1
102
RTVSPropertyOp13
 70
     1
102
RTVSPropertyOp14
 70
     1
102
RTVSPropertyOp15
 70
     1
102
RTVSPropertyOp16
 70
     1
102
RTVSPropertyOp17
 70
     1
102
RTVSPropertyOp18
 70
     1
102
RTVSPropertyOp19
 70
     1
102
RTVSPropertyOp20
 70
     1
102
RTVSPropertyOp21
 70
     1
102
RTVSPropertyOp22
 70
     1
102
RTVSPropertyOp23
 70
     1
102
RTVSPropertyOp24
 70
     1
102
RTVSPropertyOp25
 70
     1
102
RTVSPropertyOp26
 70
     1
102
RTVSPropertyOp27
 70
     1
102
RTVSPropertyOp28
 70
     1
102
RTVSPropertyOp29
 70
     1
102
RTVSPropertyOp30
 70
     1
102
RTVSPropertyOp31
 70
     1
102
RTVSPropertyOp32
 70
     1
102
RTVSPropertyOp33
 70
     1
102
RTVSPropertyOp34
 70
     1
102
RTVSPropertyOp35
 70
     1
102
RTVSPropertyOp36
 70
     1
102
RTVSPropertyOp37
 70
     1
102
RTVSPropertyOp38
 70
     1
102
RTVSPropertyOp39
 70
     1
102
RTVSPropertyOp40
 70
     1
102
RTVSPropertyOp41
 70
     1
102
RTVSPropertyOp42
 70
     1
102
RTVSPropertyOp43
 70
     1
102
RTVSPropertyOp44
 70
     1
102
RTVSPropertyOp45
 70
     1
102
RTVSPropertyOp46
 70
     1
102
RTVSPropertyOp47
 70
     1
102
RTVSPropertyOp48
 70
     1
102
RTVSPropertyOp49
 70
     1
102
RTVSPropertyOp50
 70
     1
102
RTVSPropertyOp51
 70
     0
102
RTVSPropertyOp52
 70
     0
102
RTVSPropertyOp53
 70
     1
102
RTVSPropertyOp54
 70
     1
102
RTVSPropertyOp55
 70
     1
102
RTVSPropertyOp56
 70
     1
102
RTVSPropertyOp57
 70
     1
102
RTVSPropertyOp58
 70
     1
102
RTVSPropertyOp59
 70
     1
102
RTVSPropertyOp60
 70
     1
102
RTVSPropertyOp61
 70
     1
102
RTVSPropertyOp62
 70
     1
  0
XRECORD
  5
27A2
102
{ACAD_REACTORS
330
27A1
102
}
330
27A1
100
AcDbXrecord
280
     1
102
RTVSPost2010Prop28
280
     0
102
RTVSPost2010PropOp28
 70
     1
102
RTVSPost2010Prop29
280
     1
102
RTVSPost2010PropOp29
 70
     1
102
RTVSPost2010Prop30
280
     1
102
RTVSPost2010PropOp30
 70
     1
102
RTVSPost2010Prop31
280
     0
102
RTVSPost2010PropOp31
 70
     1
102
RTVSPost2010Prop32
280
     0
102
RTVSPost2010PropOp32
 70
     1
102
RTVSPost2010Prop33
280
     0
102
RTVSPost2010PropOp33
 70
     1
102
RTVSPost2010Prop34
280
     0
102
RTVSPost2010PropOp34
 70
     1
102
RTVSPost2010Prop35
280
     0
102
RTVSPost2010PropOp35
 70
     1
102
RTVSPost2010Prop36
280
     0
102
RTVSPost2010PropOp36
 70
     1
102
RTVSPost2010Prop37
 90
       50
102
RTVSPost2010PropOp37
 70
     1
102
RTVSPost2010Prop38
140
0.0
102
RTVSPost2010PropOp38
 70
     1
102
RTVSPost2010Prop39
140
1.0
102
RTVSPost2010PropOp39
 70
     1
102
RTVSPost2010Prop40
 90
        0
102
RTVSPost2010PropOp40
 70
     1
102
RTVSPost2010Prop41ColorIndex
 90
       18
102
RTVSPost2010Prop41ColorRGB
 90
        0
102
RTVSPost2010PropOp41
 70
     1
102
RTVSPost2010Prop42
 90
       50
102
RTVSPost2010PropOp42
 70
     1
102
RTVSPost2010Prop43
 90
        3
102
RTVSPost2010PropOp43
 70
     1
102
RTVSPost2010Prop44ColorIndex
 90
        5
102
RTVSPost2010Prop44ColorRGB
 90
      255
102
RTVSPost2010PropOp44
 70
     1
102
RTVSPost2010Prop45
280
     0
102
RTVSPost2010PropOp45
 70
     1
102
RTVSPost2010Prop46
 90
       50
102
RTVSPost2010PropOp46
 70
     1
102
RTVSPost2010Prop47
 90
       50
102
RTVSPost2010PropOp47
 70
     1
102
RTVSPost2010Prop48
 90
       50
102
RTVSPost2010PropOp48
 70
     1
102
RTVSPost2010Prop49
280
     0
102
RTVSPost2010PropOp49
 70
     1
102
RTVSPost2010Prop50
 90
       50
102
RTVSPost2010PropOp50
 70
     1
102
RTVSPost2010Prop51ColorIndex
 90
      256
102
RTVSPost2010Prop51ColorRGB
 90
-16777216
102
RTVSPost2010PropOp51
 70
     0
102
RTVSPost2010Prop52
140
1.0
102
RTVSPost2010PropOp52
 70
     0
102
RTVSPost2010Prop53
 90
        2
102
RTVSPost2010PropOp53
 70
     1
102
RTVSPost2010Prop54
  1
strokes_ogs.tif
102
RTVSPost2010PropOp54
 70
     1
102
RTVSPost2010Prop55
280
     0
102
RTVSPost2010PropOp55
 70
     1
102
RTVSPost2010Prop56
140
1.0
102
RTVSPost2010PropOp56
 70
     1
102
RTVSPost2010Prop57
140
1.0
102
RTVSPost2010PropOp57
 70
     1
102
RTVSPropertyOp0
 70
     1
102
RTVSPropertyOp1
 70
     1
102
RTVSPropertyOp2
 70
     1
102
RTVSPropertyOp3
 70
     1
102
RTVSPropertyOp4
 70
     1
102
RTVSPropertyOp5
 70
     1
102
RTVSPropertyOp6
 70
     1
102
RTVSPropertyOp7
 70
     1
102
RTVSPropertyOp8
 70
     1
102
RTVSPropertyOp9
 70
     1
102
RTVSPropertyOp10
 70
     1
102
RTVSPropertyOp11
 70
     1
102
RTVSPropertyOp12
 70
     1
102
RTVSPropertyOp13
 70
     1
102
RTVSPropertyOp14
 70
     1
102
RTVSPropertyOp15
 70
     1
102
RTVSPropertyOp16
 70
     1
102
RTVSPropertyOp17
 70
     1
102
RTVSPropertyOp18
 70
     1
102
RTVSPropertyOp19
 70
     1
102
RTVSPropertyOp20
 70
     1
102
RTVSPropertyOp21
 70
     1
102
RTVSPropertyOp22
 70
     1
102
RTVSPropertyOp23
 70
     1
102
RTVSPropertyOp24
 70
     1
102
RTVSPropertyOp25
 70
     1
102
RTVSPropertyOp26
 70
     1
102
RTVSPropertyOp27
 70
     1
102
RTVSPropertyOp28
 70
     1
102
RTVSPropertyOp29
 70
     1
102
RTVSPropertyOp30
 70
     1
102
RTVSPropertyOp31
 70
     1
102
RTVSPropertyOp32
 70
     1
102
RTVSPropertyOp33
 70
     1
102
RTVSPropertyOp34
 70
     1
102
RTVSPropertyOp35
 70
     1
102
RTVSPropertyOp36
 70
     1
102
RTVSPropertyOp37
 70
     1
102
RTVSPropertyOp38
 70
     1
102
RTVSPropertyOp39
 70
     1
102
RTVSPropertyOp40
 70
     1
102
RTVSPropertyOp41
 70
     1
102
RTVSPropertyOp42
 70
     1
102
RTVSPropertyOp43
 70
     1
102
RTVSPropertyOp44
 70
     1
102
RTVSPropertyOp45
 70
     1
102
RTVSPropertyOp46
 70
     1
102
RTVSPropertyOp47
 70
     1
102
RTVSPropertyOp48
 70
     1
102
RTVSPropertyOp49
 70
     1
102
RTVSPropertyOp50
 70
     1
102
RTVSPropertyOp51
 70
     0
102
RTVSPropertyOp52
 70
     0
102
RTVSPropertyOp53
 70
     1
102
RTVSPropertyOp54
 70
     1
102
RTVSPropertyOp55
 70
     1
102
RTVSPropertyOp56
 70
     1
102
RTVSPropertyOp57
 70
     1
102
RTVSPropertyOp58
 70
     1
102
RTVSPropertyOp59
 70
     1
102
RTVSPropertyOp60
 70
     1
102
RTVSPropertyOp61
 70
     1
102
RTVSPropertyOp62
 70
     1
  0
XRECORD
  5
2798
102
{ACAD_REACTORS
330
2797
102
}
330
2797
100
AcDbXrecord
280
     1
102
RTVSPost2010Prop28
280
     0
102
RTVSPost2010PropOp28
 70
     1
102
RTVSPost2010Prop29
280
     1
102
RTVSPost2010PropOp29
 70
     1
102
RTVSPost2010Prop30
280
     1
102
RTVSPost2010PropOp30
 70
     1
102
RTVSPost2010Prop31
280
     0
102
RTVSPost2010PropOp31
 70
     1
102
RTVSPost2010Prop32
280
     0
102
RTVSPost2010PropOp32
 70
     1
102
RTVSPost2010Prop33
280
     0
102
RTVSPost2010PropOp33
 70
     1
102
RTVSPost2010Prop34
280
     0
102
RTVSPost2010PropOp34
 70
     1
102
RTVSPost2010Prop35
280
     0
102
RTVSPost2010PropOp35
 70
     1
102
RTVSPost2010Prop36
280
     0
102
RTVSPost2010PropOp36
 70
     1
102
RTVSPost2010Prop37
 90
       50
102
RTVSPost2010PropOp37
 70
     1
102
RTVSPost2010Prop38
140
0.0
102
RTVSPost2010PropOp38
 70
     1
102
RTVSPost2010Prop39
140
1.0
102
RTVSPost2010PropOp39
 70
     1
102
RTVSPost2010Prop40
 90
        0
102
RTVSPost2010PropOp40
 70
     1
102
RTVSPost2010Prop41ColorIndex
 90
       18
102
RTVSPost2010Prop41ColorRGB
 90
        0
102
RTVSPost2010PropOp41
 70
     1
102
RTVSPost2010Prop42
 90
       50
102
RTVSPost2010PropOp42
 70
     1
102
RTVSPost2010Prop43
 90
        3
102
RTVSPost2010PropOp43
 70
     1
102
RTVSPost2010Prop44ColorIndex
 90
        5
102
RTVSPost2010Prop44ColorRGB
 90
      255
102
RTVSPost2010PropOp44
 70
     1
102
RTVSPost2010Prop45
280
     0
102
RTVSPost2010PropOp45
 70
     1
102
RTVSPost2010Prop46
 90
       50
102
RTVSPost2010PropOp46
 70
     1
102
RTVSPost2010Prop47
 90
       50
102
RTVSPost2010PropOp47
 70
     1
102
RTVSPost2010Prop48
 90
       50
102
RTVSPost2010PropOp48
 70
     1
102
RTVSPost2010Prop49
280
     0
102
RTVSPost2010PropOp49
 70
     1
102
RTVSPost2010Prop50
 90
       50
102
RTVSPost2010PropOp50
 70
     1
102
RTVSPost2010Prop51ColorIndex
 90
      256
102
RTVSPost2010Prop51ColorRGB
 90
-16777216
102
RTVSPost2010PropOp51
 70
     0
102
RTVSPost2010Prop52
140
1.0
102
RTVSPost2010PropOp52
 70
     0
102
RTVSPost2010Prop53
 90
        2
102
RTVSPost2010PropOp53
 70
     1
102
RTVSPost2010Prop54
  1
strokes_ogs.tif
102
RTVSPost2010PropOp54
 70
     1
102
RTVSPost2010Prop55
280
     0
102
RTVSPost2010PropOp55
 70
     1
102
RTVSPost2010Prop56
140
1.0
102
RTVSPost2010PropOp56
 70
     1
102
RTVSPost2010Prop57
140
1.0
102
RTVSPost2010PropOp57
 70
     1
102
RTVSPropertyOp0
 70
     1
102
RTVSPropertyOp1
 70
     1
102
RTVSPropertyOp2
 70
     1
102
RTVSPropertyOp3
 70
     1
102
RTVSPropertyOp4
 70
     1
102
RTVSPropertyOp5
 70
     1
102
RTVSPropertyOp6
 70
     1
102
RTVSPropertyOp7
 70
     1
102
RTVSPropertyOp8
 70
     1
102
RTVSPropertyOp9
 70
     1
102
RTVSPropertyOp10
 70
     1
102
RTVSPropertyOp11
 70
     1
102
RTVSPropertyOp12
 70
     1
102
RTVSPropertyOp13
 70
     1
102
RTVSPropertyOp14
 70
     1
102
RTVSPropertyOp15
 70
     1
102
RTVSPropertyOp16
 70
     1
102
RTVSPropertyOp17
 70
     1
102
RTVSPropertyOp18
 70
     1
102
RTVSPropertyOp19
 70
     1
102
RTVSPropertyOp20
 70
     1
102
RTVSPropertyOp21
 70
     1
102
RTVSPropertyOp22
 70
     1
102
RTVSPropertyOp23
 70
     1
102
RTVSPropertyOp24
 70
     1
102
RTVSPropertyOp25
 70
     1
102
RTVSPropertyOp26
 70
     1
102
RTVSPropertyOp27
 70
     1
102
RTVSPropertyOp28
 70
     1
102
RTVSPropertyOp29
 70
     1
102
RTVSPropertyOp30
 70
     1
102
RTVSPropertyOp31
 70
     1
102
RTVSPropertyOp32
 70
     1
102
RTVSPropertyOp33
 70
     1
102
RTVSPropertyOp34
 70
     1
102
RTVSPropertyOp35
 70
     1
102
RTVSPropertyOp36
 70
     1
102
RTVSPropertyOp37
 70
     1
102
RTVSPropertyOp38
 70
     1
102
RTVSPropertyOp39
 70
     1
102
RTVSPropertyOp40
 70
     1
102
RTVSPropertyOp41
 70
     1
102
RTVSPropertyOp42
 70
     1
102
RTVSPropertyOp43
 70
     1
102
RTVSPropertyOp44
 70
     1
102
RTVSPropertyOp45
 70
     1
102
RTVSPropertyOp46
 70
     1
102
RTVSPropertyOp47
 70
     1
102
RTVSPropertyOp48
 70
     1
102
RTVSPropertyOp49
 70
     1
102
RTVSPropertyOp50
 70
     1
102
RTVSPropertyOp51
 70
     0
102
RTVSPropertyOp52
 70
     0
102
RTVSPropertyOp53
 70
     1
102
RTVSPropertyOp54
 70
     1
102
RTVSPropertyOp55
 70
     1
102
RTVSPropertyOp56
 70
     1
102
RTVSPropertyOp57
 70
     1
102
RTVSPropertyOp58
 70
     1
102
RTVSPropertyOp59
 70
     1
102
RTVSPropertyOp60
 70
     1
102
RTVSPropertyOp61
 70
     1
102
RTVSPropertyOp62
 70
     1
  0
XRECORD
  5
278C
102
{ACAD_REACTORS
330
278B
102
}
330
278B
100
AcDbXrecord
280
     1
102
RTVSPost2010Prop28
280
     0
102
RTVSPost2010PropOp28
 70
     1
102
RTVSPost2010Prop29
280
     1
102
RTVSPost2010PropOp29
 70
     1
102
RTVSPost2010Prop30
280
     1
102
RTVSPost2010PropOp30
 70
     1
102
RTVSPost2010Prop31
280
     0
102
RTVSPost2010PropOp31
 70
     1
102
RTVSPost2010Prop32
280
     0
102
RTVSPost2010PropOp32
 70
     1
102
RTVSPost2010Prop33
280
     0
102
RTVSPost2010PropOp33
 70
     1
102
RTVSPost2010Prop34
280
     0
102
RTVSPost2010PropOp34
 70
     1
102
RTVSPost2010Prop35
280
     0
102
RTVSPost2010PropOp35
 70
     1
102
RTVSPost2010Prop36
280
     0
102
RTVSPost2010PropOp36
 70
     1
102
RTVSPost2010Prop37
 90
       50
102
RTVSPost2010PropOp37
 70
     1
102
RTVSPost2010Prop38
140
0.0
102
RTVSPost2010PropOp38
 70
     1
102
RTVSPost2010Prop39
140
1.0
102
RTVSPost2010PropOp39
 70
     1
102
RTVSPost2010Prop40
 90
        0
102
RTVSPost2010PropOp40
 70
     1
102
RTVSPost2010Prop41ColorIndex
 90
       18
102
RTVSPost2010Prop41ColorRGB
 90
        0
102
RTVSPost2010PropOp41
 70
     1
102
RTVSPost2010Prop42
 90
       50
102
RTVSPost2010PropOp42
 70
     1
102
RTVSPost2010Prop43
 90
        3
102
RTVSPost2010PropOp43
 70
     1
102
RTVSPost2010Prop44ColorIndex
 90
        5
102
RTVSPost2010Prop44ColorRGB
 90
      255
102
RTVSPost2010PropOp44
 70
     1
102
RTVSPost2010Prop45
280
     0
102
RTVSPost2010PropOp45
 70
     1
102
RTVSPost2010Prop46
 90
       50
102
RTVSPost2010PropOp46
 70
     1
102
RTVSPost2010Prop47
 90
       50
102
RTVSPost2010PropOp47
 70
     1
102
RTVSPost2010Prop48
 90
       50
102
RTVSPost2010PropOp48
 70
     1
102
RTVSPost2010Prop49
280
     0
102
RTVSPost2010PropOp49
 70
     1
102
RTVSPost2010Prop50
 90
       50
102
RTVSPost2010PropOp50
 70
     1
102
RTVSPost2010Prop51ColorIndex
 90
      256
102
RTVSPost2010Prop51ColorRGB
 90
-16777216
102
RTVSPost2010PropOp51
 70
     0
102
RTVSPost2010Prop52
140
1.0
102
RTVSPost2010PropOp52
 70
     0
102
RTVSPost2010Prop53
 90
        2
102
RTVSPost2010PropOp53
 70
     1
102
RTVSPost2010Prop54
  1
strokes_ogs.tif
102
RTVSPost2010PropOp54
 70
     1
102
RTVSPost2010Prop55
280
     0
102
RTVSPost2010PropOp55
 70
     1
102
RTVSPost2010Prop56
140
1.0
102
RTVSPost2010PropOp56
 70
     1
102
RTVSPost2010Prop57
140
1.0
102
RTVSPost2010PropOp57
 70
     1
102
RTVSPropertyOp0
 70
     1
102
RTVSPropertyOp1
 70
     1
102
RTVSPropertyOp2
 70
     1
102
RTVSPropertyOp3
 70
     1
102
RTVSPropertyOp4
 70
     1
102
RTVSPropertyOp5
 70
     1
102
RTVSPropertyOp6
 70
     1
102
RTVSPropertyOp7
 70
     1
102
RTVSPropertyOp8
 70
     1
102
RTVSPropertyOp9
 70
     1
102
RTVSPropertyOp10
 70
     1
102
RTVSPropertyOp11
 70
     1
102
RTVSPropertyOp12
 70
     1
102
RTVSPropertyOp13
 70
     1
102
RTVSPropertyOp14
 70
     1
102
RTVSPropertyOp15
 70
     1
102
RTVSPropertyOp16
 70
     1
102
RTVSPropertyOp17
 70
     1
102
RTVSPropertyOp18
 70
     1
102
RTVSPropertyOp19
 70
     1
102
RTVSPropertyOp20
 70
     1
102
RTVSPropertyOp21
 70
     1
102
RTVSPropertyOp22
 70
     1
102
RTVSPropertyOp23
 70
     1
102
RTVSPropertyOp24
 70
     1
102
RTVSPropertyOp25
 70
     1
102
RTVSPropertyOp26
 70
     1
102
RTVSPropertyOp27
 70
     1
102
RTVSPropertyOp28
 70
     1
102
RTVSPropertyOp29
 70
     1
102
RTVSPropertyOp30
 70
     1
102
RTVSPropertyOp31
 70
     1
102
RTVSPropertyOp32
 70
     1
102
RTVSPropertyOp33
 70
     1
102
RTVSPropertyOp34
 70
     1
102
RTVSPropertyOp35
 70
     1
102
RTVSPropertyOp36
 70
     1
102
RTVSPropertyOp37
 70
     1
102
RTVSPropertyOp38
 70
     1
102
RTVSPropertyOp39
 70
     1
102
RTVSPropertyOp40
 70
     1
102
RTVSPropertyOp41
 70
     1
102
RTVSPropertyOp42
 70
     1
102
RTVSPropertyOp43
 70
     1
102
RTVSPropertyOp44
 70
     1
102
RTVSPropertyOp45
 70
     1
102
RTVSPropertyOp46
 70
     1
102
RTVSPropertyOp47
 70
     1
102
RTVSPropertyOp48
 70
     1
102
RTVSPropertyOp49
 70
     1
102
RTVSPropertyOp50
 70
     1
102
RTVSPropertyOp51
 70
     0
102
RTVSPropertyOp52
 70
     0
102
RTVSPropertyOp53
 70
     1
102
RTVSPropertyOp54
 70
     1
102
RTVSPropertyOp55
 70
     1
102
RTVSPropertyOp56
 70
     1
102
RTVSPropertyOp57
 70
     1
102
RTVSPropertyOp58
 70
     1
102
RTVSPropertyOp59
 70
     1
102
RTVSPropertyOp60
 70
     1
102
RTVSPropertyOp61
 70
     1
102
RTVSPropertyOp62
 70
     1
  0
XRECORD
  5
27A4
102
{ACAD_REACTORS
330
27A3
102
}
330
27A3
100
AcDbXrecord
280
     1
102
RTVSPost2010Prop28
280
     0
102
RTVSPost2010PropOp28
 70
     1
102
RTVSPost2010Prop29
280
     1
102
RTVSPost2010PropOp29
 70
     1
102
RTVSPost2010Prop30
280
     1
102
RTVSPost2010PropOp30
 70
     1
102
RTVSPost2010Prop31
280
     0
102
RTVSPost2010PropOp31
 70
     1
102
RTVSPost2010Prop32
280
     0
102
RTVSPost2010PropOp32
 70
     1
102
RTVSPost2010Prop33
280
     0
102
RTVSPost2010PropOp33
 70
     1
102
RTVSPost2010Prop34
280
     0
102
RTVSPost2010PropOp34
 70
     1
102
RTVSPost2010Prop35
280
     0
102
RTVSPost2010PropOp35
 70
     1
102
RTVSPost2010Prop36
280
     0
102
RTVSPost2010PropOp36
 70
     1
102
RTVSPost2010Prop37
 90
       50
102
RTVSPost2010PropOp37
 70
     1
102
RTVSPost2010Prop38
140
0.0
102
RTVSPost2010PropOp38
 70
     1
102
RTVSPost2010Prop39
140
1.0
102
RTVSPost2010PropOp39
 70
     1
102
RTVSPost2010Prop40
 90
        0
102
RTVSPost2010PropOp40
 70
     1
102
RTVSPost2010Prop41ColorIndex
 90
       18
102
RTVSPost2010Prop41ColorRGB
 90
        0
102
RTVSPost2010PropOp41
 70
     1
102
RTVSPost2010Prop42
 90
       50
102
RTVSPost2010PropOp42
 70
     1
102
RTVSPost2010Prop43
 90
        3
102
RTVSPost2010PropOp43
 70
     1
102
RTVSPost2010Prop44ColorIndex
 90
        5
102
RTVSPost2010Prop44ColorRGB
 90
      255
102
RTVSPost2010PropOp44
 70
     1
102
RTVSPost2010Prop45
280
     0
102
RTVSPost2010PropOp45
 70
     1
102
RTVSPost2010Prop46
 90
       50
102
RTVSPost2010PropOp46
 70
     1
102
RTVSPost2010Prop47
 90
       50
102
RTVSPost2010PropOp47
 70
     1
102
RTVSPost2010Prop48
 90
       50
102
RTVSPost2010PropOp48
 70
     1
102
RTVSPost2010Prop49
280
     0
102
RTVSPost2010PropOp49
 70
     1
102
RTVSPost2010Prop50
 90
       50
102
RTVSPost2010PropOp50
 70
     1
102
RTVSPost2010Prop51ColorIndex
 90
      256
102
RTVSPost2010Prop51ColorRGB
 90
-16777216
102
RTVSPost2010PropOp51
 70
     0
102
RTVSPost2010Prop52
140
1.0
102
RTVSPost2010PropOp52
 70
     0
102
RTVSPost2010Prop53
 90
        2
102
RTVSPost2010PropOp53
 70
     1
102
RTVSPost2010Prop54
  1
strokes_ogs.tif
102
RTVSPost2010PropOp54
 70
     1
102
RTVSPost2010Prop55
280
     0
102
RTVSPost2010PropOp55
 70
     1
102
RTVSPost2010Prop56
140
1.0
102
RTVSPost2010PropOp56
 70
     1
102
RTVSPost2010Prop57
140
1.0
102
RTVSPost2010PropOp57
 70
     1
102
RTVSPropertyOp0
 70
     1
102
RTVSPropertyOp1
 70
     1
102
RTVSPropertyOp2
 70
     1
102
RTVSPropertyOp3
 70
     1
102
RTVSPropertyOp4
 70
     1
102
RTVSPropertyOp5
 70
     1
102
RTVSPropertyOp6
 70
     1
102
RTVSPropertyOp7
 70
     1
102
RTVSPropertyOp8
 70
     1
102
RTVSPropertyOp9
 70
     1
102
RTVSPropertyOp10
 70
     1
102
RTVSPropertyOp11
 70
     1
102
RTVSPropertyOp12
 70
     1
102
RTVSPropertyOp13
 70
     1
102
RTVSPropertyOp14
 70
     1
102
RTVSPropertyOp15
 70
     1
102
RTVSPropertyOp16
 70
     1
102
RTVSPropertyOp17
 70
     1
102
RTVSPropertyOp18
 70
     1
102
RTVSPropertyOp19
 70
     1
102
RTVSPropertyOp20
 70
     1
102
RTVSPropertyOp21
 70
     1
102
RTVSPropertyOp22
 70
     1
102
RTVSPropertyOp23
 70
     1
102
RTVSPropertyOp24
 70
     1
102
RTVSPropertyOp25
 70
     1
102
RTVSPropertyOp26
 70
     1
102
RTVSPropertyOp27
 70
     1
102
RTVSPropertyOp28
 70
     1
102
RTVSPropertyOp29
 70
     1
102
RTVSPropertyOp30
 70
     1
102
RTVSPropertyOp31
 70
     1
102
RTVSPropertyOp32
 70
     1
102
RTVSPropertyOp33
 70
     1
102
RTVSPropertyOp34
 70
     1
102
RTVSPropertyOp35
 70
     1
102
RTVSPropertyOp36
 70
     1
102
RTVSPropertyOp37
 70
     1
102
RTVSPropertyOp38
 70
     1
102
RTVSPropertyOp39
 70
     1
102
RTVSPropertyOp40
 70
     1
102
RTVSPropertyOp41
 70
     1
102
RTVSPropertyOp42
 70
     1
102
RTVSPropertyOp43
 70
     1
102
RTVSPropertyOp44
 70
     1
102
RTVSPropertyOp45
 70
     1
102
RTVSPropertyOp46
 70
     1
102
RTVSPropertyOp47
 70
     1
102
RTVSPropertyOp48
 70
     1
102
RTVSPropertyOp49
 70
     1
102
RTVSPropertyOp50
 70
     1
102
RTVSPropertyOp51
 70
     0
102
RTVSPropertyOp52
 70
     0
102
RTVSPropertyOp53
 70
     1
102
RTVSPropertyOp54
 70
     1
102
RTVSPropertyOp55
 70
     1
102
RTVSPropertyOp56
 70
     1
102
RTVSPropertyOp57
 70
     1
102
RTVSPropertyOp58
 70
     1
102
RTVSPropertyOp59
 70
     1
102
RTVSPropertyOp60
 70
     1
102
RTVSPropertyOp61
 70
     1
102
RTVSPropertyOp62
 70
     1
  0
ENDSEC
  0
EOF
