  0
SECTION
  2
HEADER
  9
$ACADVER
  1
AC1015
  9
$ACADMAINTVER
 70
    20
  9
$DWGCODEPAGE
  3
ANSI_932
  9
$INSBASE
 10
0.0
 20
0.0
 30
0.0
  9
$EXTMIN
 10
9.999999064246818
 20
9.999999806846743
 30
0.0
  9
$EXTMAX
 10
736.8008168858656
 20
476.8115774897237
 30
0.0
  9
$LIMMIN
 10
0.0000015376081137
 20
-0.0000001931532552
  9
$LIMMAX
 10
792.0000015376079
 20
545.9999998068465
  9
$ORTHOMODE
 70
     0
  9
$REGENMODE
 70
     1
  9
$FILLMODE
 70
     1
  9
$QTEXTMODE
 70
     0
  9
$MIRRTEXT
 70
     1
  9
$LTSCALE
 40
1.0
  9
$ATTMODE
 70
     1
  9
$TEXTSIZE
 40
2.5
  9
$TRACEWID
 40
1.0
  9
$TEXTSTYLE
  7
STANDARD
  9
$CLAYER
  8
0
  9
$CELTYPE
  6
BYLAYER
  9
$CECOLOR
 62
   256
  9
$CELTSCALE
 40
1.0
  9
$DISPSILH
 70
     0
  9
$DIMSCALE
 40
1.0
  9
$DIMASZ
 40
3.0
  9
$DIMEXO
 40
1.0
  9
$DIMDLI
 40
10.0
  9
$DIMRND
 40
0.0
  9
$DIMDLE
 40
0.0
  9
$DIMEXE
 40
1.0
  9
$DIMTP
 40
0.0
  9
$DIMTM
 40
0.0
  9
$DIMTXT
 40
3.2
  9
$DIMCEN
 40
0.0
  9
$DIMTSZ
 40
0.0
  9
$DIMTOL
 70
     0
  9
$DIMLIM
 70
     0
  9
$DIMTIH
 70
     0
  9
$DIMTOH
 70
     0
  9
$DIMSE1
 70
     0
  9
$DIMSE2
 70
     0
  9
$DIMTAD
 70
     3
  9
$DIMZIN
 70
     8
  9
$DIMBLK
  1

  9
$DIMASO
 70
     1
  9
$DIMSHO
 70
     1
  9
$DIMPOST
  1

  9
$DIMAPOST
  1

  9
$DIMALT
 70
     0
  9
$DIMALTD
 70
     2
  9
$DIMALTF
 40
25.4
  9
$DIMLFAC
 40
1.0
  9
$DIMTOFL
 70
     1
  9
$DIMTVP
 40
0.0
  9
$DIMTIX
 70
     0
  9
$DIMSOXD
 70
     0
  9
$DIMSAH
 70
     1
  9
$DIMBLK1
  1
OPEN
  9
$DIMBLK2
  1
OPEN
  9
$DIMSTYLE
  2
STANDARD
  9
$DIMCLRD
 70
     0
  9
$DIMCLRE
 70
     0
  9
$DIMCLRT
 70
     0
  9
$DIMTFAC
 40
1.0
  9
$DIMGAP
 40
1.0
  9
$DIMJUST
 70
     0
  9
$DIMSD1
 70
     0
  9
$DIMSD2
 70
     0
  9
$DIMTOLJ
 70
     1
  9
$DIMTZIN
 70
     0
  9
$DIMALTZ
 70
     0
  9
$DIMALTTZ
 70
     0
  9
$DIMUPT
 70
     0
  9
$DIMDEC
 70
     4
  9
$DIMTDEC
 70
     4
  9
$DIMALTU
 70
     2
  9
$DIMALTTD
 70
     2
  9
$DIMTXSTY
  7
STANDARD
  9
$DIMAUNIT
 70
     0
  9
$DIMADEC
 70
     0
  9
$DIMALTRND
 40
0.0
  9
$DIMAZIN
 70
     0
  9
$DIMDSEP
 70
    46
  9
$DIMATFIT
 70
     3
  9
$DIMFRAC
 70
     0
  9
$DIMLDRBLK
  1
OPEN
  9
$DIMLUNIT
 70
     2
  9
$DIMLWD
 70
    -2
  9
$DIMLWE
 70
    -2
  9
$DIMTMOVE
 70
     0
  9
$LUNITS
 70
     2
  9
$LUPREC
 70
     4
  9
$SKETCHINC
 40
1.0
  9
$FILLETRAD
 40
2.0
  9
$AUNITS
 70
     0
  9
$AUPREC
 70
     0
  9
$MENU
  1
.
  9
$ELEVATION
 40
0.0
  9
$PELEVATION
 40
0.0
  9
$THICKNESS
 40
0.0
  9
$LIMCHECK
 70
     0
  9
$CHAMFERA
 40
10.0
  9
$CHAMFERB
 40
10.0
  9
$CHAMFERC
 40
20.0
  9
$CHAMFERD
 40
0.0
  9
$SKPOLY
 70
     0
  9
$TDCREATE
 40
2453276.443459734
  9
$TDUCREATE
 40
2453276.068459734
  9
$TDUPDATE
 40
2457192.691153993
  9
$TDUUPDATE
 40
2457192.316153993
  9
$TDINDWG
 40
0.2429015046
  9
$TDUSRTIMER
 40
0.2429012963
  9
$USRTIMER
 70
     1
  9
$ANGBASE
 50
0.0
  9
$ANGDIR
 70
     0
  9
$PDMODE
 70
     0
  9
$PDSIZE
 40
0.0
  9
$PLINEWID
 40
0.0
  9
$SPLFRAME
 70
     0
  9
$SPLINETYPE
 70
     6
  9
$SPLINESEGS
 70
     8
  9
$HANDSEED
  5
10EF
  9
$SURFTAB1
 70
     6
  9
$SURFTAB2
 70
     6
  9
$SURFTYPE
 70
     6
  9
$SURFU
 70
     6
  9
$SURFV
 70
     6
  9
$UCSBASE
  2

  9
$UCSNAME
  2

  9
$UCSORG
 10
0.0
 20
0.0
 30
0.0
  9
$UCSXDIR
 10
1.0
 20
0.0
 30
0.0
  9
$UCSYDIR
 10
0.0
 20
1.0
 30
0.0
  9
$UCSORTHOREF
  2

  9
$UCSORTHOVIEW
 70
     0
  9
$UCSORGTOP
 10
0.0
 20
0.0
 30
0.0
  9
$UCSORGBOTTOM
 10
0.0
 20
0.0
 30
0.0
  9
$UCSORGLEFT
 10
0.0
 20
0.0
 30
0.0
  9
$UCSORGRIGHT
 10
0.0
 20
0.0
 30
0.0
  9
$UCSORGFRONT
 10
0.0
 20
0.0
 30
0.0
  9
$UCSORGBACK
 10
0.0
 20
0.0
 30
0.0
  9
$PUCSBASE
  2

  9
$PUCSNAME
  2

  9
$PUCSORG
 10
0.0
 20
0.0
 30
0.0
  9
$PUCSXDIR
 10
1.0
 20
0.0
 30
0.0
  9
$PUCSYDIR
 10
0.0
 20
1.0
 30
0.0
  9
$PUCSORTHOREF
  2

  9
$PUCSORTHOVIEW
 70
     0
  9
$PUCSORGTOP
 10
0.0
 20
0.0
 30
0.0
  9
$PUCSORGBOTTOM
 10
0.0
 20
0.0
 30
0.0
  9
$PUCSORGLEFT
 10
0.0
 20
0.0
 30
0.0
  9
$PUCSORGRIGHT
 10
0.0
 20
0.0
 30
0.0
  9
$PUCSORGFRONT
 10
0.0
 20
0.0
 30
0.0
  9
$PUCSORGBACK
 10
0.0
 20
0.0
 30
0.0
  9
$USERI1
 70
     0
  9
$USERI2
 70
     0
  9
$USERI3
 70
     0
  9
$USERI4
 70
     0
  9
$USERI5
 70
     0
  9
$USERR1
 40
0.0
  9
$USERR2
 40
0.0
  9
$USERR3
 40
0.0
  9
$USERR4
 40
0.0
  9
$USERR5
 40
0.0
  9
$WORLDVIEW
 70
     1
  9
$SHADEDGE
 70
     3
  9
$SHADEDIF
 70
    70
  9
$TILEMODE
 70
     1
  9
$MAXACTVP
 70
    48
  9
$PINSBASE
 10
0.0
 20
0.0
 30
0.0
  9
$PLIMCHECK
 70
     0
  9
$PEXTMIN
 10
1.000000000000000E+20
 20
1.000000000000000E+20
 30
1.000000000000000E+20
  9
$PEXTMAX
 10
-1.000000000000000E+20
 20
-1.000000000000000E+20
 30
-1.000000000000000E+20
  9
$PLIMMIN
 10
0.0
 20
0.0
  9
$PLIMMAX
 10
420.0
 20
297.0
  9
$UNITMODE
 70
     0
  9
$VISRETAIN
 70
     1
  9
$PLINEGEN
 70
     0
  9
$PSLTSCALE
 70
     1
  9
$TREEDEPTH
 70
  3020
  9
$CMLSTYLE
  2
STANDARD
  9
$CMLJUST
 70
     0
  9
$CMLSCALE
 40
20.0
  9
$PROXYGRAPHICS
 70
     1
  9
$MEASUREMENT
 70
     0
  9
$CELWEIGHT
370
    -1
  9
$ENDCAPS
280
     0
  9
$JOINSTYLE
280
     0
  9
$LWDISPLAY
290
     0
  9
$INSUNITS
 70
     0
  9
$HYPERLINKBASE
  1

  9
$STYLESHEET
  1

  9
$XEDIT
290
     1
  9
$CEPSNTYPE
380
     0
  9
$PSTYLEMODE
290
     1
  9
$FINGERPRINTGUID
  2
{BD60797B-4959-4506-82CD-2ED8218E0686}
  9
$VERSIONGUID
  2
{7D7141FD-DA96-449F-B88A-1204C38E7CEB}
  9
$EXTNAMES
290
     1
  9
$PSVPSCALE
 40
0.0
  9
$OLESTARTUP
290
     0
  0
ENDSEC
  0
SECTION
  2
CLASSES
  0
CLASS
  1
ACDBDICTIONARYWDFLT
  2
AcDbDictionaryWithDefault
  3
ObjectDBX Classes
 90
        0
280
     0
281
     0
  0
CLASS
  1
ACDBPLACEHOLDER
  2
AcDbPlaceHolder
  3
ObjectDBX Classes
 90
        0
280
     0
281
     0
  0
CLASS
  1
LAYOUT
  2
AcDbLayout
  3
ObjectDBX Classes
 90
        0
280
     0
281
     0
  0
CLASS
  1
DICTIONARYVAR
  2
AcDbDictionaryVar
  3
ObjectDBX Classes
 90
        0
280
     0
281
     0
  0
CLASS
  1
MATERIAL
  2
AcDbMaterial
  3
ObjectDBX Classes
 90
     1153
280
     0
281
     0
  0
CLASS
  1
VISUALSTYLE
  2
AcDbVisualStyle
  3
ObjectDBX Classes
 90
     4095
280
     0
281
     0
  0
CLASS
  1
TABLESTYLE
  2
AcDbTableStyle
  3
ObjectDBX Classes
 90
     4095
280
     0
281
     0
  0
CLASS
  1
SCALE
  2
AcDbScale
  3
ObjectDBX Classes
 90
     1153
280
     0
281
     0
  0
CLASS
  1
MLEADERSTYLE
  2
AcDbMLeaderStyle
  3
ACDB_MLEADERSTYLE_CLASS
 90
     4095
280
     0
281
     0
  0
CLASS
  1
ACDBSECTIONVIEWSTYLE
  2
AcDbSectionViewStyle
  3
ObjectDBX Classes
 90
     1025
280
     0
281
     0
  0
CLASS
  1
ACDBDETAILVIEWSTYLE
  2
AcDbDetailViewStyle
  3
ObjectDBX Classes
 90
     1025
280
     0
281
     0
  0
CLASS
  1
CELLSTYLEMAP
  2
AcDbCellStyleMap
  3
ObjectDBX Classes
 90
     1152
280
     0
281
     0
  0
ENDSEC
  0
SECTION
  2
TABLES
  0
TABLE
  2
VPORT
  5
8
330
0
100
AcDbSymbolTable
 70
     1
  0
VPORT
  5
103B
330
8
100
AcDbSymbolTableRecord
100
AcDbViewportTableRecord
  2
*ACTIVE
 70
     0
 10
0.0
 20
0.0
 11
1.0
 21
1.0
 12
553.0569842419854
 22
243.3614054625433
 13
0.0
 23
0.0
 14
10.0
 24
10.0
 15
10.0
 25
10.0
 16
0.0
 26
0.0
 36
1.0
 17
0.0
 27
0.0
 37
0.0
 40
470.4459721488786
 41
2.35006605019815
 42
50.0
 43
0.0
 44
0.0
 50
0.0
 51
0.0
 71
     0
 72
   100
 73
     1
 74
     0
 75
     0
 76
     0
 77
     0
 78
     0
281
     0
 65
     1
110
0.0
120
0.0
130
0.0
111
1.0
121
0.0
131
0.0
112
0.0
122
1.0
132
0.0
 79
     0
146
0.0
1001
ACAD_NAV_VCDISPLAY
1070
     3
  0
ENDTAB
  0
TABLE
  2
LTYPE
  5
5
330
0
100
AcDbSymbolTable
 70
     4
  0
LTYPE
  5
12
330
5
100
AcDbSymbolTableRecord
100
AcDbLinetypeTableRecord
  2
BYBLOCK
 70
     0
  3

 72
    65
 73
     0
 40
0.0
  0
LTYPE
  5
13
330
5
100
AcDbSymbolTableRecord
100
AcDbLinetypeTableRecord
  2
BYLAYER
 70
     0
  3

 72
    65
 73
     0
 40
0.0
  0
LTYPE
  5
14
330
5
100
AcDbSymbolTableRecord
100
AcDbLinetypeTableRecord
  2
CONTINUOUS
 70
     0
  3
Solid line
 72
    65
 73
     0
 40
0.0
  0
LTYPE
  5
62
330
5
100
AcDbSymbolTableRecord
100
AcDbLinetypeTableRecord
  2
DASHED
 70
     0
  3
Dashed __ __ __ __ __ __ __ __ __ __ __ __ __ _
 72
    65
 73
     2
 40
19.04999999999998
 49
12.7
 74
     0
 49
-6.349999999999997
 74
     0
  0
LTYPE
  5
63
330
5
100
AcDbSymbolTableRecord
100
AcDbLinetypeTableRecord
  2
CENTER
 70
     0
  3
Center ____ _ ____ _ ____ _ ____ _ ____ _ ____
 72
    65
 73
     4
 40
50.8
 49
31.75
 74
     0
 49
-6.349999999999997
 74
     0
 49
6.349999999999997
 74
     0
 49
-6.349999999999997
 74
     0
  0
LTYPE
  5
64
330
5
100
AcDbSymbolTableRecord
100
AcDbLinetypeTableRecord
  2
PHANTOM
 70
     0
  3
Phantom ______  __  __  ______  __  __  ______
 72
    65
 73
     6
 40
63.5
 49
31.75
 74
     0
 49
-6.349999999999997
 74
     0
 49
6.349999999999997
 74
     0
 49
-6.349999999999997
 74
     0
 49
6.349999999999997
 74
     0
 49
-6.349999999999997
 74
     0
  0
ENDTAB
  0
TABLE
  2
LAYER
  5
2
330
0
100
AcDbSymbolTable
 70
     8
  0
LAYER
  5
E
102
{ACAD_XDICTIONARY
360
1093
102
}
330
2
100
AcDbSymbolTableRecord
100
AcDbLayerTableRecord
  2
0
 70
     0
 62
     7
  6
CONTINUOUS
370
    -3
390
1042
  0
LAYER
  5
65
102
{ACAD_XDICTIONARY
360
1095
102
}
330
2
100
AcDbSymbolTableRecord
100
AcDbLayerTableRecord
  2
4
 70
     0
 62
     1
  6
CENTER
370
    -3
390
1042
  0
LAYER
  5
66
102
{ACAD_XDICTIONARY
360
1097
102
}
330
2
100
AcDbSymbolTableRecord
100
AcDbLayerTableRecord
  2
5
 70
     0
 62
     6
  6
PHANTOM
370
    -3
390
1042
  0
LAYER
  5
67
102
{ACAD_XDICTIONARY
360
1099
102
}
330
2
100
AcDbSymbolTableRecord
100
AcDbLayerTableRecord
  2
1
 70
     0
 62
     7
  6
CONTINUOUS
370
    -3
390
1042
  0
LAYER
  5
68
102
{ACAD_XDICTIONARY
360
109B
102
}
330
2
100
AcDbSymbolTableRecord
100
AcDbLayerTableRecord
  2
2
 70
     0
 62
     4
  6
CONTINUOUS
370
    -3
390
1042
  0
LAYER
  5
69
102
{ACAD_XDICTIONARY
360
109D
102
}
330
2
100
AcDbSymbolTableRecord
100
AcDbLayerTableRecord
  2
3
 70
     0
 62
     2
  6
DASHED
370
    -3
390
1042
  0
LAYER
  5
6A
102
{ACAD_XDICTIONARY
360
109F
102
}
330
2
100
AcDbSymbolTableRecord
100
AcDbLayerTableRecord
  2
6
 70
     0
 62
     5
  6
CONTINUOUS
370
    -3
390
1042
  0
LAYER
  5
6B
102
{ACAD_XDICTIONARY
360
10A1
102
}
330
2
100
AcDbSymbolTableRecord
100
AcDbLayerTableRecord
  2
7
 70
     0
 62
     3
  6
CONTINUOUS
370
    -3
390
1042
  0
ENDTAB
  0
TABLE
  2
STYLE
  5
3
330
0
100
AcDbSymbolTable
 70
     1
  0
STYLE
  5
F
330
3
100
AcDbSymbolTableRecord
100
AcDbTextStyleTableRecord
  2
STANDARD
 70
     0
 40
0.0
 41
1.0
 50
0.0
 71
     0
 42
2.5
  3
simplex.shx
  4

  0
ENDTAB
  0
TABLE
  2
VIEW
  5
6
330
0
100
AcDbSymbolTable
 70
     0
  0
ENDTAB
  0
TABLE
  2
UCS
  5
7
330
0
100
AcDbSymbolTable
 70
     0
  0
ENDTAB
  0
TABLE
  2
APPID
  5
9
330
0
100
AcDbSymbolTable
 70
     5
  0
APPID
  5
10
330
9
100
AcDbSymbolTableRecord
100
AcDbRegAppTableRecord
  2
ACAD
 70
     0
  0
APPID
  5
3E
330
9
100
AcDbSymbolTableRecord
100
AcDbRegAppTableRecord
  2
CONTENTTABDATA
 70
     0
  0
APPID
  5
3F
330
9
100
AcDbSymbolTableRecord
100
AcDbRegAppTableRecord
  2
CONTENTCURRENTTAB
 70
     0
  0
APPID
  5
10AD
330
9
100
AcDbSymbolTableRecord
100
AcDbRegAppTableRecord
  2
ACAD_NAV_VCDISPLAY
 70
     0
  0
APPID
  5
10E6
330
9
100
AcDbSymbolTableRecord
100
AcDbRegAppTableRecord
  2
ACAD_MLEADERVER
 70
     0
  0
ENDTAB
  0
TABLE
  2
DIMSTYLE
  5
A
330
0
100
AcDbSymbolTable
 70
     1
100
AcDbDimStyleTable
 71
     0
  0
DIMSTYLE
105
1D
330
A
100
AcDbSymbolTableRecord
100
AcDbDimStyleTableRecord
  2
STANDARD
 70
     0
 41
3.0
 42
1.0
 43
10.0
 44
1.0
 73
     0
 74
     0
 77
     3
 78
     8
140
3.2
141
0.0
147
1.0
172
     1
173
     1
340
F
341
2E
343
2E
344
2E
  0
ENDTAB
  0
TABLE
  2
BLOCK_RECORD
  5
1
330
0
100
AcDbSymbolTable
 70
     1
  0
BLOCK_RECORD
  5
18
102
{ACAD_XDICTIONARY
360
1028
102
}
330
1
100
AcDbSymbolTableRecord
100
AcDbBlockTableRecord
  2
*MODEL_SPACE
340
1090
  0
BLOCK_RECORD
  5
15
102
{ACAD_XDICTIONARY
360
1026
102
}
330
1
100
AcDbSymbolTableRecord
100
AcDbBlockTableRecord
  2
*PAPER_SPACE
340
1091
  0
BLOCK_RECORD
  5
2E
330
1
100
AcDbSymbolTableRecord
100
AcDbBlockTableRecord
  2
_OPEN
340
0
  0
ENDTAB
  0
ENDSEC
  0
SECTION
  2
BLOCKS
  0
BLOCK
  5
19
330
18
100
AcDbEntity
  8
0
100
AcDbBlockBegin
  2
*MODEL_SPACE
 70
     0
 10
0.0
 20
0.0
 30
0.0
  3
*MODEL_SPACE
  1

  0
ENDBLK
  5
1A
330
18
100
AcDbEntity
  8
0
100
AcDbBlockEnd
  0
BLOCK
  5
16
330
15
100
AcDbEntity
 67
     1
  8
0
100
AcDbBlockBegin
  2
*PAPER_SPACE
 70
     0
 10
0.0
 20
0.0
 30
0.0
  3
*PAPER_SPACE
  1

  0
ENDBLK
  5
17
330
15
100
AcDbEntity
 67
     1
  8
0
100
AcDbBlockEnd
  0
BLOCK
  5
2F
330
2E
100
AcDbEntity
  8
0
100
AcDbBlockBegin
  2
_OPEN
 70
     0
 10
0.0
 20
0.0
 30
0.0
  3
_OPEN
  1

  0
LINE
  5
30
330
2E
100
AcDbEntity
  8
0
  6
ByBlock
 62
     0
100
AcDbLine
 10
-1.0
 20
0.1666666666666666
 30
0.0
 11
0.0
 21
0.0
 31
0.0
  0
LINE
  5
31
330
2E
100
AcDbEntity
  8
0
  6
ByBlock
 62
     0
100
AcDbLine
 10
0.0
 20
0.0
 30
0.0
 11
-1.0
 21
-0.1666666666666666
 31
0.0
  0
LINE
  5
32
330
2E
100
AcDbEntity
  8
0
  6
ByBlock
 62
     0
100
AcDbLine
 10
0.0
 20
0.0
 30
0.0
 11
-1.0
 21
0.0
 31
0.0
  0
ENDBLK
  5
33
330
2E
100
AcDbEntity
  8
0
100
AcDbBlockEnd
  0
ENDSEC
  0
SECTION
  2
ENTITIES
  0
ARC
  5
24E
330
18
100
AcDbEntity
  8
1
  6
Continuous
100
AcDbCircle
 10
211.1541009902353
 20
386.8115774897237
 30
0.0
 40
10.0
100
AcDbArc
 50
179.9999899999995
 51
318.1896900000001
  0
ARC
  5
24F
330
18
100
AcDbEntity
  8
1
  6
Continuous
100
AcDbCircle
 10
211.1541009902353
 20
466.8115774897238
 30
0.0
 40
10.0
100
AcDbArc
 50
41.81031700000024
 51
180.0000100000002
  0
LINE
  5
250
330
18
100
AcDbEntity
  8
1
  6
Continuous
100
AcDbLine
 10
201.3005509902351
 20
308.9580234897238
 30
0.0
 11
208.8251709902353
 21
301.4334014897237
 31
0.0
  0
LINE
  5
257
330
18
100
AcDbEntity
  8
1
  6
Continuous
100
AcDbLine
 10
201.6541009902351
 20
308.8115774897238
 30
0.0
 11
270.6541009902351
 21
308.8115774897238
 31
0.0
  0
LINE
  5
258
330
18
100
AcDbEntity
  8
1
  6
Continuous
100
AcDbLine
 10
201.1541009902351
 20
316.8115774897238
 30
0.0
 11
271.1541009902354
 21
316.8115774897238
 31
0.0
  0
LINE
  5
25A
330
18
100
AcDbEntity
  8
1
  6
Continuous
100
AcDbLine
 10
201.1541009902351
 20
316.8115774897238
 30
0.0
 11
201.1541009902351
 21
309.3115774897236
 31
0.0
  0
LINE
  5
25B
330
18
100
AcDbEntity
  8
1
  6
Continuous
100
AcDbLine
 10
116.1541009902351
 20
316.8115774897238
 30
0.0
 11
116.1541009902351
 21
309.3115774897236
 31
0.0
  0
LINE
  5
25C
330
18
100
AcDbEntity
  8
4
  6
CENTER
 48
0.3
100
AcDbLine
 10
106.1541009902351
 20
323.6054654897237
 30
0.0
 11
106.1541009902351
 21
302.1151684897237
 31
0.0
  0
LINE
  5
25D
330
18
100
AcDbEntity
  8
4
  6
CENTER
 48
0.5
100
AcDbLine
 10
66.15410099023525
 20
323.6054654897237
 30
0.0
 11
66.15410099023525
 21
195.6856464897237
 31
0.0
  0
LINE
  5
25E
330
18
100
AcDbEntity
  8
1
  6
Continuous
100
AcDbLine
 10
16.15410099023523
 20
316.8115774897238
 30
0.0
 11
16.15410099023523
 21
309.3115774897236
 31
0.0
  0
LINE
  5
25F
330
18
100
AcDbEntity
  8
4
  6
CENTER
 48
0.3
100
AcDbLine
 10
26.15410099023522
 20
323.6054654897237
 30
0.0
 11
26.15410099023522
 21
302.1151684897237
 31
0.0
  0
LINE
  5
260
330
18
100
AcDbEntity
  8
1
  6
Continuous
100
AcDbLine
 10
53.25410699023525
 20
216.0115774897236
 30
0.0
 11
79.05409499023523
 21
216.0115774897236
 31
0.0
  0
LINE
  5
261
330
18
100
AcDbEntity
  8
4
  6
CENTER
 48
0.5
100
AcDbLine
 10
33.46705899023528
 20
262.4115754897236
 30
0.0
 11
101.3953429902352
 21
262.4115754897236
 31
0.0
  0
LINE
  5
262
330
18
100
AcDbEntity
  8
1
  6
Continuous
100
AcDbLine
 10
16.65410099023523
 20
308.8115774897238
 30
0.0
 11
115.6541009902351
 21
308.8115774897238
 31
0.0
  0
LINE
  5
266
330
18
100
AcDbEntity
  8
1
  6
Continuous
100
AcDbLine
 10
88.55409499023521
 20
225.6115804897238
 30
0.0
 11
43.75410699023524
 21
225.6115804897238
 31
0.0
  0
LINE
  5
267
330
18
100
AcDbEntity
  8
1
  6
Continuous
100
AcDbLine
 10
47.55409499023521
 20
220.8115774897236
 30
0.0
 11
84.75410699023525
 21
220.8115774897236
 31
0.0
  0
TEXT
  5
269
330
18
100
AcDbEntity
  8
1
  6
Continuous
 48
0.25
100
AcDbText
 10
9.99999906424682
 20
10.00000056761564
 30
0.0
 40
1.399999999999999
  1
LAYER
100
AcDbText
  0
TEXT
  5
26A
330
18
100
AcDbEntity
  8
7
  6
Continuous
 48
0.25
100
AcDbText
 10
9.99999906424682
 20
18.00000056761564
 30
0.0
 40
3.0
  1
TYPE No.TCA-909LK-42S-100
100
AcDbText
  0
TEXT
  5
26B
330
18
100
AcDbEntity
  8
7
  6
Continuous
 48
0.25
100
AcDbText
 10
9.99999906424682
 20
26.00000056761564
 30
0.0
 40
3.0
  1
CODE No.19233
100
AcDbText
  0
TEXT
  5
26C
330
18
100
AcDbEntity
  8
7
  6
Continuous
 48
0.25
100
AcDbText
 10
29.97951006424682
 20
9.999999806846743
 30
0.0
 40
1.399999999999999
  1
7
100
AcDbText
  0
TEXT
  5
26D
330
18
100
AcDbEntity
  8
6
  6
Continuous
 48
0.25
100
AcDbText
 10
27.97951006424682
 20
9.999999806846743
 30
0.0
 40
1.399999999999999
  1
6
100
AcDbText
  0
TEXT
  5
26E
330
18
100
AcDbEntity
  8
5
  6
PHANTOM
 48
0.25
100
AcDbText
 10
25.97951006424682
 20
9.999999806846743
 30
0.0
 40
1.399999999999999
  1
5
100
AcDbText
  0
TEXT
  5
26F
330
18
100
AcDbEntity
  8
1
  6
Continuous
 48
0.25
100
AcDbText
 10
17.97951006424682
 20
9.999999806846743
 30
0.0
 40
1.399999999999999
  1
1
100
AcDbText
  0
TEXT
  5
270
330
18
100
AcDbEntity
  8
3
  6
DASHED
 48
0.25
100
AcDbText
 10
21.97951006424682
 20
9.999999806846743
 30
0.0
 40
1.399999999999999
  1
3
100
AcDbText
  0
TEXT
  5
271
330
18
100
AcDbEntity
  8
2
  6
Continuous
 48
0.25
100
AcDbText
 10
19.97951006424682
 20
9.999999806846743
 30
0.0
 40
1.399999999999999
  1
2
100
AcDbText
  0
TEXT
  5
272
330
18
100
AcDbEntity
  8
4
  6
CENTER
 48
0.25
100
AcDbText
 10
23.97951006424682
 20
9.999999806846743
 30
0.0
 40
1.399999999999999
  1
4
100
AcDbText
  0
LINE
  5
273
330
18
100
AcDbEntity
  8
1
  6
Continuous
100
AcDbLine
 10
41.75410699023524
 20
260.2856104897238
 30
0.0
 11
41.75410699023524
 21
227.6115804897238
 31
0.0
  0
LINE
  5
274
330
18
100
AcDbEntity
  8
1
  6
Continuous
100
AcDbLine
 10
38.45410399023524
 20
281.9274374897237
 30
0.0
 11
38.45410399023524
 21
253.6889384897238
 31
0.0
  0
LINE
  5
275
330
18
100
AcDbEntity
  8
1
  6
Continuous
100
AcDbLine
 10
41.45410399023524
 20
285.3644174897238
 30
0.0
 11
41.45410399023524
 21
253.6889384897238
 31
0.0
  0
ARC
  5
276
330
18
100
AcDbEntity
  8
1
  6
Continuous
100
AcDbCircle
 10
29.65410099023523
 20
210.8115884897237
 30
0.0
 40
3.5
100
AcDbArc
 50
89.99998199999998
 51
179.99996
  0
LINE
  5
277
330
18
100
AcDbEntity
  8
1
  6
Continuous
100
AcDbLine
 10
26.15410099023522
 20
210.8115884897237
 30
0.0
 11
26.15410099023522
 21
208.0115854897238
 31
0.0
  0
LINE
  5
278
330
18
100
AcDbEntity
  8
1
  6
Continuous
100
AcDbLine
 10
26.99666099023522
 20
208.0115774897236
 30
0.0
 11
27.85408999023526
 21
204.8115804897238
 31
0.0
  0
ARC
  5
279
330
18
100
AcDbEntity
  8
1
  6
Continuous
100
AcDbCircle
 10
53.25410699023525
 20
219.0115774897237
 30
0.0
 40
3.0
100
AcDbArc
 50
179.9999799999999
 51
270.0
  0
ARC
  5
27A
330
18
100
AcDbEntity
  8
1
  6
Continuous
100
AcDbCircle
 10
52.40410099023524
 20
215.3115884897238
 30
0.0
 40
1.0
100
AcDbArc
 50
269.9999399999995
 51
314.9929899999999
  0
LINE
  5
27B
330
18
100
AcDbEntity
  8
1
  6
Continuous
100
AcDbLine
 10
54.51864906217436
 20
216.0115774897238
 30
0.0
 11
53.11112799023521
 21
214.6043964897237
 31
0.0
  0
ARC
  5
27C
330
18
100
AcDbEntity
  8
1
  6
Continuous
100
AcDbCircle
 10
47.55409499023521
 20
223.8115774897238
 30
0.0
 40
3.0
100
AcDbArc
 50
179.9999899999995
 51
270.0
  0
ARC
  5
27D
330
18
100
AcDbEntity
  8
1
  6
Continuous
100
AcDbCircle
 10
43.75410699023524
 20
227.6115804897238
 30
0.0
 40
2.0
100
AcDbArc
 50
179.9999899999995
 51
270.0
  0
LINE
  5
27E
330
18
100
AcDbEntity
  8
1
  6
Continuous
100
AcDbLine
 10
44.55410999023523
 20
225.6115804897238
 30
0.0
 11
44.55410999023523
 21
223.8115774897238
 31
0.0
  0
LINE
  5
27F
330
18
100
AcDbEntity
  8
1
  6
Continuous
100
AcDbLine
 10
50.25410699023524
 20
219.0115774897237
 30
0.0
 11
50.25410699023524
 21
220.8115774897236
 31
0.0
  0
LINE
  5
280
330
18
100
AcDbEntity
  8
1
  6
Continuous
100
AcDbLine
 10
41.45410399023524
 20
253.6889384897238
 30
0.0
 11
38.45410399023524
 21
253.6889384897238
 31
0.0
  0
ARC
  5
281
330
18
100
AcDbEntity
  8
1
  6
Continuous
100
AcDbCircle
 10
16.65410099023523
 20
309.3115774897236
 30
0.0
 40
0.5
100
AcDbArc
 50
179.9999899999995
 51
270.0
  0
LINE
  5
282
330
18
100
AcDbEntity
  8
1
  6
Continuous
100
AcDbLine
 10
40.58253699023521
 20
284.0558774897236
 30
0.0
 11
38.35409799023523
 21
281.8274384897236
 31
0.0
  0
ARC
  5
283
330
18
100
AcDbEntity
  8
1
  6
Continuous
100
AcDbCircle
 10
39.35409799023523
 20
280.7547164897237
 30
0.0
 40
4.0
100
AcDbArc
 50
135.0000000000002
 51
180.0000100000002
  0
LINE
  5
284
330
18
100
AcDbEntity
  8
1
  6
Continuous
100
AcDbLine
 10
41.75410699023524
 20
306.2392624897237
 30
0.0
 11
41.75410699023524
 21
275.1419764897236
 31
0.0
  0
LINE
  5
285
330
18
100
AcDbEntity
  8
1
  6
Continuous
100
AcDbLine
 10
35.35409799023523
 20
300.4022394897237
 30
0.0
 11
35.35409799023523
 21
264.6140214897237
 31
0.0
  0
LINE
  5
286
330
18
100
AcDbEntity
  8
4
  6
CENTER
 48
0.5
100
AcDbLine
 10
44.60011499023521
 20
276.9472094897238
 30
0.0
 11
30.61764799023523
 21
276.9472094897238
 31
0.0
  0
ARC
  5
287
330
18
100
AcDbEntity
  8
1
  6
Continuous
100
AcDbCircle
 10
38.95410399023522
 20
266.0055164897236
 30
0.0
 40
2.0
100
AcDbArc
 50
104.4775099999994
 51
180.0000100000002
  0
ARC
  5
288
330
18
100
AcDbEntity
  8
1
  6
Continuous
100
AcDbCircle
 10
38.95410399023522
 20
258.8785024897238
 30
0.0
 40
2.0
100
AcDbArc
 50
179.9999899999995
 51
255.5224899999996
  0
LINE
  5
289
330
18
100
AcDbEntity
  8
1
  6
Continuous
100
AcDbLine
 10
36.95410399023524
 20
266.0055164897236
 30
0.0
 11
36.95410399023524
 21
258.8785024897238
 31
0.0
  0
LINE
  5
28A
330
18
100
AcDbEntity
  8
1
  6
Continuous
100
AcDbLine
 10
35.35409799023523
 20
264.6140214897237
 30
0.0
 11
36.95410399023524
 21
264.6140214897237
 31
0.0
  0
LINE
  5
28B
330
18
100
AcDbEntity
  8
1
  6
Continuous
100
AcDbLine
 10
33.55409499023522
 20
279.1141744897237
 30
0.0
 11
33.55409499023522
 21
274.7802364897236
 31
0.0
  0
LINE
  5
28C
330
18
100
AcDbEntity
  8
1
  6
Continuous
100
AcDbLine
 10
34.75410699023523
 20
280.9472054897237
 30
0.0
 11
34.75410699023523
 21
272.9472054897237
 31
0.0
  0
ARC
  5
28D
330
18
100
AcDbEntity
  8
1
  6
Continuous
100
AcDbCircle
 10
35.55409499023522
 20
274.7802364897236
 30
0.0
 40
2.0
100
AcDbArc
 50
179.9999899999995
 51
246.4218299999997
  0
LINE
  5
28E
330
18
100
AcDbEntity
  8
1
  6
Continuous
100
AcDbLine
 10
34.75410299023518
 20
272.9471994897235
 30
0.0
 11
35.35410599023521
 21
273.9472084897237
 31
0.0
  0
ARC
  5
28F
330
18
100
AcDbEntity
  8
1
  6
Continuous
100
AcDbCircle
 10
35.55409499023522
 20
279.1141744897237
 30
0.0
 40
2.0
100
AcDbArc
 50
113.57818
 51
180.0000100000002
  0
LINE
  5
290
330
18
100
AcDbEntity
  8
1
  6
Continuous
100
AcDbLine
 10
35.35410599023521
 20
279.9472044897238
 30
0.0
 11
34.75410699023523
 21
280.9471974897236
 31
0.0
  0
LINE
  5
291
330
18
100
AcDbEntity
  8
1
  6
Continuous
100
AcDbLine
 10
38.35409799023523
 20
281.8274394897238
 30
0.0
 11
38.35409799023523
 21
267.9133964897236
 31
0.0
  0
LINE
  5
292
330
18
100
AcDbEntity
  8
1
  6
Continuous
100
AcDbLine
 10
43.15410099023521
 20
272.6042644897237
 30
0.0
 11
43.15410099023521
 21
260.2856104897238
 31
0.0
  0
LINE
  5
293
330
18
100
AcDbEntity
  8
1
  6
Continuous
100
AcDbLine
 10
43.15410099023521
 20
260.2856104897238
 30
0.0
 11
41.75409199023522
 21
260.2856104897238
 31
0.0
  0
LINE
  5
294
330
18
100
AcDbEntity
  8
1
  6
Continuous
100
AcDbLine
 10
41.75410699023524
 20
258.4420094897237
 30
0.0
 11
41.45410399023524
 21
258.4420094897237
 31
0.0
  0
LINE
  5
295
330
18
100
AcDbEntity
  8
1
  6
Continuous
100
AcDbLine
 10
43.15410099023521
 20
266.4420094897237
 30
0.0
 11
41.45410399023524
 21
266.4420094897237
 31
0.0
  0
ARC
  5
296
330
18
100
AcDbEntity
  8
1
  6
Continuous
100
AcDbCircle
 10
40.15410099023521
 20
272.6042644897237
 30
0.0
 40
3.0
100
AcDbArc
 50
359.9999899999998
 51
57.76891399999978
  0
LINE
  5
297
330
18
100
AcDbEntity
  8
1
  6
Continuous
100
AcDbLine
 10
41.18936799023527
 20
306.3905854897237
 30
0.0
 11
32.15409299023526
 21
308.8115814897237
 31
0.0
  0
ARC
  5
298
330
18
100
AcDbEntity
  8
1
  6
Continuous
100
AcDbCircle
 10
39.25410699023525
 20
295.2480684897238
 30
0.0
 40
2.0
100
AcDbArc
 50
179.9999899999995
 51
255.5224899999996
  0
LINE
  5
299
330
18
100
AcDbEntity
  8
1
  6
Continuous
100
AcDbLine
 10
38.75410699023524
 20
285.8115874897237
 30
0.0
 11
36.52566799023521
 21
283.5831484897237
 31
0.0
  0
ARC
  5
29A
330
18
100
AcDbEntity
  8
1
  6
Continuous
100
AcDbCircle
 10
39.25410699023525
 20
302.3750844897238
 30
0.0
 40
2.0
100
AcDbArc
 50
104.4775099999994
 51
180.0000100000002
  0
LINE
  5
29B
330
18
100
AcDbEntity
  8
1
  6
Continuous
100
AcDbLine
 10
37.25410699023524
 20
302.3750844897238
 30
0.0
 11
37.25410699023524
 21
295.2480684897238
 31
0.0
  0
LINE
  5
29C
330
18
100
AcDbEntity
  8
1
  6
Continuous
100
AcDbLine
 10
37.25410699023524
 20
300.4022394897237
 30
0.0
 11
35.35409799023523
 21
300.4022394897237
 31
0.0
  0
LINE
  5
29D
330
18
100
AcDbEntity
  8
1
  6
Continuous
100
AcDbLine
 10
38.75410699023524
 20
307.0431104897236
 30
0.0
 11
38.75410699023524
 21
285.8115774897238
 31
0.0
  0
ARC
  5
29E
330
18
100
AcDbEntity
  8
1
  6
Continuous
100
AcDbCircle
 10
37.75410699023524
 20
286.8842984897236
 30
0.0
 40
4.0
100
AcDbArc
 50
315.0000000000003
 51
0.0000050000000961
  0
ARC
  5
29F
330
18
100
AcDbEntity
  8
1
  6
Continuous
100
AcDbCircle
 10
40.15410099023521
 20
302.5268794897236
 30
0.0
 40
4.0
100
AcDbArc
 50
359.9999899999998
 51
74.9999990000001
  0
ARC
  5
2A0
330
18
100
AcDbEntity
  8
5
  6
PHANTOM
 48
0.5
100
AcDbCircle
 10
199.6541009902351
 20
185.8115774897236
 30
0.0
 40
3.5
100
AcDbArc
 50
89.99998199999998
 51
179.99996
  0
LINE
  5
2A1
330
18
100
AcDbEntity
  8
5
  6
PHANTOM
 48
0.5
100
AcDbLine
 10
196.9966709902351
 20
183.0115664897236
 30
0.0
 11
197.8541009902351
 21
179.8115694897236
 31
0.0
  0
LINE
  5
2A2
330
18
100
AcDbEntity
  8
5
  6
PHANTOM
 48
0.5
100
AcDbLine
 10
196.1541009902351
 20
185.8115774897236
 30
0.0
 11
196.1541009902351
 21
183.0115744897236
 31
0.0
  0
ARC
  5
2A3
330
18
100
AcDbEntity
  8
1
  6
Continuous
100
AcDbCircle
 10
95.05409499023523
 20
258.4420094897237
 30
0.0
 40
2.0
100
AcDbArc
 50
270.0
 51
0.0
  0
LINE
  5
2A4
330
18
100
AcDbEntity
  8
1
  6
Continuous
100
AcDbLine
 10
90.55409499023523
 20
260.2856104897238
 30
0.0
 11
90.55409499023523
 21
227.6115804897238
 31
0.0
  0
LINE
  5
2A5
330
18
100
AcDbEntity
  8
1
  6
Continuous
100
AcDbLine
 10
93.85409799023523
 20
281.9274374897237
 30
0.0
 11
93.85409799023523
 21
253.6889384897238
 31
0.0
  0
LINE
  5
2A6
330
18
100
AcDbEntity
  8
1
  6
Continuous
100
AcDbLine
 10
90.85409799023523
 20
285.3644174897238
 30
0.0
 11
90.85409799023523
 21
253.6889384897238
 31
0.0
  0
LINE
  5
2A7
330
18
100
AcDbEntity
  8
1
  6
Continuous
100
AcDbLine
 10
102.6541009902351
 20
214.3115884897238
 30
0.0
 11
29.65410099023523
 21
214.3115884897238
 31
0.0
  0
LINE
  5
2A8
330
18
100
AcDbEntity
  8
1
  6
Continuous
100
AcDbLine
 10
106.1541009902351
 20
208.0115854897238
 30
0.0
 11
26.15410099023524
 21
208.0115854897238
 31
0.0
  0
LINE
  5
2A9
330
18
100
AcDbEntity
  8
1
  6
Continuous
100
AcDbLine
 10
104.4540889902351
 20
204.8115884897236
 30
0.0
 11
27.85408784666074
 21
204.8115884897238
 31
0.0
  0
ARC
  5
2AB
330
18
100
AcDbEntity
  8
1
  6
Continuous
100
AcDbCircle
 10
79.05409499023523
 20
219.0115774897237
 30
0.0
 40
3.0
100
AcDbArc
 50
270.0
 51
0.0000180000000203
  0
LINE
  5
2AC
330
18
100
AcDbEntity
  8
1
  6
Continuous
100
AcDbLine
 10
77.78955096854898
 20
216.0115774897236
 30
0.0
 11
79.19707399023526
 21
214.6044004897238
 31
0.0
  0
ARC
  5
2AD
330
18
100
AcDbEntity
  8
1
  6
Continuous
100
AcDbCircle
 10
79.90410099023524
 20
215.3115884897238
 30
0.0
 40
1.0
100
AcDbArc
 50
225.0070099999998
 51
270.0000500000001
  0
ARC
  5
2AE
330
18
100
AcDbEntity
  8
1
  6
Continuous
100
AcDbCircle
 10
84.75410699023525
 20
223.8115774897238
 30
0.0
 40
3.0
100
AcDbArc
 50
270.0
 51
0.0000030000001391
  0
LINE
  5
2AF
330
18
100
AcDbEntity
  8
1
  6
Continuous
100
AcDbLine
 10
82.05409499023522
 20
219.0115774897237
 30
0.0
 11
82.05409499023522
 21
220.8115774897236
 31
0.0
  0
LINE
  5
2B0
330
18
100
AcDbEntity
  8
1
  6
Continuous
100
AcDbLine
 10
87.75410799023523
 20
225.6115804897238
 30
0.0
 11
87.75410799023523
 21
223.8115774897238
 31
0.0
  0
ARC
  5
2B1
330
18
100
AcDbEntity
  8
1
  6
Continuous
100
AcDbCircle
 10
88.55409499023521
 20
227.6115804897238
 30
0.0
 40
2.0
100
AcDbArc
 50
270.0
 51
0.0000030000001391
  0
LINE
  5
2B2
330
18
100
AcDbEntity
  8
1
  6
Continuous
100
AcDbLine
 10
90.85409799023523
 20
253.6889384897238
 30
0.0
 11
93.85409799023523
 21
253.6889384897238
 31
0.0
  0
ARC
  5
2B3
330
18
100
AcDbEntity
  8
1
  6
Continuous
100
AcDbCircle
 10
102.6541009902351
 20
210.8115884897237
 30
0.0
 40
3.5
100
AcDbArc
 50
0.0000369999998155
 51
90.00001599999967
  0
LINE
  5
2B4
330
18
100
AcDbEntity
  8
1
  6
Continuous
100
AcDbLine
 10
105.3115309902352
 20
208.0115704897238
 30
0.0
 11
104.4540949902351
 21
204.8115734897236
 31
0.0
  0
LINE
  5
2B5
330
18
100
AcDbEntity
  8
1
  6
Continuous
100
AcDbLine
 10
106.1541009902351
 20
210.8115884897237
 30
0.0
 11
106.1541009902351
 21
208.0115854897238
 31
0.0
  0
ARC
  5
2B6
330
18
100
AcDbEntity
  8
1
  6
Continuous
100
AcDbCircle
 10
94.75409199023522
 20
294.8115774897236
 30
0.0
 40
2.0
100
AcDbArc
 50
270.0
 51
0.0
  0
ARC
  5
2B7
330
18
100
AcDbEntity
  8
1
  6
Continuous
100
AcDbCircle
 10
92.95410499023523
 20
280.7547164897237
 30
0.0
 40
4.0
100
AcDbArc
 50
0.0
 51
45.00000100000007
  0
ARC
  5
2B8
330
18
100
AcDbEntity
  8
1
  6
Continuous
100
AcDbCircle
 10
94.75409199023522
 20
302.8115774897238
 30
0.0
 40
2.0
100
AcDbArc
 50
0.0
 51
90.00000300000015
  0
LINE
  5
2B9
330
18
100
AcDbEntity
  8
4
  6
CENTER
 48
0.5
100
AcDbLine
 10
87.70808699023524
 20
276.9472094897238
 30
0.0
 11
101.6905549902352
 21
276.9472094897238
 31
0.0
  0
LINE
  5
2BA
330
18
100
AcDbEntity
  8
1
  6
Continuous
100
AcDbLine
 10
91.11882399023523
 20
306.3905814897237
 30
0.0
 11
100.154096990235
 21
308.8115754897236
 31
0.0
  0
LINE
  5
2BB
330
18
100
AcDbEntity
  8
4
  6
CENTER
 48
0.5
100
AcDbLine
 10
101.5244169902352
 20
298.8115774897238
 30
0.0
 11
34.35451112611918
 21
298.8115774897238
 31
0.0
  0
ARC
  5
2BC
330
18
100
AcDbEntity
  8
1
  6
Continuous
100
AcDbCircle
 10
95.05409499023523
 20
266.4420094897237
 30
0.0
 40
2.0
100
AcDbArc
 50
0.0
 51
90.00000300000015
  0
LINE
  5
2BD
330
18
100
AcDbEntity
  8
1
  6
Continuous
100
AcDbLine
 10
91.72566399023528
 20
284.0558774897236
 30
0.0
 11
93.95409799023523
 21
281.8274444897236
 31
0.0
  0
LINE
  5
2BE
330
18
100
AcDbEntity
  8
1
  6
Continuous
100
AcDbLine
 10
90.55409499023523
 20
306.2392624897237
 30
0.0
 11
90.55409499023523
 21
275.1419764897236
 31
0.0
  0
LINE
  5
2BF
330
18
100
AcDbEntity
  8
1
  6
Continuous
100
AcDbLine
 10
93.95410499023524
 20
281.8274394897238
 30
0.0
 11
93.95410499023524
 21
268.4420104897237
 31
0.0
  0
LINE
  5
2C0
330
18
100
AcDbEntity
  8
1
  6
Continuous
100
AcDbLine
 10
89.15410099023523
 20
272.6042644897237
 30
0.0
 11
89.15410099023523
 21
260.2856104897238
 31
0.0
  0
LINE
  5
2C1
330
18
100
AcDbEntity
  8
1
  6
Continuous
100
AcDbLine
 10
89.15410099023523
 20
260.2856104897238
 30
0.0
 11
90.55411099023523
 21
260.2856104897238
 31
0.0
  0
LINE
  5
2C2
330
18
100
AcDbEntity
  8
1
  6
Continuous
100
AcDbLine
 10
90.55409499023523
 20
258.4420094897237
 30
0.0
 11
90.85409799023523
 21
258.4420094897237
 31
0.0
  0
LINE
  5
2C3
330
18
100
AcDbEntity
  8
1
  6
Continuous
100
AcDbLine
 10
93.85409799023523
 20
256.4420094897237
 30
0.0
 11
95.05409499023523
 21
256.4420094897237
 31
0.0
  0
LINE
  5
2C4
330
18
100
AcDbEntity
  8
1
  6
Continuous
100
AcDbLine
 10
89.15410099023523
 20
266.4420094897237
 30
0.0
 11
90.85409799023523
 21
266.4420094897237
 31
0.0
  0
LINE
  5
2C5
330
18
100
AcDbEntity
  8
1
  6
Continuous
100
AcDbLine
 10
93.85409799023523
 20
268.4420104897237
 30
0.0
 11
95.05409499023523
 21
268.4420104897237
 31
0.0
  0
ARC
  5
2C6
330
18
100
AcDbEntity
  8
1
  6
Continuous
100
AcDbCircle
 10
92.15410099023523
 20
272.6042644897237
 30
0.0
 40
3.0
100
AcDbArc
 50
122.2310799999996
 51
180.0000100000002
  0
LINE
  5
2C7
330
18
100
AcDbEntity
  8
1
  6
Continuous
100
AcDbLine
 10
93.55409499023521
 20
307.0431104897236
 30
0.0
 11
93.55409499023521
 21
285.8115774897238
 31
0.0
  0
ARC
  5
2C8
330
18
100
AcDbEntity
  8
1
  6
Continuous
100
AcDbCircle
 10
94.55409499023522
 20
286.8842984897236
 30
0.0
 40
4.0
100
AcDbArc
 50
179.9999899999995
 51
224.9999999999996
  0
LINE
  5
2C9
330
18
100
AcDbEntity
  8
1
  6
Continuous
100
AcDbLine
 10
93.55408999023522
 20
285.8115824897237
 30
0.0
 11
95.78252399023524
 21
283.5831484897237
 31
0.0
  0
LINE
  5
2CA
330
18
100
AcDbEntity
  8
1
  6
Continuous
100
AcDbLine
 10
93.55409499023521
 20
292.8115774897236
 30
0.0
 11
94.75409199023522
 21
292.8115774897236
 31
0.0
  0
ARC
  5
2CB
330
18
100
AcDbEntity
  8
1
  6
Continuous
100
AcDbCircle
 10
92.15410099023523
 20
302.5268794897236
 30
0.0
 40
4.0
100
AcDbArc
 50
105.0000000000002
 51
180.0000100000002
  0
LINE
  5
2CC
330
18
100
AcDbEntity
  8
1
  6
Continuous
100
AcDbLine
 10
93.55409499023521
 20
304.8115774897238
 30
0.0
 11
94.75409199023522
 21
304.8115774897238
 31
0.0
  0
LINE
  5
2CD
330
18
100
AcDbEntity
  8
1
  6
Continuous
100
AcDbLine
 10
96.95410499023523
 20
300.4022394897237
 30
0.0
 11
96.95410499023523
 21
267.0665104897238
 31
0.0
  0
LINE
  5
2CE
330
18
100
AcDbEntity
  8
1
  6
Continuous
100
AcDbLine
 10
97.05409499023524
 20
266.4420094897237
 30
0.0
 11
97.05409499023524
 21
258.4420094897237
 31
0.0
  0
LINE
  5
2CF
330
18
100
AcDbEntity
  8
1
  6
Continuous
100
AcDbLine
 10
98.75410799023523
 20
279.1141744897237
 30
0.0
 11
98.75410799023523
 21
274.7802364897236
 31
0.0
  0
LINE
  5
2D0
330
18
100
AcDbEntity
  8
1
  6
Continuous
100
AcDbLine
 10
97.55409499023523
 20
280.9472054897237
 30
0.0
 11
97.55409499023523
 21
272.9472054897237
 31
0.0
  0
ARC
  5
2D1
330
18
100
AcDbEntity
  8
1
  6
Continuous
100
AcDbCircle
 10
96.75410799023524
 20
274.7802364897236
 30
0.0
 40
2.0
100
AcDbArc
 50
293.5781800000002
 51
0.0
  0
LINE
  5
2D2
330
18
100
AcDbEntity
  8
1
  6
Continuous
100
AcDbLine
 10
97.55409399023523
 20
272.9472044897236
 30
0.0
 11
96.9540929902353
 21
273.9472094897237
 31
0.0
  0
LINE
  5
2D3
330
18
100
AcDbEntity
  8
1
  6
Continuous
100
AcDbLine
 10
96.95410199023537
 20
279.9472134897237
 30
0.0
 11
97.5540999902352
 21
280.9472064897237
 31
0.0
  0
ARC
  5
2D4
330
18
100
AcDbEntity
  8
1
  6
Continuous
100
AcDbCircle
 10
96.75410799023524
 20
279.1141744897237
 30
0.0
 40
2.0
100
AcDbArc
 50
0.0
 51
66.42182099999981
  0
LINE
  5
2D5
330
18
100
AcDbEntity
  8
1
  6
Continuous
100
AcDbLine
 10
96.75409199023524
 20
302.8115774897238
 30
0.0
 11
96.75409199023524
 21
294.8115774897236
 31
0.0
  0
LINE
  5
2D6
330
18
100
AcDbEntity
  8
1
  6
Continuous
100
AcDbLine
 10
96.75409199023524
 20
300.4022394897237
 30
0.0
 11
96.95410499023523
 21
300.4022394897237
 31
0.0
  0
ARC
  5
2D7
330
18
100
AcDbEntity
  8
1
  6
Continuous
100
AcDbCircle
 10
115.6541009902351
 20
309.3115774897236
 30
0.0
 40
0.5
100
AcDbArc
 50
270.0
 51
0.0000030000001391
  0
LINE
  5
2D8
330
18
100
AcDbEntity
  8
1
  6
Continuous
100
AcDbLine
 10
196.1541009902351
 20
210.8115884897237
 30
0.0
 11
196.1541009902351
 21
208.0115854897238
 31
0.0
  0
LINE
  5
2D9
330
18
100
AcDbEntity
  8
1
  6
Continuous
100
AcDbLine
 10
196.9966709902353
 20
208.0115924897237
 30
0.0
 11
197.8541009902353
 21
204.8115884897236
 31
0.0
  0
ARC
  5
2DA
330
18
100
AcDbEntity
  8
1
  6
Continuous
100
AcDbCircle
 10
199.6541009902351
 20
210.8115884897237
 30
0.0
 40
3.5
100
AcDbArc
 50
89.99998199999998
 51
179.99996
  0
ARC
  5
2DB
330
18
100
AcDbEntity
  8
1
  6
Continuous
100
AcDbCircle
 10
201.6541009902351
 20
309.3115774897236
 30
0.0
 40
0.5
100
AcDbArc
 50
179.9999899999995
 51
270.0
  0
LINE
  5
2DC
330
18
100
AcDbEntity
  8
1
  6
Continuous
100
AcDbLine
 10
16.15410099023523
 20
316.8115774897238
 30
0.0
 11
116.1541009902351
 21
316.8115774897238
 31
0.0
  0
LINE
  5
2DD
330
18
100
AcDbEntity
  8
1
  6
Continuous
100
AcDbLine
 10
201.1541009902351
 20
466.8115774897238
 30
0.0
 11
201.1541009902351
 21
386.8115774897237
 31
0.0
  0
ARC
  5
2DE
330
18
100
AcDbEntity
  8
1
  6
Continuous
100
AcDbCircle
 10
346.4747809902352
 20
311.7525104897237
 30
0.0
 40
5.0
100
AcDbArc
 50
271.6521799999998
 51
1.652205000000114
  0
LINE
  5
2DF
330
18
100
AcDbEntity
  8
1
  6
Continuous
100
AcDbLine
 10
271.1541009902354
 20
316.8115774897238
 30
0.0
 11
271.1541009902354
 21
309.3115774897236
 31
0.0
  0
ARC
  5
2E0
330
18
100
AcDbEntity
  8
1
  6
Continuous
100
AcDbCircle
 10
249.1541009902352
 20
303.8115774897236
 30
0.0
 40
5.0
100
AcDbArc
 50
89.99999600000005
 51
167.2427300000001
  0
LINE
  5
2E1
330
18
100
AcDbEntity
  8
4
  6
CENTER
 48
0.3
100
AcDbLine
 10
261.1541009902353
 20
303.2414554897237
 30
0.0
 11
261.1541009902353
 21
322.2177964897237
 31
0.0
  0
LINE
  5
2E2
330
18
100
AcDbEntity
  8
1
  6
Continuous
100
AcDbLine
 10
299.6985609902351
 20
301.8559724897237
 30
0.0
 11
325.8045109902349
 21
313.2897044897237
 31
0.0
  0
LINE
  5
2E3
330
18
100
AcDbEntity
  8
4
  6
CENTER
 48
0.5
100
AcDbLine
 10
236.1541009902353
 20
173.4415774897238
 30
0.0
 11
236.1541009902353
 21
321.7177964897238
 31
0.0
  0
LINE
  5
2E4
330
18
100
AcDbEntity
  8
4
  6
CENTER
 48
0.3
100
AcDbLine
 10
211.1541009902353
 20
302.5414584897237
 30
0.0
 11
211.1541009902353
 21
322.2177964897237
 31
0.0
  0
ARC
  5
2E5
330
18
100
AcDbEntity
  8
1
  6
Continuous
100
AcDbCircle
 10
223.1541009902353
 20
303.8115774897236
 30
0.0
 40
5.0
100
AcDbArc
 50
0.0000030000001391
 51
90.00000300000015
  0
LINE
  5
2E6
330
18
100
AcDbEntity
  8
5
  6
PHANTOM
 48
0.5
100
AcDbLine
 10
252.0540949903014
 20
194.0115669873652
 30
0.0
 11
252.054090990235
 21
218.1257104897237
 31
0.0
  0
LINE
  5
2E7
330
18
100
AcDbEntity
  8
5
  6
PHANTOM
 48
0.5
100
AcDbLine
 10
220.254106990168
 20
194.0115669942333
 30
0.0
 11
220.254110990235
 21
217.7974404897236
 31
0.0
  0
LINE
  5
2E8
330
18
100
AcDbEntity
  8
5
  6
PHANTOM
 48
0.5
100
AcDbLine
 10
276.1541009902351
 20
183.0115744897236
 30
0.0
 11
196.1541009902351
 21
183.0115744897238
 31
0.0
  0
LINE
  5
2E9
330
18
100
AcDbEntity
  8
5
  6
PHANTOM
 48
0.5
100
AcDbLine
 10
272.6541009902351
 20
189.3115774897237
 30
0.0
 11
199.6541009902351
 21
189.3115774897237
 31
0.0
  0
LINE
  5
2EA
330
18
100
AcDbEntity
  8
5
  6
PHANTOM
 48
0.5
100
AcDbLine
 10
274.4541009902352
 20
179.8115774897237
 30
0.0
 11
197.8540988466581
 21
179.8115774897237
 31
0.0
  0
ARC
  5
2F2
330
18
100
AcDbEntity
  8
5
  6
PHANTOM
 48
0.5
100
AcDbCircle
 10
272.6541009902351
 20
185.8115774897236
 30
0.0
 40
3.5
100
AcDbArc
 50
0.0000369999998155
 51
90.00001599999967
  0
LINE
  5
2F3
330
18
100
AcDbEntity
  8
5
  6
PHANTOM
 48
0.5
100
AcDbLine
 10
275.3115409902351
 20
183.0115664897236
 30
0.0
 11
274.4541009902352
 21
179.8115694897236
 31
0.0
  0
LINE
  5
2F4
330
18
100
AcDbEntity
  8
5
  6
PHANTOM
 48
0.5
100
AcDbLine
 10
276.1541009902351
 20
185.8115774897236
 30
0.0
 11
276.1541009902351
 21
183.0115744897236
 31
0.0
  0
LINE
  5
2F5
330
18
100
AcDbEntity
  8
5
  6
PHANTOM
 48
0.5
100
AcDbLine
 10
276.6218009902351
 20
278.7827314897238
 30
0.0
 11
280.7164209902349
 21
279.0420794897236
 31
0.0
  0
ARC
  5
2F6
330
18
100
AcDbEntity
  8
1
  6
Continuous
100
AcDbCircle
 10
277.7054009902351
 20
311.5467154897237
 30
0.0
 40
20.0
100
AcDbArc
 50
245.28495
 51
293.6521899999998
  0
LINE
  5
2F7
330
18
100
AcDbEntity
  8
5
  6
PHANTOM
 48
0.5
100
AcDbLine
 10
256.4721709902353
 20
280.5124924897236
 30
0.0
 11
280.5267809902352
 21
282.0360804897237
 31
0.0
  0
LINE
  5
2F8
330
18
100
AcDbEntity
  8
1
  6
Continuous
100
AcDbLine
 10
278.6734609902349
 20
265.4625724897238
 30
0.0
 11
280.2348209902351
 21
262.8019594897238
 31
0.0
  0
CIRCLE
  5
2F9
330
18
100
AcDbEntity
  8
5
  6
PHANTOM
 48
0.5
100
AcDbCircle
 10
277.9536609902351
 20
236.9682774897237
 30
0.0
 40
3.5
  0
LINE
  5
2FA
330
18
100
AcDbEntity
  8
4
  6
CENTER
 48
0.5
100
AcDbLine
 10
273.4949709902351
 20
239.3369604897237
 30
0.0
 11
283.2069409902351
 21
234.1774754897236
 31
0.0
  0
LINE
  5
2FB
330
18
100
AcDbEntity
  8
5
  6
PHANTOM
 48
0.5
100
AcDbLine
 10
277.9840109902353
 20
250.8801164897236
 30
0.0
 11
303.1528309902353
 21
237.5091974897237
 31
0.0
  0
LINE
  5
2FC
330
18
100
AcDbEntity
  8
4
  6
CENTER
 48
0.5
100
AcDbLine
 10
280.9783209902352
 20
242.6617434897238
 30
0.0
 11
275.0918109902351
 21
231.5812724897237
 31
0.0
  0
LINE
  5
2FD
330
18
100
AcDbEntity
  8
5
  6
PHANTOM
 48
0.5
100
AcDbLine
 10
242.2312309902354
 20
241.5424314897236
 30
0.0
 11
288.6537009902351
 21
223.4106494897238
 31
0.0
  0
ARC
  5
2FE
330
18
100
AcDbEntity
  8
1
  6
Continuous
100
AcDbCircle
 10
275.4527109902351
 20
247.2413874897237
 30
0.0
 40
10.0
100
AcDbArc
 50
236.2425300000001
 51
300.4061899999998
  0
ARC
  5
2FF
330
18
100
AcDbEntity
  8
1
  6
Continuous
100
AcDbCircle
 10
272.2153309902353
 20
289.6140214897237
 30
0.0
 40
25.0
100
AcDbArc
 50
230.98051
 51
300.2969100000003
  0
ARC
  5
300
330
18
100
AcDbEntity
  8
5
  6
PHANTOM
 48
0.5
100
AcDbCircle
 10
267.4319509902352
 20
265.6756024897238
 30
0.0
 40
10.0
100
AcDbArc
 50
299.4605399999998
 51
3.624196999999916
  0
ARC
  5
301
330
18
100
AcDbEntity
  8
5
  6
PHANTOM
 48
0.5
100
AcDbCircle
 10
271.9304209902351
 20
274.1387414897237
 30
0.0
 40
20.0
100
AcDbArc
 50
193.6550699999999
 51
242.0205599999999
  0
LINE
  5
302
330
18
100
AcDbEntity
  8
5
  6
PHANTOM
 48
0.5
100
AcDbLine
 10
254.8123009902351
 20
251.3492404897238
 30
0.0
 11
253.9196009902351
 21
265.4433404897237
 31
0.0
  0
ARC
  5
303
330
18
100
AcDbEntity
  8
1
  6
Continuous
100
AcDbCircle
 10
253.4180909902351
 20
254.1644444897237
 30
0.0
 40
2.0
100
AcDbArc
 50
30.40619200000005
 51
98.31802500000037
  0
ARC
  5
304
330
18
100
AcDbEntity
  8
1
  6
Continuous
100
AcDbCircle
 10
235.722860990235
 20
262.1889384897236
 30
0.0
 40
8.5
100
AcDbArc
 50
120.4061899999997
 51
278.3180200000002
  0
ARC
  5
305
330
18
100
AcDbEntity
  8
1
  6
Continuous
100
AcDbCircle
 10
236.1541009902353
 20
254.3145724897236
 30
0.0
 40
4.099999999999997
100
AcDbArc
 50
179.9999899999995
 51
0.0000099999997851
  0
LINE
  5
306
330
18
100
AcDbEntity
  8
5
  6
PHANTOM
 48
0.5
100
AcDbLine
 10
227.7027009902351
 20
236.4056974897237
 30
0.0
 11
225.7936909902349
 21
266.5453104897236
 31
0.0
  0
LINE
  5
307
330
18
100
AcDbEntity
  8
1
  6
Continuous
100
AcDbLine
 10
256.9767809902351
 20
252.0518694897238
 30
0.0
 11
278.9695009902354
 21
264.9581134897238
 31
0.0
  0
LINE
  5
308
330
18
100
AcDbEntity
  8
5
  6
PHANTOM
 48
0.5
100
AcDbLine
 10
262.5473309902352
 20
256.4764274897235
 30
0.0
 11
276.9049509902349
 21
248.8489464897237
 31
0.0
  0
LINE
  5
309
330
18
100
AcDbEntity
  8
5
  6
PHANTOM
 48
0.5
100
AcDbLine
 10
267.1500109902351
 20
254.0312524897236
 30
0.0
 11
272.3502109902351
 21
256.9686594897238
 31
0.0
  0
LINE
  5
30A
330
18
100
AcDbEntity
  8
1
  6
Continuous
100
AcDbLine
 10
211.7541009902351
 20
294.3623354897237
 30
0.0
 11
211.7541009902351
 21
227.6115804897238
 31
0.0
  0
ARC
  5
30B
330
18
100
AcDbEntity
  8
5
  6
PHANTOM
 48
0.5
100
AcDbCircle
 10
251.3266309902352
 20
264.8292094897237
 30
0.0
 40
25.0
100
AcDbArc
 50
179.3442499999999
 51
248.6652800000004
  0
LINE
  5
30C
330
18
100
AcDbEntity
  8
1
  6
Continuous
100
AcDbLine
 10
236.952530990235
 20
253.7783554897237
 30
0.0
 11
253.1287609902352
 21
256.1434084897238
 31
0.0
  0
ARC
  5
30D
330
18
100
AcDbEntity
  8
5
  6
PHANTOM
 48
0.5
100
AcDbCircle
 10
236.1857209902352
 20
236.9430014897237
 30
0.0
 40
8.5
100
AcDbArc
 50
183.6242
 51
341.5360200000002
  0
CIRCLE
  5
30F
330
18
100
AcDbEntity
  8
5
  6
PHANTOM
 48
0.5
100
AcDbCircle
 10
236.1541009902353
 20
237.4420094897236
 30
0.0
 40
6.0
  0
LINE
  5
310
330
18
100
AcDbEntity
  8
1
  6
Continuous
100
AcDbLine
 10
276.1541009902351
 20
208.0115854897238
 30
0.0
 11
196.1541009902351
 21
208.0115854897238
 31
0.0
  0
LINE
  5
311
330
18
100
AcDbEntity
  8
1
  6
Continuous
100
AcDbLine
 10
272.6541009902351
 20
214.3115884897238
 30
0.0
 11
199.6541009902351
 21
214.3115884897238
 31
0.0
  0
LINE
  5
312
330
18
100
AcDbEntity
  8
1
  6
Continuous
100
AcDbLine
 10
274.4540909902351
 20
204.8115884897236
 30
0.0
 11
197.8541009902353
 21
204.8115884897236
 31
0.0
  0
LINE
  5
313
330
18
100
AcDbEntity
  8
1
  6
Continuous
100
AcDbLine
 10
258.5540909902352
 20
225.6115804897238
 30
0.0
 11
213.7541009902351
 21
225.6115804897238
 31
0.0
  0
LINE
  5
316
330
18
100
AcDbEntity
  8
1
  6
Continuous
100
AcDbLine
 10
217.5540909902351
 20
220.8115774897236
 30
0.0
 11
254.7541109902351
 21
220.8115774897236
 31
0.0
  0
ARC
  5
317
330
18
100
AcDbEntity
  8
1
  6
Continuous
100
AcDbCircle
 10
213.7541009902351
 20
227.6115804897238
 30
0.0
 40
2.0
100
AcDbArc
 50
179.9999899999995
 51
270.0
  0
ARC
  5
318
330
18
100
AcDbEntity
  8
1
  6
Continuous
100
AcDbCircle
 10
217.5540909902351
 20
223.8115774897238
 30
0.0
 40
3.0
100
AcDbArc
 50
179.9999899999995
 51
270.0
  0
LINE
  5
31A
330
18
100
AcDbEntity
  8
1
  6
Continuous
100
AcDbLine
 10
214.5541109902351
 20
225.6115804897238
 30
0.0
 11
214.5541109902351
 21
223.8115774897238
 31
0.0
  0
LINE
  5
31D
330
18
100
AcDbEntity
  8
1
  6
Continuous
100
AcDbLine
 10
240.2541109902351
 20
254.2610594897237
 30
0.0
 11
240.2541109902351
 21
236.1115804897238
 31
0.0
  0
LINE
  5
31E
330
18
100
AcDbEntity
  8
1
  6
Continuous
100
AcDbLine
 10
232.0540909902351
 20
254.5214624897237
 30
0.0
 11
232.0540909902351
 21
236.1115804897238
 31
0.0
  0
ARC
  5
31F
330
18
100
AcDbEntity
  8
1
  6
Continuous
100
AcDbCircle
 10
236.1541009902353
 20
236.1115804897238
 30
0.0
 40
4.099999999999997
100
AcDbArc
 50
179.9999899999995
 51
0.0000099999997851
  0
LINE
  5
320
330
18
100
AcDbEntity
  8
1
  6
Continuous
100
AcDbLine
 10
260.5540909902351
 20
245.9560014897238
 30
0.0
 11
260.5540909902351
 21
227.6115804897238
 31
0.0
  0
ARC
  5
321
330
18
100
AcDbEntity
  8
1
  6
Continuous
100
AcDbCircle
 10
258.5540909902352
 20
227.6115804897238
 30
0.0
 40
2.0
100
AcDbArc
 50
270.0
 51
0.0000030000001391
  0
ARC
  5
325
330
18
100
AcDbEntity
  8
1
  6
Continuous
100
AcDbCircle
 10
254.7541109902351
 20
223.8115774897238
 30
0.0
 40
3.0
100
AcDbArc
 50
270.0
 51
0.0000030000001391
  0
LINE
  5
327
330
18
100
AcDbEntity
  8
1
  6
Continuous
100
AcDbLine
 10
257.7541109902351
 20
225.6115804897238
 30
0.0
 11
257.7541109902351
 21
223.8115774897238
 31
0.0
  0
LINE
  5
328
330
18
100
AcDbEntity
  8
1
  6
Continuous
100
AcDbLine
 10
276.1541009902351
 20
210.8115884897237
 30
0.0
 11
276.1541009902351
 21
208.0115854897238
 31
0.0
  0
LINE
  5
329
330
18
100
AcDbEntity
  8
1
  6
Continuous
100
AcDbLine
 10
275.3115209902353
 20
208.0115774897236
 30
0.0
 11
274.4540909902351
 21
204.8115804897238
 31
0.0
  0
ARC
  5
32A
330
18
100
AcDbEntity
  8
1
  6
Continuous
100
AcDbCircle
 10
272.6541009902351
 20
210.8115884897237
 30
0.0
 40
3.5
100
AcDbArc
 50
0.0000369999998155
 51
90.00001599999967
  0
LINE
  5
32B
330
18
100
AcDbEntity
  8
1
  6
Continuous
100
AcDbLine
 10
261.3118909902351
 20
244.6646814897237
 30
0.0
 11
255.1430109902353
 21
255.1766894897237
 31
0.0
  0
LINE
  5
32C
330
18
100
AcDbEntity
  8
5
  6
PHANTOM
 48
0.5
100
AcDbLine
 10
263.3604309902354
 20
251.8906674897237
 30
0.0
 11
251.1964009902353
 21
251.1202134897237
 31
0.0
  0
LINE
  5
32D
330
18
100
AcDbEntity
  8
5
  6
PHANTOM
 48
0.5
100
AcDbLine
 10
246.1691909902353
 20
240.0043374897236
 30
0.0
 11
249.4257709902353
 21
249.7576224897236
 31
0.0
  0
LINE
  5
32E
330
18
100
AcDbEntity
  8
5
  6
PHANTOM
 48
0.5
100
AcDbLine
 10
244.2481609902351
 20
234.2509694897237
 30
0.0
 11
246.1691909902351
 21
240.0043374897236
 31
0.0
  0
ARC
  5
32F
330
18
100
AcDbEntity
  8
5
  6
PHANTOM
 48
0.5
100
AcDbCircle
 10
251.322820990235
 20
249.1242144897237
 30
0.0
 40
2.0
100
AcDbArc
 50
93.62419699999987
 51
161.5360399999999
  0
LINE
  5
330
330
18
100
AcDbEntity
  8
1
  6
Continuous
100
AcDbLine
 10
261.3119109902354
 20
244.6646884897237
 30
0.0
 11
269.8959209902353
 21
238.9274104897237
 31
0.0
  0
LINE
  5
331
330
18
100
AcDbEntity
  8
5
  6
PHANTOM
 48
0.5
100
AcDbLine
 10
277.9840109902353
 20
250.8801164897236
 30
0.0
 11
268.2590309902353
 21
232.5742464897238
 31
0.0
  0
ARC
  5
332
330
18
100
AcDbEntity
  8
5
  6
PHANTOM
 48
0.5
100
AcDbCircle
 10
269.1421709902351
 20
232.1050804897236
 30
0.0
 40
1.0
100
AcDbArc
 50
152.0205399999999
 51
248.6653000000002
  0
LINE
  5
333
330
18
100
AcDbEntity
  8
5
  6
PHANTOM
 48
0.5
100
AcDbLine
 10
263.3604409902352
 20
251.8906674897237
 30
0.0
 11
267.1500109902351
 21
254.0312524897236
 31
0.0
  0
LINE
  5
334
330
18
100
AcDbEntity
  8
4
  6
CENTER
 48
0.5
100
AcDbLine
 10
226.1541009902351
 20
298.8115774897238
 30
0.0
 11
246.1541009902353
 21
298.8115774897238
 31
0.0
  0
ARC
  5
335
330
18
100
AcDbEntity
  8
5
  6
PHANTOM
 48
0.5
100
AcDbCircle
 10
236.1541009902353
 20
298.8115774897238
 30
0.0
 40
13.0
100
AcDbArc
 50
222.7822500000004
 51
327.1052787528418
  0
LINE
  5
336
330
18
100
AcDbEntity
  8
5
  6
PHANTOM
 48
0.5
100
AcDbLine
 10
233.7394109902351
 20
275.5656154897237
 30
0.0
 11
250.740420990235
 21
276.6424374897237
 31
0.0
  0
ARC
  5
337
330
18
100
AcDbEntity
  8
1
  6
Continuous
100
AcDbCircle
 10
236.1541009902353
 20
298.8115774897238
 30
0.0
 40
13.0
100
AcDbArc
 50
274.40102
 51
18.74123300000003
  0
LINE
  5
338
330
18
100
AcDbEntity
  8
1
  6
Continuous
100
AcDbLine
 10
240.3436309902351
 20
306.7263264897237
 30
0.0
 11
269.3432909902351
 21
293.3787444897237
 31
0.0
  0
CIRCLE
  5
339
330
18
100
AcDbEntity
  8
1
  6
Continuous
100
AcDbCircle
 10
236.1541009902353
 20
298.8115774897238
 30
0.0
 40
6.0
  0
ARC
  5
33A
330
18
100
AcDbEntity
  8
5
  6
PHANTOM
 48
0.5
100
AcDbCircle
 10
236.2134009902352
 20
298.3151064897238
 30
0.0
 40
9.0
100
AcDbArc
 50
13.65507899999995
 51
90.81063000000007
  0
CIRCLE
  5
33B
330
18
100
AcDbEntity
  8
1
  6
Continuous
100
AcDbCircle
 10
236.1541009902353
 20
262.4420094897237
 30
0.0
 40
6.0
  0
LINE
  5
33C
330
18
100
AcDbEntity
  8
4
  6
CENTER
 48
0.5
100
AcDbLine
 10
226.1541009902351
 20
262.4115754897236
 30
0.0
 11
246.1541009902353
 21
262.4115754897236
 31
0.0
  0
LINE
  5
33D
330
18
100
AcDbEntity
  8
1
  6
Continuous
100
AcDbLine
 10
231.4207809902353
 20
269.5198474897238
 30
0.0
 11
246.4324109902354
 21
278.3292954897238
 31
0.0
  0
LINE
  5
33E
330
18
100
AcDbEntity
  8
1
  6
Continuous
100
AcDbLine
 10
229.0936009902353
 20
292.3797484897237
 30
0.0
 11
256.4757209902351
 21
270.1907234897237
 31
0.0
  0
LINE
  5
33F
330
18
100
AcDbEntity
  8
5
  6
PHANTOM
 48
0.5
100
AcDbLine
 10
226.3282609902353
 20
265.1153264897237
 30
0.0
 11
226.7316609902351
 21
300.3602964897236
 31
0.0
  0
ARC
  5
340
330
18
100
AcDbEntity
  8
5
  6
PHANTOM
 48
0.5
100
AcDbCircle
 10
234.2767009902352
 20
267.0826124897237
 30
0.0
 40
8.5
100
AcDbArc
 50
158.1563400000002
 51
183.6242
  0
CIRCLE
  5
341
330
18
100
AcDbEntity
  8
5
  6
PHANTOM
 48
0.5
100
AcDbCircle
 10
234.3541009902353
 20
265.8607034897236
 30
0.0
 40
4.0
  0
CIRCLE
  5
342
330
18
100
AcDbEntity
  8
1
  6
Continuous
100
AcDbCircle
 10
236.1541009902353
 20
262.4420094897237
 30
0.0
 40
2.0
  0
ARC
  5
343
330
18
100
AcDbEntity
  8
5
  6
PHANTOM
 48
0.5
100
AcDbCircle
 10
234.2767009902352
 20
267.0826124897237
 30
0.0
 40
8.5
100
AcDbArc
 50
93.62419699999987
 51
158.1563400000002
  0
ARC
  5
344
330
18
100
AcDbEntity
  8
1
  6
Continuous
100
AcDbCircle
 10
201.754100990235
 20
294.3623354897237
 30
0.0
 40
10.0
100
AcDbArc
 50
0.0000030000001391
 51
45.00000100000007
  0
ARC
  5
345
330
18
100
AcDbEntity
  8
1
  6
Continuous
100
AcDbCircle
 10
233.5006909902351
 20
297.8182724897237
 30
0.0
 40
7.0
100
AcDbArc
 50
142.55565
 51
230.9805200000003
  0
ARC
  5
346
330
18
100
AcDbEntity
  8
1
  6
Continuous
100
AcDbCircle
 10
236.5806709902351
 20
298.5507434897236
 30
0.0
 40
9.0
100
AcDbArc
 50
65.28495600000038
 51
142.55565
  0
ARC
  5
347
330
18
100
AcDbEntity
  8
5
  6
PHANTOM
 48
0.5
100
AcDbCircle
 10
233.7312009902351
 20
300.2801824897237
 30
0.0
 40
7.0
100
AcDbArc
 50
90.81063000000007
 51
179.3442499999999
  0
LINE
  5
348
330
18
100
AcDbEntity
  8
1
  6
Continuous
100
AcDbLine
 10
228.1541009902351
 20
303.8115774897236
 30
0.0
 11
228.1541009902351
 21
302.3497624897236
 31
0.0
  0
LINE
  5
349
330
18
100
AcDbEntity
  8
1
  6
Continuous
100
AcDbLine
 10
227.9430909902353
 20
302.0742094897237
 30
0.0
 11
229.4351709902353
 21
304.0226544897237
 31
0.0
  0
ARC
  5
34A
330
18
100
AcDbEntity
  8
5
  6
PHANTOM
 48
0.5
100
AcDbCircle
 10
223.1541009902353
 20
303.8115774897236
 30
0.0
 40
5.0
100
AcDbArc
 50
0.0
 51
7.395202000000105
  0
CIRCLE
  5
34B
330
18
100
AcDbEntity
  8
1
  6
Continuous
100
AcDbCircle
 10
236.1541009902353
 20
298.8115774897238
 30
0.0
 40
2.0
  0
LINE
  5
34C
330
18
100
AcDbEntity
  8
5
  6
PHANTOM
 48
0.5
100
AcDbLine
 10
233.632170990235
 20
307.2794844897238
 30
0.0
 11
236.0860609902351
 21
307.3142034897238
 31
0.0
  0
LINE
  5
34D
330
18
100
AcDbEntity
  8
5
  6
PHANTOM
 48
0.5
100
AcDbLine
 10
244.9590009902351
 20
300.4397954897238
 30
0.0
 11
252.4957309902351
 21
269.4172174897238
 31
0.0
  0
LINE
  5
34E
330
18
100
AcDbEntity
  8
4
  6
CENTER
 48
0.5
100
AcDbLine
 10
260.8714909902352
 20
284.4472054897238
 30
0.0
 11
260.8714909902352
 21
269.4472094897237
 31
0.0
  0
CIRCLE
  5
34F
330
18
100
AcDbEntity
  8
1
  6
Continuous
100
AcDbCircle
 10
260.8714909902352
 20
276.9472054897237
 30
0.0
 40
4.0
  0
LINE
  5
350
330
18
100
AcDbEntity
  8
4
  6
CENTER
 48
0.5
100
AcDbLine
 10
253.3714909902353
 20
276.9472094897238
 30
0.0
 11
268.3714909902353
 21
276.9472094897238
 31
0.0
  0
LINE
  5
351
330
18
100
AcDbEntity
  8
5
  6
PHANTOM
 48
0.5
100
AcDbLine
 10
253.9196009902354
 20
265.4433364897237
 30
0.0
 11
253.2004009902353
 21
276.7982484897236
 31
0.0
  0
LINE
  5
352
330
18
100
AcDbEntity
  8
5
  6
PHANTOM
 48
0.5
100
AcDbLine
 10
250.740420990235
 20
276.6424374897237
 30
0.0
 11
255.6954109902353
 21
276.9562794897237
 31
0.0
  0
ARC
  5
353
330
18
100
AcDbEntity
  8
5
  6
PHANTOM
 48
0.5
100
AcDbCircle
 10
255.6321909902351
 20
277.9542784897237
 30
0.0
 40
1.0
100
AcDbArc
 50
273.6241899999996
 51
3.62420000000012
  0
LINE
  5
354
330
18
100
AcDbEntity
  8
5
  6
PHANTOM
 48
0.5
100
AcDbLine
 10
256.6302009902351
 20
278.0174914897236
 30
0.0
 11
256.4721709902353
 21
280.5124924897236
 31
0.0
  0
LINE
  5
355
330
18
100
AcDbEntity
  8
5
  6
PHANTOM
 48
0.5
100
AcDbLine
 10
277.4119409902351
 20
266.3077214897238
 30
0.0
 11
276.4321609902351
 21
281.7767324897237
 31
0.0
  0
LINE
  5
356
330
18
100
AcDbEntity
  8
1
  6
Continuous
100
AcDbLine
 10
271.0076509902354
 20
308.9580194897237
 30
0.0
 11
263.483030990235
 21
301.4334014897237
 31
0.0
  0
ARC
  5
357
330
18
100
AcDbEntity
  8
1
  6
Continuous
100
AcDbCircle
 10
270.5540909902351
 20
294.3623354897237
 30
0.0
 40
10.0
100
AcDbArc
 50
135.0000000000002
 51
163.3312799999999
  0
ARC
  5
358
330
18
100
AcDbEntity
  8
1
  6
Continuous
100
AcDbCircle
 10
270.6541009902351
 20
309.3115774897236
 30
0.0
 40
0.5
100
AcDbArc
 50
270.0
 51
0.0000030000001391
  0
LINE
  5
359
330
18
100
AcDbEntity
  8
1
  6
Continuous
100
AcDbLine
 10
283.7595509902353
 20
263.7109444897237
 30
0.0
 11
295.9586509902351
 21
242.9232374897237
 31
0.0
  0
ARC
  5
35A
330
18
100
AcDbEntity
  8
5
  6
PHANTOM
 48
0.5
100
AcDbCircle
 10
319.4723109902351
 20
214.7583544897238
 30
0.0
 40
2.299999999999998
100
AcDbArc
 50
40.02055099999986
 51
130.0205900000001
  0
LINE
  5
35B
330
18
100
AcDbEntity
  8
5
  6
PHANTOM
 48
0.5
100
AcDbLine
 10
318.1027809902352
 20
216.3892944897237
 30
0.0
 11
324.5809309902351
 21
208.6745534897237
 31
0.0
  0
LINE
  5
35C
330
18
100
AcDbEntity
  8
5
  6
PHANTOM
 48
0.5
100
AcDbLine
 10
303.8351609902353
 20
236.9570774897236
 30
0.0
 11
326.3423309902353
 21
210.1535954897238
 31
0.0
  0
ARC
  5
35D
330
18
100
AcDbEntity
  8
5
  6
PHANTOM
 48
0.5
100
AcDbCircle
 10
307.9953509902352
 20
228.6982124897237
 30
0.0
 40
3.625019999999998
100
AcDbArc
 50
356.4180799999999
 51
83.62313299999986
  0
CIRCLE
  5
35E
330
18
100
AcDbEntity
  8
5
  6
PHANTOM
 48
0.5
100
AcDbCircle
 10
291.2004309902351
 20
229.9309474897238
 30
0.0
 40
2.6
  0
LINE
  5
35F
330
18
100
AcDbEntity
  8
4
  6
CENTER
 48
0.5
100
AcDbLine
 10
294.2186409902351
 20
235.6123284897237
 30
0.0
 11
288.3431609902352
 21
224.5525744897236
 31
0.0
  0
LINE
  5
360
330
18
100
AcDbEntity
  8
4
  6
CENTER
 48
0.5
100
AcDbLine
 10
287.0079709902353
 20
232.1581884897236
 30
0.0
 11
295.7337509902351
 21
227.5226144897237
 31
0.0
  0
ARC
  5
361
330
18
100
AcDbEntity
  8
5
  6
PHANTOM
 48
0.5
100
AcDbCircle
 10
299.9189009902352
 20
227.1588064897236
 30
0.0
 40
2.0
100
AcDbArc
 50
40.02046899999974
 51
152.0205299999998
  0
ARC
  5
362
330
18
100
AcDbEntity
  8
5
  6
PHANTOM
 48
0.5
100
AcDbCircle
 10
291.2004109902351
 20
229.9309544897237
 30
0.0
 40
7.0
100
AcDbArc
 50
248.66527
 51
332.0205599999998
  0
LINE
  5
363
330
18
100
AcDbEntity
  8
5
  6
PHANTOM
 48
0.5
100
AcDbLine
 10
298.1526809902351
 20
228.0971224897238
 30
0.0
 11
297.3822309902351
 21
226.6468664897236
 31
0.0
  0
ARC
  5
364
330
18
100
AcDbEntity
  8
5
  6
PHANTOM
 48
0.5
100
AcDbCircle
 10
314.7779709902351
 20
220.3487934897236
 30
0.0
 40
5.0
100
AcDbArc
 50
220.0205500000001
 51
310.0205699999999
  0
LINE
  5
365
330
18
100
AcDbEntity
  8
5
  6
PHANTOM
 48
0.5
100
AcDbLine
 10
301.4505309902351
 20
228.4449544897237
 30
0.0
 11
310.9489009902349
 21
217.1334804897237
 31
0.0
  0
ARC
  5
366
330
18
100
AcDbEntity
  8
5
  6
PHANTOM
 48
0.5
100
AcDbCircle
 10
313.7829009902351
 20
221.8059164897236
 30
0.0
 40
3.625007
100
AcDbArc
 50
356.4178499999999
 51
83.62333799999985
  0
LINE
  5
367
330
18
100
AcDbEntity
  8
5
  6
PHANTOM
 48
0.5
100
AcDbLine
 10
317.4009009902352
 20
221.5793344897237
 30
0.0
 11
317.0179909902353
 21
221.2578054897237
 31
0.0
  0
LINE
  5
368
330
18
100
AcDbEntity
  8
5
  6
PHANTOM
 48
0.5
100
AcDbLine
 10
311.6132809902351
 20
228.4717144897238
 30
0.0
 11
311.2303809902353
 21
228.1501894897237
 31
0.0
  0
LINE
  5
369
330
18
100
AcDbEntity
  8
5
  6
PHANTOM
 48
0.5
100
AcDbLine
 10
314.1855009902351
 20
225.4084974897237
 30
0.0
 11
313.8026009902349
 21
225.0869684897236
 31
0.0
  0
LINE
  5
36A
330
18
100
AcDbEntity
  8
1
  6
Continuous
100
AcDbLine
 10
291.2947309902353
 20
244.9433774897237
 30
0.0
 11
293.3712809902352
 21
241.4048544897237
 31
0.0
  0
LINE
  5
36B
330
18
100
AcDbEntity
  8
1
  6
Continuous
100
AcDbLine
 10
280.5139609902353
 20
238.6167834897237
 30
0.0
 11
293.8821009902351
 21
246.4617584897236
 31
0.0
  0
LINE
  5
36C
330
18
100
AcDbEntity
  8
1
  6
Continuous
100
AcDbLine
 10
296.2634809902354
 20
242.2018514897237
 30
0.0
 11
298.5215809902351
 21
234.0072864897237
 31
0.0
  0
LINE
  5
36D
330
18
100
AcDbEntity
  8
1
  6
Continuous
100
AcDbLine
 10
293.3712809902353
 20
241.4048734897237
 30
0.0
 11
295.6293809902354
 21
233.2103044897237
 31
0.0
  0
LINE
  5
36E
330
18
100
AcDbEntity
  8
1
  6
Continuous
100
AcDbLine
 10
298.5215809902351
 20
234.0072864897237
 30
0.0
 11
295.6293809902351
 21
233.2103044897237
 31
0.0
  0
ARC
  5
36F
330
18
100
AcDbEntity
  8
1
  6
Continuous
100
AcDbCircle
 10
293.3712609902352
 20
241.4048694897236
 30
0.0
 40
3.0
100
AcDbArc
 50
15.40619300000017
 51
30.40618899999987
  0
LINE
  5
370
330
18
100
AcDbEntity
  8
5
  6
PHANTOM
 48
0.5
100
AcDbLine
 10
308.3979509902353
 20
232.3008124897237
 30
0.0
 11
308.0150509902352
 21
231.9792794897238
 31
0.0
  0
ARC
  5
371
330
18
100
AcDbEntity
  8
5
  6
PHANTOM
 48
0.5
100
AcDbCircle
 10
302.0737609902353
 20
235.4780204897238
 30
0.0
 40
2.299999999999998
100
AcDbArc
 50
40.02055099999986
 51
62.020529
  0
ARC
  5
372
330
18
100
AcDbEntity
  8
5
  6
PHANTOM
 48
0.5
100
AcDbCircle
 10
319.5704509902351
 20
214.9135824897238
 30
0.0
 40
3.625011999999999
100
AcDbArc
 50
356.4180799999999
 51
83.62333799999985
  0
LINE
  5
373
330
18
100
AcDbEntity
  8
5
  6
PHANTOM
 48
0.5
100
AcDbLine
 10
326.3423909902351
 20
210.1535264897237
 30
0.0
 11
324.5810409902351
 21
208.6744924897236
 31
0.0
  0
LINE
  5
374
330
18
100
AcDbEntity
  8
5
  6
PHANTOM
 48
0.5
100
AcDbLine
 10
323.1884509902353
 20
214.6870424897238
 30
0.0
 11
322.8055409902351
 21
214.3655134897236
 31
0.0
  0
LINE
  5
375
330
18
100
AcDbEntity
  8
5
  6
PHANTOM
 48
0.5
100
AcDbLine
 10
319.9731209902352
 20
218.5161484897238
 30
0.0
 11
319.5902009902348
 21
218.1946184897237
 31
0.0
  0
LINE
  5
376
330
18
100
AcDbEntity
  8
1
  6
Continuous
100
AcDbLine
 10
284.8273609902353
 20
268.0284554897236
 30
0.0
 11
327.8584609902353
 21
293.1706894897237
 31
0.0
  0
LINE
  5
377
330
18
100
AcDbEntity
  8
1
  6
Continuous
100
AcDbLine
 10
299.6985609902352
 20
301.8559724897237
 30
0.0
 11
308.0145909902353
 21
282.8685054897238
 31
0.0
  0
LINE
  5
378
330
18
100
AcDbEntity
  8
1
  6
Continuous
100
AcDbLine
 10
281.6034109902352
 20
262.4456274897235
 30
0.0
 11
283.7595509902353
 21
263.7109444897237
 31
0.0
  0
ARC
  5
379
330
18
100
AcDbEntity
  8
1
  6
Continuous
100
AcDbCircle
 10
281.0972809902351
 20
263.3080904897237
 30
0.0
 40
1.0
100
AcDbArc
 50
210.4061799999995
 51
300.4061899999998
  0
LINE
  5
37A
330
18
100
AcDbEntity
  8
5
  6
PHANTOM
 48
0.5
100
AcDbLine
 10
289.6411509902348
 20
280.3065814897237
 30
0.0
 11
289.0494209902351
 21
277.3655174897236
 31
0.0
  0
LINE
  5
37B
330
18
100
AcDbEntity
  8
5
  6
PHANTOM
 48
0.5
100
AcDbLine
 10
281.3081409902349
 20
281.9831494897238
 30
0.0
 11
289.6411509902348
 21
280.3065814897237
 31
0.0
  0
LINE
  5
37C
330
18
100
AcDbEntity
  8
5
  6
PHANTOM
 48
0.5
100
AcDbLine
 10
280.7164009902351
 20
279.0420854897238
 30
0.0
 11
289.0494209902353
 21
277.3655174897236
 31
0.0
  0
ARC
  5
37D
330
18
100
AcDbEntity
  8
5
  6
PHANTOM
 48
0.5
100
AcDbCircle
 10
280.7164209902353
 20
279.0420814897237
 30
0.0
 40
3.0
100
AcDbArc
 50
78.62419899999986
 51
93.62419699999987
  0
ARC
  5
37E
330
18
100
AcDbEntity
  8
1
  6
Continuous
100
AcDbCircle
 10
308.9305909902352
 20
283.2696924897236
 30
0.0
 40
1.0
100
AcDbArc
 50
203.6521799999997
 51
300.2969300000001
  0
LINE
  5
37F
330
18
100
AcDbEntity
  8
1
  6
Continuous
100
AcDbLine
 10
285.7290709902351
 20
293.2267594897238
 30
0.0
 11
300.6212909902352
 21
299.7491764897237
 31
0.0
  0
CIRCLE
  5
380
330
18
100
AcDbEntity
  8
1
  6
Continuous
100
AcDbCircle
 10
310.5871109902352
 20
293.1968924897237
 30
0.0
 40
3.5
  0
LINE
  5
381
330
18
100
AcDbEntity
  8
4
  6
CENTER
 48
0.5
100
AcDbLine
 10
308.0006709902352
 20
299.1023484897238
 30
0.0
 11
313.0343309902352
 21
287.6093074897236
 31
0.0
  0
LINE
  5
382
330
18
100
AcDbEntity
  8
4
  6
CENTER
 48
0.5
100
AcDbLine
 10
305.5956609902354
 20
291.0107604897238
 30
0.0
 11
316.3726809902353
 21
295.7308204897237
 31
0.0
  0
LINE
  5
383
330
18
100
AcDbEntity
  8
1
  6
Continuous
100
AcDbLine
 10
331.8545509902353
 20
306.3287324897236
 30
0.0
 11
346.6189409902352
 21
306.7545974897238
 31
0.0
  0
ARC
  5
384
330
18
100
AcDbEntity
  8
1
  6
Continuous
100
AcDbCircle
 10
324.3270709902351
 20
299.2146464897238
 30
0.0
 40
7.0
100
AcDbArc
 50
300.2969
 51
23.65218999999981
  0
LINE
  5
385
330
18
100
AcDbEntity
  8
4
  6
CENTER
 48
0.5
100
AcDbLine
 10
321.7461309902353
 20
305.1075654897238
 30
0.0
 11
326.7703709902352
 21
293.6360134897237
 31
0.0
  0
LINE
  5
386
330
18
100
AcDbEntity
  8
4
  6
CENTER
 48
0.5
100
AcDbLine
 10
319.3268909902351
 20
297.0246894897237
 30
0.0
 11
329.0292109902352
 21
301.2740594897237
 31
0.0
  0
CIRCLE
  5
387
330
18
100
AcDbEntity
  8
1
  6
Continuous
100
AcDbCircle
 10
324.3270709902351
 20
299.2146464897238
 30
0.0
 40
2.6
  0
LINE
  5
388
330
18
100
AcDbEntity
  8
1
  6
Continuous
100
AcDbLine
 10
330.0802309902351
 20
303.5271864897237
 30
0.0
 11
330.7390609902352
 21
302.0229304897237
 31
0.0
  0
ARC
  5
389
330
18
100
AcDbEntity
  8
1
  6
Continuous
100
AcDbCircle
 10
331.9122509902352
 20
304.3295484897238
 30
0.0
 40
2.0
100
AcDbArc
 50
91.65210199999977
 51
203.65217
  0
ARC
  5
38A
330
18
100
AcDbEntity
  8
1
  6
Continuous
100
AcDbCircle
 10
354.2789699902352
 20
442.4995714897238
 30
0.0
 40
7.367411999999997
100
AcDbArc
 50
0.0
 51
88.92945999999978
  0
ARC
  5
38B
330
18
100
AcDbEntity
  8
1
  6
Continuous
100
AcDbCircle
 10
354.2789699902352
 20
411.1235844897238
 30
0.0
 40
7.367411999999997
100
AcDbArc
 50
271.07054
 51
0.0
  0
LINE
  5
38C
330
18
100
AcDbEntity
  8
4
  6
CENTER
 48
0.5
100
AcDbLine
 10
366.1463809902352
 20
426.8115774897236
 30
0.0
 11
197.0028509902349
 21
426.8115774897236
 31
0.0
  0
LINE
  5
38D
330
18
100
AcDbEntity
  8
1
  6
Continuous
100
AcDbLine
 10
351.4727025767118
 20
311.8966625463523
 30
0.0
 11
361.7126609902353
 21
312.1920244897236
 31
0.0
  0
LINE
  5
38E
330
18
100
AcDbEntity
  8
1
  6
Continuous
100
AcDbLine
 10
326.6609209902354
 20
313.4819574897237
 30
0.0
 11
361.6463809902352
 21
314.4910814897238
 31
0.0
  0
LINE
  5
38F
330
18
100
AcDbEntity
  8
1
  6
Continuous
100
AcDbLine
 10
333.1438129902351
 20
409.3105424897236
 30
0.0
 11
333.1438129902351
 21
444.3126134897235
 31
0.0
  0
LINE
  5
390
330
18
100
AcDbEntity
  8
1
  6
Continuous
100
AcDbLine
 10
338.1417409902351
 20
409.3105424897236
 30
0.0
 11
338.1417409902351
 21
444.3126134897235
 31
0.0
  0
LINE
  5
391
330
18
100
AcDbEntity
  8
1
  6
Continuous
100
AcDbLine
 10
342.1400629902351
 20
409.3106024897235
 30
0.0
 11
342.1400629902351
 21
444.3125534897236
 31
0.0
  0
LINE
  5
392
330
18
100
AcDbEntity
  8
1
  6
Continuous
100
AcDbLine
 10
347.1381109902352
 20
409.3106024897235
 30
0.0
 11
347.1381109902352
 21
444.3125534897236
 31
0.0
  0
LINE
  5
393
330
18
100
AcDbEntity
  8
1
  6
Continuous
100
AcDbLine
 10
351.1363409902352
 20
409.3105174897235
 30
0.0
 11
351.1363409902352
 21
444.3126384897237
 31
0.0
  0
LINE
  5
394
330
18
100
AcDbEntity
  8
1
  6
Continuous
100
AcDbLine
 10
356.1342199902352
 20
409.3105174897235
 30
0.0
 11
356.1342199902352
 21
444.3126384897237
 31
0.0
  0
LINE
  5
395
330
18
100
AcDbEntity
  8
1
  6
Continuous
100
AcDbLine
 10
325.8045109902352
 20
403.3115774897238
 30
0.0
 11
325.8045109902352
 21
450.3115774897238
 31
0.0
  0
LINE
  5
396
330
18
100
AcDbEntity
  8
1
  6
Continuous
100
AcDbLine
 10
311.8985609902352
 20
415.0615774897238
 30
0.0
 11
311.8985609902352
 21
438.5615774897238
 31
0.0
  0
LINE
  5
397
330
18
100
AcDbEntity
  8
1
  6
Continuous
100
AcDbLine
 10
298.5215809902351
 20
413.8115774897237
 30
0.0
 11
298.5215809902351
 21
439.8115774897235
 31
0.0
  0
ARC
  5
398
330
18
100
AcDbEntity
  8
1
  6
Continuous
100
AcDbCircle
 10
251.6341189902351
 20
426.8115774897236
 30
0.0
 40
34.65607399999999
100
AcDbArc
 50
337.9686029999998
 51
22.03139700000018
  0
ARC
  5
399
330
18
100
AcDbEntity
  8
1
  6
Continuous
100
AcDbCircle
 10
249.4779749902351
 20
426.8115774897236
 30
0.0
 40
34.65607399999999
100
AcDbArc
 50
337.9686029999998
 51
22.03139700000018
  0
LINE
  5
39A
330
18
100
AcDbEntity
  8
1
  6
Continuous
100
AcDbLine
 10
295.9586509902351
 20
413.8115774897237
 30
0.0
 11
295.9586509902351
 21
439.8115774897235
 31
0.0
  0
LINE
  5
39B
330
18
100
AcDbEntity
  8
1
  6
Continuous
100
AcDbLine
 10
232.1541009902353
 20
425.3115774897238
 30
0.0
 11
232.1541009902353
 21
407.4708774897236
 31
0.0
  0
LINE
  5
39C
330
18
100
AcDbEntity
  8
1
  6
Continuous
100
AcDbLine
 10
240.1541009902353
 20
425.3115774897238
 30
0.0
 11
240.1541009902353
 21
407.4708774897236
 31
0.0
  0
ARC
  5
39D
330
18
100
AcDbEntity
  8
1
  6
Continuous
100
AcDbCircle
 10
236.1541009902353
 20
426.8115774897236
 30
0.0
 40
12.0
100
AcDbArc
 50
289.47122
 51
70.52877900000016
  0
ARC
  5
39E
330
18
100
AcDbEntity
  8
1
  6
Continuous
100
AcDbCircle
 10
236.1541009902353
 20
426.8115774897236
 30
0.0
 40
16.0
100
AcDbArc
 50
284.4775099999996
 51
75.52248800000025
  0
ARC
  5
39F
330
18
100
AcDbEntity
  8
1
  6
Continuous
100
AcDbCircle
 10
236.1541009902353
 20
426.8115774897236
 30
0.0
 40
12.0
100
AcDbArc
 50
109.4712200000001
 51
250.52877
  0
LINE
  5
3A0
330
18
100
AcDbEntity
  8
1
  6
Continuous
100
AcDbLine
 10
271.1541009902354
 20
466.8115774897238
 30
0.0
 11
271.1541009902354
 21
386.8115774897237
 31
0.0
  0
LINE
  5
3A1
330
18
100
AcDbEntity
  8
4
  6
CENTER
 48
0.5
100
AcDbLine
 10
236.1541009902353
 20
476.3904074897236
 30
0.0
 11
236.1541009902353
 21
377.3248374897236
 31
0.0
  0
ARC
  5
3A2
330
18
100
AcDbEntity
  8
1
  6
Continuous
100
AcDbCircle
 10
236.1541009902353
 20
426.8115774897236
 30
0.0
 40
16.0
100
AcDbArc
 50
104.4775099999994
 51
255.5224899999996
  0
CIRCLE
  5
3A3
330
18
100
AcDbEntity
  8
1
  6
Continuous
100
AcDbCircle
 10
236.1541009902353
 20
426.8115774897236
 30
0.0
 40
19.75
  0
ARC
  5
3A4
330
18
100
AcDbEntity
  8
1
  6
Continuous
100
AcDbCircle
 10
282.3665259902351
 20
403.8115774897238
 30
0.0
 40
3.0
100
AcDbArc
 50
104.7364139999996
 51
151.2450330000001
  0
ARC
  5
3A5
330
18
100
AcDbEntity
  8
1
  6
Continuous
100
AcDbCircle
 10
277.7031419902351
 20
402.0115774897235
 30
0.0
 40
3.0
100
AcDbArc
 50
270.0
 51
323.7094639999999
  0
LINE
  5
3A6
330
18
100
AcDbEntity
  8
1
  6
Continuous
100
AcDbLine
 10
297.1845799902353
 20
396.0115774897236
 30
0.0
 11
271.1541009902354
 21
396.0115774897236
 31
0.0
  0
LINE
  5
3A7
330
18
100
AcDbEntity
  8
1
  6
Continuous
100
AcDbLine
 10
294.6985609902352
 20
399.0115774897236
 30
0.0
 11
271.1541009902354
 21
399.0115774897236
 31
0.0
  0
LINE
  5
3A8
330
18
100
AcDbEntity
  8
1
  6
Continuous
100
AcDbLine
 10
277.956827990235
 20
402.0115774897235
 30
0.0
 11
279.7364709902351
 21
405.2547724897237
 31
0.0
  0
LINE
  5
3A9
330
18
100
AcDbEntity
  8
1
  6
Continuous
100
AcDbLine
 10
222.3344409902352
 20
381.8115774897238
 30
0.0
 11
249.973760990235
 21
381.8115774897238
 31
0.0
  0
CIRCLE
  5
3AA
330
18
100
AcDbEntity
  8
1
  6
Continuous
100
AcDbCircle
 10
211.1541009902353
 20
386.8115774897237
 30
0.0
 40
4.25
  0
LINE
  5
3AB
330
18
100
AcDbEntity
  8
4
  6
CENTER
 48
0.5
100
AcDbLine
 10
211.1541009902353
 20
379.3115774897238
 30
0.0
 11
211.1541009902353
 21
394.3115774897238
 31
0.0
  0
ARC
  5
3AC
330
18
100
AcDbEntity
  8
1
  6
Continuous
100
AcDbCircle
 10
222.3344409902352
 20
376.8115774897236
 30
0.0
 40
5.0
100
AcDbArc
 50
89.99999600000005
 51
138.18969
  0
LINE
  5
3AD
330
18
100
AcDbEntity
  8
4
  6
CENTER
 48
0.5
100
AcDbLine
 10
203.6541009902351
 20
386.8115774897237
 30
0.0
 11
218.6541009902351
 21
386.8115774897237
 31
0.0
  0
CIRCLE
  5
3AE
330
18
100
AcDbEntity
  8
1
  6
Continuous
100
AcDbCircle
 10
261.1541009902353
 20
386.8115774897237
 30
0.0
 40
4.25
  0
LINE
  5
3AF
330
18
100
AcDbEntity
  8
4
  6
CENTER
 48
0.5
100
AcDbLine
 10
261.1541009902353
 20
379.3115774897238
 30
0.0
 11
261.1541009902353
 21
394.3115774897238
 31
0.0
  0
LINE
  5
3B0
330
18
100
AcDbEntity
  8
4
  6
CENTER
 48
0.5
100
AcDbLine
 10
268.6541009902351
 20
386.8115774897237
 30
0.0
 11
253.6541009902351
 21
386.8115774897237
 31
0.0
  0
ARC
  5
3B1
330
18
100
AcDbEntity
  8
1
  6
Continuous
100
AcDbCircle
 10
261.1541009902353
 20
386.8115774897237
 30
0.0
 40
10.0
100
AcDbArc
 50
221.8103099999998
 51
0.0000030000001391
  0
ARC
  5
3B2
330
18
100
AcDbEntity
  8
1
  6
Continuous
100
AcDbCircle
 10
249.973760990235
 20
376.8115774897236
 30
0.0
 40
5.0
100
AcDbArc
 50
41.81031700000024
 51
90.00000300000015
  0
LINE
  5
3B3
330
18
100
AcDbEntity
  8
1
  6
Continuous
100
AcDbLine
 10
277.9568279902353
 20
402.0115774897235
 30
0.0
 11
271.1541009902354
 21
402.0115774897235
 31
0.0
  0
ARC
  5
3B4
330
18
100
AcDbEntity
  8
1
  6
Continuous
100
AcDbCircle
 10
335.7184609902351
 20
311.6172984897238
 30
0.0
 40
3.625019999999998
100
AcDbArc
 50
48.04971799999981
 51
135.2547700000001
  0
ARC
  5
3B5
330
18
100
AcDbEntity
  8
1
  6
Continuous
100
AcDbCircle
 10
326.7272209902353
 20
311.1829004897238
 30
0.0
 40
2.299999999999998
100
AcDbArc
 50
91.65218399999998
 51
113.6521600000002
  0
LINE
  5
3B6
330
18
100
AcDbEntity
  8
1
  6
Continuous
100
AcDbLine
 10
333.1438009902352
 20
314.1691514897236
 30
0.0
 11
333.1582209902351
 21
313.6693574897237
 31
0.0
  0
ARC
  5
3B7
330
18
100
AcDbEntity
  8
1
  6
Continuous
100
AcDbCircle
 10
344.7147109902353
 20
311.8768054897238
 30
0.0
 40
3.625007
100
AcDbArc
 50
48.04948900000025
 51
135.2549699999997
  0
LINE
  5
3B8
330
18
100
AcDbEntity
  8
1
  6
Continuous
100
AcDbLine
 10
342.1400609902351
 20
314.4286394897237
 30
0.0
 11
342.1544709902351
 21
313.9288484897237
 31
0.0
  0
LINE
  5
3B9
330
18
100
AcDbEntity
  8
1
  6
Continuous
100
AcDbLine
 10
338.1417409902351
 20
314.3133174897237
 30
0.0
 11
338.1561609902353
 21
313.8135264897238
 31
0.0
  0
LINE
  5
3BA
330
18
100
AcDbEntity
  8
1
  6
Continuous
100
AcDbLine
 10
347.1381109902349
 20
314.5727964897237
 30
0.0
 11
347.1525109902352
 21
314.0730104897237
 31
0.0
  0
ARC
  5
3BB
330
18
100
AcDbEntity
  8
1
  6
Continuous
100
AcDbCircle
 10
353.7109509902352
 20
312.1362844897237
 30
0.0
 40
3.625011999999999
100
AcDbArc
 50
48.04971799999981
 51
135.2549699999997
  0
ARC
  5
3BC
330
18
100
AcDbEntity
  8
1
  6
Continuous
100
AcDbCircle
 10
353.7717109902353
 20
311.9629754897238
 30
0.0
 40
2.299999999999998
100
AcDbArc
 50
91.65218399999998
 51
181.6522299999999
  0
LINE
  5
3BD
330
18
100
AcDbEntity
  8
1
  6
Continuous
100
AcDbLine
 10
351.1363409902352
 20
314.6881374897237
 30
0.0
 11
351.1507709902352
 21
314.1883434897237
 31
0.0
  0
LINE
  5
3BE
330
18
100
AcDbEntity
  8
1
  6
Continuous
100
AcDbLine
 10
356.134320990235
 20
314.8323064897238
 30
0.0
 11
356.148730990235
 21
314.3325044897236
 31
0.0
  0
LINE
  5
3BF
330
18
100
AcDbEntity
  8
1
  6
Continuous
100
AcDbLine
 10
324.8045109902351
 20
397.3115774897236
 30
0.0
 11
299.6985609902352
 21
397.3115774897236
 31
0.0
  0
ARC
  5
3C0
330
18
100
AcDbEntity
  8
1
  6
Continuous
100
AcDbCircle
 10
301.2746729902354
 20
397.5115774897236
 30
0.0
 40
5.0
100
AcDbArc
 50
108.3742299999997
 51
124.9920199999999
  0
LINE
  5
3C1
330
18
100
AcDbEntity
  8
1
  6
Continuous
100
AcDbLine
 10
296.9354289902353
 20
396.9154184897238
 30
0.0
 11
299.6985609902352
 21
398.8496114897236
 31
0.0
  0
ARC
  5
3C2
330
18
100
AcDbEntity
  8
1
  6
Continuous
100
AcDbCircle
 10
297.1845799902353
 20
401.0115774897236
 30
0.0
 40
5.0
100
AcDbArc
 50
270.0
 51
304.9920199999998
  0
ARC
  5
3C3
330
18
100
AcDbEntity
  8
1
  6
Continuous
100
AcDbCircle
 10
282.9393829902351
 20
401.8115774897236
 30
0.0
 40
2.0
100
AcDbArc
 50
115.846792
 51
157.4848229999997
  0
LINE
  5
3C4
330
18
100
AcDbEntity
  8
1
  6
Continuous
100
AcDbLine
 10
281.2015649902351
 20
402.8015224897235
 30
0.0
 11
281.2015649902351
 21
406.5761514897237
 31
0.0
  0
LINE
  5
3C5
330
18
100
AcDbEntity
  8
1
  6
Continuous
100
AcDbLine
 10
280.1212199902354
 20
400.2359374897237
 30
0.0
 11
281.0918259902353
 21
402.5774344897238
 31
0.0
  0
ARC
  5
3C6
330
18
100
AcDbEntity
  8
1
  6
Continuous
100
AcDbCircle
 10
294.0681169902351
 20
401.0115774897236
 30
0.0
 40
5.0
100
AcDbArc
 50
270.0
 51
304.9920199999998
  0
LINE
  5
3C7
330
18
100
AcDbEntity
  8
1
  6
Continuous
100
AcDbLine
 10
294.6985609902352
 20
399.0115774897236
 30
0.0
 11
298.4073609902349
 21
401.6077374897236
 31
0.0
  0
LINE
  5
3C8
330
18
100
AcDbEntity
  8
1
  6
Continuous
100
AcDbLine
 10
291.8821009902351
 20
403.8115774897238
 30
0.0
 11
282.4181429902353
 21
403.8115774897238
 31
0.0
  0
LINE
  5
3CA
330
18
100
AcDbEntity
  8
1
  6
Continuous
100
AcDbLine
 10
283.7595509902353
 20
406.3113934897238
 30
0.0
 11
283.7595509902353
 21
413.8115774897237
 31
0.0
  0
LINE
  5
3CB
330
18
100
AcDbEntity
  8
1
  6
Continuous
100
AcDbLine
 10
281.6034079902351
 20
406.7128964897237
 30
0.0
 11
281.6034079902351
 21
413.8115774897237
 31
0.0
  0
ARC
  5
3CC
330
18
100
AcDbEntity
  8
1
  6
Continuous
100
AcDbCircle
 10
280.7595509902353
 20
406.3113934897238
 30
0.0
 40
3.0
100
AcDbArc
 50
295.8467920000001
 51
0.0
  0
LINE
  5
3CD
330
18
100
AcDbEntity
  8
1
  6
Continuous
100
AcDbLine
 10
293.8821009902351
 20
409.8115774897236
 30
0.0
 11
293.8821009902351
 21
405.8115774897236
 31
0.0
  0
ARC
  5
3CE
330
18
100
AcDbEntity
  8
1
  6
Continuous
100
AcDbCircle
 10
291.8821009902351
 20
405.8115774897236
 30
0.0
 40
2.0
100
AcDbArc
 50
270.0
 51
0.0
  0
ARC
  5
3CF
330
18
100
AcDbEntity
  8
1
  6
Continuous
100
AcDbCircle
 10
295.8821009902351
 20
409.8115774897236
 30
0.0
 40
2.0
100
AcDbArc
 50
90.0
 51
180.0
  0
LINE
  5
3D0
330
18
100
AcDbEntity
  8
1
  6
Continuous
100
AcDbLine
 10
296.5215809902352
 20
411.8115774897238
 30
0.0
 11
295.8821009902351
 21
411.8115774897238
 31
0.0
  0
ARC
  5
3D1
330
18
100
AcDbEntity
  8
1
  6
Continuous
100
AcDbCircle
 10
296.5215809902352
 20
413.8115774897237
 30
0.0
 40
2.0
100
AcDbArc
 50
270.0
 51
0.0
  0
LINE
  5
3D2
330
18
100
AcDbEntity
  8
1
  6
Continuous
100
AcDbLine
 10
299.6985609902352
 20
397.3115774897236
 30
0.0
 11
299.6985609902352
 21
408.5615774897235
 31
0.0
  0
LINE
  5
3D3
330
18
100
AcDbEntity
  8
1
  6
Continuous
100
AcDbLine
 10
313.2871129902353
 20
396.0115774897236
 30
0.0
 11
307.8871129902351
 21
396.0115774897236
 31
0.0
  0
ARC
  5
3D4
330
18
100
AcDbEntity
  8
1
  6
Continuous
100
AcDbCircle
 10
307.8871129902351
 20
397.2115774897236
 30
0.0
 40
1.199999999999999
100
AcDbArc
 50
180.0
 51
270.0
  0
LINE
  5
3D5
330
18
100
AcDbEntity
  8
1
  6
Continuous
100
AcDbLine
 10
300.0518919902352
 20
396.9154184897238
 30
0.0
 11
300.6178339902351
 21
397.3115774897236
 31
0.0
  0
LINE
  5
3D6
330
18
100
AcDbEntity
  8
1
  6
Continuous
100
AcDbLine
 10
306.6871129902352
 20
397.2115774897236
 30
0.0
 11
306.6871129902352
 21
397.3115774897236
 31
0.0
  0
ARC
  5
3D7
330
18
100
AcDbEntity
  8
1
  6
Continuous
100
AcDbCircle
 10
313.2871129902353
 20
397.2115774897236
 30
0.0
 40
1.199999999999999
100
AcDbArc
 50
270.0
 51
0.0
  0
LINE
  5
3D8
330
18
100
AcDbEntity
  8
1
  6
Continuous
100
AcDbLine
 10
314.4871129902351
 20
397.2115774897236
 30
0.0
 11
314.4871129902351
 21
397.3115774897236
 31
0.0
  0
ARC
  5
3D9
330
18
100
AcDbEntity
  8
1
  6
Continuous
100
AcDbCircle
 10
306.8985609902351
 20
415.0615774897238
 30
0.0
 40
5.0
100
AcDbArc
 50
270.0
 51
0.0
  0
ARC
  5
3DA
330
18
100
AcDbEntity
  8
1
  6
Continuous
100
AcDbCircle
 10
301.1985609902351
 20
408.5615774897235
 30
0.0
 40
1.5
100
AcDbArc
 50
90.0
 51
180.0
  0
LINE
  5
3DB
330
18
100
AcDbEntity
  8
1
  6
Continuous
100
AcDbLine
 10
306.8985609902351
 20
410.0615774897238
 30
0.0
 11
301.1985609902351
 21
410.0615774897238
 31
0.0
  0
ARC
  5
3DC
330
18
100
AcDbEntity
  8
1
  6
Continuous
100
AcDbCircle
 10
335.6427769902351
 20
409.3105424897236
 30
0.0
 40
2.498963999999999
100
AcDbArc
 50
180.0
 51
0.0
  0
LINE
  5
3DD
330
18
100
AcDbEntity
  8
1
  6
Continuous
100
AcDbLine
 10
351.4726679902352
 20
400.3115774897238
 30
0.0
 11
327.8045109902352
 21
400.3115774897238
 31
0.0
  0
ARC
  5
3DE
330
18
100
AcDbEntity
  8
1
  6
Continuous
100
AcDbCircle
 10
327.8045109902352
 20
398.3115774897238
 30
0.0
 40
2.0
100
AcDbArc
 50
90.0
 51
180.0
  0
ARC
  5
3DF
330
18
100
AcDbEntity
  8
1
  6
Continuous
100
AcDbCircle
 10
324.8045109902351
 20
398.3115774897238
 30
0.0
 40
1.0
100
AcDbArc
 50
270.0
 51
0.0
  0
ARC
  5
3E0
330
18
100
AcDbEntity
  8
1
  6
Continuous
100
AcDbCircle
 10
354.4726679902352
 20
400.7579814897235
 30
0.0
 40
3.0
100
AcDbArc
 50
91.07054000000015
 51
180.0
  0
LINE
  5
3E1
330
18
100
AcDbEntity
  8
1
  6
Continuous
100
AcDbLine
 10
351.4726679902352
 20
400.7579814897235
 30
0.0
 11
351.4726679902352
 21
400.3115774897238
 31
0.0
  0
ARC
  5
3E2
330
18
100
AcDbEntity
  8
1
  6
Continuous
100
AcDbCircle
 10
344.6390869902352
 20
409.3106024897235
 30
0.0
 40
2.499023999999999
100
AcDbArc
 50
180.0
 51
0.0
  0
ARC
  5
3E3
330
18
100
AcDbEntity
  8
1
  6
Continuous
100
AcDbCircle
 10
353.6352809902353
 20
409.3105174897235
 30
0.0
 40
2.498939
100
AcDbArc
 50
180.0
 51
0.0
  0
ARC
  5
3E4
330
18
100
AcDbEntity
  8
1
  6
Continuous
100
AcDbCircle
 10
277.7031419902351
 20
451.6115774897238
 30
0.0
 40
3.0
100
AcDbArc
 50
36.29053600000005
 51
90.0
  0
LINE
  5
3E5
330
18
100
AcDbEntity
  8
1
  6
Continuous
100
AcDbLine
 10
277.956827990235
 20
451.6115774897238
 30
0.0
 11
279.7364709902351
 21
448.3683834897235
 31
0.0
  0
ARC
  5
3E6
330
18
100
AcDbEntity
  8
1
  6
Continuous
100
AcDbCircle
 10
282.3665259902351
 20
449.8115774897238
 30
0.0
 40
3.0
100
AcDbArc
 50
208.7549669999996
 51
255.2635860000001
  0
LINE
  5
3E7
330
18
100
AcDbEntity
  8
1
  6
Continuous
100
AcDbLine
 10
297.1845799902353
 20
457.6115774897238
 30
0.0
 11
271.1541009902354
 21
457.6115774897238
 31
0.0
  0
LINE
  5
3E8
330
18
100
AcDbEntity
  8
1
  6
Continuous
100
AcDbLine
 10
294.6985609902352
 20
454.6115774897238
 30
0.0
 11
271.1541009902354
 21
454.6115774897238
 31
0.0
  0
ARC
  5
3E9
330
18
100
AcDbEntity
  8
1
  6
Continuous
100
AcDbCircle
 10
261.1541009902353
 20
466.8115774897238
 30
0.0
 40
10.0
100
AcDbArc
 50
0.0000030000001391
 51
138.18969
  0
CIRCLE
  5
3EA
330
18
100
AcDbEntity
  8
1
  6
Continuous
100
AcDbCircle
 10
261.1541009902353
 20
466.8115774897238
 30
0.0
 40
4.25
  0
LINE
  5
3EB
330
18
100
AcDbEntity
  8
4
  6
CENTER
 48
0.5
100
AcDbLine
 10
261.1541009902353
 20
474.3115774897235
 30
0.0
 11
261.1541009902353
 21
459.3115774897237
 31
0.0
  0
CIRCLE
  5
3EC
330
18
100
AcDbEntity
  8
1
  6
Continuous
100
AcDbCircle
 10
211.1541009902353
 20
466.8115774897238
 30
0.0
 40
4.25
  0
LINE
  5
3ED
330
18
100
AcDbEntity
  8
4
  6
CENTER
 48
0.5
100
AcDbLine
 10
211.1541009902353
 20
474.3115774897235
 30
0.0
 11
211.1541009902353
 21
459.3115774897237
 31
0.0
  0
ARC
  5
3EE
330
18
100
AcDbEntity
  8
1
  6
Continuous
100
AcDbCircle
 10
241.4041009902351
 20
426.8115774897236
 30
0.0
 40
0.75
100
AcDbArc
 50
270.0
 51
90.00000300000015
  0
ARC
  5
3EF
330
18
100
AcDbEntity
  8
1
  6
Continuous
100
AcDbCircle
 10
236.1541009902353
 20
426.8115774897236
 30
0.0
 40
5.0
100
AcDbArc
 50
323.1300999999997
 51
351.37307
  0
ARC
  5
3F0
330
18
100
AcDbEntity
  8
1
  6
Continuous
100
AcDbCircle
 10
236.1541009902353
 20
426.8115774897236
 30
0.0
 40
6.5
100
AcDbArc
 50
307.9798699999999
 51
52.02012799999963
  0
ARC
  5
3F1
330
18
100
AcDbEntity
  8
1
  6
Continuous
100
AcDbCircle
 10
236.1541009902353
 20
426.8115774897236
 30
0.0
 40
5.0
100
AcDbArc
 50
8.62692699999982
 51
36.86989699999978
  0
LINE
  5
3F2
330
18
100
AcDbEntity
  8
1
  6
Continuous
100
AcDbLine
 10
241.4041009902351
 20
427.5615774897238
 30
0.0
 11
230.9041009902351
 21
427.5615774897238
 31
0.0
  0
LINE
  5
3F3
330
18
100
AcDbEntity
  8
1
  6
Continuous
100
AcDbLine
 10
241.4041009902351
 20
426.0615774897235
 30
0.0
 11
230.9041009902351
 21
426.0615774897235
 31
0.0
  0
LINE
  5
3F4
330
18
100
AcDbEntity
  8
1
  6
Continuous
100
AcDbLine
 10
240.1541009902353
 20
446.1522774897235
 30
0.0
 11
240.1541009902353
 21
428.3115774897238
 31
0.0
  0
LINE
  5
3F5
330
18
100
AcDbEntity
  8
1
  6
Continuous
100
AcDbLine
 10
232.1541009902353
 20
446.1522774897235
 30
0.0
 11
232.1541009902353
 21
428.3115774897238
 31
0.0
  0
ARC
  5
3F6
330
18
100
AcDbEntity
  8
1
  6
Continuous
100
AcDbCircle
 10
236.1541009902353
 20
426.8115774897236
 30
0.0
 40
6.5
100
AcDbArc
 50
127.9798800000003
 51
232.0201299999999
  0
ARC
  5
3F7
330
18
100
AcDbEntity
  8
1
  6
Continuous
100
AcDbCircle
 10
236.1541009902353
 20
426.8115774897236
 30
0.0
 40
5.0
100
AcDbArc
 50
143.1300999999996
 51
171.3730800000001
  0
ARC
  5
3F8
330
18
100
AcDbEntity
  8
1
  6
Continuous
100
AcDbCircle
 10
236.1541009902353
 20
426.8115774897236
 30
0.0
 40
5.0
100
AcDbArc
 50
188.6269199999999
 51
216.8699000000001
  0
ARC
  5
3F9
330
18
100
AcDbEntity
  8
1
  6
Continuous
100
AcDbCircle
 10
230.9041009902351
 20
426.8115774897236
 30
0.0
 40
0.75
100
AcDbArc
 50
90.00000300000015
 51
270.0
  0
LINE
  5
3FA
330
18
100
AcDbEntity
  8
1
  6
Continuous
100
AcDbLine
 10
240.1541009902353
 20
428.3115774897238
 30
0.0
 11
232.1541009902353
 21
428.3115774897238
 31
0.0
  0
LINE
  5
3FB
330
18
100
AcDbEntity
  8
1
  6
Continuous
100
AcDbLine
 10
240.1541009902353
 20
425.3115774897238
 30
0.0
 11
232.1541009902353
 21
425.3115774897238
 31
0.0
  0
LINE
  5
3FC
330
18
100
AcDbEntity
  8
1
  6
Continuous
100
AcDbLine
 10
233.1541009902351
 20
426.0615774897235
 30
0.0
 11
233.1541009902351
 21
425.3115774897238
 31
0.0
  0
LINE
  5
3FD
330
18
100
AcDbEntity
  8
1
  6
Continuous
100
AcDbLine
 10
233.1541009902351
 20
428.3115774897238
 30
0.0
 11
233.1541009902351
 21
427.5615774897238
 31
0.0
  0
LINE
  5
3FE
330
18
100
AcDbEntity
  8
1
  6
Continuous
100
AcDbLine
 10
239.1541009902351
 20
426.0615774897235
 30
0.0
 11
239.1541009902351
 21
425.3115774897238
 31
0.0
  0
LINE
  5
3FF
330
18
100
AcDbEntity
  8
1
  6
Continuous
100
AcDbLine
 10
239.1541009902351
 20
428.3115774897238
 30
0.0
 11
239.1541009902351
 21
427.5615774897238
 31
0.0
  0
LINE
  5
400
330
18
100
AcDbEntity
  8
4
  6
CENTER
 48
0.5
100
AcDbLine
 10
203.6541009902351
 20
466.8115774897238
 30
0.0
 11
218.6541009902351
 21
466.8115774897238
 31
0.0
  0
LINE
  5
401
330
18
100
AcDbEntity
  8
4
  6
CENTER
 48
0.5
100
AcDbLine
 10
268.6541009902351
 20
466.8115774897238
 30
0.0
 11
253.6541009902351
 21
466.8115774897238
 31
0.0
  0
LINE
  5
402
330
18
100
AcDbEntity
  8
1
  6
Continuous
100
AcDbLine
 10
277.9568279902353
 20
451.6115774897238
 30
0.0
 11
271.1541009902354
 21
451.6115774897238
 31
0.0
  0
LINE
  5
403
330
18
100
AcDbEntity
  8
1
  6
Continuous
100
AcDbLine
 10
249.973760990235
 20
471.8115774897237
 30
0.0
 11
222.3344409902352
 21
471.8115774897237
 31
0.0
  0
ARC
  5
404
330
18
100
AcDbEntity
  8
1
  6
Continuous
100
AcDbCircle
 10
222.3344409902352
 20
476.8115774897236
 30
0.0
 40
5.0
100
AcDbArc
 50
221.8103099999998
 51
270.0
  0
ARC
  5
405
330
18
100
AcDbEntity
  8
1
  6
Continuous
100
AcDbCircle
 10
249.973760990235
 20
476.8115774897236
 30
0.0
 40
5.0
100
AcDbArc
 50
270.0
 51
318.1896900000001
  0
LINE
  5
406
330
18
100
AcDbEntity
  8
1
  6
Continuous
100
AcDbLine
 10
324.8045109902351
 20
456.3115774897235
 30
0.0
 11
299.6985609902352
 21
456.3115774897235
 31
0.0
  0
ARC
  5
407
330
18
100
AcDbEntity
  8
1
  6
Continuous
100
AcDbCircle
 10
306.8985609902351
 20
438.5615774897238
 30
0.0
 40
5.0
100
AcDbArc
 50
0.0
 51
90.0
  0
ARC
  5
408
330
18
100
AcDbEntity
  8
1
  6
Continuous
100
AcDbCircle
 10
295.8821009902351
 20
443.8115774897235
 30
0.0
 40
2.0
100
AcDbArc
 50
180.0
 51
270.0
  0
LINE
  5
409
330
18
100
AcDbEntity
  8
1
  6
Continuous
100
AcDbLine
 10
283.7595509902353
 20
439.8115774897235
 30
0.0
 11
283.7595509902353
 21
447.3117624897238
 31
0.0
  0
LINE
  5
40A
330
18
100
AcDbEntity
  8
1
  6
Continuous
100
AcDbLine
 10
281.6034079902351
 20
439.8115774897235
 30
0.0
 11
281.6034079902351
 21
446.9102594897235
 31
0.0
  0
LINE
  5
40B
330
18
100
AcDbEntity
  8
1
  6
Continuous
100
AcDbLine
 10
296.5215809902352
 20
441.8115774897238
 30
0.0
 11
295.8821009902351
 21
441.8115774897238
 31
0.0
  0
ARC
  5
40C
330
18
100
AcDbEntity
  8
1
  6
Continuous
100
AcDbCircle
 10
296.5215809902352
 20
439.8115774897235
 30
0.0
 40
2.0
100
AcDbArc
 50
0.0
 51
90.0
  0
LINE
  5
40D
330
18
100
AcDbEntity
  8
1
  6
Continuous
100
AcDbLine
 10
296.9354289902353
 20
456.7077374897237
 30
0.0
 11
299.6985609902352
 21
454.7735444897234
 31
0.0
  0
ARC
  5
40E
330
18
100
AcDbEntity
  8
1
  6
Continuous
100
AcDbCircle
 10
297.1845799902353
 20
452.6115774897236
 30
0.0
 40
5.0
100
AcDbArc
 50
55.00798000000006
 51
90.0
  0
ARC
  5
40F
330
18
100
AcDbEntity
  8
1
  6
Continuous
100
AcDbCircle
 10
301.2746729902354
 20
456.1115774897237
 30
0.0
 40
5.0
100
AcDbArc
 50
235.00798
 51
251.6257700000003
  0
LINE
  5
410
330
18
100
AcDbEntity
  8
1
  6
Continuous
100
AcDbLine
 10
291.8821009902351
 20
449.8115774897238
 30
0.0
 11
282.4181429902353
 21
449.8115774897238
 31
0.0
  0
ARC
  5
411
330
18
100
AcDbEntity
  8
1
  6
Continuous
100
AcDbCircle
 10
280.7595509902353
 20
447.3117624897238
 30
0.0
 40
3.0
100
AcDbArc
 50
0.0
 51
64.15320799999981
  0
LINE
  5
412
330
18
100
AcDbEntity
  8
1
  6
Continuous
100
AcDbLine
 10
281.2015649902351
 20
450.8216334897236
 30
0.0
 11
281.2015649902351
 21
447.0470044897235
 31
0.0
  0
ARC
  5
413
330
18
100
AcDbEntity
  8
1
  6
Continuous
100
AcDbCircle
 10
282.9393829902351
 20
451.8115774897236
 30
0.0
 40
2.0
100
AcDbArc
 50
202.5151770000002
 51
244.1532079999996
  0
LINE
  5
414
330
18
100
AcDbEntity
  8
1
  6
Continuous
100
AcDbLine
 10
280.1212199902354
 20
453.3872184897235
 30
0.0
 11
281.0918259902353
 21
451.0457214897235
 31
0.0
  0
ARC
  5
415
330
18
100
AcDbEntity
  8
1
  6
Continuous
100
AcDbCircle
 10
291.8821009902351
 20
447.8115774897236
 30
0.0
 40
2.0
100
AcDbArc
 50
0.0
 51
90.0
  0
LINE
  5
416
330
18
100
AcDbEntity
  8
1
  6
Continuous
100
AcDbLine
 10
293.8821009902351
 20
443.8115774897235
 30
0.0
 11
293.8821009902351
 21
447.8115774897236
 31
0.0
  0
LINE
  5
417
330
18
100
AcDbEntity
  8
1
  6
Continuous
100
AcDbLine
 10
294.6985609902352
 20
454.6115774897238
 30
0.0
 11
298.4073609902352
 21
452.0154184897235
 31
0.0
  0
ARC
  5
418
330
18
100
AcDbEntity
  8
1
  6
Continuous
100
AcDbCircle
 10
294.0681169902351
 20
452.6115774897236
 30
0.0
 40
5.0
100
AcDbArc
 50
55.00798000000006
 51
90.0
  0
LINE
  5
419
330
18
100
AcDbEntity
  8
1
  6
Continuous
100
AcDbLine
 10
299.6985609902352
 20
445.0615774897237
 30
0.0
 11
299.6985609902352
 21
456.3115774897235
 31
0.0
  0
LINE
  5
41A
330
18
100
AcDbEntity
  8
1
  6
Continuous
100
AcDbLine
 10
306.8985609902351
 20
443.5615774897238
 30
0.0
 11
301.1985609902351
 21
443.5615774897238
 31
0.0
  0
ARC
  5
41B
330
18
100
AcDbEntity
  8
1
  6
Continuous
100
AcDbCircle
 10
301.1985609902351
 20
445.0615774897237
 30
0.0
 40
1.5
100
AcDbArc
 50
180.0
 51
270.0
  0
LINE
  5
41C
330
18
100
AcDbEntity
  8
1
  6
Continuous
100
AcDbLine
 10
313.2871129902353
 20
457.6115774897238
 30
0.0
 11
307.8871129902351
 21
457.6115774897238
 31
0.0
  0
LINE
  5
41D
330
18
100
AcDbEntity
  8
1
  6
Continuous
100
AcDbLine
 10
300.0518919902353
 20
456.7077374897237
 30
0.0
 11
300.6178339902354
 21
456.3115774897239
 31
0.0
  0
ARC
  5
41E
330
18
100
AcDbEntity
  8
1
  6
Continuous
100
AcDbCircle
 10
307.8871129902351
 20
456.4115774897238
 30
0.0
 40
1.199999999999999
100
AcDbArc
 50
90.0
 51
180.0
  0
LINE
  5
41F
330
18
100
AcDbEntity
  8
1
  6
Continuous
100
AcDbLine
 10
306.6871129902352
 20
456.4115774897238
 30
0.0
 11
306.6871129902352
 21
456.3115774897235
 31
0.0
  0
ARC
  5
420
330
18
100
AcDbEntity
  8
1
  6
Continuous
100
AcDbCircle
 10
313.2871129902353
 20
456.4115774897238
 30
0.0
 40
1.199999999999999
100
AcDbArc
 50
0.0
 51
90.0
  0
LINE
  5
421
330
18
100
AcDbEntity
  8
1
  6
Continuous
100
AcDbLine
 10
314.4871129902351
 20
456.4115774897238
 30
0.0
 11
314.4871129902351
 21
456.3115774897235
 31
0.0
  0
ARC
  5
422
330
18
100
AcDbEntity
  8
1
  6
Continuous
100
AcDbCircle
 10
335.6427769902351
 20
444.3126134897235
 30
0.0
 40
2.498963999999999
100
AcDbArc
 50
0.0
 51
180.0
  0
LINE
  5
423
330
18
100
AcDbEntity
  8
1
  6
Continuous
100
AcDbLine
 10
351.4726679902352
 20
453.3115774897238
 30
0.0
 11
327.8045109902352
 21
453.3115774897238
 31
0.0
  0
ARC
  5
424
330
18
100
AcDbEntity
  8
1
  6
Continuous
100
AcDbCircle
 10
324.8045109902351
 20
455.3115774897237
 30
0.0
 40
1.0
100
AcDbArc
 50
0.0
 51
90.0
  0
ARC
  5
425
330
18
100
AcDbEntity
  8
1
  6
Continuous
100
AcDbCircle
 10
327.8045109902352
 20
455.3115774897237
 30
0.0
 40
2.0
100
AcDbArc
 50
180.0
 51
270.0
  0
ARC
  5
426
330
18
100
AcDbEntity
  8
1
  6
Continuous
100
AcDbCircle
 10
344.6390869902352
 20
444.3125534897236
 30
0.0
 40
2.499023999999999
100
AcDbArc
 50
0.0
 51
180.0
  0
ARC
  5
427
330
18
100
AcDbEntity
  8
1
  6
Continuous
100
AcDbCircle
 10
354.4726679902352
 20
452.8651744897238
 30
0.0
 40
3.0
100
AcDbArc
 50
180.0
 51
268.9294599999998
  0
ARC
  5
428
330
18
100
AcDbEntity
  8
1
  6
Continuous
100
AcDbCircle
 10
353.6352809902353
 20
444.3126384897237
 30
0.0
 40
2.498939
100
AcDbArc
 50
0.0
 51
180.0
  0
LINE
  5
429
330
18
100
AcDbEntity
  8
1
  6
Continuous
100
AcDbLine
 10
351.4726679902352
 20
452.8651744897238
 30
0.0
 11
351.4726679902352
 21
453.3115774897238
 31
0.0
  0
LINE
  5
42A
330
18
100
AcDbEntity
  8
1
  6
Continuous
100
AcDbLine
 10
361.6463809902352
 20
411.1235844897238
 30
0.0
 11
361.6463809902352
 21
442.4995714897238
 31
0.0
  0
LINE
  5
42B
330
18
100
AcDbEntity
  8
1
  6
Continuous
100
AcDbLine
 10
361.6464409902353
 20
314.4910894897237
 30
0.0
 11
361.7127509902352
 21
312.1920514897237
 31
0.0
  0
ARC
  5
5B1
330
18
100
AcDbEntity
  8
1
  6
Continuous
100
AcDbCircle
 10
354.3453399902352
 20
442.4995714897238
 30
0.0
 40
7.367411999999997
100
AcDbArc
 50
0.0
 51
88.92945999999978
  0
LINE
  5
5B2
330
18
100
AcDbEntity
  8
1
  6
Continuous
100
AcDbLine
 10
361.7127509902352
 20
411.1235844897238
 30
0.0
 11
361.7127509902352
 21
442.4995714897238
 31
0.0
  0
ARC
  5
5B3
330
18
100
AcDbEntity
  8
1
  6
Continuous
100
AcDbCircle
 10
354.3453399902352
 20
411.1235844897238
 30
0.0
 40
7.367411999999997
100
AcDbArc
 50
271.07054
 51
0.0
  0
LINE
  5
5B4
330
18
100
AcDbEntity
  8
1
  6
Continuous
100
AcDbLine
 10
354.4166180056373
 20
403.7574584657136
 30
0.0
 11
354.4829880056373
 21
403.7574584657136
 31
0.0
  0
LINE
  5
5B5
330
18
100
AcDbEntity
  8
1
  6
Continuous
100
AcDbLine
 10
354.4166180056373
 20
449.8656975137339
 30
0.0
 11
354.4829880056373
 21
449.8656975137339
 31
0.0
  0
ARC
  5
5C0
330
18
100
AcDbEntity
  8
1
  6
Continuous
100
AcDbCircle
 10
223.254106990235
 20
219.0115774897237
 30
0.0
 40
3.0
100
AcDbArc
 50
179.9999799999999
 51
270.0
  0
LINE
  5
5C1
330
18
100
AcDbEntity
  8
1
  6
Continuous
100
AcDbLine
 10
220.2541069902351
 20
219.0115774897237
 30
0.0
 11
220.2541069902351
 21
220.8115774897236
 31
0.0
  0
ARC
  5
5C2
330
18
100
AcDbEntity
  8
1
  6
Continuous
100
AcDbCircle
 10
249.054094990235
 20
219.0115774897237
 30
0.0
 40
3.0
100
AcDbArc
 50
270.0
 51
0.0000180000000203
  0
LINE
  5
5C3
330
18
100
AcDbEntity
  8
1
  6
Continuous
100
AcDbLine
 10
223.254106990235
 20
216.0115774897236
 30
0.0
 11
249.054094990235
 21
216.0115774897236
 31
0.0
  0
LINE
  5
5C4
330
18
100
AcDbEntity
  8
1
  6
Continuous
100
AcDbLine
 10
224.5186490621744
 20
216.0115774897238
 30
0.0
 11
223.1111279902351
 21
214.6043964897237
 31
0.0
  0
ARC
  5
5C5
330
18
100
AcDbEntity
  8
1
  6
Continuous
100
AcDbCircle
 10
222.4041009902351
 20
215.3115884897238
 30
0.0
 40
1.0
100
AcDbArc
 50
269.9999399999995
 51
314.9929899999999
  0
LINE
  5
5C6
330
18
100
AcDbEntity
  8
1
  6
Continuous
100
AcDbLine
 10
247.7895509685489
 20
216.0115774897236
 30
0.0
 11
249.1970739902351
 21
214.6044004897238
 31
0.0
  0
LINE
  5
5C7
330
18
100
AcDbEntity
  8
1
  6
Continuous
100
AcDbLine
 10
252.0540949902351
 20
219.0115774897237
 30
0.0
 11
252.0540949902351
 21
220.8115774897236
 31
0.0
  0
ARC
  5
5C8
330
18
100
AcDbEntity
  8
1
  6
Continuous
100
AcDbCircle
 10
249.9041009902351
 20
215.3115884897238
 30
0.0
 40
1.0
100
AcDbArc
 50
225.0070099999998
 51
270.0000500000001
  0
ARC
  5
650
330
18
100
AcDbEntity
  8
5
  6
PHANTOM
 48
0.5
100
AcDbCircle
 10
223.254106990235
 20
194.0115664897236
 30
0.0
 40
3.0
100
AcDbArc
 50
179.9999799999999
 51
270.0
  0
LINE
  5
651
330
18
100
AcDbEntity
  8
5
  6
PHANTOM
 48
0.5
100
AcDbLine
 10
223.254106990235
 20
191.0115664897237
 30
0.0
 11
249.054094990235
 21
191.0115664897237
 31
0.0
  0
LINE
  5
652
330
18
100
AcDbEntity
  8
5
  6
PHANTOM
 48
0.5
100
AcDbLine
 10
224.5186490621744
 20
191.0115664897238
 30
0.0
 11
223.1111279902351
 21
189.6043854897237
 31
0.0
  0
ARC
  5
653
330
18
100
AcDbEntity
  8
5
  6
PHANTOM
 48
0.5
100
AcDbCircle
 10
222.4041009902351
 20
190.3115774897237
 30
0.0
 40
1.0
100
AcDbArc
 50
269.9999399999995
 51
314.9929899999999
  0
LINE
  5
654
330
18
100
AcDbEntity
  8
5
  6
PHANTOM
 48
0.5
100
AcDbLine
 10
247.7895509685489
 20
191.0115664897237
 30
0.0
 11
249.1970739902351
 21
189.6043894897237
 31
0.0
  0
ARC
  5
655
330
18
100
AcDbEntity
  8
5
  6
PHANTOM
 48
0.5
100
AcDbCircle
 10
249.9041009902351
 20
190.3115774897237
 30
0.0
 40
1.0
100
AcDbArc
 50
225.0070099999998
 51
270.0000500000001
  0
ARC
  5
656
330
18
100
AcDbEntity
  8
5
  6
PHANTOM
 48
0.5
100
AcDbCircle
 10
249.054094990235
 20
194.0115664897236
 30
0.0
 40
3.0
100
AcDbArc
 50
270.0
 51
0.0000180000000203
  0
LINE
  5
659
330
18
100
AcDbEntity
  8
4
  6
CENTER
 48
0.5
100
AcDbLine
 10
366.1463809902352
 20
92.4795344897238
 30
0.0
 11
190.2511062306525
 21
92.4795344897238
 31
0.0
  0
LINE
  5
65A
330
18
100
AcDbEntity
  8
1
  6
Continuous
100
AcDbLine
 10
351.4726679902352
 20
118.9795344897237
 30
0.0
 11
327.8045109902352
 21
118.9795344897237
 31
0.0
  0
LINE
  5
65B
330
18
100
AcDbEntity
  8
1
  6
Continuous
100
AcDbLine
 10
351.4726679902352
 20
65.97953448972379
 30
0.0
 11
327.8045109902352
 21
65.97953448972379
 31
0.0
  0
ARC
  5
65C
330
18
100
AcDbEntity
  8
1
  6
Continuous
100
AcDbCircle
 10
306.8985609902351
 20
104.2295344897236
 30
0.0
 40
5.0
100
AcDbArc
 50
0.0
 51
90.00000000000005
  0
ARC
  5
65D
330
18
100
AcDbEntity
  8
1
  6
Continuous
100
AcDbCircle
 10
301.1985609902351
 20
110.7295344897238
 30
0.0
 40
1.5
100
AcDbArc
 50
180.0
 51
270.0
  0
ARC
  5
65E
330
18
100
AcDbEntity
  8
1
  6
Continuous
100
AcDbCircle
 10
295.8821009902351
 20
109.4795344897237
 30
0.0
 40
2.0
100
AcDbArc
 50
180.0
 51
270.0
  0
LINE
  5
663
330
18
100
AcDbEntity
  8
1
  6
Continuous
100
AcDbLine
 10
326.7272424678665
 20
112.9795344897237
 30
0.0
 11
326.7272424678665
 21
71.97953448972376
 31
0.0
  0
LINE
  5
666
330
18
100
AcDbEntity
  8
1
  6
Continuous
100
AcDbLine
 10
281.6034079902353
 20
112.4795344897238
 30
0.0
 11
281.6034079902351
 21
105.4795344897237
 31
0.0
  0
LINE
  5
66A
330
18
100
AcDbEntity
  8
4
  6
CENTER
 48
0.5
100
AcDbLine
 10
236.1541009902353
 20
42.90070448972381
 30
0.0
 11
236.1541009902353
 21
141.9662744897236
 31
0.0
  0
LINE
  5
66D
330
18
100
AcDbEntity
  8
1
  6
Continuous
100
AcDbLine
 10
201.1541009902351
 20
52.47953448972379
 30
0.0
 11
201.1541009902351
 21
73.1146177586868
 31
0.0
  0
LINE
  5
66E
330
18
100
AcDbEntity
  8
1
  6
Continuous
100
AcDbLine
 10
271.1541009902354
 20
52.47953448972379
 30
0.0
 11
271.1541009902354
 21
61.67953448972378
 31
0.0
  0
LINE
  5
66F
330
18
100
AcDbEntity
  8
1
  6
Continuous
100
AcDbLine
 10
222.3344409902352
 20
137.4795344897236
 30
0.0
 11
249.973760990235
 21
137.4795344897236
 31
0.0
  0
CIRCLE
  5
670
330
18
100
AcDbEntity
  8
1
  6
Continuous
100
AcDbCircle
 10
211.1541009902353
 20
132.4795344897237
 30
0.0
 40
4.25
  0
LINE
  5
671
330
18
100
AcDbEntity
  8
4
  6
CENTER
 48
0.5
100
AcDbLine
 10
211.1541009902353
 20
139.9795344897238
 30
0.0
 11
211.1541009902353
 21
124.9795344897236
 31
0.0
  0
LINE
  5
672
330
18
100
AcDbEntity
  8
4
  6
CENTER
 48
0.5
100
AcDbLine
 10
203.6541009902351
 20
132.4795344897237
 30
0.0
 11
218.6541009902351
 21
132.4795344897237
 31
0.0
  0
ARC
  5
673
330
18
100
AcDbEntity
  8
1
  6
Continuous
100
AcDbCircle
 10
211.1541009902353
 20
132.4795344897237
 30
0.0
 40
10.0
100
AcDbArc
 50
41.81030999999985
 51
180.0000100000002
  0
ARC
  5
674
330
18
100
AcDbEntity
  8
1
  6
Continuous
100
AcDbCircle
 10
222.3344409902352
 20
142.4795344897236
 30
0.0
 40
5.0
100
AcDbArc
 50
221.8103099999998
 51
270.0000039999999
  0
LINE
  5
675
330
18
100
AcDbEntity
  8
1
  6
Continuous
100
AcDbLine
 10
291.8821009902351
 20
115.4795344897237
 30
0.0
 11
268.8802373341423
 21
115.4795344897237
 31
0.0
  0
LINE
  5
676
330
18
100
AcDbEntity
  8
1
  6
Continuous
100
AcDbLine
 10
297.1845799902353
 20
123.2795344897237
 30
0.0
 11
261.6758564157541
 21
123.2795344897237
 31
0.0
  0
LINE
  5
677
330
18
100
AcDbEntity
  8
1
  6
Continuous
100
AcDbLine
 10
297.1845794075666
 20
120.2795344897237
 30
0.0
 11
264.9144904173624
 21
120.2795344897237
 31
0.0
  0
LINE
  5
678
330
18
100
AcDbEntity
  8
4
  6
CENTER
 48
0.5
100
AcDbLine
 10
268.6541009902351
 20
132.4795344897237
 30
0.0
 11
253.6541009902351
 21
132.4795344897237
 31
0.0
  0
CIRCLE
  5
679
330
18
100
AcDbEntity
  8
1
  6
Continuous
100
AcDbCircle
 10
261.1541009902353
 20
132.4795344897237
 30
0.0
 40
4.25
  0
ARC
  5
67A
330
18
100
AcDbEntity
  8
1
  6
Continuous
100
AcDbCircle
 10
261.1541009902353
 20
132.4795344897237
 30
0.0
 40
10.0
100
AcDbArc
 50
359.9999969999998
 51
138.18969
  0
ARC
  5
67B
330
18
100
AcDbEntity
  8
1
  6
Continuous
100
AcDbCircle
 10
249.973760990235
 20
142.4795344897236
 30
0.0
 40
5.0
100
AcDbArc
 50
269.9999969999999
 51
318.1896829999997
  0
LINE
  5
67C
330
18
100
AcDbEntity
  8
4
  6
CENTER
 48
0.5
100
AcDbLine
 10
261.1541009902353
 20
139.9795344897238
 30
0.0
 11
261.1541009902353
 21
124.9795344897236
 31
0.0
  0
ARC
  5
67E
330
18
100
AcDbEntity
  8
1
  6
Continuous
100
AcDbCircle
 10
277.7031419902351
 20
117.2795344897238
 30
0.0
 40
3.0
100
AcDbArc
 50
36.29053600000008
 51
90.00000000000005
  0
ARC
  5
680
330
18
100
AcDbEntity
  8
1
  6
Continuous
100
AcDbCircle
 10
282.9393829902351
 20
117.4795344897237
 30
0.0
 40
2.0
100
AcDbArc
 50
202.5151770000002
 51
244.1532079999996
  0
LINE
  5
682
330
18
100
AcDbEntity
  8
1
  6
Continuous
100
AcDbLine
 10
280.1212199902354
 20
119.0551744897236
 30
0.0
 11
281.0918259902353
 21
116.7136774897236
 31
0.0
  0
ARC
  5
684
330
18
100
AcDbEntity
  8
1
  6
Continuous
100
AcDbCircle
 10
280.7595509902353
 20
112.9797184897237
 30
0.0
 40
3.0
100
AcDbArc
 50
56.43633344915407
 51
64.15320799999981
  0
LINE
  5
685
330
18
100
AcDbEntity
  8
1
  6
Continuous
100
AcDbLine
 10
324.8045109902351
 20
121.9795344897237
 30
0.0
 11
300.6178339902351
 21
121.9795344897237
 31
0.0
  0
LINE
  5
686
330
18
100
AcDbEntity
  8
1
  6
Continuous
100
AcDbLine
 10
294.6985609902352
 20
120.2795344897237
 30
0.0
 11
298.4073609902349
 21
117.6833744897238
 31
0.0
  0
LINE
  5
687
330
18
100
AcDbEntity
  8
1
  6
Continuous
100
AcDbLine
 10
299.6985609902352
 20
117.0344453479419
 30
0.0
 11
299.6985609902352
 21
110.7295344897238
 31
0.0
  0
ARC
  5
68A
330
18
100
AcDbEntity
  8
1
  6
Continuous
100
AcDbCircle
 10
297.1845799902353
 20
118.2795344897238
 30
0.0
 40
5.0
100
AcDbArc
 50
55.0079800000001
 51
90.00000000000005
  0
LINE
  5
68B
330
18
100
AcDbEntity
  8
1
  6
Continuous
100
AcDbLine
 10
300.0518919902352
 20
122.3756934897238
 30
0.0
 11
303.3870716221546
 21
120.0410701046385
 31
0.0
  0
LINE
  5
68C
330
18
100
AcDbEntity
  8
1
  6
Continuous
100
AcDbLine
 10
293.8821009902351
 20
109.4795344897237
 30
0.0
 11
293.8821009902351
 21
113.4795344897236
 31
0.0
  0
ARC
  5
68D
330
18
100
AcDbEntity
  8
1
  6
Continuous
100
AcDbCircle
 10
291.8821009902351
 20
113.4795344897236
 30
0.0
 40
2.0
100
AcDbArc
 50
0.0
 51
90.00000000000005
  0
ARC
  5
68E
330
18
100
AcDbEntity
  8
1
  6
Continuous
100
AcDbCircle
 10
301.2746729902354
 20
121.7795344897238
 30
0.0
 40
5.0
100
AcDbArc
 50
235.00798
 51
268.2426467256048
  0
LINE
  5
68F
330
18
100
AcDbEntity
  8
1
  6
Continuous
100
AcDbLine
 10
313.2871129902353
 20
123.2795344897237
 30
0.0
 11
307.8871129902351
 21
123.2795344897237
 31
0.0
  0
ARC
  5
690
330
18
100
AcDbEntity
  8
1
  6
Continuous
100
AcDbCircle
 10
307.8871129902351
 20
122.0795344897237
 30
0.0
 40
1.199999999999999
100
AcDbArc
 50
90.00000000000005
 51
180.0
  0
LINE
  5
691
330
18
100
AcDbEntity
  8
1
  6
Continuous
100
AcDbLine
 10
306.6871129902352
 20
122.0795344897237
 30
0.0
 11
306.6871129902352
 21
121.9795344897237
 31
0.0
  0
ARC
  5
692
330
18
100
AcDbEntity
  8
1
  6
Continuous
100
AcDbCircle
 10
313.2871129902353
 20
122.0795344897237
 30
0.0
 40
1.199999999999999
100
AcDbArc
 50
0.0
 51
90.00000000000005
  0
LINE
  5
693
330
18
100
AcDbEntity
  8
1
  6
Continuous
100
AcDbLine
 10
314.4871129902351
 20
122.0795344897237
 30
0.0
 11
314.4871129902351
 21
121.9795344897237
 31
0.0
  0
ARC
  5
695
330
18
100
AcDbEntity
  8
1
  6
Continuous
100
AcDbCircle
 10
327.8045109902352
 20
120.9795344897237
 30
0.0
 40
2.0
100
AcDbArc
 50
180.0
 51
270.0
  0
ARC
  5
696
330
18
100
AcDbEntity
  8
1
  6
Continuous
100
AcDbCircle
 10
324.8045109902351
 20
120.9795344897237
 30
0.0
 40
1.0
100
AcDbArc
 50
0.0
 51
90.00000000000005
  0
LINE
  5
69C
330
18
100
AcDbEntity
  8
1
  6
Continuous
100
AcDbLine
 10
249.973760990235
 20
47.47953448972384
 30
0.0
 11
222.3344409902352
 21
47.47953448972384
 31
0.0
  0
ARC
  5
69F
330
18
100
AcDbEntity
  8
1
  6
Continuous
100
AcDbCircle
 10
211.1541009902353
 20
52.47953448972379
 30
0.0
 40
10.0
100
AcDbArc
 50
179.9999899999995
 51
318.1896829999997
  0
LINE
  5
6A0
330
18
100
AcDbEntity
  8
4
  6
CENTER
 48
0.5
100
AcDbLine
 10
203.6541009902351
 20
52.47953448972379
 30
0.0
 11
218.6541009902351
 21
52.47953448972379
 31
0.0
  0
CIRCLE
  5
6A1
330
18
100
AcDbEntity
  8
1
  6
Continuous
100
AcDbCircle
 10
211.1541009902353
 20
52.47953448972379
 30
0.0
 40
4.25
  0
LINE
  5
6A2
330
18
100
AcDbEntity
  8
4
  6
CENTER
 48
0.5
100
AcDbLine
 10
211.1541009902353
 20
44.97953448972384
 30
0.0
 11
211.1541009902353
 21
59.97953448972379
 31
0.0
  0
ARC
  5
6A3
330
18
100
AcDbEntity
  8
1
  6
Continuous
100
AcDbCircle
 10
222.3344409902352
 20
42.47953448972384
 30
0.0
 40
5.0
100
AcDbArc
 50
90.00000000000005
 51
138.18969
  0
LINE
  5
6A4
330
18
100
AcDbEntity
  8
1
  6
Continuous
100
AcDbLine
 10
297.1845799902353
 20
61.67953448972378
 30
0.0
 11
261.6758564157541
 21
61.67953448972378
 31
0.0
  0
LINE
  5
6A5
330
18
100
AcDbEntity
  8
1
  6
Continuous
100
AcDbLine
 10
297.1845794075666
 20
64.67953448972378
 30
0.0
 11
264.9144904173621
 21
64.67953448972378
 31
0.0
  0
LINE
  5
6A6
330
18
100
AcDbEntity
  8
1
  6
Continuous
100
AcDbLine
 10
291.8821009902351
 20
69.47953448972379
 30
0.0
 11
268.8802373341423
 21
69.47953448972379
 31
0.0
  0
ARC
  5
6A7
330
18
100
AcDbEntity
  8
1
  6
Continuous
100
AcDbCircle
 10
277.7031419902351
 20
67.67953448972377
 30
0.0
 40
3.0
100
AcDbArc
 50
270.0
 51
323.7094639999999
  0
ARC
  5
6BD
330
18
100
AcDbEntity
  8
1
  6
Continuous
100
AcDbCircle
 10
249.4779749902351
 20
92.4795344897238
 30
0.0
 40
34.65607399999999
100
AcDbArc
 50
337.9686029999998
 51
22.03139700000022
  0
LINE
  5
6C0
330
18
100
AcDbEntity
  8
1
  6
Continuous
100
AcDbLine
 10
281.6034079902351
 20
79.47953448972381
 30
0.0
 11
281.6034079902351
 21
72.47953448972378
 31
0.0
  0
ARC
  5
6C2
330
18
100
AcDbEntity
  8
1
  6
Continuous
100
AcDbCircle
 10
282.9393829902351
 20
67.47953448972379
 30
0.0
 40
2.0
100
AcDbArc
 50
115.8467920000002
 51
157.4848229999997
  0
LINE
  5
6C4
330
18
100
AcDbEntity
  8
1
  6
Continuous
100
AcDbLine
 10
280.1212199902354
 20
65.90389348972383
 30
0.0
 11
281.0918259902353
 21
68.24539048972383
 31
0.0
  0
ARC
  5
6C5
330
18
100
AcDbEntity
  8
1
  6
Continuous
100
AcDbCircle
 10
280.7595509902353
 20
71.9793494897238
 30
0.0
 40
3.0
100
AcDbArc
 50
295.8467920000001
 51
303.5637010957084
  0
LINE
  5
6C7
330
18
100
AcDbEntity
  8
4
  6
CENTER
 48
0.5
100
AcDbLine
 10
268.6541009902351
 20
52.47953448972379
 30
0.0
 11
253.6541009902351
 21
52.47953448972379
 31
0.0
  0
ARC
  5
6C8
330
18
100
AcDbEntity
  8
1
  6
Continuous
100
AcDbCircle
 10
261.1541009902353
 20
52.47953448972379
 30
0.0
 40
10.0
100
AcDbArc
 50
221.8103099999998
 51
359.9999969999998
  0
CIRCLE
  5
6C9
330
18
100
AcDbEntity
  8
1
  6
Continuous
100
AcDbCircle
 10
261.1541009902353
 20
52.47953448972379
 30
0.0
 40
4.25
  0
ARC
  5
6CA
330
18
100
AcDbEntity
  8
1
  6
Continuous
100
AcDbCircle
 10
249.973760990235
 20
42.47953448972384
 30
0.0
 40
5.0
100
AcDbArc
 50
41.81030999999985
 51
90.00000000000005
  0
LINE
  5
6CB
330
18
100
AcDbEntity
  8
4
  6
CENTER
 48
0.5
100
AcDbLine
 10
261.1541009902353
 20
44.97953448972384
 30
0.0
 11
261.1541009902353
 21
59.97953448972379
 31
0.0
  0
LINE
  5
6CF
330
18
100
AcDbEntity
  8
1
  6
Continuous
100
AcDbLine
 10
311.8985609902352
 20
104.2295344897236
 30
0.0
 11
311.8985609902352
 21
80.72953448972382
 31
0.0
  0
LINE
  5
6D0
330
18
100
AcDbEntity
  8
1
  6
Continuous
100
AcDbLine
 10
298.5215809902351
 20
105.4795344897237
 30
0.0
 11
298.5215809902351
 21
79.47953448972381
 31
0.0
  0
LINE
  5
6D2
330
18
100
AcDbEntity
  8
1
  6
Continuous
100
AcDbLine
 10
307.8212827373921
 20
109.2295344897237
 30
0.0
 11
301.1985609902351
 21
109.2295344897237
 31
0.0
  0
ARC
  5
6D3
330
18
100
AcDbEntity
  8
1
  6
Continuous
100
AcDbCircle
 10
296.5215809902352
 20
105.4795344897237
 30
0.0
 40
2.0
100
AcDbArc
 50
0.0
 51
90.00000000000005
  0
LINE
  5
6D4
330
18
100
AcDbEntity
  8
1
  6
Continuous
100
AcDbLine
 10
296.5215809902352
 20
107.4795344897237
 30
0.0
 11
293.2947309902352
 21
107.4795344897237
 31
0.0
  0
LINE
  5
6D5
330
18
100
AcDbEntity
  8
1
  6
Continuous
100
AcDbLine
 10
307.8212827373921
 20
75.72953448972376
 30
0.0
 11
301.1985609902351
 21
75.72953448972381
 31
0.0
  0
ARC
  5
6D6
330
18
100
AcDbEntity
  8
1
  6
Continuous
100
AcDbCircle
 10
295.8821009902351
 20
75.47953448972378
 30
0.0
 40
2.0
100
AcDbArc
 50
90.00000000000005
 51
180.0
  0
ARC
  5
6D7
330
18
100
AcDbEntity
  8
1
  6
Continuous
100
AcDbCircle
 10
296.5215809902352
 20
79.47953448972381
 30
0.0
 40
2.0
100
AcDbArc
 50
270.0
 51
0.0
  0
LINE
  5
6D8
330
18
100
AcDbEntity
  8
1
  6
Continuous
100
AcDbLine
 10
296.5215809902352
 20
77.4795344897238
 30
0.0
 11
293.2947309902352
 21
77.4795344897238
 31
0.0
  0
ARC
  5
6D9
330
18
100
AcDbEntity
  8
1
  6
Continuous
100
AcDbCircle
 10
291.8821009902351
 20
71.4795344897238
 30
0.0
 40
2.0
100
AcDbArc
 50
270.0
 51
0.0
  0
LINE
  5
6DA
330
18
100
AcDbEntity
  8
1
  6
Continuous
100
AcDbLine
 10
293.8821009902351
 20
75.47953448972378
 30
0.0
 11
293.8821009902351
 21
71.4795344897238
 31
0.0
  0
ARC
  5
6DC
330
18
100
AcDbEntity
  8
1
  6
Continuous
100
AcDbCircle
 10
301.1985609902351
 20
74.22953448972378
 30
0.0
 40
1.5
100
AcDbArc
 50
90.00000000000005
 51
180.0
  0
ARC
  5
6DD
330
18
100
AcDbEntity
  8
1
  6
Continuous
100
AcDbCircle
 10
306.8985609902351
 20
80.72953448972382
 30
0.0
 40
5.0
100
AcDbArc
 50
270.0
 51
0.0
  0
LINE
  5
6E5
330
18
100
AcDbEntity
  8
1
  6
Continuous
100
AcDbLine
 10
313.2871129902353
 20
61.67953448972378
 30
0.0
 11
307.8871129902351
 21
61.67953448972378
 31
0.0
  0
ARC
  5
6E6
330
18
100
AcDbEntity
  8
1
  6
Continuous
100
AcDbCircle
 10
307.8871129902351
 20
62.87953448972381
 30
0.0
 40
1.199999999999999
100
AcDbArc
 50
180.0
 51
270.0
  0
LINE
  5
6E7
330
18
100
AcDbEntity
  8
1
  6
Continuous
100
AcDbLine
 10
306.6871129902352
 20
62.87953448972381
 30
0.0
 11
306.6871129902352
 21
62.97953448972378
 31
0.0
  0
ARC
  5
6E8
330
18
100
AcDbEntity
  8
1
  6
Continuous
100
AcDbCircle
 10
313.2871129902353
 20
62.87953448972381
 30
0.0
 40
1.199999999999999
100
AcDbArc
 50
270.0
 51
0.0
  0
LINE
  5
6E9
330
18
100
AcDbEntity
  8
1
  6
Continuous
100
AcDbLine
 10
314.4871129902351
 20
62.87953448972381
 30
0.0
 11
314.4871129902351
 21
62.97953448972378
 31
0.0
  0
ARC
  5
6EC
330
18
100
AcDbEntity
  8
1
  6
Continuous
100
AcDbCircle
 10
354.3453399902352
 20
108.1675274897238
 30
0.0
 40
7.367411999999997
100
AcDbArc
 50
0.0
 51
88.92945999999978
  0
LINE
  5
6EF
330
18
100
AcDbEntity
  8
1
  6
Continuous
100
AcDbLine
 10
354.4166180056373
 20
115.5336535137339
 30
0.0
 11
354.4829880056373
 21
115.5336535137339
 31
0.0
  0
LINE
  5
6F1
330
18
100
AcDbEntity
  8
1
  6
Continuous
100
AcDbLine
 10
351.4726679902352
 20
118.5331304897238
 30
0.0
 11
351.4726679902352
 21
118.9795344897237
 31
0.0
  0
ARC
  5
6F2
330
18
100
AcDbEntity
  8
1
  6
Continuous
100
AcDbCircle
 10
354.4726679902352
 20
118.5331304897238
 30
0.0
 40
3.0
100
AcDbArc
 50
180.0
 51
268.9294599999998
  0
LINE
  5
6F3
330
18
100
AcDbEntity
  8
1
  6
Continuous
100
AcDbLine
 10
361.7127509902352
 20
108.1675274897238
 30
0.0
 11
361.7127509902352
 21
76.79154048972377
 31
0.0
  0
ARC
  5
6F6
330
18
100
AcDbEntity
  8
1
  6
Continuous
100
AcDbCircle
 10
354.3453399902352
 20
76.79154048972377
 30
0.0
 40
7.367411999999997
100
AcDbArc
 50
271.07054
 51
0.0
  0
LINE
  5
6F7
330
18
100
AcDbEntity
  8
1
  6
Continuous
100
AcDbLine
 10
354.4166180056373
 20
69.42541446571363
 30
0.0
 11
354.4829880056373
 21
69.42541446571363
 31
0.0
  0
ARC
  5
6F8
330
18
100
AcDbEntity
  8
1
  6
Continuous
100
AcDbCircle
 10
354.4726679902352
 20
66.42593748972382
 30
0.0
 40
3.0
100
AcDbArc
 50
91.07054000000015
 51
180.0
  0
LINE
  5
6FA
330
18
100
AcDbEntity
  8
1
  6
Continuous
100
AcDbLine
 10
351.4726679902352
 20
66.42593748972382
 30
0.0
 11
351.4726679902352
 21
65.97953448972379
 31
0.0
  0
LINE
  5
778
330
18
100
AcDbEntity
  8
4
  6
CENTER
 48
0.5
100
AcDbLine
 10
466.4774589380503
 20
323.6054654897237
 30
0.0
 11
466.4774589380503
 21
195.6856464897238
 31
0.0
  0
LINE
  5
779
330
18
100
AcDbEntity
  8
1
  6
Continuous
100
AcDbLine
 10
490.8774529380504
 20
252.6946512453865
 30
0.0
 11
490.8774529380504
 21
227.6115804897238
 31
0.0
  0
LINE
  5
77A
330
18
100
AcDbEntity
  8
1
  6
Continuous
100
AcDbLine
 10
442.0774649380502
 20
252.6946512453863
 30
0.0
 11
442.0774649380505
 21
227.6115804897238
 31
0.0
  0
LINE
  5
77C
330
18
100
AcDbEntity
  8
1
  6
Continuous
100
AcDbLine
 10
428.1774709380504
 20
204.8115884897238
 30
0.0
 11
504.7774720816248
 21
204.8115884897238
 31
0.0
  0
LINE
  5
77D
330
18
100
AcDbEntity
  8
1
  6
Continuous
100
AcDbLine
 10
426.4774589380504
 20
208.0115854897237
 30
0.0
 11
506.4774589380504
 21
208.0115854897237
 31
0.0
  0
LINE
  5
77E
330
18
100
AcDbEntity
  8
1
  6
Continuous
100
AcDbLine
 10
429.9774589380501
 20
214.3115884897238
 30
0.0
 11
502.9774589380504
 21
214.3115884897238
 31
0.0
  0
ARC
  5
77F
330
18
100
AcDbEntity
  8
1
  6
Continuous
100
AcDbCircle
 10
479.3774529380505
 20
219.0115774897237
 30
0.0
 40
3.0
100
AcDbArc
 50
270.0
 51
0.0000199999999843
  0
LINE
  5
780
330
18
100
AcDbEntity
  8
1
  6
Continuous
100
AcDbLine
 10
485.0774649380505
 20
220.8115774897236
 30
0.0
 11
447.8774529380505
 21
220.8115774897236
 31
0.0
  0
LINE
  5
781
330
18
100
AcDbEntity
  8
1
  6
Continuous
100
AcDbLine
 10
444.0774649380505
 20
225.6115804897238
 30
0.0
 11
488.8774529380505
 21
225.6115804897238
 31
0.0
  0
ARC
  5
782
330
18
100
AcDbEntity
  8
1
  6
Continuous
100
AcDbCircle
 10
502.9774589380504
 20
210.8115884897238
 30
0.0
 40
3.5
100
AcDbArc
 50
0.0000399999999616
 51
90.00001800000005
  0
LINE
  5
783
330
18
100
AcDbEntity
  8
1
  6
Continuous
100
AcDbLine
 10
506.4774589380504
 20
210.8115884897238
 30
0.0
 11
506.4774589380504
 21
208.0115854897237
 31
0.0
  0
LINE
  5
784
330
18
100
AcDbEntity
  8
1
  6
Continuous
100
AcDbLine
 10
505.6348989380504
 20
208.0115774897236
 30
0.0
 11
504.7774699380504
 21
204.8115804897238
 31
0.0
  0
LINE
  5
785
330
18
100
AcDbEntity
  8
1
  6
Continuous
100
AcDbLine
 10
488.0774499380503
 20
225.6115804897238
 30
0.0
 11
488.0774499380503
 21
223.8115774897238
 31
0.0
  0
LINE
  5
786
330
18
100
AcDbEntity
  8
1
  6
Continuous
100
AcDbLine
 10
482.3774529380504
 20
219.0115774897237
 30
0.0
 11
482.3774529380504
 21
220.8115774897236
 31
0.0
  0
ARC
  5
787
330
18
100
AcDbEntity
  8
1
  6
Continuous
100
AcDbCircle
 10
485.0774649380505
 20
223.8115774897238
 30
0.0
 40
3.0
100
AcDbArc
 50
270.0
 51
0.0000100000001992
  0
ARC
  5
788
330
18
100
AcDbEntity
  8
1
  6
Continuous
100
AcDbCircle
 10
488.8774529380505
 20
227.6115804897238
 30
0.0
 40
2.0
100
AcDbArc
 50
270.0
 51
0.0000100000001992
  0
ARC
  5
789
330
18
100
AcDbEntity
  8
1
  6
Continuous
100
AcDbCircle
 10
453.5774649380505
 20
219.0115774897237
 30
0.0
 40
3.0
100
AcDbArc
 50
179.999982
 51
270.0
  0
LINE
  5
78A
330
18
100
AcDbEntity
  8
1
  6
Continuous
100
AcDbLine
 10
479.3774529380505
 20
216.0115774897236
 30
0.0
 11
453.5774649380505
 21
216.0115774897236
 31
0.0
  0
LINE
  5
78B
330
18
100
AcDbEntity
  8
1
  6
Continuous
100
AcDbLine
 10
478.1129108661112
 20
216.0115774897238
 30
0.0
 11
479.5204319380505
 21
214.6043964897237
 31
0.0
  0
ARC
  5
78C
330
18
100
AcDbEntity
  8
1
  6
Continuous
100
AcDbCircle
 10
480.2274589380504
 20
215.3115884897238
 30
0.0
 40
1.0
100
AcDbArc
 50
225.0070099999999
 51
270.0000600000003
  0
LINE
  5
78D
330
18
100
AcDbEntity
  8
1
  6
Continuous
100
AcDbLine
 10
454.8420089597366
 20
216.0115774897236
 30
0.0
 11
453.4344859380503
 21
214.6044004897238
 31
0.0
  0
ARC
  5
78E
330
18
100
AcDbEntity
  8
1
  6
Continuous
100
AcDbCircle
 10
452.7274589380501
 20
215.3115884897238
 30
0.0
 40
1.0
100
AcDbArc
 50
269.9999499999996
 51
314.9929899999999
  0
LINE
  5
78F
330
18
100
AcDbEntity
  8
1
  6
Continuous
100
AcDbLine
 10
450.5774649380505
 20
219.0115774897237
 30
0.0
 11
450.5774649380505
 21
220.8115774897236
 31
0.0
  0
ARC
  5
790
330
18
100
AcDbEntity
  8
1
  6
Continuous
100
AcDbCircle
 10
429.9774589380501
 20
210.8115884897238
 30
0.0
 40
3.5
100
AcDbArc
 50
89.99998400000034
 51
179.999963
  0
LINE
  5
791
330
18
100
AcDbEntity
  8
1
  6
Continuous
100
AcDbLine
 10
427.3200289380503
 20
208.0115704897238
 30
0.0
 11
428.1774649380503
 21
204.8115734897236
 31
0.0
  0
LINE
  5
792
330
18
100
AcDbEntity
  8
1
  6
Continuous
100
AcDbLine
 10
426.4774589380504
 20
210.8115884897238
 30
0.0
 11
426.4774589380504
 21
208.0115854897237
 31
0.0
  0
LINE
  5
793
330
18
100
AcDbEntity
  8
1
  6
Continuous
100
AcDbLine
 10
444.8774519380504
 20
225.6115804897238
 30
0.0
 11
444.8774519380504
 21
223.8115774897238
 31
0.0
  0
ARC
  5
794
330
18
100
AcDbEntity
  8
1
  6
Continuous
100
AcDbCircle
 10
447.8774529380505
 20
223.8115774897238
 30
0.0
 40
3.0
100
AcDbArc
 50
179.9999969999998
 51
270.0
  0
ARC
  5
795
330
18
100
AcDbEntity
  8
1
  6
Continuous
100
AcDbCircle
 10
444.0774649380505
 20
227.6115804897238
 30
0.0
 40
2.0
100
AcDbArc
 50
179.9999969999998
 51
270.0
  0
LINE
  5
797
330
18
100
AcDbEntity
  8
1
  6
Continuous
100
AcDbLine
 10
516.4774589380503
 20
316.8115774897238
 30
0.0
 11
416.4774589380503
 21
316.8115774897238
 31
0.0
  0
LINE
  5
798
330
18
100
AcDbEntity
  8
1
  6
Continuous
100
AcDbLine
 10
515.9774589380504
 20
308.8115774897238
 30
0.0
 11
495.8253360933881
 21
308.8115774897238
 31
0.0
  0
LINE
  5
799
330
18
100
AcDbEntity
  8
4
  6
CENTER
 48
0.3
100
AcDbLine
 10
506.4774589380504
 20
323.6054654897237
 30
0.0
 11
506.4774589380504
 21
302.1151684897237
 31
0.0
  0
LINE
  5
79A
330
18
100
AcDbEntity
  8
4
  6
CENTER
 48
0.3
100
AcDbLine
 10
426.4774589380504
 20
323.6054654897237
 30
0.0
 11
426.4774589380504
 21
302.1151684897237
 31
0.0
  0
LINE
  5
79B
330
18
100
AcDbEntity
  8
4
  6
CENTER
 48
0.5
100
AcDbLine
 10
499.1645009380503
 20
262.4115754897236
 30
0.0
 11
431.2362169380504
 21
262.4115754897236
 31
0.0
  0
LINE
  5
79C
330
18
100
AcDbEntity
  8
4
  6
CENTER
 48
0.5
100
AcDbLine
 10
500.9471391605066
 20
298.8115774897238
 30
0.0
 11
431.1071429380501
 21
298.8115774897236
 31
0.0
  0
ARC
  5
79D
330
18
100
AcDbEntity
  8
1
  6
Continuous
100
AcDbCircle
 10
497.0774649380505
 20
279.1141744897237
 30
0.0
 40
2.0
100
AcDbArc
 50
359.9999899999998
 51
66.42181999999984
  0
LINE
  5
79F
330
18
100
AcDbEntity
  8
1
  6
Continuous
100
AcDbLine
 10
497.8774529380505
 20
280.9472054897237
 30
0.0
 11
497.8774529380505
 21
272.9472054897237
 31
0.0
  0
LINE
  5
7A3
330
18
100
AcDbEntity
  8
1
  6
Continuous
100
AcDbLine
 10
497.2774619380504
 20
300.4022394897237
 30
0.0
 11
497.2774619380504
 21
264.6140214897237
 31
0.0
  0
ARC
  5
7A4
330
18
100
AcDbEntity
  8
1
  6
Continuous
100
AcDbCircle
 10
493.6774559380504
 20
258.8785024897238
 30
0.0
 40
2.0
100
AcDbArc
 50
284.4775100000004
 51
0.0000100000001992
  0
LINE
  5
7A6
330
18
100
AcDbEntity
  8
4
  6
CENTER
 48
0.5
100
AcDbLine
 10
488.0314449380505
 20
276.9472094897238
 30
0.0
 11
502.0139119380504
 21
276.9472094897238
 31
0.0
  0
LINE
  5
7A8
330
18
100
AcDbEntity
  8
1
  6
Continuous
100
AcDbLine
 10
499.0774649380504
 20
279.1141744897237
 30
0.0
 11
499.0774649380504
 21
274.7802364897236
 31
0.0
  0
ARC
  5
7A9
330
18
100
AcDbEntity
  8
1
  6
Continuous
100
AcDbCircle
 10
497.0774649380505
 20
274.7802364897236
 30
0.0
 40
2.0
100
AcDbArc
 50
293.5781700000001
 51
0.0000100000001992
  0
LINE
  5
7AA
330
18
100
AcDbEntity
  8
1
  6
Continuous
100
AcDbLine
 10
497.8774569380504
 20
272.9471994897235
 30
0.0
 11
497.2774539380504
 21
273.9472084897237
 31
0.0
  0
LINE
  5
7AB
330
18
100
AcDbEntity
  8
1
  6
Continuous
100
AcDbLine
 10
489.4774589380504
 20
271.4348931063586
 30
0.0
 11
489.4774589380504
 21
268.335507922894
 31
0.0
  0
LINE
  5
7B0
330
18
100
AcDbEntity
  8
1
  6
Continuous
100
AcDbLine
 10
495.6774559380503
 20
264.6140214897237
 30
0.0
 11
495.6774559380503
 21
258.8785024897238
 31
0.0
  0
LINE
  5
7B2
330
18
100
AcDbEntity
  8
1
  6
Continuous
100
AcDbLine
 10
516.4774589380503
 20
316.8115774897238
 30
0.0
 11
516.4774589380503
 21
309.3115774897236
 31
0.0
  0
ARC
  5
7B3
330
18
100
AcDbEntity
  8
1
  6
Continuous
100
AcDbCircle
 10
515.9774589380504
 20
309.3115774897236
 30
0.0
 40
0.5
100
AcDbArc
 50
270.0
 51
0.0000100000001992
  0
LINE
  5
7B6
330
18
100
AcDbEntity
  8
1
  6
Continuous
100
AcDbLine
 10
495.9774589380502
 20
300.4022394897237
 30
0.0
 11
497.2774619380504
 21
300.4022394897237
 31
0.0
  0
LINE
  5
7B8
330
18
100
AcDbEntity
  8
1
  6
Continuous
100
AcDbLine
 10
497.2774539380504
 20
279.9472044897238
 30
0.0
 11
497.8774529380505
 21
280.9471974897236
 31
0.0
  0
LINE
  5
7BD
330
18
100
AcDbEntity
  8
1
  6
Continuous
100
AcDbLine
 10
495.97591003693
 20
307.6053922756285
 30
0.0
 11
500.4774669380504
 21
308.8115814897237
 31
0.0
  0
ARC
  5
7C0
330
18
100
AcDbEntity
  8
1
  6
Continuous
100
AcDbCircle
 10
435.8774519380504
 20
279.1141744897237
 30
0.0
 40
2.0
100
AcDbArc
 50
113.5781790000002
 51
180.0
  0
LINE
  5
7C2
330
18
100
AcDbEntity
  8
1
  6
Continuous
100
AcDbLine
 10
435.0774649380505
 20
280.9472054897237
 30
0.0
 11
435.0774649380505
 21
272.9472054897237
 31
0.0
  0
LINE
  5
7C3
330
18
100
AcDbEntity
  8
1
  6
Continuous
100
AcDbLine
 10
438.6774609773041
 20
276.8904930249212
 30
0.0
 11
438.6774549380502
 21
264.6140214897237
 31
0.0
  0
LINE
  5
7C4
330
18
100
AcDbEntity
  8
1
  6
Continuous
100
AcDbLine
 10
438.7774619380504
 20
277.000191547492
 30
0.0
 11
438.7774619380504
 21
256.4420094897237
 31
0.0
  0
LINE
  5
7C5
330
18
100
AcDbEntity
  8
1
  6
Continuous
100
AcDbLine
 10
441.7774619380505
 20
280.4526935387491
 30
0.0
 11
441.7774619380505
 21
269.1160305939066
 31
0.0
  0
ARC
  5
7C7
330
18
100
AcDbEntity
  8
1
  6
Continuous
100
AcDbCircle
 10
437.5774649380505
 20
258.4420094897237
 30
0.0
 40
2.0
100
AcDbArc
 50
180.0
 51
270.0
  0
LINE
  5
7C9
330
18
100
AcDbEntity
  8
1
  6
Continuous
100
AcDbLine
 10
438.7774619380504
 20
256.4420094897237
 30
0.0
 11
437.5774649380505
 21
256.4420094897237
 31
0.0
  0
LINE
  5
7CA
330
18
100
AcDbEntity
  8
4
  6
CENTER
 48
0.5
100
AcDbLine
 10
445.9234729380503
 20
276.9472094897238
 30
0.0
 11
430.9410049380502
 21
276.9472094897238
 31
0.0
  0
ARC
  5
7CB
330
18
100
AcDbEntity
  8
1
  6
Continuous
100
AcDbCircle
 10
435.8774519380504
 20
274.7802364897236
 30
0.0
 40
2.0
100
AcDbArc
 50
180.0
 51
246.4218199999998
  0
ARC
  5
7CC
330
18
100
AcDbEntity
  8
1
  6
Continuous
100
AcDbCircle
 10
437.5774649380505
 20
266.4420094897237
 30
0.0
 40
2.0
100
AcDbArc
 50
161.8051578013256
 51
180.0
  0
LINE
  5
7CD
330
18
100
AcDbEntity
  8
1
  6
Continuous
100
AcDbLine
 10
443.4774589380504
 20
271.4348931063586
 30
0.0
 11
443.4774589380501
 21
268.335507922894
 31
0.0
  0
LINE
  5
7D1
330
18
100
AcDbEntity
  8
1
  6
Continuous
100
AcDbLine
 10
435.5774649380505
 20
266.4420094897237
 30
0.0
 11
435.5774649380505
 21
258.4420094897237
 31
0.0
  0
LINE
  5
7D4
330
18
100
AcDbEntity
  8
1
  6
Continuous
100
AcDbLine
 10
435.0774659380504
 20
272.9472044897236
 30
0.0
 11
435.6774669380503
 21
273.9472094897237
 31
0.0
  0
LINE
  5
7D5
330
18
100
AcDbEntity
  8
1
  6
Continuous
100
AcDbLine
 10
433.8774519380502
 20
279.1141744897237
 30
0.0
 11
433.8774519380502
 21
274.7802364897236
 31
0.0
  0
LINE
  5
7D7
330
18
100
AcDbEntity
  8
1
  6
Continuous
100
AcDbLine
 10
435.8774679380505
 20
302.8115774897238
 30
0.0
 11
435.8774679380505
 21
300.4022394897237
 31
0.0
  0
LINE
  5
7DA
330
18
100
AcDbEntity
  8
1
  6
Continuous
100
AcDbLine
 10
435.6774579380503
 20
279.9472134897237
 30
0.0
 11
435.0774599380502
 21
280.9472064897237
 31
0.0
  0
LINE
  5
7DE
330
18
100
AcDbEntity
  8
1
  6
Continuous
100
AcDbLine
 10
436.9774589380504
 20
300.4022394897237
 30
0.0
 11
435.6774549380504
 21
300.4022394897237
 31
0.0
  0
LINE
  5
7E1
330
18
100
AcDbEntity
  8
1
  6
Continuous
100
AcDbLine
 10
436.9790077927468
 20
307.605390232903
 30
0.0
 11
432.4774629380505
 21
308.8115754897236
 31
0.0
  0
ARC
  5
7E4
330
18
100
AcDbEntity
  8
1
  6
Continuous
100
AcDbCircle
 10
437.8774679380502
 20
302.8115774897238
 30
0.0
 40
2.0
100
AcDbArc
 50
116.7439726660724
 51
180.0
  0
LINE
  5
7E7
330
18
100
AcDbEntity
  8
1
  6
Continuous
100
AcDbLine
 10
416.4774589380503
 20
316.8115774897238
 30
0.0
 11
416.4774589380503
 21
309.3115774897236
 31
0.0
  0
ARC
  5
7E8
330
18
100
AcDbEntity
  8
1
  6
Continuous
100
AcDbCircle
 10
416.9774589380502
 20
309.3115774897236
 30
0.0
 40
0.5
100
AcDbArc
 50
179.9999969999998
 51
270.0
  0
ARC
  5
8BE
330
18
100
AcDbEntity
  8
1
  6
Continuous
100
AcDbCircle
 10
335.6427769902351
 20
109.9805694897237
 30
0.0
 40
1.348964
100
AcDbArc
 50
0.0
 51
180.0
  0
ARC
  5
8BF
330
18
100
AcDbEntity
  8
1
  6
Continuous
100
AcDbCircle
 10
344.6390869902352
 20
109.9805094897237
 30
0.0
 40
1.349024
100
AcDbArc
 50
0.0
 51
180.0
  0
ARC
  5
8C0
330
18
100
AcDbEntity
  8
1
  6
Continuous
100
AcDbCircle
 10
353.6352809902353
 20
109.9805944897237
 30
0.0
 40
1.348938999999998
100
AcDbArc
 50
0.0
 51
180.0
  0
LINE
  5
8C1
330
18
100
AcDbEntity
  8
1
  6
Continuous
100
AcDbLine
 10
352.2863409902352
 20
109.9805944897237
 30
0.0
 11
352.2863409902352
 21
74.9784734897238
 31
0.0
  0
LINE
  5
8C2
330
18
100
AcDbEntity
  8
1
  6
Continuous
100
AcDbLine
 10
354.9842199902351
 20
109.9805944897237
 30
0.0
 11
354.9842199902351
 21
74.9784734897238
 31
0.0
  0
LINE
  5
8C3
330
18
100
AcDbEntity
  8
1
  6
Continuous
100
AcDbLine
 10
343.2900629902352
 20
109.9805094897237
 30
0.0
 11
343.2900629902352
 21
74.97855848972381
 31
0.0
  0
LINE
  5
8C4
330
18
100
AcDbEntity
  8
1
  6
Continuous
100
AcDbLine
 10
345.9881109902352
 20
109.9805094897237
 30
0.0
 11
345.9881109902352
 21
74.97855848972381
 31
0.0
  0
LINE
  5
8C5
330
18
100
AcDbEntity
  8
1
  6
Continuous
100
AcDbLine
 10
336.9917409902352
 20
109.9805694897237
 30
0.0
 11
336.9917409902352
 21
74.97849848972379
 31
0.0
  0
LINE
  5
8C6
330
18
100
AcDbEntity
  8
1
  6
Continuous
100
AcDbLine
 10
334.2938129902352
 20
109.9805694897237
 30
0.0
 11
334.2938129902352
 21
74.97849848972379
 31
0.0
  0
ARC
  5
8C7
330
18
100
AcDbEntity
  8
1
  6
Continuous
100
AcDbCircle
 10
335.6427769902351
 20
74.97849848972379
 30
0.0
 40
1.348964
100
AcDbArc
 50
180.0
 51
0.0
  0
ARC
  5
8C8
330
18
100
AcDbEntity
  8
1
  6
Continuous
100
AcDbCircle
 10
344.6390869902352
 20
74.97855848972381
 30
0.0
 40
1.349024
100
AcDbArc
 50
180.0
 51
0.0
  0
ARC
  5
8C9
330
18
100
AcDbEntity
  8
1
  6
Continuous
100
AcDbCircle
 10
353.6352809902353
 20
74.9784734897238
 30
0.0
 40
1.348938999999998
100
AcDbArc
 50
180.0
 51
0.0
  0
CIRCLE
  5
8CA
330
18
100
AcDbEntity
  8
1
  6
Continuous
100
AcDbCircle
 10
236.1541009902353
 20
92.4795344897238
 30
0.0
 40
40.0
  0
LINE
  5
8CB
330
18
100
AcDbEntity
  8
1
  6
Continuous
100
AcDbLine
 10
201.1541009902351
 20
111.8444512207606
 30
0.0
 11
201.1541009902351
 21
132.4795344897237
 31
0.0
  0
LINE
  5
8CC
330
18
100
AcDbEntity
  8
1
  6
Continuous
100
AcDbLine
 10
271.1541009902354
 20
111.8444512207608
 30
0.0
 11
271.1541009902351
 21
112.4795344897236
 31
0.0
  0
LINE
  5
8DA
330
18
100
AcDbEntity
  8
1
  6
Continuous
100
AcDbLine
 10
236.1541009902353
 20
84.97398099025851
 30
0.0
 11
229.6541009902349
 21
88.72675773999125
 31
0.0
  0
LINE
  5
8DB
330
18
100
AcDbEntity
  8
1
  6
Continuous
100
AcDbLine
 10
236.1541009902353
 20
99.98508798918905
 30
0.0
 11
229.6541009902349
 21
96.23231123945627
 31
0.0
  0
CIRCLE
  5
8DC
330
18
100
AcDbEntity
  8
1
  6
Continuous
100
AcDbCircle
 10
236.154100990235
 20
92.4795344897238
 30
0.0
 40
9.25
  0
CIRCLE
  5
8DD
330
18
100
AcDbEntity
  8
1
  6
Continuous
100
AcDbCircle
 10
236.154100990235
 20
92.4795344897238
 30
0.0
 40
15.5
  0
LINE
  5
8DE
330
18
100
AcDbEntity
  8
1
  6
Continuous
100
AcDbLine
 10
229.654100990235
 20
96.23231123945645
 30
0.0
 11
229.654100990235
 21
88.72675773999114
 31
0.0
  0
LINE
  5
8DF
330
18
100
AcDbEntity
  8
1
  6
Continuous
100
AcDbLine
 10
236.1541009902349
 20
84.97398099025851
 30
0.0
 11
242.6541009902351
 21
88.72675773999125
 31
0.0
  0
LINE
  5
8E0
330
18
100
AcDbEntity
  8
1
  6
Continuous
100
AcDbLine
 10
242.6541009902349
 20
96.23231123945645
 30
0.0
 11
242.6541009902349
 21
88.72675773999114
 31
0.0
  0
LINE
  5
8E1
330
18
100
AcDbEntity
  8
1
  6
Continuous
100
AcDbLine
 10
236.1541009902349
 20
99.98508798918905
 30
0.0
 11
242.6541009902351
 21
96.23231123945627
 31
0.0
  0
LINE
  5
8ED
330
18
100
AcDbEntity
  8
1
  6
Continuous
100
AcDbLine
 10
352.1138161786997
 20
116.6795344897237
 30
0.0
 11
327.8045109902352
 21
116.6795344897237
 31
0.0
  0
LINE
  5
8EE
330
18
100
AcDbEntity
  8
1
  6
Continuous
100
AcDbLine
 10
323.7057306838508
 20
119.6795344897237
 30
0.0
 11
304.5339955336706
 21
119.6795344897237
 31
0.0
  0
ARC
  5
8EF
330
18
100
AcDbEntity
  8
1
  6
Continuous
100
AcDbCircle
 10
327.8045109902352
 20
120.9795344897237
 30
0.0
 40
4.299999999999998
100
AcDbArc
 50
197.5973366080772
 51
270.0
  0
LINE
  5
8F5
330
18
100
AcDbEntity
  8
1
  6
Continuous
100
AcDbLine
 10
352.1138161786997
 20
68.2795344897238
 30
0.0
 11
327.8045109902352
 21
68.2795344897238
 31
0.0
  0
LINE
  5
8F8
330
18
100
AcDbEntity
  8
1
  6
Continuous
100
AcDbLine
 10
308.4652257036968
 20
121.9795344897237
 30
0.0
 11
308.4652257036968
 21
119.6795344897237
 31
0.0
  0
LINE
  5
8FA
330
18
100
AcDbEntity
  8
1
  6
Continuous
100
AcDbLine
 10
298.3315033190826
 20
119.917998874809
 30
0.0
 11
301.6666857548806
 21
117.5833735270106
 31
0.0
  0
LINE
  5
8FC
330
18
100
AcDbEntity
  8
1
  6
Continuous
100
AcDbLine
 10
323.7057306838506
 20
116.6795344897237
 30
0.0
 11
304.5339955336706
 21
116.6795344897237
 31
0.0
  0
ARC
  5
8FD
330
18
100
AcDbEntity
  8
1
  6
Continuous
100
AcDbCircle
 10
297.1845794075666
 20
118.2795344897238
 30
0.0
 40
2.0
100
AcDbArc
 50
55.00800697987545
 51
90.0
  0
ARC
  5
8FE
330
18
100
AcDbEntity
  8
1
  6
Continuous
100
AcDbCircle
 10
304.5339955336706
 20
121.6795344897237
 30
0.0
 40
2.0
100
AcDbArc
 50
235.0080069798758
 51
270.0
  0
ARC
  5
900
330
18
100
AcDbEntity
  8
1
  6
Continuous
100
AcDbCircle
 10
304.5339955336706
 20
121.6795344897237
 30
0.0
 40
5.0
100
AcDbArc
 50
235.0080069798752
 51
270.0
  0
LINE
  5
901
330
18
100
AcDbEntity
  8
1
  6
Continuous
100
AcDbLine
 10
301.1213390304924
 20
116.7818861730862
 30
0.0
 11
304.3806615739278
 21
116.6818861730861
 31
0.0
  0
LINE
  5
904
330
18
100
AcDbEntity
  8
1
  6
Continuous
100
AcDbLine
 10
323.7057306838508
 20
119.6795344897237
 30
0.0
 11
323.7057306838506
 21
116.6795344897237
 31
0.0
  0
LINE
  5
909
330
18
100
AcDbEntity
  8
1
  6
Continuous
100
AcDbLine
 10
295.6293809902354
 20
105.4795344897237
 30
0.0
 11
295.6293809902354
 21
79.47953448972381
 31
0.0
  0
ARC
  5
90A
330
18
100
AcDbEntity
  8
1
  6
Continuous
100
AcDbCircle
 10
293.6293809902354
 20
79.47953448972381
 30
0.0
 40
2.0
100
AcDbArc
 50
270.0
 51
0.0
  0
LINE
  5
90B
330
18
100
AcDbEntity
  8
1
  6
Continuous
100
AcDbLine
 10
291.2947309902352
 20
112.4795344897236
 30
0.0
 11
270.7951171416127
 21
112.4795344897236
 31
0.0
  0
LINE
  5
90C
330
18
100
AcDbEntity
  8
1
  6
Continuous
100
AcDbLine
 10
291.2947309902353
 20
72.4795344897238
 30
0.0
 11
270.7951171416127
 21
72.4795344897238
 31
0.0
  0
LINE
  5
90D
330
18
100
AcDbEntity
  8
1
  6
Continuous
100
AcDbLine
 10
291.2947309902352
 20
112.4795344897236
 30
0.0
 11
291.2947309902352
 21
109.4795344897237
 31
0.0
  0
ARC
  5
90E
330
18
100
AcDbEntity
  8
1
  6
Continuous
100
AcDbCircle
 10
293.6293809902354
 20
105.4795344897237
 30
0.0
 40
2.0
100
AcDbArc
 50
0.0
 51
90.00000000000005
  0
ARC
  5
910
330
18
100
AcDbEntity
  8
1
  6
Continuous
100
AcDbCircle
 10
293.2947309902352
 20
109.4795344897237
 30
0.0
 40
2.0
100
AcDbArc
 50
180.0
 51
270.0
  0
ARC
  5
911
330
18
100
AcDbEntity
  8
1
  6
Continuous
100
AcDbCircle
 10
293.2947309902352
 20
75.47953448972378
 30
0.0
 40
2.0
100
AcDbArc
 50
90.00000000000005
 51
180.0
  0
LINE
  5
912
330
18
100
AcDbEntity
  8
1
  6
Continuous
100
AcDbLine
 10
291.2947309902352
 20
72.4795344897238
 30
0.0
 11
291.2947309902352
 21
75.47953448972378
 31
0.0
  0
LINE
  5
913
330
18
100
AcDbEntity
  8
1
  6
Continuous
100
AcDbLine
 10
271.1541009902354
 20
72.4795344897238
 30
0.0
 11
271.1541009902354
 21
73.11461775868671
 31
0.0
  0
LINE
  5
914
330
18
100
AcDbEntity
  8
1
  6
Continuous
100
AcDbLine
 10
271.1541009902354
 20
115.4795344897237
 30
0.0
 11
271.1541009902354
 21
120.2795344897237
 31
0.0
  0
LINE
  5
915
330
18
100
AcDbEntity
  8
1
  6
Continuous
100
AcDbLine
 10
301.1213390304924
 20
68.17718280636128
 30
0.0
 11
304.3806615739278
 21
68.27718280636131
 31
0.0
  0
ARC
  5
916
330
18
100
AcDbEntity
  8
1
  6
Continuous
100
AcDbCircle
 10
304.5339955336706
 20
63.2795344897238
 30
0.0
 40
5.0
100
AcDbArc
 50
90.00000000000005
 51
124.9919930201248
  0
ARC
  5
917
330
18
100
AcDbEntity
  8
1
  6
Continuous
100
AcDbCircle
 10
304.5339955336706
 20
63.27953448972378
 30
0.0
 40
2.0
100
AcDbArc
 50
90.00000000000005
 51
124.9919930201241
  0
LINE
  5
918
330
18
100
AcDbEntity
  8
1
  6
Continuous
100
AcDbLine
 10
294.6985609902352
 20
64.67953448972378
 30
0.0
 11
298.4073609902349
 21
67.27569448972372
 31
0.0
  0
ARC
  5
919
330
18
100
AcDbEntity
  8
1
  6
Continuous
100
AcDbCircle
 10
301.2746729902354
 20
63.17953448972378
 30
0.0
 40
5.0
100
AcDbArc
 50
91.7573532743952
 51
124.9920199999999
  0
LINE
  5
91A
330
18
100
AcDbEntity
  8
1
  6
Continuous
100
AcDbLine
 10
298.3315033190826
 20
65.04107010463849
 30
0.0
 11
301.6666857548806
 21
67.3756954524369
 31
0.0
  0
LINE
  5
91B
330
18
100
AcDbEntity
  8
1
  6
Continuous
100
AcDbLine
 10
300.0518919902352
 20
62.58337548972377
 30
0.0
 11
303.3870716221546
 21
64.91799887480903
 31
0.0
  0
ARC
  5
91C
330
18
100
AcDbEntity
  8
1
  6
Continuous
100
AcDbCircle
 10
297.1845794075666
 20
66.67953448972375
 30
0.0
 40
2.0
100
AcDbArc
 50
270.0
 51
304.9919930201245
  0
ARC
  5
91D
330
18
100
AcDbEntity
  8
1
  6
Continuous
100
AcDbCircle
 10
297.1845799902353
 20
66.67953448972378
 30
0.0
 40
5.0
100
AcDbArc
 50
270.0
 51
304.9920199999998
  0
LINE
  5
91E
330
18
100
AcDbEntity
  8
1
  6
Continuous
100
AcDbLine
 10
299.6985609902352
 20
67.92462363150561
 30
0.0
 11
299.6985609902352
 21
74.22953448972378
 31
0.0
  0
LINE
  5
91F
330
18
100
AcDbEntity
  8
1
  6
Continuous
100
AcDbLine
 10
323.7057306838506
 20
68.27953448972381
 30
0.0
 11
304.5339955336706
 21
68.2795344897238
 31
0.0
  0
LINE
  5
920
330
18
100
AcDbEntity
  8
1
  6
Continuous
100
AcDbLine
 10
323.7057306838508
 20
65.27953448972379
 30
0.0
 11
304.5339955336706
 21
65.27953448972377
 31
0.0
  0
LINE
  5
921
330
18
100
AcDbEntity
  8
1
  6
Continuous
100
AcDbLine
 10
308.4652257036968
 20
62.97953448972378
 30
0.0
 11
308.4652257036968
 21
65.2795344897238
 31
0.0
  0
LINE
  5
922
330
18
100
AcDbEntity
  8
1
  6
Continuous
100
AcDbLine
 10
324.8045109902351
 20
62.97953448972378
 30
0.0
 11
300.6178339902351
 21
62.97953448972382
 31
0.0
  0
ARC
  5
925
330
18
100
AcDbEntity
  8
1
  6
Continuous
100
AcDbCircle
 10
327.8045109902352
 20
63.97953448972379
 30
0.0
 40
2.0
100
AcDbArc
 50
90.00000000000005
 51
180.0
  0
ARC
  5
926
330
18
100
AcDbEntity
  8
1
  6
Continuous
100
AcDbCircle
 10
324.8045109902351
 20
63.97953448972379
 30
0.0
 40
1.0
100
AcDbArc
 50
270.0
 51
0.0
  0
ARC
  5
92B
330
18
100
AcDbEntity
  8
1
  6
Continuous
100
AcDbCircle
 10
307.8212827373921
 20
104.2295344897236
 30
0.0
 40
5.0
100
AcDbArc
 50
0.0
 51
90.00000000000005
  0
LINE
  5
92C
330
18
100
AcDbEntity
  8
1
  6
Continuous
100
AcDbLine
 10
312.8212827373922
 20
104.2295344897236
 30
0.0
 11
312.8212827373922
 21
80.72953448972382
 31
0.0
  0
ARC
  5
92D
330
18
100
AcDbEntity
  8
1
  6
Continuous
100
AcDbCircle
 10
307.8212827373921
 20
80.72953448972382
 30
0.0
 40
5.0
100
AcDbArc
 50
270.0
 51
0.0
  0
LINE
  5
A23
330
18
100
AcDbEntity
  8
1
  6
Continuous
100
AcDbLine
 10
444.9774589380504
 20
314.4910814897238
 30
0.0
 11
487.9774589380502
 21
314.4910814897238
 31
0.0
  0
LINE
  5
A24
330
18
100
AcDbEntity
  8
1
  6
Continuous
100
AcDbLine
 10
444.2774589380503
 20
312.1920244897236
 30
0.0
 11
488.6774589380504
 21
312.1920244897236
 31
0.0
  0
LINE
  5
A26
330
18
100
AcDbEntity
  8
1
  6
Continuous
100
AcDbLine
 10
492.9774589380501
 20
309.4910814897238
 30
0.0
 11
492.9774589380504
 21
306.3287324897236
 31
0.0
  0
LINE
  5
A27
330
18
100
AcDbEntity
  8
1
  6
Continuous
100
AcDbLine
 10
439.9774589380504
 20
309.4910814897236
 30
0.0
 11
439.9774589380505
 21
306.3287324897236
 31
0.0
  0
LINE
  5
A28
330
18
100
AcDbEntity
  8
1
  6
Continuous
100
AcDbLine
 10
442.2774589380503
 20
310.1920244897236
 30
0.0
 11
442.2774589380503
 21
306.3287324897236
 31
0.0
  0
LINE
  5
A29
330
18
100
AcDbEntity
  8
1
  6
Continuous
100
AcDbLine
 10
490.6774589380503
 20
310.1920244897236
 30
0.0
 11
490.6774589380503
 21
306.3287324897236
 31
0.0
  0
LINE
  5
A2A
330
18
100
AcDbEntity
  8
1
  6
Continuous
100
AcDbLine
 10
437.9774589380502
 20
306.3287324897239
 30
0.0
 11
442.2774589380503
 21
306.3287324897236
 31
0.0
  0
LINE
  5
A2B
330
18
100
AcDbEntity
  8
1
  6
Continuous
100
AcDbLine
 10
494.9774589380504
 20
306.3287324897236
 30
0.0
 11
490.6774589380503
 21
306.3287324897236
 31
0.0
  0
LINE
  5
A2C
330
18
100
AcDbEntity
  8
1
  6
Continuous
100
AcDbLine
 10
448.9763979380504
 20
315.7612964897237
 30
0.0
 11
483.9785199380503
 21
315.7612964897237
 31
0.0
  0
ARC
  5
A30
330
18
100
AcDbEntity
  8
1
  6
Continuous
100
AcDbCircle
 10
483.9785199380503
 20
312.6680633473242
 30
0.0
 40
3.093233142399668
100
AcDbArc
 50
36.11138162903092
 51
90.0
  0
ARC
  5
A31
330
18
100
AcDbEntity
  8
1
  6
Continuous
100
AcDbCircle
 10
448.9763979380504
 20
312.6680633473242
 30
0.0
 40
3.093233142399668
100
AcDbArc
 50
90.0
 51
143.888618370969
  0
ARC
  5
A32
330
18
100
AcDbEntity
  8
1
  6
Continuous
100
AcDbCircle
 10
444.2774589380503
 20
310.1920244897236
 30
0.0
 40
2.0
100
AcDbArc
 50
90.00000000000005
 51
180.0
  0
ARC
  5
A33
330
18
100
AcDbEntity
  8
1
  6
Continuous
100
AcDbCircle
 10
488.6774589380504
 20
310.1920244897236
 30
0.0
 40
2.0
100
AcDbArc
 50
0.0
 51
90.00000000000019
  0
ARC
  5
A34
330
18
100
AcDbEntity
  8
1
  6
Continuous
100
AcDbCircle
 10
487.9774589380502
 20
309.4910814897238
 30
0.0
 40
5.0
100
AcDbArc
 50
0.0
 51
90.0
  0
ARC
  5
A35
330
18
100
AcDbEntity
  8
1
  6
Continuous
100
AcDbCircle
 10
444.9774589380504
 20
309.4910814897238
 30
0.0
 40
5.0
100
AcDbArc
 50
90.0
 51
180.0000000000004
  0
LINE
  5
A36
330
18
100
AcDbEntity
  8
1
  6
Continuous
100
AcDbLine
 10
436.9774589380504
 20
282.2696924897237
 30
0.0
 11
439.2774589380501
 21
282.2696924897238
 31
0.0
  0
LINE
  5
A38
330
18
100
AcDbEntity
  8
1
  6
Continuous
100
AcDbLine
 10
436.9774589380504
 20
307.4690676104018
 30
0.0
 11
436.9774589380504
 21
282.2696924897237
 31
0.0
  0
LINE
  5
A39
330
18
100
AcDbEntity
  8
1
  6
Continuous
100
AcDbLine
 10
495.9774589380502
 20
307.4690676104018
 30
0.0
 11
495.9774589380502
 21
282.2696924897251
 31
0.0
  0
LINE
  5
A3A
330
18
100
AcDbEntity
  8
1
  6
Continuous
100
AcDbLine
 10
439.2774589380502
 20
306.3287324897237
 30
0.0
 11
439.2774589380501
 21
281.8395996595493
 31
0.0
  0
LINE
  5
A3B
330
18
100
AcDbEntity
  8
1
  6
Continuous
100
AcDbLine
 10
493.6774589380504
 20
306.3287324897236
 30
0.0
 11
493.6774589380503
 21
281.8395996595494
 31
0.0
  0
LINE
  5
A3D
330
18
100
AcDbEntity
  8
1
  6
Continuous
100
AcDbLine
 10
493.6774589380504
 20
282.2696924897251
 30
0.0
 11
495.9774589380502
 21
282.2696924897251
 31
0.0
  0
ARC
  5
A3F
330
18
100
AcDbEntity
  8
1
  6
Continuous
100
AcDbCircle
 10
442.9774589380504
 20
307.4690676104018
 30
0.0
 40
6.0
100
AcDbArc
 50
101.3051641153749
 51
180.0000000000001
  0
ARC
  5
A40
330
18
100
AcDbEntity
  8
1
  6
Continuous
100
AcDbCircle
 10
489.9774589380504
 20
307.4690676104018
 30
0.0
 40
6.0
100
AcDbArc
 50
0.0
 51
78.69483588462563
  0
LINE
  5
A41
330
18
100
AcDbEntity
  8
1
  6
Continuous
100
AcDbLine
 10
437.1295817827124
 20
308.8115774897238
 30
0.0
 11
416.9774589380502
 21
308.8115774897238
 31
0.0
  0
LINE
  5
A45
330
18
100
AcDbEntity
  8
1
  6
Continuous
100
AcDbLine
 10
435.6774653210611
 20
264.6140214897237
 30
0.0
 11
435.6774549380504
 21
300.4022394897237
 31
0.0
  0
LINE
  5
A46
330
18
100
AcDbEntity
  8
1
  6
Continuous
100
AcDbLine
 10
436.8774589380503
 20
289.2968888958217
 30
0.0
 11
436.9774589380504
 21
289.2968888958217
 31
0.0
  0
ARC
  5
A47
330
18
100
AcDbEntity
  8
1
  6
Continuous
100
AcDbCircle
 10
436.8774589380503
 20
290.4968888958217
 30
0.0
 40
1.199999999999999
100
AcDbArc
 50
180.0
 51
270.0
  0
LINE
  5
A48
330
18
100
AcDbEntity
  8
1
  6
Continuous
100
AcDbLine
 10
436.8774589380503
 20
297.0968888958216
 30
0.0
 11
436.9774589380504
 21
297.0968888958216
 31
0.0
  0
ARC
  5
A49
330
18
100
AcDbEntity
  8
1
  6
Continuous
100
AcDbCircle
 10
436.8774589380503
 20
295.8968888958218
 30
0.0
 40
1.199999999999999
100
AcDbArc
 50
89.99999999999998
 51
180.0
  0
LINE
  5
A4A
330
18
100
AcDbEntity
  8
1
  6
Continuous
100
AcDbLine
 10
442.2774589380503
 20
306.3287324897236
 30
0.0
 11
442.2774589380503
 21
282.3891797896659
 31
0.0
  0
LINE
  5
A4D
330
18
100
AcDbEntity
  8
1
  6
Continuous
100
AcDbLine
 10
435.6774653210611
 20
264.6140214897237
 30
0.0
 11
438.6774549380502
 21
264.6140214897237
 31
0.0
  0
LINE
  5
A52
330
18
100
AcDbEntity
  8
1
  6
Continuous
100
AcDbLine
 10
436.7213932993717
 20
279.0356603567174
 30
0.0
 11
439.2774589380501
 21
281.8395996595493
 31
0.0
  0
LINE
  5
A53
330
18
100
AcDbEntity
  8
1
  6
Continuous
100
AcDbLine
 10
438.6774609773041
 20
276.8904930249212
 30
0.0
 11
441.2335275574903
 21
279.6944333605633
 31
0.0
  0
ARC
  5
A54
330
18
100
AcDbEntity
  8
1
  6
Continuous
100
AcDbCircle
 10
439.6774619188118
 20
276.3409139276149
 30
0.0
 40
4.0
100
AcDbArc
 50
137.6477594145731
 51
180.0000166228643
  0
ARC
  5
A56
330
18
100
AcDbEntity
  8
1
  6
Continuous
100
AcDbCircle
 10
438.2774589380503
 20
282.3891797896659
 30
0.0
 40
4.0
100
AcDbArc
 50
317.6477594145735
 51
0.0
  0
LINE
  5
A5D
330
18
100
AcDbEntity
  8
1
  6
Continuous
100
AcDbLine
 10
313.8371129902352
 20
116.6795344897237
 30
0.0
 11
313.8371129902352
 21
114.6795344897237
 31
0.0
  0
LINE
  5
A5E
330
18
100
AcDbEntity
  8
1
  6
Continuous
100
AcDbLine
 10
313.8371129902352
 20
114.6795344897237
 30
0.0
 11
307.3371129902351
 21
114.6795344897237
 31
0.0
  0
LINE
  5
A5F
330
18
100
AcDbEntity
  8
1
  6
Continuous
100
AcDbLine
 10
307.3371129902351
 20
116.6795344897237
 30
0.0
 11
307.3371129902351
 21
114.6795344897237
 31
0.0
  0
LINE
  5
A60
330
18
100
AcDbEntity
  8
1
  6
Continuous
100
AcDbLine
 10
307.3371129902351
 20
68.2795344897238
 30
0.0
 11
307.3371129902351
 21
70.2795344897238
 31
0.0
  0
LINE
  5
A61
330
18
100
AcDbEntity
  8
1
  6
Continuous
100
AcDbLine
 10
313.8371129902352
 20
68.2795344897238
 30
0.0
 11
313.8371129902352
 21
70.27953448972382
 31
0.0
  0
LINE
  5
A62
330
18
100
AcDbEntity
  8
1
  6
Continuous
100
AcDbLine
 10
313.8371129902352
 20
70.27953448972382
 30
0.0
 11
307.3371129902351
 21
70.2795344897238
 31
0.0
  0
LINE
  5
A63
330
18
100
AcDbEntity
  8
1
  6
Continuous
100
AcDbLine
 10
442.2774589380503
 20
289.9468888958218
 30
0.0
 11
444.2774589380503
 21
289.9468888958218
 31
0.0
  0
LINE
  5
A64
330
18
100
AcDbEntity
  8
1
  6
Continuous
100
AcDbLine
 10
444.2774589380503
 20
296.4468888958218
 30
0.0
 11
444.2774589380503
 21
289.9468888958218
 31
0.0
  0
LINE
  5
A65
330
18
100
AcDbEntity
  8
1
  6
Continuous
100
AcDbLine
 10
442.2774589380503
 20
296.4468888958218
 30
0.0
 11
444.2774589380503
 21
296.4468888958218
 31
0.0
  0
LINE
  5
A67
330
18
100
AcDbEntity
  8
1
  6
Continuous
100
AcDbLine
 10
443.5774619380505
 20
282.0472094897236
 30
0.0
 11
443.5774619380506
 21
271.8472094897238
 31
0.0
  0
ARC
  5
A6A
330
18
100
AcDbEntity
  8
1
  6
Continuous
100
AcDbCircle
 10
442.6774619380505
 20
271.8472094897238
 30
0.0
 40
0.899999999999977
100
AcDbArc
 50
180.0
 51
0.0
  0
ARC
  5
A6B
330
18
100
AcDbEntity
  8
1
  6
Continuous
100
AcDbCircle
 10
442.6774619380505
 20
282.0472094897236
 30
0.0
 40
0.899999999999977
100
AcDbArc
 50
0.0
 51
116.388013161467
  0
LINE
  5
A6F
330
18
100
AcDbEntity
  8
1
  6
Continuous
100
AcDbLine
 10
453.4774589380504
 20
234.0072864897237
 30
0.0
 11
479.4774589380502
 21
234.0072864897237
 31
0.0
  0
LINE
  5
A70
330
18
100
AcDbEntity
  8
1
  6
Continuous
100
AcDbLine
 10
453.4774589380504
 20
233.2103044897237
 30
0.0
 11
479.4774589380502
 21
233.2103044897237
 31
0.0
  0
LINE
  5
A71
330
18
100
AcDbEntity
  8
1
  6
Continuous
100
AcDbLine
 10
445.4774589380503
 20
246.4617572600386
 30
0.0
 11
449.4774589380504
 21
246.4617572600386
 31
0.0
  0
LINE
  5
A72
330
18
100
AcDbEntity
  8
1
  6
Continuous
100
AcDbLine
 10
443.4774589380501
 20
263.7109444897237
 30
0.0
 11
452.8301434936309
 21
263.7109444897237
 31
0.0
  0
ARC
  5
A79
330
18
100
AcDbEntity
  8
1
  6
Continuous
100
AcDbCircle
 10
466.4774589874649
 20
281.1498789206303
 30
0.0
 40
21.75123979916285
100
AcDbArc
 50
234.9288082073051
 51
305.0711917926948
  0
LINE
  5
A7A
330
18
100
AcDbEntity
  8
1
  6
Continuous
100
AcDbLine
 10
480.1247744812988
 20
263.7109444897237
 30
0.0
 11
489.4774589380505
 21
263.7109444897237
 31
0.0
  0
LINE
  5
A7C
330
18
100
AcDbEntity
  8
1
  6
Continuous
100
AcDbLine
 10
443.4774589380501
 20
264.9581125433505
 30
0.0
 11
443.4774589380505
 21
237.2413874897237
 31
0.0
  0
LINE
  5
A7D
330
18
100
AcDbEntity
  8
1
  6
Continuous
100
AcDbLine
 10
446.4774589380501
 20
243.9433774897238
 30
0.0
 11
446.4774589380505
 21
237.2413874897237
 31
0.0
  0
LINE
  5
A7E
330
18
100
AcDbEntity
  8
1
  6
Continuous
100
AcDbLine
 10
443.4774589380505
 20
237.2413874897237
 30
0.0
 11
446.4774589380505
 21
237.2413874897237
 31
0.0
  0
LINE
  5
A7F
330
18
100
AcDbEntity
  8
1
  6
Continuous
100
AcDbLine
 10
451.4774589380506
 20
244.4617572600386
 30
0.0
 11
451.4774589380505
 21
235.2103044897237
 31
0.0
  0
LINE
  5
A80
330
18
100
AcDbEntity
  8
1
  6
Continuous
100
AcDbLine
 10
454.4774589380502
 20
242.5825669622716
 30
0.0
 11
478.4774589380503
 21
242.5825669622716
 31
0.0
  0
ARC
  5
A81
330
18
100
AcDbEntity
  8
1
  6
Continuous
100
AcDbCircle
 10
453.4774589380504
 20
236.0072864897237
 30
0.0
 40
2.0
100
AcDbArc
 50
180.0
 51
270.0
  0
ARC
  5
A82
330
18
100
AcDbEntity
  8
1
  6
Continuous
100
AcDbCircle
 10
453.4774589380504
 20
235.2103044897237
 30
0.0
 40
2.0
100
AcDbArc
 50
180.0000000000003
 51
270.0
  0
LINE
  5
A83
330
18
100
AcDbEntity
  8
1
  6
Continuous
100
AcDbLine
 10
481.4774589380503
 20
244.4617572600386
 30
0.0
 11
481.4774589380503
 21
235.2103044897237
 31
0.0
  0
ARC
  5
A84
330
18
100
AcDbEntity
  8
1
  6
Continuous
100
AcDbCircle
 10
479.4774589380502
 20
236.0072864897237
 30
0.0
 40
2.0
100
AcDbArc
 50
270.0
 51
0.000000000000007
  0
ARC
  5
A85
330
18
100
AcDbEntity
  8
1
  6
Continuous
100
AcDbCircle
 10
479.4774589380502
 20
235.2103044897237
 30
0.0
 40
2.0
100
AcDbArc
 50
270.0
 51
359.9999999999997
  0
LINE
  5
A86
330
18
100
AcDbEntity
  8
1
  6
Continuous
100
AcDbLine
 10
487.4774589380503
 20
246.4617572600387
 30
0.0
 11
483.4774589380502
 21
246.4617572600386
 31
0.0
  0
LINE
  5
A87
330
18
100
AcDbEntity
  8
1
  6
Continuous
100
AcDbLine
 10
489.4774589380501
 20
237.2413874897237
 30
0.0
 11
486.4774589380503
 21
237.2413874897237
 31
0.0
  0
LINE
  5
A8B
330
18
100
AcDbEntity
  8
1
  6
Continuous
100
AcDbLine
 10
489.4774589380505
 20
264.9581125433505
 30
0.0
 11
489.4774589380501
 21
237.2413874897237
 31
0.0
  0
LINE
  5
A8C
330
18
100
AcDbEntity
  8
1
  6
Continuous
100
AcDbLine
 10
446.4774589380501
 20
264.3931817694221
 30
0.0
 11
446.4774589380501
 21
263.7109444897237
 31
0.0
  0
LINE
  5
A90
330
18
100
AcDbEntity
  8
1
  6
Continuous
100
AcDbLine
 10
443.4774589380501
 20
264.9581125433505
 30
0.0
 11
441.1084448123763
 21
266.0458022469425
 31
0.0
  0
LINE
  5
A91
330
18
100
AcDbEntity
  8
1
  6
Continuous
100
AcDbLine
 10
444.1464760637241
 20
268.0283408903144
 30
0.0
 11
441.7774619380505
 21
269.1160305939064
 31
0.0
  0
ARC
  5
A92
330
18
100
AcDbEntity
  8
1
  6
Continuous
100
AcDbCircle
 10
442.7774619380504
 20
269.6809613678349
 30
0.0
 40
4.0
100
AcDbArc
 50
180.0000000000001
 51
245.338640241418
  0
ARC
  5
A93
330
18
100
AcDbEntity
  8
1
  6
Continuous
100
AcDbCircle
 10
442.4774589380501
 20
264.3931817694221
 30
0.0
 40
4.0
100
AcDbArc
 50
0.0000000000010687
 51
65.33864024141819
  0
LINE
  5
A95
330
18
100
AcDbEntity
  8
1
  6
Continuous
100
AcDbLine
 10
443.4774589380504
 20
252.0518694897238
 30
0.0
 11
441.1084448123765
 21
253.1395591933158
 31
0.0
  0
ARC
  5
A96
330
18
100
AcDbEntity
  8
1
  6
Continuous
100
AcDbCircle
 10
442.7774619380506
 20
256.7747183142082
 30
0.0
 40
4.0
100
AcDbArc
 50
180.0000000000001
 51
245.338640241418
  0
LINE
  5
A97
330
18
100
AcDbEntity
  8
1
  6
Continuous
100
AcDbLine
 10
490.6774589380503
 20
306.3287324897236
 30
0.0
 11
490.6774589380503
 21
282.3891797896659
 31
0.0
  0
LINE
  5
A98
330
18
100
AcDbEntity
  8
1
  6
Continuous
100
AcDbLine
 10
488.6774589380503
 20
296.4468888958218
 30
0.0
 11
488.6774589380504
 21
289.9468888958218
 31
0.0
  0
LINE
  5
A99
330
18
100
AcDbEntity
  8
1
  6
Continuous
100
AcDbLine
 10
490.6774589380503
 20
289.9468888958218
 30
0.0
 11
488.6774589380504
 21
289.9468888958218
 31
0.0
  0
LINE
  5
A9A
330
18
100
AcDbEntity
  8
1
  6
Continuous
100
AcDbLine
 10
490.6774589380503
 20
296.4468888958218
 30
0.0
 11
488.6774589380503
 21
296.4468888958218
 31
0.0
  0
ARC
  5
A9B
330
18
100
AcDbEntity
  8
1
  6
Continuous
100
AcDbCircle
 10
496.0774589380504
 20
290.4968888958217
 30
0.0
 40
1.199999999999999
100
AcDbArc
 50
270.0
 51
0.000000000000007
  0
LINE
  5
A9C
330
18
100
AcDbEntity
  8
1
  6
Continuous
100
AcDbLine
 10
496.0774589380504
 20
289.2968888958217
 30
0.0
 11
495.9774589380502
 21
289.2968888958217
 31
0.0
  0
ARC
  5
A9D
330
18
100
AcDbEntity
  8
1
  6
Continuous
100
AcDbCircle
 10
496.0774589380504
 20
295.8968888958218
 30
0.0
 40
1.199999999999999
100
AcDbArc
 50
0.000000000000007
 51
90.00000000000005
  0
LINE
  5
A9E
330
18
100
AcDbEntity
  8
1
  6
Continuous
100
AcDbLine
 10
496.0774589380504
 20
297.0968888958216
 30
0.0
 11
495.9774589380502
 21
297.0968888958216
 31
0.0
  0
LINE
  5
A9F
330
18
100
AcDbEntity
  8
1
  6
Continuous
100
AcDbLine
 10
489.3774559380501
 20
282.0472094897236
 30
0.0
 11
489.3774559380501
 21
271.8472094897238
 31
0.0
  0
LINE
  5
AA0
330
18
100
AcDbEntity
  8
1
  6
Continuous
100
AcDbLine
 10
494.2774568987966
 20
276.8904930249212
 30
0.0
 11
491.7213903186103
 21
279.6944333605633
 31
0.0
  0
ARC
  5
AA1
330
18
100
AcDbEntity
  8
1
  6
Continuous
100
AcDbCircle
 10
490.2774559380501
 20
271.8472094897238
 30
0.0
 40
0.899999999999977
100
AcDbArc
 50
180.0
 51
0.000000000000007
  0
ARC
  5
AA2
330
18
100
AcDbEntity
  8
1
  6
Continuous
100
AcDbCircle
 10
494.6774589380503
 20
282.3891797896659
 30
0.0
 40
4.0
100
AcDbArc
 50
180.0
 51
222.3522405854264
  0
ARC
  5
AA3
330
18
100
AcDbEntity
  8
1
  6
Continuous
100
AcDbCircle
 10
490.2774559380501
 20
282.0472094897236
 30
0.0
 40
0.899999999999977
100
AcDbArc
 50
63.61198683853294
 51
180.0
  0
LINE
  5
AA4
330
18
100
AcDbEntity
  8
1
  6
Continuous
100
AcDbLine
 10
488.8084418123765
 20
268.0283408903144
 30
0.0
 11
491.1774559380503
 21
269.1160305939064
 31
0.0
  0
ARC
  5
AA5
330
18
100
AcDbEntity
  8
1
  6
Continuous
100
AcDbCircle
 10
490.4774589380504
 20
264.3931817694221
 30
0.0
 40
4.0
100
AcDbArc
 50
114.6613597585818
 51
179.9999999999988
  0
LINE
  5
AA6
330
18
100
AcDbEntity
  8
1
  6
Continuous
100
AcDbLine
 10
486.4774589380504
 20
264.3931817694221
 30
0.0
 11
486.4774589380504
 21
263.7109444897237
 31
0.0
  0
LINE
  5
AA7
330
18
100
AcDbEntity
  8
1
  6
Continuous
100
AcDbLine
 10
489.4774589380505
 20
264.9581125433505
 30
0.0
 11
491.8464730637244
 21
266.0458022469425
 31
0.0
  0
ARC
  5
AA8
330
18
100
AcDbEntity
  8
1
  6
Continuous
100
AcDbCircle
 10
490.1774559380503
 20
269.6809613678349
 30
0.0
 40
4.0
100
AcDbArc
 50
294.6613597585817
 51
359.9999999999998
  0
LINE
  5
AA9
330
18
100
AcDbEntity
  8
1
  6
Continuous
100
AcDbLine
 10
497.2774525550396
 20
264.6140214897237
 30
0.0
 11
494.2774629380503
 21
264.6140214897237
 31
0.0
  0
LINE
  5
AAA
330
18
100
AcDbEntity
  8
1
  6
Continuous
100
AcDbLine
 10
496.2335245767291
 20
279.0356603567174
 30
0.0
 11
493.6774589380504
 21
281.8395996595493
 31
0.0
  0
ARC
  5
AAB
330
18
100
AcDbEntity
  8
1
  6
Continuous
100
AcDbCircle
 10
493.2774559572889
 20
276.3409139276149
 30
0.0
 40
4.0
100
AcDbArc
 50
359.9999833771356
 51
42.35224058542683
  0
LINE
  5
AAC
330
18
100
AcDbEntity
  8
1
  6
Continuous
100
AcDbLine
 10
489.4774589380504
 20
252.0518694897238
 30
0.0
 11
491.8464730637242
 21
253.1395591933158
 31
0.0
  0
ARC
  5
AAD
330
18
100
AcDbEntity
  8
1
  6
Continuous
100
AcDbCircle
 10
490.1774559380501
 20
256.7747183142082
 30
0.0
 40
4.0
100
AcDbArc
 50
294.6613597585817
 51
0.0
  0
LINE
  5
AAE
330
18
100
AcDbEntity
  8
1
  6
Continuous
100
AcDbLine
 10
494.1774559380503
 20
277.000191547492
 30
0.0
 11
494.1774559380503
 21
256.4420094897237
 31
0.0
  0
LINE
  5
AAF
330
18
100
AcDbEntity
  8
1
  6
Continuous
100
AcDbLine
 10
494.2774568987966
 20
276.8904930249212
 30
0.0
 11
494.2774629380503
 21
264.6140214897237
 31
0.0
  0
LINE
  5
AB0
330
18
100
AcDbEntity
  8
1
  6
Continuous
100
AcDbLine
 10
491.1774559380503
 20
280.4526935387491
 30
0.0
 11
491.1774559380503
 21
269.1160305939066
 31
0.0
  0
LINE
  5
AB8
330
18
100
AcDbEntity
  8
1
  6
Continuous
100
AcDbLine
 10
452.7274589380501
 20
305.092462606127
 30
0.0
 11
480.2274589380504
 21
305.0924626061271
 31
0.0
  0
LINE
  5
AB9
330
18
100
AcDbEntity
  8
1
  6
Continuous
100
AcDbLine
 10
442.2774589380503
 20
299.7491764897237
 30
0.0
 11
447.7274589380503
 21
299.7491764897237
 31
0.0
  0
LINE
  5
ABA
330
18
100
AcDbEntity
  8
1
  6
Continuous
100
AcDbLine
 10
449.7274589380504
 20
302.0924626061271
 30
0.0
 11
449.7274589380504
 21
301.7491764897237
 31
0.0
  0
LINE
  5
ABB
330
18
100
AcDbEntity
  8
1
  6
Continuous
100
AcDbLine
 10
483.2274589380505
 20
302.0924626061271
 30
0.0
 11
483.2274589380505
 21
301.7491764897237
 31
0.0
  0
LINE
  5
ABC
330
18
100
AcDbEntity
  8
1
  6
Continuous
100
AcDbLine
 10
485.2274589380505
 20
299.7491764897237
 30
0.0
 11
490.6774589380503
 21
299.7491764897237
 31
0.0
  0
ARC
  5
ABE
330
18
100
AcDbEntity
  8
1
  6
Continuous
100
AcDbCircle
 10
447.7274589380503
 20
301.7491764897237
 30
0.0
 40
2.0
100
AcDbArc
 50
270.0
 51
0.0
  0
ARC
  5
ABF
330
18
100
AcDbEntity
  8
1
  6
Continuous
100
AcDbCircle
 10
485.2274589380505
 20
301.7491764897237
 30
0.0
 40
2.0
100
AcDbArc
 50
180.0
 51
269.9999999999996
  0
ARC
  5
AC0
330
18
100
AcDbEntity
  8
1
  6
Continuous
100
AcDbCircle
 10
452.7274589380501
 20
302.092462606127
 30
0.0
 40
3.0
100
AcDbArc
 50
90.0
 51
179.999999999999
  0
ARC
  5
AC1
330
18
100
AcDbEntity
  8
1
  6
Continuous
100
AcDbCircle
 10
480.2274589380504
 20
302.0924626061271
 30
0.0
 40
3.0
100
AcDbArc
 50
0.0
 51
90.0
  0
LINE
  5
BDF
330
18
100
AcDbEntity
  8
1
  6
Continuous
100
AcDbLine
 10
633.2563568858654
 20
301.8559724897237
 30
0.0
 11
624.9403268858655
 21
282.8685054897238
 31
0.0
  0
LINE
  5
BE0
330
18
100
AcDbEntity
  8
1
  6
Continuous
100
AcDbLine
 10
703.8613168858653
 20
292.3797484897237
 30
0.0
 11
676.4791968858656
 21
270.1907234897237
 31
0.0
  0
LINE
  5
BE1
330
18
100
AcDbEntity
  8
4
  6
CENTER
 48
0.5
100
AcDbLine
 10
672.0834268858655
 20
284.4472054897238
 30
0.0
 11
672.0834268858655
 21
269.4472094897237
 31
0.0
  0
LINE
  5
BE2
330
18
100
AcDbEntity
  8
5
  6
PHANTOM
 48
0.5
100
AcDbLine
 10
687.9959168858653
 20
300.4397954897238
 30
0.0
 11
680.4591868858656
 21
269.4172174897238
 31
0.0
  0
ARC
  5
BE3
330
18
100
AcDbEntity
  8
1
  6
Continuous
100
AcDbCircle
 10
696.8008168858655
 20
298.8115774897238
 30
0.0
 40
13.0
100
AcDbArc
 50
161.2587669999999
 51
265.5989799999999
  0
LINE
  5
BE4
330
18
100
AcDbEntity
  8
1
  6
Continuous
100
AcDbLine
 10
648.1275568858652
 20
268.0284554897236
 30
0.0
 11
605.0964568858652
 21
293.1706894897237
 31
0.0
  0
LINE
  5
BE5
330
18
100
AcDbEntity
  8
5
  6
PHANTOM
 48
0.5
100
AcDbLine
 10
706.6266568858655
 20
265.1153264897237
 30
0.0
 11
706.2232568858656
 21
300.3602964897236
 31
0.0
  0
LINE
  5
BE6
330
18
100
AcDbEntity
  8
1
  6
Continuous
100
AcDbLine
 10
721.2008168858655
 20
294.3623354897237
 30
0.0
 11
721.2008168858655
 21
227.6115804897238
 31
0.0
  0
LINE
  5
BE8
330
18
100
AcDbEntity
  8
4
  6
CENTER
 48
0.5
100
AcDbLine
 10
696.8008168858655
 20
173.4415774897238
 30
0.0
 11
696.8008168858655
 21
321.7177964897238
 31
0.0
  0
CIRCLE
  5
BEA
330
18
100
AcDbEntity
  8
1
  6
Continuous
100
AcDbCircle
 10
672.0834268858655
 20
276.9472054897237
 30
0.0
 40
4.0
  0
LINE
  5
BEB
330
18
100
AcDbEntity
  8
1
  6
Continuous
100
AcDbLine
 10
675.9781368858654
 20
252.0518694897238
 30
0.0
 11
653.9854168858652
 21
264.9581134897238
 31
0.0
  0
ARC
  5
BEC
330
18
100
AcDbEntity
  8
1
  6
Continuous
100
AcDbCircle
 10
660.7395868858652
 20
289.6140214897237
 30
0.0
 40
25.0
100
AcDbArc
 50
239.7030899999996
 51
309.0194899999999
  0
ARC
  5
BED
330
18
100
AcDbEntity
  8
5
  6
PHANTOM
 48
0.5
100
AcDbCircle
 10
661.0244968858657
 20
274.1387414897237
 30
0.0
 40
20.0
100
AcDbArc
 50
297.97944
 51
346.3449299999999
  0
LINE
  5
BEE
330
18
100
AcDbEntity
  8
5
  6
PHANTOM
 48
0.5
100
AcDbLine
 10
669.5944868858654
 20
251.8906674897237
 30
0.0
 11
681.7585168858654
 21
251.1202134897237
 31
0.0
  0
LINE
  5
BEF
330
18
100
AcDbEntity
  8
4
  6
CENTER
 48
0.5
100
AcDbLine
 10
679.5834268858655
 20
276.9472094897238
 30
0.0
 11
664.5834268858655
 21
276.9472094897238
 31
0.0
  0
LINE
  5
BF0
330
18
100
AcDbEntity
  8
5
  6
PHANTOM
 48
0.5
100
AcDbLine
 10
676.4827468858655
 20
280.5124924897236
 30
0.0
 11
652.4281368858654
 21
282.0360804897237
 31
0.0
  0
LINE
  5
BF2
330
18
100
AcDbEntity
  8
1
  6
Continuous
100
AcDbLine
 10
656.8008168858654
 20
208.0115854897238
 30
0.0
 11
736.8008168858656
 21
208.0115854897238
 31
0.0
  0
LINE
  5
BF3
330
18
100
AcDbEntity
  8
1
  6
Continuous
100
AcDbLine
 10
660.3008168858655
 20
214.3115884897238
 30
0.0
 11
733.3008168858656
 21
214.3115884897238
 31
0.0
  0
LINE
  5
BF4
330
18
100
AcDbEntity
  8
1
  6
Continuous
100
AcDbLine
 10
658.5008268858654
 20
204.8115884897236
 30
0.0
 11
735.1008168858655
 21
204.8115884897236
 31
0.0
  0
LINE
  5
BF5
330
18
100
AcDbEntity
  8
5
  6
PHANTOM
 48
0.5
100
AcDbLine
 10
656.8008168858654
 20
183.0115744897236
 30
0.0
 11
736.8008168858656
 21
183.0115744897238
 31
0.0
  0
LINE
  5
BF6
330
18
100
AcDbEntity
  8
5
  6
PHANTOM
 48
0.5
100
AcDbLine
 10
660.3008168858655
 20
189.3115774897237
 30
0.0
 11
733.3008168858656
 21
189.3115774897237
 31
0.0
  0
LINE
  5
BF7
330
18
100
AcDbEntity
  8
5
  6
PHANTOM
 48
0.5
100
AcDbLine
 10
658.5008168858657
 20
179.8115774897237
 30
0.0
 11
735.1008190294426
 21
179.8115774897237
 31
0.0
  0
LINE
  5
BF8
330
18
100
AcDbEntity
  8
5
  6
PHANTOM
 48
0.5
100
AcDbLine
 10
690.7236868858652
 20
241.5424314897236
 30
0.0
 11
644.3012168858655
 21
223.4106494897238
 31
0.0
  0
LINE
  5
BF9
330
18
100
AcDbEntity
  8
1
  6
Continuous
100
AcDbLine
 10
671.6430068858652
 20
244.6646884897237
 30
0.0
 11
663.0589968858654
 21
238.9274104897237
 31
0.0
  0
LINE
  5
BFA
330
18
100
AcDbEntity
  8
5
  6
PHANTOM
 48
0.5
100
AcDbLine
 10
680.9008228857992
 20
194.0115669873652
 30
0.0
 11
680.9008268858656
 21
218.1257104897237
 31
0.0
  0
LINE
  5
BFC
330
18
100
AcDbEntity
  8
5
  6
PHANTOM
 48
0.5
100
AcDbLine
 10
712.7008108859326
 20
194.0115669942333
 30
0.0
 11
712.7008068858656
 21
217.7974404897236
 31
0.0
  0
LINE
  5
BFD
330
18
100
AcDbEntity
  8
5
  6
PHANTOM
 48
0.5
100
AcDbLine
 10
736.8008168858656
 20
185.8115774897236
 30
0.0
 11
736.8008168858656
 21
183.0115744897236
 31
0.0
  0
LINE
  5
BFE
330
18
100
AcDbEntity
  8
5
  6
PHANTOM
 48
0.5
100
AcDbLine
 10
735.9582468858656
 20
183.0115664897236
 30
0.0
 11
735.1008168858656
 21
179.8115694897236
 31
0.0
  0
ARC
  5
BFF
330
18
100
AcDbEntity
  8
5
  6
PHANTOM
 48
0.5
100
AcDbCircle
 10
733.3008168858656
 20
185.8115774897236
 30
0.0
 40
3.5
100
AcDbArc
 50
0.0000399999999616
 51
90.00001800000005
  0
LINE
  5
C00
330
18
100
AcDbEntity
  8
5
  6
PHANTOM
 48
0.5
100
AcDbLine
 10
709.7008108858656
 20
191.0115664897237
 30
0.0
 11
683.9008228858656
 21
191.0115664897237
 31
0.0
  0
LINE
  5
C01
330
18
100
AcDbEntity
  8
5
  6
PHANTOM
 48
0.5
100
AcDbLine
 10
708.4362688139264
 20
191.0115664897238
 30
0.0
 11
709.8437898858653
 21
189.6043854897237
 31
0.0
  0
ARC
  5
C02
330
18
100
AcDbEntity
  8
5
  6
PHANTOM
 48
0.5
100
AcDbCircle
 10
709.7008108858656
 20
194.0115664897236
 30
0.0
 40
3.0
100
AcDbArc
 50
270.0
 51
0.0000199999999843
  0
ARC
  5
C03
330
18
100
AcDbEntity
  8
5
  6
PHANTOM
 48
0.5
100
AcDbCircle
 10
710.5508168858655
 20
190.3115774897237
 30
0.0
 40
1.0
100
AcDbArc
 50
225.0070099999999
 51
270.0000600000003
  0
LINE
  5
C04
330
18
100
AcDbEntity
  8
5
  6
PHANTOM
 48
0.5
100
AcDbLine
 10
685.1653669075517
 20
191.0115664897237
 30
0.0
 11
683.7578438858654
 21
189.6043894897237
 31
0.0
  0
ARC
  5
C05
330
18
100
AcDbEntity
  8
5
  6
PHANTOM
 48
0.5
100
AcDbCircle
 10
683.0508168858655
 20
190.3115774897237
 30
0.0
 40
1.0
100
AcDbArc
 50
269.9999499999996
 51
314.9929899999999
  0
ARC
  5
C06
330
18
100
AcDbEntity
  8
5
  6
PHANTOM
 48
0.5
100
AcDbCircle
 10
683.9008228858656
 20
194.0115664897236
 30
0.0
 40
3.0
100
AcDbArc
 50
179.999982
 51
270.0
  0
LINE
  5
C07
330
18
100
AcDbEntity
  8
1
  6
Continuous
100
AcDbLine
 10
735.9582468858653
 20
208.0115924897237
 30
0.0
 11
735.1008168858655
 21
204.8115884897236
 31
0.0
  0
LINE
  5
C08
330
18
100
AcDbEntity
  8
1
  6
Continuous
100
AcDbLine
 10
736.8008168858656
 20
210.8115884897237
 30
0.0
 11
736.8008168858656
 21
208.0115854897238
 31
0.0
  0
ARC
  5
C09
330
18
100
AcDbEntity
  8
1
  6
Continuous
100
AcDbCircle
 10
733.3008168858656
 20
210.8115884897237
 30
0.0
 40
3.5
100
AcDbArc
 50
0.0000399999999616
 51
90.00001800000005
  0
LINE
  5
C0A
330
18
100
AcDbEntity
  8
5
  6
PHANTOM
 48
0.5
100
AcDbLine
 10
688.7067568858656
 20
234.2509694897237
 30
0.0
 11
686.7857268858655
 21
240.0043374897236
 31
0.0
  0
LINE
  5
C0B
330
18
100
AcDbEntity
  8
5
  6
PHANTOM
 48
0.5
100
AcDbLine
 10
705.2522168858653
 20
236.4056974897237
 30
0.0
 11
707.1612268858658
 21
266.5453104897236
 31
0.0
  0
ARC
  5
C0C
330
18
100
AcDbEntity
  8
5
  6
PHANTOM
 48
0.5
100
AcDbCircle
 10
681.6282868858656
 20
264.8292094897237
 30
0.0
 40
25.0
100
AcDbArc
 50
291.3347199999995
 51
0.6557500000001074
  0
LINE
  5
C0D
330
18
100
AcDbEntity
  8
1
  6
Continuous
100
AcDbLine
 10
700.9008268858656
 20
254.5214624897237
 30
0.0
 11
700.9008268858656
 21
236.1115804897238
 31
0.0
  0
LINE
  5
C0E
330
18
100
AcDbEntity
  8
1
  6
Continuous
100
AcDbLine
 10
692.7008068858656
 20
254.2610594897237
 30
0.0
 11
692.7008068858656
 21
236.1115804897238
 31
0.0
  0
ARC
  5
C0F
330
18
100
AcDbEntity
  8
1
  6
Continuous
100
AcDbCircle
 10
696.8008168858655
 20
236.1115804897238
 30
0.0
 40
4.099999999999997
100
AcDbArc
 50
179.9999900000002
 51
0.0000100000001992
  0
CIRCLE
  5
C10
330
18
100
AcDbEntity
  8
5
  6
PHANTOM
 48
0.5
100
AcDbCircle
 10
696.8008168858655
 20
237.4420094897236
 30
0.0
 40
5.5
  0
LINE
  5
C11
330
18
100
AcDbEntity
  8
1
  6
Continuous
100
AcDbLine
 10
672.4008268858656
 20
245.9560014897238
 30
0.0
 11
672.4008268858656
 21
227.6115804897238
 31
0.0
  0
LINE
  5
C12
330
18
100
AcDbEntity
  8
1
  6
Continuous
100
AcDbLine
 10
674.4008268858656
 20
225.6115804897238
 30
0.0
 11
719.2008168858656
 21
225.6115804897238
 31
0.0
  0
LINE
  5
C13
330
18
100
AcDbEntity
  8
1
  6
Continuous
100
AcDbLine
 10
715.4008268858656
 20
220.8115774897236
 30
0.0
 11
678.2008068858656
 21
220.8115774897236
 31
0.0
  0
LINE
  5
C14
330
18
100
AcDbEntity
  8
1
  6
Continuous
100
AcDbLine
 10
709.7008108858656
 20
216.0115774897236
 30
0.0
 11
683.9008228858656
 21
216.0115774897236
 31
0.0
  0
ARC
  5
C15
330
18
100
AcDbEntity
  8
5
  6
PHANTOM
 48
0.5
100
AcDbCircle
 10
696.7691968858653
 20
236.9430014897237
 30
0.0
 40
8.5
100
AcDbArc
 50
198.4639799999998
 51
356.3757999999999
  0
ARC
  5
C16
330
18
100
AcDbEntity
  8
1
  6
Continuous
100
AcDbCircle
 10
709.7008108858656
 20
219.0115774897237
 30
0.0
 40
3.0
100
AcDbArc
 50
270.0
 51
0.0000199999999843
  0
LINE
  5
C17
330
18
100
AcDbEntity
  8
1
  6
Continuous
100
AcDbLine
 10
708.4362688139264
 20
216.0115774897238
 30
0.0
 11
709.8437898858653
 21
214.6043964897237
 31
0.0
  0
ARC
  5
C18
330
18
100
AcDbEntity
  8
1
  6
Continuous
100
AcDbCircle
 10
710.5508168858655
 20
215.3115884897238
 30
0.0
 40
1.0
100
AcDbArc
 50
225.0070099999999
 51
270.0000600000003
  0
ARC
  5
C19
330
18
100
AcDbEntity
  8
1
  6
Continuous
100
AcDbCircle
 10
715.4008268858656
 20
223.8115774897238
 30
0.0
 40
3.0
100
AcDbArc
 50
270.0
 51
0.0000100000001992
  0
LINE
  5
C1A
330
18
100
AcDbEntity
  8
1
  6
Continuous
100
AcDbLine
 10
718.4008068858656
 20
225.6115804897238
 30
0.0
 11
718.4008068858656
 21
223.8115774897238
 31
0.0
  0
ARC
  5
C1B
330
18
100
AcDbEntity
  8
1
  6
Continuous
100
AcDbCircle
 10
719.2008168858656
 20
227.6115804897238
 30
0.0
 40
2.0
100
AcDbArc
 50
270.0
 51
0.0000100000001992
  0
LINE
  5
C1C
330
18
100
AcDbEntity
  8
1
  6
Continuous
100
AcDbLine
 10
712.7008108858656
 20
219.0115774897237
 30
0.0
 11
712.7008108858656
 21
220.8115774897236
 31
0.0
  0
ARC
  5
C1D
330
18
100
AcDbEntity
  8
1
  6
Continuous
100
AcDbCircle
 10
683.9008228858656
 20
219.0115774897237
 30
0.0
 40
3.0
100
AcDbArc
 50
179.999982
 51
270.0
  0
ARC
  5
C1E
330
18
100
AcDbEntity
  8
1
  6
Continuous
100
AcDbCircle
 10
683.0508168858655
 20
215.3115884897238
 30
0.0
 40
1.0
100
AcDbArc
 50
269.9999499999996
 51
314.9929899999999
  0
LINE
  5
C1F
330
18
100
AcDbEntity
  8
1
  6
Continuous
100
AcDbLine
 10
685.1653669075517
 20
216.0115774897236
 30
0.0
 11
683.7578438858654
 21
214.6044004897238
 31
0.0
  0
LINE
  5
C20
330
18
100
AcDbEntity
  8
1
  6
Continuous
100
AcDbLine
 10
680.9008228858656
 20
219.0115774897237
 30
0.0
 11
680.9008228858656
 21
220.8115774897236
 31
0.0
  0
ARC
  5
C21
330
18
100
AcDbEntity
  8
1
  6
Continuous
100
AcDbCircle
 10
674.4008268858656
 20
227.6115804897238
 30
0.0
 40
2.0
100
AcDbArc
 50
179.9999969999998
 51
270.0
  0
LINE
  5
C22
330
18
100
AcDbEntity
  8
1
  6
Continuous
100
AcDbLine
 10
675.2008068858656
 20
225.6115804897238
 30
0.0
 11
675.2008068858656
 21
223.8115774897238
 31
0.0
  0
ARC
  5
C23
330
18
100
AcDbEntity
  8
1
  6
Continuous
100
AcDbCircle
 10
678.2008068858656
 20
223.8115774897238
 30
0.0
 40
3.0
100
AcDbArc
 50
179.9999969999998
 51
270.0
  0
CIRCLE
  5
C24
330
18
100
AcDbEntity
  8
1
  6
Continuous
100
AcDbCircle
 10
696.8008168858655
 20
262.4420094897237
 30
0.0
 40
5.5
  0
CIRCLE
  5
C25
330
18
100
AcDbEntity
  8
5
  6
PHANTOM
 48
0.5
100
AcDbCircle
 10
698.6008168858655
 20
265.8607034897236
 30
0.0
 40
4.0
  0
ARC
  5
C26
330
18
100
AcDbEntity
  8
5
  6
PHANTOM
 48
0.5
100
AcDbCircle
 10
698.6782168858653
 20
267.0826124897237
 30
0.0
 40
8.5
100
AcDbArc
 50
21.84365999999978
 51
86.37580300000013
  0
ARC
  5
C27
330
18
100
AcDbEntity
  8
1
  6
Continuous
100
AcDbCircle
 10
697.2320568858656
 20
262.1889384897236
 30
0.0
 40
8.5
100
AcDbArc
 50
261.6819799999996
 51
59.5938100000002
  0
LINE
  5
C28
330
18
100
AcDbEntity
  8
4
  6
CENTER
 48
0.5
100
AcDbLine
 10
706.8008168858653
 20
262.4115754897236
 30
0.0
 11
686.8008168858655
 21
262.4115754897236
 31
0.0
  0
ARC
  5
C29
330
18
100
AcDbEntity
  8
5
  6
PHANTOM
 48
0.5
100
AcDbCircle
 10
698.6782168858653
 20
267.0826124897237
 30
0.0
 40
8.5
100
AcDbArc
 50
356.3757999999999
 51
21.84365999999978
  0
CIRCLE
  5
C2A
330
18
100
AcDbEntity
  8
1
  6
Continuous
100
AcDbCircle
 10
696.8008168858655
 20
262.4420094897237
 30
0.0
 40
2.0
  0
LINE
  5
C2B
330
18
100
AcDbEntity
  8
5
  6
PHANTOM
 48
0.5
100
AcDbLine
 10
678.1426168858654
 20
251.3492404897238
 30
0.0
 11
679.0353168858654
 21
265.4433404897237
 31
0.0
  0
LINE
  5
C2C
330
18
100
AcDbEntity
  8
1
  6
Continuous
100
AcDbLine
 10
696.0023868858654
 20
253.7783554897237
 30
0.0
 11
679.8261568858654
 21
256.1434084897238
 31
0.0
  0
LINE
  5
C2D
330
18
100
AcDbEntity
  8
5
  6
PHANTOM
 48
0.5
100
AcDbLine
 10
686.7857268858654
 20
240.0043374897236
 30
0.0
 11
683.5291468858654
 21
249.7576224897236
 31
0.0
  0
ARC
  5
C2E
330
18
100
AcDbEntity
  8
1
  6
Continuous
100
AcDbCircle
 10
696.8008168858655
 20
254.3145724897236
 30
0.0
 40
4.099999999999997
100
AcDbArc
 50
179.9999900000002
 51
0.0000100000001992
  0
ARC
  5
C2F
330
18
100
AcDbEntity
  8
5
  6
PHANTOM
 48
0.5
100
AcDbCircle
 10
681.6320968858656
 20
249.1242144897237
 30
0.0
 40
2.0
100
AcDbArc
 50
18.46396000000011
 51
86.37580300000013
  0
LINE
  5
C30
330
18
100
AcDbEntity
  8
1
  6
Continuous
100
AcDbLine
 10
671.6430268858654
 20
244.6646814897237
 30
0.0
 11
677.8119068858655
 21
255.1766894897237
 31
0.0
  0
ARC
  5
C31
330
18
100
AcDbEntity
  8
1
  6
Continuous
100
AcDbCircle
 10
679.5368268858656
 20
254.1644444897237
 30
0.0
 40
2.0
100
AcDbArc
 50
81.68197499999967
 51
149.5938079999999
  0
LINE
  5
C32
330
18
100
AcDbEntity
  8
5
  6
PHANTOM
 48
0.5
100
AcDbLine
 10
699.2155068858656
 20
275.5656154897237
 30
0.0
 11
682.2144968858656
 21
276.6424374897237
 31
0.0
  0
LINE
  5
C33
330
18
100
AcDbEntity
  8
1
  6
Continuous
100
AcDbLine
 10
701.5341368858655
 20
269.5198474897238
 30
0.0
 11
686.5225068858652
 21
278.3292954897238
 31
0.0
  0
LINE
  5
C34
330
18
100
AcDbEntity
  8
5
  6
PHANTOM
 48
0.5
100
AcDbLine
 10
679.0353168858654
 20
265.4433364897237
 30
0.0
 11
679.7545168858654
 21
276.7982484897236
 31
0.0
  0
LINE
  5
C35
330
18
100
AcDbEntity
  8
5
  6
PHANTOM
 48
0.5
100
AcDbLine
 10
682.2144968858656
 20
276.6424374897237
 30
0.0
 11
677.2595068858654
 21
276.9562794897237
 31
0.0
  0
ARC
  5
C36
330
18
100
AcDbEntity
  8
5
  6
PHANTOM
 48
0.5
100
AcDbCircle
 10
677.3227268858654
 20
277.9542784897237
 30
0.0
 40
1.0
100
AcDbArc
 50
176.3757999999997
 51
266.3758100000003
  0
LINE
  5
C37
330
18
100
AcDbEntity
  8
5
  6
PHANTOM
 48
0.5
100
AcDbLine
 10
676.3247168858654
 20
278.0174914897236
 30
0.0
 11
676.4827468858655
 21
280.5124924897236
 31
0.0
  0
LINE
  5
C38
330
18
100
AcDbEntity
  8
5
  6
PHANTOM
 48
0.5
100
AcDbLine
 10
656.8008168858654
 20
185.8115774897236
 30
0.0
 11
656.8008168858654
 21
183.0115744897236
 31
0.0
  0
LINE
  5
C39
330
18
100
AcDbEntity
  8
5
  6
PHANTOM
 48
0.5
100
AcDbLine
 10
657.6433768858654
 20
183.0115664897236
 30
0.0
 11
658.5008168858657
 21
179.8115694897236
 31
0.0
  0
ARC
  5
C3A
330
18
100
AcDbEntity
  8
5
  6
PHANTOM
 48
0.5
100
AcDbCircle
 10
660.3008168858655
 20
185.8115774897236
 30
0.0
 40
3.5
100
AcDbArc
 50
89.99998400000034
 51
179.999963
  0
LINE
  5
C3B
330
18
100
AcDbEntity
  8
5
  6
PHANTOM
 48
0.5
100
AcDbLine
 10
629.1197568858652
 20
236.9570774897236
 30
0.0
 11
606.6125868858654
 21
210.1535954897238
 31
0.0
  0
LINE
  5
C3C
330
18
100
AcDbEntity
  8
5
  6
PHANTOM
 48
0.5
100
AcDbLine
 10
614.8521368858654
 20
216.3892944897237
 30
0.0
 11
608.3739868858656
 21
208.6745534897237
 31
0.0
  0
LINE
  5
C3D
330
18
100
AcDbEntity
  8
4
  6
CENTER
 48
0.5
100
AcDbLine
 10
659.4599468858655
 20
239.3369604897237
 30
0.0
 11
649.7479768858656
 21
234.1774754897236
 31
0.0
  0
LINE
  5
C3E
330
18
100
AcDbEntity
  8
1
  6
Continuous
100
AcDbLine
 10
652.4409568858652
 20
238.6167834897237
 30
0.0
 11
639.0728168858657
 21
246.4617584897236
 31
0.0
  0
LINE
  5
C3F
330
18
100
AcDbEntity
  8
5
  6
PHANTOM
 48
0.5
100
AcDbLine
 10
654.9709068858653
 20
250.8801164897236
 30
0.0
 11
629.8020868858652
 21
237.5091974897237
 31
0.0
  0
LINE
  5
C40
330
18
100
AcDbEntity
  8
5
  6
PHANTOM
 48
0.5
100
AcDbLine
 10
654.9709068858653
 20
250.8801164897236
 30
0.0
 11
664.6958868858654
 21
232.5742464897238
 31
0.0
  0
LINE
  5
C41
330
18
100
AcDbEntity
  8
4
  6
CENTER
 48
0.5
100
AcDbLine
 10
651.9765968858656
 20
242.6617434897238
 30
0.0
 11
657.8631068858656
 21
231.5812724897237
 31
0.0
  0
CIRCLE
  5
C42
330
18
100
AcDbEntity
  8
5
  6
PHANTOM
 48
0.5
100
AcDbCircle
 10
655.0012568858655
 20
236.9682774897237
 30
0.0
 40
3.5
  0
LINE
  5
C43
330
18
100
AcDbEntity
  8
1
  6
Continuous
100
AcDbLine
 10
639.5836368858653
 20
241.4048734897237
 30
0.0
 11
637.3255368858654
 21
233.2103044897237
 31
0.0
  0
LINE
  5
C44
330
18
100
AcDbEntity
  8
1
  6
Continuous
100
AcDbLine
 10
636.6914368858654
 20
242.2018514897237
 30
0.0
 11
634.4333368858656
 21
234.0072864897237
 31
0.0
  0
LINE
  5
C45
330
18
100
AcDbEntity
  8
4
  6
CENTER
 48
0.5
100
AcDbLine
 10
638.7362768858658
 20
235.6123284897237
 30
0.0
 11
644.6117568858658
 21
224.5525744897236
 31
0.0
  0
LINE
  5
C46
330
18
100
AcDbEntity
  8
4
  6
CENTER
 48
0.5
100
AcDbLine
 10
645.9469468858652
 20
232.1581884897236
 30
0.0
 11
637.2211668858656
 21
227.5226144897237
 31
0.0
  0
CIRCLE
  5
C47
330
18
100
AcDbEntity
  8
5
  6
PHANTOM
 48
0.5
100
AcDbCircle
 10
641.7544868858656
 20
229.9309474897238
 30
0.0
 40
2.6
  0
ARC
  5
C48
330
18
100
AcDbEntity
  8
5
  6
PHANTOM
 48
0.5
100
AcDbCircle
 10
641.7545068858657
 20
229.9309544897237
 30
0.0
 40
7.0
100
AcDbArc
 50
207.9794399999999
 51
291.3347299999998
  0
LINE
  5
C49
330
18
100
AcDbEntity
  8
1
  6
Continuous
100
AcDbLine
 10
657.6433968858655
 20
208.0115774897236
 30
0.0
 11
658.5008268858654
 21
204.8115804897238
 31
0.0
  0
LINE
  5
C4A
330
18
100
AcDbEntity
  8
1
  6
Continuous
100
AcDbLine
 10
656.8008168858654
 20
210.8115884897237
 30
0.0
 11
656.8008168858654
 21
208.0115854897238
 31
0.0
  0
ARC
  5
C4B
330
18
100
AcDbEntity
  8
1
  6
Continuous
100
AcDbCircle
 10
660.3008168858655
 20
210.8115884897237
 30
0.0
 40
3.5
100
AcDbArc
 50
89.99998400000034
 51
179.999963
  0
ARC
  5
C4C
330
18
100
AcDbEntity
  8
1
  6
Continuous
100
AcDbCircle
 10
657.5022068858656
 20
247.2413874897237
 30
0.0
 40
10.0
100
AcDbArc
 50
239.59381
 51
303.7574699999997
  0
ARC
  5
C4D
330
18
100
AcDbEntity
  8
5
  6
PHANTOM
 48
0.5
100
AcDbCircle
 10
663.8127468858656
 20
232.1050804897236
 30
0.0
 40
1.0
100
AcDbArc
 50
291.3346999999998
 51
27.97945999999992
  0
ARC
  5
C4E
330
18
100
AcDbEntity
  8
5
  6
PHANTOM
 48
0.5
100
AcDbCircle
 10
613.3844668858654
 20
214.9135824897238
 30
0.0
 40
3.625011999999999
100
AcDbArc
 50
96.37666200000015
 51
183.5819199999999
  0
LINE
  5
C4F
330
18
100
AcDbEntity
  8
5
  6
PHANTOM
 48
0.5
100
AcDbLine
 10
631.5043868858655
 20
228.4449544897237
 30
0.0
 11
622.0060168858657
 21
217.1334804897237
 31
0.0
  0
ARC
  5
C50
330
18
100
AcDbEntity
  8
5
  6
PHANTOM
 48
0.5
100
AcDbCircle
 10
613.4826068858656
 20
214.7583544897238
 30
0.0
 40
2.299999999999998
100
AcDbArc
 50
49.97940999999979
 51
139.9794490000001
  0
ARC
  5
C51
330
18
100
AcDbEntity
  8
5
  6
PHANTOM
 48
0.5
100
AcDbCircle
 10
618.1769468858655
 20
220.3487934897236
 30
0.0
 40
5.0
100
AcDbArc
 50
229.9794300000001
 51
319.9794499999997
  0
LINE
  5
C52
330
18
100
AcDbEntity
  8
5
  6
PHANTOM
 48
0.5
100
AcDbLine
 10
609.7664668858652
 20
214.6870424897238
 30
0.0
 11
610.1493768858654
 21
214.3655134897236
 31
0.0
  0
ARC
  5
C53
330
18
100
AcDbEntity
  8
5
  6
PHANTOM
 48
0.5
100
AcDbCircle
 10
624.9595668858654
 20
228.6982124897237
 30
0.0
 40
3.625019999999998
100
AcDbArc
 50
96.37686700000015
 51
183.5819199999999
  0
ARC
  5
C54
330
18
100
AcDbEntity
  8
5
  6
PHANTOM
 48
0.5
100
AcDbCircle
 10
633.0360168858653
 20
227.1588064897236
 30
0.0
 40
2.0
100
AcDbArc
 50
27.97947000000001
 51
139.9795310000002
  0
LINE
  5
C55
330
18
100
AcDbEntity
  8
5
  6
PHANTOM
 48
0.5
100
AcDbLine
 10
634.8022368858655
 20
228.0971224897238
 30
0.0
 11
635.5726868858654
 21
226.6468664897236
 31
0.0
  0
LINE
  5
C56
330
18
100
AcDbEntity
  8
1
  6
Continuous
100
AcDbLine
 10
634.4333368858656
 20
234.0072864897237
 30
0.0
 11
637.3255368858656
 21
233.2103044897237
 31
0.0
  0
LINE
  5
C57
330
18
100
AcDbEntity
  8
5
  6
PHANTOM
 48
0.5
100
AcDbLine
 10
624.5569668858654
 20
232.3008124897237
 30
0.0
 11
624.9398668858654
 21
231.9792794897238
 31
0.0
  0
ARC
  5
C58
330
18
100
AcDbEntity
  8
5
  6
PHANTOM
 48
0.5
100
AcDbCircle
 10
630.8811568858653
 20
235.4780204897238
 30
0.0
 40
2.299999999999998
100
AcDbArc
 50
117.9794709999999
 51
139.9794490000001
  0
LINE
  5
C59
330
18
100
AcDbEntity
  8
5
  6
PHANTOM
 48
0.5
100
AcDbLine
 10
621.3416368858657
 20
228.4717144897238
 30
0.0
 11
621.7245368858653
 21
228.1501894897237
 31
0.0
  0
ARC
  5
C5A
330
18
100
AcDbEntity
  8
5
  6
PHANTOM
 48
0.5
100
AcDbCircle
 10
619.1720168858656
 20
221.8059164897236
 30
0.0
 40
3.625007
100
AcDbArc
 50
96.37666200000015
 51
183.58215
  0
LINE
  5
C5B
330
18
100
AcDbEntity
  8
5
  6
PHANTOM
 48
0.5
100
AcDbLine
 10
618.7694168858656
 20
225.4084974897237
 30
0.0
 11
619.1523168858657
 21
225.0869684897236
 31
0.0
  0
LINE
  5
C5C
330
18
100
AcDbEntity
  8
5
  6
PHANTOM
 48
0.5
100
AcDbLine
 10
615.5540168858656
 20
221.5793344897237
 30
0.0
 11
615.9369268858654
 21
221.2578054897237
 31
0.0
  0
LINE
  5
C5D
330
18
100
AcDbEntity
  8
5
  6
PHANTOM
 48
0.5
100
AcDbLine
 10
612.9817968858656
 20
218.5161484897238
 30
0.0
 11
613.3647168858657
 21
218.1946184897237
 31
0.0
  0
LINE
  5
C5E
330
18
100
AcDbEntity
  8
1
  6
Continuous
100
AcDbLine
 10
641.6601868858655
 20
244.9433774897237
 30
0.0
 11
639.5836368858655
 21
241.4048544897237
 31
0.0
  0
LINE
  5
C5F
330
18
100
AcDbEntity
  8
1
  6
Continuous
100
AcDbLine
 10
649.1953668858655
 20
263.7109444897237
 30
0.0
 11
636.9962668858654
 21
242.9232374897237
 31
0.0
  0
ARC
  5
C60
330
18
100
AcDbEntity
  8
5
  6
PHANTOM
 48
0.5
100
AcDbCircle
 10
665.5229668858654
 20
265.6756024897238
 30
0.0
 40
10.0
100
AcDbArc
 50
176.375803
 51
240.53946
  0
LINE
  5
C61
330
18
100
AcDbEntity
  8
5
  6
PHANTOM
 48
0.5
100
AcDbLine
 10
670.4075868858656
 20
256.4764274897235
 30
0.0
 11
656.0499668858657
 21
248.8489464897237
 31
0.0
  0
LINE
  5
C62
330
18
100
AcDbEntity
  8
5
  6
PHANTOM
 48
0.5
100
AcDbLine
 10
665.8049068858656
 20
254.0312524897236
 30
0.0
 11
660.6047068858656
 21
256.9686594897238
 31
0.0
  0
LINE
  5
C63
330
18
100
AcDbEntity
  8
5
  6
PHANTOM
 48
0.5
100
AcDbLine
 10
669.5944768858654
 20
251.8906674897237
 30
0.0
 11
665.8049068858655
 21
254.0312524897236
 31
0.0
  0
LINE
  5
C64
330
18
100
AcDbEntity
  8
5
  6
PHANTOM
 48
0.5
100
AcDbLine
 10
656.3331168858653
 20
278.7827314897238
 30
0.0
 11
652.2384968858657
 21
279.0420794897236
 31
0.0
  0
LINE
  5
C65
330
18
100
AcDbEntity
  8
5
  6
PHANTOM
 48
0.5
100
AcDbLine
 10
655.5429768858655
 20
266.3077214897238
 30
0.0
 11
656.5227568858655
 21
281.7767324897237
 31
0.0
  0
LINE
  5
C66
330
18
100
AcDbEntity
  8
1
  6
Continuous
100
AcDbLine
 10
651.3515068858654
 20
262.4456274897235
 30
0.0
 11
649.1953668858655
 21
263.7109444897237
 31
0.0
  0
LINE
  5
C67
330
18
100
AcDbEntity
  8
1
  6
Continuous
100
AcDbLine
 10
654.2814568858657
 20
265.4625724897238
 30
0.0
 11
652.7200968858656
 21
262.8019594897238
 31
0.0
  0
ARC
  5
C68
330
18
100
AcDbEntity
  8
1
  6
Continuous
100
AcDbCircle
 10
651.8576368858655
 20
263.3080904897237
 30
0.0
 40
1.0
100
AcDbArc
 50
239.59381
 51
329.5938200000002
  0
LINE
  5
C69
330
18
100
AcDbEntity
  8
5
  6
PHANTOM
 48
0.5
100
AcDbLine
 10
651.6467768858657
 20
281.9831494897238
 30
0.0
 11
643.3137668858657
 21
280.3065814897237
 31
0.0
  0
LINE
  5
C6A
330
18
100
AcDbEntity
  8
5
  6
PHANTOM
 48
0.5
100
AcDbLine
 10
652.2385168858654
 20
279.0420854897238
 30
0.0
 11
643.9054968858654
 21
277.3655174897236
 31
0.0
  0
ARC
  5
C6B
330
18
100
AcDbEntity
  8
5
  6
PHANTOM
 48
0.5
100
AcDbCircle
 10
652.2384968858655
 20
279.0420814897237
 30
0.0
 40
3.0
100
AcDbArc
 50
86.37580300000013
 51
101.375801
  0
LINE
  5
C6C
330
18
100
AcDbEntity
  8
5
  6
PHANTOM
 48
0.5
100
AcDbLine
 10
643.3137668858657
 20
280.3065814897237
 30
0.0
 11
643.9054968858656
 21
277.3655174897236
 31
0.0
  0
ARC
  5
C6D
330
18
100
AcDbEntity
  8
1
  6
Continuous
100
AcDbCircle
 10
639.5836568858656
 20
241.4048694897236
 30
0.0
 40
3.0
100
AcDbArc
 50
149.5938110000001
 51
164.5938069999997
  0
ARC
  5
C6E
330
18
100
AcDbEntity
  8
1
  6
Continuous
100
AcDbCircle
 10
624.0243268858654
 20
283.2696924897236
 30
0.0
 40
1.0
100
AcDbArc
 50
239.7030699999998
 51
336.3478200000002
  0
LINE
  5
C6F
330
18
100
AcDbEntity
  8
5
  6
PHANTOM
 48
0.5
100
AcDbLine
 10
606.6125268858653
 20
210.1535264897237
 30
0.0
 11
608.3738768858657
 21
208.6744924897236
 31
0.0
  0
ARC
  5
C70
330
18
100
AcDbEntity
  8
1
  6
Continuous
100
AcDbCircle
 10
662.4008268858656
 20
294.3623354897237
 30
0.0
 40
10.0
100
AcDbArc
 50
16.66871999999998
 51
44.99999999999972
  0
LINE
  5
C71
330
18
100
AcDbEntity
  8
1
  6
Continuous
100
AcDbLine
 10
692.6112868858655
 20
306.7263264897237
 30
0.0
 11
663.6116268858653
 21
293.3787444897237
 31
0.0
  0
LINE
  5
C72
330
18
100
AcDbEntity
  8
1
  6
Continuous
100
AcDbLine
 10
731.8008168858656
 20
316.8115774897238
 30
0.0
 11
661.8008168858655
 21
316.8115774897238
 31
0.0
  0
LINE
  5
C73
330
18
100
AcDbEntity
  8
1
  6
Continuous
100
AcDbLine
 10
731.3008168858656
 20
308.8115774897238
 30
0.0
 11
662.3008168858655
 21
308.8115774897238
 31
0.0
  0
CIRCLE
  5
C78
330
18
100
AcDbEntity
  8
1
  6
Continuous
100
AcDbCircle
 10
696.8008168858655
 20
298.8115774897238
 30
0.0
 40
5.5
  0
ARC
  5
C79
330
18
100
AcDbEntity
  8
1
  6
Continuous
100
AcDbCircle
 10
696.3742468858653
 20
298.5507434897236
 30
0.0
 40
9.0
100
AcDbArc
 50
37.4443499999999
 51
114.7150439999996
  0
LINE
  5
C7A
330
18
100
AcDbEntity
  8
4
  6
CENTER
 48
0.5
100
AcDbLine
 10
706.8008168858653
 20
298.8115774897238
 30
0.0
 11
686.8008168858655
 21
298.8115774897238
 31
0.0
  0
ARC
  5
C7B
330
18
100
AcDbEntity
  8
5
  6
PHANTOM
 48
0.5
100
AcDbCircle
 10
696.8008168858655
 20
298.8115774897238
 30
0.0
 40
13.0
100
AcDbArc
 50
212.8947212471579
 51
317.2177499999996
  0
ARC
  5
C7C
330
18
100
AcDbEntity
  8
5
  6
PHANTOM
 48
0.5
100
AcDbCircle
 10
699.2237168858653
 20
300.2801824897237
 30
0.0
 40
7.0
100
AcDbArc
 50
0.6557500000001074
 51
89.18936999999994
  0
LINE
  5
C7D
330
18
100
AcDbEntity
  8
4
  6
CENTER
 48
0.3
100
AcDbLine
 10
721.8008168858655
 20
302.5414584897237
 30
0.0
 11
721.8008168858655
 21
322.2177964897237
 31
0.0
  0
LINE
  5
C7E
330
18
100
AcDbEntity
  8
1
  6
Continuous
100
AcDbLine
 10
731.6543668858653
 20
308.9580234897238
 30
0.0
 11
724.1297468858653
 21
301.4334014897237
 31
0.0
  0
ARC
  5
C7F
330
18
100
AcDbEntity
  8
1
  6
Continuous
100
AcDbCircle
 10
709.8008168858655
 20
303.8115774897236
 30
0.0
 40
5.0
100
AcDbArc
 50
89.99999699999987
 51
179.9999969999998
  0
ARC
  5
C80
330
18
100
AcDbEntity
  8
1
  6
Continuous
100
AcDbCircle
 10
731.2008168858656
 20
294.3623354897237
 30
0.0
 40
10.0
100
AcDbArc
 50
134.9999989999999
 51
179.9999969999998
  0
ARC
  5
C81
330
18
100
AcDbEntity
  8
1
  6
Continuous
100
AcDbCircle
 10
699.4542268858656
 20
297.8182724897237
 30
0.0
 40
7.0
100
AcDbArc
 50
309.0194799999995
 51
37.4443499999999
  0
LINE
  5
C82
330
18
100
AcDbEntity
  8
1
  6
Continuous
100
AcDbLine
 10
705.0118268858653
 20
302.0742094897237
 30
0.0
 11
703.5197468858655
 21
304.0226544897237
 31
0.0
  0
LINE
  5
C83
330
18
100
AcDbEntity
  8
1
  6
Continuous
100
AcDbLine
 10
704.8008168858655
 20
303.8115774897236
 30
0.0
 11
704.8008168858655
 21
302.3497624897236
 31
0.0
  0
ARC
  5
C84
330
18
100
AcDbEntity
  8
5
  6
PHANTOM
 48
0.5
100
AcDbCircle
 10
709.8008168858655
 20
303.8115774897236
 30
0.0
 40
5.0
100
AcDbArc
 50
172.6047979999998
 51
180.0
  0
LINE
  5
C85
330
18
100
AcDbEntity
  8
1
  6
Continuous
100
AcDbLine
 10
731.8008168858656
 20
316.8115774897238
 30
0.0
 11
731.8008168858656
 21
309.3115774897236
 31
0.0
  0
ARC
  5
C86
330
18
100
AcDbEntity
  8
1
  6
Continuous
100
AcDbCircle
 10
731.3008168858656
 20
309.3115774897236
 30
0.0
 40
0.5
100
AcDbArc
 50
270.0
 51
0.0000100000001992
  0
LINE
  5
C87
330
18
100
AcDbEntity
  8
4
  6
CENTER
 48
0.3
100
AcDbLine
 10
671.8008168858655
 20
303.2414554897237
 30
0.0
 11
671.8008168858655
 21
322.2177964897237
 31
0.0
  0
ARC
  5
C88
330
18
100
AcDbEntity
  8
5
  6
PHANTOM
 48
0.5
100
AcDbCircle
 10
696.7415168858656
 20
298.3151064897238
 30
0.0
 40
9.0
100
AcDbArc
 50
89.18936999999994
 51
166.344921
  0
ARC
  5
C89
330
18
100
AcDbEntity
  8
1
  6
Continuous
100
AcDbCircle
 10
683.8008168858655
 20
303.8115774897236
 30
0.0
 40
5.0
100
AcDbArc
 50
12.75726999999984
 51
90.00000399999995
  0
CIRCLE
  5
C8A
330
18
100
AcDbEntity
  8
1
  6
Continuous
100
AcDbCircle
 10
696.8008168858655
 20
298.8115774897238
 30
0.0
 40
2.0
  0
LINE
  5
C8B
330
18
100
AcDbEntity
  8
5
  6
PHANTOM
 48
0.5
100
AcDbLine
 10
699.3227468858655
 20
307.2794844897238
 30
0.0
 11
696.8688568858656
 21
307.3142034897238
 31
0.0
  0
CIRCLE
  5
C8C
330
18
100
AcDbEntity
  8
1
  6
Continuous
100
AcDbCircle
 10
608.6278468858654
 20
299.2146464897238
 30
0.0
 40
2.6
  0
LINE
  5
C8D
330
18
100
AcDbEntity
  8
4
  6
CENTER
 48
0.5
100
AcDbLine
 10
611.2087868858655
 20
305.1075654897238
 30
0.0
 11
606.1845468858655
 21
293.6360134897237
 31
0.0
  0
LINE
  5
C8E
330
18
100
AcDbEntity
  8
1
  6
Continuous
100
AcDbLine
 10
633.2563568858656
 20
301.8559724897237
 30
0.0
 11
607.1504068858658
 21
313.2897044897237
 31
0.0
  0
LINE
  5
C8F
330
18
100
AcDbEntity
  8
4
  6
CENTER
 48
0.5
100
AcDbLine
 10
613.6280268858654
 20
297.0246894897237
 30
0.0
 11
603.9257068858654
 21
301.2740594897237
 31
0.0
  0
LINE
  5
C91
330
18
100
AcDbEntity
  8
1
  6
Continuous
100
AcDbLine
 10
647.2258468858655
 20
293.2267594897238
 30
0.0
 11
632.3336268858654
 21
299.7491764897237
 31
0.0
  0
LINE
  5
C92
330
18
100
AcDbEntity
  8
1
  6
Continuous
100
AcDbLine
 10
661.9472668858652
 20
308.9580194897237
 30
0.0
 11
669.4718868858656
 21
301.4334014897237
 31
0.0
  0
ARC
  5
C93
330
18
100
AcDbEntity
  8
1
  6
Continuous
100
AcDbCircle
 10
655.2495168858654
 20
311.5467154897237
 30
0.0
 40
20.0
100
AcDbArc
 50
246.3478100000001
 51
294.7150499999998
  0
LINE
  5
C94
330
18
100
AcDbEntity
  8
1
  6
Continuous
100
AcDbLine
 10
661.8008168858655
 20
316.8115774897238
 30
0.0
 11
661.8008168858655
 21
309.3115774897236
 31
0.0
  0
ARC
  5
C95
330
18
100
AcDbEntity
  8
1
  6
Continuous
100
AcDbCircle
 10
662.3008168858655
 20
309.3115774897236
 30
0.0
 40
0.5
100
AcDbArc
 50
179.9999969999998
 51
270.0
  0
LINE
  5
C96
330
18
100
AcDbEntity
  8
4
  6
CENTER
 48
0.5
100
AcDbLine
 10
624.9542468858654
 20
299.1023484897238
 30
0.0
 11
619.9205868858655
 21
287.6093074897236
 31
0.0
  0
CIRCLE
  5
C97
330
18
100
AcDbEntity
  8
1
  6
Continuous
100
AcDbCircle
 10
622.3678068858654
 20
293.1968924897237
 30
0.0
 40
3.5
  0
LINE
  5
C98
330
18
100
AcDbEntity
  8
4
  6
CENTER
 48
0.5
100
AcDbLine
 10
627.3592568858654
 20
291.0107604897238
 30
0.0
 11
616.5822368858654
 21
295.7308204897237
 31
0.0
  0
ARC
  5
C99
330
18
100
AcDbEntity
  8
1
  6
Continuous
100
AcDbCircle
 10
579.2439668858653
 20
312.1362844897237
 30
0.0
 40
3.625011999999999
100
AcDbArc
 50
44.74503000000024
 51
131.950282
  0
LINE
  5
C9A
330
18
100
AcDbEntity
  8
1
  6
Continuous
100
AcDbLine
 10
581.4822152993887
 20
311.8966625463523
 30
0.0
 11
571.2422568858652
 21
312.1920244897236
 31
0.0
  0
LINE
  5
C9B
330
18
100
AcDbEntity
  8
1
  6
Continuous
100
AcDbLine
 10
606.2939968858654
 20
313.4819574897237
 30
0.0
 11
571.3085368858656
 21
314.4910814897238
 31
0.0
  0
ARC
  5
C9C
330
18
100
AcDbEntity
  8
1
  6
Continuous
100
AcDbCircle
 10
601.0426668858656
 20
304.3295484897238
 30
0.0
 40
2.0
100
AcDbArc
 50
336.3478299999998
 51
88.34789800000027
  0
ARC
  5
C9D
330
18
100
AcDbEntity
  8
1
  6
Continuous
100
AcDbCircle
 10
586.4801368858652
 20
311.7525104897237
 30
0.0
 40
5.0
100
AcDbArc
 50
178.3477949999998
 51
268.34782
  0
ARC
  5
C9E
330
18
100
AcDbEntity
  8
1
  6
Continuous
100
AcDbCircle
 10
608.6278468858654
 20
299.2146464897238
 30
0.0
 40
7.0
100
AcDbArc
 50
156.3478100000001
 51
239.7031
  0
LINE
  5
C9F
330
18
100
AcDbEntity
  8
1
  6
Continuous
100
AcDbLine
 10
602.8746868858656
 20
303.5271864897237
 30
0.0
 11
602.2158568858656
 21
302.0229304897237
 31
0.0
  0
LINE
  5
CA0
330
18
100
AcDbEntity
  8
1
  6
Continuous
100
AcDbLine
 10
601.1003668858655
 20
306.3287324897236
 30
0.0
 11
586.3359768858655
 21
306.7545974897238
 31
0.0
  0
ARC
  5
CA1
330
18
100
AcDbEntity
  8
1
  6
Continuous
100
AcDbCircle
 10
606.2276968858655
 20
311.1829004897238
 30
0.0
 40
2.299999999999998
100
AcDbArc
 50
66.34783999999979
 51
88.34781600000004
  0
LINE
  5
CA2
330
18
100
AcDbEntity
  8
1
  6
Continuous
100
AcDbLine
 10
594.8131768858655
 20
314.3133174897237
 30
0.0
 11
594.7987568858652
 21
313.8135264897238
 31
0.0
  0
LINE
  5
CA3
330
18
100
AcDbEntity
  8
1
  6
Continuous
100
AcDbLine
 10
599.8111168858654
 20
314.1691514897236
 30
0.0
 11
599.7966968858654
 21
313.6693574897237
 31
0.0
  0
ARC
  5
CA4
330
18
100
AcDbEntity
  8
1
  6
Continuous
100
AcDbCircle
 10
597.2364568858654
 20
311.6172984897238
 30
0.0
 40
3.625019999999998
100
AcDbArc
 50
44.74522999999989
 51
131.950282
  0
LINE
  5
CA5
330
18
100
AcDbEntity
  8
1
  6
Continuous
100
AcDbLine
 10
585.8168068858657
 20
314.5727964897237
 30
0.0
 11
585.8024068858656
 21
314.0730104897237
 31
0.0
  0
LINE
  5
CA6
330
18
100
AcDbEntity
  8
1
  6
Continuous
100
AcDbLine
 10
590.8148568858654
 20
314.4286394897237
 30
0.0
 11
590.8004468858654
 21
313.9288484897237
 31
0.0
  0
ARC
  5
CA7
330
18
100
AcDbEntity
  8
1
  6
Continuous
100
AcDbCircle
 10
588.2402068858655
 20
311.8768054897238
 30
0.0
 40
3.625007
100
AcDbArc
 50
44.74503000000024
 51
131.9505109999997
  0
ARC
  5
CA8
330
18
100
AcDbEntity
  8
1
  6
Continuous
100
AcDbCircle
 10
579.1832068858655
 20
311.9629754897238
 30
0.0
 40
2.299999999999998
100
AcDbArc
 50
358.34777
 51
88.34781600000004
  0
LINE
  5
CA9
330
18
100
AcDbEntity
  8
1
  6
Continuous
100
AcDbLine
 10
581.8185768858652
 20
314.6881374897237
 30
0.0
 11
581.8041468858655
 21
314.1883434897237
 31
0.0
  0
LINE
  5
CAA
330
18
100
AcDbEntity
  8
1
  6
Continuous
100
AcDbLine
 10
571.3084768858655
 20
314.4910894897237
 30
0.0
 11
571.2421668858654
 21
312.1920514897237
 31
0.0
  0
LINE
  5
CAB
330
18
100
AcDbEntity
  8
1
  6
Continuous
100
AcDbLine
 10
576.8205968858658
 20
314.8323064897238
 30
0.0
 11
576.8061868858658
 21
314.3325044897236
 31
0.0
  0
ARC
  5
F9F
330
18
100
AcDbEntity
  8
1
  6
Continuous
100
AcDbCircle
 10
445.4774589380503
 20
244.4617572600386
 30
0.0
 40
2.0
100
AcDbArc
 50
90.0
 51
180.0000000000004
  0
ARC
  5
FA0
330
18
100
AcDbEntity
  8
1
  6
Continuous
100
AcDbCircle
 10
487.4774589380503
 20
244.4617572600387
 30
0.0
 40
2.0
100
AcDbArc
 50
359.9999999999994
 51
90.0
  0
ARC
  5
FA1
330
18
100
AcDbEntity
  8
1
  6
Continuous
100
AcDbCircle
 10
449.4774589380504
 20
244.4617572600386
 30
0.0
 40
2.0
100
AcDbArc
 50
0.0
 51
90.0
  0
ARC
  5
FA2
330
18
100
AcDbEntity
  8
1
  6
Continuous
100
AcDbCircle
 10
483.4774589380502
 20
244.4617572600386
 30
0.0
 40
2.0
100
AcDbArc
 50
90.0000000000011
 51
179.9999999999995
  0
LINE
  5
FEC
330
18
100
AcDbEntity
  8
1
  6
Continuous
100
AcDbLine
 10
323.7057306838508
 20
65.27953448972379
 30
0.0
 11
323.7057306838506
 21
68.27953448972381
 31
0.0
  0
ARC
  5
FED
330
18
100
AcDbEntity
  8
1
  6
Continuous
100
AcDbCircle
 10
327.8045109902352
 20
63.97953448972379
 30
0.0
 40
4.299999999999998
100
AcDbArc
 50
90.00000000000005
 51
162.4026633919227
  0
ARC
  5
FEF
330
18
100
AcDbEntity
  8
1
  6
Continuous
100
AcDbCircle
 10
302.1212827373923
 20
110.7295344897238
 30
0.0
 40
1.5
100
AcDbArc
 50
180.0
 51
270.0
  0
LINE
  5
FF0
330
18
100
AcDbEntity
  8
1
  6
Continuous
100
AcDbLine
 10
300.6212827373923
 20
116.822410204668
 30
0.0
 11
300.6212827373923
 21
110.7295344897238
 31
0.0
  0
ARC
  5
FF1
330
18
100
AcDbEntity
  8
1
  6
Continuous
100
AcDbCircle
 10
302.1212827373923
 20
74.22953448972378
 30
0.0
 40
1.5
100
AcDbArc
 50
90.00000000000005
 51
180.0
  0
LINE
  5
FF2
330
18
100
AcDbEntity
  8
1
  6
Continuous
100
AcDbLine
 10
300.6212827373923
 20
68.13665877477956
 30
0.0
 11
300.6212827373923
 21
74.22953448972378
 31
0.0
  0
LINE
  5
FF6
330
18
100
AcDbEntity
  8
0
  6
Continuous
100
AcDbLine
 10
293.3712809902353
 20
104.1839714585392
 30
0.0
 11
293.3712809902353
 21
80.77509752090827
 31
0.0
  0
ARC
  5
FFB
330
18
100
AcDbEntity
  8
1
  6
Continuous
100
AcDbCircle
 10
437.9774589380502
 20
305.3287324897238
 30
0.0
 40
1.0
100
AcDbArc
 50
89.99999999999815
 51
180.0
  0
ARC
  5
FFC
330
18
100
AcDbEntity
  8
1
  6
Continuous
100
AcDbCircle
 10
494.9774589380504
 20
305.3287324897238
 30
0.0
 40
1.0
100
AcDbArc
 50
0.0
 51
90.0
  0
LINE
  5
FFE
330
18
100
AcDbEntity
  8
0
  6
Continuous
100
AcDbLine
 10
447.4774589380501
 20
244.9433774897238
 30
0.0
 11
450.4774589380505
 21
244.9433774897238
 31
0.0
  0
ARC
  5
FFF
330
18
100
AcDbEntity
  8
0
  6
Continuous
100
AcDbCircle
 10
447.4774589380501
 20
243.9433774897238
 30
0.0
 40
1.0
100
AcDbArc
 50
90.0
 51
180.0000000000011
  0
ARC
  5
1000
330
18
100
AcDbEntity
  8
0
  6
Continuous
100
AcDbCircle
 10
450.4774589380505
 20
243.9433774897238
 30
0.0
 40
1.0
100
AcDbArc
 50
0.0
 51
89.99999999999998
  0
LINE
  5
1001
330
18
100
AcDbEntity
  8
0
  6
Continuous
100
AcDbLine
 10
485.4774589380504
 20
244.9433774897238
 30
0.0
 11
482.4774589380502
 21
244.9433774897238
 31
0.0
  0
ARC
  5
1002
330
18
100
AcDbEntity
  8
0
  6
Continuous
100
AcDbCircle
 10
482.4774589380502
 20
243.9433774897238
 30
0.0
 40
1.0
100
AcDbArc
 50
90.00000000000005
 51
180.0
  0
ARC
  5
1003
330
18
100
AcDbEntity
  8
0
  6
Continuous
100
AcDbCircle
 10
485.4774589380504
 20
243.9433774897238
 30
0.0
 40
1.0
100
AcDbArc
 50
359.9999999999988
 51
90.0
  0
LINE
  5
1004
330
18
100
AcDbEntity
  8
1
  6
Continuous
100
AcDbLine
 10
486.4774589380504
 20
243.9433774897238
 30
0.0
 11
486.4774589380503
 21
237.2413874897237
 31
0.0
  0
ARC
  5
1006
330
18
100
AcDbEntity
  8
1
  6
Continuous
100
AcDbCircle
 10
452.8301434936309
 20
261.7109444897237
 30
0.0
 40
2.0
100
AcDbArc
 50
54.92880820730557
 51
90.0
  0
ARC
  5
1007
330
18
100
AcDbEntity
  8
1
  6
Continuous
100
AcDbCircle
 10
480.1247744812988
 20
261.7109444897237
 30
0.0
 40
2.0
100
AcDbArc
 50
90.0
 51
125.0711917926943
  0
CIRCLE
  5
100D
330
18
100
AcDbEntity
  8
1
  6
Continuous
100
AcDbCircle
 10
236.1541009902353
 20
92.4795344897238
 30
0.0
 40
37.0
  0
CIRCLE
  5
100E
330
18
100
AcDbEntity
  8
1
  6
Continuous
100
AcDbCircle
 10
236.1541009902353
 20
92.4795344897238
 30
0.0
 40
34.0
  0
CIRCLE
  5
100F
330
18
100
AcDbEntity
  8
1
  6
Continuous
100
AcDbCircle
 10
236.1541009902353
 20
92.4795344897238
 30
0.0
 40
31.0
  0
CIRCLE
  5
1010
330
18
100
AcDbEntity
  8
1
  6
Continuous
100
AcDbCircle
 10
236.1541009902353
 20
92.4795344897238
 30
0.0
 40
28.0
  0
CIRCLE
  5
1011
330
18
100
AcDbEntity
  8
1
  6
Continuous
100
AcDbCircle
 10
236.1541009902353
 20
92.4795344897238
 30
0.0
 40
25.0
  0
CIRCLE
  5
1012
330
18
100
AcDbEntity
  8
1
  6
Continuous
100
AcDbCircle
 10
236.1541009902353
 20
92.4795344897238
 30
0.0
 40
22.0
  0
CIRCLE
  5
1013
330
18
100
AcDbEntity
  8
1
  6
Continuous
100
AcDbCircle
 10
236.1541009902353
 20
92.4795344897238
 30
0.0
 40
19.0
  0
LINE
  5
1017
330
18
100
AcDbEntity
  8
1
  6
Continuous
100
AcDbLine
 10
271.1541009902354
 20
123.2795344897237
 30
0.0
 11
271.1541009902354
 21
132.4795344897237
 31
0.0
  0
LINE
  5
1018
330
18
100
AcDbEntity
  8
1
  6
Continuous
100
AcDbLine
 10
271.1541009902354
 20
64.67953448972378
 30
0.0
 11
271.1541009902354
 21
69.47953448972381
 31
0.0
  0
ENDSEC
  0
SECTION
  2
OBJECTS
  0
DICTIONARY
  5
C
330
0
100
AcDbDictionary
281
     1
  3
ACAD_CIP_PREVIOUS_PRODUCT_INFO
350
1092
  3
ACAD_COLOR
350
1075
  3
ACAD_DETAILVIEWSTYLE
350
108E
  3
ACAD_GROUP
350
D
  3
ACAD_LAYOUT
350
5D
  3
ACAD_MATERIAL
350
1043
  3
ACAD_MLEADERSTYLE
350
108A
  3
ACAD_MLINESTYLE
350
1B
  3
ACAD_PLOTSETTINGS
350
5E
  3
ACAD_PLOTSTYLENAME
350
1041
  3
ACAD_SCALELIST
350
1078
  3
ACAD_SECTIONVIEWSTYLE
350
108C
  3
ACAD_TABLESTYLE
350
1076
  3
ACAD_VISUALSTYLE
350
105C
  3
ACDB_RECOMPOSE_DATA
350
10B0
  3
AcDbVariableDictionary
350
10A3
  3
CONTENTDICTIONARY
350
3D
  3
DWGPROPS
350
10B1
  0
DICTIONARY
  5
1093
330
E
100
AcDbDictionary
280
     1
281
     1
  3
ADSK_XREC_LAYER_RECONCILED
360
1094
  0
DICTIONARY
  5
1095
330
65
100
AcDbDictionary
280
     1
281
     1
  3
ADSK_XREC_LAYER_RECONCILED
360
1096
  0
DICTIONARY
  5
1097
330
66
100
AcDbDictionary
280
     1
281
     1
  3
ADSK_XREC_LAYER_RECONCILED
360
1098
  0
DICTIONARY
  5
1099
330
67
100
AcDbDictionary
280
     1
281
     1
  3
ADSK_XREC_LAYER_RECONCILED
360
109A
  0
DICTIONARY
  5
109B
330
68
100
AcDbDictionary
280
     1
281
     1
  3
ADSK_XREC_LAYER_RECONCILED
360
109C
  0
DICTIONARY
  5
109D
330
69
100
AcDbDictionary
280
     1
281
     1
  3
ADSK_XREC_LAYER_RECONCILED
360
109E
  0
DICTIONARY
  5
109F
330
6A
100
AcDbDictionary
280
     1
281
     1
  3
ADSK_XREC_LAYER_RECONCILED
360
10A0
  0
DICTIONARY
  5
10A1
330
6B
100
AcDbDictionary
280
     1
281
     1
  3
ADSK_XREC_LAYER_RECONCILED
360
10A2
  0
DICTIONARY
  5
1028
330
18
100
AcDbDictionary
281
     1
  3
ACAD_LAYOUTSELFREF
350
103D
  0
DICTIONARY
  5
1026
330
15
100
AcDbDictionary
281
     1
  3
ACAD_LAYOUTSELFREF
350
103C
  0
XRECORD
  5
1092
102
{ACAD_REACTORS
330
C
102
}
330
C
100
AcDbXrecord
280
     1
300
ACDLT
300
2014
300
ACDLT_F_S
  0
DICTIONARY
  5
1075
102
{ACAD_REACTORS
330
C
102
}
330
C
100
AcDbDictionary
281
     1
  0
DICTIONARY
  5
108E
102
{ACAD_REACTORS
330
C
102
}
330
C
100
AcDbDictionary
281
     1
  3
Imperial24
350
108F
  0
DICTIONARY
  5
D
102
{ACAD_REACTORS
330
C
102
}
330
C
100
AcDbDictionary
281
     1
  0
DICTIONARY
  5
5D
102
{ACAD_REACTORS
330
C
102
}
330
C
100
AcDbDictionary
281
     1
  3
Model
350
1090
  3
レイアウト1
350
1091
  0
DICTIONARY
  5
1043
102
{ACAD_REACTORS
330
C
102
}
330
C
100
AcDbDictionary
281
     1
  3
ByBlock
350
104C
  3
ByLayer
350
1044
  3
Global
350
1054
  0
DICTIONARY
  5
108A
102
{ACAD_REACTORS
330
C
102
}
330
C
100
AcDbDictionary
281
     1
  3
Standard
350
108B
  0
DICTIONARY
  5
1B
102
{ACAD_REACTORS
330
C
102
}
330
C
100
AcDbDictionary
281
     1
  3
STANDARD
350
1C
  0
DICTIONARY
  5
5E
102
{ACAD_REACTORS
330
C
102
}
330
C
100
AcDbDictionary
281
     1
  0
ACDBDICTIONARYWDFLT
  5
1041
102
{ACAD_REACTORS
330
C
102
}
330
C
100
AcDbDictionary
281
     1
  3
Normal
350
1042
100
AcDbDictionaryWithDefault
340
1042
  0
DICTIONARY
  5
1078
102
{ACAD_REACTORS
330
C
102
}
330
C
100
AcDbDictionary
281
     1
  3
A0
350
1079
  3
A1
350
107A
  3
A2
350
107B
  3
A3
350
107C
  3
A4
350
107D
  3
A5
350
107E
  3
A6
350
107F
  3
A7
350
1080
  3
A8
350
1081
  3
A9
350
1082
  3
B0
350
1083
  3
B1
350
1084
  3
B2
350
1085
  3
B3
350
1086
  3
B4
350
1087
  3
B5
350
1088
  3
B6
350
1089
  0
DICTIONARY
  5
108C
102
{ACAD_REACTORS
330
C
102
}
330
C
100
AcDbDictionary
281
     1
  3
Imperial24
350
108D
  0
DICTIONARY
  5
1076
102
{ACAD_REACTORS
330
C
102
}
330
C
100
AcDbDictionary
281
     1
  3
Standard
350
1077
  0
DICTIONARY
  5
105C
102
{ACAD_REACTORS
330
C
102
}
330
C
100
AcDbDictionary
281
     1
  3
2dWireframe
350
1062
  3
Basic
350
1061
  3
Brighten
350
1068
  3
ColorChange
350
106C
  3
Conceptual
350
1065
  3
Dim
350
1067
  3
EdgeColorOff
350
1074
  3
Facepattern
350
106B
  3
Flat
350
105D
  3
FlatWithEdges
350
105E
  3
Gouraud
350
105F
  3
GouraudWithEdges
350
1060
  3
Hidden
350
1064
  3
JitterOff
350
1072
  3
Linepattern
350
106A
  3
OverhangOff
350
1073
  3
Realistic
350
1066
  3
Shaded
350
1071
  3
Shaded with edges
350
1070
  3
Shades of Gray
350
106D
  3
Sketchy
350
106E
  3
Thicken
350
1069
  3
Wireframe
350
1063
  3
X-Ray
350
106F
  0
XRECORD
  5
10B0
102
{ACAD_REACTORS
330
C
102
}
330
C
100
AcDbXrecord
280
     1
 90
        1
330
1077
  0
DICTIONARY
  5
10A3
102
{ACAD_REACTORS
330
C
102
}
330
C
100
AcDbDictionary
281
     1
  3
CANNOSCALE
350
10A8
  3
CMLEADERSTYLE
350
10A5
  3
CTABLESTYLE
350
10A4
  3
CVIEWDETAILSTYLE
350
10A6
  3
CVIEWSECTIONSTYLE
350
10A7
  3
DIMASSOC
350
10AB
  3
INDEXCTL
350
10AA
  3
SORTENTS
350
10A9
  3
XCLIPFRAME
350
10AC
  0
DICTIONARY
  5
3D
102
{ACAD_REACTORS
330
C
102
}
330
C
100
AcDbDictionary
281
     1
  0
XRECORD
  5
10B1
102
{ACAD_REACTORS
330
C
102
}
330
C
100
AcDbXrecord
280
     1
  1
DWGPROPS COOKIE
  2

  3

  4

  6

  7

  8
Yoshitsune
  9

300
=
301
=
302
=
303
=
304
=
305
=
306
=
307
=
308
=
309
=
 40
0.2429008217592592
 41
2453276.443459734
 42
2457192.691153993
  1

 90
        0
  0
XRECORD
  5
1094
102
{ACAD_REACTORS
330
1093
102
}
330
1093
100
AcDbXrecord
280
     1
290
     1
  0
XRECORD
  5
1096
102
{ACAD_REACTORS
330
1095
102
}
330
1095
100
AcDbXrecord
280
     1
290
     1
  0
XRECORD
  5
1098
102
{ACAD_REACTORS
330
1097
102
}
330
1097
100
AcDbXrecord
280
     1
290
     1
  0
XRECORD
  5
109A
102
{ACAD_REACTORS
330
1099
102
}
330
1099
100
AcDbXrecord
280
     1
290
     1
  0
XRECORD
  5
109C
102
{ACAD_REACTORS
330
109B
102
}
330
109B
100
AcDbXrecord
280
     1
290
     1
  0
XRECORD
  5
109E
102
{ACAD_REACTORS
330
109D
102
}
330
109D
100
AcDbXrecord
280
     1
290
     1
  0
XRECORD
  5
10A0
102
{ACAD_REACTORS
330
109F
102
}
330
109F
100
AcDbXrecord
280
     1
290
     1
  0
XRECORD
  5
10A2
102
{ACAD_REACTORS
330
10A1
102
}
330
10A1
100
AcDbXrecord
280
     1
290
     1
  0
XRECORD
  5
103D
102
{ACAD_REACTORS
330
1028
102
}
330
1028
100
AcDbXrecord
280
     1
340
18
  0
XRECORD
  5
103C
102
{ACAD_REACTORS
330
1026
102
}
330
1026
100
AcDbXrecord
280
     1
340
15
  0
ACDBDETAILVIEWSTYLE
  5
108F
102
{ACAD_XDICTIONARY
360
10E9
102
}
102
{ACAD_REACTORS
330
108E
102
}
330
108E
100
AcDbModelDocViewStyle
 70
     0
  3
Imperial24
290
     0
100
AcDbDetailViewStyle
 70
     0
 71
     0
 90
        3
 71
     1
340
F
 40
0.24
340
0
 40
0.24
300

 40
0.36
280
     3
 71
     2
340
14
 90
       25
 71
     3
340
F
 40
0.24
 90
        1
 40
0.75
 90
        1
300
%<\AcVar ViewType \f "%tc1">% %<\AcVar ViewDetailId>%\PSCALE %<\AcVar ViewScale \f "%sn">%
 71
     4
340
14
 90
       25
340
14
 90
       25
280
     0
  0
LAYOUT
  5
1090
102
{ACAD_XDICTIONARY
360
10EB
102
}
102
{ACAD_REACTORS
330
5D
102
}
330
5D
100
AcDbPlotSettings
  1

  2
Canon LBP9100C
  4

  6

 40
0.0
 41
0.0
 42
0.0
 43
0.0
 44
0.0
 45
0.0
 46
0.0
 47
0.0
 48
0.0
 49
0.0
140
0.0
141
0.0
142
1.0
143
1.0
 70
  1712
 72
     0
 73
     0
 74
     0
  7

 75
     0
147
1.0
148
0.0
149
0.0
100
AcDbLayout
  1
Model
 70
     1
 71
     0
 10
0.0
 20
0.0
 11
12.0
 21
9.0
 12
0.0
 22
0.0
 32
0.0
 14
0.0
 24
0.0
 34
0.0
 15
0.0
 25
0.0
 35
0.0
146
0.0
 13
0.0
 23
0.0
 33
0.0
 16
1.0
 26
0.0
 36
0.0
 17
0.0
 27
1.0
 37
0.0
 76
     0
330
18
331
103B
  0
LAYOUT
  5
1091
102
{ACAD_XDICTIONARY
360
10ED
102
}
102
{ACAD_REACTORS
330
5D
102
}
330
5D
100
AcDbPlotSettings
  1

  2
Canon LBP9100C
  4

  6

 40
0.0
 41
0.0
 42
0.0
 43
0.0
 44
0.0
 45
0.0
 46
0.0
 47
0.0
 48
0.0
 49
0.0
140
0.0
141
0.0
142
1.0
143
1.0
 70
   688
 72
     0
 73
     0
 74
     5
  7

 75
    16
147
1.0
148
0.0
149
0.0
100
AcDbLayout
  1
レイアウト1
 70
     1
 71
     1
 10
0.0
 20
0.0
 11
420.0
 21
297.0
 12
0.0
 22
0.0
 32
0.0
 14
1.000000000000000E+20
 24
1.000000000000000E+20
 34
1.000000000000000E+20
 15
-1.000000000000000E+20
 25
-1.000000000000000E+20
 35
-1.000000000000000E+20
146
0.0
 13
0.0
 23
0.0
 33
0.0
 16
1.0
 26
0.0
 36
0.0
 17
0.0
 27
1.0
 37
0.0
 76
     0
330
15
  0
MATERIAL
  5
104C
102
{ACAD_XDICTIONARY
360
104D
102
}
102
{ACAD_REACTORS
330
1043
102
}
330
1043
100
AcDbMaterial
  1
ByBlock
 72
     0
 43
0.0208333333333333
 43
0.0
 43
0.0
 43
0.0
 43
0.0
 43
0.0208333333333333
 43
0.0
 43
0.0
 43
0.0
 43
0.0
 43
1.0
 43
0.0
 43
0.0
 43
0.0
 43
0.0
 43
1.0
 77
     0
 47
0.0208333333333333
 47
0.0
 47
0.0
 47
0.0
 47
0.0
 47
0.0208333333333333
 47
0.0
 47
0.0
 47
0.0
 47
0.0
 47
1.0
 47
0.0
 47
0.0
 47
0.0
 47
0.0
 47
1.0
171
     0
 49
0.0208333333333333
 49
0.0
 49
0.0
 49
0.0
 49
0.0
 49
0.0208333333333333
 49
0.0
 49
0.0
 49
0.0
 49
0.0
 49
1.0
 49
0.0
 49
0.0
 49
0.0
 49
0.0
 49
1.0
175
     0
142
0.0208333333333333
142
0.0
142
0.0
142
0.0
142
0.0
142
0.0208333333333333
142
0.0
142
0.0
142
0.0
142
0.0
142
1.0
142
0.0
142
0.0
142
0.0
142
0.0
142
1.0
179
     0
144
0.0208333333333333
144
0.0
144
0.0
144
0.0
144
0.0
144
0.0208333333333333
144
0.0
144
0.0
144
0.0
144
0.0
144
1.0
144
0.0
144
0.0
144
0.0
144
0.0
144
1.0
147
0.0208333333333333
147
0.0
147
0.0
147
0.0
147
0.0
147
0.0208333333333333
147
0.0
147
0.0
147
0.0
147
0.0
147
1.0
147
0.0
147
0.0
147
0.0
147
0.0
147
1.0
  0
MATERIAL
  5
1044
102
{ACAD_XDICTIONARY
360
1045
102
}
102
{ACAD_REACTORS
330
1043
102
}
330
1043
100
AcDbMaterial
  1
ByLayer
 72
     0
 43
0.0208333333333333
 43
0.0
 43
0.0
 43
0.0
 43
0.0
 43
0.0208333333333333
 43
0.0
 43
0.0
 43
0.0
 43
0.0
 43
1.0
 43
0.0
 43
0.0
 43
0.0
 43
0.0
 43
1.0
 77
     0
 47
0.0208333333333333
 47
0.0
 47
0.0
 47
0.0
 47
0.0
 47
0.0208333333333333
 47
0.0
 47
0.0
 47
0.0
 47
0.0
 47
1.0
 47
0.0
 47
0.0
 47
0.0
 47
0.0
 47
1.0
171
     0
 49
0.0208333333333333
 49
0.0
 49
0.0
 49
0.0
 49
0.0
 49
0.0208333333333333
 49
0.0
 49
0.0
 49
0.0
 49
0.0
 49
1.0
 49
0.0
 49
0.0
 49
0.0
 49
0.0
 49
1.0
175
     0
142
0.0208333333333333
142
0.0
142
0.0
142
0.0
142
0.0
142
0.0208333333333333
142
0.0
142
0.0
142
0.0
142
0.0
142
1.0
142
0.0
142
0.0
142
0.0
142
0.0
142
1.0
179
     0
144
0.0208333333333333
144
0.0
144
0.0
144
0.0
144
0.0
144
0.0208333333333333
144
0.0
144
0.0
144
0.0
144
0.0
144
1.0
144
0.0
144
0.0
144
0.0
144
0.0
144
1.0
147
0.0208333333333333
147
0.0
147
0.0
147
0.0
147
0.0
147
0.0208333333333333
147
0.0
147
0.0
147
0.0
147
0.0
147
1.0
147
0.0
147
0.0
147
0.0
147
0.0
147
1.0
  0
MATERIAL
  5
1054
102
{ACAD_XDICTIONARY
360
1055
102
}
102
{ACAD_REACTORS
330
1043
102
}
330
1043
100
AcDbMaterial
  1
Global
 72
     0
 43
0.0208333333333333
 43
0.0
 43
0.0
 43
0.0
 43
0.0
 43
0.0208333333333333
 43
0.0
 43
0.0
 43
0.0
 43
0.0
 43
1.0
 43
0.0
 43
0.0
 43
0.0
 43
0.0
 43
1.0
 77
     0
 47
0.0208333333333333
 47
0.0
 47
0.0
 47
0.0
 47
0.0
 47
0.0208333333333333
 47
0.0
 47
0.0
 47
0.0
 47
0.0
 47
1.0
 47
0.0
 47
0.0
 47
0.0
 47
0.0
 47
1.0
171
     0
 49
0.0208333333333333
 49
0.0
 49
0.0
 49
0.0
 49
0.0
 49
0.0208333333333333
 49
0.0
 49
0.0
 49
0.0
 49
0.0
 49
1.0
 49
0.0
 49
0.0
 49
0.0
 49
0.0
 49
1.0
175
     0
142
0.0208333333333333
142
0.0
142
0.0
142
0.0
142
0.0
142
0.0208333333333333
142
0.0
142
0.0
142
0.0
142
0.0
142
1.0
142
0.0
142
0.0
142
0.0
142
0.0
142
1.0
179
     0
144
0.0208333333333333
144
0.0
144
0.0
144
0.0
144
0.0
144
0.0208333333333333
144
0.0
144
0.0
144
0.0
144
0.0
144
1.0
144
0.0
144
0.0
144
0.0
144
0.0
144
1.0
147
0.0208333333333333
147
0.0
147
0.0
147
0.0
147
0.0
147
0.0208333333333333
147
0.0
147
0.0
147
0.0
147
0.0
147
1.0
147
0.0
147
0.0
147
0.0
147
0.0
147
1.0
  0
MLEADERSTYLE
  5
108B
102
{ACAD_REACTORS
330
108A
102
}
330
108A
100
AcDbMLeaderStyle
170
     2
171
     1
172
     0
 90
        2
 40
0.0
 41
0.0
173
     1
 91
-1056964608
340
12
 92
       -2
290
     1
 42
0.09
291
     1
 43
0.36
  3
Standard
 44
0.18
300

342
F
174
     1
178
     6
175
     1
176
     0
 93
-1056964608
 45
0.18
292
     0
297
     0
 46
0.18
 94
-1056964608
 47
1.0
 49
1.0
140
1.0
293
     1
141
0.0
294
     1
177
     0
142
1.0
295
     0
296
     0
143
0.125
1001
ACAD_MLEADERVER
1070
     2
  0
MLINESTYLE
  5
1C
102
{ACAD_REACTORS
330
1B
102
}
330
1B
100
AcDbMlineStyle
  2
STANDARD
 70
     0
  3

 62
   256
 51
90.0
 52
90.0
 71
     2
 49
0.5
 62
   256
  6
BYLAYER
 49
-0.5
 62
   256
  6
BYLAYER
  0
ACDBPLACEHOLDER
  5
1042
102
{ACAD_REACTORS
330
1041
102
}
330
1041
  0
SCALE
  5
1079
102
{ACAD_REACTORS
330
1078
102
}
330
1078
100
AcDbScale
 70
     0
300
1:1
140
1.0
141
1.0
290
     1
  0
SCALE
  5
107A
102
{ACAD_REACTORS
330
1078
102
}
330
1078
100
AcDbScale
 70
     0
300
1/128" = 1'-0"
140
0.0078125
141
12.0
290
     0
  0
SCALE
  5
107B
102
{ACAD_REACTORS
330
1078
102
}
330
1078
100
AcDbScale
 70
     0
300
1/64" = 1'-0"
140
0.015625
141
12.0
290
     0
  0
SCALE
  5
107C
102
{ACAD_REACTORS
330
1078
102
}
330
1078
100
AcDbScale
 70
     0
300
1/32" = 1'-0"
140
0.03125
141
12.0
290
     0
  0
SCALE
  5
107D
102
{ACAD_REACTORS
330
1078
102
}
330
1078
100
AcDbScale
 70
     0
300
1/16" = 1'-0"
140
0.0625
141
12.0
290
     0
  0
SCALE
  5
107E
102
{ACAD_REACTORS
330
1078
102
}
330
1078
100
AcDbScale
 70
     0
300
3/32" = 1'-0"
140
0.09375
141
12.0
290
     0
  0
SCALE
  5
107F
102
{ACAD_REACTORS
330
1078
102
}
330
1078
100
AcDbScale
 70
     0
300
1/8" = 1'-0"
140
0.125
141
12.0
290
     0
  0
SCALE
  5
1080
102
{ACAD_REACTORS
330
1078
102
}
330
1078
100
AcDbScale
 70
     0
300
3/16" = 1'-0"
140
0.1875
141
12.0
290
     0
  0
SCALE
  5
1081
102
{ACAD_REACTORS
330
1078
102
}
330
1078
100
AcDbScale
 70
     0
300
1/4" = 1'-0"
140
0.25
141
12.0
290
     0
  0
SCALE
  5
1082
102
{ACAD_REACTORS
330
1078
102
}
330
1078
100
AcDbScale
 70
     0
300
3/8" = 1'-0"
140
0.375
141
12.0
290
     0
  0
SCALE
  5
1083
102
{ACAD_REACTORS
330
1078
102
}
330
1078
100
AcDbScale
 70
     0
300
1/2" = 1'-0"
140
0.5
141
12.0
290
     0
  0
SCALE
  5
1084
102
{ACAD_REACTORS
330
1078
102
}
330
1078
100
AcDbScale
 70
     0
300
3/4" = 1'-0"
140
0.75
141
12.0
290
     0
  0
SCALE
  5
1085
102
{ACAD_REACTORS
330
1078
102
}
330
1078
100
AcDbScale
 70
     0
300
1" = 1'-0"
140
1.0
141
12.0
290
     0
  0
SCALE
  5
1086
102
{ACAD_REACTORS
330
1078
102
}
330
1078
100
AcDbScale
 70
     0
300
1-1/2" = 1'-0"
140
1.5
141
12.0
290
     0
  0
SCALE
  5
1087
102
{ACAD_REACTORS
330
1078
102
}
330
1078
100
AcDbScale
 70
     0
300
3" = 1'-0"
140
3.0
141
12.0
290
     0
  0
SCALE
  5
1088
102
{ACAD_REACTORS
330
1078
102
}
330
1078
100
AcDbScale
 70
     0
300
6" = 1'-0"
140
6.0
141
12.0
290
     0
  0
SCALE
  5
1089
102
{ACAD_REACTORS
330
1078
102
}
330
1078
100
AcDbScale
 70
     0
300
1'-0" = 1'-0"
140
12.0
141
12.0
290
     0
  0
ACDBSECTIONVIEWSTYLE
  5
108D
102
{ACAD_XDICTIONARY
360
10E7
102
}
102
{ACAD_REACTORS
330
108C
102
}
330
108C
100
AcDbModelDocViewStyle
 70
     0
  3
Imperial24
290
     0
100
AcDbSectionViewStyle
 70
     0
 71
     0
 90
       78
 71
     1
340
F
 40
0.24
340
0
340
0
 40
0.24
300
I, O, Q, S, X, Z
 40
0.48
 90
        3
 40
0.18
 90
        1
 71
     2
340
14
 90
       25
340
14
 90
       50
 40
0.24
 40
0.0
 40
0.24
 71
     3
340
F
 40
0.24
 90
        1
 40
0.75
 90
        1
300
%<\AcVar ViewType \f "%tc1">% %<\AcVar ViewSectionStartId>%-%<\AcVar ViewSectionEndId>%\PSCALE %<\AcVar ViewScale \f "%sn">%
 71
     4
300
ANSI31
 40
1.0
 90
        0
290
     0
290
     0
 90
        6
 40
0.0
 40
1.570796326794896
 40
0.2617993877991494
 40
1.308996938995747
 40
-0.2617993877991494
 40
1.832595714594046
  0
TABLESTYLE
  5
1077
102
{ACAD_XDICTIONARY
360
10AE
102
}
102
{ACAD_REACTORS
330
1076
102
}
330
1076
100
AcDbTableStyle
  3
Standard
 70
     0
 71
     0
 40
0.06
 41
0.06
280
     0
281
     0
  7
STANDARD
140
0.18
170
     2
 62
     0
 63
     7
283
     0
274
    -2
284
     1
 64
     0
275
    -2
285
     1
 65
     0
276
    -2
286
     1
 66
     0
277
    -2
287
     1
 67
     0
278
    -2
288
     1
 68
     0
279
    -2
289
     1
 69
     0
  7
STANDARD
140
0.25
170
     5
 62
     0
 63
     7
283
     0
274
    -2
284
     1
 64
     0
275
    -2
285
     1
 65
     0
276
    -2
286
     1
 66
     0
277
    -2
287
     1
 67
     0
278
    -2
288
     1
 68
     0
279
    -2
289
     1
 69
     0
  7
STANDARD
140
0.18
170
     5
 62
     0
 63
     7
283
     0
274
    -2
284
     1
 64
     0
275
    -2
285
     1
 65
     0
276
    -2
286
     1
 66
     0
277
    -2
287
     1
 67
     0
278
    -2
288
     1
 68
     0
279
    -2
289
     1
 69
     0
  0
VISUALSTYLE
  5
1062
102
{ACAD_XDICTIONARY
360
10BF
102
}
102
{ACAD_REACTORS
330
105C
102
}
330
105C
100
AcDbVisualStyle
  2
2dWireframe
 70
     4
 71
     0
 72
     2
 73
     0
 90
        0
 40
-0.6
 41
-30.0
 62
     5
 63
     7
 74
     1
 91
        4
 64
     7
 65
   257
 75
     1
175
     1
 42
1.0
 92
        0
 66
   257
 43
1.0
 76
     1
 77
     6
 78
     2
 67
     7
 79
     5
170
     0
171
     0
290
     0
174
     0
 93
        1
 44
0.0
173
     0
291
     0
 45
0.0
1001
ACAD
1000
AcDbSavedByObjectVersion
1070
     0
  0
VISUALSTYLE
  5
1061
102
{ACAD_XDICTIONARY
360
10BD
102
}
102
{ACAD_REACTORS
330
105C
102
}
330
105C
100
AcDbVisualStyle
  2
Basic
 70
     7
 71
     1
 72
     0
 73
     1
 90
        0
 40
-0.6
 41
-30.0
 62
     5
 63
     7
 74
     0
 91
        4
 64
     7
 65
   257
 75
     1
175
     1
 42
1.0
 92
        8
 66
     7
 43
1.0
 76
     1
 77
     6
 78
     2
 67
     7
 79
     5
170
     0
171
     0
290
     0
174
     0
 93
        1
 44
0.0
173
     0
291
     1
 45
0.0
1001
ACAD
1000
AcDbSavedByObjectVersion
1070
     0
  0
VISUALSTYLE
  5
1068
102
{ACAD_XDICTIONARY
360
10CB
102
}
102
{ACAD_REACTORS
330
105C
102
}
330
105C
100
AcDbVisualStyle
  2
Brighten
 70
    12
 71
     2
 72
     2
 73
     0
 90
        0
 40
-0.6
 41
-30.0
 62
     5
 63
     7
 74
     1
 91
        4
 64
     7
 65
   257
 75
     1
175
     1
 42
1.0
 92
        8
 66
     7
 43
1.0
 76
     1
 77
     6
 78
     2
 67
     7
 79
     5
170
     0
171
     0
290
     0
174
     0
 93
        1
 44
50.0
173
     0
291
     1
 45
0.0
1001
ACAD
1000
AcDbSavedByObjectVersion
1070
     0
  0
VISUALSTYLE
  5
106C
102
{ACAD_XDICTIONARY
360
10D3
102
}
102
{ACAD_REACTORS
330
105C
102
}
330
105C
100
AcDbVisualStyle
  2
ColorChange
 70
    16
 71
     2
 72
     2
 73
     3
 90
        0
 40
-0.6
 41
-30.0
 62
     5
 63
     8
 74
     1
 91
        4
 64
     7
 65
   257
 75
     1
175
     1
 42
1.0
 92
        8
 66
     8
 43
1.0
 76
     1
 77
     6
 78
     2
 67
     7
 79
     5
170
     0
171
     0
290
     0
174
     0
 93
        1
 44
0.0
173
     0
291
     1
 45
0.0
1001
ACAD
1000
AcDbSavedByObjectVersion
1070
     0
  0
VISUALSTYLE
  5
1065
102
{ACAD_XDICTIONARY
360
10C5
102
}
102
{ACAD_REACTORS
330
105C
102
}
330
105C
100
AcDbVisualStyle
  2
Conceptual
 70
     9
 71
     3
 72
     2
 73
     0
 90
        0
 40
-0.6
 41
-30.0
 62
     5
 63
     7
 74
     2
 91
        2
 64
     7
 65
   257
 75
     1
175
     1
 42
179.0
 92
        8
 66
     7
 43
1.0
 76
     1
 77
     6
 78
     2
 67
     7
 79
     3
170
     0
171
     0
290
     0
174
     0
 93
        1
 44
0.0
173
     0
291
     0
 45
0.0
1001
ACAD
1000
AcDbSavedByObjectVersion
1070
     0
  0
VISUALSTYLE
  5
1067
102
{ACAD_XDICTIONARY
360
10C9
102
}
102
{ACAD_REACTORS
330
105C
102
}
330
105C
100
AcDbVisualStyle
  2
Dim
 70
    11
 71
     2
 72
     2
 73
     0
 90
        0
 40
-0.6
 41
-30.0
 62
     5
 63
     7
 74
     1
 91
        4
 64
     7
 65
   257
 75
     1
175
     1
 42
1.0
 92
        8
 66
     7
 43
1.0
 76
     1
 77
     6
 78
     2
 67
     7
 79
     5
170
     0
171
     0
290
     0
174
     0
 93
        1
 44
-50.0
173
     0
291
     1
 45
0.0
1001
ACAD
1000
AcDbSavedByObjectVersion
1070
     0
  0
VISUALSTYLE
  5
1074
102
{ACAD_XDICTIONARY
360
10E3
102
}
102
{ACAD_REACTORS
330
105C
102
}
330
105C
100
AcDbVisualStyle
  2
EdgeColorOff
 70
    22
 71
     2
 72
     2
 73
     0
 90
        0
 40
-0.6
 41
-30.0
 62
     5
 63
     7
 74
     1
 91
        4
 64
     7
 65
   257
 75
     1
175
     1
 42
1.0
 92
        8
 66
     7
 43
1.0
 76
     1
 77
     6
 78
     2
 67
     7
 79
     5
170
     0
171
     0
290
     0
174
     0
 93
        1
 44
0.0
173
     0
291
     1
 45
0.0
1001
ACAD
1000
AcDbSavedByObjectVersion
1070
     0
  0
VISUALSTYLE
  5
106B
102
{ACAD_XDICTIONARY
360
10D1
102
}
102
{ACAD_REACTORS
330
105C
102
}
330
105C
100
AcDbVisualStyle
  2
Facepattern
 70
    15
 71
     2
 72
     2
 73
     0
 90
        0
 40
-0.6
 41
-30.0
 62
     5
 63
     7
 74
     1
 91
        4
 64
     7
 65
   257
 75
     1
175
     1
 42
1.0
 92
        8
 66
     7
 43
1.0
 76
     1
 77
     6
 78
     2
 67
     7
 79
     5
170
     0
171
     0
290
     0
174
     0
 93
        1
 44
0.0
173
     0
291
     1
 45
0.0
1001
ACAD
1000
AcDbSavedByObjectVersion
1070
     0
  0
VISUALSTYLE
  5
105D
102
{ACAD_XDICTIONARY
360
10B5
102
}
102
{ACAD_REACTORS
330
105C
102
}
330
105C
100
AcDbVisualStyle
  2
Flat
 70
     0
 71
     2
 72
     1
 73
     1
 90
        2
 40
-0.6
 41
30.0
 62
     5
 63
     7
 74
     0
 91
        0
 64
     7
 65
   257
 75
     1
175
     1
 42
1.0
 92
        8
 66
     7
 43
1.0
 76
     1
 77
     6
 78
     2
 67
     7
 79
     5
170
     0
171
     0
290
     0
174
     0
 93
       13
 44
0.0
173
     0
291
     1
 45
0.0
1001
ACAD
1000
AcDbSavedByObjectVersion
1070
     0
  0
VISUALSTYLE
  5
105E
102
{ACAD_XDICTIONARY
360
10B7
102
}
102
{ACAD_REACTORS
330
105C
102
}
330
105C
100
AcDbVisualStyle
  2
FlatWithEdges
 70
     1
 71
     2
 72
     1
 73
     1
 90
        2
 40
-0.6
 41
30.0
 62
     5
 63
     7
 74
     1
 91
        0
 64
     7
 65
   257
 75
     1
175
     1
 42
1.0
 92
        0
 66
   257
 43
1.0
 76
     1
 77
     6
 78
     2
 67
     7
 79
     5
170
     0
171
     0
290
     0
174
     0
 93
       13
 44
0.0
173
     0
291
     1
 45
0.0
1001
ACAD
1000
AcDbSavedByObjectVersion
1070
     0
  0
VISUALSTYLE
  5
105F
102
{ACAD_XDICTIONARY
360
10B9
102
}
102
{ACAD_REACTORS
330
105C
102
}
330
105C
100
AcDbVisualStyle
  2
Gouraud
 70
     2
 71
     2
 72
     2
 73
     1
 90
        2
 40
-0.6
 41
30.0
 62
     5
 63
     7
 74
     0
 91
        0
 64
     7
 65
   257
 75
     1
175
     1
 42
1.0
 92
        0
 66
     7
 43
1.0
 76
     1
 77
     6
 78
     2
 67
     7
 79
     5
170
     0
171
     0
290
     0
174
     0
 93
       13
 44
0.0
173
     0
291
     1
 45
0.0
1001
ACAD
1000
AcDbSavedByObjectVersion
1070
     0
  0
VISUALSTYLE
  5
1060
102
{ACAD_XDICTIONARY
360
10BB
102
}
102
{ACAD_REACTORS
330
105C
102
}
330
105C
100
AcDbVisualStyle
  2
GouraudWithEdges
 70
     3
 71
     2
 72
     2
 73
     1
 90
        2
 40
-0.6
 41
30.0
 62
     5
 63
     7
 74
     1
 91
        0
 64
     7
 65
   257
 75
     1
175
     1
 42
1.0
 92
        0
 66
   257
 43
1.0
 76
     1
 77
     6
 78
     2
 67
     7
 79
     5
170
     0
171
     0
290
     0
174
     0
 93
       13
 44
0.0
173
     0
291
     1
 45
0.0
1001
ACAD
1000
AcDbSavedByObjectVersion
1070
     0
  0
VISUALSTYLE
  5
1064
102
{ACAD_XDICTIONARY
360
10C3
102
}
102
{ACAD_REACTORS
330
105C
102
}
330
105C
100
AcDbVisualStyle
  2
Hidden
 70
     6
 71
     1
 72
     2
 73
     2
 90
        0
 40
-0.6
 41
-30.0
 62
     5
 63
     7
 74
     2
 91
        2
 64
     7
 65
   257
 75
     2
175
     1
 42
40.0
 92
        0
 66
   257
 43
1.0
 76
     1
 77
     6
 78
     2
 67
     7
 79
     3
170
     0
171
     0
290
     0
174
     0
 93
        1
 44
0.0
173
     0
291
     0
 45
0.0
1001
ACAD
1000
AcDbSavedByObjectVersion
1070
     0
  0
VISUALSTYLE
  5
1072
102
{ACAD_XDICTIONARY
360
10DF
102
}
102
{ACAD_REACTORS
330
105C
102
}
330
105C
100
AcDbVisualStyle
  2
JitterOff
 70
    20
 71
     2
 72
     2
 73
     0
 90
        0
 40
-0.6
 41
-30.0
 62
     5
 63
     7
 74
     1
 91
        4
 64
     7
 65
   257
 75
     1
175
     1
 42
1.0
 92
       10
 66
     7
 43
1.0
 76
     1
 77
     6
 78
     2
 67
     7
 79
     5
170
     0
171
     0
290
     0
174
     0
 93
        1
 44
0.0
173
     0
291
     1
 45
0.0
1001
ACAD
1000
AcDbSavedByObjectVersion
1070
     0
  0
VISUALSTYLE
  5
106A
102
{ACAD_XDICTIONARY
360
10CF
102
}
102
{ACAD_REACTORS
330
105C
102
}
330
105C
100
AcDbVisualStyle
  2
Linepattern
 70
    14
 71
     2
 72
     2
 73
     0
 90
        0
 40
-0.6
 41
-30.0
 62
     5
 63
     7
 74
     1
 91
        4
 64
     7
 65
   257
 75
     7
175
     7
 42
1.0
 92
        8
 66
     7
 43
1.0
 76
     1
 77
     6
 78
     2
 67
     7
 79
     5
170
     0
171
     0
290
     0
174
     0
 93
        1
 44
0.0
173
     0
291
     1
 45
0.0
1001
ACAD
1000
AcDbSavedByObjectVersion
1070
     0
  0
VISUALSTYLE
  5
1073
102
{ACAD_XDICTIONARY
360
10E1
102
}
102
{ACAD_REACTORS
330
105C
102
}
330
105C
100
AcDbVisualStyle
  2
OverhangOff
 70
    21
 71
     2
 72
     2
 73
     0
 90
        0
 40
-0.6
 41
-30.0
 62
     5
 63
     7
 74
     1
 91
        4
 64
     7
 65
   257
 75
     1
175
     1
 42
1.0
 92
        9
 66
     7
 43
1.0
 76
     1
 77
     6
 78
     2
 67
     7
 79
     5
170
     0
171
     0
290
     0
174
     0
 93
        1
 44
0.0
173
     0
291
     1
 45
0.0
1001
ACAD
1000
AcDbSavedByObjectVersion
1070
     0
  0
VISUALSTYLE
  5
1066
102
{ACAD_XDICTIONARY
360
10C7
102
}
102
{ACAD_REACTORS
330
105C
102
}
330
105C
100
AcDbVisualStyle
  2
Realistic
 70
     8
 71
     2
 72
     3
 73
     0
 90
        2
 40
-0.6
 41
30.0
 62
     5
 63
     7
 74
     0
 91
        0
 64
     7
 65
   257
 75
     1
175
     1
 42
1.0
 92
        8
 66
   257
 43
1.0
 76
     1
 77
     6
 78
     2
 67
     7
 79
     3
170
     0
171
     0
290
     0
174
     0
 93
       13
 44
0.0
173
     0
291
     0
 45
0.0
1001
ACAD
1000
AcDbSavedByObjectVersion
1070
     0
  0
VISUALSTYLE
  5
1071
102
{ACAD_XDICTIONARY
360
10DD
102
}
102
{ACAD_REACTORS
330
105C
102
}
330
105C
100
AcDbVisualStyle
  2
Shaded
 70
    27
 71
     2
 72
     2
 73
     1
 90
        2
 40
-0.6
 41
30.0
 62
     5
 63
     7
 74
     0
 91
        4
 64
     7
 65
   257
 75
     1
175
     1
 42
1.0
 92
        8
 66
   257
 43
1.0
 76
     1
 77
     6
 78
     2
 67
     8
 79
     3
170
     0
171
     0
290
     0
174
     0
 93
        5
 44
0.0
173
     0
291
     0
 45
0.0
1001
ACAD
1000
AcDbSavedByObjectVersion
1070
     0
  0
VISUALSTYLE
  5
1070
102
{ACAD_XDICTIONARY
360
10DB
102
}
102
{ACAD_REACTORS
330
105C
102
}
330
105C
100
AcDbVisualStyle
  2
Shaded with edges
 70
    26
 71
     2
 72
     2
 73
     1
 90
        2
 40
-0.6
 41
30.0
 62
     5
 63
     7
 74
     1
 91
       10
 64
     7
 65
   257
 75
     2
175
     1
 42
1.0
 92
        8
 66
   257
 43
1.0
 76
     1
 77
     6
 78
     2
 67
     7
 79
     3
170
     0
171
     0
290
     0
174
     0
 93
        5
 44
0.0
173
     0
291
     0
 45
0.0
1001
ACAD
1000
AcDbSavedByObjectVersion
1070
     0
  0
VISUALSTYLE
  5
106D
102
{ACAD_XDICTIONARY
360
10D5
102
}
102
{ACAD_REACTORS
330
105C
102
}
330
105C
100
AcDbVisualStyle
  2
Shades of Gray
 70
    23
 71
     2
 72
     2
 73
     3
 90
        0
 40
-0.6
 41
-30.0
 62
     5
 63
     7
 74
     2
 91
        2
 64
     7
 65
     7
 75
     1
175
     1
 42
40.0
 92
        8
 66
     7
 43
1.0
 76
     1
 77
     6
 78
     2
 67
     7
 79
     3
170
     0
171
     0
290
     0
174
     0
 93
        1
 44
0.0
173
     0
291
     0
 45
0.0
1001
ACAD
1000
AcDbSavedByObjectVersion
1070
     0
  0
VISUALSTYLE
  5
106E
102
{ACAD_XDICTIONARY
360
10D7
102
}
102
{ACAD_REACTORS
330
105C
102
}
330
105C
100
AcDbVisualStyle
  2
Sketchy
 70
    24
 71
     1
 72
     2
 73
     2
 90
        0
 40
-0.6
 41
-30.0
 62
     5
 63
     7
 74
     2
 91
        2
 64
     7
 65
     7
 75
     1
175
     1
 42
40.0
 92
       11
 66
     7
 43
1.0
 76
     1
 77
     6
 78
     2
 67
     7
 79
     6
170
     0
171
     0
290
     0
174
     0
 93
        1
 44
0.0
173
     0
291
     0
 45
0.0
1001
ACAD
1000
AcDbSavedByObjectVersion
1070
     0
  0
VISUALSTYLE
  5
1069
102
{ACAD_XDICTIONARY
360
10CD
102
}
102
{ACAD_REACTORS
330
105C
102
}
330
105C
100
AcDbVisualStyle
  2
Thicken
 70
    13
 71
     2
 72
     2
 73
     0
 90
        0
 40
-0.6
 41
-30.0
 62
     5
 63
     7
 74
     1
 91
        4
 64
     7
 65
   257
 75
     1
175
     1
 42
1.0
 92
       12
 66
     7
 43
1.0
 76
     1
 77
     6
 78
     2
 67
     7
 79
     5
170
     0
171
     0
290
     0
174
     0
 93
        1
 44
0.0
173
     0
291
     1
 45
0.0
1001
ACAD
1000
AcDbSavedByObjectVersion
1070
     0
  0
VISUALSTYLE
  5
1063
102
{ACAD_XDICTIONARY
360
10C1
102
}
102
{ACAD_REACTORS
330
105C
102
}
330
105C
100
AcDbVisualStyle
  2
Wireframe
 70
     5
 71
     0
 72
     2
 73
     0
 90
        0
 40
-0.6
 41
-30.0
 62
     5
 63
     7
 74
     1
 91
        4
 64
     7
 65
   257
 75
     1
175
     1
 42
1.0
 92
        0
 66
   257
 43
1.0
 76
     1
 77
     6
 78
     2
 67
     7
 79
     3
170
     0
171
     0
290
     0
174
     0
 93
        1
 44
0.0
173
     0
291
     0
 45
0.0
1001
ACAD
1000
AcDbSavedByObjectVersion
1070
     0
  0
VISUALSTYLE
  5
106F
102
{ACAD_XDICTIONARY
360
10D9
102
}
102
{ACAD_REACTORS
330
105C
102
}
330
105C
100
AcDbVisualStyle
  2
X-Ray
 70
    25
 71
     2
 72
     2
 73
     1
 90
        1
 40
0.5
 41
-30.0
 62
     5
 63
     7
 74
     1
 91
        0
 64
     7
 65
   257
 75
     1
175
     1
 42
1.0
 92
        8
 66
     7
 43
1.0
 76
     1
 77
     6
 78
     2
 67
     7
 79
     3
170
     0
171
     0
290
     0
174
     0
 93
       13
 44
0.0
173
     0
291
     0
 45
0.0
1001
ACAD
1000
AcDbSavedByObjectVersion
1070
     0
  0
DICTIONARYVAR
  5
10A8
102
{ACAD_REACTORS
330
10A3
102
}
330
10A3
100
DictionaryVariables
280
     0
  1
1:1
  0
DICTIONARYVAR
  5
10A5
102
{ACAD_REACTORS
330
10A3
102
}
330
10A3
100
DictionaryVariables
280
     0
  1
STANDARD
  0
DICTIONARYVAR
  5
10A4
102
{ACAD_REACTORS
330
10A3
102
}
330
10A3
100
DictionaryVariables
280
     0
  1
STANDARD
  0
DICTIONARYVAR
  5
10A6
102
{ACAD_REACTORS
330
10A3
102
}
330
10A3
100
DictionaryVariables
280
     0
  1
Imperial24
  0
DICTIONARYVAR
  5
10A7
102
{ACAD_REACTORS
330
10A3
102
}
330
10A3
100
DictionaryVariables
280
     0
  1
Imperial24
  0
DICTIONARYVAR
  5
10AB
102
{ACAD_REACTORS
330
10A3
102
}
330
10A3
100
DictionaryVariables
280
     0
  1
1
  0
DICTIONARYVAR
  5
10AA
102
{ACAD_REACTORS
330
10A3
102
}
330
10A3
100
DictionaryVariables
280
     0
  1
0
  0
DICTIONARYVAR
  5
10A9
102
{ACAD_REACTORS
330
10A3
102
}
330
10A3
100
DictionaryVariables
280
     0
  1
127
  0
DICTIONARYVAR
  5
10AC
102
{ACAD_REACTORS
330
10A3
102
}
330
10A3
100
DictionaryVariables
280
     0
  1
2
  0
DICTIONARY
  5
10E9
330
108F
100
AcDbDictionary
280
     1
281
     1
  3
ACAD_XREC_ROUNDTRIP
360
10EA
  0
DICTIONARY
  5
10EB
330
1090
100
AcDbDictionary
280
     1
281
     1
  3
ACAD_XREC_ROUNDTRIP
360
10EC
  0
DICTIONARY
  5
10ED
330
1091
100
AcDbDictionary
280
     1
281
     1
  3
ACAD_XREC_ROUNDTRIP
360
10EE
  0
DICTIONARY
  5
104D
330
104C
100
AcDbDictionary
280
     1
281
     1
  3
ACAD_XREC_ROUNDTRIP
360
10B3
  3
BUMPTILE
360
104F
  3
DIFFUSETILE
360
104E
  3
OPACITYTILE
360
1052
  3
REFLECTIONTILE
360
1051
  3
REFRACTIONTILE
360
1053
  3
SPECULARTILE
360
1050
  0
DICTIONARY
  5
1045
330
1044
100
AcDbDictionary
280
     1
281
     1
  3
ACAD_XREC_ROUNDTRIP
360
10B2
  3
BUMPTILE
360
1047
  3
DIFFUSETILE
360
1046
  3
OPACITYTILE
360
104A
  3
REFLECTIONTILE
360
1049
  3
REFRACTIONTILE
360
104B
  3
SPECULARTILE
360
1048
  0
DICTIONARY
  5
1055
330
1054
100
AcDbDictionary
280
     1
281
     1
  3
ACAD_XREC_ROUNDTRIP
360
10B4
  3
BUMPTILE
360
1057
  3
DIFFUSETILE
360
1056
  3
OPACITYTILE
360
105A
  3
REFLECTIONTILE
360
1059
  3
REFRACTIONTILE
360
105B
  3
SPECULARTILE
360
1058
  0
DICTIONARY
  5
10E7
330
108D
100
AcDbDictionary
280
     1
281
     1
  3
ACAD_XREC_ROUNDTRIP
360
10E8
  0
DICTIONARY
  5
10AE
330
1077
100
AcDbDictionary
280
     1
281
     1
  3
ACAD_ROUNDTRIP_2008_TABLESTYLE_CELLSTYLEMAP
360
10AF
  3
ACAD_XREC_ROUNDTRIP
360
10E5
  0
DICTIONARY
  5
10BF
330
1062
100
AcDbDictionary
280
     1
281
     1
  3
ACAD_XREC_ROUNDTRIP
360
10C0
  0
DICTIONARY
  5
10BD
330
1061
100
AcDbDictionary
280
     1
281
     1
  3
ACAD_XREC_ROUNDTRIP
360
10BE
  0
DICTIONARY
  5
10CB
330
1068
100
AcDbDictionary
280
     1
281
     1
  3
ACAD_XREC_ROUNDTRIP
360
10CC
  0
DICTIONARY
  5
10D3
330
106C
100
AcDbDictionary
280
     1
281
     1
  3
ACAD_XREC_ROUNDTRIP
360
10D4
  0
DICTIONARY
  5
10C5
330
1065
100
AcDbDictionary
280
     1
281
     1
  3
ACAD_XREC_ROUNDTRIP
360
10C6
  0
DICTIONARY
  5
10C9
330
1067
100
AcDbDictionary
280
     1
281
     1
  3
ACAD_XREC_ROUNDTRIP
360
10CA
  0
DICTIONARY
  5
10E3
330
1074
100
AcDbDictionary
280
     1
281
     1
  3
ACAD_XREC_ROUNDTRIP
360
10E4
  0
DICTIONARY
  5
10D1
330
106B
100
AcDbDictionary
280
     1
281
     1
  3
ACAD_XREC_ROUNDTRIP
360
10D2
  0
DICTIONARY
  5
10B5
330
105D
100
AcDbDictionary
280
     1
281
     1
  3
ACAD_XREC_ROUNDTRIP
360
10B6
  0
DICTIONARY
  5
10B7
330
105E
100
AcDbDictionary
280
     1
281
     1
  3
ACAD_XREC_ROUNDTRIP
360
10B8
  0
DICTIONARY
  5
10B9
330
105F
100
AcDbDictionary
280
     1
281
     1
  3
ACAD_XREC_ROUNDTRIP
360
10BA
  0
DICTIONARY
  5
10BB
330
1060
100
AcDbDictionary
280
     1
281
     1
  3
ACAD_XREC_ROUNDTRIP
360
10BC
  0
DICTIONARY
  5
10C3
330
1064
100
AcDbDictionary
280
     1
281
     1
  3
ACAD_XREC_ROUNDTRIP
360
10C4
  0
DICTIONARY
  5
10DF
330
1072
100
AcDbDictionary
280
     1
281
     1
  3
ACAD_XREC_ROUNDTRIP
360
10E0
  0
DICTIONARY
  5
10CF
330
106A
100
AcDbDictionary
280
     1
281
     1
  3
ACAD_XREC_ROUNDTRIP
360
10D0
  0
DICTIONARY
  5
10E1
330
1073
100
AcDbDictionary
280
     1
281
     1
  3
ACAD_XREC_ROUNDTRIP
360
10E2
  0
DICTIONARY
  5
10C7
330
1066
100
AcDbDictionary
280
     1
281
     1
  3
ACAD_XREC_ROUNDTRIP
360
10C8
  0
DICTIONARY
  5
10DD
330
1071
100
AcDbDictionary
280
     1
281
     1
  3
ACAD_XREC_ROUNDTRIP
360
10DE
  0
DICTIONARY
  5
10DB
330
1070
100
AcDbDictionary
280
     1
281
     1
  3
ACAD_XREC_ROUNDTRIP
360
10DC
  0
DICTIONARY
  5
10D5
330
106D
100
AcDbDictionary
280
     1
281
     1
  3
ACAD_XREC_ROUNDTRIP
360
10D6
  0
DICTIONARY
  5
10D7
330
106E
100
AcDbDictionary
280
     1
281
     1
  3
ACAD_XREC_ROUNDTRIP
360
10D8
  0
DICTIONARY
  5
10CD
330
1069
100
AcDbDictionary
280
     1
281
     1
  3
ACAD_XREC_ROUNDTRIP
360
10CE
  0
DICTIONARY
  5
10C1
330
1063
100
AcDbDictionary
280
     1
281
     1
  3
ACAD_XREC_ROUNDTRIP
360
10C2
  0
DICTIONARY
  5
10D9
330
106F
100
AcDbDictionary
280
     1
281
     1
  3
ACAD_XREC_ROUNDTRIP
360
10DA
  0
XRECORD
  5
10EA
102
{ACAD_REACTORS
330
10E9
102
}
330
10E9
100
AcDbXrecord
280
     1
102
DISPLAYNAME
  1
Imperial24
102
FLAGS
 90
        0
  0
XRECORD
  5
10EC
102
{ACAD_REACTORS
330
10EB
102
}
330
10EB
100
AcDbXrecord
280
     1
102
SHADEPLOT
 70
     0
102
SHADEPLOTRESLEVEL
 70
     2
102
SHADEPLOTCUSTOMDPI
 70
   300
  0
XRECORD
  5
10EE
102
{ACAD_REACTORS
330
10ED
102
}
330
10ED
100
AcDbXrecord
280
     1
102
SHADEPLOT
 70
     0
102
SHADEPLOTRESLEVEL
 70
     2
102
SHADEPLOTCUSTOMDPI
 70
   300
  0
XRECORD
  5
10B3
102
{ACAD_REACTORS
330
104D
102
}
330
104D
100
AcDbXrecord
280
     1
102
MATERIAL
148
0.0
149
0.0
149
0.0
 93
        0
 94
      127
282
     0
 72
     0
 77
     0
171
     0
175
     0
179
     0
273
     0
  0
XRECORD
  5
104F
102
{ACAD_REACTORS
330
104D
102
}
330
104D
100
AcDbXrecord
280
     1
270
     1
271
     1
  0
XRECORD
  5
104E
102
{ACAD_REACTORS
330
104D
102
}
330
104D
100
AcDbXrecord
280
     1
270
     1
271
     1
  0
XRECORD
  5
1052
102
{ACAD_REACTORS
330
104D
102
}
330
104D
100
AcDbXrecord
280
     1
270
     1
271
     1
  0
XRECORD
  5
1051
102
{ACAD_REACTORS
330
104D
102
}
330
104D
100
AcDbXrecord
280
     1
270
     1
271
     1
  0
XRECORD
  5
1053
102
{ACAD_REACTORS
330
104D
102
}
330
104D
100
AcDbXrecord
280
     1
270
     1
271
     1
  0
XRECORD
  5
1050
102
{ACAD_REACTORS
330
104D
102
}
330
104D
100
AcDbXrecord
280
     1
270
     1
271
     1
  0
XRECORD
  5
10B2
102
{ACAD_REACTORS
330
1045
102
}
330
1045
100
AcDbXrecord
280
     1
102
MATERIAL
148
0.0
149
0.0
149
0.0
 93
        0
 94
      127
282
     0
 72
     0
 77
     0
171
     0
175
     0
179
     0
273
     0
  0
XRECORD
  5
1047
102
{ACAD_REACTORS
330
1045
102
}
330
1045
100
AcDbXrecord
280
     1
270
     1
271
     1
  0
XRECORD
  5
1046
102
{ACAD_REACTORS
330
1045
102
}
330
1045
100
AcDbXrecord
280
     1
270
     1
271
     1
  0
XRECORD
  5
104A
102
{ACAD_REACTORS
330
1045
102
}
330
1045
100
AcDbXrecord
280
     1
270
     1
271
     1
  0
XRECORD
  5
1049
102
{ACAD_REACTORS
330
1045
102
}
330
1045
100
AcDbXrecord
280
     1
270
     1
271
     1
  0
XRECORD
  5
104B
102
{ACAD_REACTORS
330
1045
102
}
330
1045
100
AcDbXrecord
280
     1
270
     1
271
     1
  0
XRECORD
  5
1048
102
{ACAD_REACTORS
330
1045
102
}
330
1045
100
AcDbXrecord
280
     1
270
     1
271
     1
  0
XRECORD
  5
10B4
102
{ACAD_REACTORS
330
1055
102
}
330
1055
100
AcDbXrecord
280
     1
102
MATERIAL
148
0.0
149
0.0
149
0.0
 93
        0
 94
      127
282
     0
 72
     0
 77
     0
171
     0
175
     0
179
     0
273
     0
  0
XRECORD
  5
1057
102
{ACAD_REACTORS
330
1055
102
}
330
1055
100
AcDbXrecord
280
     1
270
     1
271
     1
  0
XRECORD
  5
1056
102
{ACAD_REACTORS
330
1055
102
}
330
1055
100
AcDbXrecord
280
     1
270
     1
271
     1
  0
XRECORD
  5
105A
102
{ACAD_REACTORS
330
1055
102
}
330
1055
100
AcDbXrecord
280
     1
270
     1
271
     1
  0
XRECORD
  5
1059
102
{ACAD_REACTORS
330
1055
102
}
330
1055
100
AcDbXrecord
280
     1
270
     1
271
     1
  0
XRECORD
  5
105B
102
{ACAD_REACTORS
330
1055
102
}
330
1055
100
AcDbXrecord
280
     1
270
     1
271
     1
  0
XRECORD
  5
1058
102
{ACAD_REACTORS
330
1055
102
}
330
1055
100
AcDbXrecord
280
     1
270
     1
271
     1
  0
XRECORD
  5
10E8
102
{ACAD_REACTORS
330
10E7
102
}
330
10E7
100
AcDbXrecord
280
     1
102
DISPLAYNAME
  1
Imperial24
102
FLAGS
 90
        0
  0
CELLSTYLEMAP
  5
10AF
102
{ACAD_REACTORS
330
10AE
102
}
330
10AE
100
AcDbCellStyleMap
 90
        3
300
CELLSTYLE
  1
TABLEFORMAT_BEGIN
 90
        5
170
     1
 91
        0
 92
    32768
 62
   257
 93
        1
300
CONTENTFORMAT
  1
CONTENTFORMAT_BEGIN
 90
        0
 91
        0
 92
      512
 93
        0
300

 40
0.0
140
1.0
 94
        5
 62
     0
340
F
144
0.25
309
CONTENTFORMAT_END
171
     0
 94
        0
309
TABLEFORMAT_END
  1
CELLSTYLE_BEGIN
 90
        1
 91
        1
300
_TITLE
309
CELLSTYLE_END
300
CELLSTYLE
  1
TABLEFORMAT_BEGIN
 90
        5
170
     1
 91
        0
 92
        0
 62
   257
 93
        1
300
CONTENTFORMAT
  1
CONTENTFORMAT_BEGIN
 90
        0
 91
        0
 92
      512
 93
        0
300

 40
0.0
140
1.0
 94
        5
 62
     0
340
F
144
0.18
309
CONTENTFORMAT_END
171
     0
 94
        0
309
TABLEFORMAT_END
  1
CELLSTYLE_BEGIN
 90
        2
 91
        1
300
_HEADER
309
CELLSTYLE_END
300
CELLSTYLE
  1
TABLEFORMAT_BEGIN
 90
        5
170
     1
 91
        0
 92
        0
 62
   257
 93
        1
300
CONTENTFORMAT
  1
CONTENTFORMAT_BEGIN
 90
        0
 91
        0
 92
      512
 93
        0
300

 40
0.0
140
1.0
 94
        2
 62
     0
340
F
144
0.18
309
CONTENTFORMAT_END
171
     0
 94
        0
309
TABLEFORMAT_END
  1
CELLSTYLE_BEGIN
 90
        3
 91
        2
300
_DATA
309
CELLSTYLE_END
  0
XRECORD
  5
10E5
102
{ACAD_REACTORS
330
10AE
102
}
330
10AE
100
AcDbXrecord
280
     1
102
ACAD_ROUNDTRIP_PRE2007_TABLESTYLE
 90
      512
 91
        0
  1

 92
      512
 93
        0
  2

 94
      512
 95
        0
  3

  0
XRECORD
  5
10C0
102
{ACAD_REACTORS
330
10BF
102
}
330
10BF
100
AcDbXrecord
280
     1
102
RTVSPost2010Prop28
280
     1
102
RTVSPost2010PropOp28
 70
     1
102
RTVSPost2010Prop29
280
     1
102
RTVSPost2010PropOp29
 70
     1
102
RTVSPost2010Prop30
280
     0
102
RTVSPost2010PropOp30
 70
     1
102
RTVSPost2010Prop31
280
     0
102
RTVSPost2010PropOp31
 70
     1
102
RTVSPost2010Prop32
280
     0
102
RTVSPost2010PropOp32
 70
     1
102
RTVSPost2010Prop33
280
     0
102
RTVSPost2010PropOp33
 70
     1
102
RTVSPost2010Prop34
280
     0
102
RTVSPost2010PropOp34
 70
     1
102
RTVSPost2010Prop35
280
     0
102
RTVSPost2010PropOp35
 70
     1
102
RTVSPost2010Prop36
280
     0
102
RTVSPost2010PropOp36
 70
     1
102
RTVSPost2010Prop37
 90
       50
102
RTVSPost2010PropOp37
 70
     1
102
RTVSPost2010Prop38
140
0.0
102
RTVSPost2010PropOp38
 70
     1
102
RTVSPost2010Prop39
140
1.0
102
RTVSPost2010PropOp39
 70
     1
102
RTVSPost2010Prop40
 90
        0
102
RTVSPost2010PropOp40
 70
     1
102
RTVSPost2010Prop41ColorIndex
 90
       18
102
RTVSPost2010Prop41ColorRGB
 90
        0
102
RTVSPost2010PropOp41
 70
     1
102
RTVSPost2010Prop42
 90
       50
102
RTVSPost2010PropOp42
 70
     1
102
RTVSPost2010Prop43
 90
        3
102
RTVSPost2010PropOp43
 70
     1
102
RTVSPost2010Prop44ColorIndex
 90
        5
102
RTVSPost2010Prop44ColorRGB
 90
      255
102
RTVSPost2010PropOp44
 70
     1
102
RTVSPost2010Prop45
280
     0
102
RTVSPost2010PropOp45
 70
     1
102
RTVSPost2010Prop46
 90
       50
102
RTVSPost2010PropOp46
 70
     1
102
RTVSPost2010Prop47
 90
       50
102
RTVSPost2010PropOp47
 70
     1
102
RTVSPost2010Prop48
 90
       50
102
RTVSPost2010PropOp48
 70
     1
102
RTVSPost2010Prop49
280
     0
102
RTVSPost2010PropOp49
 70
     1
102
RTVSPost2010Prop50
 90
       50
102
RTVSPost2010PropOp50
 70
     1
102
RTVSPost2010Prop51ColorIndex
 90
      256
102
RTVSPost2010Prop51ColorRGB
 90
-16777216
102
RTVSPost2010PropOp51
 70
     0
102
RTVSPost2010Prop52
140
1.0
102
RTVSPost2010PropOp52
 70
     0
102
RTVSPost2010Prop53
 90
        2
102
RTVSPost2010PropOp53
 70
     1
102
RTVSPost2010Prop54
  1
strokes_ogs.tif
102
RTVSPost2010PropOp54
 70
     1
102
RTVSPost2010Prop55
280
     0
102
RTVSPost2010PropOp55
 70
     1
102
RTVSPost2010Prop56
140
1.0
102
RTVSPost2010PropOp56
 70
     1
102
RTVSPost2010Prop57
140
1.0
102
RTVSPost2010PropOp57
 70
     1
102
RTVSPropertyOp0
 70
     1
102
RTVSPropertyOp1
 70
     1
102
RTVSPropertyOp2
 70
     1
102
RTVSPropertyOp3
 70
     1
102
RTVSPropertyOp4
 70
     1
102
RTVSPropertyOp5
 70
     1
102
RTVSPropertyOp6
 70
     1
102
RTVSPropertyOp7
 70
     1
102
RTVSPropertyOp8
 70
     1
102
RTVSPropertyOp9
 70
     1
102
RTVSPropertyOp10
 70
     1
102
RTVSPropertyOp11
 70
     1
102
RTVSPropertyOp12
 70
     1
102
RTVSPropertyOp13
 70
     1
102
RTVSPropertyOp14
 70
     1
102
RTVSPropertyOp15
 70
     1
102
RTVSPropertyOp16
 70
     1
102
RTVSPropertyOp17
 70
     1
102
RTVSPropertyOp18
 70
     1
102
RTVSPropertyOp19
 70
     1
102
RTVSPropertyOp20
 70
     1
102
RTVSPropertyOp21
 70
     1
102
RTVSPropertyOp22
 70
     1
102
RTVSPropertyOp23
 70
     1
102
RTVSPropertyOp24
 70
     1
102
RTVSPropertyOp25
 70
     1
102
RTVSPropertyOp26
 70
     1
102
RTVSPropertyOp27
 70
     1
102
RTVSPropertyOp28
 70
     1
102
RTVSPropertyOp29
 70
     1
102
RTVSPropertyOp30
 70
     1
102
RTVSPropertyOp31
 70
     1
102
RTVSPropertyOp32
 70
     1
102
RTVSPropertyOp33
 70
     1
102
RTVSPropertyOp34
 70
     1
102
RTVSPropertyOp35
 70
     1
102
RTVSPropertyOp36
 70
     1
102
RTVSPropertyOp37
 70
     1
102
RTVSPropertyOp38
 70
     1
102
RTVSPropertyOp39
 70
     1
102
RTVSPropertyOp40
 70
     1
102
RTVSPropertyOp41
 70
     1
102
RTVSPropertyOp42
 70
     1
102
RTVSPropertyOp43
 70
     1
102
RTVSPropertyOp44
 70
     1
102
RTVSPropertyOp45
 70
     1
102
RTVSPropertyOp46
 70
     1
102
RTVSPropertyOp47
 70
     1
102
RTVSPropertyOp48
 70
     1
102
RTVSPropertyOp49
 70
     1
102
RTVSPropertyOp50
 70
     1
102
RTVSPropertyOp51
 70
     0
102
RTVSPropertyOp52
 70
     0
102
RTVSPropertyOp53
 70
     1
102
RTVSPropertyOp54
 70
     1
102
RTVSPropertyOp55
 70
     1
102
RTVSPropertyOp56
 70
     1
102
RTVSPropertyOp57
 70
     1
102
RTVSPropertyOp58
 70
     1
102
RTVSPropertyOp59
 70
     1
102
RTVSPropertyOp60
 70
     1
102
RTVSPropertyOp61
 70
     1
102
RTVSPropertyOp62
 70
     1
  0
XRECORD
  5
10BE
102
{ACAD_REACTORS
330
10BD
102
}
330
10BD
100
AcDbXrecord
280
     1
102
RTVSPost2010Prop28
280
     0
102
RTVSPost2010PropOp28
 70
     1
102
RTVSPost2010Prop29
280
     1
102
RTVSPost2010PropOp29
 70
     1
102
RTVSPost2010Prop30
280
     1
102
RTVSPost2010PropOp30
 70
     1
102
RTVSPost2010Prop31
280
     0
102
RTVSPost2010PropOp31
 70
     1
102
RTVSPost2010Prop32
280
     0
102
RTVSPost2010PropOp32
 70
     1
102
RTVSPost2010Prop33
280
     0
102
RTVSPost2010PropOp33
 70
     1
102
RTVSPost2010Prop34
280
     0
102
RTVSPost2010PropOp34
 70
     1
102
RTVSPost2010Prop35
280
     0
102
RTVSPost2010PropOp35
 70
     1
102
RTVSPost2010Prop36
280
     0
102
RTVSPost2010PropOp36
 70
     1
102
RTVSPost2010Prop37
 90
       50
102
RTVSPost2010PropOp37
 70
     1
102
RTVSPost2010Prop38
140
0.0
102
RTVSPost2010PropOp38
 70
     1
102
RTVSPost2010Prop39
140
1.0
102
RTVSPost2010PropOp39
 70
     1
102
RTVSPost2010Prop40
 90
        0
102
RTVSPost2010PropOp40
 70
     1
102
RTVSPost2010Prop41ColorIndex
 90
       18
102
RTVSPost2010Prop41ColorRGB
 90
        0
102
RTVSPost2010PropOp41
 70
     1
102
RTVSPost2010Prop42
 90
       50
102
RTVSPost2010PropOp42
 70
     1
102
RTVSPost2010Prop43
 90
        3
102
RTVSPost2010PropOp43
 70
     1
102
RTVSPost2010Prop44ColorIndex
 90
        5
102
RTVSPost2010Prop44ColorRGB
 90
      255
102
RTVSPost2010PropOp44
 70
     1
102
RTVSPost2010Prop45
280
     0
102
RTVSPost2010PropOp45
 70
     1
102
RTVSPost2010Prop46
 90
       50
102
RTVSPost2010PropOp46
 70
     1
102
RTVSPost2010Prop47
 90
       50
102
RTVSPost2010PropOp47
 70
     1
102
RTVSPost2010Prop48
 90
       50
102
RTVSPost2010PropOp48
 70
     1
102
RTVSPost2010Prop49
280
     0
102
RTVSPost2010PropOp49
 70
     1
102
RTVSPost2010Prop50
 90
       50
102
RTVSPost2010PropOp50
 70
     1
102
RTVSPost2010Prop51ColorIndex
 90
      256
102
RTVSPost2010Prop51ColorRGB
 90
-16777216
102
RTVSPost2010PropOp51
 70
     0
102
RTVSPost2010Prop52
140
1.0
102
RTVSPost2010PropOp52
 70
     0
102
RTVSPost2010Prop53
 90
        2
102
RTVSPost2010PropOp53
 70
     1
102
RTVSPost2010Prop54
  1
strokes_ogs.tif
102
RTVSPost2010PropOp54
 70
     1
102
RTVSPost2010Prop55
280
     0
102
RTVSPost2010PropOp55
 70
     1
102
RTVSPost2010Prop56
140
1.0
102
RTVSPost2010PropOp56
 70
     1
102
RTVSPost2010Prop57
140
1.0
102
RTVSPost2010PropOp57
 70
     1
102
RTVSPropertyOp0
 70
     1
102
RTVSPropertyOp1
 70
     1
102
RTVSPropertyOp2
 70
     1
102
RTVSPropertyOp3
 70
     1
102
RTVSPropertyOp4
 70
     1
102
RTVSPropertyOp5
 70
     1
102
RTVSPropertyOp6
 70
     1
102
RTVSPropertyOp7
 70
     1
102
RTVSPropertyOp8
 70
     1
102
RTVSPropertyOp9
 70
     1
102
RTVSPropertyOp10
 70
     1
102
RTVSPropertyOp11
 70
     1
102
RTVSPropertyOp12
 70
     1
102
RTVSPropertyOp13
 70
     1
102
RTVSPropertyOp14
 70
     1
102
RTVSPropertyOp15
 70
     1
102
RTVSPropertyOp16
 70
     1
102
RTVSPropertyOp17
 70
     1
102
RTVSPropertyOp18
 70
     1
102
RTVSPropertyOp19
 70
     1
102
RTVSPropertyOp20
 70
     1
102
RTVSPropertyOp21
 70
     1
102
RTVSPropertyOp22
 70
     1
102
RTVSPropertyOp23
 70
     1
102
RTVSPropertyOp24
 70
     1
102
RTVSPropertyOp25
 70
     1
102
RTVSPropertyOp26
 70
     1
102
RTVSPropertyOp27
 70
     1
102
RTVSPropertyOp28
 70
     1
102
RTVSPropertyOp29
 70
     1
102
RTVSPropertyOp30
 70
     1
102
RTVSPropertyOp31
 70
     1
102
RTVSPropertyOp32
 70
     1
102
RTVSPropertyOp33
 70
     1
102
RTVSPropertyOp34
 70
     1
102
RTVSPropertyOp35
 70
     1
102
RTVSPropertyOp36
 70
     1
102
RTVSPropertyOp37
 70
     1
102
RTVSPropertyOp38
 70
     1
102
RTVSPropertyOp39
 70
     1
102
RTVSPropertyOp40
 70
     1
102
RTVSPropertyOp41
 70
     1
102
RTVSPropertyOp42
 70
     1
102
RTVSPropertyOp43
 70
     1
102
RTVSPropertyOp44
 70
     1
102
RTVSPropertyOp45
 70
     1
102
RTVSPropertyOp46
 70
     1
102
RTVSPropertyOp47
 70
     1
102
RTVSPropertyOp48
 70
     1
102
RTVSPropertyOp49
 70
     1
102
RTVSPropertyOp50
 70
     1
102
RTVSPropertyOp51
 70
     0
102
RTVSPropertyOp52
 70
     0
102
RTVSPropertyOp53
 70
     1
102
RTVSPropertyOp54
 70
     1
102
RTVSPropertyOp55
 70
     1
102
RTVSPropertyOp56
 70
     1
102
RTVSPropertyOp57
 70
     1
102
RTVSPropertyOp58
 70
     1
102
RTVSPropertyOp59
 70
     1
102
RTVSPropertyOp60
 70
     1
102
RTVSPropertyOp61
 70
     1
102
RTVSPropertyOp62
 70
     1
  0
XRECORD
  5
10CC
102
{ACAD_REACTORS
330
10CB
102
}
330
10CB
100
AcDbXrecord
280
     1
102
RTVSPost2010Prop28
280
     0
102
RTVSPost2010PropOp28
 70
     1
102
RTVSPost2010Prop29
280
     1
102
RTVSPost2010PropOp29
 70
     1
102
RTVSPost2010Prop30
280
     1
102
RTVSPost2010PropOp30
 70
     1
102
RTVSPost2010Prop31
280
     0
102
RTVSPost2010PropOp31
 70
     1
102
RTVSPost2010Prop32
280
     0
102
RTVSPost2010PropOp32
 70
     1
102
RTVSPost2010Prop33
280
     0
102
RTVSPost2010PropOp33
 70
     1
102
RTVSPost2010Prop34
280
     0
102
RTVSPost2010PropOp34
 70
     1
102
RTVSPost2010Prop35
280
     0
102
RTVSPost2010PropOp35
 70
     1
102
RTVSPost2010Prop36
280
     0
102
RTVSPost2010PropOp36
 70
     1
102
RTVSPost2010Prop37
 90
       50
102
RTVSPost2010PropOp37
 70
     1
102
RTVSPost2010Prop38
140
0.0
102
RTVSPost2010PropOp38
 70
     1
102
RTVSPost2010Prop39
140
1.0
102
RTVSPost2010PropOp39
 70
     1
102
RTVSPost2010Prop40
 90
        0
102
RTVSPost2010PropOp40
 70
     1
102
RTVSPost2010Prop41ColorIndex
 90
       18
102
RTVSPost2010Prop41ColorRGB
 90
        0
102
RTVSPost2010PropOp41
 70
     1
102
RTVSPost2010Prop42
 90
       50
102
RTVSPost2010PropOp42
 70
     1
102
RTVSPost2010Prop43
 90
        3
102
RTVSPost2010PropOp43
 70
     1
102
RTVSPost2010Prop44ColorIndex
 90
        5
102
RTVSPost2010Prop44ColorRGB
 90
      255
102
RTVSPost2010PropOp44
 70
     1
102
RTVSPost2010Prop45
280
     0
102
RTVSPost2010PropOp45
 70
     1
102
RTVSPost2010Prop46
 90
       50
102
RTVSPost2010PropOp46
 70
     1
102
RTVSPost2010Prop47
 90
       50
102
RTVSPost2010PropOp47
 70
     1
102
RTVSPost2010Prop48
 90
       50
102
RTVSPost2010PropOp48
 70
     1
102
RTVSPost2010Prop49
280
     0
102
RTVSPost2010PropOp49
 70
     1
102
RTVSPost2010Prop50
 90
       50
102
RTVSPost2010PropOp50
 70
     1
102
RTVSPost2010Prop51ColorIndex
 90
      256
102
RTVSPost2010Prop51ColorRGB
 90
-16777216
102
RTVSPost2010PropOp51
 70
     0
102
RTVSPost2010Prop52
140
1.0
102
RTVSPost2010PropOp52
 70
     0
102
RTVSPost2010Prop53
 90
        2
102
RTVSPost2010PropOp53
 70
     1
102
RTVSPost2010Prop54
  1
strokes_ogs.tif
102
RTVSPost2010PropOp54
 70
     1
102
RTVSPost2010Prop55
280
     0
102
RTVSPost2010PropOp55
 70
     1
102
RTVSPost2010Prop56
140
1.0
102
RTVSPost2010PropOp56
 70
     1
102
RTVSPost2010Prop57
140
1.0
102
RTVSPost2010PropOp57
 70
     1
102
RTVSPropertyOp0
 70
     1
102
RTVSPropertyOp1
 70
     1
102
RTVSPropertyOp2
 70
     1
102
RTVSPropertyOp3
 70
     1
102
RTVSPropertyOp4
 70
     1
102
RTVSPropertyOp5
 70
     1
102
RTVSPropertyOp6
 70
     1
102
RTVSPropertyOp7
 70
     1
102
RTVSPropertyOp8
 70
     1
102
RTVSPropertyOp9
 70
     1
102
RTVSPropertyOp10
 70
     1
102
RTVSPropertyOp11
 70
     1
102
RTVSPropertyOp12
 70
     1
102
RTVSPropertyOp13
 70
     1
102
RTVSPropertyOp14
 70
     1
102
RTVSPropertyOp15
 70
     1
102
RTVSPropertyOp16
 70
     1
102
RTVSPropertyOp17
 70
     1
102
RTVSPropertyOp18
 70
     1
102
RTVSPropertyOp19
 70
     1
102
RTVSPropertyOp20
 70
     1
102
RTVSPropertyOp21
 70
     1
102
RTVSPropertyOp22
 70
     1
102
RTVSPropertyOp23
 70
     1
102
RTVSPropertyOp24
 70
     1
102
RTVSPropertyOp25
 70
     1
102
RTVSPropertyOp26
 70
     1
102
RTVSPropertyOp27
 70
     1
102
RTVSPropertyOp28
 70
     1
102
RTVSPropertyOp29
 70
     1
102
RTVSPropertyOp30
 70
     1
102
RTVSPropertyOp31
 70
     1
102
RTVSPropertyOp32
 70
     1
102
RTVSPropertyOp33
 70
     1
102
RTVSPropertyOp34
 70
     1
102
RTVSPropertyOp35
 70
     1
102
RTVSPropertyOp36
 70
     1
102
RTVSPropertyOp37
 70
     1
102
RTVSPropertyOp38
 70
     1
102
RTVSPropertyOp39
 70
     1
102
RTVSPropertyOp40
 70
     1
102
RTVSPropertyOp41
 70
     1
102
RTVSPropertyOp42
 70
     1
102
RTVSPropertyOp43
 70
     1
102
RTVSPropertyOp44
 70
     1
102
RTVSPropertyOp45
 70
     1
102
RTVSPropertyOp46
 70
     1
102
RTVSPropertyOp47
 70
     1
102
RTVSPropertyOp48
 70
     1
102
RTVSPropertyOp49
 70
     1
102
RTVSPropertyOp50
 70
     1
102
RTVSPropertyOp51
 70
     0
102
RTVSPropertyOp52
 70
     0
102
RTVSPropertyOp53
 70
     1
102
RTVSPropertyOp54
 70
     1
102
RTVSPropertyOp55
 70
     1
102
RTVSPropertyOp56
 70
     1
102
RTVSPropertyOp57
 70
     1
102
RTVSPropertyOp58
 70
     1
102
RTVSPropertyOp59
 70
     1
102
RTVSPropertyOp60
 70
     1
102
RTVSPropertyOp61
 70
     1
102
RTVSPropertyOp62
 70
     1
  0
XRECORD
  5
10D4
102
{ACAD_REACTORS
330
10D3
102
}
330
10D3
100
AcDbXrecord
280
     1
102
RTVSPost2010Prop28
280
     0
102
RTVSPost2010PropOp28
 70
     1
102
RTVSPost2010Prop29
280
     1
102
RTVSPost2010PropOp29
 70
     1
102
RTVSPost2010Prop30
280
     1
102
RTVSPost2010PropOp30
 70
     1
102
RTVSPost2010Prop31
280
     0
102
RTVSPost2010PropOp31
 70
     1
102
RTVSPost2010Prop32
280
     0
102
RTVSPost2010PropOp32
 70
     1
102
RTVSPost2010Prop33
280
     0
102
RTVSPost2010PropOp33
 70
     1
102
RTVSPost2010Prop34
280
     0
102
RTVSPost2010PropOp34
 70
     1
102
RTVSPost2010Prop35
280
     0
102
RTVSPost2010PropOp35
 70
     1
102
RTVSPost2010Prop36
280
     0
102
RTVSPost2010PropOp36
 70
     1
102
RTVSPost2010Prop37
 90
       50
102
RTVSPost2010PropOp37
 70
     1
102
RTVSPost2010Prop38
140
0.0
102
RTVSPost2010PropOp38
 70
     1
102
RTVSPost2010Prop39
140
1.0
102
RTVSPost2010PropOp39
 70
     1
102
RTVSPost2010Prop40
 90
        0
102
RTVSPost2010PropOp40
 70
     1
102
RTVSPost2010Prop41ColorIndex
 90
       18
102
RTVSPost2010Prop41ColorRGB
 90
        0
102
RTVSPost2010PropOp41
 70
     1
102
RTVSPost2010Prop42
 90
       50
102
RTVSPost2010PropOp42
 70
     1
102
RTVSPost2010Prop43
 90
        3
102
RTVSPost2010PropOp43
 70
     1
102
RTVSPost2010Prop44ColorIndex
 90
        5
102
RTVSPost2010Prop44ColorRGB
 90
      255
102
RTVSPost2010PropOp44
 70
     1
102
RTVSPost2010Prop45
280
     0
102
RTVSPost2010PropOp45
 70
     1
102
RTVSPost2010Prop46
 90
       50
102
RTVSPost2010PropOp46
 70
     1
102
RTVSPost2010Prop47
 90
       50
102
RTVSPost2010PropOp47
 70
     1
102
RTVSPost2010Prop48
 90
       50
102
RTVSPost2010PropOp48
 70
     1
102
RTVSPost2010Prop49
280
     0
102
RTVSPost2010PropOp49
 70
     1
102
RTVSPost2010Prop50
 90
       50
102
RTVSPost2010PropOp50
 70
     1
102
RTVSPost2010Prop51ColorIndex
 90
      256
102
RTVSPost2010Prop51ColorRGB
 90
-16777216
102
RTVSPost2010PropOp51
 70
     0
102
RTVSPost2010Prop52
140
1.0
102
RTVSPost2010PropOp52
 70
     0
102
RTVSPost2010Prop53
 90
        2
102
RTVSPost2010PropOp53
 70
     1
102
RTVSPost2010Prop54
  1
strokes_ogs.tif
102
RTVSPost2010PropOp54
 70
     1
102
RTVSPost2010Prop55
280
     0
102
RTVSPost2010PropOp55
 70
     1
102
RTVSPost2010Prop56
140
1.0
102
RTVSPost2010PropOp56
 70
     1
102
RTVSPost2010Prop57
140
1.0
102
RTVSPost2010PropOp57
 70
     1
102
RTVSPropertyOp0
 70
     1
102
RTVSPropertyOp1
 70
     1
102
RTVSPropertyOp2
 70
     1
102
RTVSPropertyOp3
 70
     1
102
RTVSPropertyOp4
 70
     1
102
RTVSPropertyOp5
 70
     1
102
RTVSPropertyOp6
 70
     1
102
RTVSPropertyOp7
 70
     1
102
RTVSPropertyOp8
 70
     1
102
RTVSPropertyOp9
 70
     1
102
RTVSPropertyOp10
 70
     1
102
RTVSPropertyOp11
 70
     1
102
RTVSPropertyOp12
 70
     1
102
RTVSPropertyOp13
 70
     1
102
RTVSPropertyOp14
 70
     1
102
RTVSPropertyOp15
 70
     1
102
RTVSPropertyOp16
 70
     1
102
RTVSPropertyOp17
 70
     1
102
RTVSPropertyOp18
 70
     1
102
RTVSPropertyOp19
 70
     1
102
RTVSPropertyOp20
 70
     1
102
RTVSPropertyOp21
 70
     1
102
RTVSPropertyOp22
 70
     1
102
RTVSPropertyOp23
 70
     1
102
RTVSPropertyOp24
 70
     1
102
RTVSPropertyOp25
 70
     1
102
RTVSPropertyOp26
 70
     1
102
RTVSPropertyOp27
 70
     1
102
RTVSPropertyOp28
 70
     1
102
RTVSPropertyOp29
 70
     1
102
RTVSPropertyOp30
 70
     1
102
RTVSPropertyOp31
 70
     1
102
RTVSPropertyOp32
 70
     1
102
RTVSPropertyOp33
 70
     1
102
RTVSPropertyOp34
 70
     1
102
RTVSPropertyOp35
 70
     1
102
RTVSPropertyOp36
 70
     1
102
RTVSPropertyOp37
 70
     1
102
RTVSPropertyOp38
 70
     1
102
RTVSPropertyOp39
 70
     1
102
RTVSPropertyOp40
 70
     1
102
RTVSPropertyOp41
 70
     1
102
RTVSPropertyOp42
 70
     1
102
RTVSPropertyOp43
 70
     1
102
RTVSPropertyOp44
 70
     1
102
RTVSPropertyOp45
 70
     1
102
RTVSPropertyOp46
 70
     1
102
RTVSPropertyOp47
 70
     1
102
RTVSPropertyOp48
 70
     1
102
RTVSPropertyOp49
 70
     1
102
RTVSPropertyOp50
 70
     1
102
RTVSPropertyOp51
 70
     0
102
RTVSPropertyOp52
 70
     0
102
RTVSPropertyOp53
 70
     1
102
RTVSPropertyOp54
 70
     1
102
RTVSPropertyOp55
 70
     1
102
RTVSPropertyOp56
 70
     1
102
RTVSPropertyOp57
 70
     1
102
RTVSPropertyOp58
 70
     1
102
RTVSPropertyOp59
 70
     1
102
RTVSPropertyOp60
 70
     1
102
RTVSPropertyOp61
 70
     1
102
RTVSPropertyOp62
 70
     1
  0
XRECORD
  5
10C6
102
{ACAD_REACTORS
330
10C5
102
}
330
10C5
100
AcDbXrecord
280
     1
102
RTVSPost2010Prop28
280
     0
102
RTVSPost2010PropOp28
 70
     1
102
RTVSPost2010Prop29
280
     1
102
RTVSPost2010PropOp29
 70
     1
102
RTVSPost2010Prop30
280
     1
102
RTVSPost2010PropOp30
 70
     1
102
RTVSPost2010Prop31
280
     0
102
RTVSPost2010PropOp31
 70
     1
102
RTVSPost2010Prop32
280
     0
102
RTVSPost2010PropOp32
 70
     1
102
RTVSPost2010Prop33
280
     0
102
RTVSPost2010PropOp33
 70
     1
102
RTVSPost2010Prop34
280
     0
102
RTVSPost2010PropOp34
 70
     1
102
RTVSPost2010Prop35
280
     0
102
RTVSPost2010PropOp35
 70
     1
102
RTVSPost2010Prop36
280
     0
102
RTVSPost2010PropOp36
 70
     1
102
RTVSPost2010Prop37
 90
       50
102
RTVSPost2010PropOp37
 70
     1
102
RTVSPost2010Prop38
140
0.0
102
RTVSPost2010PropOp38
 70
     1
102
RTVSPost2010Prop39
140
1.0
102
RTVSPost2010PropOp39
 70
     1
102
RTVSPost2010Prop40
 90
        0
102
RTVSPost2010PropOp40
 70
     1
102
RTVSPost2010Prop41ColorIndex
 90
       18
102
RTVSPost2010Prop41ColorRGB
 90
        0
102
RTVSPost2010PropOp41
 70
     1
102
RTVSPost2010Prop42
 90
       50
102
RTVSPost2010PropOp42
 70
     1
102
RTVSPost2010Prop43
 90
        3
102
RTVSPost2010PropOp43
 70
     1
102
RTVSPost2010Prop44ColorIndex
 90
        5
102
RTVSPost2010Prop44ColorRGB
 90
      255
102
RTVSPost2010PropOp44
 70
     1
102
RTVSPost2010Prop45
280
     0
102
RTVSPost2010PropOp45
 70
     1
102
RTVSPost2010Prop46
 90
       50
102
RTVSPost2010PropOp46
 70
     1
102
RTVSPost2010Prop47
 90
       50
102
RTVSPost2010PropOp47
 70
     1
102
RTVSPost2010Prop48
 90
       50
102
RTVSPost2010PropOp48
 70
     1
102
RTVSPost2010Prop49
280
     0
102
RTVSPost2010PropOp49
 70
     1
102
RTVSPost2010Prop50
 90
       50
102
RTVSPost2010PropOp50
 70
     1
102
RTVSPost2010Prop51ColorIndex
 90
      256
102
RTVSPost2010Prop51ColorRGB
 90
-16777216
102
RTVSPost2010PropOp51
 70
     0
102
RTVSPost2010Prop52
140
1.0
102
RTVSPost2010PropOp52
 70
     0
102
RTVSPost2010Prop53
 90
        2
102
RTVSPost2010PropOp53
 70
     1
102
RTVSPost2010Prop54
  1
strokes_ogs.tif
102
RTVSPost2010PropOp54
 70
     1
102
RTVSPost2010Prop55
280
     0
102
RTVSPost2010PropOp55
 70
     1
102
RTVSPost2010Prop56
140
1.0
102
RTVSPost2010PropOp56
 70
     1
102
RTVSPost2010Prop57
140
1.0
102
RTVSPost2010PropOp57
 70
     1
102
RTVSPropertyOp0
 70
     1
102
RTVSPropertyOp1
 70
     1
102
RTVSPropertyOp2
 70
     1
102
RTVSPropertyOp3
 70
     1
102
RTVSPropertyOp4
 70
     1
102
RTVSPropertyOp5
 70
     1
102
RTVSPropertyOp6
 70
     1
102
RTVSPropertyOp7
 70
     1
102
RTVSPropertyOp8
 70
     1
102
RTVSPropertyOp9
 70
     1
102
RTVSPropertyOp10
 70
     1
102
RTVSPropertyOp11
 70
     1
102
RTVSPropertyOp12
 70
     1
102
RTVSPropertyOp13
 70
     1
102
RTVSPropertyOp14
 70
     1
102
RTVSPropertyOp15
 70
     1
102
RTVSPropertyOp16
 70
     1
102
RTVSPropertyOp17
 70
     1
102
RTVSPropertyOp18
 70
     1
102
RTVSPropertyOp19
 70
     1
102
RTVSPropertyOp20
 70
     1
102
RTVSPropertyOp21
 70
     1
102
RTVSPropertyOp22
 70
     1
102
RTVSPropertyOp23
 70
     1
102
RTVSPropertyOp24
 70
     1
102
RTVSPropertyOp25
 70
     1
102
RTVSPropertyOp26
 70
     1
102
RTVSPropertyOp27
 70
     1
102
RTVSPropertyOp28
 70
     1
102
RTVSPropertyOp29
 70
     1
102
RTVSPropertyOp30
 70
     1
102
RTVSPropertyOp31
 70
     1
102
RTVSPropertyOp32
 70
     1
102
RTVSPropertyOp33
 70
     1
102
RTVSPropertyOp34
 70
     1
102
RTVSPropertyOp35
 70
     1
102
RTVSPropertyOp36
 70
     1
102
RTVSPropertyOp37
 70
     1
102
RTVSPropertyOp38
 70
     1
102
RTVSPropertyOp39
 70
     1
102
RTVSPropertyOp40
 70
     1
102
RTVSPropertyOp41
 70
     1
102
RTVSPropertyOp42
 70
     1
102
RTVSPropertyOp43
 70
     1
102
RTVSPropertyOp44
 70
     1
102
RTVSPropertyOp45
 70
     1
102
RTVSPropertyOp46
 70
     1
102
RTVSPropertyOp47
 70
     1
102
RTVSPropertyOp48
 70
     1
102
RTVSPropertyOp49
 70
     1
102
RTVSPropertyOp50
 70
     1
102
RTVSPropertyOp51
 70
     0
102
RTVSPropertyOp52
 70
     0
102
RTVSPropertyOp53
 70
     1
102
RTVSPropertyOp54
 70
     1
102
RTVSPropertyOp55
 70
     1
102
RTVSPropertyOp56
 70
     1
102
RTVSPropertyOp57
 70
     1
102
RTVSPropertyOp58
 70
     1
102
RTVSPropertyOp59
 70
     1
102
RTVSPropertyOp60
 70
     1
102
RTVSPropertyOp61
 70
     1
102
RTVSPropertyOp62
 70
     1
  0
XRECORD
  5
10CA
102
{ACAD_REACTORS
330
10C9
102
}
330
10C9
100
AcDbXrecord
280
     1
102
RTVSPost2010Prop28
280
     0
102
RTVSPost2010PropOp28
 70
     1
102
RTVSPost2010Prop29
280
     1
102
RTVSPost2010PropOp29
 70
     1
102
RTVSPost2010Prop30
280
     1
102
RTVSPost2010PropOp30
 70
     1
102
RTVSPost2010Prop31
280
     0
102
RTVSPost2010PropOp31
 70
     1
102
RTVSPost2010Prop32
280
     0
102
RTVSPost2010PropOp32
 70
     1
102
RTVSPost2010Prop33
280
     0
102
RTVSPost2010PropOp33
 70
     1
102
RTVSPost2010Prop34
280
     0
102
RTVSPost2010PropOp34
 70
     1
102
RTVSPost2010Prop35
280
     0
102
RTVSPost2010PropOp35
 70
     1
102
RTVSPost2010Prop36
280
     0
102
RTVSPost2010PropOp36
 70
     1
102
RTVSPost2010Prop37
 90
       50
102
RTVSPost2010PropOp37
 70
     1
102
RTVSPost2010Prop38
140
0.0
102
RTVSPost2010PropOp38
 70
     1
102
RTVSPost2010Prop39
140
1.0
102
RTVSPost2010PropOp39
 70
     1
102
RTVSPost2010Prop40
 90
        0
102
RTVSPost2010PropOp40
 70
     1
102
RTVSPost2010Prop41ColorIndex
 90
       18
102
RTVSPost2010Prop41ColorRGB
 90
        0
102
RTVSPost2010PropOp41
 70
     1
102
RTVSPost2010Prop42
 90
       50
102
RTVSPost2010PropOp42
 70
     1
102
RTVSPost2010Prop43
 90
        3
102
RTVSPost2010PropOp43
 70
     1
102
RTVSPost2010Prop44ColorIndex
 90
        5
102
RTVSPost2010Prop44ColorRGB
 90
      255
102
RTVSPost2010PropOp44
 70
     1
102
RTVSPost2010Prop45
280
     0
102
RTVSPost2010PropOp45
 70
     1
102
RTVSPost2010Prop46
 90
       50
102
RTVSPost2010PropOp46
 70
     1
102
RTVSPost2010Prop47
 90
       50
102
RTVSPost2010PropOp47
 70
     1
102
RTVSPost2010Prop48
 90
       50
102
RTVSPost2010PropOp48
 70
     1
102
RTVSPost2010Prop49
280
     0
102
RTVSPost2010PropOp49
 70
     1
102
RTVSPost2010Prop50
 90
       50
102
RTVSPost2010PropOp50
 70
     1
102
RTVSPost2010Prop51ColorIndex
 90
      256
102
RTVSPost2010Prop51ColorRGB
 90
-16777216
102
RTVSPost2010PropOp51
 70
     0
102
RTVSPost2010Prop52
140
1.0
102
RTVSPost2010PropOp52
 70
     0
102
RTVSPost2010Prop53
 90
        2
102
RTVSPost2010PropOp53
 70
     1
102
RTVSPost2010Prop54
  1
strokes_ogs.tif
102
RTVSPost2010PropOp54
 70
     1
102
RTVSPost2010Prop55
280
     0
102
RTVSPost2010PropOp55
 70
     1
102
RTVSPost2010Prop56
140
1.0
102
RTVSPost2010PropOp56
 70
     1
102
RTVSPost2010Prop57
140
1.0
102
RTVSPost2010PropOp57
 70
     1
102
RTVSPropertyOp0
 70
     1
102
RTVSPropertyOp1
 70
     1
102
RTVSPropertyOp2
 70
     1
102
RTVSPropertyOp3
 70
     1
102
RTVSPropertyOp4
 70
     1
102
RTVSPropertyOp5
 70
     1
102
RTVSPropertyOp6
 70
     1
102
RTVSPropertyOp7
 70
     1
102
RTVSPropertyOp8
 70
     1
102
RTVSPropertyOp9
 70
     1
102
RTVSPropertyOp10
 70
     1
102
RTVSPropertyOp11
 70
     1
102
RTVSPropertyOp12
 70
     1
102
RTVSPropertyOp13
 70
     1
102
RTVSPropertyOp14
 70
     1
102
RTVSPropertyOp15
 70
     1
102
RTVSPropertyOp16
 70
     1
102
RTVSPropertyOp17
 70
     1
102
RTVSPropertyOp18
 70
     1
102
RTVSPropertyOp19
 70
     1
102
RTVSPropertyOp20
 70
     1
102
RTVSPropertyOp21
 70
     1
102
RTVSPropertyOp22
 70
     1
102
RTVSPropertyOp23
 70
     1
102
RTVSPropertyOp24
 70
     1
102
RTVSPropertyOp25
 70
     1
102
RTVSPropertyOp26
 70
     1
102
RTVSPropertyOp27
 70
     1
102
RTVSPropertyOp28
 70
     1
102
RTVSPropertyOp29
 70
     1
102
RTVSPropertyOp30
 70
     1
102
RTVSPropertyOp31
 70
     1
102
RTVSPropertyOp32
 70
     1
102
RTVSPropertyOp33
 70
     1
102
RTVSPropertyOp34
 70
     1
102
RTVSPropertyOp35
 70
     1
102
RTVSPropertyOp36
 70
     1
102
RTVSPropertyOp37
 70
     1
102
RTVSPropertyOp38
 70
     1
102
RTVSPropertyOp39
 70
     1
102
RTVSPropertyOp40
 70
     1
102
RTVSPropertyOp41
 70
     1
102
RTVSPropertyOp42
 70
     1
102
RTVSPropertyOp43
 70
     1
102
RTVSPropertyOp44
 70
     1
102
RTVSPropertyOp45
 70
     1
102
RTVSPropertyOp46
 70
     1
102
RTVSPropertyOp47
 70
     1
102
RTVSPropertyOp48
 70
     1
102
RTVSPropertyOp49
 70
     1
102
RTVSPropertyOp50
 70
     1
102
RTVSPropertyOp51
 70
     0
102
RTVSPropertyOp52
 70
     0
102
RTVSPropertyOp53
 70
     1
102
RTVSPropertyOp54
 70
     1
102
RTVSPropertyOp55
 70
     1
102
RTVSPropertyOp56
 70
     1
102
RTVSPropertyOp57
 70
     1
102
RTVSPropertyOp58
 70
     1
102
RTVSPropertyOp59
 70
     1
102
RTVSPropertyOp60
 70
     1
102
RTVSPropertyOp61
 70
     1
102
RTVSPropertyOp62
 70
     1
  0
XRECORD
  5
10E4
102
{ACAD_REACTORS
330
10E3
102
}
330
10E3
100
AcDbXrecord
280
     1
102
RTVSPost2010Prop28
280
     0
102
RTVSPost2010PropOp28
 70
     1
102
RTVSPost2010Prop29
280
     1
102
RTVSPost2010PropOp29
 70
     1
102
RTVSPost2010Prop30
280
     1
102
RTVSPost2010PropOp30
 70
     1
102
RTVSPost2010Prop31
280
     0
102
RTVSPost2010PropOp31
 70
     1
102
RTVSPost2010Prop32
280
     0
102
RTVSPost2010PropOp32
 70
     1
102
RTVSPost2010Prop33
280
     0
102
RTVSPost2010PropOp33
 70
     1
102
RTVSPost2010Prop34
280
     0
102
RTVSPost2010PropOp34
 70
     1
102
RTVSPost2010Prop35
280
     0
102
RTVSPost2010PropOp35
 70
     1
102
RTVSPost2010Prop36
280
     0
102
RTVSPost2010PropOp36
 70
     1
102
RTVSPost2010Prop37
 90
       50
102
RTVSPost2010PropOp37
 70
     0
102
RTVSPost2010Prop38
140
0.0
102
RTVSPost2010PropOp38
 70
     0
102
RTVSPost2010Prop39
140
1.0
102
RTVSPost2010PropOp39
 70
     0
102
RTVSPost2010Prop40
 90
        0
102
RTVSPost2010PropOp40
 70
     0
102
RTVSPost2010Prop41ColorIndex
 90
       18
102
RTVSPost2010Prop41ColorRGB
 90
        0
102
RTVSPost2010PropOp41
 70
     0
102
RTVSPost2010Prop42
 90
       50
102
RTVSPost2010PropOp42
 70
     0
102
RTVSPost2010Prop43
 90
        3
102
RTVSPost2010PropOp43
 70
     0
102
RTVSPost2010Prop44ColorIndex
 90
        5
102
RTVSPost2010Prop44ColorRGB
 90
      255
102
RTVSPost2010PropOp44
 70
     0
102
RTVSPost2010Prop45
280
     0
102
RTVSPost2010PropOp45
 70
     1
102
RTVSPost2010Prop46
 90
       50
102
RTVSPost2010PropOp46
 70
     0
102
RTVSPost2010Prop47
 90
       50
102
RTVSPost2010PropOp47
 70
     0
102
RTVSPost2010Prop48
 90
       50
102
RTVSPost2010PropOp48
 70
     0
102
RTVSPost2010Prop49
280
     0
102
RTVSPost2010PropOp49
 70
     1
102
RTVSPost2010Prop50
 90
       50
102
RTVSPost2010PropOp50
 70
     0
102
RTVSPost2010Prop51ColorIndex
 90
      256
102
RTVSPost2010Prop51ColorRGB
 90
-16777216
102
RTVSPost2010PropOp51
 70
     0
102
RTVSPost2010Prop52
140
1.0
102
RTVSPost2010PropOp52
 70
     0
102
RTVSPost2010Prop53
 90
        2
102
RTVSPost2010PropOp53
 70
     0
102
RTVSPost2010Prop54
  1
strokes_ogs.tif
102
RTVSPost2010PropOp54
 70
     0
102
RTVSPost2010Prop55
280
     0
102
RTVSPost2010PropOp55
 70
     1
102
RTVSPost2010Prop56
140
1.0
102
RTVSPost2010PropOp56
 70
     0
102
RTVSPost2010Prop57
140
1.0
102
RTVSPost2010PropOp57
 70
     0
102
RTVSPropertyOp0
 70
     0
102
RTVSPropertyOp1
 70
     0
102
RTVSPropertyOp2
 70
     0
102
RTVSPropertyOp3
 70
     0
102
RTVSPropertyOp4
 70
     0
102
RTVSPropertyOp5
 70
     0
102
RTVSPropertyOp6
 70
     0
102
RTVSPropertyOp7
 70
     0
102
RTVSPropertyOp8
 70
     0
102
RTVSPropertyOp9
 70
     0
102
RTVSPropertyOp10
 70
     0
102
RTVSPropertyOp11
 70
     0
102
RTVSPropertyOp12
 70
     0
102
RTVSPropertyOp13
 70
     0
102
RTVSPropertyOp14
 70
     2
102
RTVSPropertyOp15
 70
     0
102
RTVSPropertyOp16
 70
     0
102
RTVSPropertyOp17
 70
     0
102
RTVSPropertyOp18
 70
     0
102
RTVSPropertyOp19
 70
     0
102
RTVSPropertyOp20
 70
     0
102
RTVSPropertyOp21
 70
     0
102
RTVSPropertyOp22
 70
     0
102
RTVSPropertyOp23
 70
     0
102
RTVSPropertyOp24
 70
     0
102
RTVSPropertyOp25
 70
     0
102
RTVSPropertyOp26
 70
     0
102
RTVSPropertyOp27
 70
     0
102
RTVSPropertyOp28
 70
     1
102
RTVSPropertyOp29
 70
     1
102
RTVSPropertyOp30
 70
     1
102
RTVSPropertyOp31
 70
     1
102
RTVSPropertyOp32
 70
     1
102
RTVSPropertyOp33
 70
     1
102
RTVSPropertyOp34
 70
     1
102
RTVSPropertyOp35
 70
     1
102
RTVSPropertyOp36
 70
     1
102
RTVSPropertyOp37
 70
     0
102
RTVSPropertyOp38
 70
     0
102
RTVSPropertyOp39
 70
     0
102
RTVSPropertyOp40
 70
     0
102
RTVSPropertyOp41
 70
     0
102
RTVSPropertyOp42
 70
     0
102
RTVSPropertyOp43
 70
     0
102
RTVSPropertyOp44
 70
     0
102
RTVSPropertyOp45
 70
     1
102
RTVSPropertyOp46
 70
     0
102
RTVSPropertyOp47
 70
     0
102
RTVSPropertyOp48
 70
     0
102
RTVSPropertyOp49
 70
     1
102
RTVSPropertyOp50
 70
     0
102
RTVSPropertyOp51
 70
     0
102
RTVSPropertyOp52
 70
     0
102
RTVSPropertyOp53
 70
     0
102
RTVSPropertyOp54
 70
     0
102
RTVSPropertyOp55
 70
     1
102
RTVSPropertyOp56
 70
     0
102
RTVSPropertyOp57
 70
     0
102
RTVSPropertyOp58
 70
     0
102
RTVSPropertyOp59
 70
     0
102
RTVSPropertyOp60
 70
     0
102
RTVSPropertyOp61
 70
     0
102
RTVSPropertyOp62
 70
     0
  0
XRECORD
  5
10D2
102
{ACAD_REACTORS
330
10D1
102
}
330
10D1
100
AcDbXrecord
280
     1
102
RTVSPost2010Prop28
280
     0
102
RTVSPost2010PropOp28
 70
     1
102
RTVSPost2010Prop29
280
     1
102
RTVSPost2010PropOp29
 70
     1
102
RTVSPost2010Prop30
280
     1
102
RTVSPost2010PropOp30
 70
     1
102
RTVSPost2010Prop31
280
     0
102
RTVSPost2010PropOp31
 70
     1
102
RTVSPost2010Prop32
280
     0
102
RTVSPost2010PropOp32
 70
     1
102
RTVSPost2010Prop33
280
     0
102
RTVSPost2010PropOp33
 70
     1
102
RTVSPost2010Prop34
280
     0
102
RTVSPost2010PropOp34
 70
     1
102
RTVSPost2010Prop35
280
     0
102
RTVSPost2010PropOp35
 70
     1
102
RTVSPost2010Prop36
280
     0
102
RTVSPost2010PropOp36
 70
     1
102
RTVSPost2010Prop37
 90
       50
102
RTVSPost2010PropOp37
 70
     1
102
RTVSPost2010Prop38
140
0.0
102
RTVSPost2010PropOp38
 70
     1
102
RTVSPost2010Prop39
140
1.0
102
RTVSPost2010PropOp39
 70
     1
102
RTVSPost2010Prop40
 90
        0
102
RTVSPost2010PropOp40
 70
     1
102
RTVSPost2010Prop41ColorIndex
 90
       18
102
RTVSPost2010Prop41ColorRGB
 90
        0
102
RTVSPost2010PropOp41
 70
     1
102
RTVSPost2010Prop42
 90
       50
102
RTVSPost2010PropOp42
 70
     1
102
RTVSPost2010Prop43
 90
        3
102
RTVSPost2010PropOp43
 70
     1
102
RTVSPost2010Prop44ColorIndex
 90
        5
102
RTVSPost2010Prop44ColorRGB
 90
      255
102
RTVSPost2010PropOp44
 70
     1
102
RTVSPost2010Prop45
280
     0
102
RTVSPost2010PropOp45
 70
     1
102
RTVSPost2010Prop46
 90
       50
102
RTVSPost2010PropOp46
 70
     1
102
RTVSPost2010Prop47
 90
       50
102
RTVSPost2010PropOp47
 70
     1
102
RTVSPost2010Prop48
 90
       50
102
RTVSPost2010PropOp48
 70
     1
102
RTVSPost2010Prop49
280
     0
102
RTVSPost2010PropOp49
 70
     1
102
RTVSPost2010Prop50
 90
       50
102
RTVSPost2010PropOp50
 70
     1
102
RTVSPost2010Prop51ColorIndex
 90
      256
102
RTVSPost2010Prop51ColorRGB
 90
-16777216
102
RTVSPost2010PropOp51
 70
     0
102
RTVSPost2010Prop52
140
1.0
102
RTVSPost2010PropOp52
 70
     0
102
RTVSPost2010Prop53
 90
        2
102
RTVSPost2010PropOp53
 70
     1
102
RTVSPost2010Prop54
  1
strokes_ogs.tif
102
RTVSPost2010PropOp54
 70
     1
102
RTVSPost2010Prop55
280
     0
102
RTVSPost2010PropOp55
 70
     1
102
RTVSPost2010Prop56
140
1.0
102
RTVSPost2010PropOp56
 70
     1
102
RTVSPost2010Prop57
140
1.0
102
RTVSPost2010PropOp57
 70
     1
102
RTVSPropertyOp0
 70
     1
102
RTVSPropertyOp1
 70
     1
102
RTVSPropertyOp2
 70
     1
102
RTVSPropertyOp3
 70
     1
102
RTVSPropertyOp4
 70
     1
102
RTVSPropertyOp5
 70
     1
102
RTVSPropertyOp6
 70
     1
102
RTVSPropertyOp7
 70
     1
102
RTVSPropertyOp8
 70
     1
102
RTVSPropertyOp9
 70
     1
102
RTVSPropertyOp10
 70
     1
102
RTVSPropertyOp11
 70
     1
102
RTVSPropertyOp12
 70
     1
102
RTVSPropertyOp13
 70
     1
102
RTVSPropertyOp14
 70
     1
102
RTVSPropertyOp15
 70
     1
102
RTVSPropertyOp16
 70
     1
102
RTVSPropertyOp17
 70
     1
102
RTVSPropertyOp18
 70
     1
102
RTVSPropertyOp19
 70
     1
102
RTVSPropertyOp20
 70
     1
102
RTVSPropertyOp21
 70
     1
102
RTVSPropertyOp22
 70
     1
102
RTVSPropertyOp23
 70
     1
102
RTVSPropertyOp24
 70
     1
102
RTVSPropertyOp25
 70
     1
102
RTVSPropertyOp26
 70
     1
102
RTVSPropertyOp27
 70
     1
102
RTVSPropertyOp28
 70
     1
102
RTVSPropertyOp29
 70
     1
102
RTVSPropertyOp30
 70
     1
102
RTVSPropertyOp31
 70
     1
102
RTVSPropertyOp32
 70
     1
102
RTVSPropertyOp33
 70
     1
102
RTVSPropertyOp34
 70
     1
102
RTVSPropertyOp35
 70
     1
102
RTVSPropertyOp36
 70
     1
102
RTVSPropertyOp37
 70
     1
102
RTVSPropertyOp38
 70
     1
102
RTVSPropertyOp39
 70
     1
102
RTVSPropertyOp40
 70
     1
102
RTVSPropertyOp41
 70
     1
102
RTVSPropertyOp42
 70
     1
102
RTVSPropertyOp43
 70
     1
102
RTVSPropertyOp44
 70
     1
102
RTVSPropertyOp45
 70
     1
102
RTVSPropertyOp46
 70
     1
102
RTVSPropertyOp47
 70
     1
102
RTVSPropertyOp48
 70
     1
102
RTVSPropertyOp49
 70
     1
102
RTVSPropertyOp50
 70
     1
102
RTVSPropertyOp51
 70
     0
102
RTVSPropertyOp52
 70
     0
102
RTVSPropertyOp53
 70
     1
102
RTVSPropertyOp54
 70
     1
102
RTVSPropertyOp55
 70
     1
102
RTVSPropertyOp56
 70
     1
102
RTVSPropertyOp57
 70
     1
102
RTVSPropertyOp58
 70
     1
102
RTVSPropertyOp59
 70
     1
102
RTVSPropertyOp60
 70
     1
102
RTVSPropertyOp61
 70
     1
102
RTVSPropertyOp62
 70
     1
  0
XRECORD
  5
10B6
102
{ACAD_REACTORS
330
10B5
102
}
330
10B5
100
AcDbXrecord
280
     1
102
RTVSPost2010Prop28
280
     0
102
RTVSPost2010PropOp28
 70
     1
102
RTVSPost2010Prop29
280
     1
102
RTVSPost2010PropOp29
 70
     1
102
RTVSPost2010Prop30
280
     1
102
RTVSPost2010PropOp30
 70
     1
102
RTVSPost2010Prop31
280
     0
102
RTVSPost2010PropOp31
 70
     1
102
RTVSPost2010Prop32
280
     0
102
RTVSPost2010PropOp32
 70
     1
102
RTVSPost2010Prop33
280
     0
102
RTVSPost2010PropOp33
 70
     1
102
RTVSPost2010Prop34
280
     0
102
RTVSPost2010PropOp34
 70
     1
102
RTVSPost2010Prop35
280
     0
102
RTVSPost2010PropOp35
 70
     1
102
RTVSPost2010Prop36
280
     0
102
RTVSPost2010PropOp36
 70
     1
102
RTVSPost2010Prop37
 90
       50
102
RTVSPost2010PropOp37
 70
     1
102
RTVSPost2010Prop38
140
0.0
102
RTVSPost2010PropOp38
 70
     1
102
RTVSPost2010Prop39
140
1.0
102
RTVSPost2010PropOp39
 70
     1
102
RTVSPost2010Prop40
 90
        0
102
RTVSPost2010PropOp40
 70
     1
102
RTVSPost2010Prop41ColorIndex
 90
       18
102
RTVSPost2010Prop41ColorRGB
 90
        0
102
RTVSPost2010PropOp41
 70
     1
102
RTVSPost2010Prop42
 90
       50
102
RTVSPost2010PropOp42
 70
     1
102
RTVSPost2010Prop43
 90
        3
102
RTVSPost2010PropOp43
 70
     1
102
RTVSPost2010Prop44ColorIndex
 90
        5
102
RTVSPost2010Prop44ColorRGB
 90
      255
102
RTVSPost2010PropOp44
 70
     1
102
RTVSPost2010Prop45
280
     0
102
RTVSPost2010PropOp45
 70
     1
102
RTVSPost2010Prop46
 90
       50
102
RTVSPost2010PropOp46
 70
     1
102
RTVSPost2010Prop47
 90
       50
102
RTVSPost2010PropOp47
 70
     1
102
RTVSPost2010Prop48
 90
       50
102
RTVSPost2010PropOp48
 70
     1
102
RTVSPost2010Prop49
280
     0
102
RTVSPost2010PropOp49
 70
     1
102
RTVSPost2010Prop50
 90
       50
102
RTVSPost2010PropOp50
 70
     1
102
RTVSPost2010Prop51ColorIndex
 90
      256
102
RTVSPost2010Prop51ColorRGB
 90
-16777216
102
RTVSPost2010PropOp51
 70
     0
102
RTVSPost2010Prop52
140
1.0
102
RTVSPost2010PropOp52
 70
     0
102
RTVSPost2010Prop53
 90
        2
102
RTVSPost2010PropOp53
 70
     1
102
RTVSPost2010Prop54
  1
strokes_ogs.tif
102
RTVSPost2010PropOp54
 70
     1
102
RTVSPost2010Prop55
280
     0
102
RTVSPost2010PropOp55
 70
     1
102
RTVSPost2010Prop56
140
1.0
102
RTVSPost2010PropOp56
 70
     1
102
RTVSPost2010Prop57
140
1.0
102
RTVSPost2010PropOp57
 70
     1
102
RTVSPropertyOp0
 70
     1
102
RTVSPropertyOp1
 70
     1
102
RTVSPropertyOp2
 70
     1
102
RTVSPropertyOp3
 70
     1
102
RTVSPropertyOp4
 70
     1
102
RTVSPropertyOp5
 70
     1
102
RTVSPropertyOp6
 70
     1
102
RTVSPropertyOp7
 70
     1
102
RTVSPropertyOp8
 70
     1
102
RTVSPropertyOp9
 70
     1
102
RTVSPropertyOp10
 70
     1
102
RTVSPropertyOp11
 70
     1
102
RTVSPropertyOp12
 70
     1
102
RTVSPropertyOp13
 70
     1
102
RTVSPropertyOp14
 70
     1
102
RTVSPropertyOp15
 70
     1
102
RTVSPropertyOp16
 70
     1
102
RTVSPropertyOp17
 70
     1
102
RTVSPropertyOp18
 70
     1
102
RTVSPropertyOp19
 70
     1
102
RTVSPropertyOp20
 70
     1
102
RTVSPropertyOp21
 70
     1
102
RTVSPropertyOp22
 70
     1
102
RTVSPropertyOp23
 70
     1
102
RTVSPropertyOp24
 70
     1
102
RTVSPropertyOp25
 70
     1
102
RTVSPropertyOp26
 70
     1
102
RTVSPropertyOp27
 70
     1
102
RTVSPropertyOp28
 70
     1
102
RTVSPropertyOp29
 70
     1
102
RTVSPropertyOp30
 70
     1
102
RTVSPropertyOp31
 70
     1
102
RTVSPropertyOp32
 70
     1
102
RTVSPropertyOp33
 70
     1
102
RTVSPropertyOp34
 70
     1
102
RTVSPropertyOp35
 70
     1
102
RTVSPropertyOp36
 70
     1
102
RTVSPropertyOp37
 70
     1
102
RTVSPropertyOp38
 70
     1
102
RTVSPropertyOp39
 70
     1
102
RTVSPropertyOp40
 70
     1
102
RTVSPropertyOp41
 70
     1
102
RTVSPropertyOp42
 70
     1
102
RTVSPropertyOp43
 70
     1
102
RTVSPropertyOp44
 70
     1
102
RTVSPropertyOp45
 70
     1
102
RTVSPropertyOp46
 70
     1
102
RTVSPropertyOp47
 70
     1
102
RTVSPropertyOp48
 70
     1
102
RTVSPropertyOp49
 70
     1
102
RTVSPropertyOp50
 70
     1
102
RTVSPropertyOp51
 70
     0
102
RTVSPropertyOp52
 70
     0
102
RTVSPropertyOp53
 70
     1
102
RTVSPropertyOp54
 70
     1
102
RTVSPropertyOp55
 70
     1
102
RTVSPropertyOp56
 70
     1
102
RTVSPropertyOp57
 70
     1
102
RTVSPropertyOp58
 70
     1
102
RTVSPropertyOp59
 70
     1
102
RTVSPropertyOp60
 70
     1
102
RTVSPropertyOp61
 70
     1
102
RTVSPropertyOp62
 70
     1
  0
XRECORD
  5
10B8
102
{ACAD_REACTORS
330
10B7
102
}
330
10B7
100
AcDbXrecord
280
     1
102
RTVSPost2010Prop28
280
     0
102
RTVSPost2010PropOp28
 70
     1
102
RTVSPost2010Prop29
280
     1
102
RTVSPost2010PropOp29
 70
     1
102
RTVSPost2010Prop30
280
     1
102
RTVSPost2010PropOp30
 70
     1
102
RTVSPost2010Prop31
280
     0
102
RTVSPost2010PropOp31
 70
     1
102
RTVSPost2010Prop32
280
     0
102
RTVSPost2010PropOp32
 70
     1
102
RTVSPost2010Prop33
280
     0
102
RTVSPost2010PropOp33
 70
     1
102
RTVSPost2010Prop34
280
     0
102
RTVSPost2010PropOp34
 70
     1
102
RTVSPost2010Prop35
280
     0
102
RTVSPost2010PropOp35
 70
     1
102
RTVSPost2010Prop36
280
     0
102
RTVSPost2010PropOp36
 70
     1
102
RTVSPost2010Prop37
 90
       50
102
RTVSPost2010PropOp37
 70
     1
102
RTVSPost2010Prop38
140
0.0
102
RTVSPost2010PropOp38
 70
     1
102
RTVSPost2010Prop39
140
1.0
102
RTVSPost2010PropOp39
 70
     1
102
RTVSPost2010Prop40
 90
        0
102
RTVSPost2010PropOp40
 70
     1
102
RTVSPost2010Prop41ColorIndex
 90
       18
102
RTVSPost2010Prop41ColorRGB
 90
        0
102
RTVSPost2010PropOp41
 70
     1
102
RTVSPost2010Prop42
 90
       50
102
RTVSPost2010PropOp42
 70
     1
102
RTVSPost2010Prop43
 90
        3
102
RTVSPost2010PropOp43
 70
     1
102
RTVSPost2010Prop44ColorIndex
 90
        5
102
RTVSPost2010Prop44ColorRGB
 90
      255
102
RTVSPost2010PropOp44
 70
     1
102
RTVSPost2010Prop45
280
     0
102
RTVSPost2010PropOp45
 70
     1
102
RTVSPost2010Prop46
 90
       50
102
RTVSPost2010PropOp46
 70
     1
102
RTVSPost2010Prop47
 90
       50
102
RTVSPost2010PropOp47
 70
     1
102
RTVSPost2010Prop48
 90
       50
102
RTVSPost2010PropOp48
 70
     1
102
RTVSPost2010Prop49
280
     0
102
RTVSPost2010PropOp49
 70
     1
102
RTVSPost2010Prop50
 90
       50
102
RTVSPost2010PropOp50
 70
     1
102
RTVSPost2010Prop51ColorIndex
 90
      256
102
RTVSPost2010Prop51ColorRGB
 90
-16777216
102
RTVSPost2010PropOp51
 70
     0
102
RTVSPost2010Prop52
140
1.0
102
RTVSPost2010PropOp52
 70
     0
102
RTVSPost2010Prop53
 90
        2
102
RTVSPost2010PropOp53
 70
     1
102
RTVSPost2010Prop54
  1
strokes_ogs.tif
102
RTVSPost2010PropOp54
 70
     1
102
RTVSPost2010Prop55
280
     0
102
RTVSPost2010PropOp55
 70
     1
102
RTVSPost2010Prop56
140
1.0
102
RTVSPost2010PropOp56
 70
     1
102
RTVSPost2010Prop57
140
1.0
102
RTVSPost2010PropOp57
 70
     1
102
RTVSPropertyOp0
 70
     1
102
RTVSPropertyOp1
 70
     1
102
RTVSPropertyOp2
 70
     1
102
RTVSPropertyOp3
 70
     1
102
RTVSPropertyOp4
 70
     1
102
RTVSPropertyOp5
 70
     1
102
RTVSPropertyOp6
 70
     1
102
RTVSPropertyOp7
 70
     1
102
RTVSPropertyOp8
 70
     1
102
RTVSPropertyOp9
 70
     1
102
RTVSPropertyOp10
 70
     1
102
RTVSPropertyOp11
 70
     1
102
RTVSPropertyOp12
 70
     1
102
RTVSPropertyOp13
 70
     1
102
RTVSPropertyOp14
 70
     1
102
RTVSPropertyOp15
 70
     1
102
RTVSPropertyOp16
 70
     1
102
RTVSPropertyOp17
 70
     1
102
RTVSPropertyOp18
 70
     1
102
RTVSPropertyOp19
 70
     1
102
RTVSPropertyOp20
 70
     1
102
RTVSPropertyOp21
 70
     1
102
RTVSPropertyOp22
 70
     1
102
RTVSPropertyOp23
 70
     1
102
RTVSPropertyOp24
 70
     1
102
RTVSPropertyOp25
 70
     1
102
RTVSPropertyOp26
 70
     1
102
RTVSPropertyOp27
 70
     1
102
RTVSPropertyOp28
 70
     1
102
RTVSPropertyOp29
 70
     1
102
RTVSPropertyOp30
 70
     1
102
RTVSPropertyOp31
 70
     1
102
RTVSPropertyOp32
 70
     1
102
RTVSPropertyOp33
 70
     1
102
RTVSPropertyOp34
 70
     1
102
RTVSPropertyOp35
 70
     1
102
RTVSPropertyOp36
 70
     1
102
RTVSPropertyOp37
 70
     1
102
RTVSPropertyOp38
 70
     1
102
RTVSPropertyOp39
 70
     1
102
RTVSPropertyOp40
 70
     1
102
RTVSPropertyOp41
 70
     1
102
RTVSPropertyOp42
 70
     1
102
RTVSPropertyOp43
 70
     1
102
RTVSPropertyOp44
 70
     1
102
RTVSPropertyOp45
 70
     1
102
RTVSPropertyOp46
 70
     1
102
RTVSPropertyOp47
 70
     1
102
RTVSPropertyOp48
 70
     1
102
RTVSPropertyOp49
 70
     1
102
RTVSPropertyOp50
 70
     1
102
RTVSPropertyOp51
 70
     0
102
RTVSPropertyOp52
 70
     0
102
RTVSPropertyOp53
 70
     1
102
RTVSPropertyOp54
 70
     1
102
RTVSPropertyOp55
 70
     1
102
RTVSPropertyOp56
 70
     1
102
RTVSPropertyOp57
 70
     1
102
RTVSPropertyOp58
 70
     1
102
RTVSPropertyOp59
 70
     1
102
RTVSPropertyOp60
 70
     1
102
RTVSPropertyOp61
 70
     1
102
RTVSPropertyOp62
 70
     1
  0
XRECORD
  5
10BA
102
{ACAD_REACTORS
330
10B9
102
}
330
10B9
100
AcDbXrecord
280
     1
102
RTVSPost2010Prop28
280
     0
102
RTVSPost2010PropOp28
 70
     1
102
RTVSPost2010Prop29
280
     1
102
RTVSPost2010PropOp29
 70
     1
102
RTVSPost2010Prop30
280
     1
102
RTVSPost2010PropOp30
 70
     1
102
RTVSPost2010Prop31
280
     0
102
RTVSPost2010PropOp31
 70
     1
102
RTVSPost2010Prop32
280
     0
102
RTVSPost2010PropOp32
 70
     1
102
RTVSPost2010Prop33
280
     0
102
RTVSPost2010PropOp33
 70
     1
102
RTVSPost2010Prop34
280
     0
102
RTVSPost2010PropOp34
 70
     1
102
RTVSPost2010Prop35
280
     0
102
RTVSPost2010PropOp35
 70
     1
102
RTVSPost2010Prop36
280
     0
102
RTVSPost2010PropOp36
 70
     1
102
RTVSPost2010Prop37
 90
       50
102
RTVSPost2010PropOp37
 70
     1
102
RTVSPost2010Prop38
140
0.0
102
RTVSPost2010PropOp38
 70
     1
102
RTVSPost2010Prop39
140
1.0
102
RTVSPost2010PropOp39
 70
     1
102
RTVSPost2010Prop40
 90
        0
102
RTVSPost2010PropOp40
 70
     1
102
RTVSPost2010Prop41ColorIndex
 90
       18
102
RTVSPost2010Prop41ColorRGB
 90
        0
102
RTVSPost2010PropOp41
 70
     1
102
RTVSPost2010Prop42
 90
       50
102
RTVSPost2010PropOp42
 70
     1
102
RTVSPost2010Prop43
 90
        3
102
RTVSPost2010PropOp43
 70
     1
102
RTVSPost2010Prop44ColorIndex
 90
        5
102
RTVSPost2010Prop44ColorRGB
 90
      255
102
RTVSPost2010PropOp44
 70
     1
102
RTVSPost2010Prop45
280
     0
102
RTVSPost2010PropOp45
 70
     1
102
RTVSPost2010Prop46
 90
       50
102
RTVSPost2010PropOp46
 70
     1
102
RTVSPost2010Prop47
 90
       50
102
RTVSPost2010PropOp47
 70
     1
102
RTVSPost2010Prop48
 90
       50
102
RTVSPost2010PropOp48
 70
     1
102
RTVSPost2010Prop49
280
     0
102
RTVSPost2010PropOp49
 70
     1
102
RTVSPost2010Prop50
 90
       50
102
RTVSPost2010PropOp50
 70
     1
102
RTVSPost2010Prop51ColorIndex
 90
      256
102
RTVSPost2010Prop51ColorRGB
 90
-16777216
102
RTVSPost2010PropOp51
 70
     0
102
RTVSPost2010Prop52
140
1.0
102
RTVSPost2010PropOp52
 70
     0
102
RTVSPost2010Prop53
 90
        2
102
RTVSPost2010PropOp53
 70
     1
102
RTVSPost2010Prop54
  1
strokes_ogs.tif
102
RTVSPost2010PropOp54
 70
     1
102
RTVSPost2010Prop55
280
     0
102
RTVSPost2010PropOp55
 70
     1
102
RTVSPost2010Prop56
140
1.0
102
RTVSPost2010PropOp56
 70
     1
102
RTVSPost2010Prop57
140
1.0
102
RTVSPost2010PropOp57
 70
     1
102
RTVSPropertyOp0
 70
     1
102
RTVSPropertyOp1
 70
     1
102
RTVSPropertyOp2
 70
     1
102
RTVSPropertyOp3
 70
     1
102
RTVSPropertyOp4
 70
     1
102
RTVSPropertyOp5
 70
     1
102
RTVSPropertyOp6
 70
     1
102
RTVSPropertyOp7
 70
     1
102
RTVSPropertyOp8
 70
     1
102
RTVSPropertyOp9
 70
     1
102
RTVSPropertyOp10
 70
     1
102
RTVSPropertyOp11
 70
     1
102
RTVSPropertyOp12
 70
     1
102
RTVSPropertyOp13
 70
     1
102
RTVSPropertyOp14
 70
     1
102
RTVSPropertyOp15
 70
     1
102
RTVSPropertyOp16
 70
     1
102
RTVSPropertyOp17
 70
     1
102
RTVSPropertyOp18
 70
     1
102
RTVSPropertyOp19
 70
     1
102
RTVSPropertyOp20
 70
     1
102
RTVSPropertyOp21
 70
     1
102
RTVSPropertyOp22
 70
     1
102
RTVSPropertyOp23
 70
     1
102
RTVSPropertyOp24
 70
     1
102
RTVSPropertyOp25
 70
     1
102
RTVSPropertyOp26
 70
     1
102
RTVSPropertyOp27
 70
     1
102
RTVSPropertyOp28
 70
     1
102
RTVSPropertyOp29
 70
     1
102
RTVSPropertyOp30
 70
     1
102
RTVSPropertyOp31
 70
     1
102
RTVSPropertyOp32
 70
     1
102
RTVSPropertyOp33
 70
     1
102
RTVSPropertyOp34
 70
     1
102
RTVSPropertyOp35
 70
     1
102
RTVSPropertyOp36
 70
     1
102
RTVSPropertyOp37
 70
     1
102
RTVSPropertyOp38
 70
     1
102
RTVSPropertyOp39
 70
     1
102
RTVSPropertyOp40
 70
     1
102
RTVSPropertyOp41
 70
     1
102
RTVSPropertyOp42
 70
     1
102
RTVSPropertyOp43
 70
     1
102
RTVSPropertyOp44
 70
     1
102
RTVSPropertyOp45
 70
     1
102
RTVSPropertyOp46
 70
     1
102
RTVSPropertyOp47
 70
     1
102
RTVSPropertyOp48
 70
     1
102
RTVSPropertyOp49
 70
     1
102
RTVSPropertyOp50
 70
     1
102
RTVSPropertyOp51
 70
     0
102
RTVSPropertyOp52
 70
     0
102
RTVSPropertyOp53
 70
     1
102
RTVSPropertyOp54
 70
     1
102
RTVSPropertyOp55
 70
     1
102
RTVSPropertyOp56
 70
     1
102
RTVSPropertyOp57
 70
     1
102
RTVSPropertyOp58
 70
     1
102
RTVSPropertyOp59
 70
     1
102
RTVSPropertyOp60
 70
     1
102
RTVSPropertyOp61
 70
     1
102
RTVSPropertyOp62
 70
     1
  0
XRECORD
  5
10BC
102
{ACAD_REACTORS
330
10BB
102
}
330
10BB
100
AcDbXrecord
280
     1
102
RTVSPost2010Prop28
280
     0
102
RTVSPost2010PropOp28
 70
     1
102
RTVSPost2010Prop29
280
     1
102
RTVSPost2010PropOp29
 70
     1
102
RTVSPost2010Prop30
280
     1
102
RTVSPost2010PropOp30
 70
     1
102
RTVSPost2010Prop31
280
     0
102
RTVSPost2010PropOp31
 70
     1
102
RTVSPost2010Prop32
280
     0
102
RTVSPost2010PropOp32
 70
     1
102
RTVSPost2010Prop33
280
     0
102
RTVSPost2010PropOp33
 70
     1
102
RTVSPost2010Prop34
280
     0
102
RTVSPost2010PropOp34
 70
     1
102
RTVSPost2010Prop35
280
     0
102
RTVSPost2010PropOp35
 70
     1
102
RTVSPost2010Prop36
280
     0
102
RTVSPost2010PropOp36
 70
     1
102
RTVSPost2010Prop37
 90
       50
102
RTVSPost2010PropOp37
 70
     1
102
RTVSPost2010Prop38
140
0.0
102
RTVSPost2010PropOp38
 70
     1
102
RTVSPost2010Prop39
140
1.0
102
RTVSPost2010PropOp39
 70
     1
102
RTVSPost2010Prop40
 90
        0
102
RTVSPost2010PropOp40
 70
     1
102
RTVSPost2010Prop41ColorIndex
 90
       18
102
RTVSPost2010Prop41ColorRGB
 90
        0
102
RTVSPost2010PropOp41
 70
     1
102
RTVSPost2010Prop42
 90
       50
102
RTVSPost2010PropOp42
 70
     1
102
RTVSPost2010Prop43
 90
        3
102
RTVSPost2010PropOp43
 70
     1
102
RTVSPost2010Prop44ColorIndex
 90
        5
102
RTVSPost2010Prop44ColorRGB
 90
      255
102
RTVSPost2010PropOp44
 70
     1
102
RTVSPost2010Prop45
280
     0
102
RTVSPost2010PropOp45
 70
     1
102
RTVSPost2010Prop46
 90
       50
102
RTVSPost2010PropOp46
 70
     1
102
RTVSPost2010Prop47
 90
       50
102
RTVSPost2010PropOp47
 70
     1
102
RTVSPost2010Prop48
 90
       50
102
RTVSPost2010PropOp48
 70
     1
102
RTVSPost2010Prop49
280
     0
102
RTVSPost2010PropOp49
 70
     1
102
RTVSPost2010Prop50
 90
       50
102
RTVSPost2010PropOp50
 70
     1
102
RTVSPost2010Prop51ColorIndex
 90
      256
102
RTVSPost2010Prop51ColorRGB
 90
-16777216
102
RTVSPost2010PropOp51
 70
     0
102
RTVSPost2010Prop52
140
1.0
102
RTVSPost2010PropOp52
 70
     0
102
RTVSPost2010Prop53
 90
        2
102
RTVSPost2010PropOp53
 70
     1
102
RTVSPost2010Prop54
  1
strokes_ogs.tif
102
RTVSPost2010PropOp54
 70
     1
102
RTVSPost2010Prop55
280
     0
102
RTVSPost2010PropOp55
 70
     1
102
RTVSPost2010Prop56
140
1.0
102
RTVSPost2010PropOp56
 70
     1
102
RTVSPost2010Prop57
140
1.0
102
RTVSPost2010PropOp57
 70
     1
102
RTVSPropertyOp0
 70
     1
102
RTVSPropertyOp1
 70
     1
102
RTVSPropertyOp2
 70
     1
102
RTVSPropertyOp3
 70
     1
102
RTVSPropertyOp4
 70
     1
102
RTVSPropertyOp5
 70
     1
102
RTVSPropertyOp6
 70
     1
102
RTVSPropertyOp7
 70
     1
102
RTVSPropertyOp8
 70
     1
102
RTVSPropertyOp9
 70
     1
102
RTVSPropertyOp10
 70
     1
102
RTVSPropertyOp11
 70
     1
102
RTVSPropertyOp12
 70
     1
102
RTVSPropertyOp13
 70
     1
102
RTVSPropertyOp14
 70
     1
102
RTVSPropertyOp15
 70
     1
102
RTVSPropertyOp16
 70
     1
102
RTVSPropertyOp17
 70
     1
102
RTVSPropertyOp18
 70
     1
102
RTVSPropertyOp19
 70
     1
102
RTVSPropertyOp20
 70
     1
102
RTVSPropertyOp21
 70
     1
102
RTVSPropertyOp22
 70
     1
102
RTVSPropertyOp23
 70
     1
102
RTVSPropertyOp24
 70
     1
102
RTVSPropertyOp25
 70
     1
102
RTVSPropertyOp26
 70
     1
102
RTVSPropertyOp27
 70
     1
102
RTVSPropertyOp28
 70
     1
102
RTVSPropertyOp29
 70
     1
102
RTVSPropertyOp30
 70
     1
102
RTVSPropertyOp31
 70
     1
102
RTVSPropertyOp32
 70
     1
102
RTVSPropertyOp33
 70
     1
102
RTVSPropertyOp34
 70
     1
102
RTVSPropertyOp35
 70
     1
102
RTVSPropertyOp36
 70
     1
102
RTVSPropertyOp37
 70
     1
102
RTVSPropertyOp38
 70
     1
102
RTVSPropertyOp39
 70
     1
102
RTVSPropertyOp40
 70
     1
102
RTVSPropertyOp41
 70
     1
102
RTVSPropertyOp42
 70
     1
102
RTVSPropertyOp43
 70
     1
102
RTVSPropertyOp44
 70
     1
102
RTVSPropertyOp45
 70
     1
102
RTVSPropertyOp46
 70
     1
102
RTVSPropertyOp47
 70
     1
102
RTVSPropertyOp48
 70
     1
102
RTVSPropertyOp49
 70
     1
102
RTVSPropertyOp50
 70
     1
102
RTVSPropertyOp51
 70
     0
102
RTVSPropertyOp52
 70
     0
102
RTVSPropertyOp53
 70
     1
102
RTVSPropertyOp54
 70
     1
102
RTVSPropertyOp55
 70
     1
102
RTVSPropertyOp56
 70
     1
102
RTVSPropertyOp57
 70
     1
102
RTVSPropertyOp58
 70
     1
102
RTVSPropertyOp59
 70
     1
102
RTVSPropertyOp60
 70
     1
102
RTVSPropertyOp61
 70
     1
102
RTVSPropertyOp62
 70
     1
  0
XRECORD
  5
10C4
102
{ACAD_REACTORS
330
10C3
102
}
330
10C3
100
AcDbXrecord
280
     1
102
RTVSPost2010Prop28
280
     0
102
RTVSPost2010PropOp28
 70
     1
102
RTVSPost2010Prop29
280
     1
102
RTVSPost2010PropOp29
 70
     1
102
RTVSPost2010Prop30
280
     1
102
RTVSPost2010PropOp30
 70
     1
102
RTVSPost2010Prop31
280
     0
102
RTVSPost2010PropOp31
 70
     1
102
RTVSPost2010Prop32
280
     0
102
RTVSPost2010PropOp32
 70
     1
102
RTVSPost2010Prop33
280
     0
102
RTVSPost2010PropOp33
 70
     1
102
RTVSPost2010Prop34
280
     0
102
RTVSPost2010PropOp34
 70
     1
102
RTVSPost2010Prop35
280
     0
102
RTVSPost2010PropOp35
 70
     1
102
RTVSPost2010Prop36
280
     0
102
RTVSPost2010PropOp36
 70
     1
102
RTVSPost2010Prop37
 90
       50
102
RTVSPost2010PropOp37
 70
     1
102
RTVSPost2010Prop38
140
0.0
102
RTVSPost2010PropOp38
 70
     1
102
RTVSPost2010Prop39
140
1.0
102
RTVSPost2010PropOp39
 70
     1
102
RTVSPost2010Prop40
 90
        0
102
RTVSPost2010PropOp40
 70
     1
102
RTVSPost2010Prop41ColorIndex
 90
       18
102
RTVSPost2010Prop41ColorRGB
 90
        0
102
RTVSPost2010PropOp41
 70
     1
102
RTVSPost2010Prop42
 90
       50
102
RTVSPost2010PropOp42
 70
     1
102
RTVSPost2010Prop43
 90
        3
102
RTVSPost2010PropOp43
 70
     1
102
RTVSPost2010Prop44ColorIndex
 90
        5
102
RTVSPost2010Prop44ColorRGB
 90
      255
102
RTVSPost2010PropOp44
 70
     1
102
RTVSPost2010Prop45
280
     0
102
RTVSPost2010PropOp45
 70
     1
102
RTVSPost2010Prop46
 90
       50
102
RTVSPost2010PropOp46
 70
     1
102
RTVSPost2010Prop47
 90
       50
102
RTVSPost2010PropOp47
 70
     1
102
RTVSPost2010Prop48
 90
       50
102
RTVSPost2010PropOp48
 70
     1
102
RTVSPost2010Prop49
280
     0
102
RTVSPost2010PropOp49
 70
     1
102
RTVSPost2010Prop50
 90
       50
102
RTVSPost2010PropOp50
 70
     1
102
RTVSPost2010Prop51ColorIndex
 90
      256
102
RTVSPost2010Prop51ColorRGB
 90
-16777216
102
RTVSPost2010PropOp51
 70
     0
102
RTVSPost2010Prop52
140
1.0
102
RTVSPost2010PropOp52
 70
     0
102
RTVSPost2010Prop53
 90
        2
102
RTVSPost2010PropOp53
 70
     1
102
RTVSPost2010Prop54
  1
strokes_ogs.tif
102
RTVSPost2010PropOp54
 70
     1
102
RTVSPost2010Prop55
280
     0
102
RTVSPost2010PropOp55
 70
     1
102
RTVSPost2010Prop56
140
1.0
102
RTVSPost2010PropOp56
 70
     1
102
RTVSPost2010Prop57
140
1.0
102
RTVSPost2010PropOp57
 70
     1
102
RTVSPropertyOp0
 70
     1
102
RTVSPropertyOp1
 70
     1
102
RTVSPropertyOp2
 70
     1
102
RTVSPropertyOp3
 70
     1
102
RTVSPropertyOp4
 70
     1
102
RTVSPropertyOp5
 70
     1
102
RTVSPropertyOp6
 70
     1
102
RTVSPropertyOp7
 70
     1
102
RTVSPropertyOp8
 70
     1
102
RTVSPropertyOp9
 70
     1
102
RTVSPropertyOp10
 70
     1
102
RTVSPropertyOp11
 70
     1
102
RTVSPropertyOp12
 70
     1
102
RTVSPropertyOp13
 70
     1
102
RTVSPropertyOp14
 70
     1
102
RTVSPropertyOp15
 70
     1
102
RTVSPropertyOp16
 70
     1
102
RTVSPropertyOp17
 70
     1
102
RTVSPropertyOp18
 70
     1
102
RTVSPropertyOp19
 70
     1
102
RTVSPropertyOp20
 70
     1
102
RTVSPropertyOp21
 70
     1
102
RTVSPropertyOp22
 70
     1
102
RTVSPropertyOp23
 70
     1
102
RTVSPropertyOp24
 70
     1
102
RTVSPropertyOp25
 70
     1
102
RTVSPropertyOp26
 70
     1
102
RTVSPropertyOp27
 70
     1
102
RTVSPropertyOp28
 70
     1
102
RTVSPropertyOp29
 70
     1
102
RTVSPropertyOp30
 70
     1
102
RTVSPropertyOp31
 70
     1
102
RTVSPropertyOp32
 70
     1
102
RTVSPropertyOp33
 70
     1
102
RTVSPropertyOp34
 70
     1
102
RTVSPropertyOp35
 70
     1
102
RTVSPropertyOp36
 70
     1
102
RTVSPropertyOp37
 70
     1
102
RTVSPropertyOp38
 70
     1
102
RTVSPropertyOp39
 70
     1
102
RTVSPropertyOp40
 70
     1
102
RTVSPropertyOp41
 70
     1
102
RTVSPropertyOp42
 70
     1
102
RTVSPropertyOp43
 70
     1
102
RTVSPropertyOp44
 70
     1
102
RTVSPropertyOp45
 70
     1
102
RTVSPropertyOp46
 70
     1
102
RTVSPropertyOp47
 70
     1
102
RTVSPropertyOp48
 70
     1
102
RTVSPropertyOp49
 70
     1
102
RTVSPropertyOp50
 70
     1
102
RTVSPropertyOp51
 70
     0
102
RTVSPropertyOp52
 70
     0
102
RTVSPropertyOp53
 70
     1
102
RTVSPropertyOp54
 70
     1
102
RTVSPropertyOp55
 70
     1
102
RTVSPropertyOp56
 70
     1
102
RTVSPropertyOp57
 70
     1
102
RTVSPropertyOp58
 70
     1
102
RTVSPropertyOp59
 70
     1
102
RTVSPropertyOp60
 70
     1
102
RTVSPropertyOp61
 70
     1
102
RTVSPropertyOp62
 70
     1
  0
XRECORD
  5
10E0
102
{ACAD_REACTORS
330
10DF
102
}
330
10DF
100
AcDbXrecord
280
     1
102
RTVSPost2010Prop28
280
     0
102
RTVSPost2010PropOp28
 70
     1
102
RTVSPost2010Prop29
280
     1
102
RTVSPost2010PropOp29
 70
     1
102
RTVSPost2010Prop30
280
     1
102
RTVSPost2010PropOp30
 70
     1
102
RTVSPost2010Prop31
280
     0
102
RTVSPost2010PropOp31
 70
     1
102
RTVSPost2010Prop32
280
     0
102
RTVSPost2010PropOp32
 70
     1
102
RTVSPost2010Prop33
280
     0
102
RTVSPost2010PropOp33
 70
     1
102
RTVSPost2010Prop34
280
     0
102
RTVSPost2010PropOp34
 70
     1
102
RTVSPost2010Prop35
280
     0
102
RTVSPost2010PropOp35
 70
     1
102
RTVSPost2010Prop36
280
     0
102
RTVSPost2010PropOp36
 70
     1
102
RTVSPost2010Prop37
 90
       50
102
RTVSPost2010PropOp37
 70
     0
102
RTVSPost2010Prop38
140
0.0
102
RTVSPost2010PropOp38
 70
     0
102
RTVSPost2010Prop39
140
1.0
102
RTVSPost2010PropOp39
 70
     0
102
RTVSPost2010Prop40
 90
        0
102
RTVSPost2010PropOp40
 70
     0
102
RTVSPost2010Prop41ColorIndex
 90
       18
102
RTVSPost2010Prop41ColorRGB
 90
        0
102
RTVSPost2010PropOp41
 70
     0
102
RTVSPost2010Prop42
 90
       50
102
RTVSPost2010PropOp42
 70
     0
102
RTVSPost2010Prop43
 90
        3
102
RTVSPost2010PropOp43
 70
     0
102
RTVSPost2010Prop44ColorIndex
 90
        5
102
RTVSPost2010Prop44ColorRGB
 90
      255
102
RTVSPost2010PropOp44
 70
     0
102
RTVSPost2010Prop45
280
     0
102
RTVSPost2010PropOp45
 70
     1
102
RTVSPost2010Prop46
 90
       50
102
RTVSPost2010PropOp46
 70
     0
102
RTVSPost2010Prop47
 90
       50
102
RTVSPost2010PropOp47
 70
     0
102
RTVSPost2010Prop48
 90
       50
102
RTVSPost2010PropOp48
 70
     0
102
RTVSPost2010Prop49
280
     0
102
RTVSPost2010PropOp49
 70
     1
102
RTVSPost2010Prop50
 90
       50
102
RTVSPost2010PropOp50
 70
     0
102
RTVSPost2010Prop51ColorIndex
 90
      256
102
RTVSPost2010Prop51ColorRGB
 90
-16777216
102
RTVSPost2010PropOp51
 70
     0
102
RTVSPost2010Prop52
140
1.0
102
RTVSPost2010PropOp52
 70
     0
102
RTVSPost2010Prop53
 90
        2
102
RTVSPost2010PropOp53
 70
     0
102
RTVSPost2010Prop54
  1
strokes_ogs.tif
102
RTVSPost2010PropOp54
 70
     0
102
RTVSPost2010Prop55
280
     0
102
RTVSPost2010PropOp55
 70
     1
102
RTVSPost2010Prop56
140
1.0
102
RTVSPost2010PropOp56
 70
     0
102
RTVSPost2010Prop57
140
1.0
102
RTVSPost2010PropOp57
 70
     0
102
RTVSPropertyOp0
 70
     0
102
RTVSPropertyOp1
 70
     0
102
RTVSPropertyOp2
 70
     0
102
RTVSPropertyOp3
 70
     0
102
RTVSPropertyOp4
 70
     0
102
RTVSPropertyOp5
 70
     0
102
RTVSPropertyOp6
 70
     0
102
RTVSPropertyOp7
 70
     0
102
RTVSPropertyOp8
 70
     0
102
RTVSPropertyOp9
 70
     0
102
RTVSPropertyOp10
 70
     0
102
RTVSPropertyOp11
 70
     0
102
RTVSPropertyOp12
 70
     0
102
RTVSPropertyOp13
 70
     0
102
RTVSPropertyOp14
 70
     2
102
RTVSPropertyOp15
 70
     0
102
RTVSPropertyOp16
 70
     0
102
RTVSPropertyOp17
 70
     0
102
RTVSPropertyOp18
 70
     0
102
RTVSPropertyOp19
 70
     0
102
RTVSPropertyOp20
 70
     0
102
RTVSPropertyOp21
 70
     0
102
RTVSPropertyOp22
 70
     0
102
RTVSPropertyOp23
 70
     0
102
RTVSPropertyOp24
 70
     0
102
RTVSPropertyOp25
 70
     0
102
RTVSPropertyOp26
 70
     0
102
RTVSPropertyOp27
 70
     0
102
RTVSPropertyOp28
 70
     1
102
RTVSPropertyOp29
 70
     1
102
RTVSPropertyOp30
 70
     1
102
RTVSPropertyOp31
 70
     1
102
RTVSPropertyOp32
 70
     1
102
RTVSPropertyOp33
 70
     1
102
RTVSPropertyOp34
 70
     1
102
RTVSPropertyOp35
 70
     1
102
RTVSPropertyOp36
 70
     1
102
RTVSPropertyOp37
 70
     0
102
RTVSPropertyOp38
 70
     0
102
RTVSPropertyOp39
 70
     0
102
RTVSPropertyOp40
 70
     0
102
RTVSPropertyOp41
 70
     0
102
RTVSPropertyOp42
 70
     0
102
RTVSPropertyOp43
 70
     0
102
RTVSPropertyOp44
 70
     0
102
RTVSPropertyOp45
 70
     1
102
RTVSPropertyOp46
 70
     0
102
RTVSPropertyOp47
 70
     0
102
RTVSPropertyOp48
 70
     0
102
RTVSPropertyOp49
 70
     1
102
RTVSPropertyOp50
 70
     0
102
RTVSPropertyOp51
 70
     0
102
RTVSPropertyOp52
 70
     0
102
RTVSPropertyOp53
 70
     0
102
RTVSPropertyOp54
 70
     0
102
RTVSPropertyOp55
 70
     1
102
RTVSPropertyOp56
 70
     0
102
RTVSPropertyOp57
 70
     0
102
RTVSPropertyOp58
 70
     0
102
RTVSPropertyOp59
 70
     0
102
RTVSPropertyOp60
 70
     0
102
RTVSPropertyOp61
 70
     0
102
RTVSPropertyOp62
 70
     0
  0
XRECORD
  5
10D0
102
{ACAD_REACTORS
330
10CF
102
}
330
10CF
100
AcDbXrecord
280
     1
102
RTVSPost2010Prop28
280
     0
102
RTVSPost2010PropOp28
 70
     1
102
RTVSPost2010Prop29
280
     1
102
RTVSPost2010PropOp29
 70
     1
102
RTVSPost2010Prop30
280
     1
102
RTVSPost2010PropOp30
 70
     1
102
RTVSPost2010Prop31
280
     0
102
RTVSPost2010PropOp31
 70
     1
102
RTVSPost2010Prop32
280
     0
102
RTVSPost2010PropOp32
 70
     1
102
RTVSPost2010Prop33
280
     0
102
RTVSPost2010PropOp33
 70
     1
102
RTVSPost2010Prop34
280
     0
102
RTVSPost2010PropOp34
 70
     1
102
RTVSPost2010Prop35
280
     0
102
RTVSPost2010PropOp35
 70
     1
102
RTVSPost2010Prop36
280
     0
102
RTVSPost2010PropOp36
 70
     1
102
RTVSPost2010Prop37
 90
       50
102
RTVSPost2010PropOp37
 70
     1
102
RTVSPost2010Prop38
140
0.0
102
RTVSPost2010PropOp38
 70
     1
102
RTVSPost2010Prop39
140
1.0
102
RTVSPost2010PropOp39
 70
     1
102
RTVSPost2010Prop40
 90
        0
102
RTVSPost2010PropOp40
 70
     1
102
RTVSPost2010Prop41ColorIndex
 90
       18
102
RTVSPost2010Prop41ColorRGB
 90
        0
102
RTVSPost2010PropOp41
 70
     1
102
RTVSPost2010Prop42
 90
       50
102
RTVSPost2010PropOp42
 70
     1
102
RTVSPost2010Prop43
 90
        3
102
RTVSPost2010PropOp43
 70
     1
102
RTVSPost2010Prop44ColorIndex
 90
        5
102
RTVSPost2010Prop44ColorRGB
 90
      255
102
RTVSPost2010PropOp44
 70
     1
102
RTVSPost2010Prop45
280
     0
102
RTVSPost2010PropOp45
 70
     1
102
RTVSPost2010Prop46
 90
       50
102
RTVSPost2010PropOp46
 70
     1
102
RTVSPost2010Prop47
 90
       50
102
RTVSPost2010PropOp47
 70
     1
102
RTVSPost2010Prop48
 90
       50
102
RTVSPost2010PropOp48
 70
     1
102
RTVSPost2010Prop49
280
     0
102
RTVSPost2010PropOp49
 70
     1
102
RTVSPost2010Prop50
 90
       50
102
RTVSPost2010PropOp50
 70
     1
102
RTVSPost2010Prop51ColorIndex
 90
      256
102
RTVSPost2010Prop51ColorRGB
 90
-16777216
102
RTVSPost2010PropOp51
 70
     0
102
RTVSPost2010Prop52
140
1.0
102
RTVSPost2010PropOp52
 70
     0
102
RTVSPost2010Prop53
 90
        2
102
RTVSPost2010PropOp53
 70
     1
102
RTVSPost2010Prop54
  1
strokes_ogs.tif
102
RTVSPost2010PropOp54
 70
     1
102
RTVSPost2010Prop55
280
     0
102
RTVSPost2010PropOp55
 70
     1
102
RTVSPost2010Prop56
140
1.0
102
RTVSPost2010PropOp56
 70
     1
102
RTVSPost2010Prop57
140
1.0
102
RTVSPost2010PropOp57
 70
     1
102
RTVSPropertyOp0
 70
     1
102
RTVSPropertyOp1
 70
     1
102
RTVSPropertyOp2
 70
     1
102
RTVSPropertyOp3
 70
     1
102
RTVSPropertyOp4
 70
     1
102
RTVSPropertyOp5
 70
     1
102
RTVSPropertyOp6
 70
     1
102
RTVSPropertyOp7
 70
     1
102
RTVSPropertyOp8
 70
     1
102
RTVSPropertyOp9
 70
     1
102
RTVSPropertyOp10
 70
     1
102
RTVSPropertyOp11
 70
     1
102
RTVSPropertyOp12
 70
     1
102
RTVSPropertyOp13
 70
     1
102
RTVSPropertyOp14
 70
     1
102
RTVSPropertyOp15
 70
     1
102
RTVSPropertyOp16
 70
     1
102
RTVSPropertyOp17
 70
     1
102
RTVSPropertyOp18
 70
     1
102
RTVSPropertyOp19
 70
     1
102
RTVSPropertyOp20
 70
     1
102
RTVSPropertyOp21
 70
     1
102
RTVSPropertyOp22
 70
     1
102
RTVSPropertyOp23
 70
     1
102
RTVSPropertyOp24
 70
     1
102
RTVSPropertyOp25
 70
     1
102
RTVSPropertyOp26
 70
     1
102
RTVSPropertyOp27
 70
     1
102
RTVSPropertyOp28
 70
     1
102
RTVSPropertyOp29
 70
     1
102
RTVSPropertyOp30
 70
     1
102
RTVSPropertyOp31
 70
     1
102
RTVSPropertyOp32
 70
     1
102
RTVSPropertyOp33
 70
     1
102
RTVSPropertyOp34
 70
     1
102
RTVSPropertyOp35
 70
     1
102
RTVSPropertyOp36
 70
     1
102
RTVSPropertyOp37
 70
     1
102
RTVSPropertyOp38
 70
     1
102
RTVSPropertyOp39
 70
     1
102
RTVSPropertyOp40
 70
     1
102
RTVSPropertyOp41
 70
     1
102
RTVSPropertyOp42
 70
     1
102
RTVSPropertyOp43
 70
     1
102
RTVSPropertyOp44
 70
     1
102
RTVSPropertyOp45
 70
     1
102
RTVSPropertyOp46
 70
     1
102
RTVSPropertyOp47
 70
     1
102
RTVSPropertyOp48
 70
     1
102
RTVSPropertyOp49
 70
     1
102
RTVSPropertyOp50
 70
     1
102
RTVSPropertyOp51
 70
     0
102
RTVSPropertyOp52
 70
     0
102
RTVSPropertyOp53
 70
     1
102
RTVSPropertyOp54
 70
     1
102
RTVSPropertyOp55
 70
     1
102
RTVSPropertyOp56
 70
     1
102
RTVSPropertyOp57
 70
     1
102
RTVSPropertyOp58
 70
     1
102
RTVSPropertyOp59
 70
     1
102
RTVSPropertyOp60
 70
     1
102
RTVSPropertyOp61
 70
     1
102
RTVSPropertyOp62
 70
     1
  0
XRECORD
  5
10E2
102
{ACAD_REACTORS
330
10E1
102
}
330
10E1
100
AcDbXrecord
280
     1
102
RTVSPost2010Prop28
280
     0
102
RTVSPost2010PropOp28
 70
     1
102
RTVSPost2010Prop29
280
     1
102
RTVSPost2010PropOp29
 70
     1
102
RTVSPost2010Prop30
280
     1
102
RTVSPost2010PropOp30
 70
     1
102
RTVSPost2010Prop31
280
     0
102
RTVSPost2010PropOp31
 70
     1
102
RTVSPost2010Prop32
280
     0
102
RTVSPost2010PropOp32
 70
     1
102
RTVSPost2010Prop33
280
     0
102
RTVSPost2010PropOp33
 70
     1
102
RTVSPost2010Prop34
280
     0
102
RTVSPost2010PropOp34
 70
     1
102
RTVSPost2010Prop35
280
     0
102
RTVSPost2010PropOp35
 70
     1
102
RTVSPost2010Prop36
280
     0
102
RTVSPost2010PropOp36
 70
     1
102
RTVSPost2010Prop37
 90
       50
102
RTVSPost2010PropOp37
 70
     0
102
RTVSPost2010Prop38
140
0.0
102
RTVSPost2010PropOp38
 70
     0
102
RTVSPost2010Prop39
140
1.0
102
RTVSPost2010PropOp39
 70
     0
102
RTVSPost2010Prop40
 90
        0
102
RTVSPost2010PropOp40
 70
     0
102
RTVSPost2010Prop41ColorIndex
 90
       18
102
RTVSPost2010Prop41ColorRGB
 90
        0
102
RTVSPost2010PropOp41
 70
     0
102
RTVSPost2010Prop42
 90
       50
102
RTVSPost2010PropOp42
 70
     0
102
RTVSPost2010Prop43
 90
        3
102
RTVSPost2010PropOp43
 70
     0
102
RTVSPost2010Prop44ColorIndex
 90
        5
102
RTVSPost2010Prop44ColorRGB
 90
      255
102
RTVSPost2010PropOp44
 70
     0
102
RTVSPost2010Prop45
280
     0
102
RTVSPost2010PropOp45
 70
     1
102
RTVSPost2010Prop46
 90
       50
102
RTVSPost2010PropOp46
 70
     0
102
RTVSPost2010Prop47
 90
       50
102
RTVSPost2010PropOp47
 70
     0
102
RTVSPost2010Prop48
 90
       50
102
RTVSPost2010PropOp48
 70
     0
102
RTVSPost2010Prop49
280
     0
102
RTVSPost2010PropOp49
 70
     1
102
RTVSPost2010Prop50
 90
       50
102
RTVSPost2010PropOp50
 70
     0
102
RTVSPost2010Prop51ColorIndex
 90
      256
102
RTVSPost2010Prop51ColorRGB
 90
-16777216
102
RTVSPost2010PropOp51
 70
     0
102
RTVSPost2010Prop52
140
1.0
102
RTVSPost2010PropOp52
 70
     0
102
RTVSPost2010Prop53
 90
        2
102
RTVSPost2010PropOp53
 70
     0
102
RTVSPost2010Prop54
  1
strokes_ogs.tif
102
RTVSPost2010PropOp54
 70
     0
102
RTVSPost2010Prop55
280
     0
102
RTVSPost2010PropOp55
 70
     1
102
RTVSPost2010Prop56
140
1.0
102
RTVSPost2010PropOp56
 70
     0
102
RTVSPost2010Prop57
140
1.0
102
RTVSPost2010PropOp57
 70
     0
102
RTVSPropertyOp0
 70
     0
102
RTVSPropertyOp1
 70
     0
102
RTVSPropertyOp2
 70
     0
102
RTVSPropertyOp3
 70
     0
102
RTVSPropertyOp4
 70
     0
102
RTVSPropertyOp5
 70
     0
102
RTVSPropertyOp6
 70
     0
102
RTVSPropertyOp7
 70
     0
102
RTVSPropertyOp8
 70
     0
102
RTVSPropertyOp9
 70
     0
102
RTVSPropertyOp10
 70
     0
102
RTVSPropertyOp11
 70
     0
102
RTVSPropertyOp12
 70
     0
102
RTVSPropertyOp13
 70
     0
102
RTVSPropertyOp14
 70
     2
102
RTVSPropertyOp15
 70
     0
102
RTVSPropertyOp16
 70
     0
102
RTVSPropertyOp17
 70
     0
102
RTVSPropertyOp18
 70
     0
102
RTVSPropertyOp19
 70
     0
102
RTVSPropertyOp20
 70
     0
102
RTVSPropertyOp21
 70
     0
102
RTVSPropertyOp22
 70
     0
102
RTVSPropertyOp23
 70
     0
102
RTVSPropertyOp24
 70
     0
102
RTVSPropertyOp25
 70
     0
102
RTVSPropertyOp26
 70
     0
102
RTVSPropertyOp27
 70
     0
102
RTVSPropertyOp28
 70
     1
102
RTVSPropertyOp29
 70
     1
102
RTVSPropertyOp30
 70
     1
102
RTVSPropertyOp31
 70
     1
102
RTVSPropertyOp32
 70
     1
102
RTVSPropertyOp33
 70
     1
102
RTVSPropertyOp34
 70
     1
102
RTVSPropertyOp35
 70
     1
102
RTVSPropertyOp36
 70
     1
102
RTVSPropertyOp37
 70
     0
102
RTVSPropertyOp38
 70
     0
102
RTVSPropertyOp39
 70
     0
102
RTVSPropertyOp40
 70
     0
102
RTVSPropertyOp41
 70
     0
102
RTVSPropertyOp42
 70
     0
102
RTVSPropertyOp43
 70
     0
102
RTVSPropertyOp44
 70
     0
102
RTVSPropertyOp45
 70
     1
102
RTVSPropertyOp46
 70
     0
102
RTVSPropertyOp47
 70
     0
102
RTVSPropertyOp48
 70
     0
102
RTVSPropertyOp49
 70
     1
102
RTVSPropertyOp50
 70
     0
102
RTVSPropertyOp51
 70
     0
102
RTVSPropertyOp52
 70
     0
102
RTVSPropertyOp53
 70
     0
102
RTVSPropertyOp54
 70
     0
102
RTVSPropertyOp55
 70
     1
102
RTVSPropertyOp56
 70
     0
102
RTVSPropertyOp57
 70
     0
102
RTVSPropertyOp58
 70
     0
102
RTVSPropertyOp59
 70
     0
102
RTVSPropertyOp60
 70
     0
102
RTVSPropertyOp61
 70
     0
102
RTVSPropertyOp62
 70
     0
  0
XRECORD
  5
10C8
102
{ACAD_REACTORS
330
10C7
102
}
330
10C7
100
AcDbXrecord
280
     1
102
RTVSPost2010Prop28
280
     0
102
RTVSPost2010PropOp28
 70
     1
102
RTVSPost2010Prop29
280
     1
102
RTVSPost2010PropOp29
 70
     1
102
RTVSPost2010Prop30
280
     1
102
RTVSPost2010PropOp30
 70
     1
102
RTVSPost2010Prop31
280
     0
102
RTVSPost2010PropOp31
 70
     1
102
RTVSPost2010Prop32
280
     0
102
RTVSPost2010PropOp32
 70
     1
102
RTVSPost2010Prop33
280
     0
102
RTVSPost2010PropOp33
 70
     1
102
RTVSPost2010Prop34
280
     0
102
RTVSPost2010PropOp34
 70
     1
102
RTVSPost2010Prop35
280
     0
102
RTVSPost2010PropOp35
 70
     1
102
RTVSPost2010Prop36
280
     0
102
RTVSPost2010PropOp36
 70
     1
102
RTVSPost2010Prop37
 90
       50
102
RTVSPost2010PropOp37
 70
     1
102
RTVSPost2010Prop38
140
0.0
102
RTVSPost2010PropOp38
 70
     1
102
RTVSPost2010Prop39
140
1.0
102
RTVSPost2010PropOp39
 70
     1
102
RTVSPost2010Prop40
 90
        0
102
RTVSPost2010PropOp40
 70
     1
102
RTVSPost2010Prop41ColorIndex
 90
       18
102
RTVSPost2010Prop41ColorRGB
 90
        0
102
RTVSPost2010PropOp41
 70
     1
102
RTVSPost2010Prop42
 90
       50
102
RTVSPost2010PropOp42
 70
     1
102
RTVSPost2010Prop43
 90
        3
102
RTVSPost2010PropOp43
 70
     1
102
RTVSPost2010Prop44ColorIndex
 90
        5
102
RTVSPost2010Prop44ColorRGB
 90
      255
102
RTVSPost2010PropOp44
 70
     1
102
RTVSPost2010Prop45
280
     0
102
RTVSPost2010PropOp45
 70
     1
102
RTVSPost2010Prop46
 90
       50
102
RTVSPost2010PropOp46
 70
     1
102
RTVSPost2010Prop47
 90
       50
102
RTVSPost2010PropOp47
 70
     1
102
RTVSPost2010Prop48
 90
       50
102
RTVSPost2010PropOp48
 70
     1
102
RTVSPost2010Prop49
280
     0
102
RTVSPost2010PropOp49
 70
     1
102
RTVSPost2010Prop50
 90
       50
102
RTVSPost2010PropOp50
 70
     1
102
RTVSPost2010Prop51ColorIndex
 90
      256
102
RTVSPost2010Prop51ColorRGB
 90
-16777216
102
RTVSPost2010PropOp51
 70
     0
102
RTVSPost2010Prop52
140
1.0
102
RTVSPost2010PropOp52
 70
     0
102
RTVSPost2010Prop53
 90
        2
102
RTVSPost2010PropOp53
 70
     1
102
RTVSPost2010Prop54
  1
strokes_ogs.tif
102
RTVSPost2010PropOp54
 70
     1
102
RTVSPost2010Prop55
280
     0
102
RTVSPost2010PropOp55
 70
     1
102
RTVSPost2010Prop56
140
1.0
102
RTVSPost2010PropOp56
 70
     1
102
RTVSPost2010Prop57
140
1.0
102
RTVSPost2010PropOp57
 70
     1
102
RTVSPropertyOp0
 70
     1
102
RTVSPropertyOp1
 70
     1
102
RTVSPropertyOp2
 70
     1
102
RTVSPropertyOp3
 70
     1
102
RTVSPropertyOp4
 70
     1
102
RTVSPropertyOp5
 70
     1
102
RTVSPropertyOp6
 70
     1
102
RTVSPropertyOp7
 70
     1
102
RTVSPropertyOp8
 70
     1
102
RTVSPropertyOp9
 70
     1
102
RTVSPropertyOp10
 70
     1
102
RTVSPropertyOp11
 70
     1
102
RTVSPropertyOp12
 70
     1
102
RTVSPropertyOp13
 70
     1
102
RTVSPropertyOp14
 70
     1
102
RTVSPropertyOp15
 70
     1
102
RTVSPropertyOp16
 70
     1
102
RTVSPropertyOp17
 70
     1
102
RTVSPropertyOp18
 70
     1
102
RTVSPropertyOp19
 70
     1
102
RTVSPropertyOp20
 70
     1
102
RTVSPropertyOp21
 70
     1
102
RTVSPropertyOp22
 70
     1
102
RTVSPropertyOp23
 70
     1
102
RTVSPropertyOp24
 70
     1
102
RTVSPropertyOp25
 70
     1
102
RTVSPropertyOp26
 70
     1
102
RTVSPropertyOp27
 70
     1
102
RTVSPropertyOp28
 70
     1
102
RTVSPropertyOp29
 70
     1
102
RTVSPropertyOp30
 70
     1
102
RTVSPropertyOp31
 70
     1
102
RTVSPropertyOp32
 70
     1
102
RTVSPropertyOp33
 70
     1
102
RTVSPropertyOp34
 70
     1
102
RTVSPropertyOp35
 70
     1
102
RTVSPropertyOp36
 70
     1
102
RTVSPropertyOp37
 70
     1
102
RTVSPropertyOp38
 70
     1
102
RTVSPropertyOp39
 70
     1
102
RTVSPropertyOp40
 70
     1
102
RTVSPropertyOp41
 70
     1
102
RTVSPropertyOp42
 70
     1
102
RTVSPropertyOp43
 70
     1
102
RTVSPropertyOp44
 70
     1
102
RTVSPropertyOp45
 70
     1
102
RTVSPropertyOp46
 70
     1
102
RTVSPropertyOp47
 70
     1
102
RTVSPropertyOp48
 70
     1
102
RTVSPropertyOp49
 70
     1
102
RTVSPropertyOp50
 70
     1
102
RTVSPropertyOp51
 70
     0
102
RTVSPropertyOp52
 70
     0
102
RTVSPropertyOp53
 70
     1
102
RTVSPropertyOp54
 70
     1
102
RTVSPropertyOp55
 70
     1
102
RTVSPropertyOp56
 70
     1
102
RTVSPropertyOp57
 70
     1
102
RTVSPropertyOp58
 70
     1
102
RTVSPropertyOp59
 70
     1
102
RTVSPropertyOp60
 70
     1
102
RTVSPropertyOp61
 70
     1
102
RTVSPropertyOp62
 70
     1
  0
XRECORD
  5
10DE
102
{ACAD_REACTORS
330
10DD
102
}
330
10DD
100
AcDbXrecord
280
     1
102
RTVSPost2010Prop28
280
     0
102
RTVSPost2010PropOp28
 70
     1
102
RTVSPost2010Prop29
280
     1
102
RTVSPost2010PropOp29
 70
     1
102
RTVSPost2010Prop30
280
     1
102
RTVSPost2010PropOp30
 70
     1
102
RTVSPost2010Prop31
280
     0
102
RTVSPost2010PropOp31
 70
     1
102
RTVSPost2010Prop32
280
     0
102
RTVSPost2010PropOp32
 70
     1
102
RTVSPost2010Prop33
280
     0
102
RTVSPost2010PropOp33
 70
     1
102
RTVSPost2010Prop34
280
     0
102
RTVSPost2010PropOp34
 70
     1
102
RTVSPost2010Prop35
280
     0
102
RTVSPost2010PropOp35
 70
     1
102
RTVSPost2010Prop36
280
     0
102
RTVSPost2010PropOp36
 70
     1
102
RTVSPost2010Prop37
 90
       50
102
RTVSPost2010PropOp37
 70
     1
102
RTVSPost2010Prop38
140
0.0
102
RTVSPost2010PropOp38
 70
     1
102
RTVSPost2010Prop39
140
1.0
102
RTVSPost2010PropOp39
 70
     1
102
RTVSPost2010Prop40
 90
        0
102
RTVSPost2010PropOp40
 70
     1
102
RTVSPost2010Prop41ColorIndex
 90
       18
102
RTVSPost2010Prop41ColorRGB
 90
        0
102
RTVSPost2010PropOp41
 70
     1
102
RTVSPost2010Prop42
 90
       50
102
RTVSPost2010PropOp42
 70
     1
102
RTVSPost2010Prop43
 90
        3
102
RTVSPost2010PropOp43
 70
     1
102
RTVSPost2010Prop44ColorIndex
 90
        5
102
RTVSPost2010Prop44ColorRGB
 90
      255
102
RTVSPost2010PropOp44
 70
     1
102
RTVSPost2010Prop45
280
     0
102
RTVSPost2010PropOp45
 70
     1
102
RTVSPost2010Prop46
 90
       50
102
RTVSPost2010PropOp46
 70
     1
102
RTVSPost2010Prop47
 90
       50
102
RTVSPost2010PropOp47
 70
     1
102
RTVSPost2010Prop48
 90
       50
102
RTVSPost2010PropOp48
 70
     1
102
RTVSPost2010Prop49
280
     0
102
RTVSPost2010PropOp49
 70
     1
102
RTVSPost2010Prop50
 90
       50
102
RTVSPost2010PropOp50
 70
     1
102
RTVSPost2010Prop51ColorIndex
 90
      256
102
RTVSPost2010Prop51ColorRGB
 90
-16777216
102
RTVSPost2010PropOp51
 70
     0
102
RTVSPost2010Prop52
140
1.0
102
RTVSPost2010PropOp52
 70
     0
102
RTVSPost2010Prop53
 90
        2
102
RTVSPost2010PropOp53
 70
     1
102
RTVSPost2010Prop54
  1
strokes_ogs.tif
102
RTVSPost2010PropOp54
 70
     1
102
RTVSPost2010Prop55
280
     0
102
RTVSPost2010PropOp55
 70
     1
102
RTVSPost2010Prop56
140
1.0
102
RTVSPost2010PropOp56
 70
     1
102
RTVSPost2010Prop57
140
1.0
102
RTVSPost2010PropOp57
 70
     1
102
RTVSPropertyOp0
 70
     1
102
RTVSPropertyOp1
 70
     1
102
RTVSPropertyOp2
 70
     1
102
RTVSPropertyOp3
 70
     1
102
RTVSPropertyOp4
 70
     1
102
RTVSPropertyOp5
 70
     1
102
RTVSPropertyOp6
 70
     1
102
RTVSPropertyOp7
 70
     1
102
RTVSPropertyOp8
 70
     1
102
RTVSPropertyOp9
 70
     1
102
RTVSPropertyOp10
 70
     1
102
RTVSPropertyOp11
 70
     1
102
RTVSPropertyOp12
 70
     1
102
RTVSPropertyOp13
 70
     1
102
RTVSPropertyOp14
 70
     1
102
RTVSPropertyOp15
 70
     1
102
RTVSPropertyOp16
 70
     1
102
RTVSPropertyOp17
 70
     1
102
RTVSPropertyOp18
 70
     1
102
RTVSPropertyOp19
 70
     1
102
RTVSPropertyOp20
 70
     1
102
RTVSPropertyOp21
 70
     1
102
RTVSPropertyOp22
 70
     1
102
RTVSPropertyOp23
 70
     1
102
RTVSPropertyOp24
 70
     1
102
RTVSPropertyOp25
 70
     1
102
RTVSPropertyOp26
 70
     1
102
RTVSPropertyOp27
 70
     1
102
RTVSPropertyOp28
 70
     1
102
RTVSPropertyOp29
 70
     1
102
RTVSPropertyOp30
 70
     1
102
RTVSPropertyOp31
 70
     1
102
RTVSPropertyOp32
 70
     1
102
RTVSPropertyOp33
 70
     1
102
RTVSPropertyOp34
 70
     1
102
RTVSPropertyOp35
 70
     1
102
RTVSPropertyOp36
 70
     1
102
RTVSPropertyOp37
 70
     1
102
RTVSPropertyOp38
 70
     1
102
RTVSPropertyOp39
 70
     1
102
RTVSPropertyOp40
 70
     1
102
RTVSPropertyOp41
 70
     1
102
RTVSPropertyOp42
 70
     1
102
RTVSPropertyOp43
 70
     1
102
RTVSPropertyOp44
 70
     1
102
RTVSPropertyOp45
 70
     1
102
RTVSPropertyOp46
 70
     1
102
RTVSPropertyOp47
 70
     1
102
RTVSPropertyOp48
 70
     1
102
RTVSPropertyOp49
 70
     1
102
RTVSPropertyOp50
 70
     1
102
RTVSPropertyOp51
 70
     0
102
RTVSPropertyOp52
 70
     0
102
RTVSPropertyOp53
 70
     1
102
RTVSPropertyOp54
 70
     1
102
RTVSPropertyOp55
 70
     1
102
RTVSPropertyOp56
 70
     1
102
RTVSPropertyOp57
 70
     1
102
RTVSPropertyOp58
 70
     1
102
RTVSPropertyOp59
 70
     1
102
RTVSPropertyOp60
 70
     1
102
RTVSPropertyOp61
 70
     1
102
RTVSPropertyOp62
 70
     1
  0
XRECORD
  5
10DC
102
{ACAD_REACTORS
330
10DB
102
}
330
10DB
100
AcDbXrecord
280
     1
102
RTVSPost2010Prop28
280
     0
102
RTVSPost2010PropOp28
 70
     1
102
RTVSPost2010Prop29
280
     1
102
RTVSPost2010PropOp29
 70
     1
102
RTVSPost2010Prop30
280
     1
102
RTVSPost2010PropOp30
 70
     1
102
RTVSPost2010Prop31
280
     0
102
RTVSPost2010PropOp31
 70
     1
102
RTVSPost2010Prop32
280
     0
102
RTVSPost2010PropOp32
 70
     1
102
RTVSPost2010Prop33
280
     0
102
RTVSPost2010PropOp33
 70
     1
102
RTVSPost2010Prop34
280
     0
102
RTVSPost2010PropOp34
 70
     1
102
RTVSPost2010Prop35
280
     0
102
RTVSPost2010PropOp35
 70
     1
102
RTVSPost2010Prop36
280
     0
102
RTVSPost2010PropOp36
 70
     1
102
RTVSPost2010Prop37
 90
       50
102
RTVSPost2010PropOp37
 70
     1
102
RTVSPost2010Prop38
140
0.0
102
RTVSPost2010PropOp38
 70
     1
102
RTVSPost2010Prop39
140
1.0
102
RTVSPost2010PropOp39
 70
     1
102
RTVSPost2010Prop40
 90
        0
102
RTVSPost2010PropOp40
 70
     1
102
RTVSPost2010Prop41ColorIndex
 90
       18
102
RTVSPost2010Prop41ColorRGB
 90
        0
102
RTVSPost2010PropOp41
 70
     1
102
RTVSPost2010Prop42
 90
       50
102
RTVSPost2010PropOp42
 70
     1
102
RTVSPost2010Prop43
 90
        3
102
RTVSPost2010PropOp43
 70
     1
102
RTVSPost2010Prop44ColorIndex
 90
        5
102
RTVSPost2010Prop44ColorRGB
 90
      255
102
RTVSPost2010PropOp44
 70
     1
102
RTVSPost2010Prop45
280
     0
102
RTVSPost2010PropOp45
 70
     1
102
RTVSPost2010Prop46
 90
       50
102
RTVSPost2010PropOp46
 70
     1
102
RTVSPost2010Prop47
 90
       50
102
RTVSPost2010PropOp47
 70
     1
102
RTVSPost2010Prop48
 90
       50
102
RTVSPost2010PropOp48
 70
     1
102
RTVSPost2010Prop49
280
     0
102
RTVSPost2010PropOp49
 70
     1
102
RTVSPost2010Prop50
 90
       50
102
RTVSPost2010PropOp50
 70
     1
102
RTVSPost2010Prop51ColorIndex
 90
      256
102
RTVSPost2010Prop51ColorRGB
 90
-16777216
102
RTVSPost2010PropOp51
 70
     0
102
RTVSPost2010Prop52
140
1.0
102
RTVSPost2010PropOp52
 70
     0
102
RTVSPost2010Prop53
 90
        2
102
RTVSPost2010PropOp53
 70
     1
102
RTVSPost2010Prop54
  1
strokes_ogs.tif
102
RTVSPost2010PropOp54
 70
     1
102
RTVSPost2010Prop55
280
     0
102
RTVSPost2010PropOp55
 70
     1
102
RTVSPost2010Prop56
140
1.0
102
RTVSPost2010PropOp56
 70
     1
102
RTVSPost2010Prop57
140
1.0
102
RTVSPost2010PropOp57
 70
     1
102
RTVSPropertyOp0
 70
     1
102
RTVSPropertyOp1
 70
     1
102
RTVSPropertyOp2
 70
     1
102
RTVSPropertyOp3
 70
     1
102
RTVSPropertyOp4
 70
     1
102
RTVSPropertyOp5
 70
     1
102
RTVSPropertyOp6
 70
     1
102
RTVSPropertyOp7
 70
     1
102
RTVSPropertyOp8
 70
     1
102
RTVSPropertyOp9
 70
     1
102
RTVSPropertyOp10
 70
     1
102
RTVSPropertyOp11
 70
     1
102
RTVSPropertyOp12
 70
     1
102
RTVSPropertyOp13
 70
     1
102
RTVSPropertyOp14
 70
     1
102
RTVSPropertyOp15
 70
     1
102
RTVSPropertyOp16
 70
     1
102
RTVSPropertyOp17
 70
     1
102
RTVSPropertyOp18
 70
     1
102
RTVSPropertyOp19
 70
     1
102
RTVSPropertyOp20
 70
     1
102
RTVSPropertyOp21
 70
     1
102
RTVSPropertyOp22
 70
     1
102
RTVSPropertyOp23
 70
     1
102
RTVSPropertyOp24
 70
     1
102
RTVSPropertyOp25
 70
     1
102
RTVSPropertyOp26
 70
     1
102
RTVSPropertyOp27
 70
     1
102
RTVSPropertyOp28
 70
     1
102
RTVSPropertyOp29
 70
     1
102
RTVSPropertyOp30
 70
     1
102
RTVSPropertyOp31
 70
     1
102
RTVSPropertyOp32
 70
     1
102
RTVSPropertyOp33
 70
     1
102
RTVSPropertyOp34
 70
     1
102
RTVSPropertyOp35
 70
     1
102
RTVSPropertyOp36
 70
     1
102
RTVSPropertyOp37
 70
     1
102
RTVSPropertyOp38
 70
     1
102
RTVSPropertyOp39
 70
     1
102
RTVSPropertyOp40
 70
     1
102
RTVSPropertyOp41
 70
     1
102
RTVSPropertyOp42
 70
     1
102
RTVSPropertyOp43
 70
     1
102
RTVSPropertyOp44
 70
     1
102
RTVSPropertyOp45
 70
     1
102
RTVSPropertyOp46
 70
     1
102
RTVSPropertyOp47
 70
     1
102
RTVSPropertyOp48
 70
     1
102
RTVSPropertyOp49
 70
     1
102
RTVSPropertyOp50
 70
     1
102
RTVSPropertyOp51
 70
     0
102
RTVSPropertyOp52
 70
     0
102
RTVSPropertyOp53
 70
     1
102
RTVSPropertyOp54
 70
     1
102
RTVSPropertyOp55
 70
     1
102
RTVSPropertyOp56
 70
     1
102
RTVSPropertyOp57
 70
     1
102
RTVSPropertyOp58
 70
     1
102
RTVSPropertyOp59
 70
     1
102
RTVSPropertyOp60
 70
     1
102
RTVSPropertyOp61
 70
     1
102
RTVSPropertyOp62
 70
     1
  0
XRECORD
  5
10D6
102
{ACAD_REACTORS
330
10D5
102
}
330
10D5
100
AcDbXrecord
280
     1
102
RTVSPost2010Prop28
280
     0
102
RTVSPost2010PropOp28
 70
     1
102
RTVSPost2010Prop29
280
     1
102
RTVSPost2010PropOp29
 70
     1
102
RTVSPost2010Prop30
280
     1
102
RTVSPost2010PropOp30
 70
     1
102
RTVSPost2010Prop31
280
     0
102
RTVSPost2010PropOp31
 70
     1
102
RTVSPost2010Prop32
280
     0
102
RTVSPost2010PropOp32
 70
     1
102
RTVSPost2010Prop33
280
     0
102
RTVSPost2010PropOp33
 70
     1
102
RTVSPost2010Prop34
280
     0
102
RTVSPost2010PropOp34
 70
     1
102
RTVSPost2010Prop35
280
     0
102
RTVSPost2010PropOp35
 70
     1
102
RTVSPost2010Prop36
280
     0
102
RTVSPost2010PropOp36
 70
     1
102
RTVSPost2010Prop37
 90
       50
102
RTVSPost2010PropOp37
 70
     1
102
RTVSPost2010Prop38
140
0.0
102
RTVSPost2010PropOp38
 70
     1
102
RTVSPost2010Prop39
140
1.0
102
RTVSPost2010PropOp39
 70
     1
102
RTVSPost2010Prop40
 90
        0
102
RTVSPost2010PropOp40
 70
     1
102
RTVSPost2010Prop41ColorIndex
 90
       18
102
RTVSPost2010Prop41ColorRGB
 90
        0
102
RTVSPost2010PropOp41
 70
     1
102
RTVSPost2010Prop42
 90
       50
102
RTVSPost2010PropOp42
 70
     1
102
RTVSPost2010Prop43
 90
        3
102
RTVSPost2010PropOp43
 70
     1
102
RTVSPost2010Prop44ColorIndex
 90
        5
102
RTVSPost2010Prop44ColorRGB
 90
      255
102
RTVSPost2010PropOp44
 70
     1
102
RTVSPost2010Prop45
280
     0
102
RTVSPost2010PropOp45
 70
     1
102
RTVSPost2010Prop46
 90
       50
102
RTVSPost2010PropOp46
 70
     1
102
RTVSPost2010Prop47
 90
       50
102
RTVSPost2010PropOp47
 70
     1
102
RTVSPost2010Prop48
 90
       50
102
RTVSPost2010PropOp48
 70
     1
102
RTVSPost2010Prop49
280
     0
102
RTVSPost2010PropOp49
 70
     1
102
RTVSPost2010Prop50
 90
       50
102
RTVSPost2010PropOp50
 70
     1
102
RTVSPost2010Prop51ColorIndex
 90
      256
102
RTVSPost2010Prop51ColorRGB
 90
-16777216
102
RTVSPost2010PropOp51
 70
     0
102
RTVSPost2010Prop52
140
1.0
102
RTVSPost2010PropOp52
 70
     0
102
RTVSPost2010Prop53
 90
        2
102
RTVSPost2010PropOp53
 70
     1
102
RTVSPost2010Prop54
  1
strokes_ogs.tif
102
RTVSPost2010PropOp54
 70
     1
102
RTVSPost2010Prop55
280
     0
102
RTVSPost2010PropOp55
 70
     1
102
RTVSPost2010Prop56
140
1.0
102
RTVSPost2010PropOp56
 70
     1
102
RTVSPost2010Prop57
140
1.0
102
RTVSPost2010PropOp57
 70
     1
102
RTVSPropertyOp0
 70
     1
102
RTVSPropertyOp1
 70
     1
102
RTVSPropertyOp2
 70
     1
102
RTVSPropertyOp3
 70
     1
102
RTVSPropertyOp4
 70
     1
102
RTVSPropertyOp5
 70
     1
102
RTVSPropertyOp6
 70
     1
102
RTVSPropertyOp7
 70
     1
102
RTVSPropertyOp8
 70
     1
102
RTVSPropertyOp9
 70
     1
102
RTVSPropertyOp10
 70
     1
102
RTVSPropertyOp11
 70
     1
102
RTVSPropertyOp12
 70
     1
102
RTVSPropertyOp13
 70
     1
102
RTVSPropertyOp14
 70
     1
102
RTVSPropertyOp15
 70
     1
102
RTVSPropertyOp16
 70
     1
102
RTVSPropertyOp17
 70
     1
102
RTVSPropertyOp18
 70
     1
102
RTVSPropertyOp19
 70
     1
102
RTVSPropertyOp20
 70
     1
102
RTVSPropertyOp21
 70
     1
102
RTVSPropertyOp22
 70
     1
102
RTVSPropertyOp23
 70
     1
102
RTVSPropertyOp24
 70
     1
102
RTVSPropertyOp25
 70
     1
102
RTVSPropertyOp26
 70
     1
102
RTVSPropertyOp27
 70
     1
102
RTVSPropertyOp28
 70
     1
102
RTVSPropertyOp29
 70
     1
102
RTVSPropertyOp30
 70
     1
102
RTVSPropertyOp31
 70
     1
102
RTVSPropertyOp32
 70
     1
102
RTVSPropertyOp33
 70
     1
102
RTVSPropertyOp34
 70
     1
102
RTVSPropertyOp35
 70
     1
102
RTVSPropertyOp36
 70
     1
102
RTVSPropertyOp37
 70
     1
102
RTVSPropertyOp38
 70
     1
102
RTVSPropertyOp39
 70
     1
102
RTVSPropertyOp40
 70
     1
102
RTVSPropertyOp41
 70
     1
102
RTVSPropertyOp42
 70
     1
102
RTVSPropertyOp43
 70
     1
102
RTVSPropertyOp44
 70
     1
102
RTVSPropertyOp45
 70
     1
102
RTVSPropertyOp46
 70
     1
102
RTVSPropertyOp47
 70
     1
102
RTVSPropertyOp48
 70
     1
102
RTVSPropertyOp49
 70
     1
102
RTVSPropertyOp50
 70
     1
102
RTVSPropertyOp51
 70
     0
102
RTVSPropertyOp52
 70
     0
102
RTVSPropertyOp53
 70
     1
102
RTVSPropertyOp54
 70
     1
102
RTVSPropertyOp55
 70
     1
102
RTVSPropertyOp56
 70
     1
102
RTVSPropertyOp57
 70
     1
102
RTVSPropertyOp58
 70
     1
102
RTVSPropertyOp59
 70
     1
102
RTVSPropertyOp60
 70
     1
102
RTVSPropertyOp61
 70
     1
102
RTVSPropertyOp62
 70
     1
  0
XRECORD
  5
10D8
102
{ACAD_REACTORS
330
10D7
102
}
330
10D7
100
AcDbXrecord
280
     1
102
RTVSPost2010Prop28
280
     0
102
RTVSPost2010PropOp28
 70
     1
102
RTVSPost2010Prop29
280
     1
102
RTVSPost2010PropOp29
 70
     1
102
RTVSPost2010Prop30
280
     1
102
RTVSPost2010PropOp30
 70
     1
102
RTVSPost2010Prop31
280
     0
102
RTVSPost2010PropOp31
 70
     1
102
RTVSPost2010Prop32
280
     0
102
RTVSPost2010PropOp32
 70
     1
102
RTVSPost2010Prop33
280
     0
102
RTVSPost2010PropOp33
 70
     1
102
RTVSPost2010Prop34
280
     0
102
RTVSPost2010PropOp34
 70
     1
102
RTVSPost2010Prop35
280
     0
102
RTVSPost2010PropOp35
 70
     1
102
RTVSPost2010Prop36
280
     0
102
RTVSPost2010PropOp36
 70
     1
102
RTVSPost2010Prop37
 90
       50
102
RTVSPost2010PropOp37
 70
     1
102
RTVSPost2010Prop38
140
0.0
102
RTVSPost2010PropOp38
 70
     1
102
RTVSPost2010Prop39
140
1.0
102
RTVSPost2010PropOp39
 70
     1
102
RTVSPost2010Prop40
 90
        0
102
RTVSPost2010PropOp40
 70
     1
102
RTVSPost2010Prop41ColorIndex
 90
       18
102
RTVSPost2010Prop41ColorRGB
 90
        0
102
RTVSPost2010PropOp41
 70
     1
102
RTVSPost2010Prop42
 90
       50
102
RTVSPost2010PropOp42
 70
     1
102
RTVSPost2010Prop43
 90
        3
102
RTVSPost2010PropOp43
 70
     1
102
RTVSPost2010Prop44ColorIndex
 90
        5
102
RTVSPost2010Prop44ColorRGB
 90
      255
102
RTVSPost2010PropOp44
 70
     1
102
RTVSPost2010Prop45
280
     0
102
RTVSPost2010PropOp45
 70
     1
102
RTVSPost2010Prop46
 90
       50
102
RTVSPost2010PropOp46
 70
     1
102
RTVSPost2010Prop47
 90
       50
102
RTVSPost2010PropOp47
 70
     1
102
RTVSPost2010Prop48
 90
       50
102
RTVSPost2010PropOp48
 70
     1
102
RTVSPost2010Prop49
280
     0
102
RTVSPost2010PropOp49
 70
     1
102
RTVSPost2010Prop50
 90
       50
102
RTVSPost2010PropOp50
 70
     1
102
RTVSPost2010Prop51ColorIndex
 90
      256
102
RTVSPost2010Prop51ColorRGB
 90
-16777216
102
RTVSPost2010PropOp51
 70
     0
102
RTVSPost2010Prop52
140
1.0
102
RTVSPost2010PropOp52
 70
     0
102
RTVSPost2010Prop53
 90
        2
102
RTVSPost2010PropOp53
 70
     1
102
RTVSPost2010Prop54
  1
strokes_ogs.tif
102
RTVSPost2010PropOp54
 70
     1
102
RTVSPost2010Prop55
280
     0
102
RTVSPost2010PropOp55
 70
     1
102
RTVSPost2010Prop56
140
1.0
102
RTVSPost2010PropOp56
 70
     1
102
RTVSPost2010Prop57
140
1.0
102
RTVSPost2010PropOp57
 70
     1
102
RTVSPropertyOp0
 70
     1
102
RTVSPropertyOp1
 70
     1
102
RTVSPropertyOp2
 70
     1
102
RTVSPropertyOp3
 70
     1
102
RTVSPropertyOp4
 70
     1
102
RTVSPropertyOp5
 70
     1
102
RTVSPropertyOp6
 70
     1
102
RTVSPropertyOp7
 70
     1
102
RTVSPropertyOp8
 70
     1
102
RTVSPropertyOp9
 70
     1
102
RTVSPropertyOp10
 70
     1
102
RTVSPropertyOp11
 70
     1
102
RTVSPropertyOp12
 70
     1
102
RTVSPropertyOp13
 70
     1
102
RTVSPropertyOp14
 70
     1
102
RTVSPropertyOp15
 70
     1
102
RTVSPropertyOp16
 70
     1
102
RTVSPropertyOp17
 70
     1
102
RTVSPropertyOp18
 70
     1
102
RTVSPropertyOp19
 70
     1
102
RTVSPropertyOp20
 70
     1
102
RTVSPropertyOp21
 70
     1
102
RTVSPropertyOp22
 70
     1
102
RTVSPropertyOp23
 70
     1
102
RTVSPropertyOp24
 70
     1
102
RTVSPropertyOp25
 70
     1
102
RTVSPropertyOp26
 70
     1
102
RTVSPropertyOp27
 70
     1
102
RTVSPropertyOp28
 70
     1
102
RTVSPropertyOp29
 70
     1
102
RTVSPropertyOp30
 70
     1
102
RTVSPropertyOp31
 70
     1
102
RTVSPropertyOp32
 70
     1
102
RTVSPropertyOp33
 70
     1
102
RTVSPropertyOp34
 70
     1
102
RTVSPropertyOp35
 70
     1
102
RTVSPropertyOp36
 70
     1
102
RTVSPropertyOp37
 70
     1
102
RTVSPropertyOp38
 70
     1
102
RTVSPropertyOp39
 70
     1
102
RTVSPropertyOp40
 70
     1
102
RTVSPropertyOp41
 70
     1
102
RTVSPropertyOp42
 70
     1
102
RTVSPropertyOp43
 70
     1
102
RTVSPropertyOp44
 70
     1
102
RTVSPropertyOp45
 70
     1
102
RTVSPropertyOp46
 70
     1
102
RTVSPropertyOp47
 70
     1
102
RTVSPropertyOp48
 70
     1
102
RTVSPropertyOp49
 70
     1
102
RTVSPropertyOp50
 70
     1
102
RTVSPropertyOp51
 70
     0
102
RTVSPropertyOp52
 70
     0
102
RTVSPropertyOp53
 70
     1
102
RTVSPropertyOp54
 70
     1
102
RTVSPropertyOp55
 70
     1
102
RTVSPropertyOp56
 70
     1
102
RTVSPropertyOp57
 70
     1
102
RTVSPropertyOp58
 70
     1
102
RTVSPropertyOp59
 70
     1
102
RTVSPropertyOp60
 70
     1
102
RTVSPropertyOp61
 70
     1
102
RTVSPropertyOp62
 70
     1
  0
XRECORD
  5
10CE
102
{ACAD_REACTORS
330
10CD
102
}
330
10CD
100
AcDbXrecord
280
     1
102
RTVSPost2010Prop28
280
     0
102
RTVSPost2010PropOp28
 70
     1
102
RTVSPost2010Prop29
280
     1
102
RTVSPost2010PropOp29
 70
     1
102
RTVSPost2010Prop30
280
     1
102
RTVSPost2010PropOp30
 70
     1
102
RTVSPost2010Prop31
280
     0
102
RTVSPost2010PropOp31
 70
     1
102
RTVSPost2010Prop32
280
     0
102
RTVSPost2010PropOp32
 70
     1
102
RTVSPost2010Prop33
280
     0
102
RTVSPost2010PropOp33
 70
     1
102
RTVSPost2010Prop34
280
     0
102
RTVSPost2010PropOp34
 70
     1
102
RTVSPost2010Prop35
280
     0
102
RTVSPost2010PropOp35
 70
     1
102
RTVSPost2010Prop36
280
     0
102
RTVSPost2010PropOp36
 70
     1
102
RTVSPost2010Prop37
 90
       50
102
RTVSPost2010PropOp37
 70
     1
102
RTVSPost2010Prop38
140
0.0
102
RTVSPost2010PropOp38
 70
     1
102
RTVSPost2010Prop39
140
1.0
102
RTVSPost2010PropOp39
 70
     1
102
RTVSPost2010Prop40
 90
        0
102
RTVSPost2010PropOp40
 70
     1
102
RTVSPost2010Prop41ColorIndex
 90
       18
102
RTVSPost2010Prop41ColorRGB
 90
        0
102
RTVSPost2010PropOp41
 70
     1
102
RTVSPost2010Prop42
 90
       50
102
RTVSPost2010PropOp42
 70
     1
102
RTVSPost2010Prop43
 90
        3
102
RTVSPost2010PropOp43
 70
     1
102
RTVSPost2010Prop44ColorIndex
 90
        5
102
RTVSPost2010Prop44ColorRGB
 90
      255
102
RTVSPost2010PropOp44
 70
     1
102
RTVSPost2010Prop45
280
     0
102
RTVSPost2010PropOp45
 70
     1
102
RTVSPost2010Prop46
 90
       50
102
RTVSPost2010PropOp46
 70
     1
102
RTVSPost2010Prop47
 90
       50
102
RTVSPost2010PropOp47
 70
     1
102
RTVSPost2010Prop48
 90
       50
102
RTVSPost2010PropOp48
 70
     1
102
RTVSPost2010Prop49
280
     0
102
RTVSPost2010PropOp49
 70
     1
102
RTVSPost2010Prop50
 90
       50
102
RTVSPost2010PropOp50
 70
     1
102
RTVSPost2010Prop51ColorIndex
 90
      256
102
RTVSPost2010Prop51ColorRGB
 90
-16777216
102
RTVSPost2010PropOp51
 70
     0
102
RTVSPost2010Prop52
140
1.0
102
RTVSPost2010PropOp52
 70
     0
102
RTVSPost2010Prop53
 90
        2
102
RTVSPost2010PropOp53
 70
     1
102
RTVSPost2010Prop54
  1
strokes_ogs.tif
102
RTVSPost2010PropOp54
 70
     1
102
RTVSPost2010Prop55
280
     0
102
RTVSPost2010PropOp55
 70
     1
102
RTVSPost2010Prop56
140
1.0
102
RTVSPost2010PropOp56
 70
     1
102
RTVSPost2010Prop57
140
1.0
102
RTVSPost2010PropOp57
 70
     1
102
RTVSPropertyOp0
 70
     1
102
RTVSPropertyOp1
 70
     1
102
RTVSPropertyOp2
 70
     1
102
RTVSPropertyOp3
 70
     1
102
RTVSPropertyOp4
 70
     1
102
RTVSPropertyOp5
 70
     1
102
RTVSPropertyOp6
 70
     1
102
RTVSPropertyOp7
 70
     1
102
RTVSPropertyOp8
 70
     1
102
RTVSPropertyOp9
 70
     1
102
RTVSPropertyOp10
 70
     1
102
RTVSPropertyOp11
 70
     1
102
RTVSPropertyOp12
 70
     1
102
RTVSPropertyOp13
 70
     1
102
RTVSPropertyOp14
 70
     1
102
RTVSPropertyOp15
 70
     1
102
RTVSPropertyOp16
 70
     1
102
RTVSPropertyOp17
 70
     1
102
RTVSPropertyOp18
 70
     1
102
RTVSPropertyOp19
 70
     1
102
RTVSPropertyOp20
 70
     1
102
RTVSPropertyOp21
 70
     1
102
RTVSPropertyOp22
 70
     1
102
RTVSPropertyOp23
 70
     1
102
RTVSPropertyOp24
 70
     1
102
RTVSPropertyOp25
 70
     1
102
RTVSPropertyOp26
 70
     1
102
RTVSPropertyOp27
 70
     1
102
RTVSPropertyOp28
 70
     1
102
RTVSPropertyOp29
 70
     1
102
RTVSPropertyOp30
 70
     1
102
RTVSPropertyOp31
 70
     1
102
RTVSPropertyOp32
 70
     1
102
RTVSPropertyOp33
 70
     1
102
RTVSPropertyOp34
 70
     1
102
RTVSPropertyOp35
 70
     1
102
RTVSPropertyOp36
 70
     1
102
RTVSPropertyOp37
 70
     1
102
RTVSPropertyOp38
 70
     1
102
RTVSPropertyOp39
 70
     1
102
RTVSPropertyOp40
 70
     1
102
RTVSPropertyOp41
 70
     1
102
RTVSPropertyOp42
 70
     1
102
RTVSPropertyOp43
 70
     1
102
RTVSPropertyOp44
 70
     1
102
RTVSPropertyOp45
 70
     1
102
RTVSPropertyOp46
 70
     1
102
RTVSPropertyOp47
 70
     1
102
RTVSPropertyOp48
 70
     1
102
RTVSPropertyOp49
 70
     1
102
RTVSPropertyOp50
 70
     1
102
RTVSPropertyOp51
 70
     0
102
RTVSPropertyOp52
 70
     0
102
RTVSPropertyOp53
 70
     1
102
RTVSPropertyOp54
 70
     1
102
RTVSPropertyOp55
 70
     1
102
RTVSPropertyOp56
 70
     1
102
RTVSPropertyOp57
 70
     1
102
RTVSPropertyOp58
 70
     1
102
RTVSPropertyOp59
 70
     1
102
RTVSPropertyOp60
 70
     1
102
RTVSPropertyOp61
 70
     1
102
RTVSPropertyOp62
 70
     1
  0
XRECORD
  5
10C2
102
{ACAD_REACTORS
330
10C1
102
}
330
10C1
100
AcDbXrecord
280
     1
102
RTVSPost2010Prop28
280
     0
102
RTVSPost2010PropOp28
 70
     1
102
RTVSPost2010Prop29
280
     1
102
RTVSPost2010PropOp29
 70
     1
102
RTVSPost2010Prop30
280
     1
102
RTVSPost2010PropOp30
 70
     1
102
RTVSPost2010Prop31
280
     0
102
RTVSPost2010PropOp31
 70
     1
102
RTVSPost2010Prop32
280
     0
102
RTVSPost2010PropOp32
 70
     1
102
RTVSPost2010Prop33
280
     0
102
RTVSPost2010PropOp33
 70
     1
102
RTVSPost2010Prop34
280
     0
102
RTVSPost2010PropOp34
 70
     1
102
RTVSPost2010Prop35
280
     0
102
RTVSPost2010PropOp35
 70
     1
102
RTVSPost2010Prop36
280
     0
102
RTVSPost2010PropOp36
 70
     1
102
RTVSPost2010Prop37
 90
       50
102
RTVSPost2010PropOp37
 70
     1
102
RTVSPost2010Prop38
140
0.0
102
RTVSPost2010PropOp38
 70
     1
102
RTVSPost2010Prop39
140
1.0
102
RTVSPost2010PropOp39
 70
     1
102
RTVSPost2010Prop40
 90
        0
102
RTVSPost2010PropOp40
 70
     1
102
RTVSPost2010Prop41ColorIndex
 90
       18
102
RTVSPost2010Prop41ColorRGB
 90
        0
102
RTVSPost2010PropOp41
 70
     1
102
RTVSPost2010Prop42
 90
       50
102
RTVSPost2010PropOp42
 70
     1
102
RTVSPost2010Prop43
 90
        3
102
RTVSPost2010PropOp43
 70
     1
102
RTVSPost2010Prop44ColorIndex
 90
        5
102
RTVSPost2010Prop44ColorRGB
 90
      255
102
RTVSPost2010PropOp44
 70
     1
102
RTVSPost2010Prop45
280
     0
102
RTVSPost2010PropOp45
 70
     1
102
RTVSPost2010Prop46
 90
       50
102
RTVSPost2010PropOp46
 70
     1
102
RTVSPost2010Prop47
 90
       50
102
RTVSPost2010PropOp47
 70
     1
102
RTVSPost2010Prop48
 90
       50
102
RTVSPost2010PropOp48
 70
     1
102
RTVSPost2010Prop49
280
     0
102
RTVSPost2010PropOp49
 70
     1
102
RTVSPost2010Prop50
 90
       50
102
RTVSPost2010PropOp50
 70
     1
102
RTVSPost2010Prop51ColorIndex
 90
      256
102
RTVSPost2010Prop51ColorRGB
 90
-16777216
102
RTVSPost2010PropOp51
 70
     0
102
RTVSPost2010Prop52
140
1.0
102
RTVSPost2010PropOp52
 70
     0
102
RTVSPost2010Prop53
 90
        2
102
RTVSPost2010PropOp53
 70
     1
102
RTVSPost2010Prop54
  1
strokes_ogs.tif
102
RTVSPost2010PropOp54
 70
     1
102
RTVSPost2010Prop55
280
     0
102
RTVSPost2010PropOp55
 70
     1
102
RTVSPost2010Prop56
140
1.0
102
RTVSPost2010PropOp56
 70
     1
102
RTVSPost2010Prop57
140
1.0
102
RTVSPost2010PropOp57
 70
     1
102
RTVSPropertyOp0
 70
     1
102
RTVSPropertyOp1
 70
     1
102
RTVSPropertyOp2
 70
     1
102
RTVSPropertyOp3
 70
     1
102
RTVSPropertyOp4
 70
     1
102
RTVSPropertyOp5
 70
     1
102
RTVSPropertyOp6
 70
     1
102
RTVSPropertyOp7
 70
     1
102
RTVSPropertyOp8
 70
     1
102
RTVSPropertyOp9
 70
     1
102
RTVSPropertyOp10
 70
     1
102
RTVSPropertyOp11
 70
     1
102
RTVSPropertyOp12
 70
     1
102
RTVSPropertyOp13
 70
     1
102
RTVSPropertyOp14
 70
     1
102
RTVSPropertyOp15
 70
     1
102
RTVSPropertyOp16
 70
     1
102
RTVSPropertyOp17
 70
     1
102
RTVSPropertyOp18
 70
     1
102
RTVSPropertyOp19
 70
     1
102
RTVSPropertyOp20
 70
     1
102
RTVSPropertyOp21
 70
     1
102
RTVSPropertyOp22
 70
     1
102
RTVSPropertyOp23
 70
     1
102
RTVSPropertyOp24
 70
     1
102
RTVSPropertyOp25
 70
     1
102
RTVSPropertyOp26
 70
     1
102
RTVSPropertyOp27
 70
     1
102
RTVSPropertyOp28
 70
     1
102
RTVSPropertyOp29
 70
     1
102
RTVSPropertyOp30
 70
     1
102
RTVSPropertyOp31
 70
     1
102
RTVSPropertyOp32
 70
     1
102
RTVSPropertyOp33
 70
     1
102
RTVSPropertyOp34
 70
     1
102
RTVSPropertyOp35
 70
     1
102
RTVSPropertyOp36
 70
     1
102
RTVSPropertyOp37
 70
     1
102
RTVSPropertyOp38
 70
     1
102
RTVSPropertyOp39
 70
     1
102
RTVSPropertyOp40
 70
     1
102
RTVSPropertyOp41
 70
     1
102
RTVSPropertyOp42
 70
     1
102
RTVSPropertyOp43
 70
     1
102
RTVSPropertyOp44
 70
     1
102
RTVSPropertyOp45
 70
     1
102
RTVSPropertyOp46
 70
     1
102
RTVSPropertyOp47
 70
     1
102
RTVSPropertyOp48
 70
     1
102
RTVSPropertyOp49
 70
     1
102
RTVSPropertyOp50
 70
     1
102
RTVSPropertyOp51
 70
     0
102
RTVSPropertyOp52
 70
     0
102
RTVSPropertyOp53
 70
     1
102
RTVSPropertyOp54
 70
     1
102
RTVSPropertyOp55
 70
     1
102
RTVSPropertyOp56
 70
     1
102
RTVSPropertyOp57
 70
     1
102
RTVSPropertyOp58
 70
     1
102
RTVSPropertyOp59
 70
     1
102
RTVSPropertyOp60
 70
     1
102
RTVSPropertyOp61
 70
     1
102
RTVSPropertyOp62
 70
     1
  0
XRECORD
  5
10DA
102
{ACAD_REACTORS
330
10D9
102
}
330
10D9
100
AcDbXrecord
280
     1
102
RTVSPost2010Prop28
280
     0
102
RTVSPost2010PropOp28
 70
     1
102
RTVSPost2010Prop29
280
     1
102
RTVSPost2010PropOp29
 70
     1
102
RTVSPost2010Prop30
280
     1
102
RTVSPost2010PropOp30
 70
     1
102
RTVSPost2010Prop31
280
     0
102
RTVSPost2010PropOp31
 70
     1
102
RTVSPost2010Prop32
280
     0
102
RTVSPost2010PropOp32
 70
     1
102
RTVSPost2010Prop33
280
     0
102
RTVSPost2010PropOp33
 70
     1
102
RTVSPost2010Prop34
280
     0
102
RTVSPost2010PropOp34
 70
     1
102
RTVSPost2010Prop35
280
     0
102
RTVSPost2010PropOp35
 70
     1
102
RTVSPost2010Prop36
280
     0
102
RTVSPost2010PropOp36
 70
     1
102
RTVSPost2010Prop37
 90
       50
102
RTVSPost2010PropOp37
 70
     1
102
RTVSPost2010Prop38
140
0.0
102
RTVSPost2010PropOp38
 70
     1
102
RTVSPost2010Prop39
140
1.0
102
RTVSPost2010PropOp39
 70
     1
102
RTVSPost2010Prop40
 90
        0
102
RTVSPost2010PropOp40
 70
     1
102
RTVSPost2010Prop41ColorIndex
 90
       18
102
RTVSPost2010Prop41ColorRGB
 90
        0
102
RTVSPost2010PropOp41
 70
     1
102
RTVSPost2010Prop42
 90
       50
102
RTVSPost2010PropOp42
 70
     1
102
RTVSPost2010Prop43
 90
        3
102
RTVSPost2010PropOp43
 70
     1
102
RTVSPost2010Prop44ColorIndex
 90
        5
102
RTVSPost2010Prop44ColorRGB
 90
      255
102
RTVSPost2010PropOp44
 70
     1
102
RTVSPost2010Prop45
280
     0
102
RTVSPost2010PropOp45
 70
     1
102
RTVSPost2010Prop46
 90
       50
102
RTVSPost2010PropOp46
 70
     1
102
RTVSPost2010Prop47
 90
       50
102
RTVSPost2010PropOp47
 70
     1
102
RTVSPost2010Prop48
 90
       50
102
RTVSPost2010PropOp48
 70
     1
102
RTVSPost2010Prop49
280
     0
102
RTVSPost2010PropOp49
 70
     1
102
RTVSPost2010Prop50
 90
       50
102
RTVSPost2010PropOp50
 70
     1
102
RTVSPost2010Prop51ColorIndex
 90
      256
102
RTVSPost2010Prop51ColorRGB
 90
-16777216
102
RTVSPost2010PropOp51
 70
     0
102
RTVSPost2010Prop52
140
1.0
102
RTVSPost2010PropOp52
 70
     0
102
RTVSPost2010Prop53
 90
        2
102
RTVSPost2010PropOp53
 70
     1
102
RTVSPost2010Prop54
  1
strokes_ogs.tif
102
RTVSPost2010PropOp54
 70
     1
102
RTVSPost2010Prop55
280
     0
102
RTVSPost2010PropOp55
 70
     1
102
RTVSPost2010Prop56
140
1.0
102
RTVSPost2010PropOp56
 70
     1
102
RTVSPost2010Prop57
140
1.0
102
RTVSPost2010PropOp57
 70
     1
102
RTVSPropertyOp0
 70
     1
102
RTVSPropertyOp1
 70
     1
102
RTVSPropertyOp2
 70
     1
102
RTVSPropertyOp3
 70
     1
102
RTVSPropertyOp4
 70
     1
102
RTVSPropertyOp5
 70
     1
102
RTVSPropertyOp6
 70
     1
102
RTVSPropertyOp7
 70
     1
102
RTVSPropertyOp8
 70
     1
102
RTVSPropertyOp9
 70
     1
102
RTVSPropertyOp10
 70
     1
102
RTVSPropertyOp11
 70
     1
102
RTVSPropertyOp12
 70
     1
102
RTVSPropertyOp13
 70
     1
102
RTVSPropertyOp14
 70
     1
102
RTVSPropertyOp15
 70
     1
102
RTVSPropertyOp16
 70
     1
102
RTVSPropertyOp17
 70
     1
102
RTVSPropertyOp18
 70
     1
102
RTVSPropertyOp19
 70
     1
102
RTVSPropertyOp20
 70
     1
102
RTVSPropertyOp21
 70
     1
102
RTVSPropertyOp22
 70
     1
102
RTVSPropertyOp23
 70
     1
102
RTVSPropertyOp24
 70
     1
102
RTVSPropertyOp25
 70
     1
102
RTVSPropertyOp26
 70
     1
102
RTVSPropertyOp27
 70
     1
102
RTVSPropertyOp28
 70
     1
102
RTVSPropertyOp29
 70
     1
102
RTVSPropertyOp30
 70
     1
102
RTVSPropertyOp31
 70
     1
102
RTVSPropertyOp32
 70
     1
102
RTVSPropertyOp33
 70
     1
102
RTVSPropertyOp34
 70
     1
102
RTVSPropertyOp35
 70
     1
102
RTVSPropertyOp36
 70
     1
102
RTVSPropertyOp37
 70
     1
102
RTVSPropertyOp38
 70
     1
102
RTVSPropertyOp39
 70
     1
102
RTVSPropertyOp40
 70
     1
102
RTVSPropertyOp41
 70
     1
102
RTVSPropertyOp42
 70
     1
102
RTVSPropertyOp43
 70
     1
102
RTVSPropertyOp44
 70
     1
102
RTVSPropertyOp45
 70
     1
102
RTVSPropertyOp46
 70
     1
102
RTVSPropertyOp47
 70
     1
102
RTVSPropertyOp48
 70
     1
102
RTVSPropertyOp49
 70
     1
102
RTVSPropertyOp50
 70
     1
102
RTVSPropertyOp51
 70
     0
102
RTVSPropertyOp52
 70
     0
102
RTVSPropertyOp53
 70
     1
102
RTVSPropertyOp54
 70
     1
102
RTVSPropertyOp55
 70
     1
102
RTVSPropertyOp56
 70
     1
102
RTVSPropertyOp57
 70
     1
102
RTVSPropertyOp58
 70
     1
102
RTVSPropertyOp59
 70
     1
102
RTVSPropertyOp60
 70
     1
102
RTVSPropertyOp61
 70
     1
102
RTVSPropertyOp62
 70
     1
  0
ENDSEC
  0
EOF
