  0
SECTION
  2
HEADER
  9
$ACADVER
  1
AC1015
  9
$ACADMAINTVER
 70
    20
  9
$DWGCODEPAGE
  3
ANSI_932
  9
$INSBASE
 10
0.0
 20
0.0
 30
0.0
  9
$EXTMIN
 10
8.994264822005488
 20
9.999999613693489
 30
0.0
  9
$EXTMAX
 10
779.7639184307895
 20
533.6110365850227
 30
0.0
  9
$LIMMIN
 10
0.0000015376081137
 20
-0.0000001931532552
  9
$LIMMAX
 10
792.0000015376082
 20
545.9999998068465
  9
$ORTHOMODE
 70
     0
  9
$REGENMODE
 70
     1
  9
$FILLMODE
 70
     1
  9
$QTEXTMODE
 70
     0
  9
$MIRRTEXT
 70
     1
  9
$LTSCALE
 40
1.0
  9
$ATTMODE
 70
     1
  9
$TEXTSIZE
 40
2.5
  9
$TRACEWID
 40
1.0
  9
$TEXTSTYLE
  7
STANDARD
  9
$CLAYER
  8
0
  9
$CELTYPE
  6
ByLayer
  9
$CECOLOR
 62
   256
  9
$CELTSCALE
 40
1.0
  9
$DISPSILH
 70
     0
  9
$DIMSCALE
 40
1.0
  9
$DIMASZ
 40
3.0
  9
$DIMEXO
 40
1.0
  9
$DIMDLI
 40
10.0
  9
$DIMRND
 40
0.0
  9
$DIMDLE
 40
0.0
  9
$DIMEXE
 40
1.0
  9
$DIMTP
 40
0.0
  9
$DIMTM
 40
0.0
  9
$DIMTXT
 40
3.2
  9
$DIMCEN
 40
0.0
  9
$DIMTSZ
 40
0.0
  9
$DIMTOL
 70
     0
  9
$DIMLIM
 70
     0
  9
$DIMTIH
 70
     0
  9
$DIMTOH
 70
     0
  9
$DIMSE1
 70
     0
  9
$DIMSE2
 70
     0
  9
$DIMTAD
 70
     3
  9
$DIMZIN
 70
     8
  9
$DIMBLK
  1

  9
$DIMASO
 70
     1
  9
$DIMSHO
 70
     1
  9
$DIMPOST
  1

  9
$DIMAPOST
  1

  9
$DIMALT
 70
     0
  9
$DIMALTD
 70
     2
  9
$DIMALTF
 40
25.4
  9
$DIMLFAC
 40
1.0
  9
$DIMTOFL
 70
     1
  9
$DIMTVP
 40
0.0
  9
$DIMTIX
 70
     0
  9
$DIMSOXD
 70
     0
  9
$DIMSAH
 70
     1
  9
$DIMBLK1
  1
OPEN
  9
$DIMBLK2
  1
OPEN
  9
$DIMSTYLE
  2
STANDARD
  9
$DIMCLRD
 70
     0
  9
$DIMCLRE
 70
     0
  9
$DIMCLRT
 70
     0
  9
$DIMTFAC
 40
1.0
  9
$DIMGAP
 40
1.0
  9
$DIMJUST
 70
     0
  9
$DIMSD1
 70
     0
  9
$DIMSD2
 70
     0
  9
$DIMTOLJ
 70
     1
  9
$DIMTZIN
 70
     0
  9
$DIMALTZ
 70
     0
  9
$DIMALTTZ
 70
     0
  9
$DIMUPT
 70
     0
  9
$DIMDEC
 70
     4
  9
$DIMTDEC
 70
     4
  9
$DIMALTU
 70
     2
  9
$DIMALTTD
 70
     2
  9
$DIMTXSTY
  7
STANDARD
  9
$DIMAUNIT
 70
     0
  9
$DIMADEC
 70
     0
  9
$DIMALTRND
 40
0.0
  9
$DIMAZIN
 70
     0
  9
$DIMDSEP
 70
    46
  9
$DIMATFIT
 70
     3
  9
$DIMFRAC
 70
     0
  9
$DIMLDRBLK
  1
OPEN
  9
$DIMLUNIT
 70
     2
  9
$DIMLWD
 70
    -2
  9
$DIMLWE
 70
    -2
  9
$DIMTMOVE
 70
     0
  9
$LUNITS
 70
     2
  9
$LUPREC
 70
     4
  9
$SKETCHINC
 40
1.0
  9
$FILLETRAD
 40
10.0
  9
$AUNITS
 70
     0
  9
$AUPREC
 70
     0
  9
$MENU
  1
.
  9
$ELEVATION
 40
0.0
  9
$PELEVATION
 40
0.0
  9
$THICKNESS
 40
0.0
  9
$LIMCHECK
 70
     0
  9
$CHAMFERA
 40
10.0
  9
$CHAMFERB
 40
10.0
  9
$CHAMFERC
 40
0.0
  9
$CHAMFERD
 40
0.0
  9
$SKPOLY
 70
     0
  9
$TDCREATE
 40
2456276.602081470
  9
$TDUCREATE
 40
2456276.227081470
  9
$TDUPDATE
 40
2457192.691172546
  9
$TDUUPDATE
 40
2457192.316172546
  9
$TDINDWG
 40
0.0080598380
  9
$TDUSRTIMER
 40
0.0080598148
  9
$USRTIMER
 70
     1
  9
$ANGBASE
 50
0.0
  9
$ANGDIR
 70
     0
  9
$PDMODE
 70
     0
  9
$PDSIZE
 40
0.0
  9
$PLINEWID
 40
0.0
  9
$SPLFRAME
 70
     0
  9
$SPLINETYPE
 70
     6
  9
$SPLINESEGS
 70
     8
  9
$HANDSEED
  5
131B
  9
$SURFTAB1
 70
     6
  9
$SURFTAB2
 70
     6
  9
$SURFTYPE
 70
     6
  9
$SURFU
 70
     6
  9
$SURFV
 70
     6
  9
$UCSBASE
  2

  9
$UCSNAME
  2

  9
$UCSORG
 10
0.0
 20
0.0
 30
0.0
  9
$UCSXDIR
 10
1.0
 20
0.0
 30
0.0
  9
$UCSYDIR
 10
0.0
 20
1.0
 30
0.0
  9
$UCSORTHOREF
  2

  9
$UCSORTHOVIEW
 70
     0
  9
$UCSORGTOP
 10
0.0
 20
0.0
 30
0.0
  9
$UCSORGBOTTOM
 10
0.0
 20
0.0
 30
0.0
  9
$UCSORGLEFT
 10
0.0
 20
0.0
 30
0.0
  9
$UCSORGRIGHT
 10
0.0
 20
0.0
 30
0.0
  9
$UCSORGFRONT
 10
0.0
 20
0.0
 30
0.0
  9
$UCSORGBACK
 10
0.0
 20
0.0
 30
0.0
  9
$PUCSBASE
  2

  9
$PUCSNAME
  2

  9
$PUCSORG
 10
0.0
 20
0.0
 30
0.0
  9
$PUCSXDIR
 10
1.0
 20
0.0
 30
0.0
  9
$PUCSYDIR
 10
0.0
 20
1.0
 30
0.0
  9
$PUCSORTHOREF
  2

  9
$PUCSORTHOVIEW
 70
     0
  9
$PUCSORGTOP
 10
0.0
 20
0.0
 30
0.0
  9
$PUCSORGBOTTOM
 10
0.0
 20
0.0
 30
0.0
  9
$PUCSORGLEFT
 10
0.0
 20
0.0
 30
0.0
  9
$PUCSORGRIGHT
 10
0.0
 20
0.0
 30
0.0
  9
$PUCSORGFRONT
 10
0.0
 20
0.0
 30
0.0
  9
$PUCSORGBACK
 10
0.0
 20
0.0
 30
0.0
  9
$USERI1
 70
     0
  9
$USERI2
 70
     0
  9
$USERI3
 70
     0
  9
$USERI4
 70
     0
  9
$USERI5
 70
     0
  9
$USERR1
 40
0.0
  9
$USERR2
 40
0.0
  9
$USERR3
 40
0.0
  9
$USERR4
 40
0.0
  9
$USERR5
 40
0.0
  9
$WORLDVIEW
 70
     1
  9
$SHADEDGE
 70
     3
  9
$SHADEDIF
 70
    70
  9
$TILEMODE
 70
     1
  9
$MAXACTVP
 70
    48
  9
$PINSBASE
 10
0.0
 20
0.0
 30
0.0
  9
$PLIMCHECK
 70
     0
  9
$PEXTMIN
 10
1.000000000000000E+20
 20
1.000000000000000E+20
 30
1.000000000000000E+20
  9
$PEXTMAX
 10
-1.000000000000000E+20
 20
-1.000000000000000E+20
 30
-1.000000000000000E+20
  9
$PLIMMIN
 10
0.0
 20
0.0
  9
$PLIMMAX
 10
420.0
 20
297.0
  9
$UNITMODE
 70
     0
  9
$VISRETAIN
 70
     1
  9
$PLINEGEN
 70
     0
  9
$PSLTSCALE
 70
     1
  9
$TREEDEPTH
 70
  3020
  9
$CMLSTYLE
  2
Standard
  9
$CMLJUST
 70
     0
  9
$CMLSCALE
 40
1.0
  9
$PROXYGRAPHICS
 70
     1
  9
$MEASUREMENT
 70
     0
  9
$CELWEIGHT
370
    -1
  9
$ENDCAPS
280
     0
  9
$JOINSTYLE
280
     0
  9
$LWDISPLAY
290
     0
  9
$INSUNITS
 70
     0
  9
$HYPERLINKBASE
  1

  9
$STYLESHEET
  1

  9
$XEDIT
290
     1
  9
$CEPSNTYPE
380
     0
  9
$PSTYLEMODE
290
     1
  9
$FINGERPRINTGUID
  2
{15DBD533-997F-46CD-8A77-49F8642E32DB}
  9
$VERSIONGUID
  2
{F4E1D4BC-42AB-47D9-8F68-FF9C27E73C2C}
  9
$EXTNAMES
290
     1
  9
$PSVPSCALE
 40
0.0
  9
$OLESTARTUP
290
     0
  0
ENDSEC
  0
SECTION
  2
CLASSES
  0
CLASS
  1
ACDBDICTIONARYWDFLT
  2
AcDbDictionaryWithDefault
  3
ObjectDBX Classes
 90
        0
280
     0
281
     0
  0
CLASS
  1
MATERIAL
  2
AcDbMaterial
  3
ObjectDBX Classes
 90
     1153
280
     0
281
     0
  0
CLASS
  1
VISUALSTYLE
  2
AcDbVisualStyle
  3
ObjectDBX Classes
 90
     4095
280
     0
281
     0
  0
CLASS
  1
SCALE
  2
AcDbScale
  3
ObjectDBX Classes
 90
     1153
280
     0
281
     0
  0
CLASS
  1
TABLESTYLE
  2
AcDbTableStyle
  3
ObjectDBX Classes
 90
     4095
280
     0
281
     0
  0
CLASS
  1
MLEADERSTYLE
  2
AcDbMLeaderStyle
  3
ACDB_MLEADERSTYLE_CLASS
 90
     4095
280
     0
281
     0
  0
CLASS
  1
ACDBSECTIONVIEWSTYLE
  2
AcDbSectionViewStyle
  3
ObjectDBX Classes
 90
     1025
280
     0
281
     0
  0
CLASS
  1
ACDBDETAILVIEWSTYLE
  2
AcDbDetailViewStyle
  3
ObjectDBX Classes
 90
     1025
280
     0
281
     0
  0
CLASS
  1
DICTIONARYVAR
  2
AcDbDictionaryVar
  3
ObjectDBX Classes
 90
        0
280
     0
281
     0
  0
CLASS
  1
CELLSTYLEMAP
  2
AcDbCellStyleMap
  3
ObjectDBX Classes
 90
     1152
280
     0
281
     0
  0
CLASS
  1
ACDBPLACEHOLDER
  2
AcDbPlaceHolder
  3
ObjectDBX Classes
 90
        0
280
     0
281
     0
  0
CLASS
  1
LAYOUT
  2
AcDbLayout
  3
ObjectDBX Classes
 90
        0
280
     0
281
     0
  0
ENDSEC
  0
SECTION
  2
TABLES
  0
TABLE
  2
VPORT
  5
123E
330
0
100
AcDbSymbolTable
 70
     1
  0
VPORT
  5
12A9
330
123E
100
AcDbSymbolTableRecord
100
AcDbViewportTableRecord
  2
*ACTIVE
 70
     0
 10
0.0
 20
0.0
 11
1.0
 21
1.0
 12
611.8608369018984
 22
272.5626078891162
 13
0.0
 23
0.0
 14
10.0
 24
10.0
 15
10.0
 25
10.0
 16
0.0
 26
0.0
 36
1.0
 17
0.0
 27
0.0
 37
0.0
 40
529.1570597937248
 41
2.35006605019815
 42
50.0
 43
0.0
 44
0.0
 50
0.0
 51
0.0
 71
     0
 72
   100
 73
     1
 74
     0
 75
     0
 76
     0
 77
     0
 78
     0
281
     0
 65
     1
110
0.0
120
0.0
130
0.0
111
1.0
121
0.0
131
0.0
112
0.0
122
1.0
132
0.0
 79
     0
146
0.0
1001
ACAD_NAV_VCDISPLAY
1070
     3
  0
ENDTAB
  0
TABLE
  2
LTYPE
  5
123B
330
0
100
AcDbSymbolTable
 70
     4
  0
LTYPE
  5
1290
330
123B
100
AcDbSymbolTableRecord
100
AcDbLinetypeTableRecord
  2
ByBlock
 70
     0
  3

 72
    65
 73
     0
 40
0.0
  0
LTYPE
  5
1291
330
123B
100
AcDbSymbolTableRecord
100
AcDbLinetypeTableRecord
  2
ByLayer
 70
     0
  3

 72
    65
 73
     0
 40
0.0
  0
LTYPE
  5
1292
330
123B
100
AcDbSymbolTableRecord
100
AcDbLinetypeTableRecord
  2
CONTINUOUS
 70
     0
  3
Solid line
 72
    65
 73
     0
 40
0.0
  0
LTYPE
  5
12AA
330
123B
100
AcDbSymbolTableRecord
100
AcDbLinetypeTableRecord
  2
DASHED
 70
     0
  3
Dashed __ __ __ __ __ __ __ __ __ __ __ __ __ _
 72
    65
 73
     2
 40
19.04999999999999
 49
12.7
 74
     0
 49
-6.349999999999998
 74
     0
  0
LTYPE
  5
12AB
330
123B
100
AcDbSymbolTableRecord
100
AcDbLinetypeTableRecord
  2
CENTER
 70
     0
  3
Center ____ _ ____ _ ____ _ ____ _ ____ _ ____
 72
    65
 73
     4
 40
50.8
 49
31.75
 74
     0
 49
-6.349999999999998
 74
     0
 49
6.349999999999998
 74
     0
 49
-6.349999999999998
 74
     0
  0
LTYPE
  5
12AC
330
123B
100
AcDbSymbolTableRecord
100
AcDbLinetypeTableRecord
  2
PHANTOM
 70
     0
  3
Phantom ______  __  __  ______  __  __  ______
 72
    65
 73
     6
 40
63.5
 49
31.75
 74
     0
 49
-6.349999999999998
 74
     0
 49
6.349999999999998
 74
     0
 49
-6.349999999999998
 74
     0
 49
6.349999999999998
 74
     0
 49
-6.349999999999998
 74
     0
  0
ENDTAB
  0
TABLE
  2
LAYER
  5
1238
330
0
100
AcDbSymbolTable
 70
     8
  0
LAYER
  5
128A
102
{ACAD_XDICTIONARY
360
12BF
102
}
330
1238
100
AcDbSymbolTableRecord
100
AcDbLayerTableRecord
  2
0
 70
     0
 62
     7
  6
CONTINUOUS
370
    -3
390
1245
  0
LAYER
  5
12AD
102
{ACAD_XDICTIONARY
360
12C1
102
}
330
1238
100
AcDbSymbolTableRecord
100
AcDbLayerTableRecord
  2
4
 70
     0
 62
     1
  6
CENTER
370
    -3
390
1245
  0
LAYER
  5
12AE
102
{ACAD_XDICTIONARY
360
12C3
102
}
330
1238
100
AcDbSymbolTableRecord
100
AcDbLayerTableRecord
  2
5
 70
     0
 62
     6
  6
PHANTOM
370
    -3
390
1245
  0
LAYER
  5
12AF
102
{ACAD_XDICTIONARY
360
12C5
102
}
330
1238
100
AcDbSymbolTableRecord
100
AcDbLayerTableRecord
  2
1
 70
     0
 62
     7
  6
CONTINUOUS
370
    -3
390
1245
  0
LAYER
  5
12B0
102
{ACAD_XDICTIONARY
360
12C7
102
}
330
1238
100
AcDbSymbolTableRecord
100
AcDbLayerTableRecord
  2
2
 70
     0
 62
     4
  6
CONTINUOUS
370
    -3
390
1245
  0
LAYER
  5
12B1
102
{ACAD_XDICTIONARY
360
12C9
102
}
330
1238
100
AcDbSymbolTableRecord
100
AcDbLayerTableRecord
  2
3
 70
     0
 62
     2
  6
DASHED
370
    -3
390
1245
  0
LAYER
  5
12B2
102
{ACAD_XDICTIONARY
360
12CB
102
}
330
1238
100
AcDbSymbolTableRecord
100
AcDbLayerTableRecord
  2
6
 70
     0
 62
     5
  6
CONTINUOUS
370
    -3
390
1245
  0
LAYER
  5
12B3
102
{ACAD_XDICTIONARY
360
12CD
102
}
330
1238
100
AcDbSymbolTableRecord
100
AcDbLayerTableRecord
  2
7
 70
     0
 62
     3
  6
CONTINUOUS
370
    -3
390
1245
  0
ENDTAB
  0
TABLE
  2
STYLE
  5
1239
330
0
100
AcDbSymbolTable
 70
     2
  0
STYLE
  5
128B
330
1239
100
AcDbSymbolTableRecord
100
AcDbTextStyleTableRecord
  2
STANDARD
 70
     0
 40
0.0
 41
1.0
 50
0.0
 71
     0
 42
2.5
  3
simplex.shx
  4

  0
STYLE
  5
128F
330
1239
100
AcDbSymbolTableRecord
100
AcDbTextStyleTableRecord
  2
Annotative
 70
     0
 40
0.0
 41
1.0
 50
0.0
 71
     0
 42
0.2
  3
txt
  4

1001
AcadAnnotative
1000
AnnotativeData
1002
{
1070
     1
1070
     1
1002
}
  0
ENDTAB
  0
TABLE
  2
VIEW
  5
123C
330
0
100
AcDbSymbolTable
 70
     0
  0
ENDTAB
  0
TABLE
  2
UCS
  5
123D
330
0
100
AcDbSymbolTable
 70
     0
  0
ENDTAB
  0
TABLE
  2
APPID
  5
123F
330
0
100
AcDbSymbolTable
 70
     6
  0
APPID
  5
128C
330
123F
100
AcDbSymbolTableRecord
100
AcDbRegAppTableRecord
  2
ACAD
 70
     0
  0
APPID
  5
1293
330
123F
100
AcDbSymbolTableRecord
100
AcDbRegAppTableRecord
  2
AcadAnnotative
 70
     0
  0
APPID
  5
12B4
330
123F
100
AcDbSymbolTableRecord
100
AcDbRegAppTableRecord
  2
CONTENTTABDATA
 70
     0
  0
APPID
  5
12B5
330
123F
100
AcDbSymbolTableRecord
100
AcDbRegAppTableRecord
  2
CONTENTCURRENTTAB
 70
     0
  0
APPID
  5
12D9
330
123F
100
AcDbSymbolTableRecord
100
AcDbRegAppTableRecord
  2
ACAD_NAV_VCDISPLAY
 70
     0
  0
APPID
  5
1312
330
123F
100
AcDbSymbolTableRecord
100
AcDbRegAppTableRecord
  2
ACAD_MLEADERVER
 70
     0
  0
ENDTAB
  0
TABLE
  2
DIMSTYLE
  5
1240
330
0
100
AcDbSymbolTable
 70
     2
100
AcDbDimStyleTable
 71
     0
  0
DIMSTYLE
105
128D
330
1240
100
AcDbSymbolTableRecord
100
AcDbDimStyleTableRecord
  2
STANDARD
 70
     0
 41
3.0
 42
1.0
 43
10.0
 44
1.0
 73
     0
 74
     0
 77
     3
 78
     8
140
3.2
141
0.0
147
1.0
172
     1
173
     1
279
     2
284
     8
285
     8
286
     8
340
128B
  0
DIMSTYLE
105
128E
330
1240
100
AcDbSymbolTableRecord
100
AcDbDimStyleTableRecord
  2
Annotative
 70
     0
340
128B
1001
AcadAnnotative
1000
AnnotativeData
1002
{
1070
     1
1070
     1
1002
}
  0
ENDTAB
  0
TABLE
  2
BLOCK_RECORD
  5
1237
330
0
100
AcDbSymbolTable
 70
     3
  0
BLOCK_RECORD
  5
12A5
330
1237
100
AcDbSymbolTableRecord
100
AcDbBlockTableRecord
  2
*Model_Space
340
12A8
  0
BLOCK_RECORD
  5
12A1
330
1237
100
AcDbSymbolTableRecord
100
AcDbBlockTableRecord
  2
*Paper_Space
340
12A4
  0
BLOCK_RECORD
  5
12B8
330
1237
100
AcDbSymbolTableRecord
100
AcDbBlockTableRecord
  2
$MODEL_SPACE
340
0
  0
BLOCK_RECORD
  5
12BA
330
1237
100
AcDbSymbolTableRecord
100
AcDbBlockTableRecord
  2
$PAPER_SPACE
340
0
  0
BLOCK_RECORD
  5
12BC
330
1237
100
AcDbSymbolTableRecord
100
AcDbBlockTableRecord
  2
_OPEN
340
0
  0
ENDTAB
  0
ENDSEC
  0
SECTION
  2
BLOCKS
  0
BLOCK
  5
12A6
330
12A5
100
AcDbEntity
  8
0
100
AcDbBlockBegin
  2
*Model_Space
 70
     0
 10
0.0
 20
0.0
 30
0.0
  3
*Model_Space
  1

  0
ENDBLK
  5
12A7
330
12A5
100
AcDbEntity
  8
0
100
AcDbBlockEnd
  0
BLOCK
  5
12A2
330
12A1
100
AcDbEntity
 67
     1
  8
0
100
AcDbBlockBegin
  2
*Paper_Space
 70
     0
 10
0.0
 20
0.0
 30
0.0
  3
*Paper_Space
  1

  0
ENDBLK
  5
12A3
330
12A1
100
AcDbEntity
 67
     1
  8
0
100
AcDbBlockEnd
  0
BLOCK
  5
12B9
330
12B8
100
AcDbEntity
  8
0
100
AcDbBlockBegin
  2
$MODEL_SPACE
 70
     0
 10
0.0
 20
0.0
 30
0.0
  3
$MODEL_SPACE
  1

  0
ENDBLK
  5
1A
330
12B8
100
AcDbEntity
  8
0
100
AcDbBlockEnd
  0
BLOCK
  5
12BB
330
12BA
100
AcDbEntity
  8
0
100
AcDbBlockBegin
  2
$PAPER_SPACE
 70
     0
 10
0.0
 20
0.0
 30
0.0
  3
$PAPER_SPACE
  1

  0
ENDBLK
  5
17
330
12BA
100
AcDbEntity
  8
0
100
AcDbBlockEnd
  0
BLOCK
  5
12BD
330
12BC
100
AcDbEntity
  8
0
100
AcDbBlockBegin
  2
_OPEN
 70
     0
 10
0.0
 20
0.0
 30
0.0
  3
_OPEN
  1

  0
LINE
  5
30
330
12BC
100
AcDbEntity
  8
0
  6
ByBlock
 62
     0
100
AcDbLine
 10
-1.0
 20
0.1666666666666666
 30
0.0
 11
0.0
 21
0.0
 31
0.0
  0
LINE
  5
31
330
12BC
100
AcDbEntity
  8
0
  6
ByBlock
 62
     0
100
AcDbLine
 10
0.0
 20
0.0
 30
0.0
 11
-1.0
 21
-0.1666666666666666
 31
0.0
  0
LINE
  5
32
330
12BC
100
AcDbEntity
  8
0
  6
ByBlock
 62
     0
100
AcDbLine
 10
0.0
 20
0.0
 30
0.0
 11
-1.0
 21
0.0
 31
0.0
  0
ENDBLK
  5
33
330
12BC
100
AcDbEntity
  8
0
100
AcDbBlockEnd
  0
ENDSEC
  0
SECTION
  2
ENTITIES
  0
ARC
  5
CEB
330
12A5
100
AcDbEntity
  8
5
  6
PHANTOM
100
AcDbCircle
 10
300.2721148220054
 20
298.5643666605283
 30
0.0
 40
10.0
100
AcDbArc
 50
299.4605399999997
 51
3.624196999999929
  0
LINE
  5
CEC
330
12A5
100
AcDbEntity
  8
1
  6
Continuous
100
AcDbLine
 10
316.5997148220054
 20
296.5997076605284
 30
0.0
 11
328.7987948220052
 21
275.8120136605283
 31
0.0
  0
LINE
  5
CED
330
12A5
100
AcDbEntity
  8
5
  6
PHANTOM
100
AcDbLine
 10
287.6524648220054
 20
284.2380006605283
 30
0.0
 11
286.7597648220055
 21
298.3321026605284
 31
0.0
  0
ARC
  5
CEE
330
12A5
100
AcDbEntity
  8
1
  6
Continuous
100
AcDbCircle
 10
268.9942648220053
 20
287.2033276605285
 30
0.0
 40
4.099999999999996
100
AcDbArc
 50
179.9999899999995
 51
0.0000099999997851
  0
LINE
  5
CEF
330
12A5
100
AcDbEntity
  8
5
  6
PHANTOM
100
AcDbLine
 10
260.5428648220054
 20
269.2944586605285
 30
0.0
 11
258.6338548220056
 21
299.4340736605284
 31
0.0
  0
ARC
  5
CF0
330
12A5
100
AcDbEntity
  8
5
  6
PHANTOM
100
AcDbCircle
 10
284.1667948220052
 20
297.7179696605284
 30
0.0
 40
25.0
100
AcDbArc
 50
179.3442499999999
 51
248.6652800000002
  0
ARC
  5
CF1
330
12A5
100
AcDbEntity
  8
5
  6
PHANTOM
100
AcDbCircle
 10
304.7705848220052
 20
307.0275016605283
 30
0.0
 40
20.0
100
AcDbArc
 50
193.65507
 51
242.0205599999997
  0
LINE
  5
CF2
330
12A5
100
AcDbEntity
  8
1
  6
Continuous
100
AcDbLine
 10
244.5942748220053
 20
340.3605856605283
 30
0.0
 11
244.5942748220053
 21
257.5003406605283
 31
0.0
  0
CIRCLE
  5
CF3
330
12A5
100
AcDbEntity
  8
1
  6
Continuous
100
AcDbCircle
 10
268.9942648220053
 20
295.3307696605283
 30
0.0
 40
6.0
  0
ARC
  5
CF4
330
12A5
100
AcDbEntity
  8
1
  6
Continuous
100
AcDbCircle
 10
268.5630248220054
 20
295.0776946605283
 30
0.0
 40
8.5
100
AcDbArc
 50
120.4061899999997
 51
278.3180200000003
  0
ARC
  5
CF5
330
12A5
100
AcDbEntity
  8
1
  6
Continuous
100
AcDbCircle
 10
87.89425882200553
 20
291.3307696605283
 30
0.0
 40
2.0
100
AcDbArc
 50
270.0
 51
0.0
  0
LINE
  5
CF6
330
12A5
100
AcDbEntity
  8
1
  6
Continuous
100
AcDbLine
 10
83.39425882200556
 20
293.1743676605283
 30
0.0
 11
83.39425882200556
 21
257.5003406605283
 31
0.0
  0
ARC
  5
CF7
330
12A5
100
AcDbEntity
  8
1
  6
Continuous
100
AcDbCircle
 10
31.79426782200549
 20
291.7672626605284
 30
0.0
 40
2.0
100
AcDbArc
 50
179.9999899999995
 51
255.5224899999996
  0
LINE
  5
CF8
330
12A5
100
AcDbEntity
  8
1
  6
Continuous
100
AcDbLine
 10
34.59427082200548
 20
293.1743676605283
 30
0.0
 11
34.59427082200548
 21
257.5003406605283
 31
0.0
  0
LINE
  5
CF9
330
12A5
100
AcDbEntity
  8
1
  6
Continuous
100
AcDbLine
 10
34.29426782200549
 20
318.2531786605285
 30
0.0
 11
34.29426782200549
 21
286.5777026605283
 31
0.0
  0
LINE
  5
CFA
330
12A5
100
AcDbEntity
  8
1
  6
Continuous
100
AcDbLine
 10
31.29426782200549
 20
314.8161976605283
 30
0.0
 11
31.29426782200549
 21
286.5777026605283
 31
0.0
  0
LINE
  5
CFB
330
12A5
100
AcDbEntity
  8
1
  6
Continuous
100
AcDbLine
 10
83.69426182200554
 20
318.2531786605285
 30
0.0
 11
83.69426182200554
 21
286.5777026605283
 31
0.0
  0
LINE
  5
CFC
330
12A5
100
AcDbEntity
  8
1
  6
Continuous
100
AcDbLine
 10
86.69426182200558
 20
314.8161976605283
 30
0.0
 11
86.69426182200558
 21
286.5777026605283
 31
0.0
  0
LINE
  5
CFD
330
12A5
100
AcDbEntity
  8
4
  6
CENTER
100
AcDbLine
 10
268.9942648220053
 20
175.6285776605283
 30
0.0
 11
268.9942648220053
 21
383.6780176605285
 31
0.0
  0
LINE
  5
CFE
330
12A5
100
AcDbEntity
  8
4
  6
CENTER
100
AcDbLine
 10
58.99426482200549
 20
381.2664076605285
 30
0.0
 11
58.99426482200549
 21
202.4778216605284
 31
0.0
  0
LINE
  5
CFF
330
12A5
100
AcDbEntity
  8
1
  6
Continuous
100
AcDbLine
 10
289.8169548220053
 20
284.9406326605284
 30
0.0
 11
311.8096648220055
 21
297.8468776605284
 31
0.0
  0
TEXT
  5
D00
330
12A5
100
AcDbEntity
  8
5
  6
PHANTOM
100
AcDbText
 10
25.97951160185493
 20
9.999999613693489
 30
0.0
 40
1.399999999999999
  1
5
100
AcDbText
  0
TEXT
  5
D01
330
12A5
100
AcDbEntity
  8
7
  6
Continuous
100
AcDbText
 10
10.00000060185493
 20
26.00000037446239
 30
0.0
 40
3.0
  1
CODE No.19235
100
AcDbText
  0
TEXT
  5
D02
330
12A5
100
AcDbEntity
  8
7
  6
Continuous
100
AcDbText
 10
10.00000060185493
 20
18.00000037446238
 30
0.0
 40
3.0
  1
TYPE No.TCA-909LK-42S-150
100
AcDbText
  0
TEXT
  5
D03
330
12A5
100
AcDbEntity
  8
1
  6
Continuous
100
AcDbText
 10
17.97951160185493
 20
9.999999613693489
 30
0.0
 40
1.399999999999999
  1
1
100
AcDbText
  0
TEXT
  5
D04
330
12A5
100
AcDbEntity
  8
1
  6
Continuous
100
AcDbText
 10
10.00000060185493
 20
10.00000037446238
 30
0.0
 40
1.399999999999999
  1
LAYER
100
AcDbText
  0
TEXT
  5
D05
330
12A5
100
AcDbEntity
  8
4
  6
CENTER
100
AcDbText
 10
23.97951160185493
 20
9.999999613693489
 30
0.0
 40
1.399999999999999
  1
4
100
AcDbText
  0
TEXT
  5
D06
330
12A5
100
AcDbEntity
  8
3
  6
DASHED
100
AcDbText
 10
21.97951160185493
 20
9.999999613693489
 30
0.0
 40
1.399999999999999
  1
3
100
AcDbText
  0
TEXT
  5
D07
330
12A5
100
AcDbEntity
  8
2
  6
Continuous
100
AcDbText
 10
19.97951160185492
 20
9.999999613693489
 30
0.0
 40
1.399999999999999
  1
2
100
AcDbText
  0
TEXT
  5
D08
330
12A5
100
AcDbEntity
  8
6
  6
Continuous
100
AcDbText
 10
27.97951160185493
 20
9.999999613693489
 30
0.0
 40
1.399999999999999
  1
6
100
AcDbText
  0
TEXT
  5
D09
330
12A5
100
AcDbEntity
  8
7
  6
Continuous
100
AcDbText
 10
29.97951160185493
 20
9.999999613693489
 30
0.0
 40
1.399999999999999
  1
7
100
AcDbText
  0
ARC
  5
D0A
330
12A5
100
AcDbEntity
  8
1
  6
Continuous
100
AcDbCircle
 10
81.39425882200555
 20
257.5003406605283
 30
0.0
 40
2.0
100
AcDbArc
 50
270.0
 51
0.0000030000001391
  0
LINE
  5
D0B
330
12A5
100
AcDbEntity
  8
1
  6
Continuous
100
AcDbLine
 10
25.99426482200549
 20
210.9003526605283
 30
0.0
 11
91.99426482200548
 21
210.9003526605283
 31
0.0
  0
LINE
  5
D0C
330
12A5
100
AcDbEntity
  8
1
  6
Continuous
100
AcDbLine
 10
27.6942618220055
 20
207.7003406605285
 30
0.0
 11
90.29425682200548
 21
207.7003406605285
 31
0.0
  0
LINE
  5
D0D
330
12A5
100
AcDbEntity
  8
1
  6
Continuous
100
AcDbLine
 10
29.4942648220055
 20
217.2003406605283
 30
0.0
 11
88.49426482200547
 21
217.2003406605283
 31
0.0
  0
LINE
  5
D0E
330
12A5
100
AcDbEntity
  8
1
  6
Continuous
100
AcDbLine
 10
43.09427082200552
 20
221.9124376605285
 30
0.0
 11
43.09427082200552
 21
245.7003376605283
 31
0.0
  0
LINE
  5
D0F
330
12A5
100
AcDbEntity
  8
1
  6
Continuous
100
AcDbLine
 10
74.89425882200553
 20
221.9124376605285
 30
0.0
 11
74.89425882200553
 21
245.7003376605283
 31
0.0
  0
LINE
  5
D10
330
12A5
100
AcDbEntity
  8
1
  6
Continuous
100
AcDbLine
 10
46.09427082200553
 20
218.9124376605283
 30
0.0
 11
71.89425882200556
 21
218.9124376605283
 31
0.0
  0
LINE
  5
D11
330
12A5
100
AcDbEntity
  8
1
  6
Continuous
100
AcDbLine
 10
26.83682882200554
 20
210.9003456605285
 30
0.0
 11
27.69426582200555
 21
207.7003486605285
 31
0.0
  0
LINE
  5
D12
330
12A5
100
AcDbEntity
  8
1
  6
Continuous
100
AcDbLine
 10
25.99426482200549
 20
213.7003406605283
 30
0.0
 11
25.99426482200549
 21
210.9003526605283
 31
0.0
  0
ARC
  5
D13
330
12A5
100
AcDbEntity
  8
1
  6
Continuous
100
AcDbCircle
 10
29.4942648220055
 20
213.7003406605283
 30
0.0
 40
3.5
100
AcDbArc
 50
89.99998199999996
 51
179.99996
  0
LINE
  5
D14
330
12A5
100
AcDbEntity
  8
1
  6
Continuous
100
AcDbLine
 10
47.37093682200556
 20
218.9124536605283
 30
0.0
 11
45.95129382200553
 21
217.4931566605283
 31
0.0
  0
ARC
  5
D15
330
12A5
100
AcDbEntity
  8
1
  6
Continuous
100
AcDbCircle
 10
45.24426482200549
 20
218.2003406605285
 30
0.0
 40
1.0
100
AcDbArc
 50
269.9999399999996
 51
314.9929899999999
  0
ARC
  5
D16
330
12A5
100
AcDbEntity
  8
1
  6
Continuous
100
AcDbCircle
 10
46.09427082200553
 20
221.9124376605285
 30
0.0
 40
3.0
100
AcDbArc
 50
179.9999799999999
 51
270.0
  0
ARC
  5
D17
330
12A5
100
AcDbEntity
  8
1
  6
Continuous
100
AcDbCircle
 10
71.89425882200556
 20
221.9124376605285
 30
0.0
 40
3.0
100
AcDbArc
 50
270.0
 51
0.0000180000000203
  0
LINE
  5
D18
330
12A5
100
AcDbEntity
  8
1
  6
Continuous
100
AcDbLine
 10
70.61759882200552
 20
218.9124456605281
 30
0.0
 11
72.03723582200551
 21
217.4931566605283
 31
0.0
  0
ARC
  5
D19
330
12A5
100
AcDbEntity
  8
1
  6
Continuous
100
AcDbCircle
 10
72.74426482200547
 20
218.2003406605285
 30
0.0
 40
1.0
100
AcDbArc
 50
225.0070099999998
 51
270.0000500000001
  0
LINE
  5
D1A
330
12A5
100
AcDbEntity
  8
1
  6
Continuous
100
AcDbLine
 10
81.39425882200555
 20
255.5003406605283
 30
0.0
 11
36.59427082200551
 21
255.5003406605283
 31
0.0
  0
LINE
  5
D1B
330
12A5
100
AcDbEntity
  8
1
  6
Continuous
100
AcDbLine
 10
40.39425882200556
 20
245.7003376605283
 30
0.0
 11
77.59427082200547
 21
245.7003376605283
 31
0.0
  0
ARC
  5
D1C
330
12A5
100
AcDbEntity
  8
1
  6
Continuous
100
AcDbCircle
 10
36.59427082200551
 20
257.5003406605283
 30
0.0
 40
2.0
100
AcDbArc
 50
179.9999899999995
 51
270.0
  0
ARC
  5
D1D
330
12A5
100
AcDbEntity
  8
1
  6
Continuous
100
AcDbCircle
 10
40.39425882200556
 20
248.7003376605283
 30
0.0
 40
3.0
100
AcDbArc
 50
179.9999899999995
 51
270.0
  0
LINE
  5
D1E
330
12A5
100
AcDbEntity
  8
1
  6
Continuous
100
AcDbLine
 10
37.39427382200551
 20
255.5003406605283
 30
0.0
 11
37.39427382200551
 21
248.7003376605283
 31
0.0
  0
LINE
  5
D1F
330
12A5
100
AcDbEntity
  8
1
  6
Continuous
100
AcDbLine
 10
34.29426782200549
 20
286.5777026605283
 30
0.0
 11
31.29426782200549
 21
286.5777026605283
 31
0.0
  0
ARC
  5
D20
330
12A5
100
AcDbEntity
  8
1
  6
Continuous
100
AcDbCircle
 10
77.59427082200547
 20
248.7003376605283
 30
0.0
 40
3.0
100
AcDbArc
 50
270.0
 51
0.0000030000001391
  0
LINE
  5
D21
330
12A5
100
AcDbEntity
  8
1
  6
Continuous
100
AcDbLine
 10
80.59427082200548
 20
255.5003406605283
 30
0.0
 11
80.59427082200548
 21
248.7003376605283
 31
0.0
  0
LINE
  5
D22
330
12A5
100
AcDbEntity
  8
1
  6
Continuous
100
AcDbLine
 10
91.15169382200548
 20
210.9003376605283
 30
0.0
 11
90.29425682200548
 21
207.7003406605285
 31
0.0
  0
ARC
  5
D23
330
12A5
100
AcDbEntity
  8
1
  6
Continuous
100
AcDbCircle
 10
88.49426482200547
 20
213.7003406605283
 30
0.0
 40
3.5
100
AcDbArc
 50
0.0000369999998155
 51
90.00001599999967
  0
LINE
  5
D24
330
12A5
100
AcDbEntity
  8
1
  6
Continuous
100
AcDbLine
 10
91.99426482200548
 20
213.7003406605283
 30
0.0
 11
91.99426482200548
 21
210.9003526605283
 31
0.0
  0
LINE
  5
D25
330
12A5
100
AcDbEntity
  8
1
  6
Continuous
100
AcDbLine
 10
86.69426182200558
 20
289.3307696605283
 30
0.0
 11
87.89425882200553
 21
289.3307696605283
 31
0.0
  0
LINE
  5
D26
330
12A5
100
AcDbEntity
  8
1
  6
Continuous
100
AcDbLine
 10
83.69426182200554
 20
286.5777026605283
 30
0.0
 11
86.69426182200558
 21
286.5777026605283
 31
0.0
  0
LINE
  5
D2E
330
12A5
100
AcDbEntity
  8
1
  6
Continuous
100
AcDbLine
 10
394.5528248220056
 20
111.7318856605284
 30
0.0
 11
394.5528248220056
 21
80.35589766052863
 31
0.0
  0
LINE
  5
D2F
330
12A5
100
AcDbEntity
  8
1
  6
Continuous
100
AcDbLine
 10
387.8244428220054
 20
113.5449526605285
 30
0.0
 11
387.8244428220054
 21
78.54283066052857
 31
0.0
  0
LINE
  5
D30
330
12A5
100
AcDbEntity
  8
1
  6
Continuous
100
AcDbLine
 10
385.1265648220052
 20
113.5449526605285
 30
0.0
 11
385.1265648220052
 21
78.54283066052857
 31
0.0
  0
LINE
  5
D31
330
12A5
100
AcDbEntity
  8
1
  6
Continuous
100
AcDbLine
 10
378.8283348220052
 20
113.5448676605284
 30
0.0
 11
378.8283348220052
 21
78.54291566052859
 31
0.0
  0
LINE
  5
D32
330
12A5
100
AcDbEntity
  8
1
  6
Continuous
100
AcDbLine
 10
376.1302868220053
 20
113.5448676605284
 30
0.0
 11
376.1302868220053
 21
78.54291566052859
 31
0.0
  0
LINE
  5
D33
330
12A5
100
AcDbEntity
  8
1
  6
Continuous
100
AcDbLine
 10
369.8319648220055
 20
113.5449276605284
 30
0.0
 11
369.8319648220055
 21
78.54285566052862
 31
0.0
  0
LINE
  5
D34
330
12A5
100
AcDbEntity
  8
1
  6
Continuous
100
AcDbLine
 10
367.1340368220052
 20
113.5449276605284
 30
0.0
 11
367.1340368220052
 21
78.54285566052862
 31
0.0
  0
ARC
  5
D35
330
12A5
100
AcDbEntity
  8
1
  6
Continuous
100
AcDbCircle
 10
339.7387848220053
 20
107.7938916605285
 30
0.0
 40
5.0
100
AcDbArc
 50
0.0
 51
90.0
  0
ARC
  5
D36
330
12A5
100
AcDbEntity
  8
1
  6
Continuous
100
AcDbCircle
 10
340.6615071622929
 20
107.7938916605285
 30
0.0
 40
5.0
100
AcDbArc
 50
0.0
 51
90.0
  0
LINE
  5
D37
330
12A5
100
AcDbEntity
  8
1
  6
Continuous
100
AcDbLine
 10
331.3617448220052
 20
109.0438916605284
 30
0.0
 11
331.3617448220052
 21
83.04389166052862
 31
0.0
  0
LINE
  5
D38
330
12A5
100
AcDbEntity
  8
1
  6
Continuous
100
AcDbLine
 10
328.4695448220056
 20
109.0438916605284
 30
0.0
 11
328.4695448220056
 21
83.04389166052862
 31
0.0
  0
LINE
  5
D39
330
12A5
100
AcDbEntity
  8
1
  6
Continuous
100
AcDbLine
 10
359.5673887026392
 20
116.5438916605284
 30
0.0
 11
359.5673887026392
 21
75.54389166052867
 31
0.0
  0
ARC
  5
D3A
330
12A5
100
AcDbEntity
  8
1
  6
Continuous
100
AcDbCircle
 10
286.5326784352435
 20
96.04389166052861
 30
0.0
 40
30.01029513322992
100
AcDbArc
 50
334.3301618151627
 51
25.66983818483731
  0
CIRCLE
  5
D3B
330
12A5
100
AcDbEntity
  8
1
  6
Continuous
100
AcDbCircle
 10
268.9942648220053
 20
96.04389166052865
 30
0.0
 40
15.5
  0
LINE
  5
D3C
330
12A5
100
AcDbEntity
  8
4
  6
CENTER
100
AcDbLine
 10
268.9942648220053
 20
44.62107166052867
 30
0.0
 11
268.9942648220053
 21
144.7821716605284
 31
0.0
  0
LINE
  5
D3D
330
12A5
100
AcDbEntity
  8
1
  6
Continuous
100
AcDbLine
 10
218.9942648220053
 20
56.04389166052867
 30
0.0
 11
218.9942648220053
 21
136.0438916605284
 31
0.0
  0
CIRCLE
  5
D3E
330
12A5
100
AcDbEntity
  8
1
  6
Continuous
100
AcDbCircle
 10
268.9942648220053
 20
96.04389166052865
 30
0.0
 40
31.3
  0
LINE
  5
D3F
330
12A5
100
AcDbEntity
  8
1
  6
Continuous
100
AcDbLine
 10
285.0151048220054
 20
51.04389166052867
 30
0.0
 11
252.9734248220053
 21
51.04389166052867
 31
0.0
  0
LINE
  5
D40
330
12A5
100
AcDbEntity
  8
4
  6
CENTER
100
AcDbLine
 10
401.4866048220052
 20
96.04389166052865
 30
0.0
 11
211.7548348220053
 21
96.04389166052865
 31
0.0
  0
LINE
  5
D41
330
12A5
100
AcDbEntity
  8
4
  6
CENTER
100
AcDbLine
 10
228.9942648220053
 20
63.54389166052867
 30
0.0
 11
228.9942648220053
 21
48.54389166052867
 31
0.0
  0
ARC
  5
D42
330
12A5
100
AcDbEntity
  8
1
  6
Continuous
100
AcDbCircle
 10
252.9734248220053
 20
1.043891660528686
 30
0.0
 40
50.0
100
AcDbArc
 50
90.0
 51
113.5564600000032
  0
LINE
  5
D43
330
12A5
100
AcDbEntity
  8
4
  6
CENTER
100
AcDbLine
 10
236.4942648220053
 20
56.04389166052867
 30
0.0
 11
221.4942648220053
 21
56.04389166052867
 31
0.0
  0
ARC
  5
D44
330
12A5
100
AcDbEntity
  8
1
  6
Continuous
100
AcDbCircle
 10
228.9942648220053
 20
56.04389166052867
 30
0.0
 40
10.0
100
AcDbArc
 50
179.9999899999995
 51
293.5564660000013
  0
CIRCLE
  5
D45
330
12A5
100
AcDbEntity
  8
1
  6
Continuous
100
AcDbCircle
 10
228.9942648220053
 20
56.04389166052867
 30
0.0
 40
4.25
  0
CIRCLE
  5
D46
330
12A5
100
AcDbEntity
  8
1
  6
Continuous
100
AcDbCircle
 10
268.9942648220053
 20
96.04389166052865
 30
0.0
 40
9.25
  0
LINE
  5
D47
330
12A5
100
AcDbEntity
  8
1
  6
Continuous
100
AcDbLine
 10
275.4942648220053
 20
99.79666841026123
 30
0.0
 11
275.4942648220053
 21
92.29111491079599
 31
0.0
  0
LINE
  5
D48
330
12A5
100
AcDbEntity
  8
1
  6
Continuous
100
AcDbLine
 10
262.4942648220053
 20
99.79666841026123
 30
0.0
 11
262.4942648220053
 21
92.29111491079599
 31
0.0
  0
LINE
  5
D49
330
12A5
100
AcDbEntity
  8
1
  6
Continuous
100
AcDbLine
 10
268.9942648220053
 20
88.53833816106337
 30
0.0
 11
275.4942648220056
 21
92.29111491079605
 31
0.0
  0
LINE
  5
D4A
330
12A5
100
AcDbEntity
  8
1
  6
Continuous
100
AcDbLine
 10
268.9942648220057
 20
88.53833816106337
 30
0.0
 11
262.4942648220053
 21
92.29111491079605
 31
0.0
  0
LINE
  5
D4B
330
12A5
100
AcDbEntity
  8
1
  6
Continuous
100
AcDbLine
 10
268.9942648220053
 20
103.5494451599937
 30
0.0
 11
275.4942648220056
 21
99.79666841026112
 31
0.0
  0
LINE
  5
D4C
330
12A5
100
AcDbEntity
  8
1
  6
Continuous
100
AcDbLine
 10
268.9942648220057
 20
103.5494451599937
 30
0.0
 11
262.4942648220053
 21
99.79666841026112
 31
0.0
  0
ARC
  5
D4D
330
12A5
100
AcDbEntity
  8
1
  6
Continuous
100
AcDbCircle
 10
339.7387848220053
 20
84.29389166052862
 30
0.0
 40
5.0
100
AcDbArc
 50
270.0
 51
0.0
  0
ARC
  5
D4E
330
12A5
100
AcDbEntity
  8
1
  6
Continuous
100
AcDbCircle
 10
340.6615071622929
 20
84.29389166052862
 30
0.0
 40
5.0
100
AcDbArc
 50
270.0
 51
0.0
  0
LINE
  5
D4F
330
12A5
100
AcDbEntity
  8
1
  6
Continuous
100
AcDbLine
 10
346.1273368220053
 20
65.24389166052862
 30
0.0
 11
340.7273368220053
 21
65.24389166052862
 31
0.0
  0
LINE
  5
D50
330
12A5
100
AcDbEntity
  8
1
  6
Continuous
100
AcDbLine
 10
346.6773368220056
 20
73.84389166052871
 30
0.0
 11
340.1773368220056
 21
73.84389166052867
 31
0.0
  0
LINE
  5
D51
330
12A5
100
AcDbEntity
  8
1
  6
Continuous
100
AcDbLine
 10
357.6447348220056
 20
66.54389166052869
 30
0.0
 11
333.4579998220057
 21
66.54389166052864
 31
0.0
  0
LINE
  5
D52
330
12A5
100
AcDbEntity
  8
1
  6
Continuous
100
AcDbLine
 10
356.5459545156228
 20
68.84389166052868
 30
0.0
 11
336.7437232310424
 21
68.84389166052868
 31
0.0
  0
LINE
  5
D53
330
12A5
100
AcDbEntity
  8
1
  6
Continuous
100
AcDbLine
 10
356.5459545156228
 20
71.84389166052864
 30
0.0
 11
337.37414826121
 21
71.84389166052864
 31
0.0
  0
LINE
  5
D54
330
12A5
100
AcDbEntity
  8
1
  6
Continuous
100
AcDbLine
 10
318.9942648220052
 20
56.04389166052867
 30
0.0
 11
318.9942648220052
 21
65.24389166052867
 31
0.0
  0
LINE
  5
D55
330
12A5
100
AcDbEntity
  8
4
  6
CENTER
100
AcDbLine
 10
308.9942648220052
 20
63.54389166052867
 30
0.0
 11
308.9942648220052
 21
48.54389166052867
 31
0.0
  0
LINE
  5
D56
330
12A5
100
AcDbEntity
  8
4
  6
CENTER
100
AcDbLine
 10
301.4942648220056
 20
56.04389166052867
 30
0.0
 11
316.4942648220054
 21
56.04389166052867
 31
0.0
  0
CIRCLE
  5
D57
330
12A5
100
AcDbEntity
  8
1
  6
Continuous
100
AcDbCircle
 10
308.9942648220052
 20
56.04389166052867
 30
0.0
 40
4.25
  0
ARC
  5
D58
330
12A5
100
AcDbEntity
  8
1
  6
Continuous
100
AcDbCircle
 10
308.9942648220052
 20
56.04389166052867
 30
0.0
 40
10.0
100
AcDbArc
 50
246.4435400000025
 51
359.9999969999998
  0
ARC
  5
D59
330
12A5
100
AcDbEntity
  8
1
  6
Continuous
100
AcDbCircle
 10
285.0151048220054
 20
1.043891660528686
 30
0.0
 40
50.0
100
AcDbArc
 50
66.44353000000172
 51
90.0
  0
LINE
  5
D5A
330
12A5
100
AcDbEntity
  8
1
  6
Continuous
100
AcDbLine
 10
324.7222648220053
 20
73.04389166052867
 30
0.0
 11
292.658583954404
 21
73.04389166052867
 31
0.0
  0
LINE
  5
D5B
330
12A5
100
AcDbEntity
  8
1
  6
Continuous
100
AcDbLine
 10
330.6551810808594
 20
68.24389166052867
 30
0.0
 11
286.7751534387196
 21
68.24389166052867
 31
0.0
  0
LINE
  5
D5C
330
12A5
100
AcDbEntity
  8
1
  6
Continuous
100
AcDbLine
 10
330.0247458220055
 20
65.24389166052867
 30
0.0
 11
280.8416273977015
 21
65.24389166052867
 31
0.0
  0
LINE
  5
D5D
330
12A5
100
AcDbEntity
  8
1
  6
Continuous
100
AcDbLine
 10
324.1348748220056
 20
76.04389166052867
 30
0.0
 11
295.2430743188187
 21
76.04389166052867
 31
0.0
  0
LINE
  5
D5E
330
12A5
100
AcDbEntity
  8
1
  6
Continuous
100
AcDbLine
 10
326.2114248220052
 20
108.0438916605284
 30
0.0
 11
326.2114248220052
 21
84.04389166052864
 31
0.0
  0
ARC
  5
D5F
330
12A5
100
AcDbEntity
  8
1
  6
Continuous
100
AcDbCircle
 10
328.7222648220054
 20
79.04389166052864
 30
0.0
 40
2.0
100
AcDbArc
 50
90.0
 51
180.0
  0
LINE
  5
D60
330
12A5
100
AcDbEntity
  8
1
  6
Continuous
100
AcDbLine
 10
329.3617448220054
 20
81.04389166052865
 30
0.0
 11
326.1348748220056
 21
81.04389166052865
 31
0.0
  0
ARC
  5
D61
330
12A5
100
AcDbEntity
  8
1
  6
Continuous
100
AcDbCircle
 10
326.4695448220056
 20
83.04389166052862
 30
0.0
 40
2.0
100
AcDbArc
 50
270.0
 51
0.0
  0
LINE
  5
D62
330
12A5
100
AcDbEntity
  8
1
  6
Continuous
100
AcDbLine
 10
327.5387848220054
 20
68.24389166052867
 30
0.0
 11
331.2475848220052
 21
70.84005166052867
 31
0.0
  0
ARC
  5
D63
330
12A5
100
AcDbEntity
  8
1
  6
Continuous
100
AcDbCircle
 10
324.7222648220053
 20
75.04389166052867
 30
0.0
 40
2.0
100
AcDbArc
 50
270.0
 51
0.0
  0
LINE
  5
D64
330
12A5
100
AcDbEntity
  8
1
  6
Continuous
100
AcDbLine
 10
318.9942648220052
 20
68.24389166052867
 30
0.0
 11
318.9942648220052
 21
73.04389166052867
 31
0.0
  0
LINE
  5
D65
330
12A5
100
AcDbEntity
  8
1
  6
Continuous
100
AcDbLine
 10
313.5811130292002
 20
83.04389166052857
 30
0.0
 11
313.5811130292002
 21
76.04389166052867
 31
0.0
  0
ARC
  5
D66
330
12A5
100
AcDbEntity
  8
1
  6
Continuous
100
AcDbCircle
 10
326.1348748220056
 20
79.04389166052864
 30
0.0
 40
2.0
100
AcDbArc
 50
90.0
 51
180.0
  0
LINE
  5
D67
330
12A5
100
AcDbEntity
  8
1
  6
Continuous
100
AcDbLine
 10
326.7222648220052
 20
79.04389166052864
 30
0.0
 11
326.7222648220052
 21
75.04389166052867
 31
0.0
  0
LINE
  5
D68
330
12A5
100
AcDbEntity
  8
1
  6
Continuous
100
AcDbLine
 10
324.1348748220056
 20
79.04389166052864
 30
0.0
 11
324.1348748220056
 21
76.04389166052867
 31
0.0
  0
LINE
  5
D69
330
12A5
100
AcDbEntity
  8
1
  6
Continuous
100
AcDbLine
 10
332.5387848220054
 20
77.79389166052864
 30
0.0
 11
332.5387848220054
 21
71.48898113446685
 31
0.0
  0
LINE
  5
D6A
330
12A5
100
AcDbEntity
  8
1
  6
Continuous
100
AcDbLine
 10
333.4615071622931
 20
77.79389166052864
 30
0.0
 11
333.4615071622931
 21
71.48898113446685
 31
0.0
  0
LINE
  5
D6B
330
12A5
100
AcDbEntity
  8
1
  6
Continuous
100
AcDbLine
 10
333.9615585672589
 20
71.74153987607034
 30
0.0
 11
337.2208110064633
 21
71.84153987607025
 31
0.0
  0
ARC
  5
D6C
330
12A5
100
AcDbEntity
  8
1
  6
Continuous
100
AcDbCircle
 10
337.37414826121
 20
66.84389166052864
 30
0.0
 40
5.0
100
AcDbArc
 50
90.0
 51
124.9920280019829
  0
LINE
  5
D6D
330
12A5
100
AcDbEntity
  8
1
  6
Continuous
100
AcDbLine
 10
332.8920568220056
 20
66.14773266052877
 30
0.0
 11
336.7437232310424
 21
68.84389166052864
 31
0.0
  0
LINE
  5
D6E
330
12A5
100
AcDbEntity
  8
1
  6
Continuous
100
AcDbLine
 10
330.6551810808594
 20
68.24389166052867
 30
0.0
 11
334.5068359815151
 21
70.94005087260886
 31
0.0
  0
ARC
  5
D6F
330
12A5
100
AcDbEntity
  8
1
  6
Continuous
100
AcDbCircle
 10
334.1148958220052
 20
66.74389166052868
 30
0.0
 40
5.0
100
AcDbArc
 50
91.75739105012391
 51
124.9920200000012
  0
ARC
  5
D70
330
12A5
100
AcDbEntity
  8
1
  6
Continuous
100
AcDbCircle
 10
330.0247458220055
 20
70.24389166052867
 30
0.0
 40
5.0
100
AcDbArc
 50
270.0
 51
304.992020000001
  0
LINE
  5
D71
330
12A5
100
AcDbEntity
  8
1
  6
Continuous
100
AcDbLine
 10
339.5273368220052
 20
66.44389166052855
 30
0.0
 11
339.5273368220052
 21
66.54389166052869
 31
0.0
  0
ARC
  5
D72
330
12A5
100
AcDbEntity
  8
1
  6
Continuous
100
AcDbCircle
 10
340.7273368220053
 20
66.44389166052855
 30
0.0
 40
1.199999999999999
100
AcDbArc
 50
180.0
 51
270.0
  0
LINE
  5
D73
330
12A5
100
AcDbEntity
  8
1
  6
Continuous
100
AcDbLine
 10
341.3053917740383
 20
68.84389166052868
 30
0.0
 11
341.3053917740383
 21
66.54389166052869
 31
0.0
  0
LINE
  5
D74
330
12A5
100
AcDbEntity
  8
1
  6
Continuous
100
AcDbLine
 10
340.1773368220056
 20
71.84389166052871
 30
0.0
 11
340.1773368220056
 21
73.84389166052867
 31
0.0
  0
LINE
  5
D75
330
12A5
100
AcDbEntity
  8
1
  6
Continuous
100
AcDbLine
 10
340.6615071622929
 20
79.29389166052864
 30
0.0
 11
334.0387848220053
 21
79.29389166052864
 31
0.0
  0
ARC
  5
D76
330
12A5
100
AcDbEntity
  8
1
  6
Continuous
100
AcDbCircle
 10
334.0387848220053
 20
77.79389166052864
 30
0.0
 40
1.5
100
AcDbArc
 50
90.0
 51
180.0
  0
ARC
  5
D77
330
12A5
100
AcDbEntity
  8
1
  6
Continuous
100
AcDbCircle
 10
329.3617448220054
 20
83.04389166052862
 30
0.0
 40
2.0
100
AcDbArc
 50
270.0
 51
0.0
  0
ARC
  5
D78
330
12A5
100
AcDbEntity
  8
1
  6
Continuous
100
AcDbCircle
 10
334.9615071622931
 20
77.79389166052864
 30
0.0
 40
1.5
100
AcDbArc
 50
90.0
 51
180.0
  0
ARC
  5
D79
330
12A5
100
AcDbEntity
  8
1
  6
Continuous
100
AcDbCircle
 10
377.4793108220052
 20
78.54291566052859
 30
0.0
 40
1.349024
100
AcDbArc
 50
180.0
 51
0.0
  0
LINE
  5
D7A
330
12A5
100
AcDbEntity
  8
1
  6
Continuous
100
AcDbLine
 10
384.3128908220052
 20
69.54389166052869
 30
0.0
 11
360.6447348220056
 21
69.54389166052869
 31
0.0
  0
LINE
  5
D7B
330
12A5
100
AcDbEntity
  8
1
  6
Continuous
100
AcDbLine
 10
384.9540390104701
 20
71.84389166052871
 30
0.0
 11
360.6447348220056
 21
71.84389166052871
 31
0.0
  0
LINE
  5
D7C
330
12A5
100
AcDbEntity
  8
1
  6
Continuous
100
AcDbLine
 10
344.7387848220053
 20
107.7938916605285
 30
0.0
 11
344.7387848220053
 21
84.29389166052862
 31
0.0
  0
LINE
  5
D7D
330
12A5
100
AcDbEntity
  8
1
  6
Continuous
100
AcDbLine
 10
345.661507162293
 20
107.7938916605285
 30
0.0
 11
345.661507162293
 21
84.29389166052862
 31
0.0
  0
LINE
  5
D7E
330
12A5
100
AcDbEntity
  8
1
  6
Continuous
100
AcDbLine
 10
347.3273368220052
 20
66.44389166052855
 30
0.0
 11
347.3273368220052
 21
66.54389166052869
 31
0.0
  0
ARC
  5
D7F
330
12A5
100
AcDbEntity
  8
1
  6
Continuous
100
AcDbCircle
 10
346.1273368220053
 20
66.44389166052855
 30
0.0
 40
1.199999999999999
100
AcDbArc
 50
270.0
 51
0.0
  0
LINE
  5
D80
330
12A5
100
AcDbEntity
  8
1
  6
Continuous
100
AcDbLine
 10
346.6773368220056
 20
71.84389166052871
 30
0.0
 11
346.6773368220056
 21
73.84389166052871
 31
0.0
  0
ARC
  5
D81
330
12A5
100
AcDbEntity
  8
1
  6
Continuous
100
AcDbCircle
 10
360.6447348220056
 20
67.54389166052868
 30
0.0
 40
2.0
100
AcDbArc
 50
90.0
 51
180.0
  0
ARC
  5
D82
330
12A5
100
AcDbEntity
  8
1
  6
Continuous
100
AcDbCircle
 10
357.6447348220056
 20
67.54389166052868
 30
0.0
 40
1.0
100
AcDbArc
 50
270.0
 51
0.0
  0
ARC
  5
D83
330
12A5
100
AcDbEntity
  8
1
  6
Continuous
100
AcDbCircle
 10
360.6447348220056
 20
67.54389166052868
 30
0.0
 40
4.299999999999998
100
AcDbArc
 50
90.0
 51
162.402663391916
  0
LINE
  5
D84
330
12A5
100
AcDbEntity
  8
1
  6
Continuous
100
AcDbLine
 10
356.5459545156216
 20
68.84389166052864
 30
0.0
 11
356.5459545156228
 21
71.84389166052864
 31
0.0
  0
ARC
  5
D85
330
12A5
100
AcDbEntity
  8
1
  6
Continuous
100
AcDbCircle
 10
368.4830008220056
 20
78.54285566052862
 30
0.0
 40
1.348964
100
AcDbArc
 50
180.0
 51
0.0
  0
ARC
  5
D86
330
12A5
100
AcDbEntity
  8
1
  6
Continuous
100
AcDbCircle
 10
387.1854128220056
 20
80.35589766052863
 30
0.0
 40
7.367411999999997
100
AcDbArc
 50
271.07054
 51
0.0
  0
ARC
  5
D87
330
12A5
100
AcDbEntity
  8
1
  6
Continuous
100
AcDbCircle
 10
387.3128008220052
 20
69.9902956605286
 30
0.0
 40
3.0
100
AcDbArc
 50
91.07054000000013
 51
180.0
  0
LINE
  5
D88
330
12A5
100
AcDbEntity
  8
1
  6
Continuous
100
AcDbLine
 10
384.3128008220054
 20
69.9902956605286
 30
0.0
 11
384.3128008220054
 21
69.54389166052869
 31
0.0
  0
LINE
  5
D89
330
12A5
100
AcDbEntity
  8
1
  6
Continuous
100
AcDbLine
 10
387.3230608374076
 20
72.98977163651848
 30
0.0
 11
387.2567508374075
 21
72.98977163651848
 31
0.0
  0
ARC
  5
D8A
330
12A5
100
AcDbEntity
  8
1
  6
Continuous
100
AcDbCircle
 10
386.4755038220055
 20
78.54283066052857
 30
0.0
 40
1.348938999999997
100
AcDbArc
 50
180.0
 51
0.0
  0
LINE
  5
D8B
330
12A5
100
AcDbEntity
  8
1
  6
Continuous
100
AcDbLine
 10
252.9734248220053
 20
141.0438916605284
 30
0.0
 11
285.0151048220054
 21
141.0438916605284
 31
0.0
  0
LINE
  5
D8C
330
12A5
100
AcDbEntity
  8
5
  6
PHANTOM
100
AcDbLine
 10
277.0883248220055
 20
267.1397336605283
 30
0.0
 11
279.0093548220056
 21
272.8930996605283
 31
0.0
  0
LINE
  5
D8D
330
12A5
100
AcDbEntity
  8
1
  6
Continuous
100
AcDbLine
 10
269.7926948220056
 20
286.6671126605283
 30
0.0
 11
285.9689248220055
 21
289.0321676605284
 31
0.0
  0
LINE
  5
D8E
330
12A5
100
AcDbEntity
  8
1
  6
Continuous
100
AcDbLine
 10
250.3942548220056
 20
245.7003376605283
 30
0.0
 11
287.5942748220056
 21
245.7003376605285
 31
0.0
  0
LINE
  5
D8F
330
12A5
100
AcDbEntity
  8
1
  6
Continuous
100
AcDbLine
 10
291.3942548220052
 20
255.5003406605283
 30
0.0
 11
246.5942748220053
 21
255.5003406605283
 31
0.0
  0
LINE
  5
D90
330
12A5
100
AcDbEntity
  8
1
  6
Continuous
100
AcDbLine
 10
256.0942748220053
 20
218.9124376605283
 30
0.0
 11
281.8942548220054
 21
218.9124376605283
 31
0.0
  0
LINE
  5
D91
330
12A5
100
AcDbEntity
  8
5
  6
PHANTOM
100
AcDbLine
 10
256.0942748220053
 20
193.9120376605284
 30
0.0
 11
281.8942548220054
 21
193.9120376605284
 31
0.0
  0
LINE
  5
D92
330
12A5
100
AcDbEntity
  8
1
  6
Continuous
100
AcDbLine
 10
239.4942648220055
 20
217.2003406605283
 30
0.0
 11
298.4942648220055
 21
217.2003406605283
 31
0.0
  0
LINE
  5
D93
330
12A5
100
AcDbEntity
  8
1
  6
Continuous
100
AcDbLine
 10
235.9942648220053
 20
210.9003526605283
 30
0.0
 11
301.9942648220052
 21
210.9003526605283
 31
0.0
  0
LINE
  5
D94
330
12A5
100
AcDbEntity
  8
1
  6
Continuous
100
AcDbLine
 10
237.6942648220053
 20
207.7003406605285
 30
0.0
 11
300.2942548220052
 21
207.7003486605285
 31
0.0
  0
LINE
  5
D95
330
12A5
100
AcDbEntity
  8
5
  6
PHANTOM
100
AcDbLine
 10
237.6942648220053
 20
182.7003376605283
 30
0.0
 11
300.2942569655824
 21
182.7003376605283
 31
0.0
  0
LINE
  5
D96
330
12A5
100
AcDbEntity
  8
5
  6
PHANTOM
100
AcDbLine
 10
235.9942648220053
 20
185.9003346605283
 30
0.0
 11
301.9942648220052
 21
185.9003346605283
 31
0.0
  0
LINE
  5
D97
330
12A5
100
AcDbEntity
  8
5
  6
PHANTOM
100
AcDbLine
 10
239.4942648220055
 20
192.2003376605285
 30
0.0
 11
298.4942648220055
 21
192.2003376605285
 31
0.0
  0
LINE
  5
D98
330
12A5
100
AcDbEntity
  8
5
  6
PHANTOM
100
AcDbLine
 10
275.0713948220055
 20
274.4311926605283
 30
0.0
 11
321.4938648220052
 21
256.2994096605283
 31
0.0
  0
LINE
  5
D99
330
12A5
100
AcDbEntity
  8
5
  6
PHANTOM
100
AcDbLine
 10
253.0942748220053
 20
196.9120376605284
 30
0.0
 11
253.0942748220053
 21
220.6866076605283
 31
0.0
  0
ARC
  5
D9A
330
12A5
100
AcDbEntity
  8
1
  6
Continuous
100
AcDbCircle
 10
252.9734248220053
 20
191.0438916605284
 30
0.0
 40
50.0
100
AcDbArc
 50
246.4435300000016
 51
270.0000039999991
  0
LINE
  5
D9B
330
12A5
100
AcDbEntity
  8
4
  6
CENTER
100
AcDbLine
 10
228.9942648220053
 20
128.5438916605285
 30
0.0
 11
228.9942648220053
 21
143.5438916605284
 31
0.0
  0
LINE
  5
D9C
330
12A5
100
AcDbEntity
  8
4
  6
CENTER
100
AcDbLine
 10
236.4942648220053
 20
136.0438916605284
 30
0.0
 11
221.4942648220053
 21
136.0438916605284
 31
0.0
  0
CIRCLE
  5
D9D
330
12A5
100
AcDbEntity
  8
1
  6
Continuous
100
AcDbCircle
 10
228.9942648220053
 20
136.0438916605284
 30
0.0
 40
4.25
  0
ARC
  5
D9E
330
12A5
100
AcDbEntity
  8
1
  6
Continuous
100
AcDbCircle
 10
228.9942648220053
 20
136.0438916605284
 30
0.0
 40
10.0
100
AcDbArc
 50
66.44352000000049
 51
180.0000100000002
  0
ARC
  5
D9F
330
12A5
100
AcDbEntity
  8
5
  6
PHANTOM
100
AcDbCircle
 10
239.4942648220055
 20
188.7003376605283
 30
0.0
 40
3.5
100
AcDbArc
 50
89.99998199999996
 51
179.99996
  0
LINE
  5
DA0
330
12A5
100
AcDbEntity
  8
5
  6
PHANTOM
100
AcDbLine
 10
235.9942648220053
 20
188.7003376605283
 30
0.0
 11
235.9942648220053
 21
185.9003346605283
 31
0.0
  0
LINE
  5
DA1
330
12A5
100
AcDbEntity
  8
5
  6
PHANTOM
100
AcDbLine
 10
236.8368448220053
 20
185.9003346605283
 30
0.0
 11
237.6942748220053
 21
182.7003376605283
 31
0.0
  0
ARC
  5
DA2
330
12A5
100
AcDbEntity
  8
5
  6
PHANTOM
100
AcDbCircle
 10
256.0942748220053
 20
196.9120376605284
 30
0.0
 40
3.0
100
AcDbArc
 50
179.9999799999999
 51
270.0
  0
LINE
  5
DA3
330
12A5
100
AcDbEntity
  8
5
  6
PHANTOM
100
AcDbLine
 10
257.3705448220056
 20
193.9120306605283
 30
0.0
 11
255.9513148220056
 21
192.4931386605283
 31
0.0
  0
ARC
  5
DA4
330
12A5
100
AcDbEntity
  8
5
  6
PHANTOM
100
AcDbCircle
 10
255.2442648220054
 20
193.2003376605283
 30
0.0
 40
1.0
100
AcDbArc
 50
269.9999399999996
 51
314.9929899999999
  0
LINE
  5
DA5
330
12A5
100
AcDbEntity
  8
1
  6
Continuous
100
AcDbLine
 10
253.0942748220053
 20
221.9124376605285
 30
0.0
 11
253.0942748220053
 21
245.7003376605283
 31
0.0
  0
ARC
  5
DA6
330
12A5
100
AcDbEntity
  8
1
  6
Continuous
100
AcDbCircle
 10
239.4942648220055
 20
213.7003406605283
 30
0.0
 40
3.5
100
AcDbArc
 50
89.99998199999996
 51
179.99996
  0
LINE
  5
DA7
330
12A5
100
AcDbEntity
  8
1
  6
Continuous
100
AcDbLine
 10
235.9942648220053
 20
213.7003406605283
 30
0.0
 11
235.9942648220053
 21
210.9003526605283
 31
0.0
  0
LINE
  5
DA8
330
12A5
100
AcDbEntity
  8
1
  6
Continuous
100
AcDbLine
 10
236.8368248220054
 20
210.9003526605283
 30
0.0
 11
237.6942648220053
 21
207.7003566605284
 31
0.0
  0
ARC
  5
DA9
330
12A5
100
AcDbEntity
  8
1
  6
Continuous
100
AcDbCircle
 10
256.0942748220053
 20
221.9124376605285
 30
0.0
 40
3.0
100
AcDbArc
 50
179.9999799999999
 51
270.0
  0
LINE
  5
DAA
330
12A5
100
AcDbEntity
  8
1
  6
Continuous
100
AcDbLine
 10
257.3709248220053
 20
218.9124376605283
 30
0.0
 11
255.9512948220056
 21
217.4931456605285
 31
0.0
  0
ARC
  5
DAB
330
12A5
100
AcDbEntity
  8
1
  6
Continuous
100
AcDbCircle
 10
255.2442648220054
 20
218.2003406605285
 30
0.0
 40
1.0
100
AcDbArc
 50
269.9999399999996
 51
314.9929899999999
  0
ARC
  5
DAC
330
12A5
100
AcDbEntity
  8
1
  6
Continuous
100
AcDbCircle
 10
246.5942748220053
 20
257.5003406605283
 30
0.0
 40
2.0
100
AcDbArc
 50
179.9999899999995
 51
270.0
  0
ARC
  5
DAD
330
12A5
100
AcDbEntity
  8
1
  6
Continuous
100
AcDbCircle
 10
268.9942648220053
 20
269.5003406605283
 30
0.0
 40
4.099999999999996
100
AcDbArc
 50
179.9999899999995
 51
0.0000099999997851
  0
CIRCLE
  5
DAE
330
12A5
100
AcDbEntity
  8
5
  6
PHANTOM
100
AcDbCircle
 10
268.9942648220053
 20
270.3307696605283
 30
0.0
 40
6.0
  0
ARC
  5
DAF
330
12A5
100
AcDbEntity
  8
5
  6
PHANTOM
100
AcDbCircle
 10
269.0258848220052
 20
269.8317616605283
 30
0.0
 40
8.5
100
AcDbArc
 50
183.6242
 51
341.5360200000002
  0
LINE
  5
DB0
330
12A5
100
AcDbEntity
  8
1
  6
Continuous
100
AcDbLine
 10
247.3942748220054
 20
255.5003406605283
 30
0.0
 11
247.3942748220054
 21
248.7003376605283
 31
0.0
  0
ARC
  5
DB1
330
12A5
100
AcDbEntity
  8
1
  6
Continuous
100
AcDbCircle
 10
250.3942548220056
 20
248.7003376605283
 30
0.0
 40
3.0
100
AcDbArc
 50
179.9999899999995
 51
270.0
  0
LINE
  5
DB2
330
12A5
100
AcDbEntity
  8
1
  6
Continuous
100
AcDbLine
 10
264.8942548220055
 20
287.4102216605282
 30
0.0
 11
264.8942548220055
 21
269.5003406605283
 31
0.0
  0
LINE
  5
DB3
330
12A5
100
AcDbEntity
  8
1
  6
Continuous
100
AcDbLine
 10
273.0942748220055
 20
287.1498236605284
 30
0.0
 11
273.0942748220055
 21
269.5003406605283
 31
0.0
  0
LINE
  5
DB4
330
12A5
100
AcDbEntity
  8
5
  6
PHANTOM
100
AcDbLine
 10
284.8942548220052
 20
196.9120376605284
 30
0.0
 11
284.8942548220052
 21
221.0148706605283
 31
0.0
  0
LINE
  5
DB5
330
12A5
100
AcDbEntity
  8
1
  6
Continuous
100
AcDbLine
 10
346.1273368220053
 20
126.8438916605284
 30
0.0
 11
340.7273368220053
 21
126.8438916605284
 31
0.0
  0
LINE
  5
DB6
330
12A5
100
AcDbEntity
  8
1
  6
Continuous
100
AcDbLine
 10
357.6447348220056
 20
125.5438916605284
 30
0.0
 11
333.4579998220056
 21
125.5438916605284
 31
0.0
  0
LINE
  5
DB7
330
12A5
100
AcDbEntity
  8
1
  6
Continuous
100
AcDbLine
 10
346.6773368220056
 20
118.2438916605284
 30
0.0
 11
340.1773368220056
 21
118.2438916605284
 31
0.0
  0
LINE
  5
DB8
330
12A5
100
AcDbEntity
  8
1
  6
Continuous
100
AcDbLine
 10
356.5459545156228
 20
123.2438916605284
 30
0.0
 11
336.7437232310424
 21
123.2438916605284
 31
0.0
  0
LINE
  5
DB9
330
12A5
100
AcDbEntity
  8
1
  6
Continuous
100
AcDbLine
 10
356.5459545156228
 20
120.2438916605284
 30
0.0
 11
337.37414826121
 21
120.2438916605284
 31
0.0
  0
LINE
  5
DBA
330
12A5
100
AcDbEntity
  8
4
  6
CENTER
100
AcDbLine
 10
301.4942648220056
 20
136.0438916605284
 30
0.0
 11
316.4942648220054
 21
136.0438916605284
 31
0.0
  0
CIRCLE
  5
DBB
330
12A5
100
AcDbEntity
  8
1
  6
Continuous
100
AcDbCircle
 10
308.9942648220052
 20
136.0438916605284
 30
0.0
 40
4.25
  0
ARC
  5
DBC
330
12A5
100
AcDbEntity
  8
1
  6
Continuous
100
AcDbCircle
 10
308.9942648220052
 20
136.0438916605284
 30
0.0
 40
10.0
100
AcDbArc
 50
359.9999969999998
 51
113.5564600000032
  0
LINE
  5
DBD
330
12A5
100
AcDbEntity
  8
1
  6
Continuous
100
AcDbLine
 10
330.0247458220055
 20
126.8438916605284
 30
0.0
 11
280.8416273977018
 21
126.8438916605284
 31
0.0
  0
LINE
  5
DBE
330
12A5
100
AcDbEntity
  8
1
  6
Continuous
100
AcDbLine
 10
324.7222648220053
 20
119.0438916605285
 30
0.0
 11
292.658583954404
 21
119.0438916605285
 31
0.0
  0
LINE
  5
DBF
330
12A5
100
AcDbEntity
  8
1
  6
Continuous
100
AcDbLine
 10
330.6551810808594
 20
123.8438916605285
 30
0.0
 11
286.7751534387198
 21
123.8438916605285
 31
0.0
  0
LINE
  5
DC0
330
12A5
100
AcDbEntity
  8
1
  6
Continuous
100
AcDbLine
 10
324.1348748220056
 20
116.0438916605285
 30
0.0
 11
295.2430743188188
 21
116.0438916605285
 31
0.0
  0
LINE
  5
DC1
330
12A5
100
AcDbEntity
  8
4
  6
CENTER
100
AcDbLine
 10
308.9942648220052
 20
128.5438916605285
 30
0.0
 11
308.9942648220052
 21
143.5438916605284
 31
0.0
  0
ARC
  5
DC2
330
12A5
100
AcDbEntity
  8
1
  6
Continuous
100
AcDbCircle
 10
285.0151048220054
 20
191.0438916605284
 30
0.0
 40
50.0
100
AcDbArc
 50
269.9999969999958
 51
293.5564729999973
  0
LINE
  5
DC3
330
12A5
100
AcDbEntity
  8
1
  6
Continuous
100
AcDbLine
 10
318.9942648220052
 20
126.8438916605284
 30
0.0
 11
318.9942648220052
 21
136.0438916605284
 31
0.0
  0
LINE
  5
DC4
330
12A5
100
AcDbEntity
  8
1
  6
Continuous
100
AcDbLine
 10
327.5387848220054
 20
123.8438916605285
 30
0.0
 11
331.2475848220052
 21
121.2477316605285
 31
0.0
  0
LINE
  5
DC5
330
12A5
100
AcDbEntity
  8
1
  6
Continuous
100
AcDbLine
 10
329.3617448220054
 20
111.0438916605284
 30
0.0
 11
326.1348748220056
 21
111.0438916605284
 31
0.0
  0
ARC
  5
DC6
330
12A5
100
AcDbEntity
  8
1
  6
Continuous
100
AcDbCircle
 10
326.4695448220056
 20
109.0438916605284
 30
0.0
 40
2.0
100
AcDbArc
 50
0.0
 51
90.0
  0
ARC
  5
DC7
330
12A5
100
AcDbEntity
  8
1
  6
Continuous
100
AcDbCircle
 10
328.7222648220054
 20
113.0438916605284
 30
0.0
 40
2.0
100
AcDbArc
 50
180.0
 51
270.0
  0
LINE
  5
DC8
330
12A5
100
AcDbEntity
  8
1
  6
Continuous
100
AcDbLine
 10
318.9942648220052
 20
119.0438916605285
 30
0.0
 11
318.9942648220052
 21
123.8438916605285
 31
0.0
  0
LINE
  5
DC9
330
12A5
100
AcDbEntity
  8
1
  6
Continuous
100
AcDbLine
 10
313.5811130292002
 20
116.0438916605285
 30
0.0
 11
313.5811130292002
 21
109.0438916605284
 31
0.0
  0
LINE
  5
DCA
330
12A5
100
AcDbEntity
  8
1
  6
Continuous
100
AcDbLine
 10
326.7222648220052
 20
113.0438916605284
 30
0.0
 11
326.7222648220052
 21
117.0438916605285
 31
0.0
  0
LINE
  5
DCB
330
12A5
100
AcDbEntity
  8
1
  6
Continuous
100
AcDbLine
 10
324.1348748220056
 20
116.0438916605285
 30
0.0
 11
324.1348748220056
 21
113.0438916605284
 31
0.0
  0
ARC
  5
DCC
330
12A5
100
AcDbEntity
  8
1
  6
Continuous
100
AcDbCircle
 10
324.7222648220053
 20
117.0438916605285
 30
0.0
 40
2.0
100
AcDbArc
 50
0.0
 51
90.0
  0
ARC
  5
DCD
330
12A5
100
AcDbEntity
  8
1
  6
Continuous
100
AcDbCircle
 10
326.1348748220056
 20
113.0438916605284
 30
0.0
 40
2.0
100
AcDbArc
 50
180.0
 51
270.0
  0
LINE
  5
DCE
330
12A5
100
AcDbEntity
  8
1
  6
Continuous
100
AcDbLine
 10
340.1773368220056
 20
120.2438916605284
 30
0.0
 11
340.1773368220056
 21
118.2438916605284
 31
0.0
  0
LINE
  5
DCF
330
12A5
100
AcDbEntity
  8
1
  6
Continuous
100
AcDbLine
 10
332.5387848220054
 20
120.5988021865902
 30
0.0
 11
332.5387848220054
 21
114.2938916605284
 31
0.0
  0
ARC
  5
DD0
330
12A5
100
AcDbEntity
  8
1
  6
Continuous
100
AcDbCircle
 10
334.1148958220052
 20
125.3438916605284
 30
0.0
 40
5.0
100
AcDbArc
 50
235.0079799999987
 51
268.2426089498761
  0
LINE
  5
DD1
330
12A5
100
AcDbEntity
  8
1
  6
Continuous
100
AcDbLine
 10
333.4615071622931
 20
120.5988021865902
 30
0.0
 11
333.4615071622931
 21
114.2938916605284
 31
0.0
  0
ARC
  5
DD2
330
12A5
100
AcDbEntity
  8
1
  6
Continuous
100
AcDbCircle
 10
337.37414826121
 20
125.2438916605284
 30
0.0
 40
5.0
100
AcDbArc
 50
235.0079719980168
 51
270.0
  0
LINE
  5
DD3
330
12A5
100
AcDbEntity
  8
1
  6
Continuous
100
AcDbLine
 10
340.6615071622929
 20
112.7938916605285
 30
0.0
 11
334.0387848220053
 21
112.7938916605285
 31
0.0
  0
ARC
  5
DD4
330
12A5
100
AcDbEntity
  8
1
  6
Continuous
100
AcDbCircle
 10
329.3617448220054
 20
109.0438916605284
 30
0.0
 40
2.0
100
AcDbArc
 50
0.0
 51
90.0
  0
ARC
  5
DD5
330
12A5
100
AcDbEntity
  8
1
  6
Continuous
100
AcDbCircle
 10
334.0387848220053
 20
114.2938916605284
 30
0.0
 40
1.5
100
AcDbArc
 50
180.0
 51
270.0
  0
ARC
  5
DD6
330
12A5
100
AcDbEntity
  8
1
  6
Continuous
100
AcDbCircle
 10
334.9615071622931
 20
114.2938916605284
 30
0.0
 40
1.5
100
AcDbArc
 50
180.0
 51
270.0
  0
LINE
  5
DD7
330
12A5
100
AcDbEntity
  8
1
  6
Continuous
100
AcDbLine
 10
333.9615585672589
 20
120.3462434449867
 30
0.0
 11
337.2208110064633
 21
120.2462434449869
 31
0.0
  0
LINE
  5
DD8
330
12A5
100
AcDbEntity
  8
1
  6
Continuous
100
AcDbLine
 10
332.8920568220056
 20
125.9400506605283
 30
0.0
 11
336.7437232310424
 21
123.2438916605284
 31
0.0
  0
ARC
  5
DD9
330
12A5
100
AcDbEntity
  8
1
  6
Continuous
100
AcDbCircle
 10
330.0247458220055
 20
121.8438916605285
 30
0.0
 40
5.0
100
AcDbArc
 50
55.00797999999875
 51
90.0
  0
LINE
  5
DDA
330
12A5
100
AcDbEntity
  8
1
  6
Continuous
100
AcDbLine
 10
330.6551810808594
 20
123.8438916605285
 30
0.0
 11
334.5068359815151
 21
121.1477324484482
 31
0.0
  0
ARC
  5
DDB
330
12A5
100
AcDbEntity
  8
1
  6
Continuous
100
AcDbCircle
 10
340.7273368220053
 20
125.6438916605284
 30
0.0
 40
1.199999999999999
100
AcDbArc
 50
90.0
 51
180.0
  0
LINE
  5
DDC
330
12A5
100
AcDbEntity
  8
1
  6
Continuous
100
AcDbLine
 10
339.5273368220052
 20
125.6438916605284
 30
0.0
 11
339.5273368220052
 21
125.5438916605284
 31
0.0
  0
LINE
  5
DDD
330
12A5
100
AcDbEntity
  8
1
  6
Continuous
100
AcDbLine
 10
341.3053917740383
 20
125.5438916605284
 30
0.0
 11
341.3053917740383
 21
123.2438916605284
 31
0.0
  0
LINE
  5
DDE
330
12A5
100
AcDbEntity
  8
5
  6
PHANTOM
100
AcDbLine
 10
280.6179848220054
 20
193.9120376605283
 30
0.0
 11
282.0372348220054
 21
192.4931306605283
 31
0.0
  0
ARC
  5
DDF
330
12A5
100
AcDbEntity
  8
5
  6
PHANTOM
100
AcDbCircle
 10
282.7442648220056
 20
193.2003376605283
 30
0.0
 40
1.0
100
AcDbArc
 50
225.0070099999998
 51
270.0000500000001
  0
ARC
  5
DE0
330
12A5
100
AcDbEntity
  8
5
  6
PHANTOM
100
AcDbCircle
 10
281.8942548220054
 20
196.9120376605284
 30
0.0
 40
3.0
100
AcDbArc
 50
270.0
 51
0.0000180000000203
  0
LINE
  5
DE1
330
12A5
100
AcDbEntity
  8
5
  6
PHANTOM
100
AcDbLine
 10
301.9942648220052
 20
188.7003376605283
 30
0.0
 11
301.9942648220052
 21
185.9003346605283
 31
0.0
  0
LINE
  5
DE2
330
12A5
100
AcDbEntity
  8
5
  6
PHANTOM
100
AcDbLine
 10
301.1516848220054
 20
185.9003266605284
 30
0.0
 11
300.2942548220052
 21
182.7003296605283
 31
0.0
  0
ARC
  5
DE3
330
12A5
100
AcDbEntity
  8
5
  6
PHANTOM
100
AcDbCircle
 10
298.4942648220055
 20
188.7003376605283
 30
0.0
 40
3.5
100
AcDbArc
 50
0.0000369999998155
 51
90.00001599999967
  0
ARC
  5
DE4
330
12A5
100
AcDbEntity
  8
1
  6
Continuous
100
AcDbCircle
 10
377.4793108220052
 20
113.5448676605284
 30
0.0
 40
1.349024
100
AcDbArc
 50
0.0
 51
180.0
  0
LINE
  5
DE5
330
12A5
100
AcDbEntity
  8
1
  6
Continuous
100
AcDbLine
 10
384.3128908220052
 20
122.5438916605284
 30
0.0
 11
360.6447348220056
 21
122.5438916605284
 31
0.0
  0
LINE
  5
DE6
330
12A5
100
AcDbEntity
  8
1
  6
Continuous
100
AcDbLine
 10
384.9540390104697
 20
120.2438916605284
 30
0.0
 11
360.6447348220056
 21
120.2438916605284
 31
0.0
  0
ARC
  5
DE7
330
12A5
100
AcDbEntity
  8
1
  6
Continuous
100
AcDbCircle
 10
360.6447348220056
 20
124.5438916605284
 30
0.0
 40
4.299999999999998
100
AcDbArc
 50
197.5973366080836
 51
270.0
  0
LINE
  5
DE8
330
12A5
100
AcDbEntity
  8
1
  6
Continuous
100
AcDbLine
 10
346.6773368220056
 20
120.2438916605284
 30
0.0
 11
346.6773368220056
 21
118.2438916605284
 31
0.0
  0
ARC
  5
DE9
330
12A5
100
AcDbEntity
  8
1
  6
Continuous
100
AcDbCircle
 10
346.1273368220053
 20
125.6438916605284
 30
0.0
 40
1.199999999999999
100
AcDbArc
 50
0.0
 51
90.0
  0
LINE
  5
DEA
330
12A5
100
AcDbEntity
  8
1
  6
Continuous
100
AcDbLine
 10
347.3273368220052
 20
125.6438916605284
 30
0.0
 11
347.3273368220052
 21
125.5438916605284
 31
0.0
  0
ARC
  5
DEB
330
12A5
100
AcDbEntity
  8
1
  6
Continuous
100
AcDbCircle
 10
360.6447348220056
 20
124.5438916605284
 30
0.0
 40
2.0
100
AcDbArc
 50
180.0
 51
270.0
  0
LINE
  5
DEC
330
12A5
100
AcDbEntity
  8
1
  6
Continuous
100
AcDbLine
 10
356.5459545156216
 20
123.2438916605284
 30
0.0
 11
356.5459545156228
 21
120.2438916605284
 31
0.0
  0
ARC
  5
DED
330
12A5
100
AcDbEntity
  8
1
  6
Continuous
100
AcDbCircle
 10
357.6447348220056
 20
124.5438916605284
 30
0.0
 40
1.0
100
AcDbArc
 50
0.0
 51
90.0
  0
ARC
  5
DEE
330
12A5
100
AcDbEntity
  8
1
  6
Continuous
100
AcDbCircle
 10
368.4830008220056
 20
113.5449276605284
 30
0.0
 40
1.348964
100
AcDbArc
 50
0.0
 51
180.0
  0
ARC
  5
DEF
330
12A5
100
AcDbEntity
  8
1
  6
Continuous
100
AcDbCircle
 10
387.1854128220056
 20
111.7318856605284
 30
0.0
 40
7.367411999999997
100
AcDbArc
 50
0.0
 51
88.92945999999986
  0
ARC
  5
DF0
330
12A5
100
AcDbEntity
  8
1
  6
Continuous
100
AcDbCircle
 10
387.3128008220052
 20
122.0974876605284
 30
0.0
 40
3.0
100
AcDbArc
 50
180.0
 51
268.9294599999997
  0
ARC
  5
DF1
330
12A5
100
AcDbEntity
  8
1
  6
Continuous
100
AcDbCircle
 10
386.4755038220055
 20
113.5449526605285
 30
0.0
 40
1.348938999999997
100
AcDbArc
 50
0.0
 51
180.0
  0
LINE
  5
DF2
330
12A5
100
AcDbEntity
  8
1
  6
Continuous
100
AcDbLine
 10
387.3230608374076
 20
119.0980116845387
 30
0.0
 11
387.2567508374075
 21
119.0980116845387
 31
0.0
  0
LINE
  5
DF3
330
12A5
100
AcDbEntity
  8
1
  6
Continuous
100
AcDbLine
 10
384.3128008220054
 20
122.0974876605284
 30
0.0
 11
384.3128008220054
 21
122.5438916605284
 31
0.0
  0
ARC
  5
DF4
330
12A5
100
AcDbEntity
  8
5
  6
PHANTOM
100
AcDbCircle
 10
340.8355148220052
 20
261.5869726605284
 30
0.0
 40
3.625019999999997
100
AcDbArc
 50
356.4180799999999
 51
83.62313299999986
  0
LINE
  5
DF5
330
12A5
100
AcDbEntity
  8
5
  6
PHANTOM
100
AcDbLine
 10
336.6753248220054
 20
269.8458226605284
 30
0.0
 11
359.1824948220053
 21
243.0423366605283
 31
0.0
  0
ARC
  5
DF6
330
12A5
100
AcDbEntity
  8
5
  6
PHANTOM
100
AcDbCircle
 10
347.6181348220054
 20
253.2375536605282
 30
0.0
 40
5.0
100
AcDbArc
 50
220.02055
 51
310.0205699999999
  0
LINE
  5
DF7
330
12A5
100
AcDbEntity
  8
1
  6
Continuous
100
AcDbLine
 10
284.8942548220052
 20
221.9124376605285
 30
0.0
 11
284.8942548220052
 21
245.7003376605283
 31
0.0
  0
LINE
  5
DF8
330
12A5
100
AcDbEntity
  8
1
  6
Continuous
100
AcDbLine
 10
280.6176048220054
 20
218.9124416605285
 30
0.0
 11
282.0372348220054
 21
217.4931456605283
 31
0.0
  0
ARC
  5
DF9
330
12A5
100
AcDbEntity
  8
1
  6
Continuous
100
AcDbCircle
 10
282.7442648220056
 20
218.2003406605285
 30
0.0
 40
1.0
100
AcDbArc
 50
225.0070099999998
 51
270.0000500000001
  0
ARC
  5
DFA
330
12A5
100
AcDbEntity
  8
1
  6
Continuous
100
AcDbCircle
 10
281.8942548220054
 20
221.9124376605285
 30
0.0
 40
3.0
100
AcDbArc
 50
270.0
 51
0.0000180000000203
  0
LINE
  5
DFB
330
12A5
100
AcDbEntity
  8
1
  6
Continuous
100
AcDbLine
 10
301.1516848220054
 20
210.9003456605285
 30
0.0
 11
300.2942548220052
 21
207.7003486605285
 31
0.0
  0
LINE
  5
DFC
330
12A5
100
AcDbEntity
  8
1
  6
Continuous
100
AcDbLine
 10
301.9942648220052
 20
213.7003406605283
 30
0.0
 11
301.9942648220052
 21
210.9003526605283
 31
0.0
  0
ARC
  5
DFD
330
12A5
100
AcDbEntity
  8
1
  6
Continuous
100
AcDbCircle
 10
298.4942648220055
 20
213.7003406605283
 30
0.0
 40
3.5
100
AcDbArc
 50
0.0000369999998155
 51
90.00001599999967
  0
LINE
  5
DFE
330
12A5
100
AcDbEntity
  8
4
  6
CENTER
100
AcDbLine
 10
305.3350068220054
 20
272.9535126605283
 30
0.0
 11
316.4154738220054
 21
267.0670226605285
 31
0.0
  0
ARC
  5
DFF
330
12A5
100
AcDbEntity
  8
1
  6
Continuous
100
AcDbCircle
 10
308.2928748220052
 20
280.1301466605283
 30
0.0
 40
10.0
100
AcDbArc
 50
236.2425300000001
 51
300.4061899999996
  0
LINE
  5
E00
330
12A5
100
AcDbEntity
  8
5
  6
PHANTOM
100
AcDbLine
 10
310.8241948220056
 20
283.7688686605283
 30
0.0
 11
335.9930148220052
 21
270.3979506605283
 31
0.0
  0
LINE
  5
E01
330
12A5
100
AcDbEntity
  8
4
  6
CENTER
100
AcDbLine
 10
313.8184848220054
 20
275.5505016605284
 30
0.0
 11
307.9319948220052
 21
264.4700346605284
 31
0.0
  0
CIRCLE
  5
E02
330
12A5
100
AcDbEntity
  8
5
  6
PHANTOM
100
AcDbCircle
 10
310.7938248220054
 20
269.8570376605285
 30
0.0
 40
3.5
  0
LINE
  5
E03
330
12A5
100
AcDbEntity
  8
5
  6
PHANTOM
100
AcDbLine
 10
310.8241948220056
 20
283.7688686605283
 30
0.0
 11
301.0992148220054
 21
265.4630046605285
 31
0.0
  0
LINE
  5
E04
330
12A5
100
AcDbEntity
  8
1
  6
Continuous
100
AcDbLine
 10
293.3942548220052
 20
278.8447616605283
 30
0.0
 11
293.3942548220052
 21
257.5003406605283
 31
0.0
  0
ARC
  5
E05
330
12A5
100
AcDbEntity
  8
1
  6
Continuous
100
AcDbCircle
 10
291.3942548220052
 20
257.5003406605283
 30
0.0
 40
2.0
100
AcDbArc
 50
270.0
 51
0.0000030000001391
  0
ARC
  5
E06
330
12A5
100
AcDbEntity
  8
1
  6
Continuous
100
AcDbCircle
 10
287.5942748220056
 20
248.7003376605283
 30
0.0
 40
3.0
100
AcDbArc
 50
270.0
 51
0.0000030000001391
  0
LINE
  5
E07
330
12A5
100
AcDbEntity
  8
1
  6
Continuous
100
AcDbLine
 10
290.5942748220054
 20
255.5003406605283
 30
0.0
 11
290.5942748220054
 21
248.7003376605283
 31
0.0
  0
ARC
  5
E08
330
12A5
100
AcDbEntity
  8
5
  6
PHANTOM
100
AcDbCircle
 10
301.9823348220053
 20
264.9938406605283
 30
0.0
 40
1.0
100
AcDbArc
 50
152.0205400000001
 51
248.6653000000002
  0
LINE
  5
E09
330
12A5
100
AcDbEntity
  8
5
  6
PHANTOM
100
AcDbLine
 10
296.2005948220054
 20
284.7794286605284
 30
0.0
 11
284.0365648220054
 21
284.0089736605284
 31
0.0
  0
LINE
  5
E0A
330
12A5
100
AcDbEntity
  8
1
  6
Continuous
100
AcDbLine
 10
294.1520748220053
 20
277.5534416605284
 30
0.0
 11
302.7361048220054
 21
271.8161656605285
 31
0.0
  0
LINE
  5
E0B
330
12A5
100
AcDbEntity
  8
5
  6
PHANTOM
100
AcDbLine
 10
279.0093548220056
 20
272.8930996605283
 30
0.0
 11
282.2659348220054
 21
282.6463826605283
 31
0.0
  0
LINE
  5
E0C
330
12A5
100
AcDbEntity
  8
1
  6
Continuous
100
AcDbLine
 10
294.1520548220056
 20
277.5534456605284
 30
0.0
 11
287.9831748220054
 21
288.0654546605283
 31
0.0
  0
ARC
  5
E0D
330
12A5
100
AcDbEntity
  8
1
  6
Continuous
100
AcDbCircle
 10
286.2582548220054
 20
287.0532046605283
 30
0.0
 40
2.0
100
AcDbArc
 50
30.40619200000005
 51
98.31802500000035
  0
ARC
  5
E0E
330
12A5
100
AcDbEntity
  8
5
  6
PHANTOM
100
AcDbCircle
 10
284.1629848220054
 20
282.0129746605283
 30
0.0
 40
2.0
100
AcDbArc
 50
93.62419699999991
 51
161.5360399999999
  0
LINE
  5
E0F
330
12A5
100
AcDbEntity
  8
5
  6
PHANTOM
100
AcDbLine
 10
299.9901748220056
 20
286.9200166605282
 30
0.0
 11
305.1903548220054
 21
289.8574166605283
 31
0.0
  0
LINE
  5
E10
330
12A5
100
AcDbEntity
  8
5
  6
PHANTOM
100
AcDbLine
 10
295.3874948220054
 20
289.3651806605283
 30
0.0
 11
309.7451348220054
 21
281.7376996605284
 31
0.0
  0
LINE
  5
E11
330
12A5
100
AcDbEntity
  8
5
  6
PHANTOM
100
AcDbLine
 10
296.2006048220055
 20
284.7794306605283
 30
0.0
 11
299.9901748220056
 21
286.9200166605282
 31
0.0
  0
LINE
  5
E12
330
12A5
100
AcDbEntity
  8
1
  6
Continuous
100
AcDbLine
 10
329.1036448220054
 20
275.0906176605284
 30
0.0
 11
331.3617548220053
 21
266.8960426605283
 31
0.0
  0
LINE
  5
E13
330
12A5
100
AcDbEntity
  8
1
  6
Continuous
100
AcDbLine
 10
326.2114248220054
 20
274.2936326605284
 30
0.0
 11
328.4695448220056
 21
266.0990586605284
 31
0.0
  0
LINE
  5
E14
330
12A5
100
AcDbEntity
  8
4
  6
CENTER
100
AcDbLine
 10
327.0588048220054
 20
268.5010856605283
 30
0.0
 11
321.1833348220054
 21
257.4413366605283
 31
0.0
  0
LINE
  5
E15
330
12A5
100
AcDbEntity
  8
4
  6
CENTER
100
AcDbLine
 10
318.5911958220054
 20
265.9089456605284
 30
0.0
 11
329.6509448220052
 21
260.0334756605284
 31
0.0
  0
ARC
  5
E16
330
12A5
100
AcDbEntity
  8
5
  6
PHANTOM
100
AcDbCircle
 10
324.0405748220052
 20
262.8197146605283
 30
0.0
 40
7.0
100
AcDbArc
 50
248.66527
 51
332.0205599999998
  0
CIRCLE
  5
E17
330
12A5
100
AcDbEntity
  8
5
  6
PHANTOM
100
AcDbCircle
 10
324.0405948220054
 20
262.8197076605284
 30
0.0
 40
2.6
  0
LINE
  5
E18
330
12A5
100
AcDbEntity
  8
5
  6
PHANTOM
100
AcDbLine
 10
334.2907148220056
 20
261.3336956605283
 30
0.0
 11
343.7890648220057
 21
250.0222256605284
 31
0.0
  0
ARC
  5
E19
330
12A5
100
AcDbEntity
  8
5
  6
PHANTOM
100
AcDbCircle
 10
332.7590648220054
 20
260.0475666605283
 30
0.0
 40
2.0
100
AcDbArc
 50
40.0204689999997
 51
152.0205299999998
  0
LINE
  5
E1A
330
12A5
100
AcDbEntity
  8
5
  6
PHANTOM
100
AcDbLine
 10
330.9928648220055
 20
260.9858796605285
 30
0.0
 11
330.2224148220054
 21
259.5356206605283
 31
0.0
  0
LINE
  5
E1B
330
12A5
100
AcDbEntity
  8
1
  6
Continuous
100
AcDbLine
 10
331.3617548220054
 20
266.8960426605283
 30
0.0
 11
328.4695448220056
 21
266.0990586605284
 31
0.0
  0
LINE
  5
E1C
330
12A5
100
AcDbEntity
  8
5
  6
PHANTOM
100
AcDbLine
 10
344.4534648220056
 20
261.3604896605285
 30
0.0
 11
344.0705248220056
 21
261.0389626605285
 31
0.0
  0
LINE
  5
E1D
330
12A5
100
AcDbEntity
  8
5
  6
PHANTOM
100
AcDbLine
 10
341.2381348220052
 20
265.1895536605283
 30
0.0
 11
340.8552248220053
 21
264.8680236605283
 31
0.0
  0
LINE
  5
E1E
330
12A5
100
AcDbEntity
  8
1
  6
Continuous
100
AcDbLine
 10
313.3541248220054
 20
271.5055596605283
 30
0.0
 11
326.7222648220052
 21
279.3505346605283
 31
0.0
  0
LINE
  5
E1F
330
12A5
100
AcDbEntity
  8
1
  6
Continuous
100
AcDbLine
 10
324.1348748220056
 20
277.8321546605284
 30
0.0
 11
326.2114248220056
 21
274.2936326605284
 31
0.0
  0
ARC
  5
E20
330
12A5
100
AcDbEntity
  8
5
  6
PHANTOM
100
AcDbCircle
 10
334.9139448220053
 20
268.3667806605285
 30
0.0
 40
2.299999999999998
100
AcDbArc
 50
40.02055099999985
 51
62.020529
  0
ARC
  5
E21
330
12A5
100
AcDbEntity
  8
1
  6
Continuous
100
AcDbCircle
 10
326.2114248220054
 20
274.2936296605283
 30
0.0
 40
3.0
100
AcDbArc
 50
15.40619300000017
 51
30.40618899999977
  0
LINE
  5
E22
330
12A5
100
AcDbEntity
  8
5
  6
PHANTOM
100
AcDbLine
 10
350.9429648220053
 20
249.2780376605283
 30
0.0
 11
357.4211148220054
 21
241.5632946605283
 31
0.0
  0
LINE
  5
E23
330
12A5
100
AcDbEntity
  8
5
  6
PHANTOM
100
AcDbLine
 10
359.1825548220056
 20
243.0422676605284
 30
0.0
 11
357.4212048220057
 21
241.5632336605286
 31
0.0
  0
ARC
  5
E24
330
12A5
100
AcDbEntity
  8
5
  6
PHANTOM
100
AcDbCircle
 10
346.6230448220052
 20
254.6946766605285
 30
0.0
 40
3.625007
100
AcDbArc
 50
356.4178499999999
 51
83.62333799999985
  0
ARC
  5
E25
330
12A5
100
AcDbEntity
  8
5
  6
PHANTOM
100
AcDbCircle
 10
352.4106148220053
 20
247.8023426605285
 30
0.0
 40
3.625011999999999
100
AcDbArc
 50
356.4180799999999
 51
83.62333799999985
  0
ARC
  5
E26
330
12A5
100
AcDbEntity
  8
5
  6
PHANTOM
100
AcDbCircle
 10
352.3124748220054
 20
247.6471146605285
 30
0.0
 40
2.299999999999998
100
AcDbArc
 50
40.02055099999985
 51
130.0205899999999
  0
LINE
  5
E27
330
12A5
100
AcDbEntity
  8
5
  6
PHANTOM
100
AcDbLine
 10
350.2410648220052
 20
254.4680776605285
 30
0.0
 11
349.8581548220053
 21
254.1465466605283
 31
0.0
  0
LINE
  5
E28
330
12A5
100
AcDbEntity
  8
5
  6
PHANTOM
100
AcDbLine
 10
352.8132948220052
 20
251.4048916605281
 30
0.0
 11
352.4303948220053
 21
251.0833596605282
 31
0.0
  0
LINE
  5
E29
330
12A5
100
AcDbEntity
  8
5
  6
PHANTOM
100
AcDbLine
 10
356.0286248220056
 20
247.5757876605283
 30
0.0
 11
355.6457248220056
 21
247.2542566605283
 31
0.0
  0
LINE
  5
E2A
330
12A5
100
AcDbEntity
  8
5
  6
PHANTOM
100
AcDbLine
 10
347.0256648220053
 20
258.2972406605283
 30
0.0
 11
346.6427648220054
 21
257.9757096605283
 31
0.0
  0
LINE
  5
E2B
330
12A5
100
AcDbEntity
  8
1
  6
Continuous
100
AcDbLine
 10
108.9942648220054
 20
377.7003376605284
 30
0.0
 11
8.994264822005488
 21
377.7003376605285
 31
0.0
  0
LINE
  5
E2C
330
12A5
100
AcDbEntity
  8
1
  6
Continuous
100
AcDbLine
 10
108.4942648220055
 20
369.7003376605284
 30
0.0
 11
9.494264822005488
 21
369.7003376605284
 31
0.0
  0
ARC
  5
E2D
330
12A5
100
AcDbEntity
  8
1
  6
Continuous
100
AcDbCircle
 10
14.38699582200553
 20
362.7003376605285
 30
0.0
 40
7.0
100
AcDbArc
 50
30.00000399999981
 51
90.00000300000015
  0
LINE
  5
E2E
330
12A5
100
AcDbEntity
  8
1
  6
Continuous
100
AcDbLine
 10
8.994264822005488
 20
370.2003376605284
 30
0.0
 11
8.994264822005488
 21
377.7003376605285
 31
0.0
  0
ARC
  5
E2F
330
12A5
100
AcDbEntity
  8
1
  6
Continuous
100
AcDbCircle
 10
9.494264822005488
 20
370.2003376605284
 30
0.0
 40
0.5
100
AcDbArc
 50
179.9999899999995
 51
270.0
  0
LINE
  5
E30
330
12A5
100
AcDbEntity
  8
4
  6
CENTER
100
AcDbLine
 10
18.99426482200549
 20
365.3965966605284
 30
0.0
 11
18.99426482200549
 21
381.7033876605283
 31
0.0
  0
LINE
  5
E31
330
12A5
100
AcDbEntity
  8
4
  6
CENTER
100
AcDbLine
 10
98.99426482200547
 20
364.9256866605284
 30
0.0
 11
98.99426482200547
 21
381.9902276605284
 31
0.0
  0
LINE
  5
E32
330
12A5
100
AcDbEntity
  8
1
  6
Continuous
100
AcDbLine
 10
80.89425882200556
 20
308.0307366605283
 30
0.0
 11
83.3942738220055
 21
308.0307366605283
 31
0.0
  0
LINE
  5
E33
330
12A5
100
AcDbEntity
  8
4
  6
CENTER
100
AcDbLine
 10
80.54825082200547
 20
309.8359726605284
 30
0.0
 11
94.53071782200549
 21
309.8359726605284
 31
0.0
  0
LINE
  5
E34
330
12A5
100
AcDbEntity
  8
4
  6
CENTER
100
AcDbLine
 10
94.36458082200548
 20
331.7003376605285
 30
0.0
 11
58.99426482200549
 21
331.7003376605285
 31
0.0
  0
LINE
  5
E35
330
12A5
100
AcDbEntity
  8
1
  6
Continuous
100
AcDbLine
 10
80.89425882200556
 20
299.3307696605283
 30
0.0
 11
83.69426182200554
 21
299.3307696605283
 31
0.0
  0
LINE
  5
E36
330
12A5
100
AcDbEntity
  8
1
  6
Continuous
100
AcDbLine
 10
80.89425882200556
 20
293.1743676605283
 30
0.0
 11
83.3942738220055
 21
293.1743676605283
 31
0.0
  0
LINE
  5
E37
330
12A5
100
AcDbEntity
  8
4
  6
CENTER
100
AcDbLine
 10
26.30722282200553
 20
295.3003356605283
 30
0.0
 11
94.23550582200546
 21
295.3003356605283
 31
0.0
  0
LINE
  5
E38
330
12A5
100
AcDbEntity
  8
1
  6
Continuous
100
AcDbLine
 10
61.99426482200552
 20
363.7003376605284
 30
0.0
 11
61.99426482200552
 21
327.7003376605286
 31
0.0
  0
LINE
  5
E39
330
12A5
100
AcDbEntity
  8
1
  6
Continuous
100
AcDbLine
 10
55.99426482200549
 20
363.7003376605284
 30
0.0
 11
55.99426482200549
 21
327.7003376605286
 31
0.0
  0
LINE
  5
E3A
330
12A5
100
AcDbEntity
  8
1
  6
Continuous
100
AcDbLine
 10
48.38953582200554
 20
340.2119226605285
 30
0.0
 11
56.38953782200553
 21
326.2119186605283
 31
0.0
  0
LINE
  5
E3B
330
12A5
100
AcDbEntity
  8
1
  6
Continuous
100
AcDbLine
 10
69.71579882200552
 20
340.1942186605284
 30
0.0
 11
61.58880182200551
 21
326.1942186605284
 31
0.0
  0
LINE
  5
E3C
330
12A5
100
AcDbEntity
  8
1
  6
Continuous
100
AcDbLine
 10
34.59427082200548
 20
339.8246896605284
 30
0.0
 11
34.59427082200548
 21
308.0307366605283
 31
0.0
  0
LINE
  5
E3D
330
12A5
100
AcDbEntity
  8
1
  6
Continuous
100
AcDbLine
 10
31.59427082200551
 20
340.4395036605285
 30
0.0
 11
31.59427082200551
 21
318.7003376605285
 31
0.0
  0
LINE
  5
E3E
330
12A5
100
AcDbEntity
  8
1
  6
Continuous
100
AcDbLine
 10
29.39425882200549
 20
342.1784646605285
 30
0.0
 11
29.39425882200549
 21
333.2909976605287
 31
0.0
  0
ARC
  5
E3F
330
12A5
100
AcDbEntity
  8
1
  6
Continuous
100
AcDbCircle
 10
32.09427082200548
 20
335.2638446605285
 30
0.0
 40
2.0
100
AcDbArc
 50
104.4775099999994
 51
180.0000100000002
  0
LINE
  5
E40
330
12A5
100
AcDbEntity
  8
4
  6
CENTER
100
AcDbLine
 10
26.68112382200553
 20
331.7003376605285
 30
0.0
 11
58.99426482200549
 21
331.7003376605285
 31
0.0
  0
LINE
  5
E41
330
12A5
100
AcDbEntity
  8
1
  6
Continuous
100
AcDbLine
 10
28.1942618220055
 20
312.8359616605283
 30
0.0
 11
27.59426482200552
 21
313.8359536605284
 31
0.0
  0
ARC
  5
E42
330
12A5
100
AcDbEntity
  8
1
  6
Continuous
100
AcDbCircle
 10
28.39425882200549
 20
312.0029346605284
 30
0.0
 40
2.0
100
AcDbArc
 50
113.5781799999999
 51
180.0000100000002
  0
LINE
  5
E43
330
12A5
100
AcDbEntity
  8
1
  6
Continuous
100
AcDbLine
 10
27.59427082200551
 20
313.8359656605283
 30
0.0
 11
27.59427082200551
 21
305.8359656605283
 31
0.0
  0
LINE
  5
E44
330
12A5
100
AcDbEntity
  8
1
  6
Continuous
100
AcDbLine
 10
28.1942618220055
 20
333.2909976605287
 30
0.0
 11
28.1942618220055
 21
297.5027816605284
 31
0.0
  0
LINE
  5
E45
330
12A5
100
AcDbEntity
  8
1
  6
Continuous
100
AcDbLine
 10
31.19426182200555
 20
314.7161996605285
 30
0.0
 11
31.19426182200555
 21
300.8021596605284
 31
0.0
  0
LINE
  5
E46
330
12A5
100
AcDbEntity
  8
4
  6
CENTER
100
AcDbLine
 10
37.44027882200555
 20
309.8359726605284
 30
0.0
 11
23.45781182200551
 21
309.8359726605284
 31
0.0
  0
ARC
  5
E47
330
12A5
100
AcDbEntity
  8
1
  6
Continuous
100
AcDbCircle
 10
31.79426782200549
 20
298.8942766605283
 30
0.0
 40
2.0
100
AcDbArc
 50
104.4775099999994
 51
180.0000100000002
  0
LINE
  5
E48
330
12A5
100
AcDbEntity
  8
1
  6
Continuous
100
AcDbLine
 10
28.1942618220055
 20
297.5027816605284
 30
0.0
 11
29.79426782200549
 21
297.5027816605284
 31
0.0
  0
LINE
  5
E49
330
12A5
100
AcDbEntity
  8
1
  6
Continuous
100
AcDbLine
 10
29.79426782200549
 20
298.8942766605283
 30
0.0
 11
29.79426782200549
 21
291.7672626605284
 31
0.0
  0
LINE
  5
E4A
330
12A5
100
AcDbEntity
  8
1
  6
Continuous
100
AcDbLine
 10
27.59426682200552
 20
305.8359596605283
 30
0.0
 11
28.19426982200553
 21
306.8359676605283
 31
0.0
  0
ARC
  5
E4B
330
12A5
100
AcDbEntity
  8
1
  6
Continuous
100
AcDbCircle
 10
28.39425882200549
 20
307.6689956605284
 30
0.0
 40
2.0
100
AcDbArc
 50
179.9999899999995
 51
246.4218299999997
  0
LINE
  5
E4C
330
12A5
100
AcDbEntity
  8
1
  6
Continuous
100
AcDbLine
 10
26.3942588220055
 20
312.0029346605284
 30
0.0
 11
26.3942588220055
 21
307.6689956605284
 31
0.0
  0
LINE
  5
E4D
330
12A5
100
AcDbEntity
  8
1
  6
Continuous
100
AcDbLine
 10
37.09427082200548
 20
308.0307366605283
 30
0.0
 11
37.09427082200548
 21
293.1743676605283
 31
0.0
  0
LINE
  5
E4E
330
12A5
100
AcDbEntity
  8
1
  6
Continuous
100
AcDbLine
 10
34.59427082200548
 20
291.3307696605283
 30
0.0
 11
34.29426782200549
 21
291.3307696605283
 31
0.0
  0
LINE
  5
E4F
330
12A5
100
AcDbEntity
  8
1
  6
Continuous
100
AcDbLine
 10
37.09427082200548
 20
299.3307696605283
 30
0.0
 11
34.29426782200549
 21
299.3307696605283
 31
0.0
  0
LINE
  5
E50
330
12A5
100
AcDbEntity
  8
1
  6
Continuous
100
AcDbLine
 10
37.09427082200548
 20
293.1743676605283
 30
0.0
 11
34.59425582200555
 21
293.1743676605283
 31
0.0
  0
LINE
  5
E51
330
12A5
100
AcDbEntity
  8
1
  6
Continuous
100
AcDbLine
 10
37.09427082200548
 20
308.0307366605283
 30
0.0
 11
34.59425582200555
 21
308.0307366605283
 31
0.0
  0
LINE
  5
E52
330
12A5
100
AcDbEntity
  8
1
  6
Continuous
100
AcDbLine
 10
33.42269682200555
 20
316.9446346605285
 30
0.0
 11
31.19425782200548
 21
314.7161956605283
 31
0.0
  0
ARC
  5
E53
330
12A5
100
AcDbEntity
  8
1
  6
Continuous
100
AcDbCircle
 10
32.19426182200555
 20
313.6434756605285
 30
0.0
 40
4.0
100
AcDbArc
 50
135.0000000000002
 51
180.0000100000002
  0
LINE
  5
E54
330
12A5
100
AcDbEntity
  8
1
  6
Continuous
100
AcDbLine
 10
31.59426482200553
 20
318.7003456605284
 30
0.0
 11
29.36582582200554
 21
316.4719056605284
 31
0.0
  0
LINE
  5
E55
330
12A5
100
AcDbEntity
  8
1
  6
Continuous
100
AcDbLine
 10
30.09427082200548
 20
335.2638446605285
 30
0.0
 11
30.09427082200548
 21
328.1368306605283
 31
0.0
  0
LINE
  5
E56
330
12A5
100
AcDbEntity
  8
1
  6
Continuous
100
AcDbLine
 10
30.09427082200548
 20
333.2909976605287
 30
0.0
 11
28.1942618220055
 21
333.2909976605287
 31
0.0
  0
ARC
  5
E57
330
12A5
100
AcDbEntity
  8
1
  6
Continuous
100
AcDbCircle
 10
32.09427082200548
 20
328.1368306605283
 30
0.0
 40
2.0
100
AcDbArc
 50
179.9999899999995
 51
255.5224899999996
  0
ARC
  5
E58
330
12A5
100
AcDbEntity
  8
1
  6
Continuous
100
AcDbCircle
 10
30.59427082200551
 20
319.7730606605283
 30
0.0
 40
4.0
100
AcDbArc
 50
315.0000000000003
 51
0.0000050000000961
  0
LINE
  5
E59
330
12A5
100
AcDbEntity
  8
1
  6
Continuous
100
AcDbLine
 10
80.89425882200556
 20
308.0307366605283
 30
0.0
 11
80.89425882200556
 21
293.1743676605283
 31
0.0
  0
ARC
  5
E5A
330
12A5
100
AcDbEntity
  8
1
  6
Continuous
100
AcDbCircle
 10
58.99426482200549
 20
327.7003376605286
 30
0.0
 40
3.0
100
AcDbArc
 50
179.9999899999995
 51
0.0000099999997851
  0
LINE
  5
E5B
330
12A5
100
AcDbEntity
  8
1
  6
Continuous
100
AcDbLine
 10
56.17488782200553
 20
364.7255676605285
 30
0.0
 11
48.17488682200553
 21
342.7255676605285
 31
0.0
  0
LINE
  5
E5C
330
12A5
100
AcDbEntity
  8
1
  6
Continuous
100
AcDbLine
 10
20.44917482200554
 20
366.2003376605284
 30
0.0
 11
33.65643882200555
 21
343.3246896605283
 31
0.0
  0
LINE
  5
E5D
330
12A5
100
AcDbEntity
  8
1
  6
Continuous
100
AcDbLine
 10
31.59427082200551
 20
340.4395036605285
 30
0.0
 11
34.59427082200548
 21
340.4395036605285
 31
0.0
  0
ARC
  5
E5E
330
12A5
100
AcDbEntity
  8
1
  6
Continuous
100
AcDbCircle
 10
33.39425882200555
 20
342.1784646605285
 30
0.0
 40
4.0
100
AcDbArc
 50
108.4606699999996
 51
180.0000100000002
  0
LINE
  5
E5F
330
12A5
100
AcDbEntity
  8
1
  6
Continuous
100
AcDbLine
 10
36.06778182200553
 20
341.7003376605285
 30
0.0
 11
47.99426482200547
 21
341.7003376605285
 31
0.0
  0
ARC
  5
E60
330
12A5
100
AcDbEntity
  8
1
  6
Continuous
100
AcDbCircle
 10
27.59427082200551
 20
339.8246896605284
 30
0.0
 40
7.0
100
AcDbArc
 50
0.0000030000001391
 51
30.00000399999981
  0
ARC
  5
E61
330
12A5
100
AcDbEntity
  8
1
  6
Continuous
100
AcDbCircle
 10
50.99426482200549
 20
341.7003376605285
 30
0.0
 40
3.0
100
AcDbArc
 50
160.0168899999999
 51
209.7448800000003
  0
LINE
  5
E62
330
12A5
100
AcDbEntity
  8
1
  6
Continuous
100
AcDbLine
 10
61.80839582200554
 20
364.7399036605284
 30
0.0
 11
69.93539482200553
 21
342.7399036605285
 31
0.0
  0
LINE
  5
E63
330
12A5
100
AcDbEntity
  8
1
  6
Continuous
100
AcDbLine
 10
70.12126382200553
 20
341.7003376605285
 30
0.0
 11
81.29789982200554
 21
341.7003376605285
 31
0.0
  0
ARC
  5
E64
330
12A5
100
AcDbEntity
  8
1
  6
Continuous
100
AcDbCircle
 10
67.12126382200551
 20
341.7003376605285
 30
0.0
 40
3.0
100
AcDbArc
 50
329.8648400000002
 51
20.27468699999992
  0
ARC
  5
E65
330
12A5
100
AcDbEntity
  8
1
  6
Continuous
100
AcDbCircle
 10
58.99426482200549
 20
363.7003376605284
 30
0.0
 40
3.0
100
AcDbArc
 50
0.0000030000001391
 51
180.0000100000002
  0
LINE
  5
E66
330
12A5
100
AcDbEntity
  8
1
  6
Continuous
100
AcDbLine
 10
83.39425882200556
 20
339.8246896605284
 30
0.0
 11
83.39425882200556
 21
308.0307366605283
 31
0.0
  0
LINE
  5
E67
330
12A5
100
AcDbEntity
  8
1
  6
Continuous
100
AcDbLine
 10
86.39425882200553
 20
340.4395036605285
 30
0.0
 11
86.39425882200553
 21
318.7003376605285
 31
0.0
  0
LINE
  5
E68
330
12A5
100
AcDbEntity
  8
1
  6
Continuous
100
AcDbLine
 10
89.59425582200548
 20
335.7003376605285
 30
0.0
 11
89.59425582200548
 21
327.7003376605286
 31
0.0
  0
LINE
  5
E69
330
12A5
100
AcDbEntity
  8
1
  6
Continuous
100
AcDbLine
 10
89.79426782200537
 20
312.8359766605285
 30
0.0
 11
90.39426682200547
 21
313.8359696605284
 31
0.0
  0
ARC
  5
E6A
330
12A5
100
AcDbEntity
  8
1
  6
Continuous
100
AcDbCircle
 10
89.59427082200546
 20
312.0029346605284
 30
0.0
 40
2.0
100
AcDbArc
 50
0.0
 51
66.42182099999981
  0
LINE
  5
E6B
330
12A5
100
AcDbEntity
  8
1
  6
Continuous
100
AcDbLine
 10
86.79426782200549
 20
314.7161996605285
 30
0.0
 11
86.79426782200549
 21
301.3307696605283
 31
0.0
  0
LINE
  5
E6C
330
12A5
100
AcDbEntity
  8
1
  6
Continuous
100
AcDbLine
 10
90.39425882200548
 20
313.8359656605283
 30
0.0
 11
90.39425882200548
 21
305.8359656605283
 31
0.0
  0
LINE
  5
E6D
330
12A5
100
AcDbEntity
  8
1
  6
Continuous
100
AcDbLine
 10
89.79426782200537
 20
333.2909976605287
 30
0.0
 11
89.79426782200537
 21
299.9552666605283
 31
0.0
  0
ARC
  5
E6E
330
12A5
100
AcDbEntity
  8
1
  6
Continuous
100
AcDbCircle
 10
87.89425882200553
 20
299.3307696605283
 30
0.0
 40
2.0
100
AcDbArc
 50
0.0
 51
90.00000300000015
  0
LINE
  5
E6F
330
12A5
100
AcDbEntity
  8
1
  6
Continuous
100
AcDbLine
 10
86.69426182200558
 20
301.3307696605283
 30
0.0
 11
87.89425882200553
 21
301.3307696605283
 31
0.0
  0
LINE
  5
E70
330
12A5
100
AcDbEntity
  8
1
  6
Continuous
100
AcDbLine
 10
83.39425882200556
 20
291.3307696605283
 30
0.0
 11
83.69426182200554
 21
291.3307696605283
 31
0.0
  0
LINE
  5
E71
330
12A5
100
AcDbEntity
  8
1
  6
Continuous
100
AcDbLine
 10
89.89425882200537
 20
299.3307696605283
 30
0.0
 11
89.89425882200537
 21
291.3307696605283
 31
0.0
  0
LINE
  5
E72
330
12A5
100
AcDbEntity
  8
1
  6
Continuous
100
AcDbLine
 10
90.39426082200556
 20
305.8359656605283
 30
0.0
 11
89.79425882200549
 21
306.8359706605284
 31
0.0
  0
ARC
  5
E73
330
12A5
100
AcDbEntity
  8
1
  6
Continuous
100
AcDbCircle
 10
89.59427082200546
 20
307.6689956605284
 30
0.0
 40
2.0
100
AcDbArc
 50
293.5781800000002
 51
0.0
  0
LINE
  5
E74
330
12A5
100
AcDbEntity
  8
1
  6
Continuous
100
AcDbLine
 10
91.59427082200549
 20
312.0029346605284
 30
0.0
 11
91.59427082200549
 21
307.6689956605284
 31
0.0
  0
ARC
  5
E75
330
12A5
100
AcDbEntity
  8
1
  6
Continuous
100
AcDbCircle
 10
85.79426782200552
 20
313.6434756605285
 30
0.0
 40
4.0
100
AcDbArc
 50
0.0
 51
45.00000100000006
  0
LINE
  5
E76
330
12A5
100
AcDbEntity
  8
1
  6
Continuous
100
AcDbLine
 10
84.56582282200555
 20
316.9446346605285
 30
0.0
 11
86.79425682200553
 21
314.7161996605285
 31
0.0
  0
ARC
  5
E77
330
12A5
100
AcDbEntity
  8
1
  6
Continuous
100
AcDbCircle
 10
87.39425882200555
 20
319.7730606605283
 30
0.0
 40
4.0
100
AcDbArc
 50
179.9999899999995
 51
224.9999999999996
  0
LINE
  5
E78
330
12A5
100
AcDbEntity
  8
1
  6
Continuous
100
AcDbLine
 10
86.39424682200553
 20
318.7003376605285
 30
0.0
 11
88.62268282200551
 21
316.4719056605284
 31
0.0
  0
LINE
  5
E79
330
12A5
100
AcDbEntity
  8
1
  6
Continuous
100
AcDbLine
 10
89.59425582200548
 20
333.2909976605287
 30
0.0
 11
89.79426782200537
 21
333.2909976605287
 31
0.0
  0
ARC
  5
E7A
330
12A5
100
AcDbEntity
  8
1
  6
Continuous
100
AcDbCircle
 10
87.59425582200554
 20
327.7003376605286
 30
0.0
 40
2.0
100
AcDbArc
 50
270.0
 51
0.0
  0
LINE
  5
E7B
330
12A5
100
AcDbEntity
  8
1
  6
Continuous
100
AcDbLine
 10
86.39425882200553
 20
325.7003376605283
 30
0.0
 11
87.59425582200554
 21
325.7003376605283
 31
0.0
  0
LINE
  5
E7C
330
12A5
100
AcDbEntity
  8
1
  6
Continuous
100
AcDbLine
 10
97.53934682200549
 20
366.2003376605285
 30
0.0
 11
84.33208682200556
 21
343.3246896605283
 31
0.0
  0
ARC
  5
E7D
330
12A5
100
AcDbEntity
  8
1
  6
Continuous
100
AcDbCircle
 10
87.59425582200554
 20
335.7003376605285
 30
0.0
 40
2.0
100
AcDbArc
 50
0.0
 51
90.00000300000015
  0
LINE
  5
E7E
330
12A5
100
AcDbEntity
  8
1
  6
Continuous
100
AcDbLine
 10
88.59427082200554
 20
342.1784646605285
 30
0.0
 11
88.59427082200554
 21
337.4323816605285
 31
0.0
  0
LINE
  5
E7F
330
12A5
100
AcDbEntity
  8
1
  6
Continuous
100
AcDbLine
 10
86.39425882200553
 20
337.7003376605285
 30
0.0
 11
87.59425582200554
 21
337.7003376605285
 31
0.0
  0
ARC
  5
E80
330
12A5
100
AcDbEntity
  8
1
  6
Continuous
100
AcDbCircle
 10
90.39425882200548
 20
339.8246896605284
 30
0.0
 40
7.0
100
AcDbArc
 50
149.9999999999997
 51
179.9999899999995
  0
LINE
  5
E81
330
12A5
100
AcDbEntity
  8
1
  6
Continuous
100
AcDbLine
 10
83.39425882200556
 20
340.4395036605285
 30
0.0
 11
86.39425882200553
 21
340.4395036605285
 31
0.0
  0
ARC
  5
E82
330
12A5
100
AcDbEntity
  8
1
  6
Continuous
100
AcDbCircle
 10
84.5942708220055
 20
342.1784646605285
 30
0.0
 40
4.0
100
AcDbArc
 50
0.0
 51
71.53935400000037
  0
ARC
  5
E83
330
12A5
100
AcDbEntity
  8
1
  6
Continuous
100
AcDbCircle
 10
103.6015338220052
 20
362.7003376605285
 30
0.0
 40
7.0
100
AcDbArc
 50
89.99999600000005
 51
149.9999999999997
  0
LINE
  5
E84
330
12A5
100
AcDbEntity
  8
1
  6
Continuous
100
AcDbLine
 10
108.9942648220054
 20
370.2003376605284
 30
0.0
 11
108.9942648220054
 21
377.7003376605285
 31
0.0
  0
ARC
  5
E85
330
12A5
100
AcDbEntity
  8
1
  6
Continuous
100
AcDbCircle
 10
108.4942648220055
 20
370.2003376605284
 30
0.0
 40
0.5
100
AcDbArc
 50
270.0
 51
0.0000030000001391
  0
ARC
  5
E86
330
12A5
100
AcDbEntity
  8
1
  6
Continuous
100
AcDbCircle
 10
387.1854128220056
 20
466.5002225850225
 30
0.0
 40
7.367411999999997
100
AcDbArc
 50
271.07054
 51
0.0
  0
ARC
  5
E87
330
12A5
100
AcDbEntity
  8
1
  6
Continuous
100
AcDbCircle
 10
387.1191328220052
 20
466.5002225850225
 30
0.0
 40
7.367411999999997
100
AcDbArc
 50
271.07054
 51
0.0
  0
LINE
  5
E88
330
12A5
100
AcDbEntity
  8
1
  6
Continuous
100
AcDbLine
 10
383.9765048220056
 20
464.6871555850228
 30
0.0
 11
383.9765048220056
 21
499.6892775850225
 31
0.0
  0
LINE
  5
E89
330
12A5
100
AcDbEntity
  8
1
  6
Continuous
100
AcDbLine
 10
379.9782748220053
 20
464.6872405850226
 30
0.0
 11
379.9782748220053
 21
499.6891925850227
 31
0.0
  0
LINE
  5
E8A
330
12A5
100
AcDbEntity
  8
1
  6
Continuous
100
AcDbLine
 10
374.9802268220053
 20
464.6872405850226
 30
0.0
 11
374.9802268220053
 21
499.6891925850227
 31
0.0
  0
LINE
  5
E8B
330
12A5
100
AcDbEntity
  8
1
  6
Continuous
100
AcDbLine
 10
370.9819048220056
 20
464.6871805850228
 30
0.0
 11
370.9819048220056
 21
499.6892525850226
 31
0.0
  0
LINE
  5
E8C
330
12A5
100
AcDbEntity
  8
1
  6
Continuous
100
AcDbLine
 10
365.9839768220056
 20
464.6871805850228
 30
0.0
 11
365.9839768220056
 21
499.6892525850226
 31
0.0
  0
LINE
  5
E8D
330
12A5
100
AcDbEntity
  8
1
  6
Continuous
100
AcDbLine
 10
388.9743828220056
 20
464.6871555850228
 30
0.0
 11
388.9743828220056
 21
499.6892775850225
 31
0.0
  0
ARC
  5
E8E
330
12A5
100
AcDbEntity
  8
1
  6
Continuous
100
AcDbCircle
 10
328.7222048220054
 20
465.1882165850226
 30
0.0
 40
2.0
100
AcDbArc
 50
90.0
 51
180.0
  0
LINE
  5
E8F
330
12A5
100
AcDbEntity
  8
1
  6
Continuous
100
AcDbLine
 10
303.4053648220054
 20
501.4004865850226
 30
0.0
 11
303.4053648220054
 21
462.9759465850226
 31
0.0
  0
ARC
  5
E90
330
12A5
100
AcDbEntity
  8
1
  6
Continuous
100
AcDbCircle
 10
509.6293948220054
 20
482.1882165850226
 30
0.0
 40
207.1169999999999
100
AcDbArc
 50
174.6775699999998
 51
185.3224299999998
  0
ARC
  5
E91
330
12A5
100
AcDbEntity
  8
1
  6
Continuous
100
AcDbCircle
 10
339.7387248220054
 20
470.4382165850225
 30
0.0
 40
5.0
100
AcDbArc
 50
270.0
 51
0.0
  0
LINE
  5
E92
330
12A5
100
AcDbEntity
  8
1
  6
Continuous
100
AcDbLine
 10
358.6446748220054
 20
457.6882165850226
 30
0.0
 11
358.6446748220054
 21
506.6882165850226
 31
0.0
  0
LINE
  5
E93
330
12A5
100
AcDbEntity
  8
1
  6
Continuous
100
AcDbLine
 10
318.9942648220052
 20
522.1882165850225
 30
0.0
 11
318.9942648220052
 21
442.1882165850226
 31
0.0
  0
LINE
  5
E94
330
12A5
100
AcDbEntity
  8
1
  6
Continuous
100
AcDbLine
 10
264.9942648220053
 20
480.6882165850225
 30
0.0
 11
264.9942648220053
 21
462.8475165850226
 31
0.0
  0
LINE
  5
E95
330
12A5
100
AcDbEntity
  8
1
  6
Continuous
100
AcDbLine
 10
272.9942648220053
 20
480.6882165850225
 30
0.0
 11
272.9942648220053
 21
462.8475165850226
 31
0.0
  0
CIRCLE
  5
E96
330
12A5
100
AcDbEntity
  8
1
  6
Continuous
100
AcDbCircle
 10
268.9942648220053
 20
482.1882165850226
 30
0.0
 40
19.75
  0
LINE
  5
E97
330
12A5
100
AcDbEntity
  8
1
  6
Continuous
100
AcDbLine
 10
234.5831648220053
 20
501.4004865850226
 30
0.0
 11
234.5831648220053
 21
462.9759465850226
 31
0.0
  0
ARC
  5
E98
330
12A5
100
AcDbEntity
  8
1
  6
Continuous
100
AcDbCircle
 10
28.3591328220055
 20
482.1882165850226
 30
0.0
 40
207.1169999999999
100
AcDbArc
 50
354.6775600000001
 51
5.322434000000146
  0
LINE
  5
E99
330
12A5
100
AcDbEntity
  8
1
  6
Continuous
100
AcDbLine
 10
218.9942648220053
 20
522.1882165850225
 30
0.0
 11
218.9942648220053
 21
442.1882165850226
 31
0.0
  0
LINE
  5
E9A
330
12A5
100
AcDbEntity
  8
4
  6
CENTER
100
AcDbLine
 10
268.9942648220053
 20
533.6110365850227
 30
0.0
 11
268.9942648220053
 21
433.4499365850225
 31
0.0
  0
LINE
  5
E9B
330
12A5
100
AcDbEntity
  8
1
  6
Continuous
100
AcDbLine
 10
252.9734248220053
 20
437.1882165850226
 30
0.0
 11
285.0151048220054
 21
437.1882165850226
 31
0.0
  0
ARC
  5
E9C
330
12A5
100
AcDbEntity
  8
1
  6
Continuous
100
AcDbCircle
 10
281.9942648220052
 20
336.7003376605283
 30
0.0
 40
5.0
100
AcDbArc
 50
89.99999600000005
 51
167.2427300000001
  0
LINE
  5
E9D
330
12A5
100
AcDbEntity
  8
5
  6
PHANTOM
100
AcDbLine
 10
277.7991848220054
 20
333.3285536605283
 30
0.0
 11
285.3359048220054
 21
302.3059766605283
 31
0.0
  0
LINE
  5
E9E
330
12A5
100
AcDbEntity
  8
1
  6
Continuous
100
AcDbLine
 10
261.9337648220053
 20
325.2685096605283
 30
0.0
 11
289.3158848220054
 21
303.0794786605283
 31
0.0
  0
LINE
  5
E9F
330
12A5
100
AcDbEntity
  8
1
  6
Continuous
100
AcDbLine
 10
264.2609448220056
 20
302.4086106605283
 30
0.0
 11
279.2725748220056
 21
311.2180566605285
 31
0.0
  0
LINE
  5
EA0
330
12A5
100
AcDbEntity
  8
5
  6
PHANTOM
100
AcDbLine
 10
266.5795748220055
 20
308.4543776605284
 30
0.0
 11
283.5805848220056
 21
309.5311996605283
 31
0.0
  0
LINE
  5
EA1
330
12A5
100
AcDbEntity
  8
4
  6
CENTER
100
AcDbLine
 10
258.9942648220053
 20
331.7003376605285
 30
0.0
 11
278.9942648220054
 21
331.7003376605285
 31
0.0
  0
ARC
  5
EA2
330
12A5
100
AcDbEntity
  8
5
  6
PHANTOM
100
AcDbCircle
 10
268.9942648220053
 20
331.7003376605285
 30
0.0
 40
13.0
100
AcDbArc
 50
222.7822500000004
 51
327.1053
  0
ARC
  5
EA3
330
12A5
100
AcDbEntity
  8
1
  6
Continuous
100
AcDbCircle
 10
268.9942648220053
 20
331.7003376605285
 30
0.0
 40
13.0
100
AcDbArc
 50
274.40102
 51
18.74123300000001
  0
ARC
  5
EA4
330
12A5
100
AcDbEntity
  8
5
  6
PHANTOM
100
AcDbCircle
 10
269.0535648220056
 20
331.2038666605285
 30
0.0
 40
9.0
100
AcDbArc
 50
13.65507899999995
 51
90.81063000000003
  0
LINE
  5
EA5
330
12A5
100
AcDbEntity
  8
1
  6
Continuous
100
AcDbLine
 10
291.1365248220054
 20
341.7003376605283
 30
0.0
 11
246.5579348220056
 21
341.7003376605285
 31
0.0
  0
LINE
  5
EA6
330
12A5
100
AcDbEntity
  8
4
  6
CENTER
100
AcDbLine
 10
258.9942648220053
 20
295.3003356605283
 30
0.0
 11
278.9942648220054
 21
295.3003356605283
 31
0.0
  0
LINE
  5
EA7
330
12A5
100
AcDbEntity
  8
1
  6
Continuous
100
AcDbLine
 10
273.1837948220053
 20
339.6150866605284
 30
0.0
 11
302.1834548220052
 21
326.2675026605285
 31
0.0
  0
LINE
  5
EA8
330
12A5
100
AcDbEntity
  8
1
  6
Continuous
100
AcDbLine
 10
218.9942648220053
 20
369.7003376605284
 30
0.0
 11
318.9942648220052
 21
369.7003376605284
 31
0.0
  0
LINE
  5
EA9
330
12A5
100
AcDbEntity
  8
1
  6
Continuous
100
AcDbLine
 10
218.9942648220053
 20
377.7003376605285
 30
0.0
 11
318.9942648220052
 21
377.7003376605285
 31
0.0
  0
ARC
  5
EAA
330
12A5
100
AcDbEntity
  8
1
  6
Continuous
100
AcDbCircle
 10
268.9942648220053
 20
482.1882165850226
 30
0.0
 40
39.41111
100
AcDbArc
 50
270.0
 51
330.8247259999999
  0
CIRCLE
  5
EAB
330
12A5
100
AcDbEntity
  8
1
  6
Continuous
100
AcDbCircle
 10
268.9942648220053
 20
331.7003376605285
 30
0.0
 40
6.0
  0
ARC
  5
EAC
330
12A5
100
AcDbEntity
  8
5
  6
PHANTOM
100
AcDbCircle
 10
266.5713648220052
 20
333.1689426605284
 30
0.0
 40
7.0
100
AcDbArc
 50
90.81063000000003
 51
179.3442499999999
  0
LINE
  5
EAD
330
12A5
100
AcDbEntity
  8
1
  6
Continuous
100
AcDbLine
 10
260.7832548220054
 20
334.9629676605285
 30
0.0
 11
262.2753348220054
 21
336.9114126605286
 31
0.0
  0
LINE
  5
EAE
330
12A5
100
AcDbEntity
  8
1
  6
Continuous
100
AcDbLine
 10
260.9942648220053
 20
336.7003376605283
 30
0.0
 11
260.9942648220053
 21
335.2385226605283
 31
0.0
  0
LINE
  5
EAF
330
12A5
100
AcDbEntity
  8
1
  6
Continuous
100
AcDbLine
 10
230.1604948220056
 20
366.7003296605283
 30
0.0
 11
244.5942548220053
 21
324.7003336605284
 31
0.0
  0
LINE
  5
EB0
330
12A5
100
AcDbEntity
  8
5
  6
PHANTOM
100
AcDbLine
 10
259.1684448220056
 20
298.0040846605285
 30
0.0
 11
259.5718448220055
 21
333.2490546605285
 31
0.0
  0
ARC
  5
EB1
330
12A5
100
AcDbEntity
  8
5
  6
PHANTOM
100
AcDbCircle
 10
267.1168648220052
 20
299.9713716605283
 30
0.0
 40
8.5
100
AcDbArc
 50
93.62419699999991
 51
158.1563400000002
  0
ARC
  5
EB2
330
12A5
100
AcDbEntity
  8
5
  6
PHANTOM
100
AcDbCircle
 10
267.1168648220052
 20
299.9713716605283
 30
0.0
 40
8.5
100
AcDbArc
 50
158.1563400000002
 51
183.6242
  0
CIRCLE
  5
EB3
330
12A5
100
AcDbEntity
  8
5
  6
PHANTOM
100
AcDbCircle
 10
267.1942648220053
 20
298.7494636605283
 30
0.0
 40
4.0
  0
CIRCLE
  5
EB4
330
12A5
100
AcDbEntity
  8
1
  6
Continuous
100
AcDbCircle
 10
268.9942648220053
 20
295.3003356605283
 30
0.0
 40
2.0
  0
ARC
  5
EB5
330
12A5
100
AcDbEntity
  8
1
  6
Continuous
100
AcDbCircle
 10
266.3408548220053
 20
330.7070326605284
 30
0.0
 40
7.0
100
AcDbArc
 50
142.55565
 51
230.98052
  0
CIRCLE
  5
EB6
330
12A5
100
AcDbEntity
  8
1
  6
Continuous
100
AcDbCircle
 10
268.9942648220053
 20
331.7003376605285
 30
0.0
 40
2.0
  0
LINE
  5
EB7
330
12A5
100
AcDbEntity
  8
1
  6
Continuous
100
AcDbLine
 10
229.8718248220052
 20
367.2003376605285
 30
0.0
 11
243.9243748220055
 21
342.8605856605283
 31
0.0
  0
ARC
  5
EB8
330
12A5
100
AcDbEntity
  8
1
  6
Continuous
100
AcDbCircle
 10
239.5942748220053
 20
340.3605856605283
 30
0.0
 40
5.0
100
AcDbArc
 50
0.0
 51
30.00000100000001
  0
ARC
  5
EB9
330
12A5
100
AcDbEntity
  8
1
  6
Continuous
100
AcDbCircle
 10
225.5417048220053
 20
364.7003376605285
 30
0.0
 40
5.0
100
AcDbArc
 50
30.00000100000001
 51
90.00000300000015
  0
LINE
  5
EBA
330
12A5
100
AcDbEntity
  8
4
  6
CENTER
100
AcDbLine
 10
228.9942648220053
 20
365.3965966605284
 30
0.0
 11
228.9942648220053
 21
380.5435876605285
 31
0.0
  0
LINE
  5
EBB
330
12A5
100
AcDbEntity
  8
1
  6
Continuous
100
AcDbLine
 10
218.9942648220053
 20
369.7003376605284
 30
0.0
 11
218.9942648220053
 21
377.7003376605285
 31
0.0
  0
ARC
  5
EBC
330
12A5
100
AcDbEntity
  8
1
  6
Continuous
100
AcDbCircle
 10
269.4208348220053
 20
331.4395036605284
 30
0.0
 40
9.0
100
AcDbArc
 50
65.2849560000001
 51
142.55565
  0
ARC
  5
EBD
330
12A5
100
AcDbEntity
  8
1
  6
Continuous
100
AcDbCircle
 10
255.9942648220054
 20
336.7003376605283
 30
0.0
 40
5.0
100
AcDbArc
 50
0.0000030000001391
 51
90.00000300000015
  0
LINE
  5
EBE
330
12A5
100
AcDbEntity
  8
5
  6
PHANTOM
100
AcDbLine
 10
268.9262148220052
 20
340.2029696605284
 30
0.0
 11
266.4723248220052
 21
340.1682446605285
 31
0.0
  0
ARC
  5
EBF
330
12A5
100
AcDbEntity
  8
1
  6
Continuous
100
AcDbCircle
 10
268.9942648220053
 20
482.1882165850226
 30
0.0
 40
39.41111
100
AcDbArc
 50
209.1752689999997
 51
270.0
  0
ARC
  5
EC0
330
12A5
100
AcDbEntity
  8
1
  6
Continuous
100
AcDbCircle
 10
252.9734248220053
 20
387.1882165850227
 30
0.0
 40
50.0
100
AcDbArc
 50
89.99999600000005
 51
113.5564699999994
  0
LINE
  5
EC1
330
12A5
100
AcDbEntity
  8
4
  6
CENTER
100
AcDbLine
 10
228.9942648220053
 20
449.6882165850226
 30
0.0
 11
228.9942648220053
 21
434.6882165850225
 31
0.0
  0
CIRCLE
  5
EC2
330
12A5
100
AcDbEntity
  8
1
  6
Continuous
100
AcDbCircle
 10
228.9942648220053
 20
442.1882165850226
 30
0.0
 40
4.25
  0
LINE
  5
EC3
330
12A5
100
AcDbEntity
  8
4
  6
CENTER
100
AcDbLine
 10
236.4942648220053
 20
442.1882165850226
 30
0.0
 11
221.4942648220053
 21
442.1882165850226
 31
0.0
  0
ARC
  5
EC4
330
12A5
100
AcDbEntity
  8
1
  6
Continuous
100
AcDbCircle
 10
228.9942648220053
 20
442.1882165850226
 30
0.0
 40
10.0
100
AcDbArc
 50
179.9999899999995
 51
293.5564799999996
  0
LINE
  5
EC5
330
12A5
100
AcDbEntity
  8
4
  6
CENTER
100
AcDbLine
 10
340.8408548220056
 20
331.9911166605286
 30
0.0
 11
345.8745148220056
 21
320.4980706605285
 31
0.0
  0
CIRCLE
  5
EC6
330
12A5
100
AcDbEntity
  8
1
  6
Continuous
100
AcDbCircle
 10
343.4272748220053
 20
326.0856526605284
 30
0.0
 40
3.5
  0
LINE
  5
EC7
330
12A5
100
AcDbEntity
  8
4
  6
CENTER
100
AcDbLine
 10
337.6111618220056
 20
323.7277636605284
 30
0.0
 11
349.1042078220056
 21
328.7614236605283
 31
0.0
  0
LINE
  5
EC8
330
12A5
100
AcDbEntity
  8
1
  6
Continuous
100
AcDbLine
 10
332.5387548220056
 20
334.7447406605285
 30
0.0
 11
358.6446848220056
 21
346.1784716605285
 31
0.0
  0
LINE
  5
EC9
330
12A5
100
AcDbEntity
  8
1
  6
Continuous
100
AcDbLine
 10
317.6675248220054
 20
300.9172126605284
 30
0.0
 11
360.6986448220052
 21
326.0594456605285
 31
0.0
  0
LINE
  5
ECA
330
12A5
100
AcDbEntity
  8
1
  6
Continuous
100
AcDbLine
 10
293.3942548220052
 20
340.3605856605283
 30
0.0
 11
293.3942548220052
 21
330.3128786605285
 31
0.0
  0
LINE
  5
ECB
330
12A5
100
AcDbEntity
  8
1
  6
Continuous
100
AcDbLine
 10
307.8280248220053
 20
366.7003456605284
 30
0.0
 11
295.0596448220052
 21
329.5463576605283
 31
0.0
  0
ARC
  5
ECC
330
12A5
100
AcDbEntity
  8
1
  6
Continuous
100
AcDbCircle
 10
310.5455648220054
 20
344.4354756605284
 30
0.0
 40
20.0
100
AcDbArc
 50
245.2849500000001
 51
293.6521899999998
  0
LINE
  5
ECD
330
12A5
100
AcDbEntity
  8
5
  6
PHANTOM
100
AcDbLine
 10
309.4619648220054
 20
311.6714946605284
 30
0.0
 11
313.5565848220052
 21
311.9308446605284
 31
0.0
  0
LINE
  5
ECE
330
12A5
100
AcDbEntity
  8
1
  6
Continuous
100
AcDbLine
 10
311.5136248220054
 20
298.3513366605285
 30
0.0
 11
313.0749848220054
 21
295.6907226605285
 31
0.0
  0
LINE
  5
ECF
330
12A5
100
AcDbEntity
  8
5
  6
PHANTOM
100
AcDbLine
 10
289.3123348220054
 20
313.4012536605283
 30
0.0
 11
313.3669448220054
 21
314.9248436605284
 31
0.0
  0
ARC
  5
ED0
330
12A5
100
AcDbEntity
  8
1
  6
Continuous
100
AcDbCircle
 10
305.0554948220054
 20
322.5027816605284
 30
0.0
 40
25.0
100
AcDbArc
 50
230.98051
 51
300.2969100000003
  0
LINE
  5
ED1
330
12A5
100
AcDbEntity
  8
5
  6
PHANTOM
100
AcDbLine
 10
310.2521048220056
 20
299.1964846605284
 30
0.0
 11
309.2723248220056
 21
314.6654946605285
 31
0.0
  0
LINE
  5
ED2
330
12A5
100
AcDbEntity
  8
5
  6
PHANTOM
100
AcDbLine
 10
289.4703648220056
 20
310.9062546605283
 30
0.0
 11
289.3123348220056
 21
313.4012536605283
 31
0.0
  0
CIRCLE
  5
ED3
330
12A5
100
AcDbEntity
  8
1
  6
Continuous
100
AcDbCircle
 10
293.7116548220054
 20
309.8359656605283
 30
0.0
 40
4.0
  0
LINE
  5
ED4
330
12A5
100
AcDbEntity
  8
4
  6
CENTER
100
AcDbLine
 10
293.7116548220054
 20
317.3359656605285
 30
0.0
 11
293.7116548220054
 21
302.3359656605283
 31
0.0
  0
LINE
  5
ED5
330
12A5
100
AcDbEntity
  8
4
  6
CENTER
100
AcDbLine
 10
286.2116548220054
 20
309.8359656605283
 30
0.0
 11
301.2116548220054
 21
309.8359656605283
 31
0.0
  0
LINE
  5
ED6
330
12A5
100
AcDbEntity
  8
5
  6
PHANTOM
100
AcDbLine
 10
286.7597648220055
 20
298.3320956605283
 30
0.0
 11
286.0405648220054
 21
309.6870106605283
 31
0.0
  0
LINE
  5
ED7
330
12A5
100
AcDbEntity
  8
5
  6
PHANTOM
100
AcDbLine
 10
283.5805848220056
 20
309.5311996605283
 30
0.0
 11
288.5355748220055
 21
309.8450446605284
 31
0.0
  0
ARC
  5
ED8
330
12A5
100
AcDbEntity
  8
5
  6
PHANTOM
100
AcDbCircle
 10
288.4723548220054
 20
310.8430376605284
 30
0.0
 40
1.0
100
AcDbArc
 50
273.6241899999996
 51
3.624200000000109
  0
LINE
  5
ED9
330
12A5
100
AcDbEntity
  8
5
  6
PHANTOM
100
AcDbLine
 10
322.4813248220054
 20
313.1953366605283
 30
0.0
 11
321.8895848220054
 21
310.2542736605284
 31
0.0
  0
LINE
  5
EDA
330
12A5
100
AcDbEntity
  8
1
  6
Continuous
100
AcDbLine
 10
314.4435748220054
 20
295.3343916605284
 30
0.0
 11
316.5997148220054
 21
296.5997076605284
 31
0.0
  0
ARC
  5
EDB
330
12A5
100
AcDbEntity
  8
1
  6
Continuous
100
AcDbCircle
 10
313.9374448220054
 20
296.1968506605284
 30
0.0
 40
1.0
100
AcDbArc
 50
210.4061799999993
 51
300.4061899999996
  0
LINE
  5
EDC
330
12A5
100
AcDbEntity
  8
5
  6
PHANTOM
100
AcDbLine
 10
313.5565848220052
 20
311.9308406605286
 30
0.0
 11
321.8895848220054
 21
310.2542736605284
 31
0.0
  0
LINE
  5
EDD
330
12A5
100
AcDbEntity
  8
1
  6
Continuous
100
AcDbLine
 10
318.5692448220056
 20
326.1155256605285
 30
0.0
 11
333.4614548220057
 21
332.6379446605287
 31
0.0
  0
LINE
  5
EDE
330
12A5
100
AcDbEntity
  8
5
  6
PHANTOM
100
AcDbLine
 10
314.1483048220055
 20
314.8719036605285
 30
0.0
 11
322.4813248220054
 21
313.1953366605283
 31
0.0
  0
ARC
  5
EDF
330
12A5
100
AcDbEntity
  8
5
  6
PHANTOM
100
AcDbCircle
 10
313.5565848220052
 20
311.9308366605283
 30
0.0
 40
3.0
100
AcDbArc
 50
78.62419899999988
 51
93.62419699999991
  0
LINE
  5
EE0
330
12A5
100
AcDbEntity
  8
1
  6
Continuous
100
AcDbLine
 10
332.5387548220056
 20
334.7447406605283
 30
0.0
 11
340.8547648220056
 21
315.7572686605285
 31
0.0
  0
ARC
  5
EE1
330
12A5
100
AcDbEntity
  8
1
  6
Continuous
100
AcDbCircle
 10
341.7707548220053
 20
316.1584526605284
 30
0.0
 40
1.0
100
AcDbArc
 50
203.6521799999995
 51
300.2969300000001
  0
ARC
  5
EE2
330
12A5
100
AcDbEntity
  8
1
  6
Continuous
100
AcDbCircle
 10
312.4468248220056
 20
364.7003376605285
 30
0.0
 40
5.0
100
AcDbArc
 50
90.00000300000015
 51
149.9999999999997
  0
LINE
  5
EE3
330
12A5
100
AcDbEntity
  8
1
  6
Continuous
100
AcDbLine
 10
308.1167048220056
 20
367.2003376605285
 30
0.0
 11
294.0641348220056
 21
342.8605776605284
 31
0.0
  0
ARC
  5
EE4
330
12A5
100
AcDbEntity
  8
1
  6
Continuous
100
AcDbCircle
 10
298.3942548220056
 20
340.3605856605283
 30
0.0
 40
5.0
100
AcDbArc
 50
149.9999999999997
 51
180.0000100000002
  0
LINE
  5
EE5
330
12A5
100
AcDbEntity
  8
4
  6
CENTER
100
AcDbLine
 10
308.9942648220052
 20
364.9256866605284
 30
0.0
 11
308.9942648220052
 21
380.5435876605285
 31
0.0
  0
LINE
  5
EE6
330
12A5
100
AcDbEntity
  8
1
  6
Continuous
100
AcDbLine
 10
318.9942648220052
 20
369.7003376605284
 30
0.0
 11
318.9942648220052
 21
377.7003376605285
 31
0.0
  0
LINE
  5
EE7
330
12A5
100
AcDbEntity
  8
4
  6
CENTER
100
AcDbLine
 10
354.5863048220052
 20
337.9963316605283
 30
0.0
 11
359.6105648220053
 21
326.5247776605284
 31
0.0
  0
LINE
  5
EE8
330
12A5
100
AcDbEntity
  8
1
  6
Continuous
100
AcDbLine
 10
362.9204148220056
 20
336.4159486605285
 30
0.0
 11
363.5792548220056
 21
334.9116946605284
 31
0.0
  0
LINE
  5
EE9
330
12A5
100
AcDbEntity
  8
4
  6
CENTER
100
AcDbLine
 10
351.3626578220053
 20
329.7484246605283
 30
0.0
 11
362.8342118220054
 21
334.7726846605283
 31
0.0
  0
ARC
  5
EEA
330
12A5
100
AcDbEntity
  8
1
  6
Continuous
100
AcDbCircle
 10
357.1672348220054
 20
332.1034066605285
 30
0.0
 40
7.0
100
AcDbArc
 50
300.2969
 51
23.65219000000009
  0
CIRCLE
  5
EEB
330
12A5
100
AcDbEntity
  8
1
  6
Continuous
100
AcDbCircle
 10
357.1672348220054
 20
332.1034066605285
 30
0.0
 40
2.6
  0
ARC
  5
EEC
330
12A5
100
AcDbEntity
  8
1
  6
Continuous
100
AcDbCircle
 10
377.5548748220054
 20
344.7655686605284
 30
0.0
 40
3.625007
100
AcDbArc
 50
48.04948900000025
 51
135.2549699999997
  0
LINE
  5
EED
330
12A5
100
AcDbEntity
  8
1
  6
Continuous
100
AcDbLine
 10
359.5011048220055
 20
346.3707176605284
 30
0.0
 11
394.4865448220054
 21
347.3798416605285
 31
0.0
  0
LINE
  5
EEE
330
12A5
100
AcDbEntity
  8
1
  6
Continuous
100
AcDbLine
 10
364.6947348220056
 20
339.2174966605284
 30
0.0
 11
379.4591348220053
 21
339.6433616605284
 31
0.0
  0
ARC
  5
EEF
330
12A5
100
AcDbEntity
  8
1
  6
Continuous
100
AcDbCircle
 10
359.5673848220052
 20
344.0716606605284
 30
0.0
 40
2.299999999999998
100
AcDbArc
 50
91.65218399999998
 51
113.6521600000003
  0
LINE
  5
EF0
330
12A5
100
AcDbEntity
  8
1
  6
Continuous
100
AcDbLine
 10
374.9801948220052
 20
347.3174026605284
 30
0.0
 11
374.9946348220053
 21
346.8176086605285
 31
0.0
  0
LINE
  5
EF1
330
12A5
100
AcDbEntity
  8
1
  6
Continuous
100
AcDbLine
 10
370.9819048220056
 20
347.2020776605284
 30
0.0
 11
370.9963048220055
 21
346.7022826605283
 31
0.0
  0
LINE
  5
EF2
330
12A5
100
AcDbEntity
  8
1
  6
Continuous
100
AcDbLine
 10
365.9839848220055
 20
347.0579116605284
 30
0.0
 11
365.9983848220056
 21
346.5581176605285
 31
0.0
  0
ARC
  5
EF3
330
12A5
100
AcDbEntity
  8
1
  6
Continuous
100
AcDbCircle
 10
364.7524148220052
 20
337.2183086605285
 30
0.0
 40
2.0
100
AcDbArc
 50
91.65210199999973
 51
203.65217
  0
ARC
  5
EF4
330
12A5
100
AcDbEntity
  8
1
  6
Continuous
100
AcDbCircle
 10
368.5586248220055
 20
344.5060626605284
 30
0.0
 40
3.625019999999997
100
AcDbArc
 50
48.04971799999981
 51
135.25477
  0
LINE
  5
EF5
330
12A5
100
AcDbEntity
  8
1
  6
Continuous
100
AcDbLine
 10
384.4830948220057
 20
344.7903336605284
 30
0.0
 11
394.5528248220056
 21
345.0807846605284
 31
0.0
  0
ARC
  5
EF6
330
12A5
100
AcDbEntity
  8
1
  6
Continuous
100
AcDbCircle
 10
386.6118748220054
 20
344.8517356605285
 30
0.0
 40
2.299999999999998
100
AcDbArc
 50
91.65218399999998
 51
181.6522299999999
  0
ARC
  5
EF7
330
12A5
100
AcDbEntity
  8
1
  6
Continuous
100
AcDbCircle
 10
379.3149448220053
 20
344.6412706605285
 30
0.0
 40
5.0
100
AcDbArc
 50
271.6521799999999
 51
1.65220500000012
  0
ARC
  5
EF8
330
12A5
100
AcDbEntity
  8
1
  6
Continuous
100
AcDbCircle
 10
386.5511148220056
 20
345.0250446605284
 30
0.0
 40
3.625011999999999
100
AcDbArc
 50
48.04971799999981
 51
135.2549699999997
  0
LINE
  5
EF9
330
12A5
100
AcDbEntity
  8
1
  6
Continuous
100
AcDbLine
 10
383.9765348220053
 20
347.5769016605284
 30
0.0
 11
383.9909348220056
 21
347.0771076605284
 31
0.0
  0
LINE
  5
EFA
330
12A5
100
AcDbEntity
  8
1
  6
Continuous
100
AcDbLine
 10
379.9782448220053
 20
347.4615606605285
 30
0.0
 11
379.9926748220053
 21
346.9617736605284
 31
0.0
  0
LINE
  5
EFB
330
12A5
100
AcDbEntity
  8
1
  6
Continuous
100
AcDbLine
 10
388.9744848220053
 20
347.7210666605285
 30
0.0
 11
388.9888948220053
 21
347.2212646605283
 31
0.0
  0
LINE
  5
EFC
330
12A5
100
AcDbEntity
  8
1
  6
Continuous
100
AcDbLine
 10
394.4865448220054
 20
347.3798416605285
 30
0.0
 11
394.5528248220056
 21
345.0807846605284
 31
0.0
  0
LINE
  5
EFD
330
12A5
100
AcDbEntity
  8
1
  6
Continuous
100
AcDbLine
 10
346.1272768220052
 20
451.3882165850226
 30
0.0
 11
340.7272768220053
 21
451.3882165850226
 31
0.0
  0
LINE
  5
EFE
330
12A5
100
AcDbEntity
  8
1
  6
Continuous
100
AcDbLine
 10
357.6446748220054
 20
452.6882165850226
 30
0.0
 11
332.5387248220054
 21
452.6882165850226
 31
0.0
  0
CIRCLE
  5
EFF
330
12A5
100
AcDbEntity
  8
1
  6
Continuous
100
AcDbCircle
 10
308.9942648220052
 20
442.1882165850226
 30
0.0
 40
4.25
  0
LINE
  5
F00
330
12A5
100
AcDbEntity
  8
4
  6
CENTER
100
AcDbLine
 10
301.4942648220056
 20
442.1882165850226
 30
0.0
 11
316.4942648220054
 21
442.1882165850226
 31
0.0
  0
ARC
  5
F01
330
12A5
100
AcDbEntity
  8
1
  6
Continuous
100
AcDbCircle
 10
308.9942648220052
 20
442.1882165850226
 30
0.0
 40
10.0
100
AcDbArc
 50
246.4435399999994
 51
0.0000030000001391
  0
LINE
  5
F02
330
12A5
100
AcDbEntity
  8
4
  6
CENTER
100
AcDbLine
 10
308.9942648220052
 20
449.6882165850226
 30
0.0
 11
308.9942648220052
 21
434.6882165850225
 31
0.0
  0
ARC
  5
F03
330
12A5
100
AcDbEntity
  8
1
  6
Continuous
100
AcDbCircle
 10
285.0151048220054
 20
387.1882165850227
 30
0.0
 40
50.0
100
AcDbArc
 50
66.44352699999956
 51
90.00000300000015
  0
ARC
  5
F04
330
12A5
100
AcDbEntity
  8
1
  6
Continuous
100
AcDbCircle
 10
326.9082808220054
 20
456.3882165850226
 30
0.0
 40
5.0
100
AcDbArc
 50
270.0
 51
304.9920199999998
  0
LINE
  5
F05
330
12A5
100
AcDbEntity
  8
1
  6
Continuous
100
AcDbLine
 10
327.5387248220054
 20
454.3882165850226
 30
0.0
 11
331.2475248220053
 21
456.9843755850226
 31
0.0
  0
LINE
  5
F06
330
12A5
100
AcDbEntity
  8
1
  6
Continuous
100
AcDbLine
 10
330.0247458220055
 20
451.3882165850226
 30
0.0
 11
318.9942048220054
 21
451.3882165850226
 31
0.0
  0
LINE
  5
F07
330
12A5
100
AcDbEntity
  8
1
  6
Continuous
100
AcDbLine
 10
327.5387248220054
 20
454.3882165850226
 30
0.0
 11
318.9942048220054
 21
454.3882165850226
 31
0.0
  0
LINE
  5
F08
330
12A5
100
AcDbEntity
  8
1
  6
Continuous
100
AcDbLine
 10
324.7222048220054
 20
459.1882165850226
 30
0.0
 11
318.9942048220054
 21
459.1882165850226
 31
0.0
  0
LINE
  5
F09
330
12A5
100
AcDbEntity
  8
1
  6
Continuous
100
AcDbLine
 10
326.7222048220054
 20
465.1882165850226
 30
0.0
 11
326.7222048220054
 21
461.1882165850226
 31
0.0
  0
ARC
  5
F0A
330
12A5
100
AcDbEntity
  8
1
  6
Continuous
100
AcDbCircle
 10
324.7222048220054
 20
461.1882165850226
 30
0.0
 40
2.0
100
AcDbArc
 50
270.0
 51
0.0
  0
LINE
  5
F0B
330
12A5
100
AcDbEntity
  8
1
  6
Continuous
100
AcDbLine
 10
332.5387248220054
 20
452.6882165850226
 30
0.0
 11
332.5387248220054
 21
463.9382165850226
 31
0.0
  0
LINE
  5
F0C
330
12A5
100
AcDbEntity
  8
1
  6
Continuous
100
AcDbLine
 10
332.8920578220054
 20
452.2920565850226
 30
0.0
 11
333.4579998220052
 21
452.6882165850226
 31
0.0
  0
ARC
  5
F0D
330
12A5
100
AcDbEntity
  8
1
  6
Continuous
100
AcDbCircle
 10
330.0247458220055
 20
456.3882165850226
 30
0.0
 40
5.0
100
AcDbArc
 50
270.0
 51
304.9920199999998
  0
LINE
  5
F0E
330
12A5
100
AcDbEntity
  8
1
  6
Continuous
100
AcDbLine
 10
329.7755928220054
 20
452.2920565850226
 30
0.0
 11
332.5387248220054
 21
454.2262495850226
 31
0.0
  0
ARC
  5
F0F
330
12A5
100
AcDbEntity
  8
1
  6
Continuous
100
AcDbCircle
 10
340.7272768220053
 20
452.5882165850226
 30
0.0
 40
1.199999999999999
100
AcDbArc
 50
180.0
 51
270.0
  0
LINE
  5
F10
330
12A5
100
AcDbEntity
  8
1
  6
Continuous
100
AcDbLine
 10
339.5272768220052
 20
452.5882165850226
 30
0.0
 11
339.5272768220052
 21
452.6882165850226
 31
0.0
  0
LINE
  5
F11
330
12A5
100
AcDbEntity
  8
1
  6
Continuous
100
AcDbLine
 10
339.7387248220054
 20
465.4382165850226
 30
0.0
 11
334.0387248220054
 21
465.4382165850226
 31
0.0
  0
ARC
  5
F12
330
12A5
100
AcDbEntity
  8
1
  6
Continuous
100
AcDbCircle
 10
334.0387248220054
 20
463.9382165850226
 30
0.0
 40
1.5
100
AcDbArc
 50
90.0
 51
180.0
  0
ARC
  5
F13
330
12A5
100
AcDbEntity
  8
1
  6
Continuous
100
AcDbCircle
 10
334.1148368220054
 20
452.8882165850226
 30
0.0
 40
5.0
100
AcDbArc
 50
108.3742299999997
 51
124.9920199999999
  0
ARC
  5
F14
330
12A5
100
AcDbEntity
  8
1
  6
Continuous
100
AcDbCircle
 10
377.4792508220052
 20
464.6872405850226
 30
0.0
 40
2.499023999999999
100
AcDbArc
 50
180.0
 51
0.0
  0
LINE
  5
F15
330
12A5
100
AcDbEntity
  8
1
  6
Continuous
100
AcDbLine
 10
384.3128318220053
 20
455.6882165850225
 30
0.0
 11
360.6446748220055
 21
455.6882165850225
 31
0.0
  0
ARC
  5
F16
330
12A5
100
AcDbEntity
  8
1
  6
Continuous
100
AcDbCircle
 10
360.6446748220055
 20
453.6882165850226
 30
0.0
 40
2.0
100
AcDbArc
 50
90.0
 51
180.0
  0
ARC
  5
F17
330
12A5
100
AcDbEntity
  8
1
  6
Continuous
100
AcDbCircle
 10
346.1272768220052
 20
452.5882165850226
 30
0.0
 40
1.199999999999999
100
AcDbArc
 50
270.0
 51
0.0
  0
LINE
  5
F18
330
12A5
100
AcDbEntity
  8
1
  6
Continuous
100
AcDbLine
 10
347.3272768220052
 20
452.5882165850226
 30
0.0
 11
347.3272768220052
 21
452.6882165850226
 31
0.0
  0
ARC
  5
F19
330
12A5
100
AcDbEntity
  8
1
  6
Continuous
100
AcDbCircle
 10
357.6446748220054
 20
453.6882165850226
 30
0.0
 40
1.0
100
AcDbArc
 50
270.0
 51
0.0
  0
ARC
  5
F1A
330
12A5
100
AcDbEntity
  8
1
  6
Continuous
100
AcDbCircle
 10
368.4829408220052
 20
464.6871805850228
 30
0.0
 40
2.498963999999999
100
AcDbArc
 50
180.0
 51
0.0
  0
ARC
  5
F1B
330
12A5
100
AcDbEntity
  8
1
  6
Continuous
100
AcDbCircle
 10
386.4754438220056
 20
464.6871555850228
 30
0.0
 40
2.498939
100
AcDbArc
 50
180.0
 51
0.0
  0
ARC
  5
F1C
330
12A5
100
AcDbEntity
  8
1
  6
Continuous
100
AcDbCircle
 10
387.3128318220052
 20
456.1346205850226
 30
0.0
 40
3.0
100
AcDbArc
 50
91.07054000000013
 51
180.0
  0
LINE
  5
F1D
330
12A5
100
AcDbEntity
  8
1
  6
Continuous
100
AcDbLine
 10
384.3128318220053
 20
456.1346205850226
 30
0.0
 11
384.3128318220053
 21
455.6882165850225
 31
0.0
  0
LINE
  5
F1E
330
12A5
100
AcDbEntity
  8
1
  6
Continuous
100
AcDbLine
 10
387.3230608374076
 20
459.1340965610124
 30
0.0
 11
387.2567808374077
 21
459.1340965610124
 31
0.0
  0
LINE
  5
F1F
330
12A5
100
AcDbEntity
  8
1
  6
Continuous
100
AcDbLine
 10
285.0151048220054
 20
527.1882165850227
 30
0.0
 11
252.9734248220053
 21
527.1882165850227
 31
0.0
  0
ARC
  5
F20
330
12A5
100
AcDbEntity
  8
1
  6
Continuous
100
AcDbCircle
 10
268.9942648220053
 20
482.1882165850226
 30
0.0
 40
12.0
100
AcDbArc
 50
289.47122
 51
70.52877900000016
  0
ARC
  5
F21
330
12A5
100
AcDbEntity
  8
1
  6
Continuous
100
AcDbCircle
 10
268.9942648220053
 20
482.1882165850226
 30
0.0
 40
16.0
100
AcDbArc
 50
284.4775099999992
 51
75.52248800000026
  0
LINE
  5
F22
330
12A5
100
AcDbEntity
  8
4
  6
CENTER
100
AcDbLine
 10
401.4865448220054
 20
482.1882165850226
 30
0.0
 11
211.7548248220054
 21
482.1882165850226
 31
0.0
  0
ARC
  5
F23
330
12A5
100
AcDbEntity
  8
1
  6
Continuous
100
AcDbCircle
 10
268.9942648220053
 20
482.1882165850226
 30
0.0
 40
39.41111
100
AcDbArc
 50
29.17527400000007
 51
150.8247310000001
  0
ARC
  5
F24
330
12A5
100
AcDbEntity
  8
1
  6
Continuous
100
AcDbCircle
 10
268.9942648220053
 20
482.1882165850226
 30
0.0
 40
12.0
100
AcDbArc
 50
109.4712200000001
 51
250.52877
  0
LINE
  5
F25
330
12A5
100
AcDbEntity
  8
1
  6
Continuous
100
AcDbLine
 10
264.9942648220053
 20
501.5289165850226
 30
0.0
 11
264.9942648220053
 21
483.6882165850226
 31
0.0
  0
LINE
  5
F26
330
12A5
100
AcDbEntity
  8
1
  6
Continuous
100
AcDbLine
 10
272.9942648220053
 20
501.5289165850226
 30
0.0
 11
272.9942648220053
 21
483.6882165850226
 31
0.0
  0
ARC
  5
F27
330
12A5
100
AcDbEntity
  8
1
  6
Continuous
100
AcDbCircle
 10
268.9942648220053
 20
482.1882165850226
 30
0.0
 40
16.0
100
AcDbArc
 50
104.4775099999994
 51
255.5224899999996
  0
ARC
  5
F28
330
12A5
100
AcDbEntity
  8
1
  6
Continuous
100
AcDbCircle
 10
268.9942648220053
 20
482.1882165850226
 30
0.0
 40
6.5
100
AcDbArc
 50
127.9798800000003
 51
232.0201299999999
  0
ARC
  5
F29
330
12A5
100
AcDbEntity
  8
1
  6
Continuous
100
AcDbCircle
 10
268.9942648220053
 20
482.1882165850226
 30
0.0
 40
6.5
100
AcDbArc
 50
307.9798699999999
 51
52.02012799999963
  0
LINE
  5
F2A
330
12A5
100
AcDbEntity
  8
1
  6
Continuous
100
AcDbLine
 10
272.9942648220053
 20
483.6882165850226
 30
0.0
 11
264.9942648220053
 21
483.6882165850226
 31
0.0
  0
LINE
  5
F2B
330
12A5
100
AcDbEntity
  8
1
  6
Continuous
100
AcDbLine
 10
272.9942648220053
 20
480.6882165850225
 30
0.0
 11
264.9942648220053
 21
480.6882165850225
 31
0.0
  0
LINE
  5
F2C
330
12A5
100
AcDbEntity
  8
1
  6
Continuous
100
AcDbLine
 10
274.2442648220054
 20
482.9382165850225
 30
0.0
 11
263.7442648220055
 21
482.9382165850225
 31
0.0
  0
LINE
  5
F2D
330
12A5
100
AcDbEntity
  8
1
  6
Continuous
100
AcDbLine
 10
274.2442648220054
 20
481.4382165850226
 30
0.0
 11
263.7442648220055
 21
481.4382165850226
 31
0.0
  0
ARC
  5
F2E
330
12A5
100
AcDbEntity
  8
1
  6
Continuous
100
AcDbCircle
 10
263.7442648220055
 20
482.1882165850226
 30
0.0
 40
0.75
100
AcDbArc
 50
90.00000300000015
 51
270.0
  0
LINE
  5
F2F
330
12A5
100
AcDbEntity
  8
1
  6
Continuous
100
AcDbLine
 10
265.9942648220056
 20
481.4382165850226
 30
0.0
 11
265.9942648220056
 21
480.6882165850225
 31
0.0
  0
ARC
  5
F30
330
12A5
100
AcDbEntity
  8
1
  6
Continuous
100
AcDbCircle
 10
268.9942648220053
 20
482.1882165850226
 30
0.0
 40
5.0
100
AcDbArc
 50
188.6269199999999
 51
216.8699000000001
  0
LINE
  5
F31
330
12A5
100
AcDbEntity
  8
1
  6
Continuous
100
AcDbLine
 10
265.9942648220056
 20
483.6882165850226
 30
0.0
 11
265.9942648220056
 21
482.9382165850225
 31
0.0
  0
ARC
  5
F32
330
12A5
100
AcDbEntity
  8
1
  6
Continuous
100
AcDbCircle
 10
268.9942648220053
 20
482.1882165850226
 30
0.0
 40
5.0
100
AcDbArc
 50
143.1300999999994
 51
171.37308
  0
ARC
  5
F33
330
12A5
100
AcDbEntity
  8
1
  6
Continuous
100
AcDbCircle
 10
274.2442648220054
 20
482.1882165850226
 30
0.0
 40
0.75
100
AcDbArc
 50
270.0
 51
90.00000300000015
  0
LINE
  5
F34
330
12A5
100
AcDbEntity
  8
1
  6
Continuous
100
AcDbLine
 10
271.9942648220055
 20
481.4382165850226
 30
0.0
 11
271.9942648220055
 21
480.6882165850225
 31
0.0
  0
LINE
  5
F35
330
12A5
100
AcDbEntity
  8
1
  6
Continuous
100
AcDbLine
 10
271.9942648220055
 20
483.6882165850226
 30
0.0
 11
271.9942648220055
 21
482.9382165850225
 31
0.0
  0
ARC
  5
F36
330
12A5
100
AcDbEntity
  8
1
  6
Continuous
100
AcDbCircle
 10
268.9942648220053
 20
482.1882165850226
 30
0.0
 40
5.0
100
AcDbArc
 50
323.1300999999997
 51
351.37307
  0
ARC
  5
F37
330
12A5
100
AcDbEntity
  8
1
  6
Continuous
100
AcDbCircle
 10
268.9942648220053
 20
482.1882165850226
 30
0.0
 40
5.0
100
AcDbArc
 50
8.62692699999979
 51
36.86989699999996
  0
ARC
  5
F38
330
12A5
100
AcDbEntity
  8
1
  6
Continuous
100
AcDbCircle
 10
252.9734248220053
 20
577.1882165850227
 30
0.0
 40
50.0
100
AcDbArc
 50
246.4435399999994
 51
270.0
  0
ARC
  5
F39
330
12A5
100
AcDbEntity
  8
1
  6
Continuous
100
AcDbCircle
 10
228.9942648220053
 20
522.1882165850225
 30
0.0
 40
10.0
100
AcDbArc
 50
66.44353400000021
 51
180.0000100000002
  0
CIRCLE
  5
F3A
330
12A5
100
AcDbEntity
  8
1
  6
Continuous
100
AcDbCircle
 10
228.9942648220053
 20
522.1882165850225
 30
0.0
 40
4.25
  0
LINE
  5
F3B
330
12A5
100
AcDbEntity
  8
4
  6
CENTER
100
AcDbLine
 10
236.4942648220053
 20
522.1882165850225
 30
0.0
 11
221.4942648220053
 21
522.1882165850225
 31
0.0
  0
LINE
  5
F3C
330
12A5
100
AcDbEntity
  8
4
  6
CENTER
100
AcDbLine
 10
228.9942648220053
 20
514.6882165850227
 30
0.0
 11
228.9942648220053
 21
529.6882165850226
 31
0.0
  0
LINE
  5
F3D
330
12A5
100
AcDbEntity
  8
1
  6
Continuous
100
AcDbLine
 10
346.1272768220052
 20
512.9882165850226
 30
0.0
 11
340.7272768220053
 21
512.9882165850226
 31
0.0
  0
LINE
  5
F3E
330
12A5
100
AcDbEntity
  8
1
  6
Continuous
100
AcDbLine
 10
357.6446748220054
 20
511.6882165850226
 30
0.0
 11
332.5387248220054
 21
511.6882165850226
 31
0.0
  0
ARC
  5
F3F
330
12A5
100
AcDbEntity
  8
1
  6
Continuous
100
AcDbCircle
 10
339.7387248220054
 20
493.9382165850226
 30
0.0
 40
5.0
100
AcDbArc
 50
0.0
 51
90.0
  0
LINE
  5
F40
330
12A5
100
AcDbEntity
  8
1
  6
Continuous
100
AcDbLine
 10
329.7755928220054
 20
512.0843755850224
 30
0.0
 11
332.5387248220053
 21
510.1501825850227
 31
0.0
  0
LINE
  5
F41
330
12A5
100
AcDbEntity
  8
1
  6
Continuous
100
AcDbLine
 10
332.5387248220054
 20
500.4382165850226
 30
0.0
 11
332.5387248220054
 21
511.6882165850226
 31
0.0
  0
LINE
  5
F42
330
12A5
100
AcDbEntity
  8
1
  6
Continuous
100
AcDbLine
 10
328.7987548220054
 20
469.1882165850226
 30
0.0
 11
328.7987548220054
 21
495.1882165850226
 31
0.0
  0
LINE
  5
F43
330
12A5
100
AcDbEntity
  8
1
  6
Continuous
100
AcDbLine
 10
331.3616848220054
 20
469.1882165850226
 30
0.0
 11
331.3616848220054
 21
495.1882165850226
 31
0.0
  0
LINE
  5
F44
330
12A5
100
AcDbEntity
  8
1
  6
Continuous
100
AcDbLine
 10
329.3616848220054
 20
467.1882165850226
 30
0.0
 11
328.7222048220054
 21
467.1882165850226
 31
0.0
  0
ARC
  5
F45
330
12A5
100
AcDbEntity
  8
1
  6
Continuous
100
AcDbCircle
 10
329.3616848220054
 20
469.1882165850226
 30
0.0
 40
2.0
100
AcDbArc
 50
270.0
 51
0.0
  0
LINE
  5
F46
330
12A5
100
AcDbEntity
  8
1
  6
Continuous
100
AcDbLine
 10
327.5387248220054
 20
509.9882165850226
 30
0.0
 11
331.2475248220053
 21
507.3920565850227
 31
0.0
  0
ARC
  5
F47
330
12A5
100
AcDbEntity
  8
1
  6
Continuous
100
AcDbCircle
 10
328.7222048220054
 20
499.1882165850226
 30
0.0
 40
2.0
100
AcDbArc
 50
180.0
 51
270.0
  0
LINE
  5
F48
330
12A5
100
AcDbEntity
  8
1
  6
Continuous
100
AcDbLine
 10
326.7222048220054
 20
499.1882165850226
 30
0.0
 11
326.7222048220054
 21
503.1882165850226
 31
0.0
  0
LINE
  5
F49
330
12A5
100
AcDbEntity
  8
1
  6
Continuous
100
AcDbLine
 10
324.7222048220054
 20
505.1882165850225
 30
0.0
 11
318.9942048220054
 21
505.1882165850225
 31
0.0
  0
LINE
  5
F4A
330
12A5
100
AcDbEntity
  8
1
  6
Continuous
100
AcDbLine
 10
327.5387248220054
 20
509.9882165850226
 30
0.0
 11
318.9942048220054
 21
509.9882165850226
 31
0.0
  0
ARC
  5
F4B
330
12A5
100
AcDbEntity
  8
1
  6
Continuous
100
AcDbCircle
 10
324.7222048220054
 20
503.1882165850226
 30
0.0
 40
2.0
100
AcDbArc
 50
0.0
 51
90.0
  0
ARC
  5
F4C
330
12A5
100
AcDbEntity
  8
1
  6
Continuous
100
AcDbCircle
 10
334.0387248220054
 20
500.4382165850226
 30
0.0
 40
1.5
100
AcDbArc
 50
180.0
 51
270.0
  0
LINE
  5
F4D
330
12A5
100
AcDbEntity
  8
1
  6
Continuous
100
AcDbLine
 10
339.7387248220054
 20
498.9382165850225
 30
0.0
 11
334.0387248220054
 21
498.9382165850225
 31
0.0
  0
LINE
  5
F4E
330
12A5
100
AcDbEntity
  8
1
  6
Continuous
100
AcDbLine
 10
329.3616848220054
 20
497.1882165850225
 30
0.0
 11
328.7222048220054
 21
497.1882165850225
 31
0.0
  0
ARC
  5
F4F
330
12A5
100
AcDbEntity
  8
1
  6
Continuous
100
AcDbCircle
 10
329.3616848220054
 20
495.1882165850226
 30
0.0
 40
2.0
100
AcDbArc
 50
0.0
 51
90.0
  0
ARC
  5
F50
330
12A5
100
AcDbEntity
  8
1
  6
Continuous
100
AcDbCircle
 10
334.1148368220054
 20
511.4882165850226
 30
0.0
 40
5.0
100
AcDbArc
 50
235.00798
 51
251.6257700000003
  0
LINE
  5
F51
330
12A5
100
AcDbEntity
  8
4
  6
CENTER
100
AcDbLine
 10
301.4942648220056
 20
522.1882165850225
 30
0.0
 11
316.4942648220054
 21
522.1882165850225
 31
0.0
  0
ARC
  5
F52
330
12A5
100
AcDbEntity
  8
1
  6
Continuous
100
AcDbCircle
 10
308.9942648220052
 20
522.1882165850225
 30
0.0
 40
10.0
100
AcDbArc
 50
0.0000030000001391
 51
113.5564600000003
  0
CIRCLE
  5
F53
330
12A5
100
AcDbEntity
  8
1
  6
Continuous
100
AcDbCircle
 10
308.9942648220052
 20
522.1882165850225
 30
0.0
 40
4.25
  0
ARC
  5
F54
330
12A5
100
AcDbEntity
  8
1
  6
Continuous
100
AcDbCircle
 10
285.0151048220054
 20
577.1882165850227
 30
0.0
 40
50.0
100
AcDbArc
 50
270.0
 51
293.5564699999996
  0
LINE
  5
F55
330
12A5
100
AcDbEntity
  8
4
  6
CENTER
100
AcDbLine
 10
308.9942648220052
 20
514.6882165850227
 30
0.0
 11
308.9942648220052
 21
529.6882165850226
 31
0.0
  0
ARC
  5
F56
330
12A5
100
AcDbEntity
  8
1
  6
Continuous
100
AcDbCircle
 10
326.9082808220054
 20
507.9882165850226
 30
0.0
 40
5.0
100
AcDbArc
 50
55.00798000000007
 51
90.0
  0
LINE
  5
F57
330
12A5
100
AcDbEntity
  8
1
  6
Continuous
100
AcDbLine
 10
330.0247458220055
 20
512.9882165850226
 30
0.0
 11
318.9942048220054
 21
512.9882165850226
 31
0.0
  0
LINE
  5
F58
330
12A5
100
AcDbEntity
  8
1
  6
Continuous
100
AcDbLine
 10
332.8920578220053
 20
512.0843755850227
 30
0.0
 11
333.4579998220052
 21
511.6882165850226
 31
0.0
  0
ARC
  5
F59
330
12A5
100
AcDbEntity
  8
1
  6
Continuous
100
AcDbCircle
 10
330.0247458220055
 20
507.9882165850226
 30
0.0
 40
5.0
100
AcDbArc
 50
55.00798000000007
 51
90.0
  0
ARC
  5
F5A
330
12A5
100
AcDbEntity
  8
1
  6
Continuous
100
AcDbCircle
 10
340.7272768220053
 20
511.7882165850227
 30
0.0
 40
1.199999999999999
100
AcDbArc
 50
90.0
 51
180.0
  0
LINE
  5
F5B
330
12A5
100
AcDbEntity
  8
1
  6
Continuous
100
AcDbLine
 10
339.5272768220052
 20
511.7882165850227
 30
0.0
 11
339.5272768220052
 21
511.6882165850226
 31
0.0
  0
ARC
  5
F5C
330
12A5
100
AcDbEntity
  8
1
  6
Continuous
100
AcDbCircle
 10
357.6446748220054
 20
510.6882165850226
 30
0.0
 40
1.0
100
AcDbArc
 50
0.0
 51
90.0
  0
LINE
  5
F5D
330
12A5
100
AcDbEntity
  8
1
  6
Continuous
100
AcDbLine
 10
384.3128318220053
 20
508.6882165850226
 30
0.0
 11
360.6446748220055
 21
508.6882165850226
 31
0.0
  0
ARC
  5
F5E
330
12A5
100
AcDbEntity
  8
1
  6
Continuous
100
AcDbCircle
 10
377.4792508220052
 20
499.6891925850227
 30
0.0
 40
2.499023999999999
100
AcDbArc
 50
0.0
 51
180.0
  0
LINE
  5
F5F
330
12A5
100
AcDbEntity
  8
1
  6
Continuous
100
AcDbLine
 10
344.7387248220052
 20
470.4382165850225
 30
0.0
 11
344.7387248220052
 21
493.9382165850226
 31
0.0
  0
ARC
  5
F60
330
12A5
100
AcDbEntity
  8
1
  6
Continuous
100
AcDbCircle
 10
360.6446748220055
 20
510.6882165850226
 30
0.0
 40
2.0
100
AcDbArc
 50
180.0
 51
270.0
  0
ARC
  5
F61
330
12A5
100
AcDbEntity
  8
1
  6
Continuous
100
AcDbCircle
 10
368.4829408220052
 20
499.6892525850226
 30
0.0
 40
2.498963999999999
100
AcDbArc
 50
0.0
 51
180.0
  0
LINE
  5
F62
330
12A5
100
AcDbEntity
  8
1
  6
Continuous
100
AcDbLine
 10
394.5528248220056
 20
466.5002225850225
 30
0.0
 11
394.5528248220056
 21
497.8762105850226
 31
0.0
  0
LINE
  5
F63
330
12A5
100
AcDbEntity
  8
1
  6
Continuous
100
AcDbLine
 10
394.4865448220054
 20
466.5002225850225
 30
0.0
 11
394.4865448220054
 21
497.8762105850226
 31
0.0
  0
ARC
  5
F64
330
12A5
100
AcDbEntity
  8
1
  6
Continuous
100
AcDbCircle
 10
387.1854128220056
 20
497.8762105850226
 30
0.0
 40
7.367411999999997
100
AcDbArc
 50
0.0
 51
88.92945999999986
  0
ARC
  5
F65
330
12A5
100
AcDbEntity
  8
1
  6
Continuous
100
AcDbCircle
 10
387.1191328220052
 20
497.8762105850226
 30
0.0
 40
7.367411999999997
100
AcDbArc
 50
0.0
 51
88.92945999999986
  0
ARC
  5
F66
330
12A5
100
AcDbEntity
  8
1
  6
Continuous
100
AcDbCircle
 10
386.4754438220056
 20
499.6892775850225
 30
0.0
 40
2.498939
100
AcDbArc
 50
0.0
 51
180.0
  0
ARC
  5
F67
330
12A5
100
AcDbEntity
  8
1
  6
Continuous
100
AcDbCircle
 10
387.3128318220052
 20
508.2418125850225
 30
0.0
 40
3.0
100
AcDbArc
 50
180.0
 51
268.9294599999997
  0
LINE
  5
F68
330
12A5
100
AcDbEntity
  8
1
  6
Continuous
100
AcDbLine
 10
384.3128318220053
 20
508.2418125850225
 30
0.0
 11
384.3128318220053
 21
508.6882165850226
 31
0.0
  0
LINE
  5
F69
330
12A5
100
AcDbEntity
  8
1
  6
Continuous
100
AcDbLine
 10
387.3230608374076
 20
505.2423366090327
 30
0.0
 11
387.2567808374077
 21
505.2423366090327
 31
0.0
  0
ARC
  5
F6A
330
12A5
100
AcDbEntity
  8
1
  6
Continuous
100
AcDbCircle
 10
346.1272768220052
 20
511.7882165850227
 30
0.0
 40
1.199999999999999
100
AcDbArc
 50
0.0
 51
90.0
  0
LINE
  5
F6B
330
12A5
100
AcDbEntity
  8
1
  6
Continuous
100
AcDbLine
 10
347.3272768220052
 20
511.7882165850227
 30
0.0
 11
347.3272768220052
 21
511.6882165850226
 31
0.0
  0
ARC
  5
F6C
330
12A5
100
AcDbEntity
  8
5
  6
PHANTOM
100
AcDbCircle
 10
698.4860684307895
 20
298.5643666605283
 30
0.0
 40
10.0
100
AcDbArc
 50
176.3758029999999
 51
240.53946
  0
LINE
  5
F6D
330
12A5
100
AcDbEntity
  8
5
  6
PHANTOM
100
AcDbLine
 10
711.1057184307896
 20
284.2380006605283
 30
0.0
 11
711.9984184307894
 21
298.3321026605284
 31
0.0
  0
LINE
  5
F6E
330
12A5
100
AcDbEntity
  8
1
  6
Continuous
100
AcDbLine
 10
708.9412284307897
 20
284.9406326605284
 30
0.0
 11
686.9485184307897
 21
297.8468776605284
 31
0.0
  0
LINE
  5
F6F
330
12A5
100
AcDbEntity
  8
1
  6
Continuous
100
AcDbLine
 10
682.1584684307897
 20
296.5997076605284
 30
0.0
 11
669.9593884307896
 21
275.8120136605283
 31
0.0
  0
ARC
  5
F70
330
12A5
100
AcDbEntity
  8
1
  6
Continuous
100
AcDbCircle
 10
730.1951584307894
 20
295.0776946605283
 30
0.0
 40
8.5
100
AcDbArc
 50
261.6819799999995
 51
59.59381000000028
  0
ARC
  5
F71
330
12A5
100
AcDbEntity
  8
1
  6
Continuous
100
AcDbCircle
 10
729.7639184307895
 20
287.2033276605285
 30
0.0
 40
4.099999999999996
100
AcDbArc
 50
179.9999900000002
 51
0.0000100000001992
  0
CIRCLE
  5
F72
330
12A5
100
AcDbEntity
  8
1
  6
Continuous
100
AcDbCircle
 10
729.7639184307895
 20
295.3307696605283
 30
0.0
 40
5.5
  0
ARC
  5
F73
330
12A5
100
AcDbEntity
  8
5
  6
PHANTOM
100
AcDbCircle
 10
714.5913884307896
 20
297.7179696605284
 30
0.0
 40
25.0
100
AcDbArc
 50
291.3347199999997
 51
0.6557500000001074
  0
LINE
  5
F74
330
12A5
100
AcDbEntity
  8
5
  6
PHANTOM
100
AcDbLine
 10
738.2153184307894
 20
269.2944586605285
 30
0.0
 11
740.1243284307895
 21
299.4340736605284
 31
0.0
  0
LINE
  5
F75
330
12A5
100
AcDbEntity
  8
1
  6
Continuous
100
AcDbLine
 10
754.1639084307894
 20
340.3605856605283
 30
0.0
 11
754.1639084307894
 21
257.5003406605283
 31
0.0
  0
ARC
  5
F76
330
12A5
100
AcDbEntity
  8
5
  6
PHANTOM
100
AcDbCircle
 10
693.9875984307896
 20
307.0275016605283
 30
0.0
 40
20.0
100
AcDbArc
 50
297.9794400000002
 51
346.3449299999999
  0
LINE
  5
F77
330
12A5
100
AcDbEntity
  8
4
  6
CENTER
100
AcDbLine
 10
729.7639184307895
 20
175.6285776605283
 30
0.0
 11
729.7639184307895
 21
383.6780176605285
 31
0.0
  0
ARC
  5
F78
330
12A5
100
AcDbEntity
  8
1
  6
Continuous
100
AcDbCircle
 10
526.5790886263977
 20
291.7672626605284
 30
0.0
 40
2.0
100
AcDbArc
 50
284.4775100000026
 51
0.0000100000001922
  0
LINE
  5
F79
330
12A5
100
AcDbEntity
  8
1
  6
Continuous
100
AcDbLine
 10
522.3790916263972
 20
297.8468706605283
 30
0.0
 11
522.3790916263976
 21
270.1301476605284
 31
0.0
  0
LINE
  5
F7A
330
12A5
100
AcDbEntity
  8
1
  6
Continuous
100
AcDbLine
 10
527.0790886263974
 20
310.6957939440906
 30
0.0
 11
527.0790886263977
 21
286.5776946605284
 31
0.0
  0
ARC
  5
F7B
330
12A5
100
AcDbEntity
  8
1
  6
Continuous
100
AcDbCircle
 10
470.4790976263976
 20
291.3307696605283
 30
0.0
 40
2.0
100
AcDbArc
 50
180.0
 51
270.0
  0
LINE
  5
F7C
330
12A5
100
AcDbEntity
  8
1
  6
Continuous
100
AcDbLine
 10
471.6790946263976
 20
310.6957939440906
 30
0.0
 11
471.6790946263976
 21
286.5776946605284
 31
0.0
  0
LINE
  5
F7D
330
12A5
100
AcDbEntity
  8
1
  6
Continuous
100
AcDbLine
 10
476.3790916263974
 20
297.8468706605283
 30
0.0
 11
476.3790916263974
 21
270.1301476605284
 31
0.0
  0
LINE
  5
F7E
330
12A5
100
AcDbEntity
  8
4
  6
CENTER
100
AcDbLine
 10
499.3790916263976
 20
381.2664086605284
 30
0.0
 11
499.3790916263976
 21
202.1638181017161
 31
0.0
  0
LINE
  5
F7F
330
12A5
100
AcDbEntity
  8
1
  6
Continuous
100
AcDbLine
 10
674.6233084307895
 20
277.8321546605284
 30
0.0
 11
672.5467584307895
 21
274.2936326605284
 31
0.0
  0
CIRCLE
  5
F80
330
12A5
100
AcDbEntity
  8
5
  6
PHANTOM
100
AcDbCircle
 10
674.7175884307896
 20
262.8197076605284
 30
0.0
 40
2.6
  0
LINE
  5
F81
330
12A5
100
AcDbEntity
  8
4
  6
CENTER
100
AcDbLine
 10
671.6993784307897
 20
268.5010856605283
 30
0.0
 11
677.5748484307897
 21
257.4413366605283
 31
0.0
  0
LINE
  5
F82
330
12A5
100
AcDbEntity
  8
5
  6
PHANTOM
100
AcDbLine
 10
687.9339884307897
 20
283.7688686605283
 30
0.0
 11
662.7651684307896
 21
270.3979506605283
 31
0.0
  0
LINE
  5
F83
330
12A5
100
AcDbEntity
  8
4
  6
CENTER
100
AcDbLine
 10
680.1669874307896
 20
265.9089456605284
 30
0.0
 11
669.1072384307894
 21
260.0334756605284
 31
0.0
  0
LINE
  5
F84
330
12A5
100
AcDbEntity
  8
1
  6
Continuous
100
AcDbLine
 10
685.4040584307897
 20
271.5055596605283
 30
0.0
 11
672.0359184307896
 21
279.3505346605283
 31
0.0
  0
ARC
  5
F85
330
12A5
100
AcDbEntity
  8
5
  6
PHANTOM
100
AcDbCircle
 10
674.7176084307897
 20
262.8197146605283
 30
0.0
 40
7.0
100
AcDbArc
 50
207.9794399999999
 51
291.3347299999998
  0
ARC
  5
F86
330
12A5
100
AcDbEntity
  8
1
  6
Continuous
100
AcDbCircle
 10
478.3790916263976
 20
277.3505356605284
 30
0.0
 40
2.0
100
AcDbArc
 50
90.0
 51
180.0
  0
LINE
  5
F87
330
12A5
100
AcDbEntity
  8
1
  6
Continuous
100
AcDbLine
 10
473.4644728869972
 20
286.8784341648818
 30
0.0
 11
476.3790916263974
 21
284.9406346605283
 31
0.0
  0
ARC
  5
F88
330
12A5
100
AcDbEntity
  8
1
  6
Continuous
100
AcDbCircle
 10
476.9790976263977
 20
257.5003406605283
 30
0.0
 40
2.0
100
AcDbArc
 50
179.9999969999998
 51
270.0
  0
LINE
  5
F89
330
12A5
100
AcDbEntity
  8
1
  6
Continuous
100
AcDbLine
 10
466.3790916263976
 20
210.9003606605285
 30
0.0
 11
532.3790916263976
 21
210.9003606605285
 31
0.0
  0
LINE
  5
F8A
330
12A5
100
AcDbEntity
  8
1
  6
Continuous
100
AcDbLine
 10
469.8790916263976
 20
217.2003486605285
 30
0.0
 11
528.8790916263976
 21
217.2003486605285
 31
0.0
  0
LINE
  5
F8B
330
12A5
100
AcDbEntity
  8
1
  6
Continuous
100
AcDbLine
 10
468.0791036263975
 20
207.7003486605285
 30
0.0
 11
530.6790946263977
 21
207.7003486605285
 31
0.0
  0
ARC
  5
F8C
330
12A5
100
AcDbEntity
  8
1
  6
Continuous
100
AcDbCircle
 10
469.8790916263976
 20
213.7003486605285
 30
0.0
 40
3.5
100
AcDbArc
 50
89.99998399999709
 51
179.9999629999999
  0
LINE
  5
F8D
330
12A5
100
AcDbEntity
  8
1
  6
Continuous
100
AcDbLine
 10
466.3790916263976
 20
213.7003486605285
 30
0.0
 11
466.3790916263976
 21
210.9003606605285
 31
0.0
  0
LINE
  5
F8E
330
12A5
100
AcDbEntity
  8
1
  6
Continuous
100
AcDbLine
 10
467.2216626263977
 20
210.9003456605285
 30
0.0
 11
468.0790996263977
 21
207.7003486605285
 31
0.0
  0
LINE
  5
F8F
330
12A5
100
AcDbEntity
  8
1
  6
Continuous
100
AcDbLine
 10
474.9790976263976
 20
285.8714279895575
 30
0.0
 11
474.9790976263976
 21
257.5003406605283
 31
0.0
  0
LINE
  5
F90
330
12A5
100
AcDbEntity
  8
1
  6
Continuous
100
AcDbLine
 10
471.6790946263976
 20
289.3307696605283
 30
0.0
 11
470.4790976263976
 21
289.3307696605283
 31
0.0
  0
LINE
  5
F91
330
12A5
100
AcDbEntity
  8
1
  6
Continuous
100
AcDbLine
 10
471.6790946263976
 20
286.5776946605284
 30
0.0
 11
473.916811218748
 21
286.5776946605284
 31
0.0
  0
ARC
  5
F92
330
12A5
100
AcDbEntity
  8
1
  6
Continuous
100
AcDbCircle
 10
475.6790946263977
 20
290.2094175859417
 30
0.0
 40
4.0
100
AcDbArc
 50
179.999999999999
 51
236.3818456743798
  0
LINE
  5
F93
330
12A5
100
AcDbEntity
  8
1
  6
Continuous
100
AcDbLine
 10
515.2790856263976
 20
221.9124456605283
 30
0.0
 11
515.2790856263976
 21
245.7003376605283
 31
0.0
  0
LINE
  5
F94
330
12A5
100
AcDbEntity
  8
1
  6
Continuous
100
AcDbLine
 10
483.4790976263978
 20
221.9124456605283
 30
0.0
 11
483.4790976263978
 21
245.7003376605283
 31
0.0
  0
LINE
  5
F95
330
12A5
100
AcDbEntity
  8
1
  6
Continuous
100
AcDbLine
 10
512.2790856263976
 20
218.9124456605281
 30
0.0
 11
486.4790976263978
 21
218.9124456605281
 31
0.0
  0
ARC
  5
F96
330
12A5
100
AcDbEntity
  8
1
  6
Continuous
100
AcDbCircle
 10
486.4790976263978
 20
221.9124456605283
 30
0.0
 40
3.0
100
AcDbArc
 50
179.999982
 51
270.0
  0
ARC
  5
F97
330
12A5
100
AcDbEntity
  8
1
  6
Continuous
100
AcDbCircle
 10
485.6290916263976
 20
218.2003486605285
 30
0.0
 40
1.0
100
AcDbArc
 50
269.9999500000014
 51
314.9929900000017
  0
LINE
  5
F98
330
12A5
100
AcDbEntity
  8
1
  6
Continuous
100
AcDbLine
 10
487.7557526263976
 20
218.9124616605286
 30
0.0
 11
486.3361166263977
 21
217.4931726605285
 31
0.0
  0
ARC
  5
F99
330
12A5
100
AcDbEntity
  8
1
  6
Continuous
100
AcDbCircle
 10
513.1290916263976
 20
218.2003486605285
 30
0.0
 40
1.0
100
AcDbArc
 50
225.0070099999982
 51
270.0000599999996
  0
ARC
  5
F9A
330
12A5
100
AcDbEntity
  8
1
  6
Continuous
100
AcDbCircle
 10
512.2790856263976
 20
221.9124456605283
 30
0.0
 40
3.0
100
AcDbArc
 50
270.0
 51
0.0000199999995702
  0
LINE
  5
F9B
330
12A5
100
AcDbEntity
  8
1
  6
Continuous
100
AcDbLine
 10
511.0024226263976
 20
218.9124616605286
 30
0.0
 11
512.4220656263976
 21
217.4931646605285
 31
0.0
  0
LINE
  5
F9C
330
12A5
100
AcDbEntity
  8
1
  6
Continuous
100
AcDbLine
 10
531.5365316263977
 20
210.9003536605283
 30
0.0
 11
530.6790946263977
 21
207.7003486605285
 31
0.0
  0
LINE
  5
F9D
330
12A5
100
AcDbEntity
  8
1
  6
Continuous
100
AcDbLine
 10
532.3790916263976
 20
213.7003486605285
 30
0.0
 11
532.3790916263976
 21
210.9003606605285
 31
0.0
  0
ARC
  5
F9E
330
12A5
100
AcDbEntity
  8
1
  6
Continuous
100
AcDbCircle
 10
528.8790916263976
 20
213.7003486605285
 30
0.0
 40
3.5
100
AcDbArc
 50
0.0000399999999546
 51
90.00001799999918
  0
LINE
  5
F9F
330
12A5
100
AcDbEntity
  8
1
  6
Continuous
100
AcDbLine
 10
480.7790856263976
 20
245.7003376605283
 30
0.0
 11
517.9790976263976
 21
245.7003376605283
 31
0.0
  0
LINE
  5
FA0
330
12A5
100
AcDbEntity
  8
1
  6
Continuous
100
AcDbLine
 10
476.9790976263977
 20
255.5003406605283
 30
0.0
 11
521.7790856263976
 21
255.5003406605283
 31
0.0
  0
LINE
  5
FA1
330
12A5
100
AcDbEntity
  8
1
  6
Continuous
100
AcDbLine
 10
486.3790916263976
 20
266.8960396605283
 30
0.0
 11
512.3790916263977
 21
266.8960396605283
 31
0.0
  0
LINE
  5
FA2
330
12A5
100
AcDbEntity
  8
1
  6
Continuous
100
AcDbLine
 10
486.3790916263976
 20
266.0990576605284
 30
0.0
 11
512.3790916263977
 21
266.0990576605284
 31
0.0
  0
LINE
  5
FA3
330
12A5
100
AcDbEntity
  8
1
  6
Continuous
100
AcDbLine
 10
487.3790916263976
 20
275.0906156605284
 30
0.0
 11
511.3790916263978
 21
275.0906156605284
 31
0.0
  0
ARC
  5
FA4
330
12A5
100
AcDbEntity
  8
1
  6
Continuous
100
AcDbCircle
 10
486.3790916263976
 20
268.8960396605283
 30
0.0
 40
2.0
100
AcDbArc
 50
180.0
 51
270.0
  0
ARC
  5
FA5
330
12A5
100
AcDbEntity
  8
1
  6
Continuous
100
AcDbCircle
 10
486.3790916263976
 20
268.0990576605284
 30
0.0
 40
2.0
100
AcDbArc
 50
180.0
 51
270.0
  0
ARC
  5
FA6
330
12A5
100
AcDbEntity
  8
1
  6
Continuous
100
AcDbCircle
 10
480.7790856263976
 20
248.7003376605283
 30
0.0
 40
3.0
100
AcDbArc
 50
179.9999969999998
 51
270.0
  0
LINE
  5
FA7
330
12A5
100
AcDbEntity
  8
1
  6
Continuous
100
AcDbLine
 10
477.7790856263977
 20
255.5003406605283
 30
0.0
 11
477.7790856263977
 21
248.7003376605283
 31
0.0
  0
ARC
  5
FA8
330
12A5
100
AcDbEntity
  8
1
  6
Continuous
100
AcDbCircle
 10
482.3790916263976
 20
277.3505356605283
 30
0.0
 40
2.0
100
AcDbArc
 50
0.0
 51
90.0
  0
ARC
  5
FA9
330
12A5
100
AcDbEntity
  8
1
  6
Continuous
100
AcDbCircle
 10
483.3790916263976
 20
276.8321546605284
 30
0.0
 40
1.0
100
AcDbArc
 50
0.0
 51
90.0
  0
ARC
  5
FAA
330
12A5
100
AcDbEntity
  8
1
  6
Continuous
100
AcDbCircle
 10
480.3790916263976
 20
276.8321546605284
 30
0.0
 40
1.0
100
AcDbArc
 50
90.0
 51
179.999999999999
  0
LINE
  5
FAB
330
12A5
100
AcDbEntity
  8
1
  6
Continuous
100
AcDbLine
 10
480.3790916263976
 20
277.8321546605283
 30
0.0
 11
483.3790916263976
 21
277.8321546605283
 31
0.0
  0
LINE
  5
FAC
330
12A5
100
AcDbEntity
  8
1
  6
Continuous
100
AcDbLine
 10
476.3790916263974
 20
270.1301476605284
 30
0.0
 11
479.3790916263976
 21
270.1301476605284
 31
0.0
  0
LINE
  5
FAD
330
12A5
100
AcDbEntity
  8
1
  6
Continuous
100
AcDbLine
 10
484.3790916263974
 20
277.3505356605283
 30
0.0
 11
484.3790916263974
 21
268.0990576605284
 31
0.0
  0
LINE
  5
FAE
330
12A5
100
AcDbEntity
  8
1
  6
Continuous
100
AcDbLine
 10
479.3790916263976
 20
276.8321546605284
 30
0.0
 11
479.3790916263976
 21
270.1301476605284
 31
0.0
  0
LINE
  5
FAF
330
12A5
100
AcDbEntity
  8
1
  6
Continuous
100
AcDbLine
 10
478.3790916263976
 20
279.3505356605284
 30
0.0
 11
482.3790916263976
 21
279.3505356605283
 31
0.0
  0
ARC
  5
FB0
330
12A5
100
AcDbEntity
  8
1
  6
Continuous
100
AcDbCircle
 10
512.3790916263977
 20
268.8960396605283
 30
0.0
 40
2.0
100
AcDbArc
 50
270.0
 51
0.0
  0
ARC
  5
FB1
330
12A5
100
AcDbEntity
  8
1
  6
Continuous
100
AcDbCircle
 10
512.3790916263977
 20
268.0990576605284
 30
0.0
 40
2.0
100
AcDbArc
 50
270.0
 51
0.0
  0
LINE
  5
FB2
330
12A5
100
AcDbEntity
  8
1
  6
Continuous
100
AcDbLine
 10
523.7790856263976
 20
285.8714279895579
 30
0.0
 11
523.7790856263976
 21
257.5003406605283
 31
0.0
  0
ARC
  5
FB3
330
12A5
100
AcDbEntity
  8
1
  6
Continuous
100
AcDbCircle
 10
521.7790856263976
 20
257.5003406605283
 30
0.0
 40
2.0
100
AcDbArc
 50
270.0
 51
0.0000100000001922
  0
ARC
  5
FB4
330
12A5
100
AcDbEntity
  8
1
  6
Continuous
100
AcDbCircle
 10
517.9790976263976
 20
248.7003376605283
 30
0.0
 40
3.0
100
AcDbArc
 50
270.0
 51
0.0000100000001922
  0
LINE
  5
FB5
330
12A5
100
AcDbEntity
  8
1
  6
Continuous
100
AcDbLine
 10
520.9790826263977
 20
255.5003406605283
 30
0.0
 11
520.9790826263977
 21
248.7003376605283
 31
0.0
  0
LINE
  5
FB6
330
12A5
100
AcDbEntity
  8
1
  6
Continuous
100
AcDbLine
 10
527.0790886263977
 20
286.5776946605284
 30
0.0
 11
524.8413720340471
 21
286.5776946605284
 31
0.0
  0
ARC
  5
FB7
330
12A5
100
AcDbEntity
  8
1
  6
Continuous
100
AcDbCircle
 10
523.0790886263974
 20
290.2094175859417
 30
0.0
 40
4.0
100
AcDbArc
 50
303.6181543256201
 51
0.0000000000008142
  0
ARC
  5
FB8
330
12A5
100
AcDbEntity
  8
1
  6
Continuous
100
AcDbCircle
 10
520.3790916263976
 20
277.3505356605284
 30
0.0
 40
2.0
100
AcDbArc
 50
0.0
 51
90.0
  0
ARC
  5
FB9
330
12A5
100
AcDbEntity
  8
1
  6
Continuous
100
AcDbCircle
 10
516.3790916263976
 20
277.3505356605283
 30
0.0
 40
2.0
100
AcDbArc
 50
90.0
 51
180.0
  0
LINE
  5
FBA
330
12A5
100
AcDbEntity
  8
1
  6
Continuous
100
AcDbLine
 10
518.3790916263976
 20
277.8321546605283
 30
0.0
 11
515.3790916263978
 21
277.8321546605283
 31
0.0
  0
ARC
  5
FBB
330
12A5
100
AcDbEntity
  8
1
  6
Continuous
100
AcDbCircle
 10
515.3790916263978
 20
276.8321546605284
 30
0.0
 40
1.0
100
AcDbArc
 50
90.0
 51
180.0
  0
LINE
  5
FBC
330
12A5
100
AcDbEntity
  8
1
  6
Continuous
100
AcDbLine
 10
514.3790916263976
 20
277.3505356605283
 30
0.0
 11
514.3790916263976
 21
268.0990576605284
 31
0.0
  0
ARC
  5
FBD
330
12A5
100
AcDbEntity
  8
1
  6
Continuous
100
AcDbCircle
 10
518.3790916263976
 20
276.8321546605284
 30
0.0
 40
1.0
100
AcDbArc
 50
0.0000000000008142
 51
90.0
  0
LINE
  5
FBE
330
12A5
100
AcDbEntity
  8
1
  6
Continuous
100
AcDbLine
 10
522.3790916263976
 20
270.1301476605284
 30
0.0
 11
519.3790916263976
 21
270.1301476605284
 31
0.0
  0
LINE
  5
FBF
330
12A5
100
AcDbEntity
  8
1
  6
Continuous
100
AcDbLine
 10
519.3790916263976
 20
276.8321546605284
 30
0.0
 11
519.3790916263976
 21
270.1301476605284
 31
0.0
  0
LINE
  5
FC0
330
12A5
100
AcDbEntity
  8
1
  6
Continuous
100
AcDbLine
 10
520.3790916263976
 20
279.3505356605284
 30
0.0
 11
516.3790916263976
 21
279.3505356605283
 31
0.0
  0
LINE
  5
FC1
330
12A5
100
AcDbEntity
  8
1
  6
Continuous
100
AcDbLine
 10
525.2937103657977
 20
286.8784341648818
 30
0.0
 11
522.3790916263976
 21
284.9406346605283
 31
0.0
  0
LINE
  5
FC2
330
12A5
100
AcDbEntity
  8
5
  6
PHANTOM
100
AcDbLine
 10
647.81521843079
 20
249.2780376605283
 30
0.0
 11
641.3370684307896
 21
241.5632946605283
 31
0.0
  0
LINE
  5
FC3
330
12A5
100
AcDbEntity
  8
5
  6
PHANTOM
100
AcDbLine
 10
662.0828584307896
 20
269.8458226605284
 30
0.0
 11
639.5756884307896
 21
243.0423366605283
 31
0.0
  0
LINE
  5
FC4
330
12A5
100
AcDbEntity
  8
5
  6
PHANTOM
100
AcDbLine
 10
639.5756284307895
 20
243.0422676605284
 30
0.0
 11
641.3369784307896
 21
241.5632336605286
 31
0.0
  0
LINE
  5
FC5
330
12A5
100
AcDbEntity
  8
1
  6
Continuous
100
AcDbLine
 10
672.5467584307896
 20
274.2936326605284
 30
0.0
 11
670.2886384307896
 21
266.0990586605284
 31
0.0
  0
LINE
  5
FC6
330
12A5
100
AcDbEntity
  8
1
  6
Continuous
100
AcDbLine
 10
669.6545384307897
 20
275.0906176605284
 30
0.0
 11
667.3964284307899
 21
266.8960426605283
 31
0.0
  0
ARC
  5
FC7
330
12A5
100
AcDbEntity
  8
5
  6
PHANTOM
100
AcDbCircle
 10
657.9226684307897
 20
261.5869726605284
 30
0.0
 40
3.625019999999997
100
AcDbArc
 50
96.37686700000015
 51
183.5819199999998
  0
LINE
  5
FC8
330
12A5
100
AcDbEntity
  8
5
  6
PHANTOM
100
AcDbLine
 10
664.4674684307894
 20
261.3336956605283
 30
0.0
 11
654.9691184307896
 21
250.0222256605284
 31
0.0
  0
ARC
  5
FC9
330
12A5
100
AcDbEntity
  8
5
  6
PHANTOM
100
AcDbCircle
 10
652.1351384307896
 20
254.6946766605285
 30
0.0
 40
3.625007
100
AcDbArc
 50
96.37666200000014
 51
183.58215
  0
ARC
  5
FCA
330
12A5
100
AcDbEntity
  8
5
  6
PHANTOM
100
AcDbCircle
 10
651.1400484307895
 20
253.2375536605282
 30
0.0
 40
5.0
100
AcDbArc
 50
229.9794300000001
 51
319.9794499999997
  0
LINE
  5
FCB
330
12A5
100
AcDbEntity
  8
5
  6
PHANTOM
100
AcDbLine
 10
642.7295584307897
 20
247.5757876605283
 30
0.0
 11
643.1124584307895
 21
247.2542566605283
 31
0.0
  0
ARC
  5
FCC
330
12A5
100
AcDbEntity
  8
5
  6
PHANTOM
100
AcDbCircle
 10
646.4457084307898
 20
247.6471146605285
 30
0.0
 40
2.299999999999998
100
AcDbArc
 50
49.97940999999981
 51
139.9794490000001
  0
LINE
  5
FCD
330
12A5
100
AcDbEntity
  8
5
  6
PHANTOM
100
AcDbLine
 10
645.9448884307898
 20
251.4048916605281
 30
0.0
 11
646.3277884307895
 21
251.0833596605282
 31
0.0
  0
LINE
  5
FCE
330
12A5
100
AcDbEntity
  8
5
  6
PHANTOM
100
AcDbLine
 10
648.5171184307898
 20
254.4680776605285
 30
0.0
 11
648.9000284307897
 21
254.1465466605283
 31
0.0
  0
ARC
  5
FCF
330
12A5
100
AcDbEntity
  8
5
  6
PHANTOM
100
AcDbCircle
 10
646.3475684307897
 20
247.8023426605285
 30
0.0
 40
3.625011999999999
100
AcDbArc
 50
96.37666200000014
 51
183.5819199999998
  0
LINE
  5
FD0
330
12A5
100
AcDbEntity
  8
5
  6
PHANTOM
100
AcDbLine
 10
651.7325184307899
 20
258.2972406605283
 30
0.0
 11
652.1154184307895
 21
257.9757096605283
 31
0.0
  0
LINE
  5
FD1
330
12A5
100
AcDbEntity
  8
5
  6
PHANTOM
100
AcDbLine
 10
654.3047184307896
 20
261.3604896605285
 30
0.0
 11
654.6876584307895
 21
261.0389626605285
 31
0.0
  0
ARC
  5
FD2
330
12A5
100
AcDbEntity
  8
5
  6
PHANTOM
100
AcDbCircle
 10
665.9991184307898
 20
260.0475666605283
 30
0.0
 40
2.0
100
AcDbArc
 50
27.97947000000001
 51
139.9795310000002
  0
LINE
  5
FD3
330
12A5
100
AcDbEntity
  8
5
  6
PHANTOM
100
AcDbLine
 10
657.52004843079
 20
265.1895536605283
 30
0.0
 11
657.90295843079
 21
264.8680236605283
 31
0.0
  0
LINE
  5
FD4
330
12A5
100
AcDbEntity
  8
5
  6
PHANTOM
100
AcDbLine
 10
667.7653184307895
 20
260.9858796605285
 30
0.0
 11
668.5357684307896
 21
259.5356206605283
 31
0.0
  0
LINE
  5
FD5
330
12A5
100
AcDbEntity
  8
1
  6
Continuous
100
AcDbLine
 10
667.3964284307897
 20
266.8960426605283
 30
0.0
 11
670.2886384307896
 21
266.0990586605284
 31
0.0
  0
ARC
  5
FD6
330
12A5
100
AcDbEntity
  8
5
  6
PHANTOM
100
AcDbCircle
 10
663.8442384307897
 20
268.3667806605285
 30
0.0
 40
2.299999999999998
100
AcDbArc
 50
117.9794709999999
 51
139.9794490000001
  0
ARC
  5
FD7
330
12A5
100
AcDbEntity
  8
1
  6
Continuous
100
AcDbCircle
 10
672.5467584307896
 20
274.2936296605283
 30
0.0
 40
3.0
100
AcDbArc
 50
149.5938110000001
 51
164.5938069999997
  0
LINE
  5
FD8
330
12A5
100
AcDbEntity
  8
5
  6
PHANTOM
100
AcDbLine
 10
745.6639084307894
 20
196.9120376605284
 30
0.0
 11
745.6639084307894
 21
220.6866076605283
 31
0.0
  0
LINE
  5
FD9
330
12A5
100
AcDbEntity
  8
5
  6
PHANTOM
100
AcDbLine
 10
713.8639284307896
 20
196.9120376605284
 30
0.0
 11
713.8639284307896
 21
221.0148706605283
 31
0.0
  0
LINE
  5
FDA
330
12A5
100
AcDbEntity
  8
5
  6
PHANTOM
100
AcDbLine
 10
742.6639084307894
 20
193.9120376605284
 30
0.0
 11
716.8639284307896
 21
193.9120376605284
 31
0.0
  0
LINE
  5
FDB
330
12A5
100
AcDbEntity
  8
5
  6
PHANTOM
100
AcDbLine
 10
761.0639184307898
 20
182.7003376605283
 30
0.0
 11
698.4639262872126
 21
182.7003376605283
 31
0.0
  0
LINE
  5
FDC
330
12A5
100
AcDbEntity
  8
5
  6
PHANTOM
100
AcDbLine
 10
762.7639184307895
 20
185.9003346605283
 30
0.0
 11
696.7639184307897
 21
185.9003346605283
 31
0.0
  0
LINE
  5
FDD
330
12A5
100
AcDbEntity
  8
5
  6
PHANTOM
100
AcDbLine
 10
759.2639184307897
 20
192.2003376605285
 30
0.0
 11
700.2639184307896
 21
192.2003376605285
 31
0.0
  0
ARC
  5
FDE
330
12A5
100
AcDbEntity
  8
5
  6
PHANTOM
100
AcDbCircle
 10
700.2639184307896
 20
188.7003376605283
 30
0.0
 40
3.5
100
AcDbArc
 50
89.99998400000034
 51
179.9999629999999
  0
LINE
  5
FDF
330
12A5
100
AcDbEntity
  8
5
  6
PHANTOM
100
AcDbLine
 10
696.7639184307897
 20
188.7003376605283
 30
0.0
 11
696.7639184307897
 21
185.9003346605283
 31
0.0
  0
LINE
  5
FE0
330
12A5
100
AcDbEntity
  8
5
  6
PHANTOM
100
AcDbLine
 10
697.6064984307901
 20
185.9003266605284
 30
0.0
 11
698.4639284307899
 21
182.7003296605283
 31
0.0
  0
ARC
  5
FE1
330
12A5
100
AcDbEntity
  8
5
  6
PHANTOM
100
AcDbCircle
 10
716.8639284307896
 20
196.9120376605284
 30
0.0
 40
3.0
100
AcDbArc
 50
179.999982
 51
270.0
  0
LINE
  5
FE2
330
12A5
100
AcDbEntity
  8
5
  6
PHANTOM
100
AcDbLine
 10
718.1401984307896
 20
193.9120376605283
 30
0.0
 11
716.7209484307896
 21
192.4931306605283
 31
0.0
  0
ARC
  5
FE3
330
12A5
100
AcDbEntity
  8
5
  6
PHANTOM
100
AcDbCircle
 10
716.0139184307896
 20
193.2003376605283
 30
0.0
 40
1.0
100
AcDbArc
 50
269.9999499999996
 51
314.9929899999999
  0
ARC
  5
FE4
330
12A5
100
AcDbEntity
  8
5
  6
PHANTOM
100
AcDbCircle
 10
743.5139184307895
 20
193.2003376605283
 30
0.0
 40
1.0
100
AcDbArc
 50
225.0070099999998
 51
270.0000600000003
  0
LINE
  5
FE5
330
12A5
100
AcDbEntity
  8
5
  6
PHANTOM
100
AcDbLine
 10
741.3876384307894
 20
193.9120306605283
 30
0.0
 11
742.8068684307894
 21
192.4931386605283
 31
0.0
  0
ARC
  5
FE6
330
12A5
100
AcDbEntity
  8
5
  6
PHANTOM
100
AcDbCircle
 10
742.6639084307894
 20
196.9120376605284
 30
0.0
 40
3.0
100
AcDbArc
 50
270.0
 51
0.0000199999999843
  0
LINE
  5
FE7
330
12A5
100
AcDbEntity
  8
5
  6
PHANTOM
100
AcDbLine
 10
762.7639184307895
 20
188.7003376605283
 30
0.0
 11
762.7639184307895
 21
185.9003346605283
 31
0.0
  0
LINE
  5
FE8
330
12A5
100
AcDbEntity
  8
5
  6
PHANTOM
100
AcDbLine
 10
761.9213384307894
 20
185.9003346605283
 30
0.0
 11
761.0639084307897
 21
182.7003376605283
 31
0.0
  0
ARC
  5
FE9
330
12A5
100
AcDbEntity
  8
5
  6
PHANTOM
100
AcDbCircle
 10
759.2639184307897
 20
188.7003376605283
 30
0.0
 40
3.5
100
AcDbArc
 50
0.0000399999999616
 51
90.00001800000001
  0
LINE
  5
FEA
330
12A5
100
AcDbEntity
  8
1
  6
Continuous
100
AcDbLine
 10
742.6639084307894
 20
218.9124376605283
 30
0.0
 11
716.8639284307896
 21
218.9124376605283
 31
0.0
  0
LINE
  5
FEB
330
12A5
100
AcDbEntity
  8
1
  6
Continuous
100
AcDbLine
 10
761.0639184307898
 20
207.7003406605285
 30
0.0
 11
698.4639284307899
 21
207.7003486605285
 31
0.0
  0
LINE
  5
FEC
330
12A5
100
AcDbEntity
  8
1
  6
Continuous
100
AcDbLine
 10
759.2639184307897
 20
217.2003406605283
 30
0.0
 11
700.2639184307896
 21
217.2003406605283
 31
0.0
  0
LINE
  5
FED
330
12A5
100
AcDbEntity
  8
1
  6
Continuous
100
AcDbLine
 10
762.7639184307895
 20
210.9003526605283
 30
0.0
 11
696.7639184307897
 21
210.9003526605283
 31
0.0
  0
LINE
  5
FEE
330
12A5
100
AcDbEntity
  8
1
  6
Continuous
100
AcDbLine
 10
707.3639284307896
 20
255.5003406605283
 30
0.0
 11
752.1639084307894
 21
255.5003406605283
 31
0.0
  0
LINE
  5
FEF
330
12A5
100
AcDbEntity
  8
1
  6
Continuous
100
AcDbLine
 10
748.3639284307896
 20
245.7003376605283
 30
0.0
 11
711.1639084307896
 21
245.7003376605285
 31
0.0
  0
LINE
  5
FF0
330
12A5
100
AcDbEntity
  8
1
  6
Continuous
100
AcDbLine
 10
713.8639284307896
 20
221.9124376605285
 30
0.0
 11
713.8639284307896
 21
245.7003376605283
 31
0.0
  0
ARC
  5
FF1
330
12A5
100
AcDbEntity
  8
1
  6
Continuous
100
AcDbCircle
 10
700.2639184307896
 20
213.7003406605283
 30
0.0
 40
3.5
100
AcDbArc
 50
89.99998400000034
 51
179.9999629999999
  0
LINE
  5
FF2
330
12A5
100
AcDbEntity
  8
1
  6
Continuous
100
AcDbLine
 10
696.7639184307897
 20
213.7003406605283
 30
0.0
 11
696.7639184307897
 21
210.9003526605283
 31
0.0
  0
LINE
  5
FF3
330
12A5
100
AcDbEntity
  8
1
  6
Continuous
100
AcDbLine
 10
697.6064984307896
 20
210.9003456605285
 30
0.0
 11
698.4639284307899
 21
207.7003486605285
 31
0.0
  0
ARC
  5
FF4
330
12A5
100
AcDbEntity
  8
1
  6
Continuous
100
AcDbCircle
 10
716.8639284307896
 20
221.9124376605285
 30
0.0
 40
3.0
100
AcDbArc
 50
179.999982
 51
270.0
  0
LINE
  5
FF5
330
12A5
100
AcDbEntity
  8
1
  6
Continuous
100
AcDbLine
 10
718.1405784307899
 20
218.9124416605285
 30
0.0
 11
716.7209484307896
 21
217.4931456605283
 31
0.0
  0
ARC
  5
FF6
330
12A5
100
AcDbEntity
  8
1
  6
Continuous
100
AcDbCircle
 10
716.0139184307896
 20
218.2003406605285
 30
0.0
 40
1.0
100
AcDbArc
 50
269.9999499999996
 51
314.9929899999999
  0
LINE
  5
FF7
330
12A5
100
AcDbEntity
  8
1
  6
Continuous
100
AcDbLine
 10
704.6061284307897
 20
277.5534456605284
 30
0.0
 11
710.7750084307897
 21
288.0654546605283
 31
0.0
  0
LINE
  5
FF8
330
12A5
100
AcDbEntity
  8
5
  6
PHANTOM
100
AcDbLine
 10
723.6867884307896
 20
274.4311926605283
 30
0.0
 11
677.2643184307899
 21
256.2994096605283
 31
0.0
  0
LINE
  5
FF9
330
12A5
100
AcDbEntity
  8
5
  6
PHANTOM
100
AcDbLine
 10
702.5575884307898
 20
284.7794286605284
 30
0.0
 11
714.7216184307898
 21
284.0089736605284
 31
0.0
  0
ARC
  5
FFA
330
12A5
100
AcDbEntity
  8
1
  6
Continuous
100
AcDbCircle
 10
707.3639284307896
 20
257.5003406605283
 30
0.0
 40
2.0
100
AcDbArc
 50
179.9999969999998
 51
270.0
  0
CIRCLE
  5
FFB
330
12A5
100
AcDbEntity
  8
5
  6
PHANTOM
100
AcDbCircle
 10
687.9643584307896
 20
269.8570376605285
 30
0.0
 40
3.5
  0
LINE
  5
FFC
330
12A5
100
AcDbEntity
  8
4
  6
CENTER
100
AcDbLine
 10
684.9396984307897
 20
275.5505016605284
 30
0.0
 11
690.8261884307896
 21
264.4700346605284
 31
0.0
  0
LINE
  5
FFD
330
12A5
100
AcDbEntity
  8
4
  6
CENTER
100
AcDbLine
 10
693.4231764307896
 20
272.9535126605283
 30
0.0
 11
682.3427094307894
 21
267.0670226605285
 31
0.0
  0
LINE
  5
FFE
330
12A5
100
AcDbEntity
  8
1
  6
Continuous
100
AcDbLine
 10
705.3639284307896
 20
278.8447616605283
 30
0.0
 11
705.3639284307896
 21
257.5003406605283
 31
0.0
  0
LINE
  5
FFF
330
12A5
100
AcDbEntity
  8
5
  6
PHANTOM
100
AcDbLine
 10
687.9339884307897
 20
283.7688686605283
 30
0.0
 11
697.6589684307897
 21
265.4630046605285
 31
0.0
  0
ARC
  5
1000
330
12A5
100
AcDbEntity
  8
5
  6
PHANTOM
100
AcDbCircle
 10
696.7758484307896
 20
264.9938406605283
 30
0.0
 40
1.0
100
AcDbArc
 50
291.3346999999998
 51
27.97945999999964
  0
LINE
  5
1001
330
12A5
100
AcDbEntity
  8
5
  6
PHANTOM
100
AcDbLine
 10
703.3706884307897
 20
289.3651806605283
 30
0.0
 11
689.0130484307896
 21
281.7376996605284
 31
0.0
  0
ARC
  5
1002
330
12A5
100
AcDbEntity
  8
1
  6
Continuous
100
AcDbCircle
 10
690.4653084307896
 20
280.1301466605283
 30
0.0
 40
10.0
100
AcDbArc
 50
239.5938100000002
 51
303.7574699999997
  0
LINE
  5
1003
330
12A5
100
AcDbEntity
  8
1
  6
Continuous
100
AcDbLine
 10
704.6061084307896
 20
277.5534416605284
 30
0.0
 11
696.0220784307897
 21
271.8161656605285
 31
0.0
  0
LINE
  5
1004
330
12A5
100
AcDbEntity
  8
5
  6
PHANTOM
100
AcDbLine
 10
698.7680084307896
 20
286.9200166605282
 30
0.0
 11
693.5678284307897
 21
289.8574166605283
 31
0.0
  0
LINE
  5
1005
330
12A5
100
AcDbEntity
  8
5
  6
PHANTOM
100
AcDbLine
 10
702.5575784307894
 20
284.7794306605283
 30
0.0
 11
698.7680084307896
 21
286.9200166605282
 31
0.0
  0
LINE
  5
1006
330
12A5
100
AcDbEntity
  8
5
  6
PHANTOM
100
AcDbLine
 10
721.6698584307895
 20
267.1397336605283
 30
0.0
 11
719.7488284307894
 21
272.8930996605283
 31
0.0
  0
ARC
  5
1007
330
12A5
100
AcDbEntity
  8
5
  6
PHANTOM
100
AcDbCircle
 10
729.7322984307895
 20
269.8317616605283
 30
0.0
 40
8.5
100
AcDbArc
 50
198.4639799999997
 51
356.3757999999999
  0
ARC
  5
1008
330
12A5
100
AcDbEntity
  8
1
  6
Continuous
100
AcDbCircle
 10
729.7639184307895
 20
269.5003406605283
 30
0.0
 40
4.099999999999996
100
AcDbArc
 50
179.9999900000002
 51
0.0000100000001992
  0
CIRCLE
  5
1009
330
12A5
100
AcDbEntity
  8
5
  6
PHANTOM
100
AcDbCircle
 10
729.7639184307895
 20
270.3307696605283
 30
0.0
 40
5.5
  0
LINE
  5
100A
330
12A5
100
AcDbEntity
  8
1
  6
Continuous
100
AcDbLine
 10
708.1639084307896
 20
255.5003406605283
 30
0.0
 11
708.1639084307896
 21
248.7003376605283
 31
0.0
  0
ARC
  5
100B
330
12A5
100
AcDbEntity
  8
1
  6
Continuous
100
AcDbCircle
 10
711.1639084307896
 20
248.7003376605283
 30
0.0
 40
3.0
100
AcDbArc
 50
179.9999969999998
 51
270.0
  0
LINE
  5
100C
330
12A5
100
AcDbEntity
  8
1
  6
Continuous
100
AcDbLine
 10
728.9654884307898
 20
286.6671126605283
 30
0.0
 11
712.7892584307897
 21
289.0321676605284
 31
0.0
  0
LINE
  5
100D
330
12A5
100
AcDbEntity
  8
5
  6
PHANTOM
100
AcDbLine
 10
719.7488284307894
 20
272.8930996605283
 30
0.0
 11
716.4922484307896
 21
282.6463826605283
 31
0.0
  0
ARC
  5
100E
330
12A5
100
AcDbEntity
  8
1
  6
Continuous
100
AcDbCircle
 10
712.4999284307898
 20
287.0532046605283
 30
0.0
 40
2.0
100
AcDbArc
 50
81.68197499999966
 51
149.5938079999999
  0
ARC
  5
100F
330
12A5
100
AcDbEntity
  8
5
  6
PHANTOM
100
AcDbCircle
 10
714.5951984307896
 20
282.0129746605283
 30
0.0
 40
2.0
100
AcDbArc
 50
18.46396000000006
 51
86.37580300000006
  0
LINE
  5
1010
330
12A5
100
AcDbEntity
  8
1
  6
Continuous
100
AcDbLine
 10
733.8639284307895
 20
287.4102216605282
 30
0.0
 11
733.8639284307895
 21
269.5003406605283
 31
0.0
  0
LINE
  5
1011
330
12A5
100
AcDbEntity
  8
1
  6
Continuous
100
AcDbLine
 10
725.6639084307894
 20
287.1498236605284
 30
0.0
 11
725.6639084307894
 21
269.5003406605283
 31
0.0
  0
LINE
  5
1012
330
12A5
100
AcDbEntity
  8
1
  6
Continuous
100
AcDbLine
 10
745.6639084307894
 20
221.9124376605285
 30
0.0
 11
745.6639084307894
 21
245.7003376605283
 31
0.0
  0
ARC
  5
1013
330
12A5
100
AcDbEntity
  8
1
  6
Continuous
100
AcDbCircle
 10
743.5139184307895
 20
218.2003406605285
 30
0.0
 40
1.0
100
AcDbArc
 50
225.0070099999998
 51
270.0000600000003
  0
LINE
  5
1014
330
12A5
100
AcDbEntity
  8
1
  6
Continuous
100
AcDbLine
 10
741.3872584307897
 20
218.9124376605283
 30
0.0
 11
742.8068884307895
 21
217.4931456605285
 31
0.0
  0
ARC
  5
1015
330
12A5
100
AcDbEntity
  8
1
  6
Continuous
100
AcDbCircle
 10
742.6639084307894
 20
221.9124376605285
 30
0.0
 40
3.0
100
AcDbArc
 50
270.0
 51
0.0000199999999843
  0
LINE
  5
1016
330
12A5
100
AcDbEntity
  8
1
  6
Continuous
100
AcDbLine
 10
761.9213584307898
 20
210.9003526605283
 30
0.0
 11
761.0639184307898
 21
207.7003566605284
 31
0.0
  0
ARC
  5
1017
330
12A5
100
AcDbEntity
  8
1
  6
Continuous
100
AcDbCircle
 10
759.2639184307897
 20
213.7003406605283
 30
0.0
 40
3.5
100
AcDbArc
 50
0.0000399999999616
 51
90.00001800000001
  0
LINE
  5
1018
330
12A5
100
AcDbEntity
  8
1
  6
Continuous
100
AcDbLine
 10
762.7639184307895
 20
213.7003406605283
 30
0.0
 11
762.7639184307895
 21
210.9003526605283
 31
0.0
  0
ARC
  5
1019
330
12A5
100
AcDbEntity
  8
1
  6
Continuous
100
AcDbCircle
 10
752.1639084307894
 20
257.5003406605283
 30
0.0
 40
2.0
100
AcDbArc
 50
270.0
 51
0.0000100000001992
  0
LINE
  5
101A
330
12A5
100
AcDbEntity
  8
1
  6
Continuous
100
AcDbLine
 10
751.3639084307897
 20
255.5003406605283
 30
0.0
 11
751.3639084307897
 21
248.7003376605283
 31
0.0
  0
ARC
  5
101B
330
12A5
100
AcDbEntity
  8
1
  6
Continuous
100
AcDbCircle
 10
748.3639284307896
 20
248.7003376605283
 30
0.0
 40
3.0
100
AcDbArc
 50
270.0
 51
0.0000100000001992
  0
LINE
  5
101C
330
12A5
100
AcDbEntity
  8
1
  6
Continuous
100
AcDbLine
 10
680.1889384307896
 20
326.1155256605285
 30
0.0
 11
665.2967284307894
 21
332.6379446605287
 31
0.0
  0
LINE
  5
101D
330
12A5
100
AcDbEntity
  8
1
  6
Continuous
100
AcDbLine
 10
681.0906584307897
 20
300.9172126605284
 30
0.0
 11
638.0595384307898
 21
326.0594456605285
 31
0.0
  0
ARC
  5
101E
330
12A5
100
AcDbEntity
  8
1
  6
Continuous
100
AcDbCircle
 10
543.9863606263977
 20
362.7003376605285
 30
0.0
 40
7.0
100
AcDbArc
 50
89.9999969999958
 51
149.999996000001
  0
LINE
  5
101F
330
12A5
100
AcDbEntity
  8
1
  6
Continuous
100
AcDbLine
 10
449.3790916263976
 20
377.7003376605285
 30
0.0
 11
549.3790916263976
 21
377.7003376605285
 31
0.0
  0
LINE
  5
1020
330
12A5
100
AcDbEntity
  8
1
  6
Continuous
100
AcDbLine
 10
449.8790916263976
 20
369.7003376605284
 30
0.0
 11
548.8790916263976
 21
369.7003376605284
 31
0.0
  0
LINE
  5
1021
330
12A5
100
AcDbEntity
  8
4
  6
CENTER
100
AcDbLine
 10
539.3790916263976
 20
365.3965966605284
 30
0.0
 11
539.3790916263976
 21
381.7033896605284
 31
0.0
  0
LINE
  5
1022
330
12A5
100
AcDbEntity
  8
4
  6
CENTER
100
AcDbLine
 10
459.3790916263976
 20
364.9256866605284
 30
0.0
 11
459.3790916263976
 21
381.9902236605283
 31
0.0
  0
ARC
  5
1023
330
12A5
100
AcDbEntity
  8
1
  6
Continuous
100
AcDbCircle
 10
477.1790916263974
 20
343.0808116605283
 30
0.0
 40
2.0
100
AcDbArc
 50
90.0
 51
180.0
  0
ARC
  5
1024
330
12A5
100
AcDbEntity
  8
1
  6
Continuous
100
AcDbCircle
 10
476.8790916263975
 20
343.3798496605283
 30
0.0
 40
4.0
100
AcDbArc
 50
90.0
 51
180.0
  0
LINE
  5
1025
330
12A5
100
AcDbEntity
  8
1
  6
Continuous
100
AcDbLine
 10
475.1790916263977
 20
332.6379380614434
 30
0.0
 11
480.6290916263976
 21
332.6379380614434
 31
0.0
  0
LINE
  5
1026
330
12A5
100
AcDbEntity
  8
1
  6
Continuous
100
AcDbLine
 10
475.1790916263977
 20
329.3356512276712
 30
0.0
 11
477.1790916263976
 21
329.3356512276712
 31
0.0
  0
LINE
  5
1027
330
12A5
100
AcDbEntity
  8
1
  6
Continuous
100
AcDbLine
 10
475.1790916263977
 20
322.8356512276712
 30
0.0
 11
477.1790916263976
 21
322.8356512276712
 31
0.0
  0
ARC
  5
1028
330
12A5
100
AcDbEntity
  8
1
  6
Continuous
100
AcDbCircle
 10
475.5790956263977
 20
314.9359736605283
 30
0.0
 40
0.899999999999977
100
AcDbArc
 50
0.0
 51
116.3880131614661
  0
ARC
  5
1029
330
12A5
100
AcDbEntity
  8
1
  6
Continuous
100
AcDbCircle
 10
475.5790956263977
 20
304.7359736605287
 30
0.0
 40
0.899999999999977
100
AcDbArc
 50
180.0
 51
0.0
  0
LINE
  5
102A
330
12A5
100
AcDbEntity
  8
1
  6
Continuous
100
AcDbLine
 10
474.6790946263976
 20
301.9716882340738
 30
0.0
 11
477.5937133657978
 21
300.0338887297204
 31
0.0
  0
LINE
  5
102B
330
12A5
100
AcDbEntity
  8
4
  6
CENTER
100
AcDbLine
 10
477.8251056263977
 20
309.8359736605284
 30
0.0
 11
463.8426386263976
 21
309.8359736605284
 31
0.0
  0
LINE
  5
102C
330
12A5
100
AcDbEntity
  8
1
  6
Continuous
100
AcDbLine
 10
473.4644728869972
 20
299.7846701648819
 30
0.0
 11
476.3790916263974
 21
297.8468706605283
 31
0.0
  0
LINE
  5
102D
330
12A5
100
AcDbEntity
  8
4
  6
CENTER
100
AcDbLine
 10
531.6922326263977
 20
331.7003376605285
 30
0.0
 11
464.0087756263976
 21
331.7003376605283
 31
0.0
  0
LINE
  5
102E
330
12A5
100
AcDbEntity
  8
4
  6
CENTER
100
AcDbLine
 10
532.0661336263976
 20
295.3003356605283
 30
0.0
 11
464.1378506263976
 21
295.3003356605283
 31
0.0
  0
LINE
  5
102F
330
12A5
100
AcDbEntity
  8
1
  6
Continuous
100
AcDbLine
 10
468.7791006263976
 20
335.7003376605285
 30
0.0
 11
468.7791006263976
 21
333.2909976605283
 31
0.0
  0
LINE
  5
1030
330
12A5
100
AcDbEntity
  8
1
  6
Continuous
100
AcDbLine
 10
475.1790916263973
 20
343.0808116605283
 30
0.0
 11
475.1790916263983
 21
315.8743696463653
 31
0.0
  0
LINE
  5
1031
330
12A5
100
AcDbEntity
  8
1
  6
Continuous
100
AcDbLine
 10
469.8790916263976
 20
342.357827454854
 30
0.0
 11
469.8790916263976
 21
315.1584526605284
 31
0.0
  0
LINE
  5
1032
330
12A5
100
AcDbEntity
  8
1
  6
Continuous
100
AcDbLine
 10
472.1790916263974
 20
339.217492660528
 30
0.0
 11
472.1790916263977
 21
314.728354719165
 31
0.0
  0
LINE
  5
1033
330
12A5
100
AcDbEntity
  8
1
  6
Continuous
100
AcDbLine
 10
468.5790886263975
 20
312.8359766605283
 30
0.0
 11
467.9790916263976
 21
313.8359696605284
 31
0.0
  0
LINE
  5
1034
330
12A5
100
AcDbEntity
  8
1
  6
Continuous
100
AcDbLine
 10
468.5790886263975
 20
333.2909976605283
 30
0.0
 11
468.5790886263974
 21
297.5027816605284
 31
0.0
  0
ARC
  5
1035
330
12A5
100
AcDbEntity
  8
1
  6
Continuous
100
AcDbCircle
 10
468.7790856263977
 20
312.0029346605284
 30
0.0
 40
2.0
100
AcDbArc
 50
113.5781789999979
 51
180.0
  0
LINE
  5
1036
330
12A5
100
AcDbEntity
  8
1
  6
Continuous
100
AcDbLine
 10
474.6790946263976
 20
313.9378833954472
 30
0.0
 11
474.6790946263976
 21
301.9716882340738
 31
0.0
  0
LINE
  5
1037
330
12A5
100
AcDbEntity
  8
1
  6
Continuous
100
AcDbLine
 10
467.9790976263977
 20
313.8359656605283
 30
0.0
 11
467.9790976263977
 21
305.8359656605283
 31
0.0
  0
LINE
  5
1038
330
12A5
100
AcDbEntity
  8
1
  6
Continuous
100
AcDbLine
 10
472.1790916263977
 20
314.728354719165
 30
0.0
 11
469.7375951263073
 21
312.2641426730692
 31
0.0
  0
LINE
  5
1039
330
12A5
100
AcDbEntity
  8
1
  6
Continuous
100
AcDbLine
 10
474.0205851264883
 20
313.0590695399919
 30
0.0
 11
471.579088626398
 21
310.5948574938963
 31
0.0
  0
LINE
  5
103A
330
12A5
100
AcDbEntity
  8
1
  6
Continuous
100
AcDbLine
 10
471.5790886263976
 20
310.5948574938958
 30
0.0
 11
471.5790886263976
 21
297.5027816605284
 31
0.0
  0
ARC
  5
103B
330
12A5
100
AcDbEntity
  8
1
  6
Continuous
100
AcDbCircle
 10
475.6790946263977
 20
303.1156535859417
 30
0.0
 40
4.0
100
AcDbArc
 50
179.999999999999
 51
236.3818456743798
  0
ARC
  5
103C
330
12A5
100
AcDbEntity
  8
1
  6
Continuous
100
AcDbCircle
 10
470.4790976263976
 20
299.3307696605283
 30
0.0
 40
2.0
100
AcDbArc
 50
161.8059533994134
 51
180.0
  0
LINE
  5
103D
330
12A5
100
AcDbEntity
  8
1
  6
Continuous
100
AcDbLine
 10
468.4790976263977
 20
299.3307696605283
 30
0.0
 11
468.4790976263977
 21
291.3307696605283
 31
0.0
  0
LINE
  5
103E
330
12A5
100
AcDbEntity
  8
1
  6
Continuous
100
AcDbLine
 10
468.5790886263974
 20
297.5027816605284
 30
0.0
 11
471.5790886263976
 21
297.5027816605284
 31
0.0
  0
LINE
  5
103F
330
12A5
100
AcDbEntity
  8
1
  6
Continuous
100
AcDbLine
 10
467.9790976263977
 20
305.8359646605283
 30
0.0
 11
468.5790976263977
 21
306.8359696605284
 31
0.0
  0
ARC
  5
1040
330
12A5
100
AcDbEntity
  8
1
  6
Continuous
100
AcDbCircle
 10
468.7790856263977
 20
307.6689966605283
 30
0.0
 40
2.0
100
AcDbArc
 50
180.0
 51
246.4218199999968
  0
LINE
  5
1041
330
12A5
100
AcDbEntity
  8
1
  6
Continuous
100
AcDbLine
 10
466.7790856263977
 20
312.0029346605284
 30
0.0
 11
466.7790856263977
 21
307.6689966605283
 31
0.0
  0
ARC
  5
1042
330
12A5
100
AcDbEntity
  8
1
  6
Continuous
100
AcDbCircle
 10
472.5790886263974
 20
309.448842566696
 30
0.0
 40
4.0
100
AcDbArc
 50
135.2653022700996
 51
180.0
  0
LINE
  5
1043
330
12A5
100
AcDbEntity
  8
1
  6
Continuous
100
AcDbLine
 10
469.8790916263976
 20
315.1584526605284
 30
0.0
 11
472.1790916263976
 21
315.1584526605284
 31
0.0
  0
LINE
  5
1044
330
12A5
100
AcDbEntity
  8
1
  6
Continuous
100
AcDbLine
 10
469.7790916263975
 20
322.1856512276712
 30
0.0
 11
469.8790916263976
 21
322.1856512276712
 31
0.0
  0
ARC
  5
1045
330
12A5
100
AcDbEntity
  8
1
  6
Continuous
100
AcDbCircle
 10
469.7790916263975
 20
323.3856512276712
 30
0.0
 40
1.199999999999999
100
AcDbArc
 50
180.0
 51
270.0
  0
ARC
  5
1046
330
12A5
100
AcDbEntity
  8
1
  6
Continuous
100
AcDbCircle
 10
471.1790916263983
 20
315.8743696463653
 30
0.0
 40
4.0
100
AcDbArc
 50
315.2653022700997
 51
0.0000000000016284
  0
LINE
  5
1047
330
12A5
100
AcDbEntity
  8
1
  6
Continuous
100
AcDbLine
 10
469.8790916263976
 20
333.2909976605283
 30
0.0
 11
468.5790886263975
 21
333.2909976605283
 31
0.0
  0
LINE
  5
1048
330
12A5
100
AcDbEntity
  8
1
  6
Continuous
100
AcDbLine
 10
469.7790916263975
 20
329.9856512276709
 30
0.0
 11
469.8790916263976
 21
329.9856512276709
 31
0.0
  0
ARC
  5
1049
330
12A5
100
AcDbEntity
  8
1
  6
Continuous
100
AcDbCircle
 10
469.7790916263975
 20
328.785651227671
 30
0.0
 40
1.199999999999999
100
AcDbArc
 50
90.0
 51
180.0
  0
LINE
  5
104A
330
12A5
100
AcDbEntity
  8
1
  6
Continuous
100
AcDbLine
 10
460.8340076263976
 20
366.2003376605284
 30
0.0
 11
472.443865745455
 21
346.0914753588045
 31
0.0
  0
ARC
  5
104B
330
12A5
100
AcDbEntity
  8
1
  6
Continuous
100
AcDbCircle
 10
473.8790916263976
 20
342.357827454854
 30
0.0
 40
4.0
100
AcDbArc
 50
90.0
 51
180.0
  0
LINE
  5
104C
330
12A5
100
AcDbEntity
  8
1
  6
Continuous
100
AcDbLine
 10
472.8790916263975
 20
343.3798496605283
 30
0.0
 11
472.8790916263975
 21
339.2174926605284
 31
0.0
  0
LINE
  5
104D
330
12A5
100
AcDbEntity
  8
1
  6
Continuous
100
AcDbLine
 10
473.8790916263976
 20
346.357827454854
 30
0.0
 11
474.2085770212131
 21
346.357827454854
 31
0.0
  0
ARC
  5
104E
330
12A5
100
AcDbEntity
  8
1
  6
Continuous
100
AcDbCircle
 10
470.8790916263976
 20
338.217492660528
 30
0.0
 40
1.0
100
AcDbArc
 50
90.00000000000653
 51
180.0
  0
LINE
  5
104F
330
12A5
100
AcDbEntity
  8
1
  6
Continuous
100
AcDbLine
 10
470.8790916263973
 20
339.217492660528
 30
0.0
 11
475.1790916263976
 21
339.2174926605284
 31
0.0
  0
ARC
  5
1050
330
12A5
100
AcDbEntity
  8
1
  6
Continuous
100
AcDbCircle
 10
470.7791006263976
 20
335.7003376605285
 30
0.0
 40
2.0
100
AcDbArc
 50
116.743972666069
 51
180.0
  0
ARC
  5
1051
330
12A5
100
AcDbEntity
  8
1
  6
Continuous
100
AcDbCircle
 10
454.7718226263977
 20
362.7003376605285
 30
0.0
 40
7.0
100
AcDbArc
 50
30.00000000000054
 51
90.00000399999908
  0
ARC
  5
1052
330
12A5
100
AcDbEntity
  8
1
  6
Continuous
100
AcDbCircle
 10
449.8790916263976
 20
370.2003376605284
 30
0.0
 40
0.5
100
AcDbArc
 50
179.9999969999998
 51
270.0
  0
LINE
  5
1053
330
12A5
100
AcDbEntity
  8
1
  6
Continuous
100
AcDbLine
 10
449.3790916263976
 20
370.2003376605284
 30
0.0
 11
449.3790916263976
 21
377.7003376605285
 31
0.0
  0
LINE
  5
1054
330
12A5
100
AcDbEntity
  8
1
  6
Continuous
100
AcDbLine
 10
516.1290916263976
 20
334.6379380614435
 30
0.0
 11
516.1290916263976
 21
335.9812534087197
 31
0.0
  0
LINE
  5
1055
330
12A5
100
AcDbEntity
  8
1
  6
Continuous
100
AcDbLine
 10
482.6290916263975
 20
334.6379380614435
 30
0.0
 11
482.6290916263975
 21
335.9812534087197
 31
0.0
  0
LINE
  5
1056
330
12A5
100
AcDbEntity
  8
1
  6
Continuous
100
AcDbLine
 10
508.7091526190786
 20
337.9812534087195
 30
0.0
 11
501.9838186263978
 21
326.2119176605283
 31
0.0
  0
LINE
  5
1057
330
12A5
100
AcDbEntity
  8
1
  6
Continuous
100
AcDbLine
 10
489.9421815259022
 20
337.9812534087197
 30
0.0
 11
496.7845546263975
 21
326.1942186605284
 31
0.0
  0
LINE
  5
1058
330
12A5
100
AcDbEntity
  8
1
  6
Continuous
100
AcDbLine
 10
523.5790916263977
 20
343.0808116605283
 30
0.0
 11
523.5790916263969
 21
315.8743696463653
 31
0.0
  0
LINE
  5
1059
330
12A5
100
AcDbEntity
  8
1
  6
Continuous
100
AcDbLine
 10
496.3790916263976
 20
337.9812534087197
 30
0.0
 11
496.3790916263976
 21
327.7003376605286
 31
0.0
  0
LINE
  5
105A
330
12A5
100
AcDbEntity
  8
1
  6
Continuous
100
AcDbLine
 10
502.3790916263973
 20
337.9812534087197
 30
0.0
 11
502.3790916263975
 21
327.7003376605286
 31
0.0
  0
LINE
  5
105B
330
12A5
100
AcDbEntity
  8
1
  6
Continuous
100
AcDbLine
 10
526.5790916263977
 20
339.217492660528
 30
0.0
 11
526.5790916263973
 21
314.728354719165
 31
0.0
  0
LINE
  5
105C
330
12A5
100
AcDbEntity
  8
1
  6
Continuous
100
AcDbLine
 10
528.8790916263976
 20
342.357827454854
 30
0.0
 11
528.8790916263976
 21
315.1584526605284
 31
0.0
  0
ARC
  5
105D
330
12A5
100
AcDbEntity
  8
1
  6
Continuous
100
AcDbCircle
 10
499.3790916263976
 20
308.1766713089835
 30
0.0
 40
17.40764849832541
100
AcDbArc
 50
224.3923540373899
 51
315.60764596261
  0
LINE
  5
105E
330
12A5
100
AcDbEntity
  8
1
  6
Continuous
100
AcDbLine
 10
476.4790956263976
 20
314.9359736605283
 30
0.0
 11
476.4790956263977
 21
304.7359736605287
 31
0.0
  0
LINE
  5
105F
330
12A5
100
AcDbEntity
  8
1
  6
Continuous
100
AcDbLine
 10
477.4790976263978
 20
308.0307366605283
 30
0.0
 11
477.4790976263978
 21
300.1100916031865
 31
0.0
  0
LINE
  5
1060
330
12A5
100
AcDbEntity
  8
1
  6
Continuous
100
AcDbLine
 10
476.3790916263974
 20
296.5997016605284
 30
0.0
 11
485.5110450660676
 21
296.5997016605284
 31
0.0
  0
LINE
  5
1061
330
12A5
100
AcDbEntity
  8
1
  6
Continuous
100
AcDbLine
 10
479.3790916263973
 20
296.7029053086606
 30
0.0
 11
479.3790916263973
 21
296.5997016605284
 31
0.0
  0
ARC
  5
1062
330
12A5
100
AcDbEntity
  8
1
  6
Continuous
100
AcDbCircle
 10
475.3790916263973
 20
296.7029053086606
 30
0.0
 40
4.0
100
AcDbArc
 50
0.0
 51
56.38184567438035
  0
ARC
  5
1063
330
12A5
100
AcDbEntity
  8
1
  6
Continuous
100
AcDbCircle
 10
485.5110450660676
 20
294.5997016605285
 30
0.0
 40
2.0
100
AcDbArc
 50
44.39235403738996
 51
90.0
  0
LINE
  5
1064
330
12A5
100
AcDbEntity
  8
1
  6
Continuous
100
AcDbLine
 10
477.4790976263978
 20
308.0307366605283
 30
0.0
 11
476.4790956263977
 21
308.0307366605283
 31
0.0
  0
LINE
  5
1065
330
12A5
100
AcDbEntity
  8
1
  6
Continuous
100
AcDbLine
 10
477.1790916263976
 20
329.3356512276712
 30
0.0
 11
477.1790916263976
 21
322.8356512276712
 31
0.0
  0
ARC
  5
1066
330
12A5
100
AcDbEntity
  8
1
  6
Continuous
100
AcDbCircle
 10
480.6290916263976
 20
334.6379380614435
 30
0.0
 40
2.0
100
AcDbArc
 50
270.0
 51
0.0
  0
ARC
  5
1067
330
12A5
100
AcDbEntity
  8
1
  6
Continuous
100
AcDbCircle
 10
499.3790916263976
 20
327.7003376605286
 30
0.0
 40
3.0
100
AcDbArc
 50
179.9999899999995
 51
0.0000100000001922
  0
LINE
  5
1068
330
12A5
100
AcDbEntity
  8
1
  6
Continuous
100
AcDbLine
 10
530.1790946263976
 20
312.8359606605284
 30
0.0
 11
530.7790936263976
 21
313.8359536605284
 31
0.0
  0
LINE
  5
1069
330
12A5
100
AcDbEntity
  8
1
  6
Continuous
100
AcDbLine
 10
530.1790946263976
 20
333.2909976605283
 30
0.0
 11
530.1790946263976
 21
297.5027816605284
 31
0.0
  0
LINE
  5
106A
330
12A5
100
AcDbEntity
  8
1
  6
Continuous
100
AcDbLine
 10
530.7790856263976
 20
313.8359656605283
 30
0.0
 11
530.7790856263976
 21
305.8359656605283
 31
0.0
  0
ARC
  5
106B
330
12A5
100
AcDbEntity
  8
1
  6
Continuous
100
AcDbCircle
 10
529.9790976263976
 20
312.0029346605284
 30
0.0
 40
2.0
100
AcDbArc
 50
359.9999899999998
 51
66.42181999999682
  0
LINE
  5
106C
330
12A5
100
AcDbEntity
  8
1
  6
Continuous
100
AcDbLine
 10
524.0790886263976
 20
313.9378833954472
 30
0.0
 11
524.0790886263976
 21
301.9716882340738
 31
0.0
  0
LINE
  5
106D
330
12A5
100
AcDbEntity
  8
1
  6
Continuous
100
AcDbLine
 10
524.0790886263976
 20
313.9378833954472
 30
0.0
 11
524.0790886263976
 21
301.9716882340738
 31
0.0
  0
LINE
  5
106E
330
12A5
100
AcDbEntity
  8
1
  6
Continuous
100
AcDbLine
 10
522.2790876263974
 20
314.9359736605283
 30
0.0
 11
522.2790876263974
 21
304.7359736605287
 31
0.0
  0
LINE
  5
106F
330
12A5
100
AcDbEntity
  8
1
  6
Continuous
100
AcDbLine
 10
526.5790916263973
 20
314.728354719165
 30
0.0
 11
529.0205881264878
 21
312.2641426730692
 31
0.0
  0
LINE
  5
1070
330
12A5
100
AcDbEntity
  8
1
  6
Continuous
100
AcDbLine
 10
524.7375981263068
 20
313.0590695399919
 30
0.0
 11
527.179094626397
 21
310.5948574938963
 31
0.0
  0
LINE
  5
1071
330
12A5
100
AcDbEntity
  8
4
  6
CENTER
100
AcDbLine
 10
520.9330776263974
 20
309.8359736605284
 30
0.0
 11
534.9155446263977
 21
309.8359736605284
 31
0.0
  0
ARC
  5
1072
330
12A5
100
AcDbEntity
  8
1
  6
Continuous
100
AcDbCircle
 10
523.0790886263974
 20
303.1156535859417
 30
0.0
 40
4.0
100
AcDbArc
 50
303.6181543256201
 51
0.0000000000008142
  0
LINE
  5
1073
330
12A5
100
AcDbEntity
  8
1
  6
Continuous
100
AcDbLine
 10
521.2790856263977
 20
308.0307366605283
 30
0.0
 11
521.2790856263977
 21
300.1100916031867
 31
0.0
  0
LINE
  5
1074
330
12A5
100
AcDbEntity
  8
1
  6
Continuous
100
AcDbLine
 10
524.0790886263976
 20
301.9716882340738
 30
0.0
 11
521.1644698869973
 21
300.0338887297204
 31
0.0
  0
LINE
  5
1075
330
12A5
100
AcDbEntity
  8
1
  6
Continuous
100
AcDbLine
 10
513.2471381867276
 20
296.5997016605284
 30
0.0
 11
522.3790916263972
 21
296.5997016605284
 31
0.0
  0
ARC
  5
1076
330
12A5
100
AcDbEntity
  8
1
  6
Continuous
100
AcDbCircle
 10
513.2471381867276
 20
294.5997016605285
 30
0.0
 40
2.0
100
AcDbArc
 50
90.0
 51
135.60764596261
  0
ARC
  5
1077
330
12A5
100
AcDbEntity
  8
1
  6
Continuous
100
AcDbCircle
 10
523.3790916263976
 20
296.7029053086606
 30
0.0
 40
4.0
100
AcDbArc
 50
123.6181543256142
 51
180.0
  0
LINE
  5
1078
330
12A5
100
AcDbEntity
  8
1
  6
Continuous
100
AcDbLine
 10
519.3790916263976
 20
296.7029053086606
 30
0.0
 11
519.3790916263976
 21
296.5997016605284
 31
0.0
  0
LINE
  5
1079
330
12A5
100
AcDbEntity
  8
1
  6
Continuous
100
AcDbLine
 10
525.2937103657977
 20
299.7846701648819
 30
0.0
 11
522.3790916263976
 21
297.8468706605283
 31
0.0
  0
LINE
  5
107A
330
12A5
100
AcDbEntity
  8
1
  6
Continuous
100
AcDbLine
 10
521.2790856263977
 20
308.0307366605283
 30
0.0
 11
522.2790876263974
 21
308.0307366605283
 31
0.0
  0
ARC
  5
107B
330
12A5
100
AcDbEntity
  8
1
  6
Continuous
100
AcDbCircle
 10
523.1790876263974
 20
304.7359736605287
 30
0.0
 40
0.899999999999977
100
AcDbArc
 50
180.0
 51
0.0
  0
LINE
  5
107C
330
12A5
100
AcDbEntity
  8
1
  6
Continuous
100
AcDbLine
 10
527.1790946263977
 20
310.5948574938958
 30
0.0
 11
527.1790946263974
 21
297.5027816605284
 31
0.0
  0
LINE
  5
107D
330
12A5
100
AcDbEntity
  8
1
  6
Continuous
100
AcDbLine
 10
528.5790886263977
 20
297.5027816605284
 30
0.0
 11
528.5790886263977
 21
291.7672626605284
 31
0.0
  0
LINE
  5
107E
330
12A5
100
AcDbEntity
  8
1
  6
Continuous
100
AcDbLine
 10
530.1790946263976
 20
297.5027816605284
 30
0.0
 11
527.1790946263974
 21
297.5027816605284
 31
0.0
  0
LINE
  5
107F
330
12A5
100
AcDbEntity
  8
1
  6
Continuous
100
AcDbLine
 10
531.9790976263978
 20
312.0029346605284
 30
0.0
 11
531.9790976263978
 21
307.6689966605283
 31
0.0
  0
LINE
  5
1080
330
12A5
100
AcDbEntity
  8
1
  6
Continuous
100
AcDbLine
 10
530.7790896263976
 20
305.8359596605283
 30
0.0
 11
530.1790866263977
 21
306.8359676605283
 31
0.0
  0
ARC
  5
1081
330
12A5
100
AcDbEntity
  8
1
  6
Continuous
100
AcDbCircle
 10
529.9790976263976
 20
307.6689966605283
 30
0.0
 40
2.0
100
AcDbArc
 50
293.5781699999989
 51
0.0000100000001922
  0
ARC
  5
1082
330
12A5
100
AcDbEntity
  8
1
  6
Continuous
100
AcDbCircle
 10
526.1790946263977
 20
309.448842566696
 30
0.0
 40
4.0
100
AcDbArc
 50
0.0
 51
44.73469772990031
  0
LINE
  5
1083
330
12A5
100
AcDbEntity
  8
1
  6
Continuous
100
AcDbLine
 10
521.5790916263975
 20
329.3356512276712
 30
0.0
 11
521.5790916263975
 21
322.8356512276712
 31
0.0
  0
LINE
  5
1084
330
12A5
100
AcDbEntity
  8
1
  6
Continuous
100
AcDbLine
 10
523.5790916263976
 20
322.8356512276712
 30
0.0
 11
521.5790916263975
 21
322.8356512276712
 31
0.0
  0
ARC
  5
1085
330
12A5
100
AcDbEntity
  8
1
  6
Continuous
100
AcDbCircle
 10
527.5790916263969
 20
315.8743696463653
 30
0.0
 40
4.0
100
AcDbArc
 50
179.9999999999974
 51
224.7346977299002
  0
ARC
  5
1086
330
12A5
100
AcDbEntity
  8
1
  6
Continuous
100
AcDbCircle
 10
523.1790876263974
 20
314.9359736605283
 30
0.0
 40
0.899999999999977
100
AcDbArc
 50
63.61198683853384
 51
180.0
  0
ARC
  5
1087
330
12A5
100
AcDbEntity
  8
1
  6
Continuous
100
AcDbCircle
 10
518.1290916263976
 20
334.6379380614435
 30
0.0
 40
2.0
100
AcDbArc
 50
180.0
 51
270.0
  0
LINE
  5
1088
330
12A5
100
AcDbEntity
  8
1
  6
Continuous
100
AcDbLine
 10
523.5790916263976
 20
329.3356512276712
 30
0.0
 11
521.5790916263975
 21
329.3356512276712
 31
0.0
  0
LINE
  5
1089
330
12A5
100
AcDbEntity
  8
1
  6
Continuous
100
AcDbLine
 10
523.5790916263976
 20
332.6379380614434
 30
0.0
 11
518.1290916263976
 21
332.6379380614434
 31
0.0
  0
ARC
  5
108A
330
12A5
100
AcDbEntity
  8
1
  6
Continuous
100
AcDbCircle
 10
528.9790916263975
 20
323.3856512276712
 30
0.0
 40
1.199999999999999
100
AcDbArc
 50
270.0
 51
0.0
  0
LINE
  5
108B
330
12A5
100
AcDbEntity
  8
1
  6
Continuous
100
AcDbLine
 10
528.9790916263975
 20
322.1856512276712
 30
0.0
 11
528.8790916263976
 21
322.1856512276712
 31
0.0
  0
LINE
  5
108C
330
12A5
100
AcDbEntity
  8
1
  6
Continuous
100
AcDbLine
 10
528.8790916263976
 20
315.1584526605284
 30
0.0
 11
526.5790916263974
 21
315.1584526605284
 31
0.0
  0
LINE
  5
108D
330
12A5
100
AcDbEntity
  8
1
  6
Continuous
100
AcDbLine
 10
528.8790916263976
 20
333.2909976605283
 30
0.0
 11
530.1790946263976
 21
333.2909976605283
 31
0.0
  0
ARC
  5
108E
330
12A5
100
AcDbEntity
  8
1
  6
Continuous
100
AcDbCircle
 10
528.9790916263975
 20
328.785651227671
 30
0.0
 40
1.199999999999999
100
AcDbArc
 50
0.0
 51
90.0
  0
LINE
  5
108F
330
12A5
100
AcDbEntity
  8
1
  6
Continuous
100
AcDbLine
 10
528.9790916263975
 20
329.9856512276709
 30
0.0
 11
528.8790916263976
 21
329.9856512276709
 31
0.0
  0
LINE
  5
1090
330
12A5
100
AcDbEntity
  8
1
  6
Continuous
100
AcDbLine
 10
476.8790916263975
 20
347.3798496605284
 30
0.0
 11
521.8790916263976
 21
347.3798496605284
 31
0.0
  0
LINE
  5
1091
330
12A5
100
AcDbEntity
  8
1
  6
Continuous
100
AcDbLine
 10
477.1790916263974
 20
345.0808116605283
 30
0.0
 11
521.5790916263975
 21
345.0808116605285
 31
0.0
  0
LINE
  5
1092
330
12A5
100
AcDbEntity
  8
1
  6
Continuous
100
AcDbLine
 10
481.8780306263976
 20
348.6500566605285
 30
0.0
 11
516.8801526263977
 21
348.6500566605284
 31
0.0
  0
LINE
  5
1093
330
12A5
100
AcDbEntity
  8
1
  6
Continuous
100
AcDbLine
 10
484.6290916263976
 20
337.9812534087197
 30
0.0
 11
514.1290916263976
 21
337.9812534087197
 31
0.0
  0
LINE
  5
1094
330
12A5
100
AcDbEntity
  8
1
  6
Continuous
100
AcDbLine
 10
502.1984676263977
 20
364.7255676605283
 30
0.0
 11
508.0441071929011
 21
348.6500566605284
 31
0.0
  0
LINE
  5
1095
330
12A5
100
AcDbEntity
  8
1
  6
Continuous
100
AcDbLine
 10
502.3790916263975
 20
363.7003376605284
 30
0.0
 11
502.3790916263975
 21
348.6500566605284
 31
0.0
  0
LINE
  5
1096
330
12A5
100
AcDbEntity
  8
1
  6
Continuous
100
AcDbLine
 10
496.3790916263976
 20
363.7003376605284
 30
0.0
 11
496.3790916263973
 21
348.6500566605284
 31
0.0
  0
LINE
  5
1097
330
12A5
100
AcDbEntity
  8
1
  6
Continuous
100
AcDbLine
 10
496.5649626263976
 20
364.7399036605284
 30
0.0
 11
490.6212279539404
 21
348.6500566605284
 31
0.0
  0
ARC
  5
1098
330
12A5
100
AcDbEntity
  8
1
  6
Continuous
100
AcDbCircle
 10
484.6290916263976
 20
335.9812534087197
 30
0.0
 40
2.0
100
AcDbArc
 50
90.0
 51
180.0
  0
ARC
  5
1099
330
12A5
100
AcDbEntity
  8
1
  6
Continuous
100
AcDbCircle
 10
481.8780306263976
 20
347.2986776142117
 30
0.0
 40
1.351379046316826
100
AcDbArc
 50
90.0
 51
176.5563940990496
  0
ARC
  5
109A
330
12A5
100
AcDbEntity
  8
1
  6
Continuous
100
AcDbCircle
 10
499.3790916263976
 20
363.7003376605284
 30
0.0
 40
3.0
100
AcDbArc
 50
359.9999899999998
 51
179.9999969999998
  0
LINE
  5
109B
330
12A5
100
AcDbEntity
  8
1
  6
Continuous
100
AcDbLine
 10
537.9241816263977
 20
366.2003416605284
 30
0.0
 11
526.3143229382064
 21
346.0914732711578
 31
0.0
  0
ARC
  5
109C
330
12A5
100
AcDbEntity
  8
1
  6
Continuous
100
AcDbCircle
 10
521.8790916263976
 20
343.3798496605283
 30
0.0
 40
4.0
100
AcDbArc
 50
0.0
 51
90.0
  0
LINE
  5
109D
330
12A5
100
AcDbEntity
  8
1
  6
Continuous
100
AcDbLine
 10
525.8790916263976
 20
339.2174926605284
 30
0.0
 11
523.5790916263977
 21
339.2174926605284
 31
0.0
  0
LINE
  5
109E
330
12A5
100
AcDbEntity
  8
1
  6
Continuous
100
AcDbLine
 10
527.8790916263978
 20
339.217492660528
 30
0.0
 11
523.5790916263977
 21
339.2174926605284
 31
0.0
  0
ARC
  5
109F
330
12A5
100
AcDbEntity
  8
1
  6
Continuous
100
AcDbCircle
 10
524.8790916263977
 20
342.357827454854
 30
0.0
 40
4.0
100
AcDbArc
 50
0.0
 51
90.0
  0
ARC
  5
10A0
330
12A5
100
AcDbEntity
  8
1
  6
Continuous
100
AcDbCircle
 10
514.1290916263976
 20
335.9812534087197
 30
0.0
 40
2.0
100
AcDbArc
 50
0.0
 51
90.0
  0
ARC
  5
10A1
330
12A5
100
AcDbEntity
  8
1
  6
Continuous
100
AcDbCircle
 10
521.5790916263975
 20
343.0808116605283
 30
0.0
 40
2.0
100
AcDbArc
 50
0.0
 51
90.0
  0
LINE
  5
10A2
330
12A5
100
AcDbEntity
  8
1
  6
Continuous
100
AcDbLine
 10
524.8790916263977
 20
346.357827454854
 30
0.0
 11
524.5496062315821
 21
346.357827454854
 31
0.0
  0
ARC
  5
10A3
330
12A5
100
AcDbEntity
  8
1
  6
Continuous
100
AcDbCircle
 10
516.8801526263977
 20
347.2986776142117
 30
0.0
 40
1.351379046316826
100
AcDbArc
 50
3.44360590095025
 51
90.0
  0
ARC
  5
10A4
330
12A5
100
AcDbEntity
  8
1
  6
Continuous
100
AcDbCircle
 10
527.8790916263976
 20
338.217492660528
 30
0.0
 40
1.0
100
AcDbArc
 50
0.0
 51
89.99999999999348
  0
LINE
  5
10A5
330
12A5
100
AcDbEntity
  8
1
  6
Continuous
100
AcDbLine
 10
525.8790916263976
 20
343.3798496605283
 30
0.0
 11
525.8790916263976
 21
339.2174926605284
 31
0.0
  0
LINE
  5
10A6
330
12A5
100
AcDbEntity
  8
1
  6
Continuous
100
AcDbLine
 10
639.2570784307895
 20
346.3707176605284
 30
0.0
 11
604.2716384307896
 21
347.3798416605285
 31
0.0
  0
LINE
  5
10A7
330
12A5
100
AcDbEntity
  8
1
  6
Continuous
100
AcDbLine
 10
614.2750884307896
 20
344.7903336605284
 30
0.0
 11
604.2053584307896
 21
345.0807846605284
 31
0.0
  0
ARC
  5
10A8
330
12A5
100
AcDbEntity
  8
1
  6
Continuous
100
AcDbCircle
 10
548.8790916263976
 20
370.2003376605284
 30
0.0
 40
0.5
100
AcDbArc
 50
270.0
 51
0.0000100000001922
  0
LINE
  5
10A9
330
12A5
100
AcDbEntity
  8
1
  6
Continuous
100
AcDbLine
 10
549.3790916263976
 20
370.2003376605284
 30
0.0
 11
549.3790916263976
 21
377.7003376605285
 31
0.0
  0
LINE
  5
10AA
330
12A5
100
AcDbEntity
  8
1
  6
Continuous
100
AcDbLine
 10
604.2716384307896
 20
347.3798416605285
 30
0.0
 11
604.2053584307896
 21
345.0807846605284
 31
0.0
  0
LINE
  5
10AB
330
12A5
100
AcDbEntity
  8
1
  6
Continuous
100
AcDbLine
 10
635.8377684307896
 20
336.4159486605285
 30
0.0
 11
635.1789284307896
 21
334.9116946605284
 31
0.0
  0
LINE
  5
10AC
330
12A5
100
AcDbEntity
  8
1
  6
Continuous
100
AcDbLine
 10
666.2194284307896
 20
334.7447406605285
 30
0.0
 11
640.1134984307896
 21
346.1784716605285
 31
0.0
  0
LINE
  5
10AD
330
12A5
100
AcDbEntity
  8
4
  6
CENTER
100
AcDbLine
 10
644.1718784307896
 20
337.9963316605283
 30
0.0
 11
639.1476184307898
 21
326.5247776605284
 31
0.0
  0
CIRCLE
  5
10AE
330
12A5
100
AcDbEntity
  8
1
  6
Continuous
100
AcDbCircle
 10
641.5909484307896
 20
332.1034066605285
 30
0.0
 40
2.6
  0
LINE
  5
10AF
330
12A5
100
AcDbEntity
  8
4
  6
CENTER
100
AcDbLine
 10
647.3955254307899
 20
329.7484246605283
 30
0.0
 11
635.9239714307896
 21
334.7726846605283
 31
0.0
  0
ARC
  5
10B0
330
12A5
100
AcDbEntity
  8
1
  6
Continuous
100
AcDbCircle
 10
641.5909484307896
 20
332.1034066605285
 30
0.0
 40
7.0
100
AcDbArc
 50
156.3478099999999
 51
239.7031
  0
ARC
  5
10B1
330
12A5
100
AcDbEntity
  8
1
  6
Continuous
100
AcDbCircle
 10
656.9874284307896
 20
316.1584526605284
 30
0.0
 40
1.0
100
AcDbArc
 50
239.7030699999998
 51
336.3478200000002
  0
CIRCLE
  5
10B2
330
12A5
100
AcDbEntity
  8
1
  6
Continuous
100
AcDbCircle
 10
655.3309084307897
 20
326.0856526605284
 30
0.0
 40
3.5
  0
LINE
  5
10B3
330
12A5
100
AcDbEntity
  8
4
  6
CENTER
100
AcDbLine
 10
661.1470214307896
 20
323.7277636605284
 30
0.0
 11
649.6539754307895
 21
328.7614236605283
 31
0.0
  0
LINE
  5
10B4
330
12A5
100
AcDbEntity
  8
4
  6
CENTER
100
AcDbLine
 10
657.9173284307897
 20
331.9911166605286
 30
0.0
 11
652.8836684307893
 21
320.4980706605285
 31
0.0
  0
LINE
  5
10B5
330
12A5
100
AcDbEntity
  8
1
  6
Continuous
100
AcDbLine
 10
666.2194284307896
 20
334.7447406605283
 30
0.0
 11
657.9034184307896
 21
315.7572686605285
 31
0.0
  0
LINE
  5
10B6
330
12A5
100
AcDbEntity
  8
1
  6
Continuous
100
AcDbLine
 10
634.0634484307896
 20
339.2174966605284
 30
0.0
 11
619.2990484307895
 21
339.6433616605284
 31
0.0
  0
ARC
  5
10B7
330
12A5
100
AcDbEntity
  8
1
  6
Continuous
100
AcDbCircle
 10
612.1463084307895
 20
344.8517356605285
 30
0.0
 40
2.299999999999998
100
AcDbArc
 50
358.3477700000001
 51
88.34781600000004
  0
LINE
  5
10B8
330
12A5
100
AcDbEntity
  8
1
  6
Continuous
100
AcDbLine
 10
623.7779884307895
 20
347.3174026605284
 30
0.0
 11
623.7635484307896
 21
346.8176086605285
 31
0.0
  0
ARC
  5
10B9
330
12A5
100
AcDbEntity
  8
1
  6
Continuous
100
AcDbCircle
 10
619.4432384307896
 20
344.6412706605285
 30
0.0
 40
5.0
100
AcDbArc
 50
178.3477949999998
 51
268.34782
  0
ARC
  5
10BA
330
12A5
100
AcDbEntity
  8
1
  6
Continuous
100
AcDbCircle
 10
612.2070684307897
 20
345.0250446605284
 30
0.0
 40
3.625011999999999
100
AcDbArc
 50
44.74503000000024
 51
131.950282
  0
LINE
  5
10BB
330
12A5
100
AcDbEntity
  8
1
  6
Continuous
100
AcDbLine
 10
609.7836984307897
 20
347.7210666605285
 30
0.0
 11
609.7692884307897
 21
347.2212646605283
 31
0.0
  0
LINE
  5
10BC
330
12A5
100
AcDbEntity
  8
1
  6
Continuous
100
AcDbLine
 10
614.7816484307896
 20
347.5769016605284
 30
0.0
 11
614.7672484307896
 21
347.0771076605284
 31
0.0
  0
ARC
  5
10BD
330
12A5
100
AcDbEntity
  8
1
  6
Continuous
100
AcDbCircle
 10
621.2033084307896
 20
344.7655686605284
 30
0.0
 40
3.625007
100
AcDbArc
 50
44.74503000000024
 51
131.9505109999997
  0
LINE
  5
10BE
330
12A5
100
AcDbEntity
  8
1
  6
Continuous
100
AcDbLine
 10
618.7799384307896
 20
347.4615606605285
 30
0.0
 11
618.7655084307896
 21
346.9617736605284
 31
0.0
  0
LINE
  5
10BF
330
12A5
100
AcDbEntity
  8
1
  6
Continuous
100
AcDbLine
 10
632.7741984307895
 20
347.0579116605284
 30
0.0
 11
632.7597984307896
 21
346.5581176605285
 31
0.0
  0
LINE
  5
10C0
330
12A5
100
AcDbEntity
  8
1
  6
Continuous
100
AcDbLine
 10
627.7762784307896
 20
347.2020776605284
 30
0.0
 11
627.7618784307897
 21
346.7022826605283
 31
0.0
  0
ARC
  5
10C1
330
12A5
100
AcDbEntity
  8
1
  6
Continuous
100
AcDbCircle
 10
639.1907984307895
 20
344.0716606605284
 30
0.0
 40
2.299999999999998
100
AcDbArc
 50
66.34783999999967
 51
88.34781600000004
  0
ARC
  5
10C2
330
12A5
100
AcDbEntity
  8
1
  6
Continuous
100
AcDbCircle
 10
634.0057684307896
 20
337.2183086605285
 30
0.0
 40
2.0
100
AcDbArc
 50
336.3478299999998
 51
88.34789800000027
  0
ARC
  5
10C3
330
12A5
100
AcDbEntity
  8
1
  6
Continuous
100
AcDbCircle
 10
630.1995584307896
 20
344.5060626605284
 30
0.0
 40
3.625019999999997
100
AcDbArc
 50
44.74522999999989
 51
131.950282
  0
ARC
  5
10C4
330
12A5
100
AcDbEntity
  8
5
  6
PHANTOM
100
AcDbCircle
 10
732.1868184307894
 20
333.1689426605284
 30
0.0
 40
7.0
100
AcDbArc
 50
0.6557500000001074
 51
89.18936999999994
  0
ARC
  5
10C5
330
12A5
100
AcDbEntity
  8
1
  6
Continuous
100
AcDbCircle
 10
742.7639184307895
 20
336.7003376605283
 30
0.0
 40
5.0
100
AcDbArc
 50
89.99999699999987
 51
179.9999969999998
  0
LINE
  5
10C6
330
12A5
100
AcDbEntity
  8
4
  6
CENTER
100
AcDbLine
 10
739.7639184307895
 20
331.7003376605285
 30
0.0
 11
719.7639184307896
 21
331.7003376605285
 31
0.0
  0
ARC
  5
10C7
330
12A5
100
AcDbEntity
  8
1
  6
Continuous
100
AcDbCircle
 10
732.4173284307894
 20
330.7070326605284
 30
0.0
 40
7.0
100
AcDbArc
 50
309.0194799999999
 51
37.44434999999993
  0
LINE
  5
10C8
330
12A5
100
AcDbEntity
  8
4
  6
CENTER
100
AcDbLine
 10
739.7639184307895
 20
295.3003356605283
 30
0.0
 11
719.7639184307896
 21
295.3003356605283
 31
0.0
  0
LINE
  5
10C9
330
12A5
100
AcDbEntity
  8
5
  6
PHANTOM
100
AcDbLine
 10
739.5897384307894
 20
298.0040846605285
 30
0.0
 11
739.1863384307896
 21
333.2490546605285
 31
0.0
  0
ARC
  5
10CA
330
12A5
100
AcDbEntity
  8
5
  6
PHANTOM
100
AcDbCircle
 10
731.6413184307897
 20
299.9713716605283
 30
0.0
 40
8.5
100
AcDbArc
 50
21.84365999999978
 51
86.37580300000006
  0
LINE
  5
10CB
330
12A5
100
AcDbEntity
  8
1
  6
Continuous
100
AcDbLine
 10
779.7639184307895
 20
369.7003376605284
 30
0.0
 11
679.7639184307897
 21
369.7003376605284
 31
0.0
  0
LINE
  5
10CC
330
12A5
100
AcDbEntity
  8
1
  6
Continuous
100
AcDbLine
 10
779.7639184307895
 20
377.7003376605285
 30
0.0
 11
679.7639184307897
 21
377.7003376605285
 31
0.0
  0
LINE
  5
10CD
330
12A5
100
AcDbEntity
  8
1
  6
Continuous
100
AcDbLine
 10
707.6216584307896
 20
341.7003376605283
 30
0.0
 11
752.2002484307896
 21
341.7003376605285
 31
0.0
  0
LINE
  5
10CE
330
12A5
100
AcDbEntity
  8
1
  6
Continuous
100
AcDbLine
 10
705.3639284307896
 20
340.3605856605283
 30
0.0
 11
705.3639284307896
 21
330.3128786605285
 31
0.0
  0
LINE
  5
10CF
330
12A5
100
AcDbEntity
  8
1
  6
Continuous
100
AcDbLine
 10
690.9301584307899
 20
366.7003456605284
 30
0.0
 11
703.6985384307899
 21
329.5463576605283
 31
0.0
  0
ARC
  5
10D0
330
12A5
100
AcDbEntity
  8
5
  6
PHANTOM
100
AcDbCircle
 10
729.7046184307895
 20
331.2038666605285
 30
0.0
 40
9.0
100
AcDbArc
 50
89.18936999999994
 51
166.344921
  0
LINE
  5
10D1
330
12A5
100
AcDbEntity
  8
1
  6
Continuous
100
AcDbLine
 10
737.9749284307895
 20
334.9629676605285
 30
0.0
 11
736.4828484307895
 21
336.9114126605286
 31
0.0
  0
LINE
  5
10D2
330
12A5
100
AcDbEntity
  8
1
  6
Continuous
100
AcDbLine
 10
737.7639184307895
 20
336.7003376605283
 30
0.0
 11
737.7639184307895
 21
335.2385226605283
 31
0.0
  0
CIRCLE
  5
10D3
330
12A5
100
AcDbEntity
  8
1
  6
Continuous
100
AcDbCircle
 10
729.7639184307895
 20
331.7003376605285
 30
0.0
 40
5.5
  0
LINE
  5
10D4
330
12A5
100
AcDbEntity
  8
1
  6
Continuous
100
AcDbLine
 10
725.5743884307894
 20
339.6150866605284
 30
0.0
 11
696.5747284307895
 21
326.2675026605285
 31
0.0
  0
ARC
  5
10D5
330
12A5
100
AcDbEntity
  8
1
  6
Continuous
100
AcDbCircle
 10
729.7639184307895
 20
331.7003376605285
 30
0.0
 40
13.0
100
AcDbArc
 50
161.2587669999998
 51
265.59898
  0
CIRCLE
  5
10D6
330
12A5
100
AcDbEntity
  8
1
  6
Continuous
100
AcDbCircle
 10
705.0465284307897
 20
309.8359656605283
 30
0.0
 40
4.0
  0
LINE
  5
10D7
330
12A5
100
AcDbEntity
  8
4
  6
CENTER
100
AcDbLine
 10
712.5465284307897
 20
309.8359656605283
 30
0.0
 11
697.5465284307897
 21
309.8359656605283
 31
0.0
  0
LINE
  5
10D8
330
12A5
100
AcDbEntity
  8
5
  6
PHANTOM
100
AcDbLine
 10
709.4458484307899
 20
313.4012536605283
 30
0.0
 11
685.3912384307895
 21
314.9248436605284
 31
0.0
  0
ARC
  5
10D9
330
12A5
100
AcDbEntity
  8
1
  6
Continuous
100
AcDbCircle
 10
693.7026884307897
 20
322.5027816605284
 30
0.0
 40
25.0
100
AcDbArc
 50
239.7030899999996
 51
309.0194899999999
  0
LINE
  5
10DA
330
12A5
100
AcDbEntity
  8
5
  6
PHANTOM
100
AcDbLine
 10
676.2768584307897
 20
313.1953366605283
 30
0.0
 11
676.8685984307897
 21
310.2542736605284
 31
0.0
  0
LINE
  5
10DB
330
12A5
100
AcDbEntity
  8
5
  6
PHANTOM
100
AcDbLine
 10
688.5060784307897
 20
299.1964846605284
 30
0.0
 11
689.4858584307897
 21
314.6654946605285
 31
0.0
  0
LINE
  5
10DC
330
12A5
100
AcDbEntity
  8
4
  6
CENTER
100
AcDbLine
 10
705.0465284307897
 20
317.3359656605285
 30
0.0
 11
705.0465284307897
 21
302.3359656605283
 31
0.0
  0
LINE
  5
10DD
330
12A5
100
AcDbEntity
  8
1
  6
Continuous
100
AcDbLine
 10
687.2445584307897
 20
298.3513366605285
 30
0.0
 11
685.6831984307896
 21
295.6907226605285
 31
0.0
  0
LINE
  5
10DE
330
12A5
100
AcDbEntity
  8
1
  6
Continuous
100
AcDbLine
 10
684.3146084307896
 20
295.3343916605284
 30
0.0
 11
682.1584684307897
 21
296.5997076605284
 31
0.0
  0
ARC
  5
10DF
330
12A5
100
AcDbEntity
  8
1
  6
Continuous
100
AcDbCircle
 10
684.8207384307896
 20
296.1968506605284
 30
0.0
 40
1.0
100
AcDbArc
 50
239.5938100000002
 51
329.5938200000004
  0
LINE
  5
10E0
330
12A5
100
AcDbEntity
  8
5
  6
PHANTOM
100
AcDbLine
 10
685.2015984307898
 20
311.9308406605286
 30
0.0
 11
676.8685984307897
 21
310.2542736605284
 31
0.0
  0
LINE
  5
10E1
330
12A5
100
AcDbEntity
  8
5
  6
PHANTOM
100
AcDbLine
 10
689.2962184307899
 20
311.6714946605284
 30
0.0
 11
685.2015984307898
 21
311.9308446605284
 31
0.0
  0
ARC
  5
10E2
330
12A5
100
AcDbEntity
  8
1
  6
Continuous
100
AcDbCircle
 10
688.2126184307897
 20
344.4354756605284
 30
0.0
 40
20.0
100
AcDbArc
 50
246.3478100000001
 51
294.7150499999996
  0
LINE
  5
10E3
330
12A5
100
AcDbEntity
  8
5
  6
PHANTOM
100
AcDbLine
 10
684.6098784307896
 20
314.8719036605285
 30
0.0
 11
676.2768584307897
 21
313.1953366605283
 31
0.0
  0
ARC
  5
10E4
330
12A5
100
AcDbEntity
  8
5
  6
PHANTOM
100
AcDbCircle
 10
685.2015984307897
 20
311.9308366605283
 30
0.0
 40
3.0
100
AcDbArc
 50
86.37580300000006
 51
101.3758009999999
  0
LINE
  5
10E5
330
12A5
100
AcDbEntity
  8
5
  6
PHANTOM
100
AcDbLine
 10
709.2878184307896
 20
310.9062546605283
 30
0.0
 11
709.4458484307899
 21
313.4012536605283
 31
0.0
  0
LINE
  5
10E6
330
12A5
100
AcDbEntity
  8
1
  6
Continuous
100
AcDbLine
 10
736.8244184307898
 20
325.2685096605283
 30
0.0
 11
709.4422984307896
 21
303.0794786605283
 31
0.0
  0
LINE
  5
10E7
330
12A5
100
AcDbEntity
  8
5
  6
PHANTOM
100
AcDbLine
 10
720.9589984307898
 20
333.3285536605283
 30
0.0
 11
713.4222784307894
 21
302.3059766605283
 31
0.0
  0
LINE
  5
10E8
330
12A5
100
AcDbEntity
  8
5
  6
PHANTOM
100
AcDbLine
 10
732.1786084307895
 20
308.4543776605284
 30
0.0
 11
715.1775984307896
 21
309.5311996605283
 31
0.0
  0
LINE
  5
10E9
330
12A5
100
AcDbEntity
  8
1
  6
Continuous
100
AcDbLine
 10
734.4972384307896
 20
302.4086106605283
 30
0.0
 11
719.4856084307895
 21
311.2180566605285
 31
0.0
  0
LINE
  5
10EA
330
12A5
100
AcDbEntity
  8
5
  6
PHANTOM
100
AcDbLine
 10
711.9984184307896
 20
298.3320956605283
 30
0.0
 11
712.7176184307897
 21
309.6870106605283
 31
0.0
  0
LINE
  5
10EB
330
12A5
100
AcDbEntity
  8
5
  6
PHANTOM
100
AcDbLine
 10
715.1775984307896
 20
309.5311996605283
 30
0.0
 11
710.2226084307895
 21
309.8450446605284
 31
0.0
  0
ARC
  5
10EC
330
12A5
100
AcDbEntity
  8
5
  6
PHANTOM
100
AcDbCircle
 10
710.2858284307895
 20
310.8430376605284
 30
0.0
 40
1.0
100
AcDbArc
 50
176.3757999999999
 51
266.3758100000003
  0
CIRCLE
  5
10ED
330
12A5
100
AcDbEntity
  8
5
  6
PHANTOM
100
AcDbCircle
 10
731.5639184307898
 20
298.7494636605283
 30
0.0
 40
4.0
  0
CIRCLE
  5
10EE
330
12A5
100
AcDbEntity
  8
1
  6
Continuous
100
AcDbCircle
 10
729.7639184307895
 20
295.3003356605283
 30
0.0
 40
2.0
  0
ARC
  5
10EF
330
12A5
100
AcDbEntity
  8
5
  6
PHANTOM
100
AcDbCircle
 10
729.7639184307895
 20
331.7003376605285
 30
0.0
 40
13.0
100
AcDbArc
 50
212.8947
 51
317.2177499999996
  0
CIRCLE
  5
10F0
330
12A5
100
AcDbEntity
  8
1
  6
Continuous
100
AcDbCircle
 10
729.7639184307895
 20
331.7003376605285
 30
0.0
 40
2.0
  0
LINE
  5
10F1
330
12A5
100
AcDbEntity
  8
1
  6
Continuous
100
AcDbLine
 10
690.6414784307896
 20
367.2003376605285
 30
0.0
 11
704.6940484307895
 21
342.8605776605284
 31
0.0
  0
ARC
  5
10F2
330
12A5
100
AcDbEntity
  8
1
  6
Continuous
100
AcDbCircle
 10
700.3639284307896
 20
340.3605856605283
 30
0.0
 40
5.0
100
AcDbArc
 50
359.9999899999998
 51
30.00000000000023
  0
ARC
  5
10F3
330
12A5
100
AcDbEntity
  8
1
  6
Continuous
100
AcDbCircle
 10
686.3113584307896
 20
364.7003376605285
 30
0.0
 40
5.0
100
AcDbArc
 50
30.00000000000023
 51
89.99999699999987
  0
LINE
  5
10F4
330
12A5
100
AcDbEntity
  8
4
  6
CENTER
100
AcDbLine
 10
689.7639184307896
 20
364.9256866605284
 30
0.0
 11
689.7639184307896
 21
380.5435876605285
 31
0.0
  0
LINE
  5
10F5
330
12A5
100
AcDbEntity
  8
1
  6
Continuous
100
AcDbLine
 10
679.7639184307897
 20
369.7003376605284
 30
0.0
 11
679.7639184307897
 21
377.7003376605285
 31
0.0
  0
ARC
  5
10F6
330
12A5
100
AcDbEntity
  8
1
  6
Continuous
100
AcDbCircle
 10
716.7639184307896
 20
336.7003376605283
 30
0.0
 40
5.0
100
AcDbArc
 50
12.75726999999989
 51
90.00000399999995
  0
ARC
  5
10F7
330
12A5
100
AcDbEntity
  8
1
  6
Continuous
100
AcDbCircle
 10
729.3373484307895
 20
331.4395036605284
 30
0.0
 40
9.0
100
AcDbArc
 50
37.44434999999993
 51
114.7150439999998
  0
LINE
  5
10F8
330
12A5
100
AcDbEntity
  8
5
  6
PHANTOM
100
AcDbLine
 10
729.8319684307897
 20
340.2029696605284
 30
0.0
 11
732.2858584307897
 21
340.1682446605285
 31
0.0
  0
LINE
  5
10F9
330
12A5
100
AcDbEntity
  8
1
  6
Continuous
100
AcDbLine
 10
768.5976884307899
 20
366.7003296605283
 30
0.0
 11
754.1639284307898
 21
324.7003336605284
 31
0.0
  0
ARC
  5
10FA
330
12A5
100
AcDbEntity
  8
5
  6
PHANTOM
100
AcDbCircle
 10
731.6413184307897
 20
299.9713716605283
 30
0.0
 40
8.5
100
AcDbArc
 50
356.3757999999999
 51
21.84365999999978
  0
ARC
  5
10FB
330
12A5
100
AcDbEntity
  8
1
  6
Continuous
100
AcDbCircle
 10
773.2164784307898
 20
364.7003376605285
 30
0.0
 40
5.0
100
AcDbArc
 50
89.99999699999987
 51
149.999999
  0
LINE
  5
10FC
330
12A5
100
AcDbEntity
  8
1
  6
Continuous
100
AcDbLine
 10
768.8863584307897
 20
367.2003376605285
 30
0.0
 11
754.8338084307895
 21
342.8605856605283
 31
0.0
  0
ARC
  5
10FD
330
12A5
100
AcDbEntity
  8
1
  6
Continuous
100
AcDbCircle
 10
759.1639084307894
 20
340.3605856605283
 30
0.0
 40
5.0
100
AcDbArc
 50
149.999999
 51
180.0
  0
LINE
  5
10FE
330
12A5
100
AcDbEntity
  8
4
  6
CENTER
100
AcDbLine
 10
769.7639184307895
 20
365.3965966605284
 30
0.0
 11
769.7639184307895
 21
380.5435876605285
 31
0.0
  0
LINE
  5
10FF
330
12A5
100
AcDbEntity
  8
1
  6
Continuous
100
AcDbLine
 10
779.7639184307895
 20
369.7003376605284
 30
0.0
 11
779.7639184307895
 21
377.7003376605285
 31
0.0
  0
CIRCLE
  5
120B
330
12A5
100
AcDbEntity
  8
1
  6
Continuous
100
AcDbCircle
 10
268.9942648220053
 20
96.04389166052865
 30
0.0
 40
33.0
  0
CIRCLE
  5
120D
330
12A5
100
AcDbEntity
  8
1
  6
Continuous
100
AcDbCircle
 10
268.9942648220053
 20
96.04389166052865
 30
0.0
 40
28.3
  0
CIRCLE
  5
120E
330
12A5
100
AcDbEntity
  8
1
  6
Continuous
100
AcDbCircle
 10
268.9942648220053
 20
96.04389166052865
 30
0.0
 40
25.3
  0
CIRCLE
  5
120F
330
12A5
100
AcDbEntity
  8
1
  6
Continuous
100
AcDbCircle
 10
268.9942648220053
 20
96.04389166052865
 30
0.0
 40
22.29999999999999
  0
CIRCLE
  5
1210
330
12A5
100
AcDbEntity
  8
1
  6
Continuous
100
AcDbCircle
 10
268.9942648220053
 20
96.04389166052865
 30
0.0
 40
19.3
  0
ENDSEC
  0
SECTION
  2
OBJECTS
  0
DICTIONARY
  5
1242
330
0
100
AcDbDictionary
281
     1
  3
ACAD_CIP_PREVIOUS_PRODUCT_INFO
350
12BE
  3
ACAD_COLOR
350
1298
  3
ACAD_DETAILVIEWSTYLE
350
129F
  3
ACAD_GROUP
350
1243
  3
ACAD_LAYOUT
350
1297
  3
ACAD_MATERIAL
350
1246
  3
ACAD_MLEADERSTYLE
350
129B
  3
ACAD_MLINESTYLE
350
1294
  3
ACAD_PLOTSETTINGS
350
1296
  3
ACAD_PLOTSTYLENAME
350
1244
  3
ACAD_SCALELIST
350
1278
  3
ACAD_SECTIONVIEWSTYLE
350
129D
  3
ACAD_TABLESTYLE
350
1299
  3
ACAD_VISUALSTYLE
350
125F
  3
ACDB_RECOMPOSE_DATA
350
12DC
  3
AcDbVariableDictionary
350
12CF
  3
DWGPROPS
350
12DD
  0
DICTIONARY
  5
12BF
330
128A
100
AcDbDictionary
280
     1
281
     1
  3
ADSK_XREC_LAYER_RECONCILED
360
12C0
  0
DICTIONARY
  5
12C1
330
12AD
100
AcDbDictionary
280
     1
281
     1
  3
ADSK_XREC_LAYER_RECONCILED
360
12C2
  0
DICTIONARY
  5
12C3
330
12AE
100
AcDbDictionary
280
     1
281
     1
  3
ADSK_XREC_LAYER_RECONCILED
360
12C4
  0
DICTIONARY
  5
12C5
330
12AF
100
AcDbDictionary
280
     1
281
     1
  3
ADSK_XREC_LAYER_RECONCILED
360
12C6
  0
DICTIONARY
  5
12C7
330
12B0
100
AcDbDictionary
280
     1
281
     1
  3
ADSK_XREC_LAYER_RECONCILED
360
12C8
  0
DICTIONARY
  5
12C9
330
12B1
100
AcDbDictionary
280
     1
281
     1
  3
ADSK_XREC_LAYER_RECONCILED
360
12CA
  0
DICTIONARY
  5
12CB
330
12B2
100
AcDbDictionary
280
     1
281
     1
  3
ADSK_XREC_LAYER_RECONCILED
360
12CC
  0
DICTIONARY
  5
12CD
330
12B3
100
AcDbDictionary
280
     1
281
     1
  3
ADSK_XREC_LAYER_RECONCILED
360
12CE
  0
XRECORD
  5
12BE
102
{ACAD_REACTORS
330
1242
102
}
330
1242
100
AcDbXrecord
280
     1
300
ACDLT
300
2014
300
ACDLT_F_S
  0
DICTIONARY
  5
1298
102
{ACAD_REACTORS
330
1242
102
}
330
1242
100
AcDbDictionary
281
     1
  0
DICTIONARY
  5
129F
102
{ACAD_REACTORS
330
1242
102
}
330
1242
100
AcDbDictionary
281
     1
  3
Imperial24
350
12A0
  0
DICTIONARY
  5
1243
102
{ACAD_REACTORS
330
1242
102
}
330
1242
100
AcDbDictionary
281
     1
  0
DICTIONARY
  5
1297
102
{ACAD_REACTORS
330
1242
102
}
330
1242
100
AcDbDictionary
281
     1
  3
Model
350
12A8
  3
レイアウト1
350
12A4
  0
DICTIONARY
  5
1246
102
{ACAD_REACTORS
330
1242
102
}
330
1242
100
AcDbDictionary
281
     1
  3
ByBlock
350
124F
  3
ByLayer
350
1247
  3
Global
350
1257
  0
DICTIONARY
  5
129B
102
{ACAD_REACTORS
330
1242
102
}
330
1242
100
AcDbDictionary
281
     1
  3
Standard
350
129C
  0
DICTIONARY
  5
1294
102
{ACAD_REACTORS
330
1242
102
}
330
1242
100
AcDbDictionary
281
     1
  3
Standard
350
1295
  0
DICTIONARY
  5
1296
102
{ACAD_REACTORS
330
1242
102
}
330
1242
100
AcDbDictionary
281
     1
  0
ACDBDICTIONARYWDFLT
  5
1244
102
{ACAD_REACTORS
330
1242
102
}
330
1242
100
AcDbDictionary
281
     1
  3
Normal
350
1245
100
AcDbDictionaryWithDefault
340
1245
  0
DICTIONARY
  5
1278
102
{ACAD_REACTORS
330
1242
102
}
330
1242
100
AcDbDictionary
281
     1
  3
A0
350
1279
  3
A1
350
127A
  3
A2
350
127B
  3
A3
350
127C
  3
A4
350
127D
  3
A5
350
127E
  3
A6
350
127F
  3
A7
350
1280
  3
A8
350
1281
  3
A9
350
1282
  3
B0
350
1283
  3
B1
350
1284
  3
B2
350
1285
  3
B3
350
1286
  3
B4
350
1287
  3
B5
350
1288
  3
B6
350
1289
  0
DICTIONARY
  5
129D
102
{ACAD_REACTORS
330
1242
102
}
330
1242
100
AcDbDictionary
281
     1
  3
Imperial24
350
129E
  0
DICTIONARY
  5
1299
102
{ACAD_REACTORS
330
1242
102
}
330
1242
100
AcDbDictionary
281
     1
  3
Standard
350
129A
  0
DICTIONARY
  5
125F
102
{ACAD_REACTORS
330
1242
102
}
330
1242
100
AcDbDictionary
281
     1
  3
2dWireframe
350
1265
  3
Basic
350
1264
  3
Brighten
350
126B
  3
ColorChange
350
126F
  3
Conceptual
350
1268
  3
Dim
350
126A
  3
EdgeColorOff
350
1277
  3
Facepattern
350
126E
  3
Flat
350
1260
  3
FlatWithEdges
350
1261
  3
Gouraud
350
1262
  3
GouraudWithEdges
350
1263
  3
Hidden
350
1267
  3
JitterOff
350
1275
  3
Linepattern
350
126D
  3
OverhangOff
350
1276
  3
Realistic
350
1269
  3
Shaded
350
1274
  3
Shaded with edges
350
1273
  3
Shades of Gray
350
1270
  3
Sketchy
350
1271
  3
Thicken
350
126C
  3
Wireframe
350
1266
  3
X-Ray
350
1272
  0
XRECORD
  5
12DC
102
{ACAD_REACTORS
330
1242
102
}
330
1242
100
AcDbXrecord
280
     1
 90
        1
330
129A
  0
DICTIONARY
  5
12CF
102
{ACAD_REACTORS
330
1242
102
}
330
1242
100
AcDbDictionary
281
     1
  3
CANNOSCALE
350
12D4
  3
CMLEADERSTYLE
350
12D1
  3
CTABLESTYLE
350
12D0
  3
CVIEWDETAILSTYLE
350
12D2
  3
CVIEWSECTIONSTYLE
350
12D3
  3
DIMASSOC
350
12D7
  3
INDEXCTL
350
12D6
  3
SORTENTS
350
12D5
  3
XCLIPFRAME
350
12D8
  0
XRECORD
  5
12DD
102
{ACAD_REACTORS
330
1242
102
}
330
1242
100
AcDbXrecord
280
     1
  1
DWGPROPS COOKIE
  2

  3

  4

  6

  7

  8
Yoshitsune
  9

300
=
301
=
302
=
303
=
304
=
305
=
306
=
307
=
308
=
309
=
 40
0.0080591550925926
 41
2456276.60208147
 42
2457192.691172546
  1

 90
        0
  0
XRECORD
  5
12C0
102
{ACAD_REACTORS
330
12BF
102
}
330
12BF
100
AcDbXrecord
280
     1
290
     1
  0
XRECORD
  5
12C2
102
{ACAD_REACTORS
330
12C1
102
}
330
12C1
100
AcDbXrecord
280
     1
290
     1
  0
XRECORD
  5
12C4
102
{ACAD_REACTORS
330
12C3
102
}
330
12C3
100
AcDbXrecord
280
     1
290
     1
  0
XRECORD
  5
12C6
102
{ACAD_REACTORS
330
12C5
102
}
330
12C5
100
AcDbXrecord
280
     1
290
     1
  0
XRECORD
  5
12C8
102
{ACAD_REACTORS
330
12C7
102
}
330
12C7
100
AcDbXrecord
280
     1
290
     1
  0
XRECORD
  5
12CA
102
{ACAD_REACTORS
330
12C9
102
}
330
12C9
100
AcDbXrecord
280
     1
290
     1
  0
XRECORD
  5
12CC
102
{ACAD_REACTORS
330
12CB
102
}
330
12CB
100
AcDbXrecord
280
     1
290
     1
  0
XRECORD
  5
12CE
102
{ACAD_REACTORS
330
12CD
102
}
330
12CD
100
AcDbXrecord
280
     1
290
     1
  0
ACDBDETAILVIEWSTYLE
  5
12A0
102
{ACAD_XDICTIONARY
360
1315
102
}
102
{ACAD_REACTORS
330
129F
102
}
330
129F
100
AcDbModelDocViewStyle
 70
     0
  3
Imperial24
290
     0
100
AcDbDetailViewStyle
 70
     0
 71
     0
 90
        3
 71
     1
340
128B
 40
0.24
340
0
 40
0.24
300

 40
0.36
280
     3
 71
     2
340
1292
 90
       25
 71
     3
340
128B
 40
0.24
 90
        1
 40
0.75
 90
        1
300
%<\AcVar ViewType \f "%tc1">% %<\AcVar ViewDetailId>%\PSCALE %<\AcVar ViewScale \f "%sn">%
 71
     4
340
1292
 90
       25
340
1292
 90
       25
280
     0
  0
LAYOUT
  5
12A8
102
{ACAD_XDICTIONARY
360
1319
102
}
102
{ACAD_REACTORS
330
1297
102
}
330
1297
100
AcDbPlotSettings
  1

  2
Canon LBP9100C
  4

  6

 40
0.0
 41
0.0
 42
0.0
 43
0.0
 44
0.0
 45
0.0
 46
0.0
 47
0.0
 48
0.0
 49
0.0
140
0.0
141
0.0
142
1.0
143
1.0
 70
  1712
 72
     0
 73
     0
 74
     0
  7

 75
     0
147
1.0
148
0.0
149
0.0
100
AcDbLayout
  1
Model
 70
     1
 71
     0
 10
0.0
 20
0.0
 11
12.0
 21
9.0
 12
0.0
 22
0.0
 32
0.0
 14
0.0
 24
0.0
 34
0.0
 15
0.0
 25
0.0
 35
0.0
146
0.0
 13
0.0
 23
0.0
 33
0.0
 16
1.0
 26
0.0
 36
0.0
 17
0.0
 27
1.0
 37
0.0
 76
     0
330
12A5
331
12A9
  0
LAYOUT
  5
12A4
102
{ACAD_XDICTIONARY
360
1317
102
}
102
{ACAD_REACTORS
330
1297
102
}
330
1297
100
AcDbPlotSettings
  1

  2
Canon LBP9100C
  4

  6

 40
0.0
 41
0.0
 42
0.0
 43
0.0
 44
0.0
 45
0.0
 46
0.0
 47
0.0
 48
0.0
 49
0.0
140
0.0
141
0.0
142
1.0
143
1.0
 70
   688
 72
     0
 73
     0
 74
     5
  7

 75
    16
147
1.0
148
0.0
149
0.0
100
AcDbLayout
  1
レイアウト1
 70
     1
 71
     1
 10
0.0
 20
0.0
 11
420.0
 21
297.0
 12
0.0
 22
0.0
 32
0.0
 14
1.000000000000000E+20
 24
1.000000000000000E+20
 34
1.000000000000000E+20
 15
-1.000000000000000E+20
 25
-1.000000000000000E+20
 35
-1.000000000000000E+20
146
0.0
 13
0.0
 23
0.0
 33
0.0
 16
1.0
 26
0.0
 36
0.0
 17
0.0
 27
1.0
 37
0.0
 76
     0
330
12A1
  0
MATERIAL
  5
124F
102
{ACAD_XDICTIONARY
360
1250
102
}
102
{ACAD_REACTORS
330
1246
102
}
330
1246
100
AcDbMaterial
  1
ByBlock
 72
     0
 43
0.0208333333333333
 43
0.0
 43
0.0
 43
0.0
 43
0.0
 43
0.0208333333333333
 43
0.0
 43
0.0
 43
0.0
 43
0.0
 43
1.0
 43
0.0
 43
0.0
 43
0.0
 43
0.0
 43
1.0
 77
     0
 47
0.0208333333333333
 47
0.0
 47
0.0
 47
0.0
 47
0.0
 47
0.0208333333333333
 47
0.0
 47
0.0
 47
0.0
 47
0.0
 47
1.0
 47
0.0
 47
0.0
 47
0.0
 47
0.0
 47
1.0
171
     0
 49
0.0208333333333333
 49
0.0
 49
0.0
 49
0.0
 49
0.0
 49
0.0208333333333333
 49
0.0
 49
0.0
 49
0.0
 49
0.0
 49
1.0
 49
0.0
 49
0.0
 49
0.0
 49
0.0
 49
1.0
175
     0
142
0.0208333333333333
142
0.0
142
0.0
142
0.0
142
0.0
142
0.0208333333333333
142
0.0
142
0.0
142
0.0
142
0.0
142
1.0
142
0.0
142
0.0
142
0.0
142
0.0
142
1.0
179
     0
144
0.0208333333333333
144
0.0
144
0.0
144
0.0
144
0.0
144
0.0208333333333333
144
0.0
144
0.0
144
0.0
144
0.0
144
1.0
144
0.0
144
0.0
144
0.0
144
0.0
144
1.0
147
0.0208333333333333
147
0.0
147
0.0
147
0.0
147
0.0
147
0.0208333333333333
147
0.0
147
0.0
147
0.0
147
0.0
147
1.0
147
0.0
147
0.0
147
0.0
147
0.0
147
1.0
  0
MATERIAL
  5
1247
102
{ACAD_XDICTIONARY
360
1248
102
}
102
{ACAD_REACTORS
330
1246
102
}
330
1246
100
AcDbMaterial
  1
ByLayer
 72
     0
 43
0.0208333333333333
 43
0.0
 43
0.0
 43
0.0
 43
0.0
 43
0.0208333333333333
 43
0.0
 43
0.0
 43
0.0
 43
0.0
 43
1.0
 43
0.0
 43
0.0
 43
0.0
 43
0.0
 43
1.0
 77
     0
 47
0.0208333333333333
 47
0.0
 47
0.0
 47
0.0
 47
0.0
 47
0.0208333333333333
 47
0.0
 47
0.0
 47
0.0
 47
0.0
 47
1.0
 47
0.0
 47
0.0
 47
0.0
 47
0.0
 47
1.0
171
     0
 49
0.0208333333333333
 49
0.0
 49
0.0
 49
0.0
 49
0.0
 49
0.0208333333333333
 49
0.0
 49
0.0
 49
0.0
 49
0.0
 49
1.0
 49
0.0
 49
0.0
 49
0.0
 49
0.0
 49
1.0
175
     0
142
0.0208333333333333
142
0.0
142
0.0
142
0.0
142
0.0
142
0.0208333333333333
142
0.0
142
0.0
142
0.0
142
0.0
142
1.0
142
0.0
142
0.0
142
0.0
142
0.0
142
1.0
179
     0
144
0.0208333333333333
144
0.0
144
0.0
144
0.0
144
0.0
144
0.0208333333333333
144
0.0
144
0.0
144
0.0
144
0.0
144
1.0
144
0.0
144
0.0
144
0.0
144
0.0
144
1.0
147
0.0208333333333333
147
0.0
147
0.0
147
0.0
147
0.0
147
0.0208333333333333
147
0.0
147
0.0
147
0.0
147
0.0
147
1.0
147
0.0
147
0.0
147
0.0
147
0.0
147
1.0
  0
MATERIAL
  5
1257
102
{ACAD_XDICTIONARY
360
1258
102
}
102
{ACAD_REACTORS
330
1246
102
}
330
1246
100
AcDbMaterial
  1
Global
 72
     0
 43
0.0208333333333333
 43
0.0
 43
0.0
 43
0.0
 43
0.0
 43
0.0208333333333333
 43
0.0
 43
0.0
 43
0.0
 43
0.0
 43
1.0
 43
0.0
 43
0.0
 43
0.0
 43
0.0
 43
1.0
 77
     0
 47
0.0208333333333333
 47
0.0
 47
0.0
 47
0.0
 47
0.0
 47
0.0208333333333333
 47
0.0
 47
0.0
 47
0.0
 47
0.0
 47
1.0
 47
0.0
 47
0.0
 47
0.0
 47
0.0
 47
1.0
171
     0
 49
0.0208333333333333
 49
0.0
 49
0.0
 49
0.0
 49
0.0
 49
0.0208333333333333
 49
0.0
 49
0.0
 49
0.0
 49
0.0
 49
1.0
 49
0.0
 49
0.0
 49
0.0
 49
0.0
 49
1.0
175
     0
142
0.0208333333333333
142
0.0
142
0.0
142
0.0
142
0.0
142
0.0208333333333333
142
0.0
142
0.0
142
0.0
142
0.0
142
1.0
142
0.0
142
0.0
142
0.0
142
0.0
142
1.0
179
     0
144
0.0208333333333333
144
0.0
144
0.0
144
0.0
144
0.0
144
0.0208333333333333
144
0.0
144
0.0
144
0.0
144
0.0
144
1.0
144
0.0
144
0.0
144
0.0
144
0.0
144
1.0
147
0.0208333333333333
147
0.0
147
0.0
147
0.0
147
0.0
147
0.0208333333333333
147
0.0
147
0.0
147
0.0
147
0.0
147
1.0
147
0.0
147
0.0
147
0.0
147
0.0
147
1.0
  0
MLEADERSTYLE
  5
129C
102
{ACAD_REACTORS
330
129B
102
}
330
129B
100
AcDbMLeaderStyle
170
     2
171
     1
172
     0
 90
        2
 40
0.0
 41
0.0
173
     1
 91
-1056964608
340
1290
 92
       -2
290
     1
 42
0.09
291
     1
 43
0.36
  3
Standard
 44
0.18
300

342
128B
174
     1
178
     6
175
     1
176
     0
 93
-1056964608
 45
0.18
292
     0
297
     0
 46
0.18
 94
-1056964608
 47
1.0
 49
1.0
140
1.0
293
     1
141
0.0
294
     1
177
     0
142
1.0
295
     0
296
     0
143
0.125
1001
ACAD_MLEADERVER
1070
     2
  0
MLINESTYLE
  5
1295
102
{ACAD_REACTORS
330
1294
102
}
330
1294
100
AcDbMlineStyle
  2
STANDARD
 70
     0
  3

 62
   256
 51
90.0
 52
90.0
 71
     2
 49
0.5
 62
   256
  6
BYLAYER
 49
-0.5
 62
   256
  6
BYLAYER
  0
ACDBPLACEHOLDER
  5
1245
102
{ACAD_REACTORS
330
1244
102
}
330
1244
  0
SCALE
  5
1279
102
{ACAD_REACTORS
330
1278
102
}
330
1278
100
AcDbScale
 70
     0
300
1:1
140
1.0
141
1.0
290
     1
  0
SCALE
  5
127A
102
{ACAD_REACTORS
330
1278
102
}
330
1278
100
AcDbScale
 70
     0
300
1/128" = 1'-0"
140
0.0078125
141
12.0
290
     0
  0
SCALE
  5
127B
102
{ACAD_REACTORS
330
1278
102
}
330
1278
100
AcDbScale
 70
     0
300
1/64" = 1'-0"
140
0.015625
141
12.0
290
     0
  0
SCALE
  5
127C
102
{ACAD_REACTORS
330
1278
102
}
330
1278
100
AcDbScale
 70
     0
300
1/32" = 1'-0"
140
0.03125
141
12.0
290
     0
  0
SCALE
  5
127D
102
{ACAD_REACTORS
330
1278
102
}
330
1278
100
AcDbScale
 70
     0
300
1/16" = 1'-0"
140
0.0625
141
12.0
290
     0
  0
SCALE
  5
127E
102
{ACAD_REACTORS
330
1278
102
}
330
1278
100
AcDbScale
 70
     0
300
3/32" = 1'-0"
140
0.09375
141
12.0
290
     0
  0
SCALE
  5
127F
102
{ACAD_REACTORS
330
1278
102
}
330
1278
100
AcDbScale
 70
     0
300
1/8" = 1'-0"
140
0.125
141
12.0
290
     0
  0
SCALE
  5
1280
102
{ACAD_REACTORS
330
1278
102
}
330
1278
100
AcDbScale
 70
     0
300
3/16" = 1'-0"
140
0.1875
141
12.0
290
     0
  0
SCALE
  5
1281
102
{ACAD_REACTORS
330
1278
102
}
330
1278
100
AcDbScale
 70
     0
300
1/4" = 1'-0"
140
0.25
141
12.0
290
     0
  0
SCALE
  5
1282
102
{ACAD_REACTORS
330
1278
102
}
330
1278
100
AcDbScale
 70
     0
300
3/8" = 1'-0"
140
0.375
141
12.0
290
     0
  0
SCALE
  5
1283
102
{ACAD_REACTORS
330
1278
102
}
330
1278
100
AcDbScale
 70
     0
300
1/2" = 1'-0"
140
0.5
141
12.0
290
     0
  0
SCALE
  5
1284
102
{ACAD_REACTORS
330
1278
102
}
330
1278
100
AcDbScale
 70
     0
300
3/4" = 1'-0"
140
0.75
141
12.0
290
     0
  0
SCALE
  5
1285
102
{ACAD_REACTORS
330
1278
102
}
330
1278
100
AcDbScale
 70
     0
300
1" = 1'-0"
140
1.0
141
12.0
290
     0
  0
SCALE
  5
1286
102
{ACAD_REACTORS
330
1278
102
}
330
1278
100
AcDbScale
 70
     0
300
1-1/2" = 1'-0"
140
1.5
141
12.0
290
     0
  0
SCALE
  5
1287
102
{ACAD_REACTORS
330
1278
102
}
330
1278
100
AcDbScale
 70
     0
300
3" = 1'-0"
140
3.0
141
12.0
290
     0
  0
SCALE
  5
1288
102
{ACAD_REACTORS
330
1278
102
}
330
1278
100
AcDbScale
 70
     0
300
6" = 1'-0"
140
6.0
141
12.0
290
     0
  0
SCALE
  5
1289
102
{ACAD_REACTORS
330
1278
102
}
330
1278
100
AcDbScale
 70
     0
300
1'-0" = 1'-0"
140
12.0
141
12.0
290
     0
  0
ACDBSECTIONVIEWSTYLE
  5
129E
102
{ACAD_XDICTIONARY
360
1313
102
}
102
{ACAD_REACTORS
330
129D
102
}
330
129D
100
AcDbModelDocViewStyle
 70
     0
  3
Imperial24
290
     0
100
AcDbSectionViewStyle
 70
     0
 71
     0
 90
       78
 71
     1
340
128B
 40
0.24
340
0
340
0
 40
0.24
300
I, O, Q, S, X, Z
 40
0.48
 90
        3
 40
0.18
 90
        1
 71
     2
340
1292
 90
       25
340
1292
 90
       50
 40
0.24
 40
0.0
 40
0.24
 71
     3
340
128B
 40
0.24
 90
        1
 40
0.75
 90
        1
300
%<\AcVar ViewType \f "%tc1">% %<\AcVar ViewSectionStartId>%-%<\AcVar ViewSectionEndId>%\PSCALE %<\AcVar ViewScale \f "%sn">%
 71
     4
300
ANSI31
 40
1.0
 90
        0
290
     0
290
     0
 90
        6
 40
0.0
 40
1.570796326794896
 40
0.2617993877991494
 40
1.308996938995747
 40
-0.2617993877991494
 40
1.832595714594046
  0
TABLESTYLE
  5
129A
102
{ACAD_XDICTIONARY
360
12DA
102
}
102
{ACAD_REACTORS
330
1299
102
}
330
1299
100
AcDbTableStyle
  3
Standard
 70
     0
 71
     0
 40
0.06
 41
0.06
280
     0
281
     0
  7
STANDARD
140
0.18
170
     2
 62
     0
 63
     7
283
     0
274
    -2
284
     1
 64
     0
275
    -2
285
     1
 65
     0
276
    -2
286
     1
 66
     0
277
    -2
287
     1
 67
     0
278
    -2
288
     1
 68
     0
279
    -2
289
     1
 69
     0
  7
STANDARD
140
0.25
170
     5
 62
     0
 63
     7
283
     0
274
    -2
284
     1
 64
     0
275
    -2
285
     1
 65
     0
276
    -2
286
     1
 66
     0
277
    -2
287
     1
 67
     0
278
    -2
288
     1
 68
     0
279
    -2
289
     1
 69
     0
  7
STANDARD
140
0.18
170
     5
 62
     0
 63
     7
283
     0
274
    -2
284
     1
 64
     0
275
    -2
285
     1
 65
     0
276
    -2
286
     1
 66
     0
277
    -2
287
     1
 67
     0
278
    -2
288
     1
 68
     0
279
    -2
289
     1
 69
     0
  0
VISUALSTYLE
  5
1265
102
{ACAD_XDICTIONARY
360
12EB
102
}
102
{ACAD_REACTORS
330
125F
102
}
330
125F
100
AcDbVisualStyle
  2
2dWireframe
 70
     4
 71
     0
 72
     2
 73
     0
 90
        0
 40
-0.6
 41
-30.0
 62
     5
 63
     7
 74
     1
 91
        4
 64
     7
 65
   257
 75
     1
175
     1
 42
1.0
 92
        0
 66
   257
 43
1.0
 76
     1
 77
     6
 78
     2
 67
     7
 79
     5
170
     0
171
     0
290
     0
174
     0
 93
        1
 44
0.0
173
     0
291
     0
 45
0.0
1001
ACAD
1000
AcDbSavedByObjectVersion
1070
     0
  0
VISUALSTYLE
  5
1264
102
{ACAD_XDICTIONARY
360
12E9
102
}
102
{ACAD_REACTORS
330
125F
102
}
330
125F
100
AcDbVisualStyle
  2
Basic
 70
     7
 71
     1
 72
     0
 73
     1
 90
        0
 40
-0.6
 41
-30.0
 62
     5
 63
     7
 74
     0
 91
        4
 64
     7
 65
   257
 75
     1
175
     1
 42
1.0
 92
        8
 66
     7
 43
1.0
 76
     1
 77
     6
 78
     2
 67
     7
 79
     5
170
     0
171
     0
290
     0
174
     0
 93
        1
 44
0.0
173
     0
291
     1
 45
0.0
1001
ACAD
1000
AcDbSavedByObjectVersion
1070
     0
  0
VISUALSTYLE
  5
126B
102
{ACAD_XDICTIONARY
360
12F7
102
}
102
{ACAD_REACTORS
330
125F
102
}
330
125F
100
AcDbVisualStyle
  2
Brighten
 70
    12
 71
     2
 72
     2
 73
     0
 90
        0
 40
-0.6
 41
-30.0
 62
     5
 63
     7
 74
     1
 91
        4
 64
     7
 65
   257
 75
     1
175
     1
 42
1.0
 92
        8
 66
     7
 43
1.0
 76
     1
 77
     6
 78
     2
 67
     7
 79
     5
170
     0
171
     0
290
     0
174
     0
 93
        1
 44
50.0
173
     0
291
     1
 45
0.0
1001
ACAD
1000
AcDbSavedByObjectVersion
1070
     0
  0
VISUALSTYLE
  5
126F
102
{ACAD_XDICTIONARY
360
12FF
102
}
102
{ACAD_REACTORS
330
125F
102
}
330
125F
100
AcDbVisualStyle
  2
ColorChange
 70
    16
 71
     2
 72
     2
 73
     3
 90
        0
 40
-0.6
 41
-30.0
 62
     5
 63
     8
 74
     1
 91
        4
 64
     7
 65
   257
 75
     1
175
     1
 42
1.0
 92
        8
 66
     8
 43
1.0
 76
     1
 77
     6
 78
     2
 67
     7
 79
     5
170
     0
171
     0
290
     0
174
     0
 93
        1
 44
0.0
173
     0
291
     1
 45
0.0
1001
ACAD
1000
AcDbSavedByObjectVersion
1070
     0
  0
VISUALSTYLE
  5
1268
102
{ACAD_XDICTIONARY
360
12F1
102
}
102
{ACAD_REACTORS
330
125F
102
}
330
125F
100
AcDbVisualStyle
  2
Conceptual
 70
     9
 71
     3
 72
     2
 73
     0
 90
        0
 40
-0.6
 41
-30.0
 62
     5
 63
     7
 74
     2
 91
        2
 64
     7
 65
   257
 75
     1
175
     1
 42
179.0
 92
        8
 66
     7
 43
1.0
 76
     1
 77
     6
 78
     2
 67
     7
 79
     3
170
     0
171
     0
290
     0
174
     0
 93
        1
 44
0.0
173
     0
291
     0
 45
0.0
1001
ACAD
1000
AcDbSavedByObjectVersion
1070
     0
  0
VISUALSTYLE
  5
126A
102
{ACAD_XDICTIONARY
360
12F5
102
}
102
{ACAD_REACTORS
330
125F
102
}
330
125F
100
AcDbVisualStyle
  2
Dim
 70
    11
 71
     2
 72
     2
 73
     0
 90
        0
 40
-0.6
 41
-30.0
 62
     5
 63
     7
 74
     1
 91
        4
 64
     7
 65
   257
 75
     1
175
     1
 42
1.0
 92
        8
 66
     7
 43
1.0
 76
     1
 77
     6
 78
     2
 67
     7
 79
     5
170
     0
171
     0
290
     0
174
     0
 93
        1
 44
-50.0
173
     0
291
     1
 45
0.0
1001
ACAD
1000
AcDbSavedByObjectVersion
1070
     0
  0
VISUALSTYLE
  5
1277
102
{ACAD_XDICTIONARY
360
130F
102
}
102
{ACAD_REACTORS
330
125F
102
}
330
125F
100
AcDbVisualStyle
  2
EdgeColorOff
 70
    22
 71
     2
 72
     2
 73
     0
 90
        0
 40
-0.6
 41
-30.0
 62
     5
 63
     7
 74
     1
 91
        4
 64
     7
 65
   257
 75
     1
175
     1
 42
1.0
 92
        8
 66
     7
 43
1.0
 76
     1
 77
     6
 78
     2
 67
     7
 79
     5
170
     0
171
     0
290
     0
174
     0
 93
        1
 44
0.0
173
     0
291
     1
 45
0.0
1001
ACAD
1000
AcDbSavedByObjectVersion
1070
     0
  0
VISUALSTYLE
  5
126E
102
{ACAD_XDICTIONARY
360
12FD
102
}
102
{ACAD_REACTORS
330
125F
102
}
330
125F
100
AcDbVisualStyle
  2
Facepattern
 70
    15
 71
     2
 72
     2
 73
     0
 90
        0
 40
-0.6
 41
-30.0
 62
     5
 63
     7
 74
     1
 91
        4
 64
     7
 65
   257
 75
     1
175
     1
 42
1.0
 92
        8
 66
     7
 43
1.0
 76
     1
 77
     6
 78
     2
 67
     7
 79
     5
170
     0
171
     0
290
     0
174
     0
 93
        1
 44
0.0
173
     0
291
     1
 45
0.0
1001
ACAD
1000
AcDbSavedByObjectVersion
1070
     0
  0
VISUALSTYLE
  5
1260
102
{ACAD_XDICTIONARY
360
12E1
102
}
102
{ACAD_REACTORS
330
125F
102
}
330
125F
100
AcDbVisualStyle
  2
Flat
 70
     0
 71
     2
 72
     1
 73
     1
 90
        2
 40
-0.6
 41
30.0
 62
     5
 63
     7
 74
     0
 91
        0
 64
     7
 65
   257
 75
     1
175
     1
 42
1.0
 92
        8
 66
     7
 43
1.0
 76
     1
 77
     6
 78
     2
 67
     7
 79
     5
170
     0
171
     0
290
     0
174
     0
 93
       13
 44
0.0
173
     0
291
     1
 45
0.0
1001
ACAD
1000
AcDbSavedByObjectVersion
1070
     0
  0
VISUALSTYLE
  5
1261
102
{ACAD_XDICTIONARY
360
12E3
102
}
102
{ACAD_REACTORS
330
125F
102
}
330
125F
100
AcDbVisualStyle
  2
FlatWithEdges
 70
     1
 71
     2
 72
     1
 73
     1
 90
        2
 40
-0.6
 41
30.0
 62
     5
 63
     7
 74
     1
 91
        0
 64
     7
 65
   257
 75
     1
175
     1
 42
1.0
 92
        0
 66
   257
 43
1.0
 76
     1
 77
     6
 78
     2
 67
     7
 79
     5
170
     0
171
     0
290
     0
174
     0
 93
       13
 44
0.0
173
     0
291
     1
 45
0.0
1001
ACAD
1000
AcDbSavedByObjectVersion
1070
     0
  0
VISUALSTYLE
  5
1262
102
{ACAD_XDICTIONARY
360
12E5
102
}
102
{ACAD_REACTORS
330
125F
102
}
330
125F
100
AcDbVisualStyle
  2
Gouraud
 70
     2
 71
     2
 72
     2
 73
     1
 90
        2
 40
-0.6
 41
30.0
 62
     5
 63
     7
 74
     0
 91
        0
 64
     7
 65
   257
 75
     1
175
     1
 42
1.0
 92
        0
 66
     7
 43
1.0
 76
     1
 77
     6
 78
     2
 67
     7
 79
     5
170
     0
171
     0
290
     0
174
     0
 93
       13
 44
0.0
173
     0
291
     1
 45
0.0
1001
ACAD
1000
AcDbSavedByObjectVersion
1070
     0
  0
VISUALSTYLE
  5
1263
102
{ACAD_XDICTIONARY
360
12E7
102
}
102
{ACAD_REACTORS
330
125F
102
}
330
125F
100
AcDbVisualStyle
  2
GouraudWithEdges
 70
     3
 71
     2
 72
     2
 73
     1
 90
        2
 40
-0.6
 41
30.0
 62
     5
 63
     7
 74
     1
 91
        0
 64
     7
 65
   257
 75
     1
175
     1
 42
1.0
 92
        0
 66
   257
 43
1.0
 76
     1
 77
     6
 78
     2
 67
     7
 79
     5
170
     0
171
     0
290
     0
174
     0
 93
       13
 44
0.0
173
     0
291
     1
 45
0.0
1001
ACAD
1000
AcDbSavedByObjectVersion
1070
     0
  0
VISUALSTYLE
  5
1267
102
{ACAD_XDICTIONARY
360
12EF
102
}
102
{ACAD_REACTORS
330
125F
102
}
330
125F
100
AcDbVisualStyle
  2
Hidden
 70
     6
 71
     1
 72
     2
 73
     2
 90
        0
 40
-0.6
 41
-30.0
 62
     5
 63
     7
 74
     2
 91
        2
 64
     7
 65
   257
 75
     2
175
     1
 42
40.0
 92
        0
 66
   257
 43
1.0
 76
     1
 77
     6
 78
     2
 67
     7
 79
     3
170
     0
171
     0
290
     0
174
     0
 93
        1
 44
0.0
173
     0
291
     0
 45
0.0
1001
ACAD
1000
AcDbSavedByObjectVersion
1070
     0
  0
VISUALSTYLE
  5
1275
102
{ACAD_XDICTIONARY
360
130B
102
}
102
{ACAD_REACTORS
330
125F
102
}
330
125F
100
AcDbVisualStyle
  2
JitterOff
 70
    20
 71
     2
 72
     2
 73
     0
 90
        0
 40
-0.6
 41
-30.0
 62
     5
 63
     7
 74
     1
 91
        4
 64
     7
 65
   257
 75
     1
175
     1
 42
1.0
 92
       10
 66
     7
 43
1.0
 76
     1
 77
     6
 78
     2
 67
     7
 79
     5
170
     0
171
     0
290
     0
174
     0
 93
        1
 44
0.0
173
     0
291
     1
 45
0.0
1001
ACAD
1000
AcDbSavedByObjectVersion
1070
     0
  0
VISUALSTYLE
  5
126D
102
{ACAD_XDICTIONARY
360
12FB
102
}
102
{ACAD_REACTORS
330
125F
102
}
330
125F
100
AcDbVisualStyle
  2
Linepattern
 70
    14
 71
     2
 72
     2
 73
     0
 90
        0
 40
-0.6
 41
-30.0
 62
     5
 63
     7
 74
     1
 91
        4
 64
     7
 65
   257
 75
     7
175
     7
 42
1.0
 92
        8
 66
     7
 43
1.0
 76
     1
 77
     6
 78
     2
 67
     7
 79
     5
170
     0
171
     0
290
     0
174
     0
 93
        1
 44
0.0
173
     0
291
     1
 45
0.0
1001
ACAD
1000
AcDbSavedByObjectVersion
1070
     0
  0
VISUALSTYLE
  5
1276
102
{ACAD_XDICTIONARY
360
130D
102
}
102
{ACAD_REACTORS
330
125F
102
}
330
125F
100
AcDbVisualStyle
  2
OverhangOff
 70
    21
 71
     2
 72
     2
 73
     0
 90
        0
 40
-0.6
 41
-30.0
 62
     5
 63
     7
 74
     1
 91
        4
 64
     7
 65
   257
 75
     1
175
     1
 42
1.0
 92
        9
 66
     7
 43
1.0
 76
     1
 77
     6
 78
     2
 67
     7
 79
     5
170
     0
171
     0
290
     0
174
     0
 93
        1
 44
0.0
173
     0
291
     1
 45
0.0
1001
ACAD
1000
AcDbSavedByObjectVersion
1070
     0
  0
VISUALSTYLE
  5
1269
102
{ACAD_XDICTIONARY
360
12F3
102
}
102
{ACAD_REACTORS
330
125F
102
}
330
125F
100
AcDbVisualStyle
  2
Realistic
 70
     8
 71
     2
 72
     3
 73
     0
 90
        2
 40
-0.6
 41
30.0
 62
     5
 63
     7
 74
     0
 91
        0
 64
     7
 65
   257
 75
     1
175
     1
 42
1.0
 92
        8
 66
   257
 43
1.0
 76
     1
 77
     6
 78
     2
 67
     7
 79
     3
170
     0
171
     0
290
     0
174
     0
 93
       13
 44
0.0
173
     0
291
     0
 45
0.0
1001
ACAD
1000
AcDbSavedByObjectVersion
1070
     0
  0
VISUALSTYLE
  5
1274
102
{ACAD_XDICTIONARY
360
1309
102
}
102
{ACAD_REACTORS
330
125F
102
}
330
125F
100
AcDbVisualStyle
  2
Shaded
 70
    27
 71
     2
 72
     2
 73
     1
 90
        2
 40
-0.6
 41
30.0
 62
     5
 63
     7
 74
     0
 91
        4
 64
     7
 65
   257
 75
     1
175
     1
 42
1.0
 92
        8
 66
   257
 43
1.0
 76
     1
 77
     6
 78
     2
 67
     8
 79
     3
170
     0
171
     0
290
     0
174
     0
 93
        5
 44
0.0
173
     0
291
     0
 45
0.0
1001
ACAD
1000
AcDbSavedByObjectVersion
1070
     0
  0
VISUALSTYLE
  5
1273
102
{ACAD_XDICTIONARY
360
1307
102
}
102
{ACAD_REACTORS
330
125F
102
}
330
125F
100
AcDbVisualStyle
  2
Shaded with edges
 70
    26
 71
     2
 72
     2
 73
     1
 90
        2
 40
-0.6
 41
30.0
 62
     5
 63
     7
 74
     1
 91
       10
 64
     7
 65
   257
 75
     2
175
     1
 42
1.0
 92
        8
 66
   257
 43
1.0
 76
     1
 77
     6
 78
     2
 67
     7
 79
     3
170
     0
171
     0
290
     0
174
     0
 93
        5
 44
0.0
173
     0
291
     0
 45
0.0
1001
ACAD
1000
AcDbSavedByObjectVersion
1070
     0
  0
VISUALSTYLE
  5
1270
102
{ACAD_XDICTIONARY
360
1301
102
}
102
{ACAD_REACTORS
330
125F
102
}
330
125F
100
AcDbVisualStyle
  2
Shades of Gray
 70
    23
 71
     2
 72
     2
 73
     3
 90
        0
 40
-0.6
 41
-30.0
 62
     5
 63
     7
 74
     2
 91
        2
 64
     7
 65
     7
 75
     1
175
     1
 42
40.0
 92
        8
 66
     7
 43
1.0
 76
     1
 77
     6
 78
     2
 67
     7
 79
     3
170
     0
171
     0
290
     0
174
     0
 93
        1
 44
0.0
173
     0
291
     0
 45
0.0
1001
ACAD
1000
AcDbSavedByObjectVersion
1070
     0
  0
VISUALSTYLE
  5
1271
102
{ACAD_XDICTIONARY
360
1303
102
}
102
{ACAD_REACTORS
330
125F
102
}
330
125F
100
AcDbVisualStyle
  2
Sketchy
 70
    24
 71
     1
 72
     2
 73
     2
 90
        0
 40
-0.6
 41
-30.0
 62
     5
 63
     7
 74
     2
 91
        2
 64
     7
 65
     7
 75
     1
175
     1
 42
40.0
 92
       11
 66
     7
 43
1.0
 76
     1
 77
     6
 78
     2
 67
     7
 79
     6
170
     0
171
     0
290
     0
174
     0
 93
        1
 44
0.0
173
     0
291
     0
 45
0.0
1001
ACAD
1000
AcDbSavedByObjectVersion
1070
     0
  0
VISUALSTYLE
  5
126C
102
{ACAD_XDICTIONARY
360
12F9
102
}
102
{ACAD_REACTORS
330
125F
102
}
330
125F
100
AcDbVisualStyle
  2
Thicken
 70
    13
 71
     2
 72
     2
 73
     0
 90
        0
 40
-0.6
 41
-30.0
 62
     5
 63
     7
 74
     1
 91
        4
 64
     7
 65
   257
 75
     1
175
     1
 42
1.0
 92
       12
 66
     7
 43
1.0
 76
     1
 77
     6
 78
     2
 67
     7
 79
     5
170
     0
171
     0
290
     0
174
     0
 93
        1
 44
0.0
173
     0
291
     1
 45
0.0
1001
ACAD
1000
AcDbSavedByObjectVersion
1070
     0
  0
VISUALSTYLE
  5
1266
102
{ACAD_XDICTIONARY
360
12ED
102
}
102
{ACAD_REACTORS
330
125F
102
}
330
125F
100
AcDbVisualStyle
  2
Wireframe
 70
     5
 71
     0
 72
     2
 73
     0
 90
        0
 40
-0.6
 41
-30.0
 62
     5
 63
     7
 74
     1
 91
        4
 64
     7
 65
   257
 75
     1
175
     1
 42
1.0
 92
        0
 66
   257
 43
1.0
 76
     1
 77
     6
 78
     2
 67
     7
 79
     3
170
     0
171
     0
290
     0
174
     0
 93
        1
 44
0.0
173
     0
291
     0
 45
0.0
1001
ACAD
1000
AcDbSavedByObjectVersion
1070
     0
  0
VISUALSTYLE
  5
1272
102
{ACAD_XDICTIONARY
360
1305
102
}
102
{ACAD_REACTORS
330
125F
102
}
330
125F
100
AcDbVisualStyle
  2
X-Ray
 70
    25
 71
     2
 72
     2
 73
     1
 90
        1
 40
0.5
 41
-30.0
 62
     5
 63
     7
 74
     1
 91
        0
 64
     7
 65
   257
 75
     1
175
     1
 42
1.0
 92
        8
 66
     7
 43
1.0
 76
     1
 77
     6
 78
     2
 67
     7
 79
     3
170
     0
171
     0
290
     0
174
     0
 93
       13
 44
0.0
173
     0
291
     0
 45
0.0
1001
ACAD
1000
AcDbSavedByObjectVersion
1070
     0
  0
DICTIONARYVAR
  5
12D4
102
{ACAD_REACTORS
330
12CF
102
}
330
12CF
100
DictionaryVariables
280
     0
  1
1:1
  0
DICTIONARYVAR
  5
12D1
102
{ACAD_REACTORS
330
12CF
102
}
330
12CF
100
DictionaryVariables
280
     0
  1
STANDARD
  0
DICTIONARYVAR
  5
12D0
102
{ACAD_REACTORS
330
12CF
102
}
330
12CF
100
DictionaryVariables
280
     0
  1
STANDARD
  0
DICTIONARYVAR
  5
12D2
102
{ACAD_REACTORS
330
12CF
102
}
330
12CF
100
DictionaryVariables
280
     0
  1
Imperial24
  0
DICTIONARYVAR
  5
12D3
102
{ACAD_REACTORS
330
12CF
102
}
330
12CF
100
DictionaryVariables
280
     0
  1
Imperial24
  0
DICTIONARYVAR
  5
12D7
102
{ACAD_REACTORS
330
12CF
102
}
330
12CF
100
DictionaryVariables
280
     0
  1
1
  0
DICTIONARYVAR
  5
12D6
102
{ACAD_REACTORS
330
12CF
102
}
330
12CF
100
DictionaryVariables
280
     0
  1
0
  0
DICTIONARYVAR
  5
12D5
102
{ACAD_REACTORS
330
12CF
102
}
330
12CF
100
DictionaryVariables
280
     0
  1
127
  0
DICTIONARYVAR
  5
12D8
102
{ACAD_REACTORS
330
12CF
102
}
330
12CF
100
DictionaryVariables
280
     0
  1
2
  0
DICTIONARY
  5
1315
330
12A0
100
AcDbDictionary
280
     1
281
     1
  3
ACAD_XREC_ROUNDTRIP
360
1316
  0
DICTIONARY
  5
1319
330
12A8
100
AcDbDictionary
280
     1
281
     1
  3
ACAD_XREC_ROUNDTRIP
360
131A
  0
DICTIONARY
  5
1317
330
12A4
100
AcDbDictionary
280
     1
281
     1
  3
ACAD_XREC_ROUNDTRIP
360
1318
  0
DICTIONARY
  5
1250
330
124F
100
AcDbDictionary
280
     1
281
     1
  3
ACAD_XREC_ROUNDTRIP
360
12DF
  3
BUMPTILE
360
1252
  3
DIFFUSETILE
360
1251
  3
OPACITYTILE
360
1255
  3
REFLECTIONTILE
360
1254
  3
REFRACTIONTILE
360
1256
  3
SPECULARTILE
360
1253
  0
DICTIONARY
  5
1248
330
1247
100
AcDbDictionary
280
     1
281
     1
  3
ACAD_XREC_ROUNDTRIP
360
12DE
  3
BUMPTILE
360
124A
  3
DIFFUSETILE
360
1249
  3
OPACITYTILE
360
124D
  3
REFLECTIONTILE
360
124C
  3
REFRACTIONTILE
360
124E
  3
SPECULARTILE
360
124B
  0
DICTIONARY
  5
1258
330
1257
100
AcDbDictionary
280
     1
281
     1
  3
ACAD_XREC_ROUNDTRIP
360
12E0
  3
BUMPTILE
360
125A
  3
DIFFUSETILE
360
1259
  3
OPACITYTILE
360
125D
  3
REFLECTIONTILE
360
125C
  3
REFRACTIONTILE
360
125E
  3
SPECULARTILE
360
125B
  0
DICTIONARY
  5
1313
330
129E
100
AcDbDictionary
280
     1
281
     1
  3
ACAD_XREC_ROUNDTRIP
360
1314
  0
DICTIONARY
  5
12DA
330
129A
100
AcDbDictionary
280
     1
281
     1
  3
ACAD_ROUNDTRIP_2008_TABLESTYLE_CELLSTYLEMAP
360
12DB
  3
ACAD_XREC_ROUNDTRIP
360
1311
  0
DICTIONARY
  5
12EB
330
1265
100
AcDbDictionary
280
     1
281
     1
  3
ACAD_XREC_ROUNDTRIP
360
12EC
  0
DICTIONARY
  5
12E9
330
1264
100
AcDbDictionary
280
     1
281
     1
  3
ACAD_XREC_ROUNDTRIP
360
12EA
  0
DICTIONARY
  5
12F7
330
126B
100
AcDbDictionary
280
     1
281
     1
  3
ACAD_XREC_ROUNDTRIP
360
12F8
  0
DICTIONARY
  5
12FF
330
126F
100
AcDbDictionary
280
     1
281
     1
  3
ACAD_XREC_ROUNDTRIP
360
1300
  0
DICTIONARY
  5
12F1
330
1268
100
AcDbDictionary
280
     1
281
     1
  3
ACAD_XREC_ROUNDTRIP
360
12F2
  0
DICTIONARY
  5
12F5
330
126A
100
AcDbDictionary
280
     1
281
     1
  3
ACAD_XREC_ROUNDTRIP
360
12F6
  0
DICTIONARY
  5
130F
330
1277
100
AcDbDictionary
280
     1
281
     1
  3
ACAD_XREC_ROUNDTRIP
360
1310
  0
DICTIONARY
  5
12FD
330
126E
100
AcDbDictionary
280
     1
281
     1
  3
ACAD_XREC_ROUNDTRIP
360
12FE
  0
DICTIONARY
  5
12E1
330
1260
100
AcDbDictionary
280
     1
281
     1
  3
ACAD_XREC_ROUNDTRIP
360
12E2
  0
DICTIONARY
  5
12E3
330
1261
100
AcDbDictionary
280
     1
281
     1
  3
ACAD_XREC_ROUNDTRIP
360
12E4
  0
DICTIONARY
  5
12E5
330
1262
100
AcDbDictionary
280
     1
281
     1
  3
ACAD_XREC_ROUNDTRIP
360
12E6
  0
DICTIONARY
  5
12E7
330
1263
100
AcDbDictionary
280
     1
281
     1
  3
ACAD_XREC_ROUNDTRIP
360
12E8
  0
DICTIONARY
  5
12EF
330
1267
100
AcDbDictionary
280
     1
281
     1
  3
ACAD_XREC_ROUNDTRIP
360
12F0
  0
DICTIONARY
  5
130B
330
1275
100
AcDbDictionary
280
     1
281
     1
  3
ACAD_XREC_ROUNDTRIP
360
130C
  0
DICTIONARY
  5
12FB
330
126D
100
AcDbDictionary
280
     1
281
     1
  3
ACAD_XREC_ROUNDTRIP
360
12FC
  0
DICTIONARY
  5
130D
330
1276
100
AcDbDictionary
280
     1
281
     1
  3
ACAD_XREC_ROUNDTRIP
360
130E
  0
DICTIONARY
  5
12F3
330
1269
100
AcDbDictionary
280
     1
281
     1
  3
ACAD_XREC_ROUNDTRIP
360
12F4
  0
DICTIONARY
  5
1309
330
1274
100
AcDbDictionary
280
     1
281
     1
  3
ACAD_XREC_ROUNDTRIP
360
130A
  0
DICTIONARY
  5
1307
330
1273
100
AcDbDictionary
280
     1
281
     1
  3
ACAD_XREC_ROUNDTRIP
360
1308
  0
DICTIONARY
  5
1301
330
1270
100
AcDbDictionary
280
     1
281
     1
  3
ACAD_XREC_ROUNDTRIP
360
1302
  0
DICTIONARY
  5
1303
330
1271
100
AcDbDictionary
280
     1
281
     1
  3
ACAD_XREC_ROUNDTRIP
360
1304
  0
DICTIONARY
  5
12F9
330
126C
100
AcDbDictionary
280
     1
281
     1
  3
ACAD_XREC_ROUNDTRIP
360
12FA
  0
DICTIONARY
  5
12ED
330
1266
100
AcDbDictionary
280
     1
281
     1
  3
ACAD_XREC_ROUNDTRIP
360
12EE
  0
DICTIONARY
  5
1305
330
1272
100
AcDbDictionary
280
     1
281
     1
  3
ACAD_XREC_ROUNDTRIP
360
1306
  0
XRECORD
  5
1316
102
{ACAD_REACTORS
330
1315
102
}
330
1315
100
AcDbXrecord
280
     1
102
DISPLAYNAME
  1
Imperial24
102
FLAGS
 90
        0
  0
XRECORD
  5
131A
102
{ACAD_REACTORS
330
1319
102
}
330
1319
100
AcDbXrecord
280
     1
102
SHADEPLOT
 70
     0
102
SHADEPLOTRESLEVEL
 70
     2
102
SHADEPLOTCUSTOMDPI
 70
   300
  0
XRECORD
  5
1318
102
{ACAD_REACTORS
330
1317
102
}
330
1317
100
AcDbXrecord
280
     1
102
SHADEPLOT
 70
     0
102
SHADEPLOTRESLEVEL
 70
     2
102
SHADEPLOTCUSTOMDPI
 70
   300
  0
XRECORD
  5
12DF
102
{ACAD_REACTORS
330
1250
102
}
330
1250
100
AcDbXrecord
280
     1
102
MATERIAL
148
0.0
149
0.0
149
0.0
 93
        0
 94
      127
282
     0
 72
     0
 77
     0
171
     0
175
     0
179
     0
273
     0
  0
XRECORD
  5
1252
102
{ACAD_REACTORS
330
1250
102
}
330
1250
100
AcDbXrecord
280
     1
270
     1
271
     1
  0
XRECORD
  5
1251
102
{ACAD_REACTORS
330
1250
102
}
330
1250
100
AcDbXrecord
280
     1
270
     1
271
     1
  0
XRECORD
  5
1255
102
{ACAD_REACTORS
330
1250
102
}
330
1250
100
AcDbXrecord
280
     1
270
     1
271
     1
  0
XRECORD
  5
1254
102
{ACAD_REACTORS
330
1250
102
}
330
1250
100
AcDbXrecord
280
     1
270
     1
271
     1
  0
XRECORD
  5
1256
102
{ACAD_REACTORS
330
1250
102
}
330
1250
100
AcDbXrecord
280
     1
270
     1
271
     1
  0
XRECORD
  5
1253
102
{ACAD_REACTORS
330
1250
102
}
330
1250
100
AcDbXrecord
280
     1
270
     1
271
     1
  0
XRECORD
  5
12DE
102
{ACAD_REACTORS
330
1248
102
}
330
1248
100
AcDbXrecord
280
     1
102
MATERIAL
148
0.0
149
0.0
149
0.0
 93
        0
 94
      127
282
     0
 72
     0
 77
     0
171
     0
175
     0
179
     0
273
     0
  0
XRECORD
  5
124A
102
{ACAD_REACTORS
330
1248
102
}
330
1248
100
AcDbXrecord
280
     1
270
     1
271
     1
  0
XRECORD
  5
1249
102
{ACAD_REACTORS
330
1248
102
}
330
1248
100
AcDbXrecord
280
     1
270
     1
271
     1
  0
XRECORD
  5
124D
102
{ACAD_REACTORS
330
1248
102
}
330
1248
100
AcDbXrecord
280
     1
270
     1
271
     1
  0
XRECORD
  5
124C
102
{ACAD_REACTORS
330
1248
102
}
330
1248
100
AcDbXrecord
280
     1
270
     1
271
     1
  0
XRECORD
  5
124E
102
{ACAD_REACTORS
330
1248
102
}
330
1248
100
AcDbXrecord
280
     1
270
     1
271
     1
  0
XRECORD
  5
124B
102
{ACAD_REACTORS
330
1248
102
}
330
1248
100
AcDbXrecord
280
     1
270
     1
271
     1
  0
XRECORD
  5
12E0
102
{ACAD_REACTORS
330
1258
102
}
330
1258
100
AcDbXrecord
280
     1
102
MATERIAL
148
0.0
149
0.0
149
0.0
 93
        0
 94
      127
282
     0
 72
     0
 77
     0
171
     0
175
     0
179
     0
273
     0
  0
XRECORD
  5
125A
102
{ACAD_REACTORS
330
1258
102
}
330
1258
100
AcDbXrecord
280
     1
270
     1
271
     1
  0
XRECORD
  5
1259
102
{ACAD_REACTORS
330
1258
102
}
330
1258
100
AcDbXrecord
280
     1
270
     1
271
     1
  0
XRECORD
  5
125D
102
{ACAD_REACTORS
330
1258
102
}
330
1258
100
AcDbXrecord
280
     1
270
     1
271
     1
  0
XRECORD
  5
125C
102
{ACAD_REACTORS
330
1258
102
}
330
1258
100
AcDbXrecord
280
     1
270
     1
271
     1
  0
XRECORD
  5
125E
102
{ACAD_REACTORS
330
1258
102
}
330
1258
100
AcDbXrecord
280
     1
270
     1
271
     1
  0
XRECORD
  5
125B
102
{ACAD_REACTORS
330
1258
102
}
330
1258
100
AcDbXrecord
280
     1
270
     1
271
     1
  0
XRECORD
  5
1314
102
{ACAD_REACTORS
330
1313
102
}
330
1313
100
AcDbXrecord
280
     1
102
DISPLAYNAME
  1
Imperial24
102
FLAGS
 90
        0
  0
CELLSTYLEMAP
  5
12DB
102
{ACAD_REACTORS
330
12DA
102
}
330
12DA
100
AcDbCellStyleMap
 90
        3
300
CELLSTYLE
  1
TABLEFORMAT_BEGIN
 90
        5
170
     1
 91
        0
 92
    32768
 62
   257
 93
        1
300
CONTENTFORMAT
  1
CONTENTFORMAT_BEGIN
 90
        0
 91
        0
 92
      512
 93
        0
300

 40
0.0
140
1.0
 94
        5
 62
     0
340
128B
144
0.25
309
CONTENTFORMAT_END
171
     0
 94
        0
309
TABLEFORMAT_END
  1
CELLSTYLE_BEGIN
 90
        1
 91
        1
300
_TITLE
309
CELLSTYLE_END
300
CELLSTYLE
  1
TABLEFORMAT_BEGIN
 90
        5
170
     1
 91
        0
 92
        0
 62
   257
 93
        1
300
CONTENTFORMAT
  1
CONTENTFORMAT_BEGIN
 90
        0
 91
        0
 92
      512
 93
        0
300

 40
0.0
140
1.0
 94
        5
 62
     0
340
128B
144
0.18
309
CONTENTFORMAT_END
171
     0
 94
        0
309
TABLEFORMAT_END
  1
CELLSTYLE_BEGIN
 90
        2
 91
        1
300
_HEADER
309
CELLSTYLE_END
300
CELLSTYLE
  1
TABLEFORMAT_BEGIN
 90
        5
170
     1
 91
        0
 92
        0
 62
   257
 93
        1
300
CONTENTFORMAT
  1
CONTENTFORMAT_BEGIN
 90
        0
 91
        0
 92
      512
 93
        0
300

 40
0.0
140
1.0
 94
        2
 62
     0
340
128B
144
0.18
309
CONTENTFORMAT_END
171
     0
 94
        0
309
TABLEFORMAT_END
  1
CELLSTYLE_BEGIN
 90
        3
 91
        2
300
_DATA
309
CELLSTYLE_END
  0
XRECORD
  5
1311
102
{ACAD_REACTORS
330
12DA
102
}
330
12DA
100
AcDbXrecord
280
     1
102
ACAD_ROUNDTRIP_PRE2007_TABLESTYLE
 90
      512
 91
        0
  1

 92
      512
 93
        0
  2

 94
      512
 95
        0
  3

  0
XRECORD
  5
12EC
102
{ACAD_REACTORS
330
12EB
102
}
330
12EB
100
AcDbXrecord
280
     1
102
RTVSPost2010Prop28
280
     1
102
RTVSPost2010PropOp28
 70
     1
102
RTVSPost2010Prop29
280
     1
102
RTVSPost2010PropOp29
 70
     1
102
RTVSPost2010Prop30
280
     0
102
RTVSPost2010PropOp30
 70
     1
102
RTVSPost2010Prop31
280
     0
102
RTVSPost2010PropOp31
 70
     1
102
RTVSPost2010Prop32
280
     0
102
RTVSPost2010PropOp32
 70
     1
102
RTVSPost2010Prop33
280
     0
102
RTVSPost2010PropOp33
 70
     1
102
RTVSPost2010Prop34
280
     0
102
RTVSPost2010PropOp34
 70
     1
102
RTVSPost2010Prop35
280
     0
102
RTVSPost2010PropOp35
 70
     1
102
RTVSPost2010Prop36
280
     0
102
RTVSPost2010PropOp36
 70
     1
102
RTVSPost2010Prop37
 90
       50
102
RTVSPost2010PropOp37
 70
     1
102
RTVSPost2010Prop38
140
0.0
102
RTVSPost2010PropOp38
 70
     1
102
RTVSPost2010Prop39
140
1.0
102
RTVSPost2010PropOp39
 70
     1
102
RTVSPost2010Prop40
 90
        0
102
RTVSPost2010PropOp40
 70
     1
102
RTVSPost2010Prop41ColorIndex
 90
       18
102
RTVSPost2010Prop41ColorRGB
 90
        0
102
RTVSPost2010PropOp41
 70
     1
102
RTVSPost2010Prop42
 90
       50
102
RTVSPost2010PropOp42
 70
     1
102
RTVSPost2010Prop43
 90
        3
102
RTVSPost2010PropOp43
 70
     1
102
RTVSPost2010Prop44ColorIndex
 90
        5
102
RTVSPost2010Prop44ColorRGB
 90
      255
102
RTVSPost2010PropOp44
 70
     1
102
RTVSPost2010Prop45
280
     0
102
RTVSPost2010PropOp45
 70
     1
102
RTVSPost2010Prop46
 90
       50
102
RTVSPost2010PropOp46
 70
     1
102
RTVSPost2010Prop47
 90
       50
102
RTVSPost2010PropOp47
 70
     1
102
RTVSPost2010Prop48
 90
       50
102
RTVSPost2010PropOp48
 70
     1
102
RTVSPost2010Prop49
280
     0
102
RTVSPost2010PropOp49
 70
     1
102
RTVSPost2010Prop50
 90
       50
102
RTVSPost2010PropOp50
 70
     1
102
RTVSPost2010Prop51ColorIndex
 90
      256
102
RTVSPost2010Prop51ColorRGB
 90
-16777216
102
RTVSPost2010PropOp51
 70
     0
102
RTVSPost2010Prop52
140
1.0
102
RTVSPost2010PropOp52
 70
     0
102
RTVSPost2010Prop53
 90
        2
102
RTVSPost2010PropOp53
 70
     1
102
RTVSPost2010Prop54
  1
strokes_ogs.tif
102
RTVSPost2010PropOp54
 70
     1
102
RTVSPost2010Prop55
280
     0
102
RTVSPost2010PropOp55
 70
     1
102
RTVSPost2010Prop56
140
1.0
102
RTVSPost2010PropOp56
 70
     1
102
RTVSPost2010Prop57
140
1.0
102
RTVSPost2010PropOp57
 70
     1
102
RTVSPropertyOp0
 70
     1
102
RTVSPropertyOp1
 70
     1
102
RTVSPropertyOp2
 70
     1
102
RTVSPropertyOp3
 70
     1
102
RTVSPropertyOp4
 70
     1
102
RTVSPropertyOp5
 70
     1
102
RTVSPropertyOp6
 70
     1
102
RTVSPropertyOp7
 70
     1
102
RTVSPropertyOp8
 70
     1
102
RTVSPropertyOp9
 70
     1
102
RTVSPropertyOp10
 70
     1
102
RTVSPropertyOp11
 70
     1
102
RTVSPropertyOp12
 70
     1
102
RTVSPropertyOp13
 70
     1
102
RTVSPropertyOp14
 70
     1
102
RTVSPropertyOp15
 70
     1
102
RTVSPropertyOp16
 70
     1
102
RTVSPropertyOp17
 70
     1
102
RTVSPropertyOp18
 70
     1
102
RTVSPropertyOp19
 70
     1
102
RTVSPropertyOp20
 70
     1
102
RTVSPropertyOp21
 70
     1
102
RTVSPropertyOp22
 70
     1
102
RTVSPropertyOp23
 70
     1
102
RTVSPropertyOp24
 70
     1
102
RTVSPropertyOp25
 70
     1
102
RTVSPropertyOp26
 70
     1
102
RTVSPropertyOp27
 70
     1
102
RTVSPropertyOp28
 70
     1
102
RTVSPropertyOp29
 70
     1
102
RTVSPropertyOp30
 70
     1
102
RTVSPropertyOp31
 70
     1
102
RTVSPropertyOp32
 70
     1
102
RTVSPropertyOp33
 70
     1
102
RTVSPropertyOp34
 70
     1
102
RTVSPropertyOp35
 70
     1
102
RTVSPropertyOp36
 70
     1
102
RTVSPropertyOp37
 70
     1
102
RTVSPropertyOp38
 70
     1
102
RTVSPropertyOp39
 70
     1
102
RTVSPropertyOp40
 70
     1
102
RTVSPropertyOp41
 70
     1
102
RTVSPropertyOp42
 70
     1
102
RTVSPropertyOp43
 70
     1
102
RTVSPropertyOp44
 70
     1
102
RTVSPropertyOp45
 70
     1
102
RTVSPropertyOp46
 70
     1
102
RTVSPropertyOp47
 70
     1
102
RTVSPropertyOp48
 70
     1
102
RTVSPropertyOp49
 70
     1
102
RTVSPropertyOp50
 70
     1
102
RTVSPropertyOp51
 70
     0
102
RTVSPropertyOp52
 70
     0
102
RTVSPropertyOp53
 70
     1
102
RTVSPropertyOp54
 70
     1
102
RTVSPropertyOp55
 70
     1
102
RTVSPropertyOp56
 70
     1
102
RTVSPropertyOp57
 70
     1
102
RTVSPropertyOp58
 70
     1
102
RTVSPropertyOp59
 70
     1
102
RTVSPropertyOp60
 70
     1
102
RTVSPropertyOp61
 70
     1
102
RTVSPropertyOp62
 70
     1
  0
XRECORD
  5
12EA
102
{ACAD_REACTORS
330
12E9
102
}
330
12E9
100
AcDbXrecord
280
     1
102
RTVSPost2010Prop28
280
     0
102
RTVSPost2010PropOp28
 70
     1
102
RTVSPost2010Prop29
280
     1
102
RTVSPost2010PropOp29
 70
     1
102
RTVSPost2010Prop30
280
     1
102
RTVSPost2010PropOp30
 70
     1
102
RTVSPost2010Prop31
280
     0
102
RTVSPost2010PropOp31
 70
     1
102
RTVSPost2010Prop32
280
     0
102
RTVSPost2010PropOp32
 70
     1
102
RTVSPost2010Prop33
280
     0
102
RTVSPost2010PropOp33
 70
     1
102
RTVSPost2010Prop34
280
     0
102
RTVSPost2010PropOp34
 70
     1
102
RTVSPost2010Prop35
280
     0
102
RTVSPost2010PropOp35
 70
     1
102
RTVSPost2010Prop36
280
     0
102
RTVSPost2010PropOp36
 70
     1
102
RTVSPost2010Prop37
 90
       50
102
RTVSPost2010PropOp37
 70
     1
102
RTVSPost2010Prop38
140
0.0
102
RTVSPost2010PropOp38
 70
     1
102
RTVSPost2010Prop39
140
1.0
102
RTVSPost2010PropOp39
 70
     1
102
RTVSPost2010Prop40
 90
        0
102
RTVSPost2010PropOp40
 70
     1
102
RTVSPost2010Prop41ColorIndex
 90
       18
102
RTVSPost2010Prop41ColorRGB
 90
        0
102
RTVSPost2010PropOp41
 70
     1
102
RTVSPost2010Prop42
 90
       50
102
RTVSPost2010PropOp42
 70
     1
102
RTVSPost2010Prop43
 90
        3
102
RTVSPost2010PropOp43
 70
     1
102
RTVSPost2010Prop44ColorIndex
 90
        5
102
RTVSPost2010Prop44ColorRGB
 90
      255
102
RTVSPost2010PropOp44
 70
     1
102
RTVSPost2010Prop45
280
     0
102
RTVSPost2010PropOp45
 70
     1
102
RTVSPost2010Prop46
 90
       50
102
RTVSPost2010PropOp46
 70
     1
102
RTVSPost2010Prop47
 90
       50
102
RTVSPost2010PropOp47
 70
     1
102
RTVSPost2010Prop48
 90
       50
102
RTVSPost2010PropOp48
 70
     1
102
RTVSPost2010Prop49
280
     0
102
RTVSPost2010PropOp49
 70
     1
102
RTVSPost2010Prop50
 90
       50
102
RTVSPost2010PropOp50
 70
     1
102
RTVSPost2010Prop51ColorIndex
 90
      256
102
RTVSPost2010Prop51ColorRGB
 90
-16777216
102
RTVSPost2010PropOp51
 70
     0
102
RTVSPost2010Prop52
140
1.0
102
RTVSPost2010PropOp52
 70
     0
102
RTVSPost2010Prop53
 90
        2
102
RTVSPost2010PropOp53
 70
     1
102
RTVSPost2010Prop54
  1
strokes_ogs.tif
102
RTVSPost2010PropOp54
 70
     1
102
RTVSPost2010Prop55
280
     0
102
RTVSPost2010PropOp55
 70
     1
102
RTVSPost2010Prop56
140
1.0
102
RTVSPost2010PropOp56
 70
     1
102
RTVSPost2010Prop57
140
1.0
102
RTVSPost2010PropOp57
 70
     1
102
RTVSPropertyOp0
 70
     1
102
RTVSPropertyOp1
 70
     1
102
RTVSPropertyOp2
 70
     1
102
RTVSPropertyOp3
 70
     1
102
RTVSPropertyOp4
 70
     1
102
RTVSPropertyOp5
 70
     1
102
RTVSPropertyOp6
 70
     1
102
RTVSPropertyOp7
 70
     1
102
RTVSPropertyOp8
 70
     1
102
RTVSPropertyOp9
 70
     1
102
RTVSPropertyOp10
 70
     1
102
RTVSPropertyOp11
 70
     1
102
RTVSPropertyOp12
 70
     1
102
RTVSPropertyOp13
 70
     1
102
RTVSPropertyOp14
 70
     1
102
RTVSPropertyOp15
 70
     1
102
RTVSPropertyOp16
 70
     1
102
RTVSPropertyOp17
 70
     1
102
RTVSPropertyOp18
 70
     1
102
RTVSPropertyOp19
 70
     1
102
RTVSPropertyOp20
 70
     1
102
RTVSPropertyOp21
 70
     1
102
RTVSPropertyOp22
 70
     1
102
RTVSPropertyOp23
 70
     1
102
RTVSPropertyOp24
 70
     1
102
RTVSPropertyOp25
 70
     1
102
RTVSPropertyOp26
 70
     1
102
RTVSPropertyOp27
 70
     1
102
RTVSPropertyOp28
 70
     1
102
RTVSPropertyOp29
 70
     1
102
RTVSPropertyOp30
 70
     1
102
RTVSPropertyOp31
 70
     1
102
RTVSPropertyOp32
 70
     1
102
RTVSPropertyOp33
 70
     1
102
RTVSPropertyOp34
 70
     1
102
RTVSPropertyOp35
 70
     1
102
RTVSPropertyOp36
 70
     1
102
RTVSPropertyOp37
 70
     1
102
RTVSPropertyOp38
 70
     1
102
RTVSPropertyOp39
 70
     1
102
RTVSPropertyOp40
 70
     1
102
RTVSPropertyOp41
 70
     1
102
RTVSPropertyOp42
 70
     1
102
RTVSPropertyOp43
 70
     1
102
RTVSPropertyOp44
 70
     1
102
RTVSPropertyOp45
 70
     1
102
RTVSPropertyOp46
 70
     1
102
RTVSPropertyOp47
 70
     1
102
RTVSPropertyOp48
 70
     1
102
RTVSPropertyOp49
 70
     1
102
RTVSPropertyOp50
 70
     1
102
RTVSPropertyOp51
 70
     0
102
RTVSPropertyOp52
 70
     0
102
RTVSPropertyOp53
 70
     1
102
RTVSPropertyOp54
 70
     1
102
RTVSPropertyOp55
 70
     1
102
RTVSPropertyOp56
 70
     1
102
RTVSPropertyOp57
 70
     1
102
RTVSPropertyOp58
 70
     1
102
RTVSPropertyOp59
 70
     1
102
RTVSPropertyOp60
 70
     1
102
RTVSPropertyOp61
 70
     1
102
RTVSPropertyOp62
 70
     1
  0
XRECORD
  5
12F8
102
{ACAD_REACTORS
330
12F7
102
}
330
12F7
100
AcDbXrecord
280
     1
102
RTVSPost2010Prop28
280
     0
102
RTVSPost2010PropOp28
 70
     1
102
RTVSPost2010Prop29
280
     1
102
RTVSPost2010PropOp29
 70
     1
102
RTVSPost2010Prop30
280
     1
102
RTVSPost2010PropOp30
 70
     1
102
RTVSPost2010Prop31
280
     0
102
RTVSPost2010PropOp31
 70
     1
102
RTVSPost2010Prop32
280
     0
102
RTVSPost2010PropOp32
 70
     1
102
RTVSPost2010Prop33
280
     0
102
RTVSPost2010PropOp33
 70
     1
102
RTVSPost2010Prop34
280
     0
102
RTVSPost2010PropOp34
 70
     1
102
RTVSPost2010Prop35
280
     0
102
RTVSPost2010PropOp35
 70
     1
102
RTVSPost2010Prop36
280
     0
102
RTVSPost2010PropOp36
 70
     1
102
RTVSPost2010Prop37
 90
       50
102
RTVSPost2010PropOp37
 70
     1
102
RTVSPost2010Prop38
140
0.0
102
RTVSPost2010PropOp38
 70
     1
102
RTVSPost2010Prop39
140
1.0
102
RTVSPost2010PropOp39
 70
     1
102
RTVSPost2010Prop40
 90
        0
102
RTVSPost2010PropOp40
 70
     1
102
RTVSPost2010Prop41ColorIndex
 90
       18
102
RTVSPost2010Prop41ColorRGB
 90
        0
102
RTVSPost2010PropOp41
 70
     1
102
RTVSPost2010Prop42
 90
       50
102
RTVSPost2010PropOp42
 70
     1
102
RTVSPost2010Prop43
 90
        3
102
RTVSPost2010PropOp43
 70
     1
102
RTVSPost2010Prop44ColorIndex
 90
        5
102
RTVSPost2010Prop44ColorRGB
 90
      255
102
RTVSPost2010PropOp44
 70
     1
102
RTVSPost2010Prop45
280
     0
102
RTVSPost2010PropOp45
 70
     1
102
RTVSPost2010Prop46
 90
       50
102
RTVSPost2010PropOp46
 70
     1
102
RTVSPost2010Prop47
 90
       50
102
RTVSPost2010PropOp47
 70
     1
102
RTVSPost2010Prop48
 90
       50
102
RTVSPost2010PropOp48
 70
     1
102
RTVSPost2010Prop49
280
     0
102
RTVSPost2010PropOp49
 70
     1
102
RTVSPost2010Prop50
 90
       50
102
RTVSPost2010PropOp50
 70
     1
102
RTVSPost2010Prop51ColorIndex
 90
      256
102
RTVSPost2010Prop51ColorRGB
 90
-16777216
102
RTVSPost2010PropOp51
 70
     0
102
RTVSPost2010Prop52
140
1.0
102
RTVSPost2010PropOp52
 70
     0
102
RTVSPost2010Prop53
 90
        2
102
RTVSPost2010PropOp53
 70
     1
102
RTVSPost2010Prop54
  1
strokes_ogs.tif
102
RTVSPost2010PropOp54
 70
     1
102
RTVSPost2010Prop55
280
     0
102
RTVSPost2010PropOp55
 70
     1
102
RTVSPost2010Prop56
140
1.0
102
RTVSPost2010PropOp56
 70
     1
102
RTVSPost2010Prop57
140
1.0
102
RTVSPost2010PropOp57
 70
     1
102
RTVSPropertyOp0
 70
     1
102
RTVSPropertyOp1
 70
     1
102
RTVSPropertyOp2
 70
     1
102
RTVSPropertyOp3
 70
     1
102
RTVSPropertyOp4
 70
     1
102
RTVSPropertyOp5
 70
     1
102
RTVSPropertyOp6
 70
     1
102
RTVSPropertyOp7
 70
     1
102
RTVSPropertyOp8
 70
     1
102
RTVSPropertyOp9
 70
     1
102
RTVSPropertyOp10
 70
     1
102
RTVSPropertyOp11
 70
     1
102
RTVSPropertyOp12
 70
     1
102
RTVSPropertyOp13
 70
     1
102
RTVSPropertyOp14
 70
     1
102
RTVSPropertyOp15
 70
     1
102
RTVSPropertyOp16
 70
     1
102
RTVSPropertyOp17
 70
     1
102
RTVSPropertyOp18
 70
     1
102
RTVSPropertyOp19
 70
     1
102
RTVSPropertyOp20
 70
     1
102
RTVSPropertyOp21
 70
     1
102
RTVSPropertyOp22
 70
     1
102
RTVSPropertyOp23
 70
     1
102
RTVSPropertyOp24
 70
     1
102
RTVSPropertyOp25
 70
     1
102
RTVSPropertyOp26
 70
     1
102
RTVSPropertyOp27
 70
     1
102
RTVSPropertyOp28
 70
     1
102
RTVSPropertyOp29
 70
     1
102
RTVSPropertyOp30
 70
     1
102
RTVSPropertyOp31
 70
     1
102
RTVSPropertyOp32
 70
     1
102
RTVSPropertyOp33
 70
     1
102
RTVSPropertyOp34
 70
     1
102
RTVSPropertyOp35
 70
     1
102
RTVSPropertyOp36
 70
     1
102
RTVSPropertyOp37
 70
     1
102
RTVSPropertyOp38
 70
     1
102
RTVSPropertyOp39
 70
     1
102
RTVSPropertyOp40
 70
     1
102
RTVSPropertyOp41
 70
     1
102
RTVSPropertyOp42
 70
     1
102
RTVSPropertyOp43
 70
     1
102
RTVSPropertyOp44
 70
     1
102
RTVSPropertyOp45
 70
     1
102
RTVSPropertyOp46
 70
     1
102
RTVSPropertyOp47
 70
     1
102
RTVSPropertyOp48
 70
     1
102
RTVSPropertyOp49
 70
     1
102
RTVSPropertyOp50
 70
     1
102
RTVSPropertyOp51
 70
     0
102
RTVSPropertyOp52
 70
     0
102
RTVSPropertyOp53
 70
     1
102
RTVSPropertyOp54
 70
     1
102
RTVSPropertyOp55
 70
     1
102
RTVSPropertyOp56
 70
     1
102
RTVSPropertyOp57
 70
     1
102
RTVSPropertyOp58
 70
     1
102
RTVSPropertyOp59
 70
     1
102
RTVSPropertyOp60
 70
     1
102
RTVSPropertyOp61
 70
     1
102
RTVSPropertyOp62
 70
     1
  0
XRECORD
  5
1300
102
{ACAD_REACTORS
330
12FF
102
}
330
12FF
100
AcDbXrecord
280
     1
102
RTVSPost2010Prop28
280
     0
102
RTVSPost2010PropOp28
 70
     1
102
RTVSPost2010Prop29
280
     1
102
RTVSPost2010PropOp29
 70
     1
102
RTVSPost2010Prop30
280
     1
102
RTVSPost2010PropOp30
 70
     1
102
RTVSPost2010Prop31
280
     0
102
RTVSPost2010PropOp31
 70
     1
102
RTVSPost2010Prop32
280
     0
102
RTVSPost2010PropOp32
 70
     1
102
RTVSPost2010Prop33
280
     0
102
RTVSPost2010PropOp33
 70
     1
102
RTVSPost2010Prop34
280
     0
102
RTVSPost2010PropOp34
 70
     1
102
RTVSPost2010Prop35
280
     0
102
RTVSPost2010PropOp35
 70
     1
102
RTVSPost2010Prop36
280
     0
102
RTVSPost2010PropOp36
 70
     1
102
RTVSPost2010Prop37
 90
       50
102
RTVSPost2010PropOp37
 70
     1
102
RTVSPost2010Prop38
140
0.0
102
RTVSPost2010PropOp38
 70
     1
102
RTVSPost2010Prop39
140
1.0
102
RTVSPost2010PropOp39
 70
     1
102
RTVSPost2010Prop40
 90
        0
102
RTVSPost2010PropOp40
 70
     1
102
RTVSPost2010Prop41ColorIndex
 90
       18
102
RTVSPost2010Prop41ColorRGB
 90
        0
102
RTVSPost2010PropOp41
 70
     1
102
RTVSPost2010Prop42
 90
       50
102
RTVSPost2010PropOp42
 70
     1
102
RTVSPost2010Prop43
 90
        3
102
RTVSPost2010PropOp43
 70
     1
102
RTVSPost2010Prop44ColorIndex
 90
        5
102
RTVSPost2010Prop44ColorRGB
 90
      255
102
RTVSPost2010PropOp44
 70
     1
102
RTVSPost2010Prop45
280
     0
102
RTVSPost2010PropOp45
 70
     1
102
RTVSPost2010Prop46
 90
       50
102
RTVSPost2010PropOp46
 70
     1
102
RTVSPost2010Prop47
 90
       50
102
RTVSPost2010PropOp47
 70
     1
102
RTVSPost2010Prop48
 90
       50
102
RTVSPost2010PropOp48
 70
     1
102
RTVSPost2010Prop49
280
     0
102
RTVSPost2010PropOp49
 70
     1
102
RTVSPost2010Prop50
 90
       50
102
RTVSPost2010PropOp50
 70
     1
102
RTVSPost2010Prop51ColorIndex
 90
      256
102
RTVSPost2010Prop51ColorRGB
 90
-16777216
102
RTVSPost2010PropOp51
 70
     0
102
RTVSPost2010Prop52
140
1.0
102
RTVSPost2010PropOp52
 70
     0
102
RTVSPost2010Prop53
 90
        2
102
RTVSPost2010PropOp53
 70
     1
102
RTVSPost2010Prop54
  1
strokes_ogs.tif
102
RTVSPost2010PropOp54
 70
     1
102
RTVSPost2010Prop55
280
     0
102
RTVSPost2010PropOp55
 70
     1
102
RTVSPost2010Prop56
140
1.0
102
RTVSPost2010PropOp56
 70
     1
102
RTVSPost2010Prop57
140
1.0
102
RTVSPost2010PropOp57
 70
     1
102
RTVSPropertyOp0
 70
     1
102
RTVSPropertyOp1
 70
     1
102
RTVSPropertyOp2
 70
     1
102
RTVSPropertyOp3
 70
     1
102
RTVSPropertyOp4
 70
     1
102
RTVSPropertyOp5
 70
     1
102
RTVSPropertyOp6
 70
     1
102
RTVSPropertyOp7
 70
     1
102
RTVSPropertyOp8
 70
     1
102
RTVSPropertyOp9
 70
     1
102
RTVSPropertyOp10
 70
     1
102
RTVSPropertyOp11
 70
     1
102
RTVSPropertyOp12
 70
     1
102
RTVSPropertyOp13
 70
     1
102
RTVSPropertyOp14
 70
     1
102
RTVSPropertyOp15
 70
     1
102
RTVSPropertyOp16
 70
     1
102
RTVSPropertyOp17
 70
     1
102
RTVSPropertyOp18
 70
     1
102
RTVSPropertyOp19
 70
     1
102
RTVSPropertyOp20
 70
     1
102
RTVSPropertyOp21
 70
     1
102
RTVSPropertyOp22
 70
     1
102
RTVSPropertyOp23
 70
     1
102
RTVSPropertyOp24
 70
     1
102
RTVSPropertyOp25
 70
     1
102
RTVSPropertyOp26
 70
     1
102
RTVSPropertyOp27
 70
     1
102
RTVSPropertyOp28
 70
     1
102
RTVSPropertyOp29
 70
     1
102
RTVSPropertyOp30
 70
     1
102
RTVSPropertyOp31
 70
     1
102
RTVSPropertyOp32
 70
     1
102
RTVSPropertyOp33
 70
     1
102
RTVSPropertyOp34
 70
     1
102
RTVSPropertyOp35
 70
     1
102
RTVSPropertyOp36
 70
     1
102
RTVSPropertyOp37
 70
     1
102
RTVSPropertyOp38
 70
     1
102
RTVSPropertyOp39
 70
     1
102
RTVSPropertyOp40
 70
     1
102
RTVSPropertyOp41
 70
     1
102
RTVSPropertyOp42
 70
     1
102
RTVSPropertyOp43
 70
     1
102
RTVSPropertyOp44
 70
     1
102
RTVSPropertyOp45
 70
     1
102
RTVSPropertyOp46
 70
     1
102
RTVSPropertyOp47
 70
     1
102
RTVSPropertyOp48
 70
     1
102
RTVSPropertyOp49
 70
     1
102
RTVSPropertyOp50
 70
     1
102
RTVSPropertyOp51
 70
     0
102
RTVSPropertyOp52
 70
     0
102
RTVSPropertyOp53
 70
     1
102
RTVSPropertyOp54
 70
     1
102
RTVSPropertyOp55
 70
     1
102
RTVSPropertyOp56
 70
     1
102
RTVSPropertyOp57
 70
     1
102
RTVSPropertyOp58
 70
     1
102
RTVSPropertyOp59
 70
     1
102
RTVSPropertyOp60
 70
     1
102
RTVSPropertyOp61
 70
     1
102
RTVSPropertyOp62
 70
     1
  0
XRECORD
  5
12F2
102
{ACAD_REACTORS
330
12F1
102
}
330
12F1
100
AcDbXrecord
280
     1
102
RTVSPost2010Prop28
280
     0
102
RTVSPost2010PropOp28
 70
     1
102
RTVSPost2010Prop29
280
     1
102
RTVSPost2010PropOp29
 70
     1
102
RTVSPost2010Prop30
280
     1
102
RTVSPost2010PropOp30
 70
     1
102
RTVSPost2010Prop31
280
     0
102
RTVSPost2010PropOp31
 70
     1
102
RTVSPost2010Prop32
280
     0
102
RTVSPost2010PropOp32
 70
     1
102
RTVSPost2010Prop33
280
     0
102
RTVSPost2010PropOp33
 70
     1
102
RTVSPost2010Prop34
280
     0
102
RTVSPost2010PropOp34
 70
     1
102
RTVSPost2010Prop35
280
     0
102
RTVSPost2010PropOp35
 70
     1
102
RTVSPost2010Prop36
280
     0
102
RTVSPost2010PropOp36
 70
     1
102
RTVSPost2010Prop37
 90
       50
102
RTVSPost2010PropOp37
 70
     1
102
RTVSPost2010Prop38
140
0.0
102
RTVSPost2010PropOp38
 70
     1
102
RTVSPost2010Prop39
140
1.0
102
RTVSPost2010PropOp39
 70
     1
102
RTVSPost2010Prop40
 90
        0
102
RTVSPost2010PropOp40
 70
     1
102
RTVSPost2010Prop41ColorIndex
 90
       18
102
RTVSPost2010Prop41ColorRGB
 90
        0
102
RTVSPost2010PropOp41
 70
     1
102
RTVSPost2010Prop42
 90
       50
102
RTVSPost2010PropOp42
 70
     1
102
RTVSPost2010Prop43
 90
        3
102
RTVSPost2010PropOp43
 70
     1
102
RTVSPost2010Prop44ColorIndex
 90
        5
102
RTVSPost2010Prop44ColorRGB
 90
      255
102
RTVSPost2010PropOp44
 70
     1
102
RTVSPost2010Prop45
280
     0
102
RTVSPost2010PropOp45
 70
     1
102
RTVSPost2010Prop46
 90
       50
102
RTVSPost2010PropOp46
 70
     1
102
RTVSPost2010Prop47
 90
       50
102
RTVSPost2010PropOp47
 70
     1
102
RTVSPost2010Prop48
 90
       50
102
RTVSPost2010PropOp48
 70
     1
102
RTVSPost2010Prop49
280
     0
102
RTVSPost2010PropOp49
 70
     1
102
RTVSPost2010Prop50
 90
       50
102
RTVSPost2010PropOp50
 70
     1
102
RTVSPost2010Prop51ColorIndex
 90
      256
102
RTVSPost2010Prop51ColorRGB
 90
-16777216
102
RTVSPost2010PropOp51
 70
     0
102
RTVSPost2010Prop52
140
1.0
102
RTVSPost2010PropOp52
 70
     0
102
RTVSPost2010Prop53
 90
        2
102
RTVSPost2010PropOp53
 70
     1
102
RTVSPost2010Prop54
  1
strokes_ogs.tif
102
RTVSPost2010PropOp54
 70
     1
102
RTVSPost2010Prop55
280
     0
102
RTVSPost2010PropOp55
 70
     1
102
RTVSPost2010Prop56
140
1.0
102
RTVSPost2010PropOp56
 70
     1
102
RTVSPost2010Prop57
140
1.0
102
RTVSPost2010PropOp57
 70
     1
102
RTVSPropertyOp0
 70
     1
102
RTVSPropertyOp1
 70
     1
102
RTVSPropertyOp2
 70
     1
102
RTVSPropertyOp3
 70
     1
102
RTVSPropertyOp4
 70
     1
102
RTVSPropertyOp5
 70
     1
102
RTVSPropertyOp6
 70
     1
102
RTVSPropertyOp7
 70
     1
102
RTVSPropertyOp8
 70
     1
102
RTVSPropertyOp9
 70
     1
102
RTVSPropertyOp10
 70
     1
102
RTVSPropertyOp11
 70
     1
102
RTVSPropertyOp12
 70
     1
102
RTVSPropertyOp13
 70
     1
102
RTVSPropertyOp14
 70
     1
102
RTVSPropertyOp15
 70
     1
102
RTVSPropertyOp16
 70
     1
102
RTVSPropertyOp17
 70
     1
102
RTVSPropertyOp18
 70
     1
102
RTVSPropertyOp19
 70
     1
102
RTVSPropertyOp20
 70
     1
102
RTVSPropertyOp21
 70
     1
102
RTVSPropertyOp22
 70
     1
102
RTVSPropertyOp23
 70
     1
102
RTVSPropertyOp24
 70
     1
102
RTVSPropertyOp25
 70
     1
102
RTVSPropertyOp26
 70
     1
102
RTVSPropertyOp27
 70
     1
102
RTVSPropertyOp28
 70
     1
102
RTVSPropertyOp29
 70
     1
102
RTVSPropertyOp30
 70
     1
102
RTVSPropertyOp31
 70
     1
102
RTVSPropertyOp32
 70
     1
102
RTVSPropertyOp33
 70
     1
102
RTVSPropertyOp34
 70
     1
102
RTVSPropertyOp35
 70
     1
102
RTVSPropertyOp36
 70
     1
102
RTVSPropertyOp37
 70
     1
102
RTVSPropertyOp38
 70
     1
102
RTVSPropertyOp39
 70
     1
102
RTVSPropertyOp40
 70
     1
102
RTVSPropertyOp41
 70
     1
102
RTVSPropertyOp42
 70
     1
102
RTVSPropertyOp43
 70
     1
102
RTVSPropertyOp44
 70
     1
102
RTVSPropertyOp45
 70
     1
102
RTVSPropertyOp46
 70
     1
102
RTVSPropertyOp47
 70
     1
102
RTVSPropertyOp48
 70
     1
102
RTVSPropertyOp49
 70
     1
102
RTVSPropertyOp50
 70
     1
102
RTVSPropertyOp51
 70
     0
102
RTVSPropertyOp52
 70
     0
102
RTVSPropertyOp53
 70
     1
102
RTVSPropertyOp54
 70
     1
102
RTVSPropertyOp55
 70
     1
102
RTVSPropertyOp56
 70
     1
102
RTVSPropertyOp57
 70
     1
102
RTVSPropertyOp58
 70
     1
102
RTVSPropertyOp59
 70
     1
102
RTVSPropertyOp60
 70
     1
102
RTVSPropertyOp61
 70
     1
102
RTVSPropertyOp62
 70
     1
  0
XRECORD
  5
12F6
102
{ACAD_REACTORS
330
12F5
102
}
330
12F5
100
AcDbXrecord
280
     1
102
RTVSPost2010Prop28
280
     0
102
RTVSPost2010PropOp28
 70
     1
102
RTVSPost2010Prop29
280
     1
102
RTVSPost2010PropOp29
 70
     1
102
RTVSPost2010Prop30
280
     1
102
RTVSPost2010PropOp30
 70
     1
102
RTVSPost2010Prop31
280
     0
102
RTVSPost2010PropOp31
 70
     1
102
RTVSPost2010Prop32
280
     0
102
RTVSPost2010PropOp32
 70
     1
102
RTVSPost2010Prop33
280
     0
102
RTVSPost2010PropOp33
 70
     1
102
RTVSPost2010Prop34
280
     0
102
RTVSPost2010PropOp34
 70
     1
102
RTVSPost2010Prop35
280
     0
102
RTVSPost2010PropOp35
 70
     1
102
RTVSPost2010Prop36
280
     0
102
RTVSPost2010PropOp36
 70
     1
102
RTVSPost2010Prop37
 90
       50
102
RTVSPost2010PropOp37
 70
     1
102
RTVSPost2010Prop38
140
0.0
102
RTVSPost2010PropOp38
 70
     1
102
RTVSPost2010Prop39
140
1.0
102
RTVSPost2010PropOp39
 70
     1
102
RTVSPost2010Prop40
 90
        0
102
RTVSPost2010PropOp40
 70
     1
102
RTVSPost2010Prop41ColorIndex
 90
       18
102
RTVSPost2010Prop41ColorRGB
 90
        0
102
RTVSPost2010PropOp41
 70
     1
102
RTVSPost2010Prop42
 90
       50
102
RTVSPost2010PropOp42
 70
     1
102
RTVSPost2010Prop43
 90
        3
102
RTVSPost2010PropOp43
 70
     1
102
RTVSPost2010Prop44ColorIndex
 90
        5
102
RTVSPost2010Prop44ColorRGB
 90
      255
102
RTVSPost2010PropOp44
 70
     1
102
RTVSPost2010Prop45
280
     0
102
RTVSPost2010PropOp45
 70
     1
102
RTVSPost2010Prop46
 90
       50
102
RTVSPost2010PropOp46
 70
     1
102
RTVSPost2010Prop47
 90
       50
102
RTVSPost2010PropOp47
 70
     1
102
RTVSPost2010Prop48
 90
       50
102
RTVSPost2010PropOp48
 70
     1
102
RTVSPost2010Prop49
280
     0
102
RTVSPost2010PropOp49
 70
     1
102
RTVSPost2010Prop50
 90
       50
102
RTVSPost2010PropOp50
 70
     1
102
RTVSPost2010Prop51ColorIndex
 90
      256
102
RTVSPost2010Prop51ColorRGB
 90
-16777216
102
RTVSPost2010PropOp51
 70
     0
102
RTVSPost2010Prop52
140
1.0
102
RTVSPost2010PropOp52
 70
     0
102
RTVSPost2010Prop53
 90
        2
102
RTVSPost2010PropOp53
 70
     1
102
RTVSPost2010Prop54
  1
strokes_ogs.tif
102
RTVSPost2010PropOp54
 70
     1
102
RTVSPost2010Prop55
280
     0
102
RTVSPost2010PropOp55
 70
     1
102
RTVSPost2010Prop56
140
1.0
102
RTVSPost2010PropOp56
 70
     1
102
RTVSPost2010Prop57
140
1.0
102
RTVSPost2010PropOp57
 70
     1
102
RTVSPropertyOp0
 70
     1
102
RTVSPropertyOp1
 70
     1
102
RTVSPropertyOp2
 70
     1
102
RTVSPropertyOp3
 70
     1
102
RTVSPropertyOp4
 70
     1
102
RTVSPropertyOp5
 70
     1
102
RTVSPropertyOp6
 70
     1
102
RTVSPropertyOp7
 70
     1
102
RTVSPropertyOp8
 70
     1
102
RTVSPropertyOp9
 70
     1
102
RTVSPropertyOp10
 70
     1
102
RTVSPropertyOp11
 70
     1
102
RTVSPropertyOp12
 70
     1
102
RTVSPropertyOp13
 70
     1
102
RTVSPropertyOp14
 70
     1
102
RTVSPropertyOp15
 70
     1
102
RTVSPropertyOp16
 70
     1
102
RTVSPropertyOp17
 70
     1
102
RTVSPropertyOp18
 70
     1
102
RTVSPropertyOp19
 70
     1
102
RTVSPropertyOp20
 70
     1
102
RTVSPropertyOp21
 70
     1
102
RTVSPropertyOp22
 70
     1
102
RTVSPropertyOp23
 70
     1
102
RTVSPropertyOp24
 70
     1
102
RTVSPropertyOp25
 70
     1
102
RTVSPropertyOp26
 70
     1
102
RTVSPropertyOp27
 70
     1
102
RTVSPropertyOp28
 70
     1
102
RTVSPropertyOp29
 70
     1
102
RTVSPropertyOp30
 70
     1
102
RTVSPropertyOp31
 70
     1
102
RTVSPropertyOp32
 70
     1
102
RTVSPropertyOp33
 70
     1
102
RTVSPropertyOp34
 70
     1
102
RTVSPropertyOp35
 70
     1
102
RTVSPropertyOp36
 70
     1
102
RTVSPropertyOp37
 70
     1
102
RTVSPropertyOp38
 70
     1
102
RTVSPropertyOp39
 70
     1
102
RTVSPropertyOp40
 70
     1
102
RTVSPropertyOp41
 70
     1
102
RTVSPropertyOp42
 70
     1
102
RTVSPropertyOp43
 70
     1
102
RTVSPropertyOp44
 70
     1
102
RTVSPropertyOp45
 70
     1
102
RTVSPropertyOp46
 70
     1
102
RTVSPropertyOp47
 70
     1
102
RTVSPropertyOp48
 70
     1
102
RTVSPropertyOp49
 70
     1
102
RTVSPropertyOp50
 70
     1
102
RTVSPropertyOp51
 70
     0
102
RTVSPropertyOp52
 70
     0
102
RTVSPropertyOp53
 70
     1
102
RTVSPropertyOp54
 70
     1
102
RTVSPropertyOp55
 70
     1
102
RTVSPropertyOp56
 70
     1
102
RTVSPropertyOp57
 70
     1
102
RTVSPropertyOp58
 70
     1
102
RTVSPropertyOp59
 70
     1
102
RTVSPropertyOp60
 70
     1
102
RTVSPropertyOp61
 70
     1
102
RTVSPropertyOp62
 70
     1
  0
XRECORD
  5
1310
102
{ACAD_REACTORS
330
130F
102
}
330
130F
100
AcDbXrecord
280
     1
102
RTVSPost2010Prop28
280
     0
102
RTVSPost2010PropOp28
 70
     1
102
RTVSPost2010Prop29
280
     1
102
RTVSPost2010PropOp29
 70
     1
102
RTVSPost2010Prop30
280
     1
102
RTVSPost2010PropOp30
 70
     1
102
RTVSPost2010Prop31
280
     0
102
RTVSPost2010PropOp31
 70
     1
102
RTVSPost2010Prop32
280
     0
102
RTVSPost2010PropOp32
 70
     1
102
RTVSPost2010Prop33
280
     0
102
RTVSPost2010PropOp33
 70
     1
102
RTVSPost2010Prop34
280
     0
102
RTVSPost2010PropOp34
 70
     1
102
RTVSPost2010Prop35
280
     0
102
RTVSPost2010PropOp35
 70
     1
102
RTVSPost2010Prop36
280
     0
102
RTVSPost2010PropOp36
 70
     1
102
RTVSPost2010Prop37
 90
       50
102
RTVSPost2010PropOp37
 70
     0
102
RTVSPost2010Prop38
140
0.0
102
RTVSPost2010PropOp38
 70
     0
102
RTVSPost2010Prop39
140
1.0
102
RTVSPost2010PropOp39
 70
     0
102
RTVSPost2010Prop40
 90
        0
102
RTVSPost2010PropOp40
 70
     0
102
RTVSPost2010Prop41ColorIndex
 90
       18
102
RTVSPost2010Prop41ColorRGB
 90
        0
102
RTVSPost2010PropOp41
 70
     0
102
RTVSPost2010Prop42
 90
       50
102
RTVSPost2010PropOp42
 70
     0
102
RTVSPost2010Prop43
 90
        3
102
RTVSPost2010PropOp43
 70
     0
102
RTVSPost2010Prop44ColorIndex
 90
        5
102
RTVSPost2010Prop44ColorRGB
 90
      255
102
RTVSPost2010PropOp44
 70
     0
102
RTVSPost2010Prop45
280
     0
102
RTVSPost2010PropOp45
 70
     1
102
RTVSPost2010Prop46
 90
       50
102
RTVSPost2010PropOp46
 70
     0
102
RTVSPost2010Prop47
 90
       50
102
RTVSPost2010PropOp47
 70
     0
102
RTVSPost2010Prop48
 90
       50
102
RTVSPost2010PropOp48
 70
     0
102
RTVSPost2010Prop49
280
     0
102
RTVSPost2010PropOp49
 70
     1
102
RTVSPost2010Prop50
 90
       50
102
RTVSPost2010PropOp50
 70
     0
102
RTVSPost2010Prop51ColorIndex
 90
      256
102
RTVSPost2010Prop51ColorRGB
 90
-16777216
102
RTVSPost2010PropOp51
 70
     0
102
RTVSPost2010Prop52
140
1.0
102
RTVSPost2010PropOp52
 70
     0
102
RTVSPost2010Prop53
 90
        2
102
RTVSPost2010PropOp53
 70
     0
102
RTVSPost2010Prop54
  1
strokes_ogs.tif
102
RTVSPost2010PropOp54
 70
     0
102
RTVSPost2010Prop55
280
     0
102
RTVSPost2010PropOp55
 70
     1
102
RTVSPost2010Prop56
140
1.0
102
RTVSPost2010PropOp56
 70
     0
102
RTVSPost2010Prop57
140
1.0
102
RTVSPost2010PropOp57
 70
     0
102
RTVSPropertyOp0
 70
     0
102
RTVSPropertyOp1
 70
     0
102
RTVSPropertyOp2
 70
     0
102
RTVSPropertyOp3
 70
     0
102
RTVSPropertyOp4
 70
     0
102
RTVSPropertyOp5
 70
     0
102
RTVSPropertyOp6
 70
     0
102
RTVSPropertyOp7
 70
     0
102
RTVSPropertyOp8
 70
     0
102
RTVSPropertyOp9
 70
     0
102
RTVSPropertyOp10
 70
     0
102
RTVSPropertyOp11
 70
     0
102
RTVSPropertyOp12
 70
     0
102
RTVSPropertyOp13
 70
     0
102
RTVSPropertyOp14
 70
     2
102
RTVSPropertyOp15
 70
     0
102
RTVSPropertyOp16
 70
     0
102
RTVSPropertyOp17
 70
     0
102
RTVSPropertyOp18
 70
     0
102
RTVSPropertyOp19
 70
     0
102
RTVSPropertyOp20
 70
     0
102
RTVSPropertyOp21
 70
     0
102
RTVSPropertyOp22
 70
     0
102
RTVSPropertyOp23
 70
     0
102
RTVSPropertyOp24
 70
     0
102
RTVSPropertyOp25
 70
     0
102
RTVSPropertyOp26
 70
     0
102
RTVSPropertyOp27
 70
     0
102
RTVSPropertyOp28
 70
     1
102
RTVSPropertyOp29
 70
     1
102
RTVSPropertyOp30
 70
     1
102
RTVSPropertyOp31
 70
     1
102
RTVSPropertyOp32
 70
     1
102
RTVSPropertyOp33
 70
     1
102
RTVSPropertyOp34
 70
     1
102
RTVSPropertyOp35
 70
     1
102
RTVSPropertyOp36
 70
     1
102
RTVSPropertyOp37
 70
     0
102
RTVSPropertyOp38
 70
     0
102
RTVSPropertyOp39
 70
     0
102
RTVSPropertyOp40
 70
     0
102
RTVSPropertyOp41
 70
     0
102
RTVSPropertyOp42
 70
     0
102
RTVSPropertyOp43
 70
     0
102
RTVSPropertyOp44
 70
     0
102
RTVSPropertyOp45
 70
     1
102
RTVSPropertyOp46
 70
     0
102
RTVSPropertyOp47
 70
     0
102
RTVSPropertyOp48
 70
     0
102
RTVSPropertyOp49
 70
     1
102
RTVSPropertyOp50
 70
     0
102
RTVSPropertyOp51
 70
     0
102
RTVSPropertyOp52
 70
     0
102
RTVSPropertyOp53
 70
     0
102
RTVSPropertyOp54
 70
     0
102
RTVSPropertyOp55
 70
     1
102
RTVSPropertyOp56
 70
     0
102
RTVSPropertyOp57
 70
     0
102
RTVSPropertyOp58
 70
     0
102
RTVSPropertyOp59
 70
     0
102
RTVSPropertyOp60
 70
     0
102
RTVSPropertyOp61
 70
     0
102
RTVSPropertyOp62
 70
     0
  0
XRECORD
  5
12FE
102
{ACAD_REACTORS
330
12FD
102
}
330
12FD
100
AcDbXrecord
280
     1
102
RTVSPost2010Prop28
280
     0
102
RTVSPost2010PropOp28
 70
     1
102
RTVSPost2010Prop29
280
     1
102
RTVSPost2010PropOp29
 70
     1
102
RTVSPost2010Prop30
280
     1
102
RTVSPost2010PropOp30
 70
     1
102
RTVSPost2010Prop31
280
     0
102
RTVSPost2010PropOp31
 70
     1
102
RTVSPost2010Prop32
280
     0
102
RTVSPost2010PropOp32
 70
     1
102
RTVSPost2010Prop33
280
     0
102
RTVSPost2010PropOp33
 70
     1
102
RTVSPost2010Prop34
280
     0
102
RTVSPost2010PropOp34
 70
     1
102
RTVSPost2010Prop35
280
     0
102
RTVSPost2010PropOp35
 70
     1
102
RTVSPost2010Prop36
280
     0
102
RTVSPost2010PropOp36
 70
     1
102
RTVSPost2010Prop37
 90
       50
102
RTVSPost2010PropOp37
 70
     1
102
RTVSPost2010Prop38
140
0.0
102
RTVSPost2010PropOp38
 70
     1
102
RTVSPost2010Prop39
140
1.0
102
RTVSPost2010PropOp39
 70
     1
102
RTVSPost2010Prop40
 90
        0
102
RTVSPost2010PropOp40
 70
     1
102
RTVSPost2010Prop41ColorIndex
 90
       18
102
RTVSPost2010Prop41ColorRGB
 90
        0
102
RTVSPost2010PropOp41
 70
     1
102
RTVSPost2010Prop42
 90
       50
102
RTVSPost2010PropOp42
 70
     1
102
RTVSPost2010Prop43
 90
        3
102
RTVSPost2010PropOp43
 70
     1
102
RTVSPost2010Prop44ColorIndex
 90
        5
102
RTVSPost2010Prop44ColorRGB
 90
      255
102
RTVSPost2010PropOp44
 70
     1
102
RTVSPost2010Prop45
280
     0
102
RTVSPost2010PropOp45
 70
     1
102
RTVSPost2010Prop46
 90
       50
102
RTVSPost2010PropOp46
 70
     1
102
RTVSPost2010Prop47
 90
       50
102
RTVSPost2010PropOp47
 70
     1
102
RTVSPost2010Prop48
 90
       50
102
RTVSPost2010PropOp48
 70
     1
102
RTVSPost2010Prop49
280
     0
102
RTVSPost2010PropOp49
 70
     1
102
RTVSPost2010Prop50
 90
       50
102
RTVSPost2010PropOp50
 70
     1
102
RTVSPost2010Prop51ColorIndex
 90
      256
102
RTVSPost2010Prop51ColorRGB
 90
-16777216
102
RTVSPost2010PropOp51
 70
     0
102
RTVSPost2010Prop52
140
1.0
102
RTVSPost2010PropOp52
 70
     0
102
RTVSPost2010Prop53
 90
        2
102
RTVSPost2010PropOp53
 70
     1
102
RTVSPost2010Prop54
  1
strokes_ogs.tif
102
RTVSPost2010PropOp54
 70
     1
102
RTVSPost2010Prop55
280
     0
102
RTVSPost2010PropOp55
 70
     1
102
RTVSPost2010Prop56
140
1.0
102
RTVSPost2010PropOp56
 70
     1
102
RTVSPost2010Prop57
140
1.0
102
RTVSPost2010PropOp57
 70
     1
102
RTVSPropertyOp0
 70
     1
102
RTVSPropertyOp1
 70
     1
102
RTVSPropertyOp2
 70
     1
102
RTVSPropertyOp3
 70
     1
102
RTVSPropertyOp4
 70
     1
102
RTVSPropertyOp5
 70
     1
102
RTVSPropertyOp6
 70
     1
102
RTVSPropertyOp7
 70
     1
102
RTVSPropertyOp8
 70
     1
102
RTVSPropertyOp9
 70
     1
102
RTVSPropertyOp10
 70
     1
102
RTVSPropertyOp11
 70
     1
102
RTVSPropertyOp12
 70
     1
102
RTVSPropertyOp13
 70
     1
102
RTVSPropertyOp14
 70
     1
102
RTVSPropertyOp15
 70
     1
102
RTVSPropertyOp16
 70
     1
102
RTVSPropertyOp17
 70
     1
102
RTVSPropertyOp18
 70
     1
102
RTVSPropertyOp19
 70
     1
102
RTVSPropertyOp20
 70
     1
102
RTVSPropertyOp21
 70
     1
102
RTVSPropertyOp22
 70
     1
102
RTVSPropertyOp23
 70
     1
102
RTVSPropertyOp24
 70
     1
102
RTVSPropertyOp25
 70
     1
102
RTVSPropertyOp26
 70
     1
102
RTVSPropertyOp27
 70
     1
102
RTVSPropertyOp28
 70
     1
102
RTVSPropertyOp29
 70
     1
102
RTVSPropertyOp30
 70
     1
102
RTVSPropertyOp31
 70
     1
102
RTVSPropertyOp32
 70
     1
102
RTVSPropertyOp33
 70
     1
102
RTVSPropertyOp34
 70
     1
102
RTVSPropertyOp35
 70
     1
102
RTVSPropertyOp36
 70
     1
102
RTVSPropertyOp37
 70
     1
102
RTVSPropertyOp38
 70
     1
102
RTVSPropertyOp39
 70
     1
102
RTVSPropertyOp40
 70
     1
102
RTVSPropertyOp41
 70
     1
102
RTVSPropertyOp42
 70
     1
102
RTVSPropertyOp43
 70
     1
102
RTVSPropertyOp44
 70
     1
102
RTVSPropertyOp45
 70
     1
102
RTVSPropertyOp46
 70
     1
102
RTVSPropertyOp47
 70
     1
102
RTVSPropertyOp48
 70
     1
102
RTVSPropertyOp49
 70
     1
102
RTVSPropertyOp50
 70
     1
102
RTVSPropertyOp51
 70
     0
102
RTVSPropertyOp52
 70
     0
102
RTVSPropertyOp53
 70
     1
102
RTVSPropertyOp54
 70
     1
102
RTVSPropertyOp55
 70
     1
102
RTVSPropertyOp56
 70
     1
102
RTVSPropertyOp57
 70
     1
102
RTVSPropertyOp58
 70
     1
102
RTVSPropertyOp59
 70
     1
102
RTVSPropertyOp60
 70
     1
102
RTVSPropertyOp61
 70
     1
102
RTVSPropertyOp62
 70
     1
  0
XRECORD
  5
12E2
102
{ACAD_REACTORS
330
12E1
102
}
330
12E1
100
AcDbXrecord
280
     1
102
RTVSPost2010Prop28
280
     0
102
RTVSPost2010PropOp28
 70
     1
102
RTVSPost2010Prop29
280
     1
102
RTVSPost2010PropOp29
 70
     1
102
RTVSPost2010Prop30
280
     1
102
RTVSPost2010PropOp30
 70
     1
102
RTVSPost2010Prop31
280
     0
102
RTVSPost2010PropOp31
 70
     1
102
RTVSPost2010Prop32
280
     0
102
RTVSPost2010PropOp32
 70
     1
102
RTVSPost2010Prop33
280
     0
102
RTVSPost2010PropOp33
 70
     1
102
RTVSPost2010Prop34
280
     0
102
RTVSPost2010PropOp34
 70
     1
102
RTVSPost2010Prop35
280
     0
102
RTVSPost2010PropOp35
 70
     1
102
RTVSPost2010Prop36
280
     0
102
RTVSPost2010PropOp36
 70
     1
102
RTVSPost2010Prop37
 90
       50
102
RTVSPost2010PropOp37
 70
     1
102
RTVSPost2010Prop38
140
0.0
102
RTVSPost2010PropOp38
 70
     1
102
RTVSPost2010Prop39
140
1.0
102
RTVSPost2010PropOp39
 70
     1
102
RTVSPost2010Prop40
 90
        0
102
RTVSPost2010PropOp40
 70
     1
102
RTVSPost2010Prop41ColorIndex
 90
       18
102
RTVSPost2010Prop41ColorRGB
 90
        0
102
RTVSPost2010PropOp41
 70
     1
102
RTVSPost2010Prop42
 90
       50
102
RTVSPost2010PropOp42
 70
     1
102
RTVSPost2010Prop43
 90
        3
102
RTVSPost2010PropOp43
 70
     1
102
RTVSPost2010Prop44ColorIndex
 90
        5
102
RTVSPost2010Prop44ColorRGB
 90
      255
102
RTVSPost2010PropOp44
 70
     1
102
RTVSPost2010Prop45
280
     0
102
RTVSPost2010PropOp45
 70
     1
102
RTVSPost2010Prop46
 90
       50
102
RTVSPost2010PropOp46
 70
     1
102
RTVSPost2010Prop47
 90
       50
102
RTVSPost2010PropOp47
 70
     1
102
RTVSPost2010Prop48
 90
       50
102
RTVSPost2010PropOp48
 70
     1
102
RTVSPost2010Prop49
280
     0
102
RTVSPost2010PropOp49
 70
     1
102
RTVSPost2010Prop50
 90
       50
102
RTVSPost2010PropOp50
 70
     1
102
RTVSPost2010Prop51ColorIndex
 90
      256
102
RTVSPost2010Prop51ColorRGB
 90
-16777216
102
RTVSPost2010PropOp51
 70
     0
102
RTVSPost2010Prop52
140
1.0
102
RTVSPost2010PropOp52
 70
     0
102
RTVSPost2010Prop53
 90
        2
102
RTVSPost2010PropOp53
 70
     1
102
RTVSPost2010Prop54
  1
strokes_ogs.tif
102
RTVSPost2010PropOp54
 70
     1
102
RTVSPost2010Prop55
280
     0
102
RTVSPost2010PropOp55
 70
     1
102
RTVSPost2010Prop56
140
1.0
102
RTVSPost2010PropOp56
 70
     1
102
RTVSPost2010Prop57
140
1.0
102
RTVSPost2010PropOp57
 70
     1
102
RTVSPropertyOp0
 70
     1
102
RTVSPropertyOp1
 70
     1
102
RTVSPropertyOp2
 70
     1
102
RTVSPropertyOp3
 70
     1
102
RTVSPropertyOp4
 70
     1
102
RTVSPropertyOp5
 70
     1
102
RTVSPropertyOp6
 70
     1
102
RTVSPropertyOp7
 70
     1
102
RTVSPropertyOp8
 70
     1
102
RTVSPropertyOp9
 70
     1
102
RTVSPropertyOp10
 70
     1
102
RTVSPropertyOp11
 70
     1
102
RTVSPropertyOp12
 70
     1
102
RTVSPropertyOp13
 70
     1
102
RTVSPropertyOp14
 70
     1
102
RTVSPropertyOp15
 70
     1
102
RTVSPropertyOp16
 70
     1
102
RTVSPropertyOp17
 70
     1
102
RTVSPropertyOp18
 70
     1
102
RTVSPropertyOp19
 70
     1
102
RTVSPropertyOp20
 70
     1
102
RTVSPropertyOp21
 70
     1
102
RTVSPropertyOp22
 70
     1
102
RTVSPropertyOp23
 70
     1
102
RTVSPropertyOp24
 70
     1
102
RTVSPropertyOp25
 70
     1
102
RTVSPropertyOp26
 70
     1
102
RTVSPropertyOp27
 70
     1
102
RTVSPropertyOp28
 70
     1
102
RTVSPropertyOp29
 70
     1
102
RTVSPropertyOp30
 70
     1
102
RTVSPropertyOp31
 70
     1
102
RTVSPropertyOp32
 70
     1
102
RTVSPropertyOp33
 70
     1
102
RTVSPropertyOp34
 70
     1
102
RTVSPropertyOp35
 70
     1
102
RTVSPropertyOp36
 70
     1
102
RTVSPropertyOp37
 70
     1
102
RTVSPropertyOp38
 70
     1
102
RTVSPropertyOp39
 70
     1
102
RTVSPropertyOp40
 70
     1
102
RTVSPropertyOp41
 70
     1
102
RTVSPropertyOp42
 70
     1
102
RTVSPropertyOp43
 70
     1
102
RTVSPropertyOp44
 70
     1
102
RTVSPropertyOp45
 70
     1
102
RTVSPropertyOp46
 70
     1
102
RTVSPropertyOp47
 70
     1
102
RTVSPropertyOp48
 70
     1
102
RTVSPropertyOp49
 70
     1
102
RTVSPropertyOp50
 70
     1
102
RTVSPropertyOp51
 70
     0
102
RTVSPropertyOp52
 70
     0
102
RTVSPropertyOp53
 70
     1
102
RTVSPropertyOp54
 70
     1
102
RTVSPropertyOp55
 70
     1
102
RTVSPropertyOp56
 70
     1
102
RTVSPropertyOp57
 70
     1
102
RTVSPropertyOp58
 70
     1
102
RTVSPropertyOp59
 70
     1
102
RTVSPropertyOp60
 70
     1
102
RTVSPropertyOp61
 70
     1
102
RTVSPropertyOp62
 70
     1
  0
XRECORD
  5
12E4
102
{ACAD_REACTORS
330
12E3
102
}
330
12E3
100
AcDbXrecord
280
     1
102
RTVSPost2010Prop28
280
     0
102
RTVSPost2010PropOp28
 70
     1
102
RTVSPost2010Prop29
280
     1
102
RTVSPost2010PropOp29
 70
     1
102
RTVSPost2010Prop30
280
     1
102
RTVSPost2010PropOp30
 70
     1
102
RTVSPost2010Prop31
280
     0
102
RTVSPost2010PropOp31
 70
     1
102
RTVSPost2010Prop32
280
     0
102
RTVSPost2010PropOp32
 70
     1
102
RTVSPost2010Prop33
280
     0
102
RTVSPost2010PropOp33
 70
     1
102
RTVSPost2010Prop34
280
     0
102
RTVSPost2010PropOp34
 70
     1
102
RTVSPost2010Prop35
280
     0
102
RTVSPost2010PropOp35
 70
     1
102
RTVSPost2010Prop36
280
     0
102
RTVSPost2010PropOp36
 70
     1
102
RTVSPost2010Prop37
 90
       50
102
RTVSPost2010PropOp37
 70
     1
102
RTVSPost2010Prop38
140
0.0
102
RTVSPost2010PropOp38
 70
     1
102
RTVSPost2010Prop39
140
1.0
102
RTVSPost2010PropOp39
 70
     1
102
RTVSPost2010Prop40
 90
        0
102
RTVSPost2010PropOp40
 70
     1
102
RTVSPost2010Prop41ColorIndex
 90
       18
102
RTVSPost2010Prop41ColorRGB
 90
        0
102
RTVSPost2010PropOp41
 70
     1
102
RTVSPost2010Prop42
 90
       50
102
RTVSPost2010PropOp42
 70
     1
102
RTVSPost2010Prop43
 90
        3
102
RTVSPost2010PropOp43
 70
     1
102
RTVSPost2010Prop44ColorIndex
 90
        5
102
RTVSPost2010Prop44ColorRGB
 90
      255
102
RTVSPost2010PropOp44
 70
     1
102
RTVSPost2010Prop45
280
     0
102
RTVSPost2010PropOp45
 70
     1
102
RTVSPost2010Prop46
 90
       50
102
RTVSPost2010PropOp46
 70
     1
102
RTVSPost2010Prop47
 90
       50
102
RTVSPost2010PropOp47
 70
     1
102
RTVSPost2010Prop48
 90
       50
102
RTVSPost2010PropOp48
 70
     1
102
RTVSPost2010Prop49
280
     0
102
RTVSPost2010PropOp49
 70
     1
102
RTVSPost2010Prop50
 90
       50
102
RTVSPost2010PropOp50
 70
     1
102
RTVSPost2010Prop51ColorIndex
 90
      256
102
RTVSPost2010Prop51ColorRGB
 90
-16777216
102
RTVSPost2010PropOp51
 70
     0
102
RTVSPost2010Prop52
140
1.0
102
RTVSPost2010PropOp52
 70
     0
102
RTVSPost2010Prop53
 90
        2
102
RTVSPost2010PropOp53
 70
     1
102
RTVSPost2010Prop54
  1
strokes_ogs.tif
102
RTVSPost2010PropOp54
 70
     1
102
RTVSPost2010Prop55
280
     0
102
RTVSPost2010PropOp55
 70
     1
102
RTVSPost2010Prop56
140
1.0
102
RTVSPost2010PropOp56
 70
     1
102
RTVSPost2010Prop57
140
1.0
102
RTVSPost2010PropOp57
 70
     1
102
RTVSPropertyOp0
 70
     1
102
RTVSPropertyOp1
 70
     1
102
RTVSPropertyOp2
 70
     1
102
RTVSPropertyOp3
 70
     1
102
RTVSPropertyOp4
 70
     1
102
RTVSPropertyOp5
 70
     1
102
RTVSPropertyOp6
 70
     1
102
RTVSPropertyOp7
 70
     1
102
RTVSPropertyOp8
 70
     1
102
RTVSPropertyOp9
 70
     1
102
RTVSPropertyOp10
 70
     1
102
RTVSPropertyOp11
 70
     1
102
RTVSPropertyOp12
 70
     1
102
RTVSPropertyOp13
 70
     1
102
RTVSPropertyOp14
 70
     1
102
RTVSPropertyOp15
 70
     1
102
RTVSPropertyOp16
 70
     1
102
RTVSPropertyOp17
 70
     1
102
RTVSPropertyOp18
 70
     1
102
RTVSPropertyOp19
 70
     1
102
RTVSPropertyOp20
 70
     1
102
RTVSPropertyOp21
 70
     1
102
RTVSPropertyOp22
 70
     1
102
RTVSPropertyOp23
 70
     1
102
RTVSPropertyOp24
 70
     1
102
RTVSPropertyOp25
 70
     1
102
RTVSPropertyOp26
 70
     1
102
RTVSPropertyOp27
 70
     1
102
RTVSPropertyOp28
 70
     1
102
RTVSPropertyOp29
 70
     1
102
RTVSPropertyOp30
 70
     1
102
RTVSPropertyOp31
 70
     1
102
RTVSPropertyOp32
 70
     1
102
RTVSPropertyOp33
 70
     1
102
RTVSPropertyOp34
 70
     1
102
RTVSPropertyOp35
 70
     1
102
RTVSPropertyOp36
 70
     1
102
RTVSPropertyOp37
 70
     1
102
RTVSPropertyOp38
 70
     1
102
RTVSPropertyOp39
 70
     1
102
RTVSPropertyOp40
 70
     1
102
RTVSPropertyOp41
 70
     1
102
RTVSPropertyOp42
 70
     1
102
RTVSPropertyOp43
 70
     1
102
RTVSPropertyOp44
 70
     1
102
RTVSPropertyOp45
 70
     1
102
RTVSPropertyOp46
 70
     1
102
RTVSPropertyOp47
 70
     1
102
RTVSPropertyOp48
 70
     1
102
RTVSPropertyOp49
 70
     1
102
RTVSPropertyOp50
 70
     1
102
RTVSPropertyOp51
 70
     0
102
RTVSPropertyOp52
 70
     0
102
RTVSPropertyOp53
 70
     1
102
RTVSPropertyOp54
 70
     1
102
RTVSPropertyOp55
 70
     1
102
RTVSPropertyOp56
 70
     1
102
RTVSPropertyOp57
 70
     1
102
RTVSPropertyOp58
 70
     1
102
RTVSPropertyOp59
 70
     1
102
RTVSPropertyOp60
 70
     1
102
RTVSPropertyOp61
 70
     1
102
RTVSPropertyOp62
 70
     1
  0
XRECORD
  5
12E6
102
{ACAD_REACTORS
330
12E5
102
}
330
12E5
100
AcDbXrecord
280
     1
102
RTVSPost2010Prop28
280
     0
102
RTVSPost2010PropOp28
 70
     1
102
RTVSPost2010Prop29
280
     1
102
RTVSPost2010PropOp29
 70
     1
102
RTVSPost2010Prop30
280
     1
102
RTVSPost2010PropOp30
 70
     1
102
RTVSPost2010Prop31
280
     0
102
RTVSPost2010PropOp31
 70
     1
102
RTVSPost2010Prop32
280
     0
102
RTVSPost2010PropOp32
 70
     1
102
RTVSPost2010Prop33
280
     0
102
RTVSPost2010PropOp33
 70
     1
102
RTVSPost2010Prop34
280
     0
102
RTVSPost2010PropOp34
 70
     1
102
RTVSPost2010Prop35
280
     0
102
RTVSPost2010PropOp35
 70
     1
102
RTVSPost2010Prop36
280
     0
102
RTVSPost2010PropOp36
 70
     1
102
RTVSPost2010Prop37
 90
       50
102
RTVSPost2010PropOp37
 70
     1
102
RTVSPost2010Prop38
140
0.0
102
RTVSPost2010PropOp38
 70
     1
102
RTVSPost2010Prop39
140
1.0
102
RTVSPost2010PropOp39
 70
     1
102
RTVSPost2010Prop40
 90
        0
102
RTVSPost2010PropOp40
 70
     1
102
RTVSPost2010Prop41ColorIndex
 90
       18
102
RTVSPost2010Prop41ColorRGB
 90
        0
102
RTVSPost2010PropOp41
 70
     1
102
RTVSPost2010Prop42
 90
       50
102
RTVSPost2010PropOp42
 70
     1
102
RTVSPost2010Prop43
 90
        3
102
RTVSPost2010PropOp43
 70
     1
102
RTVSPost2010Prop44ColorIndex
 90
        5
102
RTVSPost2010Prop44ColorRGB
 90
      255
102
RTVSPost2010PropOp44
 70
     1
102
RTVSPost2010Prop45
280
     0
102
RTVSPost2010PropOp45
 70
     1
102
RTVSPost2010Prop46
 90
       50
102
RTVSPost2010PropOp46
 70
     1
102
RTVSPost2010Prop47
 90
       50
102
RTVSPost2010PropOp47
 70
     1
102
RTVSPost2010Prop48
 90
       50
102
RTVSPost2010PropOp48
 70
     1
102
RTVSPost2010Prop49
280
     0
102
RTVSPost2010PropOp49
 70
     1
102
RTVSPost2010Prop50
 90
       50
102
RTVSPost2010PropOp50
 70
     1
102
RTVSPost2010Prop51ColorIndex
 90
      256
102
RTVSPost2010Prop51ColorRGB
 90
-16777216
102
RTVSPost2010PropOp51
 70
     0
102
RTVSPost2010Prop52
140
1.0
102
RTVSPost2010PropOp52
 70
     0
102
RTVSPost2010Prop53
 90
        2
102
RTVSPost2010PropOp53
 70
     1
102
RTVSPost2010Prop54
  1
strokes_ogs.tif
102
RTVSPost2010PropOp54
 70
     1
102
RTVSPost2010Prop55
280
     0
102
RTVSPost2010PropOp55
 70
     1
102
RTVSPost2010Prop56
140
1.0
102
RTVSPost2010PropOp56
 70
     1
102
RTVSPost2010Prop57
140
1.0
102
RTVSPost2010PropOp57
 70
     1
102
RTVSPropertyOp0
 70
     1
102
RTVSPropertyOp1
 70
     1
102
RTVSPropertyOp2
 70
     1
102
RTVSPropertyOp3
 70
     1
102
RTVSPropertyOp4
 70
     1
102
RTVSPropertyOp5
 70
     1
102
RTVSPropertyOp6
 70
     1
102
RTVSPropertyOp7
 70
     1
102
RTVSPropertyOp8
 70
     1
102
RTVSPropertyOp9
 70
     1
102
RTVSPropertyOp10
 70
     1
102
RTVSPropertyOp11
 70
     1
102
RTVSPropertyOp12
 70
     1
102
RTVSPropertyOp13
 70
     1
102
RTVSPropertyOp14
 70
     1
102
RTVSPropertyOp15
 70
     1
102
RTVSPropertyOp16
 70
     1
102
RTVSPropertyOp17
 70
     1
102
RTVSPropertyOp18
 70
     1
102
RTVSPropertyOp19
 70
     1
102
RTVSPropertyOp20
 70
     1
102
RTVSPropertyOp21
 70
     1
102
RTVSPropertyOp22
 70
     1
102
RTVSPropertyOp23
 70
     1
102
RTVSPropertyOp24
 70
     1
102
RTVSPropertyOp25
 70
     1
102
RTVSPropertyOp26
 70
     1
102
RTVSPropertyOp27
 70
     1
102
RTVSPropertyOp28
 70
     1
102
RTVSPropertyOp29
 70
     1
102
RTVSPropertyOp30
 70
     1
102
RTVSPropertyOp31
 70
     1
102
RTVSPropertyOp32
 70
     1
102
RTVSPropertyOp33
 70
     1
102
RTVSPropertyOp34
 70
     1
102
RTVSPropertyOp35
 70
     1
102
RTVSPropertyOp36
 70
     1
102
RTVSPropertyOp37
 70
     1
102
RTVSPropertyOp38
 70
     1
102
RTVSPropertyOp39
 70
     1
102
RTVSPropertyOp40
 70
     1
102
RTVSPropertyOp41
 70
     1
102
RTVSPropertyOp42
 70
     1
102
RTVSPropertyOp43
 70
     1
102
RTVSPropertyOp44
 70
     1
102
RTVSPropertyOp45
 70
     1
102
RTVSPropertyOp46
 70
     1
102
RTVSPropertyOp47
 70
     1
102
RTVSPropertyOp48
 70
     1
102
RTVSPropertyOp49
 70
     1
102
RTVSPropertyOp50
 70
     1
102
RTVSPropertyOp51
 70
     0
102
RTVSPropertyOp52
 70
     0
102
RTVSPropertyOp53
 70
     1
102
RTVSPropertyOp54
 70
     1
102
RTVSPropertyOp55
 70
     1
102
RTVSPropertyOp56
 70
     1
102
RTVSPropertyOp57
 70
     1
102
RTVSPropertyOp58
 70
     1
102
RTVSPropertyOp59
 70
     1
102
RTVSPropertyOp60
 70
     1
102
RTVSPropertyOp61
 70
     1
102
RTVSPropertyOp62
 70
     1
  0
XRECORD
  5
12E8
102
{ACAD_REACTORS
330
12E7
102
}
330
12E7
100
AcDbXrecord
280
     1
102
RTVSPost2010Prop28
280
     0
102
RTVSPost2010PropOp28
 70
     1
102
RTVSPost2010Prop29
280
     1
102
RTVSPost2010PropOp29
 70
     1
102
RTVSPost2010Prop30
280
     1
102
RTVSPost2010PropOp30
 70
     1
102
RTVSPost2010Prop31
280
     0
102
RTVSPost2010PropOp31
 70
     1
102
RTVSPost2010Prop32
280
     0
102
RTVSPost2010PropOp32
 70
     1
102
RTVSPost2010Prop33
280
     0
102
RTVSPost2010PropOp33
 70
     1
102
RTVSPost2010Prop34
280
     0
102
RTVSPost2010PropOp34
 70
     1
102
RTVSPost2010Prop35
280
     0
102
RTVSPost2010PropOp35
 70
     1
102
RTVSPost2010Prop36
280
     0
102
RTVSPost2010PropOp36
 70
     1
102
RTVSPost2010Prop37
 90
       50
102
RTVSPost2010PropOp37
 70
     1
102
RTVSPost2010Prop38
140
0.0
102
RTVSPost2010PropOp38
 70
     1
102
RTVSPost2010Prop39
140
1.0
102
RTVSPost2010PropOp39
 70
     1
102
RTVSPost2010Prop40
 90
        0
102
RTVSPost2010PropOp40
 70
     1
102
RTVSPost2010Prop41ColorIndex
 90
       18
102
RTVSPost2010Prop41ColorRGB
 90
        0
102
RTVSPost2010PropOp41
 70
     1
102
RTVSPost2010Prop42
 90
       50
102
RTVSPost2010PropOp42
 70
     1
102
RTVSPost2010Prop43
 90
        3
102
RTVSPost2010PropOp43
 70
     1
102
RTVSPost2010Prop44ColorIndex
 90
        5
102
RTVSPost2010Prop44ColorRGB
 90
      255
102
RTVSPost2010PropOp44
 70
     1
102
RTVSPost2010Prop45
280
     0
102
RTVSPost2010PropOp45
 70
     1
102
RTVSPost2010Prop46
 90
       50
102
RTVSPost2010PropOp46
 70
     1
102
RTVSPost2010Prop47
 90
       50
102
RTVSPost2010PropOp47
 70
     1
102
RTVSPost2010Prop48
 90
       50
102
RTVSPost2010PropOp48
 70
     1
102
RTVSPost2010Prop49
280
     0
102
RTVSPost2010PropOp49
 70
     1
102
RTVSPost2010Prop50
 90
       50
102
RTVSPost2010PropOp50
 70
     1
102
RTVSPost2010Prop51ColorIndex
 90
      256
102
RTVSPost2010Prop51ColorRGB
 90
-16777216
102
RTVSPost2010PropOp51
 70
     0
102
RTVSPost2010Prop52
140
1.0
102
RTVSPost2010PropOp52
 70
     0
102
RTVSPost2010Prop53
 90
        2
102
RTVSPost2010PropOp53
 70
     1
102
RTVSPost2010Prop54
  1
strokes_ogs.tif
102
RTVSPost2010PropOp54
 70
     1
102
RTVSPost2010Prop55
280
     0
102
RTVSPost2010PropOp55
 70
     1
102
RTVSPost2010Prop56
140
1.0
102
RTVSPost2010PropOp56
 70
     1
102
RTVSPost2010Prop57
140
1.0
102
RTVSPost2010PropOp57
 70
     1
102
RTVSPropertyOp0
 70
     1
102
RTVSPropertyOp1
 70
     1
102
RTVSPropertyOp2
 70
     1
102
RTVSPropertyOp3
 70
     1
102
RTVSPropertyOp4
 70
     1
102
RTVSPropertyOp5
 70
     1
102
RTVSPropertyOp6
 70
     1
102
RTVSPropertyOp7
 70
     1
102
RTVSPropertyOp8
 70
     1
102
RTVSPropertyOp9
 70
     1
102
RTVSPropertyOp10
 70
     1
102
RTVSPropertyOp11
 70
     1
102
RTVSPropertyOp12
 70
     1
102
RTVSPropertyOp13
 70
     1
102
RTVSPropertyOp14
 70
     1
102
RTVSPropertyOp15
 70
     1
102
RTVSPropertyOp16
 70
     1
102
RTVSPropertyOp17
 70
     1
102
RTVSPropertyOp18
 70
     1
102
RTVSPropertyOp19
 70
     1
102
RTVSPropertyOp20
 70
     1
102
RTVSPropertyOp21
 70
     1
102
RTVSPropertyOp22
 70
     1
102
RTVSPropertyOp23
 70
     1
102
RTVSPropertyOp24
 70
     1
102
RTVSPropertyOp25
 70
     1
102
RTVSPropertyOp26
 70
     1
102
RTVSPropertyOp27
 70
     1
102
RTVSPropertyOp28
 70
     1
102
RTVSPropertyOp29
 70
     1
102
RTVSPropertyOp30
 70
     1
102
RTVSPropertyOp31
 70
     1
102
RTVSPropertyOp32
 70
     1
102
RTVSPropertyOp33
 70
     1
102
RTVSPropertyOp34
 70
     1
102
RTVSPropertyOp35
 70
     1
102
RTVSPropertyOp36
 70
     1
102
RTVSPropertyOp37
 70
     1
102
RTVSPropertyOp38
 70
     1
102
RTVSPropertyOp39
 70
     1
102
RTVSPropertyOp40
 70
     1
102
RTVSPropertyOp41
 70
     1
102
RTVSPropertyOp42
 70
     1
102
RTVSPropertyOp43
 70
     1
102
RTVSPropertyOp44
 70
     1
102
RTVSPropertyOp45
 70
     1
102
RTVSPropertyOp46
 70
     1
102
RTVSPropertyOp47
 70
     1
102
RTVSPropertyOp48
 70
     1
102
RTVSPropertyOp49
 70
     1
102
RTVSPropertyOp50
 70
     1
102
RTVSPropertyOp51
 70
     0
102
RTVSPropertyOp52
 70
     0
102
RTVSPropertyOp53
 70
     1
102
RTVSPropertyOp54
 70
     1
102
RTVSPropertyOp55
 70
     1
102
RTVSPropertyOp56
 70
     1
102
RTVSPropertyOp57
 70
     1
102
RTVSPropertyOp58
 70
     1
102
RTVSPropertyOp59
 70
     1
102
RTVSPropertyOp60
 70
     1
102
RTVSPropertyOp61
 70
     1
102
RTVSPropertyOp62
 70
     1
  0
XRECORD
  5
12F0
102
{ACAD_REACTORS
330
12EF
102
}
330
12EF
100
AcDbXrecord
280
     1
102
RTVSPost2010Prop28
280
     0
102
RTVSPost2010PropOp28
 70
     1
102
RTVSPost2010Prop29
280
     1
102
RTVSPost2010PropOp29
 70
     1
102
RTVSPost2010Prop30
280
     1
102
RTVSPost2010PropOp30
 70
     1
102
RTVSPost2010Prop31
280
     0
102
RTVSPost2010PropOp31
 70
     1
102
RTVSPost2010Prop32
280
     0
102
RTVSPost2010PropOp32
 70
     1
102
RTVSPost2010Prop33
280
     0
102
RTVSPost2010PropOp33
 70
     1
102
RTVSPost2010Prop34
280
     0
102
RTVSPost2010PropOp34
 70
     1
102
RTVSPost2010Prop35
280
     0
102
RTVSPost2010PropOp35
 70
     1
102
RTVSPost2010Prop36
280
     0
102
RTVSPost2010PropOp36
 70
     1
102
RTVSPost2010Prop37
 90
       50
102
RTVSPost2010PropOp37
 70
     1
102
RTVSPost2010Prop38
140
0.0
102
RTVSPost2010PropOp38
 70
     1
102
RTVSPost2010Prop39
140
1.0
102
RTVSPost2010PropOp39
 70
     1
102
RTVSPost2010Prop40
 90
        0
102
RTVSPost2010PropOp40
 70
     1
102
RTVSPost2010Prop41ColorIndex
 90
       18
102
RTVSPost2010Prop41ColorRGB
 90
        0
102
RTVSPost2010PropOp41
 70
     1
102
RTVSPost2010Prop42
 90
       50
102
RTVSPost2010PropOp42
 70
     1
102
RTVSPost2010Prop43
 90
        3
102
RTVSPost2010PropOp43
 70
     1
102
RTVSPost2010Prop44ColorIndex
 90
        5
102
RTVSPost2010Prop44ColorRGB
 90
      255
102
RTVSPost2010PropOp44
 70
     1
102
RTVSPost2010Prop45
280
     0
102
RTVSPost2010PropOp45
 70
     1
102
RTVSPost2010Prop46
 90
       50
102
RTVSPost2010PropOp46
 70
     1
102
RTVSPost2010Prop47
 90
       50
102
RTVSPost2010PropOp47
 70
     1
102
RTVSPost2010Prop48
 90
       50
102
RTVSPost2010PropOp48
 70
     1
102
RTVSPost2010Prop49
280
     0
102
RTVSPost2010PropOp49
 70
     1
102
RTVSPost2010Prop50
 90
       50
102
RTVSPost2010PropOp50
 70
     1
102
RTVSPost2010Prop51ColorIndex
 90
      256
102
RTVSPost2010Prop51ColorRGB
 90
-16777216
102
RTVSPost2010PropOp51
 70
     0
102
RTVSPost2010Prop52
140
1.0
102
RTVSPost2010PropOp52
 70
     0
102
RTVSPost2010Prop53
 90
        2
102
RTVSPost2010PropOp53
 70
     1
102
RTVSPost2010Prop54
  1
strokes_ogs.tif
102
RTVSPost2010PropOp54
 70
     1
102
RTVSPost2010Prop55
280
     0
102
RTVSPost2010PropOp55
 70
     1
102
RTVSPost2010Prop56
140
1.0
102
RTVSPost2010PropOp56
 70
     1
102
RTVSPost2010Prop57
140
1.0
102
RTVSPost2010PropOp57
 70
     1
102
RTVSPropertyOp0
 70
     1
102
RTVSPropertyOp1
 70
     1
102
RTVSPropertyOp2
 70
     1
102
RTVSPropertyOp3
 70
     1
102
RTVSPropertyOp4
 70
     1
102
RTVSPropertyOp5
 70
     1
102
RTVSPropertyOp6
 70
     1
102
RTVSPropertyOp7
 70
     1
102
RTVSPropertyOp8
 70
     1
102
RTVSPropertyOp9
 70
     1
102
RTVSPropertyOp10
 70
     1
102
RTVSPropertyOp11
 70
     1
102
RTVSPropertyOp12
 70
     1
102
RTVSPropertyOp13
 70
     1
102
RTVSPropertyOp14
 70
     1
102
RTVSPropertyOp15
 70
     1
102
RTVSPropertyOp16
 70
     1
102
RTVSPropertyOp17
 70
     1
102
RTVSPropertyOp18
 70
     1
102
RTVSPropertyOp19
 70
     1
102
RTVSPropertyOp20
 70
     1
102
RTVSPropertyOp21
 70
     1
102
RTVSPropertyOp22
 70
     1
102
RTVSPropertyOp23
 70
     1
102
RTVSPropertyOp24
 70
     1
102
RTVSPropertyOp25
 70
     1
102
RTVSPropertyOp26
 70
     1
102
RTVSPropertyOp27
 70
     1
102
RTVSPropertyOp28
 70
     1
102
RTVSPropertyOp29
 70
     1
102
RTVSPropertyOp30
 70
     1
102
RTVSPropertyOp31
 70
     1
102
RTVSPropertyOp32
 70
     1
102
RTVSPropertyOp33
 70
     1
102
RTVSPropertyOp34
 70
     1
102
RTVSPropertyOp35
 70
     1
102
RTVSPropertyOp36
 70
     1
102
RTVSPropertyOp37
 70
     1
102
RTVSPropertyOp38
 70
     1
102
RTVSPropertyOp39
 70
     1
102
RTVSPropertyOp40
 70
     1
102
RTVSPropertyOp41
 70
     1
102
RTVSPropertyOp42
 70
     1
102
RTVSPropertyOp43
 70
     1
102
RTVSPropertyOp44
 70
     1
102
RTVSPropertyOp45
 70
     1
102
RTVSPropertyOp46
 70
     1
102
RTVSPropertyOp47
 70
     1
102
RTVSPropertyOp48
 70
     1
102
RTVSPropertyOp49
 70
     1
102
RTVSPropertyOp50
 70
     1
102
RTVSPropertyOp51
 70
     0
102
RTVSPropertyOp52
 70
     0
102
RTVSPropertyOp53
 70
     1
102
RTVSPropertyOp54
 70
     1
102
RTVSPropertyOp55
 70
     1
102
RTVSPropertyOp56
 70
     1
102
RTVSPropertyOp57
 70
     1
102
RTVSPropertyOp58
 70
     1
102
RTVSPropertyOp59
 70
     1
102
RTVSPropertyOp60
 70
     1
102
RTVSPropertyOp61
 70
     1
102
RTVSPropertyOp62
 70
     1
  0
XRECORD
  5
130C
102
{ACAD_REACTORS
330
130B
102
}
330
130B
100
AcDbXrecord
280
     1
102
RTVSPost2010Prop28
280
     0
102
RTVSPost2010PropOp28
 70
     1
102
RTVSPost2010Prop29
280
     1
102
RTVSPost2010PropOp29
 70
     1
102
RTVSPost2010Prop30
280
     1
102
RTVSPost2010PropOp30
 70
     1
102
RTVSPost2010Prop31
280
     0
102
RTVSPost2010PropOp31
 70
     1
102
RTVSPost2010Prop32
280
     0
102
RTVSPost2010PropOp32
 70
     1
102
RTVSPost2010Prop33
280
     0
102
RTVSPost2010PropOp33
 70
     1
102
RTVSPost2010Prop34
280
     0
102
RTVSPost2010PropOp34
 70
     1
102
RTVSPost2010Prop35
280
     0
102
RTVSPost2010PropOp35
 70
     1
102
RTVSPost2010Prop36
280
     0
102
RTVSPost2010PropOp36
 70
     1
102
RTVSPost2010Prop37
 90
       50
102
RTVSPost2010PropOp37
 70
     0
102
RTVSPost2010Prop38
140
0.0
102
RTVSPost2010PropOp38
 70
     0
102
RTVSPost2010Prop39
140
1.0
102
RTVSPost2010PropOp39
 70
     0
102
RTVSPost2010Prop40
 90
        0
102
RTVSPost2010PropOp40
 70
     0
102
RTVSPost2010Prop41ColorIndex
 90
       18
102
RTVSPost2010Prop41ColorRGB
 90
        0
102
RTVSPost2010PropOp41
 70
     0
102
RTVSPost2010Prop42
 90
       50
102
RTVSPost2010PropOp42
 70
     0
102
RTVSPost2010Prop43
 90
        3
102
RTVSPost2010PropOp43
 70
     0
102
RTVSPost2010Prop44ColorIndex
 90
        5
102
RTVSPost2010Prop44ColorRGB
 90
      255
102
RTVSPost2010PropOp44
 70
     0
102
RTVSPost2010Prop45
280
     0
102
RTVSPost2010PropOp45
 70
     1
102
RTVSPost2010Prop46
 90
       50
102
RTVSPost2010PropOp46
 70
     0
102
RTVSPost2010Prop47
 90
       50
102
RTVSPost2010PropOp47
 70
     0
102
RTVSPost2010Prop48
 90
       50
102
RTVSPost2010PropOp48
 70
     0
102
RTVSPost2010Prop49
280
     0
102
RTVSPost2010PropOp49
 70
     1
102
RTVSPost2010Prop50
 90
       50
102
RTVSPost2010PropOp50
 70
     0
102
RTVSPost2010Prop51ColorIndex
 90
      256
102
RTVSPost2010Prop51ColorRGB
 90
-16777216
102
RTVSPost2010PropOp51
 70
     0
102
RTVSPost2010Prop52
140
1.0
102
RTVSPost2010PropOp52
 70
     0
102
RTVSPost2010Prop53
 90
        2
102
RTVSPost2010PropOp53
 70
     0
102
RTVSPost2010Prop54
  1
strokes_ogs.tif
102
RTVSPost2010PropOp54
 70
     0
102
RTVSPost2010Prop55
280
     0
102
RTVSPost2010PropOp55
 70
     1
102
RTVSPost2010Prop56
140
1.0
102
RTVSPost2010PropOp56
 70
     0
102
RTVSPost2010Prop57
140
1.0
102
RTVSPost2010PropOp57
 70
     0
102
RTVSPropertyOp0
 70
     0
102
RTVSPropertyOp1
 70
     0
102
RTVSPropertyOp2
 70
     0
102
RTVSPropertyOp3
 70
     0
102
RTVSPropertyOp4
 70
     0
102
RTVSPropertyOp5
 70
     0
102
RTVSPropertyOp6
 70
     0
102
RTVSPropertyOp7
 70
     0
102
RTVSPropertyOp8
 70
     0
102
RTVSPropertyOp9
 70
     0
102
RTVSPropertyOp10
 70
     0
102
RTVSPropertyOp11
 70
     0
102
RTVSPropertyOp12
 70
     0
102
RTVSPropertyOp13
 70
     0
102
RTVSPropertyOp14
 70
     2
102
RTVSPropertyOp15
 70
     0
102
RTVSPropertyOp16
 70
     0
102
RTVSPropertyOp17
 70
     0
102
RTVSPropertyOp18
 70
     0
102
RTVSPropertyOp19
 70
     0
102
RTVSPropertyOp20
 70
     0
102
RTVSPropertyOp21
 70
     0
102
RTVSPropertyOp22
 70
     0
102
RTVSPropertyOp23
 70
     0
102
RTVSPropertyOp24
 70
     0
102
RTVSPropertyOp25
 70
     0
102
RTVSPropertyOp26
 70
     0
102
RTVSPropertyOp27
 70
     0
102
RTVSPropertyOp28
 70
     1
102
RTVSPropertyOp29
 70
     1
102
RTVSPropertyOp30
 70
     1
102
RTVSPropertyOp31
 70
     1
102
RTVSPropertyOp32
 70
     1
102
RTVSPropertyOp33
 70
     1
102
RTVSPropertyOp34
 70
     1
102
RTVSPropertyOp35
 70
     1
102
RTVSPropertyOp36
 70
     1
102
RTVSPropertyOp37
 70
     0
102
RTVSPropertyOp38
 70
     0
102
RTVSPropertyOp39
 70
     0
102
RTVSPropertyOp40
 70
     0
102
RTVSPropertyOp41
 70
     0
102
RTVSPropertyOp42
 70
     0
102
RTVSPropertyOp43
 70
     0
102
RTVSPropertyOp44
 70
     0
102
RTVSPropertyOp45
 70
     1
102
RTVSPropertyOp46
 70
     0
102
RTVSPropertyOp47
 70
     0
102
RTVSPropertyOp48
 70
     0
102
RTVSPropertyOp49
 70
     1
102
RTVSPropertyOp50
 70
     0
102
RTVSPropertyOp51
 70
     0
102
RTVSPropertyOp52
 70
     0
102
RTVSPropertyOp53
 70
     0
102
RTVSPropertyOp54
 70
     0
102
RTVSPropertyOp55
 70
     1
102
RTVSPropertyOp56
 70
     0
102
RTVSPropertyOp57
 70
     0
102
RTVSPropertyOp58
 70
     0
102
RTVSPropertyOp59
 70
     0
102
RTVSPropertyOp60
 70
     0
102
RTVSPropertyOp61
 70
     0
102
RTVSPropertyOp62
 70
     0
  0
XRECORD
  5
12FC
102
{ACAD_REACTORS
330
12FB
102
}
330
12FB
100
AcDbXrecord
280
     1
102
RTVSPost2010Prop28
280
     0
102
RTVSPost2010PropOp28
 70
     1
102
RTVSPost2010Prop29
280
     1
102
RTVSPost2010PropOp29
 70
     1
102
RTVSPost2010Prop30
280
     1
102
RTVSPost2010PropOp30
 70
     1
102
RTVSPost2010Prop31
280
     0
102
RTVSPost2010PropOp31
 70
     1
102
RTVSPost2010Prop32
280
     0
102
RTVSPost2010PropOp32
 70
     1
102
RTVSPost2010Prop33
280
     0
102
RTVSPost2010PropOp33
 70
     1
102
RTVSPost2010Prop34
280
     0
102
RTVSPost2010PropOp34
 70
     1
102
RTVSPost2010Prop35
280
     0
102
RTVSPost2010PropOp35
 70
     1
102
RTVSPost2010Prop36
280
     0
102
RTVSPost2010PropOp36
 70
     1
102
RTVSPost2010Prop37
 90
       50
102
RTVSPost2010PropOp37
 70
     1
102
RTVSPost2010Prop38
140
0.0
102
RTVSPost2010PropOp38
 70
     1
102
RTVSPost2010Prop39
140
1.0
102
RTVSPost2010PropOp39
 70
     1
102
RTVSPost2010Prop40
 90
        0
102
RTVSPost2010PropOp40
 70
     1
102
RTVSPost2010Prop41ColorIndex
 90
       18
102
RTVSPost2010Prop41ColorRGB
 90
        0
102
RTVSPost2010PropOp41
 70
     1
102
RTVSPost2010Prop42
 90
       50
102
RTVSPost2010PropOp42
 70
     1
102
RTVSPost2010Prop43
 90
        3
102
RTVSPost2010PropOp43
 70
     1
102
RTVSPost2010Prop44ColorIndex
 90
        5
102
RTVSPost2010Prop44ColorRGB
 90
      255
102
RTVSPost2010PropOp44
 70
     1
102
RTVSPost2010Prop45
280
     0
102
RTVSPost2010PropOp45
 70
     1
102
RTVSPost2010Prop46
 90
       50
102
RTVSPost2010PropOp46
 70
     1
102
RTVSPost2010Prop47
 90
       50
102
RTVSPost2010PropOp47
 70
     1
102
RTVSPost2010Prop48
 90
       50
102
RTVSPost2010PropOp48
 70
     1
102
RTVSPost2010Prop49
280
     0
102
RTVSPost2010PropOp49
 70
     1
102
RTVSPost2010Prop50
 90
       50
102
RTVSPost2010PropOp50
 70
     1
102
RTVSPost2010Prop51ColorIndex
 90
      256
102
RTVSPost2010Prop51ColorRGB
 90
-16777216
102
RTVSPost2010PropOp51
 70
     0
102
RTVSPost2010Prop52
140
1.0
102
RTVSPost2010PropOp52
 70
     0
102
RTVSPost2010Prop53
 90
        2
102
RTVSPost2010PropOp53
 70
     1
102
RTVSPost2010Prop54
  1
strokes_ogs.tif
102
RTVSPost2010PropOp54
 70
     1
102
RTVSPost2010Prop55
280
     0
102
RTVSPost2010PropOp55
 70
     1
102
RTVSPost2010Prop56
140
1.0
102
RTVSPost2010PropOp56
 70
     1
102
RTVSPost2010Prop57
140
1.0
102
RTVSPost2010PropOp57
 70
     1
102
RTVSPropertyOp0
 70
     1
102
RTVSPropertyOp1
 70
     1
102
RTVSPropertyOp2
 70
     1
102
RTVSPropertyOp3
 70
     1
102
RTVSPropertyOp4
 70
     1
102
RTVSPropertyOp5
 70
     1
102
RTVSPropertyOp6
 70
     1
102
RTVSPropertyOp7
 70
     1
102
RTVSPropertyOp8
 70
     1
102
RTVSPropertyOp9
 70
     1
102
RTVSPropertyOp10
 70
     1
102
RTVSPropertyOp11
 70
     1
102
RTVSPropertyOp12
 70
     1
102
RTVSPropertyOp13
 70
     1
102
RTVSPropertyOp14
 70
     1
102
RTVSPropertyOp15
 70
     1
102
RTVSPropertyOp16
 70
     1
102
RTVSPropertyOp17
 70
     1
102
RTVSPropertyOp18
 70
     1
102
RTVSPropertyOp19
 70
     1
102
RTVSPropertyOp20
 70
     1
102
RTVSPropertyOp21
 70
     1
102
RTVSPropertyOp22
 70
     1
102
RTVSPropertyOp23
 70
     1
102
RTVSPropertyOp24
 70
     1
102
RTVSPropertyOp25
 70
     1
102
RTVSPropertyOp26
 70
     1
102
RTVSPropertyOp27
 70
     1
102
RTVSPropertyOp28
 70
     1
102
RTVSPropertyOp29
 70
     1
102
RTVSPropertyOp30
 70
     1
102
RTVSPropertyOp31
 70
     1
102
RTVSPropertyOp32
 70
     1
102
RTVSPropertyOp33
 70
     1
102
RTVSPropertyOp34
 70
     1
102
RTVSPropertyOp35
 70
     1
102
RTVSPropertyOp36
 70
     1
102
RTVSPropertyOp37
 70
     1
102
RTVSPropertyOp38
 70
     1
102
RTVSPropertyOp39
 70
     1
102
RTVSPropertyOp40
 70
     1
102
RTVSPropertyOp41
 70
     1
102
RTVSPropertyOp42
 70
     1
102
RTVSPropertyOp43
 70
     1
102
RTVSPropertyOp44
 70
     1
102
RTVSPropertyOp45
 70
     1
102
RTVSPropertyOp46
 70
     1
102
RTVSPropertyOp47
 70
     1
102
RTVSPropertyOp48
 70
     1
102
RTVSPropertyOp49
 70
     1
102
RTVSPropertyOp50
 70
     1
102
RTVSPropertyOp51
 70
     0
102
RTVSPropertyOp52
 70
     0
102
RTVSPropertyOp53
 70
     1
102
RTVSPropertyOp54
 70
     1
102
RTVSPropertyOp55
 70
     1
102
RTVSPropertyOp56
 70
     1
102
RTVSPropertyOp57
 70
     1
102
RTVSPropertyOp58
 70
     1
102
RTVSPropertyOp59
 70
     1
102
RTVSPropertyOp60
 70
     1
102
RTVSPropertyOp61
 70
     1
102
RTVSPropertyOp62
 70
     1
  0
XRECORD
  5
130E
102
{ACAD_REACTORS
330
130D
102
}
330
130D
100
AcDbXrecord
280
     1
102
RTVSPost2010Prop28
280
     0
102
RTVSPost2010PropOp28
 70
     1
102
RTVSPost2010Prop29
280
     1
102
RTVSPost2010PropOp29
 70
     1
102
RTVSPost2010Prop30
280
     1
102
RTVSPost2010PropOp30
 70
     1
102
RTVSPost2010Prop31
280
     0
102
RTVSPost2010PropOp31
 70
     1
102
RTVSPost2010Prop32
280
     0
102
RTVSPost2010PropOp32
 70
     1
102
RTVSPost2010Prop33
280
     0
102
RTVSPost2010PropOp33
 70
     1
102
RTVSPost2010Prop34
280
     0
102
RTVSPost2010PropOp34
 70
     1
102
RTVSPost2010Prop35
280
     0
102
RTVSPost2010PropOp35
 70
     1
102
RTVSPost2010Prop36
280
     0
102
RTVSPost2010PropOp36
 70
     1
102
RTVSPost2010Prop37
 90
       50
102
RTVSPost2010PropOp37
 70
     0
102
RTVSPost2010Prop38
140
0.0
102
RTVSPost2010PropOp38
 70
     0
102
RTVSPost2010Prop39
140
1.0
102
RTVSPost2010PropOp39
 70
     0
102
RTVSPost2010Prop40
 90
        0
102
RTVSPost2010PropOp40
 70
     0
102
RTVSPost2010Prop41ColorIndex
 90
       18
102
RTVSPost2010Prop41ColorRGB
 90
        0
102
RTVSPost2010PropOp41
 70
     0
102
RTVSPost2010Prop42
 90
       50
102
RTVSPost2010PropOp42
 70
     0
102
RTVSPost2010Prop43
 90
        3
102
RTVSPost2010PropOp43
 70
     0
102
RTVSPost2010Prop44ColorIndex
 90
        5
102
RTVSPost2010Prop44ColorRGB
 90
      255
102
RTVSPost2010PropOp44
 70
     0
102
RTVSPost2010Prop45
280
     0
102
RTVSPost2010PropOp45
 70
     1
102
RTVSPost2010Prop46
 90
       50
102
RTVSPost2010PropOp46
 70
     0
102
RTVSPost2010Prop47
 90
       50
102
RTVSPost2010PropOp47
 70
     0
102
RTVSPost2010Prop48
 90
       50
102
RTVSPost2010PropOp48
 70
     0
102
RTVSPost2010Prop49
280
     0
102
RTVSPost2010PropOp49
 70
     1
102
RTVSPost2010Prop50
 90
       50
102
RTVSPost2010PropOp50
 70
     0
102
RTVSPost2010Prop51ColorIndex
 90
      256
102
RTVSPost2010Prop51ColorRGB
 90
-16777216
102
RTVSPost2010PropOp51
 70
     0
102
RTVSPost2010Prop52
140
1.0
102
RTVSPost2010PropOp52
 70
     0
102
RTVSPost2010Prop53
 90
        2
102
RTVSPost2010PropOp53
 70
     0
102
RTVSPost2010Prop54
  1
strokes_ogs.tif
102
RTVSPost2010PropOp54
 70
     0
102
RTVSPost2010Prop55
280
     0
102
RTVSPost2010PropOp55
 70
     1
102
RTVSPost2010Prop56
140
1.0
102
RTVSPost2010PropOp56
 70
     0
102
RTVSPost2010Prop57
140
1.0
102
RTVSPost2010PropOp57
 70
     0
102
RTVSPropertyOp0
 70
     0
102
RTVSPropertyOp1
 70
     0
102
RTVSPropertyOp2
 70
     0
102
RTVSPropertyOp3
 70
     0
102
RTVSPropertyOp4
 70
     0
102
RTVSPropertyOp5
 70
     0
102
RTVSPropertyOp6
 70
     0
102
RTVSPropertyOp7
 70
     0
102
RTVSPropertyOp8
 70
     0
102
RTVSPropertyOp9
 70
     0
102
RTVSPropertyOp10
 70
     0
102
RTVSPropertyOp11
 70
     0
102
RTVSPropertyOp12
 70
     0
102
RTVSPropertyOp13
 70
     0
102
RTVSPropertyOp14
 70
     2
102
RTVSPropertyOp15
 70
     0
102
RTVSPropertyOp16
 70
     0
102
RTVSPropertyOp17
 70
     0
102
RTVSPropertyOp18
 70
     0
102
RTVSPropertyOp19
 70
     0
102
RTVSPropertyOp20
 70
     0
102
RTVSPropertyOp21
 70
     0
102
RTVSPropertyOp22
 70
     0
102
RTVSPropertyOp23
 70
     0
102
RTVSPropertyOp24
 70
     0
102
RTVSPropertyOp25
 70
     0
102
RTVSPropertyOp26
 70
     0
102
RTVSPropertyOp27
 70
     0
102
RTVSPropertyOp28
 70
     1
102
RTVSPropertyOp29
 70
     1
102
RTVSPropertyOp30
 70
     1
102
RTVSPropertyOp31
 70
     1
102
RTVSPropertyOp32
 70
     1
102
RTVSPropertyOp33
 70
     1
102
RTVSPropertyOp34
 70
     1
102
RTVSPropertyOp35
 70
     1
102
RTVSPropertyOp36
 70
     1
102
RTVSPropertyOp37
 70
     0
102
RTVSPropertyOp38
 70
     0
102
RTVSPropertyOp39
 70
     0
102
RTVSPropertyOp40
 70
     0
102
RTVSPropertyOp41
 70
     0
102
RTVSPropertyOp42
 70
     0
102
RTVSPropertyOp43
 70
     0
102
RTVSPropertyOp44
 70
     0
102
RTVSPropertyOp45
 70
     1
102
RTVSPropertyOp46
 70
     0
102
RTVSPropertyOp47
 70
     0
102
RTVSPropertyOp48
 70
     0
102
RTVSPropertyOp49
 70
     1
102
RTVSPropertyOp50
 70
     0
102
RTVSPropertyOp51
 70
     0
102
RTVSPropertyOp52
 70
     0
102
RTVSPropertyOp53
 70
     0
102
RTVSPropertyOp54
 70
     0
102
RTVSPropertyOp55
 70
     1
102
RTVSPropertyOp56
 70
     0
102
RTVSPropertyOp57
 70
     0
102
RTVSPropertyOp58
 70
     0
102
RTVSPropertyOp59
 70
     0
102
RTVSPropertyOp60
 70
     0
102
RTVSPropertyOp61
 70
     0
102
RTVSPropertyOp62
 70
     0
  0
XRECORD
  5
12F4
102
{ACAD_REACTORS
330
12F3
102
}
330
12F3
100
AcDbXrecord
280
     1
102
RTVSPost2010Prop28
280
     0
102
RTVSPost2010PropOp28
 70
     1
102
RTVSPost2010Prop29
280
     1
102
RTVSPost2010PropOp29
 70
     1
102
RTVSPost2010Prop30
280
     1
102
RTVSPost2010PropOp30
 70
     1
102
RTVSPost2010Prop31
280
     0
102
RTVSPost2010PropOp31
 70
     1
102
RTVSPost2010Prop32
280
     0
102
RTVSPost2010PropOp32
 70
     1
102
RTVSPost2010Prop33
280
     0
102
RTVSPost2010PropOp33
 70
     1
102
RTVSPost2010Prop34
280
     0
102
RTVSPost2010PropOp34
 70
     1
102
RTVSPost2010Prop35
280
     0
102
RTVSPost2010PropOp35
 70
     1
102
RTVSPost2010Prop36
280
     0
102
RTVSPost2010PropOp36
 70
     1
102
RTVSPost2010Prop37
 90
       50
102
RTVSPost2010PropOp37
 70
     1
102
RTVSPost2010Prop38
140
0.0
102
RTVSPost2010PropOp38
 70
     1
102
RTVSPost2010Prop39
140
1.0
102
RTVSPost2010PropOp39
 70
     1
102
RTVSPost2010Prop40
 90
        0
102
RTVSPost2010PropOp40
 70
     1
102
RTVSPost2010Prop41ColorIndex
 90
       18
102
RTVSPost2010Prop41ColorRGB
 90
        0
102
RTVSPost2010PropOp41
 70
     1
102
RTVSPost2010Prop42
 90
       50
102
RTVSPost2010PropOp42
 70
     1
102
RTVSPost2010Prop43
 90
        3
102
RTVSPost2010PropOp43
 70
     1
102
RTVSPost2010Prop44ColorIndex
 90
        5
102
RTVSPost2010Prop44ColorRGB
 90
      255
102
RTVSPost2010PropOp44
 70
     1
102
RTVSPost2010Prop45
280
     0
102
RTVSPost2010PropOp45
 70
     1
102
RTVSPost2010Prop46
 90
       50
102
RTVSPost2010PropOp46
 70
     1
102
RTVSPost2010Prop47
 90
       50
102
RTVSPost2010PropOp47
 70
     1
102
RTVSPost2010Prop48
 90
       50
102
RTVSPost2010PropOp48
 70
     1
102
RTVSPost2010Prop49
280
     0
102
RTVSPost2010PropOp49
 70
     1
102
RTVSPost2010Prop50
 90
       50
102
RTVSPost2010PropOp50
 70
     1
102
RTVSPost2010Prop51ColorIndex
 90
      256
102
RTVSPost2010Prop51ColorRGB
 90
-16777216
102
RTVSPost2010PropOp51
 70
     0
102
RTVSPost2010Prop52
140
1.0
102
RTVSPost2010PropOp52
 70
     0
102
RTVSPost2010Prop53
 90
        2
102
RTVSPost2010PropOp53
 70
     1
102
RTVSPost2010Prop54
  1
strokes_ogs.tif
102
RTVSPost2010PropOp54
 70
     1
102
RTVSPost2010Prop55
280
     0
102
RTVSPost2010PropOp55
 70
     1
102
RTVSPost2010Prop56
140
1.0
102
RTVSPost2010PropOp56
 70
     1
102
RTVSPost2010Prop57
140
1.0
102
RTVSPost2010PropOp57
 70
     1
102
RTVSPropertyOp0
 70
     1
102
RTVSPropertyOp1
 70
     1
102
RTVSPropertyOp2
 70
     1
102
RTVSPropertyOp3
 70
     1
102
RTVSPropertyOp4
 70
     1
102
RTVSPropertyOp5
 70
     1
102
RTVSPropertyOp6
 70
     1
102
RTVSPropertyOp7
 70
     1
102
RTVSPropertyOp8
 70
     1
102
RTVSPropertyOp9
 70
     1
102
RTVSPropertyOp10
 70
     1
102
RTVSPropertyOp11
 70
     1
102
RTVSPropertyOp12
 70
     1
102
RTVSPropertyOp13
 70
     1
102
RTVSPropertyOp14
 70
     1
102
RTVSPropertyOp15
 70
     1
102
RTVSPropertyOp16
 70
     1
102
RTVSPropertyOp17
 70
     1
102
RTVSPropertyOp18
 70
     1
102
RTVSPropertyOp19
 70
     1
102
RTVSPropertyOp20
 70
     1
102
RTVSPropertyOp21
 70
     1
102
RTVSPropertyOp22
 70
     1
102
RTVSPropertyOp23
 70
     1
102
RTVSPropertyOp24
 70
     1
102
RTVSPropertyOp25
 70
     1
102
RTVSPropertyOp26
 70
     1
102
RTVSPropertyOp27
 70
     1
102
RTVSPropertyOp28
 70
     1
102
RTVSPropertyOp29
 70
     1
102
RTVSPropertyOp30
 70
     1
102
RTVSPropertyOp31
 70
     1
102
RTVSPropertyOp32
 70
     1
102
RTVSPropertyOp33
 70
     1
102
RTVSPropertyOp34
 70
     1
102
RTVSPropertyOp35
 70
     1
102
RTVSPropertyOp36
 70
     1
102
RTVSPropertyOp37
 70
     1
102
RTVSPropertyOp38
 70
     1
102
RTVSPropertyOp39
 70
     1
102
RTVSPropertyOp40
 70
     1
102
RTVSPropertyOp41
 70
     1
102
RTVSPropertyOp42
 70
     1
102
RTVSPropertyOp43
 70
     1
102
RTVSPropertyOp44
 70
     1
102
RTVSPropertyOp45
 70
     1
102
RTVSPropertyOp46
 70
     1
102
RTVSPropertyOp47
 70
     1
102
RTVSPropertyOp48
 70
     1
102
RTVSPropertyOp49
 70
     1
102
RTVSPropertyOp50
 70
     1
102
RTVSPropertyOp51
 70
     0
102
RTVSPropertyOp52
 70
     0
102
RTVSPropertyOp53
 70
     1
102
RTVSPropertyOp54
 70
     1
102
RTVSPropertyOp55
 70
     1
102
RTVSPropertyOp56
 70
     1
102
RTVSPropertyOp57
 70
     1
102
RTVSPropertyOp58
 70
     1
102
RTVSPropertyOp59
 70
     1
102
RTVSPropertyOp60
 70
     1
102
RTVSPropertyOp61
 70
     1
102
RTVSPropertyOp62
 70
     1
  0
XRECORD
  5
130A
102
{ACAD_REACTORS
330
1309
102
}
330
1309
100
AcDbXrecord
280
     1
102
RTVSPost2010Prop28
280
     0
102
RTVSPost2010PropOp28
 70
     1
102
RTVSPost2010Prop29
280
     1
102
RTVSPost2010PropOp29
 70
     1
102
RTVSPost2010Prop30
280
     1
102
RTVSPost2010PropOp30
 70
     1
102
RTVSPost2010Prop31
280
     0
102
RTVSPost2010PropOp31
 70
     1
102
RTVSPost2010Prop32
280
     0
102
RTVSPost2010PropOp32
 70
     1
102
RTVSPost2010Prop33
280
     0
102
RTVSPost2010PropOp33
 70
     1
102
RTVSPost2010Prop34
280
     0
102
RTVSPost2010PropOp34
 70
     1
102
RTVSPost2010Prop35
280
     0
102
RTVSPost2010PropOp35
 70
     1
102
RTVSPost2010Prop36
280
     0
102
RTVSPost2010PropOp36
 70
     1
102
RTVSPost2010Prop37
 90
       50
102
RTVSPost2010PropOp37
 70
     1
102
RTVSPost2010Prop38
140
0.0
102
RTVSPost2010PropOp38
 70
     1
102
RTVSPost2010Prop39
140
1.0
102
RTVSPost2010PropOp39
 70
     1
102
RTVSPost2010Prop40
 90
        0
102
RTVSPost2010PropOp40
 70
     1
102
RTVSPost2010Prop41ColorIndex
 90
       18
102
RTVSPost2010Prop41ColorRGB
 90
        0
102
RTVSPost2010PropOp41
 70
     1
102
RTVSPost2010Prop42
 90
       50
102
RTVSPost2010PropOp42
 70
     1
102
RTVSPost2010Prop43
 90
        3
102
RTVSPost2010PropOp43
 70
     1
102
RTVSPost2010Prop44ColorIndex
 90
        5
102
RTVSPost2010Prop44ColorRGB
 90
      255
102
RTVSPost2010PropOp44
 70
     1
102
RTVSPost2010Prop45
280
     0
102
RTVSPost2010PropOp45
 70
     1
102
RTVSPost2010Prop46
 90
       50
102
RTVSPost2010PropOp46
 70
     1
102
RTVSPost2010Prop47
 90
       50
102
RTVSPost2010PropOp47
 70
     1
102
RTVSPost2010Prop48
 90
       50
102
RTVSPost2010PropOp48
 70
     1
102
RTVSPost2010Prop49
280
     0
102
RTVSPost2010PropOp49
 70
     1
102
RTVSPost2010Prop50
 90
       50
102
RTVSPost2010PropOp50
 70
     1
102
RTVSPost2010Prop51ColorIndex
 90
      256
102
RTVSPost2010Prop51ColorRGB
 90
-16777216
102
RTVSPost2010PropOp51
 70
     0
102
RTVSPost2010Prop52
140
1.0
102
RTVSPost2010PropOp52
 70
     0
102
RTVSPost2010Prop53
 90
        2
102
RTVSPost2010PropOp53
 70
     1
102
RTVSPost2010Prop54
  1
strokes_ogs.tif
102
RTVSPost2010PropOp54
 70
     1
102
RTVSPost2010Prop55
280
     0
102
RTVSPost2010PropOp55
 70
     1
102
RTVSPost2010Prop56
140
1.0
102
RTVSPost2010PropOp56
 70
     1
102
RTVSPost2010Prop57
140
1.0
102
RTVSPost2010PropOp57
 70
     1
102
RTVSPropertyOp0
 70
     1
102
RTVSPropertyOp1
 70
     1
102
RTVSPropertyOp2
 70
     1
102
RTVSPropertyOp3
 70
     1
102
RTVSPropertyOp4
 70
     1
102
RTVSPropertyOp5
 70
     1
102
RTVSPropertyOp6
 70
     1
102
RTVSPropertyOp7
 70
     1
102
RTVSPropertyOp8
 70
     1
102
RTVSPropertyOp9
 70
     1
102
RTVSPropertyOp10
 70
     1
102
RTVSPropertyOp11
 70
     1
102
RTVSPropertyOp12
 70
     1
102
RTVSPropertyOp13
 70
     1
102
RTVSPropertyOp14
 70
     1
102
RTVSPropertyOp15
 70
     1
102
RTVSPropertyOp16
 70
     1
102
RTVSPropertyOp17
 70
     1
102
RTVSPropertyOp18
 70
     1
102
RTVSPropertyOp19
 70
     1
102
RTVSPropertyOp20
 70
     1
102
RTVSPropertyOp21
 70
     1
102
RTVSPropertyOp22
 70
     1
102
RTVSPropertyOp23
 70
     1
102
RTVSPropertyOp24
 70
     1
102
RTVSPropertyOp25
 70
     1
102
RTVSPropertyOp26
 70
     1
102
RTVSPropertyOp27
 70
     1
102
RTVSPropertyOp28
 70
     1
102
RTVSPropertyOp29
 70
     1
102
RTVSPropertyOp30
 70
     1
102
RTVSPropertyOp31
 70
     1
102
RTVSPropertyOp32
 70
     1
102
RTVSPropertyOp33
 70
     1
102
RTVSPropertyOp34
 70
     1
102
RTVSPropertyOp35
 70
     1
102
RTVSPropertyOp36
 70
     1
102
RTVSPropertyOp37
 70
     1
102
RTVSPropertyOp38
 70
     1
102
RTVSPropertyOp39
 70
     1
102
RTVSPropertyOp40
 70
     1
102
RTVSPropertyOp41
 70
     1
102
RTVSPropertyOp42
 70
     1
102
RTVSPropertyOp43
 70
     1
102
RTVSPropertyOp44
 70
     1
102
RTVSPropertyOp45
 70
     1
102
RTVSPropertyOp46
 70
     1
102
RTVSPropertyOp47
 70
     1
102
RTVSPropertyOp48
 70
     1
102
RTVSPropertyOp49
 70
     1
102
RTVSPropertyOp50
 70
     1
102
RTVSPropertyOp51
 70
     0
102
RTVSPropertyOp52
 70
     0
102
RTVSPropertyOp53
 70
     1
102
RTVSPropertyOp54
 70
     1
102
RTVSPropertyOp55
 70
     1
102
RTVSPropertyOp56
 70
     1
102
RTVSPropertyOp57
 70
     1
102
RTVSPropertyOp58
 70
     1
102
RTVSPropertyOp59
 70
     1
102
RTVSPropertyOp60
 70
     1
102
RTVSPropertyOp61
 70
     1
102
RTVSPropertyOp62
 70
     1
  0
XRECORD
  5
1308
102
{ACAD_REACTORS
330
1307
102
}
330
1307
100
AcDbXrecord
280
     1
102
RTVSPost2010Prop28
280
     0
102
RTVSPost2010PropOp28
 70
     1
102
RTVSPost2010Prop29
280
     1
102
RTVSPost2010PropOp29
 70
     1
102
RTVSPost2010Prop30
280
     1
102
RTVSPost2010PropOp30
 70
     1
102
RTVSPost2010Prop31
280
     0
102
RTVSPost2010PropOp31
 70
     1
102
RTVSPost2010Prop32
280
     0
102
RTVSPost2010PropOp32
 70
     1
102
RTVSPost2010Prop33
280
     0
102
RTVSPost2010PropOp33
 70
     1
102
RTVSPost2010Prop34
280
     0
102
RTVSPost2010PropOp34
 70
     1
102
RTVSPost2010Prop35
280
     0
102
RTVSPost2010PropOp35
 70
     1
102
RTVSPost2010Prop36
280
     0
102
RTVSPost2010PropOp36
 70
     1
102
RTVSPost2010Prop37
 90
       50
102
RTVSPost2010PropOp37
 70
     1
102
RTVSPost2010Prop38
140
0.0
102
RTVSPost2010PropOp38
 70
     1
102
RTVSPost2010Prop39
140
1.0
102
RTVSPost2010PropOp39
 70
     1
102
RTVSPost2010Prop40
 90
        0
102
RTVSPost2010PropOp40
 70
     1
102
RTVSPost2010Prop41ColorIndex
 90
       18
102
RTVSPost2010Prop41ColorRGB
 90
        0
102
RTVSPost2010PropOp41
 70
     1
102
RTVSPost2010Prop42
 90
       50
102
RTVSPost2010PropOp42
 70
     1
102
RTVSPost2010Prop43
 90
        3
102
RTVSPost2010PropOp43
 70
     1
102
RTVSPost2010Prop44ColorIndex
 90
        5
102
RTVSPost2010Prop44ColorRGB
 90
      255
102
RTVSPost2010PropOp44
 70
     1
102
RTVSPost2010Prop45
280
     0
102
RTVSPost2010PropOp45
 70
     1
102
RTVSPost2010Prop46
 90
       50
102
RTVSPost2010PropOp46
 70
     1
102
RTVSPost2010Prop47
 90
       50
102
RTVSPost2010PropOp47
 70
     1
102
RTVSPost2010Prop48
 90
       50
102
RTVSPost2010PropOp48
 70
     1
102
RTVSPost2010Prop49
280
     0
102
RTVSPost2010PropOp49
 70
     1
102
RTVSPost2010Prop50
 90
       50
102
RTVSPost2010PropOp50
 70
     1
102
RTVSPost2010Prop51ColorIndex
 90
      256
102
RTVSPost2010Prop51ColorRGB
 90
-16777216
102
RTVSPost2010PropOp51
 70
     0
102
RTVSPost2010Prop52
140
1.0
102
RTVSPost2010PropOp52
 70
     0
102
RTVSPost2010Prop53
 90
        2
102
RTVSPost2010PropOp53
 70
     1
102
RTVSPost2010Prop54
  1
strokes_ogs.tif
102
RTVSPost2010PropOp54
 70
     1
102
RTVSPost2010Prop55
280
     0
102
RTVSPost2010PropOp55
 70
     1
102
RTVSPost2010Prop56
140
1.0
102
RTVSPost2010PropOp56
 70
     1
102
RTVSPost2010Prop57
140
1.0
102
RTVSPost2010PropOp57
 70
     1
102
RTVSPropertyOp0
 70
     1
102
RTVSPropertyOp1
 70
     1
102
RTVSPropertyOp2
 70
     1
102
RTVSPropertyOp3
 70
     1
102
RTVSPropertyOp4
 70
     1
102
RTVSPropertyOp5
 70
     1
102
RTVSPropertyOp6
 70
     1
102
RTVSPropertyOp7
 70
     1
102
RTVSPropertyOp8
 70
     1
102
RTVSPropertyOp9
 70
     1
102
RTVSPropertyOp10
 70
     1
102
RTVSPropertyOp11
 70
     1
102
RTVSPropertyOp12
 70
     1
102
RTVSPropertyOp13
 70
     1
102
RTVSPropertyOp14
 70
     1
102
RTVSPropertyOp15
 70
     1
102
RTVSPropertyOp16
 70
     1
102
RTVSPropertyOp17
 70
     1
102
RTVSPropertyOp18
 70
     1
102
RTVSPropertyOp19
 70
     1
102
RTVSPropertyOp20
 70
     1
102
RTVSPropertyOp21
 70
     1
102
RTVSPropertyOp22
 70
     1
102
RTVSPropertyOp23
 70
     1
102
RTVSPropertyOp24
 70
     1
102
RTVSPropertyOp25
 70
     1
102
RTVSPropertyOp26
 70
     1
102
RTVSPropertyOp27
 70
     1
102
RTVSPropertyOp28
 70
     1
102
RTVSPropertyOp29
 70
     1
102
RTVSPropertyOp30
 70
     1
102
RTVSPropertyOp31
 70
     1
102
RTVSPropertyOp32
 70
     1
102
RTVSPropertyOp33
 70
     1
102
RTVSPropertyOp34
 70
     1
102
RTVSPropertyOp35
 70
     1
102
RTVSPropertyOp36
 70
     1
102
RTVSPropertyOp37
 70
     1
102
RTVSPropertyOp38
 70
     1
102
RTVSPropertyOp39
 70
     1
102
RTVSPropertyOp40
 70
     1
102
RTVSPropertyOp41
 70
     1
102
RTVSPropertyOp42
 70
     1
102
RTVSPropertyOp43
 70
     1
102
RTVSPropertyOp44
 70
     1
102
RTVSPropertyOp45
 70
     1
102
RTVSPropertyOp46
 70
     1
102
RTVSPropertyOp47
 70
     1
102
RTVSPropertyOp48
 70
     1
102
RTVSPropertyOp49
 70
     1
102
RTVSPropertyOp50
 70
     1
102
RTVSPropertyOp51
 70
     0
102
RTVSPropertyOp52
 70
     0
102
RTVSPropertyOp53
 70
     1
102
RTVSPropertyOp54
 70
     1
102
RTVSPropertyOp55
 70
     1
102
RTVSPropertyOp56
 70
     1
102
RTVSPropertyOp57
 70
     1
102
RTVSPropertyOp58
 70
     1
102
RTVSPropertyOp59
 70
     1
102
RTVSPropertyOp60
 70
     1
102
RTVSPropertyOp61
 70
     1
102
RTVSPropertyOp62
 70
     1
  0
XRECORD
  5
1302
102
{ACAD_REACTORS
330
1301
102
}
330
1301
100
AcDbXrecord
280
     1
102
RTVSPost2010Prop28
280
     0
102
RTVSPost2010PropOp28
 70
     1
102
RTVSPost2010Prop29
280
     1
102
RTVSPost2010PropOp29
 70
     1
102
RTVSPost2010Prop30
280
     1
102
RTVSPost2010PropOp30
 70
     1
102
RTVSPost2010Prop31
280
     0
102
RTVSPost2010PropOp31
 70
     1
102
RTVSPost2010Prop32
280
     0
102
RTVSPost2010PropOp32
 70
     1
102
RTVSPost2010Prop33
280
     0
102
RTVSPost2010PropOp33
 70
     1
102
RTVSPost2010Prop34
280
     0
102
RTVSPost2010PropOp34
 70
     1
102
RTVSPost2010Prop35
280
     0
102
RTVSPost2010PropOp35
 70
     1
102
RTVSPost2010Prop36
280
     0
102
RTVSPost2010PropOp36
 70
     1
102
RTVSPost2010Prop37
 90
       50
102
RTVSPost2010PropOp37
 70
     1
102
RTVSPost2010Prop38
140
0.0
102
RTVSPost2010PropOp38
 70
     1
102
RTVSPost2010Prop39
140
1.0
102
RTVSPost2010PropOp39
 70
     1
102
RTVSPost2010Prop40
 90
        0
102
RTVSPost2010PropOp40
 70
     1
102
RTVSPost2010Prop41ColorIndex
 90
       18
102
RTVSPost2010Prop41ColorRGB
 90
        0
102
RTVSPost2010PropOp41
 70
     1
102
RTVSPost2010Prop42
 90
       50
102
RTVSPost2010PropOp42
 70
     1
102
RTVSPost2010Prop43
 90
        3
102
RTVSPost2010PropOp43
 70
     1
102
RTVSPost2010Prop44ColorIndex
 90
        5
102
RTVSPost2010Prop44ColorRGB
 90
      255
102
RTVSPost2010PropOp44
 70
     1
102
RTVSPost2010Prop45
280
     0
102
RTVSPost2010PropOp45
 70
     1
102
RTVSPost2010Prop46
 90
       50
102
RTVSPost2010PropOp46
 70
     1
102
RTVSPost2010Prop47
 90
       50
102
RTVSPost2010PropOp47
 70
     1
102
RTVSPost2010Prop48
 90
       50
102
RTVSPost2010PropOp48
 70
     1
102
RTVSPost2010Prop49
280
     0
102
RTVSPost2010PropOp49
 70
     1
102
RTVSPost2010Prop50
 90
       50
102
RTVSPost2010PropOp50
 70
     1
102
RTVSPost2010Prop51ColorIndex
 90
      256
102
RTVSPost2010Prop51ColorRGB
 90
-16777216
102
RTVSPost2010PropOp51
 70
     0
102
RTVSPost2010Prop52
140
1.0
102
RTVSPost2010PropOp52
 70
     0
102
RTVSPost2010Prop53
 90
        2
102
RTVSPost2010PropOp53
 70
     1
102
RTVSPost2010Prop54
  1
strokes_ogs.tif
102
RTVSPost2010PropOp54
 70
     1
102
RTVSPost2010Prop55
280
     0
102
RTVSPost2010PropOp55
 70
     1
102
RTVSPost2010Prop56
140
1.0
102
RTVSPost2010PropOp56
 70
     1
102
RTVSPost2010Prop57
140
1.0
102
RTVSPost2010PropOp57
 70
     1
102
RTVSPropertyOp0
 70
     1
102
RTVSPropertyOp1
 70
     1
102
RTVSPropertyOp2
 70
     1
102
RTVSPropertyOp3
 70
     1
102
RTVSPropertyOp4
 70
     1
102
RTVSPropertyOp5
 70
     1
102
RTVSPropertyOp6
 70
     1
102
RTVSPropertyOp7
 70
     1
102
RTVSPropertyOp8
 70
     1
102
RTVSPropertyOp9
 70
     1
102
RTVSPropertyOp10
 70
     1
102
RTVSPropertyOp11
 70
     1
102
RTVSPropertyOp12
 70
     1
102
RTVSPropertyOp13
 70
     1
102
RTVSPropertyOp14
 70
     1
102
RTVSPropertyOp15
 70
     1
102
RTVSPropertyOp16
 70
     1
102
RTVSPropertyOp17
 70
     1
102
RTVSPropertyOp18
 70
     1
102
RTVSPropertyOp19
 70
     1
102
RTVSPropertyOp20
 70
     1
102
RTVSPropertyOp21
 70
     1
102
RTVSPropertyOp22
 70
     1
102
RTVSPropertyOp23
 70
     1
102
RTVSPropertyOp24
 70
     1
102
RTVSPropertyOp25
 70
     1
102
RTVSPropertyOp26
 70
     1
102
RTVSPropertyOp27
 70
     1
102
RTVSPropertyOp28
 70
     1
102
RTVSPropertyOp29
 70
     1
102
RTVSPropertyOp30
 70
     1
102
RTVSPropertyOp31
 70
     1
102
RTVSPropertyOp32
 70
     1
102
RTVSPropertyOp33
 70
     1
102
RTVSPropertyOp34
 70
     1
102
RTVSPropertyOp35
 70
     1
102
RTVSPropertyOp36
 70
     1
102
RTVSPropertyOp37
 70
     1
102
RTVSPropertyOp38
 70
     1
102
RTVSPropertyOp39
 70
     1
102
RTVSPropertyOp40
 70
     1
102
RTVSPropertyOp41
 70
     1
102
RTVSPropertyOp42
 70
     1
102
RTVSPropertyOp43
 70
     1
102
RTVSPropertyOp44
 70
     1
102
RTVSPropertyOp45
 70
     1
102
RTVSPropertyOp46
 70
     1
102
RTVSPropertyOp47
 70
     1
102
RTVSPropertyOp48
 70
     1
102
RTVSPropertyOp49
 70
     1
102
RTVSPropertyOp50
 70
     1
102
RTVSPropertyOp51
 70
     0
102
RTVSPropertyOp52
 70
     0
102
RTVSPropertyOp53
 70
     1
102
RTVSPropertyOp54
 70
     1
102
RTVSPropertyOp55
 70
     1
102
RTVSPropertyOp56
 70
     1
102
RTVSPropertyOp57
 70
     1
102
RTVSPropertyOp58
 70
     1
102
RTVSPropertyOp59
 70
     1
102
RTVSPropertyOp60
 70
     1
102
RTVSPropertyOp61
 70
     1
102
RTVSPropertyOp62
 70
     1
  0
XRECORD
  5
1304
102
{ACAD_REACTORS
330
1303
102
}
330
1303
100
AcDbXrecord
280
     1
102
RTVSPost2010Prop28
280
     0
102
RTVSPost2010PropOp28
 70
     1
102
RTVSPost2010Prop29
280
     1
102
RTVSPost2010PropOp29
 70
     1
102
RTVSPost2010Prop30
280
     1
102
RTVSPost2010PropOp30
 70
     1
102
RTVSPost2010Prop31
280
     0
102
RTVSPost2010PropOp31
 70
     1
102
RTVSPost2010Prop32
280
     0
102
RTVSPost2010PropOp32
 70
     1
102
RTVSPost2010Prop33
280
     0
102
RTVSPost2010PropOp33
 70
     1
102
RTVSPost2010Prop34
280
     0
102
RTVSPost2010PropOp34
 70
     1
102
RTVSPost2010Prop35
280
     0
102
RTVSPost2010PropOp35
 70
     1
102
RTVSPost2010Prop36
280
     0
102
RTVSPost2010PropOp36
 70
     1
102
RTVSPost2010Prop37
 90
       50
102
RTVSPost2010PropOp37
 70
     1
102
RTVSPost2010Prop38
140
0.0
102
RTVSPost2010PropOp38
 70
     1
102
RTVSPost2010Prop39
140
1.0
102
RTVSPost2010PropOp39
 70
     1
102
RTVSPost2010Prop40
 90
        0
102
RTVSPost2010PropOp40
 70
     1
102
RTVSPost2010Prop41ColorIndex
 90
       18
102
RTVSPost2010Prop41ColorRGB
 90
        0
102
RTVSPost2010PropOp41
 70
     1
102
RTVSPost2010Prop42
 90
       50
102
RTVSPost2010PropOp42
 70
     1
102
RTVSPost2010Prop43
 90
        3
102
RTVSPost2010PropOp43
 70
     1
102
RTVSPost2010Prop44ColorIndex
 90
        5
102
RTVSPost2010Prop44ColorRGB
 90
      255
102
RTVSPost2010PropOp44
 70
     1
102
RTVSPost2010Prop45
280
     0
102
RTVSPost2010PropOp45
 70
     1
102
RTVSPost2010Prop46
 90
       50
102
RTVSPost2010PropOp46
 70
     1
102
RTVSPost2010Prop47
 90
       50
102
RTVSPost2010PropOp47
 70
     1
102
RTVSPost2010Prop48
 90
       50
102
RTVSPost2010PropOp48
 70
     1
102
RTVSPost2010Prop49
280
     0
102
RTVSPost2010PropOp49
 70
     1
102
RTVSPost2010Prop50
 90
       50
102
RTVSPost2010PropOp50
 70
     1
102
RTVSPost2010Prop51ColorIndex
 90
      256
102
RTVSPost2010Prop51ColorRGB
 90
-16777216
102
RTVSPost2010PropOp51
 70
     0
102
RTVSPost2010Prop52
140
1.0
102
RTVSPost2010PropOp52
 70
     0
102
RTVSPost2010Prop53
 90
        2
102
RTVSPost2010PropOp53
 70
     1
102
RTVSPost2010Prop54
  1
strokes_ogs.tif
102
RTVSPost2010PropOp54
 70
     1
102
RTVSPost2010Prop55
280
     0
102
RTVSPost2010PropOp55
 70
     1
102
RTVSPost2010Prop56
140
1.0
102
RTVSPost2010PropOp56
 70
     1
102
RTVSPost2010Prop57
140
1.0
102
RTVSPost2010PropOp57
 70
     1
102
RTVSPropertyOp0
 70
     1
102
RTVSPropertyOp1
 70
     1
102
RTVSPropertyOp2
 70
     1
102
RTVSPropertyOp3
 70
     1
102
RTVSPropertyOp4
 70
     1
102
RTVSPropertyOp5
 70
     1
102
RTVSPropertyOp6
 70
     1
102
RTVSPropertyOp7
 70
     1
102
RTVSPropertyOp8
 70
     1
102
RTVSPropertyOp9
 70
     1
102
RTVSPropertyOp10
 70
     1
102
RTVSPropertyOp11
 70
     1
102
RTVSPropertyOp12
 70
     1
102
RTVSPropertyOp13
 70
     1
102
RTVSPropertyOp14
 70
     1
102
RTVSPropertyOp15
 70
     1
102
RTVSPropertyOp16
 70
     1
102
RTVSPropertyOp17
 70
     1
102
RTVSPropertyOp18
 70
     1
102
RTVSPropertyOp19
 70
     1
102
RTVSPropertyOp20
 70
     1
102
RTVSPropertyOp21
 70
     1
102
RTVSPropertyOp22
 70
     1
102
RTVSPropertyOp23
 70
     1
102
RTVSPropertyOp24
 70
     1
102
RTVSPropertyOp25
 70
     1
102
RTVSPropertyOp26
 70
     1
102
RTVSPropertyOp27
 70
     1
102
RTVSPropertyOp28
 70
     1
102
RTVSPropertyOp29
 70
     1
102
RTVSPropertyOp30
 70
     1
102
RTVSPropertyOp31
 70
     1
102
RTVSPropertyOp32
 70
     1
102
RTVSPropertyOp33
 70
     1
102
RTVSPropertyOp34
 70
     1
102
RTVSPropertyOp35
 70
     1
102
RTVSPropertyOp36
 70
     1
102
RTVSPropertyOp37
 70
     1
102
RTVSPropertyOp38
 70
     1
102
RTVSPropertyOp39
 70
     1
102
RTVSPropertyOp40
 70
     1
102
RTVSPropertyOp41
 70
     1
102
RTVSPropertyOp42
 70
     1
102
RTVSPropertyOp43
 70
     1
102
RTVSPropertyOp44
 70
     1
102
RTVSPropertyOp45
 70
     1
102
RTVSPropertyOp46
 70
     1
102
RTVSPropertyOp47
 70
     1
102
RTVSPropertyOp48
 70
     1
102
RTVSPropertyOp49
 70
     1
102
RTVSPropertyOp50
 70
     1
102
RTVSPropertyOp51
 70
     0
102
RTVSPropertyOp52
 70
     0
102
RTVSPropertyOp53
 70
     1
102
RTVSPropertyOp54
 70
     1
102
RTVSPropertyOp55
 70
     1
102
RTVSPropertyOp56
 70
     1
102
RTVSPropertyOp57
 70
     1
102
RTVSPropertyOp58
 70
     1
102
RTVSPropertyOp59
 70
     1
102
RTVSPropertyOp60
 70
     1
102
RTVSPropertyOp61
 70
     1
102
RTVSPropertyOp62
 70
     1
  0
XRECORD
  5
12FA
102
{ACAD_REACTORS
330
12F9
102
}
330
12F9
100
AcDbXrecord
280
     1
102
RTVSPost2010Prop28
280
     0
102
RTVSPost2010PropOp28
 70
     1
102
RTVSPost2010Prop29
280
     1
102
RTVSPost2010PropOp29
 70
     1
102
RTVSPost2010Prop30
280
     1
102
RTVSPost2010PropOp30
 70
     1
102
RTVSPost2010Prop31
280
     0
102
RTVSPost2010PropOp31
 70
     1
102
RTVSPost2010Prop32
280
     0
102
RTVSPost2010PropOp32
 70
     1
102
RTVSPost2010Prop33
280
     0
102
RTVSPost2010PropOp33
 70
     1
102
RTVSPost2010Prop34
280
     0
102
RTVSPost2010PropOp34
 70
     1
102
RTVSPost2010Prop35
280
     0
102
RTVSPost2010PropOp35
 70
     1
102
RTVSPost2010Prop36
280
     0
102
RTVSPost2010PropOp36
 70
     1
102
RTVSPost2010Prop37
 90
       50
102
RTVSPost2010PropOp37
 70
     1
102
RTVSPost2010Prop38
140
0.0
102
RTVSPost2010PropOp38
 70
     1
102
RTVSPost2010Prop39
140
1.0
102
RTVSPost2010PropOp39
 70
     1
102
RTVSPost2010Prop40
 90
        0
102
RTVSPost2010PropOp40
 70
     1
102
RTVSPost2010Prop41ColorIndex
 90
       18
102
RTVSPost2010Prop41ColorRGB
 90
        0
102
RTVSPost2010PropOp41
 70
     1
102
RTVSPost2010Prop42
 90
       50
102
RTVSPost2010PropOp42
 70
     1
102
RTVSPost2010Prop43
 90
        3
102
RTVSPost2010PropOp43
 70
     1
102
RTVSPost2010Prop44ColorIndex
 90
        5
102
RTVSPost2010Prop44ColorRGB
 90
      255
102
RTVSPost2010PropOp44
 70
     1
102
RTVSPost2010Prop45
280
     0
102
RTVSPost2010PropOp45
 70
     1
102
RTVSPost2010Prop46
 90
       50
102
RTVSPost2010PropOp46
 70
     1
102
RTVSPost2010Prop47
 90
       50
102
RTVSPost2010PropOp47
 70
     1
102
RTVSPost2010Prop48
 90
       50
102
RTVSPost2010PropOp48
 70
     1
102
RTVSPost2010Prop49
280
     0
102
RTVSPost2010PropOp49
 70
     1
102
RTVSPost2010Prop50
 90
       50
102
RTVSPost2010PropOp50
 70
     1
102
RTVSPost2010Prop51ColorIndex
 90
      256
102
RTVSPost2010Prop51ColorRGB
 90
-16777216
102
RTVSPost2010PropOp51
 70
     0
102
RTVSPost2010Prop52
140
1.0
102
RTVSPost2010PropOp52
 70
     0
102
RTVSPost2010Prop53
 90
        2
102
RTVSPost2010PropOp53
 70
     1
102
RTVSPost2010Prop54
  1
strokes_ogs.tif
102
RTVSPost2010PropOp54
 70
     1
102
RTVSPost2010Prop55
280
     0
102
RTVSPost2010PropOp55
 70
     1
102
RTVSPost2010Prop56
140
1.0
102
RTVSPost2010PropOp56
 70
     1
102
RTVSPost2010Prop57
140
1.0
102
RTVSPost2010PropOp57
 70
     1
102
RTVSPropertyOp0
 70
     1
102
RTVSPropertyOp1
 70
     1
102
RTVSPropertyOp2
 70
     1
102
RTVSPropertyOp3
 70
     1
102
RTVSPropertyOp4
 70
     1
102
RTVSPropertyOp5
 70
     1
102
RTVSPropertyOp6
 70
     1
102
RTVSPropertyOp7
 70
     1
102
RTVSPropertyOp8
 70
     1
102
RTVSPropertyOp9
 70
     1
102
RTVSPropertyOp10
 70
     1
102
RTVSPropertyOp11
 70
     1
102
RTVSPropertyOp12
 70
     1
102
RTVSPropertyOp13
 70
     1
102
RTVSPropertyOp14
 70
     1
102
RTVSPropertyOp15
 70
     1
102
RTVSPropertyOp16
 70
     1
102
RTVSPropertyOp17
 70
     1
102
RTVSPropertyOp18
 70
     1
102
RTVSPropertyOp19
 70
     1
102
RTVSPropertyOp20
 70
     1
102
RTVSPropertyOp21
 70
     1
102
RTVSPropertyOp22
 70
     1
102
RTVSPropertyOp23
 70
     1
102
RTVSPropertyOp24
 70
     1
102
RTVSPropertyOp25
 70
     1
102
RTVSPropertyOp26
 70
     1
102
RTVSPropertyOp27
 70
     1
102
RTVSPropertyOp28
 70
     1
102
RTVSPropertyOp29
 70
     1
102
RTVSPropertyOp30
 70
     1
102
RTVSPropertyOp31
 70
     1
102
RTVSPropertyOp32
 70
     1
102
RTVSPropertyOp33
 70
     1
102
RTVSPropertyOp34
 70
     1
102
RTVSPropertyOp35
 70
     1
102
RTVSPropertyOp36
 70
     1
102
RTVSPropertyOp37
 70
     1
102
RTVSPropertyOp38
 70
     1
102
RTVSPropertyOp39
 70
     1
102
RTVSPropertyOp40
 70
     1
102
RTVSPropertyOp41
 70
     1
102
RTVSPropertyOp42
 70
     1
102
RTVSPropertyOp43
 70
     1
102
RTVSPropertyOp44
 70
     1
102
RTVSPropertyOp45
 70
     1
102
RTVSPropertyOp46
 70
     1
102
RTVSPropertyOp47
 70
     1
102
RTVSPropertyOp48
 70
     1
102
RTVSPropertyOp49
 70
     1
102
RTVSPropertyOp50
 70
     1
102
RTVSPropertyOp51
 70
     0
102
RTVSPropertyOp52
 70
     0
102
RTVSPropertyOp53
 70
     1
102
RTVSPropertyOp54
 70
     1
102
RTVSPropertyOp55
 70
     1
102
RTVSPropertyOp56
 70
     1
102
RTVSPropertyOp57
 70
     1
102
RTVSPropertyOp58
 70
     1
102
RTVSPropertyOp59
 70
     1
102
RTVSPropertyOp60
 70
     1
102
RTVSPropertyOp61
 70
     1
102
RTVSPropertyOp62
 70
     1
  0
XRECORD
  5
12EE
102
{ACAD_REACTORS
330
12ED
102
}
330
12ED
100
AcDbXrecord
280
     1
102
RTVSPost2010Prop28
280
     0
102
RTVSPost2010PropOp28
 70
     1
102
RTVSPost2010Prop29
280
     1
102
RTVSPost2010PropOp29
 70
     1
102
RTVSPost2010Prop30
280
     1
102
RTVSPost2010PropOp30
 70
     1
102
RTVSPost2010Prop31
280
     0
102
RTVSPost2010PropOp31
 70
     1
102
RTVSPost2010Prop32
280
     0
102
RTVSPost2010PropOp32
 70
     1
102
RTVSPost2010Prop33
280
     0
102
RTVSPost2010PropOp33
 70
     1
102
RTVSPost2010Prop34
280
     0
102
RTVSPost2010PropOp34
 70
     1
102
RTVSPost2010Prop35
280
     0
102
RTVSPost2010PropOp35
 70
     1
102
RTVSPost2010Prop36
280
     0
102
RTVSPost2010PropOp36
 70
     1
102
RTVSPost2010Prop37
 90
       50
102
RTVSPost2010PropOp37
 70
     1
102
RTVSPost2010Prop38
140
0.0
102
RTVSPost2010PropOp38
 70
     1
102
RTVSPost2010Prop39
140
1.0
102
RTVSPost2010PropOp39
 70
     1
102
RTVSPost2010Prop40
 90
        0
102
RTVSPost2010PropOp40
 70
     1
102
RTVSPost2010Prop41ColorIndex
 90
       18
102
RTVSPost2010Prop41ColorRGB
 90
        0
102
RTVSPost2010PropOp41
 70
     1
102
RTVSPost2010Prop42
 90
       50
102
RTVSPost2010PropOp42
 70
     1
102
RTVSPost2010Prop43
 90
        3
102
RTVSPost2010PropOp43
 70
     1
102
RTVSPost2010Prop44ColorIndex
 90
        5
102
RTVSPost2010Prop44ColorRGB
 90
      255
102
RTVSPost2010PropOp44
 70
     1
102
RTVSPost2010Prop45
280
     0
102
RTVSPost2010PropOp45
 70
     1
102
RTVSPost2010Prop46
 90
       50
102
RTVSPost2010PropOp46
 70
     1
102
RTVSPost2010Prop47
 90
       50
102
RTVSPost2010PropOp47
 70
     1
102
RTVSPost2010Prop48
 90
       50
102
RTVSPost2010PropOp48
 70
     1
102
RTVSPost2010Prop49
280
     0
102
RTVSPost2010PropOp49
 70
     1
102
RTVSPost2010Prop50
 90
       50
102
RTVSPost2010PropOp50
 70
     1
102
RTVSPost2010Prop51ColorIndex
 90
      256
102
RTVSPost2010Prop51ColorRGB
 90
-16777216
102
RTVSPost2010PropOp51
 70
     0
102
RTVSPost2010Prop52
140
1.0
102
RTVSPost2010PropOp52
 70
     0
102
RTVSPost2010Prop53
 90
        2
102
RTVSPost2010PropOp53
 70
     1
102
RTVSPost2010Prop54
  1
strokes_ogs.tif
102
RTVSPost2010PropOp54
 70
     1
102
RTVSPost2010Prop55
280
     0
102
RTVSPost2010PropOp55
 70
     1
102
RTVSPost2010Prop56
140
1.0
102
RTVSPost2010PropOp56
 70
     1
102
RTVSPost2010Prop57
140
1.0
102
RTVSPost2010PropOp57
 70
     1
102
RTVSPropertyOp0
 70
     1
102
RTVSPropertyOp1
 70
     1
102
RTVSPropertyOp2
 70
     1
102
RTVSPropertyOp3
 70
     1
102
RTVSPropertyOp4
 70
     1
102
RTVSPropertyOp5
 70
     1
102
RTVSPropertyOp6
 70
     1
102
RTVSPropertyOp7
 70
     1
102
RTVSPropertyOp8
 70
     1
102
RTVSPropertyOp9
 70
     1
102
RTVSPropertyOp10
 70
     1
102
RTVSPropertyOp11
 70
     1
102
RTVSPropertyOp12
 70
     1
102
RTVSPropertyOp13
 70
     1
102
RTVSPropertyOp14
 70
     1
102
RTVSPropertyOp15
 70
     1
102
RTVSPropertyOp16
 70
     1
102
RTVSPropertyOp17
 70
     1
102
RTVSPropertyOp18
 70
     1
102
RTVSPropertyOp19
 70
     1
102
RTVSPropertyOp20
 70
     1
102
RTVSPropertyOp21
 70
     1
102
RTVSPropertyOp22
 70
     1
102
RTVSPropertyOp23
 70
     1
102
RTVSPropertyOp24
 70
     1
102
RTVSPropertyOp25
 70
     1
102
RTVSPropertyOp26
 70
     1
102
RTVSPropertyOp27
 70
     1
102
RTVSPropertyOp28
 70
     1
102
RTVSPropertyOp29
 70
     1
102
RTVSPropertyOp30
 70
     1
102
RTVSPropertyOp31
 70
     1
102
RTVSPropertyOp32
 70
     1
102
RTVSPropertyOp33
 70
     1
102
RTVSPropertyOp34
 70
     1
102
RTVSPropertyOp35
 70
     1
102
RTVSPropertyOp36
 70
     1
102
RTVSPropertyOp37
 70
     1
102
RTVSPropertyOp38
 70
     1
102
RTVSPropertyOp39
 70
     1
102
RTVSPropertyOp40
 70
     1
102
RTVSPropertyOp41
 70
     1
102
RTVSPropertyOp42
 70
     1
102
RTVSPropertyOp43
 70
     1
102
RTVSPropertyOp44
 70
     1
102
RTVSPropertyOp45
 70
     1
102
RTVSPropertyOp46
 70
     1
102
RTVSPropertyOp47
 70
     1
102
RTVSPropertyOp48
 70
     1
102
RTVSPropertyOp49
 70
     1
102
RTVSPropertyOp50
 70
     1
102
RTVSPropertyOp51
 70
     0
102
RTVSPropertyOp52
 70
     0
102
RTVSPropertyOp53
 70
     1
102
RTVSPropertyOp54
 70
     1
102
RTVSPropertyOp55
 70
     1
102
RTVSPropertyOp56
 70
     1
102
RTVSPropertyOp57
 70
     1
102
RTVSPropertyOp58
 70
     1
102
RTVSPropertyOp59
 70
     1
102
RTVSPropertyOp60
 70
     1
102
RTVSPropertyOp61
 70
     1
102
RTVSPropertyOp62
 70
     1
  0
XRECORD
  5
1306
102
{ACAD_REACTORS
330
1305
102
}
330
1305
100
AcDbXrecord
280
     1
102
RTVSPost2010Prop28
280
     0
102
RTVSPost2010PropOp28
 70
     1
102
RTVSPost2010Prop29
280
     1
102
RTVSPost2010PropOp29
 70
     1
102
RTVSPost2010Prop30
280
     1
102
RTVSPost2010PropOp30
 70
     1
102
RTVSPost2010Prop31
280
     0
102
RTVSPost2010PropOp31
 70
     1
102
RTVSPost2010Prop32
280
     0
102
RTVSPost2010PropOp32
 70
     1
102
RTVSPost2010Prop33
280
     0
102
RTVSPost2010PropOp33
 70
     1
102
RTVSPost2010Prop34
280
     0
102
RTVSPost2010PropOp34
 70
     1
102
RTVSPost2010Prop35
280
     0
102
RTVSPost2010PropOp35
 70
     1
102
RTVSPost2010Prop36
280
     0
102
RTVSPost2010PropOp36
 70
     1
102
RTVSPost2010Prop37
 90
       50
102
RTVSPost2010PropOp37
 70
     1
102
RTVSPost2010Prop38
140
0.0
102
RTVSPost2010PropOp38
 70
     1
102
RTVSPost2010Prop39
140
1.0
102
RTVSPost2010PropOp39
 70
     1
102
RTVSPost2010Prop40
 90
        0
102
RTVSPost2010PropOp40
 70
     1
102
RTVSPost2010Prop41ColorIndex
 90
       18
102
RTVSPost2010Prop41ColorRGB
 90
        0
102
RTVSPost2010PropOp41
 70
     1
102
RTVSPost2010Prop42
 90
       50
102
RTVSPost2010PropOp42
 70
     1
102
RTVSPost2010Prop43
 90
        3
102
RTVSPost2010PropOp43
 70
     1
102
RTVSPost2010Prop44ColorIndex
 90
        5
102
RTVSPost2010Prop44ColorRGB
 90
      255
102
RTVSPost2010PropOp44
 70
     1
102
RTVSPost2010Prop45
280
     0
102
RTVSPost2010PropOp45
 70
     1
102
RTVSPost2010Prop46
 90
       50
102
RTVSPost2010PropOp46
 70
     1
102
RTVSPost2010Prop47
 90
       50
102
RTVSPost2010PropOp47
 70
     1
102
RTVSPost2010Prop48
 90
       50
102
RTVSPost2010PropOp48
 70
     1
102
RTVSPost2010Prop49
280
     0
102
RTVSPost2010PropOp49
 70
     1
102
RTVSPost2010Prop50
 90
       50
102
RTVSPost2010PropOp50
 70
     1
102
RTVSPost2010Prop51ColorIndex
 90
      256
102
RTVSPost2010Prop51ColorRGB
 90
-16777216
102
RTVSPost2010PropOp51
 70
     0
102
RTVSPost2010Prop52
140
1.0
102
RTVSPost2010PropOp52
 70
     0
102
RTVSPost2010Prop53
 90
        2
102
RTVSPost2010PropOp53
 70
     1
102
RTVSPost2010Prop54
  1
strokes_ogs.tif
102
RTVSPost2010PropOp54
 70
     1
102
RTVSPost2010Prop55
280
     0
102
RTVSPost2010PropOp55
 70
     1
102
RTVSPost2010Prop56
140
1.0
102
RTVSPost2010PropOp56
 70
     1
102
RTVSPost2010Prop57
140
1.0
102
RTVSPost2010PropOp57
 70
     1
102
RTVSPropertyOp0
 70
     1
102
RTVSPropertyOp1
 70
     1
102
RTVSPropertyOp2
 70
     1
102
RTVSPropertyOp3
 70
     1
102
RTVSPropertyOp4
 70
     1
102
RTVSPropertyOp5
 70
     1
102
RTVSPropertyOp6
 70
     1
102
RTVSPropertyOp7
 70
     1
102
RTVSPropertyOp8
 70
     1
102
RTVSPropertyOp9
 70
     1
102
RTVSPropertyOp10
 70
     1
102
RTVSPropertyOp11
 70
     1
102
RTVSPropertyOp12
 70
     1
102
RTVSPropertyOp13
 70
     1
102
RTVSPropertyOp14
 70
     1
102
RTVSPropertyOp15
 70
     1
102
RTVSPropertyOp16
 70
     1
102
RTVSPropertyOp17
 70
     1
102
RTVSPropertyOp18
 70
     1
102
RTVSPropertyOp19
 70
     1
102
RTVSPropertyOp20
 70
     1
102
RTVSPropertyOp21
 70
     1
102
RTVSPropertyOp22
 70
     1
102
RTVSPropertyOp23
 70
     1
102
RTVSPropertyOp24
 70
     1
102
RTVSPropertyOp25
 70
     1
102
RTVSPropertyOp26
 70
     1
102
RTVSPropertyOp27
 70
     1
102
RTVSPropertyOp28
 70
     1
102
RTVSPropertyOp29
 70
     1
102
RTVSPropertyOp30
 70
     1
102
RTVSPropertyOp31
 70
     1
102
RTVSPropertyOp32
 70
     1
102
RTVSPropertyOp33
 70
     1
102
RTVSPropertyOp34
 70
     1
102
RTVSPropertyOp35
 70
     1
102
RTVSPropertyOp36
 70
     1
102
RTVSPropertyOp37
 70
     1
102
RTVSPropertyOp38
 70
     1
102
RTVSPropertyOp39
 70
     1
102
RTVSPropertyOp40
 70
     1
102
RTVSPropertyOp41
 70
     1
102
RTVSPropertyOp42
 70
     1
102
RTVSPropertyOp43
 70
     1
102
RTVSPropertyOp44
 70
     1
102
RTVSPropertyOp45
 70
     1
102
RTVSPropertyOp46
 70
     1
102
RTVSPropertyOp47
 70
     1
102
RTVSPropertyOp48
 70
     1
102
RTVSPropertyOp49
 70
     1
102
RTVSPropertyOp50
 70
     1
102
RTVSPropertyOp51
 70
     0
102
RTVSPropertyOp52
 70
     0
102
RTVSPropertyOp53
 70
     1
102
RTVSPropertyOp54
 70
     1
102
RTVSPropertyOp55
 70
     1
102
RTVSPropertyOp56
 70
     1
102
RTVSPropertyOp57
 70
     1
102
RTVSPropertyOp58
 70
     1
102
RTVSPropertyOp59
 70
     1
102
RTVSPropertyOp60
 70
     1
102
RTVSPropertyOp61
 70
     1
102
RTVSPropertyOp62
 70
     1
  0
ENDSEC
  0
EOF
