  0
SECTION
  2
HEADER
  9
$ACADVER
  1
AC1015
  9
$DWGCODEPAGE
  3
ANSI_932
  9
$LTSCALE
 40
20.0
  9
$FILLMODE
 70
     1
  9
$CLAYER
  8
0
  9
$PDMODE
 70
     0
  9
$SPLFRAME
 70
     0
  9
$SPLINETYPE
 70
     6
  9
$SPLINESEGS
 70
     8
  9
$DIMASZ
 40
2.000000
  9
$DIMEXE
 40
1.500000
  9
$DIMEXO
 40
0.800000
  9
$DIMTAD
 70
     1
  9
$DIMTIH
 70
     0
  9
$DIMTOH
 70
     0
  9
$DIMTVP
 40
0.500000
  9
$DIMTXT
 40
3.100000
  9
$EXTMIN
 10
0.000000
 20
0.000000
 30
0.000000
  9
$EXTMAX
 10
297.000000
 20
420.000000
 30
0.000000
  9
$MEASUREMENT
 70
  1
  9
$LIMMIN
 10
0.000000
 20
0.000000
  9
$LIMMAX
 10
297.000000
 20
420.000000
  9
$HANDSEED
  5
14B
  9
$LWDISPLAY
290
     0
  9
$DIMBLK
  1
_OPEN
  9
$DIMDEC
 70
     2
  9
$DIMADEC
 70
     2
  9
$DIMAUNIT
 70
     0
  9
$DIMZIN
 70
     8
  9
$DIMAZIN
 70
     2
  9
$DIMTOFL
 70
     1
  0
ENDSEC
  0
SECTION
  2
CLASSES
  0
ENDSEC
  0
SECTION
  2
TABLES
  0
TABLE
  2
VPORT
  5
117
100
AcDbSymbolTable
 70
     1
  0
VPORT
  5
118
100
AcDbSymbolTableRecord
100
AcDbViewportTableRecord
  2
*ACTIVE
 70
     0
 12
110.640681
 22
107.931161
 40
179.862321
 41
1.119086
  0
ENDTAB
  0
TABLE
  2
LTYPE
  5
119
100
AcDbSymbolTable
 70
     3
  0
LTYPE
  5
11A
100
AcDbSymbolTableRecord
100
AcDbLinetypeTableRecord
  2
BYBLOCK
 70
     0
  3

 72
    65
 73
     0
 40
0.0
  0
LTYPE
  5
11B
100
AcDbSymbolTableRecord
100
AcDbLinetypeTableRecord
  2
BYLAYER
 70
     0
  3

 72
    65
 73
     0
 40
0.0
  0
LTYPE
  5
11C
100
AcDbSymbolTableRecord
100
AcDbLinetypeTableRecord
  2
CONTINUOUS
 70
     0
  3
Solid line (NEC CAE2D for Win R17.0 : 2022.10.13)
 72
    65
 73
     0
 40
0.0
  0
LTYPE
  5
11D
100
AcDbSymbolTableRecord
100
AcDbLinetypeTableRecord
  2
CENTER
 70
     0
  3
____ _ ____ _ ____ _ ____ _ ____ _ ____
 72
    65
 73
     4
 40
2.0
 49
1.25
 74
     0
 49
-0.25
 74
     0
 49
0.25
 74
     0
 49
-0.25
 74
     0
  0
LTYPE
  5
11E
100
AcDbSymbolTableRecord
100
AcDbLinetypeTableRecord
  2
PHANTOM
 70
     0
  3
______  __  __  ______  __  __  ______ 
 72
    65
 73
     6
 40
2.5
 49
1.25
 74
     0
 49
-0.25
 74
     0
 49
0.25
 74
     0
 49
-0.25
 74
     0
 49
0.25
 74
     0
 49
-0.25
 74
     0
  0
ENDTAB
  0
TABLE
  2
LAYER
  5
11F
100
AcDbSymbolTable
 70
    12
  0
LAYER
  5
120
100
AcDbSymbolTableRecord
100
AcDbLayerTableRecord
  2
0
 70
     0
 62
     7
  6
CONTINUOUS
370
    -3
390

  0
LAYER
  5
121
100
AcDbSymbolTableRecord
100
AcDbLayerTableRecord
  2
A0
 70
     0
 62
     9
  6
CONTINUOUS
370
    -3
390

  0
LAYER
  5
122
100
AcDbSymbolTableRecord
100
AcDbLayerTableRecord
  2
A1
 70
     0
 62
     8
  6
CONTINUOUS
370
    -3
390

  0
LAYER
  5
123
100
AcDbSymbolTableRecord
100
AcDbLayerTableRecord
  2
A4
 70
     0
 62
    12
  6
CONTINUOUS
370
    -3
390

  0
LAYER
  5
124
100
AcDbSymbolTableRecord
100
AcDbLayerTableRecord
  2
A5
 70
     0
 62
    12
  6
CONTINUOUS
370
    -3
390

  0
LAYER
  5
125
100
AcDbSymbolTableRecord
100
AcDbLayerTableRecord
  2
A7
 70
     0
 62
    10
  6
CONTINUOUS
370
    -3
390

  0
LAYER
  5
126
100
AcDbSymbolTableRecord
100
AcDbLayerTableRecord
  2
A10
 70
     0
 62
     6
  6
CONTINUOUS
370
    -3
390

  0
LAYER
  5
127
100
AcDbSymbolTableRecord
100
AcDbLayerTableRecord
  2
A20
 70
     0
 62
     1
  6
CONTINUOUS
370
    -3
390

  0
LAYER
  5
128
100
AcDbSymbolTableRecord
100
AcDbLayerTableRecord
  2
A30
 70
     0
 62
     1
  6
CONTINUOUS
370
    -3
390

  0
LAYER
  5
129
100
AcDbSymbolTableRecord
100
AcDbLayerTableRecord
  2
A40
 70
     0
 62
     9
  6
CONTINUOUS
370
    -3
390

  0
LAYER
  5
12A
100
AcDbSymbolTableRecord
100
AcDbLayerTableRecord
  2
A50
 70
     0
 62
    12
  6
CONTINUOUS
370
    -3
390

  0
LAYER
  5
12B
100
AcDbSymbolTableRecord
100
AcDbLayerTableRecord
  2
A1023
 70
     0
 62
    16
  6
CONTINUOUS
370
    -3
390

  0
ENDTAB
  0
TABLE
  2
STYLE
  5
12C
100
AcDbSymbolTable
 70
     4
  0
STYLE
  5
12D
100
AcDbSymbolTableRecord
100
AcDbTextStyleTableRecord
  2
STANDARD
 70
    64
 40
0.0
 41
1.0
 50
0.0
 71
     0
 42
3.000000000000000
  3
TXT
  4

  0
STYLE
  5
12E
100
AcDbSymbolTableRecord
100
AcDbTextStyleTableRecord
  2
ANKTATE
 70
    68
 40
0.0
 41
1.0
 50
0.0
 71
     0
 42
3.000000000000000
  3
TXT
  4

  0
STYLE
  5
12F
100
AcDbSymbolTableRecord
100
AcDbTextStyleTableRecord
  2
KNJYOKO
 70
    64
 40
0.0
 41
1.0
 50
0.0
 71
     0
 42
3.000000000000000
  3
TXT
  4
BIGFONT
  0
STYLE
  5
130
100
AcDbSymbolTableRecord
100
AcDbTextStyleTableRecord
  2
KNJTATE
 70
    68
 40
0.0
 41
1.0
 50
0.0
 71
     0
 42
3.000000000000000
  3
TXT
  4
BIGFONT
  0
ENDTAB
  0
TABLE
  2
VIEW
  5
131
100
AcDbSymbolTable
 70
     0
  0
ENDTAB
  0
TABLE
  2
UCS
  5
132
100
AcDbSymbolTable
 70
     0
  0
ENDTAB
  0
TABLE
  2
APPID
  5
133
100
AcDbSymbolTable
 70
     1
  0
APPID
  5
134
100
AcDbSymbolTableRecord
100
AcDbRegAppTableRecord
  2
ACAD
 70
     0
  0
ENDTAB
  0
TABLE
  2
DIMSTYLE
  5
135
100
AcDbSymbolTable
 70
     2
100
AcDbDimStyleTable
  0
DIMSTYLE
105
136
100
AcDbSymbolTableRecord
100
AcDbDimStyleTableRecord
  2
STANDARD
 70
     0
 41
2.000000
 44
1.500000
 42
0.800000
145
0.661290
140
3.100000
144
1.000000
146
0.645161
340
12D
  0
DIMSTYLE
105
137
100
AcDbSymbolTableRecord
100
AcDbDimStyleTableRecord
  2
A001
 70
     0
 41
2.000000
 44
1.500000
 42
0.800000
145
0.661290
140
3.100000
144
1.000000
146
0.645161
 77
     1
 73
     0
 74
     0
271
     2
179
     2
275
     0
 78
     8
 79
     2
172
     1
340
12D
  0
ENDTAB
  0
TABLE
  2
BLOCK_RECORD
  5
138
100
AcDbSymbolTable
 70
    12
  0
BLOCK_RECORD
  5
139
100
AcDbSymbolTableRecord
100
AcDbBlockTableRecord
  2
*MODEL_SPACE
  0
BLOCK_RECORD
  5
13A
100
AcDbSymbolTableRecord
100
AcDbBlockTableRecord
  2
*PAPER_SPACE
  0
BLOCK_RECORD
  5
13B
100
AcDbSymbolTableRecord
100
AcDbBlockTableRecord
  2
*PAPER_SPACE0
  0
BLOCK_RECORD
  5
1
100
AcDbSymbolTableRecord
100
AcDbBlockTableRecord
  2
_NONE
  0
BLOCK_RECORD
  5
4
100
AcDbSymbolTableRecord
100
AcDbBlockTableRecord
  2
_CLOSED
  0
BLOCK_RECORD
  5
B
100
AcDbSymbolTableRecord
100
AcDbBlockTableRecord
  2
_DOT
  0
BLOCK_RECORD
  5
13
100
AcDbSymbolTableRecord
100
AcDbBlockTableRecord
  2
_OPEN
  0
BLOCK_RECORD
  5
19
100
AcDbSymbolTableRecord
100
AcDbBlockTableRecord
  2
_ORIGIN
  0
BLOCK_RECORD
  5
1E
100
AcDbSymbolTableRecord
100
AcDbBlockTableRecord
  2
_OPEN30
  0
BLOCK_RECORD
  5
24
100
AcDbSymbolTableRecord
100
AcDbBlockTableRecord
  2
_BOXFILLED
  0
BLOCK_RECORD
  5
29
100
AcDbSymbolTableRecord
100
AcDbBlockTableRecord
  2
_BOXBLANK
  0
BLOCK_RECORD
  5
31
100
AcDbSymbolTableRecord
100
AcDbBlockTableRecord
  2
_OBLIQUE
  0
BLOCK_RECORD
  5
35
100
AcDbSymbolTableRecord
100
AcDbBlockTableRecord
  2
_OPEN90
  0
BLOCK_RECORD
  5
3B
100
AcDbSymbolTableRecord
100
AcDbBlockTableRecord
  2
_CLOSEDBLANK
  0
BLOCK_RECORD
  5
41
100
AcDbSymbolTableRecord
100
AcDbBlockTableRecord
  2
_DOTBLANK
  0
ENDTAB
  0
ENDSEC
  0
SECTION
  2
BLOCKS
  0
BLOCK
  5
13C
100
AcDbEntity
  8
0
100
AcDbBlockBegin
  2
*MODEL_SPACE
 70
     0
 10
0.0
 20
0.0
 30
0.0
  3
*MODEL_SPACE
  1

  0
ENDBLK
  5
13D
100
AcDbEntity
  8
0
100
AcDbBlockEnd
  0
BLOCK
  5
13E
100
AcDbEntity
  8
0
100
AcDbBlockBegin
  2
*PAPER_SPACE
 70
     0
 10
0.0
 20
0.0
 30
0.0
  3
*PAPER_SPACE
  1

  0
ENDBLK
  5
13F
100
AcDbEntity
  8
0
100
AcDbBlockEnd
  0
BLOCK
  5
140
100
AcDbEntity
  8
0
100
AcDbBlockBegin
  2
*PAPER_SPACE0
 70
     0
 10
0.0
 20
0.0
 30
0.0
  3
*PAPER_SPACE0
  1

  0
ENDBLK
  5
141
100
AcDbEntity
  8
0
100
AcDbBlockEnd
  0
BLOCK
  5
2
330
1
100
AcDbEntity
  8
0
100
AcDbBlockBegin
  2
_NONE
 70
     0
 10
0.0
 20
0.0
 30
0.0
  3
_NONE
  1

  0
ENDBLK
  5
3
330
1
100
AcDbEntity
  8
0
100
AcDbBlockEnd
  0
BLOCK
  5
5
330
4
100
AcDbEntity
  8
0
100
AcDbBlockBegin
  2
_CLOSED
 70
     0
 10
0.0
 20
0.0
 30
0.0
  3
_CLOSED
  1

  0
LINE
  5
6
330
4
100
AcDbEntity
  8
0
  6
BYBLOCK
 62
     0
370
    -2
100
AcDbLine
 10
-1.0
 20
0.166667
 30
0.0
 11
0.0
 21
0.0
 31
0.0
  0
LINE
  5
7
330
4
100
AcDbEntity
  8
0
  6
BYBLOCK
 62
     0
370
    -2
100
AcDbLine
 10
0.0
 20
0.0
 30
0.0
 11
-1.0
 21
-0.166667
 31
0.0
  0
LINE
  5
8
330
4
100
AcDbEntity
  8
0
  6
BYBLOCK
 62
     0
370
    -2
100
AcDbLine
 10
-1.0
 20
0.166667
 30
0.0
 11
-1.0
 21
-0.166667
 31
0.0
  0
LINE
  5
9
330
4
100
AcDbEntity
  8
0
  6
BYBLOCK
 62
     0
370
    -2
100
AcDbLine
 10
0.0
 20
0.0
 30
0.0
 11
-1.0
 21
0.0
 31
0.0
  0
ENDBLK
  5
A
330
4
100
AcDbEntity
  8
0
100
AcDbBlockEnd
  0
BLOCK
  5
C
330
B
100
AcDbEntity
  8
0
100
AcDbBlockBegin
  2
_DOT
 70
     0
 10
0.0
 20
0.0
 30
0.0
  3
_DOT
  1

  0
POLYLINE
  5
D
330
B
100
AcDbEntity
  8
0
  6
BYBLOCK
 62
     0
370
    -2
100
AcDb2dPolyline
 66
     1
 10
0.0
 20
0.0
 30
0.0
 70
     1
 40
0.5
 41
0.5
  0
VERTEX
  5
E
330
B
100
AcDbEntity
  8
0
  6
BYBLOCK
 62
     0
370
    -2
100
AcDbVertex
100
AcDb2dVertex
 10
-0.25
 20
0.0
 30
0.0
 42
1.0
  0
VERTEX
  5
F
330
B
100
AcDbEntity
  8
0
  6
BYBLOCK
 62
     0
370
    -2
100
AcDbVertex
100
AcDb2dVertex
 10
0.25
 20
0.0
 30
0.0
 42
1.0
  0
SEQEND
  5
10
330
B
100
AcDbEntity
  8
0
  6
BYBLOCK
 62
     0
370
    -2
  0
LINE
  5
11
330
B
100
AcDbEntity
  8
0
  6
BYBLOCK
 62
     0
370
    -2
100
AcDbLine
 10
-0.5
 20
0.0
 30
0.0
 11
-1.0
 21
0.0
 31
0.0
  0
ENDBLK
  5
12
330
B
100
AcDbEntity
  8
0
100
AcDbBlockEnd
  0
BLOCK
  5
14
330
13
100
AcDbEntity
  8
0
100
AcDbBlockBegin
  2
_OPEN
 70
     0
 10
0.0
 20
0.0
 30
0.0
  3
_OPEN
  1

  0
LINE
  5
15
330
13
100
AcDbEntity
  8
0
  6
BYBLOCK
 62
     0
370
    -2
100
AcDbLine
 10
-1.0
 20
0.166667
 30
0.0
 11
0.0
 21
0.0
 31
0.0
  0
LINE
  5
16
330
13
100
AcDbEntity
  8
0
  6
BYBLOCK
 62
     0
370
    -2
100
AcDbLine
 10
0.0
 20
0.0
 30
0.0
 11
-1.0
 21
-0.166667
 31
0.0
  0
LINE
  5
17
330
13
100
AcDbEntity
  8
0
  6
BYBLOCK
 62
     0
370
    -2
100
AcDbLine
 10
0.0
 20
0.0
 30
0.0
 11
-1.0
 21
0.0
 31
0.0
  0
ENDBLK
  5
18
330
13
100
AcDbEntity
  8
0
100
AcDbBlockEnd
  0
BLOCK
  5
1A
330
19
100
AcDbEntity
  8
0
100
AcDbBlockBegin
  2
_ORIGIN
 70
     0
 10
0.0
 20
0.0
 30
0.0
  3
_ORIGIN
  1

  0
CIRCLE
  5
1B
330
19
100
AcDbEntity
  8
0
  6
BYBLOCK
 62
     0
370
    -2
100
AcDbCircle
 10
0.0
 20
0.0
 30
0.0
 40
0.5
  0
LINE
  5
1C
330
19
100
AcDbEntity
  8
0
  6
BYBLOCK
 62
     0
370
    -2
100
AcDbLine
 10
0.0
 20
0.0
 30
0.0
 11
-1.0
 21
0.0
 31
0.0
  0
ENDBLK
  5
1D
330
19
100
AcDbEntity
  8
0
100
AcDbBlockEnd
  0
BLOCK
  5
1F
330
1E
100
AcDbEntity
  8
0
100
AcDbBlockBegin
  2
_OPEN30
 70
     0
 10
0.0
 20
0.0
 30
0.0
  3
_OPEN30
  1

  0
LINE
  5
20
330
1E
100
AcDbEntity
  8
0
  6
BYBLOCK
 62
     0
370
    -2
100
AcDbLine
 10
-1.0
 20
0.267949
 30
0.0
 11
0.0
 21
0.0
 31
0.0
  0
LINE
  5
21
330
1E
100
AcDbEntity
  8
0
  6
BYBLOCK
 62
     0
370
    -2
100
AcDbLine
 10
0.0
 20
0.0
 30
0.0
 11
-1.0
 21
-0.267949
 31
0.0
  0
LINE
  5
22
330
1E
100
AcDbEntity
  8
0
  6
BYBLOCK
 62
     0
370
    -2
100
AcDbLine
 10
0.0
 20
0.0
 30
0.0
 11
-1.0
 21
0.0
 31
0.0
  0
ENDBLK
  5
23
330
1E
100
AcDbEntity
  8
0
100
AcDbBlockEnd
  0
BLOCK
  5
25
330
24
100
AcDbEntity
  8
0
100
AcDbBlockBegin
  2
_BOXFILLED
 70
     0
 10
0.0
 20
0.0
 30
0.0
  3
_BOXFILLED
  1

  0
SOLID
  5
26
330
24
100
AcDbEntity
  8
0
  6
BYBLOCK
 62
     0
370
    -2
100
AcDbTrace
 10
-0.5
 20
0.5
 30
0.0
 11
0.5
 21
0.5
 31
0.0
 12
-0.5
 22
-0.5
 32
0.0
 13
0.5
 23
-0.5
 33
0.0
  0
LINE
  5
27
330
24
100
AcDbEntity
  8
0
  6
BYBLOCK
 62
     0
370
    -2
100
AcDbLine
 10
-0.5
 20
0.0
 30
0.0
 11
-1.0
 21
0.0
 31
0.0
  0
ENDBLK
  5
28
330
24
100
AcDbEntity
  8
0
100
AcDbBlockEnd
  0
BLOCK
  5
2A
330
29
100
AcDbEntity
  8
0
100
AcDbBlockBegin
  2
_BOXBLANK
 70
     0
 10
0.0
 20
0.0
 30
0.0
  3
_BOXBLANK
  1

  0
LINE
  5
2B
330
29
100
AcDbEntity
  8
0
  6
BYBLOCK
 62
     0
370
    -2
100
AcDbLine
 10
-0.5
 20
-0.5
 30
0.0
 11
0.5
 21
-0.5
 31
0.0
  0
LINE
  5
2C
330
29
100
AcDbEntity
  8
0
  6
BYBLOCK
 62
     0
370
    -2
100
AcDbLine
 10
0.5
 20
-0.5
 30
0.0
 11
0.5
 21
0.5
 31
0.0
  0
LINE
  5
2D
330
29
100
AcDbEntity
  8
0
  6
BYBLOCK
 62
     0
370
    -2
100
AcDbLine
 10
0.5
 20
0.5
 30
0.0
 11
-0.5
 21
0.5
 31
0.0
  0
LINE
  5
2E
330
29
100
AcDbEntity
  8
0
  6
BYBLOCK
 62
     0
370
    -2
100
AcDbLine
 10
-0.5
 20
0.5
 30
0.0
 11
-0.5
 21
-0.5
 31
0.0
  0
LINE
  5
2F
330
29
100
AcDbEntity
  8
0
  6
BYBLOCK
 62
     0
370
    -2
100
AcDbLine
 10
-0.5
 20
0.0
 30
0.0
 11
-1.0
 21
0.0
 31
0.0
  0
ENDBLK
  5
30
330
29
100
AcDbEntity
  8
0
100
AcDbBlockEnd
  0
BLOCK
  5
32
330
31
100
AcDbEntity
  8
0
100
AcDbBlockBegin
  2
_OBLIQUE
 70
     0
 10
0.0
 20
0.0
 30
0.0
  3
_OBLIQUE
  1

  0
LINE
  5
33
330
31
100
AcDbEntity
  8
0
  6
BYBLOCK
 62
     0
370
    -2
100
AcDbLine
 10
-0.5
 20
-0.5
 30
0.0
 11
0.5
 21
0.5
 31
0.0
  0
ENDBLK
  5
34
330
31
100
AcDbEntity
  8
0
100
AcDbBlockEnd
  0
BLOCK
  5
36
330
35
100
AcDbEntity
  8
0
100
AcDbBlockBegin
  2
_OPEN90
 70
     0
 10
0.0
 20
0.0
 30
0.0
  3
_OPEN90
  1

  0
LINE
  5
37
330
35
100
AcDbEntity
  8
0
  6
BYBLOCK
 62
     0
370
    -2
100
AcDbLine
 10
-0.5
 20
0.5
 30
0.0
 11
0.0
 21
0.0
 31
0.0
  0
LINE
  5
38
330
35
100
AcDbEntity
  8
0
  6
BYBLOCK
 62
     0
370
    -2
100
AcDbLine
 10
0.0
 20
0.0
 30
0.0
 11
-0.5
 21
-0.5
 31
0.0
  0
LINE
  5
39
330
35
100
AcDbEntity
  8
0
  6
BYBLOCK
 62
     0
370
    -2
100
AcDbLine
 10
0.0
 20
0.0
 30
0.0
 11
-1.0
 21
0.0
 31
0.0
  0
ENDBLK
  5
3A
330
35
100
AcDbEntity
  8
0
100
AcDbBlockEnd
  0
BLOCK
  5
3C
330
3B
100
AcDbEntity
  8
0
100
AcDbBlockBegin
  2
_CLOSEDBLANK
 70
     0
 10
0.0
 20
0.0
 30
0.0
  3
_CLOSEDBLANK
  1

  0
LINE
  5
3D
330
3B
100
AcDbEntity
  8
0
  6
BYBLOCK
 62
     0
370
    -2
100
AcDbLine
 10
-1.0
 20
0.1666666666666666
 30
0.0
 11
0.0
 21
0.0
 31
0.0
  0
LINE
  5
3E
330
3B
100
AcDbEntity
  8
0
  6
BYBLOCK
 62
     0
370
    -2
100
AcDbLine
 10
0.0
 20
0.0
 30
0.0
 11
-1.0
 21
-0.1666666666666666
 31
0.0
  0
LINE
  5
3F
330
3B
100
AcDbEntity
  8
0
  6
BYBLOCK
 62
     0
370
    -2
100
AcDbLine
 10
-1.0
 20
0.1666666666666666
 30
0.0
 11
-1.0
 21
-0.1666666666666666
 31
0.0
  0
ENDBLK
  5
40
330
3B
100
AcDbEntity
  8
0
100
AcDbBlockEnd
  0
BLOCK
  5
42
330
41
100
AcDbEntity
  8
0
100
AcDbBlockBegin
  2
_DOTBLANK
 70
     0
 10
0.0
 20
0.0
 30
0.0
  3
_DOTBLANK
  1

  0
CIRCLE
  5
43
330
41
100
AcDbEntity
  8
0
  6
BYBLOCK
 62
     0
370
    -2
100
AcDbCircle
 10
0.0
 20
0.0
 30
0.0
 40
0.5
  0
LINE
  5
44
330
41
100
AcDbEntity
  8
0
  6
BYBLOCK
 62
     0
370
    -2
100
AcDbLine
 10
-0.5
 20
0.0
 30
0.0
 11
-1.0
 21
0.0
 31
0.0
  0
ENDBLK
  5
45
330
41
100
AcDbEntity
  8
0
100
AcDbBlockEnd
  0
ENDSEC
  0
SECTION
  2
ENTITIES
  0
MTEXT
  5
46
100
AcDbEntity
  8
A7
  6
CONTINUOUS
 62
3
100
AcDbMText
 10
9.999997526638502
 20
18.00000076076889
 30
0.000000000000000
 40
3.000000000000000
 41
0.000000000000000
 44
0.6739999771118164
 71
     7
 72
     1
  1
{\H0.94x;{TYPE No.TCA-A50SBF47X29}}
 11
1.000000000000000
 21
0.000000000000000
 31
0.000000000000000
  7
STANDARD
  0
POINT
  5
47
100
AcDbEntity
  8
A7
  6
CONTINUOUS
 62
3
100
AcDbPoint
 10
9.999997526638502
 20
18.00000076076889
 30
0.000000000000000
  0
LINE
  5
48
100
AcDbEntity
  8
A4
  6
CENTER
 62
1
100
AcDbLine
 10
97.00000000000000
 20
197.8623220000001
 30
0.000000000000000
 11
97.00000000000000
 21
145.9999990000002
 31
0.000000000000000
  0
LINE
  5
49
100
AcDbEntity
  8
A4
  6
CENTER
 62
1
100
AcDbLine
 10
97.00000000000000
 20
48.50000000000000
 30
0.000000000000000
 11
97.00000000000000
 21
101.5000000000000
 31
0.000000000000000
  0
LINE
  5
4A
100
AcDbEntity
  8
A4
  6
CENTER
 62
1
100
AcDbLine
 10
70.50000000000000
 20
75.00000000000000
 30
0.000000000000000
 11
123.5000000000000
 21
75.00000000000000
 31
0.000000000000000
  0
LINE
  5
4B
100
AcDbEntity
  8
A4
  6
CENTER
 62
1
100
AcDbLine
 10
185.3502025538041
 20
116.5000000000000
 30
0.000000000000000
 11
185.3502025538041
 21
48.50000000000000
 31
0.000000000000000
  0
LINE
  5
4C
100
AcDbEntity
  8
A4
  6
CENTER
 62
1
100
AcDbLine
 10
211.2813635538041
 20
75.00000000000000
 30
0.000000000000000
 11
159.4190405538041
 21
75.00000000000000
 31
0.000000000000000
  0
LINE
  5
4D
100
AcDbEntity
  8
A4
  6
CENTER
 62
1
100
AcDbLine
 10
80.00000000000000
 20
48.50000000000000
 30
0.000000000000000
 11
80.00000000000000
 21
116.5000000000000
 31
0.000000000000000
  0
LINE
  5
4E
100
AcDbEntity
  8
A4
  6
CENTER
 62
1
100
AcDbLine
 10
56.50000000000000
 20
116.5000000000000
 30
0.000000000000000
 11
56.50000000000000
 21
110.5000000000001
 31
0.000000000000000
  0
LINE
  5
4F
100
AcDbEntity
  8
A4
  6
CENTER
 62
1
100
AcDbLine
 10
103.5000000000000
 20
116.5000000000000
 30
0.000000000000000
 11
103.5000000000000
 21
110.5000000000001
 31
0.000000000000000
  0
CIRCLE
  5
50
100
AcDbEntity
  8
A1
  6
CONTINUOUS
 62
7
100
AcDbCircle
 10
97.00000000000000
 20
75.00000000000000
 30
0.000000000000000
 40
15.10000000000000
  0
CIRCLE
  5
51
100
AcDbEntity
  8
A1
  6
CONTINUOUS
 62
7
100
AcDbCircle
 10
97.00000000000000
 20
75.00000000000000
 30
0.000000000000000
 40
25.00000000000000
  0
ARC
  5
52
100
AcDbEntity
  8
A1
  6
CONTINUOUS
 62
7
100
AcDbCircle
 10
72.44290500000000
 20
100.5000000000000
 30
0.000000000000000
 40
1.000000000000000
100
AcDbArc
 50
89.99999999998290
 51
176.6335389999667
  0
LINE
  5
53
100
AcDbEntity
  8
A1
  6
CONTINUOUS
 62
7
100
AcDbLine
 10
71.09082799999999
 20
67.50000000000000
 30
0.000000000000000
 11
73.15152000000000
 21
67.50000000000000
 31
0.000000000000000
  0
ARC
  5
54
100
AcDbEntity
  8
A1
  6
CONTINUOUS
 62
7
100
AcDbCircle
 10
87.50000000000000
 20
100.5000000000000
 30
0.000000000000000
 40
1.000000000000000
100
AcDbArc
 50
0.000000000000000
 51
89.99999999998290
  0
LINE
  5
55
100
AcDbEntity
  8
A1
  6
CONTINUOUS
 62
7
100
AcDbLine
 10
71.44462999999996
 20
100.5587219999999
 30
0.000000000000000
 11
69.59341599999996
 21
69.08808300000003
 31
0.000000000000000
  0
ARC
  5
56
100
AcDbEntity
  8
A1
  6
CONTINUOUS
 62
7
100
AcDbCircle
 10
71.09082799999999
 20
69.00000000000000
 30
0.000000000000000
 40
1.500000000000000
100
AcDbArc
 50
176.6335389999666
 51
269.9999999999490
  0
ARC
  5
57
100
AcDbEntity
  8
A1
  6
CONTINUOUS
 62
7
100
AcDbCircle
 10
91.50000000000000
 20
100.9229630000000
 30
0.000000000000000
 40
3.000000000000000
100
AcDbArc
 50
188.0250999999645
 51
224.8294189999576
  0
LINE
  5
58
100
AcDbEntity
  8
A1
  6
CONTINUOUS
 62
7
100
AcDbLine
 10
89.00000000000003
 20
108.0000000000000
 30
0.000000000000000
 11
88.50000000000003
 21
108.5000000000000
 31
0.000000000000000
  0
LINE
  5
59
100
AcDbEntity
  8
A1
  6
CONTINUOUS
 62
7
100
AcDbLine
 10
88.49999999999999
 20
101.5000000000000
 30
0.000000000000000
 11
89.00000000000007
 21
102.0000000000001
 31
0.000000000000000
  0
LINE
  5
5A
100
AcDbEntity
  8
A1
  6
CONTINUOUS
 62
7
100
AcDbLine
 10
71.00000000000000
 20
108.0000000000001
 30
0.000000000000000
 11
71.50000000000001
 21
108.5000000000001
 31
0.000000000000000
  0
LINE
  5
5B
100
AcDbEntity
  8
A1
  6
CONTINUOUS
 62
7
100
AcDbLine
 10
71.00000000000000
 20
102.0000000000000
 30
0.000000000000000
 11
71.50000000000001
 21
101.5000000000000
 31
0.000000000000000
  0
LINE
  5
5C
100
AcDbEntity
  8
A1
  6
CONTINUOUS
 62
7
100
AcDbLine
 10
122.0000000000000
 20
160.9311610000001
 30
0.000000000000000
 11
122.0000000000000
 21
155.5866100000001
 31
0.000000000000000
  0
LINE
  5
5D
100
AcDbEntity
  8
A1
  6
CONTINUOUS
 62
7
100
AcDbLine
 10
112.1000000000000
 20
149.4311610000001
 30
0.000000000000000
 11
107.1794494717703
 21
149.4311610000001
 31
0.000000000000000
  0
ARC
  5
5E
100
AcDbEntity
  8
A1
  6
CONTINUOUS
 62
7
100
AcDbCircle
 10
121.5000000000000
 20
160.9311610000001
 30
0.000000000000000
 40
0.5000000000000000
100
AcDbArc
 50
0.000000000000000
 51
89.99999999998371
  0
ARC
  5
5F
100
AcDbEntity
  8
A1
  6
CONTINUOUS
 62
7
100
AcDbCircle
 10
118.0000000000000
 20
155.5866100000001
 30
0.000000000000000
 40
4.000000000000000
100
AcDbArc
 50
292.0243129999448
 51
359.9999999999321
  0
LINE
  5
60
100
AcDbEntity
  8
A1
  6
CONTINUOUS
 62
7
100
AcDbLine
 10
122.0000000000000
 20
182.9311610000001
 30
0.000000000000000
 11
122.0000000000000
 21
188.2757120000001
 31
0.000000000000000
  0
LINE
  5
61
100
AcDbEntity
  8
A1
  6
CONTINUOUS
 62
7
100
AcDbLine
 10
121.5000000000000
 20
182.4311610000001
 30
0.000000000000000
 11
110.0000000000000
 21
182.4311610000001
 31
0.000000000000000
  0
LINE
  5
62
100
AcDbEntity
  8
A1
  6
CONTINUOUS
 62
7
100
AcDbLine
 10
112.1000000000000
 20
194.4311610000001
 30
0.000000000000000
 11
107.1794494717703
 21
194.4311610000001
 31
0.000000000000000
  0
ARC
  5
63
100
AcDbEntity
  8
A1
  6
CONTINUOUS
 62
7
100
AcDbCircle
 10
121.5000000000000
 20
182.9311610000001
 30
0.000000000000000
 40
0.5000000000000000
100
AcDbArc
 50
269.9999999999495
 51
359.9999999999316
  0
ARC
  5
64
100
AcDbEntity
  8
A1
  6
CONTINUOUS
 62
7
100
AcDbCircle
 10
118.0000000000000
 20
188.2757120000001
 30
0.000000000000000
 40
4.000000000000000
100
AcDbArc
 50
0.000000000000000
 51
67.97568699998713
  0
LINE
  5
65
100
AcDbEntity
  8
A1
  6
CONTINUOUS
 62
7
100
AcDbLine
 10
175.8502025538041
 20
67.50000000000000
 30
0.000000000000000
 11
175.8502025538041
 21
83.00000000000000
 31
0.000000000000000
  0
LINE
  5
66
100
AcDbEntity
  8
A1
  6
CONTINUOUS
 62
7
100
AcDbLine
 10
176.3502025538041
 20
67.50000000000000
 30
0.000000000000000
 11
176.3502025538041
 21
100.5000000000000
 31
0.000000000000000
  0
LINE
  5
67
100
AcDbEntity
  8
A1
  6
CONTINUOUS
 62
7
100
AcDbLine
 10
194.3502025538041
 20
67.50000000000000
 30
0.000000000000000
 11
194.3502025538041
 21
100.5000000000000
 31
0.000000000000000
  0
LINE
  5
68
100
AcDbEntity
  8
A1
  6
CONTINUOUS
 62
7
100
AcDbLine
 10
194.8502025538041
 20
67.50000000000000
 30
0.000000000000000
 11
175.8502025538041
 21
67.50000000000000
 31
0.000000000000000
  0
LINE
  5
69
100
AcDbEntity
  8
A1
  6
CONTINUOUS
 62
7
100
AcDbLine
 10
175.8502025538041
 20
83.00000000000000
 30
0.000000000000000
 11
176.3502025538041
 21
83.00000000000000
 31
0.000000000000000
  0
ARC
  5
6A
100
AcDbEntity
  8
A1
  6
CONTINUOUS
 62
7
100
AcDbCircle
 10
185.3502025538041
 20
-1.094176999999945
 30
0.000000000000000
 40
100.0000000000000
100
AcDbArc
 50
84.83639299998397
 51
95.16360699998202
  0
ARC
  5
6B
100
AcDbEntity
  8
A1
  6
CONTINUOUS
 62
7
100
AcDbCircle
 10
177.3502025538041
 20
100.5000000000000
 30
0.000000000000000
 40
1.000000000000000
100
AcDbArc
 50
89.99999999998290
 51
179.9999999999660
  0
LINE
  5
6C
100
AcDbEntity
  8
A1
  6
CONTINUOUS
 62
7
100
AcDbLine
 10
194.3502025538041
 20
83.00000000000000
 30
0.000000000000000
 11
194.8502025538041
 21
83.00000000000000
 31
0.000000000000000
  0
ARC
  5
6D
100
AcDbEntity
  8
A1
  6
CONTINUOUS
 62
7
100
AcDbCircle
 10
193.3502025538041
 20
100.5000000000000
 30
0.000000000000000
 40
1.000000000000000
100
AcDbArc
 50
0.000000000000000
 51
89.99999999998290
  0
LINE
  5
6E
100
AcDbEntity
  8
A1
  6
CONTINUOUS
 62
7
100
AcDbLine
 10
91.17500700000009
 20
109.9105330000000
 30
0.000000000000000
 11
93.09791455397436
 21
111.5298227272670
 31
0.000000000000000
  0
LINE
  5
6F
100
AcDbEntity
  8
A1
  6
CONTINUOUS
 62
7
100
AcDbLine
 10
68.82499199999997
 20
109.9105329999999
 30
0.000000000000000
 11
66.90208444602575
 21
111.5298227272669
 31
0.000000000000000
  0
LINE
  5
70
100
AcDbEntity
  8
A1
  6
CONTINUOUS
 62
7
100
AcDbLine
 10
194.8502025538041
 20
83.00000000000000
 30
0.000000000000000
 11
194.8502025538041
 21
67.50000000000000
 31
0.000000000000000
  0
LINE
  5
71
100
AcDbEntity
  8
A1
  6
CONTINUOUS
 62
7
100
AcDbLine
 10
196.3502025538041
 20
50.00000000000000
 30
0.000000000000000
 11
201.6947525538041
 21
50.00000000000000
 31
0.000000000000000
  0
LINE
  5
72
100
AcDbEntity
  8
A1
  6
CONTINUOUS
 62
7
100
AcDbLine
 10
195.8502025538041
 20
67.00000000000000
 30
0.000000000000000
 11
195.8502025538041
 21
50.50000000000000
 31
0.000000000000000
  0
ARC
  5
73
100
AcDbEntity
  8
A1
  6
CONTINUOUS
 62
7
100
AcDbCircle
 10
195.8502025538041
 20
68.00000000000000
 30
0.000000000000000
 40
1.000000000000000
100
AcDbArc
 50
179.9999999999658
 51
269.9999999999491
  0
LINE
  5
74
100
AcDbEntity
  8
A1
  6
CONTINUOUS
 62
7
100
AcDbLine
 10
196.3502025538041
 20
100.0000000000000
 30
0.000000000000000
 11
201.6947525538041
 21
100.0000000000000
 31
0.000000000000000
  0
LINE
  5
75
100
AcDbEntity
  8
A1
  6
CONTINUOUS
 62
7
100
AcDbLine
 10
195.8502025538041
 20
83.00000000000000
 30
0.000000000000000
 11
195.8502025538041
 21
99.50000000000000
 31
0.000000000000000
  0
ARC
  5
76
100
AcDbEntity
  8
A1
  6
CONTINUOUS
 62
7
100
AcDbCircle
 10
195.8502025538041
 20
82.00000000000000
 30
0.000000000000000
 40
1.000000000000000
100
AcDbArc
 50
89.99999999998290
 51
179.9999999999658
  0
LINE
  5
77
100
AcDbEntity
  8
A1
  6
CONTINUOUS
 62
7
100
AcDbLine
 10
50.00000000000000
 20
112.0000000000001
 30
0.000000000000000
 11
110.0000000000000
 21
112.0000000000001
 31
0.000000000000000
  0
LINE
  5
78
100
AcDbEntity
  8
A1
  6
CONTINUOUS
 62
7
100
AcDbLine
 10
207.8502025538041
 20
59.90000000000003
 30
0.000000000000000
 11
207.8502025538041
 21
90.10000000000002
 31
0.000000000000000
  0
ARC
  5
79
100
AcDbEntity
  8
A1
  6
CONTINUOUS
 62
7
100
AcDbCircle
 10
196.3502025538041
 20
50.50000000000000
 30
0.000000000000000
 40
0.5000000000000000
100
AcDbArc
 50
179.9999999999658
 51
269.9999999999487
  0
ARC
  5
7A
100
AcDbEntity
  8
A1
  6
CONTINUOUS
 62
7
100
AcDbCircle
 10
196.3502025538041
 20
99.50000000000000
 30
0.000000000000000
 40
0.5000000000000000
100
AcDbArc
 50
89.99999999998290
 51
179.9999999999660
  0
LINE
  5
7B
100
AcDbEntity
  8
A1
  6
CONTINUOUS
 62
7
100
AcDbLine
 10
71.50000000000000
 20
108.5000000000000
 30
0.000000000000000
 11
88.50000000000000
 21
108.5000000000000
 31
0.000000000000000
  0
ARC
  5
7C
100
AcDbEntity
  8
A1
  6
CONTINUOUS
 62
7
100
AcDbCircle
 10
149.7813635538041
 20
75.00000000000000
 30
0.000000000000000
 40
60.00000000000000
100
AcDbArc
 50
14.57615899999725
 51
16.12729499999695
  0
ARC
  5
7D
100
AcDbEntity
  8
A1
  6
CONTINUOUS
 62
7
100
AcDbCircle
 10
201.6947525538041
 20
54.00000000000000
 30
0.000000000000000
 40
4.000000000000000
100
AcDbArc
 50
269.9999999999490
 51
337.9756869999362
  0
ARC
  5
7E
100
AcDbEntity
  8
A1
  6
CONTINUOUS
 62
7
100
AcDbCircle
 10
201.6947525538041
 20
96.00000000000000
 30
0.000000000000000
 40
4.000000000000000
100
AcDbArc
 50
22.02431299999583
 51
89.99999999998302
  0
LINE
  5
7F
100
AcDbEntity
  8
A1
  6
CONTINUOUS
 62
7
100
AcDbLine
 10
195.8502025538041
 20
67.00000000000000
 30
0.000000000000000
 11
195.8502025538041
 21
83.00000000000000
 31
0.000000000000000
  0
LINE
  5
80
100
AcDbEntity
  8
A1
  6
CONTINUOUS
 62
7
100
AcDbLine
 10
174.3502025538041
 20
100.0000000000000
 30
0.000000000000000
 11
169.0056515538040
 21
100.0000000000000
 31
0.000000000000000
  0
LINE
  5
81
100
AcDbEntity
  8
A1
  6
CONTINUOUS
 62
7
100
AcDbLine
 10
174.8502025538041
 20
83.00000000000000
 30
0.000000000000000
 11
174.8502025538041
 21
99.50000000000000
 31
0.000000000000000
  0
ARC
  5
82
100
AcDbEntity
  8
A1
  6
CONTINUOUS
 62
7
100
AcDbCircle
 10
174.8502025538041
 20
82.00000000000000
 30
0.000000000000000
 40
1.000000000000000
100
AcDbArc
 50
0.000000000000000
 51
89.99999999998290
  0
LINE
  5
83
100
AcDbEntity
  8
A1
  6
CONTINUOUS
 62
7
100
AcDbLine
 10
174.3502025538041
 20
50.00000000000000
 30
0.000000000000000
 11
169.0056515538040
 21
50.00000000000000
 31
0.000000000000000
  0
LINE
  5
84
100
AcDbEntity
  8
A1
  6
CONTINUOUS
 62
7
100
AcDbLine
 10
174.8502025538041
 20
67.00000000000000
 30
0.000000000000000
 11
174.8502025538041
 21
50.50000000000000
 31
0.000000000000000
  0
ARC
  5
85
100
AcDbEntity
  8
A1
  6
CONTINUOUS
 62
7
100
AcDbCircle
 10
174.8502025538041
 20
68.00000000000000
 30
0.000000000000000
 40
1.000000000000000
100
AcDbArc
 50
270.0000000000169
 51
360.0000000000000
  0
LINE
  5
86
100
AcDbEntity
  8
A1
  6
CONTINUOUS
 62
7
100
AcDbLine
 10
162.8502025538041
 20
90.10000000000002
 30
0.000000000000000
 11
162.8502025538041
 21
59.90000000000003
 31
0.000000000000000
  0
ARC
  5
87
100
AcDbEntity
  8
A1
  6
CONTINUOUS
 62
7
100
AcDbCircle
 10
174.3502025538041
 20
99.50000000000000
 30
0.000000000000000
 40
0.5000000000000000
100
AcDbArc
 50
0.000000000000000
 51
89.99999999998290
  0
ARC
  5
88
100
AcDbEntity
  8
A1
  6
CONTINUOUS
 62
7
100
AcDbCircle
 10
174.3502025538041
 20
50.50000000000000
 30
0.000000000000000
 40
0.5000000000000000
100
AcDbArc
 50
270.0000000000171
 51
360.0000000000000
  0
ARC
  5
89
100
AcDbEntity
  8
A1
  6
CONTINUOUS
 62
7
100
AcDbCircle
 10
169.0056515538040
 20
96.00000000000000
 30
0.000000000000000
 40
4.000000000000000
100
AcDbArc
 50
89.99999999998302
 51
157.9756869999702
  0
ARC
  5
8A
100
AcDbEntity
  8
A1
  6
CONTINUOUS
 62
7
100
AcDbCircle
 10
169.0056515538040
 20
54.00000000000000
 30
0.000000000000000
 40
4.000000000000000
100
AcDbArc
 50
202.0243129999619
 51
269.9999999999490
  0
LINE
  5
8B
100
AcDbEntity
  8
A1
  6
CONTINUOUS
 62
7
100
AcDbLine
 10
174.8502025538041
 20
83.00000000000000
 30
0.000000000000000
 11
174.8502025538041
 21
67.00000000000000
 31
0.000000000000000
  0
ARC
  5
8C
100
AcDbEntity
  8
A1
  6
CONTINUOUS
 62
7
100
AcDbCircle
 10
87.31019300000003
 20
114.5000000000000
 30
0.000000000000000
 40
6.000000000000000
100
AcDbArc
 50
269.9999999999490
 51
310.1009079999415
  0
ARC
  5
8D
100
AcDbEntity
  8
A1
  6
CONTINUOUS
 62
7
100
AcDbCircle
 10
72.68980599999998
 20
114.5000000000000
 30
0.000000000000000
 40
6.000000000000000
100
AcDbArc
 50
229.8990919999565
 51
269.9999999999490
  0
LINE
  5
8E
100
AcDbEntity
  8
A1
  6
CONTINUOUS
 62
7
100
AcDbLine
 10
110.0000000000000
 20
112.0000000000001
 30
0.000000000000000
 11
110.0000000000000
 21
115.0000000000000
 31
0.000000000000000
  0
LINE
  5
8F
100
AcDbEntity
  8
A1
  6
CONTINUOUS
 62
7
100
AcDbLine
 10
50.00000000000000
 20
112.0000000000001
 30
0.000000000000000
 11
50.00000000000000
 21
115.0000000000000
 31
0.000000000000000
  0
LINE
  5
90
100
AcDbEntity
  8
A1
  6
CONTINUOUS
 62
7
100
AcDbLine
 10
50.00000000000000
 20
115.0000000000000
 30
0.000000000000000
 11
110.0000000000000
 21
115.0000000000000
 31
0.000000000000000
  0
LINE
  5
91
100
AcDbEntity
  8
A1
  6
CONTINUOUS
 62
7
100
AcDbLine
 10
71.00000000000000
 20
108.0000000000000
 30
0.000000000000000
 11
71.00000000000000
 21
102.0000000000000
 31
0.000000000000000
  0
LINE
  5
92
100
AcDbEntity
  8
A1
  6
CONTINUOUS
 62
7
100
AcDbLine
 10
71.50000000000000
 20
101.5000000000000
 30
0.000000000000000
 11
88.50000000000000
 21
101.5000000000000
 31
0.000000000000000
  0
LINE
  5
93
100
AcDbEntity
  8
A1
  6
CONTINUOUS
 62
7
100
AcDbLine
 10
89.00000000000000
 20
102.0000000000000
 30
0.000000000000000
 11
89.00000000000000
 21
108.0000000000000
 31
0.000000000000000
  0
LINE
  5
94
100
AcDbEntity
  8
A1
  6
CONTINUOUS
 62
7
100
AcDbLine
 10
200.3301375538041
 20
112.0000000000001
 30
0.000000000000000
 11
170.3702665538041
 21
112.0000000000001
 31
0.000000000000000
  0
LINE
  5
95
100
AcDbEntity
  8
A1
  6
CONTINUOUS
 62
7
100
AcDbLine
 10
194.3502025538041
 20
102.0000000000000
 30
0.000000000000000
 11
194.3502025538041
 21
108.0000000000000
 31
0.000000000000000
  0
LINE
  5
96
100
AcDbEntity
  8
A1
  6
CONTINUOUS
 62
7
100
AcDbLine
 10
176.8502025538041
 20
101.5000000000000
 30
0.000000000000000
 11
193.8502025538041
 21
101.5000000000000
 31
0.000000000000000
  0
LINE
  5
97
100
AcDbEntity
  8
A1
  6
CONTINUOUS
 62
7
100
AcDbLine
 10
176.3502025538041
 20
108.0000000000000
 30
0.000000000000000
 11
176.3502025538041
 21
102.0000000000000
 31
0.000000000000000
  0
ARC
  5
98
100
AcDbEntity
  8
A1
  6
CONTINUOUS
 62
7
100
AcDbCircle
 10
178.0400085538040
 20
114.5000000000000
 30
0.000000000000000
 40
6.000000000000000
100
AcDbArc
 50
229.8990919999565
 51
269.9999999999490
  0
ARC
  5
99
100
AcDbEntity
  8
A1
  6
CONTINUOUS
 62
7
100
AcDbCircle
 10
192.6603955538041
 20
114.5000000000000
 30
0.000000000000000
 40
6.000000000000000
100
AcDbArc
 50
269.9999999999490
 51
310.1009079999415
  0
LINE
  5
9A
100
AcDbEntity
  8
A1
  6
CONTINUOUS
 62
7
100
AcDbLine
 10
176.8502025538040
 20
108.5000000000000
 30
0.000000000000000
 11
193.8502025538040
 21
108.5000000000000
 31
0.000000000000000
  0
LINE
  5
9B
100
AcDbEntity
  8
A1
  6
CONTINUOUS
 62
7
100
AcDbLine
 10
170.3702665538041
 20
112.0000000000001
 30
0.000000000000000
 11
162.3502025538041
 21
112.0000000000001
 31
0.000000000000000
  0
LINE
  5
9C
100
AcDbEntity
  8
A1
  6
CONTINUOUS
 62
7
100
AcDbLine
 10
200.3301375538041
 20
112.0000000000001
 30
0.000000000000000
 11
208.3502025538041
 21
112.0000000000001
 31
0.000000000000000
  0
LINE
  5
9D
100
AcDbEntity
  8
A1
  6
CONTINUOUS
 62
7
100
AcDbLine
 10
174.1751945538040
 20
109.9105330000000
 30
0.000000000000000
 11
172.2522869998297
 21
111.5298227272670
 31
0.000000000000000
  0
LINE
  5
9E
100
AcDbEntity
  8
A1
  6
CONTINUOUS
 62
7
100
AcDbLine
 10
196.5252095538040
 20
109.9105330000000
 30
0.000000000000000
 11
198.4481171077783
 21
111.5298227272670
 31
0.000000000000000
  0
LINE
  5
9F
100
AcDbEntity
  8
A1
  6
CONTINUOUS
 62
7
100
AcDbLine
 10
176.3502025538041
 20
102.0000000000002
 30
0.000000000000000
 11
176.8502025538041
 21
101.5000000000002
 31
0.000000000000000
  0
LINE
  5
A0
100
AcDbEntity
  8
A1
  6
CONTINUOUS
 62
7
100
AcDbLine
 10
176.3502025538041
 20
108.0000000000002
 30
0.000000000000000
 11
176.8502025538041
 21
108.5000000000002
 31
0.000000000000000
  0
LINE
  5
A1
100
AcDbEntity
  8
A1
  6
CONTINUOUS
 62
7
100
AcDbLine
 10
193.8502025538041
 20
101.5000000000001
 30
0.000000000000000
 11
194.3502025538041
 21
102.0000000000001
 31
0.000000000000000
  0
LINE
  5
A2
100
AcDbEntity
  8
A1
  6
CONTINUOUS
 62
7
100
AcDbLine
 10
194.3502025538041
 20
108.0000000000002
 30
0.000000000000000
 11
193.8502025538041
 21
108.5000000000002
 31
0.000000000000000
  0
LINE
  5
A3
100
AcDbEntity
  8
A1
  6
CONTINUOUS
 62
7
100
AcDbLine
 10
121.5000000000000
 20
161.4311610000001
 30
0.000000000000000
 11
110.0000000000000
 21
161.4311610000001
 31
0.000000000000000
  0
ARC
  5
A4
100
AcDbEntity
  8
A1
  6
CONTINUOUS
 62
7
100
AcDbCircle
 10
65.61381334756175
 20
110.0000000000000
 30
0.000000000000000
 40
2.000000000000000
100
AcDbArc
 50
49.89910717645287
 51
90.00000000000000
  0
ARC
  5
A5
100
AcDbEntity
  8
A1
  6
CONTINUOUS
 62
7
100
AcDbCircle
 10
94.38618565243814
 20
110.0000000000000
 30
0.000000000000000
 40
2.000000000000000
100
AcDbArc
 50
90.00000000000000
 51
130.1008928235471
  0
ARC
  5
A6
100
AcDbEntity
  8
A1
  6
CONTINUOUS
 62
7
100
AcDbCircle
 10
170.9640159013659
 20
110.0000000000000
 30
0.000000000000000
 40
2.000000000000000
100
AcDbArc
 50
49.89910717645277
 51
90.00000000000000
  0
ARC
  5
A7
100
AcDbEntity
  8
A1
  6
CONTINUOUS
 62
7
100
AcDbCircle
 10
199.7363882062423
 20
110.0000000000000
 30
0.000000000000000
 40
2.000000000000000
100
AcDbArc
 50
90.00000000000000
 51
130.1008928235472
  0
CIRCLE
  5
A8
100
AcDbEntity
  8
A1
  6
CONTINUOUS
 62
7
100
AcDbCircle
 10
56.50000000000000
 20
157.4311610000001
 30
0.000000000000000
 40
3.200000000000000
  0
CIRCLE
  5
A9
100
AcDbEntity
  8
A1
  6
CONTINUOUS
 62
7
100
AcDbCircle
 10
56.50000000000000
 20
186.4311610000001
 30
0.000000000000000
 40
3.200000000000000
  0
CIRCLE
  5
AA
100
AcDbEntity
  8
A1
  6
CONTINUOUS
 62
7
100
AcDbCircle
 10
103.5000000000000
 20
186.4311610000001
 30
0.000000000000000
 40
3.200000000000000
  0
CIRCLE
  5
AB
100
AcDbEntity
  8
A1
  6
CONTINUOUS
 62
7
100
AcDbCircle
 10
103.5000000000000
 20
157.4311610000001
 30
0.000000000000000
 40
3.200000000000000
  0
LINE
  5
AC
100
AcDbEntity
  8
A1
  6
CONTINUOUS
 62
7
100
AcDbLine
 10
50.00000000000000
 20
153.9311610000001
 30
0.000000000000000
 11
50.00000000000000
 21
189.9311610000001
 31
0.000000000000000
  0
LINE
  5
AD
100
AcDbEntity
  8
A1
  6
CONTINUOUS
 62
7
100
AcDbLine
 10
110.0000000000000
 20
153.9311610000001
 30
0.000000000000000
 11
110.0000000000000
 21
189.9311610000001
 31
0.000000000000000
  0
LINE
  5
AE
100
AcDbEntity
  8
A1
  6
CONTINUOUS
 62
7
100
AcDbLine
 10
55.00000000000000
 20
148.9311610000001
 30
0.000000000000000
 11
105.0000000000000
 21
148.9311610000001
 31
0.000000000000000
  0
LINE
  5
AF
100
AcDbEntity
  8
A1
  6
CONTINUOUS
 62
7
100
AcDbLine
 10
55.00000000000000
 20
194.9311610000001
 30
0.000000000000000
 11
105.0000000000000
 21
194.9311610000001
 31
0.000000000000000
  0
ARC
  5
B0
100
AcDbEntity
  8
A1
  6
CONTINUOUS
 62
7
100
AcDbCircle
 10
55.00000000000000
 20
153.9311610000001
 30
0.000000000000000
 40
5.000000000000000
100
AcDbArc
 50
180.0000000000000
 51
270.0000000000000
  0
ARC
  5
B1
100
AcDbEntity
  8
A1
  6
CONTINUOUS
 62
7
100
AcDbCircle
 10
55.00000000000000
 20
189.9311610000001
 30
0.000000000000000
 40
5.000000000000000
100
AcDbArc
 50
90.00000000000000
 51
180.0000000000000
  0
ARC
  5
B2
100
AcDbEntity
  8
A1
  6
CONTINUOUS
 62
7
100
AcDbCircle
 10
105.0000000000000
 20
189.9311610000001
 30
0.000000000000000
 40
5.000000000000000
100
AcDbArc
 50
0.000000000000000
 51
90.00000000000000
  0
ARC
  5
B3
100
AcDbEntity
  8
A1
  6
CONTINUOUS
 62
7
100
AcDbCircle
 10
105.0000000000000
 20
153.9311610000001
 30
0.000000000000000
 40
5.000000000000000
100
AcDbArc
 50
270.0000000000000
 51
360.0000000000000
  0
CIRCLE
  5
B4
100
AcDbEntity
  8
A1
  6
CONTINUOUS
 62
7
100
AcDbCircle
 10
80.00000000000000
 20
171.9311610000001
 30
0.000000000000000
 40
9.500000000000000
  0
CIRCLE
  5
B5
100
AcDbEntity
  8
A1
  6
CONTINUOUS
 62
7
100
AcDbCircle
 10
80.00000000000000
 20
171.9311610000001
 30
0.000000000000000
 40
7.500000000000000
  0
LINE
  5
B6
100
AcDbEntity
  8
A1
  6
CONTINUOUS
 62
7
100
AcDbLine
 10
162.3502025538041
 20
115.0000000000000
 30
0.000000000000000
 11
162.3502025538041
 21
112.0000000000000
 31
0.000000000000000
  0
LINE
  5
B7
100
AcDbEntity
  8
A1
  6
CONTINUOUS
 62
7
100
AcDbLine
 10
208.3502025538041
 20
115.0000000000001
 30
0.000000000000000
 11
208.3502025538041
 21
112.0000000000001
 31
0.000000000000000
  0
LINE
  5
B8
100
AcDbEntity
  8
A1
  6
CONTINUOUS
 62
7
100
AcDbLine
 10
162.3502025538041
 20
115.0000000000000
 30
0.000000000000000
 11
208.3502025538041
 21
115.0000000000000
 31
0.000000000000000
  0
LINE
  5
B9
100
AcDbEntity
  8
A4
  6
CENTER
 62
1
100
AcDbLine
 10
61.20000000000005
 20
186.4311610000001
 30
0.000000000000000
 11
51.79999999999995
 21
186.4311610000001
 31
0.000000000000000
  0
LINE
  5
BA
100
AcDbEntity
  8
A4
  6
CENTER
 62
1
100
AcDbLine
 10
56.50000000000000
 20
191.1311610000000
 30
0.000000000000000
 11
56.50000000000000
 21
181.7311610000000
 31
0.000000000000000
  0
LINE
  5
BB
100
AcDbEntity
  8
A4
  6
CENTER
 62
1
100
AcDbLine
 10
61.20000000000005
 20
157.4311610000001
 30
0.000000000000000
 11
51.79999999999995
 21
157.4311610000001
 31
0.000000000000000
  0
LINE
  5
BC
100
AcDbEntity
  8
A4
  6
CENTER
 62
1
100
AcDbLine
 10
56.50000000000000
 20
162.1311610000000
 30
0.000000000000000
 11
56.50000000000000
 21
152.7311610000000
 31
0.000000000000000
  0
LINE
  5
BD
100
AcDbEntity
  8
A4
  6
CENTER
 62
1
100
AcDbLine
 10
128.4260829999999
 20
171.9311610000001
 30
0.000000000000000
 11
48.50000000000000
 21
171.9311610000001
 31
0.000000000000000
  0
LINE
  5
BE
100
AcDbEntity
  8
A4
  6
CENTER
 62
1
100
AcDbLine
 10
80.00000000000000
 20
196.4311610000000
 30
0.000000000000000
 11
80.00000000000000
 21
147.4311610000001
 31
0.000000000000000
  0
LINE
  5
BF
100
AcDbEntity
  8
A4
  6
CENTER
 62
1
100
AcDbLine
 10
108.2000000000000
 20
186.4311610000001
 30
0.000000000000000
 11
98.79999999999995
 21
186.4311610000001
 31
0.000000000000000
  0
LINE
  5
C0
100
AcDbEntity
  8
A4
  6
CENTER
 62
1
100
AcDbLine
 10
103.5000000000000
 20
191.1311610000000
 30
0.000000000000000
 11
103.5000000000000
 21
181.7311610000000
 31
0.000000000000000
  0
LINE
  5
C1
100
AcDbEntity
  8
A4
  6
CENTER
 62
1
100
AcDbLine
 10
108.2000000000000
 20
157.4311610000001
 30
0.000000000000000
 11
98.79999999999995
 21
157.4311610000001
 31
0.000000000000000
  0
LINE
  5
C2
100
AcDbEntity
  8
A4
  6
CENTER
 62
1
100
AcDbLine
 10
103.5000000000000
 20
162.1311610000000
 30
0.000000000000000
 11
103.5000000000000
 21
152.7311610000000
 31
0.000000000000000
  0
LINE
  5
C3
100
AcDbEntity
  8
A4
  6
CENTER
 62
1
100
AcDbLine
 10
170.8502025538041
 20
116.5000000000000
 30
0.000000000000000
 11
170.8502025538041
 21
110.5000000000000
 31
0.000000000000000
  0
LINE
  5
C4
100
AcDbEntity
  8
A4
  6
CENTER
 62
1
100
AcDbLine
 10
199.8502025538041
 20
116.5000000000000
 30
0.000000000000000
 11
199.8502025538041
 21
110.5000000000000
 31
0.000000000000000
  0
ARC
  5
C5
100
AcDbEntity
  8
A1
  6
CONTINUOUS
 62
7
100
AcDbCircle
 10
97.00000000000000
 20
136.3623220000001
 30
0.000000000000000
 40
60.00000000000000
100
AcDbArc
 50
67.97568738945407
 51
102.5393004630643
  0
ARC
  5
C6
100
AcDbEntity
  8
A1
  6
CONTINUOUS
 62
7
100
AcDbCircle
 10
97.00000000000000
 20
207.5000000000000
 30
0.000000000000000
 40
60.00000000000000
100
AcDbArc
 50
257.4606995369356
 51
292.0243126105459
  0
ARC
  5
C7
100
AcDbEntity
  8
A1
  6
CONTINUOUS
 62
7
100
AcDbCircle
 10
220.9190405538041
 20
75.00000000000000
 30
0.000000000000000
 40
60.00000000000000
100
AcDbArc
 50
157.9756870053899
 51
202.0243129946056
  0
ARC
  5
C8
100
AcDbEntity
  8
A1
  6
CONTINUOUS
 62
7
100
AcDbCircle
 10
149.7813635538041
 20
75.00000000000000
 30
0.000000000000000
 40
60.00000000000000
100
AcDbArc
 50
337.9756870057769
 51
382.0243129942230
  0
LINE
  5
C9
100
AcDbEntity
  8
A1
  6
CONTINUOUS
 62
7
100
AcDbLine
 10
111.7236660000000
 20
162.9311610000000
 30
0.000000000000000
 11
110.0000000000000
 21
162.9311610000000
 31
0.000000000000000
  0
LINE
  5
CA
100
AcDbEntity
  8
A1
  6
CONTINUOUS
 62
7
100
AcDbLine
 10
111.7236660000000
 20
180.9311610000000
 30
0.000000000000000
 11
110.0000000000000
 21
180.9311610000000
 31
0.000000000000000
  0
LINE
  5
CB
100
AcDbEntity
  8
A1
  6
CONTINUOUS
 62
7
100
AcDbLine
 10
119.7764680000000
 20
177.5811610000000
 30
0.000000000000000
 11
119.7764680000000
 21
166.2811610000000
 31
0.000000000000000
  0
LINE
  5
CC
100
AcDbEntity
  8
A1
  6
CONTINUOUS
 62
7
100
AcDbLine
 10
111.7236660000000
 20
177.5811610000000
 30
0.000000000000000
 11
111.7236660000000
 21
180.9311610000000
 31
0.000000000000000
  0
LINE
  5
CD
100
AcDbEntity
  8
A1
  6
CONTINUOUS
 62
7
100
AcDbLine
 10
123.6365120000000
 20
177.5811610000000
 30
0.000000000000000
 11
123.6365120000000
 21
180.4060029463590
 31
0.000000000000000
  0
ARC
  5
CE
100
AcDbEntity
  8
A1
  6
CONTINUOUS
 62
7
100
AcDbCircle
 10
20.65974000000006
 20
171.9311610000000
 30
0.000000000000000
 40
100.0000000000000
100
AcDbArc
 50
356.7610640000006
 51
363.2389359999994
  0
LINE
  5
CF
100
AcDbEntity
  8
A1
  6
CONTINUOUS
 62
7
100
AcDbLine
 10
115.3922710000001
 20
166.2811610000000
 30
0.000000000000000
 11
115.3922710000001
 21
177.5811610000000
 31
0.000000000000000
  0
LINE
  5
D0
100
AcDbEntity
  8
A1
  6
CONTINUOUS
 62
7
100
AcDbLine
 10
123.6365120000000
 20
163.4563190536410
 30
0.000000000000000
 11
123.6365120000000
 21
166.2811610000000
 31
0.000000000000000
  0
LINE
  5
D1
100
AcDbEntity
  8
A1
  6
CONTINUOUS
 62
7
100
AcDbLine
 10
111.7236660000000
 20
162.9311610000000
 30
0.000000000000000
 11
111.7236660000000
 21
166.2811610000000
 31
0.000000000000000
  0
LINE
  5
D2
100
AcDbEntity
  8
A1
  6
CONTINUOUS
 62
7
100
AcDbLine
 10
111.7236660000000
 20
163.4311610000000
 30
0.000000000000000
 11
125.4260829999999
 21
163.4311610000000
 31
0.000000000000000
  0
LINE
  5
D3
100
AcDbEntity
  8
A1
  6
CONTINUOUS
 62
7
100
AcDbLine
 10
111.7236660000000
 20
180.4311610000000
 30
0.000000000000000
 11
125.4260829999999
 21
180.4311610000000
 31
0.000000000000000
  0
LINE
  5
D4
100
AcDbEntity
  8
A1
  6
CONTINUOUS
 62
7
100
AcDbLine
 10
123.6365120000000
 20
166.2811610000000
 30
0.000000000000000
 11
111.7236660000000
 21
166.2811610000000
 31
0.000000000000000
  0
LINE
  5
D5
100
AcDbEntity
  8
A1
  6
CONTINUOUS
 62
7
100
AcDbLine
 10
115.0778299999999
 20
182.4311610000000
 30
0.000000000000000
 11
115.0778299999999
 21
180.4311610000000
 31
0.000000000000000
  0
LINE
  5
D6
100
AcDbEntity
  8
A1
  6
CONTINUOUS
 62
7
100
AcDbLine
 10
113.0966980000001
 20
182.4311610000000
 30
0.000000000000000
 11
113.0966980000001
 21
180.4311610000000
 31
0.000000000000000
  0
LINE
  5
D7
100
AcDbEntity
  8
A1
  6
CONTINUOUS
 62
7
100
AcDbLine
 10
110.9917450000000
 20
182.4311610000000
 30
0.000000000000000
 11
110.9917450000000
 21
180.9311610000000
 31
0.000000000000000
  0
LINE
  5
D8
100
AcDbEntity
  8
A1
  6
CONTINUOUS
 62
7
100
AcDbLine
 10
110.9917450000000
 20
162.9311610000000
 30
0.000000000000000
 11
110.9917450000000
 21
161.4311610000000
 31
0.000000000000000
  0
LINE
  5
D9
100
AcDbEntity
  8
A1
  6
CONTINUOUS
 62
7
100
AcDbLine
 10
113.0966980000001
 20
161.4311610000000
 30
0.000000000000000
 11
113.0966980000001
 21
163.4311610000000
 31
0.000000000000000
  0
LINE
  5
DA
100
AcDbEntity
  8
A1
  6
CONTINUOUS
 62
7
100
AcDbLine
 10
115.0778299999999
 20
161.4311610000000
 30
0.000000000000000
 11
115.0778299999999
 21
163.4311610000000
 31
0.000000000000000
  0
LINE
  5
DB
100
AcDbEntity
  8
A1
  6
CONTINUOUS
 62
7
100
AcDbLine
 10
123.6365120000000
 20
177.5811610000000
 30
0.000000000000000
 11
111.7236660000000
 21
177.5811610000000
 31
0.000000000000000
  0
ARC
  5
DC
100
AcDbEntity
  8
A1
  6
CONTINUOUS
 62
7
100
AcDbCircle
 10
123.8135010000000
 20
77.18079799999998
 30
0.000000000000000
 40
2.000000000000000
100
AcDbArc
 50
225.6023009999575
 51
281.2816079999469
  0
ARC
  5
DD
100
AcDbEntity
  8
A1
  6
CONTINUOUS
 62
7
100
AcDbCircle
 10
120.8409620000000
 20
81.84157900000000
 30
0.000000000000000
 40
1.000000000000000
100
AcDbArc
 50
358.6521739999321
 51
455.7920549999141
  0
ARC
  5
DE
100
AcDbEntity
  8
A1
  6
CONTINUOUS
 62
7
100
AcDbCircle
 10
123.1805320000000
 20
91.25396000000001
 30
0.000000000000000
 40
0.5000000000000000
100
AcDbArc
 50
209.8860339999604
 51
339.2559759999360
  0
ARC
  5
DF
100
AcDbEntity
  8
A1
  6
CONTINUOUS
 62
7
100
AcDbCircle
 10
149.8329380000000
 20
81.15944500000001
 30
0.000000000000000
 40
26.00000000000000
100
AcDbArc
 50
151.9320169999713
 51
192.3961179999636
  0
ARC
  5
E0
100
AcDbEntity
  8
A1
  6
CONTINUOUS
 62
7
100
AcDbCircle
 10
126.6260830000000
 20
93.53409199999999
 30
0.000000000000000
 40
0.3000000000000000
100
AcDbArc
 50
331.9320169999370
 51
420.4614759999209
  0
ARC
  5
E1
100
AcDbEntity
  8
A1
  6
CONTINUOUS
 62
7
100
AcDbCircle
 10
125.0852609999999
 20
93.60301799999999
 30
0.000000000000000
 40
0.3000000000000000
100
AcDbArc
 50
114.4158939999787
 51
153.3059359999708
  0
ARC
  5
E2
100
AcDbEntity
  8
A1
  6
CONTINUOUS
 62
7
100
AcDbCircle
 10
124.1460749999999
 20
75.51364699999999
 30
0.000000000000000
 40
0.3000000000000000
100
AcDbArc
 50
281.2816079999477
 51
372.3961179999297
  0
ARC
  5
E3
100
AcDbEntity
  8
A1
  6
CONTINUOUS
 62
7
100
AcDbCircle
 10
122.6241229999999
 20
75.96614700000001
 30
0.000000000000000
 40
0.3000000000000000
100
AcDbArc
 50
190.8059719999634
 51
225.6023009999567
  0
ARC
  5
E4
100
AcDbEntity
  8
A1
  6
CONTINUOUS
 62
7
100
AcDbCircle
 10
149.8329380000000
 20
81.15944500000001
 30
0.000000000000000
 40
28.00000000000000
100
AcDbArc
 50
153.3059359999711
 51
190.8059719999639
  0
ARC
  5
E5
100
AcDbEntity
  8
A1
  6
CONTINUOUS
 62
7
100
AcDbCircle
 10
125.7879680000000
 20
92.05504999999999
 30
0.000000000000000
 40
2.000000000000000
100
AcDbArc
 50
60.46147599998862
 51
114.4158939999785
  0
ARC
  5
E6
100
AcDbEntity
  8
A1
  6
CONTINUOUS
 62
7
100
AcDbCircle
 10
117.1114040000000
 20
87.76602500000001
 30
0.000000000000000
 40
6.500000000000000
100
AcDbArc
 50
29.88603399999436
 51
106.0517259999800
  0
LINE
  5
E7
100
AcDbEntity
  8
A1
  6
CONTINUOUS
 62
7
100
AcDbLine
 10
115.3141210000000
 20
94.01260599999999
 30
0.000000000000000
 11
114.1639009999999
 21
93.17692199999996
 31
0.000000000000000
  0
ARC
  5
E8
100
AcDbEntity
  8
A5
  6
PHANTOM
 62
6
100
AcDbCircle
 10
111.7348830000000
 20
95.81503900000001
 30
0.000000000000000
 40
2.000000000000000
100
AcDbArc
 50
146.4614759999724
 51
161.4458579999695
  0
ARC
  5
E9
100
AcDbEntity
  8
A5
  6
PHANTOM
 62
6
100
AcDbCircle
 10
124.2812389999999
 20
119.0413970000000
 30
0.000000000000000
 40
28.00000000000000
100
AcDbArc
 50
249.7250499999529
 51
276.8059719999477
  0
ARC
  5
EA
100
AcDbEntity
  8
A5
  6
PHANTOM
 62
6
100
AcDbCircle
 10
116.0878220000000
 20
87.74819099999999
 30
0.000000000000000
 40
5.000000000000000
100
AcDbArc
 50
322.3184200000072
 51
383.7808409999955
  0
ARC
  5
EB
100
AcDbEntity
  8
A5
  6
PHANTOM
 62
6
100
AcDbCircle
 10
128.1214600000000
 20
93.02327500000001
 30
0.000000000000000
 40
0.3000000000000000
100
AcDbArc
 50
7.281607999998801
 51
98.39611799998180
  0
ARC
  5
EC
100
AcDbEntity
  8
A5
  6
PHANTOM
 62
6
100
AcDbCircle
 10
124.2812389999999
 20
119.0413970000000
 30
0.000000000000000
 40
26.00000000000000
100
AcDbArc
 50
237.9320169999550
 51
278.3961179999474
  0
ARC
  5
ED
100
AcDbEntity
  8
A5
  6
PHANTOM
 62
6
100
AcDbCircle
 10
121.5783890000000
 20
90.16762700000001
 30
0.000000000000000
 40
1.000000000000000
100
AcDbArc
 50
84.65217399998382
 51
203.7808409999614
  0
ARC
  5
EE
100
AcDbEntity
  8
A5
  6
PHANTOM
 62
6
100
AcDbCircle
 10
126.4351700000000
 20
92.80780600000000
 30
0.000000000000000
 40
2.000000000000000
100
AcDbArc
 50
311.6023009999411
 51
367.2816079999306
  0
ARC
  5
EF
100
AcDbEntity
  8
A5
  6
PHANTOM
 62
6
100
AcDbCircle
 10
127.5638959999999
 20
91.53659500000001
 30
0.000000000000000
 40
0.3000000000000000
100
AcDbArc
 50
276.8059719999472
 51
311.6023009999412
  0
ARC
  5
F0
100
AcDbEntity
  8
A5
  6
PHANTOM
 62
6
100
AcDbCircle
 10
110.3179080000000
 20
96.75428399999998
 30
0.000000000000000
 40
0.3000000000000000
100
AcDbArc
 50
57.93201699998987
 51
146.4614759999718
  0
LINE
  5
F1
100
AcDbEntity
  8
A1
  6
CONTINUOUS
 62
7
100
AcDbLine
 10
176.8502025538041
 20
82.36169699999999
 30
0.000000000000000
 11
176.8502025538041
 21
94.23414399999999
 31
0.000000000000000
  0
ARC
  5
F2
100
AcDbEntity
  8
A1
  6
CONTINUOUS
 62
7
100
AcDbCircle
 10
178.8502025538041
 20
82.36169699999999
 30
0.000000000000000
 40
15.00000000000000
100
AcDbArc
 50
336.0598510000045
 51
360.0000000000000
  0
LINE
  5
F3
100
AcDbEntity
  8
A1
  6
CONTINUOUS
 62
7
100
AcDbLine
 10
193.8502025538041
 20
82.36169699999999
 30
0.000000000000000
 11
193.8502025538041
 21
94.23414399999999
 31
0.000000000000000
  0
ARC
  5
F4
100
AcDbEntity
  8
A1
  6
CONTINUOUS
 62
7
100
AcDbCircle
 10
191.1887945538041
 20
76.88363799999999
 30
0.000000000000000
 40
1.500000000000000
100
AcDbArc
 50
273.3982019999484
 51
336.0598509999364
  0
ARC
  5
F5
100
AcDbEntity
  8
A1
  6
CONTINUOUS
 62
7
100
AcDbCircle
 10
179.3509215538040
 20
77.26091400000001
 30
0.000000000000000
 40
1.500000000000000
100
AcDbArc
 50
202.1996859999618
 51
266.5081589999496
  0
ARC
  5
F6
100
AcDbEntity
  8
A1
  6
CONTINUOUS
 62
7
100
AcDbCircle
 10
185.3502025538041
 20
-6.607064000000008
 30
0.000000000000000
 40
100.0000000000000
100
AcDbArc
 50
86.47187699998368
 51
93.52812299998233
  0
ARC
  5
F7
100
AcDbEntity
  8
A1
  6
CONTINUOUS
 62
7
100
AcDbCircle
 10
185.3502025538041
 20
-6.123812000000001
 30
0.000000000000000
 40
100.0000000000000
100
AcDbArc
 50
86.47187699998368
 51
93.52812299998233
  0
ARC
  5
F8
100
AcDbEntity
  8
A1
  6
CONTINUOUS
 62
7
100
AcDbCircle
 10
185.3502025538041
 20
175.5780470000000
 30
0.000000000000000
 40
100.0000000000000
100
AcDbArc
 50
266.5081589999497
 51
273.4918409999484
  0
ARC
  5
F9
100
AcDbEntity
  8
A1
  6
CONTINUOUS
 62
7
100
AcDbCircle
 10
185.3502025538041
 20
175.2104440000000
 30
0.000000000000000
 40
100.0000000000000
100
AcDbArc
 50
266.6017979999496
 51
273.3982019999484
  0
ARC
  5
FA
100
AcDbEntity
  8
A1
  6
CONTINUOUS
 62
7
100
AcDbCircle
 10
191.8502025538041
 20
82.36169699999999
 30
0.000000000000000
 40
15.00000000000000
100
AcDbArc
 50
179.9999999999660
 51
203.9401489999615
  0
ARC
  5
FB
100
AcDbEntity
  8
A1
  6
CONTINUOUS
 62
7
100
AcDbCircle
 10
191.3502025538041
 20
90.70814600000000
 30
0.000000000000000
 40
2.500000000000000
100
AcDbArc
 50
0.000000000000000
 51
86.47187699998359
  0
ARC
  5
FC
100
AcDbEntity
  8
A1
  6
CONTINUOUS
 62
7
100
AcDbCircle
 10
179.3502025538041
 20
90.70814600000000
 30
0.000000000000000
 40
2.500000000000000
100
AcDbArc
 50
93.52812299998232
 51
179.9999999999660
  0
ARC
  5
FD
100
AcDbEntity
  8
A1
  6
CONTINUOUS
 62
7
100
AcDbCircle
 10
191.3494825538041
 20
77.26091400000001
 30
0.000000000000000
 40
1.500000000000000
100
AcDbArc
 50
273.4918409999484
 51
337.8003139999362
  0
ARC
  5
FE
100
AcDbEntity
  8
A1
  6
CONTINUOUS
 62
7
100
AcDbCircle
 10
179.3502025538041
 20
91.19139799999999
 30
0.000000000000000
 40
2.500000000000000
100
AcDbArc
 50
93.52812299998232
 51
179.9999999999660
  0
ARC
  5
FF
100
AcDbEntity
  8
A1
  6
CONTINUOUS
 62
7
100
AcDbCircle
 10
191.3502025538041
 20
91.19139799999999
 30
0.000000000000000
 40
2.500000000000000
100
AcDbArc
 50
0.000000000000000
 51
86.47187699998359
  0
ARC
  5
100
100
AcDbEntity
  8
A1
  6
CONTINUOUS
 62
7
100
AcDbCircle
 10
179.5116095538041
 20
76.88363799999999
 30
0.000000000000000
 40
1.500000000000000
100
AcDbArc
 50
203.9401489999614
 51
266.6017979999497
  0
ARC
  5
101
100
AcDbEntity
  8
A1
  6
CONTINUOUS
 62
7
100
AcDbCircle
 10
189.5186975538040
 20
93.44503399999999
 30
0.000000000000000
 40
2.000000000000000
100
AcDbArc
 50
353.0609710000013
 51
366.9390289999987
  0
ARC
  5
102
100
AcDbEntity
  8
A1
  6
CONTINUOUS
 62
7
100
AcDbCircle
 10
181.1817065538041
 20
93.44503399999999
 30
0.000000000000000
 40
2.000000000000000
100
AcDbArc
 50
173.0609709999673
 51
186.9390289999647
  0
ARC
  5
103
100
AcDbEntity
  8
A1
  6
CONTINUOUS
 62
7
100
AcDbCircle
 10
189.5331525538040
 20
76.36429799999999
 30
0.000000000000000
 40
2.000000000000000
100
AcDbArc
 50
330.7243879999376
 51
342.5244249999353
  0
ARC
  5
104
100
AcDbEntity
  8
A1
  6
CONTINUOUS
 62
7
100
AcDbCircle
 10
181.1672515538041
 20
76.36429799999999
 30
0.000000000000000
 40
2.000000000000000
100
AcDbArc
 50
197.4755749999626
 51
209.2756119999604
  0
LINE
  5
105
100
AcDbEntity
  8
A1
  6
CONTINUOUS
 62
7
100
AcDbLine
 10
179.7002025538040
 20
94.23414399999999
 30
0.000000000000000
 11
176.3502025538041
 21
94.23414399999999
 31
0.000000000000000
  0
LINE
  5
106
100
AcDbEntity
  8
A1
  6
CONTINUOUS
 62
7
100
AcDbLine
 10
191.0002025538040
 20
94.23414399999999
 30
0.000000000000000
 11
191.0002025538040
 21
93.71644800000001
 31
0.000000000000000
  0
LINE
  5
107
100
AcDbEntity
  8
A1
  6
CONTINUOUS
 62
7
100
AcDbLine
 10
179.7002025538040
 20
93.71644800000001
 30
0.000000000000000
 11
179.7002025538040
 21
94.23414399999999
 31
0.000000000000000
  0
LINE
  5
108
100
AcDbEntity
  8
A1
  6
CONTINUOUS
 62
7
100
AcDbLine
 10
191.0002025538040
 20
94.23414399999999
 30
0.000000000000000
 11
194.3502025538041
 21
94.23414399999999
 31
0.000000000000000
  0
LINE
  5
109
100
AcDbEntity
  8
A1
  6
CONTINUOUS
 62
7
100
AcDbLine
 10
195.8502025538041
 20
85.99299999999999
 30
0.000000000000000
 11
194.3502025538041
 21
85.99299999999999
 31
0.000000000000000
  0
LINE
  5
10A
100
AcDbEntity
  8
A1
  6
CONTINUOUS
 62
7
100
AcDbLine
 10
195.8502025538041
 20
88.34559400000001
 30
0.000000000000000
 11
194.3502025538041
 21
88.34559400000001
 31
0.000000000000000
  0
LINE
  5
10B
100
AcDbEntity
  8
A1
  6
CONTINUOUS
 62
7
100
AcDbLine
 10
195.8502025538041
 20
85.62153799999999
 30
0.000000000000000
 11
194.3502025538041
 21
85.62153799999999
 31
0.000000000000000
  0
LINE
  5
10C
100
AcDbEntity
  8
A1
  6
CONTINUOUS
 62
7
100
AcDbLine
 10
174.8502025538041
 20
88.34559400000001
 30
0.000000000000000
 11
176.3502025538041
 21
88.34559400000001
 31
0.000000000000000
  0
LINE
  5
10D
100
AcDbEntity
  8
A1
  6
CONTINUOUS
 62
7
100
AcDbLine
 10
174.8502025538041
 20
85.99299999999999
 30
0.000000000000000
 11
176.3502025538041
 21
85.99299999999999
 31
0.000000000000000
  0
LINE
  5
10E
100
AcDbEntity
  8
A1
  6
CONTINUOUS
 62
7
100
AcDbLine
 10
174.8502025538041
 20
85.62153799999999
 30
0.000000000000000
 11
176.3502025538041
 21
85.62153799999999
 31
0.000000000000000
  0
LINE
  5
10F
100
AcDbEntity
  8
A1
  6
CONTINUOUS
 62
7
100
AcDbLine
 10
126.9260829999999
 20
164.9311610000000
 30
0.000000000000000
 11
126.9260829999999
 21
178.9311610000000
 31
0.000000000000000
  0
LINE
  5
110
100
AcDbEntity
  8
A1
  6
CONTINUOUS
 62
7
100
AcDbLine
 10
124.8629407418972
 20
164.9311610000000
 30
0.000000000000000
 11
124.8629407418972
 21
178.9311610000000
 31
0.000000000000000
  0
ARC
  5
111
100
AcDbEntity
  8
A1
  6
CONTINUOUS
 62
7
100
AcDbCircle
 10
123.3629407418972
 20
178.9311610000000
 30
0.000000000000000
 40
1.500000000000000
100
AcDbArc
 50
0.000000000000000
 51
90.00000000000000
  0
ARC
  5
112
100
AcDbEntity
  8
A1
  6
CONTINUOUS
 62
7
100
AcDbCircle
 10
123.3629407418972
 20
164.9311610000000
 30
0.000000000000000
 40
1.500000000000000
100
AcDbArc
 50
270.0000000000000
 51
360.0000000000000
  0
ARC
  5
113
100
AcDbEntity
  8
A1
  6
CONTINUOUS
 62
7
100
AcDbCircle
 10
125.4260829999999
 20
178.9311610000000
 30
0.000000000000000
 40
1.500000000000000
100
AcDbArc
 50
0.000000000000000
 51
90.00000000000000
  0
ARC
  5
114
100
AcDbEntity
  8
A1
  6
CONTINUOUS
 62
7
100
AcDbCircle
 10
125.4260829999999
 20
164.9311610000000
 30
0.000000000000000
 40
1.500000000000000
100
AcDbArc
 50
270.0000000000000
 51
360.0000000000000
  0
ARC
  5
115
100
AcDbEntity
  8
A1
  6
CONTINUOUS
 62
7
100
AcDbCircle
 10
125.8945118709486
 20
166.6445964396089
 30
0.000000000000000
 40
2.000000000000000
100
AcDbArc
 50
238.9500223212436
 51
301.0499776787582
  0
ARC
  5
116
100
AcDbEntity
  8
A1
  6
CONTINUOUS
 62
7
100
AcDbCircle
 10
125.8945118709486
 20
177.2177255603912
 30
0.000000000000000
 40
2.000000000000000
100
AcDbArc
 50
58.95002232124180
 51
121.0499776787564
  0
ENDSEC
  0
SECTION
  2
OBJECTS
  0
DICTIONARY
  5
142
100
AcDbDictionary
  3
ACAD_GROUP
350
143
  3
ACAD_LAYOUT
350
144
  3
ACAD_MLINESTYLE
350
145
  3
DWGPROPS
350
146
  0
DICTIONARY
  5
143
102
{ACAD_REACTORS
330
142
102
}
330
142
100
AcDbDictionary
  0
DICTIONARY
  5
144
102
{ACAD_REACTORS
330
142
102
}
330
142
100
AcDbDictionary
  3
Model
350
147
  3
ﾚｲｱｳﾄ1
350
148
  3
ﾚｲｱｳﾄ2
350
149
  0
DICTIONARY
  5
145
102
{ACAD_REACTORS
330
142
102
}
330
142
100
AcDbDictionary
  3
STANDARD
350
14A
  0
LAYOUT
  5
147
102
{ACAD_REACTORS
330
144
102
}
330
144
100
AcDbPlotSettings
 70
11952
  4
A3
 44
297.000000
 45
420.000000
 73
  1
 72
  1
100
AcDbLayout
  1
Model
 71
0
330
139
  0
LAYOUT
  5
148
102
{ACAD_REACTORS
330
144
102
}
330
144
100
AcDbPlotSettings
100
AcDbLayout
  1
ﾚｲｱｳﾄ1
 71
1
330
13A
  0
LAYOUT
  5
149
102
{ACAD_REACTORS
330
144
102
}
330
144
100
AcDbPlotSettings
100
AcDbLayout
  1
ﾚｲｱｳﾄ2
 71
2
330
13B
  0
MLINESTYLE
  5
14A
102
{ACAD_REACTORS
330
145
102
}
330
145
100
AcDbMlineStyle
  2
STANDARD
 70
     0
  3

 62
   256
 51
90.00
 52
90.00
 71
     2
 49
0.50
 62
   256
  6
BYLAYER
 49
-0.50
 62
   256
  6
BYLAYER
  0
XRECORD
  5
146
102
{ACAD_REACTORS
330
142
102
}
100
AcDbXrecord
280
     1
  1
DWGPROPS COOKIE
  2
TCA-A50SBF47X29
  3

  4

  6
A型双輪キャスター
  7

  8

  9

300
=
301
=
302
=
303
=
304
=
305
=
306
=
307
=
308
=
309
=
 40
0.000000
 41
0.000000
 42
0.000000
  1

 90
        0
  0
ENDSEC
  0
EOF
