  0
SECTION
  2
HEADER
  9
$ACADVER
  1
AC1015
  9
$ACADMAINTVER
 70
    20
  9
$DWGCODEPAGE
  3
ANSI_932
  9
$INSBASE
 10
0.0
 20
0.0
 30
0.0
  9
$EXTMIN
 10
9.9999975266385
 20
10.0
 30
0.0
  9
$EXTMAX
 10
663.995764959619
 20
478.8847127585841
 30
0.0
  9
$LIMMIN
 10
0.0000015376081137
 20
-0.0000001931532552
  9
$LIMMAX
 10
745.0000015376083
 20
513.5984846553315
  9
$ORTHOMODE
 70
     1
  9
$REGENMODE
 70
     1
  9
$FILLMODE
 70
     1
  9
$QTEXTMODE
 70
     0
  9
$MIRRTEXT
 70
     1
  9
$LTSCALE
 40
1.0
  9
$ATTMODE
 70
     1
  9
$TEXTSIZE
 40
2.5
  9
$TRACEWID
 40
1.0
  9
$TEXTSTYLE
  7
STANDARD
  9
$CLAYER
  8
0
  9
$CELTYPE
  6
BYLAYER
  9
$CECOLOR
 62
   256
  9
$CELTSCALE
 40
1.0
  9
$DISPSILH
 70
     0
  9
$DIMSCALE
 40
1.0
  9
$DIMASZ
 40
3.0
  9
$DIMEXO
 40
1.0
  9
$DIMDLI
 40
10.0
  9
$DIMRND
 40
0.0
  9
$DIMDLE
 40
0.0
  9
$DIMEXE
 40
1.0
  9
$DIMTP
 40
0.0
  9
$DIMTM
 40
0.0
  9
$DIMTXT
 40
3.2
  9
$DIMCEN
 40
0.0
  9
$DIMTSZ
 40
0.0
  9
$DIMTOL
 70
     0
  9
$DIMLIM
 70
     0
  9
$DIMTIH
 70
     0
  9
$DIMTOH
 70
     0
  9
$DIMSE1
 70
     0
  9
$DIMSE2
 70
     0
  9
$DIMTAD
 70
     3
  9
$DIMZIN
 70
     8
  9
$DIMBLK
  1

  9
$DIMASO
 70
     1
  9
$DIMSHO
 70
     1
  9
$DIMPOST
  1

  9
$DIMAPOST
  1

  9
$DIMALT
 70
     0
  9
$DIMALTD
 70
     2
  9
$DIMALTF
 40
25.4
  9
$DIMLFAC
 40
1.0
  9
$DIMTOFL
 70
     1
  9
$DIMTVP
 40
0.0
  9
$DIMTIX
 70
     0
  9
$DIMSOXD
 70
     0
  9
$DIMSAH
 70
     1
  9
$DIMBLK1
  1
OPEN
  9
$DIMBLK2
  1
OPEN
  9
$DIMSTYLE
  2
STANDARD
  9
$DIMCLRD
 70
     0
  9
$DIMCLRE
 70
     0
  9
$DIMCLRT
 70
     0
  9
$DIMTFAC
 40
1.0
  9
$DIMGAP
 40
1.0
  9
$DIMJUST
 70
     0
  9
$DIMSD1
 70
     0
  9
$DIMSD2
 70
     0
  9
$DIMTOLJ
 70
     1
  9
$DIMTZIN
 70
     0
  9
$DIMALTZ
 70
     0
  9
$DIMALTTZ
 70
     0
  9
$DIMUPT
 70
     0
  9
$DIMDEC
 70
     4
  9
$DIMTDEC
 70
     4
  9
$DIMALTU
 70
     2
  9
$DIMALTTD
 70
     2
  9
$DIMTXSTY
  7
STANDARD
  9
$DIMAUNIT
 70
     0
  9
$DIMADEC
 70
     0
  9
$DIMALTRND
 40
0.0
  9
$DIMAZIN
 70
     0
  9
$DIMDSEP
 70
    46
  9
$DIMATFIT
 70
     3
  9
$DIMFRAC
 70
     0
  9
$DIMLDRBLK
  1
OPEN
  9
$DIMLUNIT
 70
     2
  9
$DIMLWD
 70
    -2
  9
$DIMLWE
 70
    -2
  9
$DIMTMOVE
 70
     0
  9
$LUNITS
 70
     2
  9
$LUPREC
 70
     4
  9
$SKETCHINC
 40
1.0
  9
$FILLETRAD
 40
0.0
  9
$AUNITS
 70
     0
  9
$AUPREC
 70
     0
  9
$MENU
  1
.
  9
$ELEVATION
 40
0.0
  9
$PELEVATION
 40
0.0
  9
$THICKNESS
 40
0.0
  9
$LIMCHECK
 70
     0
  9
$CHAMFERA
 40
10.0
  9
$CHAMFERB
 40
10.0
  9
$CHAMFERC
 40
20.0
  9
$CHAMFERD
 40
0.0
  9
$SKPOLY
 70
     0
  9
$TDCREATE
 40
2454525.614958576
  9
$TDUCREATE
 40
2454525.239958577
  9
$TDUPDATE
 40
2457192.691779306
  9
$TDUUPDATE
 40
2457192.316779306
  9
$TDINDWG
 40
0.3752710995
  9
$TDUSRTIMER
 40
0.3752710532
  9
$USRTIMER
 70
     1
  9
$ANGBASE
 50
0.0
  9
$ANGDIR
 70
     0
  9
$PDMODE
 70
     0
  9
$PDSIZE
 40
0.0
  9
$PLINEWID
 40
0.0
  9
$SPLFRAME
 70
     0
  9
$SPLINETYPE
 70
     6
  9
$SPLINESEGS
 70
     8
  9
$HANDSEED
  5
4A80
  9
$SURFTAB1
 70
     6
  9
$SURFTAB2
 70
     6
  9
$SURFTYPE
 70
     6
  9
$SURFU
 70
     6
  9
$SURFV
 70
     6
  9
$UCSBASE
  2

  9
$UCSNAME
  2

  9
$UCSORG
 10
0.0
 20
0.0
 30
0.0
  9
$UCSXDIR
 10
1.0
 20
0.0
 30
0.0
  9
$UCSYDIR
 10
0.0
 20
1.0
 30
0.0
  9
$UCSORTHOREF
  2

  9
$UCSORTHOVIEW
 70
     0
  9
$UCSORGTOP
 10
0.0
 20
0.0
 30
0.0
  9
$UCSORGBOTTOM
 10
0.0
 20
0.0
 30
0.0
  9
$UCSORGLEFT
 10
0.0
 20
0.0
 30
0.0
  9
$UCSORGRIGHT
 10
0.0
 20
0.0
 30
0.0
  9
$UCSORGFRONT
 10
0.0
 20
0.0
 30
0.0
  9
$UCSORGBACK
 10
0.0
 20
0.0
 30
0.0
  9
$PUCSBASE
  2

  9
$PUCSNAME
  2

  9
$PUCSORG
 10
0.0
 20
0.0
 30
0.0
  9
$PUCSXDIR
 10
1.0
 20
0.0
 30
0.0
  9
$PUCSYDIR
 10
0.0
 20
1.0
 30
0.0
  9
$PUCSORTHOREF
  2

  9
$PUCSORTHOVIEW
 70
     0
  9
$PUCSORGTOP
 10
0.0
 20
0.0
 30
0.0
  9
$PUCSORGBOTTOM
 10
0.0
 20
0.0
 30
0.0
  9
$PUCSORGLEFT
 10
0.0
 20
0.0
 30
0.0
  9
$PUCSORGRIGHT
 10
0.0
 20
0.0
 30
0.0
  9
$PUCSORGFRONT
 10
0.0
 20
0.0
 30
0.0
  9
$PUCSORGBACK
 10
0.0
 20
0.0
 30
0.0
  9
$USERI1
 70
     0
  9
$USERI2
 70
     0
  9
$USERI3
 70
     0
  9
$USERI4
 70
     0
  9
$USERI5
 70
     0
  9
$USERR1
 40
0.0
  9
$USERR2
 40
0.0
  9
$USERR3
 40
0.0
  9
$USERR4
 40
0.0
  9
$USERR5
 40
0.0
  9
$WORLDVIEW
 70
     1
  9
$SHADEDGE
 70
     3
  9
$SHADEDIF
 70
    70
  9
$TILEMODE
 70
     1
  9
$MAXACTVP
 70
    48
  9
$PINSBASE
 10
0.0
 20
0.0
 30
0.0
  9
$PLIMCHECK
 70
     0
  9
$PEXTMIN
 10
1.000000000000000E+20
 20
1.000000000000000E+20
 30
1.000000000000000E+20
  9
$PEXTMAX
 10
-1.000000000000000E+20
 20
-1.000000000000000E+20
 30
-1.000000000000000E+20
  9
$PLIMMIN
 10
0.0
 20
0.0
  9
$PLIMMAX
 10
420.0
 20
297.0
  9
$UNITMODE
 70
     0
  9
$VISRETAIN
 70
     1
  9
$PLINEGEN
 70
     0
  9
$PSLTSCALE
 70
     1
  9
$TREEDEPTH
 70
  3020
  9
$CMLSTYLE
  2
STANDARD
  9
$CMLJUST
 70
     0
  9
$CMLSCALE
 40
20.0
  9
$PROXYGRAPHICS
 70
     1
  9
$MEASUREMENT
 70
     0
  9
$CELWEIGHT
370
    -1
  9
$ENDCAPS
280
     0
  9
$JOINSTYLE
280
     0
  9
$LWDISPLAY
290
     0
  9
$INSUNITS
 70
     0
  9
$HYPERLINKBASE
  1

  9
$STYLESHEET
  1

  9
$XEDIT
290
     1
  9
$CEPSNTYPE
380
     0
  9
$PSTYLEMODE
290
     1
  9
$FINGERPRINTGUID
  2
{72BC6693-B76D-4179-9910-F7B95040E710}
  9
$VERSIONGUID
  2
{06BF35CC-04AC-4277-B00D-61412D817522}
  9
$EXTNAMES
290
     1
  9
$PSVPSCALE
 40
0.0
  9
$OLESTARTUP
290
     0
  0
ENDSEC
  0
SECTION
  2
CLASSES
  0
CLASS
  1
ACDBDICTIONARYWDFLT
  2
AcDbDictionaryWithDefault
  3
ObjectDBX Classes
 90
        0
280
     0
281
     0
  0
CLASS
  1
ACDBPLACEHOLDER
  2
AcDbPlaceHolder
  3
ObjectDBX Classes
 90
        0
280
     0
281
     0
  0
CLASS
  1
LAYOUT
  2
AcDbLayout
  3
ObjectDBX Classes
 90
        0
280
     0
281
     0
  0
CLASS
  1
DICTIONARYVAR
  2
AcDbDictionaryVar
  3
ObjectDBX Classes
 90
        0
280
     0
281
     0
  0
CLASS
  1
MATERIAL
  2
AcDbMaterial
  3
ObjectDBX Classes
 90
     1153
280
     0
281
     0
  0
CLASS
  1
VISUALSTYLE
  2
AcDbVisualStyle
  3
ObjectDBX Classes
 90
     4095
280
     0
281
     0
  0
CLASS
  1
TABLESTYLE
  2
AcDbTableStyle
  3
ObjectDBX Classes
 90
     4095
280
     0
281
     0
  0
CLASS
  1
SCALE
  2
AcDbScale
  3
ObjectDBX Classes
 90
     1153
280
     0
281
     0
  0
CLASS
  1
MLEADERSTYLE
  2
AcDbMLeaderStyle
  3
ACDB_MLEADERSTYLE_CLASS
 90
     4095
280
     0
281
     0
  0
CLASS
  1
ACDBSECTIONVIEWSTYLE
  2
AcDbSectionViewStyle
  3
ObjectDBX Classes
 90
     1025
280
     0
281
     0
  0
CLASS
  1
ACDBDETAILVIEWSTYLE
  2
AcDbDetailViewStyle
  3
ObjectDBX Classes
 90
     1025
280
     0
281
     0
  0
CLASS
  1
CELLSTYLEMAP
  2
AcDbCellStyleMap
  3
ObjectDBX Classes
 90
     1152
280
     0
281
     0
  0
ENDSEC
  0
SECTION
  2
TABLES
  0
TABLE
  2
VPORT
  5
8
330
0
100
AcDbSymbolTable
 70
     1
  0
VPORT
  5
4979
330
8
100
AcDbSymbolTableRecord
100
AcDbViewportTableRecord
  2
*ACTIVE
 70
     0
 10
0.0
 20
0.0
 11
1.0
 21
1.0
 12
408.0418973799088
 22
256.7992422310892
 13
0.0
 23
0.0
 14
10.0
 24
10.0
 15
10.0
 25
10.0
 16
0.0
 26
0.0
 36
1.0
 17
0.0
 27
0.0
 37
0.0
 40
517.4265480895916
 41
2.35006605019815
 42
50.0
 43
0.0
 44
0.0
 50
0.0
 51
0.0
 71
     0
 72
   100
 73
     1
 74
     0
 75
     0
 76
     0
 77
     0
 78
     0
281
     0
 65
     1
110
0.0
120
0.0
130
0.0
111
1.0
121
0.0
131
0.0
112
0.0
122
1.0
132
0.0
 79
     0
146
0.0
1001
ACAD_NAV_VCDISPLAY
1070
     3
  0
ENDTAB
  0
TABLE
  2
LTYPE
  5
5
330
0
100
AcDbSymbolTable
 70
     4
  0
LTYPE
  5
12
330
5
100
AcDbSymbolTableRecord
100
AcDbLinetypeTableRecord
  2
BYBLOCK
 70
     0
  3

 72
    65
 73
     0
 40
0.0
  0
LTYPE
  5
13
330
5
100
AcDbSymbolTableRecord
100
AcDbLinetypeTableRecord
  2
BYLAYER
 70
     0
  3

 72
    65
 73
     0
 40
0.0
  0
LTYPE
  5
14
330
5
100
AcDbSymbolTableRecord
100
AcDbLinetypeTableRecord
  2
CONTINUOUS
 70
     0
  3
Solid line
 72
    65
 73
     0
 40
0.0
  0
LTYPE
  5
4B
330
5
100
AcDbSymbolTableRecord
100
AcDbLinetypeTableRecord
  2
DASHED
 70
     0
  3
Dashed __ __ __ __ __ __ __ __ __ __ __ __ __ _
 72
    65
 73
     2
 40
19.04999999999999
 49
12.7
 74
     0
 49
-6.349999999999997
 74
     0
  0
LTYPE
  5
4C
330
5
100
AcDbSymbolTableRecord
100
AcDbLinetypeTableRecord
  2
CENTER
 70
     0
  3
Center ____ _ ____ _ ____ _ ____ _ ____ _ ____
 72
    65
 73
     4
 40
50.8
 49
31.75
 74
     0
 49
-6.349999999999997
 74
     0
 49
6.349999999999997
 74
     0
 49
-6.349999999999997
 74
     0
  0
LTYPE
  5
4D
330
5
100
AcDbSymbolTableRecord
100
AcDbLinetypeTableRecord
  2
PHANTOM
 70
     0
  3
Phantom ______  __  __  ______  __  __  ______
 72
    65
 73
     6
 40
63.5
 49
31.75
 74
     0
 49
-6.349999999999997
 74
     0
 49
6.349999999999997
 74
     0
 49
-6.349999999999997
 74
     0
 49
6.349999999999997
 74
     0
 49
-6.349999999999997
 74
     0
  0
ENDTAB
  0
TABLE
  2
LAYER
  5
2
330
0
100
AcDbSymbolTable
 70
     8
  0
LAYER
  5
E
102
{ACAD_XDICTIONARY
360
49E5
102
}
330
2
100
AcDbSymbolTableRecord
100
AcDbLayerTableRecord
  2
0
 70
     0
 62
     7
  6
CONTINUOUS
370
    -3
390
4982
  0
LAYER
  5
4E
102
{ACAD_XDICTIONARY
360
49E7
102
}
330
2
100
AcDbSymbolTableRecord
100
AcDbLayerTableRecord
  2
4
 70
     0
 62
     1
  6
CENTER
370
    -3
390
4982
  0
LAYER
  5
4F
102
{ACAD_XDICTIONARY
360
49E9
102
}
330
2
100
AcDbSymbolTableRecord
100
AcDbLayerTableRecord
  2
5
 70
     0
 62
     6
  6
PHANTOM
370
    -3
390
4982
  0
LAYER
  5
50
102
{ACAD_XDICTIONARY
360
49EB
102
}
330
2
100
AcDbSymbolTableRecord
100
AcDbLayerTableRecord
  2
1
 70
     0
 62
     7
  6
CONTINUOUS
370
    -3
390
4982
  0
LAYER
  5
51
102
{ACAD_XDICTIONARY
360
49ED
102
}
330
2
100
AcDbSymbolTableRecord
100
AcDbLayerTableRecord
  2
2
 70
     0
 62
     4
  6
CONTINUOUS
370
    -3
390
4982
  0
LAYER
  5
52
102
{ACAD_XDICTIONARY
360
49EF
102
}
330
2
100
AcDbSymbolTableRecord
100
AcDbLayerTableRecord
  2
3
 70
     0
 62
     2
  6
DASHED
370
    -3
390
4982
  0
LAYER
  5
53
102
{ACAD_XDICTIONARY
360
49F1
102
}
330
2
100
AcDbSymbolTableRecord
100
AcDbLayerTableRecord
  2
6
 70
     0
 62
     5
  6
CONTINUOUS
370
    -3
390
4982
  0
LAYER
  5
54
102
{ACAD_XDICTIONARY
360
49F3
102
}
330
2
100
AcDbSymbolTableRecord
100
AcDbLayerTableRecord
  2
7
 70
     0
 62
     3
  6
CONTINUOUS
370
    -3
390
4982
  0
ENDTAB
  0
TABLE
  2
STYLE
  5
3
330
0
100
AcDbSymbolTable
 70
     1
  0
STYLE
  5
F
330
3
100
AcDbSymbolTableRecord
100
AcDbTextStyleTableRecord
  2
STANDARD
 70
     0
 40
0.0
 41
1.0
 50
0.0
 71
     0
 42
2.5
  3
simplex.shx
  4

  0
ENDTAB
  0
TABLE
  2
VIEW
  5
6
330
0
100
AcDbSymbolTable
 70
     0
  0
ENDTAB
  0
TABLE
  2
UCS
  5
7
330
0
100
AcDbSymbolTable
 70
     0
  0
ENDTAB
  0
TABLE
  2
APPID
  5
9
330
0
100
AcDbSymbolTable
 70
     6
  0
APPID
  5
10
330
9
100
AcDbSymbolTableRecord
100
AcDbRegAppTableRecord
  2
ACAD
 70
     0
  0
APPID
  5
3E
330
9
100
AcDbSymbolTableRecord
100
AcDbRegAppTableRecord
  2
CONTENTTABDATA
 70
     0
  0
APPID
  5
3F
330
9
100
AcDbSymbolTableRecord
100
AcDbRegAppTableRecord
  2
CONTENTCURRENTTAB
 70
     0
  0
APPID
  5
49D3
330
9
100
AcDbSymbolTableRecord
100
AcDbRegAppTableRecord
  2
ACAD_EXEMPT_FROM_CAD_STANDARDS
 70
     0
  0
APPID
  5
49D5
330
9
100
AcDbSymbolTableRecord
100
AcDbRegAppTableRecord
  2
ACAD_NAV_VCDISPLAY
 70
     0
  0
APPID
  5
4A37
330
9
100
AcDbSymbolTableRecord
100
AcDbRegAppTableRecord
  2
ACAD_MLEADERVER
 70
     0
  0
ENDTAB
  0
TABLE
  2
DIMSTYLE
  5
A
330
0
100
AcDbSymbolTable
 70
     1
100
AcDbDimStyleTable
 71
     0
  0
DIMSTYLE
105
1D
330
A
100
AcDbSymbolTableRecord
100
AcDbDimStyleTableRecord
  2
STANDARD
 70
     0
 41
3.0
 42
1.0
 43
10.0
 44
1.0
 73
     0
 74
     0
 77
     3
 78
     8
140
3.2
141
0.0
147
1.0
172
     1
173
     1
340
F
341
2E
343
2E
344
2E
  0
ENDTAB
  0
TABLE
  2
BLOCK_RECORD
  5
1
330
0
100
AcDbSymbolTable
 70
     1
  0
BLOCK_RECORD
  5
18
102
{ACAD_XDICTIONARY
360
497C
102
}
330
1
100
AcDbSymbolTableRecord
100
AcDbBlockTableRecord
  2
*MODEL_SPACE
340
49D0
  0
BLOCK_RECORD
  5
15
102
{ACAD_XDICTIONARY
360
497A
102
}
330
1
100
AcDbSymbolTableRecord
100
AcDbBlockTableRecord
  2
*PAPER_SPACE
340
49D1
  0
BLOCK_RECORD
  5
2E
330
1
100
AcDbSymbolTableRecord
100
AcDbBlockTableRecord
  2
_OPEN
340
0
  0
ENDTAB
  0
ENDSEC
  0
SECTION
  2
BLOCKS
  0
BLOCK
  5
19
330
18
100
AcDbEntity
  8
0
100
AcDbBlockBegin
  2
*MODEL_SPACE
 70
     0
 10
0.0
 20
0.0
 30
0.0
  3
*MODEL_SPACE
  1

  0
ENDBLK
  5
1A
330
18
100
AcDbEntity
  8
0
100
AcDbBlockEnd
  0
BLOCK
  5
16
330
15
100
AcDbEntity
 67
     1
  8
0
100
AcDbBlockBegin
  2
*PAPER_SPACE
 70
     0
 10
0.0
 20
0.0
 30
0.0
  3
*PAPER_SPACE
  1

  0
ENDBLK
  5
17
330
15
100
AcDbEntity
 67
     1
  8
0
100
AcDbBlockEnd
  0
BLOCK
  5
2F
330
2E
100
AcDbEntity
  8
0
100
AcDbBlockBegin
  2
_OPEN
 70
     0
 10
0.0
 20
0.0
 30
0.0
  3
_OPEN
  1

  0
LINE
  5
30
330
2E
100
AcDbEntity
  8
0
  6
ByBlock
 62
     0
100
AcDbLine
 10
-1.0
 20
0.1666666666666666
 30
0.0
 11
0.0
 21
0.0
 31
0.0
  0
LINE
  5
31
330
2E
100
AcDbEntity
  8
0
  6
ByBlock
 62
     0
100
AcDbLine
 10
0.0
 20
0.0
 30
0.0
 11
-1.0
 21
-0.1666666666666666
 31
0.0
  0
LINE
  5
32
330
2E
100
AcDbEntity
  8
0
  6
ByBlock
 62
     0
100
AcDbLine
 10
0.0
 20
0.0
 30
0.0
 11
-1.0
 21
0.0
 31
0.0
  0
ENDBLK
  5
33
330
2E
100
AcDbEntity
  8
0
100
AcDbBlockEnd
  0
ENDSEC
  0
SECTION
  2
ENTITIES
  0
TEXT
  5
63
330
18
100
AcDbEntity
  8
4
  6
CENTER
 48
0.25
100
AcDbText
 10
23.97950852663849
 20
10.0
 30
0.0
 40
1.399999999999999
  1
4
100
AcDbText
  0
TEXT
  5
64
330
18
100
AcDbEntity
  8
7
  6
Continuous
 48
0.25
100
AcDbText
 10
9.999997526638502
 20
26.0000007607689
 30
0.0
 40
3.0
  1
CODE No.19286
100
AcDbText
  0
TEXT
  5
65
330
18
100
AcDbEntity
  8
7
  6
Continuous
 48
0.25
100
AcDbText
 10
9.999997526638502
 20
18.00000076076889
 30
0.0
 40
3.0
  1
TYPE No.TCA-F130WS (F130WS)
100
AcDbText
  0
TEXT
  5
66
330
18
100
AcDbEntity
  8
1
  6
Continuous
 48
0.25
100
AcDbText
 10
9.999997526638502
 20
10.00000076076889
 30
0.0
 40
1.399999999999999
  1
LAYER
100
AcDbText
  0
TEXT
  5
67
330
18
100
AcDbEntity
  8
2
  6
Continuous
 48
0.25
100
AcDbText
 10
19.9795085266385
 20
10.0
 30
0.0
 40
1.399999999999999
  1
2
100
AcDbText
  0
TEXT
  5
68
330
18
100
AcDbEntity
  8
3
  6
DASHED
 48
0.25
100
AcDbText
 10
21.9795085266385
 20
10.0
 30
0.0
 40
1.399999999999999
  1
3
100
AcDbText
  0
TEXT
  5
69
330
18
100
AcDbEntity
  8
1
  6
Continuous
 48
0.25
100
AcDbText
 10
17.9795085266385
 20
10.0
 30
0.0
 40
1.399999999999999
  1
1
100
AcDbText
  0
TEXT
  5
6A
330
18
100
AcDbEntity
  8
5
  6
PHANTOM
 48
0.25
100
AcDbText
 10
25.9795085266385
 20
10.0
 30
0.0
 40
1.399999999999999
  1
5
100
AcDbText
  0
TEXT
  5
6B
330
18
100
AcDbEntity
  8
6
  6
Continuous
 48
0.25
100
AcDbText
 10
27.9795085266385
 20
10.0
 30
0.0
 40
1.399999999999999
  1
6
100
AcDbText
  0
TEXT
  5
6C
330
18
100
AcDbEntity
  8
7
  6
Continuous
 48
0.25
100
AcDbText
 10
29.9795085266385
 20
10.0
 30
0.0
 40
1.399999999999999
  1
7
100
AcDbText
  0
ARC
  5
22BA
330
18
100
AcDbEntity
  8
1
  6
Continuous
100
AcDbCircle
 10
166.0708421044619
 20
445.3847127585842
 30
0.0
 40
1.0
100
AcDbArc
 50
90.0
 51
180.0
  0
ARC
  5
22BC
330
18
100
AcDbEntity
  8
1
  6
Continuous
100
AcDbCircle
 10
165.5708421044619
 20
449.8847127585842
 30
0.0
 40
0.5
100
AcDbArc
 50
180.0
 51
270.0
  0
ARC
  5
260C
330
18
100
AcDbEntity
  8
1
  6
Continuous
100
AcDbCircle
 10
404.8496353966138
 20
293.1301089908632
 30
0.0
 40
9.926454211596855
100
AcDbArc
 50
204.4283525551764
 51
268.9810132976818
  0
ARC
  5
260D
330
18
100
AcDbEntity
  8
1
  6
Continuous
100
AcDbCircle
 10
404.4965765248729
 20
293.1301089908629
 30
0.0
 40
9.926454211596386
100
AcDbArc
 50
271.0189867023155
 51
335.5716474448245
  0
LINE
  5
344E
330
18
100
AcDbEntity
  8
4
  6
CENTER
 48
0.2
100
AcDbLine
 10
240.3504469618676
 20
471.8847127585839
 30
0.0
 11
240.3504469618674
 21
459.8847127585839
 31
0.0
  0
LINE
  5
344F
330
18
100
AcDbEntity
  8
4
  6
CENTER
 48
0.5
100
AcDbLine
 10
265.3504469618671
 20
478.8847127585841
 30
0.0
 11
265.3504469618671
 21
402.8847127585839
 31
0.0
  0
LINE
  5
3450
330
18
100
AcDbEntity
  8
4
  6
CENTER
 48
0.2
100
AcDbLine
 10
290.3504469618674
 20
409.8847127585839
 30
0.0
 11
290.3504469618674
 21
421.8847127585839
 31
0.0
  0
LINE
  5
3451
330
18
100
AcDbEntity
  8
4
  6
CENTER
 48
0.5
100
AcDbLine
 10
230.3504469618673
 20
410.88777194785
 30
0.0
 11
230.3504469618675
 21
470.881653569318
 31
0.0
  0
LINE
  5
3452
330
18
100
AcDbEntity
  8
1
  6
Continuous
100
AcDbLine
 10
165.3504469618674
 20
421.3847127585839
 30
0.0
 11
165.3504469618674
 21
429.384712758584
 31
0.0
  0
LINE
  5
3453
330
18
100
AcDbEntity
  8
1
  6
Continuous
100
AcDbLine
 10
232.3504469618674
 20
468.8847127585839
 30
0.0
 11
232.3504469618674
 21
412.884712758584
 31
0.0
  0
LINE
  5
3454
330
18
100
AcDbEntity
  8
1
  6
Continuous
100
AcDbLine
 10
298.3504469618674
 20
468.8847127585839
 30
0.0
 11
298.3504469618674
 21
412.884712758584
 31
0.0
  0
LINE
  5
3455
330
18
100
AcDbEntity
  8
4
  6
CENTER
 48
0.5
100
AcDbLine
 10
153.9793864816296
 20
440.884712758584
 30
0.0
 11
303.3504469618673
 21
440.8847127585838
 31
0.0
  0
LINE
  5
3456
330
18
100
AcDbEntity
  8
1
  6
Continuous
100
AcDbLine
 10
173.3504469618674
 20
465.8816535693177
 30
0.0
 11
232.3504469618674
 21
465.8816535693177
 31
0.0
  0
LINE
  5
3457
330
18
100
AcDbEntity
  8
1
  6
Continuous
100
AcDbLine
 10
232.3504469618674
 20
463.8847127585839
 30
0.0
 11
168.8504469618674
 21
463.8847127585839
 31
0.0
  0
LINE
  5
3458
330
18
100
AcDbEntity
  8
1
  6
Continuous
100
AcDbLine
 10
232.3504469618674
 20
429.8847127585839
 30
0.0
 11
165.8504469618674
 21
429.8847127585842
 31
0.0
  0
LINE
  5
3459
330
18
100
AcDbEntity
  8
1
  6
Continuous
100
AcDbLine
 10
232.3504469618674
 20
451.8847127585839
 30
0.0
 11
165.8504469618674
 21
451.8847127585839
 31
0.0
  0
LINE
  5
345A
330
18
100
AcDbEntity
  8
1
  6
Continuous
100
AcDbLine
 10
232.3504469618674
 20
450.384712758584
 30
0.0
 11
187.597762596545
 21
450.384712758584
 31
0.0
  0
LINE
  5
345B
330
18
100
AcDbEntity
  8
1
  6
Continuous
100
AcDbLine
 10
159.9793864816295
 20
431.3847127585839
 30
0.0
 11
171.0916964546163
 21
431.3847127585839
 31
0.0
  0
LINE
  5
3476
330
18
100
AcDbEntity
  8
4
  6
CENTER
 48
0.2
100
AcDbLine
 10
296.3504469618674
 20
465.884712758584
 30
0.0
 11
284.3504469618673
 21
465.884712758584
 31
0.0
  0
LINE
  5
3477
330
18
100
AcDbEntity
  8
1
  6
Continuous
100
AcDbLine
 10
237.3504469618674
 20
473.884712758584
 30
0.0
 11
293.3504469618674
 21
473.884712758584
 31
0.0
  0
LINE
  5
3478
330
18
100
AcDbEntity
  8
4
  6
CENTER
 48
0.2
100
AcDbLine
 10
296.0073009618672
 20
471.5415667585839
 30
0.0
 11
284.6935919618672
 21
460.2278587585839
 31
0.0
  0
ARC
  5
3479
330
18
100
AcDbEntity
  8
1
  6
Continuous
100
AcDbCircle
 10
289.0069439618671
 20
464.541209758584
 30
0.0
 40
3.1
100
AcDbArc
 50
134.9999999999401
 51
314.9999999999055
  0
LINE
  5
347A
330
18
100
AcDbEntity
  8
1
  6
Continuous
100
AcDbLine
 10
286.8149129618673
 20
466.7332407585838
 30
0.0
 11
289.5019179618673
 21
469.420246758584
 31
0.0
  0
ARC
  5
347C
330
18
100
AcDbEntity
  8
1
  6
Continuous
100
AcDbCircle
 10
291.6939489618671
 20
467.2282157585839
 30
0.0
 40
3.1
100
AcDbArc
 50
314.9999999999746
 51
134.9999999999401
  0
ARC
  5
347D
330
18
100
AcDbEntity
  8
1
  6
Continuous
100
AcDbCircle
 10
293.3504469618672
 20
468.8847127585839
 30
0.0
 40
5.0
100
AcDbArc
 50
359.9999999999643
 51
89.99999999994788
  0
LINE
  5
347E
330
18
100
AcDbEntity
  8
1
  6
Continuous
100
AcDbLine
 10
293.8859799618672
 20
465.0361847585839
 30
0.0
 11
291.1989749618673
 21
462.349178758584
 31
0.0
  0
CIRCLE
  5
3484
330
18
100
AcDbEntity
  8
1
  6
Continuous
100
AcDbCircle
 10
240.3504469618671
 20
465.884712758584
 30
0.0
 40
4.0
  0
ARC
  5
3487
330
18
100
AcDbEntity
  8
1
  6
Continuous
100
AcDbCircle
 10
237.3504469618672
 20
468.8847127585839
 30
0.0
 40
5.0
100
AcDbArc
 50
89.99999999994788
 51
179.9999999999315
  0
CIRCLE
  5
3488
330
18
100
AcDbEntity
  8
1
  6
Continuous
100
AcDbCircle
 10
265.3504469618671
 20
440.884712758584
 30
0.0
 40
11.0
  0
CIRCLE
  5
3489
330
18
100
AcDbEntity
  8
1
  6
Continuous
100
AcDbCircle
 10
265.3504469618671
 20
440.884712758584
 30
0.0
 40
6.349999999999997
  0
ARC
  5
348E
330
18
100
AcDbEntity
  8
1
  6
Continuous
100
AcDbCircle
 10
216.3504469618674
 20
450.9999729863443
 30
0.0
 40
2.0
100
AcDbArc
 50
0.0
 51
26.25518723123009
  0
LINE
  5
348F
330
18
100
AcDbEntity
  8
1
  6
Continuous
100
AcDbLine
 10
218.3504469618674
 20
450.9999729863443
 30
0.0
 11
218.3504469618674
 21
450.384712758584
 31
0.0
  0
ARC
  5
3490
330
18
100
AcDbEntity
  8
1
  6
Continuous
100
AcDbCircle
 10
216.3504469618674
 20
430.7694525308235
 30
0.0
 40
2.0
100
AcDbArc
 50
333.7448127687698
 51
0.0
  0
LINE
  5
3491
330
18
100
AcDbEntity
  8
1
  6
Continuous
100
AcDbLine
 10
218.3504469618674
 20
430.7694525308235
 30
0.0
 11
218.3504469618674
 21
431.3847127585839
 31
0.0
  0
LINE
  5
3492
330
18
100
AcDbEntity
  8
1
  6
Continuous
100
AcDbLine
 10
192.8466875633712
 20
432.3847127585842
 30
0.0
 11
192.8466875633712
 21
449.3847127585842
 31
0.0
  0
ARC
  5
3493
330
18
100
AcDbEntity
  8
1
  6
Continuous
100
AcDbCircle
 10
193.8466875633712
 20
449.3847127585842
 30
0.0
 40
1.0
100
AcDbArc
 50
90.0
 51
180.0
  0
ARC
  5
3494
330
18
100
AcDbEntity
  8
1
  6
Continuous
100
AcDbCircle
 10
193.8466875633712
 20
432.3847127585842
 30
0.0
 40
1.0
100
AcDbArc
 50
180.0
 51
270.0
  0
ARC
  5
3495
330
18
100
AcDbEntity
  8
1
  6
Continuous
100
AcDbCircle
 10
168.8504469618674
 20
460.3847127585841
 30
0.0
 40
3.5
100
AcDbArc
 50
90.0
 51
179.9999999999966
  0
ARC
  5
3496
330
18
100
AcDbEntity
  8
1
  6
Continuous
100
AcDbCircle
 10
171.1583119608301
 20
466.0675141009731
 30
0.0
 40
2.2
100
AcDbArc
 50
279.8165121820933
 51
355.1537580446022
  0
ARC
  5
3497
330
18
100
AcDbEntity
  8
1
  6
Continuous
100
AcDbCircle
 10
171.5504469618674
 20
463.8011888504934
 30
0.0
 40
0.1
100
AcDbArc
 50
99.81651218209023
 51
123.3592588574827
  0
ARC
  5
3499
330
18
100
AcDbEntity
  8
1
  6
Continuous
100
AcDbCircle
 10
165.8504469618674
 20
452.3847127585839
 30
0.0
 40
0.5
100
AcDbArc
 50
179.9999999999966
 51
269.9999999999967
  0
LINE
  5
349A
330
18
100
AcDbEntity
  8
1
  6
Continuous
100
AcDbLine
 10
165.3504469618674
 20
460.3847127585841
 30
0.0
 11
165.3504469618674
 21
452.3847127585839
 31
0.0
  0
ARC
  5
349B
330
18
100
AcDbEntity
  8
1
  6
Continuous
100
AcDbCircle
 10
165.8504469618674
 20
429.384712758584
 30
0.0
 40
0.5
100
AcDbArc
 50
90.0
 51
179.9999999999966
  0
LINE
  5
349F
330
18
100
AcDbEntity
  8
1
  6
Continuous
100
AcDbLine
 10
232.3504469618674
 20
417.8847127585838
 30
0.0
 11
168.8504469618674
 21
417.8847127585838
 31
0.0
  0
LINE
  5
34A0
330
18
100
AcDbEntity
  8
1
  6
Continuous
100
AcDbLine
 10
173.3504469618674
 20
415.8877719478501
 30
0.0
 11
232.3504469618674
 21
415.8877719478501
 31
0.0
  0
LINE
  5
34A1
330
18
100
AcDbEntity
  8
4
  6
CENTER
 48
0.2
100
AcDbLine
 10
296.3504469618671
 20
415.884712758584
 30
0.0
 11
284.3504469618671
 21
415.884712758584
 31
0.0
  0
LINE
  5
34A2
330
18
100
AcDbEntity
  8
1
  6
Continuous
100
AcDbLine
 10
237.3504469618674
 20
407.884712758584
 30
0.0
 11
293.3504469618674
 21
407.884712758584
 31
0.0
  0
ARC
  5
34A3
330
18
100
AcDbEntity
  8
1
  6
Continuous
100
AcDbCircle
 10
293.3504469618672
 20
412.884712758584
 30
0.0
 40
5.0
100
AcDbArc
 50
269.9999999999804
 51
359.9999999999643
  0
CIRCLE
  5
34A5
330
18
100
AcDbEntity
  8
1
  6
Continuous
100
AcDbCircle
 10
290.3504469618671
 20
415.884712758584
 30
0.0
 40
4.0
  0
ARC
  5
34AB
330
18
100
AcDbEntity
  8
1
  6
Continuous
100
AcDbCircle
 10
237.3504469618672
 20
412.884712758584
 30
0.0
 40
5.0
100
AcDbArc
 50
180.0
 51
269.9999999999804
  0
CIRCLE
  5
34AE
330
18
100
AcDbEntity
  8
1
  6
Continuous
100
AcDbCircle
 10
240.3504469618671
 20
415.884712758584
 30
0.0
 40
3.1
  0
ARC
  5
34AF
330
18
100
AcDbEntity
  8
1
  6
Continuous
100
AcDbCircle
 10
168.8504469618674
 20
421.3847127585839
 30
0.0
 40
3.5
100
AcDbArc
 50
179.9999999999966
 51
269.9999999999967
  0
ARC
  5
34B2
330
18
100
AcDbEntity
  8
1
  6
Continuous
100
AcDbCircle
 10
171.1583119608301
 20
415.7019114161948
 30
0.0
 40
2.2
100
AcDbArc
 50
4.846241955397808
 51
80.18348781790669
  0
ARC
  5
34B3
330
18
100
AcDbEntity
  8
1
  6
Continuous
100
AcDbCircle
 10
171.5504469618674
 20
417.9682366666743
 30
0.0
 40
0.1
100
AcDbArc
 50
236.6407411425145
 51
260.1834878179066
  0
LINE
  5
34B4
330
18
100
AcDbEntity
  8
4
  6
CENTER
 48
0.5
100
AcDbLine
 10
52.65672748275392
 20
337.705224579788
 30
0.0
 11
52.65672748275381
 21
222.705224579788
 31
0.0
  0
LINE
  5
34B5
330
18
100
AcDbEntity
  8
1
  6
Continuous
100
AcDbLine
 10
67.65672748275392
 20
314.705224579788
 30
0.0
 11
67.65672748275392
 21
309.205224579788
 31
0.0
  0
LINE
  5
34B6
330
18
100
AcDbEntity
  8
1
  6
Continuous
100
AcDbLine
 10
37.65672748275392
 20
314.705224579788
 30
0.0
 11
37.65672748275392
 21
309.205224579788
 31
0.0
  0
LINE
  5
34B7
330
18
100
AcDbEntity
  8
4
  6
CENTER
 48
0.5
100
AcDbLine
 10
82.65366829348796
 20
244.2052245797881
 30
0.0
 11
22.65978667202
 21
244.2052245797881
 31
0.0
  0
LINE
  5
34B8
330
18
100
AcDbEntity
  8
1
  6
Continuous
100
AcDbLine
 10
33.15672748275392
 20
309.205224579788
 30
0.0
 11
41.15672748275392
 21
309.205224579788
 31
0.0
  0
LINE
  5
34B9
330
18
100
AcDbEntity
  8
1
  6
Continuous
100
AcDbLine
 10
33.15672748275392
 20
179.205224579788
 30
0.0
 11
41.15672748275392
 21
179.205224579788
 31
0.0
  0
LINE
  5
34BA
330
18
100
AcDbEntity
  8
1
  6
Continuous
100
AcDbLine
 10
27.65978667202
 20
187.205224579788
 30
0.0
 11
27.65978667202
 21
301.205224579788
 31
0.0
  0
LINE
  5
34BB
330
18
100
AcDbEntity
  8
1
  6
Continuous
100
AcDbLine
 10
29.65672748275392
 20
305.705224579788
 30
0.0
 11
29.65672748275392
 21
182.705224579788
 31
0.0
  0
ARC
  5
34BC
330
18
100
AcDbEntity
  8
1
  6
Continuous
100
AcDbCircle
 10
33.15672748275392
 20
182.705224579788
 30
0.0
 40
3.5
100
AcDbArc
 50
180.0
 51
270.0
  0
ARC
  5
34BD
330
18
100
AcDbEntity
  8
1
  6
Continuous
100
AcDbCircle
 10
27.47392614036482
 20
185.0130895787508
 30
0.0
 40
2.2
100
AcDbArc
 50
9.816512182093379
 51
85.15375804460223
  0
ARC
  5
34BE
330
18
100
AcDbEntity
  8
1
  6
Continuous
100
AcDbCircle
 10
29.74025139084449
 20
185.4052245797881
 30
0.0
 40
0.1
100
AcDbArc
 50
189.8165121820902
 51
213.3592588574854
  0
ARC
  5
34BF
330
18
100
AcDbEntity
  8
1
  6
Continuous
100
AcDbCircle
 10
27.47392614036482
 20
303.3973595808253
 30
0.0
 40
2.199999999999997
100
AcDbArc
 50
274.8462419553977
 51
350.1834878179067
  0
ARC
  5
34C0
330
18
100
AcDbEntity
  8
1
  6
Continuous
100
AcDbCircle
 10
29.74025139084449
 20
303.005224579788
 30
0.0
 40
0.1
100
AcDbArc
 50
146.6407411425362
 51
170.1834878179034
  0
ARC
  5
34C1
330
18
100
AcDbEntity
  8
1
  6
Continuous
100
AcDbCircle
 10
33.15672748275392
 20
305.705224579788
 30
0.0
 40
3.5
100
AcDbArc
 50
90.0
 51
180.0
  0
LINE
  5
34C2
330
18
100
AcDbEntity
  8
1
  6
Continuous
100
AcDbLine
 10
63.65672748275392
 20
308.7052245797881
 30
0.0
 11
63.65672748275392
 21
179.705224579788
 31
0.0
  0
LINE
  5
34C3
330
18
100
AcDbEntity
  8
1
  6
Continuous
100
AcDbLine
 10
41.65672748275392
 20
308.7052245797881
 30
0.0
 11
41.65672748275392
 21
179.705224579788
 31
0.0
  0
LINE
  5
34C4
330
18
100
AcDbEntity
  8
1
  6
Continuous
100
AcDbLine
 10
77.65366829348796
 20
187.205224579788
 30
0.0
 11
77.65366829348796
 21
301.205224579788
 31
0.0
  0
LINE
  5
34C5
330
18
100
AcDbEntity
  8
1
  6
Continuous
100
AcDbLine
 10
75.65672748275392
 20
305.705224579788
 30
0.0
 11
75.65672748275392
 21
182.705224579788
 31
0.0
  0
LINE
  5
34C6
330
18
100
AcDbEntity
  8
1
  6
Continuous
100
AcDbLine
 10
62.15672748275392
 20
228.705224579788
 30
0.0
 11
62.15672748275392
 21
308.205224579788
 31
0.0
  0
LINE
  5
34C7
330
18
100
AcDbEntity
  8
1
  6
Continuous
100
AcDbLine
 10
43.15672748275392
 20
308.205224579788
 30
0.0
 11
43.15672748275392
 21
228.705224579788
 31
0.0
  0
ARC
  5
34CB
330
18
100
AcDbEntity
  8
1
  6
Continuous
100
AcDbCircle
 10
72.15672748275392
 20
182.705224579788
 30
0.0
 40
3.5
100
AcDbArc
 50
270.0
 51
359.9999999999967
  0
LINE
  5
34CC
330
18
100
AcDbEntity
  8
1
  6
Continuous
100
AcDbLine
 10
72.15672748275392
 20
179.205224579788
 30
0.0
 11
64.15672748275392
 21
179.205224579788
 31
0.0
  0
ARC
  5
34CD
330
18
100
AcDbEntity
  8
1
  6
Continuous
100
AcDbCircle
 10
64.15672748275392
 20
179.705224579788
 30
0.0
 40
0.5
100
AcDbArc
 50
180.0
 51
270.0
  0
ARC
  5
34CE
330
18
100
AcDbEntity
  8
1
  6
Continuous
100
AcDbCircle
 10
75.57320357466347
 20
185.4052245797881
 30
0.0
 40
0.1
100
AcDbArc
 50
326.6407411425145
 51
350.1834878179067
  0
ARC
  5
34CF
330
18
100
AcDbEntity
  8
1
  6
Continuous
100
AcDbCircle
 10
77.839528825143
 20
185.0130895787508
 30
0.0
 40
2.2
100
AcDbArc
 50
94.84624195539778
 51
170.1834878179066
  0
LINE
  5
34D1
330
18
100
AcDbEntity
  8
1
  6
Continuous
100
AcDbLine
 10
44.15672748275392
 20
227.7052245797881
 30
0.0
 11
61.15672748275392
 21
227.7052245797881
 31
0.0
  0
ARC
  5
34D2
330
18
100
AcDbEntity
  8
1
  6
Continuous
100
AcDbCircle
 10
44.15672748275392
 20
228.705224579788
 30
0.0
 40
1.0
100
AcDbArc
 50
180.0
 51
270.0
  0
ARC
  5
34D3
330
18
100
AcDbEntity
  8
1
  6
Continuous
100
AcDbCircle
 10
42.54146725499365
 20
230.205224579788
 30
0.0
 40
2.0
100
AcDbArc
 50
90.0
 51
116.2551872312301
  0
LINE
  5
34D4
330
18
100
AcDbEntity
  8
1
  6
Continuous
100
AcDbLine
 10
42.54146725499365
 20
232.205224579788
 30
0.0
 11
43.15672748275392
 21
232.205224579788
 31
0.0
  0
ARC
  5
34D5
330
18
100
AcDbEntity
  8
1
  6
Continuous
100
AcDbCircle
 10
61.15672748275392
 20
228.705224579788
 30
0.0
 40
1.0
100
AcDbArc
 50
270.0
 51
359.9999999999967
  0
ARC
  5
34D6
330
18
100
AcDbEntity
  8
1
  6
Continuous
100
AcDbCircle
 10
62.77198771051414
 20
230.205224579788
 30
0.0
 40
2.0
100
AcDbArc
 50
63.74481276876988
 51
90.0
  0
LINE
  5
34D7
330
18
100
AcDbEntity
  8
1
  6
Continuous
100
AcDbLine
 10
62.77198771051414
 20
232.205224579788
 30
0.0
 11
62.15672748275392
 21
232.205224579788
 31
0.0
  0
ARC
  5
34E1
330
18
100
AcDbEntity
  8
1
  6
Continuous
100
AcDbCircle
 10
42.54146725499365
 20
258.205224579788
 30
0.0
 40
2.0
100
AcDbArc
 50
243.7448127687698
 51
270.0
  0
LINE
  5
34E3
330
18
100
AcDbEntity
  8
1
  6
Continuous
100
AcDbLine
 10
42.54146725499365
 20
256.205224579788
 30
0.0
 11
43.15672748275392
 21
256.205224579788
 31
0.0
  0
ARC
  5
34EC
330
18
100
AcDbEntity
  8
1
  6
Continuous
100
AcDbCircle
 10
62.77198771051428
 20
258.205224579788
 30
0.0
 40
2.0
100
AcDbArc
 50
270.0
 51
296.2551872312301
  0
LINE
  5
34ED
330
18
100
AcDbEntity
  8
1
  6
Continuous
100
AcDbLine
 10
62.77198771051428
 20
256.205224579788
 30
0.0
 11
62.15672748275392
 21
256.205224579788
 31
0.0
  0
LINE
  5
34F0
330
18
100
AcDbEntity
  8
1
  6
Continuous
100
AcDbLine
 10
44.15672748275392
 20
298.0375063779463
 30
0.0
 11
61.15672748275392
 21
298.0375063779463
 31
0.0
  0
LINE
  5
34F1
330
18
100
AcDbEntity
  8
1
  6
Continuous
100
AcDbLine
 10
44.15672748275392
 20
309.205224579788
 30
0.0
 11
61.15672748275392
 21
309.205224579788
 31
0.0
  0
ARC
  5
34F8
330
18
100
AcDbEntity
  8
1
  6
Continuous
100
AcDbCircle
 10
43.96536728939191
 20
301.2649735895258
 30
0.0
 40
6.308639806637986
100
AcDbArc
 50
248.5340086141613
 51
262.6355809419699
  0
ARC
  5
34FA
330
18
100
AcDbEntity
  8
1
  6
Continuous
100
AcDbCircle
 10
44.15672748275392
 20
297.0375063779463
 30
0.0
 40
1.0
100
AcDbArc
 50
90.0
 51
180.0
  0
ARC
  5
34FB
330
18
100
AcDbEntity
  8
1
  6
Continuous
100
AcDbCircle
 10
43.96536728939191
 20
301.2649735895258
 30
0.0
 40
6.308639806637986
100
AcDbArc
 50
97.3644190580268
 51
111.4659913858373
  0
ARC
  5
34FC
330
18
100
AcDbEntity
  8
1
  6
Continuous
100
AcDbCircle
 10
41.15672748275392
 20
308.7052245797881
 30
0.0
 40
0.5
100
AcDbArc
 50
0.0
 51
90.0
  0
ARC
  5
34FD
330
18
100
AcDbEntity
  8
1
  6
Continuous
100
AcDbCircle
 10
44.15672748275392
 20
308.205224579788
 30
0.0
 40
1.0
100
AcDbArc
 50
90.0
 51
180.0
  0
ARC
  5
3501
330
18
100
AcDbEntity
  8
1
  6
Continuous
100
AcDbCircle
 10
61.34808767611595
 20
301.2649735895258
 30
0.0
 40
6.308639806637982
100
AcDbArc
 50
277.3644190580268
 51
291.4659913858374
  0
ARC
  5
3502
330
18
100
AcDbEntity
  8
1
  6
Continuous
100
AcDbCircle
 10
72.15672748275392
 20
305.705224579788
 30
0.0
 40
3.5
100
AcDbArc
 50
0.0
 51
90.0
  0
ARC
  5
3503
330
18
100
AcDbEntity
  8
1
  6
Continuous
100
AcDbCircle
 10
61.15672748275392
 20
297.0375063779463
 30
0.0
 40
1.0
100
AcDbArc
 50
359.9999999999967
 51
89.99999999999673
  0
LINE
  5
3504
330
18
100
AcDbEntity
  8
1
  6
Continuous
100
AcDbLine
 10
72.15672748275392
 20
309.205224579788
 30
0.0
 11
64.15672748275392
 21
309.205224579788
 31
0.0
  0
ARC
  5
3505
330
18
100
AcDbEntity
  8
1
  6
Continuous
100
AcDbCircle
 10
64.15672748275392
 20
308.7052245797881
 30
0.0
 40
0.5
100
AcDbArc
 50
90.0
 51
180.0
  0
ARC
  5
3506
330
18
100
AcDbEntity
  8
1
  6
Continuous
100
AcDbCircle
 10
61.34808767611595
 20
301.2649735895258
 30
0.0
 40
6.308639806637982
100
AcDbArc
 50
68.5340086141626
 51
82.63558094197319
  0
ARC
  5
3507
330
18
100
AcDbEntity
  8
1
  6
Continuous
100
AcDbCircle
 10
61.15672748275392
 20
308.205224579788
 30
0.0
 40
1.0
100
AcDbArc
 50
0.0
 51
90.0
  0
ARC
  5
3508
330
18
100
AcDbEntity
  8
1
  6
Continuous
100
AcDbCircle
 10
75.57320357466347
 20
303.005224579788
 30
0.0
 40
0.1
100
AcDbArc
 50
9.816512182096587
 51
33.35925885746376
  0
ARC
  5
3509
330
18
100
AcDbEntity
  8
1
  6
Continuous
100
AcDbCircle
 10
77.839528825143
 20
303.3973595808253
 30
0.0
 40
2.199999999999997
100
AcDbArc
 50
189.8165121820933
 51
265.1537580446022
  0
LINE
  5
350A
330
18
100
AcDbEntity
  8
1
  6
Continuous
100
AcDbLine
 10
34.65672748275392
 20
328.9052245797881
 30
0.0
 11
39.38243875353077
 21
325.0922043269724
 31
0.0
  0
LINE
  5
350C
330
18
100
AcDbEntity
  8
1
  6
Continuous
100
AcDbLine
 10
85.65672748275392
 20
332.705224579788
 30
0.0
 11
19.65672748275392
 21
332.705224579788
 31
0.0
  0
LINE
  5
350D
330
18
100
AcDbEntity
  8
1
  6
Continuous
100
AcDbLine
 10
19.65672748275392
 20
332.705224579788
 30
0.0
 11
19.65672748275392
 21
328.9052245797881
 31
0.0
  0
LINE
  5
350E
330
18
100
AcDbEntity
  8
1
  6
Continuous
100
AcDbLine
 10
85.65672748275392
 20
328.9052245797881
 30
0.0
 11
19.65672748275392
 21
328.9052245797881
 31
0.0
  0
LINE
  5
350F
330
18
100
AcDbEntity
  8
1
  6
Continuous
100
AcDbLine
 10
62.85672748275398
 20
316.205224579788
 30
0.0
 11
42.45672748275388
 21
316.2052245797879
 31
0.0
  0
LINE
  5
3510
330
18
100
AcDbEntity
  8
1
  6
Continuous
100
AcDbLine
 10
63.419223046615
 20
324.205224579788
 30
0.0
 11
41.89423191889285
 21
324.205224579788
 31
0.0
  0
LINE
  5
3512
330
18
100
AcDbEntity
  8
1
  6
Continuous
100
AcDbLine
 10
38.65672748275392
 20
315.705224579788
 30
0.0
 11
66.65672748275392
 21
315.705224579788
 31
0.0
  0
LINE
  5
3513
330
18
100
AcDbEntity
  8
1
  6
Continuous
100
AcDbLine
 10
41.65672748275392
 20
323.2052245797881
 30
0.0
 11
41.65672748275392
 21
317.2052245797881
 31
0.0
  0
ARC
  5
3514
330
18
100
AcDbEntity
  8
1
  6
Continuous
100
AcDbCircle
 10
42.65672748275392
 20
317.2052245797881
 30
0.0
 40
1.0
100
AcDbArc
 50
179.9999999999479
 51
269.9999999999316
  0
ARC
  5
3515
330
18
100
AcDbEntity
  8
1
  6
Continuous
100
AcDbCircle
 10
38.65672748275392
 20
314.705224579788
 30
0.0
 40
1.0
100
AcDbArc
 50
90.0
 51
180.0
  0
ARC
  5
3516
330
18
100
AcDbEntity
  8
1
  6
Continuous
100
AcDbCircle
 10
42.45672748275388
 20
315.9052245797881
 30
0.0
 40
0.3
100
AcDbArc
 50
90.0
 51
180.0
  0
LINE
  5
3517
330
18
100
AcDbEntity
  8
1
  6
Continuous
100
AcDbLine
 10
42.15672748275392
 20
315.9052245797881
 30
0.0
 11
42.15672748275392
 21
315.705224579788
 31
0.0
  0
ARC
  5
3518
330
18
100
AcDbEntity
  8
1
  6
Continuous
100
AcDbCircle
 10
41.89423191889285
 20
328.205224579788
 30
0.0
 40
4.0
100
AcDbArc
 50
231.1010871161548
 51
270.0
  0
ARC
  5
3519
330
18
100
AcDbEntity
  8
1
  6
Continuous
100
AcDbCircle
 10
42.65672748275392
 20
323.2052245797881
 30
0.0
 40
1.0
100
AcDbArc
 50
89.99999999996417
 51
179.9999999999479
  0
LINE
  5
351A
330
18
100
AcDbEntity
  8
1
  6
Continuous
100
AcDbLine
 10
63.65672748275392
 20
317.2052245797881
 30
0.0
 11
63.65672748275392
 21
323.2052245797881
 31
0.0
  0
ARC
  5
351B
330
18
100
AcDbEntity
  8
1
  6
Continuous
100
AcDbCircle
 10
62.65672748275392
 20
317.2052245797881
 30
0.0
 40
1.0
100
AcDbArc
 50
270.0
 51
359.9999999999804
  0
ARC
  5
351C
330
18
100
AcDbEntity
  8
1
  6
Continuous
100
AcDbCircle
 10
62.85672748275398
 20
315.9052245797881
 30
0.0
 40
0.3
100
AcDbArc
 50
0.0
 51
90.0
  0
LINE
  5
351D
330
18
100
AcDbEntity
  8
1
  6
Continuous
100
AcDbLine
 10
63.15672748275392
 20
315.9052245797881
 30
0.0
 11
63.15672748275392
 21
315.705224579788
 31
0.0
  0
ARC
  5
351E
330
18
100
AcDbEntity
  8
1
  6
Continuous
100
AcDbCircle
 10
66.65672748275392
 20
314.705224579788
 30
0.0
 40
1.0
100
AcDbArc
 50
0.0
 51
90.0
  0
LINE
  5
351F
330
18
100
AcDbEntity
  8
1
  6
Continuous
100
AcDbLine
 10
70.65672748275392
 20
328.9052245797881
 30
0.0
 11
65.93101621197707
 21
325.0922043269724
 31
0.0
  0
ARC
  5
3520
330
18
100
AcDbEntity
  8
1
  6
Continuous
100
AcDbCircle
 10
63.419223046615
 20
328.205224579788
 30
0.0
 40
4.0
100
AcDbArc
 50
270.0
 51
308.8989128838451
  0
ARC
  5
3521
330
18
100
AcDbEntity
  8
1
  6
Continuous
100
AcDbCircle
 10
62.65672748275392
 20
323.2052245797881
 30
0.0
 40
1.0
100
AcDbArc
 50
359.9999999999804
 51
89.99999999996417
  0
LINE
  5
3522
330
18
100
AcDbEntity
  8
1
  6
Continuous
100
AcDbLine
 10
85.65672748275392
 20
328.9052245797881
 30
0.0
 11
85.65672748275392
 21
332.705224579788
 31
0.0
  0
ARC
  5
3525
330
18
100
AcDbEntity
  8
1
  6
Continuous
100
AcDbCircle
 10
171.5770442994236
 20
292.1237882773979
 30
0.0
 40
6.999999999999996
100
AcDbArc
 50
201.649600284719
 51
304.2821113593647
  0
LINE
  5
3526
330
18
100
AcDbEntity
  8
5
  6
PHANTOM
 48
0.3
100
AcDbLine
 10
176.908890098318
 20
281.2052245797882
 30
0.0
 11
145.8062198548667
 21
281.2052245797882
 31
0.0
  0
LINE
  5
3527
330
18
100
AcDbEntity
  8
5
  6
PHANTOM
 48
0.3
100
AcDbLine
 10
145.8062198548667
 20
284.2052245797882
 30
0.0
 11
177.0283127210101
 21
284.2052245797882
 31
0.0
  0
ARC
  5
3528
330
18
100
AcDbEntity
  8
5
  6
PHANTOM
 48
0.3
100
AcDbCircle
 10
162.0635112900073
 20
273.2052245797882
 30
0.0
 40
7.999999999999997
100
AcDbArc
 50
2.025357000383162
 51
90.0
  0
ARC
  5
3529
330
18
100
AcDbEntity
  8
1
  6
Continuous
100
AcDbCircle
 10
223.1619331309052
 20
312.5993650517814
 30
0.0
 40
65.49999999999996
100
AcDbArc
 50
197.0046846811415
 51
213.1166242005794
  0
ARC
  5
352A
330
18
100
AcDbEntity
  8
1
  6
Continuous
100
AcDbCircle
 10
223.1619331309052
 20
312.5993650517814
 30
0.0
 40
62.49999999999997
100
AcDbArc
 50
197.639061332581
 51
214.3608042127557
  0
LINE
  5
352B
330
18
100
AcDbEntity
  8
1
  6
Continuous
100
AcDbLine
 10
171.9448660035017
 20
274.7039558988638
 30
0.0
 11
161.8472390756262
 21
243.626655738404
 31
0.0
  0
LINE
  5
352C
330
18
100
AcDbEntity
  8
1
  6
Continuous
100
AcDbLine
 10
158.9940695267408
 20
244.553706721529
 30
0.0
 11
168.6422268223319
 21
274.247681594247
 31
0.0
  0
LINE
  5
352D
330
18
100
AcDbEntity
  8
4
  6
CENTER
 48
0.5
100
AcDbLine
 10
160.3504469618675
 20
244.2052245797881
 30
0.0
 11
300.3504469618674
 21
244.2052245797881
 31
0.0
  0
CIRCLE
  5
352E
330
18
100
AcDbEntity
  8
1
  6
Continuous
100
AcDbCircle
 10
230.3504469618674
 20
244.2052245797881
 30
0.0
 40
57.0
  0
CIRCLE
  5
352F
330
18
100
AcDbEntity
  8
1
  6
Continuous
100
AcDbCircle
 10
230.3504469618674
 20
244.2052245797881
 30
0.0
 40
58.9
  0
CIRCLE
  5
3530
330
18
100
AcDbEntity
  8
1
  6
Continuous
100
AcDbCircle
 10
230.3504469618674
 20
244.2052245797881
 30
0.0
 40
59.0
  0
CIRCLE
  5
3531
330
18
100
AcDbEntity
  8
1
  6
Continuous
100
AcDbCircle
 10
230.3504469618675
 20
244.2052245797881
 30
0.0
 40
65.0
  0
LINE
  5
3532
330
18
100
AcDbEntity
  8
4
  6
CENTER
 48
0.5
100
AcDbLine
 10
230.3504469618673
 20
174.2052245797881
 30
0.0
 11
230.3504469618675
 21
314.2052245797882
 31
0.0
  0
LINE
  5
3533
330
18
100
AcDbEntity
  8
4
  6
CENTER
 48
0.5
100
AcDbLine
 10
265.3504469618674
 20
337.7052245797881
 30
0.0
 11
265.3504469618674
 21
222.705224579788
 31
0.0
  0
LINE
  5
3534
330
18
100
AcDbEntity
  8
1
  6
Continuous
100
AcDbLine
 10
232.3504469618674
 20
332.7052245797881
 30
0.0
 11
298.3504469618674
 21
332.7052245797881
 31
0.0
  0
LINE
  5
3536
330
18
100
AcDbEntity
  8
1
  6
Continuous
100
AcDbLine
 10
298.3504469618674
 20
332.7052245797881
 30
0.0
 11
298.3504469618674
 21
328.9052245797881
 31
0.0
  0
ARC
  5
3537
330
18
100
AcDbEntity
  8
1
  6
Continuous
100
AcDbCircle
 10
230.352023071954
 20
244.2052245797881
 30
0.0
 40
68.0
100
AcDbArc
 50
48.34023455390632
 51
68.61051667381457
  0
LINE
  5
3538
330
18
100
AcDbEntity
  8
1
  6
Continuous
100
AcDbLine
 10
280.3504469618674
 20
314.7052245797882
 30
0.0
 11
280.3504469618674
 21
289.2052245797882
 31
0.0
  0
LINE
  5
3539
330
18
100
AcDbEntity
  8
1
  6
Continuous
100
AcDbLine
 10
275.5520230719539
 20
295.0083740440046
 30
0.0
 11
275.5520230719539
 21
290.9166792333019
 31
0.0
  0
ARC
  5
353A
330
18
100
AcDbEntity
  8
1
  6
Continuous
100
AcDbCircle
 10
290.3504469618674
 20
289.2052245797882
 30
0.0
 40
10.0
100
AcDbArc
 50
180.0000000000032
 51
216.8698976458466
  0
ARC
  5
353B
330
18
100
AcDbEntity
  8
1
  6
Continuous
100
AcDbCircle
 10
174.479470541952
 20
256.6161227401043
 30
0.0
 40
7.999999999999996
100
AcDbArc
 50
152.6904241367263
 51
162.0000000000004
  0
ARC
  5
353C
330
18
100
AcDbEntity
  8
5
  6
PHANTOM
 48
0.3
100
AcDbCircle
 10
182.0510169683506
 20
273.9120603161466
 30
0.0
 40
11.99999999999999
100
AcDbArc
 50
182.0253570003831
 51
198.9042973388155
  0
ARC
  5
353D
330
18
100
AcDbEntity
  8
1
  6
Continuous
100
AcDbCircle
 10
169.0916964546163
 20
275.6310068819886
 30
0.0
 40
2.999999999999998
100
AcDbArc
 50
341.9999999999999
 51
34.36080421275581
  0
ARC
  5
353E
330
18
100
AcDbEntity
  8
1
  6
Continuous
100
AcDbCircle
 10
165.7890572734465
 20
275.1747325773719
 30
0.0
 40
2.999999999999998
100
AcDbArc
 50
342.0000000000015
 51
33.1166242005767
  0
ARC
  5
3540
330
18
100
AcDbEntity
  8
5
  6
PHANTOM
 48
0.3
100
AcDbCircle
 10
230.3504469618674
 20
244.2052245797881
 30
0.0
 40
65.49999999999997
100
AcDbArc
 50
125.0046846811409
 51
141.1166242005782
  0
ARC
  5
3541
330
18
100
AcDbEntity
  8
1
  6
Continuous
100
AcDbCircle
 10
183.9689425134363
 20
273.945755967669
 30
0.0
 40
14.99999999999999
100
AcDbArc
 50
93.01882010843526
 51
124.2821113593647
  0
ARC
  5
3542
330
18
100
AcDbEntity
  8
5
  6
PHANTOM
 48
0.3
100
AcDbCircle
 10
193.3504469618674
 20
297.0375063779464
 30
0.0
 40
0.9999999999999998
100
AcDbArc
 50
64.6207763168018
 51
125.0046846811436
  0
ARC
  5
3543
330
18
100
AcDbEntity
  8
5
  6
PHANTOM
 48
0.3
100
AcDbCircle
 10
177.0283127210101
 20
287.2052245797882
 30
0.0
 40
2.999999999999998
100
AcDbArc
 50
270.0
 51
321.1166242005782
  0
LINE
  5
3545
330
18
100
AcDbEntity
  8
1
  6
Continuous
100
AcDbLine
 10
254.5879513980062
 20
324.2052245797881
 30
0.0
 11
276.1129425257286
 21
324.2052245797881
 31
0.0
  0
LINE
  5
3546
330
18
100
AcDbEntity
  8
1
  6
Continuous
100
AcDbLine
 10
255.1504469618673
 20
316.2052245797881
 30
0.0
 11
275.5504469618672
 21
316.2052245797881
 31
0.0
  0
ARC
  5
3548
330
18
100
AcDbEntity
  8
1
  6
Continuous
100
AcDbCircle
 10
275.3504469618674
 20
323.2052245797881
 30
0.0
 40
1.0
100
AcDbArc
 50
0.0000000000521172
 51
90.00000000003582
  0
ARC
  5
3549
330
18
100
AcDbEntity
  8
1
  6
Continuous
100
AcDbCircle
 10
279.3504469618674
 20
314.7052245797882
 30
0.0
 40
1.0
100
AcDbArc
 50
0.000000000000007
 51
90.0
  0
LINE
  5
354A
330
18
100
AcDbEntity
  8
1
  6
Continuous
100
AcDbLine
 10
275.8504469618674
 20
315.9052245797882
 30
0.0
 11
275.8504469618674
 21
315.7052245797881
 31
0.0
  0
ARC
  5
354B
330
18
100
AcDbEntity
  8
1
  6
Continuous
100
AcDbCircle
 10
275.5504469618672
 20
315.9052245797882
 30
0.0
 40
0.3
100
AcDbArc
 50
0.000000000000007
 51
90.0
  0
ARC
  5
354C
330
18
100
AcDbEntity
  8
1
  6
Continuous
100
AcDbCircle
 10
275.3504469618674
 20
317.2052245797881
 30
0.0
 40
1.0
100
AcDbArc
 50
270.0000000000684
 51
0.0000000000521172
  0
LINE
  5
354D
330
18
100
AcDbEntity
  8
1
  6
Continuous
100
AcDbLine
 10
276.3504469618674
 20
323.2052245797881
 30
0.0
 11
276.3504469618674
 21
317.2052245797881
 31
0.0
  0
LINE
  5
354E
330
18
100
AcDbEntity
  8
1
  6
Continuous
100
AcDbLine
 10
283.3504469618674
 20
328.9052245797881
 30
0.0
 11
278.6247356910905
 21
325.0922043269724
 31
0.0
  0
ARC
  5
354F
330
18
100
AcDbEntity
  8
1
  6
Continuous
100
AcDbCircle
 10
276.1129425257286
 20
328.2052245797881
 30
0.0
 40
4.0
100
AcDbArc
 50
270.0
 51
308.8989128838451
  0
ARC
  5
3550
330
18
100
AcDbEntity
  8
1
  6
Continuous
100
AcDbCircle
 10
255.3504469618674
 20
323.2052245797881
 30
0.0
 40
1.0
100
AcDbArc
 50
90.00000000003582
 51
180.0000000000195
  0
ARC
  5
3551
330
18
100
AcDbEntity
  8
1
  6
Continuous
100
AcDbCircle
 10
244.3504469618674
 20
313.8112588009676
 30
0.0
 40
6.0
100
AcDbArc
 50
258.6277175637655
 51
0.000000000000007
  0
LINE
  5
3552
330
18
100
AcDbEntity
  8
1
  6
Continuous
100
AcDbLine
 10
255.1520230719538
 20
307.5215731350473
 30
0.0
 11
255.1520230719538
 21
304.2958923159053
 31
0.0
  0
ARC
  5
3553
330
18
100
AcDbEntity
  8
1
  6
Continuous
100
AcDbCircle
 10
251.3504469618674
 20
314.7052245797882
 30
0.0
 40
1.0
100
AcDbArc
 50
90.00000000000325
 51
180.0000000000032
  0
LINE
  5
3554
330
18
100
AcDbEntity
  8
1
  6
Continuous
100
AcDbLine
 10
254.8504469618674
 20
315.9052245797882
 30
0.0
 11
254.8504469618674
 21
315.7052245797881
 31
0.0
  0
ARC
  5
3555
330
18
100
AcDbEntity
  8
1
  6
Continuous
100
AcDbCircle
 10
255.1504469618673
 20
315.9052245797882
 30
0.0
 40
0.3
100
AcDbArc
 50
90.00000000000325
 51
180.0000000000032
  0
ARC
  5
3556
330
18
100
AcDbEntity
  8
1
  6
Continuous
100
AcDbCircle
 10
255.3504469618674
 20
317.2052245797881
 30
0.0
 40
1.0
100
AcDbArc
 50
180.0000000000195
 51
270.0
  0
LINE
  5
3557
330
18
100
AcDbEntity
  8
1
  6
Continuous
100
AcDbLine
 10
254.3504469618674
 20
317.2052245797881
 30
0.0
 11
254.3504469618674
 21
323.2052245797881
 31
0.0
  0
LINE
  5
3558
330
18
100
AcDbEntity
  8
1
  6
Continuous
100
AcDbLine
 10
251.3504469618674
 20
315.7052245797881
 30
0.0
 11
279.3504469618674
 21
315.7052245797881
 31
0.0
  0
LINE
  5
3559
330
18
100
AcDbEntity
  8
1
  6
Continuous
100
AcDbLine
 10
250.3504469618674
 20
314.7052245797882
 30
0.0
 11
250.3504469618674
 21
313.8112588009676
 31
0.0
  0
LINE
  5
355A
330
18
100
AcDbEntity
  8
1
  6
Continuous
100
AcDbLine
 10
232.3504469618674
 20
328.9052245797881
 30
0.0
 11
298.3504469618674
 21
328.9052245797881
 31
0.0
  0
LINE
  5
355B
330
18
100
AcDbEntity
  8
1
  6
Continuous
100
AcDbLine
 10
247.3504469618674
 20
328.9052245797881
 30
0.0
 11
252.0761582326442
 21
325.0922043269724
 31
0.0
  0
ARC
  5
355C
330
18
100
AcDbEntity
  8
1
  6
Continuous
100
AcDbCircle
 10
254.5879513980062
 20
328.2052245797881
 30
0.0
 40
4.0
100
AcDbArc
 50
231.1010871161549
 51
270.0
  0
LINE
  5
355D
330
18
100
AcDbEntity
  8
1
  6
Continuous
100
AcDbLine
 10
232.3504469618674
 20
328.9052245797881
 30
0.0
 11
232.3504469618674
 21
332.7052245797881
 31
0.0
  0
ARC
  5
355E
330
18
100
AcDbEntity
  8
1
  6
Continuous
100
AcDbCircle
 10
159.2793864816294
 20
244.4610016232164
 30
0.0
 40
0.2999999999999999
100
AcDbArc
 50
162.0000000000015
 51
237.2075029585927
  0
ARC
  5
355F
330
18
100
AcDbEntity
  8
1
  6
Continuous
100
AcDbCircle
 10
161.5619221207376
 20
243.7193608367166
 30
0.0
 40
0.2999999999999999
100
AcDbArc
 50
266.7924970414061
 51
342.0000000000015
  0
ARC
  5
3560
330
18
100
AcDbEntity
  8
1
  6
Continuous
100
AcDbCircle
 10
161.824897703546
 20
248.4119980316046
 30
0.0
 40
4.999999999999999
100
AcDbArc
 50
237.2075029585999
 51
266.7924970414028
  0
ARC
  5
3561
330
18
100
AcDbEntity
  8
1
  6
Continuous
100
AcDbCircle
 10
161.4818184641519
 20
293.7363468760978
 30
0.0
 40
0.9999999999999996
100
AcDbArc
 50
72.00000000000153
 51
197.0046846811415
  0
LINE
  5
3562
330
18
100
AcDbEntity
  8
1
  6
Continuous
100
AcDbLine
 10
161.7908354585269
 20
294.6874033923929
 30
0.0
 11
162.9564466963906
 21
294.3086733430607
 31
0.0
  0
ARC
  5
3563
330
18
100
AcDbEntity
  8
1
  6
Continuous
100
AcDbCircle
 10
162.6474297020156
 20
293.3576168267654
 30
0.0
 40
0.9999999999999996
100
AcDbArc
 50
17.63906133258104
 51
72.00000000000054
  0
ARC
  5
3564
330
18
100
AcDbEntity
  8
5
  6
PHANTOM
 48
0.3
100
AcDbCircle
 10
150.3504469618674
 20
282.7052245797882
 30
0.0
 40
5.0
100
AcDbArc
 50
165.2075029585986
 51
194.7924970414013
  0
ARC
  5
3565
330
18
100
AcDbEntity
  8
5
  6
PHANTOM
 48
0.3
100
AcDbCircle
 10
145.8062198548667
 20
283.9052245797882
 30
0.0
 40
0.3
100
AcDbArc
 50
90.0
 51
165.2075029585923
  0
ARC
  5
3566
330
18
100
AcDbEntity
  8
5
  6
PHANTOM
 48
0.3
100
AcDbCircle
 10
145.8062198548667
 20
281.5052245797882
 30
0.0
 40
0.3
100
AcDbArc
 50
194.7924970414076
 51
270.0
  0
ARC
  5
3567
330
18
100
AcDbEntity
  8
1
  6
Continuous
100
AcDbCircle
 10
41.15672748275392
 20
179.705224579788
 30
0.0
 40
0.5
100
AcDbArc
 50
270.0
 51
0.0
  0
LINE
  5
3568
330
18
100
AcDbEntity
  8
4
  6
CENTER
 48
0.2
100
AcDbLine
 10
246.3504469618671
 20
465.884712758584
 30
0.0
 11
234.3504469618671
 21
465.884712758584
 31
0.0
  0
LINE
  5
3569
330
18
100
AcDbEntity
  8
4
  6
CENTER
 48
0.2
100
AcDbLine
 10
240.3504469618674
 20
421.8847127585839
 30
0.0
 11
240.3504469618674
 21
409.8847127585839
 31
0.0
  0
LINE
  5
356A
330
18
100
AcDbEntity
  8
4
  6
CENTER
 48
0.2
100
AcDbLine
 10
246.3504469618674
 20
415.884712758584
 30
0.0
 11
234.3504469618674
 21
415.884712758584
 31
0.0
  0
LINE
  5
356B
330
18
100
AcDbEntity
  8
4
  6
CENTER
 48
0.2
100
AcDbLine
 10
290.3504469618674
 20
459.8847127585839
 30
0.0
 11
290.3504469618674
 21
471.8847127585839
 31
0.0
  0
LINE
  5
365A
330
18
100
AcDbEntity
  8
1
  6
Continuous
100
AcDbLine
 10
160.4818184641519
 20
432.384712758584
 30
0.0
 11
160.4818184641519
 21
449.384712758584
 31
0.0
  0
LINE
  5
365B
330
18
100
AcDbEntity
  8
1
  6
Continuous
100
AcDbLine
 10
158.9793864816295
 20
449.384712758584
 30
0.0
 11
158.9793864816295
 21
432.384712758584
 31
0.0
  0
LINE
  5
365C
330
18
100
AcDbEntity
  8
1
  6
Continuous
100
AcDbLine
 10
163.4472677752599
 20
449.384712758584
 30
0.0
 11
163.4472677752599
 21
432.384712758584
 31
0.0
  0
ARC
  5
365E
330
18
100
AcDbEntity
  8
1
  6
Continuous
100
AcDbCircle
 10
162.4472677752601
 20
449.384712758584
 30
0.0
 40
1.0
100
AcDbArc
 50
359.9999999999968
 51
90.00000000000651
  0
ARC
  5
365F
330
18
100
AcDbEntity
  8
1
  6
Continuous
100
AcDbCircle
 10
162.4472677752601
 20
432.3847127585839
 30
0.0
 40
1.0
100
AcDbArc
 50
269.9999999999934
 51
0.0000000000032639
  0
ARC
  5
3660
330
18
100
AcDbEntity
  8
1
  6
Continuous
100
AcDbCircle
 10
161.4818184641519
 20
432.384712758584
 30
0.0
 40
1.0
100
AcDbArc
 50
180.0000000000032
 51
270.0
  0
ARC
  5
3661
330
18
100
AcDbEntity
  8
1
  6
Continuous
100
AcDbCircle
 10
161.481818464152
 20
449.3847127585839
 30
0.0
 40
1.0
100
AcDbArc
 50
90.00000000000651
 51
179.9999999999966
  0
ARC
  5
3662
330
18
100
AcDbEntity
  8
1
  6
Continuous
100
AcDbCircle
 10
159.9793864816293
 20
449.384712758584
 30
0.0
 40
1.0
100
AcDbArc
 50
89.99999999999348
 51
180.0000000000032
  0
ARC
  5
3663
330
18
100
AcDbEntity
  8
1
  6
Continuous
100
AcDbCircle
 10
159.9793864816293
 20
432.3847127585839
 30
0.0
 40
1.0
100
AcDbArc
 50
179.9999999999966
 51
270.0000000000065
  0
LINE
  5
366D
330
18
100
AcDbEntity
  8
1
  6
Continuous
100
AcDbLine
 10
186.597762596545
 20
449.3847127585842
 30
0.0
 11
165.5708421044619
 21
449.3847127585842
 31
0.0
  0
LINE
  5
3670
330
18
100
AcDbEntity
  8
1
  6
Continuous
100
AcDbLine
 10
186.597762596545
 20
446.384712758584
 30
0.0
 11
166.0708421044619
 21
446.3847127585842
 31
0.0
  0
LINE
  5
3671
330
18
100
AcDbEntity
  8
1
  6
Continuous
100
AcDbLine
 10
186.597762596545
 20
435.5347127585838
 30
0.0
 11
171.5901963538326
 21
435.5347127585842
 31
0.0
  0
LINE
  5
3672
330
18
100
AcDbEntity
  8
1
  6
Continuous
100
AcDbLine
 10
186.5977625965449
 20
446.2347127585839
 30
0.0
 11
171.5901963538328
 21
446.2347127585841
 31
0.0
  0
LINE
  5
36D0
330
18
100
AcDbEntity
  8
1
  6
Continuous
100
AcDbLine
 10
186.597762596545
 20
449.384712758584
 30
0.0
 11
186.5977625965449
 21
446.2347127585839
 31
0.0
  0
LINE
  5
36D3
330
18
100
AcDbEntity
  8
1
  6
Continuous
100
AcDbLine
 10
171.44726777526
 20
445.8847127585841
 30
0.0
 11
171.44726777526
 21
435.8847127585839
 31
0.0
  0
ARC
  5
36D4
330
18
100
AcDbEntity
  8
1
  6
Continuous
100
AcDbCircle
 10
171.94726777526
 20
445.8847127585841
 30
0.0
 40
0.5
100
AcDbArc
 50
89.99999999999962
 51
180.0
  0
LINE
  5
36D5
330
18
100
AcDbEntity
  8
1
  6
Continuous
100
AcDbLine
 10
186.597762596545
 20
435.5347127585838
 30
0.0
 11
186.5977625965449
 21
432.384712758584
 31
0.0
  0
ARC
  5
36D6
330
18
100
AcDbEntity
  8
1
  6
Continuous
100
AcDbCircle
 10
166.0708421044619
 20
436.3847127585838
 30
0.0
 40
1.0
100
AcDbArc
 50
180.0
 51
270.0
  0
LINE
  5
36D7
330
18
100
AcDbEntity
  8
1
  6
Continuous
100
AcDbLine
 10
186.597762596545
 20
432.384712758584
 30
0.0
 11
165.5708421044619
 21
432.3847127585839
 31
0.0
  0
LINE
  5
36D8
330
18
100
AcDbEntity
  8
1
  6
Continuous
100
AcDbLine
 10
186.597762596545
 20
435.3847127585839
 30
0.0
 11
166.0708421044619
 21
435.3847127585837
 31
0.0
  0
ARC
  5
36D9
330
18
100
AcDbEntity
  8
1
  6
Continuous
100
AcDbCircle
 10
165.5708421044619
 20
431.8847127585835
 30
0.0
 40
0.5
100
AcDbArc
 50
90.00000000000005
 51
180.0
  0
ARC
  5
36DA
330
18
100
AcDbEntity
  8
1
  6
Continuous
100
AcDbCircle
 10
171.94726777526
 20
435.8847127585839
 30
0.0
 40
0.5
100
AcDbArc
 50
180.0
 51
270.0000000000004
  0
LINE
  5
3758
330
18
100
AcDbEntity
  8
1
  6
Continuous
100
AcDbLine
 10
171.0916964546163
 20
450.384712758584
 30
0.0
 11
159.9793864816295
 21
450.384712758584
 31
0.0
  0
LINE
  5
3759
330
18
100
AcDbEntity
  8
1
  6
Continuous
100
AcDbLine
 10
187.5977625965449
 20
431.3847127585839
 30
0.0
 11
232.3504469618674
 21
431.3847127585839
 31
0.0
  0
ARC
  5
375A
330
18
100
AcDbEntity
  8
1
  6
Continuous
100
AcDbCircle
 10
171.0916964546163
 20
449.384712758584
 30
0.0
 40
1.0
100
AcDbArc
 50
0.0
 51
90.0
  0
ARC
  5
375B
330
18
100
AcDbEntity
  8
1
  6
Continuous
100
AcDbCircle
 10
171.0916964546164
 20
432.3847127585839
 30
0.0
 40
1.0
100
AcDbArc
 50
269.9999999999934
 51
0.0000000000032569
  0
ARC
  5
375C
330
18
100
AcDbEntity
  8
1
  6
Continuous
100
AcDbCircle
 10
187.597762596545
 20
449.384712758584
 30
0.0
 40
1.0
100
AcDbArc
 50
89.99999999999992
 51
179.9999999999984
  0
ARC
  5
375D
330
18
100
AcDbEntity
  8
1
  6
Continuous
100
AcDbCircle
 10
187.5977625965449
 20
432.384712758584
 30
0.0
 40
1.0
100
AcDbArc
 50
179.9999999999984
 51
270.0
  0
ARC
  5
3846
330
18
100
AcDbEntity
  8
1
  6
Continuous
100
AcDbCircle
 10
52.65672748275358
 20
274.3392730548822
 30
0.0
 40
30.0
100
AcDbArc
 50
252.9561533849015
 51
287.0438466150993
  0
ARC
  5
3847
330
18
100
AcDbEntity
  8
1
  6
Continuous
100
AcDbCircle
 10
52.65672748275358
 20
273.4193608367166
 30
0.0
 40
30.0
100
AcDbArc
 50
252.9561533849015
 51
287.0438466150993
  0
ARC
  5
3848
330
18
100
AcDbEntity
  8
1
  6
Continuous
100
AcDbCircle
 10
44.15672748275335
 20
246.6129317888587
 30
0.0
 40
1.0
100
AcDbArc
 50
180.0
 51
252.9561533849006
  0
ARC
  5
3849
330
18
100
AcDbEntity
  8
1
  6
Continuous
100
AcDbCircle
 10
44.15672748275335
 20
245.6930195706931
 30
0.0
 40
1.0
100
AcDbArc
 50
180.0
 51
252.9561533849006
  0
ARC
  5
384A
330
18
100
AcDbEntity
  8
1
  6
Continuous
100
AcDbCircle
 10
61.15672748275335
 20
246.6129317888586
 30
0.0
 40
1.0
100
AcDbArc
 50
287.0438466150993
 51
0.0
  0
ARC
  5
384B
330
18
100
AcDbEntity
  8
1
  6
Continuous
100
AcDbCircle
 10
61.15672748275335
 20
245.693019570693
 30
0.0
 40
1.0
100
AcDbArc
 50
287.0438466150993
 51
0.0
  0
LINE
  5
3946
330
18
100
AcDbEntity
  8
1
  6
Continuous
100
AcDbLine
 10
60.15672748275392
 20
275.5693380444714
 30
0.0
 11
45.15672748275392
 21
275.5693380444714
 31
0.0
  0
ARC
  5
3948
330
18
100
AcDbEntity
  8
1
  6
Continuous
100
AcDbCircle
 10
44.15672748275392
 20
293.7363468760978
 30
0.0
 40
1.0
100
AcDbArc
 50
90.0
 51
180.0
  0
LINE
  5
3949
330
18
100
AcDbEntity
  8
1
  6
Continuous
100
AcDbLine
 10
44.15672748275392
 20
294.7363468760978
 30
0.0
 11
61.15672748275392
 21
294.7363468760978
 31
0.0
  0
ARC
  5
394A
330
18
100
AcDbEntity
  8
1
  6
Continuous
100
AcDbCircle
 10
61.15672748275392
 20
293.7363468760978
 30
0.0
 40
1.0
100
AcDbArc
 50
359.9999999999967
 51
89.99999999999673
  0
LINE
  5
394C
330
18
100
AcDbEntity
  8
4
  6
CENTER
 48
0.2
100
AcDbLine
 10
290.3504469618674
 20
324.8052245797881
 30
0.0
 11
290.3504469618674
 21
336.8052245797882
 31
0.0
  0
LINE
  5
394D
330
18
100
AcDbEntity
  8
4
  6
CENTER
 48
0.2
100
AcDbLine
 10
240.3504469618674
 20
336.8052245797882
 30
0.0
 11
240.3504469618674
 21
324.8052245797881
 31
0.0
  0
LINE
  5
394E
330
18
100
AcDbEntity
  8
4
  6
CENTER
 48
0.2
100
AcDbLine
 10
77.65672748275392
 20
324.805224579788
 30
0.0
 11
77.65672748275392
 21
336.805224579788
 31
0.0
  0
LINE
  5
394F
330
18
100
AcDbEntity
  8
4
  6
CENTER
 48
0.2
100
AcDbLine
 10
27.65672748275392
 20
324.805224579788
 30
0.0
 11
27.65672748275392
 21
336.805224579788
 31
0.0
  0
LINE
  5
3A71
330
18
100
AcDbEntity
  8
1
  6
Continuous
100
AcDbLine
 10
414.173105960743
 20
295.0083740440044
 30
0.0
 11
414.1731059607431
 21
245.2052245797881
 31
0.0
  0
LINE
  5
3A72
330
18
100
AcDbEntity
  8
1
  6
Continuous
100
AcDbLine
 10
395.1731059607432
 20
228.705224579788
 30
0.0
 11
395.1731059607432
 21
231.8391991760036
 31
0.0
  0
LINE
  5
3A73
330
18
100
AcDbEntity
  8
1
  6
Continuous
100
AcDbLine
 10
381.6731059607432
 20
305.705224579788
 30
0.0
 11
381.6731059607432
 21
182.705224579788
 31
0.0
  0
LINE
  5
3A74
330
18
100
AcDbEntity
  8
1
  6
Continuous
100
AcDbLine
 10
379.6761651500092
 20
187.205224579788
 30
0.0
 11
379.6761651500092
 21
301.205224579788
 31
0.0
  0
LINE
  5
3A75
330
18
100
AcDbEntity
  8
1
  6
Continuous
100
AcDbLine
 10
415.673105960743
 20
295.3939329276751
 30
0.0
 11
415.673105960743
 21
179.705224579788
 31
0.0
  0
LINE
  5
3A76
330
18
100
AcDbEntity
  8
1
  6
Continuous
100
AcDbLine
 10
393.6731059607432
 20
295.3939329276751
 30
0.0
 11
393.6731059607432
 21
179.705224579788
 31
0.0
  0
LINE
  5
3A77
330
18
100
AcDbEntity
  8
1
  6
Continuous
100
AcDbLine
 10
427.673105960743
 20
305.705224579788
 30
0.0
 11
427.673105960743
 21
182.705224579788
 31
0.0
  0
LINE
  5
3A78
330
18
100
AcDbEntity
  8
1
  6
Continuous
100
AcDbLine
 10
429.6700467714772
 20
187.205224579788
 30
0.0
 11
429.6700467714772
 21
301.205224579788
 31
0.0
  0
LINE
  5
3A79
330
18
100
AcDbEntity
  8
4
  6
CENTER
 48
0.5
100
AcDbLine
 10
404.6731059607431
 20
337.705224579788
 30
0.0
 11
404.6731059607431
 21
222.705224579788
 31
0.0
  0
ARC
  5
3A7C
330
18
100
AcDbEntity
  8
1
  6
Continuous
100
AcDbCircle
 10
385.1731059607431
 20
182.705224579788
 30
0.0
 40
3.5
100
AcDbArc
 50
180.0000000000032
 51
270.0
  0
LINE
  5
3A7D
330
18
100
AcDbEntity
  8
4
  6
CENTER
 48
0.5
100
AcDbLine
 10
374.6761651500092
 20
244.2052245797881
 30
0.0
 11
434.6700467714772
 21
244.2052245797881
 31
0.0
  0
LINE
  5
3A7F
330
18
100
AcDbEntity
  8
1
  6
Continuous
100
AcDbLine
 10
424.173105960743
 20
179.205224579788
 30
0.0
 11
416.1731059607431
 21
179.205224579788
 31
0.0
  0
ARC
  5
3A80
330
18
100
AcDbEntity
  8
1
  6
Continuous
100
AcDbCircle
 10
429.8559073031324
 20
185.0130895787508
 30
0.0
 40
2.2
100
AcDbArc
 50
94.84624195539778
 51
170.1834878179066
  0
ARC
  5
3A81
330
18
100
AcDbEntity
  8
1
  6
Continuous
100
AcDbCircle
 10
427.5895820526525
 20
185.4052245797881
 30
0.0
 40
0.1
100
AcDbArc
 50
326.6407411425145
 51
350.1834878179098
  0
ARC
  5
3A82
330
18
100
AcDbEntity
  8
1
  6
Continuous
100
AcDbCircle
 10
424.173105960743
 20
182.705224579788
 30
0.0
 40
3.5
100
AcDbArc
 50
270.0
 51
0.000000000000007
  0
ARC
  5
3A84
330
18
100
AcDbEntity
  8
1
  6
Continuous
100
AcDbCircle
 10
416.1731059607431
 20
179.705224579788
 30
0.0
 40
0.5
100
AcDbArc
 50
180.0
 51
270.0
  0
ARC
  5
3A85
330
18
100
AcDbEntity
  8
1
  6
Continuous
100
AcDbCircle
 10
393.1731059607431
 20
179.705224579788
 30
0.0
 40
0.5
100
AcDbArc
 50
270.0
 51
0.000000000000007
  0
LINE
  5
3A86
330
18
100
AcDbEntity
  8
1
  6
Continuous
100
AcDbLine
 10
385.1731059607431
 20
179.205224579788
 30
0.0
 11
393.1731059607431
 21
179.205224579788
 31
0.0
  0
LINE
  5
3A87
330
18
100
AcDbEntity
  8
1
  6
Continuous
100
AcDbLine
 10
413.1731059607431
 20
227.7052245797881
 30
0.0
 11
396.1731059607432
 21
227.7052245797881
 31
0.0
  0
ARC
  5
3A88
330
18
100
AcDbEntity
  8
1
  6
Continuous
100
AcDbCircle
 10
413.1731059607431
 20
228.705224579788
 30
0.0
 40
1.0
100
AcDbArc
 50
270.0
 51
0.000000000000007
  0
ARC
  5
3A89
330
18
100
AcDbEntity
  8
1
  6
Continuous
100
AcDbCircle
 10
396.1731059607432
 20
228.705224579788
 30
0.0
 40
1.0
100
AcDbArc
 50
180.0000000000032
 51
270.0
  0
LINE
  5
3A8C
330
18
100
AcDbEntity
  8
1
  6
Continuous
100
AcDbLine
 10
414.7883661885033
 20
232.205224579788
 30
0.0
 11
414.5391313645276
 21
232.205224579788
 31
0.0
  0
ARC
  5
3A8D
330
18
100
AcDbEntity
  8
1
  6
Continuous
100
AcDbCircle
 10
414.7883661885033
 20
230.205224579788
 30
0.0
 40
2.0
100
AcDbArc
 50
63.7448127687699
 51
90.0
  0
ARC
  5
3A90
330
18
100
AcDbEntity
  8
1
  6
Continuous
100
AcDbCircle
 10
394.5578457329828
 20
230.205224579788
 30
0.0
 40
2.0
100
AcDbArc
 50
90.0
 51
116.2551872312301
  0
LINE
  5
3A91
330
18
100
AcDbEntity
  8
1
  6
Continuous
100
AcDbLine
 10
394.5578457329828
 20
232.205224579788
 30
0.0
 11
394.8070805569587
 21
232.205224579788
 31
0.0
  0
ARC
  5
3A94
330
18
100
AcDbEntity
  8
1
  6
Continuous
100
AcDbCircle
 10
379.4903046183541
 20
185.0130895787508
 30
0.0
 40
2.2
100
AcDbArc
 50
9.816512182093376
 51
85.15375804460225
  0
ARC
  5
3A95
330
18
100
AcDbEntity
  8
1
  6
Continuous
100
AcDbCircle
 10
381.7566298688337
 20
185.4052245797881
 30
0.0
 40
0.1
100
AcDbArc
 50
189.8165121820934
 51
213.3592588574854
  0
LINE
  5
3A99
330
18
100
AcDbEntity
  8
1
  6
Continuous
100
AcDbLine
 10
371.6731059607432
 20
328.9052245797881
 30
0.0
 11
437.6731059607431
 21
328.9052245797881
 31
0.0
  0
LINE
  5
3A9A
330
18
100
AcDbEntity
  8
1
  6
Continuous
100
AcDbLine
 10
371.6731059607432
 20
332.705224579788
 30
0.0
 11
437.6731059607431
 21
332.705224579788
 31
0.0
  0
ARC
  5
3A9B
330
18
100
AcDbEntity
  8
1
  6
Continuous
100
AcDbCircle
 10
385.1731059607431
 20
305.705224579788
 30
0.0
 40
3.5
100
AcDbArc
 50
90.0
 51
180.0
  0
LINE
  5
3A9E
330
18
100
AcDbEntity
  8
1
  6
Continuous
100
AcDbLine
 10
414.7883661885033
 20
256.205224579788
 30
0.0
 11
414.6731059607433
 21
256.205224579788
 31
0.0
  0
ARC
  5
3A9F
330
18
100
AcDbEntity
  8
1
  6
Continuous
100
AcDbCircle
 10
414.7883661885033
 20
258.205224579788
 30
0.0
 40
2.0
100
AcDbArc
 50
270.0
 51
296.2551872312301
  0
ARC
  5
3AA0
330
18
100
AcDbEntity
  8
1
  6
Continuous
100
AcDbCircle
 10
394.5578457329828
 20
258.205224579788
 30
0.0
 40
2.0
100
AcDbArc
 50
243.7448127687698
 51
270.0
  0
LINE
  5
3AA1
330
18
100
AcDbEntity
  8
1
  6
Continuous
100
AcDbLine
 10
394.5578457329828
 20
256.205224579788
 30
0.0
 11
394.6731059607432
 21
256.205224579788
 31
0.0
  0
ARC
  5
3AA5
330
18
100
AcDbEntity
  8
1
  6
Continuous
100
AcDbCircle
 10
413.3644661541052
 20
301.2649735895258
 30
0.0
 40
6.308639806637986
100
AcDbArc
 50
277.3644190580299
 51
0.0
  0
ARC
  5
3AA6
330
18
100
AcDbEntity
  8
1
  6
Continuous
100
AcDbCircle
 10
395.9817457673811
 20
301.2649735895258
 30
0.0
 40
6.308639806637982
100
AcDbArc
 50
180.0
 51
262.6355809419732
  0
LINE
  5
3AA8
330
18
100
AcDbEntity
  8
1
  6
Continuous
100
AcDbLine
 10
422.6731059607431
 20
328.9052245797881
 30
0.0
 11
417.9473946899663
 21
325.0922043269724
 31
0.0
  0
LINE
  5
3AA9
330
18
100
AcDbEntity
  8
1
  6
Continuous
100
AcDbLine
 10
424.173105960743
 20
309.205224579788
 30
0.0
 11
419.673105960743
 21
309.205224579788
 31
0.0
  0
ARC
  5
3AAA
330
18
100
AcDbEntity
  8
1
  6
Continuous
100
AcDbCircle
 10
424.173105960743
 20
305.705224579788
 30
0.0
 40
3.5
100
AcDbArc
 50
0.000000000000007
 51
90.0
  0
ARC
  5
3AAB
330
18
100
AcDbEntity
  8
1
  6
Continuous
100
AcDbCircle
 10
427.5895820526525
 20
303.005224579788
 30
0.0
 40
0.1
100
AcDbArc
 50
9.816512182096607
 51
33.35925885746376
  0
ARC
  5
3AAC
330
18
100
AcDbEntity
  8
1
  6
Continuous
100
AcDbCircle
 10
429.8559073031324
 20
303.3973595808253
 30
0.0
 40
2.199999999999997
100
AcDbArc
 50
189.8165121820934
 51
265.1537580446022
  0
LINE
  5
3AAD
330
18
100
AcDbEntity
  8
4
  6
CENTER
 48
0.2
100
AcDbLine
 10
429.6731059607431
 20
324.805224579788
 30
0.0
 11
429.6731059607431
 21
336.805224579788
 31
0.0
  0
LINE
  5
3AAE
330
18
100
AcDbEntity
  8
1
  6
Continuous
100
AcDbLine
 10
437.6731059607431
 20
332.705224579788
 30
0.0
 11
437.6731059607431
 21
328.9052245797881
 31
0.0
  0
LINE
  5
3AAF
330
18
100
AcDbEntity
  8
1
  6
Continuous
100
AcDbLine
 10
393.6731059607432
 20
317.2052245797881
 30
0.0
 11
393.6731059607432
 21
323.2052245797881
 31
0.0
  0
LINE
  5
3AB0
330
18
100
AcDbEntity
  8
1
  6
Continuous
100
AcDbLine
 10
415.673105960743
 20
323.2052245797881
 30
0.0
 11
415.673105960743
 21
317.2052245797881
 31
0.0
  0
LINE
  5
3AB1
330
18
100
AcDbEntity
  8
1
  6
Continuous
100
AcDbLine
 10
418.673105960743
 20
315.705224579788
 30
0.0
 11
390.6731059607432
 21
315.705224579788
 31
0.0
  0
LINE
  5
3AB2
330
18
100
AcDbEntity
  8
1
  6
Continuous
100
AcDbLine
 10
394.4731059607431
 20
316.205224579788
 30
0.0
 11
414.8731059607432
 21
316.2052245797879
 31
0.0
  0
LINE
  5
3AB8
330
18
100
AcDbEntity
  8
1
  6
Continuous
100
AcDbLine
 10
415.173105960743
 20
315.9052245797881
 30
0.0
 11
415.173105960743
 21
315.705224579788
 31
0.0
  0
ARC
  5
3AB9
330
18
100
AcDbEntity
  8
1
  6
Continuous
100
AcDbCircle
 10
414.8731059607432
 20
315.9052245797881
 30
0.0
 40
0.3
100
AcDbArc
 50
0.000000000000007
 51
90.0
  0
ARC
  5
3ABA
330
18
100
AcDbEntity
  8
1
  6
Continuous
100
AcDbCircle
 10
418.673105960743
 20
314.705224579788
 30
0.0
 40
1.0
100
AcDbArc
 50
0.000000000000007
 51
90.0
  0
ARC
  5
3ABB
330
18
100
AcDbEntity
  8
1
  6
Continuous
100
AcDbCircle
 10
414.673105960743
 20
317.2052245797881
 30
0.0
 40
1.0
100
AcDbArc
 50
270.0000000000684
 51
0.0000000000521172
  0
LINE
  5
3ABC
330
18
100
AcDbEntity
  8
1
  6
Continuous
100
AcDbLine
 10
419.673105960743
 20
314.705224579788
 30
0.0
 11
419.673105960743
 21
301.2649735895258
 31
0.0
  0
ARC
  5
3AC0
330
18
100
AcDbEntity
  8
1
  6
Continuous
100
AcDbCircle
 10
394.6731059607432
 20
317.2052245797881
 30
0.0
 40
1.0
100
AcDbArc
 50
180.0000000000195
 51
270.0
  0
LINE
  5
3AC1
330
18
100
AcDbEntity
  8
1
  6
Continuous
100
AcDbLine
 10
394.1731059607432
 20
315.9052245797881
 30
0.0
 11
394.1731059607432
 21
315.705224579788
 31
0.0
  0
ARC
  5
3AC2
330
18
100
AcDbEntity
  8
1
  6
Continuous
100
AcDbCircle
 10
394.4731059607431
 20
315.9052245797881
 30
0.0
 40
0.3
100
AcDbArc
 50
90.0
 51
180.0
  0
ARC
  5
3AC3
330
18
100
AcDbEntity
  8
1
  6
Continuous
100
AcDbCircle
 10
390.6731059607432
 20
314.705224579788
 30
0.0
 40
1.0
100
AcDbArc
 50
90.0
 51
180.0
  0
LINE
  5
3AC4
330
18
100
AcDbEntity
  8
1
  6
Continuous
100
AcDbLine
 10
385.1731059607431
 20
309.205224579788
 30
0.0
 11
389.6731059607432
 21
309.205224579788
 31
0.0
  0
LINE
  5
3AC5
330
18
100
AcDbEntity
  8
1
  6
Continuous
100
AcDbLine
 10
389.6731059607432
 20
314.705224579788
 30
0.0
 11
389.6731059607432
 21
301.2649735895258
 31
0.0
  0
LINE
  5
3AC6
330
18
100
AcDbEntity
  8
1
  6
Continuous
100
AcDbLine
 10
393.9106103968821
 20
324.205224579788
 30
0.0
 11
415.4356015246043
 21
324.205224579788
 31
0.0
  0
ARC
  5
3AC7
330
18
100
AcDbEntity
  8
1
  6
Continuous
100
AcDbCircle
 10
414.673105960743
 20
323.2052245797881
 30
0.0
 40
1.0
100
AcDbArc
 50
0.0000000000521172
 51
90.00000000003582
  0
ARC
  5
3AC8
330
18
100
AcDbEntity
  8
1
  6
Continuous
100
AcDbCircle
 10
415.4356015246043
 20
328.205224579788
 30
0.0
 40
4.0
100
AcDbArc
 50
270.0
 51
308.8989128838451
  0
ARC
  5
3AC9
330
18
100
AcDbEntity
  8
1
  6
Continuous
100
AcDbCircle
 10
394.6731059607432
 20
323.2052245797881
 30
0.0
 40
1.0
100
AcDbArc
 50
90.00000000003582
 51
180.0000000000195
  0
ARC
  5
3ACA
330
18
100
AcDbEntity
  8
1
  6
Continuous
100
AcDbCircle
 10
393.9106103968821
 20
328.205224579788
 30
0.0
 40
4.0
100
AcDbArc
 50
231.1010871161549
 51
270.0
  0
LINE
  5
3ACB
330
18
100
AcDbEntity
  8
1
  6
Continuous
100
AcDbLine
 10
386.6731059607431
 20
328.9052245797881
 30
0.0
 11
391.39881723152
 21
325.0922043269724
 31
0.0
  0
ARC
  5
3ACC
330
18
100
AcDbEntity
  8
1
  6
Continuous
100
AcDbCircle
 10
379.4903046183541
 20
303.3973595808253
 30
0.0
 40
2.199999999999997
100
AcDbArc
 50
274.8462419553977
 51
350.1834878179067
  0
ARC
  5
3ACD
330
18
100
AcDbEntity
  8
1
  6
Continuous
100
AcDbCircle
 10
381.7566298688337
 20
303.005224579788
 30
0.0
 40
0.1
100
AcDbArc
 50
146.6407411425362
 51
170.1834878179034
  0
LINE
  5
3ACE
330
18
100
AcDbEntity
  8
4
  6
CENTER
 48
0.2
100
AcDbLine
 10
379.6731059607432
 20
324.805224579788
 30
0.0
 11
379.6731059607432
 21
336.805224579788
 31
0.0
  0
LINE
  5
3ACF
330
18
100
AcDbEntity
  8
1
  6
Continuous
100
AcDbLine
 10
371.6731059607432
 20
328.9052245797881
 30
0.0
 11
371.6731059607432
 21
332.705224579788
 31
0.0
  0
LINE
  5
3B97
330
18
100
AcDbEntity
  8
1
  6
Continuous
100
AcDbLine
 10
161.7775653537972
 20
62.52573640099218
 30
0.0
 11
161.7775653537972
 21
79.52573640099217
 31
0.0
  0
LINE
  5
3B98
330
18
100
AcDbEntity
  8
1
  6
Continuous
100
AcDbLine
 10
158.9793864816295
 20
62.52573640099218
 30
0.0
 11
158.9793864816295
 21
79.52573640099217
 31
0.0
  0
LINE
  5
3B9C
330
18
100
AcDbEntity
  8
1
  6
Continuous
100
AcDbLine
 10
298.3504469618674
 20
43.02573640099217
 30
0.0
 11
298.3504469618674
 21
99.0257364009922
 31
0.0
  0
LINE
  5
3B9D
330
18
100
AcDbEntity
  8
1
  6
Continuous
100
AcDbLine
 10
232.3504469618674
 20
43.02573640099217
 30
0.0
 11
232.3504469618674
 21
46.02879559025825
 31
0.0
  0
LINE
  5
3B9E
330
18
100
AcDbEntity
  8
4
  6
CENTER
 48
0.5
100
AcDbLine
 10
230.3504469618673
 20
101.022677211726
 30
0.0
 11
230.3504469618675
 21
41.0287955902582
 31
0.0
  0
LINE
  5
3B9F
330
18
100
AcDbEntity
  8
4
  6
CENTER
 48
0.5
100
AcDbLine
 10
265.3504469618671
 20
33.02573640099211
 30
0.0
 11
265.3504469618671
 21
109.0257364009921
 31
0.0
  0
ARC
  5
3BA2
330
18
100
AcDbEntity
  8
1
  6
Continuous
100
AcDbCircle
 10
293.3504469618672
 20
99.0257364009922
 30
0.0
 40
5.0
100
AcDbArc
 50
0.0000000000358398
 51
90.00000000001952
  0
LINE
  5
3BA3
330
18
100
AcDbEntity
  8
4
  6
CENTER
 48
0.2
100
AcDbLine
 10
296.3504469618671
 20
96.02573640099215
 30
0.0
 11
284.3504469618671
 21
96.02573640099215
 31
0.0
  0
LINE
  5
3BA7
330
18
100
AcDbEntity
  8
1
  6
Continuous
100
AcDbLine
 10
159.9793864816293
 20
80.52573640099216
 30
0.0
 11
262.2279479626677
 21
80.52573640099216
 31
0.0
  0
LINE
  5
3BA8
330
18
100
AcDbEntity
  8
1
  6
Continuous
100
AcDbLine
 10
173.3504469618674
 20
96.02267721172609
 30
0.0
 11
287.3504469618671
 21
96.02267721172609
 31
0.0
  0
LINE
  5
3BA9
330
18
100
AcDbEntity
  8
1
  6
Continuous
100
AcDbLine
 10
291.8504469618671
 20
94.02573640099227
 30
0.0
 11
168.8504469618674
 21
94.02573640099227
 31
0.0
  0
LINE
  5
3BAA
330
18
100
AcDbEntity
  8
1
  6
Continuous
100
AcDbLine
 10
294.8504469618672
 20
82.02573640099274
 30
0.0
 11
165.8504469618674
 21
82.02573640099183
 31
0.0
  0
ARC
  5
3BAC
330
18
100
AcDbEntity
  8
1
  6
Continuous
100
AcDbCircle
 10
168.8504469618674
 20
90.52573640099227
 30
0.0
 40
3.5
100
AcDbArc
 50
90.00000000000328
 51
180.0000000000032
  0
ARC
  5
3BAD
330
18
100
AcDbEntity
  8
1
  6
Continuous
100
AcDbCircle
 10
165.8504469618674
 20
82.52573640099219
 30
0.0
 40
0.5
100
AcDbArc
 50
180.0000000000032
 51
270.0
  0
ARC
  5
3BAF
330
18
100
AcDbEntity
  8
1
  6
Continuous
100
AcDbCircle
 10
159.9793864816293
 20
79.52573640099223
 30
0.0
 40
1.0
100
AcDbArc
 50
89.99999999999351
 51
180.0000000000032
  0
ARC
  5
3BB1
330
18
100
AcDbEntity
  8
1
  6
Continuous
100
AcDbCircle
 10
160.7775653537974
 20
79.52573640099223
 30
0.0
 40
1.0
100
AcDbArc
 50
359.9999999999967
 51
90.00000000000651
  0
LINE
  5
3BB2
330
18
100
AcDbEntity
  8
1
  6
Continuous
100
AcDbLine
 10
165.3504469618674
 20
90.52573640099227
 30
0.0
 11
165.3504469618674
 21
82.52573640099219
 31
0.0
  0
ARC
  5
3BB3
330
18
100
AcDbEntity
  8
1
  6
Continuous
100
AcDbCircle
 10
171.5504469618674
 20
93.9422124929016
 30
0.0
 40
0.1
100
AcDbArc
 50
99.81651218209336
 51
123.3592588574854
  0
ARC
  5
3BB4
330
18
100
AcDbEntity
  8
1
  6
Continuous
100
AcDbCircle
 10
171.1583119608301
 20
96.20853774338129
 30
0.0
 40
2.2
100
AcDbArc
 50
279.8165121820933
 51
355.1537580446022
  0
LINE
  5
3BB8
330
18
100
AcDbEntity
  8
1
  6
Continuous
100
AcDbLine
 10
218.3504469618674
 20
81.14099662875242
 30
0.0
 11
218.3504469618674
 21
80.52573640099216
 31
0.0
  0
ARC
  5
3BB9
330
18
100
AcDbEntity
  8
1
  6
Continuous
100
AcDbCircle
 10
216.3504469618674
 20
81.14099662875242
 30
0.0
 40
2.0
100
AcDbArc
 50
0.0
 51
26.25518723123013
  0
LINE
  5
3BBB
330
18
100
AcDbEntity
  8
1
  6
Continuous
100
AcDbLine
 10
237.3504469618674
 20
104.0257364009921
 30
0.0
 11
293.3504469618674
 21
104.0257364009921
 31
0.0
  0
LINE
  5
3BBC
330
18
100
AcDbEntity
  8
4
  6
CENTER
 48
0.2
100
AcDbLine
 10
240.3504469618674
 20
90.02573640099219
 30
0.0
 11
240.3504469618674
 21
102.0257364009921
 31
0.0
  0
ARC
  5
3BBD
330
18
100
AcDbEntity
  8
1
  6
Continuous
100
AcDbCircle
 10
237.3504469618672
 20
99.0257364009922
 30
0.0
 40
5.0
100
AcDbArc
 50
90.00000000001952
 51
180.0
  0
LINE
  5
3BBE
330
18
100
AcDbEntity
  8
4
  6
CENTER
 48
0.2
100
AcDbLine
 10
246.3504469618674
 20
96.02573640099215
 30
0.0
 11
234.3504469618674
 21
96.02573640099215
 31
0.0
  0
ARC
  5
3BBF
330
18
100
AcDbEntity
  8
1
  6
Continuous
100
AcDbCircle
 10
240.3504469618671
 20
96.02573640099215
 30
0.0
 40
3.1
100
AcDbArc
 50
359.9434584960881
 51
180.056541503912
  0
LINE
  5
3BC0
330
18
100
AcDbEntity
  8
4
  6
CENTER
 48
0.2
100
AcDbLine
 10
290.3504469618674
 20
102.0257364009921
 30
0.0
 11
290.3504469618674
 21
90.02573640099219
 31
0.0
  0
ARC
  5
3BC1
330
18
100
AcDbEntity
  8
1
  6
Continuous
100
AcDbCircle
 10
290.3504469618671
 20
96.02573640099215
 30
0.0
 40
4.0
100
AcDbArc
 50
322.6155554138105
 51
180.0438196626913
  0
ARC
  5
3BC6
330
18
100
AcDbEntity
  8
1
  6
Continuous
100
AcDbCircle
 10
293.3504469618672
 20
43.02573640099217
 30
0.0
 40
5.0
100
AcDbArc
 50
270.0000000000521
 51
0.0000000000358398
  0
ARC
  5
3BC7
330
18
100
AcDbEntity
  8
1
  6
Continuous
100
AcDbCircle
 10
291.6939489618671
 20
44.68223340099222
 30
0.0
 40
3.1
100
AcDbArc
 50
225.0000000000598
 51
45.00000000002535
  0
LINE
  5
3BC8
330
18
100
AcDbEntity
  8
4
  6
CENTER
 48
0.2
100
AcDbLine
 10
296.0073009618672
 20
40.36888240099222
 30
0.0
 11
284.6935919618672
 21
51.6825904009921
 31
0.0
  0
LINE
  5
3BC9
330
18
100
AcDbEntity
  8
4
  6
CENTER
 48
0.2
100
AcDbLine
 10
296.3504469618674
 20
46.02573640099217
 30
0.0
 11
284.3504469618673
 21
46.02573640099217
 31
0.0
  0
LINE
  5
3BCA
330
18
100
AcDbEntity
  8
4
  6
CENTER
 48
0.5
100
AcDbLine
 10
153.9793864816296
 20
71.02573640099213
 30
0.0
 11
303.3504469618673
 21
71.02573640099234
 31
0.0
  0
LINE
  5
3BCC
330
18
100
AcDbEntity
  8
1
  6
Continuous
100
AcDbLine
 10
294.8504469618672
 20
60.02573640099218
 30
0.0
 11
165.8504469618674
 21
60.02573640099218
 31
0.0
  0
LINE
  5
3BCD
330
18
100
AcDbEntity
  8
1
  6
Continuous
100
AcDbLine
 10
291.8504469618671
 20
48.02573640099206
 30
0.0
 11
168.8504469618674
 21
48.02573640099206
 31
0.0
  0
LINE
  5
3BCE
330
18
100
AcDbEntity
  8
1
  6
Continuous
100
AcDbLine
 10
173.3504469618674
 20
46.02879559025825
 30
0.0
 11
287.3504469618671
 21
46.02879559025825
 31
0.0
  0
LINE
  5
3BD4
330
18
100
AcDbEntity
  8
1
  6
Continuous
100
AcDbLine
 10
165.3504469618674
 20
51.52573640099205
 30
0.0
 11
165.3504469618674
 21
59.52573640099217
 31
0.0
  0
ARC
  5
3BD7
330
18
100
AcDbEntity
  8
1
  6
Continuous
100
AcDbCircle
 10
165.8504469618674
 20
59.52573640099217
 30
0.0
 40
0.5
100
AcDbArc
 50
90.00000000000328
 51
180.0000000000032
  0
ARC
  5
3BD9
330
18
100
AcDbEntity
  8
1
  6
Continuous
100
AcDbCircle
 10
159.9793864816293
 20
62.5257364009921
 30
0.0
 40
1.0
100
AcDbArc
 50
179.9999999999966
 51
270.0000000000065
  0
ARC
  5
3BDB
330
18
100
AcDbEntity
  8
1
  6
Continuous
100
AcDbCircle
 10
160.7775653537974
 20
62.5257364009921
 30
0.0
 40
1.0
100
AcDbArc
 50
269.9999999999934
 51
0.00000000000322
  0
ARC
  5
3BE1
330
18
100
AcDbEntity
  8
1
  6
Continuous
100
AcDbCircle
 10
168.8504469618674
 20
51.52573640099205
 30
0.0
 40
3.5
100
AcDbArc
 50
180.0000000000032
 51
270.0
  0
ARC
  5
3BE2
330
18
100
AcDbEntity
  8
1
  6
Continuous
100
AcDbCircle
 10
171.5504469618674
 20
48.10926030908275
 30
0.0
 40
0.1
100
AcDbArc
 50
236.6407411425172
 51
260.1834878179098
  0
ARC
  5
3BE3
330
18
100
AcDbEntity
  8
1
  6
Continuous
100
AcDbCircle
 10
171.1583119608301
 20
45.84293505860308
 30
0.0
 40
2.2
100
AcDbArc
 50
4.8462419553978
 51
80.18348781790662
  0
LINE
  5
3BE7
330
18
100
AcDbEntity
  8
1
  6
Continuous
100
AcDbLine
 10
218.3504469618674
 20
60.91047617323181
 30
0.0
 11
218.3504469618674
 21
61.52573640099217
 31
0.0
  0
ARC
  5
3BE8
330
18
100
AcDbEntity
  8
1
  6
Continuous
100
AcDbCircle
 10
216.3504469618674
 20
60.91047617323181
 30
0.0
 40
2.0
100
AcDbArc
 50
333.7448127687698
 51
0.0
  0
LINE
  5
3BEC
330
18
100
AcDbEntity
  8
1
  6
Continuous
100
AcDbLine
 10
237.3504469618674
 20
38.02573640099217
 30
0.0
 11
293.3504469618674
 21
38.02573640099217
 31
0.0
  0
LINE
  5
3BED
330
18
100
AcDbEntity
  8
4
  6
CENTER
 48
0.2
100
AcDbLine
 10
246.3504469618671
 20
46.02573640099217
 30
0.0
 11
234.3504469618671
 21
46.02573640099217
 31
0.0
  0
ARC
  5
3BEE
330
18
100
AcDbEntity
  8
1
  6
Continuous
100
AcDbCircle
 10
240.3504469618671
 20
46.02573640099217
 30
0.0
 40
4.0
100
AcDbArc
 50
179.956180337309
 51
0.0438196626909493
  0
ARC
  5
3BEF
330
18
100
AcDbEntity
  8
1
  6
Continuous
100
AcDbCircle
 10
237.3504469618672
 20
43.02573640099217
 30
0.0
 40
5.0
100
AcDbArc
 50
180.0000000000684
 51
270.0000000000521
  0
LINE
  5
3BF0
330
18
100
AcDbEntity
  8
4
  6
CENTER
 48
0.2
100
AcDbLine
 10
240.3504469618676
 20
40.02573640099217
 30
0.0
 11
240.3504469618674
 21
52.02573640099217
 31
0.0
  0
LINE
  5
3BF2
330
18
100
AcDbEntity
  8
4
  6
CENTER
 48
0.2
100
AcDbLine
 10
290.3504469618674
 20
52.02573640099217
 30
0.0
 11
290.3504469618674
 21
40.02573640099217
 31
0.0
  0
LINE
  5
3BF4
330
18
100
AcDbEntity
  8
1
  6
Continuous
100
AcDbLine
 10
293.8859799618672
 20
46.87426440099215
 30
0.0
 11
292.6434813560602
 21
48.1167634692094
 31
0.0
  0
LINE
  5
3BF5
330
18
100
AcDbEntity
  8
1
  6
Continuous
100
AcDbLine
 10
286.8149129618673
 20
45.17720840099218
 30
0.0
 11
289.5019179618673
 21
42.49020240099219
 31
0.0
  0
LINE
  5
3D55
330
18
100
AcDbEntity
  8
5
  6
PHANTOM
 48
0.3
100
AcDbLine
 10
663.5399920666193
 20
284.2052245797882
 30
0.0
 11
632.3178992004764
 21
284.2052245797882
 31
0.0
  0
LINE
  5
3D56
330
18
100
AcDbEntity
  8
5
  6
PHANTOM
 48
0.3
100
AcDbLine
 10
632.4373218231685
 20
281.2052245797882
 30
0.0
 11
663.5399920666193
 21
281.2052245797882
 31
0.0
  0
ARC
  5
3D57
330
18
100
AcDbEntity
  8
5
  6
PHANTOM
 48
0.3
100
AcDbCircle
 10
663.5399920666193
 20
281.5052245797882
 30
0.0
 40
0.3
100
AcDbArc
 50
270.0
 51
345.2075029585923
  0
ARC
  5
3D58
330
18
100
AcDbEntity
  8
5
  6
PHANTOM
 48
0.3
100
AcDbCircle
 10
663.5399920666193
 20
283.9052245797882
 30
0.0
 40
0.3
100
AcDbArc
 50
14.79249704140763
 51
90.0
  0
ARC
  5
3D59
330
18
100
AcDbEntity
  8
5
  6
PHANTOM
 48
0.3
100
AcDbCircle
 10
658.995764959619
 20
282.7052245797882
 30
0.0
 40
5.0
100
AcDbArc
 50
345.2075029585987
 51
14.79249704140133
  0
LINE
  5
3D5B
330
18
100
AcDbEntity
  8
4
  6
CENTER
 48
0.5
100
AcDbLine
 10
543.9957649596188
 20
337.7052245797881
 30
0.0
 11
543.9957649596188
 21
222.705224579788
 31
0.0
  0
LINE
  5
3D5C
330
18
100
AcDbEntity
  8
4
  6
CENTER
 48
0.5
100
AcDbLine
 10
578.995764959619
 20
174.2052245797881
 30
0.0
 11
578.995764959619
 21
314.2052245797882
 31
0.0
  0
CIRCLE
  5
3D5D
330
18
100
AcDbEntity
  8
1
  6
Continuous
100
AcDbCircle
 10
578.995764959619
 20
244.2052245797881
 30
0.0
 40
65.0
  0
CIRCLE
  5
3D5E
330
18
100
AcDbEntity
  8
1
  6
Continuous
100
AcDbCircle
 10
578.995764959619
 20
244.2052245797881
 30
0.0
 40
59.0
  0
CIRCLE
  5
3D5F
330
18
100
AcDbEntity
  8
1
  6
Continuous
100
AcDbCircle
 10
578.995764959619
 20
244.2052245797881
 30
0.0
 40
58.9
  0
CIRCLE
  5
3D60
330
18
100
AcDbEntity
  8
1
  6
Continuous
100
AcDbCircle
 10
578.995764959619
 20
244.2052245797881
 30
0.0
 40
57.0
  0
LINE
  5
3D61
330
18
100
AcDbEntity
  8
1
  6
Continuous
100
AcDbLine
 10
650.3521423947454
 20
244.553706721529
 30
0.0
 11
640.7039850991544
 21
274.247681594247
 31
0.0
  0
LINE
  5
3D62
330
18
100
AcDbEntity
  8
1
  6
Continuous
100
AcDbLine
 10
637.4013459179844
 20
274.7039558988638
 30
0.0
 11
647.4989728458601
 21
243.626655738404
 31
0.0
  0
LINE
  5
3D63
330
18
100
AcDbEntity
  8
4
  6
CENTER
 48
0.5
100
AcDbLine
 10
648.995764959619
 20
244.2052245797881
 30
0.0
 11
508.995764959619
 21
244.2052245797881
 31
0.0
  0
ARC
  5
3D66
330
18
100
AcDbEntity
  8
1
  6
Continuous
100
AcDbCircle
 10
647.5213142179402
 20
248.4119980316046
 30
0.0
 40
4.999999999999999
100
AcDbArc
 50
273.2075029585971
 51
302.7924970414
  0
ARC
  5
3D67
330
18
100
AcDbEntity
  8
1
  6
Continuous
100
AcDbCircle
 10
647.7842898007486
 20
243.7193608367166
 30
0.0
 40
0.2999999999999999
100
AcDbArc
 50
197.9999999999984
 51
273.2075029585938
  0
ARC
  5
3D68
330
18
100
AcDbEntity
  8
1
  6
Continuous
100
AcDbCircle
 10
650.0668254398568
 20
244.4610016232164
 30
0.0
 40
0.2999999999999999
100
AcDbArc
 50
302.7924970414072
 51
17.99999999999848
  0
LINE
  5
3D6B
330
18
100
AcDbEntity
  8
1
  6
Continuous
100
AcDbLine
 10
576.9957649596189
 20
328.9052245797881
 30
0.0
 11
510.9957649596188
 21
328.9052245797881
 31
0.0
  0
LINE
  5
3D6C
330
18
100
AcDbEntity
  8
1
  6
Continuous
100
AcDbLine
 10
576.9957649596189
 20
332.7052245797881
 30
0.0
 11
510.9957649596188
 21
332.7052245797881
 31
0.0
  0
ARC
  5
3D6E
330
18
100
AcDbEntity
  8
5
  6
PHANTOM
 48
0.3
100
AcDbCircle
 10
615.995764959619
 20
297.0375063779464
 30
0.0
 40
0.9999999999999998
100
AcDbArc
 50
54.99531531885637
 51
115.3792236831982
  0
ARC
  5
3D6F
330
18
100
AcDbEntity
  8
5
  6
PHANTOM
 48
0.3
100
AcDbCircle
 10
578.995764959619
 20
244.2052245797881
 30
0.0
 40
65.49999999999997
100
AcDbArc
 50
38.88337579942175
 51
54.99531531885902
  0
ARC
  5
3D70
330
18
100
AcDbEntity
  8
1
  6
Continuous
100
AcDbCircle
 10
643.5571546480397
 20
275.1747325773719
 30
0.0
 40
2.999999999999998
100
AcDbArc
 50
146.8833757994232
 51
197.9999999999984
  0
ARC
  5
3D71
330
18
100
AcDbEntity
  8
1
  6
Continuous
100
AcDbCircle
 10
640.25451546687
 20
275.6310068819886
 30
0.0
 40
2.999999999999998
100
AcDbArc
 50
145.6391957872441
 51
198.0000000000001
  0
ARC
  5
3D72
330
18
100
AcDbEntity
  8
5
  6
PHANTOM
 48
0.3
100
AcDbCircle
 10
647.2827006314791
 20
273.2052245797882
 30
0.0
 40
7.999999999999997
100
AcDbArc
 50
90.0
 51
177.9746429996168
  0
ARC
  5
3D73
330
18
100
AcDbEntity
  8
1
  6
Continuous
100
AcDbCircle
 10
634.8667413795342
 20
256.6161227401043
 30
0.0
 40
7.999999999999996
100
AcDbArc
 50
17.9999999999995
 51
27.30957586327364
  0
ARC
  5
3D74
330
18
100
AcDbEntity
  8
5
  6
PHANTOM
 48
0.3
100
AcDbCircle
 10
627.2951949531357
 20
273.9120603161466
 30
0.0
 40
11.99999999999999
100
AcDbArc
 50
341.0957026611844
 51
357.9746429996168
  0
ARC
  5
3D75
330
18
100
AcDbEntity
  8
1
  6
Continuous
100
AcDbCircle
 10
586.1842787905811
 20
312.5993650517814
 30
0.0
 40
62.49999999999997
100
AcDbArc
 50
325.6391957872442
 51
342.3609386674189
  0
ARC
  5
3D76
330
18
100
AcDbEntity
  8
1
  6
Continuous
100
AcDbCircle
 10
586.1842787905811
 20
312.5993650517814
 30
0.0
 40
65.49999999999996
100
AcDbArc
 50
326.8833757994205
 51
342.9953153188583
  0
ARC
  5
3D77
330
18
100
AcDbEntity
  8
1
  6
Continuous
100
AcDbCircle
 10
637.7691676220629
 20
292.1237882773979
 30
0.0
 40
6.999999999999996
100
AcDbArc
 50
235.7178886406352
 51
338.3503997152809
  0
ARC
  5
3D78
330
18
100
AcDbEntity
  8
1
  6
Continuous
100
AcDbCircle
 10
646.6987822194708
 20
293.3576168267654
 30
0.0
 40
0.9999999999999996
100
AcDbArc
 50
107.9999999999994
 51
162.3609386674189
  0
LINE
  5
3D79
330
18
100
AcDbEntity
  8
1
  6
Continuous
100
AcDbLine
 10
647.5553764629592
 20
294.6874033923929
 30
0.0
 11
646.3897652250957
 21
294.3086733430607
 31
0.0
  0
ARC
  5
3D7A
330
18
100
AcDbEntity
  8
1
  6
Continuous
100
AcDbCircle
 10
647.8643934573342
 20
293.7363468760978
 30
0.0
 40
0.9999999999999996
100
AcDbArc
 50
342.9953153188583
 51
107.9999999999984
  0
ARC
  5
3D7B
330
18
100
AcDbEntity
  8
1
  6
Continuous
100
AcDbCircle
 10
625.3772694080502
 20
273.945755967669
 30
0.0
 40
14.99999999999999
100
AcDbArc
 50
55.71788864063528
 51
86.98117989156475
  0
ARC
  5
3D7C
330
18
100
AcDbEntity
  8
5
  6
PHANTOM
 48
0.3
100
AcDbCircle
 10
632.3178992004762
 20
287.2052245797882
 30
0.0
 40
2.999999999999998
100
AcDbArc
 50
218.8833757994217
 51
270.0
  0
LINE
  5
3D7D
330
18
100
AcDbEntity
  8
1
  6
Continuous
100
AcDbLine
 10
528.995764959619
 20
314.7052245797882
 30
0.0
 11
528.995764959619
 21
289.2052245797882
 31
0.0
  0
ARC
  5
3D7E
330
18
100
AcDbEntity
  8
1
  6
Continuous
100
AcDbCircle
 10
578.9941888495323
 20
244.2052245797881
 30
0.0
 40
68.0
100
AcDbArc
 50
111.3894833261854
 51
131.6597654460936
  0
LINE
  5
3D7F
330
18
100
AcDbEntity
  8
1
  6
Continuous
100
AcDbLine
 10
533.7941888495325
 20
295.0083740440046
 30
0.0
 11
533.7941888495325
 21
290.9166792333019
 31
0.0
  0
ARC
  5
3D80
330
18
100
AcDbEntity
  8
1
  6
Continuous
100
AcDbCircle
 10
518.9957649596188
 20
289.2052245797882
 30
0.0
 40
10.0
100
AcDbArc
 50
323.1301023541533
 51
359.9999999999967
  0
LINE
  5
3D81
330
18
100
AcDbEntity
  8
1
  6
Continuous
100
AcDbLine
 10
557.995764959619
 20
315.7052245797881
 30
0.0
 11
529.995764959619
 21
315.7052245797881
 31
0.0
  0
LINE
  5
3D82
330
18
100
AcDbEntity
  8
1
  6
Continuous
100
AcDbLine
 10
554.1957649596191
 20
316.2052245797881
 30
0.0
 11
533.7957649596192
 21
316.2052245797881
 31
0.0
  0
LINE
  5
3D83
330
18
100
AcDbEntity
  8
1
  6
Continuous
100
AcDbLine
 10
554.7582605234802
 20
324.2052245797881
 30
0.0
 11
533.2332693957578
 21
324.2052245797881
 31
0.0
  0
LINE
  5
3D84
330
18
100
AcDbEntity
  8
1
  6
Continuous
100
AcDbLine
 10
554.995764959619
 20
317.2052245797881
 30
0.0
 11
554.995764959619
 21
323.2052245797881
 31
0.0
  0
ARC
  5
3D85
330
18
100
AcDbEntity
  8
1
  6
Continuous
100
AcDbCircle
 10
564.9957649596188
 20
313.8112588009676
 30
0.0
 40
6.0
100
AcDbArc
 50
180.0
 51
281.3722824362344
  0
LINE
  5
3D86
330
18
100
AcDbEntity
  8
1
  6
Continuous
100
AcDbLine
 10
554.1941888495323
 20
307.5215731350473
 30
0.0
 11
554.1941888495323
 21
304.2958923159053
 31
0.0
  0
LINE
  5
3D87
330
18
100
AcDbEntity
  8
1
  6
Continuous
100
AcDbLine
 10
558.995764959619
 20
314.7052245797882
 30
0.0
 11
558.995764959619
 21
313.8112588009676
 31
0.0
  0
ARC
  5
3D88
330
18
100
AcDbEntity
  8
1
  6
Continuous
100
AcDbCircle
 10
553.995764959619
 20
317.2052245797881
 30
0.0
 40
1.0
100
AcDbArc
 50
270.0
 51
359.9999999999803
  0
ARC
  5
3D89
330
18
100
AcDbEntity
  8
1
  6
Continuous
100
AcDbCircle
 10
554.1957649596191
 20
315.9052245797882
 30
0.0
 40
0.3
100
AcDbArc
 50
359.9999999999967
 51
89.99999999999676
  0
LINE
  5
3D8A
330
18
100
AcDbEntity
  8
1
  6
Continuous
100
AcDbLine
 10
554.495764959619
 20
315.9052245797882
 30
0.0
 11
554.495764959619
 21
315.7052245797881
 31
0.0
  0
ARC
  5
3D8B
330
18
100
AcDbEntity
  8
1
  6
Continuous
100
AcDbCircle
 10
557.995764959619
 20
314.7052245797882
 30
0.0
 40
1.0
100
AcDbArc
 50
359.9999999999967
 51
89.99999999999676
  0
LINE
  5
3D8C
330
18
100
AcDbEntity
  8
1
  6
Continuous
100
AcDbLine
 10
576.9957649596189
 20
328.9052245797881
 30
0.0
 11
576.9957649596189
 21
332.7052245797881
 31
0.0
  0
LINE
  5
3D8D
330
18
100
AcDbEntity
  8
4
  6
CENTER
 48
0.2
100
AcDbLine
 10
568.9957649596188
 20
336.8052245797882
 30
0.0
 11
568.9957649596188
 21
324.8052245797881
 31
0.0
  0
LINE
  5
3D8E
330
18
100
AcDbEntity
  8
1
  6
Continuous
100
AcDbLine
 10
561.995764959619
 20
328.9052245797881
 30
0.0
 11
557.2700536888421
 21
325.0922043269724
 31
0.0
  0
ARC
  5
3D8F
330
18
100
AcDbEntity
  8
1
  6
Continuous
100
AcDbCircle
 10
554.7582605234802
 20
328.2052245797881
 30
0.0
 40
4.0
100
AcDbArc
 50
270.0
 51
308.898912883845
  0
ARC
  5
3D90
330
18
100
AcDbEntity
  8
1
  6
Continuous
100
AcDbCircle
 10
553.995764959619
 20
323.2052245797881
 30
0.0
 40
1.0
100
AcDbArc
 50
359.9999999999803
 51
89.99999999996417
  0
LINE
  5
3D91
330
18
100
AcDbEntity
  8
1
  6
Continuous
100
AcDbLine
 10
532.995764959619
 20
323.2052245797881
 30
0.0
 11
532.995764959619
 21
317.2052245797881
 31
0.0
  0
ARC
  5
3D92
330
18
100
AcDbEntity
  8
1
  6
Continuous
100
AcDbCircle
 10
533.995764959619
 20
317.2052245797881
 30
0.0
 40
1.0
100
AcDbArc
 50
179.9999999999479
 51
269.9999999999316
  0
ARC
  5
3D93
330
18
100
AcDbEntity
  8
1
  6
Continuous
100
AcDbCircle
 10
533.7957649596192
 20
315.9052245797882
 30
0.0
 40
0.3
100
AcDbArc
 50
90.0
 51
180.0
  0
LINE
  5
3D94
330
18
100
AcDbEntity
  8
1
  6
Continuous
100
AcDbLine
 10
533.495764959619
 20
315.9052245797882
 30
0.0
 11
533.495764959619
 21
315.7052245797881
 31
0.0
  0
ARC
  5
3D95
330
18
100
AcDbEntity
  8
1
  6
Continuous
100
AcDbCircle
 10
529.995764959619
 20
314.7052245797882
 30
0.0
 40
1.0
100
AcDbArc
 50
90.0
 51
180.0
  0
ARC
  5
3D96
330
18
100
AcDbEntity
  8
1
  6
Continuous
100
AcDbCircle
 10
533.2332693957578
 20
328.2052245797881
 30
0.0
 40
4.0
100
AcDbArc
 50
231.1010871161549
 51
270.0
  0
ARC
  5
3D97
330
18
100
AcDbEntity
  8
1
  6
Continuous
100
AcDbCircle
 10
533.995764959619
 20
323.2052245797881
 30
0.0
 40
1.0
100
AcDbArc
 50
89.99999999996417
 51
179.9999999999479
  0
LINE
  5
3D98
330
18
100
AcDbEntity
  8
4
  6
CENTER
 48
0.2
100
AcDbLine
 10
518.9957649596188
 20
324.8052245797881
 30
0.0
 11
518.9957649596188
 21
336.8052245797882
 31
0.0
  0
LINE
  5
3D99
330
18
100
AcDbEntity
  8
1
  6
Continuous
100
AcDbLine
 10
525.995764959619
 20
328.9052245797881
 30
0.0
 11
530.7214762303958
 21
325.0922043269724
 31
0.0
  0
LINE
  5
3D9B
330
18
100
AcDbEntity
  8
1
  6
Continuous
100
AcDbLine
 10
510.9957649596188
 20
332.7052245797881
 30
0.0
 11
510.9957649596188
 21
328.9052245797881
 31
0.0
  0
ARC
  5
3E5B
330
18
100
AcDbEntity
  8
1
  6
Continuous
100
AcDbCircle
 10
294.8504469618672
 20
82.52573640099219
 30
0.0
 40
0.5
100
AcDbArc
 50
270.0
 51
359.9999999999967
  0
ARC
  5
3E5C
330
18
100
AcDbEntity
  8
1
  6
Continuous
100
AcDbCircle
 10
291.8504469618671
 20
90.52573640099227
 30
0.0
 40
3.5
100
AcDbArc
 50
359.9999999999967
 51
89.99999999999673
  0
LINE
  5
3E5D
330
18
100
AcDbEntity
  8
1
  6
Continuous
100
AcDbLine
 10
295.3504469618671
 20
90.52573640099227
 30
0.0
 11
295.3504469618671
 21
82.52573640099219
 31
0.0
  0
ARC
  5
3E5E
330
18
100
AcDbEntity
  8
1
  6
Continuous
100
AcDbCircle
 10
289.5425819629044
 20
96.20853774338129
 30
0.0
 40
2.2
100
AcDbArc
 50
184.8462419553978
 51
260.1834878179066
  0
ARC
  5
3E5F
330
18
100
AcDbEntity
  8
1
  6
Continuous
100
AcDbCircle
 10
289.1504469618671
 20
93.9422124929016
 30
0.0
 40
0.1
100
AcDbArc
 50
56.64074114251454
 51
80.18348781790662
  0
ARC
  5
3E60
330
18
100
AcDbEntity
  8
1
  6
Continuous
100
AcDbCircle
 10
291.8504469618671
 20
51.52573640099205
 30
0.0
 40
3.5
100
AcDbArc
 50
270.0
 51
359.9999999999967
  0
ARC
  5
3E61
330
18
100
AcDbEntity
  8
1
  6
Continuous
100
AcDbCircle
 10
289.5425819629044
 20
45.84293505860308
 30
0.0
 40
2.2
100
AcDbArc
 50
99.81651218209336
 51
175.1537580446021
  0
ARC
  5
3E62
330
18
100
AcDbEntity
  8
1
  6
Continuous
100
AcDbCircle
 10
289.1504469618671
 20
48.10926030908275
 30
0.0
 40
0.1
100
AcDbArc
 50
279.8165121820902
 51
303.3592588574827
  0
ARC
  5
3E63
330
18
100
AcDbEntity
  8
1
  6
Continuous
100
AcDbCircle
 10
294.8504469618672
 20
59.52573640099217
 30
0.0
 40
0.5
100
AcDbArc
 50
359.9999999999967
 51
89.99999999999673
  0
LINE
  5
3E64
330
18
100
AcDbEntity
  8
1
  6
Continuous
100
AcDbLine
 10
295.3504469618671
 20
51.52573640099205
 30
0.0
 11
295.3504469618671
 21
59.52573640099217
 31
0.0
  0
ARC
  5
3E65
330
18
100
AcDbEntity
  8
1
  6
Continuous
100
AcDbCircle
 10
244.3504469618671
 20
60.91047617323181
 30
0.0
 40
2.0
100
AcDbArc
 50
180.0
 51
206.2551872312301
  0
LINE
  5
3E66
330
18
100
AcDbEntity
  8
1
  6
Continuous
100
AcDbLine
 10
242.3504469618671
 20
60.91047617323181
 30
0.0
 11
242.3504469618671
 21
61.52573640099217
 31
0.0
  0
ARC
  5
3E67
330
18
100
AcDbEntity
  8
1
  6
Continuous
100
AcDbCircle
 10
244.3504469618671
 20
81.14099662875242
 30
0.0
 40
2.0
100
AcDbArc
 50
153.7448127687698
 51
180.0
  0
LINE
  5
3E68
330
18
100
AcDbEntity
  8
1
  6
Continuous
100
AcDbLine
 10
242.3504469618671
 20
81.14099662875242
 30
0.0
 11
242.3504469618671
 21
80.52573640099216
 31
0.0
  0
LINE
  5
3E69
330
18
100
AcDbEntity
  8
1
  6
Continuous
100
AcDbLine
 10
232.3504469618674
 20
96.02267721172609
 30
0.0
 11
232.3504469618674
 21
99.0257364009922
 31
0.0
  0
ARC
  5
3E6A
330
18
100
AcDbEntity
  8
1
  6
Continuous
100
AcDbCircle
 10
289.0069439618671
 20
47.3692394009921
 30
0.0
 40
3.1
100
AcDbArc
 50
205.6200449797203
 51
225.0000000000598
  0
LINE
  5
3EC3
330
18
100
AcDbEntity
  8
1
  6
Continuous
100
AcDbLine
 10
413.1731059607431
 20
244.2052245797881
 30
0.0
 11
396.1731059607432
 21
244.2052245797881
 31
0.0
  0
ARC
  5
3EC4
330
18
100
AcDbEntity
  8
1
  6
Continuous
100
AcDbCircle
 10
396.1731059607432
 20
245.2052245797881
 30
0.0
 40
1.0
100
AcDbArc
 50
180.0000000000032
 51
270.0
  0
ARC
  5
3EC5
330
18
100
AcDbEntity
  8
1
  6
Continuous
100
AcDbCircle
 10
413.1731059607431
 20
245.2052245797881
 30
0.0
 40
1.0
100
AcDbArc
 50
270.0
 51
0.000000000000007
  0
LINE
  5
3EC6
330
18
100
AcDbEntity
  8
1
  6
Continuous
100
AcDbLine
 10
413.1731059607431
 20
229.205224579788
 30
0.0
 11
396.1731059607432
 21
229.205224579788
 31
0.0
  0
LINE
  5
3EC7
330
18
100
AcDbEntity
  8
1
  6
Continuous
100
AcDbLine
 10
413.6731059607432
 20
231.7052245797881
 30
0.0
 11
395.6731059607432
 21
231.7052245797881
 31
0.0
  0
LINE
  5
3EC8
330
18
100
AcDbEntity
  8
1
  6
Continuous
100
AcDbLine
 10
394.6731059607432
 20
259.705224579788
 30
0.0
 11
394.6731059607432
 21
232.705224579788
 31
0.0
  0
LINE
  5
3EC9
330
18
100
AcDbEntity
  8
1
  6
Continuous
100
AcDbLine
 10
414.6731059607433
 20
259.705224579788
 30
0.0
 11
414.673105960743
 21
232.705224579788
 31
0.0
  0
LINE
  5
3ECA
330
18
100
AcDbEntity
  8
1
  6
Continuous
100
AcDbLine
 10
414.6731059607433
 20
259.705224579788
 30
0.0
 11
414.1731059607431
 21
259.705224579788
 31
0.0
  0
ARC
  5
3ECC
330
18
100
AcDbEntity
  8
1
  6
Continuous
100
AcDbCircle
 10
395.6731059607432
 20
232.705224579788
 30
0.0
 40
1.0
100
AcDbArc
 50
180.0
 51
270.0
  0
ARC
  5
3ECD
330
18
100
AcDbEntity
  8
1
  6
Continuous
100
AcDbCircle
 10
413.6731059607432
 20
232.705224579788
 30
0.0
 40
1.0
100
AcDbArc
 50
270.0
 51
359.9999999999996
  0
LINE
  5
3ECE
330
18
100
AcDbEntity
  8
1
  6
Continuous
100
AcDbLine
 10
395.1731059607432
 20
259.705224579788
 30
0.0
 11
394.6731059607432
 21
259.705224579788
 31
0.0
  0
LINE
  5
3ECF
330
18
100
AcDbEntity
  8
1
  6
Continuous
100
AcDbLine
 10
395.1731059607432
 20
245.2052245797881
 30
0.0
 11
395.1731059607432
 21
295.0083740440044
 31
0.0
  0
LINE
  5
3ED0
330
18
100
AcDbEntity
  8
1
  6
Continuous
100
AcDbLine
 10
414.1731059607431
 20
231.8391991760035
 30
0.0
 11
414.1731059607431
 21
228.705224579788
 31
0.0
  0
ARC
  5
3ED1
330
18
100
AcDbEntity
  8
1
  6
Continuous
100
AcDbCircle
 10
396.1731059607432
 20
230.205224579788
 30
0.0
 40
1.0
100
AcDbArc
 50
180.0000000000032
 51
270.0
  0
ARC
  5
3ED2
330
18
100
AcDbEntity
  8
1
  6
Continuous
100
AcDbCircle
 10
413.1731059607431
 20
230.205224579788
 30
0.0
 40
1.0
100
AcDbArc
 50
270.0
 51
0.000000000000007
  0
LINE
  5
3ED3
330
18
100
AcDbEntity
  8
1
  6
Continuous
100
AcDbLine
 10
406.673105960743
 20
237.205224579788
 30
0.0
 11
402.673105960743
 21
237.205224579788
 31
0.0
  0
LINE
  5
3ED4
330
18
100
AcDbEntity
  8
1
  6
Continuous
100
AcDbLine
 10
295.3504469618676
 20
80.02573640099219
 30
0.0
 11
295.3504469618677
 21
62.02573640099222
 31
0.0
  0
ARC
  5
3ED5
330
18
100
AcDbEntity
  8
1
  6
Continuous
100
AcDbCircle
 10
294.8504469618677
 20
80.02573640099219
 30
0.0
 40
0.5
100
AcDbArc
 50
0.0
 51
90.0
  0
ARC
  5
3ED6
330
18
100
AcDbEntity
  8
1
  6
Continuous
100
AcDbCircle
 10
294.8504469618677
 20
62.02573640099222
 30
0.0
 40
0.5
100
AcDbArc
 50
270.0
 51
359.9999999999998
  0
LINE
  5
3ED7
330
18
100
AcDbEntity
  8
1
  6
Continuous
100
AcDbLine
 10
293.3504469618677
 20
80.02573640099219
 30
0.0
 11
293.3504469618677
 21
62.02573640099222
 31
0.0
  0
ARC
  5
3ED8
330
18
100
AcDbEntity
  8
1
  6
Continuous
100
AcDbCircle
 10
293.8504469618674
 20
62.02573640099222
 30
0.0
 40
0.5
100
AcDbArc
 50
180.0000000000001
 51
269.9999999999999
  0
ARC
  5
3ED9
330
18
100
AcDbEntity
  8
1
  6
Continuous
100
AcDbCircle
 10
293.8504469618676
 20
80.02573640099219
 30
0.0
 40
0.5
100
AcDbArc
 50
90.0
 51
180.0
  0
LINE
  5
3EDA
330
18
100
AcDbEntity
  8
1
  6
Continuous
100
AcDbLine
 10
275.148405933
 20
69.02573640099229
 30
0.0
 11
293.3504469618677
 21
69.0257364009924
 31
0.0
  0
LINE
  5
3EDB
330
18
100
AcDbEntity
  8
1
  6
Continuous
100
AcDbLine
 10
275.148405933
 20
73.0257364009923
 30
0.0
 11
293.3504469618677
 21
73.0257364009924
 31
0.0
  0
ARC
  5
3EDC
330
18
100
AcDbEntity
  8
1
  6
Continuous
100
AcDbCircle
 10
165.8504469618669
 20
80.02573640099219
 30
0.0
 40
0.5
100
AcDbArc
 50
90.0
 51
180.0
  0
LINE
  5
3EDD
330
18
100
AcDbEntity
  8
1
  6
Continuous
100
AcDbLine
 10
165.3504469618669
 20
80.02573640099219
 30
0.0
 11
165.3504469618668
 21
62.02573640099222
 31
0.0
  0
ARC
  5
3EDE
330
18
100
AcDbEntity
  8
1
  6
Continuous
100
AcDbCircle
 10
165.8504469618668
 20
62.02573640099222
 30
0.0
 40
0.5
100
AcDbArc
 50
180.0000000000001
 51
269.9999999999999
  0
LINE
  5
3EE2
330
18
100
AcDbEntity
  8
1
  6
Continuous
100
AcDbLine
 10
167.4795474931945
 20
80.02573640099219
 30
0.0
 11
167.4795474931944
 21
62.02573640099227
 31
0.0
  0
ARC
  5
3EE3
330
18
100
AcDbEntity
  8
1
  6
Continuous
100
AcDbCircle
 10
167.9795474931944
 20
62.02573640099227
 30
0.0
 40
0.5
100
AcDbArc
 50
180.0000000000001
 51
269.9999999999999
  0
ARC
  5
3EE4
330
18
100
AcDbEntity
  8
1
  6
Continuous
100
AcDbCircle
 10
167.9795474931945
 20
80.02573640099219
 30
0.0
 40
0.5
100
AcDbArc
 50
90.0
 51
180.0
  0
LINE
  5
3EE5
330
18
100
AcDbEntity
  8
1
  6
Continuous
100
AcDbLine
 10
247.3504469618676
 20
80.02573640099219
 30
0.0
 11
247.3504469618675
 21
62.02573640099222
 31
0.0
  0
LINE
  5
3EE6
330
18
100
AcDbEntity
  8
1
  6
Continuous
100
AcDbLine
 10
213.3504469618676
 20
80.52573640099216
 30
0.0
 11
213.3504469618675
 21
61.52573640099217
 31
0.0
  0
LINE
  5
3EE7
330
18
100
AcDbEntity
  8
1
  6
Continuous
100
AcDbLine
 10
294.8504469618677
 20
61.52573640099229
 30
0.0
 11
268.4729459610663
 21
61.52573640099229
 31
0.0
  0
ARC
  5
3EE9
330
18
100
AcDbEntity
  8
1
  6
Continuous
100
AcDbCircle
 10
246.8504469618676
 20
80.02573640099219
 30
0.0
 40
0.5
100
AcDbArc
 50
359.9999999999996
 51
90.0
  0
ARC
  5
3EEA
330
18
100
AcDbEntity
  8
1
  6
Continuous
100
AcDbCircle
 10
246.8504469618675
 20
62.02573640099222
 30
0.0
 40
0.5
100
AcDbArc
 50
270.0000000000001
 51
0.0
  0
LINE
  5
3EEB
330
18
100
AcDbEntity
  8
1
  6
Continuous
100
AcDbLine
 10
211.8504469618676
 20
80.52573640099216
 30
0.0
 11
211.8504469618675
 21
61.52573640099217
 31
0.0
  0
LINE
  5
3EEE
330
18
100
AcDbEntity
  8
1
  6
Continuous
100
AcDbLine
 10
253.850446961867
 20
77.02573640099223
 30
0.0
 11
253.8504469618669
 21
73.0257364009923
 31
0.0
  0
LINE
  5
3EEF
330
18
100
AcDbEntity
  8
1
  6
Continuous
100
AcDbLine
 10
257.3504469618672
 20
73.0257364009923
 30
0.0
 11
257.3504469618673
 21
69.02573640099229
 31
0.0
  0
LINE
  5
3EF0
330
18
100
AcDbEntity
  8
1
  6
Continuous
100
AcDbLine
 10
253.850446961867
 20
73.0257364009923
 30
0.0
 11
257.3504469618672
 21
73.0257364009923
 31
0.0
  0
LINE
  5
3EF1
330
18
100
AcDbEntity
  8
1
  6
Continuous
100
AcDbLine
 10
253.8504469618669
 20
69.02573640099229
 30
0.0
 11
257.3504469618673
 21
69.02573640099229
 31
0.0
  0
LINE
  5
3EF2
330
18
100
AcDbEntity
  8
1
  6
Continuous
100
AcDbLine
 10
247.3504469618675
 20
77.02573640099227
 30
0.0
 11
253.850446961867
 21
77.02573640099223
 31
0.0
  0
LINE
  5
3EF3
330
18
100
AcDbEntity
  8
1
  6
Continuous
100
AcDbLine
 10
247.3504469618675
 20
65.02573640099227
 30
0.0
 11
253.8504469618669
 21
65.02573640099227
 31
0.0
  0
LINE
  5
3EF4
330
18
100
AcDbEntity
  8
1
  6
Continuous
100
AcDbLine
 10
253.8504469618669
 20
69.02573640099229
 30
0.0
 11
253.8504469618669
 21
65.02573640099227
 31
0.0
  0
LINE
  5
3EF5
330
18
100
AcDbEntity
  8
1
  6
Continuous
100
AcDbLine
 10
257.0080301692184
 20
65.51174673308992
 30
0.0
 11
258.2793791500016
 21
66.78309571387297
 31
0.0
  0
LINE
  5
3EF6
330
18
100
AcDbEntity
  8
1
  6
Continuous
100
AcDbLine
 10
259.8364572939646
 20
62.68331960834377
 30
0.0
 11
261.107806274748
 21
63.95466858912686
 31
0.0
  0
LINE
  5
3EF7
330
18
100
AcDbEntity
  8
1
  6
Continuous
100
AcDbLine
 10
258.2793791500016
 20
66.78309571387297
 30
0.0
 11
261.107806274748
 21
63.95466858912686
 31
0.0
  0
LINE
  5
3EF8
330
18
100
AcDbEntity
  8
1
  6
Continuous
100
AcDbLine
 10
263.3504469618673
 20
61.22777742985954
 30
0.0
 11
263.3504469618671
 21
63.02573640099229
 31
0.0
  0
LINE
  5
3EF9
330
18
100
AcDbEntity
  8
1
  6
Continuous
100
AcDbLine
 10
267.3504469618673
 20
61.2277774298596
 30
0.0
 11
267.3504469618671
 21
63.0257364009924
 31
0.0
  0
LINE
  5
3EFA
330
18
100
AcDbEntity
  8
1
  6
Continuous
100
AcDbLine
 10
263.3504469618671
 20
63.02573640099229
 30
0.0
 11
267.3504469618671
 21
63.0257364009924
 31
0.0
  0
LINE
  5
3EFB
330
18
100
AcDbEntity
  8
1
  6
Continuous
100
AcDbLine
 10
270.8644366297695
 20
62.68331960834365
 30
0.0
 11
269.5930876489865
 21
63.95466858912675
 31
0.0
  0
LINE
  5
3EFC
330
18
100
AcDbEntity
  8
1
  6
Continuous
100
AcDbLine
 10
273.6928637545157
 20
65.51174673308981
 30
0.0
 11
272.4215147737325
 21
66.78309571387308
 31
0.0
  0
LINE
  5
3EFD
330
18
100
AcDbEntity
  8
1
  6
Continuous
100
AcDbLine
 10
269.5930876489865
 20
63.95466858912675
 30
0.0
 11
272.4215147737325
 21
66.78309571387308
 31
0.0
  0
LINE
  5
3EFE
330
18
100
AcDbEntity
  8
1
  6
Continuous
100
AcDbLine
 10
275.148405933
 20
69.02573640099229
 30
0.0
 11
273.3504469618671
 21
69.02573640099229
 31
0.0
  0
LINE
  5
3EFF
330
18
100
AcDbEntity
  8
1
  6
Continuous
100
AcDbLine
 10
275.148405933
 20
73.0257364009923
 30
0.0
 11
273.3504469618671
 21
73.0257364009923
 31
0.0
  0
LINE
  5
3F00
330
18
100
AcDbEntity
  8
1
  6
Continuous
100
AcDbLine
 10
273.3504469618671
 20
69.02573640099229
 30
0.0
 11
273.3504469618671
 21
73.0257364009923
 31
0.0
  0
LINE
  5
3F01
330
18
100
AcDbEntity
  8
1
  6
Continuous
100
AcDbLine
 10
273.6928637545157
 20
76.53972606889476
 30
0.0
 11
272.4215147737327
 21
75.26837708811149
 31
0.0
  0
LINE
  5
3F02
330
18
100
AcDbEntity
  8
1
  6
Continuous
100
AcDbLine
 10
270.8644366297695
 20
79.36815319364086
 30
0.0
 11
269.5930876489863
 21
78.09680421285759
 31
0.0
  0
LINE
  5
3F03
330
18
100
AcDbEntity
  8
1
  6
Continuous
100
AcDbLine
 10
272.4215147737327
 20
75.26837708811149
 30
0.0
 11
269.5930876489863
 21
78.09680421285759
 31
0.0
  0
LINE
  5
3F04
330
18
100
AcDbEntity
  8
1
  6
Continuous
100
AcDbLine
 10
267.3504469618673
 20
80.82369537212498
 30
0.0
 11
267.3504469618671
 21
79.0257364009923
 31
0.0
  0
LINE
  5
3F05
330
18
100
AcDbEntity
  8
1
  6
Continuous
100
AcDbLine
 10
263.3504469618673
 20
80.82369537212503
 30
0.0
 11
263.3504469618671
 21
79.02573640099217
 31
0.0
  0
LINE
  5
3F06
330
18
100
AcDbEntity
  8
1
  6
Continuous
100
AcDbLine
 10
267.3504469618671
 20
79.0257364009923
 30
0.0
 11
263.3504469618671
 21
79.02573640099217
 31
0.0
  0
LINE
  5
3F07
330
18
100
AcDbEntity
  8
1
  6
Continuous
100
AcDbLine
 10
259.8364572939646
 20
79.36815319364081
 30
0.0
 11
261.1078062747478
 21
78.0968042128578
 31
0.0
  0
LINE
  5
3F08
330
18
100
AcDbEntity
  8
1
  6
Continuous
100
AcDbLine
 10
257.0080301692186
 20
76.53972606889465
 30
0.0
 11
258.2793791500017
 21
75.26837708811149
 31
0.0
  0
LINE
  5
3F09
330
18
100
AcDbEntity
  8
1
  6
Continuous
100
AcDbLine
 10
261.1078062747478
 20
78.0968042128578
 30
0.0
 11
258.2793791500017
 21
75.26837708811149
 31
0.0
  0
ARC
  5
3F12
330
18
100
AcDbEntity
  8
1
  6
Continuous
100
AcDbCircle
 10
265.3504469618671
 20
71.0257364009923
 30
0.0
 40
9.999999999999991
100
AcDbArc
 50
191.5369590328156
 51
168.4630409671846
  0
LINE
  5
3F13
330
18
100
AcDbEntity
  8
1
  6
Continuous
100
AcDbLine
 10
270.3504469618674
 20
68.13898505504403
 30
0.0
 11
270.3504469618672
 21
73.91248774694044
 31
0.0
  0
LINE
  5
3F14
330
18
100
AcDbEntity
  8
1
  6
Continuous
100
AcDbLine
 10
260.350446961867
 20
68.13898505504424
 30
0.0
 11
260.3504469618671
 21
73.91248774694044
 31
0.0
  0
LINE
  5
3F17
330
18
100
AcDbEntity
  8
1
  6
Continuous
100
AcDbLine
 10
270.3504469618674
 20
73.91248774694066
 30
0.0
 11
265.3504469618671
 21
76.79923909288868
 31
0.0
  0
LINE
  5
3F18
330
18
100
AcDbEntity
  8
1
  6
Continuous
100
AcDbLine
 10
265.350446961867
 20
65.25223370909611
 30
0.0
 11
260.350446961867
 21
68.13898505504424
 31
0.0
  0
LINE
  5
3F19
330
18
100
AcDbEntity
  8
1
  6
Continuous
100
AcDbLine
 10
265.3504469618669
 20
76.79923909288891
 30
0.0
 11
260.3504469618669
 21
73.91248774694054
 31
0.0
  0
LINE
  5
3F1A
330
18
100
AcDbEntity
  8
1
  6
Continuous
100
AcDbLine
 10
270.3504469618668
 20
68.13898505504415
 30
0.0
 11
265.3504469618668
 21
65.25223370909611
 31
0.0
  0
CIRCLE
  5
3F21
330
18
100
AcDbEntity
  8
1
  6
Continuous
100
AcDbCircle
 10
265.3504469618671
 20
71.0257364009923
 30
0.0
 40
5.000000000000113
  0
CIRCLE
  5
3F22
330
18
100
AcDbEntity
  8
1
  6
Continuous
100
AcDbCircle
 10
265.3504469618671
 20
71.0257364009923
 30
0.0
 40
3.500000000000113
  0
LINE
  5
3F23
330
18
100
AcDbEntity
  8
1
  6
Continuous
100
AcDbLine
 10
268.4729459610666
 20
80.52573640099216
 30
0.0
 11
294.8504469618677
 21
80.52573640099216
 31
0.0
  0
LINE
  5
3F24
330
18
100
AcDbEntity
  8
1
  6
Continuous
100
AcDbLine
 10
262.227947962668
 20
61.52573640099229
 30
0.0
 11
159.9793864816293
 21
61.52573640099205
 31
0.0
  0
LINE
  5
3F53
330
18
100
AcDbEntity
  8
1
  6
Continuous
100
AcDbLine
 10
402.673105960743
 20
231.7052245797881
 30
0.0
 11
402.673105960743
 21
237.205224579788
 31
0.0
  0
LINE
  5
3F54
330
18
100
AcDbEntity
  8
1
  6
Continuous
100
AcDbLine
 10
406.673105960743
 20
231.7052245797881
 30
0.0
 11
406.673105960743
 21
237.205224579788
 31
0.0
  0
LINE
  5
3F55
330
18
100
AcDbEntity
  8
1
  6
Continuous
100
AcDbLine
 10
399.1591162928407
 20
231.7052245797881
 30
0.0
 11
399.1591162928407
 21
237.205224579788
 31
0.0
  0
LINE
  5
3F56
330
18
100
AcDbEntity
  8
1
  6
Continuous
100
AcDbLine
 10
396.3306891680945
 20
231.7052245797881
 30
0.0
 11
396.3306891680945
 21
237.205224579788
 31
0.0
  0
LINE
  5
3F58
330
18
100
AcDbEntity
  8
1
  6
Continuous
100
AcDbLine
 10
399.1591162928407
 20
237.205224579788
 30
0.0
 11
396.3306891680945
 21
237.205224579788
 31
0.0
  0
LINE
  5
3F59
330
18
100
AcDbEntity
  8
1
  6
Continuous
100
AcDbLine
 10
410.1870956286457
 20
237.205224579788
 30
0.0
 11
413.0155227533918
 21
237.205224579788
 31
0.0
  0
LINE
  5
3F5A
330
18
100
AcDbEntity
  8
1
  6
Continuous
100
AcDbLine
 10
413.0155227533918
 20
231.7052245797881
 30
0.0
 11
413.0155227533918
 21
237.205224579788
 31
0.0
  0
LINE
  5
3F5B
330
18
100
AcDbEntity
  8
1
  6
Continuous
100
AcDbLine
 10
410.1870956286457
 20
231.7052245797881
 30
0.0
 11
410.1870956286457
 21
237.205224579788
 31
0.0
  0
ENDSEC
  0
SECTION
  2
OBJECTS
  0
DICTIONARY
  5
C
330
0
100
AcDbDictionary
281
     1
  3
ACAD_CIP_PREVIOUS_PRODUCT_INFO
350
49D2
  3
ACAD_COLOR
350
49B5
  3
ACAD_DETAILVIEWSTYLE
350
49CE
  3
ACAD_GROUP
350
D
  3
ACAD_LAYOUT
350
94
  3
ACAD_MATERIAL
350
4983
  3
ACAD_MLEADERSTYLE
350
49CA
  3
ACAD_MLINESTYLE
350
1B
  3
ACAD_PLOTSETTINGS
350
95
  3
ACAD_PLOTSTYLENAME
350
4981
  3
ACAD_SCALELIST
350
49B8
  3
ACAD_SECTIONVIEWSTYLE
350
49CC
  3
ACAD_TABLESTYLE
350
49B6
  3
ACAD_VISUALSTYLE
350
499C
  3
ACDB_RECOMPOSE_DATA
350
4A45
  3
AcDbVariableDictionary
350
49F5
  3
CONTENTDICTIONARY
350
3D
  3
DWGPROPS
350
4A46
  0
DICTIONARY
  5
49E5
330
E
100
AcDbDictionary
280
     1
281
     1
  3
ADSK_XREC_LAYER_RECONCILED
360
49E6
  0
DICTIONARY
  5
49E7
330
4E
100
AcDbDictionary
280
     1
281
     1
  3
ADSK_XREC_LAYER_RECONCILED
360
49E8
  0
DICTIONARY
  5
49E9
330
4F
100
AcDbDictionary
280
     1
281
     1
  3
ADSK_XREC_LAYER_RECONCILED
360
49EA
  0
DICTIONARY
  5
49EB
330
50
100
AcDbDictionary
280
     1
281
     1
  3
ADSK_XREC_LAYER_RECONCILED
360
49EC
  0
DICTIONARY
  5
49ED
330
51
100
AcDbDictionary
280
     1
281
     1
  3
ADSK_XREC_LAYER_RECONCILED
360
49EE
  0
DICTIONARY
  5
49EF
330
52
100
AcDbDictionary
280
     1
281
     1
  3
ADSK_XREC_LAYER_RECONCILED
360
49F0
  0
DICTIONARY
  5
49F1
330
53
100
AcDbDictionary
280
     1
281
     1
  3
ADSK_XREC_LAYER_RECONCILED
360
49F2
  0
DICTIONARY
  5
49F3
330
54
100
AcDbDictionary
280
     1
281
     1
  3
ADSK_XREC_LAYER_RECONCILED
360
49F4
  0
DICTIONARY
  5
497C
330
18
100
AcDbDictionary
281
     1
  3
ACAD_LAYOUTSELFREF
350
497D
  0
DICTIONARY
  5
497A
330
15
100
AcDbDictionary
281
     1
  3
ACAD_LAYOUTSELFREF
350
497B
  0
XRECORD
  5
49D2
102
{ACAD_REACTORS
330
C
102
}
330
C
100
AcDbXrecord
280
     1
300
ACDLT
300
2014
300
ACDLT_F_S
  0
DICTIONARY
  5
49B5
102
{ACAD_REACTORS
330
C
102
}
330
C
100
AcDbDictionary
281
     1
  0
DICTIONARY
  5
49CE
102
{ACAD_REACTORS
330
C
102
}
330
C
100
AcDbDictionary
281
     1
  3
Imperial24
350
49CF
  0
DICTIONARY
  5
D
102
{ACAD_REACTORS
330
C
102
}
330
C
100
AcDbDictionary
281
     1
  0
DICTIONARY
  5
94
102
{ACAD_REACTORS
330
C
102
}
330
C
100
AcDbDictionary
281
     1
  3
Model
350
49D0
  3
レイアウト1
350
49D1
  0
DICTIONARY
  5
4983
102
{ACAD_REACTORS
330
C
102
}
330
C
100
AcDbDictionary
281
     1
  3
ByBlock
350
498C
  3
ByLayer
350
4984
  3
Global
350
4994
  0
DICTIONARY
  5
49CA
102
{ACAD_REACTORS
330
C
102
}
330
C
100
AcDbDictionary
281
     1
  3
Standard
350
49CB
  0
DICTIONARY
  5
1B
102
{ACAD_REACTORS
330
C
102
}
330
C
100
AcDbDictionary
281
     1
  3
STANDARD
350
1C
  0
DICTIONARY
  5
95
102
{ACAD_REACTORS
330
C
102
}
330
C
100
AcDbDictionary
281
     1
  0
ACDBDICTIONARYWDFLT
  5
4981
102
{ACAD_REACTORS
330
C
102
}
330
C
100
AcDbDictionary
281
     1
  3
Normal
350
4982
100
AcDbDictionaryWithDefault
340
4982
  0
DICTIONARY
  5
49B8
102
{ACAD_REACTORS
330
C
102
}
330
C
100
AcDbDictionary
281
     1
  3
A0
350
49B9
  3
A1
350
49BA
  3
A2
350
49BB
  3
A3
350
49BC
  3
A4
350
49BD
  3
A5
350
49BE
  3
A6
350
49BF
  3
A7
350
49C0
  3
A8
350
49C1
  3
A9
350
49C2
  3
B0
350
49C3
  3
B1
350
49C4
  3
B2
350
49C5
  3
B3
350
49C6
  3
B4
350
49C7
  3
B5
350
49C8
  3
B6
350
49C9
  0
DICTIONARY
  5
49CC
102
{ACAD_REACTORS
330
C
102
}
330
C
100
AcDbDictionary
281
     1
  3
Imperial24
350
49CD
  0
DICTIONARY
  5
49B6
102
{ACAD_REACTORS
330
C
102
}
330
C
100
AcDbDictionary
281
     1
  3
Standard
350
49B7
  0
DICTIONARY
  5
499C
102
{ACAD_REACTORS
330
C
102
}
330
C
100
AcDbDictionary
281
     1
  3
2dWireframe
350
49A2
  3
Basic
350
49A1
  3
Brighten
350
49A8
  3
ColorChange
350
49AC
  3
Conceptual
350
49A5
  3
Dim
350
49A7
  3
EdgeColorOff
350
49B4
  3
Facepattern
350
49AB
  3
Flat
350
499D
  3
FlatWithEdges
350
499E
  3
Gouraud
350
499F
  3
GouraudWithEdges
350
49A0
  3
Hidden
350
49A4
  3
JitterOff
350
49B2
  3
Linepattern
350
49AA
  3
OverhangOff
350
49B3
  3
Realistic
350
49A6
  3
Shaded
350
49B1
  3
Shaded with edges
350
49B0
  3
Shades of Gray
350
49AD
  3
Sketchy
350
49AE
  3
Thicken
350
49A9
  3
Wireframe
350
49A3
  3
X-Ray
350
49AF
  0
XRECORD
  5
4A45
102
{ACAD_REACTORS
330
C
102
}
330
C
100
AcDbXrecord
280
     1
 90
        1
330
49B7
  0
DICTIONARY
  5
49F5
102
{ACAD_REACTORS
330
C
102
}
330
C
100
AcDbDictionary
281
     1
  3
CANNOSCALE
350
49FA
  3
CMLEADERSTYLE
350
49F7
  3
CTABLESTYLE
350
49F6
  3
CVIEWDETAILSTYLE
350
49F8
  3
CVIEWSECTIONSTYLE
350
49F9
  3
DIMASSOC
350
49FD
  3
INDEXCTL
350
49FC
  3
SORTENTS
350
49FB
  3
XCLIPFRAME
350
4A43
  0
DICTIONARY
  5
3D
102
{ACAD_REACTORS
330
C
102
}
330
C
100
AcDbDictionary
281
     1
  0
XRECORD
  5
4A46
102
{ACAD_REACTORS
330
C
102
}
330
C
100
AcDbXrecord
280
     1
  1
DWGPROPS COOKIE
  2

  3

  4

  6

  7

  8
Yoshitsune
  9

300
=
301
=
302
=
303
=
304
=
305
=
306
=
307
=
308
=
309
=
 40
0.3752704166666667
 41
2454525.614958576
 42
2457192.691779306
  1

 90
        0
  0
XRECORD
  5
49E6
102
{ACAD_REACTORS
330
49E5
102
}
330
49E5
100
AcDbXrecord
280
     1
290
     1
  0
XRECORD
  5
49E8
102
{ACAD_REACTORS
330
49E7
102
}
330
49E7
100
AcDbXrecord
280
     1
290
     1
  0
XRECORD
  5
49EA
102
{ACAD_REACTORS
330
49E9
102
}
330
49E9
100
AcDbXrecord
280
     1
290
     1
  0
XRECORD
  5
49EC
102
{ACAD_REACTORS
330
49EB
102
}
330
49EB
100
AcDbXrecord
280
     1
290
     1
  0
XRECORD
  5
49EE
102
{ACAD_REACTORS
330
49ED
102
}
330
49ED
100
AcDbXrecord
280
     1
290
     1
  0
XRECORD
  5
49F0
102
{ACAD_REACTORS
330
49EF
102
}
330
49EF
100
AcDbXrecord
280
     1
290
     1
  0
XRECORD
  5
49F2
102
{ACAD_REACTORS
330
49F1
102
}
330
49F1
100
AcDbXrecord
280
     1
290
     1
  0
XRECORD
  5
49F4
102
{ACAD_REACTORS
330
49F3
102
}
330
49F3
100
AcDbXrecord
280
     1
290
     1
  0
XRECORD
  5
497D
102
{ACAD_REACTORS
330
497C
102
}
330
497C
100
AcDbXrecord
280
     1
340
18
  0
XRECORD
  5
497B
102
{ACAD_REACTORS
330
497A
102
}
330
497A
100
AcDbXrecord
280
     1
340
15
  0
ACDBDETAILVIEWSTYLE
  5
49CF
102
{ACAD_XDICTIONARY
360
4A7A
102
}
102
{ACAD_REACTORS
330
49CE
102
}
330
49CE
100
AcDbModelDocViewStyle
 70
     0
  3
Imperial24
290
     0
100
AcDbDetailViewStyle
 70
     0
 71
     0
 90
        3
 71
     1
340
F
 40
0.24
340
0
 40
0.24
300

 40
0.36
280
     3
 71
     2
340
14
 90
       25
 71
     3
340
F
 40
0.24
 90
        1
 40
0.75
 90
        1
300
%<\AcVar ViewType \f "%tc1">% %<\AcVar ViewDetailId>%\PSCALE %<\AcVar ViewScale \f "%sn">%
 71
     4
340
14
 90
       25
340
14
 90
       25
280
     0
  0
LAYOUT
  5
49D0
102
{ACAD_XDICTIONARY
360
4A7C
102
}
102
{ACAD_REACTORS
330
94
102
}
330
94
100
AcDbPlotSettings
  1

  2
Canon LBP9100C
  4

  6

 40
0.0
 41
0.0
 42
0.0
 43
0.0
 44
0.0
 45
0.0
 46
0.0
 47
0.0
 48
0.0
 49
0.0
140
0.0
141
0.0
142
1.0
143
1.0
 70
  1712
 72
     0
 73
     0
 74
     0
  7

 75
     0
147
1.0
148
0.0
149
0.0
100
AcDbLayout
  1
Model
 70
     1
 71
     0
 10
0.0
 20
0.0
 11
12.0
 21
9.0
 12
0.0
 22
0.0
 32
0.0
 14
0.0
 24
0.0
 34
0.0
 15
0.0
 25
0.0
 35
0.0
146
0.0
 13
0.0
 23
0.0
 33
0.0
 16
1.0
 26
0.0
 36
0.0
 17
0.0
 27
1.0
 37
0.0
 76
     0
330
18
331
4979
  0
LAYOUT
  5
49D1
102
{ACAD_XDICTIONARY
360
4A7E
102
}
102
{ACAD_REACTORS
330
94
102
}
330
94
100
AcDbPlotSettings
  1

  2
Canon LBP9100C
  4

  6

 40
0.0
 41
0.0
 42
0.0
 43
0.0
 44
0.0
 45
0.0
 46
0.0
 47
0.0
 48
0.0
 49
0.0
140
0.0
141
0.0
142
1.0
143
1.0
 70
   688
 72
     0
 73
     0
 74
     5
  7

 75
    16
147
1.0
148
0.0
149
0.0
100
AcDbLayout
  1
レイアウト1
 70
     1
 71
     1
 10
0.0
 20
0.0
 11
420.0
 21
297.0
 12
0.0
 22
0.0
 32
0.0
 14
1.000000000000000E+20
 24
1.000000000000000E+20
 34
1.000000000000000E+20
 15
-1.000000000000000E+20
 25
-1.000000000000000E+20
 35
-1.000000000000000E+20
146
0.0
 13
0.0
 23
0.0
 33
0.0
 16
1.0
 26
0.0
 36
0.0
 17
0.0
 27
1.0
 37
0.0
 76
     0
330
15
  0
MATERIAL
  5
498C
102
{ACAD_XDICTIONARY
360
498D
102
}
102
{ACAD_REACTORS
330
4983
102
}
330
4983
100
AcDbMaterial
  1
ByBlock
 72
     0
 43
0.0208333333333333
 43
0.0
 43
0.0
 43
0.0
 43
0.0
 43
0.0208333333333333
 43
0.0
 43
0.0
 43
0.0
 43
0.0
 43
1.0
 43
0.0
 43
0.0
 43
0.0
 43
0.0
 43
1.0
 77
     0
 47
0.0208333333333333
 47
0.0
 47
0.0
 47
0.0
 47
0.0
 47
0.0208333333333333
 47
0.0
 47
0.0
 47
0.0
 47
0.0
 47
1.0
 47
0.0
 47
0.0
 47
0.0
 47
0.0
 47
1.0
171
     0
 49
0.0208333333333333
 49
0.0
 49
0.0
 49
0.0
 49
0.0
 49
0.0208333333333333
 49
0.0
 49
0.0
 49
0.0
 49
0.0
 49
1.0
 49
0.0
 49
0.0
 49
0.0
 49
0.0
 49
1.0
175
     0
142
0.0208333333333333
142
0.0
142
0.0
142
0.0
142
0.0
142
0.0208333333333333
142
0.0
142
0.0
142
0.0
142
0.0
142
1.0
142
0.0
142
0.0
142
0.0
142
0.0
142
1.0
179
     0
144
0.0208333333333333
144
0.0
144
0.0
144
0.0
144
0.0
144
0.0208333333333333
144
0.0
144
0.0
144
0.0
144
0.0
144
1.0
144
0.0
144
0.0
144
0.0
144
0.0
144
1.0
147
0.0208333333333333
147
0.0
147
0.0
147
0.0
147
0.0
147
0.0208333333333333
147
0.0
147
0.0
147
0.0
147
0.0
147
1.0
147
0.0
147
0.0
147
0.0
147
0.0
147
1.0
  0
MATERIAL
  5
4984
102
{ACAD_XDICTIONARY
360
4985
102
}
102
{ACAD_REACTORS
330
4983
102
}
330
4983
100
AcDbMaterial
  1
ByLayer
 72
     0
 43
0.0208333333333333
 43
0.0
 43
0.0
 43
0.0
 43
0.0
 43
0.0208333333333333
 43
0.0
 43
0.0
 43
0.0
 43
0.0
 43
1.0
 43
0.0
 43
0.0
 43
0.0
 43
0.0
 43
1.0
 77
     0
 47
0.0208333333333333
 47
0.0
 47
0.0
 47
0.0
 47
0.0
 47
0.0208333333333333
 47
0.0
 47
0.0
 47
0.0
 47
0.0
 47
1.0
 47
0.0
 47
0.0
 47
0.0
 47
0.0
 47
1.0
171
     0
 49
0.0208333333333333
 49
0.0
 49
0.0
 49
0.0
 49
0.0
 49
0.0208333333333333
 49
0.0
 49
0.0
 49
0.0
 49
0.0
 49
1.0
 49
0.0
 49
0.0
 49
0.0
 49
0.0
 49
1.0
175
     0
142
0.0208333333333333
142
0.0
142
0.0
142
0.0
142
0.0
142
0.0208333333333333
142
0.0
142
0.0
142
0.0
142
0.0
142
1.0
142
0.0
142
0.0
142
0.0
142
0.0
142
1.0
179
     0
144
0.0208333333333333
144
0.0
144
0.0
144
0.0
144
0.0
144
0.0208333333333333
144
0.0
144
0.0
144
0.0
144
0.0
144
1.0
144
0.0
144
0.0
144
0.0
144
0.0
144
1.0
147
0.0208333333333333
147
0.0
147
0.0
147
0.0
147
0.0
147
0.0208333333333333
147
0.0
147
0.0
147
0.0
147
0.0
147
1.0
147
0.0
147
0.0
147
0.0
147
0.0
147
1.0
  0
MATERIAL
  5
4994
102
{ACAD_XDICTIONARY
360
4995
102
}
102
{ACAD_REACTORS
330
4983
102
}
330
4983
100
AcDbMaterial
  1
Global
 72
     0
 43
0.0208333333333333
 43
0.0
 43
0.0
 43
0.0
 43
0.0
 43
0.0208333333333333
 43
0.0
 43
0.0
 43
0.0
 43
0.0
 43
1.0
 43
0.0
 43
0.0
 43
0.0
 43
0.0
 43
1.0
 77
     0
 47
0.0208333333333333
 47
0.0
 47
0.0
 47
0.0
 47
0.0
 47
0.0208333333333333
 47
0.0
 47
0.0
 47
0.0
 47
0.0
 47
1.0
 47
0.0
 47
0.0
 47
0.0
 47
0.0
 47
1.0
171
     0
 49
0.0208333333333333
 49
0.0
 49
0.0
 49
0.0
 49
0.0
 49
0.0208333333333333
 49
0.0
 49
0.0
 49
0.0
 49
0.0
 49
1.0
 49
0.0
 49
0.0
 49
0.0
 49
0.0
 49
1.0
175
     0
142
0.0208333333333333
142
0.0
142
0.0
142
0.0
142
0.0
142
0.0208333333333333
142
0.0
142
0.0
142
0.0
142
0.0
142
1.0
142
0.0
142
0.0
142
0.0
142
0.0
142
1.0
179
     0
144
0.0208333333333333
144
0.0
144
0.0
144
0.0
144
0.0
144
0.0208333333333333
144
0.0
144
0.0
144
0.0
144
0.0
144
1.0
144
0.0
144
0.0
144
0.0
144
0.0
144
1.0
147
0.0208333333333333
147
0.0
147
0.0
147
0.0
147
0.0
147
0.0208333333333333
147
0.0
147
0.0
147
0.0
147
0.0
147
1.0
147
0.0
147
0.0
147
0.0
147
0.0
147
1.0
  0
MLEADERSTYLE
  5
49CB
102
{ACAD_REACTORS
330
49CA
102
}
330
49CA
100
AcDbMLeaderStyle
170
     2
171
     1
172
     0
 90
        2
 40
0.0
 41
0.0
173
     1
 91
-1056964608
340
12
 92
       -2
290
     1
 42
0.09
291
     1
 43
0.36
  3
Standard
 44
0.18
300

342
F
174
     1
178
     6
175
     1
176
     0
 93
-1056964608
 45
0.18
292
     0
297
     0
 46
0.18
 94
-1056964608
 47
1.0
 49
1.0
140
1.0
293
     1
141
0.0
294
     1
177
     0
142
1.0
295
     0
296
     0
143
0.125
1001
ACAD_MLEADERVER
1070
     2
  0
MLINESTYLE
  5
1C
102
{ACAD_REACTORS
330
1B
102
}
330
1B
100
AcDbMlineStyle
  2
STANDARD
 70
     0
  3

 62
   256
 51
90.0
 52
90.0
 71
     2
 49
0.5
 62
   256
  6
BYLAYER
 49
-0.5
 62
   256
  6
BYLAYER
  0
ACDBPLACEHOLDER
  5
4982
102
{ACAD_REACTORS
330
4981
102
}
330
4981
  0
SCALE
  5
49B9
102
{ACAD_REACTORS
330
49B8
102
}
330
49B8
100
AcDbScale
 70
     0
300
1:1
140
1.0
141
1.0
290
     1
  0
SCALE
  5
49BA
102
{ACAD_REACTORS
330
49B8
102
}
330
49B8
100
AcDbScale
 70
     0
300
1/128" = 1'-0"
140
0.0078125
141
12.0
290
     0
  0
SCALE
  5
49BB
102
{ACAD_REACTORS
330
49B8
102
}
330
49B8
100
AcDbScale
 70
     0
300
1/64" = 1'-0"
140
0.015625
141
12.0
290
     0
  0
SCALE
  5
49BC
102
{ACAD_REACTORS
330
49B8
102
}
330
49B8
100
AcDbScale
 70
     0
300
1/32" = 1'-0"
140
0.03125
141
12.0
290
     0
  0
SCALE
  5
49BD
102
{ACAD_REACTORS
330
49B8
102
}
330
49B8
100
AcDbScale
 70
     0
300
1/16" = 1'-0"
140
0.0625
141
12.0
290
     0
  0
SCALE
  5
49BE
102
{ACAD_REACTORS
330
49B8
102
}
330
49B8
100
AcDbScale
 70
     0
300
3/32" = 1'-0"
140
0.09375
141
12.0
290
     0
  0
SCALE
  5
49BF
102
{ACAD_REACTORS
330
49B8
102
}
330
49B8
100
AcDbScale
 70
     0
300
1/8" = 1'-0"
140
0.125
141
12.0
290
     0
  0
SCALE
  5
49C0
102
{ACAD_REACTORS
330
49B8
102
}
330
49B8
100
AcDbScale
 70
     0
300
3/16" = 1'-0"
140
0.1875
141
12.0
290
     0
  0
SCALE
  5
49C1
102
{ACAD_REACTORS
330
49B8
102
}
330
49B8
100
AcDbScale
 70
     0
300
1/4" = 1'-0"
140
0.25
141
12.0
290
     0
  0
SCALE
  5
49C2
102
{ACAD_REACTORS
330
49B8
102
}
330
49B8
100
AcDbScale
 70
     0
300
3/8" = 1'-0"
140
0.375
141
12.0
290
     0
  0
SCALE
  5
49C3
102
{ACAD_REACTORS
330
49B8
102
}
330
49B8
100
AcDbScale
 70
     0
300
1/2" = 1'-0"
140
0.5
141
12.0
290
     0
  0
SCALE
  5
49C4
102
{ACAD_REACTORS
330
49B8
102
}
330
49B8
100
AcDbScale
 70
     0
300
3/4" = 1'-0"
140
0.75
141
12.0
290
     0
  0
SCALE
  5
49C5
102
{ACAD_REACTORS
330
49B8
102
}
330
49B8
100
AcDbScale
 70
     0
300
1" = 1'-0"
140
1.0
141
12.0
290
     0
  0
SCALE
  5
49C6
102
{ACAD_REACTORS
330
49B8
102
}
330
49B8
100
AcDbScale
 70
     0
300
1-1/2" = 1'-0"
140
1.5
141
12.0
290
     0
  0
SCALE
  5
49C7
102
{ACAD_REACTORS
330
49B8
102
}
330
49B8
100
AcDbScale
 70
     0
300
3" = 1'-0"
140
3.0
141
12.0
290
     0
  0
SCALE
  5
49C8
102
{ACAD_REACTORS
330
49B8
102
}
330
49B8
100
AcDbScale
 70
     0
300
6" = 1'-0"
140
6.0
141
12.0
290
     0
  0
SCALE
  5
49C9
102
{ACAD_REACTORS
330
49B8
102
}
330
49B8
100
AcDbScale
 70
     0
300
1'-0" = 1'-0"
140
12.0
141
12.0
290
     0
  0
ACDBSECTIONVIEWSTYLE
  5
49CD
102
{ACAD_XDICTIONARY
360
4A78
102
}
102
{ACAD_REACTORS
330
49CC
102
}
330
49CC
100
AcDbModelDocViewStyle
 70
     0
  3
Imperial24
290
     0
100
AcDbSectionViewStyle
 70
     0
 71
     0
 90
       78
 71
     1
340
F
 40
0.24
340
0
340
0
 40
0.24
300
I, O, Q, S, X, Z
 40
0.48
 90
        3
 40
0.18
 90
        1
 71
     2
340
14
 90
       25
340
14
 90
       50
 40
0.24
 40
0.0
 40
0.24
 71
     3
340
F
 40
0.24
 90
        1
 40
0.75
 90
        1
300
%<\AcVar ViewType \f "%tc1">% %<\AcVar ViewSectionStartId>%-%<\AcVar ViewSectionEndId>%\PSCALE %<\AcVar ViewScale \f "%sn">%
 71
     4
300
ANSI31
 40
1.0
 90
        0
290
     0
290
     0
 90
        6
 40
0.0
 40
1.570796326794896
 40
0.2617993877991494
 40
1.308996938995747
 40
-0.2617993877991494
 40
1.832595714594045
  0
TABLESTYLE
  5
49B7
102
{ACAD_XDICTIONARY
360
49FF
102
}
102
{ACAD_REACTORS
330
49B6
102
}
330
49B6
100
AcDbTableStyle
  3
Standard
 70
     0
 71
     0
 40
0.06
 41
0.06
280
     0
281
     0
  7
STANDARD
140
0.18
170
     2
 62
     0
 63
     7
283
     0
274
    -2
284
     1
 64
     0
275
    -2
285
     1
 65
     0
276
    -2
286
     1
 66
     0
277
    -2
287
     1
 67
     0
278
    -2
288
     1
 68
     0
279
    -2
289
     1
 69
     0
  7
STANDARD
140
0.25
170
     5
 62
     0
 63
     7
283
     0
274
    -2
284
     1
 64
     0
275
    -2
285
     1
 65
     0
276
    -2
286
     1
 66
     0
277
    -2
287
     1
 67
     0
278
    -2
288
     1
 68
     0
279
    -2
289
     1
 69
     0
  7
STANDARD
140
0.18
170
     5
 62
     0
 63
     7
283
     0
274
    -2
284
     1
 64
     0
275
    -2
285
     1
 65
     0
276
    -2
286
     1
 66
     0
277
    -2
287
     1
 67
     0
278
    -2
288
     1
 68
     0
279
    -2
289
     1
 69
     0
  0
VISUALSTYLE
  5
49A2
102
{ACAD_XDICTIONARY
360
4A51
102
}
102
{ACAD_REACTORS
330
499C
102
}
330
499C
100
AcDbVisualStyle
  2

 70
     4
 71
     0
 72
     2
 73
     0
 90
        0
 40
-0.6
 41
-30.0
 62
     5
 63
     7
 74
     1
 91
        4
 64
     7
 65
   257
 75
     1
175
     1
 42
1.0
 92
        0
 66
   257
 43
1.0
 76
     1
 77
     6
 78
     2
 67
     7
 79
     5
170
     0
171
     0
290
     0
174
     0
 93
        1
 44
0.0
173
     0
291
     0
 45
0.0
1001
ACAD
1000
AcDbSavedByObjectVersion
1070
     0
  0
VISUALSTYLE
  5
49A1
102
{ACAD_XDICTIONARY
360
4A4F
102
}
102
{ACAD_REACTORS
330
499C
102
}
330
499C
100
AcDbVisualStyle
  2

 70
     7
 71
     1
 72
     0
 73
     1
 90
        0
 40
-0.6
 41
-30.0
 62
     5
 63
     7
 74
     0
 91
        4
 64
     7
 65
   257
 75
     1
175
     1
 42
1.0
 92
        8
 66
     7
 43
1.0
 76
     1
 77
     6
 78
     2
 67
     7
 79
     5
170
     0
171
     0
290
     0
174
     0
 93
        1
 44
0.0
173
     0
291
     1
 45
0.0
1001
ACAD
1000
AcDbSavedByObjectVersion
1070
     0
  0
VISUALSTYLE
  5
49A8
102
{ACAD_XDICTIONARY
360
4A5D
102
}
102
{ACAD_REACTORS
330
499C
102
}
330
499C
100
AcDbVisualStyle
  2

 70
    12
 71
     2
 72
     2
 73
     0
 90
        0
 40
-0.6
 41
-30.0
 62
     5
 63
     7
 74
     1
 91
        4
 64
     7
 65
   257
 75
     1
175
     1
 42
1.0
 92
        8
 66
     7
 43
1.0
 76
     1
 77
     6
 78
     2
 67
     7
 79
     5
170
     0
171
     0
290
     0
174
     0
 93
        1
 44
50.0
173
     0
291
     1
 45
0.0
1001
ACAD
1000
AcDbSavedByObjectVersion
1070
     0
  0
VISUALSTYLE
  5
49AC
102
{ACAD_XDICTIONARY
360
4A65
102
}
102
{ACAD_REACTORS
330
499C
102
}
330
499C
100
AcDbVisualStyle
  2

 70
    16
 71
     2
 72
     2
 73
     3
 90
        0
 40
-0.6
 41
-30.0
 62
     5
 63
     8
 74
     1
 91
        4
 64
     7
 65
   257
 75
     1
175
     1
 42
1.0
 92
        8
 66
     8
 43
1.0
 76
     1
 77
     6
 78
     2
 67
     7
 79
     5
170
     0
171
     0
290
     0
174
     0
 93
        1
 44
0.0
173
     0
291
     1
 45
0.0
1001
ACAD
1000
AcDbSavedByObjectVersion
1070
     0
  0
VISUALSTYLE
  5
49A5
102
{ACAD_XDICTIONARY
360
4A57
102
}
102
{ACAD_REACTORS
330
499C
102
}
330
499C
100
AcDbVisualStyle
  2

 70
     9
 71
     3
 72
     2
 73
     0
 90
        0
 40
-0.6
 41
-30.0
 62
     5
 63
     7
 74
     2
 91
        2
 64
     7
 65
   257
 75
     1
175
     1
 42
179.0
 92
        8
 66
     7
 43
1.0
 76
     1
 77
     6
 78
     2
 67
     7
 79
     3
170
     0
171
     0
290
     0
174
     0
 93
        1
 44
0.0
173
     0
291
     0
 45
0.0
1001
ACAD
1000
AcDbSavedByObjectVersion
1070
     0
  0
VISUALSTYLE
  5
49A7
102
{ACAD_XDICTIONARY
360
4A5B
102
}
102
{ACAD_REACTORS
330
499C
102
}
330
499C
100
AcDbVisualStyle
  2

 70
    11
 71
     2
 72
     2
 73
     0
 90
        0
 40
-0.6
 41
-30.0
 62
     5
 63
     7
 74
     1
 91
        4
 64
     7
 65
   257
 75
     1
175
     1
 42
1.0
 92
        8
 66
     7
 43
1.0
 76
     1
 77
     6
 78
     2
 67
     7
 79
     5
170
     0
171
     0
290
     0
174
     0
 93
        1
 44
-50.0
173
     0
291
     1
 45
0.0
1001
ACAD
1000
AcDbSavedByObjectVersion
1070
     0
  0
VISUALSTYLE
  5
49B4
102
{ACAD_XDICTIONARY
360
4A75
102
}
102
{ACAD_REACTORS
330
499C
102
}
330
499C
100
AcDbVisualStyle
  2

 70
    22
 71
     2
 72
     2
 73
     0
 90
        0
 40
-0.6
 41
-30.0
 62
     5
 63
     7
 74
     1
 91
        4
 64
     7
 65
   257
 75
     1
175
     1
 42
1.0
 92
        8
 66
     7
 43
1.0
 76
     1
 77
     6
 78
     2
 67
     7
 79
     5
170
     0
171
     0
290
     0
174
     0
 93
        1
 44
0.0
173
     0
291
     1
 45
0.0
1001
ACAD
1000
AcDbSavedByObjectVersion
1070
     0
  0
VISUALSTYLE
  5
49AB
102
{ACAD_XDICTIONARY
360
4A63
102
}
102
{ACAD_REACTORS
330
499C
102
}
330
499C
100
AcDbVisualStyle
  2

 70
    15
 71
     2
 72
     2
 73
     0
 90
        0
 40
-0.6
 41
-30.0
 62
     5
 63
     7
 74
     1
 91
        4
 64
     7
 65
   257
 75
     1
175
     1
 42
1.0
 92
        8
 66
     7
 43
1.0
 76
     1
 77
     6
 78
     2
 67
     7
 79
     5
170
     0
171
     0
290
     0
174
     0
 93
        1
 44
0.0
173
     0
291
     1
 45
0.0
1001
ACAD
1000
AcDbSavedByObjectVersion
1070
     0
  0
VISUALSTYLE
  5
499D
102
{ACAD_XDICTIONARY
360
4A47
102
}
102
{ACAD_REACTORS
330
499C
102
}
330
499C
100
AcDbVisualStyle
  2

 70
     0
 71
     2
 72
     1
 73
     1
 90
        2
 40
-0.6
 41
30.0
 62
     5
 63
     7
 74
     0
 91
        0
 64
     7
 65
   257
 75
     1
175
     1
 42
1.0
 92
        8
 66
     7
 43
1.0
 76
     1
 77
     6
 78
     2
 67
     7
 79
     5
170
     0
171
     0
290
     0
174
     0
 93
       13
 44
0.0
173
     0
291
     1
 45
0.0
1001
ACAD
1000
AcDbSavedByObjectVersion
1070
     0
  0
VISUALSTYLE
  5
499E
102
{ACAD_XDICTIONARY
360
4A49
102
}
102
{ACAD_REACTORS
330
499C
102
}
330
499C
100
AcDbVisualStyle
  2

 70
     1
 71
     2
 72
     1
 73
     1
 90
        2
 40
-0.6
 41
30.0
 62
     5
 63
     7
 74
     1
 91
        0
 64
     7
 65
   257
 75
     1
175
     1
 42
1.0
 92
        0
 66
   257
 43
1.0
 76
     1
 77
     6
 78
     2
 67
     7
 79
     5
170
     0
171
     0
290
     0
174
     0
 93
       13
 44
0.0
173
     0
291
     1
 45
0.0
1001
ACAD
1000
AcDbSavedByObjectVersion
1070
     0
  0
VISUALSTYLE
  5
499F
102
{ACAD_XDICTIONARY
360
4A4B
102
}
102
{ACAD_REACTORS
330
499C
102
}
330
499C
100
AcDbVisualStyle
  2

 70
     2
 71
     2
 72
     2
 73
     1
 90
        2
 40
-0.6
 41
30.0
 62
     5
 63
     7
 74
     0
 91
        0
 64
     7
 65
   257
 75
     1
175
     1
 42
1.0
 92
        0
 66
     7
 43
1.0
 76
     1
 77
     6
 78
     2
 67
     7
 79
     5
170
     0
171
     0
290
     0
174
     0
 93
       13
 44
0.0
173
     0
291
     1
 45
0.0
1001
ACAD
1000
AcDbSavedByObjectVersion
1070
     0
  0
VISUALSTYLE
  5
49A0
102
{ACAD_XDICTIONARY
360
4A4D
102
}
102
{ACAD_REACTORS
330
499C
102
}
330
499C
100
AcDbVisualStyle
  2

 70
     3
 71
     2
 72
     2
 73
     1
 90
        2
 40
-0.6
 41
30.0
 62
     5
 63
     7
 74
     1
 91
        0
 64
     7
 65
   257
 75
     1
175
     1
 42
1.0
 92
        0
 66
   257
 43
1.0
 76
     1
 77
     6
 78
     2
 67
     7
 79
     5
170
     0
171
     0
290
     0
174
     0
 93
       13
 44
0.0
173
     0
291
     1
 45
0.0
1001
ACAD
1000
AcDbSavedByObjectVersion
1070
     0
  0
VISUALSTYLE
  5
49A4
102
{ACAD_XDICTIONARY
360
4A55
102
}
102
{ACAD_REACTORS
330
499C
102
}
330
499C
100
AcDbVisualStyle
  2

 70
     6
 71
     1
 72
     2
 73
     2
 90
        0
 40
-0.6
 41
-30.0
 62
     5
 63
     7
 74
     2
 91
        2
 64
     7
 65
   257
 75
     2
175
     1
 42
40.0
 92
        0
 66
   257
 43
1.0
 76
     1
 77
     6
 78
     2
 67
     7
 79
     3
170
     0
171
     0
290
     0
174
     0
 93
        1
 44
0.0
173
     0
291
     0
 45
0.0
1001
ACAD
1000
AcDbSavedByObjectVersion
1070
     0
  0
VISUALSTYLE
  5
49B2
102
{ACAD_XDICTIONARY
360
4A71
102
}
102
{ACAD_REACTORS
330
499C
102
}
330
499C
100
AcDbVisualStyle
  2

 70
    20
 71
     2
 72
     2
 73
     0
 90
        0
 40
-0.6
 41
-30.0
 62
     5
 63
     7
 74
     1
 91
        4
 64
     7
 65
   257
 75
     1
175
     1
 42
1.0
 92
       10
 66
     7
 43
1.0
 76
     1
 77
     6
 78
     2
 67
     7
 79
     5
170
     0
171
     0
290
     0
174
     0
 93
        1
 44
0.0
173
     0
291
     1
 45
0.0
1001
ACAD
1000
AcDbSavedByObjectVersion
1070
     0
  0
VISUALSTYLE
  5
49AA
102
{ACAD_XDICTIONARY
360
4A61
102
}
102
{ACAD_REACTORS
330
499C
102
}
330
499C
100
AcDbVisualStyle
  2

 70
    14
 71
     2
 72
     2
 73
     0
 90
        0
 40
-0.6
 41
-30.0
 62
     5
 63
     7
 74
     1
 91
        4
 64
     7
 65
   257
 75
     7
175
     7
 42
1.0
 92
        8
 66
     7
 43
1.0
 76
     1
 77
     6
 78
     2
 67
     7
 79
     5
170
     0
171
     0
290
     0
174
     0
 93
        1
 44
0.0
173
     0
291
     1
 45
0.0
1001
ACAD
1000
AcDbSavedByObjectVersion
1070
     0
  0
VISUALSTYLE
  5
49B3
102
{ACAD_XDICTIONARY
360
4A73
102
}
102
{ACAD_REACTORS
330
499C
102
}
330
499C
100
AcDbVisualStyle
  2

 70
    21
 71
     2
 72
     2
 73
     0
 90
        0
 40
-0.6
 41
-30.0
 62
     5
 63
     7
 74
     1
 91
        4
 64
     7
 65
   257
 75
     1
175
     1
 42
1.0
 92
        9
 66
     7
 43
1.0
 76
     1
 77
     6
 78
     2
 67
     7
 79
     5
170
     0
171
     0
290
     0
174
     0
 93
        1
 44
0.0
173
     0
291
     1
 45
0.0
1001
ACAD
1000
AcDbSavedByObjectVersion
1070
     0
  0
VISUALSTYLE
  5
49A6
102
{ACAD_XDICTIONARY
360
4A59
102
}
102
{ACAD_REACTORS
330
499C
102
}
330
499C
100
AcDbVisualStyle
  2

 70
     8
 71
     2
 72
     3
 73
     0
 90
        2
 40
-0.6
 41
30.0
 62
     5
 63
     7
 74
     0
 91
        0
 64
     7
 65
   257
 75
     1
175
     1
 42
1.0
 92
        8
 66
   257
 43
1.0
 76
     1
 77
     6
 78
     2
 67
     7
 79
     3
170
     0
171
     0
290
     0
174
     0
 93
       13
 44
0.0
173
     0
291
     0
 45
0.0
1001
ACAD
1000
AcDbSavedByObjectVersion
1070
     0
  0
VISUALSTYLE
  5
49B1
102
{ACAD_XDICTIONARY
360
4A6F
102
}
102
{ACAD_REACTORS
330
499C
102
}
330
499C
100
AcDbVisualStyle
  2

 70
    27
 71
     2
 72
     2
 73
     1
 90
        2
 40
-0.6
 41
30.0
 62
     5
 63
     7
 74
     0
 91
        4
 64
     7
 65
   257
 75
     1
175
     1
 42
1.0
 92
        8
 66
   257
 43
1.0
 76
     1
 77
     6
 78
     2
 67
     8
 79
     3
170
     0
171
     0
290
     0
174
     0
 93
        5
 44
0.0
173
     0
291
     0
 45
0.0
1001
ACAD
1000
AcDbSavedByObjectVersion
1070
     0
  0
VISUALSTYLE
  5
49B0
102
{ACAD_XDICTIONARY
360
4A6D
102
}
102
{ACAD_REACTORS
330
499C
102
}
330
499C
100
AcDbVisualStyle
  2

 70
    26
 71
     2
 72
     2
 73
     1
 90
        2
 40
-0.6
 41
30.0
 62
     5
 63
     7
 74
     1
 91
       10
 64
     7
 65
   257
 75
     2
175
     1
 42
1.0
 92
        8
 66
   257
 43
1.0
 76
     1
 77
     6
 78
     2
 67
     7
 79
     3
170
     0
171
     0
290
     0
174
     0
 93
        5
 44
0.0
173
     0
291
     0
 45
0.0
1001
ACAD
1000
AcDbSavedByObjectVersion
1070
     0
  0
VISUALSTYLE
  5
49AD
102
{ACAD_XDICTIONARY
360
4A67
102
}
102
{ACAD_REACTORS
330
499C
102
}
330
499C
100
AcDbVisualStyle
  2

 70
    23
 71
     2
 72
     2
 73
     3
 90
        0
 40
-0.6
 41
-30.0
 62
     5
 63
     7
 74
     2
 91
        2
 64
     7
 65
     7
 75
     1
175
     1
 42
40.0
 92
        8
 66
     7
 43
1.0
 76
     1
 77
     6
 78
     2
 67
     7
 79
     3
170
     0
171
     0
290
     0
174
     0
 93
        1
 44
0.0
173
     0
291
     0
 45
0.0
1001
ACAD
1000
AcDbSavedByObjectVersion
1070
     0
  0
VISUALSTYLE
  5
49AE
102
{ACAD_XDICTIONARY
360
4A69
102
}
102
{ACAD_REACTORS
330
499C
102
}
330
499C
100
AcDbVisualStyle
  2

 70
    24
 71
     1
 72
     2
 73
     2
 90
        0
 40
-0.6
 41
-30.0
 62
     5
 63
     7
 74
     2
 91
        2
 64
     7
 65
     7
 75
     1
175
     1
 42
40.0
 92
       11
 66
     7
 43
1.0
 76
     1
 77
     6
 78
     2
 67
     7
 79
     6
170
     0
171
     0
290
     0
174
     0
 93
        1
 44
0.0
173
     0
291
     0
 45
0.0
1001
ACAD
1000
AcDbSavedByObjectVersion
1070
     0
  0
VISUALSTYLE
  5
49A9
102
{ACAD_XDICTIONARY
360
4A5F
102
}
102
{ACAD_REACTORS
330
499C
102
}
330
499C
100
AcDbVisualStyle
  2

 70
    13
 71
     2
 72
     2
 73
     0
 90
        0
 40
-0.6
 41
-30.0
 62
     5
 63
     7
 74
     1
 91
        4
 64
     7
 65
   257
 75
     1
175
     1
 42
1.0
 92
       12
 66
     7
 43
1.0
 76
     1
 77
     6
 78
     2
 67
     7
 79
     5
170
     0
171
     0
290
     0
174
     0
 93
        1
 44
0.0
173
     0
291
     1
 45
0.0
1001
ACAD
1000
AcDbSavedByObjectVersion
1070
     0
  0
VISUALSTYLE
  5
49A3
102
{ACAD_XDICTIONARY
360
4A53
102
}
102
{ACAD_REACTORS
330
499C
102
}
330
499C
100
AcDbVisualStyle
  2

 70
     5
 71
     0
 72
     2
 73
     0
 90
        0
 40
-0.6
 41
-30.0
 62
     5
 63
     7
 74
     1
 91
        4
 64
     7
 65
   257
 75
     1
175
     1
 42
1.0
 92
        0
 66
   257
 43
1.0
 76
     1
 77
     6
 78
     2
 67
     7
 79
     3
170
     0
171
     0
290
     0
174
     0
 93
        1
 44
0.0
173
     0
291
     0
 45
0.0
1001
ACAD
1000
AcDbSavedByObjectVersion
1070
     0
  0
VISUALSTYLE
  5
49AF
102
{ACAD_XDICTIONARY
360
4A6B
102
}
102
{ACAD_REACTORS
330
499C
102
}
330
499C
100
AcDbVisualStyle
  2

 70
    25
 71
     2
 72
     2
 73
     1
 90
        1
 40
0.5
 41
-30.0
 62
     5
 63
     7
 74
     1
 91
        0
 64
     7
 65
   257
 75
     1
175
     1
 42
1.0
 92
        8
 66
     7
 43
1.0
 76
     1
 77
     6
 78
     2
 67
     7
 79
     3
170
     0
171
     0
290
     0
174
     0
 93
       13
 44
0.0
173
     0
291
     0
 45
0.0
1001
ACAD
1000
AcDbSavedByObjectVersion
1070
     0
  0
DICTIONARYVAR
  5
49FA
102
{ACAD_REACTORS
330
49F5
102
}
330
49F5
100
DictionaryVariables
280
     0
  1
1:1
  0
DICTIONARYVAR
  5
49F7
102
{ACAD_REACTORS
330
49F5
102
}
330
49F5
100
DictionaryVariables
280
     0
  1
STANDARD
  0
DICTIONARYVAR
  5
49F6
102
{ACAD_REACTORS
330
49F5
102
}
330
49F5
100
DictionaryVariables
280
     0
  1
STANDARD
  0
DICTIONARYVAR
  5
49F8
102
{ACAD_REACTORS
330
49F5
102
}
330
49F5
100
DictionaryVariables
280
     0
  1
Imperial24
  0
DICTIONARYVAR
  5
49F9
102
{ACAD_REACTORS
330
49F5
102
}
330
49F5
100
DictionaryVariables
280
     0
  1
Imperial24
  0
DICTIONARYVAR
  5
49FD
102
{ACAD_REACTORS
330
49F5
102
}
330
49F5
100
DictionaryVariables
280
     0
  1
1
  0
DICTIONARYVAR
  5
49FC
102
{ACAD_REACTORS
330
49F5
102
}
330
49F5
100
DictionaryVariables
280
     0
  1
0
  0
DICTIONARYVAR
  5
49FB
102
{ACAD_REACTORS
330
49F5
102
}
330
49F5
100
DictionaryVariables
280
     0
  1
127
  0
DICTIONARYVAR
  5
4A43
102
{ACAD_REACTORS
330
49F5
102
}
330
49F5
100
DictionaryVariables
280
     0
  1
2
  0
DICTIONARY
  5
4A7A
330
49CF
100
AcDbDictionary
280
     1
281
     1
  3
ACAD_XREC_ROUNDTRIP
360
4A7B
  0
DICTIONARY
  5
4A7C
330
49D0
100
AcDbDictionary
280
     1
281
     1
  3
ACAD_XREC_ROUNDTRIP
360
4A7D
  0
DICTIONARY
  5
4A7E
330
49D1
100
AcDbDictionary
280
     1
281
     1
  3
ACAD_XREC_ROUNDTRIP
360
4A7F
  0
DICTIONARY
  5
498D
330
498C
100
AcDbDictionary
280
     1
281
     1
  3
ACAD_XREC_ROUNDTRIP
360
4A04
  3
BUMPTILE
360
498F
  3
DIFFUSETILE
360
498E
  3
OPACITYTILE
360
4992
  3
REFLECTIONTILE
360
4991
  3
REFRACTIONTILE
360
4993
  3
SPECULARTILE
360
4990
  0
DICTIONARY
  5
4985
330
4984
100
AcDbDictionary
280
     1
281
     1
  3
ACAD_XREC_ROUNDTRIP
360
4A03
  3
BUMPTILE
360
4987
  3
DIFFUSETILE
360
4986
  3
OPACITYTILE
360
498A
  3
REFLECTIONTILE
360
4989
  3
REFRACTIONTILE
360
498B
  3
SPECULARTILE
360
4988
  0
DICTIONARY
  5
4995
330
4994
100
AcDbDictionary
280
     1
281
     1
  3
ACAD_XREC_ROUNDTRIP
360
4A05
  3
BUMPTILE
360
4997
  3
DIFFUSETILE
360
4996
  3
OPACITYTILE
360
499A
  3
REFLECTIONTILE
360
4999
  3
REFRACTIONTILE
360
499B
  3
SPECULARTILE
360
4998
  0
DICTIONARY
  5
4A78
330
49CD
100
AcDbDictionary
280
     1
281
     1
  3
ACAD_XREC_ROUNDTRIP
360
4A79
  0
DICTIONARY
  5
49FF
330
49B7
100
AcDbDictionary
280
     1
281
     1
  3
ACAD_ROUNDTRIP_2008_TABLESTYLE_CELLSTYLEMAP
360
4A44
  3
ACAD_XREC_ROUNDTRIP
360
4A77
  0
DICTIONARY
  5
4A51
330
49A2
100
AcDbDictionary
280
     1
281
     1
  3
ACAD_XREC_ROUNDTRIP
360
4A52
  0
DICTIONARY
  5
4A4F
330
49A1
100
AcDbDictionary
280
     1
281
     1
  3
ACAD_XREC_ROUNDTRIP
360
4A50
  0
DICTIONARY
  5
4A5D
330
49A8
100
AcDbDictionary
280
     1
281
     1
  3
ACAD_XREC_ROUNDTRIP
360
4A5E
  0
DICTIONARY
  5
4A65
330
49AC
100
AcDbDictionary
280
     1
281
     1
  3
ACAD_XREC_ROUNDTRIP
360
4A66
  0
DICTIONARY
  5
4A57
330
49A5
100
AcDbDictionary
280
     1
281
     1
  3
ACAD_XREC_ROUNDTRIP
360
4A58
  0
DICTIONARY
  5
4A5B
330
49A7
100
AcDbDictionary
280
     1
281
     1
  3
ACAD_XREC_ROUNDTRIP
360
4A5C
  0
DICTIONARY
  5
4A75
330
49B4
100
AcDbDictionary
280
     1
281
     1
  3
ACAD_XREC_ROUNDTRIP
360
4A76
  0
DICTIONARY
  5
4A63
330
49AB
100
AcDbDictionary
280
     1
281
     1
  3
ACAD_XREC_ROUNDTRIP
360
4A64
  0
DICTIONARY
  5
4A47
330
499D
100
AcDbDictionary
280
     1
281
     1
  3
ACAD_XREC_ROUNDTRIP
360
4A48
  0
DICTIONARY
  5
4A49
330
499E
100
AcDbDictionary
280
     1
281
     1
  3
ACAD_XREC_ROUNDTRIP
360
4A4A
  0
DICTIONARY
  5
4A4B
330
499F
100
AcDbDictionary
280
     1
281
     1
  3
ACAD_XREC_ROUNDTRIP
360
4A4C
  0
DICTIONARY
  5
4A4D
330
49A0
100
AcDbDictionary
280
     1
281
     1
  3
ACAD_XREC_ROUNDTRIP
360
4A4E
  0
DICTIONARY
  5
4A55
330
49A4
100
AcDbDictionary
280
     1
281
     1
  3
ACAD_XREC_ROUNDTRIP
360
4A56
  0
DICTIONARY
  5
4A71
330
49B2
100
AcDbDictionary
280
     1
281
     1
  3
ACAD_XREC_ROUNDTRIP
360
4A72
  0
DICTIONARY
  5
4A61
330
49AA
100
AcDbDictionary
280
     1
281
     1
  3
ACAD_XREC_ROUNDTRIP
360
4A62
  0
DICTIONARY
  5
4A73
330
49B3
100
AcDbDictionary
280
     1
281
     1
  3
ACAD_XREC_ROUNDTRIP
360
4A74
  0
DICTIONARY
  5
4A59
330
49A6
100
AcDbDictionary
280
     1
281
     1
  3
ACAD_XREC_ROUNDTRIP
360
4A5A
  0
DICTIONARY
  5
4A6F
330
49B1
100
AcDbDictionary
280
     1
281
     1
  3
ACAD_XREC_ROUNDTRIP
360
4A70
  0
DICTIONARY
  5
4A6D
330
49B0
100
AcDbDictionary
280
     1
281
     1
  3
ACAD_XREC_ROUNDTRIP
360
4A6E
  0
DICTIONARY
  5
4A67
330
49AD
100
AcDbDictionary
280
     1
281
     1
  3
ACAD_XREC_ROUNDTRIP
360
4A68
  0
DICTIONARY
  5
4A69
330
49AE
100
AcDbDictionary
280
     1
281
     1
  3
ACAD_XREC_ROUNDTRIP
360
4A6A
  0
DICTIONARY
  5
4A5F
330
49A9
100
AcDbDictionary
280
     1
281
     1
  3
ACAD_XREC_ROUNDTRIP
360
4A60
  0
DICTIONARY
  5
4A53
330
49A3
100
AcDbDictionary
280
     1
281
     1
  3
ACAD_XREC_ROUNDTRIP
360
4A54
  0
DICTIONARY
  5
4A6B
330
49AF
100
AcDbDictionary
280
     1
281
     1
  3
ACAD_XREC_ROUNDTRIP
360
4A6C
  0
XRECORD
  5
4A7B
102
{ACAD_REACTORS
330
4A7A
102
}
330
4A7A
100
AcDbXrecord
280
     1
102
DISPLAYNAME
  1
Imperial24
102
FLAGS
 90
        0
  0
XRECORD
  5
4A7D
102
{ACAD_REACTORS
330
4A7C
102
}
330
4A7C
100
AcDbXrecord
280
     1
102
SHADEPLOT
 70
     0
102
SHADEPLOTRESLEVEL
 70
     2
102
SHADEPLOTCUSTOMDPI
 70
   300
  0
XRECORD
  5
4A7F
102
{ACAD_REACTORS
330
4A7E
102
}
330
4A7E
100
AcDbXrecord
280
     1
102
SHADEPLOT
 70
     0
102
SHADEPLOTRESLEVEL
 70
     2
102
SHADEPLOTCUSTOMDPI
 70
   300
  0
XRECORD
  5
4A04
102
{ACAD_REACTORS
330
498D
102
}
330
498D
100
AcDbXrecord
280
     1
102
MATERIAL
148
0.0
149
0.0
149
0.0
 93
        0
 94
      127
282
     0
 72
     0
 77
     0
171
     0
175
     0
179
     0
273
     0
  0
XRECORD
  5
498F
102
{ACAD_REACTORS
330
498D
102
}
330
498D
100
AcDbXrecord
280
     1
270
     1
271
     1
  0
XRECORD
  5
498E
102
{ACAD_REACTORS
330
498D
102
}
330
498D
100
AcDbXrecord
280
     1
270
     1
271
     1
  0
XRECORD
  5
4992
102
{ACAD_REACTORS
330
498D
102
}
330
498D
100
AcDbXrecord
280
     1
270
     1
271
     1
  0
XRECORD
  5
4991
102
{ACAD_REACTORS
330
498D
102
}
330
498D
100
AcDbXrecord
280
     1
270
     1
271
     1
  0
XRECORD
  5
4993
102
{ACAD_REACTORS
330
498D
102
}
330
498D
100
AcDbXrecord
280
     1
270
     1
271
     1
  0
XRECORD
  5
4990
102
{ACAD_REACTORS
330
498D
102
}
330
498D
100
AcDbXrecord
280
     1
270
     1
271
     1
  0
XRECORD
  5
4A03
102
{ACAD_REACTORS
330
4985
102
}
330
4985
100
AcDbXrecord
280
     1
102
MATERIAL
148
0.0
149
0.0
149
0.0
 93
        0
 94
      127
282
     0
 72
     0
 77
     0
171
     0
175
     0
179
     0
273
     0
  0
XRECORD
  5
4987
102
{ACAD_REACTORS
330
4985
102
}
330
4985
100
AcDbXrecord
280
     1
270
     1
271
     1
  0
XRECORD
  5
4986
102
{ACAD_REACTORS
330
4985
102
}
330
4985
100
AcDbXrecord
280
     1
270
     1
271
     1
  0
XRECORD
  5
498A
102
{ACAD_REACTORS
330
4985
102
}
330
4985
100
AcDbXrecord
280
     1
270
     1
271
     1
  0
XRECORD
  5
4989
102
{ACAD_REACTORS
330
4985
102
}
330
4985
100
AcDbXrecord
280
     1
270
     1
271
     1
  0
XRECORD
  5
498B
102
{ACAD_REACTORS
330
4985
102
}
330
4985
100
AcDbXrecord
280
     1
270
     1
271
     1
  0
XRECORD
  5
4988
102
{ACAD_REACTORS
330
4985
102
}
330
4985
100
AcDbXrecord
280
     1
270
     1
271
     1
  0
XRECORD
  5
4A05
102
{ACAD_REACTORS
330
4995
102
}
330
4995
100
AcDbXrecord
280
     1
102
MATERIAL
148
0.0
149
0.0
149
0.0
 93
        0
 94
      127
282
     0
 72
     0
 77
     0
171
     0
175
     0
179
     0
273
     0
  0
XRECORD
  5
4997
102
{ACAD_REACTORS
330
4995
102
}
330
4995
100
AcDbXrecord
280
     1
270
     1
271
     1
  0
XRECORD
  5
4996
102
{ACAD_REACTORS
330
4995
102
}
330
4995
100
AcDbXrecord
280
     1
270
     1
271
     1
  0
XRECORD
  5
499A
102
{ACAD_REACTORS
330
4995
102
}
330
4995
100
AcDbXrecord
280
     1
270
     1
271
     1
  0
XRECORD
  5
4999
102
{ACAD_REACTORS
330
4995
102
}
330
4995
100
AcDbXrecord
280
     1
270
     1
271
     1
  0
XRECORD
  5
499B
102
{ACAD_REACTORS
330
4995
102
}
330
4995
100
AcDbXrecord
280
     1
270
     1
271
     1
  0
XRECORD
  5
4998
102
{ACAD_REACTORS
330
4995
102
}
330
4995
100
AcDbXrecord
280
     1
270
     1
271
     1
  0
XRECORD
  5
4A79
102
{ACAD_REACTORS
330
4A78
102
}
330
4A78
100
AcDbXrecord
280
     1
102
DISPLAYNAME
  1
Imperial24
102
FLAGS
 90
        0
  0
CELLSTYLEMAP
  5
4A44
102
{ACAD_REACTORS
330
49FF
102
}
330
49FF
100
AcDbCellStyleMap
 90
        3
300
CELLSTYLE
  1
TABLEFORMAT_BEGIN
 90
        5
170
     1
 91
        0
 92
    32768
 62
   257
 93
        1
300
CONTENTFORMAT
  1
CONTENTFORMAT_BEGIN
 90
        0
 91
        0
 92
      512
 93
        0
300

 40
0.0
140
1.0
 94
        5
 62
     0
340
F
144
0.25
309
CONTENTFORMAT_END
171
     1
301
MARGIN
  1
CELLMARGIN_BEGIN
 40
0.06
 40
0.06
 40
0.06
 40
0.06
 40
0.18
 40
0.18
309
CELLMARGIN_END
 94
        6
 95
        1
302
GRIDFORMAT
  1
GRIDFORMAT_BEGIN
 90
        0
 91
        1
 62
     0
 92
       -2
340
0
 93
        0
 40
0.045
309
GRIDFORMAT_END
 95
        2
302
GRIDFORMAT
  1
GRIDFORMAT_BEGIN
 90
        0
 91
        1
 62
     0
 92
       -2
340
0
 93
        0
 40
0.045
309
GRIDFORMAT_END
 95
        4
302
GRIDFORMAT
  1
GRIDFORMAT_BEGIN
 90
        0
 91
        1
 62
     0
 92
       -2
340
0
 93
        0
 40
0.045
309
GRIDFORMAT_END
 95
        8
302
GRIDFORMAT
  1
GRIDFORMAT_BEGIN
 90
        0
 91
        1
 62
     0
 92
       -2
340
0
 93
        0
 40
0.045
309
GRIDFORMAT_END
 95
       16
302
GRIDFORMAT
  1
GRIDFORMAT_BEGIN
 90
        0
 91
        1
 62
     0
 92
       -2
340
0
 93
        0
 40
0.045
309
GRIDFORMAT_END
 95
       32
302
GRIDFORMAT
  1
GRIDFORMAT_BEGIN
 90
        0
 91
        1
 62
     0
 92
       -2
340
0
 93
        0
 40
0.045
309
GRIDFORMAT_END
309
TABLEFORMAT_END
  1
CELLSTYLE_BEGIN
 90
        1
 91
        1
300
_TITLE
309
CELLSTYLE_END
300
CELLSTYLE
  1
TABLEFORMAT_BEGIN
 90
        5
170
     1
 91
        0
 92
        0
 62
   257
 93
        1
300
CONTENTFORMAT
  1
CONTENTFORMAT_BEGIN
 90
        0
 91
        0
 92
      512
 93
        0
300

 40
0.0
140
1.0
 94
        5
 62
     0
340
F
144
0.18
309
CONTENTFORMAT_END
171
     1
301
MARGIN
  1
CELLMARGIN_BEGIN
 40
0.06
 40
0.06
 40
0.06
 40
0.06
 40
0.18
 40
0.18
309
CELLMARGIN_END
 94
        6
 95
        1
302
GRIDFORMAT
  1
GRIDFORMAT_BEGIN
 90
        0
 91
        1
 62
     0
 92
       -2
340
0
 93
        0
 40
0.045
309
GRIDFORMAT_END
 95
        2
302
GRIDFORMAT
  1
GRIDFORMAT_BEGIN
 90
        0
 91
        1
 62
     0
 92
       -2
340
0
 93
        0
 40
0.045
309
GRIDFORMAT_END
 95
        4
302
GRIDFORMAT
  1
GRIDFORMAT_BEGIN
 90
        0
 91
        1
 62
     0
 92
       -2
340
0
 93
        0
 40
0.045
309
GRIDFORMAT_END
 95
        8
302
GRIDFORMAT
  1
GRIDFORMAT_BEGIN
 90
        0
 91
        1
 62
     0
 92
       -2
340
0
 93
        0
 40
0.045
309
GRIDFORMAT_END
 95
       16
302
GRIDFORMAT
  1
GRIDFORMAT_BEGIN
 90
        0
 91
        1
 62
     0
 92
       -2
340
0
 93
        0
 40
0.045
309
GRIDFORMAT_END
 95
       32
302
GRIDFORMAT
  1
GRIDFORMAT_BEGIN
 90
        0
 91
        1
 62
     0
 92
       -2
340
0
 93
        0
 40
0.045
309
GRIDFORMAT_END
309
TABLEFORMAT_END
  1
CELLSTYLE_BEGIN
 90
        2
 91
        1
300
_HEADER
309
CELLSTYLE_END
300
CELLSTYLE
  1
TABLEFORMAT_BEGIN
 90
        5
170
     1
 91
        0
 92
        0
 62
   257
 93
        1
300
CONTENTFORMAT
  1
CONTENTFORMAT_BEGIN
 90
        0
 91
        0
 92
      512
 93
        0
300

 40
0.0
140
1.0
 94
        2
 62
     0
340
F
144
0.18
309
CONTENTFORMAT_END
171
     1
301
MARGIN
  1
CELLMARGIN_BEGIN
 40
0.06
 40
0.06
 40
0.06
 40
0.06
 40
0.18
 40
0.18
309
CELLMARGIN_END
 94
        6
 95
        1
302
GRIDFORMAT
  1
GRIDFORMAT_BEGIN
 90
        0
 91
        1
 62
     0
 92
       -2
340
0
 93
        0
 40
0.045
309
GRIDFORMAT_END
 95
        2
302
GRIDFORMAT
  1
GRIDFORMAT_BEGIN
 90
        0
 91
        1
 62
     0
 92
       -2
340
0
 93
        0
 40
0.045
309
GRIDFORMAT_END
 95
        4
302
GRIDFORMAT
  1
GRIDFORMAT_BEGIN
 90
        0
 91
        1
 62
     0
 92
       -2
340
0
 93
        0
 40
0.045
309
GRIDFORMAT_END
 95
        8
302
GRIDFORMAT
  1
GRIDFORMAT_BEGIN
 90
        0
 91
        1
 62
     0
 92
       -2
340
0
 93
        0
 40
0.045
309
GRIDFORMAT_END
 95
       16
302
GRIDFORMAT
  1
GRIDFORMAT_BEGIN
 90
        0
 91
        1
 62
     0
 92
       -2
340
0
 93
        0
 40
0.045
309
GRIDFORMAT_END
 95
       32
302
GRIDFORMAT
  1
GRIDFORMAT_BEGIN
 90
        0
 91
        1
 62
     0
 92
       -2
340
0
 93
        0
 40
0.045
309
GRIDFORMAT_END
309
TABLEFORMAT_END
  1
CELLSTYLE_BEGIN
 90
        3
 91
        2
300
_DATA
309
CELLSTYLE_END
  0
XRECORD
  5
4A77
102
{ACAD_REACTORS
330
49FF
102
}
330
49FF
100
AcDbXrecord
280
     1
102
ACAD_ROUNDTRIP_PRE2007_TABLESTYLE
 90
      512
 91
        0
  1

 92
      512
 93
        0
  2

 94
      512
 95
        0
  3

  0
XRECORD
  5
4A52
102
{ACAD_REACTORS
330
4A51
102
}
330
4A51
100
AcDbXrecord
280
     1
102
RTVSPost2010Prop28
280
     1
102
RTVSPost2010PropOp28
 70
     1
102
RTVSPost2010Prop29
280
     1
102
RTVSPost2010PropOp29
 70
     1
102
RTVSPost2010Prop30
280
     0
102
RTVSPost2010PropOp30
 70
     1
102
RTVSPost2010Prop31
280
     0
102
RTVSPost2010PropOp31
 70
     1
102
RTVSPost2010Prop32
280
     0
102
RTVSPost2010PropOp32
 70
     1
102
RTVSPost2010Prop33
280
     0
102
RTVSPost2010PropOp33
 70
     1
102
RTVSPost2010Prop34
280
     0
102
RTVSPost2010PropOp34
 70
     1
102
RTVSPost2010Prop35
280
     0
102
RTVSPost2010PropOp35
 70
     1
102
RTVSPost2010Prop36
280
     0
102
RTVSPost2010PropOp36
 70
     1
102
RTVSPost2010Prop37
 90
       50
102
RTVSPost2010PropOp37
 70
     1
102
RTVSPost2010Prop38
140
0.0
102
RTVSPost2010PropOp38
 70
     1
102
RTVSPost2010Prop39
140
1.0
102
RTVSPost2010PropOp39
 70
     1
102
RTVSPost2010Prop40
 90
        0
102
RTVSPost2010PropOp40
 70
     1
102
RTVSPost2010Prop41ColorIndex
 90
       18
102
RTVSPost2010Prop41ColorRGB
 90
        0
102
RTVSPost2010PropOp41
 70
     1
102
RTVSPost2010Prop42
 90
       50
102
RTVSPost2010PropOp42
 70
     1
102
RTVSPost2010Prop43
 90
        3
102
RTVSPost2010PropOp43
 70
     1
102
RTVSPost2010Prop44ColorIndex
 90
        5
102
RTVSPost2010Prop44ColorRGB
 90
      255
102
RTVSPost2010PropOp44
 70
     1
102
RTVSPost2010Prop45
280
     0
102
RTVSPost2010PropOp45
 70
     1
102
RTVSPost2010Prop46
 90
       50
102
RTVSPost2010PropOp46
 70
     1
102
RTVSPost2010Prop47
 90
       50
102
RTVSPost2010PropOp47
 70
     1
102
RTVSPost2010Prop48
 90
       50
102
RTVSPost2010PropOp48
 70
     1
102
RTVSPost2010Prop49
280
     0
102
RTVSPost2010PropOp49
 70
     1
102
RTVSPost2010Prop50
 90
       50
102
RTVSPost2010PropOp50
 70
     1
102
RTVSPost2010Prop51ColorIndex
 90
      256
102
RTVSPost2010Prop51ColorRGB
 90
-16777216
102
RTVSPost2010PropOp51
 70
     0
102
RTVSPost2010Prop52
140
1.0
102
RTVSPost2010PropOp52
 70
     0
102
RTVSPost2010Prop53
 90
        2
102
RTVSPost2010PropOp53
 70
     1
102
RTVSPost2010Prop54
  1
strokes_ogs.tif
102
RTVSPost2010PropOp54
 70
     1
102
RTVSPost2010Prop55
280
     0
102
RTVSPost2010PropOp55
 70
     1
102
RTVSPost2010Prop56
140
1.0
102
RTVSPost2010PropOp56
 70
     1
102
RTVSPost2010Prop57
140
1.0
102
RTVSPost2010PropOp57
 70
     1
102
RTVSPropertyOp0
 70
     1
102
RTVSPropertyOp1
 70
     1
102
RTVSPropertyOp2
 70
     1
102
RTVSPropertyOp3
 70
     1
102
RTVSPropertyOp4
 70
     1
102
RTVSPropertyOp5
 70
     1
102
RTVSPropertyOp6
 70
     1
102
RTVSPropertyOp7
 70
     1
102
RTVSPropertyOp8
 70
     1
102
RTVSPropertyOp9
 70
     1
102
RTVSPropertyOp10
 70
     1
102
RTVSPropertyOp11
 70
     1
102
RTVSPropertyOp12
 70
     1
102
RTVSPropertyOp13
 70
     1
102
RTVSPropertyOp14
 70
     1
102
RTVSPropertyOp15
 70
     1
102
RTVSPropertyOp16
 70
     1
102
RTVSPropertyOp17
 70
     1
102
RTVSPropertyOp18
 70
     1
102
RTVSPropertyOp19
 70
     1
102
RTVSPropertyOp20
 70
     1
102
RTVSPropertyOp21
 70
     1
102
RTVSPropertyOp22
 70
     1
102
RTVSPropertyOp23
 70
     1
102
RTVSPropertyOp24
 70
     1
102
RTVSPropertyOp25
 70
     1
102
RTVSPropertyOp26
 70
     1
102
RTVSPropertyOp27
 70
     1
102
RTVSPropertyOp28
 70
     1
102
RTVSPropertyOp29
 70
     1
102
RTVSPropertyOp30
 70
     1
102
RTVSPropertyOp31
 70
     1
102
RTVSPropertyOp32
 70
     1
102
RTVSPropertyOp33
 70
     1
102
RTVSPropertyOp34
 70
     1
102
RTVSPropertyOp35
 70
     1
102
RTVSPropertyOp36
 70
     1
102
RTVSPropertyOp37
 70
     1
102
RTVSPropertyOp38
 70
     1
102
RTVSPropertyOp39
 70
     1
102
RTVSPropertyOp40
 70
     1
102
RTVSPropertyOp41
 70
     1
102
RTVSPropertyOp42
 70
     1
102
RTVSPropertyOp43
 70
     1
102
RTVSPropertyOp44
 70
     1
102
RTVSPropertyOp45
 70
     1
102
RTVSPropertyOp46
 70
     1
102
RTVSPropertyOp47
 70
     1
102
RTVSPropertyOp48
 70
     1
102
RTVSPropertyOp49
 70
     1
102
RTVSPropertyOp50
 70
     1
102
RTVSPropertyOp51
 70
     0
102
RTVSPropertyOp52
 70
     0
102
RTVSPropertyOp53
 70
     1
102
RTVSPropertyOp54
 70
     1
102
RTVSPropertyOp55
 70
     1
102
RTVSPropertyOp56
 70
     1
102
RTVSPropertyOp57
 70
     1
102
RTVSPropertyOp58
 70
     1
102
RTVSPropertyOp59
 70
     1
102
RTVSPropertyOp60
 70
     1
102
RTVSPropertyOp61
 70
     1
102
RTVSPropertyOp62
 70
     1
  0
XRECORD
  5
4A50
102
{ACAD_REACTORS
330
4A4F
102
}
330
4A4F
100
AcDbXrecord
280
     1
102
RTVSPost2010Prop28
280
     0
102
RTVSPost2010PropOp28
 70
     1
102
RTVSPost2010Prop29
280
     1
102
RTVSPost2010PropOp29
 70
     1
102
RTVSPost2010Prop30
280
     1
102
RTVSPost2010PropOp30
 70
     1
102
RTVSPost2010Prop31
280
     0
102
RTVSPost2010PropOp31
 70
     1
102
RTVSPost2010Prop32
280
     0
102
RTVSPost2010PropOp32
 70
     1
102
RTVSPost2010Prop33
280
     0
102
RTVSPost2010PropOp33
 70
     1
102
RTVSPost2010Prop34
280
     0
102
RTVSPost2010PropOp34
 70
     1
102
RTVSPost2010Prop35
280
     0
102
RTVSPost2010PropOp35
 70
     1
102
RTVSPost2010Prop36
280
     0
102
RTVSPost2010PropOp36
 70
     1
102
RTVSPost2010Prop37
 90
       50
102
RTVSPost2010PropOp37
 70
     1
102
RTVSPost2010Prop38
140
0.0
102
RTVSPost2010PropOp38
 70
     1
102
RTVSPost2010Prop39
140
1.0
102
RTVSPost2010PropOp39
 70
     1
102
RTVSPost2010Prop40
 90
        0
102
RTVSPost2010PropOp40
 70
     1
102
RTVSPost2010Prop41ColorIndex
 90
       18
102
RTVSPost2010Prop41ColorRGB
 90
        0
102
RTVSPost2010PropOp41
 70
     1
102
RTVSPost2010Prop42
 90
       50
102
RTVSPost2010PropOp42
 70
     1
102
RTVSPost2010Prop43
 90
        3
102
RTVSPost2010PropOp43
 70
     1
102
RTVSPost2010Prop44ColorIndex
 90
        5
102
RTVSPost2010Prop44ColorRGB
 90
      255
102
RTVSPost2010PropOp44
 70
     1
102
RTVSPost2010Prop45
280
     0
102
RTVSPost2010PropOp45
 70
     1
102
RTVSPost2010Prop46
 90
       50
102
RTVSPost2010PropOp46
 70
     1
102
RTVSPost2010Prop47
 90
       50
102
RTVSPost2010PropOp47
 70
     1
102
RTVSPost2010Prop48
 90
       50
102
RTVSPost2010PropOp48
 70
     1
102
RTVSPost2010Prop49
280
     0
102
RTVSPost2010PropOp49
 70
     1
102
RTVSPost2010Prop50
 90
       50
102
RTVSPost2010PropOp50
 70
     1
102
RTVSPost2010Prop51ColorIndex
 90
      256
102
RTVSPost2010Prop51ColorRGB
 90
-16777216
102
RTVSPost2010PropOp51
 70
     0
102
RTVSPost2010Prop52
140
1.0
102
RTVSPost2010PropOp52
 70
     0
102
RTVSPost2010Prop53
 90
        2
102
RTVSPost2010PropOp53
 70
     1
102
RTVSPost2010Prop54
  1
strokes_ogs.tif
102
RTVSPost2010PropOp54
 70
     1
102
RTVSPost2010Prop55
280
     0
102
RTVSPost2010PropOp55
 70
     1
102
RTVSPost2010Prop56
140
1.0
102
RTVSPost2010PropOp56
 70
     1
102
RTVSPost2010Prop57
140
1.0
102
RTVSPost2010PropOp57
 70
     1
102
RTVSPropertyOp0
 70
     1
102
RTVSPropertyOp1
 70
     1
102
RTVSPropertyOp2
 70
     1
102
RTVSPropertyOp3
 70
     1
102
RTVSPropertyOp4
 70
     1
102
RTVSPropertyOp5
 70
     1
102
RTVSPropertyOp6
 70
     1
102
RTVSPropertyOp7
 70
     1
102
RTVSPropertyOp8
 70
     1
102
RTVSPropertyOp9
 70
     1
102
RTVSPropertyOp10
 70
     1
102
RTVSPropertyOp11
 70
     1
102
RTVSPropertyOp12
 70
     1
102
RTVSPropertyOp13
 70
     1
102
RTVSPropertyOp14
 70
     1
102
RTVSPropertyOp15
 70
     1
102
RTVSPropertyOp16
 70
     1
102
RTVSPropertyOp17
 70
     1
102
RTVSPropertyOp18
 70
     1
102
RTVSPropertyOp19
 70
     1
102
RTVSPropertyOp20
 70
     1
102
RTVSPropertyOp21
 70
     1
102
RTVSPropertyOp22
 70
     1
102
RTVSPropertyOp23
 70
     1
102
RTVSPropertyOp24
 70
     1
102
RTVSPropertyOp25
 70
     1
102
RTVSPropertyOp26
 70
     1
102
RTVSPropertyOp27
 70
     1
102
RTVSPropertyOp28
 70
     1
102
RTVSPropertyOp29
 70
     1
102
RTVSPropertyOp30
 70
     1
102
RTVSPropertyOp31
 70
     1
102
RTVSPropertyOp32
 70
     1
102
RTVSPropertyOp33
 70
     1
102
RTVSPropertyOp34
 70
     1
102
RTVSPropertyOp35
 70
     1
102
RTVSPropertyOp36
 70
     1
102
RTVSPropertyOp37
 70
     1
102
RTVSPropertyOp38
 70
     1
102
RTVSPropertyOp39
 70
     1
102
RTVSPropertyOp40
 70
     1
102
RTVSPropertyOp41
 70
     1
102
RTVSPropertyOp42
 70
     1
102
RTVSPropertyOp43
 70
     1
102
RTVSPropertyOp44
 70
     1
102
RTVSPropertyOp45
 70
     1
102
RTVSPropertyOp46
 70
     1
102
RTVSPropertyOp47
 70
     1
102
RTVSPropertyOp48
 70
     1
102
RTVSPropertyOp49
 70
     1
102
RTVSPropertyOp50
 70
     1
102
RTVSPropertyOp51
 70
     0
102
RTVSPropertyOp52
 70
     0
102
RTVSPropertyOp53
 70
     1
102
RTVSPropertyOp54
 70
     1
102
RTVSPropertyOp55
 70
     1
102
RTVSPropertyOp56
 70
     1
102
RTVSPropertyOp57
 70
     1
102
RTVSPropertyOp58
 70
     1
102
RTVSPropertyOp59
 70
     1
102
RTVSPropertyOp60
 70
     1
102
RTVSPropertyOp61
 70
     1
102
RTVSPropertyOp62
 70
     1
  0
XRECORD
  5
4A5E
102
{ACAD_REACTORS
330
4A5D
102
}
330
4A5D
100
AcDbXrecord
280
     1
102
RTVSPost2010Prop28
280
     0
102
RTVSPost2010PropOp28
 70
     1
102
RTVSPost2010Prop29
280
     1
102
RTVSPost2010PropOp29
 70
     1
102
RTVSPost2010Prop30
280
     1
102
RTVSPost2010PropOp30
 70
     1
102
RTVSPost2010Prop31
280
     0
102
RTVSPost2010PropOp31
 70
     1
102
RTVSPost2010Prop32
280
     0
102
RTVSPost2010PropOp32
 70
     1
102
RTVSPost2010Prop33
280
     0
102
RTVSPost2010PropOp33
 70
     1
102
RTVSPost2010Prop34
280
     0
102
RTVSPost2010PropOp34
 70
     1
102
RTVSPost2010Prop35
280
     0
102
RTVSPost2010PropOp35
 70
     1
102
RTVSPost2010Prop36
280
     0
102
RTVSPost2010PropOp36
 70
     1
102
RTVSPost2010Prop37
 90
       50
102
RTVSPost2010PropOp37
 70
     1
102
RTVSPost2010Prop38
140
0.0
102
RTVSPost2010PropOp38
 70
     1
102
RTVSPost2010Prop39
140
1.0
102
RTVSPost2010PropOp39
 70
     1
102
RTVSPost2010Prop40
 90
        0
102
RTVSPost2010PropOp40
 70
     1
102
RTVSPost2010Prop41ColorIndex
 90
       18
102
RTVSPost2010Prop41ColorRGB
 90
        0
102
RTVSPost2010PropOp41
 70
     1
102
RTVSPost2010Prop42
 90
       50
102
RTVSPost2010PropOp42
 70
     1
102
RTVSPost2010Prop43
 90
        3
102
RTVSPost2010PropOp43
 70
     1
102
RTVSPost2010Prop44ColorIndex
 90
        5
102
RTVSPost2010Prop44ColorRGB
 90
      255
102
RTVSPost2010PropOp44
 70
     1
102
RTVSPost2010Prop45
280
     0
102
RTVSPost2010PropOp45
 70
     1
102
RTVSPost2010Prop46
 90
       50
102
RTVSPost2010PropOp46
 70
     1
102
RTVSPost2010Prop47
 90
       50
102
RTVSPost2010PropOp47
 70
     1
102
RTVSPost2010Prop48
 90
       50
102
RTVSPost2010PropOp48
 70
     1
102
RTVSPost2010Prop49
280
     0
102
RTVSPost2010PropOp49
 70
     1
102
RTVSPost2010Prop50
 90
       50
102
RTVSPost2010PropOp50
 70
     1
102
RTVSPost2010Prop51ColorIndex
 90
      256
102
RTVSPost2010Prop51ColorRGB
 90
-16777216
102
RTVSPost2010PropOp51
 70
     0
102
RTVSPost2010Prop52
140
1.0
102
RTVSPost2010PropOp52
 70
     0
102
RTVSPost2010Prop53
 90
        2
102
RTVSPost2010PropOp53
 70
     1
102
RTVSPost2010Prop54
  1
strokes_ogs.tif
102
RTVSPost2010PropOp54
 70
     1
102
RTVSPost2010Prop55
280
     0
102
RTVSPost2010PropOp55
 70
     1
102
RTVSPost2010Prop56
140
1.0
102
RTVSPost2010PropOp56
 70
     1
102
RTVSPost2010Prop57
140
1.0
102
RTVSPost2010PropOp57
 70
     1
102
RTVSPropertyOp0
 70
     1
102
RTVSPropertyOp1
 70
     1
102
RTVSPropertyOp2
 70
     1
102
RTVSPropertyOp3
 70
     1
102
RTVSPropertyOp4
 70
     1
102
RTVSPropertyOp5
 70
     1
102
RTVSPropertyOp6
 70
     1
102
RTVSPropertyOp7
 70
     1
102
RTVSPropertyOp8
 70
     1
102
RTVSPropertyOp9
 70
     1
102
RTVSPropertyOp10
 70
     1
102
RTVSPropertyOp11
 70
     1
102
RTVSPropertyOp12
 70
     1
102
RTVSPropertyOp13
 70
     1
102
RTVSPropertyOp14
 70
     1
102
RTVSPropertyOp15
 70
     1
102
RTVSPropertyOp16
 70
     1
102
RTVSPropertyOp17
 70
     1
102
RTVSPropertyOp18
 70
     1
102
RTVSPropertyOp19
 70
     1
102
RTVSPropertyOp20
 70
     1
102
RTVSPropertyOp21
 70
     1
102
RTVSPropertyOp22
 70
     1
102
RTVSPropertyOp23
 70
     1
102
RTVSPropertyOp24
 70
     1
102
RTVSPropertyOp25
 70
     1
102
RTVSPropertyOp26
 70
     1
102
RTVSPropertyOp27
 70
     1
102
RTVSPropertyOp28
 70
     1
102
RTVSPropertyOp29
 70
     1
102
RTVSPropertyOp30
 70
     1
102
RTVSPropertyOp31
 70
     1
102
RTVSPropertyOp32
 70
     1
102
RTVSPropertyOp33
 70
     1
102
RTVSPropertyOp34
 70
     1
102
RTVSPropertyOp35
 70
     1
102
RTVSPropertyOp36
 70
     1
102
RTVSPropertyOp37
 70
     1
102
RTVSPropertyOp38
 70
     1
102
RTVSPropertyOp39
 70
     1
102
RTVSPropertyOp40
 70
     1
102
RTVSPropertyOp41
 70
     1
102
RTVSPropertyOp42
 70
     1
102
RTVSPropertyOp43
 70
     1
102
RTVSPropertyOp44
 70
     1
102
RTVSPropertyOp45
 70
     1
102
RTVSPropertyOp46
 70
     1
102
RTVSPropertyOp47
 70
     1
102
RTVSPropertyOp48
 70
     1
102
RTVSPropertyOp49
 70
     1
102
RTVSPropertyOp50
 70
     1
102
RTVSPropertyOp51
 70
     0
102
RTVSPropertyOp52
 70
     0
102
RTVSPropertyOp53
 70
     1
102
RTVSPropertyOp54
 70
     1
102
RTVSPropertyOp55
 70
     1
102
RTVSPropertyOp56
 70
     1
102
RTVSPropertyOp57
 70
     1
102
RTVSPropertyOp58
 70
     1
102
RTVSPropertyOp59
 70
     1
102
RTVSPropertyOp60
 70
     1
102
RTVSPropertyOp61
 70
     1
102
RTVSPropertyOp62
 70
     1
  0
XRECORD
  5
4A66
102
{ACAD_REACTORS
330
4A65
102
}
330
4A65
100
AcDbXrecord
280
     1
102
RTVSPost2010Prop28
280
     0
102
RTVSPost2010PropOp28
 70
     1
102
RTVSPost2010Prop29
280
     1
102
RTVSPost2010PropOp29
 70
     1
102
RTVSPost2010Prop30
280
     1
102
RTVSPost2010PropOp30
 70
     1
102
RTVSPost2010Prop31
280
     0
102
RTVSPost2010PropOp31
 70
     1
102
RTVSPost2010Prop32
280
     0
102
RTVSPost2010PropOp32
 70
     1
102
RTVSPost2010Prop33
280
     0
102
RTVSPost2010PropOp33
 70
     1
102
RTVSPost2010Prop34
280
     0
102
RTVSPost2010PropOp34
 70
     1
102
RTVSPost2010Prop35
280
     0
102
RTVSPost2010PropOp35
 70
     1
102
RTVSPost2010Prop36
280
     0
102
RTVSPost2010PropOp36
 70
     1
102
RTVSPost2010Prop37
 90
       50
102
RTVSPost2010PropOp37
 70
     1
102
RTVSPost2010Prop38
140
0.0
102
RTVSPost2010PropOp38
 70
     1
102
RTVSPost2010Prop39
140
1.0
102
RTVSPost2010PropOp39
 70
     1
102
RTVSPost2010Prop40
 90
        0
102
RTVSPost2010PropOp40
 70
     1
102
RTVSPost2010Prop41ColorIndex
 90
       18
102
RTVSPost2010Prop41ColorRGB
 90
        0
102
RTVSPost2010PropOp41
 70
     1
102
RTVSPost2010Prop42
 90
       50
102
RTVSPost2010PropOp42
 70
     1
102
RTVSPost2010Prop43
 90
        3
102
RTVSPost2010PropOp43
 70
     1
102
RTVSPost2010Prop44ColorIndex
 90
        5
102
RTVSPost2010Prop44ColorRGB
 90
      255
102
RTVSPost2010PropOp44
 70
     1
102
RTVSPost2010Prop45
280
     0
102
RTVSPost2010PropOp45
 70
     1
102
RTVSPost2010Prop46
 90
       50
102
RTVSPost2010PropOp46
 70
     1
102
RTVSPost2010Prop47
 90
       50
102
RTVSPost2010PropOp47
 70
     1
102
RTVSPost2010Prop48
 90
       50
102
RTVSPost2010PropOp48
 70
     1
102
RTVSPost2010Prop49
280
     0
102
RTVSPost2010PropOp49
 70
     1
102
RTVSPost2010Prop50
 90
       50
102
RTVSPost2010PropOp50
 70
     1
102
RTVSPost2010Prop51ColorIndex
 90
      256
102
RTVSPost2010Prop51ColorRGB
 90
-16777216
102
RTVSPost2010PropOp51
 70
     0
102
RTVSPost2010Prop52
140
1.0
102
RTVSPost2010PropOp52
 70
     0
102
RTVSPost2010Prop53
 90
        2
102
RTVSPost2010PropOp53
 70
     1
102
RTVSPost2010Prop54
  1
strokes_ogs.tif
102
RTVSPost2010PropOp54
 70
     1
102
RTVSPost2010Prop55
280
     0
102
RTVSPost2010PropOp55
 70
     1
102
RTVSPost2010Prop56
140
1.0
102
RTVSPost2010PropOp56
 70
     1
102
RTVSPost2010Prop57
140
1.0
102
RTVSPost2010PropOp57
 70
     1
102
RTVSPropertyOp0
 70
     1
102
RTVSPropertyOp1
 70
     1
102
RTVSPropertyOp2
 70
     1
102
RTVSPropertyOp3
 70
     1
102
RTVSPropertyOp4
 70
     1
102
RTVSPropertyOp5
 70
     1
102
RTVSPropertyOp6
 70
     1
102
RTVSPropertyOp7
 70
     1
102
RTVSPropertyOp8
 70
     1
102
RTVSPropertyOp9
 70
     1
102
RTVSPropertyOp10
 70
     1
102
RTVSPropertyOp11
 70
     1
102
RTVSPropertyOp12
 70
     1
102
RTVSPropertyOp13
 70
     1
102
RTVSPropertyOp14
 70
     1
102
RTVSPropertyOp15
 70
     1
102
RTVSPropertyOp16
 70
     1
102
RTVSPropertyOp17
 70
     1
102
RTVSPropertyOp18
 70
     1
102
RTVSPropertyOp19
 70
     1
102
RTVSPropertyOp20
 70
     1
102
RTVSPropertyOp21
 70
     1
102
RTVSPropertyOp22
 70
     1
102
RTVSPropertyOp23
 70
     1
102
RTVSPropertyOp24
 70
     1
102
RTVSPropertyOp25
 70
     1
102
RTVSPropertyOp26
 70
     1
102
RTVSPropertyOp27
 70
     1
102
RTVSPropertyOp28
 70
     1
102
RTVSPropertyOp29
 70
     1
102
RTVSPropertyOp30
 70
     1
102
RTVSPropertyOp31
 70
     1
102
RTVSPropertyOp32
 70
     1
102
RTVSPropertyOp33
 70
     1
102
RTVSPropertyOp34
 70
     1
102
RTVSPropertyOp35
 70
     1
102
RTVSPropertyOp36
 70
     1
102
RTVSPropertyOp37
 70
     1
102
RTVSPropertyOp38
 70
     1
102
RTVSPropertyOp39
 70
     1
102
RTVSPropertyOp40
 70
     1
102
RTVSPropertyOp41
 70
     1
102
RTVSPropertyOp42
 70
     1
102
RTVSPropertyOp43
 70
     1
102
RTVSPropertyOp44
 70
     1
102
RTVSPropertyOp45
 70
     1
102
RTVSPropertyOp46
 70
     1
102
RTVSPropertyOp47
 70
     1
102
RTVSPropertyOp48
 70
     1
102
RTVSPropertyOp49
 70
     1
102
RTVSPropertyOp50
 70
     1
102
RTVSPropertyOp51
 70
     0
102
RTVSPropertyOp52
 70
     0
102
RTVSPropertyOp53
 70
     1
102
RTVSPropertyOp54
 70
     1
102
RTVSPropertyOp55
 70
     1
102
RTVSPropertyOp56
 70
     1
102
RTVSPropertyOp57
 70
     1
102
RTVSPropertyOp58
 70
     1
102
RTVSPropertyOp59
 70
     1
102
RTVSPropertyOp60
 70
     1
102
RTVSPropertyOp61
 70
     1
102
RTVSPropertyOp62
 70
     1
  0
XRECORD
  5
4A58
102
{ACAD_REACTORS
330
4A57
102
}
330
4A57
100
AcDbXrecord
280
     1
102
RTVSPost2010Prop28
280
     0
102
RTVSPost2010PropOp28
 70
     1
102
RTVSPost2010Prop29
280
     1
102
RTVSPost2010PropOp29
 70
     1
102
RTVSPost2010Prop30
280
     1
102
RTVSPost2010PropOp30
 70
     1
102
RTVSPost2010Prop31
280
     0
102
RTVSPost2010PropOp31
 70
     1
102
RTVSPost2010Prop32
280
     0
102
RTVSPost2010PropOp32
 70
     1
102
RTVSPost2010Prop33
280
     0
102
RTVSPost2010PropOp33
 70
     1
102
RTVSPost2010Prop34
280
     0
102
RTVSPost2010PropOp34
 70
     1
102
RTVSPost2010Prop35
280
     0
102
RTVSPost2010PropOp35
 70
     1
102
RTVSPost2010Prop36
280
     0
102
RTVSPost2010PropOp36
 70
     1
102
RTVSPost2010Prop37
 90
       50
102
RTVSPost2010PropOp37
 70
     1
102
RTVSPost2010Prop38
140
0.0
102
RTVSPost2010PropOp38
 70
     1
102
RTVSPost2010Prop39
140
1.0
102
RTVSPost2010PropOp39
 70
     1
102
RTVSPost2010Prop40
 90
        0
102
RTVSPost2010PropOp40
 70
     1
102
RTVSPost2010Prop41ColorIndex
 90
       18
102
RTVSPost2010Prop41ColorRGB
 90
        0
102
RTVSPost2010PropOp41
 70
     1
102
RTVSPost2010Prop42
 90
       50
102
RTVSPost2010PropOp42
 70
     1
102
RTVSPost2010Prop43
 90
        3
102
RTVSPost2010PropOp43
 70
     1
102
RTVSPost2010Prop44ColorIndex
 90
        5
102
RTVSPost2010Prop44ColorRGB
 90
      255
102
RTVSPost2010PropOp44
 70
     1
102
RTVSPost2010Prop45
280
     0
102
RTVSPost2010PropOp45
 70
     1
102
RTVSPost2010Prop46
 90
       50
102
RTVSPost2010PropOp46
 70
     1
102
RTVSPost2010Prop47
 90
       50
102
RTVSPost2010PropOp47
 70
     1
102
RTVSPost2010Prop48
 90
       50
102
RTVSPost2010PropOp48
 70
     1
102
RTVSPost2010Prop49
280
     0
102
RTVSPost2010PropOp49
 70
     1
102
RTVSPost2010Prop50
 90
       50
102
RTVSPost2010PropOp50
 70
     1
102
RTVSPost2010Prop51ColorIndex
 90
      256
102
RTVSPost2010Prop51ColorRGB
 90
-16777216
102
RTVSPost2010PropOp51
 70
     0
102
RTVSPost2010Prop52
140
1.0
102
RTVSPost2010PropOp52
 70
     0
102
RTVSPost2010Prop53
 90
        2
102
RTVSPost2010PropOp53
 70
     1
102
RTVSPost2010Prop54
  1
strokes_ogs.tif
102
RTVSPost2010PropOp54
 70
     1
102
RTVSPost2010Prop55
280
     0
102
RTVSPost2010PropOp55
 70
     1
102
RTVSPost2010Prop56
140
1.0
102
RTVSPost2010PropOp56
 70
     1
102
RTVSPost2010Prop57
140
1.0
102
RTVSPost2010PropOp57
 70
     1
102
RTVSPropertyOp0
 70
     1
102
RTVSPropertyOp1
 70
     1
102
RTVSPropertyOp2
 70
     1
102
RTVSPropertyOp3
 70
     1
102
RTVSPropertyOp4
 70
     1
102
RTVSPropertyOp5
 70
     1
102
RTVSPropertyOp6
 70
     1
102
RTVSPropertyOp7
 70
     1
102
RTVSPropertyOp8
 70
     1
102
RTVSPropertyOp9
 70
     1
102
RTVSPropertyOp10
 70
     1
102
RTVSPropertyOp11
 70
     1
102
RTVSPropertyOp12
 70
     1
102
RTVSPropertyOp13
 70
     1
102
RTVSPropertyOp14
 70
     1
102
RTVSPropertyOp15
 70
     1
102
RTVSPropertyOp16
 70
     1
102
RTVSPropertyOp17
 70
     1
102
RTVSPropertyOp18
 70
     1
102
RTVSPropertyOp19
 70
     1
102
RTVSPropertyOp20
 70
     1
102
RTVSPropertyOp21
 70
     1
102
RTVSPropertyOp22
 70
     1
102
RTVSPropertyOp23
 70
     1
102
RTVSPropertyOp24
 70
     1
102
RTVSPropertyOp25
 70
     1
102
RTVSPropertyOp26
 70
     1
102
RTVSPropertyOp27
 70
     1
102
RTVSPropertyOp28
 70
     1
102
RTVSPropertyOp29
 70
     1
102
RTVSPropertyOp30
 70
     1
102
RTVSPropertyOp31
 70
     1
102
RTVSPropertyOp32
 70
     1
102
RTVSPropertyOp33
 70
     1
102
RTVSPropertyOp34
 70
     1
102
RTVSPropertyOp35
 70
     1
102
RTVSPropertyOp36
 70
     1
102
RTVSPropertyOp37
 70
     1
102
RTVSPropertyOp38
 70
     1
102
RTVSPropertyOp39
 70
     1
102
RTVSPropertyOp40
 70
     1
102
RTVSPropertyOp41
 70
     1
102
RTVSPropertyOp42
 70
     1
102
RTVSPropertyOp43
 70
     1
102
RTVSPropertyOp44
 70
     1
102
RTVSPropertyOp45
 70
     1
102
RTVSPropertyOp46
 70
     1
102
RTVSPropertyOp47
 70
     1
102
RTVSPropertyOp48
 70
     1
102
RTVSPropertyOp49
 70
     1
102
RTVSPropertyOp50
 70
     1
102
RTVSPropertyOp51
 70
     0
102
RTVSPropertyOp52
 70
     0
102
RTVSPropertyOp53
 70
     1
102
RTVSPropertyOp54
 70
     1
102
RTVSPropertyOp55
 70
     1
102
RTVSPropertyOp56
 70
     1
102
RTVSPropertyOp57
 70
     1
102
RTVSPropertyOp58
 70
     1
102
RTVSPropertyOp59
 70
     1
102
RTVSPropertyOp60
 70
     1
102
RTVSPropertyOp61
 70
     1
102
RTVSPropertyOp62
 70
     1
  0
XRECORD
  5
4A5C
102
{ACAD_REACTORS
330
4A5B
102
}
330
4A5B
100
AcDbXrecord
280
     1
102
RTVSPost2010Prop28
280
     0
102
RTVSPost2010PropOp28
 70
     1
102
RTVSPost2010Prop29
280
     1
102
RTVSPost2010PropOp29
 70
     1
102
RTVSPost2010Prop30
280
     1
102
RTVSPost2010PropOp30
 70
     1
102
RTVSPost2010Prop31
280
     0
102
RTVSPost2010PropOp31
 70
     1
102
RTVSPost2010Prop32
280
     0
102
RTVSPost2010PropOp32
 70
     1
102
RTVSPost2010Prop33
280
     0
102
RTVSPost2010PropOp33
 70
     1
102
RTVSPost2010Prop34
280
     0
102
RTVSPost2010PropOp34
 70
     1
102
RTVSPost2010Prop35
280
     0
102
RTVSPost2010PropOp35
 70
     1
102
RTVSPost2010Prop36
280
     0
102
RTVSPost2010PropOp36
 70
     1
102
RTVSPost2010Prop37
 90
       50
102
RTVSPost2010PropOp37
 70
     1
102
RTVSPost2010Prop38
140
0.0
102
RTVSPost2010PropOp38
 70
     1
102
RTVSPost2010Prop39
140
1.0
102
RTVSPost2010PropOp39
 70
     1
102
RTVSPost2010Prop40
 90
        0
102
RTVSPost2010PropOp40
 70
     1
102
RTVSPost2010Prop41ColorIndex
 90
       18
102
RTVSPost2010Prop41ColorRGB
 90
        0
102
RTVSPost2010PropOp41
 70
     1
102
RTVSPost2010Prop42
 90
       50
102
RTVSPost2010PropOp42
 70
     1
102
RTVSPost2010Prop43
 90
        3
102
RTVSPost2010PropOp43
 70
     1
102
RTVSPost2010Prop44ColorIndex
 90
        5
102
RTVSPost2010Prop44ColorRGB
 90
      255
102
RTVSPost2010PropOp44
 70
     1
102
RTVSPost2010Prop45
280
     0
102
RTVSPost2010PropOp45
 70
     1
102
RTVSPost2010Prop46
 90
       50
102
RTVSPost2010PropOp46
 70
     1
102
RTVSPost2010Prop47
 90
       50
102
RTVSPost2010PropOp47
 70
     1
102
RTVSPost2010Prop48
 90
       50
102
RTVSPost2010PropOp48
 70
     1
102
RTVSPost2010Prop49
280
     0
102
RTVSPost2010PropOp49
 70
     1
102
RTVSPost2010Prop50
 90
       50
102
RTVSPost2010PropOp50
 70
     1
102
RTVSPost2010Prop51ColorIndex
 90
      256
102
RTVSPost2010Prop51ColorRGB
 90
-16777216
102
RTVSPost2010PropOp51
 70
     0
102
RTVSPost2010Prop52
140
1.0
102
RTVSPost2010PropOp52
 70
     0
102
RTVSPost2010Prop53
 90
        2
102
RTVSPost2010PropOp53
 70
     1
102
RTVSPost2010Prop54
  1
strokes_ogs.tif
102
RTVSPost2010PropOp54
 70
     1
102
RTVSPost2010Prop55
280
     0
102
RTVSPost2010PropOp55
 70
     1
102
RTVSPost2010Prop56
140
1.0
102
RTVSPost2010PropOp56
 70
     1
102
RTVSPost2010Prop57
140
1.0
102
RTVSPost2010PropOp57
 70
     1
102
RTVSPropertyOp0
 70
     1
102
RTVSPropertyOp1
 70
     1
102
RTVSPropertyOp2
 70
     1
102
RTVSPropertyOp3
 70
     1
102
RTVSPropertyOp4
 70
     1
102
RTVSPropertyOp5
 70
     1
102
RTVSPropertyOp6
 70
     1
102
RTVSPropertyOp7
 70
     1
102
RTVSPropertyOp8
 70
     1
102
RTVSPropertyOp9
 70
     1
102
RTVSPropertyOp10
 70
     1
102
RTVSPropertyOp11
 70
     1
102
RTVSPropertyOp12
 70
     1
102
RTVSPropertyOp13
 70
     1
102
RTVSPropertyOp14
 70
     1
102
RTVSPropertyOp15
 70
     1
102
RTVSPropertyOp16
 70
     1
102
RTVSPropertyOp17
 70
     1
102
RTVSPropertyOp18
 70
     1
102
RTVSPropertyOp19
 70
     1
102
RTVSPropertyOp20
 70
     1
102
RTVSPropertyOp21
 70
     1
102
RTVSPropertyOp22
 70
     1
102
RTVSPropertyOp23
 70
     1
102
RTVSPropertyOp24
 70
     1
102
RTVSPropertyOp25
 70
     1
102
RTVSPropertyOp26
 70
     1
102
RTVSPropertyOp27
 70
     1
102
RTVSPropertyOp28
 70
     1
102
RTVSPropertyOp29
 70
     1
102
RTVSPropertyOp30
 70
     1
102
RTVSPropertyOp31
 70
     1
102
RTVSPropertyOp32
 70
     1
102
RTVSPropertyOp33
 70
     1
102
RTVSPropertyOp34
 70
     1
102
RTVSPropertyOp35
 70
     1
102
RTVSPropertyOp36
 70
     1
102
RTVSPropertyOp37
 70
     1
102
RTVSPropertyOp38
 70
     1
102
RTVSPropertyOp39
 70
     1
102
RTVSPropertyOp40
 70
     1
102
RTVSPropertyOp41
 70
     1
102
RTVSPropertyOp42
 70
     1
102
RTVSPropertyOp43
 70
     1
102
RTVSPropertyOp44
 70
     1
102
RTVSPropertyOp45
 70
     1
102
RTVSPropertyOp46
 70
     1
102
RTVSPropertyOp47
 70
     1
102
RTVSPropertyOp48
 70
     1
102
RTVSPropertyOp49
 70
     1
102
RTVSPropertyOp50
 70
     1
102
RTVSPropertyOp51
 70
     0
102
RTVSPropertyOp52
 70
     0
102
RTVSPropertyOp53
 70
     1
102
RTVSPropertyOp54
 70
     1
102
RTVSPropertyOp55
 70
     1
102
RTVSPropertyOp56
 70
     1
102
RTVSPropertyOp57
 70
     1
102
RTVSPropertyOp58
 70
     1
102
RTVSPropertyOp59
 70
     1
102
RTVSPropertyOp60
 70
     1
102
RTVSPropertyOp61
 70
     1
102
RTVSPropertyOp62
 70
     1
  0
XRECORD
  5
4A76
102
{ACAD_REACTORS
330
4A75
102
}
330
4A75
100
AcDbXrecord
280
     1
102
RTVSPost2010Prop28
280
     0
102
RTVSPost2010PropOp28
 70
     1
102
RTVSPost2010Prop29
280
     1
102
RTVSPost2010PropOp29
 70
     1
102
RTVSPost2010Prop30
280
     1
102
RTVSPost2010PropOp30
 70
     1
102
RTVSPost2010Prop31
280
     0
102
RTVSPost2010PropOp31
 70
     1
102
RTVSPost2010Prop32
280
     0
102
RTVSPost2010PropOp32
 70
     1
102
RTVSPost2010Prop33
280
     0
102
RTVSPost2010PropOp33
 70
     1
102
RTVSPost2010Prop34
280
     0
102
RTVSPost2010PropOp34
 70
     1
102
RTVSPost2010Prop35
280
     0
102
RTVSPost2010PropOp35
 70
     1
102
RTVSPost2010Prop36
280
     0
102
RTVSPost2010PropOp36
 70
     1
102
RTVSPost2010Prop37
 90
       50
102
RTVSPost2010PropOp37
 70
     0
102
RTVSPost2010Prop38
140
0.0
102
RTVSPost2010PropOp38
 70
     0
102
RTVSPost2010Prop39
140
1.0
102
RTVSPost2010PropOp39
 70
     0
102
RTVSPost2010Prop40
 90
        0
102
RTVSPost2010PropOp40
 70
     0
102
RTVSPost2010Prop41ColorIndex
 90
       18
102
RTVSPost2010Prop41ColorRGB
 90
        0
102
RTVSPost2010PropOp41
 70
     0
102
RTVSPost2010Prop42
 90
       50
102
RTVSPost2010PropOp42
 70
     0
102
RTVSPost2010Prop43
 90
        3
102
RTVSPost2010PropOp43
 70
     0
102
RTVSPost2010Prop44ColorIndex
 90
        5
102
RTVSPost2010Prop44ColorRGB
 90
      255
102
RTVSPost2010PropOp44
 70
     0
102
RTVSPost2010Prop45
280
     0
102
RTVSPost2010PropOp45
 70
     1
102
RTVSPost2010Prop46
 90
       50
102
RTVSPost2010PropOp46
 70
     0
102
RTVSPost2010Prop47
 90
       50
102
RTVSPost2010PropOp47
 70
     0
102
RTVSPost2010Prop48
 90
       50
102
RTVSPost2010PropOp48
 70
     0
102
RTVSPost2010Prop49
280
     0
102
RTVSPost2010PropOp49
 70
     1
102
RTVSPost2010Prop50
 90
       50
102
RTVSPost2010PropOp50
 70
     0
102
RTVSPost2010Prop51ColorIndex
 90
      256
102
RTVSPost2010Prop51ColorRGB
 90
-16777216
102
RTVSPost2010PropOp51
 70
     0
102
RTVSPost2010Prop52
140
1.0
102
RTVSPost2010PropOp52
 70
     0
102
RTVSPost2010Prop53
 90
        2
102
RTVSPost2010PropOp53
 70
     0
102
RTVSPost2010Prop54
  1
strokes_ogs.tif
102
RTVSPost2010PropOp54
 70
     0
102
RTVSPost2010Prop55
280
     0
102
RTVSPost2010PropOp55
 70
     1
102
RTVSPost2010Prop56
140
1.0
102
RTVSPost2010PropOp56
 70
     0
102
RTVSPost2010Prop57
140
1.0
102
RTVSPost2010PropOp57
 70
     0
102
RTVSPropertyOp0
 70
     0
102
RTVSPropertyOp1
 70
     0
102
RTVSPropertyOp2
 70
     0
102
RTVSPropertyOp3
 70
     0
102
RTVSPropertyOp4
 70
     0
102
RTVSPropertyOp5
 70
     0
102
RTVSPropertyOp6
 70
     0
102
RTVSPropertyOp7
 70
     0
102
RTVSPropertyOp8
 70
     0
102
RTVSPropertyOp9
 70
     0
102
RTVSPropertyOp10
 70
     0
102
RTVSPropertyOp11
 70
     0
102
RTVSPropertyOp12
 70
     0
102
RTVSPropertyOp13
 70
     0
102
RTVSPropertyOp14
 70
     2
102
RTVSPropertyOp15
 70
     0
102
RTVSPropertyOp16
 70
     0
102
RTVSPropertyOp17
 70
     0
102
RTVSPropertyOp18
 70
     0
102
RTVSPropertyOp19
 70
     0
102
RTVSPropertyOp20
 70
     0
102
RTVSPropertyOp21
 70
     0
102
RTVSPropertyOp22
 70
     0
102
RTVSPropertyOp23
 70
     0
102
RTVSPropertyOp24
 70
     0
102
RTVSPropertyOp25
 70
     0
102
RTVSPropertyOp26
 70
     0
102
RTVSPropertyOp27
 70
     0
102
RTVSPropertyOp28
 70
     1
102
RTVSPropertyOp29
 70
     1
102
RTVSPropertyOp30
 70
     1
102
RTVSPropertyOp31
 70
     1
102
RTVSPropertyOp32
 70
     1
102
RTVSPropertyOp33
 70
     1
102
RTVSPropertyOp34
 70
     1
102
RTVSPropertyOp35
 70
     1
102
RTVSPropertyOp36
 70
     1
102
RTVSPropertyOp37
 70
     0
102
RTVSPropertyOp38
 70
     0
102
RTVSPropertyOp39
 70
     0
102
RTVSPropertyOp40
 70
     0
102
RTVSPropertyOp41
 70
     0
102
RTVSPropertyOp42
 70
     0
102
RTVSPropertyOp43
 70
     0
102
RTVSPropertyOp44
 70
     0
102
RTVSPropertyOp45
 70
     1
102
RTVSPropertyOp46
 70
     0
102
RTVSPropertyOp47
 70
     0
102
RTVSPropertyOp48
 70
     0
102
RTVSPropertyOp49
 70
     1
102
RTVSPropertyOp50
 70
     0
102
RTVSPropertyOp51
 70
     0
102
RTVSPropertyOp52
 70
     0
102
RTVSPropertyOp53
 70
     0
102
RTVSPropertyOp54
 70
     0
102
RTVSPropertyOp55
 70
     1
102
RTVSPropertyOp56
 70
     0
102
RTVSPropertyOp57
 70
     0
102
RTVSPropertyOp58
 70
     0
102
RTVSPropertyOp59
 70
     0
102
RTVSPropertyOp60
 70
     0
102
RTVSPropertyOp61
 70
     0
102
RTVSPropertyOp62
 70
     0
  0
XRECORD
  5
4A64
102
{ACAD_REACTORS
330
4A63
102
}
330
4A63
100
AcDbXrecord
280
     1
102
RTVSPost2010Prop28
280
     0
102
RTVSPost2010PropOp28
 70
     1
102
RTVSPost2010Prop29
280
     1
102
RTVSPost2010PropOp29
 70
     1
102
RTVSPost2010Prop30
280
     1
102
RTVSPost2010PropOp30
 70
     1
102
RTVSPost2010Prop31
280
     0
102
RTVSPost2010PropOp31
 70
     1
102
RTVSPost2010Prop32
280
     0
102
RTVSPost2010PropOp32
 70
     1
102
RTVSPost2010Prop33
280
     0
102
RTVSPost2010PropOp33
 70
     1
102
RTVSPost2010Prop34
280
     0
102
RTVSPost2010PropOp34
 70
     1
102
RTVSPost2010Prop35
280
     0
102
RTVSPost2010PropOp35
 70
     1
102
RTVSPost2010Prop36
280
     0
102
RTVSPost2010PropOp36
 70
     1
102
RTVSPost2010Prop37
 90
       50
102
RTVSPost2010PropOp37
 70
     1
102
RTVSPost2010Prop38
140
0.0
102
RTVSPost2010PropOp38
 70
     1
102
RTVSPost2010Prop39
140
1.0
102
RTVSPost2010PropOp39
 70
     1
102
RTVSPost2010Prop40
 90
        0
102
RTVSPost2010PropOp40
 70
     1
102
RTVSPost2010Prop41ColorIndex
 90
       18
102
RTVSPost2010Prop41ColorRGB
 90
        0
102
RTVSPost2010PropOp41
 70
     1
102
RTVSPost2010Prop42
 90
       50
102
RTVSPost2010PropOp42
 70
     1
102
RTVSPost2010Prop43
 90
        3
102
RTVSPost2010PropOp43
 70
     1
102
RTVSPost2010Prop44ColorIndex
 90
        5
102
RTVSPost2010Prop44ColorRGB
 90
      255
102
RTVSPost2010PropOp44
 70
     1
102
RTVSPost2010Prop45
280
     0
102
RTVSPost2010PropOp45
 70
     1
102
RTVSPost2010Prop46
 90
       50
102
RTVSPost2010PropOp46
 70
     1
102
RTVSPost2010Prop47
 90
       50
102
RTVSPost2010PropOp47
 70
     1
102
RTVSPost2010Prop48
 90
       50
102
RTVSPost2010PropOp48
 70
     1
102
RTVSPost2010Prop49
280
     0
102
RTVSPost2010PropOp49
 70
     1
102
RTVSPost2010Prop50
 90
       50
102
RTVSPost2010PropOp50
 70
     1
102
RTVSPost2010Prop51ColorIndex
 90
      256
102
RTVSPost2010Prop51ColorRGB
 90
-16777216
102
RTVSPost2010PropOp51
 70
     0
102
RTVSPost2010Prop52
140
1.0
102
RTVSPost2010PropOp52
 70
     0
102
RTVSPost2010Prop53
 90
        2
102
RTVSPost2010PropOp53
 70
     1
102
RTVSPost2010Prop54
  1
strokes_ogs.tif
102
RTVSPost2010PropOp54
 70
     1
102
RTVSPost2010Prop55
280
     0
102
RTVSPost2010PropOp55
 70
     1
102
RTVSPost2010Prop56
140
1.0
102
RTVSPost2010PropOp56
 70
     1
102
RTVSPost2010Prop57
140
1.0
102
RTVSPost2010PropOp57
 70
     1
102
RTVSPropertyOp0
 70
     1
102
RTVSPropertyOp1
 70
     1
102
RTVSPropertyOp2
 70
     1
102
RTVSPropertyOp3
 70
     1
102
RTVSPropertyOp4
 70
     1
102
RTVSPropertyOp5
 70
     1
102
RTVSPropertyOp6
 70
     1
102
RTVSPropertyOp7
 70
     1
102
RTVSPropertyOp8
 70
     1
102
RTVSPropertyOp9
 70
     1
102
RTVSPropertyOp10
 70
     1
102
RTVSPropertyOp11
 70
     1
102
RTVSPropertyOp12
 70
     1
102
RTVSPropertyOp13
 70
     1
102
RTVSPropertyOp14
 70
     1
102
RTVSPropertyOp15
 70
     1
102
RTVSPropertyOp16
 70
     1
102
RTVSPropertyOp17
 70
     1
102
RTVSPropertyOp18
 70
     1
102
RTVSPropertyOp19
 70
     1
102
RTVSPropertyOp20
 70
     1
102
RTVSPropertyOp21
 70
     1
102
RTVSPropertyOp22
 70
     1
102
RTVSPropertyOp23
 70
     1
102
RTVSPropertyOp24
 70
     1
102
RTVSPropertyOp25
 70
     1
102
RTVSPropertyOp26
 70
     1
102
RTVSPropertyOp27
 70
     1
102
RTVSPropertyOp28
 70
     1
102
RTVSPropertyOp29
 70
     1
102
RTVSPropertyOp30
 70
     1
102
RTVSPropertyOp31
 70
     1
102
RTVSPropertyOp32
 70
     1
102
RTVSPropertyOp33
 70
     1
102
RTVSPropertyOp34
 70
     1
102
RTVSPropertyOp35
 70
     1
102
RTVSPropertyOp36
 70
     1
102
RTVSPropertyOp37
 70
     1
102
RTVSPropertyOp38
 70
     1
102
RTVSPropertyOp39
 70
     1
102
RTVSPropertyOp40
 70
     1
102
RTVSPropertyOp41
 70
     1
102
RTVSPropertyOp42
 70
     1
102
RTVSPropertyOp43
 70
     1
102
RTVSPropertyOp44
 70
     1
102
RTVSPropertyOp45
 70
     1
102
RTVSPropertyOp46
 70
     1
102
RTVSPropertyOp47
 70
     1
102
RTVSPropertyOp48
 70
     1
102
RTVSPropertyOp49
 70
     1
102
RTVSPropertyOp50
 70
     1
102
RTVSPropertyOp51
 70
     0
102
RTVSPropertyOp52
 70
     0
102
RTVSPropertyOp53
 70
     1
102
RTVSPropertyOp54
 70
     1
102
RTVSPropertyOp55
 70
     1
102
RTVSPropertyOp56
 70
     1
102
RTVSPropertyOp57
 70
     1
102
RTVSPropertyOp58
 70
     1
102
RTVSPropertyOp59
 70
     1
102
RTVSPropertyOp60
 70
     1
102
RTVSPropertyOp61
 70
     1
102
RTVSPropertyOp62
 70
     1
  0
XRECORD
  5
4A48
102
{ACAD_REACTORS
330
4A47
102
}
330
4A47
100
AcDbXrecord
280
     1
102
RTVSPost2010Prop28
280
     0
102
RTVSPost2010PropOp28
 70
     1
102
RTVSPost2010Prop29
280
     1
102
RTVSPost2010PropOp29
 70
     1
102
RTVSPost2010Prop30
280
     1
102
RTVSPost2010PropOp30
 70
     1
102
RTVSPost2010Prop31
280
     0
102
RTVSPost2010PropOp31
 70
     1
102
RTVSPost2010Prop32
280
     0
102
RTVSPost2010PropOp32
 70
     1
102
RTVSPost2010Prop33
280
     0
102
RTVSPost2010PropOp33
 70
     1
102
RTVSPost2010Prop34
280
     0
102
RTVSPost2010PropOp34
 70
     1
102
RTVSPost2010Prop35
280
     0
102
RTVSPost2010PropOp35
 70
     1
102
RTVSPost2010Prop36
280
     0
102
RTVSPost2010PropOp36
 70
     1
102
RTVSPost2010Prop37
 90
       50
102
RTVSPost2010PropOp37
 70
     1
102
RTVSPost2010Prop38
140
0.0
102
RTVSPost2010PropOp38
 70
     1
102
RTVSPost2010Prop39
140
1.0
102
RTVSPost2010PropOp39
 70
     1
102
RTVSPost2010Prop40
 90
        0
102
RTVSPost2010PropOp40
 70
     1
102
RTVSPost2010Prop41ColorIndex
 90
       18
102
RTVSPost2010Prop41ColorRGB
 90
        0
102
RTVSPost2010PropOp41
 70
     1
102
RTVSPost2010Prop42
 90
       50
102
RTVSPost2010PropOp42
 70
     1
102
RTVSPost2010Prop43
 90
        3
102
RTVSPost2010PropOp43
 70
     1
102
RTVSPost2010Prop44ColorIndex
 90
        5
102
RTVSPost2010Prop44ColorRGB
 90
      255
102
RTVSPost2010PropOp44
 70
     1
102
RTVSPost2010Prop45
280
     0
102
RTVSPost2010PropOp45
 70
     1
102
RTVSPost2010Prop46
 90
       50
102
RTVSPost2010PropOp46
 70
     1
102
RTVSPost2010Prop47
 90
       50
102
RTVSPost2010PropOp47
 70
     1
102
RTVSPost2010Prop48
 90
       50
102
RTVSPost2010PropOp48
 70
     1
102
RTVSPost2010Prop49
280
     0
102
RTVSPost2010PropOp49
 70
     1
102
RTVSPost2010Prop50
 90
       50
102
RTVSPost2010PropOp50
 70
     1
102
RTVSPost2010Prop51ColorIndex
 90
      256
102
RTVSPost2010Prop51ColorRGB
 90
-16777216
102
RTVSPost2010PropOp51
 70
     0
102
RTVSPost2010Prop52
140
1.0
102
RTVSPost2010PropOp52
 70
     0
102
RTVSPost2010Prop53
 90
        2
102
RTVSPost2010PropOp53
 70
     1
102
RTVSPost2010Prop54
  1
strokes_ogs.tif
102
RTVSPost2010PropOp54
 70
     1
102
RTVSPost2010Prop55
280
     0
102
RTVSPost2010PropOp55
 70
     1
102
RTVSPost2010Prop56
140
1.0
102
RTVSPost2010PropOp56
 70
     1
102
RTVSPost2010Prop57
140
1.0
102
RTVSPost2010PropOp57
 70
     1
102
RTVSPropertyOp0
 70
     1
102
RTVSPropertyOp1
 70
     1
102
RTVSPropertyOp2
 70
     1
102
RTVSPropertyOp3
 70
     1
102
RTVSPropertyOp4
 70
     1
102
RTVSPropertyOp5
 70
     1
102
RTVSPropertyOp6
 70
     1
102
RTVSPropertyOp7
 70
     1
102
RTVSPropertyOp8
 70
     1
102
RTVSPropertyOp9
 70
     1
102
RTVSPropertyOp10
 70
     1
102
RTVSPropertyOp11
 70
     1
102
RTVSPropertyOp12
 70
     1
102
RTVSPropertyOp13
 70
     1
102
RTVSPropertyOp14
 70
     1
102
RTVSPropertyOp15
 70
     1
102
RTVSPropertyOp16
 70
     1
102
RTVSPropertyOp17
 70
     1
102
RTVSPropertyOp18
 70
     1
102
RTVSPropertyOp19
 70
     1
102
RTVSPropertyOp20
 70
     1
102
RTVSPropertyOp21
 70
     1
102
RTVSPropertyOp22
 70
     1
102
RTVSPropertyOp23
 70
     1
102
RTVSPropertyOp24
 70
     1
102
RTVSPropertyOp25
 70
     1
102
RTVSPropertyOp26
 70
     1
102
RTVSPropertyOp27
 70
     1
102
RTVSPropertyOp28
 70
     1
102
RTVSPropertyOp29
 70
     1
102
RTVSPropertyOp30
 70
     1
102
RTVSPropertyOp31
 70
     1
102
RTVSPropertyOp32
 70
     1
102
RTVSPropertyOp33
 70
     1
102
RTVSPropertyOp34
 70
     1
102
RTVSPropertyOp35
 70
     1
102
RTVSPropertyOp36
 70
     1
102
RTVSPropertyOp37
 70
     1
102
RTVSPropertyOp38
 70
     1
102
RTVSPropertyOp39
 70
     1
102
RTVSPropertyOp40
 70
     1
102
RTVSPropertyOp41
 70
     1
102
RTVSPropertyOp42
 70
     1
102
RTVSPropertyOp43
 70
     1
102
RTVSPropertyOp44
 70
     1
102
RTVSPropertyOp45
 70
     1
102
RTVSPropertyOp46
 70
     1
102
RTVSPropertyOp47
 70
     1
102
RTVSPropertyOp48
 70
     1
102
RTVSPropertyOp49
 70
     1
102
RTVSPropertyOp50
 70
     1
102
RTVSPropertyOp51
 70
     0
102
RTVSPropertyOp52
 70
     0
102
RTVSPropertyOp53
 70
     1
102
RTVSPropertyOp54
 70
     1
102
RTVSPropertyOp55
 70
     1
102
RTVSPropertyOp56
 70
     1
102
RTVSPropertyOp57
 70
     1
102
RTVSPropertyOp58
 70
     1
102
RTVSPropertyOp59
 70
     1
102
RTVSPropertyOp60
 70
     1
102
RTVSPropertyOp61
 70
     1
102
RTVSPropertyOp62
 70
     1
  0
XRECORD
  5
4A4A
102
{ACAD_REACTORS
330
4A49
102
}
330
4A49
100
AcDbXrecord
280
     1
102
RTVSPost2010Prop28
280
     0
102
RTVSPost2010PropOp28
 70
     1
102
RTVSPost2010Prop29
280
     1
102
RTVSPost2010PropOp29
 70
     1
102
RTVSPost2010Prop30
280
     1
102
RTVSPost2010PropOp30
 70
     1
102
RTVSPost2010Prop31
280
     0
102
RTVSPost2010PropOp31
 70
     1
102
RTVSPost2010Prop32
280
     0
102
RTVSPost2010PropOp32
 70
     1
102
RTVSPost2010Prop33
280
     0
102
RTVSPost2010PropOp33
 70
     1
102
RTVSPost2010Prop34
280
     0
102
RTVSPost2010PropOp34
 70
     1
102
RTVSPost2010Prop35
280
     0
102
RTVSPost2010PropOp35
 70
     1
102
RTVSPost2010Prop36
280
     0
102
RTVSPost2010PropOp36
 70
     1
102
RTVSPost2010Prop37
 90
       50
102
RTVSPost2010PropOp37
 70
     1
102
RTVSPost2010Prop38
140
0.0
102
RTVSPost2010PropOp38
 70
     1
102
RTVSPost2010Prop39
140
1.0
102
RTVSPost2010PropOp39
 70
     1
102
RTVSPost2010Prop40
 90
        0
102
RTVSPost2010PropOp40
 70
     1
102
RTVSPost2010Prop41ColorIndex
 90
       18
102
RTVSPost2010Prop41ColorRGB
 90
        0
102
RTVSPost2010PropOp41
 70
     1
102
RTVSPost2010Prop42
 90
       50
102
RTVSPost2010PropOp42
 70
     1
102
RTVSPost2010Prop43
 90
        3
102
RTVSPost2010PropOp43
 70
     1
102
RTVSPost2010Prop44ColorIndex
 90
        5
102
RTVSPost2010Prop44ColorRGB
 90
      255
102
RTVSPost2010PropOp44
 70
     1
102
RTVSPost2010Prop45
280
     0
102
RTVSPost2010PropOp45
 70
     1
102
RTVSPost2010Prop46
 90
       50
102
RTVSPost2010PropOp46
 70
     1
102
RTVSPost2010Prop47
 90
       50
102
RTVSPost2010PropOp47
 70
     1
102
RTVSPost2010Prop48
 90
       50
102
RTVSPost2010PropOp48
 70
     1
102
RTVSPost2010Prop49
280
     0
102
RTVSPost2010PropOp49
 70
     1
102
RTVSPost2010Prop50
 90
       50
102
RTVSPost2010PropOp50
 70
     1
102
RTVSPost2010Prop51ColorIndex
 90
      256
102
RTVSPost2010Prop51ColorRGB
 90
-16777216
102
RTVSPost2010PropOp51
 70
     0
102
RTVSPost2010Prop52
140
1.0
102
RTVSPost2010PropOp52
 70
     0
102
RTVSPost2010Prop53
 90
        2
102
RTVSPost2010PropOp53
 70
     1
102
RTVSPost2010Prop54
  1
strokes_ogs.tif
102
RTVSPost2010PropOp54
 70
     1
102
RTVSPost2010Prop55
280
     0
102
RTVSPost2010PropOp55
 70
     1
102
RTVSPost2010Prop56
140
1.0
102
RTVSPost2010PropOp56
 70
     1
102
RTVSPost2010Prop57
140
1.0
102
RTVSPost2010PropOp57
 70
     1
102
RTVSPropertyOp0
 70
     1
102
RTVSPropertyOp1
 70
     1
102
RTVSPropertyOp2
 70
     1
102
RTVSPropertyOp3
 70
     1
102
RTVSPropertyOp4
 70
     1
102
RTVSPropertyOp5
 70
     1
102
RTVSPropertyOp6
 70
     1
102
RTVSPropertyOp7
 70
     1
102
RTVSPropertyOp8
 70
     1
102
RTVSPropertyOp9
 70
     1
102
RTVSPropertyOp10
 70
     1
102
RTVSPropertyOp11
 70
     1
102
RTVSPropertyOp12
 70
     1
102
RTVSPropertyOp13
 70
     1
102
RTVSPropertyOp14
 70
     1
102
RTVSPropertyOp15
 70
     1
102
RTVSPropertyOp16
 70
     1
102
RTVSPropertyOp17
 70
     1
102
RTVSPropertyOp18
 70
     1
102
RTVSPropertyOp19
 70
     1
102
RTVSPropertyOp20
 70
     1
102
RTVSPropertyOp21
 70
     1
102
RTVSPropertyOp22
 70
     1
102
RTVSPropertyOp23
 70
     1
102
RTVSPropertyOp24
 70
     1
102
RTVSPropertyOp25
 70
     1
102
RTVSPropertyOp26
 70
     1
102
RTVSPropertyOp27
 70
     1
102
RTVSPropertyOp28
 70
     1
102
RTVSPropertyOp29
 70
     1
102
RTVSPropertyOp30
 70
     1
102
RTVSPropertyOp31
 70
     1
102
RTVSPropertyOp32
 70
     1
102
RTVSPropertyOp33
 70
     1
102
RTVSPropertyOp34
 70
     1
102
RTVSPropertyOp35
 70
     1
102
RTVSPropertyOp36
 70
     1
102
RTVSPropertyOp37
 70
     1
102
RTVSPropertyOp38
 70
     1
102
RTVSPropertyOp39
 70
     1
102
RTVSPropertyOp40
 70
     1
102
RTVSPropertyOp41
 70
     1
102
RTVSPropertyOp42
 70
     1
102
RTVSPropertyOp43
 70
     1
102
RTVSPropertyOp44
 70
     1
102
RTVSPropertyOp45
 70
     1
102
RTVSPropertyOp46
 70
     1
102
RTVSPropertyOp47
 70
     1
102
RTVSPropertyOp48
 70
     1
102
RTVSPropertyOp49
 70
     1
102
RTVSPropertyOp50
 70
     1
102
RTVSPropertyOp51
 70
     0
102
RTVSPropertyOp52
 70
     0
102
RTVSPropertyOp53
 70
     1
102
RTVSPropertyOp54
 70
     1
102
RTVSPropertyOp55
 70
     1
102
RTVSPropertyOp56
 70
     1
102
RTVSPropertyOp57
 70
     1
102
RTVSPropertyOp58
 70
     1
102
RTVSPropertyOp59
 70
     1
102
RTVSPropertyOp60
 70
     1
102
RTVSPropertyOp61
 70
     1
102
RTVSPropertyOp62
 70
     1
  0
XRECORD
  5
4A4C
102
{ACAD_REACTORS
330
4A4B
102
}
330
4A4B
100
AcDbXrecord
280
     1
102
RTVSPost2010Prop28
280
     0
102
RTVSPost2010PropOp28
 70
     1
102
RTVSPost2010Prop29
280
     1
102
RTVSPost2010PropOp29
 70
     1
102
RTVSPost2010Prop30
280
     1
102
RTVSPost2010PropOp30
 70
     1
102
RTVSPost2010Prop31
280
     0
102
RTVSPost2010PropOp31
 70
     1
102
RTVSPost2010Prop32
280
     0
102
RTVSPost2010PropOp32
 70
     1
102
RTVSPost2010Prop33
280
     0
102
RTVSPost2010PropOp33
 70
     1
102
RTVSPost2010Prop34
280
     0
102
RTVSPost2010PropOp34
 70
     1
102
RTVSPost2010Prop35
280
     0
102
RTVSPost2010PropOp35
 70
     1
102
RTVSPost2010Prop36
280
     0
102
RTVSPost2010PropOp36
 70
     1
102
RTVSPost2010Prop37
 90
       50
102
RTVSPost2010PropOp37
 70
     1
102
RTVSPost2010Prop38
140
0.0
102
RTVSPost2010PropOp38
 70
     1
102
RTVSPost2010Prop39
140
1.0
102
RTVSPost2010PropOp39
 70
     1
102
RTVSPost2010Prop40
 90
        0
102
RTVSPost2010PropOp40
 70
     1
102
RTVSPost2010Prop41ColorIndex
 90
       18
102
RTVSPost2010Prop41ColorRGB
 90
        0
102
RTVSPost2010PropOp41
 70
     1
102
RTVSPost2010Prop42
 90
       50
102
RTVSPost2010PropOp42
 70
     1
102
RTVSPost2010Prop43
 90
        3
102
RTVSPost2010PropOp43
 70
     1
102
RTVSPost2010Prop44ColorIndex
 90
        5
102
RTVSPost2010Prop44ColorRGB
 90
      255
102
RTVSPost2010PropOp44
 70
     1
102
RTVSPost2010Prop45
280
     0
102
RTVSPost2010PropOp45
 70
     1
102
RTVSPost2010Prop46
 90
       50
102
RTVSPost2010PropOp46
 70
     1
102
RTVSPost2010Prop47
 90
       50
102
RTVSPost2010PropOp47
 70
     1
102
RTVSPost2010Prop48
 90
       50
102
RTVSPost2010PropOp48
 70
     1
102
RTVSPost2010Prop49
280
     0
102
RTVSPost2010PropOp49
 70
     1
102
RTVSPost2010Prop50
 90
       50
102
RTVSPost2010PropOp50
 70
     1
102
RTVSPost2010Prop51ColorIndex
 90
      256
102
RTVSPost2010Prop51ColorRGB
 90
-16777216
102
RTVSPost2010PropOp51
 70
     0
102
RTVSPost2010Prop52
140
1.0
102
RTVSPost2010PropOp52
 70
     0
102
RTVSPost2010Prop53
 90
        2
102
RTVSPost2010PropOp53
 70
     1
102
RTVSPost2010Prop54
  1
strokes_ogs.tif
102
RTVSPost2010PropOp54
 70
     1
102
RTVSPost2010Prop55
280
     0
102
RTVSPost2010PropOp55
 70
     1
102
RTVSPost2010Prop56
140
1.0
102
RTVSPost2010PropOp56
 70
     1
102
RTVSPost2010Prop57
140
1.0
102
RTVSPost2010PropOp57
 70
     1
102
RTVSPropertyOp0
 70
     1
102
RTVSPropertyOp1
 70
     1
102
RTVSPropertyOp2
 70
     1
102
RTVSPropertyOp3
 70
     1
102
RTVSPropertyOp4
 70
     1
102
RTVSPropertyOp5
 70
     1
102
RTVSPropertyOp6
 70
     1
102
RTVSPropertyOp7
 70
     1
102
RTVSPropertyOp8
 70
     1
102
RTVSPropertyOp9
 70
     1
102
RTVSPropertyOp10
 70
     1
102
RTVSPropertyOp11
 70
     1
102
RTVSPropertyOp12
 70
     1
102
RTVSPropertyOp13
 70
     1
102
RTVSPropertyOp14
 70
     1
102
RTVSPropertyOp15
 70
     1
102
RTVSPropertyOp16
 70
     1
102
RTVSPropertyOp17
 70
     1
102
RTVSPropertyOp18
 70
     1
102
RTVSPropertyOp19
 70
     1
102
RTVSPropertyOp20
 70
     1
102
RTVSPropertyOp21
 70
     1
102
RTVSPropertyOp22
 70
     1
102
RTVSPropertyOp23
 70
     1
102
RTVSPropertyOp24
 70
     1
102
RTVSPropertyOp25
 70
     1
102
RTVSPropertyOp26
 70
     1
102
RTVSPropertyOp27
 70
     1
102
RTVSPropertyOp28
 70
     1
102
RTVSPropertyOp29
 70
     1
102
RTVSPropertyOp30
 70
     1
102
RTVSPropertyOp31
 70
     1
102
RTVSPropertyOp32
 70
     1
102
RTVSPropertyOp33
 70
     1
102
RTVSPropertyOp34
 70
     1
102
RTVSPropertyOp35
 70
     1
102
RTVSPropertyOp36
 70
     1
102
RTVSPropertyOp37
 70
     1
102
RTVSPropertyOp38
 70
     1
102
RTVSPropertyOp39
 70
     1
102
RTVSPropertyOp40
 70
     1
102
RTVSPropertyOp41
 70
     1
102
RTVSPropertyOp42
 70
     1
102
RTVSPropertyOp43
 70
     1
102
RTVSPropertyOp44
 70
     1
102
RTVSPropertyOp45
 70
     1
102
RTVSPropertyOp46
 70
     1
102
RTVSPropertyOp47
 70
     1
102
RTVSPropertyOp48
 70
     1
102
RTVSPropertyOp49
 70
     1
102
RTVSPropertyOp50
 70
     1
102
RTVSPropertyOp51
 70
     0
102
RTVSPropertyOp52
 70
     0
102
RTVSPropertyOp53
 70
     1
102
RTVSPropertyOp54
 70
     1
102
RTVSPropertyOp55
 70
     1
102
RTVSPropertyOp56
 70
     1
102
RTVSPropertyOp57
 70
     1
102
RTVSPropertyOp58
 70
     1
102
RTVSPropertyOp59
 70
     1
102
RTVSPropertyOp60
 70
     1
102
RTVSPropertyOp61
 70
     1
102
RTVSPropertyOp62
 70
     1
  0
XRECORD
  5
4A4E
102
{ACAD_REACTORS
330
4A4D
102
}
330
4A4D
100
AcDbXrecord
280
     1
102
RTVSPost2010Prop28
280
     0
102
RTVSPost2010PropOp28
 70
     1
102
RTVSPost2010Prop29
280
     1
102
RTVSPost2010PropOp29
 70
     1
102
RTVSPost2010Prop30
280
     1
102
RTVSPost2010PropOp30
 70
     1
102
RTVSPost2010Prop31
280
     0
102
RTVSPost2010PropOp31
 70
     1
102
RTVSPost2010Prop32
280
     0
102
RTVSPost2010PropOp32
 70
     1
102
RTVSPost2010Prop33
280
     0
102
RTVSPost2010PropOp33
 70
     1
102
RTVSPost2010Prop34
280
     0
102
RTVSPost2010PropOp34
 70
     1
102
RTVSPost2010Prop35
280
     0
102
RTVSPost2010PropOp35
 70
     1
102
RTVSPost2010Prop36
280
     0
102
RTVSPost2010PropOp36
 70
     1
102
RTVSPost2010Prop37
 90
       50
102
RTVSPost2010PropOp37
 70
     1
102
RTVSPost2010Prop38
140
0.0
102
RTVSPost2010PropOp38
 70
     1
102
RTVSPost2010Prop39
140
1.0
102
RTVSPost2010PropOp39
 70
     1
102
RTVSPost2010Prop40
 90
        0
102
RTVSPost2010PropOp40
 70
     1
102
RTVSPost2010Prop41ColorIndex
 90
       18
102
RTVSPost2010Prop41ColorRGB
 90
        0
102
RTVSPost2010PropOp41
 70
     1
102
RTVSPost2010Prop42
 90
       50
102
RTVSPost2010PropOp42
 70
     1
102
RTVSPost2010Prop43
 90
        3
102
RTVSPost2010PropOp43
 70
     1
102
RTVSPost2010Prop44ColorIndex
 90
        5
102
RTVSPost2010Prop44ColorRGB
 90
      255
102
RTVSPost2010PropOp44
 70
     1
102
RTVSPost2010Prop45
280
     0
102
RTVSPost2010PropOp45
 70
     1
102
RTVSPost2010Prop46
 90
       50
102
RTVSPost2010PropOp46
 70
     1
102
RTVSPost2010Prop47
 90
       50
102
RTVSPost2010PropOp47
 70
     1
102
RTVSPost2010Prop48
 90
       50
102
RTVSPost2010PropOp48
 70
     1
102
RTVSPost2010Prop49
280
     0
102
RTVSPost2010PropOp49
 70
     1
102
RTVSPost2010Prop50
 90
       50
102
RTVSPost2010PropOp50
 70
     1
102
RTVSPost2010Prop51ColorIndex
 90
      256
102
RTVSPost2010Prop51ColorRGB
 90
-16777216
102
RTVSPost2010PropOp51
 70
     0
102
RTVSPost2010Prop52
140
1.0
102
RTVSPost2010PropOp52
 70
     0
102
RTVSPost2010Prop53
 90
        2
102
RTVSPost2010PropOp53
 70
     1
102
RTVSPost2010Prop54
  1
strokes_ogs.tif
102
RTVSPost2010PropOp54
 70
     1
102
RTVSPost2010Prop55
280
     0
102
RTVSPost2010PropOp55
 70
     1
102
RTVSPost2010Prop56
140
1.0
102
RTVSPost2010PropOp56
 70
     1
102
RTVSPost2010Prop57
140
1.0
102
RTVSPost2010PropOp57
 70
     1
102
RTVSPropertyOp0
 70
     1
102
RTVSPropertyOp1
 70
     1
102
RTVSPropertyOp2
 70
     1
102
RTVSPropertyOp3
 70
     1
102
RTVSPropertyOp4
 70
     1
102
RTVSPropertyOp5
 70
     1
102
RTVSPropertyOp6
 70
     1
102
RTVSPropertyOp7
 70
     1
102
RTVSPropertyOp8
 70
     1
102
RTVSPropertyOp9
 70
     1
102
RTVSPropertyOp10
 70
     1
102
RTVSPropertyOp11
 70
     1
102
RTVSPropertyOp12
 70
     1
102
RTVSPropertyOp13
 70
     1
102
RTVSPropertyOp14
 70
     1
102
RTVSPropertyOp15
 70
     1
102
RTVSPropertyOp16
 70
     1
102
RTVSPropertyOp17
 70
     1
102
RTVSPropertyOp18
 70
     1
102
RTVSPropertyOp19
 70
     1
102
RTVSPropertyOp20
 70
     1
102
RTVSPropertyOp21
 70
     1
102
RTVSPropertyOp22
 70
     1
102
RTVSPropertyOp23
 70
     1
102
RTVSPropertyOp24
 70
     1
102
RTVSPropertyOp25
 70
     1
102
RTVSPropertyOp26
 70
     1
102
RTVSPropertyOp27
 70
     1
102
RTVSPropertyOp28
 70
     1
102
RTVSPropertyOp29
 70
     1
102
RTVSPropertyOp30
 70
     1
102
RTVSPropertyOp31
 70
     1
102
RTVSPropertyOp32
 70
     1
102
RTVSPropertyOp33
 70
     1
102
RTVSPropertyOp34
 70
     1
102
RTVSPropertyOp35
 70
     1
102
RTVSPropertyOp36
 70
     1
102
RTVSPropertyOp37
 70
     1
102
RTVSPropertyOp38
 70
     1
102
RTVSPropertyOp39
 70
     1
102
RTVSPropertyOp40
 70
     1
102
RTVSPropertyOp41
 70
     1
102
RTVSPropertyOp42
 70
     1
102
RTVSPropertyOp43
 70
     1
102
RTVSPropertyOp44
 70
     1
102
RTVSPropertyOp45
 70
     1
102
RTVSPropertyOp46
 70
     1
102
RTVSPropertyOp47
 70
     1
102
RTVSPropertyOp48
 70
     1
102
RTVSPropertyOp49
 70
     1
102
RTVSPropertyOp50
 70
     1
102
RTVSPropertyOp51
 70
     0
102
RTVSPropertyOp52
 70
     0
102
RTVSPropertyOp53
 70
     1
102
RTVSPropertyOp54
 70
     1
102
RTVSPropertyOp55
 70
     1
102
RTVSPropertyOp56
 70
     1
102
RTVSPropertyOp57
 70
     1
102
RTVSPropertyOp58
 70
     1
102
RTVSPropertyOp59
 70
     1
102
RTVSPropertyOp60
 70
     1
102
RTVSPropertyOp61
 70
     1
102
RTVSPropertyOp62
 70
     1
  0
XRECORD
  5
4A56
102
{ACAD_REACTORS
330
4A55
102
}
330
4A55
100
AcDbXrecord
280
     1
102
RTVSPost2010Prop28
280
     0
102
RTVSPost2010PropOp28
 70
     1
102
RTVSPost2010Prop29
280
     1
102
RTVSPost2010PropOp29
 70
     1
102
RTVSPost2010Prop30
280
     1
102
RTVSPost2010PropOp30
 70
     1
102
RTVSPost2010Prop31
280
     0
102
RTVSPost2010PropOp31
 70
     1
102
RTVSPost2010Prop32
280
     0
102
RTVSPost2010PropOp32
 70
     1
102
RTVSPost2010Prop33
280
     0
102
RTVSPost2010PropOp33
 70
     1
102
RTVSPost2010Prop34
280
     0
102
RTVSPost2010PropOp34
 70
     1
102
RTVSPost2010Prop35
280
     0
102
RTVSPost2010PropOp35
 70
     1
102
RTVSPost2010Prop36
280
     0
102
RTVSPost2010PropOp36
 70
     1
102
RTVSPost2010Prop37
 90
       50
102
RTVSPost2010PropOp37
 70
     1
102
RTVSPost2010Prop38
140
0.0
102
RTVSPost2010PropOp38
 70
     1
102
RTVSPost2010Prop39
140
1.0
102
RTVSPost2010PropOp39
 70
     1
102
RTVSPost2010Prop40
 90
        0
102
RTVSPost2010PropOp40
 70
     1
102
RTVSPost2010Prop41ColorIndex
 90
       18
102
RTVSPost2010Prop41ColorRGB
 90
        0
102
RTVSPost2010PropOp41
 70
     1
102
RTVSPost2010Prop42
 90
       50
102
RTVSPost2010PropOp42
 70
     1
102
RTVSPost2010Prop43
 90
        3
102
RTVSPost2010PropOp43
 70
     1
102
RTVSPost2010Prop44ColorIndex
 90
        5
102
RTVSPost2010Prop44ColorRGB
 90
      255
102
RTVSPost2010PropOp44
 70
     1
102
RTVSPost2010Prop45
280
     0
102
RTVSPost2010PropOp45
 70
     1
102
RTVSPost2010Prop46
 90
       50
102
RTVSPost2010PropOp46
 70
     1
102
RTVSPost2010Prop47
 90
       50
102
RTVSPost2010PropOp47
 70
     1
102
RTVSPost2010Prop48
 90
       50
102
RTVSPost2010PropOp48
 70
     1
102
RTVSPost2010Prop49
280
     0
102
RTVSPost2010PropOp49
 70
     1
102
RTVSPost2010Prop50
 90
       50
102
RTVSPost2010PropOp50
 70
     1
102
RTVSPost2010Prop51ColorIndex
 90
      256
102
RTVSPost2010Prop51ColorRGB
 90
-16777216
102
RTVSPost2010PropOp51
 70
     0
102
RTVSPost2010Prop52
140
1.0
102
RTVSPost2010PropOp52
 70
     0
102
RTVSPost2010Prop53
 90
        2
102
RTVSPost2010PropOp53
 70
     1
102
RTVSPost2010Prop54
  1
strokes_ogs.tif
102
RTVSPost2010PropOp54
 70
     1
102
RTVSPost2010Prop55
280
     0
102
RTVSPost2010PropOp55
 70
     1
102
RTVSPost2010Prop56
140
1.0
102
RTVSPost2010PropOp56
 70
     1
102
RTVSPost2010Prop57
140
1.0
102
RTVSPost2010PropOp57
 70
     1
102
RTVSPropertyOp0
 70
     1
102
RTVSPropertyOp1
 70
     1
102
RTVSPropertyOp2
 70
     1
102
RTVSPropertyOp3
 70
     1
102
RTVSPropertyOp4
 70
     1
102
RTVSPropertyOp5
 70
     1
102
RTVSPropertyOp6
 70
     1
102
RTVSPropertyOp7
 70
     1
102
RTVSPropertyOp8
 70
     1
102
RTVSPropertyOp9
 70
     1
102
RTVSPropertyOp10
 70
     1
102
RTVSPropertyOp11
 70
     1
102
RTVSPropertyOp12
 70
     1
102
RTVSPropertyOp13
 70
     1
102
RTVSPropertyOp14
 70
     1
102
RTVSPropertyOp15
 70
     1
102
RTVSPropertyOp16
 70
     1
102
RTVSPropertyOp17
 70
     1
102
RTVSPropertyOp18
 70
     1
102
RTVSPropertyOp19
 70
     1
102
RTVSPropertyOp20
 70
     1
102
RTVSPropertyOp21
 70
     1
102
RTVSPropertyOp22
 70
     1
102
RTVSPropertyOp23
 70
     1
102
RTVSPropertyOp24
 70
     1
102
RTVSPropertyOp25
 70
     1
102
RTVSPropertyOp26
 70
     1
102
RTVSPropertyOp27
 70
     1
102
RTVSPropertyOp28
 70
     1
102
RTVSPropertyOp29
 70
     1
102
RTVSPropertyOp30
 70
     1
102
RTVSPropertyOp31
 70
     1
102
RTVSPropertyOp32
 70
     1
102
RTVSPropertyOp33
 70
     1
102
RTVSPropertyOp34
 70
     1
102
RTVSPropertyOp35
 70
     1
102
RTVSPropertyOp36
 70
     1
102
RTVSPropertyOp37
 70
     1
102
RTVSPropertyOp38
 70
     1
102
RTVSPropertyOp39
 70
     1
102
RTVSPropertyOp40
 70
     1
102
RTVSPropertyOp41
 70
     1
102
RTVSPropertyOp42
 70
     1
102
RTVSPropertyOp43
 70
     1
102
RTVSPropertyOp44
 70
     1
102
RTVSPropertyOp45
 70
     1
102
RTVSPropertyOp46
 70
     1
102
RTVSPropertyOp47
 70
     1
102
RTVSPropertyOp48
 70
     1
102
RTVSPropertyOp49
 70
     1
102
RTVSPropertyOp50
 70
     1
102
RTVSPropertyOp51
 70
     0
102
RTVSPropertyOp52
 70
     0
102
RTVSPropertyOp53
 70
     1
102
RTVSPropertyOp54
 70
     1
102
RTVSPropertyOp55
 70
     1
102
RTVSPropertyOp56
 70
     1
102
RTVSPropertyOp57
 70
     1
102
RTVSPropertyOp58
 70
     1
102
RTVSPropertyOp59
 70
     1
102
RTVSPropertyOp60
 70
     1
102
RTVSPropertyOp61
 70
     1
102
RTVSPropertyOp62
 70
     1
  0
XRECORD
  5
4A72
102
{ACAD_REACTORS
330
4A71
102
}
330
4A71
100
AcDbXrecord
280
     1
102
RTVSPost2010Prop28
280
     0
102
RTVSPost2010PropOp28
 70
     1
102
RTVSPost2010Prop29
280
     1
102
RTVSPost2010PropOp29
 70
     1
102
RTVSPost2010Prop30
280
     1
102
RTVSPost2010PropOp30
 70
     1
102
RTVSPost2010Prop31
280
     0
102
RTVSPost2010PropOp31
 70
     1
102
RTVSPost2010Prop32
280
     0
102
RTVSPost2010PropOp32
 70
     1
102
RTVSPost2010Prop33
280
     0
102
RTVSPost2010PropOp33
 70
     1
102
RTVSPost2010Prop34
280
     0
102
RTVSPost2010PropOp34
 70
     1
102
RTVSPost2010Prop35
280
     0
102
RTVSPost2010PropOp35
 70
     1
102
RTVSPost2010Prop36
280
     0
102
RTVSPost2010PropOp36
 70
     1
102
RTVSPost2010Prop37
 90
       50
102
RTVSPost2010PropOp37
 70
     0
102
RTVSPost2010Prop38
140
0.0
102
RTVSPost2010PropOp38
 70
     0
102
RTVSPost2010Prop39
140
1.0
102
RTVSPost2010PropOp39
 70
     0
102
RTVSPost2010Prop40
 90
        0
102
RTVSPost2010PropOp40
 70
     0
102
RTVSPost2010Prop41ColorIndex
 90
       18
102
RTVSPost2010Prop41ColorRGB
 90
        0
102
RTVSPost2010PropOp41
 70
     0
102
RTVSPost2010Prop42
 90
       50
102
RTVSPost2010PropOp42
 70
     0
102
RTVSPost2010Prop43
 90
        3
102
RTVSPost2010PropOp43
 70
     0
102
RTVSPost2010Prop44ColorIndex
 90
        5
102
RTVSPost2010Prop44ColorRGB
 90
      255
102
RTVSPost2010PropOp44
 70
     0
102
RTVSPost2010Prop45
280
     0
102
RTVSPost2010PropOp45
 70
     1
102
RTVSPost2010Prop46
 90
       50
102
RTVSPost2010PropOp46
 70
     0
102
RTVSPost2010Prop47
 90
       50
102
RTVSPost2010PropOp47
 70
     0
102
RTVSPost2010Prop48
 90
       50
102
RTVSPost2010PropOp48
 70
     0
102
RTVSPost2010Prop49
280
     0
102
RTVSPost2010PropOp49
 70
     1
102
RTVSPost2010Prop50
 90
       50
102
RTVSPost2010PropOp50
 70
     0
102
RTVSPost2010Prop51ColorIndex
 90
      256
102
RTVSPost2010Prop51ColorRGB
 90
-16777216
102
RTVSPost2010PropOp51
 70
     0
102
RTVSPost2010Prop52
140
1.0
102
RTVSPost2010PropOp52
 70
     0
102
RTVSPost2010Prop53
 90
        2
102
RTVSPost2010PropOp53
 70
     0
102
RTVSPost2010Prop54
  1
strokes_ogs.tif
102
RTVSPost2010PropOp54
 70
     0
102
RTVSPost2010Prop55
280
     0
102
RTVSPost2010PropOp55
 70
     1
102
RTVSPost2010Prop56
140
1.0
102
RTVSPost2010PropOp56
 70
     0
102
RTVSPost2010Prop57
140
1.0
102
RTVSPost2010PropOp57
 70
     0
102
RTVSPropertyOp0
 70
     0
102
RTVSPropertyOp1
 70
     0
102
RTVSPropertyOp2
 70
     0
102
RTVSPropertyOp3
 70
     0
102
RTVSPropertyOp4
 70
     0
102
RTVSPropertyOp5
 70
     0
102
RTVSPropertyOp6
 70
     0
102
RTVSPropertyOp7
 70
     0
102
RTVSPropertyOp8
 70
     0
102
RTVSPropertyOp9
 70
     0
102
RTVSPropertyOp10
 70
     0
102
RTVSPropertyOp11
 70
     0
102
RTVSPropertyOp12
 70
     0
102
RTVSPropertyOp13
 70
     0
102
RTVSPropertyOp14
 70
     2
102
RTVSPropertyOp15
 70
     0
102
RTVSPropertyOp16
 70
     0
102
RTVSPropertyOp17
 70
     0
102
RTVSPropertyOp18
 70
     0
102
RTVSPropertyOp19
 70
     0
102
RTVSPropertyOp20
 70
     0
102
RTVSPropertyOp21
 70
     0
102
RTVSPropertyOp22
 70
     0
102
RTVSPropertyOp23
 70
     0
102
RTVSPropertyOp24
 70
     0
102
RTVSPropertyOp25
 70
     0
102
RTVSPropertyOp26
 70
     0
102
RTVSPropertyOp27
 70
     0
102
RTVSPropertyOp28
 70
     1
102
RTVSPropertyOp29
 70
     1
102
RTVSPropertyOp30
 70
     1
102
RTVSPropertyOp31
 70
     1
102
RTVSPropertyOp32
 70
     1
102
RTVSPropertyOp33
 70
     1
102
RTVSPropertyOp34
 70
     1
102
RTVSPropertyOp35
 70
     1
102
RTVSPropertyOp36
 70
     1
102
RTVSPropertyOp37
 70
     0
102
RTVSPropertyOp38
 70
     0
102
RTVSPropertyOp39
 70
     0
102
RTVSPropertyOp40
 70
     0
102
RTVSPropertyOp41
 70
     0
102
RTVSPropertyOp42
 70
     0
102
RTVSPropertyOp43
 70
     0
102
RTVSPropertyOp44
 70
     0
102
RTVSPropertyOp45
 70
     1
102
RTVSPropertyOp46
 70
     0
102
RTVSPropertyOp47
 70
     0
102
RTVSPropertyOp48
 70
     0
102
RTVSPropertyOp49
 70
     1
102
RTVSPropertyOp50
 70
     0
102
RTVSPropertyOp51
 70
     0
102
RTVSPropertyOp52
 70
     0
102
RTVSPropertyOp53
 70
     0
102
RTVSPropertyOp54
 70
     0
102
RTVSPropertyOp55
 70
     1
102
RTVSPropertyOp56
 70
     0
102
RTVSPropertyOp57
 70
     0
102
RTVSPropertyOp58
 70
     0
102
RTVSPropertyOp59
 70
     0
102
RTVSPropertyOp60
 70
     0
102
RTVSPropertyOp61
 70
     0
102
RTVSPropertyOp62
 70
     0
  0
XRECORD
  5
4A62
102
{ACAD_REACTORS
330
4A61
102
}
330
4A61
100
AcDbXrecord
280
     1
102
RTVSPost2010Prop28
280
     0
102
RTVSPost2010PropOp28
 70
     1
102
RTVSPost2010Prop29
280
     1
102
RTVSPost2010PropOp29
 70
     1
102
RTVSPost2010Prop30
280
     1
102
RTVSPost2010PropOp30
 70
     1
102
RTVSPost2010Prop31
280
     0
102
RTVSPost2010PropOp31
 70
     1
102
RTVSPost2010Prop32
280
     0
102
RTVSPost2010PropOp32
 70
     1
102
RTVSPost2010Prop33
280
     0
102
RTVSPost2010PropOp33
 70
     1
102
RTVSPost2010Prop34
280
     0
102
RTVSPost2010PropOp34
 70
     1
102
RTVSPost2010Prop35
280
     0
102
RTVSPost2010PropOp35
 70
     1
102
RTVSPost2010Prop36
280
     0
102
RTVSPost2010PropOp36
 70
     1
102
RTVSPost2010Prop37
 90
       50
102
RTVSPost2010PropOp37
 70
     1
102
RTVSPost2010Prop38
140
0.0
102
RTVSPost2010PropOp38
 70
     1
102
RTVSPost2010Prop39
140
1.0
102
RTVSPost2010PropOp39
 70
     1
102
RTVSPost2010Prop40
 90
        0
102
RTVSPost2010PropOp40
 70
     1
102
RTVSPost2010Prop41ColorIndex
 90
       18
102
RTVSPost2010Prop41ColorRGB
 90
        0
102
RTVSPost2010PropOp41
 70
     1
102
RTVSPost2010Prop42
 90
       50
102
RTVSPost2010PropOp42
 70
     1
102
RTVSPost2010Prop43
 90
        3
102
RTVSPost2010PropOp43
 70
     1
102
RTVSPost2010Prop44ColorIndex
 90
        5
102
RTVSPost2010Prop44ColorRGB
 90
      255
102
RTVSPost2010PropOp44
 70
     1
102
RTVSPost2010Prop45
280
     0
102
RTVSPost2010PropOp45
 70
     1
102
RTVSPost2010Prop46
 90
       50
102
RTVSPost2010PropOp46
 70
     1
102
RTVSPost2010Prop47
 90
       50
102
RTVSPost2010PropOp47
 70
     1
102
RTVSPost2010Prop48
 90
       50
102
RTVSPost2010PropOp48
 70
     1
102
RTVSPost2010Prop49
280
     0
102
RTVSPost2010PropOp49
 70
     1
102
RTVSPost2010Prop50
 90
       50
102
RTVSPost2010PropOp50
 70
     1
102
RTVSPost2010Prop51ColorIndex
 90
      256
102
RTVSPost2010Prop51ColorRGB
 90
-16777216
102
RTVSPost2010PropOp51
 70
     0
102
RTVSPost2010Prop52
140
1.0
102
RTVSPost2010PropOp52
 70
     0
102
RTVSPost2010Prop53
 90
        2
102
RTVSPost2010PropOp53
 70
     1
102
RTVSPost2010Prop54
  1
strokes_ogs.tif
102
RTVSPost2010PropOp54
 70
     1
102
RTVSPost2010Prop55
280
     0
102
RTVSPost2010PropOp55
 70
     1
102
RTVSPost2010Prop56
140
1.0
102
RTVSPost2010PropOp56
 70
     1
102
RTVSPost2010Prop57
140
1.0
102
RTVSPost2010PropOp57
 70
     1
102
RTVSPropertyOp0
 70
     1
102
RTVSPropertyOp1
 70
     1
102
RTVSPropertyOp2
 70
     1
102
RTVSPropertyOp3
 70
     1
102
RTVSPropertyOp4
 70
     1
102
RTVSPropertyOp5
 70
     1
102
RTVSPropertyOp6
 70
     1
102
RTVSPropertyOp7
 70
     1
102
RTVSPropertyOp8
 70
     1
102
RTVSPropertyOp9
 70
     1
102
RTVSPropertyOp10
 70
     1
102
RTVSPropertyOp11
 70
     1
102
RTVSPropertyOp12
 70
     1
102
RTVSPropertyOp13
 70
     1
102
RTVSPropertyOp14
 70
     1
102
RTVSPropertyOp15
 70
     1
102
RTVSPropertyOp16
 70
     1
102
RTVSPropertyOp17
 70
     1
102
RTVSPropertyOp18
 70
     1
102
RTVSPropertyOp19
 70
     1
102
RTVSPropertyOp20
 70
     1
102
RTVSPropertyOp21
 70
     1
102
RTVSPropertyOp22
 70
     1
102
RTVSPropertyOp23
 70
     1
102
RTVSPropertyOp24
 70
     1
102
RTVSPropertyOp25
 70
     1
102
RTVSPropertyOp26
 70
     1
102
RTVSPropertyOp27
 70
     1
102
RTVSPropertyOp28
 70
     1
102
RTVSPropertyOp29
 70
     1
102
RTVSPropertyOp30
 70
     1
102
RTVSPropertyOp31
 70
     1
102
RTVSPropertyOp32
 70
     1
102
RTVSPropertyOp33
 70
     1
102
RTVSPropertyOp34
 70
     1
102
RTVSPropertyOp35
 70
     1
102
RTVSPropertyOp36
 70
     1
102
RTVSPropertyOp37
 70
     1
102
RTVSPropertyOp38
 70
     1
102
RTVSPropertyOp39
 70
     1
102
RTVSPropertyOp40
 70
     1
102
RTVSPropertyOp41
 70
     1
102
RTVSPropertyOp42
 70
     1
102
RTVSPropertyOp43
 70
     1
102
RTVSPropertyOp44
 70
     1
102
RTVSPropertyOp45
 70
     1
102
RTVSPropertyOp46
 70
     1
102
RTVSPropertyOp47
 70
     1
102
RTVSPropertyOp48
 70
     1
102
RTVSPropertyOp49
 70
     1
102
RTVSPropertyOp50
 70
     1
102
RTVSPropertyOp51
 70
     0
102
RTVSPropertyOp52
 70
     0
102
RTVSPropertyOp53
 70
     1
102
RTVSPropertyOp54
 70
     1
102
RTVSPropertyOp55
 70
     1
102
RTVSPropertyOp56
 70
     1
102
RTVSPropertyOp57
 70
     1
102
RTVSPropertyOp58
 70
     1
102
RTVSPropertyOp59
 70
     1
102
RTVSPropertyOp60
 70
     1
102
RTVSPropertyOp61
 70
     1
102
RTVSPropertyOp62
 70
     1
  0
XRECORD
  5
4A74
102
{ACAD_REACTORS
330
4A73
102
}
330
4A73
100
AcDbXrecord
280
     1
102
RTVSPost2010Prop28
280
     0
102
RTVSPost2010PropOp28
 70
     1
102
RTVSPost2010Prop29
280
     1
102
RTVSPost2010PropOp29
 70
     1
102
RTVSPost2010Prop30
280
     1
102
RTVSPost2010PropOp30
 70
     1
102
RTVSPost2010Prop31
280
     0
102
RTVSPost2010PropOp31
 70
     1
102
RTVSPost2010Prop32
280
     0
102
RTVSPost2010PropOp32
 70
     1
102
RTVSPost2010Prop33
280
     0
102
RTVSPost2010PropOp33
 70
     1
102
RTVSPost2010Prop34
280
     0
102
RTVSPost2010PropOp34
 70
     1
102
RTVSPost2010Prop35
280
     0
102
RTVSPost2010PropOp35
 70
     1
102
RTVSPost2010Prop36
280
     0
102
RTVSPost2010PropOp36
 70
     1
102
RTVSPost2010Prop37
 90
       50
102
RTVSPost2010PropOp37
 70
     0
102
RTVSPost2010Prop38
140
0.0
102
RTVSPost2010PropOp38
 70
     0
102
RTVSPost2010Prop39
140
1.0
102
RTVSPost2010PropOp39
 70
     0
102
RTVSPost2010Prop40
 90
        0
102
RTVSPost2010PropOp40
 70
     0
102
RTVSPost2010Prop41ColorIndex
 90
       18
102
RTVSPost2010Prop41ColorRGB
 90
        0
102
RTVSPost2010PropOp41
 70
     0
102
RTVSPost2010Prop42
 90
       50
102
RTVSPost2010PropOp42
 70
     0
102
RTVSPost2010Prop43
 90
        3
102
RTVSPost2010PropOp43
 70
     0
102
RTVSPost2010Prop44ColorIndex
 90
        5
102
RTVSPost2010Prop44ColorRGB
 90
      255
102
RTVSPost2010PropOp44
 70
     0
102
RTVSPost2010Prop45
280
     0
102
RTVSPost2010PropOp45
 70
     1
102
RTVSPost2010Prop46
 90
       50
102
RTVSPost2010PropOp46
 70
     0
102
RTVSPost2010Prop47
 90
       50
102
RTVSPost2010PropOp47
 70
     0
102
RTVSPost2010Prop48
 90
       50
102
RTVSPost2010PropOp48
 70
     0
102
RTVSPost2010Prop49
280
     0
102
RTVSPost2010PropOp49
 70
     1
102
RTVSPost2010Prop50
 90
       50
102
RTVSPost2010PropOp50
 70
     0
102
RTVSPost2010Prop51ColorIndex
 90
      256
102
RTVSPost2010Prop51ColorRGB
 90
-16777216
102
RTVSPost2010PropOp51
 70
     0
102
RTVSPost2010Prop52
140
1.0
102
RTVSPost2010PropOp52
 70
     0
102
RTVSPost2010Prop53
 90
        2
102
RTVSPost2010PropOp53
 70
     0
102
RTVSPost2010Prop54
  1
strokes_ogs.tif
102
RTVSPost2010PropOp54
 70
     0
102
RTVSPost2010Prop55
280
     0
102
RTVSPost2010PropOp55
 70
     1
102
RTVSPost2010Prop56
140
1.0
102
RTVSPost2010PropOp56
 70
     0
102
RTVSPost2010Prop57
140
1.0
102
RTVSPost2010PropOp57
 70
     0
102
RTVSPropertyOp0
 70
     0
102
RTVSPropertyOp1
 70
     0
102
RTVSPropertyOp2
 70
     0
102
RTVSPropertyOp3
 70
     0
102
RTVSPropertyOp4
 70
     0
102
RTVSPropertyOp5
 70
     0
102
RTVSPropertyOp6
 70
     0
102
RTVSPropertyOp7
 70
     0
102
RTVSPropertyOp8
 70
     0
102
RTVSPropertyOp9
 70
     0
102
RTVSPropertyOp10
 70
     0
102
RTVSPropertyOp11
 70
     0
102
RTVSPropertyOp12
 70
     0
102
RTVSPropertyOp13
 70
     0
102
RTVSPropertyOp14
 70
     2
102
RTVSPropertyOp15
 70
     0
102
RTVSPropertyOp16
 70
     0
102
RTVSPropertyOp17
 70
     0
102
RTVSPropertyOp18
 70
     0
102
RTVSPropertyOp19
 70
     0
102
RTVSPropertyOp20
 70
     0
102
RTVSPropertyOp21
 70
     0
102
RTVSPropertyOp22
 70
     0
102
RTVSPropertyOp23
 70
     0
102
RTVSPropertyOp24
 70
     0
102
RTVSPropertyOp25
 70
     0
102
RTVSPropertyOp26
 70
     0
102
RTVSPropertyOp27
 70
     0
102
RTVSPropertyOp28
 70
     1
102
RTVSPropertyOp29
 70
     1
102
RTVSPropertyOp30
 70
     1
102
RTVSPropertyOp31
 70
     1
102
RTVSPropertyOp32
 70
     1
102
RTVSPropertyOp33
 70
     1
102
RTVSPropertyOp34
 70
     1
102
RTVSPropertyOp35
 70
     1
102
RTVSPropertyOp36
 70
     1
102
RTVSPropertyOp37
 70
     0
102
RTVSPropertyOp38
 70
     0
102
RTVSPropertyOp39
 70
     0
102
RTVSPropertyOp40
 70
     0
102
RTVSPropertyOp41
 70
     0
102
RTVSPropertyOp42
 70
     0
102
RTVSPropertyOp43
 70
     0
102
RTVSPropertyOp44
 70
     0
102
RTVSPropertyOp45
 70
     1
102
RTVSPropertyOp46
 70
     0
102
RTVSPropertyOp47
 70
     0
102
RTVSPropertyOp48
 70
     0
102
RTVSPropertyOp49
 70
     1
102
RTVSPropertyOp50
 70
     0
102
RTVSPropertyOp51
 70
     0
102
RTVSPropertyOp52
 70
     0
102
RTVSPropertyOp53
 70
     0
102
RTVSPropertyOp54
 70
     0
102
RTVSPropertyOp55
 70
     1
102
RTVSPropertyOp56
 70
     0
102
RTVSPropertyOp57
 70
     0
102
RTVSPropertyOp58
 70
     0
102
RTVSPropertyOp59
 70
     0
102
RTVSPropertyOp60
 70
     0
102
RTVSPropertyOp61
 70
     0
102
RTVSPropertyOp62
 70
     0
  0
XRECORD
  5
4A5A
102
{ACAD_REACTORS
330
4A59
102
}
330
4A59
100
AcDbXrecord
280
     1
102
RTVSPost2010Prop28
280
     0
102
RTVSPost2010PropOp28
 70
     1
102
RTVSPost2010Prop29
280
     1
102
RTVSPost2010PropOp29
 70
     1
102
RTVSPost2010Prop30
280
     1
102
RTVSPost2010PropOp30
 70
     1
102
RTVSPost2010Prop31
280
     0
102
RTVSPost2010PropOp31
 70
     1
102
RTVSPost2010Prop32
280
     0
102
RTVSPost2010PropOp32
 70
     1
102
RTVSPost2010Prop33
280
     0
102
RTVSPost2010PropOp33
 70
     1
102
RTVSPost2010Prop34
280
     0
102
RTVSPost2010PropOp34
 70
     1
102
RTVSPost2010Prop35
280
     0
102
RTVSPost2010PropOp35
 70
     1
102
RTVSPost2010Prop36
280
     0
102
RTVSPost2010PropOp36
 70
     1
102
RTVSPost2010Prop37
 90
       50
102
RTVSPost2010PropOp37
 70
     1
102
RTVSPost2010Prop38
140
0.0
102
RTVSPost2010PropOp38
 70
     1
102
RTVSPost2010Prop39
140
1.0
102
RTVSPost2010PropOp39
 70
     1
102
RTVSPost2010Prop40
 90
        0
102
RTVSPost2010PropOp40
 70
     1
102
RTVSPost2010Prop41ColorIndex
 90
       18
102
RTVSPost2010Prop41ColorRGB
 90
        0
102
RTVSPost2010PropOp41
 70
     1
102
RTVSPost2010Prop42
 90
       50
102
RTVSPost2010PropOp42
 70
     1
102
RTVSPost2010Prop43
 90
        3
102
RTVSPost2010PropOp43
 70
     1
102
RTVSPost2010Prop44ColorIndex
 90
        5
102
RTVSPost2010Prop44ColorRGB
 90
      255
102
RTVSPost2010PropOp44
 70
     1
102
RTVSPost2010Prop45
280
     0
102
RTVSPost2010PropOp45
 70
     1
102
RTVSPost2010Prop46
 90
       50
102
RTVSPost2010PropOp46
 70
     1
102
RTVSPost2010Prop47
 90
       50
102
RTVSPost2010PropOp47
 70
     1
102
RTVSPost2010Prop48
 90
       50
102
RTVSPost2010PropOp48
 70
     1
102
RTVSPost2010Prop49
280
     0
102
RTVSPost2010PropOp49
 70
     1
102
RTVSPost2010Prop50
 90
       50
102
RTVSPost2010PropOp50
 70
     1
102
RTVSPost2010Prop51ColorIndex
 90
      256
102
RTVSPost2010Prop51ColorRGB
 90
-16777216
102
RTVSPost2010PropOp51
 70
     0
102
RTVSPost2010Prop52
140
1.0
102
RTVSPost2010PropOp52
 70
     0
102
RTVSPost2010Prop53
 90
        2
102
RTVSPost2010PropOp53
 70
     1
102
RTVSPost2010Prop54
  1
strokes_ogs.tif
102
RTVSPost2010PropOp54
 70
     1
102
RTVSPost2010Prop55
280
     0
102
RTVSPost2010PropOp55
 70
     1
102
RTVSPost2010Prop56
140
1.0
102
RTVSPost2010PropOp56
 70
     1
102
RTVSPost2010Prop57
140
1.0
102
RTVSPost2010PropOp57
 70
     1
102
RTVSPropertyOp0
 70
     1
102
RTVSPropertyOp1
 70
     1
102
RTVSPropertyOp2
 70
     1
102
RTVSPropertyOp3
 70
     1
102
RTVSPropertyOp4
 70
     1
102
RTVSPropertyOp5
 70
     1
102
RTVSPropertyOp6
 70
     1
102
RTVSPropertyOp7
 70
     1
102
RTVSPropertyOp8
 70
     1
102
RTVSPropertyOp9
 70
     1
102
RTVSPropertyOp10
 70
     1
102
RTVSPropertyOp11
 70
     1
102
RTVSPropertyOp12
 70
     1
102
RTVSPropertyOp13
 70
     1
102
RTVSPropertyOp14
 70
     1
102
RTVSPropertyOp15
 70
     1
102
RTVSPropertyOp16
 70
     1
102
RTVSPropertyOp17
 70
     1
102
RTVSPropertyOp18
 70
     1
102
RTVSPropertyOp19
 70
     1
102
RTVSPropertyOp20
 70
     1
102
RTVSPropertyOp21
 70
     1
102
RTVSPropertyOp22
 70
     1
102
RTVSPropertyOp23
 70
     1
102
RTVSPropertyOp24
 70
     1
102
RTVSPropertyOp25
 70
     1
102
RTVSPropertyOp26
 70
     1
102
RTVSPropertyOp27
 70
     1
102
RTVSPropertyOp28
 70
     1
102
RTVSPropertyOp29
 70
     1
102
RTVSPropertyOp30
 70
     1
102
RTVSPropertyOp31
 70
     1
102
RTVSPropertyOp32
 70
     1
102
RTVSPropertyOp33
 70
     1
102
RTVSPropertyOp34
 70
     1
102
RTVSPropertyOp35
 70
     1
102
RTVSPropertyOp36
 70
     1
102
RTVSPropertyOp37
 70
     1
102
RTVSPropertyOp38
 70
     1
102
RTVSPropertyOp39
 70
     1
102
RTVSPropertyOp40
 70
     1
102
RTVSPropertyOp41
 70
     1
102
RTVSPropertyOp42
 70
     1
102
RTVSPropertyOp43
 70
     1
102
RTVSPropertyOp44
 70
     1
102
RTVSPropertyOp45
 70
     1
102
RTVSPropertyOp46
 70
     1
102
RTVSPropertyOp47
 70
     1
102
RTVSPropertyOp48
 70
     1
102
RTVSPropertyOp49
 70
     1
102
RTVSPropertyOp50
 70
     1
102
RTVSPropertyOp51
 70
     0
102
RTVSPropertyOp52
 70
     0
102
RTVSPropertyOp53
 70
     1
102
RTVSPropertyOp54
 70
     1
102
RTVSPropertyOp55
 70
     1
102
RTVSPropertyOp56
 70
     1
102
RTVSPropertyOp57
 70
     1
102
RTVSPropertyOp58
 70
     1
102
RTVSPropertyOp59
 70
     1
102
RTVSPropertyOp60
 70
     1
102
RTVSPropertyOp61
 70
     1
102
RTVSPropertyOp62
 70
     1
  0
XRECORD
  5
4A70
102
{ACAD_REACTORS
330
4A6F
102
}
330
4A6F
100
AcDbXrecord
280
     1
102
RTVSPost2010Prop28
280
     0
102
RTVSPost2010PropOp28
 70
     1
102
RTVSPost2010Prop29
280
     1
102
RTVSPost2010PropOp29
 70
     1
102
RTVSPost2010Prop30
280
     1
102
RTVSPost2010PropOp30
 70
     1
102
RTVSPost2010Prop31
280
     0
102
RTVSPost2010PropOp31
 70
     1
102
RTVSPost2010Prop32
280
     0
102
RTVSPost2010PropOp32
 70
     1
102
RTVSPost2010Prop33
280
     0
102
RTVSPost2010PropOp33
 70
     1
102
RTVSPost2010Prop34
280
     0
102
RTVSPost2010PropOp34
 70
     1
102
RTVSPost2010Prop35
280
     0
102
RTVSPost2010PropOp35
 70
     1
102
RTVSPost2010Prop36
280
     0
102
RTVSPost2010PropOp36
 70
     1
102
RTVSPost2010Prop37
 90
       50
102
RTVSPost2010PropOp37
 70
     1
102
RTVSPost2010Prop38
140
0.0
102
RTVSPost2010PropOp38
 70
     1
102
RTVSPost2010Prop39
140
1.0
102
RTVSPost2010PropOp39
 70
     1
102
RTVSPost2010Prop40
 90
        0
102
RTVSPost2010PropOp40
 70
     1
102
RTVSPost2010Prop41ColorIndex
 90
       18
102
RTVSPost2010Prop41ColorRGB
 90
        0
102
RTVSPost2010PropOp41
 70
     1
102
RTVSPost2010Prop42
 90
       50
102
RTVSPost2010PropOp42
 70
     1
102
RTVSPost2010Prop43
 90
        3
102
RTVSPost2010PropOp43
 70
     1
102
RTVSPost2010Prop44ColorIndex
 90
        5
102
RTVSPost2010Prop44ColorRGB
 90
      255
102
RTVSPost2010PropOp44
 70
     1
102
RTVSPost2010Prop45
280
     0
102
RTVSPost2010PropOp45
 70
     1
102
RTVSPost2010Prop46
 90
       50
102
RTVSPost2010PropOp46
 70
     1
102
RTVSPost2010Prop47
 90
       50
102
RTVSPost2010PropOp47
 70
     1
102
RTVSPost2010Prop48
 90
       50
102
RTVSPost2010PropOp48
 70
     1
102
RTVSPost2010Prop49
280
     0
102
RTVSPost2010PropOp49
 70
     1
102
RTVSPost2010Prop50
 90
       50
102
RTVSPost2010PropOp50
 70
     1
102
RTVSPost2010Prop51ColorIndex
 90
      256
102
RTVSPost2010Prop51ColorRGB
 90
-16777216
102
RTVSPost2010PropOp51
 70
     0
102
RTVSPost2010Prop52
140
1.0
102
RTVSPost2010PropOp52
 70
     0
102
RTVSPost2010Prop53
 90
        2
102
RTVSPost2010PropOp53
 70
     1
102
RTVSPost2010Prop54
  1
strokes_ogs.tif
102
RTVSPost2010PropOp54
 70
     1
102
RTVSPost2010Prop55
280
     0
102
RTVSPost2010PropOp55
 70
     1
102
RTVSPost2010Prop56
140
1.0
102
RTVSPost2010PropOp56
 70
     1
102
RTVSPost2010Prop57
140
1.0
102
RTVSPost2010PropOp57
 70
     1
102
RTVSPropertyOp0
 70
     1
102
RTVSPropertyOp1
 70
     1
102
RTVSPropertyOp2
 70
     1
102
RTVSPropertyOp3
 70
     1
102
RTVSPropertyOp4
 70
     1
102
RTVSPropertyOp5
 70
     1
102
RTVSPropertyOp6
 70
     1
102
RTVSPropertyOp7
 70
     1
102
RTVSPropertyOp8
 70
     1
102
RTVSPropertyOp9
 70
     1
102
RTVSPropertyOp10
 70
     1
102
RTVSPropertyOp11
 70
     1
102
RTVSPropertyOp12
 70
     1
102
RTVSPropertyOp13
 70
     1
102
RTVSPropertyOp14
 70
     1
102
RTVSPropertyOp15
 70
     1
102
RTVSPropertyOp16
 70
     1
102
RTVSPropertyOp17
 70
     1
102
RTVSPropertyOp18
 70
     1
102
RTVSPropertyOp19
 70
     1
102
RTVSPropertyOp20
 70
     1
102
RTVSPropertyOp21
 70
     1
102
RTVSPropertyOp22
 70
     1
102
RTVSPropertyOp23
 70
     1
102
RTVSPropertyOp24
 70
     1
102
RTVSPropertyOp25
 70
     1
102
RTVSPropertyOp26
 70
     1
102
RTVSPropertyOp27
 70
     1
102
RTVSPropertyOp28
 70
     1
102
RTVSPropertyOp29
 70
     1
102
RTVSPropertyOp30
 70
     1
102
RTVSPropertyOp31
 70
     1
102
RTVSPropertyOp32
 70
     1
102
RTVSPropertyOp33
 70
     1
102
RTVSPropertyOp34
 70
     1
102
RTVSPropertyOp35
 70
     1
102
RTVSPropertyOp36
 70
     1
102
RTVSPropertyOp37
 70
     1
102
RTVSPropertyOp38
 70
     1
102
RTVSPropertyOp39
 70
     1
102
RTVSPropertyOp40
 70
     1
102
RTVSPropertyOp41
 70
     1
102
RTVSPropertyOp42
 70
     1
102
RTVSPropertyOp43
 70
     1
102
RTVSPropertyOp44
 70
     1
102
RTVSPropertyOp45
 70
     1
102
RTVSPropertyOp46
 70
     1
102
RTVSPropertyOp47
 70
     1
102
RTVSPropertyOp48
 70
     1
102
RTVSPropertyOp49
 70
     1
102
RTVSPropertyOp50
 70
     1
102
RTVSPropertyOp51
 70
     0
102
RTVSPropertyOp52
 70
     0
102
RTVSPropertyOp53
 70
     1
102
RTVSPropertyOp54
 70
     1
102
RTVSPropertyOp55
 70
     1
102
RTVSPropertyOp56
 70
     1
102
RTVSPropertyOp57
 70
     1
102
RTVSPropertyOp58
 70
     1
102
RTVSPropertyOp59
 70
     1
102
RTVSPropertyOp60
 70
     1
102
RTVSPropertyOp61
 70
     1
102
RTVSPropertyOp62
 70
     1
  0
XRECORD
  5
4A6E
102
{ACAD_REACTORS
330
4A6D
102
}
330
4A6D
100
AcDbXrecord
280
     1
102
RTVSPost2010Prop28
280
     0
102
RTVSPost2010PropOp28
 70
     1
102
RTVSPost2010Prop29
280
     1
102
RTVSPost2010PropOp29
 70
     1
102
RTVSPost2010Prop30
280
     1
102
RTVSPost2010PropOp30
 70
     1
102
RTVSPost2010Prop31
280
     0
102
RTVSPost2010PropOp31
 70
     1
102
RTVSPost2010Prop32
280
     0
102
RTVSPost2010PropOp32
 70
     1
102
RTVSPost2010Prop33
280
     0
102
RTVSPost2010PropOp33
 70
     1
102
RTVSPost2010Prop34
280
     0
102
RTVSPost2010PropOp34
 70
     1
102
RTVSPost2010Prop35
280
     0
102
RTVSPost2010PropOp35
 70
     1
102
RTVSPost2010Prop36
280
     0
102
RTVSPost2010PropOp36
 70
     1
102
RTVSPost2010Prop37
 90
       50
102
RTVSPost2010PropOp37
 70
     1
102
RTVSPost2010Prop38
140
0.0
102
RTVSPost2010PropOp38
 70
     1
102
RTVSPost2010Prop39
140
1.0
102
RTVSPost2010PropOp39
 70
     1
102
RTVSPost2010Prop40
 90
        0
102
RTVSPost2010PropOp40
 70
     1
102
RTVSPost2010Prop41ColorIndex
 90
       18
102
RTVSPost2010Prop41ColorRGB
 90
        0
102
RTVSPost2010PropOp41
 70
     1
102
RTVSPost2010Prop42
 90
       50
102
RTVSPost2010PropOp42
 70
     1
102
RTVSPost2010Prop43
 90
        3
102
RTVSPost2010PropOp43
 70
     1
102
RTVSPost2010Prop44ColorIndex
 90
        5
102
RTVSPost2010Prop44ColorRGB
 90
      255
102
RTVSPost2010PropOp44
 70
     1
102
RTVSPost2010Prop45
280
     0
102
RTVSPost2010PropOp45
 70
     1
102
RTVSPost2010Prop46
 90
       50
102
RTVSPost2010PropOp46
 70
     1
102
RTVSPost2010Prop47
 90
       50
102
RTVSPost2010PropOp47
 70
     1
102
RTVSPost2010Prop48
 90
       50
102
RTVSPost2010PropOp48
 70
     1
102
RTVSPost2010Prop49
280
     0
102
RTVSPost2010PropOp49
 70
     1
102
RTVSPost2010Prop50
 90
       50
102
RTVSPost2010PropOp50
 70
     1
102
RTVSPost2010Prop51ColorIndex
 90
      256
102
RTVSPost2010Prop51ColorRGB
 90
-16777216
102
RTVSPost2010PropOp51
 70
     0
102
RTVSPost2010Prop52
140
1.0
102
RTVSPost2010PropOp52
 70
     0
102
RTVSPost2010Prop53
 90
        2
102
RTVSPost2010PropOp53
 70
     1
102
RTVSPost2010Prop54
  1
strokes_ogs.tif
102
RTVSPost2010PropOp54
 70
     1
102
RTVSPost2010Prop55
280
     0
102
RTVSPost2010PropOp55
 70
     1
102
RTVSPost2010Prop56
140
1.0
102
RTVSPost2010PropOp56
 70
     1
102
RTVSPost2010Prop57
140
1.0
102
RTVSPost2010PropOp57
 70
     1
102
RTVSPropertyOp0
 70
     1
102
RTVSPropertyOp1
 70
     1
102
RTVSPropertyOp2
 70
     1
102
RTVSPropertyOp3
 70
     1
102
RTVSPropertyOp4
 70
     1
102
RTVSPropertyOp5
 70
     1
102
RTVSPropertyOp6
 70
     1
102
RTVSPropertyOp7
 70
     1
102
RTVSPropertyOp8
 70
     1
102
RTVSPropertyOp9
 70
     1
102
RTVSPropertyOp10
 70
     1
102
RTVSPropertyOp11
 70
     1
102
RTVSPropertyOp12
 70
     1
102
RTVSPropertyOp13
 70
     1
102
RTVSPropertyOp14
 70
     1
102
RTVSPropertyOp15
 70
     1
102
RTVSPropertyOp16
 70
     1
102
RTVSPropertyOp17
 70
     1
102
RTVSPropertyOp18
 70
     1
102
RTVSPropertyOp19
 70
     1
102
RTVSPropertyOp20
 70
     1
102
RTVSPropertyOp21
 70
     1
102
RTVSPropertyOp22
 70
     1
102
RTVSPropertyOp23
 70
     1
102
RTVSPropertyOp24
 70
     1
102
RTVSPropertyOp25
 70
     1
102
RTVSPropertyOp26
 70
     1
102
RTVSPropertyOp27
 70
     1
102
RTVSPropertyOp28
 70
     1
102
RTVSPropertyOp29
 70
     1
102
RTVSPropertyOp30
 70
     1
102
RTVSPropertyOp31
 70
     1
102
RTVSPropertyOp32
 70
     1
102
RTVSPropertyOp33
 70
     1
102
RTVSPropertyOp34
 70
     1
102
RTVSPropertyOp35
 70
     1
102
RTVSPropertyOp36
 70
     1
102
RTVSPropertyOp37
 70
     1
102
RTVSPropertyOp38
 70
     1
102
RTVSPropertyOp39
 70
     1
102
RTVSPropertyOp40
 70
     1
102
RTVSPropertyOp41
 70
     1
102
RTVSPropertyOp42
 70
     1
102
RTVSPropertyOp43
 70
     1
102
RTVSPropertyOp44
 70
     1
102
RTVSPropertyOp45
 70
     1
102
RTVSPropertyOp46
 70
     1
102
RTVSPropertyOp47
 70
     1
102
RTVSPropertyOp48
 70
     1
102
RTVSPropertyOp49
 70
     1
102
RTVSPropertyOp50
 70
     1
102
RTVSPropertyOp51
 70
     0
102
RTVSPropertyOp52
 70
     0
102
RTVSPropertyOp53
 70
     1
102
RTVSPropertyOp54
 70
     1
102
RTVSPropertyOp55
 70
     1
102
RTVSPropertyOp56
 70
     1
102
RTVSPropertyOp57
 70
     1
102
RTVSPropertyOp58
 70
     1
102
RTVSPropertyOp59
 70
     1
102
RTVSPropertyOp60
 70
     1
102
RTVSPropertyOp61
 70
     1
102
RTVSPropertyOp62
 70
     1
  0
XRECORD
  5
4A68
102
{ACAD_REACTORS
330
4A67
102
}
330
4A67
100
AcDbXrecord
280
     1
102
RTVSPost2010Prop28
280
     0
102
RTVSPost2010PropOp28
 70
     1
102
RTVSPost2010Prop29
280
     1
102
RTVSPost2010PropOp29
 70
     1
102
RTVSPost2010Prop30
280
     1
102
RTVSPost2010PropOp30
 70
     1
102
RTVSPost2010Prop31
280
     0
102
RTVSPost2010PropOp31
 70
     1
102
RTVSPost2010Prop32
280
     0
102
RTVSPost2010PropOp32
 70
     1
102
RTVSPost2010Prop33
280
     0
102
RTVSPost2010PropOp33
 70
     1
102
RTVSPost2010Prop34
280
     0
102
RTVSPost2010PropOp34
 70
     1
102
RTVSPost2010Prop35
280
     0
102
RTVSPost2010PropOp35
 70
     1
102
RTVSPost2010Prop36
280
     0
102
RTVSPost2010PropOp36
 70
     1
102
RTVSPost2010Prop37
 90
       50
102
RTVSPost2010PropOp37
 70
     1
102
RTVSPost2010Prop38
140
0.0
102
RTVSPost2010PropOp38
 70
     1
102
RTVSPost2010Prop39
140
1.0
102
RTVSPost2010PropOp39
 70
     1
102
RTVSPost2010Prop40
 90
        0
102
RTVSPost2010PropOp40
 70
     1
102
RTVSPost2010Prop41ColorIndex
 90
       18
102
RTVSPost2010Prop41ColorRGB
 90
        0
102
RTVSPost2010PropOp41
 70
     1
102
RTVSPost2010Prop42
 90
       50
102
RTVSPost2010PropOp42
 70
     1
102
RTVSPost2010Prop43
 90
        3
102
RTVSPost2010PropOp43
 70
     1
102
RTVSPost2010Prop44ColorIndex
 90
        5
102
RTVSPost2010Prop44ColorRGB
 90
      255
102
RTVSPost2010PropOp44
 70
     1
102
RTVSPost2010Prop45
280
     0
102
RTVSPost2010PropOp45
 70
     1
102
RTVSPost2010Prop46
 90
       50
102
RTVSPost2010PropOp46
 70
     1
102
RTVSPost2010Prop47
 90
       50
102
RTVSPost2010PropOp47
 70
     1
102
RTVSPost2010Prop48
 90
       50
102
RTVSPost2010PropOp48
 70
     1
102
RTVSPost2010Prop49
280
     0
102
RTVSPost2010PropOp49
 70
     1
102
RTVSPost2010Prop50
 90
       50
102
RTVSPost2010PropOp50
 70
     1
102
RTVSPost2010Prop51ColorIndex
 90
      256
102
RTVSPost2010Prop51ColorRGB
 90
-16777216
102
RTVSPost2010PropOp51
 70
     0
102
RTVSPost2010Prop52
140
1.0
102
RTVSPost2010PropOp52
 70
     0
102
RTVSPost2010Prop53
 90
        2
102
RTVSPost2010PropOp53
 70
     1
102
RTVSPost2010Prop54
  1
strokes_ogs.tif
102
RTVSPost2010PropOp54
 70
     1
102
RTVSPost2010Prop55
280
     0
102
RTVSPost2010PropOp55
 70
     1
102
RTVSPost2010Prop56
140
1.0
102
RTVSPost2010PropOp56
 70
     1
102
RTVSPost2010Prop57
140
1.0
102
RTVSPost2010PropOp57
 70
     1
102
RTVSPropertyOp0
 70
     1
102
RTVSPropertyOp1
 70
     1
102
RTVSPropertyOp2
 70
     1
102
RTVSPropertyOp3
 70
     1
102
RTVSPropertyOp4
 70
     1
102
RTVSPropertyOp5
 70
     1
102
RTVSPropertyOp6
 70
     1
102
RTVSPropertyOp7
 70
     1
102
RTVSPropertyOp8
 70
     1
102
RTVSPropertyOp9
 70
     1
102
RTVSPropertyOp10
 70
     1
102
RTVSPropertyOp11
 70
     1
102
RTVSPropertyOp12
 70
     1
102
RTVSPropertyOp13
 70
     1
102
RTVSPropertyOp14
 70
     1
102
RTVSPropertyOp15
 70
     1
102
RTVSPropertyOp16
 70
     1
102
RTVSPropertyOp17
 70
     1
102
RTVSPropertyOp18
 70
     1
102
RTVSPropertyOp19
 70
     1
102
RTVSPropertyOp20
 70
     1
102
RTVSPropertyOp21
 70
     1
102
RTVSPropertyOp22
 70
     1
102
RTVSPropertyOp23
 70
     1
102
RTVSPropertyOp24
 70
     1
102
RTVSPropertyOp25
 70
     1
102
RTVSPropertyOp26
 70
     1
102
RTVSPropertyOp27
 70
     1
102
RTVSPropertyOp28
 70
     1
102
RTVSPropertyOp29
 70
     1
102
RTVSPropertyOp30
 70
     1
102
RTVSPropertyOp31
 70
     1
102
RTVSPropertyOp32
 70
     1
102
RTVSPropertyOp33
 70
     1
102
RTVSPropertyOp34
 70
     1
102
RTVSPropertyOp35
 70
     1
102
RTVSPropertyOp36
 70
     1
102
RTVSPropertyOp37
 70
     1
102
RTVSPropertyOp38
 70
     1
102
RTVSPropertyOp39
 70
     1
102
RTVSPropertyOp40
 70
     1
102
RTVSPropertyOp41
 70
     1
102
RTVSPropertyOp42
 70
     1
102
RTVSPropertyOp43
 70
     1
102
RTVSPropertyOp44
 70
     1
102
RTVSPropertyOp45
 70
     1
102
RTVSPropertyOp46
 70
     1
102
RTVSPropertyOp47
 70
     1
102
RTVSPropertyOp48
 70
     1
102
RTVSPropertyOp49
 70
     1
102
RTVSPropertyOp50
 70
     1
102
RTVSPropertyOp51
 70
     0
102
RTVSPropertyOp52
 70
     0
102
RTVSPropertyOp53
 70
     1
102
RTVSPropertyOp54
 70
     1
102
RTVSPropertyOp55
 70
     1
102
RTVSPropertyOp56
 70
     1
102
RTVSPropertyOp57
 70
     1
102
RTVSPropertyOp58
 70
     1
102
RTVSPropertyOp59
 70
     1
102
RTVSPropertyOp60
 70
     1
102
RTVSPropertyOp61
 70
     1
102
RTVSPropertyOp62
 70
     1
  0
XRECORD
  5
4A6A
102
{ACAD_REACTORS
330
4A69
102
}
330
4A69
100
AcDbXrecord
280
     1
102
RTVSPost2010Prop28
280
     0
102
RTVSPost2010PropOp28
 70
     1
102
RTVSPost2010Prop29
280
     1
102
RTVSPost2010PropOp29
 70
     1
102
RTVSPost2010Prop30
280
     1
102
RTVSPost2010PropOp30
 70
     1
102
RTVSPost2010Prop31
280
     0
102
RTVSPost2010PropOp31
 70
     1
102
RTVSPost2010Prop32
280
     0
102
RTVSPost2010PropOp32
 70
     1
102
RTVSPost2010Prop33
280
     0
102
RTVSPost2010PropOp33
 70
     1
102
RTVSPost2010Prop34
280
     0
102
RTVSPost2010PropOp34
 70
     1
102
RTVSPost2010Prop35
280
     0
102
RTVSPost2010PropOp35
 70
     1
102
RTVSPost2010Prop36
280
     0
102
RTVSPost2010PropOp36
 70
     1
102
RTVSPost2010Prop37
 90
       50
102
RTVSPost2010PropOp37
 70
     1
102
RTVSPost2010Prop38
140
0.0
102
RTVSPost2010PropOp38
 70
     1
102
RTVSPost2010Prop39
140
1.0
102
RTVSPost2010PropOp39
 70
     1
102
RTVSPost2010Prop40
 90
        0
102
RTVSPost2010PropOp40
 70
     1
102
RTVSPost2010Prop41ColorIndex
 90
       18
102
RTVSPost2010Prop41ColorRGB
 90
        0
102
RTVSPost2010PropOp41
 70
     1
102
RTVSPost2010Prop42
 90
       50
102
RTVSPost2010PropOp42
 70
     1
102
RTVSPost2010Prop43
 90
        3
102
RTVSPost2010PropOp43
 70
     1
102
RTVSPost2010Prop44ColorIndex
 90
        5
102
RTVSPost2010Prop44ColorRGB
 90
      255
102
RTVSPost2010PropOp44
 70
     1
102
RTVSPost2010Prop45
280
     0
102
RTVSPost2010PropOp45
 70
     1
102
RTVSPost2010Prop46
 90
       50
102
RTVSPost2010PropOp46
 70
     1
102
RTVSPost2010Prop47
 90
       50
102
RTVSPost2010PropOp47
 70
     1
102
RTVSPost2010Prop48
 90
       50
102
RTVSPost2010PropOp48
 70
     1
102
RTVSPost2010Prop49
280
     0
102
RTVSPost2010PropOp49
 70
     1
102
RTVSPost2010Prop50
 90
       50
102
RTVSPost2010PropOp50
 70
     1
102
RTVSPost2010Prop51ColorIndex
 90
      256
102
RTVSPost2010Prop51ColorRGB
 90
-16777216
102
RTVSPost2010PropOp51
 70
     0
102
RTVSPost2010Prop52
140
1.0
102
RTVSPost2010PropOp52
 70
     0
102
RTVSPost2010Prop53
 90
        2
102
RTVSPost2010PropOp53
 70
     1
102
RTVSPost2010Prop54
  1
strokes_ogs.tif
102
RTVSPost2010PropOp54
 70
     1
102
RTVSPost2010Prop55
280
     0
102
RTVSPost2010PropOp55
 70
     1
102
RTVSPost2010Prop56
140
1.0
102
RTVSPost2010PropOp56
 70
     1
102
RTVSPost2010Prop57
140
1.0
102
RTVSPost2010PropOp57
 70
     1
102
RTVSPropertyOp0
 70
     1
102
RTVSPropertyOp1
 70
     1
102
RTVSPropertyOp2
 70
     1
102
RTVSPropertyOp3
 70
     1
102
RTVSPropertyOp4
 70
     1
102
RTVSPropertyOp5
 70
     1
102
RTVSPropertyOp6
 70
     1
102
RTVSPropertyOp7
 70
     1
102
RTVSPropertyOp8
 70
     1
102
RTVSPropertyOp9
 70
     1
102
RTVSPropertyOp10
 70
     1
102
RTVSPropertyOp11
 70
     1
102
RTVSPropertyOp12
 70
     1
102
RTVSPropertyOp13
 70
     1
102
RTVSPropertyOp14
 70
     1
102
RTVSPropertyOp15
 70
     1
102
RTVSPropertyOp16
 70
     1
102
RTVSPropertyOp17
 70
     1
102
RTVSPropertyOp18
 70
     1
102
RTVSPropertyOp19
 70
     1
102
RTVSPropertyOp20
 70
     1
102
RTVSPropertyOp21
 70
     1
102
RTVSPropertyOp22
 70
     1
102
RTVSPropertyOp23
 70
     1
102
RTVSPropertyOp24
 70
     1
102
RTVSPropertyOp25
 70
     1
102
RTVSPropertyOp26
 70
     1
102
RTVSPropertyOp27
 70
     1
102
RTVSPropertyOp28
 70
     1
102
RTVSPropertyOp29
 70
     1
102
RTVSPropertyOp30
 70
     1
102
RTVSPropertyOp31
 70
     1
102
RTVSPropertyOp32
 70
     1
102
RTVSPropertyOp33
 70
     1
102
RTVSPropertyOp34
 70
     1
102
RTVSPropertyOp35
 70
     1
102
RTVSPropertyOp36
 70
     1
102
RTVSPropertyOp37
 70
     1
102
RTVSPropertyOp38
 70
     1
102
RTVSPropertyOp39
 70
     1
102
RTVSPropertyOp40
 70
     1
102
RTVSPropertyOp41
 70
     1
102
RTVSPropertyOp42
 70
     1
102
RTVSPropertyOp43
 70
     1
102
RTVSPropertyOp44
 70
     1
102
RTVSPropertyOp45
 70
     1
102
RTVSPropertyOp46
 70
     1
102
RTVSPropertyOp47
 70
     1
102
RTVSPropertyOp48
 70
     1
102
RTVSPropertyOp49
 70
     1
102
RTVSPropertyOp50
 70
     1
102
RTVSPropertyOp51
 70
     0
102
RTVSPropertyOp52
 70
     0
102
RTVSPropertyOp53
 70
     1
102
RTVSPropertyOp54
 70
     1
102
RTVSPropertyOp55
 70
     1
102
RTVSPropertyOp56
 70
     1
102
RTVSPropertyOp57
 70
     1
102
RTVSPropertyOp58
 70
     1
102
RTVSPropertyOp59
 70
     1
102
RTVSPropertyOp60
 70
     1
102
RTVSPropertyOp61
 70
     1
102
RTVSPropertyOp62
 70
     1
  0
XRECORD
  5
4A60
102
{ACAD_REACTORS
330
4A5F
102
}
330
4A5F
100
AcDbXrecord
280
     1
102
RTVSPost2010Prop28
280
     0
102
RTVSPost2010PropOp28
 70
     1
102
RTVSPost2010Prop29
280
     1
102
RTVSPost2010PropOp29
 70
     1
102
RTVSPost2010Prop30
280
     1
102
RTVSPost2010PropOp30
 70
     1
102
RTVSPost2010Prop31
280
     0
102
RTVSPost2010PropOp31
 70
     1
102
RTVSPost2010Prop32
280
     0
102
RTVSPost2010PropOp32
 70
     1
102
RTVSPost2010Prop33
280
     0
102
RTVSPost2010PropOp33
 70
     1
102
RTVSPost2010Prop34
280
     0
102
RTVSPost2010PropOp34
 70
     1
102
RTVSPost2010Prop35
280
     0
102
RTVSPost2010PropOp35
 70
     1
102
RTVSPost2010Prop36
280
     0
102
RTVSPost2010PropOp36
 70
     1
102
RTVSPost2010Prop37
 90
       50
102
RTVSPost2010PropOp37
 70
     1
102
RTVSPost2010Prop38
140
0.0
102
RTVSPost2010PropOp38
 70
     1
102
RTVSPost2010Prop39
140
1.0
102
RTVSPost2010PropOp39
 70
     1
102
RTVSPost2010Prop40
 90
        0
102
RTVSPost2010PropOp40
 70
     1
102
RTVSPost2010Prop41ColorIndex
 90
       18
102
RTVSPost2010Prop41ColorRGB
 90
        0
102
RTVSPost2010PropOp41
 70
     1
102
RTVSPost2010Prop42
 90
       50
102
RTVSPost2010PropOp42
 70
     1
102
RTVSPost2010Prop43
 90
        3
102
RTVSPost2010PropOp43
 70
     1
102
RTVSPost2010Prop44ColorIndex
 90
        5
102
RTVSPost2010Prop44ColorRGB
 90
      255
102
RTVSPost2010PropOp44
 70
     1
102
RTVSPost2010Prop45
280
     0
102
RTVSPost2010PropOp45
 70
     1
102
RTVSPost2010Prop46
 90
       50
102
RTVSPost2010PropOp46
 70
     1
102
RTVSPost2010Prop47
 90
       50
102
RTVSPost2010PropOp47
 70
     1
102
RTVSPost2010Prop48
 90
       50
102
RTVSPost2010PropOp48
 70
     1
102
RTVSPost2010Prop49
280
     0
102
RTVSPost2010PropOp49
 70
     1
102
RTVSPost2010Prop50
 90
       50
102
RTVSPost2010PropOp50
 70
     1
102
RTVSPost2010Prop51ColorIndex
 90
      256
102
RTVSPost2010Prop51ColorRGB
 90
-16777216
102
RTVSPost2010PropOp51
 70
     0
102
RTVSPost2010Prop52
140
1.0
102
RTVSPost2010PropOp52
 70
     0
102
RTVSPost2010Prop53
 90
        2
102
RTVSPost2010PropOp53
 70
     1
102
RTVSPost2010Prop54
  1
strokes_ogs.tif
102
RTVSPost2010PropOp54
 70
     1
102
RTVSPost2010Prop55
280
     0
102
RTVSPost2010PropOp55
 70
     1
102
RTVSPost2010Prop56
140
1.0
102
RTVSPost2010PropOp56
 70
     1
102
RTVSPost2010Prop57
140
1.0
102
RTVSPost2010PropOp57
 70
     1
102
RTVSPropertyOp0
 70
     1
102
RTVSPropertyOp1
 70
     1
102
RTVSPropertyOp2
 70
     1
102
RTVSPropertyOp3
 70
     1
102
RTVSPropertyOp4
 70
     1
102
RTVSPropertyOp5
 70
     1
102
RTVSPropertyOp6
 70
     1
102
RTVSPropertyOp7
 70
     1
102
RTVSPropertyOp8
 70
     1
102
RTVSPropertyOp9
 70
     1
102
RTVSPropertyOp10
 70
     1
102
RTVSPropertyOp11
 70
     1
102
RTVSPropertyOp12
 70
     1
102
RTVSPropertyOp13
 70
     1
102
RTVSPropertyOp14
 70
     1
102
RTVSPropertyOp15
 70
     1
102
RTVSPropertyOp16
 70
     1
102
RTVSPropertyOp17
 70
     1
102
RTVSPropertyOp18
 70
     1
102
RTVSPropertyOp19
 70
     1
102
RTVSPropertyOp20
 70
     1
102
RTVSPropertyOp21
 70
     1
102
RTVSPropertyOp22
 70
     1
102
RTVSPropertyOp23
 70
     1
102
RTVSPropertyOp24
 70
     1
102
RTVSPropertyOp25
 70
     1
102
RTVSPropertyOp26
 70
     1
102
RTVSPropertyOp27
 70
     1
102
RTVSPropertyOp28
 70
     1
102
RTVSPropertyOp29
 70
     1
102
RTVSPropertyOp30
 70
     1
102
RTVSPropertyOp31
 70
     1
102
RTVSPropertyOp32
 70
     1
102
RTVSPropertyOp33
 70
     1
102
RTVSPropertyOp34
 70
     1
102
RTVSPropertyOp35
 70
     1
102
RTVSPropertyOp36
 70
     1
102
RTVSPropertyOp37
 70
     1
102
RTVSPropertyOp38
 70
     1
102
RTVSPropertyOp39
 70
     1
102
RTVSPropertyOp40
 70
     1
102
RTVSPropertyOp41
 70
     1
102
RTVSPropertyOp42
 70
     1
102
RTVSPropertyOp43
 70
     1
102
RTVSPropertyOp44
 70
     1
102
RTVSPropertyOp45
 70
     1
102
RTVSPropertyOp46
 70
     1
102
RTVSPropertyOp47
 70
     1
102
RTVSPropertyOp48
 70
     1
102
RTVSPropertyOp49
 70
     1
102
RTVSPropertyOp50
 70
     1
102
RTVSPropertyOp51
 70
     0
102
RTVSPropertyOp52
 70
     0
102
RTVSPropertyOp53
 70
     1
102
RTVSPropertyOp54
 70
     1
102
RTVSPropertyOp55
 70
     1
102
RTVSPropertyOp56
 70
     1
102
RTVSPropertyOp57
 70
     1
102
RTVSPropertyOp58
 70
     1
102
RTVSPropertyOp59
 70
     1
102
RTVSPropertyOp60
 70
     1
102
RTVSPropertyOp61
 70
     1
102
RTVSPropertyOp62
 70
     1
  0
XRECORD
  5
4A54
102
{ACAD_REACTORS
330
4A53
102
}
330
4A53
100
AcDbXrecord
280
     1
102
RTVSPost2010Prop28
280
     0
102
RTVSPost2010PropOp28
 70
     1
102
RTVSPost2010Prop29
280
     1
102
RTVSPost2010PropOp29
 70
     1
102
RTVSPost2010Prop30
280
     1
102
RTVSPost2010PropOp30
 70
     1
102
RTVSPost2010Prop31
280
     0
102
RTVSPost2010PropOp31
 70
     1
102
RTVSPost2010Prop32
280
     0
102
RTVSPost2010PropOp32
 70
     1
102
RTVSPost2010Prop33
280
     0
102
RTVSPost2010PropOp33
 70
     1
102
RTVSPost2010Prop34
280
     0
102
RTVSPost2010PropOp34
 70
     1
102
RTVSPost2010Prop35
280
     0
102
RTVSPost2010PropOp35
 70
     1
102
RTVSPost2010Prop36
280
     0
102
RTVSPost2010PropOp36
 70
     1
102
RTVSPost2010Prop37
 90
       50
102
RTVSPost2010PropOp37
 70
     1
102
RTVSPost2010Prop38
140
0.0
102
RTVSPost2010PropOp38
 70
     1
102
RTVSPost2010Prop39
140
1.0
102
RTVSPost2010PropOp39
 70
     1
102
RTVSPost2010Prop40
 90
        0
102
RTVSPost2010PropOp40
 70
     1
102
RTVSPost2010Prop41ColorIndex
 90
       18
102
RTVSPost2010Prop41ColorRGB
 90
        0
102
RTVSPost2010PropOp41
 70
     1
102
RTVSPost2010Prop42
 90
       50
102
RTVSPost2010PropOp42
 70
     1
102
RTVSPost2010Prop43
 90
        3
102
RTVSPost2010PropOp43
 70
     1
102
RTVSPost2010Prop44ColorIndex
 90
        5
102
RTVSPost2010Prop44ColorRGB
 90
      255
102
RTVSPost2010PropOp44
 70
     1
102
RTVSPost2010Prop45
280
     0
102
RTVSPost2010PropOp45
 70
     1
102
RTVSPost2010Prop46
 90
       50
102
RTVSPost2010PropOp46
 70
     1
102
RTVSPost2010Prop47
 90
       50
102
RTVSPost2010PropOp47
 70
     1
102
RTVSPost2010Prop48
 90
       50
102
RTVSPost2010PropOp48
 70
     1
102
RTVSPost2010Prop49
280
     0
102
RTVSPost2010PropOp49
 70
     1
102
RTVSPost2010Prop50
 90
       50
102
RTVSPost2010PropOp50
 70
     1
102
RTVSPost2010Prop51ColorIndex
 90
      256
102
RTVSPost2010Prop51ColorRGB
 90
-16777216
102
RTVSPost2010PropOp51
 70
     0
102
RTVSPost2010Prop52
140
1.0
102
RTVSPost2010PropOp52
 70
     0
102
RTVSPost2010Prop53
 90
        2
102
RTVSPost2010PropOp53
 70
     1
102
RTVSPost2010Prop54
  1
strokes_ogs.tif
102
RTVSPost2010PropOp54
 70
     1
102
RTVSPost2010Prop55
280
     0
102
RTVSPost2010PropOp55
 70
     1
102
RTVSPost2010Prop56
140
1.0
102
RTVSPost2010PropOp56
 70
     1
102
RTVSPost2010Prop57
140
1.0
102
RTVSPost2010PropOp57
 70
     1
102
RTVSPropertyOp0
 70
     1
102
RTVSPropertyOp1
 70
     1
102
RTVSPropertyOp2
 70
     1
102
RTVSPropertyOp3
 70
     1
102
RTVSPropertyOp4
 70
     1
102
RTVSPropertyOp5
 70
     1
102
RTVSPropertyOp6
 70
     1
102
RTVSPropertyOp7
 70
     1
102
RTVSPropertyOp8
 70
     1
102
RTVSPropertyOp9
 70
     1
102
RTVSPropertyOp10
 70
     1
102
RTVSPropertyOp11
 70
     1
102
RTVSPropertyOp12
 70
     1
102
RTVSPropertyOp13
 70
     1
102
RTVSPropertyOp14
 70
     1
102
RTVSPropertyOp15
 70
     1
102
RTVSPropertyOp16
 70
     1
102
RTVSPropertyOp17
 70
     1
102
RTVSPropertyOp18
 70
     1
102
RTVSPropertyOp19
 70
     1
102
RTVSPropertyOp20
 70
     1
102
RTVSPropertyOp21
 70
     1
102
RTVSPropertyOp22
 70
     1
102
RTVSPropertyOp23
 70
     1
102
RTVSPropertyOp24
 70
     1
102
RTVSPropertyOp25
 70
     1
102
RTVSPropertyOp26
 70
     1
102
RTVSPropertyOp27
 70
     1
102
RTVSPropertyOp28
 70
     1
102
RTVSPropertyOp29
 70
     1
102
RTVSPropertyOp30
 70
     1
102
RTVSPropertyOp31
 70
     1
102
RTVSPropertyOp32
 70
     1
102
RTVSPropertyOp33
 70
     1
102
RTVSPropertyOp34
 70
     1
102
RTVSPropertyOp35
 70
     1
102
RTVSPropertyOp36
 70
     1
102
RTVSPropertyOp37
 70
     1
102
RTVSPropertyOp38
 70
     1
102
RTVSPropertyOp39
 70
     1
102
RTVSPropertyOp40
 70
     1
102
RTVSPropertyOp41
 70
     1
102
RTVSPropertyOp42
 70
     1
102
RTVSPropertyOp43
 70
     1
102
RTVSPropertyOp44
 70
     1
102
RTVSPropertyOp45
 70
     1
102
RTVSPropertyOp46
 70
     1
102
RTVSPropertyOp47
 70
     1
102
RTVSPropertyOp48
 70
     1
102
RTVSPropertyOp49
 70
     1
102
RTVSPropertyOp50
 70
     1
102
RTVSPropertyOp51
 70
     0
102
RTVSPropertyOp52
 70
     0
102
RTVSPropertyOp53
 70
     1
102
RTVSPropertyOp54
 70
     1
102
RTVSPropertyOp55
 70
     1
102
RTVSPropertyOp56
 70
     1
102
RTVSPropertyOp57
 70
     1
102
RTVSPropertyOp58
 70
     1
102
RTVSPropertyOp59
 70
     1
102
RTVSPropertyOp60
 70
     1
102
RTVSPropertyOp61
 70
     1
102
RTVSPropertyOp62
 70
     1
  0
XRECORD
  5
4A6C
102
{ACAD_REACTORS
330
4A6B
102
}
330
4A6B
100
AcDbXrecord
280
     1
102
RTVSPost2010Prop28
280
     0
102
RTVSPost2010PropOp28
 70
     1
102
RTVSPost2010Prop29
280
     1
102
RTVSPost2010PropOp29
 70
     1
102
RTVSPost2010Prop30
280
     1
102
RTVSPost2010PropOp30
 70
     1
102
RTVSPost2010Prop31
280
     0
102
RTVSPost2010PropOp31
 70
     1
102
RTVSPost2010Prop32
280
     0
102
RTVSPost2010PropOp32
 70
     1
102
RTVSPost2010Prop33
280
     0
102
RTVSPost2010PropOp33
 70
     1
102
RTVSPost2010Prop34
280
     0
102
RTVSPost2010PropOp34
 70
     1
102
RTVSPost2010Prop35
280
     0
102
RTVSPost2010PropOp35
 70
     1
102
RTVSPost2010Prop36
280
     0
102
RTVSPost2010PropOp36
 70
     1
102
RTVSPost2010Prop37
 90
       50
102
RTVSPost2010PropOp37
 70
     1
102
RTVSPost2010Prop38
140
0.0
102
RTVSPost2010PropOp38
 70
     1
102
RTVSPost2010Prop39
140
1.0
102
RTVSPost2010PropOp39
 70
     1
102
RTVSPost2010Prop40
 90
        0
102
RTVSPost2010PropOp40
 70
     1
102
RTVSPost2010Prop41ColorIndex
 90
       18
102
RTVSPost2010Prop41ColorRGB
 90
        0
102
RTVSPost2010PropOp41
 70
     1
102
RTVSPost2010Prop42
 90
       50
102
RTVSPost2010PropOp42
 70
     1
102
RTVSPost2010Prop43
 90
        3
102
RTVSPost2010PropOp43
 70
     1
102
RTVSPost2010Prop44ColorIndex
 90
        5
102
RTVSPost2010Prop44ColorRGB
 90
      255
102
RTVSPost2010PropOp44
 70
     1
102
RTVSPost2010Prop45
280
     0
102
RTVSPost2010PropOp45
 70
     1
102
RTVSPost2010Prop46
 90
       50
102
RTVSPost2010PropOp46
 70
     1
102
RTVSPost2010Prop47
 90
       50
102
RTVSPost2010PropOp47
 70
     1
102
RTVSPost2010Prop48
 90
       50
102
RTVSPost2010PropOp48
 70
     1
102
RTVSPost2010Prop49
280
     0
102
RTVSPost2010PropOp49
 70
     1
102
RTVSPost2010Prop50
 90
       50
102
RTVSPost2010PropOp50
 70
     1
102
RTVSPost2010Prop51ColorIndex
 90
      256
102
RTVSPost2010Prop51ColorRGB
 90
-16777216
102
RTVSPost2010PropOp51
 70
     0
102
RTVSPost2010Prop52
140
1.0
102
RTVSPost2010PropOp52
 70
     0
102
RTVSPost2010Prop53
 90
        2
102
RTVSPost2010PropOp53
 70
     1
102
RTVSPost2010Prop54
  1
strokes_ogs.tif
102
RTVSPost2010PropOp54
 70
     1
102
RTVSPost2010Prop55
280
     0
102
RTVSPost2010PropOp55
 70
     1
102
RTVSPost2010Prop56
140
1.0
102
RTVSPost2010PropOp56
 70
     1
102
RTVSPost2010Prop57
140
1.0
102
RTVSPost2010PropOp57
 70
     1
102
RTVSPropertyOp0
 70
     1
102
RTVSPropertyOp1
 70
     1
102
RTVSPropertyOp2
 70
     1
102
RTVSPropertyOp3
 70
     1
102
RTVSPropertyOp4
 70
     1
102
RTVSPropertyOp5
 70
     1
102
RTVSPropertyOp6
 70
     1
102
RTVSPropertyOp7
 70
     1
102
RTVSPropertyOp8
 70
     1
102
RTVSPropertyOp9
 70
     1
102
RTVSPropertyOp10
 70
     1
102
RTVSPropertyOp11
 70
     1
102
RTVSPropertyOp12
 70
     1
102
RTVSPropertyOp13
 70
     1
102
RTVSPropertyOp14
 70
     1
102
RTVSPropertyOp15
 70
     1
102
RTVSPropertyOp16
 70
     1
102
RTVSPropertyOp17
 70
     1
102
RTVSPropertyOp18
 70
     1
102
RTVSPropertyOp19
 70
     1
102
RTVSPropertyOp20
 70
     1
102
RTVSPropertyOp21
 70
     1
102
RTVSPropertyOp22
 70
     1
102
RTVSPropertyOp23
 70
     1
102
RTVSPropertyOp24
 70
     1
102
RTVSPropertyOp25
 70
     1
102
RTVSPropertyOp26
 70
     1
102
RTVSPropertyOp27
 70
     1
102
RTVSPropertyOp28
 70
     1
102
RTVSPropertyOp29
 70
     1
102
RTVSPropertyOp30
 70
     1
102
RTVSPropertyOp31
 70
     1
102
RTVSPropertyOp32
 70
     1
102
RTVSPropertyOp33
 70
     1
102
RTVSPropertyOp34
 70
     1
102
RTVSPropertyOp35
 70
     1
102
RTVSPropertyOp36
 70
     1
102
RTVSPropertyOp37
 70
     1
102
RTVSPropertyOp38
 70
     1
102
RTVSPropertyOp39
 70
     1
102
RTVSPropertyOp40
 70
     1
102
RTVSPropertyOp41
 70
     1
102
RTVSPropertyOp42
 70
     1
102
RTVSPropertyOp43
 70
     1
102
RTVSPropertyOp44
 70
     1
102
RTVSPropertyOp45
 70
     1
102
RTVSPropertyOp46
 70
     1
102
RTVSPropertyOp47
 70
     1
102
RTVSPropertyOp48
 70
     1
102
RTVSPropertyOp49
 70
     1
102
RTVSPropertyOp50
 70
     1
102
RTVSPropertyOp51
 70
     0
102
RTVSPropertyOp52
 70
     0
102
RTVSPropertyOp53
 70
     1
102
RTVSPropertyOp54
 70
     1
102
RTVSPropertyOp55
 70
     1
102
RTVSPropertyOp56
 70
     1
102
RTVSPropertyOp57
 70
     1
102
RTVSPropertyOp58
 70
     1
102
RTVSPropertyOp59
 70
     1
102
RTVSPropertyOp60
 70
     1
102
RTVSPropertyOp61
 70
     1
102
RTVSPropertyOp62
 70
     1
  0
ENDSEC
  0
EOF
