  0
SECTION
  2
HEADER
  9
$ACADVER
  1
AC1015
  9
$ACADMAINTVER
 70
    20
  9
$DWGCODEPAGE
  3
ANSI_932
  9
$INSBASE
 10
0.0
 20
0.0
 30
0.0
  9
$EXTMIN
 10
9.99995
 20
9.999999999999998
 30
0.0
  9
$EXTMAX
 10
420.2348329999998
 20
295.708032
 30
0.0
  9
$LIMMIN
 10
0.0
 20
0.0
  9
$LIMMAX
 10
495.0
 20
341.25
  9
$ORTHOMODE
 70
     1
  9
$REGENMODE
 70
     1
  9
$FILLMODE
 70
     1
  9
$QTEXTMODE
 70
     0
  9
$MIRRTEXT
 70
     1
  9
$LTSCALE
 40
20.0
  9
$ATTMODE
 70
     1
  9
$TEXTSIZE
 40
5.0
  9
$TRACEWID
 40
1.0
  9
$TEXTSTYLE
  7
STANDARD
  9
$CLAYER
  8
0
  9
$CELTYPE
  6
BYLAYER
  9
$CECOLOR
 62
   256
  9
$CELTSCALE
 40
1.0
  9
$DISPSILH
 70
     0
  9
$DIMSCALE
 40
1.0
  9
$DIMASZ
 40
3.0
  9
$DIMEXO
 40
1.0
  9
$DIMDLI
 40
10.0
  9
$DIMRND
 40
0.0
  9
$DIMDLE
 40
0.0
  9
$DIMEXE
 40
1.0
  9
$DIMTP
 40
0.0
  9
$DIMTM
 40
0.0
  9
$DIMTXT
 40
3.2
  9
$DIMCEN
 40
0.0
  9
$DIMTSZ
 40
0.0
  9
$DIMTOL
 70
     0
  9
$DIMLIM
 70
     0
  9
$DIMTIH
 70
     0
  9
$DIMTOH
 70
     0
  9
$DIMSE1
 70
     0
  9
$DIMSE2
 70
     0
  9
$DIMTAD
 70
     3
  9
$DIMZIN
 70
     8
  9
$DIMBLK
  1

  9
$DIMASO
 70
     1
  9
$DIMSHO
 70
     1
  9
$DIMPOST
  1

  9
$DIMAPOST
  1

  9
$DIMALT
 70
     0
  9
$DIMALTD
 70
     2
  9
$DIMALTF
 40
25.4
  9
$DIMLFAC
 40
1.0
  9
$DIMTOFL
 70
     1
  9
$DIMTVP
 40
0.0
  9
$DIMTIX
 70
     0
  9
$DIMSOXD
 70
     0
  9
$DIMSAH
 70
     1
  9
$DIMBLK1
  1
OPEN
  9
$DIMBLK2
  1
OPEN
  9
$DIMSTYLE
  2
STANDARD
  9
$DIMCLRD
 70
     0
  9
$DIMCLRE
 70
     0
  9
$DIMCLRT
 70
     0
  9
$DIMTFAC
 40
1.0
  9
$DIMGAP
 40
1.0
  9
$DIMJUST
 70
     0
  9
$DIMSD1
 70
     0
  9
$DIMSD2
 70
     0
  9
$DIMTOLJ
 70
     1
  9
$DIMTZIN
 70
     0
  9
$DIMALTZ
 70
     0
  9
$DIMALTTZ
 70
     0
  9
$DIMUPT
 70
     0
  9
$DIMDEC
 70
     4
  9
$DIMTDEC
 70
     4
  9
$DIMALTU
 70
     2
  9
$DIMALTTD
 70
     2
  9
$DIMTXSTY
  7
STANDARD
  9
$DIMAUNIT
 70
     0
  9
$DIMADEC
 70
     0
  9
$DIMALTRND
 40
0.0
  9
$DIMAZIN
 70
     0
  9
$DIMDSEP
 70
    46
  9
$DIMATFIT
 70
     3
  9
$DIMFRAC
 70
     0
  9
$DIMLDRBLK
  1
OPEN
  9
$DIMLUNIT
 70
     2
  9
$DIMLWD
 70
    -2
  9
$DIMLWE
 70
    -2
  9
$DIMTMOVE
 70
     0
  9
$LUNITS
 70
     2
  9
$LUPREC
 70
     4
  9
$SKETCHINC
 40
1.0
  9
$FILLETRAD
 40
0.5
  9
$AUNITS
 70
     0
  9
$AUPREC
 70
     2
  9
$MENU
  1
.
  9
$ELEVATION
 40
0.0
  9
$PELEVATION
 40
0.0
  9
$THICKNESS
 40
0.0
  9
$LIMCHECK
 70
     0
  9
$CHAMFERA
 40
10.0
  9
$CHAMFERB
 40
10.0
  9
$CHAMFERC
 40
0.0
  9
$CHAMFERD
 40
0.0
  9
$SKPOLY
 70
     0
  9
$TDCREATE
 40
2451301.385220949
  9
$TDUCREATE
 40
2451301.010220949
  9
$TDUPDATE
 40
2457192.692101227
  9
$TDUUPDATE
 40
2457192.317101227
  9
$TDINDWG
 40
0.0027965972
  9
$TDUSRTIMER
 40
0.0027962500
  9
$USRTIMER
 70
     1
  9
$ANGBASE
 50
0.0
  9
$ANGDIR
 70
     0
  9
$PDMODE
 70
    34
  9
$PDSIZE
 40
0.0
  9
$PLINEWID
 40
0.0
  9
$SPLFRAME
 70
     0
  9
$SPLINETYPE
 70
     6
  9
$SPLINESEGS
 70
     8
  9
$HANDSEED
  5
C426
  9
$SURFTAB1
 70
     6
  9
$SURFTAB2
 70
     6
  9
$SURFTYPE
 70
     6
  9
$SURFU
 70
     6
  9
$SURFV
 70
     6
  9
$UCSBASE
  2

  9
$UCSNAME
  2

  9
$UCSORG
 10
0.0
 20
0.0
 30
0.0
  9
$UCSXDIR
 10
1.0
 20
0.0
 30
0.0
  9
$UCSYDIR
 10
0.0
 20
1.0
 30
0.0
  9
$UCSORTHOREF
  2

  9
$UCSORTHOVIEW
 70
     0
  9
$UCSORGTOP
 10
0.0
 20
0.0
 30
0.0
  9
$UCSORGBOTTOM
 10
0.0
 20
0.0
 30
0.0
  9
$UCSORGLEFT
 10
0.0
 20
0.0
 30
0.0
  9
$UCSORGRIGHT
 10
0.0
 20
0.0
 30
0.0
  9
$UCSORGFRONT
 10
0.0
 20
0.0
 30
0.0
  9
$UCSORGBACK
 10
0.0
 20
0.0
 30
0.0
  9
$PUCSBASE
  2

  9
$PUCSNAME
  2

  9
$PUCSORG
 10
0.0
 20
0.0
 30
0.0
  9
$PUCSXDIR
 10
1.0
 20
0.0
 30
0.0
  9
$PUCSYDIR
 10
0.0
 20
1.0
 30
0.0
  9
$PUCSORTHOREF
  2

  9
$PUCSORTHOVIEW
 70
     0
  9
$PUCSORGTOP
 10
0.0
 20
0.0
 30
0.0
  9
$PUCSORGBOTTOM
 10
0.0
 20
0.0
 30
0.0
  9
$PUCSORGLEFT
 10
0.0
 20
0.0
 30
0.0
  9
$PUCSORGRIGHT
 10
0.0
 20
0.0
 30
0.0
  9
$PUCSORGFRONT
 10
0.0
 20
0.0
 30
0.0
  9
$PUCSORGBACK
 10
0.0
 20
0.0
 30
0.0
  9
$USERI1
 70
     0
  9
$USERI2
 70
     0
  9
$USERI3
 70
     0
  9
$USERI4
 70
     0
  9
$USERI5
 70
     0
  9
$USERR1
 40
0.0
  9
$USERR2
 40
0.0
  9
$USERR3
 40
0.0
  9
$USERR4
 40
0.0
  9
$USERR5
 40
0.0
  9
$WORLDVIEW
 70
     1
  9
$SHADEDGE
 70
     3
  9
$SHADEDIF
 70
    70
  9
$TILEMODE
 70
     1
  9
$MAXACTVP
 70
    16
  9
$PINSBASE
 10
0.0
 20
0.0
 30
0.0
  9
$PLIMCHECK
 70
     0
  9
$PEXTMIN
 10
1.000000000000000E+20
 20
1.000000000000000E+20
 30
1.000000000000000E+20
  9
$PEXTMAX
 10
-1.000000000000000E+20
 20
-1.000000000000000E+20
 30
-1.000000000000000E+20
  9
$PLIMMIN
 10
0.0
 20
0.0
  9
$PLIMMAX
 10
420.0
 20
297.0
  9
$UNITMODE
 70
     0
  9
$VISRETAIN
 70
     0
  9
$PLINEGEN
 70
     0
  9
$PSLTSCALE
 70
     0
  9
$TREEDEPTH
 70
  3020
  9
$CMLSTYLE
  2
STANDARD
  9
$CMLJUST
 70
     0
  9
$CMLSCALE
 40
1.0
  9
$PROXYGRAPHICS
 70
     1
  9
$MEASUREMENT
 70
     0
  9
$CELWEIGHT
370
    -1
  9
$ENDCAPS
280
     0
  9
$JOINSTYLE
280
     0
  9
$LWDISPLAY
290
     0
  9
$INSUNITS
 70
     0
  9
$HYPERLINKBASE
  1

  9
$STYLESHEET
  1

  9
$XEDIT
290
     1
  9
$CEPSNTYPE
380
     0
  9
$PSTYLEMODE
290
     1
  9
$FINGERPRINTGUID
  2
{A57823D4-F853-4ADB-9904-B57CCA2CA7DE}
  9
$VERSIONGUID
  2
{0D0D25A7-E30C-4F92-B6A2-1AED034C639B}
  9
$EXTNAMES
290
     1
  9
$PSVPSCALE
 40
0.0
  9
$OLESTARTUP
290
     0
  0
ENDSEC
  0
SECTION
  2
CLASSES
  0
CLASS
  1
ACDBDICTIONARYWDFLT
  2
AcDbDictionaryWithDefault
  3
ObjectDBX Classes
 90
        0
280
     0
281
     0
  0
CLASS
  1
ACDBPLACEHOLDER
  2
AcDbPlaceHolder
  3
ObjectDBX Classes
 90
        0
280
     0
281
     0
  0
CLASS
  1
LAYOUT
  2
AcDbLayout
  3
ObjectDBX Classes
 90
        0
280
     0
281
     0
  0
CLASS
  1
DICTIONARYVAR
  2
AcDbDictionaryVar
  3
ObjectDBX Classes
 90
        0
280
     0
281
     0
  0
CLASS
  1
MATERIAL
  2
AcDbMaterial
  3
ObjectDBX Classes
 90
     1153
280
     0
281
     0
  0
CLASS
  1
VISUALSTYLE
  2
AcDbVisualStyle
  3
ObjectDBX Classes
 90
     4095
280
     0
281
     0
  0
CLASS
  1
TABLESTYLE
  2
AcDbTableStyle
  3
ObjectDBX Classes
 90
     4095
280
     0
281
     0
  0
CLASS
  1
SCALE
  2
AcDbScale
  3
ObjectDBX Classes
 90
     1153
280
     0
281
     0
  0
CLASS
  1
MLEADERSTYLE
  2
AcDbMLeaderStyle
  3
ACDB_MLEADERSTYLE_CLASS
 90
     4095
280
     0
281
     0
  0
CLASS
  1
ACDBSECTIONVIEWSTYLE
  2
AcDbSectionViewStyle
  3
ObjectDBX Classes
 90
     1025
280
     0
281
     0
  0
CLASS
  1
ACDBDETAILVIEWSTYLE
  2
AcDbDetailViewStyle
  3
ObjectDBX Classes
 90
     1025
280
     0
281
     0
  0
CLASS
  1
CELLSTYLEMAP
  2
AcDbCellStyleMap
  3
ObjectDBX Classes
 90
     1152
280
     0
281
     0
  0
ENDSEC
  0
SECTION
  2
TABLES
  0
TABLE
  2
VPORT
  5
C0DB
330
0
100
AcDbSymbolTable
 70
     1
  0
VPORT
  5
C32C
330
C0DB
100
AcDbSymbolTableRecord
100
AcDbViewportTableRecord
  2
*ACTIVE
 70
     0
 10
0.0
 20
0.0
 11
1.0
 21
1.0
 12
271.1150851569648
 22
170.625
 13
0.0
 23
0.0
 14
10.0
 24
10.0
 15
10.0
 25
10.0
 16
0.0
 26
0.0
 36
1.0
 17
0.0
 27
0.0
 37
0.0
 40
343.7934782608696
 41
2.35006605019815
 42
50.0
 43
0.0
 44
0.0
 50
0.0
 51
0.0
 71
     0
 72
   100
 73
     1
 74
     0
 75
     0
 76
     0
 77
     0
 78
     0
281
     0
 65
     1
110
0.0
120
0.0
130
0.0
111
1.0
121
0.0
131
0.0
112
0.0
122
1.0
132
0.0
 79
     0
146
0.0
1001
ACAD_NAV_VCDISPLAY
1070
     3
  0
ENDTAB
  0
TABLE
  2
LTYPE
  5
C0D8
330
0
100
AcDbSymbolTable
 70
     4
  0
LTYPE
  5
C0E6
330
C0D8
100
AcDbSymbolTableRecord
100
AcDbLinetypeTableRecord
  2
BYBLOCK
 70
     0
  3

 72
    65
 73
     0
 40
0.0
  0
LTYPE
  5
C0E7
330
C0D8
100
AcDbSymbolTableRecord
100
AcDbLinetypeTableRecord
  2
BYLAYER
 70
     0
  3

 72
    65
 73
     0
 40
0.0
  0
LTYPE
  5
C0E8
330
C0D8
100
AcDbSymbolTableRecord
100
AcDbLinetypeTableRecord
  2
CONTINUOUS
 70
     0
  3
Solid line
 72
    65
 73
     0
 40
0.0
  0
LTYPE
  5
C0F6
330
C0D8
100
AcDbSymbolTableRecord
100
AcDbLinetypeTableRecord
  2
DASHED
 70
     0
  3
__ __ __ __ __ __ __ __ __ __ __ __ __ __ __ __
 72
    65
 73
     2
 40
0.75
 49
0.5
 74
     0
 49
-0.25
 74
     0
  0
LTYPE
  5
C0F7
330
C0D8
100
AcDbSymbolTableRecord
100
AcDbLinetypeTableRecord
  2
CENTER
 70
     0
  3
____ _ ____ _ ____ _ ____ _ ____ _ ____ _ ____ 
 72
    65
 73
     4
 40
2.0
 49
1.25
 74
     0
 49
-0.25
 74
     0
 49
0.25
 74
     0
 49
-0.25
 74
     0
  0
LTYPE
  5
C0F8
330
C0D8
100
AcDbSymbolTableRecord
100
AcDbLinetypeTableRecord
  2
PHANTOM
 70
     0
  3
______  __  __  ______  __  __  ______  __  __ 
 72
    65
 73
     6
 40
2.5
 49
1.25
 74
     0
 49
-0.25
 74
     0
 49
0.25
 74
     0
 49
-0.25
 74
     0
 49
0.25
 74
     0
 49
-0.25
 74
     0
  0
ENDTAB
  0
TABLE
  2
LAYER
  5
C0D5
330
0
100
AcDbSymbolTable
 70
     8
  0
LAYER
  5
C0E3
102
{ACAD_XDICTIONARY
360
C389
102
}
330
C0D5
100
AcDbSymbolTableRecord
100
AcDbLayerTableRecord
  2
0
 70
     0
 62
     7
  6
CONTINUOUS
370
    -3
390
C335
  0
LAYER
  5
C0F9
102
{ACAD_XDICTIONARY
360
C38B
102
}
330
C0D5
100
AcDbSymbolTableRecord
100
AcDbLayerTableRecord
  2
4
 70
     0
 62
     1
  6
CENTER
370
    -3
390
C335
  0
LAYER
  5
C0FA
102
{ACAD_XDICTIONARY
360
C38D
102
}
330
C0D5
100
AcDbSymbolTableRecord
100
AcDbLayerTableRecord
  2
5
 70
     0
 62
     6
  6
PHANTOM
370
    -3
390
C335
  0
LAYER
  5
C0FB
102
{ACAD_XDICTIONARY
360
C38F
102
}
330
C0D5
100
AcDbSymbolTableRecord
100
AcDbLayerTableRecord
  2
1
 70
     0
 62
     7
  6
CONTINUOUS
370
    -3
390
C335
  0
LAYER
  5
C0FC
102
{ACAD_XDICTIONARY
360
C391
102
}
330
C0D5
100
AcDbSymbolTableRecord
100
AcDbLayerTableRecord
  2
2
 70
     0
 62
     4
  6
CONTINUOUS
370
    -3
390
C335
  0
LAYER
  5
C0FD
102
{ACAD_XDICTIONARY
360
C393
102
}
330
C0D5
100
AcDbSymbolTableRecord
100
AcDbLayerTableRecord
  2
3
 70
     0
 62
     2
  6
DASHED
370
    -3
390
C335
  0
LAYER
  5
C0FE
102
{ACAD_XDICTIONARY
360
C395
102
}
330
C0D5
100
AcDbSymbolTableRecord
100
AcDbLayerTableRecord
  2
6
 70
     0
 62
     5
  6
CONTINUOUS
370
    -3
390
C335
  0
LAYER
  5
C0FF
102
{ACAD_XDICTIONARY
360
C397
102
}
330
C0D5
100
AcDbSymbolTableRecord
100
AcDbLayerTableRecord
  2
7
 70
     0
 62
     3
  6
CONTINUOUS
370
    -3
390
C335
  0
ENDTAB
  0
TABLE
  2
STYLE
  5
C0D6
330
0
100
AcDbSymbolTable
 70
     1
  0
STYLE
  5
C0E4
330
C0D6
100
AcDbSymbolTableRecord
100
AcDbTextStyleTableRecord
  2
STANDARD
 70
     0
 40
0.0
 41
1.0
 50
0.0
 71
     0
 42
5.0
  3
txt
  4

  0
ENDTAB
  0
TABLE
  2
VIEW
  5
C0D9
330
0
100
AcDbSymbolTable
 70
     2
  0
VIEW
  5
C100
330
C0D9
100
AcDbSymbolTableRecord
100
AcDbViewTableRecord
  2
7
 70
     0
 40
113.5991649999999
 10
207.7781589999999
 20
100.5444229999999
 41
223.824098
 11
0.0
 21
0.0
 31
1.0
 12
0.0
 22
0.0
 32
0.0
 42
50.0
 43
0.0
 44
0.0
 50
0.0
 71
     0
281
     0
 72
     0
  0
VIEW
  5
C101
330
C0D9
100
AcDbSymbolTableRecord
100
AcDbViewTableRecord
  2
6
 70
     0
 40
267.146964
 10
253.9720659999999
 20
125.781695
 41
526.35887
 11
0.0
 21
0.0
 31
1.0
 12
0.0
 22
0.0
 32
0.0
 42
50.0
 43
0.0
 44
0.0
 50
0.0
 71
     0
281
     0
 72
     0
  0
ENDTAB
  0
TABLE
  2
UCS
  5
C0DA
330
0
100
AcDbSymbolTable
 70
     0
  0
ENDTAB
  0
TABLE
  2
APPID
  5
C0DC
330
0
100
AcDbSymbolTable
 70
     4
  0
APPID
  5
C0E5
330
C0DC
100
AcDbSymbolTableRecord
100
AcDbRegAppTableRecord
  2
ACAD
 70
     0
  0
APPID
  5
C387
330
C0DC
100
AcDbSymbolTableRecord
100
AcDbRegAppTableRecord
  2
ACAD_EXEMPT_FROM_CAD_STANDARDS
 70
     0
  0
APPID
  5
C3A3
330
C0DC
100
AcDbSymbolTableRecord
100
AcDbRegAppTableRecord
  2
ACAD_NAV_VCDISPLAY
 70
     0
  0
APPID
  5
C3DC
330
C0DC
100
AcDbSymbolTableRecord
100
AcDbRegAppTableRecord
  2
ACAD_MLEADERVER
 70
     0
  0
ENDTAB
  0
TABLE
  2
DIMSTYLE
  5
C0DD
330
0
100
AcDbSymbolTable
 70
     1
100
AcDbDimStyleTable
 71
     0
  0
DIMSTYLE
105
C103
330
C0DD
100
AcDbSymbolTableRecord
100
AcDbDimStyleTableRecord
  2
STANDARD
 70
     0
 41
3.0
 42
1.0
 43
10.0
 44
1.0
 73
     0
 74
     0
 77
     3
 78
     8
140
3.2
141
0.0
147
1.0
172
     1
173
     1
284
     8
285
     8
286
     8
340
C0E4
  0
ENDTAB
  0
TABLE
  2
BLOCK_RECORD
  5
C0D4
330
0
100
AcDbSymbolTable
 70
     1
  0
BLOCK_RECORD
  5
C0F1
102
{ACAD_XDICTIONARY
360
C32F
102
}
330
C0D4
100
AcDbSymbolTableRecord
100
AcDbBlockTableRecord
  2
*MODEL_SPACE
340
C383
  0
BLOCK_RECORD
  5
C0ED
102
{ACAD_XDICTIONARY
360
C32D
102
}
330
C0D4
100
AcDbSymbolTableRecord
100
AcDbBlockTableRecord
  2
*PAPER_SPACE
340
C384
  0
BLOCK_RECORD
  5
C10B
330
C0D4
100
AcDbSymbolTableRecord
100
AcDbBlockTableRecord
  2
_OPEN
340
0
  0
ENDTAB
  0
ENDSEC
  0
SECTION
  2
BLOCKS
  0
BLOCK
  5
C0F2
330
C0F1
100
AcDbEntity
  8
0
100
AcDbBlockBegin
  2
*MODEL_SPACE
 70
     0
 10
0.0
 20
0.0
 30
0.0
  3
*MODEL_SPACE
  1

  0
ENDBLK
  5
C0F3
330
C0F1
100
AcDbEntity
  8
0
100
AcDbBlockEnd
  0
BLOCK
  5
C0EE
330
C0ED
100
AcDbEntity
 67
     1
  8
0
100
AcDbBlockBegin
  2
*PAPER_SPACE
 70
     0
 10
0.0
 20
0.0
 30
0.0
  3
*PAPER_SPACE
  1

  0
ENDBLK
  5
C0EF
330
C0ED
100
AcDbEntity
 67
     1
  8
0
100
AcDbBlockEnd
  0
BLOCK
  5
C10C
330
C10B
100
AcDbEntity
  8
0
100
AcDbBlockBegin
  2
_OPEN
 70
     0
 10
0.0
 20
0.0
 30
0.0
  3
_OPEN
  1

  0
LINE
  5
C10D
330
C10B
100
AcDbEntity
  8
0
  6
ByBlock
 62
     0
100
AcDbLine
 10
-1.0
 20
0.166667
 30
0.0
 11
0.0
 21
0.0
 31
0.0
  0
LINE
  5
C10E
330
C10B
100
AcDbEntity
  8
0
  6
ByBlock
 62
     0
100
AcDbLine
 10
0.0
 20
0.0
 30
0.0
 11
-1.0
 21
-0.166667
 31
0.0
  0
LINE
  5
C10F
330
C10B
100
AcDbEntity
  8
0
  6
ByBlock
 62
     0
100
AcDbLine
 10
0.0
 20
0.0
 30
0.0
 11
-1.0
 21
0.0
 31
0.0
  0
ENDBLK
  5
C110
330
C10B
100
AcDbEntity
  8
0
100
AcDbBlockEnd
  0
ENDSEC
  0
SECTION
  2
ENTITIES
  0
TEXT
  5
C111
330
C0F1
100
AcDbEntity
  8
6
  6
Continuous
100
AcDbText
 10
27.97945
 20
10.0487
 30
0.0
 40
1.399999999999999
  1
6
 41
1.069393
100
AcDbText
  0
TEXT
  5
C112
330
C0F1
100
AcDbEntity
  8
1
  6
Continuous
100
AcDbText
 10
17.97945
 20
10.0487
 30
0.0
 40
1.399999999999999
  1
1
 41
1.069393
100
AcDbText
  0
TEXT
  5
C113
330
C0F1
100
AcDbEntity
  8
1
  6
Continuous
100
AcDbText
 10
9.99995
 20
10.0
 30
0.0
 40
1.399999999999999
  1
LAYER
 41
1.009912999999996
100
AcDbText
  0
TEXT
  5
C114
330
C0F1
100
AcDbEntity
  8
2
  6
Continuous
100
AcDbText
 10
19.97944999999998
 20
10.0487
 30
0.0
 40
1.399999999999999
  1
2
 41
1.069393
100
AcDbText
  0
TEXT
  5
C115
330
C0F1
100
AcDbEntity
  8
3
  6
DASHED
100
AcDbText
 10
21.97945
 20
10.0487
 30
0.0
 40
1.399999999999999
  1
3
 41
1.069393
100
AcDbText
  0
TEXT
  5
C116
330
C0F1
100
AcDbEntity
  8
4
  6
CENTER
100
AcDbText
 10
23.97944999999999
 20
10.0487
 30
0.0
 40
1.399999999999999
  1
4
 41
1.069393
100
AcDbText
  0
TEXT
  5
C117
330
C0F1
100
AcDbEntity
  8
5
  6
PHANTOM
100
AcDbText
 10
25.97945
 20
10.0487
 30
0.0
 40
1.399999999999999
  1
5
 41
1.069393
100
AcDbText
  0
TEXT
  5
C118
330
C0F1
100
AcDbEntity
  8
7
  6
Continuous
100
AcDbText
 10
10.00005
 20
26.0
 30
0.0
 40
3.0
  1
CODE No.19009
 41
1.003962999999999
100
AcDbText
  0
TEXT
  5
C119
330
C0F1
100
AcDbEntity
  8
7
  6
Continuous
100
AcDbText
 10
10.00005
 20
18.0
 30
0.0
 40
3.0
  1
TYPE No.TCA-TE50N10S (TE50N10S)
 41
1.002350999999997
100
AcDbText
  0
TEXT
  5
C11A
330
C0F1
100
AcDbEntity
  8
7
  6
Continuous
100
AcDbText
 10
29.97944999999999
 20
10.0487
 30
0.0
 40
1.399999999999999
  1
7
 41
1.069393
100
AcDbText
  0
LINE
  5
C11B
330
C0F1
100
AcDbEntity
  8
1
  6
Continuous
100
AcDbLine
 10
139.9864279999998
 20
255.2080319999999
 30
0.0
 11
139.9864279999998
 21
249.8634809999999
 31
0.0
  0
LINE
  5
C11C
330
C0F1
100
AcDbEntity
  8
1
  6
Continuous
100
AcDbLine
 10
189.9864279999999
 20
255.2080319999999
 30
0.0
 11
189.9864279999999
 21
249.8634809999999
 31
0.0
  0
LINE
  5
C11D
330
C0F1
100
AcDbEntity
  8
4
  6
CENTER
100
AcDbLine
 10
164.9864279999999
 20
295.708032
 30
0.0
 11
164.9864279999999
 21
236.7080319999999
 31
0.0
  0
LINE
  5
C11E
330
C0F1
100
AcDbEntity
  8
1
  6
Continuous
100
AcDbLine
 10
184.7523149999999
 20
245.1261
 30
0.0
 11
145.220542
 21
245.1261
 31
0.0
  0
LINE
  5
C11F
330
C0F1
100
AcDbEntity
  8
1
  6
Continuous
100
AcDbLine
 10
148.3200889999999
 20
244.138054
 30
0.0
 11
181.6527679999999
 21
244.138054
 31
0.0
  0
LINE
  5
C120
330
C0F1
100
AcDbEntity
  8
1
  6
Continuous
100
AcDbLine
 10
147.6322619999999
 20
244.863929
 30
0.0
 11
182.340595
 21
244.863929
 31
0.0
  0
LINE
  5
C121
330
C0F1
100
AcDbEntity
  8
1
  6
Continuous
100
AcDbLine
 10
180.086428
 20
243.7080319999998
 30
0.0
 11
149.886428
 21
243.7080319999998
 31
0.0
  0
LINE
  5
C122
330
C0F1
100
AcDbEntity
  8
4
  6
CENTER
100
AcDbLine
 10
194.9864279999999
 20
155.2080319999998
 30
0.0
 11
134.986428
 21
155.2080319999998
 31
0.0
  0
CIRCLE
  5
C123
330
C0F1
100
AcDbEntity
  8
1
  6
Continuous
100
AcDbCircle
 10
164.9864279999999
 20
155.2080319999998
 30
0.0
 40
21.0
  0
CIRCLE
  5
C124
330
C0F1
100
AcDbEntity
  8
1
  6
Continuous
100
AcDbCircle
 10
164.9864279999999
 20
155.2080319999998
 30
0.0
 40
19.5
  0
CIRCLE
  5
C125
330
C0F1
100
AcDbEntity
  8
1
  6
Continuous
100
AcDbCircle
 10
164.9864279999999
 20
155.2080319999998
 30
0.0
 40
25.0
  0
CIRCLE
  5
C126
330
C0F1
100
AcDbEntity
  8
1
  6
Continuous
100
AcDbCircle
 10
164.9864279999999
 20
155.2080319999998
 30
0.0
 40
15.09999999999999
  0
CIRCLE
  5
C127
330
C0F1
100
AcDbEntity
  8
1
  6
Continuous
100
AcDbCircle
 10
164.9864279999999
 20
155.2080319999998
 30
0.0
 40
17.0
  0
LINE
  5
C128
330
C0F1
100
AcDbEntity
  8
4
  6
CENTER
100
AcDbLine
 10
181.986428
 20
142.7284649999998
 30
0.0
 11
181.986428
 21
211.7080319999999
 31
0.0
  0
LINE
  5
C129
330
C0F1
100
AcDbEntity
  8
4
  6
CENTER
100
AcDbLine
 10
164.9864279999999
 20
125.208032
 30
0.0
 11
164.9864279999999
 21
185.2080319999998
 31
0.0
  0
LINE
  5
C12A
330
C0F1
100
AcDbEntity
  8
4
  6
CENTER
100
AcDbLine
 10
181.986428
 20
54.50803199999999
 30
0.0
 11
181.986428
 21
76.90803199999997
 31
0.0
  0
LINE
  5
C12B
330
C0F1
100
AcDbEntity
  8
1
  6
Continuous
100
AcDbLine
 10
179.677027
 20
69.70803199999997
 30
0.0
 11
184.295829
 21
69.70803199999997
 31
0.0
  0
LINE
  5
C12C
330
C0F1
100
AcDbEntity
  8
1
  6
Continuous
100
AcDbLine
 10
184.295829
 20
61.70803199999999
 30
0.0
 11
179.677027
 21
61.70803199999999
 31
0.0
  0
LINE
  5
C12D
330
C0F1
100
AcDbEntity
  8
4
  6
CENTER
100
AcDbLine
 10
197.486428
 20
65.70803199999999
 30
0.0
 11
128.5673209999999
 21
65.70803199999999
 31
0.0
  0
LINE
  5
C12E
330
C0F1
100
AcDbEntity
  8
1
  6
Continuous
100
AcDbLine
 10
184.295829
 20
69.70803199999997
 30
0.0
 11
186.605231
 21
65.70803199999999
 31
0.0
  0
LINE
  5
C12F
330
C0F1
100
AcDbEntity
  8
1
  6
Continuous
100
AcDbLine
 10
186.605231
 20
65.70803199999999
 30
0.0
 11
184.295829
 21
61.70803199999999
 31
0.0
  0
LINE
  5
C130
330
C0F1
100
AcDbEntity
  8
1
  6
Continuous
100
AcDbLine
 10
177.367626
 20
65.70803199999999
 30
0.0
 11
179.677027
 21
69.70803199999997
 31
0.0
  0
LINE
  5
C131
330
C0F1
100
AcDbEntity
  8
1
  6
Continuous
100
AcDbLine
 10
179.677027
 20
61.70803199999999
 30
0.0
 11
177.367626
 21
65.70803199999999
 31
0.0
  0
LINE
  5
C132
330
C0F1
100
AcDbEntity
  8
1
  6
Continuous
100
AcDbLine
 10
190.541798
 20
180.7667539999999
 30
0.0
 11
192.3930119999999
 21
149.296115
 31
0.0
  0
LINE
  5
C133
330
C0F1
100
AcDbEntity
  8
1
  6
Continuous
100
AcDbLine
 10
190.8956
 20
147.7080319999998
 30
0.0
 11
188.834908
 21
147.7080319999998
 31
0.0
  0
ARC
  5
C134
330
C0F1
100
AcDbEntity
  8
1
  6
Continuous
100
AcDbCircle
 10
190.8956
 20
149.208032
 30
0.0
 40
1.5
100
AcDbArc
 50
270.0
 51
3.366461
  0
LINE
  5
C135
330
C0F1
100
AcDbEntity
  8
1
  6
Continuous
100
AcDbLine
 10
172.9864289999999
 20
187.708032
 30
0.0
 11
190.9864279999999
 21
187.708032
 31
0.0
  0
LINE
  5
C136
330
C0F1
100
AcDbEntity
  8
1
  6
Continuous
100
AcDbLine
 10
172.9864279999999
 20
181.708032
 30
0.0
 11
190.9864279999999
 21
181.708032
 31
0.0
  0
ARC
  5
C137
330
C0F1
100
AcDbEntity
  8
1
  6
Continuous
100
AcDbCircle
 10
188.340677
 20
184.708032
 30
0.0
 40
4.0
100
AcDbArc
 50
311.409622
 51
48.590378
  0
ARC
  5
C138
330
C0F1
100
AcDbEntity
  8
1
  6
Continuous
100
AcDbCircle
 10
189.543523
 20
180.708032
 30
0.0
 40
1.0
100
AcDbArc
 50
3.366461
 51
90.0
  0
ARC
  5
C139
330
C0F1
100
AcDbEntity
  8
1
  6
Continuous
100
AcDbCircle
 10
182.2987169999999
 20
184.708032
 30
0.0
 40
4.0
100
AcDbArc
 50
311.409622
 51
48.590378
  0
ARC
  5
C13A
330
C0F1
100
AcDbEntity
  8
1
  6
Continuous
100
AcDbCircle
 10
170.2235509999999
 20
181.3193929999999
 30
0.0
 40
3.319657999999998
100
AcDbArc
 50
316.0631799999998
 51
349.3876109999998
  0
ARC
  5
C13B
330
C0F1
100
AcDbEntity
  8
1
  6
Continuous
100
AcDbCircle
 10
181.6741399999999
 20
184.708032
 30
0.0
 40
4.0
100
AcDbArc
 50
131.4096219999999
 51
228.5903779999999
  0
ARC
  5
C13C
330
C0F1
100
AcDbEntity
  8
1
  6
Continuous
100
AcDbCircle
 10
175.63218
 20
184.708032
 30
0.0
 40
4.0
100
AcDbArc
 50
131.4096219999999
 51
228.5903779999999
  0
ARC
  5
C13D
330
C0F1
100
AcDbEntity
  8
1
  6
Continuous
100
AcDbCircle
 10
174.4864279999999
 20
180.708032
 30
0.0
 40
1.0
100
AcDbArc
 50
90.0
 51
180.0
  0
ARC
  5
C13E
330
C0F1
100
AcDbEntity
  8
1
  6
Continuous
100
AcDbCircle
 10
185.986428
 20
249.8634809999999
 30
0.0
 40
4.0
100
AcDbArc
 50
292.024313
 51
0.0
  0
ARC
  5
C13F
330
C0F1
100
AcDbEntity
  8
1
  6
Continuous
100
AcDbCircle
 10
164.9864279999999
 20
301.7768699999999
 30
0.0
 40
60.0
100
AcDbArc
 50
289.23427
 51
292.024313
  0
ARC
  5
C140
330
C0F1
100
AcDbEntity
  8
1
  6
Continuous
100
AcDbCircle
 10
164.9864279999999
 20
301.7768699999999
 30
0.0
 40
59.5
100
AcDbArc
 50
286.957763
 51
287.8029259999999
  0
LINE
  5
C141
330
C0F1
100
AcDbEntity
  8
1
  6
Continuous
100
AcDbLine
 10
27.98538999999999
 20
174.9739179999999
 30
0.0
 11
27.98538999999999
 21
135.442146
 31
0.0
  0
LINE
  5
C142
330
C0F1
100
AcDbEntity
  8
1
  6
Continuous
100
AcDbLine
 10
70.149253
 20
174.9739179999999
 30
0.0
 11
70.149253
 21
135.442146
 31
0.0
  0
ARC
  5
C143
330
C0F1
100
AcDbEntity
  8
1
  6
Continuous
100
AcDbCircle
 10
13.49848299999999
 20
155.2080319999998
 30
0.0
 40
59.5
100
AcDbArc
 50
342.1970739999999
 51
343.042237
  0
ARC
  5
C144
330
C0F1
100
AcDbEntity
  8
1
  6
Continuous
100
AcDbCircle
 10
84.63616
 20
155.2080319999998
 30
0.0
 40
59.5
100
AcDbArc
 50
196.957763
 51
197.802926
  0
LINE
  5
C145
330
C0F1
100
AcDbEntity
  8
4
  6
CENTER
100
AcDbLine
 10
49.067321
 20
211.7080319999999
 30
0.0
 11
49.067321
 21
135.708032
 31
0.0
  0
LINE
  5
C146
330
C0F1
100
AcDbEntity
  8
1
  6
Continuous
100
AcDbLine
 10
60.067321
 20
130.2080319999998
 30
0.0
 11
65.411872
 21
130.2080319999998
 31
0.0
  0
ARC
  5
C147
330
C0F1
100
AcDbEntity
  8
1
  6
Continuous
100
AcDbCircle
 10
13.49848299999999
 20
155.2080319999998
 30
0.0
 40
60.0
100
AcDbArc
 50
337.975687
 51
340.7657299999999
  0
ARC
  5
C148
330
C0F1
100
AcDbEntity
  8
1
  6
Continuous
100
AcDbCircle
 10
65.411872
 20
134.2080319999998
 30
0.0
 40
4.0
100
AcDbArc
 50
270.0
 51
337.975687
  0
ARC
  5
C149
330
C0F1
100
AcDbEntity
  8
1
  6
Continuous
100
AcDbCircle
 10
60.067321
 20
130.708032
 30
0.0
 40
0.5
100
AcDbArc
 50
180.0
 51
270.0
  0
LINE
  5
C14A
330
C0F1
100
AcDbEntity
  8
1
  6
Continuous
100
AcDbLine
 10
38.06732099999999
 20
130.2080319999998
 30
0.0
 11
32.722771
 21
130.2080319999998
 31
0.0
  0
ARC
  5
C14B
330
C0F1
100
AcDbEntity
  8
1
  6
Continuous
100
AcDbCircle
 10
38.06732099999999
 20
130.708032
 30
0.0
 40
0.5
100
AcDbArc
 50
270.0
 51
0.0
  0
ARC
  5
C14C
330
C0F1
100
AcDbEntity
  8
1
  6
Continuous
100
AcDbCircle
 10
32.722771
 20
134.2080319999998
 30
0.0
 40
4.0
100
AcDbArc
 50
202.0243129999999
 51
270.0
  0
ARC
  5
C14D
330
C0F1
100
AcDbEntity
  8
1
  6
Continuous
100
AcDbCircle
 10
84.63616
 20
155.2080319999998
 30
0.0
 40
60.0
100
AcDbArc
 50
199.23427
 51
202.0243129999999
  0
LINE
  5
C14E
330
C0F1
100
AcDbEntity
  8
4
  6
CENTER
100
AcDbLine
 10
19.56732099999999
 20
155.2080319999998
 30
0.0
 11
78.56732099999998
 21
155.2080319999998
 31
0.0
  0
ARC
  5
C14F
330
C0F1
100
AcDbEntity
  8
1
  6
Continuous
100
AcDbCircle
 10
164.9864279999999
 20
301.7768699999999
 30
0.0
 40
59.5
100
AcDbArc
 50
252.1970739999999
 51
253.042237
  0
ARC
  5
C150
330
C0F1
100
AcDbEntity
  8
1
  6
Continuous
100
AcDbCircle
 10
143.9864279999999
 20
249.8634809999999
 30
0.0
 40
4.0
100
AcDbArc
 50
180.0
 51
247.975687
  0
ARC
  5
C151
330
C0F1
100
AcDbEntity
  8
1
  6
Continuous
100
AcDbCircle
 10
164.9864279999999
 20
301.7768699999999
 30
0.0
 40
60.0
100
AcDbArc
 50
247.975687
 51
250.7657299999999
  0
ARC
  5
C152
330
C0F1
100
AcDbEntity
  8
1
  6
Continuous
100
AcDbCircle
 10
27.244959
 20
137.708032
 30
0.0
 40
0.5
100
AcDbArc
 50
16.957763
 51
76.54339799999998
  0
ARC
  5
C153
330
C0F1
100
AcDbEntity
  8
1
  6
Continuous
100
AcDbCircle
 10
27.244959
 20
172.7080319999998
 30
0.0
 40
0.5
100
AcDbArc
 50
283.456602
 51
343.042237
  0
LINE
  5
C154
330
C0F1
100
AcDbEntity
  8
1
  6
Continuous
100
AcDbLine
 10
71.137299
 20
171.8743719999999
 30
0.0
 11
71.137299
 21
138.5416919999999
 31
0.0
  0
LINE
  5
C155
330
C0F1
100
AcDbEntity
  8
1
  6
Continuous
100
AcDbLine
 10
70.411424
 20
172.562199
 30
0.0
 11
70.411424
 21
137.8538649999998
 31
0.0
  0
LINE
  5
C156
330
C0F1
100
AcDbEntity
  8
1
  6
Continuous
100
AcDbLine
 10
59.56732099999999
 20
130.708032
 30
0.0
 11
59.56732099999999
 21
179.708032
 31
0.0
  0
LINE
  5
C157
330
C0F1
100
AcDbEntity
  8
1
  6
Continuous
100
AcDbLine
 10
27.723219
 20
137.8538649999998
 30
0.0
 11
27.723219
 21
172.562199
 31
0.0
  0
LINE
  5
C158
330
C0F1
100
AcDbEntity
  8
1
  6
Continuous
100
AcDbLine
 10
38.567321
 20
130.708032
 30
0.0
 11
38.567321
 21
179.708032
 31
0.0
  0
LINE
  5
C159
330
C0F1
100
AcDbEntity
  8
1
  6
Continuous
100
AcDbLine
 10
40.06732099999999
 20
147.7080319999998
 30
0.0
 11
40.06732099999999
 21
162.5466999999999
 31
0.0
  0
LINE
  5
C15A
330
C0F1
100
AcDbEntity
  8
1
  6
Continuous
100
AcDbLine
 10
58.067321
 20
147.7080319999998
 30
0.0
 11
58.067321
 21
162.5466999999999
 31
0.0
  0
LINE
  5
C15B
330
C0F1
100
AcDbEntity
  8
1
  6
Continuous
100
AcDbLine
 10
40.06732099999999
 20
147.7080319999998
 30
0.0
 11
58.067321
 21
147.7080319999998
 31
0.0
  0
LINE
  5
C15C
330
C0F1
100
AcDbEntity
  8
1
  6
Continuous
100
AcDbLine
 10
71.56732099999998
 20
170.3080319999999
 30
0.0
 11
71.56732099999998
 21
140.108032
 31
0.0
  0
LINE
  5
C15D
330
C0F1
100
AcDbEntity
  8
1
  6
Continuous
100
AcDbLine
 10
58.567321
 20
148.208032
 30
0.0
 11
58.567321
 21
161.4511349999999
 31
0.0
  0
ARC
  5
C15E
330
C0F1
100
AcDbEntity
  8
1
  6
Continuous
100
AcDbCircle
 10
70.656976
 20
138.6805779999999
 30
0.0
 40
0.5
100
AcDbArc
 50
283.456602
 51
343.872705
  0
ARC
  5
C15F
330
C0F1
100
AcDbEntity
  8
1
  6
Continuous
100
AcDbCircle
 10
70.889684
 20
137.708032
 30
0.0
 40
0.5
100
AcDbArc
 50
103.4566019999999
 51
163.0422369999998
  0
ARC
  5
C160
330
C0F1
100
AcDbEntity
  8
1
  6
Continuous
100
AcDbCircle
 10
59.56732099999999
 20
148.208032
 30
0.0
 40
1.0
100
AcDbArc
 50
180.0
 51
270.0
  0
ARC
  5
C161
330
C0F1
100
AcDbEntity
  8
1
  6
Continuous
100
AcDbCircle
 10
59.56732099999999
 20
162.208032
 30
0.0
 40
1.0
100
AcDbArc
 50
90.0
 51
119.9999999999999
  0
LINE
  5
C162
330
C0F1
100
AcDbEntity
  8
1
  6
Continuous
100
AcDbLine
 10
39.56732099999999
 20
161.4511349999999
 30
0.0
 11
39.56732099999999
 21
148.208032
 31
0.0
  0
ARC
  5
C163
330
C0F1
100
AcDbEntity
  8
1
  6
Continuous
100
AcDbCircle
 10
38.567321
 20
148.208032
 30
0.0
 40
1.0
100
AcDbArc
 50
270.0
 51
0.0
  0
ARC
  5
C164
330
C0F1
100
AcDbEntity
  8
1
  6
Continuous
100
AcDbCircle
 10
38.567321
 20
162.208032
 30
0.0
 40
1.0
100
AcDbArc
 50
60.0
 51
90.0
  0
LINE
  5
C165
330
C0F1
100
AcDbEntity
  8
1
  6
Continuous
100
AcDbLine
 10
41.067321
 20
187.708032
 30
0.0
 11
57.06732099999999
 21
187.708032
 31
0.0
  0
LINE
  5
C166
330
C0F1
100
AcDbEntity
  8
1
  6
Continuous
100
AcDbLine
 10
57.06732099999999
 20
181.708032
 30
0.0
 11
41.067321
 21
181.708032
 31
0.0
  0
ARC
  5
C167
330
C0F1
100
AcDbEntity
  8
1
  6
Continuous
100
AcDbCircle
 10
49.067321
 20
79.113855
 30
0.0
 40
100.0
100
AcDbArc
 50
84.836393
 51
95.16360699999999
  0
LINE
  5
C168
330
C0F1
100
AcDbEntity
  8
1
  6
Continuous
100
AcDbLine
 10
60.067321
 20
180.2080319999998
 30
0.0
 11
65.411872
 21
180.2080319999998
 31
0.0
  0
ARC
  5
C169
330
C0F1
100
AcDbEntity
  8
1
  6
Continuous
100
AcDbCircle
 10
65.411872
 20
176.208032
 30
0.0
 40
4.0
100
AcDbArc
 50
22.024313
 51
90.0
  0
ARC
  5
C16A
330
C0F1
100
AcDbEntity
  8
1
  6
Continuous
100
AcDbCircle
 10
13.49848299999999
 20
155.2080319999998
 30
0.0
 40
60.0
100
AcDbArc
 50
19.23427
 51
22.024313
  0
ARC
  5
C16B
330
C0F1
100
AcDbEntity
  8
1
  6
Continuous
100
AcDbCircle
 10
70.656976
 20
171.735485
 30
0.0
 40
0.5
100
AcDbArc
 50
16.127295
 51
76.54339799999998
  0
ARC
  5
C16C
330
C0F1
100
AcDbEntity
  8
1
  6
Continuous
100
AcDbCircle
 10
70.889684
 20
172.7080319999998
 30
0.0
 40
0.5
100
AcDbArc
 50
196.957763
 51
256.543398
  0
ARC
  5
C16D
330
C0F1
100
AcDbEntity
  8
1
  6
Continuous
100
AcDbCircle
 10
13.49848299999999
 20
155.2080319999998
 30
0.0
 40
59.5
100
AcDbArc
 50
16.957763
 51
17.802926
  0
ARC
  5
C16E
330
C0F1
100
AcDbEntity
  8
1
  6
Continuous
100
AcDbCircle
 10
60.067321
 20
179.708032
 30
0.0
 40
0.5
100
AcDbArc
 50
90.0
 51
180.0
  0
ARC
  5
C16F
330
C0F1
100
AcDbEntity
  8
1
  6
Continuous
100
AcDbCircle
 10
57.06732099999999
 20
180.708032
 30
0.0
 40
1.0
100
AcDbArc
 50
0.0
 51
90.0
  0
LINE
  5
C170
330
C0F1
100
AcDbEntity
  8
1
  6
Continuous
100
AcDbLine
 10
57.567321
 20
182.2080319999998
 30
0.0
 11
57.567321
 21
187.208032
 31
0.0
  0
ARC
  5
C171
330
C0F1
100
AcDbEntity
  8
1
  6
Continuous
100
AcDbCircle
 10
57.06732099999999
 20
187.208032
 30
0.0
 40
0.5
100
AcDbArc
 50
0.0
 51
90.0
  0
ARC
  5
C172
330
C0F1
100
AcDbEntity
  8
1
  6
Continuous
100
AcDbCircle
 10
57.06732099999999
 20
182.2080319999998
 30
0.0
 40
0.5
100
AcDbArc
 50
270.0
 51
0.0
  0
LINE
  5
C173
330
C0F1
100
AcDbEntity
  8
1
  6
Continuous
100
AcDbLine
 10
40.567321
 20
182.2080319999998
 30
0.0
 11
40.567321
 21
187.208032
 31
0.0
  0
ARC
  5
C174
330
C0F1
100
AcDbEntity
  8
1
  6
Continuous
100
AcDbCircle
 10
41.067321
 20
187.208032
 30
0.0
 40
0.5
100
AcDbArc
 50
90.0
 51
180.0
  0
ARC
  5
C175
330
C0F1
100
AcDbEntity
  8
1
  6
Continuous
100
AcDbCircle
 10
41.067321
 20
182.2080319999998
 30
0.0
 40
0.5
100
AcDbArc
 50
180.0
 51
270.0
  0
ARC
  5
C176
330
C0F1
100
AcDbEntity
  8
1
  6
Continuous
100
AcDbCircle
 10
41.067321
 20
180.708032
 30
0.0
 40
1.0
100
AcDbArc
 50
90.0
 51
180.0
  0
ARC
  5
C177
330
C0F1
100
AcDbEntity
  8
1
  6
Continuous
100
AcDbCircle
 10
32.722771
 20
176.208032
 30
0.0
 40
4.0
100
AcDbArc
 50
90.0
 51
157.9756869999999
  0
ARC
  5
C178
330
C0F1
100
AcDbEntity
  8
1
  6
Continuous
100
AcDbCircle
 10
38.06732099999999
 20
179.708032
 30
0.0
 40
0.5
100
AcDbArc
 50
0.0
 51
90.0
  0
ARC
  5
C179
330
C0F1
100
AcDbEntity
  8
1
  6
Continuous
100
AcDbCircle
 10
84.63616
 20
155.2080319999998
 30
0.0
 40
60.0
100
AcDbArc
 50
157.9756869999999
 51
160.7657299999999
  0
ARC
  5
C17A
330
C0F1
100
AcDbEntity
  8
1
  6
Continuous
100
AcDbCircle
 10
28.174226
 20
174.908032
 30
0.0
 40
0.2
100
AcDbArc
 50
160.7657299999999
 51
199.23427
  0
ARC
  5
C17B
330
C0F1
100
AcDbEntity
  8
1
  6
Continuous
100
AcDbCircle
 10
84.63616
 20
155.2080319999998
 30
0.0
 40
59.5
100
AcDbArc
 50
162.1970739999999
 51
163.0422369999998
  0
LINE
  5
C17C
330
C0F1
100
AcDbEntity
  8
1
  6
Continuous
100
AcDbLine
 10
38.06732099999999
 20
180.2080319999998
 30
0.0
 11
32.722771
 21
180.2080319999998
 31
0.0
  0
LINE
  5
C17D
330
C0F1
100
AcDbEntity
  8
1
  6
Continuous
100
AcDbLine
 10
26.997344
 20
171.8743719999999
 30
0.0
 11
26.997344
 21
138.5416919999999
 31
0.0
  0
LINE
  5
C17E
330
C0F1
100
AcDbEntity
  8
1
  6
Continuous
100
AcDbLine
 10
26.56732100000001
 20
140.0596789999999
 30
0.0
 11
26.56732100000001
 21
170.3563849999999
 31
0.0
  0
ARC
  5
C17F
330
C0F1
100
AcDbEntity
  8
1
  6
Continuous
100
AcDbCircle
 10
27.47766699999999
 20
138.6805779999999
 30
0.0
 40
0.5
100
AcDbArc
 50
196.127295
 51
256.543398
  0
ARC
  5
C180
330
C0F1
100
AcDbEntity
  8
1
  6
Continuous
100
AcDbCircle
 10
27.47766699999999
 20
171.735485
 30
0.0
 40
0.5
100
AcDbArc
 50
103.4566019999999
 51
163.8727049999999
  0
LINE
  5
C181
330
C0F1
100
AcDbEntity
  8
1
  6
Continuous
100
AcDbLine
 10
145.220542
 20
287.289963
 30
0.0
 11
184.7523149999999
 21
287.289963
 31
0.0
  0
LINE
  5
C182
330
C0F1
100
AcDbEntity
  8
1
  6
Continuous
100
AcDbLine
 10
148.3200889999999
 20
288.27801
 30
0.0
 11
181.6527679999999
 21
288.27801
 31
0.0
  0
LINE
  5
C183
330
C0F1
100
AcDbEntity
  8
1
  6
Continuous
100
AcDbLine
 10
147.6322619999999
 20
287.5521349999999
 30
0.0
 11
182.340595
 21
287.5521349999999
 31
0.0
  0
LINE
  5
C184
330
C0F1
100
AcDbEntity
  8
1
  6
Continuous
100
AcDbLine
 10
149.838073
 20
288.7080319999999
 30
0.0
 11
180.134783
 21
288.7080319999999
 31
0.0
  0
LINE
  5
C185
330
C0F1
100
AcDbEntity
  8
4
  6
CENTER
100
AcDbLine
 10
130.066101
 20
266.208032
 30
0.0
 11
197.486428
 21
266.208032
 31
0.0
  0
LINE
  5
C186
330
C0F1
100
AcDbEntity
  8
1
  6
Continuous
100
AcDbLine
 10
188.486428
 20
275.208032
 30
0.0
 11
141.730526
 21
275.208032
 31
0.0
  0
LINE
  5
C187
330
C0F1
100
AcDbEntity
  8
1
  6
Continuous
100
AcDbLine
 10
188.486428
 20
257.2080319999999
 30
0.0
 11
141.730526
 21
257.2080319999999
 31
0.0
  0
LINE
  5
C188
330
C0F1
100
AcDbEntity
  8
1
  6
Continuous
100
AcDbLine
 10
172.9864279999999
 20
275.708032
 30
0.0
 11
156.986428
 21
275.708032
 31
0.0
  0
LINE
  5
C189
330
C0F1
100
AcDbEntity
  8
1
  6
Continuous
100
AcDbLine
 10
172.9864279999999
 20
256.708032
 30
0.0
 11
156.986428
 21
256.708032
 31
0.0
  0
ARC
  5
C18A
330
C0F1
100
AcDbEntity
  8
1
  6
Continuous
100
AcDbCircle
 10
185.986428
 20
282.5525830000001
 30
0.0
 40
4.0
100
AcDbArc
 50
0.0
 51
67.97568699999999
  0
LINE
  5
C18B
330
C0F1
100
AcDbEntity
  8
1
  6
Continuous
100
AcDbLine
 10
177.7437879999999
 20
274.708032
 30
0.0
 11
186.2290689999999
 21
274.708032
 31
0.0
  0
LINE
  5
C18C
330
C0F1
100
AcDbEntity
  8
1
  6
Continuous
100
AcDbLine
 10
186.2290689999999
 20
257.7080319999998
 30
0.0
 11
177.7437879999999
 21
257.7080319999998
 31
0.0
  0
ARC
  5
C18D
330
C0F1
100
AcDbEntity
  8
1
  6
Continuous
100
AcDbCircle
 10
183.986428
 20
266.208032
 30
0.0
 40
8.5
100
AcDbArc
 50
301.9657189999999
 51
58.03428100000001
  0
ARC
  5
C18E
330
C0F1
100
AcDbEntity
  8
1
  6
Continuous
100
AcDbCircle
 10
181.986428
 20
266.208032
 30
0.0
 40
9.5
100
AcDbArc
 50
296.525352
 51
63.47464799999999
  0
ARC
  5
C18F
330
C0F1
100
AcDbEntity
  8
1
  6
Continuous
100
AcDbCircle
 10
189.486428
 20
255.2080319999999
 30
0.0
 40
0.5
100
AcDbArc
 50
0.0
 51
90.0
  0
LINE
  5
C190
330
C0F1
100
AcDbEntity
  8
1
  6
Continuous
100
AcDbLine
 10
188.486428
 20
257.2080319999999
 30
0.0
 11
188.486428
 21
258.996929
 31
0.0
  0
LINE
  5
C191
330
C0F1
100
AcDbEntity
  8
1
  6
Continuous
100
AcDbLine
 10
188.486428
 20
273.4191339999998
 30
0.0
 11
188.486428
 21
275.208032
 31
0.0
  0
ARC
  5
C192
330
C0F1
100
AcDbEntity
  8
1
  6
Continuous
100
AcDbCircle
 10
189.486428
 20
277.208032
 30
0.0
 40
0.5
100
AcDbArc
 50
270.0
 51
0.0
  0
LINE
  5
C193
330
C0F1
100
AcDbEntity
  8
1
  6
Continuous
100
AcDbLine
 10
189.9864279999999
 20
277.208032
 30
0.0
 11
189.9864279999999
 21
282.5525830000001
 31
0.0
  0
ARC
  5
C194
330
C0F1
100
AcDbEntity
  8
1
  6
Continuous
100
AcDbCircle
 10
181.986428
 20
266.208032
 30
0.0
 40
9.5
100
AcDbArc
 50
116.525352
 51
243.474648
  0
ARC
  5
C195
330
C0F1
100
AcDbEntity
  8
1
  6
Continuous
100
AcDbCircle
 10
171.9864279999999
 20
255.7080319999998
 30
0.0
 40
1.0
100
AcDbArc
 50
0.0
 51
90.0
  0
LINE
  5
C196
330
C0F1
100
AcDbEntity
  8
1
  6
Continuous
100
AcDbLine
 10
172.9864279999999
 20
257.2080319999999
 30
0.0
 11
172.9864279999999
 21
256.708032
 31
0.0
  0
ARC
  5
C197
330
C0F1
100
AcDbEntity
  8
1
  6
Continuous
100
AcDbCircle
 10
171.9864279999999
 20
276.708032
 30
0.0
 40
1.0
100
AcDbArc
 50
270.0
 51
0.0
  0
LINE
  5
C198
330
C0F1
100
AcDbEntity
  8
1
  6
Continuous
100
AcDbLine
 10
172.9864279999999
 20
275.708032
 30
0.0
 11
172.9864279999999
 21
275.208032
 31
0.0
  0
ARC
  5
C199
330
C0F1
100
AcDbEntity
  8
1
  6
Continuous
100
AcDbCircle
 10
164.9864279999999
 20
230.639193
 30
0.0
 40
60.0
100
AcDbArc
 50
67.97568699999999
 51
70.76573000000002
  0
ARC
  5
C19A
330
C0F1
100
AcDbEntity
  8
1
  6
Continuous
100
AcDbCircle
 10
164.9864279999999
 20
230.639193
 30
0.0
 40
59.5
100
AcDbArc
 50
72.19707400000001
 51
73.042237
  0
ARC
  5
C19B
330
C0F1
100
AcDbEntity
  8
1
  6
Continuous
100
AcDbCircle
 10
143.9864279999999
 20
282.5525830000001
 30
0.0
 40
4.0
100
AcDbArc
 50
112.0243129999999
 51
180.0
  0
ARC
  5
C19C
330
C0F1
100
AcDbEntity
  8
1
  6
Continuous
100
AcDbCircle
 10
241.326688
 20
266.208032
 30
0.0
 40
100.0
100
AcDbArc
 50
174.849051
 51
175.123975
  0
LINE
  5
C19D
330
C0F1
100
AcDbEntity
  8
1
  6
Continuous
100
AcDbLine
 10
189.486428
 20
255.7080319999998
 30
0.0
 11
140.4864279999999
 21
255.7080319999998
 31
0.0
  0
ARC
  5
C19E
330
C0F1
100
AcDbEntity
  8
1
  6
Continuous
100
AcDbCircle
 10
157.9864279999999
 20
255.7080319999998
 30
0.0
 40
1.0
100
AcDbArc
 50
90.0
 51
180.0
  0
LINE
  5
C19F
330
C0F1
100
AcDbEntity
  8
1
  6
Continuous
100
AcDbLine
 10
156.986428
 20
257.2080319999999
 30
0.0
 11
156.986428
 21
256.708032
 31
0.0
  0
ARC
  5
C1A0
330
C0F1
100
AcDbEntity
  8
1
  6
Continuous
100
AcDbCircle
 10
140.4864279999999
 20
255.2080319999999
 30
0.0
 40
0.5
100
AcDbArc
 50
90.0
 51
180.0
  0
LINE
  5
C1A1
330
C0F1
100
AcDbEntity
  8
1
  6
Continuous
100
AcDbLine
 10
189.486428
 20
276.708032
 30
0.0
 11
140.4864279999999
 21
276.708032
 31
0.0
  0
ARC
  5
C1A2
330
C0F1
100
AcDbEntity
  8
1
  6
Continuous
100
AcDbCircle
 10
157.9864279999999
 20
276.708032
 30
0.0
 40
1.0
100
AcDbArc
 50
180.0
 51
270.0
  0
LINE
  5
C1A3
330
C0F1
100
AcDbEntity
  8
1
  6
Continuous
100
AcDbLine
 10
156.986428
 20
275.708032
 30
0.0
 11
156.986428
 21
275.208032
 31
0.0
  0
ARC
  5
C1A4
330
C0F1
100
AcDbEntity
  8
1
  6
Continuous
100
AcDbCircle
 10
140.4864279999999
 20
277.208032
 30
0.0
 40
0.5
100
AcDbArc
 50
180.0
 51
270.0
  0
LINE
  5
C1A5
330
C0F1
100
AcDbEntity
  8
1
  6
Continuous
100
AcDbLine
 10
139.9864279999998
 20
277.208032
 30
0.0
 11
139.9864279999998
 21
282.5525830000001
 31
0.0
  0
ARC
  5
C1A6
330
C0F1
100
AcDbEntity
  8
1
  6
Continuous
100
AcDbCircle
 10
164.9864279999999
 20
230.639193
 30
0.0
 40
59.5
100
AcDbArc
 50
106.9577629999999
 51
107.8029259999998
  0
ARC
  5
C1A7
330
C0F1
100
AcDbEntity
  8
1
  6
Continuous
100
AcDbCircle
 10
148.458975
 20
287.797686
 30
0.0
 40
0.5
100
AcDbArc
 50
106.1272949999999
 51
141.976966
  0
ARC
  5
C1A8
330
C0F1
100
AcDbEntity
  8
1
  6
Continuous
100
AcDbCircle
 10
164.9864279999999
 20
230.639193
 30
0.0
 40
60.0
100
AcDbArc
 50
109.2342699999998
 51
112.0243129999999
  0
ARC
  5
C1A9
330
C0F1
100
AcDbEntity
  8
1
  6
Continuous
100
AcDbCircle
 10
164.9864279999999
 20
232.3398669999999
 30
0.0
 40
58.36816500000001
100
AcDbArc
 50
73.40898
 51
106.59102
  0
LINE
  5
C1AA
330
C0F1
100
AcDbEntity
  8
1
  6
Continuous
100
AcDbLine
 10
148.0650939999998
 20
288.105675
 30
0.0
 11
147.6322619999999
 21
287.5521349999999
 31
0.0
  0
ARC
  5
C1AB
330
C0F1
100
AcDbEntity
  8
1
  6
Continuous
100
AcDbCircle
 10
181.5138819999999
 20
287.7977089999999
 30
0.0
 40
0.5
100
AcDbArc
 50
38.023113
 51
73.87278399999998
  0
LINE
  5
C1AC
330
C0F1
100
AcDbEntity
  8
1
  6
Continuous
100
AcDbLine
 10
181.9077629999999
 20
288.105699
 30
0.0
 11
182.340595
 21
287.5521589999999
 31
0.0
  0
ARC
  5
C1AD
330
C0F1
100
AcDbEntity
  8
1
  6
Continuous
100
AcDbCircle
 10
164.9864279999999
 20
300.076198
 30
0.0
 40
58.36816500000001
100
AcDbArc
 50
253.40898
 51
286.59102
  0
LINE
  5
C1AE
330
C0F1
100
AcDbEntity
  8
1
  6
Continuous
100
AcDbLine
 10
149.838073
 20
243.7080319999998
 30
0.0
 11
180.134783
 21
243.7080319999998
 31
0.0
  0
LINE
  5
C1AF
330
C0F1
100
AcDbEntity
  8
1
  6
Continuous
100
AcDbLine
 10
148.3200889999999
 20
244.138054
 30
0.0
 11
181.6527679999999
 21
244.138054
 31
0.0
  0
ARC
  5
C1B0
330
C0F1
100
AcDbEntity
  8
1
  6
Continuous
100
AcDbCircle
 10
181.5138819999999
 20
244.6183549999998
 30
0.0
 40
0.5
100
AcDbArc
 50
286.127216
 51
321.9768869999999
  0
ARC
  5
C1B1
330
C0F1
100
AcDbEntity
  8
1
  6
Continuous
100
AcDbCircle
 10
148.458975
 20
244.6183779999998
 30
0.0
 40
0.5
100
AcDbArc
 50
218.023034
 51
253.8727049999998
  0
LINE
  5
C1B2
330
C0F1
100
AcDbEntity
  8
4
  6
CENTER
100
AcDbLine
 10
181.986428
 20
279.708032
 30
0.0
 11
181.986428
 21
252.7080319999999
 31
0.0
  0
LINE
  5
C1B3
330
C0F1
100
AcDbEntity
  8
1
  6
Continuous
100
AcDbLine
 10
181.9077629999999
 20
244.3103659999999
 30
0.0
 11
182.340595
 21
244.863905
 31
0.0
  0
LINE
  5
C1B4
330
C0F1
100
AcDbEntity
  8
1
  6
Continuous
100
AcDbLine
 10
148.0650939999998
 20
244.3103889999999
 30
0.0
 11
147.6322619999999
 21
244.863929
 31
0.0
  0
LINE
  5
C1B5
330
C0F1
100
AcDbEntity
  8
4
  6
CENTER
100
AcDbLine
 10
306.393012
 20
155.2080319999998
 30
0.0
 11
247.3930119999999
 21
155.2080319999998
 31
0.0
  0
ARC
  5
C1B6
330
C0F1
100
AcDbEntity
  8
1
  6
Continuous
100
AcDbCircle
 10
260.5484609999999
 20
134.2080319999998
 30
0.0
 40
4.0
100
AcDbArc
 50
202.0243129999999
 51
270.0
  0
ARC
  5
C1B7
330
C0F1
100
AcDbEntity
  8
1
  6
Continuous
100
AcDbCircle
 10
260.5484609999999
 20
176.208032
 30
0.0
 40
4.0
100
AcDbArc
 50
90.0
 51
157.9756869999999
  0
LINE
  5
C1B8
330
C0F1
100
AcDbEntity
  8
4
  6
CENTER
100
AcDbLine
 10
276.8930119999998
 20
211.7080319999999
 30
0.0
 11
276.8930119999998
 21
135.708032
 31
0.0
  0
LINE
  5
C1B9
330
C0F1
100
AcDbEntity
  8
1
  6
Continuous
100
AcDbLine
 10
297.974943
 20
174.9739179999999
 30
0.0
 11
297.974943
 21
135.442146
 31
0.0
  0
LINE
  5
C1BA
330
C0F1
100
AcDbEntity
  8
1
  6
Continuous
100
AcDbLine
 10
298.237114
 20
137.8538649999998
 30
0.0
 11
298.237114
 21
172.562199
 31
0.0
  0
LINE
  5
C1BB
330
C0F1
100
AcDbEntity
  8
1
  6
Continuous
100
AcDbLine
 10
285.893012
 20
147.7080319999998
 30
0.0
 11
285.893012
 21
180.708032
 31
0.0
  0
LINE
  5
C1BC
330
C0F1
100
AcDbEntity
  8
1
  6
Continuous
100
AcDbLine
 10
267.8930119999999
 20
147.7080319999998
 30
0.0
 11
267.8930119999999
 21
180.708032
 31
0.0
  0
LINE
  5
C1BD
330
C0F1
100
AcDbEntity
  8
1
  6
Continuous
100
AcDbLine
 10
267.393012
 20
147.7080319999998
 30
0.0
 11
267.393012
 21
163.208032
 31
0.0
  0
LINE
  5
C1BE
330
C0F1
100
AcDbEntity
  8
1
  6
Continuous
100
AcDbLine
 10
286.393012
 20
163.208032
 30
0.0
 11
286.393012
 21
147.7080319999998
 31
0.0
  0
LINE
  5
C1BF
330
C0F1
100
AcDbEntity
  8
1
  6
Continuous
100
AcDbLine
 10
298.9629889999998
 20
171.8743719999999
 30
0.0
 11
298.9629889999998
 21
138.5416919999999
 31
0.0
  0
LINE
  5
C1C0
330
C0F1
100
AcDbEntity
  8
1
  6
Continuous
100
AcDbLine
 10
299.3930119999999
 20
140.0596789999999
 30
0.0
 11
299.3930119999999
 21
170.3563849999999
 31
0.0
  0
LINE
  5
C1C1
330
C0F1
100
AcDbEntity
  8
1
  6
Continuous
100
AcDbLine
 10
287.893012
 20
130.2080319999998
 30
0.0
 11
293.2375620000001
 21
130.2080319999998
 31
0.0
  0
ARC
  5
C1C2
330
C0F1
100
AcDbEntity
  8
1
  6
Continuous
100
AcDbCircle
 10
293.2375620000001
 20
134.2080319999998
 30
0.0
 40
4.0
100
AcDbArc
 50
270.0
 51
337.975687
  0
ARC
  5
C1C3
330
C0F1
100
AcDbEntity
  8
1
  6
Continuous
100
AcDbCircle
 10
241.324173
 20
155.2080319999998
 30
0.0
 40
59.5
100
AcDbArc
 50
342.1970739999999
 51
343.042237
  0
ARC
  5
C1C4
330
C0F1
100
AcDbEntity
  8
1
  6
Continuous
100
AcDbCircle
 10
241.324173
 20
155.2080319999998
 30
0.0
 40
60.0
100
AcDbArc
 50
337.975687
 51
340.7657299999999
  0
ARC
  5
C1C5
330
C0F1
100
AcDbEntity
  8
1
  6
Continuous
100
AcDbCircle
 10
298.715374
 20
137.708032
 30
0.0
 40
0.5
100
AcDbArc
 50
103.4566019999999
 51
163.0422369999998
  0
ARC
  5
C1C6
330
C0F1
100
AcDbEntity
  8
1
  6
Continuous
100
AcDbCircle
 10
298.4826659999999
 20
138.6805779999999
 30
0.0
 40
0.5
100
AcDbArc
 50
283.456602
 51
343.872705
  0
LINE
  5
C1C7
330
C0F1
100
AcDbEntity
  8
1
  6
Continuous
100
AcDbLine
 10
286.393012
 20
147.7080319999998
 30
0.0
 11
267.393012
 21
147.7080319999998
 31
0.0
  0
ARC
  5
C1C8
330
C0F1
100
AcDbEntity
  8
1
  6
Continuous
100
AcDbCircle
 10
287.893012
 20
130.708032
 30
0.0
 40
0.5
100
AcDbArc
 50
180.0
 51
270.0
  0
ARC
  5
C1C9
330
C0F1
100
AcDbEntity
  8
1
  6
Continuous
100
AcDbCircle
 10
287.393012
 20
148.208032
 30
0.0
 40
1.0
100
AcDbArc
 50
180.0
 51
270.0
  0
LINE
  5
C1CA
330
C0F1
100
AcDbEntity
  8
1
  6
Continuous
100
AcDbLine
 10
265.8930119999999
 20
130.2080319999998
 30
0.0
 11
260.5484609999999
 21
130.2080319999998
 31
0.0
  0
ARC
  5
C1CB
330
C0F1
100
AcDbEntity
  8
1
  6
Continuous
100
AcDbCircle
 10
265.8930119999999
 20
130.708032
 30
0.0
 40
0.5
100
AcDbArc
 50
270.0
 51
0.0
  0
ARC
  5
C1CC
330
C0F1
100
AcDbEntity
  8
1
  6
Continuous
100
AcDbCircle
 10
266.3930119999998
 20
148.208032
 30
0.0
 40
1.0
100
AcDbArc
 50
270.0
 51
0.0
  0
LINE
  5
C1CD
330
C0F1
100
AcDbEntity
  8
1
  6
Continuous
100
AcDbLine
 10
287.893012
 20
180.2080319999998
 30
0.0
 11
293.2375620000001
 21
180.2080319999998
 31
0.0
  0
ARC
  5
C1CE
330
C0F1
100
AcDbEntity
  8
1
  6
Continuous
100
AcDbCircle
 10
298.715374
 20
172.7080319999998
 30
0.0
 40
0.5
100
AcDbArc
 50
196.957763
 51
256.543398
  0
ARC
  5
C1CF
330
C0F1
100
AcDbEntity
  8
1
  6
Continuous
100
AcDbCircle
 10
241.324173
 20
155.2080319999998
 30
0.0
 40
59.5
100
AcDbArc
 50
16.957763
 51
17.802926
  0
ARC
  5
C1D0
330
C0F1
100
AcDbEntity
  8
1
  6
Continuous
100
AcDbCircle
 10
298.4826659999999
 20
171.735485
 30
0.0
 40
0.5
100
AcDbArc
 50
16.127295
 51
76.54339799999998
  0
ARC
  5
C1D1
330
C0F1
100
AcDbEntity
  8
1
  6
Continuous
100
AcDbCircle
 10
293.2375620000001
 20
176.208032
 30
0.0
 40
4.0
100
AcDbArc
 50
22.024313
 51
90.0
  0
ARC
  5
C1D2
330
C0F1
100
AcDbEntity
  8
1
  6
Continuous
100
AcDbCircle
 10
241.324173
 20
155.2080319999998
 30
0.0
 40
60.0
100
AcDbArc
 50
19.23427
 51
22.024313
  0
ARC
  5
C1D3
330
C0F1
100
AcDbEntity
  8
1
  6
Continuous
100
AcDbCircle
 10
297.7861069999999
 20
174.908032
 30
0.0
 40
0.2
100
AcDbArc
 50
340.7657299999999
 51
19.23427
  0
LINE
  5
C1D4
330
C0F1
100
AcDbEntity
  8
1
  6
Continuous
100
AcDbLine
 10
266.3930119999998
 20
130.708032
 30
0.0
 11
266.3930119999998
 21
179.708032
 31
0.0
  0
LINE
  5
C1D5
330
C0F1
100
AcDbEntity
  8
1
  6
Continuous
100
AcDbLine
 10
287.393012
 20
130.708032
 30
0.0
 11
287.393012
 21
179.708032
 31
0.0
  0
ARC
  5
C1D6
330
C0F1
100
AcDbEntity
  8
1
  6
Continuous
100
AcDbCircle
 10
287.393012
 20
162.208032
 30
0.0
 40
1.0
100
AcDbArc
 50
90.0
 51
180.0
  0
LINE
  5
C1D7
330
C0F1
100
AcDbEntity
  8
1
  6
Continuous
100
AcDbLine
 10
285.893012
 20
163.208032
 30
0.0
 11
286.393012
 21
163.208032
 31
0.0
  0
ARC
  5
C1D8
330
C0F1
100
AcDbEntity
  8
1
  6
Continuous
100
AcDbCircle
 10
266.3930119999998
 20
162.208032
 30
0.0
 40
1.0
100
AcDbArc
 50
0.0
 51
90.0
  0
LINE
  5
C1D9
330
C0F1
100
AcDbEntity
  8
1
  6
Continuous
100
AcDbLine
 10
267.393012
 20
163.208032
 30
0.0
 11
267.8930119999999
 21
163.208032
 31
0.0
  0
LINE
  5
C1DA
330
C0F1
100
AcDbEntity
  8
1
  6
Continuous
100
AcDbLine
 10
284.8930119999998
 20
187.708032
 30
0.0
 11
268.893012
 21
187.708032
 31
0.0
  0
LINE
  5
C1DB
330
C0F1
100
AcDbEntity
  8
1
  6
Continuous
100
AcDbLine
 10
268.893012
 20
181.708032
 30
0.0
 11
284.8930119999998
 21
181.708032
 31
0.0
  0
LINE
  5
C1DC
330
C0F1
100
AcDbEntity
  8
1
  6
Continuous
100
AcDbLine
 10
285.393012
 20
182.2080319999998
 30
0.0
 11
285.393012
 21
187.208032
 31
0.0
  0
ARC
  5
C1DD
330
C0F1
100
AcDbEntity
  8
1
  6
Continuous
100
AcDbCircle
 10
284.8930119999998
 20
187.208032
 30
0.0
 40
0.5
100
AcDbArc
 50
0.0
 51
90.0
  0
ARC
  5
C1DE
330
C0F1
100
AcDbEntity
  8
1
  6
Continuous
100
AcDbCircle
 10
284.8930119999998
 20
182.2080319999998
 30
0.0
 40
0.5
100
AcDbArc
 50
270.0
 51
0.0
  0
ARC
  5
C1DF
330
C0F1
100
AcDbEntity
  8
1
  6
Continuous
100
AcDbCircle
 10
284.8930119999998
 20
180.708032
 30
0.0
 40
1.0
100
AcDbArc
 50
0.0
 51
90.0
  0
ARC
  5
C1E0
330
C0F1
100
AcDbEntity
  8
1
  6
Continuous
100
AcDbCircle
 10
287.893012
 20
179.708032
 30
0.0
 40
0.5
100
AcDbArc
 50
90.0
 51
180.0
  0
LINE
  5
C1E1
330
C0F1
100
AcDbEntity
  8
1
  6
Continuous
100
AcDbLine
 10
265.8930119999999
 20
180.2080319999998
 30
0.0
 11
260.5484609999999
 21
180.2080319999998
 31
0.0
  0
ARC
  5
C1E2
330
C0F1
100
AcDbEntity
  8
1
  6
Continuous
100
AcDbCircle
 10
265.8930119999999
 20
179.708032
 30
0.0
 40
0.5
100
AcDbArc
 50
0.0
 51
90.0
  0
ARC
  5
C1E3
330
C0F1
100
AcDbEntity
  8
1
  6
Continuous
100
AcDbCircle
 10
268.893012
 20
180.708032
 30
0.0
 40
1.0
100
AcDbArc
 50
90.0
 51
180.0
  0
LINE
  5
C1E4
330
C0F1
100
AcDbEntity
  8
1
  6
Continuous
100
AcDbLine
 10
268.3930119999998
 20
182.2080319999998
 30
0.0
 11
268.3930119999998
 21
187.208032
 31
0.0
  0
ARC
  5
C1E5
330
C0F1
100
AcDbEntity
  8
1
  6
Continuous
100
AcDbCircle
 10
268.893012
 20
187.208032
 30
0.0
 40
0.5
100
AcDbArc
 50
90.0
 51
180.0
  0
ARC
  5
C1E6
330
C0F1
100
AcDbEntity
  8
1
  6
Continuous
100
AcDbCircle
 10
268.893012
 20
182.2080319999998
 30
0.0
 40
0.5
100
AcDbArc
 50
180.0
 51
270.0
  0
LINE
  5
C1E7
330
C0F1
100
AcDbEntity
  8
1
  6
Continuous
100
AcDbLine
 10
255.8110799999998
 20
174.9739179999999
 30
0.0
 11
255.8110799999998
 21
135.442146
 31
0.0
  0
LINE
  5
C1E8
330
C0F1
100
AcDbEntity
  8
1
  6
Continuous
100
AcDbLine
 10
254.8230339999999
 20
171.8743719999999
 30
0.0
 11
254.8230339999999
 21
138.5416919999999
 31
0.0
  0
LINE
  5
C1E9
330
C0F1
100
AcDbEntity
  8
1
  6
Continuous
100
AcDbLine
 10
255.548909
 20
172.562199
 30
0.0
 11
255.548909
 21
137.8538649999998
 31
0.0
  0
LINE
  5
C1EA
330
C0F1
100
AcDbEntity
  8
1
  6
Continuous
100
AcDbLine
 10
254.393012
 20
170.3563889999998
 30
0.0
 11
254.393012
 21
140.0596759999999
 31
0.0
  0
ARC
  5
C1EB
330
C0F1
100
AcDbEntity
  8
1
  6
Continuous
100
AcDbCircle
 10
312.46185
 20
155.2080319999998
 30
0.0
 40
59.5
100
AcDbArc
 50
196.957763
 51
197.802926
  0
ARC
  5
C1EC
330
C0F1
100
AcDbEntity
  8
1
  6
Continuous
100
AcDbCircle
 10
255.3033569999998
 20
138.6805779999999
 30
0.0
 40
0.5
100
AcDbArc
 50
196.127295
 51
256.543398
  0
ARC
  5
C1ED
330
C0F1
100
AcDbEntity
  8
1
  6
Continuous
100
AcDbCircle
 10
255.070649
 20
137.708032
 30
0.0
 40
0.5
100
AcDbArc
 50
16.957763
 51
76.54339799999998
  0
ARC
  5
C1EE
330
C0F1
100
AcDbEntity
  8
1
  6
Continuous
100
AcDbCircle
 10
312.46185
 20
155.2080319999998
 30
0.0
 40
60.0
100
AcDbArc
 50
199.23427
 51
202.0243129999999
  0
ARC
  5
C1EF
330
C0F1
100
AcDbEntity
  8
1
  6
Continuous
100
AcDbCircle
 10
255.3033569999998
 20
171.735485
 30
0.0
 40
0.5
100
AcDbArc
 50
103.4566019999999
 51
163.8727049999999
  0
ARC
  5
C1F0
330
C0F1
100
AcDbEntity
  8
1
  6
Continuous
100
AcDbCircle
 10
255.070649
 20
172.7080319999998
 30
0.0
 40
0.5
100
AcDbArc
 50
283.456602
 51
343.042237
  0
ARC
  5
C1F1
330
C0F1
100
AcDbEntity
  8
1
  6
Continuous
100
AcDbCircle
 10
312.46185
 20
155.2080319999998
 30
0.0
 40
59.5
100
AcDbArc
 50
162.1970739999999
 51
163.0422369999998
  0
ARC
  5
C1F2
330
C0F1
100
AcDbEntity
  8
1
  6
Continuous
100
AcDbCircle
 10
255.999916
 20
174.908032
 30
0.0
 40
0.2
100
AcDbArc
 50
160.7657299999999
 51
234.485278
  0
ARC
  5
C1F3
330
C0F1
100
AcDbEntity
  8
1
  6
Continuous
100
AcDbCircle
 10
312.46185
 20
155.2080319999998
 30
0.0
 40
60.0
100
AcDbArc
 50
157.9756869999999
 51
160.7657299999999
  0
ARC
  5
C1F4
330
C0F1
100
AcDbEntity
  8
1
  6
Continuous
100
AcDbCircle
 10
349.6092279999999
 20
155.7891129999999
 30
0.0
 40
65.218805
100
AcDbArc
 50
167.677222
 51
186.2331319999999
  0
ARC
  5
C1F5
330
C0F1
100
AcDbEntity
  8
1
  6
Continuous
100
AcDbCircle
 10
204.176796
 20
155.7891129999999
 30
0.0
 40
65.218805
100
AcDbArc
 50
353.7668679999999
 51
12.322778
  0
LINE
  5
C1F6
330
C0F1
100
AcDbEntity
  8
1
  6
Continuous
100
AcDbLine
 10
148.3200889999999
 20
87.77800999999998
 30
0.0
 11
181.6527679999999
 21
87.77800999999998
 31
0.0
  0
ARC
  5
C1F7
330
C0F1
100
AcDbEntity
  8
1
  6
Continuous
100
AcDbCircle
 10
164.9864279999999
 20
31.839867
 30
0.0
 40
58.36816500000001
100
AcDbArc
 50
73.40898
 51
106.59102
  0
ARC
  5
C1F8
330
C0F1
100
AcDbEntity
  8
1
  6
Continuous
100
AcDbCircle
 10
164.9864279999999
 20
99.57619800000001
 30
0.0
 40
58.36816500000001
100
AcDbArc
 50
253.40898
 51
286.59102
  0
LINE
  5
C1F9
330
C0F1
100
AcDbEntity
  8
1
  6
Continuous
100
AcDbLine
 10
188.486428
 20
74.70803199999997
 30
0.0
 11
141.730526
 21
74.70803199999997
 31
0.0
  0
LINE
  5
C1FA
330
C0F1
100
AcDbEntity
  8
1
  6
Continuous
100
AcDbLine
 10
188.486428
 20
56.70803199999999
 30
0.0
 11
141.730526
 21
56.70803199999999
 31
0.0
  0
LINE
  5
C1FB
330
C0F1
100
AcDbEntity
  8
1
  6
Continuous
100
AcDbLine
 10
147.6322619999999
 20
44.363929
 30
0.0
 11
182.340595
 21
44.363929
 31
0.0
  0
LINE
  5
C1FC
330
C0F1
100
AcDbEntity
  8
1
  6
Continuous
100
AcDbLine
 10
148.3200889999999
 20
43.63805399999999
 30
0.0
 11
181.6527679999999
 21
43.63805399999999
 31
0.0
  0
LINE
  5
C1FD
330
C0F1
100
AcDbEntity
  8
1
  6
Continuous
100
AcDbLine
 10
145.220542
 20
44.626101
 30
0.0
 11
184.7523149999999
 21
44.626101
 31
0.0
  0
LINE
  5
C1FE
330
C0F1
100
AcDbEntity
  8
1
  6
Continuous
100
AcDbLine
 10
147.6322619999999
 20
87.05213499999997
 30
0.0
 11
182.340595
 21
87.05213499999997
 31
0.0
  0
LINE
  5
C1FF
330
C0F1
100
AcDbEntity
  8
1
  6
Continuous
100
AcDbLine
 10
184.7523149999999
 20
86.789964
 30
0.0
 11
145.220542
 21
86.789964
 31
0.0
  0
LINE
  5
C200
330
C0F1
100
AcDbEntity
  8
1
  6
Continuous
100
AcDbLine
 10
149.838073
 20
88.20803199999996
 30
0.0
 11
180.134783
 21
88.20803199999996
 31
0.0
  0
LINE
  5
C201
330
C0F1
100
AcDbEntity
  8
1
  6
Continuous
100
AcDbLine
 10
172.9864279999999
 20
75.20803199999997
 30
0.0
 11
156.986428
 21
75.20803199999997
 31
0.0
  0
LINE
  5
C202
330
C0F1
100
AcDbEntity
  8
1
  6
Continuous
100
AcDbLine
 10
172.9864279999999
 20
56.208032
 30
0.0
 11
156.986428
 21
56.208032
 31
0.0
  0
LINE
  5
C203
330
C0F1
100
AcDbEntity
  8
1
  6
Continuous
100
AcDbLine
 10
149.838073
 20
43.208032
 30
0.0
 11
180.134783
 21
43.208032
 31
0.0
  0
ARC
  5
C204
330
C0F1
100
AcDbEntity
  8
1
  6
Continuous
100
AcDbCircle
 10
241.326688
 20
65.70803199999999
 30
0.0
 40
100.0
100
AcDbArc
 50
174.849051
 51
185.1509489999999
  0
ARC
  5
C205
330
C0F1
100
AcDbEntity
  8
1
  6
Continuous
100
AcDbCircle
 10
143.9864279999999
 20
82.052583
 30
0.0
 40
4.0
100
AcDbArc
 50
112.0243129999999
 51
180.0
  0
ARC
  5
C206
330
C0F1
100
AcDbEntity
  8
1
  6
Continuous
100
AcDbCircle
 10
164.9864279999999
 20
30.139194
 30
0.0
 40
60.0
100
AcDbArc
 50
109.2342699999998
 51
112.0243129999999
  0
LINE
  5
C207
330
C0F1
100
AcDbEntity
  8
1
  6
Continuous
100
AcDbLine
 10
148.0650939999998
 20
87.605675
 30
0.0
 11
147.6322619999999
 21
87.05213499999997
 31
0.0
  0
ARC
  5
C208
330
C0F1
100
AcDbEntity
  8
1
  6
Continuous
100
AcDbCircle
 10
148.458975
 20
87.29768599999998
 30
0.0
 40
0.5
100
AcDbArc
 50
106.1272949999999
 51
141.976966
  0
ARC
  5
C209
330
C0F1
100
AcDbEntity
  8
1
  6
Continuous
100
AcDbCircle
 10
164.9864279999999
 20
30.139194
 30
0.0
 40
59.5
100
AcDbArc
 50
106.9577629999999
 51
107.8029259999998
  0
LINE
  5
C20A
330
C0F1
100
AcDbEntity
  8
1
  6
Continuous
100
AcDbLine
 10
189.486428
 20
76.20803199999997
 30
0.0
 11
140.4864279999999
 21
76.20803199999997
 31
0.0
  0
ARC
  5
C20B
330
C0F1
100
AcDbEntity
  8
1
  6
Continuous
100
AcDbCircle
 10
140.4864279999999
 20
76.70803199999998
 30
0.0
 40
0.5
100
AcDbArc
 50
180.0
 51
270.0
  0
LINE
  5
C20C
330
C0F1
100
AcDbEntity
  8
1
  6
Continuous
100
AcDbLine
 10
139.9864279999998
 20
76.70803199999998
 30
0.0
 11
139.9864279999998
 21
82.052583
 31
0.0
  0
LINE
  5
C20D
330
C0F1
100
AcDbEntity
  8
1
  6
Continuous
100
AcDbLine
 10
156.986428
 20
74.70803199999997
 30
0.0
 11
156.986428
 21
75.20803199999997
 31
0.0
  0
ARC
  5
C20E
330
C0F1
100
AcDbEntity
  8
1
  6
Continuous
100
AcDbCircle
 10
157.9864279999999
 20
76.20803199999997
 30
0.0
 40
1.0
100
AcDbArc
 50
180.0
 51
270.0
  0
ARC
  5
C20F
330
C0F1
100
AcDbEntity
  8
1
  6
Continuous
100
AcDbCircle
 10
164.9864279999999
 20
101.276871
 30
0.0
 40
60.0
100
AcDbArc
 50
247.975687
 51
250.7657299999999
  0
LINE
  5
C210
330
C0F1
100
AcDbEntity
  8
1
  6
Continuous
100
AcDbLine
 10
189.486428
 20
55.20803199999999
 30
0.0
 11
140.4864279999999
 21
55.20803199999999
 31
0.0
  0
LINE
  5
C211
330
C0F1
100
AcDbEntity
  8
1
  6
Continuous
100
AcDbLine
 10
139.9864279999998
 20
54.70803199999998
 30
0.0
 11
139.9864279999998
 21
49.363481
 31
0.0
  0
ARC
  5
C212
330
C0F1
100
AcDbEntity
  8
1
  6
Continuous
100
AcDbCircle
 10
140.4864279999999
 20
54.70803199999998
 30
0.0
 40
0.5
100
AcDbArc
 50
90.0
 51
180.0
  0
ARC
  5
C213
330
C0F1
100
AcDbEntity
  8
1
  6
Continuous
100
AcDbCircle
 10
143.9864279999999
 20
49.363481
 30
0.0
 40
4.0
100
AcDbArc
 50
180.0
 51
247.975687
  0
LINE
  5
C214
330
C0F1
100
AcDbEntity
  8
1
  6
Continuous
100
AcDbLine
 10
148.0650939999998
 20
43.810389
 30
0.0
 11
147.6322619999999
 21
44.363929
 31
0.0
  0
ARC
  5
C215
330
C0F1
100
AcDbEntity
  8
1
  6
Continuous
100
AcDbCircle
 10
148.458975
 20
44.11837799999999
 30
0.0
 40
0.5
100
AcDbArc
 50
218.023034
 51
253.8727049999998
  0
ARC
  5
C216
330
C0F1
100
AcDbEntity
  8
1
  6
Continuous
100
AcDbCircle
 10
164.9864279999999
 20
101.276871
 30
0.0
 40
59.5
100
AcDbArc
 50
252.1970739999999
 51
253.042237
  0
LINE
  5
C217
330
C0F1
100
AcDbEntity
  8
1
  6
Continuous
100
AcDbLine
 10
156.986428
 20
56.208032
 30
0.0
 11
156.986428
 21
56.70803199999999
 31
0.0
  0
ARC
  5
C218
330
C0F1
100
AcDbEntity
  8
1
  6
Continuous
100
AcDbCircle
 10
157.9864279999999
 20
55.20803199999999
 30
0.0
 40
1.0
100
AcDbArc
 50
90.0
 51
180.0
  0
LINE
  5
C219
330
C0F1
100
AcDbEntity
  8
4
  6
CENTER
100
AcDbLine
 10
164.9864279999999
 20
36.208032
 30
0.0
 11
164.9864279999999
 21
95.20803200000001
 31
0.0
  0
ARC
  5
C21A
330
C0F1
100
AcDbEntity
  8
1
  6
Continuous
100
AcDbCircle
 10
183.986428
 20
65.70803199999999
 30
0.0
 40
8.5
100
AcDbArc
 50
301.9657189999999
 51
58.03428100000001
  0
ARC
  5
C21B
330
C0F1
100
AcDbEntity
  8
1
  6
Continuous
100
AcDbCircle
 10
185.986428
 20
82.052583
 30
0.0
 40
4.0
100
AcDbArc
 50
0.0
 51
67.97568699999999
  0
LINE
  5
C21C
330
C0F1
100
AcDbEntity
  8
1
  6
Continuous
100
AcDbLine
 10
181.9077629999999
 20
87.605699
 30
0.0
 11
182.340595
 21
87.052159
 31
0.0
  0
ARC
  5
C21D
330
C0F1
100
AcDbEntity
  8
1
  6
Continuous
100
AcDbCircle
 10
181.5138819999999
 20
87.297709
 30
0.0
 40
0.5
100
AcDbArc
 50
38.023113
 51
73.87278399999998
  0
ARC
  5
C21E
330
C0F1
100
AcDbEntity
  8
1
  6
Continuous
100
AcDbCircle
 10
164.9864279999999
 20
30.139194
 30
0.0
 40
59.5
100
AcDbArc
 50
72.19707400000001
 51
73.042237
  0
ARC
  5
C21F
330
C0F1
100
AcDbEntity
  8
1
  6
Continuous
100
AcDbCircle
 10
164.9864279999999
 20
30.139194
 30
0.0
 40
60.0
100
AcDbArc
 50
67.97568699999999
 51
70.76573000000002
  0
LINE
  5
C220
330
C0F1
100
AcDbEntity
  8
1
  6
Continuous
100
AcDbLine
 10
172.9864279999999
 20
74.70803199999997
 30
0.0
 11
172.9864279999999
 21
75.20803199999997
 31
0.0
  0
ARC
  5
C221
330
C0F1
100
AcDbEntity
  8
1
  6
Continuous
100
AcDbCircle
 10
171.9864279999999
 20
76.20803199999997
 30
0.0
 40
1.0
100
AcDbArc
 50
270.0
 51
0.0
  0
LINE
  5
C222
330
C0F1
100
AcDbEntity
  8
1
  6
Continuous
100
AcDbLine
 10
188.486428
 20
74.70803199999997
 30
0.0
 11
188.486428
 21
72.91913499999998
 31
0.0
  0
ARC
  5
C223
330
C0F1
100
AcDbEntity
  8
1
  6
Continuous
100
AcDbCircle
 10
189.486428
 20
76.70803199999998
 30
0.0
 40
0.5
100
AcDbArc
 50
270.0
 51
0.0
  0
LINE
  5
C224
330
C0F1
100
AcDbEntity
  8
1
  6
Continuous
100
AcDbLine
 10
189.9864279999999
 20
76.70803199999998
 30
0.0
 11
189.9864279999999
 21
82.052583
 31
0.0
  0
LINE
  5
C225
330
C0F1
100
AcDbEntity
  8
1
  6
Continuous
100
AcDbLine
 10
172.9864279999999
 20
56.208032
 30
0.0
 11
172.9864279999999
 21
56.70803199999999
 31
0.0
  0
ARC
  5
C226
330
C0F1
100
AcDbEntity
  8
1
  6
Continuous
100
AcDbCircle
 10
171.9864279999999
 20
55.20803199999999
 30
0.0
 40
1.0
100
AcDbArc
 50
0.0
 51
90.0
  0
LINE
  5
C227
330
C0F1
100
AcDbEntity
  8
1
  6
Continuous
100
AcDbLine
 10
181.9077629999999
 20
43.81036599999998
 30
0.0
 11
182.340595
 21
44.36390499999999
 31
0.0
  0
ARC
  5
C228
330
C0F1
100
AcDbEntity
  8
1
  6
Continuous
100
AcDbCircle
 10
181.5138819999999
 20
44.118355
 30
0.0
 40
0.5
100
AcDbArc
 50
286.127216
 51
321.9768869999999
  0
ARC
  5
C229
330
C0F1
100
AcDbEntity
  8
1
  6
Continuous
100
AcDbCircle
 10
164.9864279999999
 20
101.276871
 30
0.0
 40
59.5
100
AcDbArc
 50
286.957763
 51
287.8029259999999
  0
ARC
  5
C22A
330
C0F1
100
AcDbEntity
  8
1
  6
Continuous
100
AcDbCircle
 10
164.9864279999999
 20
101.276871
 30
0.0
 40
60.0
100
AcDbArc
 50
289.23427
 51
292.024313
  0
LINE
  5
C22B
330
C0F1
100
AcDbEntity
  8
1
  6
Continuous
100
AcDbLine
 10
189.9864279999999
 20
54.70803199999998
 30
0.0
 11
189.9864279999999
 21
49.363481
 31
0.0
  0
ARC
  5
C22C
330
C0F1
100
AcDbEntity
  8
1
  6
Continuous
100
AcDbCircle
 10
189.486428
 20
54.70803199999998
 30
0.0
 40
0.5
100
AcDbArc
 50
0.0
 51
90.0
  0
LINE
  5
C22D
330
C0F1
100
AcDbEntity
  8
1
  6
Continuous
100
AcDbLine
 10
188.486428
 20
58.49693000000001
 30
0.0
 11
188.486428
 21
56.70803199999999
 31
0.0
  0
ARC
  5
C22E
330
C0F1
100
AcDbEntity
  8
1
  6
Continuous
100
AcDbCircle
 10
185.986428
 20
49.363481
 30
0.0
 40
4.0
100
AcDbArc
 50
292.024313
 51
0.0
  0
CIRCLE
  5
C22F
330
C0F1
100
AcDbEntity
  8
1
  6
Continuous
100
AcDbCircle
 10
181.986428
 20
65.70803199999999
 30
0.0
 40
4.0
  0
LINE
  5
C230
330
C0F1
100
AcDbEntity
  8
1
  6
Continuous
100
AcDbLine
 10
186.027881
 20
66.70803199999999
 30
0.0
 11
187.4855189999999
 21
66.70803199999999
 31
0.0
  0
LINE
  5
C231
330
C0F1
100
AcDbEntity
  8
1
  6
Continuous
100
AcDbLine
 10
186.027881
 20
64.70803199999997
 30
0.0
 11
187.4855189999999
 21
64.70803199999997
 31
0.0
  0
ARC
  5
C232
330
C0F1
100
AcDbEntity
  8
1
  6
Continuous
100
AcDbCircle
 10
270.0901809999999
 20
148.708032
 30
0.0
 40
1.080130999999999
100
AcDbArc
 50
180.0
 51
247.791336
  0
ARC
  5
C233
330
C0F1
100
AcDbEntity
  8
1
  6
Continuous
100
AcDbCircle
 10
283.695843
 20
148.708032
 30
0.0
 40
1.080130999999999
100
AcDbArc
 50
292.2086639999998
 51
0.0
  0
ARC
  5
C234
330
C0F1
100
AcDbEntity
  8
1
  6
Continuous
100
AcDbCircle
 10
310.761189
 20
155.208033
 30
0.0
 40
58.368177
100
AcDbArc
 50
163.408983
 51
196.591018
  0
ARC
  5
C235
330
C0F1
100
AcDbEntity
  8
1
  6
Continuous
100
AcDbCircle
 10
243.0248349999998
 20
155.208033
 30
0.0
 40
58.368177
100
AcDbArc
 50
343.408982
 51
16.591017
  0
ARC
  5
C236
330
C0F1
100
AcDbEntity
  8
1
  6
Continuous
100
AcDbCircle
 10
15.199144
 20
155.208033
 30
0.0
 40
58.368177
100
AcDbArc
 50
343.408982
 51
16.591017
  0
ARC
  5
C237
330
C0F1
100
AcDbEntity
  8
1
  6
Continuous
100
AcDbCircle
 10
82.93549799999999
 20
155.208033
 30
0.0
 40
58.368177
100
AcDbArc
 50
163.408983
 51
196.591018
  0
LINE
  5
C238
330
C0F1
100
AcDbEntity
  8
1
  6
Continuous
100
AcDbLine
 10
177.7437879999999
 20
274.708032
 30
0.0
 11
186.2290689999999
 21
274.708032
 31
0.0
  0
ARC
  5
C239
330
C0F1
100
AcDbEntity
  8
1
  6
Continuous
100
AcDbCircle
 10
137.705122
 20
199.2493889999998
 30
0.0
 40
26.0
100
AcDbArc
 50
261.6038819999999
 51
302.0679830000001
  0
ARC
  5
C23A
330
C0F1
100
AcDbEntity
  8
5
  6
PHANTOM
100
AcDbCircle
 10
144.8749569999999
 20
167.974017
 30
0.0
 40
6.5
100
AcDbArc
 50
73.948274
 51
150.1139659999998
  0
ARC
  5
C23B
330
C0F1
100
AcDbEntity
  8
5
  6
PHANTOM
100
AcDbCircle
 10
112.1534229999999
 20
161.367437
 30
0.0
 40
28.0
100
AcDbArc
 50
349.194028
 51
26.694064
  0
ARC
  5
C23C
330
C0F1
100
AcDbEntity
  8
5
  6
PHANTOM
100
AcDbCircle
 10
112.1534229999999
 20
161.367437
 30
0.0
 40
26.0
100
AcDbArc
 50
347.6038819999998
 51
28.067983
  0
ARC
  5
C23D
330
C0F1
100
AcDbEntity
  8
1
  6
Continuous
100
AcDbCircle
 10
140.407972
 20
170.375619
 30
0.0
 40
1.0
100
AcDbArc
 50
336.219159
 51
95.34782599999996
  0
ARC
  5
C23E
330
C0F1
100
AcDbEntity
  8
1
  6
Continuous
100
AcDbCircle
 10
137.705122
 20
199.2493889999998
 30
0.0
 40
28.0
100
AcDbArc
 50
263.194028
 51
290.2750389999998
  0
ARC
  5
C23F
330
C0F1
100
AcDbEntity
  8
5
  6
PHANTOM
100
AcDbCircle
 10
141.145399
 20
162.0495709999999
 30
0.0
 40
1.0
100
AcDbArc
 50
84.20794499999997
 51
181.347826
  0
ARC
  5
C240
330
C0F1
100
AcDbEntity
  8
5
  6
PHANTOM
100
AcDbCircle
 10
137.840286
 20
155.7216389999998
 30
0.0
 40
0.3
100
AcDbArc
 50
167.603882
 51
258.718392
  0
ARC
  5
C241
330
C0F1
100
AcDbEntity
  8
5
  6
PHANTOM
100
AcDbCircle
 10
138.1728599999999
 20
157.38879
 30
0.0
 40
2.0
100
AcDbArc
 50
258.718392
 51
314.397699
  0
ARC
  5
C242
330
C0F1
100
AcDbEntity
  8
5
  6
PHANTOM
100
AcDbCircle
 10
139.3622379999999
 20
156.1741389999999
 30
0.0
 40
0.3
100
AcDbArc
 50
314.397699
 51
349.194028
  0
ARC
  5
C243
330
C0F1
100
AcDbEntity
  8
1
  6
Continuous
100
AcDbCircle
 10
145.898539
 20
167.956183
 30
0.0
 40
5.0
100
AcDbArc
 50
156.2191589999999
 51
217.6815799999999
  0
ARC
  5
C244
330
C0F1
100
AcDbEntity
  8
5
  6
PHANTOM
100
AcDbCircle
 10
138.8058289999999
 20
171.461952
 30
0.0
 40
0.5
100
AcDbArc
 50
200.744024
 51
330.113966
  0
LINE
  5
C245
330
C0F1
100
AcDbEntity
  8
5
  6
PHANTOM
100
AcDbLine
 10
146.6722399999999
 20
174.220598
 30
0.0
 11
147.82246
 21
173.3849139999999
 31
0.0
  0
ARC
  5
C246
330
C0F1
100
AcDbEntity
  8
5
  6
PHANTOM
100
AcDbCircle
 10
136.1983929999998
 20
172.2630419999999
 30
0.0
 40
2.0
100
AcDbArc
 50
65.58410600000001
 51
119.5385239999999
  0
ARC
  5
C247
330
C0F1
100
AcDbEntity
  8
5
  6
PHANTOM
100
AcDbCircle
 10
136.9011
 20
173.81101
 30
0.0
 40
0.3
100
AcDbArc
 50
26.694064
 51
65.58410600000001
  0
ARC
  5
C248
330
C0F1
100
AcDbEntity
  8
5
  6
PHANTOM
100
AcDbCircle
 10
135.3602779999999
 20
173.742084
 30
0.0
 40
0.3
100
AcDbArc
 50
119.5385239999999
 51
208.067983
  0
ARC
  5
C249
330
C0F1
100
AcDbEntity
  8
1
  6
Continuous
100
AcDbCircle
 10
135.5511909999999
 20
173.0157979999999
 30
0.0
 40
2.0
100
AcDbArc
 50
172.7183919999999
 51
228.3976989999999
  0
ARC
  5
C24A
330
C0F1
100
AcDbEntity
  8
1
  6
Continuous
100
AcDbCircle
 10
133.864901
 20
173.2312669999998
 30
0.0
 40
0.3
100
AcDbArc
 50
81.60388199999998
 51
172.7183919999999
  0
ARC
  5
C24B
330
C0F1
100
AcDbEntity
  8
1
  6
Continuous
100
AcDbCircle
 10
134.4224649999999
 20
171.744587
 30
0.0
 40
0.3
100
AcDbArc
 50
228.3976989999999
 51
263.194028
  0
ARC
  5
C24C
330
C0F1
100
AcDbEntity
  8
1
  6
Continuous
100
AcDbCircle
 10
151.668453
 20
176.962276
 30
0.0
 40
0.3
100
AcDbArc
 50
33.538524
 51
122.0679829999999
  0
ARC
  5
C24D
330
C0F1
100
AcDbEntity
  8
1
  6
Continuous
100
AcDbCircle
 10
150.251478
 20
176.023031
 30
0.0
 40
2.0
100
AcDbArc
 50
18.554142
 51
33.538524
  0
LINE
  5
C24E
330
C0F1
100
AcDbEntity
  8
1
  6
Continuous
100
AcDbLine
 10
54.717321
 20
162.5466999999999
 30
0.0
 11
54.717321
 21
171.3998359999999
 31
0.0
  0
LINE
  5
C24F
330
C0F1
100
AcDbEntity
  8
1
  6
Continuous
100
AcDbLine
 10
43.417321
 20
171.399131
 30
0.0
 11
43.417321
 21
162.5466999999999
 31
0.0
  0
LINE
  5
C250
330
C0F1
100
AcDbEntity
  8
1
  6
Continuous
100
AcDbLine
 10
150.145881
 20
257.7080319999998
 30
0.0
 11
138.3197669999999
 21
257.7080319999998
 31
0.0
  0
LINE
  5
C251
330
C0F1
100
AcDbEntity
  8
1
  6
Continuous
100
AcDbLine
 10
150.145881
 20
257.2080319999999
 30
0.0
 11
150.145881
 21
257.740423
 31
0.0
  0
LINE
  5
C252
330
C0F1
100
AcDbEntity
  8
1
  6
Continuous
100
AcDbLine
 10
149.744752
 20
274.708032
 30
0.0
 11
138.323631
 21
274.708032
 31
0.0
  0
LINE
  5
C253
330
C0F1
100
AcDbEntity
  8
1
  6
Continuous
100
AcDbLine
 10
150.145881
 20
274.6756409999999
 30
0.0
 11
150.145881
 21
275.208032
 31
0.0
  0
ARC
  5
C254
330
C0F1
100
AcDbEntity
  8
1
  6
Continuous
100
AcDbCircle
 10
241.326688
 20
266.208032
 30
0.0
 40
100.0
100
AcDbArc
 50
184.8760249999999
 51
185.1509489999999
  0
LINE
  5
C255
330
C0F1
100
AcDbEntity
  8
1
  6
Continuous
100
AcDbLine
 10
57.567321
 20
170.4511349999999
 30
0.0
 11
58.567321
 21
170.4511349999999
 31
0.0
  0
LINE
  5
C256
330
C0F1
100
AcDbEntity
  8
1
  6
Continuous
100
AcDbLine
 10
59.067321
 20
168.451135
 30
0.0
 11
59.56732099999999
 21
168.451135
 31
0.0
  0
LINE
  5
C257
330
C0F1
100
AcDbEntity
  8
1
  6
Continuous
100
AcDbLine
 10
59.067321
 20
165.4511349999999
 30
0.0
 11
59.56732099999999
 21
165.4511349999999
 31
0.0
  0
LINE
  5
C258
330
C0F1
100
AcDbEntity
  8
1
  6
Continuous
100
AcDbLine
 10
58.067321
 20
161.4511349999999
 30
0.0
 11
58.567321
 21
161.4511349999999
 31
0.0
  0
LINE
  5
C259
330
C0F1
100
AcDbEntity
  8
1
  6
Continuous
100
AcDbLine
 10
59.067321
 20
161.9511349999999
 30
0.0
 11
59.067321
 21
165.4511349999999
 31
0.0
  0
LINE
  5
C25A
330
C0F1
100
AcDbEntity
  8
1
  6
Continuous
100
AcDbLine
 10
59.067321
 20
168.451135
 30
0.0
 11
59.067321
 21
169.9511349999999
 31
0.0
  0
ARC
  5
C25B
330
C0F1
100
AcDbEntity
  8
1
  6
Continuous
100
AcDbCircle
 10
58.567321
 20
169.9511349999999
 30
0.0
 40
0.5
100
AcDbArc
 50
0.0
 51
90.0
  0
ARC
  5
C25C
330
C0F1
100
AcDbEntity
  8
1
  6
Continuous
100
AcDbCircle
 10
58.567321
 20
161.9511349999999
 30
0.0
 40
0.5
100
AcDbArc
 50
270.0
 51
0.0
  0
LINE
  5
C25D
330
C0F1
100
AcDbEntity
  8
1
  6
Continuous
100
AcDbLine
 10
58.067321
 20
172.476432
 30
0.0
 11
58.067321
 21
180.708032
 31
0.0
  0
ARC
  5
C25E
330
C0F1
100
AcDbEntity
  8
1
  6
Continuous
100
AcDbCircle
 10
39.56732099999999
 20
169.9511349999999
 30
0.0
 40
0.5
100
AcDbArc
 50
90.0
 51
180.0
  0
LINE
  5
C25F
330
C0F1
100
AcDbEntity
  8
1
  6
Continuous
100
AcDbLine
 10
40.567321
 20
170.4511349999999
 30
0.0
 11
39.56732099999999
 21
170.4511349999999
 31
0.0
  0
LINE
  5
C260
330
C0F1
100
AcDbEntity
  8
1
  6
Continuous
100
AcDbLine
 10
39.067321
 20
168.451135
 30
0.0
 11
39.067321
 21
169.9511349999999
 31
0.0
  0
LINE
  5
C261
330
C0F1
100
AcDbEntity
  8
1
  6
Continuous
100
AcDbLine
 10
39.067321
 20
161.9511349999999
 30
0.0
 11
39.067321
 21
165.4511349999999
 31
0.0
  0
LINE
  5
C262
330
C0F1
100
AcDbEntity
  8
1
  6
Continuous
100
AcDbLine
 10
40.06732099999999
 20
161.4511349999999
 30
0.0
 11
39.56732099999999
 21
161.4511349999999
 31
0.0
  0
ARC
  5
C263
330
C0F1
100
AcDbEntity
  8
1
  6
Continuous
100
AcDbCircle
 10
39.56732099999999
 20
161.9511349999999
 30
0.0
 40
0.5
100
AcDbArc
 50
180.0
 51
270.0
  0
LINE
  5
C264
330
C0F1
100
AcDbEntity
  8
1
  6
Continuous
100
AcDbLine
 10
39.067321
 20
165.4511349999999
 30
0.0
 11
38.567321
 21
165.4511349999999
 31
0.0
  0
LINE
  5
C265
330
C0F1
100
AcDbEntity
  8
1
  6
Continuous
100
AcDbLine
 10
39.067321
 20
168.451135
 30
0.0
 11
38.567321
 21
168.451135
 31
0.0
  0
LINE
  5
C266
330
C0F1
100
AcDbEntity
  8
1
  6
Continuous
100
AcDbLine
 10
40.06732099999999
 20
172.476432
 30
0.0
 11
40.06732099999999
 21
180.708032
 31
0.0
  0
ARC
  5
C267
330
C0F1
100
AcDbEntity
  8
1
  6
Continuous
100
AcDbCircle
 10
149.095561
 20
272.958032
 30
0.0
 40
3.75
100
AcDbArc
 50
36.869898
 51
90.0
  0
ARC
  5
C268
330
C0F1
100
AcDbEntity
  8
1
  6
Continuous
100
AcDbCircle
 10
151.095561
 20
272.958032
 30
0.0
 40
3.75
100
AcDbArc
 50
127.58965
 51
143.130102
  0
ARC
  5
C269
330
C0F1
100
AcDbEntity
  8
1
  6
Continuous
100
AcDbCircle
 10
151.367434
 20
278.9871959999999
 30
0.0
 40
3.987448
100
AcDbArc
 50
214.8608
 51
230.069396
  0
ARC
  5
C26A
330
C0F1
100
AcDbEntity
  8
1
  6
Continuous
100
AcDbCircle
 10
149.095561
 20
259.4580319999999
 30
0.0
 40
3.75
100
AcDbArc
 50
270.0
 51
323.130102
  0
ARC
  5
C26B
330
C0F1
100
AcDbEntity
  8
1
  6
Continuous
100
AcDbCircle
 10
151.367434
 20
253.4288689999999
 30
0.0
 40
3.987448
100
AcDbArc
 50
129.9306039999999
 51
145.1392
  0
ARC
  5
C26C
330
C0F1
100
AcDbEntity
  8
1
  6
Continuous
100
AcDbCircle
 10
151.095561
 20
259.4580319999999
 30
0.0
 40
3.75
100
AcDbArc
 50
216.869898
 51
232.41035
  0
ARC
  5
C26D
330
C0F1
100
AcDbEntity
  8
1
  6
Continuous
100
AcDbCircle
 10
151.367434
 20
52.92886899999999
 30
0.0
 40
3.987448
100
AcDbArc
 50
129.9306039999999
 51
145.1392
  0
ARC
  5
C26E
330
C0F1
100
AcDbEntity
  8
1
  6
Continuous
100
AcDbCircle
 10
151.095561
 20
58.95803199999999
 30
0.0
 40
3.75
100
AcDbArc
 50
216.869898
 51
232.41035
  0
ARC
  5
C26F
330
C0F1
100
AcDbEntity
  8
1
  6
Continuous
100
AcDbCircle
 10
149.095561
 20
58.95803199999999
 30
0.0
 40
3.75
100
AcDbArc
 50
270.0
 51
323.130102
  0
ARC
  5
C270
330
C0F1
100
AcDbEntity
  8
1
  6
Continuous
100
AcDbCircle
 10
151.095561
 20
72.45803199999997
 30
0.0
 40
3.75
100
AcDbArc
 50
127.58965
 51
143.130102
  0
ARC
  5
C271
330
C0F1
100
AcDbEntity
  8
1
  6
Continuous
100
AcDbCircle
 10
151.367434
 20
78.48719599999999
 30
0.0
 40
3.987448
100
AcDbArc
 50
214.8608
 51
230.069396
  0
ARC
  5
C272
330
C0F1
100
AcDbEntity
  8
1
  6
Continuous
100
AcDbCircle
 10
149.095561
 20
72.45803199999997
 30
0.0
 40
3.75
100
AcDbArc
 50
36.869898
 51
90.0
  0
LINE
  5
C273
330
C0F1
100
AcDbEntity
  8
1
  6
Continuous
100
AcDbLine
 10
141.6591329999999
 20
57.20803199999998
 30
0.0
 11
138.321696
 21
57.20803199999998
 31
0.0
  0
LINE
  5
C274
330
C0F1
100
AcDbEntity
  8
1
  6
Continuous
100
AcDbLine
 10
141.688593
 20
74.20803199999998
 30
0.0
 11
138.321696
 21
74.20803199999998
 31
0.0
  0
LINE
  5
C275
330
C0F1
100
AcDbEntity
  8
1
  6
Continuous
100
AcDbLine
 10
286.8930119999999
 20
168.451135
 30
0.0
 11
287.393012
 21
168.451135
 31
0.0
  0
LINE
  5
C276
330
C0F1
100
AcDbEntity
  8
1
  6
Continuous
100
AcDbLine
 10
286.8930119999999
 20
165.4511349999999
 30
0.0
 11
287.393012
 21
165.4511349999999
 31
0.0
  0
LINE
  5
C277
330
C0F1
100
AcDbEntity
  8
1
  6
Continuous
100
AcDbLine
 10
286.8930119999999
 20
163.074058
 30
0.0
 11
286.8930119999999
 21
165.4511349999999
 31
0.0
  0
LINE
  5
C278
330
C0F1
100
AcDbEntity
  8
1
  6
Continuous
100
AcDbLine
 10
286.8930119999999
 20
168.451135
 30
0.0
 11
286.8930119999999
 21
169.9511349999999
 31
0.0
  0
LINE
  5
C279
330
C0F1
100
AcDbEntity
  8
1
  6
Continuous
100
AcDbLine
 10
285.893012
 20
170.4511349999999
 30
0.0
 11
286.393012
 21
170.4511349999999
 31
0.0
  0
ARC
  5
C27A
330
C0F1
100
AcDbEntity
  8
1
  6
Continuous
100
AcDbCircle
 10
286.393012
 20
169.9511349999999
 30
0.0
 40
0.5
100
AcDbArc
 50
0.0
 51
90.0
  0
LINE
  5
C27B
330
C0F1
100
AcDbEntity
  8
1
  6
Continuous
100
AcDbLine
 10
267.8930119999999
 20
170.4511349999999
 30
0.0
 11
267.393012
 21
170.4511349999999
 31
0.0
  0
LINE
  5
C27C
330
C0F1
100
AcDbEntity
  8
1
  6
Continuous
100
AcDbLine
 10
266.893012
 20
163.074058
 30
0.0
 11
266.893012
 21
165.4511349999999
 31
0.0
  0
ARC
  5
C27D
330
C0F1
100
AcDbEntity
  8
1
  6
Continuous
100
AcDbCircle
 10
267.393012
 20
169.9511349999999
 30
0.0
 40
0.5
100
AcDbArc
 50
90.0
 51
180.0
  0
LINE
  5
C27E
330
C0F1
100
AcDbEntity
  8
1
  6
Continuous
100
AcDbLine
 10
266.893012
 20
168.451135
 30
0.0
 11
266.893012
 21
169.9511349999999
 31
0.0
  0
LINE
  5
C27F
330
C0F1
100
AcDbEntity
  8
1
  6
Continuous
100
AcDbLine
 10
266.893012
 20
165.4511349999999
 30
0.0
 11
266.3930119999998
 21
165.4511349999999
 31
0.0
  0
LINE
  5
C280
330
C0F1
100
AcDbEntity
  8
1
  6
Continuous
100
AcDbLine
 10
266.893012
 20
168.451135
 30
0.0
 11
266.3930119999998
 21
168.451135
 31
0.0
  0
LINE
  5
C281
330
C0F1
100
AcDbEntity
  8
1
  6
Continuous
100
AcDbLine
 10
133.5673209999999
 20
72.143843
 30
0.0
 11
133.5673209999999
 21
59.272002
 31
0.0
  0
ARC
  5
C282
330
C0F1
100
AcDbEntity
  8
1
  6
Continuous
100
AcDbCircle
 10
138.903511
 20
67.43084
 30
0.0
 40
10.23935099999998
100
AcDbArc
 50
241.8945390000001
 51
266.742612
  0
ARC
  5
C283
330
C0F1
100
AcDbEntity
  8
1
  6
Continuous
100
AcDbCircle
 10
134.5673209999999
 20
59.272002
 30
0.0
 40
1.0
100
AcDbArc
 50
180.0
 51
240.821895
  0
LINE
  5
C284
330
C0F1
100
AcDbEntity
  8
1
  6
Continuous
100
AcDbLine
 10
138.378849
 20
74.211404
 30
0.0
 11
138.378849
 21
74.211404
 31
0.0
  0
ARC
  5
C285
330
C0F1
100
AcDbEntity
  8
1
  6
Continuous
100
AcDbCircle
 10
138.903511
 20
63.985224
 30
0.0
 40
10.23935099999998
100
AcDbArc
 50
93.25738800000001
 51
117.9900149999999
  0
ARC
  5
C286
330
C0F1
100
AcDbEntity
  8
1
  6
Continuous
100
AcDbCircle
 10
134.5673209999999
 20
72.143843
 30
0.0
 40
1.0
100
AcDbArc
 50
117.9900149999999
 51
180.0
  0
LINE
  5
C287
330
C0F1
100
AcDbEntity
  8
1
  6
Continuous
100
AcDbLine
 10
133.5673209999999
 20
259.772112
 30
0.0
 11
133.5673209999999
 21
272.6439529999999
 31
0.0
  0
ARC
  5
C288
330
C0F1
100
AcDbEntity
  8
1
  6
Continuous
100
AcDbCircle
 10
138.903511
 20
264.485114
 30
0.0
 40
10.23935099999998
100
AcDbArc
 50
93.246541
 51
118.1054609999999
  0
ARC
  5
C289
330
C0F1
100
AcDbEntity
  8
1
  6
Continuous
100
AcDbCircle
 10
134.5673209999999
 20
272.6439529999999
 30
0.0
 40
1.0
100
AcDbArc
 50
119.178105
 51
180.0
  0
ARC
  5
C28A
330
C0F1
100
AcDbEntity
  8
1
  6
Continuous
100
AcDbCircle
 10
134.5673209999999
 20
259.772112
 30
0.0
 40
1.0
100
AcDbArc
 50
180.0
 51
242.009985
  0
ARC
  5
C28B
330
C0F1
100
AcDbEntity
  8
1
  6
Continuous
100
AcDbCircle
 10
138.903511
 20
267.93073
 30
0.0
 40
10.23935099999998
100
AcDbArc
 50
242.009985
 51
266.7318009999998
  0
LINE
  5
C28C
330
C0F1
100
AcDbEntity
  8
1
  6
Continuous
100
AcDbLine
 10
138.378849
 20
257.704551
 30
0.0
 11
138.378849
 21
257.704551
 31
0.0
  0
LINE
  5
C28D
330
C0F1
100
AcDbEntity
  8
1
  6
Continuous
100
AcDbLine
 10
152.244752
 20
260.208032
 30
0.0
 11
152.244752
 21
272.2080319999998
 31
0.0
  0
LINE
  5
C28E
330
C0F1
100
AcDbEntity
  8
1
  6
Continuous
100
AcDbLine
 10
151.9185069999998
 20
272.2080319999998
 30
0.0
 11
151.9185069999998
 21
260.208032
 31
0.0
  0
ARC
  5
C28F
330
C0F1
100
AcDbEntity
  8
1
  6
Continuous
100
AcDbCircle
 10
149.418507
 20
272.2080319999998
 30
0.0
 40
2.5
100
AcDbArc
 50
0.0
 51
90.0
  0
ARC
  5
C290
330
C0F1
100
AcDbEntity
  8
1
  6
Continuous
100
AcDbCircle
 10
149.744752
 20
272.2080319999998
 30
0.0
 40
2.5
100
AcDbArc
 50
0.0
 51
90.0
  0
ARC
  5
C291
330
C0F1
100
AcDbEntity
  8
1
  6
Continuous
100
AcDbCircle
 10
149.418507
 20
260.208032
 30
0.0
 40
2.5
100
AcDbArc
 50
270.0
 51
0.0
  0
ARC
  5
C292
330
C0F1
100
AcDbEntity
  8
1
  6
Continuous
100
AcDbCircle
 10
149.744752
 20
260.208032
 30
0.0
 40
2.5
100
AcDbArc
 50
270.0
 51
0.0
  0
LINE
  5
C293
330
C0F1
100
AcDbEntity
  8
1
  6
Continuous
100
AcDbLine
 10
40.06732099999999
 20
162.5466999999999
 30
0.0
 11
43.417321
 21
162.5466999999999
 31
0.0
  0
LINE
  5
C294
330
C0F1
100
AcDbEntity
  8
1
  6
Continuous
100
AcDbLine
 10
40.567321
 20
164.7466999999998
 30
0.0
 11
43.417321
 21
164.7466999999998
 31
0.0
  0
LINE
  5
C295
330
C0F1
100
AcDbEntity
  8
1
  6
Continuous
100
AcDbLine
 10
54.717321
 20
164.7466999999998
 30
0.0
 11
57.567321
 21
164.7466999999998
 31
0.0
  0
LINE
  5
C296
330
C0F1
100
AcDbEntity
  8
1
  6
Continuous
100
AcDbLine
 10
40.567321
 20
164.7466999999998
 30
0.0
 11
40.567321
 21
175.762112
 31
0.0
  0
LINE
  5
C297
330
C0F1
100
AcDbEntity
  8
1
  6
Continuous
100
AcDbLine
 10
57.567321
 20
164.7466999999998
 30
0.0
 11
57.567321
 21
175.762112
 31
0.0
  0
ARC
  5
C298
330
C0F1
100
AcDbEntity
  8
5
  6
PHANTOM
100
AcDbCircle
 10
441.6326009999998
 20
161.367437
 30
0.0
 40
26.0
100
AcDbArc
 50
151.932017
 51
192.396118
  0
ARC
  5
C299
330
C0F1
100
AcDbEntity
  8
5
  6
PHANTOM
100
AcDbCircle
 10
441.6326009999998
 20
161.367437
 30
0.0
 40
28.0
100
AcDbArc
 50
153.305936
 51
190.805972
  0
CIRCLE
  5
C29A
330
C0F1
100
AcDbEntity
  8
1
  6
Continuous
100
AcDbCircle
 10
388.7995959999998
 20
155.2080319999998
 30
0.0
 40
21.0
  0
CIRCLE
  5
C29B
330
C0F1
100
AcDbEntity
  8
1
  6
Continuous
100
AcDbCircle
 10
388.7995959999998
 20
155.2080319999998
 30
0.0
 40
19.5
  0
CIRCLE
  5
C29C
330
C0F1
100
AcDbEntity
  8
1
  6
Continuous
100
AcDbCircle
 10
388.7995959999998
 20
155.2080319999998
 30
0.0
 40
25.0
  0
CIRCLE
  5
C29D
330
C0F1
100
AcDbEntity
  8
1
  6
Continuous
100
AcDbCircle
 10
388.7995959999998
 20
155.2080319999998
 30
0.0
 40
15.09999999999999
  0
CIRCLE
  5
C29E
330
C0F1
100
AcDbEntity
  8
1
  6
Continuous
100
AcDbCircle
 10
388.7995959999998
 20
155.2080319999998
 30
0.0
 40
17.0
  0
LINE
  5
C29F
330
C0F1
100
AcDbEntity
  8
1
  6
Continuous
100
AcDbLine
 10
363.2442259999999
 20
180.7667539999999
 30
0.0
 11
361.393012
 21
149.296115
 31
0.0
  0
LINE
  5
C2A0
330
C0F1
100
AcDbEntity
  8
4
  6
CENTER
100
AcDbLine
 10
388.7995959999998
 20
125.208032
 30
0.0
 11
388.7995959999998
 21
185.2080319999998
 31
0.0
  0
LINE
  5
C2A1
330
C0F1
100
AcDbEntity
  8
4
  6
CENTER
100
AcDbLine
 10
371.799596
 20
142.7284649999998
 30
0.0
 11
371.799596
 21
211.7080319999999
 31
0.0
  0
LINE
  5
C2A2
330
C0F1
100
AcDbEntity
  8
4
  6
CENTER
100
AcDbLine
 10
358.799596
 20
155.2080319999998
 30
0.0
 11
418.799596
 21
155.2080319999998
 31
0.0
  0
ARC
  5
C2A3
330
C0F1
100
AcDbEntity
  8
5
  6
PHANTOM
100
AcDbCircle
 10
415.6131639999999
 20
157.38879
 30
0.0
 40
2.0
100
AcDbArc
 50
225.602301
 51
281.281608
  0
ARC
  5
C2A4
330
C0F1
100
AcDbEntity
  8
5
  6
PHANTOM
100
AcDbCircle
 10
415.945738
 20
155.7216389999998
 30
0.0
 40
0.3
100
AcDbArc
 50
281.281608
 51
12.396118
  0
ARC
  5
C2A5
330
C0F1
100
AcDbEntity
  8
5
  6
PHANTOM
100
AcDbCircle
 10
414.423786
 20
156.1741389999999
 30
0.0
 40
0.3
100
AcDbArc
 50
190.805972
 51
225.602301
  0
LINE
  5
C2A6
330
C0F1
100
AcDbEntity
  8
1
  6
Continuous
100
AcDbLine
 10
362.890424
 20
147.7080319999998
 30
0.0
 11
364.951116
 21
147.7080319999998
 31
0.0
  0
ARC
  5
C2A7
330
C0F1
100
AcDbEntity
  8
1
  6
Continuous
100
AcDbCircle
 10
362.890424
 20
149.208032
 30
0.0
 40
1.5
100
AcDbArc
 50
176.6335389999999
 51
270.0
  0
LINE
  5
C2A8
330
C0F1
100
AcDbEntity
  8
1
  6
Continuous
100
AcDbLine
 10
380.799595
 20
187.708032
 30
0.0
 11
362.799596
 21
187.708032
 31
0.0
  0
LINE
  5
C2A9
330
C0F1
100
AcDbEntity
  8
1
  6
Continuous
100
AcDbLine
 10
362.799596
 20
181.708032
 30
0.0
 11
380.799595
 21
181.708032
 31
0.0
  0
ARC
  5
C2AA
330
C0F1
100
AcDbEntity
  8
5
  6
PHANTOM
100
AcDbCircle
 10
408.911067
 20
167.974017
 30
0.0
 40
6.5
100
AcDbArc
 50
29.88603399999999
 51
106.051726
  0
ARC
  5
C2AB
330
C0F1
100
AcDbEntity
  8
1
  6
Continuous
100
AcDbCircle
 10
416.080902
 20
199.2493889999998
 30
0.0
 40
26.0
100
AcDbArc
 50
237.932017
 51
278.3961179999999
  0
ARC
  5
C2AC
330
C0F1
100
AcDbEntity
  8
1
  6
Continuous
100
AcDbCircle
 10
416.080902
 20
199.2493889999998
 30
0.0
 40
28.0
100
AcDbArc
 50
249.7249609999999
 51
276.805972
  0
ARC
  5
C2AD
330
C0F1
100
AcDbEntity
  8
5
  6
PHANTOM
100
AcDbCircle
 10
412.640625
 20
162.0495709999999
 30
0.0
 40
1.0
100
AcDbArc
 50
358.652174
 51
95.792055
  0
ARC
  5
C2AE
330
C0F1
100
AcDbEntity
  8
5
  6
PHANTOM
100
AcDbCircle
 10
417.5876309999998
 20
172.2630419999999
 30
0.0
 40
2.0
100
AcDbArc
 50
60.46147600000001
 51
114.4158939999998
  0
ARC
  5
C2AF
330
C0F1
100
AcDbEntity
  8
5
  6
PHANTOM
100
AcDbCircle
 10
416.884924
 20
173.81101
 30
0.0
 40
0.3
100
AcDbArc
 50
114.4158939999998
 51
153.305936
  0
ARC
  5
C2B0
330
C0F1
100
AcDbEntity
  8
5
  6
PHANTOM
100
AcDbCircle
 10
418.425746
 20
173.742084
 30
0.0
 40
0.3
100
AcDbArc
 50
331.9320169999999
 51
60.46147600000001
  0
ARC
  5
C2B1
330
C0F1
100
AcDbEntity
  8
5
  6
PHANTOM
100
AcDbCircle
 10
414.9801949999998
 20
171.461952
 30
0.0
 40
0.5
100
AcDbArc
 50
209.8860339999998
 51
339.2559759999999
  0
ARC
  5
C2B2
330
C0F1
100
AcDbEntity
  8
1
  6
Continuous
100
AcDbCircle
 10
419.363559
 20
171.744587
 30
0.0
 40
0.3
100
AcDbArc
 50
276.805972
 51
311.6023009999999
  0
ARC
  5
C2B3
330
C0F1
100
AcDbEntity
  8
1
  6
Continuous
100
AcDbCircle
 10
419.921123
 20
173.2312669999998
 30
0.0
 40
0.3
100
AcDbArc
 50
7.281608
 51
98.396118
  0
ARC
  5
C2B4
330
C0F1
100
AcDbEntity
  8
1
  6
Continuous
100
AcDbCircle
 10
418.2348329999999
 20
173.0157979999999
 30
0.0
 40
2.0
100
AcDbArc
 50
311.6023009999999
 51
7.281608
  0
ARC
  5
C2B5
330
C0F1
100
AcDbEntity
  8
1
  6
Continuous
100
AcDbCircle
 10
413.378052
 20
170.375619
 30
0.0
 40
1.0
100
AcDbArc
 50
84.652174
 51
203.7808409999999
  0
ARC
  5
C2B6
330
C0F1
100
AcDbEntity
  8
1
  6
Continuous
100
AcDbCircle
 10
407.887485
 20
167.956183
 30
0.0
 40
5.0
100
AcDbArc
 50
322.3184199999999
 51
23.780841
  0
LINE
  5
C2B7
330
C0F1
100
AcDbEntity
  8
5
  6
PHANTOM
100
AcDbLine
 10
407.113784
 20
174.220598
 30
0.0
 11
405.963564
 21
173.3849139999999
 31
0.0
  0
ARC
  5
C2B8
330
C0F1
100
AcDbEntity
  8
1
  6
Continuous
100
AcDbCircle
 10
402.1175709999998
 20
176.962276
 30
0.0
 40
0.3
100
AcDbArc
 50
57.932017
 51
146.461476
  0
ARC
  5
C2B9
330
C0F1
100
AcDbEntity
  8
1
  6
Continuous
100
AcDbCircle
 10
403.534546
 20
176.023031
 30
0.0
 40
2.0
100
AcDbArc
 50
146.461476
 51
161.4458579999999
  0
ARC
  5
C2BA
330
C0F1
100
AcDbEntity
  8
1
  6
Continuous
100
AcDbCircle
 10
383.562473
 20
181.3193929999999
 30
0.0
 40
3.319657999999998
100
AcDbArc
 50
190.6123889999999
 51
223.93682
  0
ARC
  5
C2BB
330
C0F1
100
AcDbEntity
  8
1
  6
Continuous
100
AcDbCircle
 10
378.1538439999998
 20
184.708032
 30
0.0
 40
4.0
100
AcDbArc
 50
311.409622
 51
48.590378
  0
ARC
  5
C2BC
330
C0F1
100
AcDbEntity
  8
1
  6
Continuous
100
AcDbCircle
 10
379.299596
 20
180.708032
 30
0.0
 40
1.0
100
AcDbArc
 50
0.0
 51
90.0
  0
ARC
  5
C2BD
330
C0F1
100
AcDbEntity
  8
1
  6
Continuous
100
AcDbCircle
 10
365.445347
 20
184.708032
 30
0.0
 40
4.0
100
AcDbArc
 50
131.4096219999999
 51
228.5903779999999
  0
ARC
  5
C2BE
330
C0F1
100
AcDbEntity
  8
1
  6
Continuous
100
AcDbCircle
 10
364.242501
 20
180.708032
 30
0.0
 40
1.0
100
AcDbArc
 50
90.0
 51
176.6335389999999
  0
ARC
  5
C2BF
330
C0F1
100
AcDbEntity
  8
1
  6
Continuous
100
AcDbCircle
 10
371.4873069999999
 20
184.708032
 30
0.0
 40
4.0
100
AcDbArc
 50
131.4096219999999
 51
228.5903779999999
  0
ARC
  5
C2C0
330
C0F1
100
AcDbEntity
  8
1
  6
Continuous
100
AcDbCircle
 10
372.1118839999999
 20
184.708032
 30
0.0
 40
4.0
100
AcDbArc
 50
311.409622
 51
48.590378
  0
LINE
  5
C2C1
330
C0F1
100
AcDbEntity
  8
1
  6
Continuous
100
AcDbLine
 10
53.067321
 20
139.708032
 30
0.0
 11
45.06732099999999
 21
139.708032
 31
0.0
  0
ARC
  5
C2C2
330
C0F1
100
AcDbEntity
  8
1
  6
Continuous
100
AcDbCircle
 10
47.06732099999999
 20
142.608032
 30
0.0
 40
2.9
100
AcDbArc
 50
226.397181
 51
313.602819
  0
LINE
  5
C2C3
330
C0F1
100
AcDbEntity
  8
1
  6
Continuous
100
AcDbLine
 10
48.067321
 20
145.5080319999999
 30
0.0
 11
42.867321
 21
145.5080319999999
 31
0.0
  0
LINE
  5
C2C4
330
C0F1
100
AcDbEntity
  8
1
  6
Continuous
100
AcDbLine
 10
55.267321
 20
144.0080319999999
 30
0.0
 11
42.867321
 21
144.0080319999999
 31
0.0
  0
LINE
  5
C2C5
330
C0F1
100
AcDbEntity
  8
1
  6
Continuous
100
AcDbLine
 10
45.06732099999999
 20
144.0080319999999
 30
0.0
 11
45.06732099999999
 21
139.708032
 31
0.0
  0
LINE
  5
C2C6
330
C0F1
100
AcDbEntity
  8
1
  6
Continuous
100
AcDbLine
 10
42.867321
 20
145.5080319999999
 30
0.0
 11
42.867321
 21
144.0080319999999
 31
0.0
  0
LINE
  5
C2C7
330
C0F1
100
AcDbEntity
  8
1
  6
Continuous
100
AcDbLine
 10
53.067321
 20
144.0080319999999
 30
0.0
 11
53.067321
 21
139.708032
 31
0.0
  0
LINE
  5
C2C8
330
C0F1
100
AcDbEntity
  8
1
  6
Continuous
100
AcDbLine
 10
49.067321
 20
144.0080319999999
 30
0.0
 11
49.067321
 21
140.5080319999999
 31
0.0
  0
ARC
  5
C2C9
330
C0F1
100
AcDbEntity
  8
1
  6
Continuous
100
AcDbCircle
 10
51.067321
 20
142.608032
 30
0.0
 40
2.9
100
AcDbArc
 50
226.397181
 51
313.602819
  0
LINE
  5
C2CA
330
C0F1
100
AcDbEntity
  8
1
  6
Continuous
100
AcDbLine
 10
50.067321
 20
145.5080319999999
 30
0.0
 11
50.067321
 21
144.0080319999999
 31
0.0
  0
LINE
  5
C2CB
330
C0F1
100
AcDbEntity
  8
1
  6
Continuous
100
AcDbLine
 10
48.067321
 20
145.5080319999999
 30
0.0
 11
48.067321
 21
144.0080319999999
 31
0.0
  0
LINE
  5
C2CC
330
C0F1
100
AcDbEntity
  8
1
  6
Continuous
100
AcDbLine
 10
55.267321
 20
145.5080319999999
 30
0.0
 11
55.267321
 21
144.0080319999999
 31
0.0
  0
LINE
  5
C2CD
330
C0F1
100
AcDbEntity
  8
1
  6
Continuous
100
AcDbLine
 10
55.267321
 20
145.5080319999999
 30
0.0
 11
50.067321
 21
145.5080319999999
 31
0.0
  0
LINE
  5
C2CE
330
C0F1
100
AcDbEntity
  8
1
  6
Continuous
100
AcDbLine
 10
46.067321
 20
147.7080319999998
 30
0.0
 11
46.067321
 21
145.5080319999999
 31
0.0
  0
LINE
  5
C2CF
330
C0F1
100
AcDbEntity
  8
1
  6
Continuous
100
AcDbLine
 10
52.06732099999999
 20
147.7080319999998
 30
0.0
 11
52.06732099999999
 21
145.5080319999999
 31
0.0
  0
LINE
  5
C2D0
330
C0F1
100
AcDbEntity
  8
1
  6
Continuous
100
AcDbLine
 10
272.893012
 20
139.708032
 30
0.0
 11
280.8930119999999
 21
139.708032
 31
0.0
  0
ARC
  5
C2D1
330
C0F1
100
AcDbEntity
  8
1
  6
Continuous
100
AcDbCircle
 10
278.8930119999998
 20
142.608032
 30
0.0
 40
2.9
100
AcDbArc
 50
226.397181
 51
313.602819
  0
LINE
  5
C2D2
330
C0F1
100
AcDbEntity
  8
1
  6
Continuous
100
AcDbLine
 10
277.893012
 20
145.5080319999999
 30
0.0
 11
283.093012
 21
145.5080319999999
 31
0.0
  0
LINE
  5
C2D3
330
C0F1
100
AcDbEntity
  8
1
  6
Continuous
100
AcDbLine
 10
270.6930119999999
 20
144.0080319999999
 30
0.0
 11
283.093012
 21
144.0080319999999
 31
0.0
  0
LINE
  5
C2D4
330
C0F1
100
AcDbEntity
  8
1
  6
Continuous
100
AcDbLine
 10
280.8930119999999
 20
144.0080319999999
 30
0.0
 11
280.8930119999999
 21
139.708032
 31
0.0
  0
LINE
  5
C2D5
330
C0F1
100
AcDbEntity
  8
1
  6
Continuous
100
AcDbLine
 10
283.093012
 20
145.5080319999999
 30
0.0
 11
283.093012
 21
144.0080319999999
 31
0.0
  0
LINE
  5
C2D6
330
C0F1
100
AcDbEntity
  8
1
  6
Continuous
100
AcDbLine
 10
272.893012
 20
144.0080319999999
 30
0.0
 11
272.893012
 21
139.708032
 31
0.0
  0
LINE
  5
C2D7
330
C0F1
100
AcDbEntity
  8
1
  6
Continuous
100
AcDbLine
 10
276.8930119999998
 20
144.0080319999999
 30
0.0
 11
276.8930119999998
 21
140.5080319999999
 31
0.0
  0
ARC
  5
C2D8
330
C0F1
100
AcDbEntity
  8
1
  6
Continuous
100
AcDbCircle
 10
274.893012
 20
142.608032
 30
0.0
 40
2.9
100
AcDbArc
 50
226.397181
 51
313.602819
  0
LINE
  5
C2D9
330
C0F1
100
AcDbEntity
  8
1
  6
Continuous
100
AcDbLine
 10
275.893012
 20
145.5080319999999
 30
0.0
 11
275.893012
 21
144.0080319999999
 31
0.0
  0
LINE
  5
C2DA
330
C0F1
100
AcDbEntity
  8
1
  6
Continuous
100
AcDbLine
 10
277.893012
 20
145.5080319999999
 30
0.0
 11
277.893012
 21
144.0080319999999
 31
0.0
  0
LINE
  5
C2DB
330
C0F1
100
AcDbEntity
  8
1
  6
Continuous
100
AcDbLine
 10
270.6930119999999
 20
145.5080319999999
 30
0.0
 11
270.6930119999999
 21
144.0080319999999
 31
0.0
  0
LINE
  5
C2DC
330
C0F1
100
AcDbEntity
  8
1
  6
Continuous
100
AcDbLine
 10
270.6930119999999
 20
145.5080319999999
 30
0.0
 11
275.893012
 21
145.5080319999999
 31
0.0
  0
LINE
  5
C2DD
330
C0F1
100
AcDbEntity
  8
1
  6
Continuous
100
AcDbLine
 10
279.893012
 20
147.7080319999998
 30
0.0
 11
279.893012
 21
145.5080319999999
 31
0.0
  0
LINE
  5
C2DE
330
C0F1
100
AcDbEntity
  8
1
  6
Continuous
100
AcDbLine
 10
273.893012
 20
147.7080319999998
 30
0.0
 11
273.893012
 21
145.5080319999999
 31
0.0
  0
ARC
  5
C2DF
330
C0F1
100
AcDbEntity
  8
1
  6
Continuous
100
AcDbCircle
 10
181.986428
 20
65.70803199999999
 30
0.0
 40
6.2
100
AcDbArc
 50
15.257523
 51
344.742477
  0
ARC
  5
C2E0
330
C0F1
100
AcDbEntity
  8
1
  6
Continuous
100
AcDbCircle
 10
187.4855189999999
 20
67.20803199999997
 30
0.0
 40
0.5
100
AcDbArc
 50
270.0
 51
15.257523
  0
ARC
  5
C2E1
330
C0F1
100
AcDbEntity
  8
1
  6
Continuous
100
AcDbCircle
 10
187.4855189999999
 20
64.20803199999999
 30
0.0
 40
0.5
100
AcDbArc
 50
344.742477
 51
90.0
  0
LINE
  5
C2E2
330
C0F1
100
AcDbEntity
  8
1
  6
Continuous
100
AcDbLine
 10
54.717321
 20
162.5466999999999
 30
0.0
 11
58.067321
 21
162.5466999999999
 31
0.0
  0
LINE
  5
C2E3
330
C0F1
100
AcDbEntity
  8
1
  6
Continuous
100
AcDbLine
 10
43.417321
 20
165.2467
 30
0.0
 11
54.717321
 21
165.2467
 31
0.0
  0
CIRCLE
  5
C2E4
330
C0F1
100
AcDbEntity
  8
1
  6
Continuous
100
AcDbCircle
 10
181.986428
 20
266.208032
 30
0.0
 40
3.5
  0
CIRCLE
  5
C2E5
330
C0F1
100
AcDbEntity
  8
2
  6
Continuous
100
AcDbCircle
 10
181.986428
 20
266.208032
 30
0.0
 40
4.187999999999997
  0
CIRCLE
  5
C2E6
330
C0F1
100
AcDbEntity
  8
1
  6
Continuous
100
AcDbCircle
 10
181.986428
 20
266.208032
 30
0.0
 40
5.0
  0
LINE
  5
C2E7
330
C0F1
100
AcDbEntity
  8
1
  6
Continuous
100
AcDbLine
 10
45.567321
 20
201.708032
 30
0.0
 11
44.067321
 21
200.208032
 31
0.0
  0
LINE
  5
C2E8
330
C0F1
100
AcDbEntity
  8
1
  6
Continuous
100
AcDbLine
 10
44.067321
 20
200.208032
 30
0.0
 11
54.067321
 21
200.208032
 31
0.0
  0
LINE
  5
C2E9
330
C0F1
100
AcDbEntity
  8
1
  6
Continuous
100
AcDbLine
 10
44.067321
 20
187.708032
 30
0.0
 11
44.067321
 21
200.208032
 31
0.0
  0
LINE
  5
C2EA
330
C0F1
100
AcDbEntity
  8
2
  6
Continuous
100
AcDbLine
 10
44.879321
 20
189.114458
 30
0.0
 11
44.879321
 21
201.020032
 31
0.0
  0
LINE
  5
C2EB
330
C0F1
100
AcDbEntity
  8
2
  6
Continuous
100
AcDbLine
 10
53.255321
 20
189.114458
 30
0.0
 11
53.255321
 21
201.020032
 31
0.0
  0
LINE
  5
C2EC
330
C0F1
100
AcDbEntity
  8
1
  6
Continuous
100
AcDbLine
 10
54.067321
 20
200.208032
 30
0.0
 11
54.067321
 21
187.708032
 31
0.0
  0
LINE
  5
C2ED
330
C0F1
100
AcDbEntity
  8
1
  6
Continuous
100
AcDbLine
 10
52.567321
 20
201.708032
 30
0.0
 11
54.067321
 21
200.208032
 31
0.0
  0
LINE
  5
C2EE
330
C0F1
100
AcDbEntity
  8
1
  6
Continuous
100
AcDbLine
 10
45.567321
 20
201.708032
 30
0.0
 11
52.567321
 21
201.708032
 31
0.0
  0
LINE
  5
C2EF
330
C0F1
100
AcDbEntity
  8
1
  6
Continuous
100
AcDbLine
 10
178.4864279999999
 20
201.708032
 30
0.0
 11
176.986428
 21
200.208032
 31
0.0
  0
LINE
  5
C2F0
330
C0F1
100
AcDbEntity
  8
1
  6
Continuous
100
AcDbLine
 10
176.986428
 20
200.208032
 30
0.0
 11
186.9864279999999
 21
200.208032
 31
0.0
  0
LINE
  5
C2F1
330
C0F1
100
AcDbEntity
  8
1
  6
Continuous
100
AcDbLine
 10
176.986428
 20
187.708032
 30
0.0
 11
176.986428
 21
200.208032
 31
0.0
  0
LINE
  5
C2F2
330
C0F1
100
AcDbEntity
  8
2
  6
Continuous
100
AcDbLine
 10
177.798428
 20
189.114458
 30
0.0
 11
177.798428
 21
201.020032
 31
0.0
  0
LINE
  5
C2F3
330
C0F1
100
AcDbEntity
  8
2
  6
Continuous
100
AcDbLine
 10
186.174428
 20
189.114458
 30
0.0
 11
186.174428
 21
201.020032
 31
0.0
  0
LINE
  5
C2F4
330
C0F1
100
AcDbEntity
  8
1
  6
Continuous
100
AcDbLine
 10
186.9864279999999
 20
200.208032
 30
0.0
 11
186.9864279999999
 21
187.708032
 31
0.0
  0
LINE
  5
C2F5
330
C0F1
100
AcDbEntity
  8
1
  6
Continuous
100
AcDbLine
 10
185.4864279999999
 20
201.708032
 30
0.0
 11
186.9864279999999
 21
200.208032
 31
0.0
  0
LINE
  5
C2F6
330
C0F1
100
AcDbEntity
  8
1
  6
Continuous
100
AcDbLine
 10
178.4864279999999
 20
201.708032
 30
0.0
 11
185.4864279999999
 21
201.708032
 31
0.0
  0
LINE
  5
C2F7
330
C0F1
100
AcDbEntity
  8
1
  6
Continuous
100
AcDbLine
 10
273.393012
 20
201.708032
 30
0.0
 11
271.893012
 21
200.208032
 31
0.0
  0
LINE
  5
C2F8
330
C0F1
100
AcDbEntity
  8
1
  6
Continuous
100
AcDbLine
 10
271.893012
 20
200.208032
 30
0.0
 11
281.893012
 21
200.208032
 31
0.0
  0
LINE
  5
C2F9
330
C0F1
100
AcDbEntity
  8
1
  6
Continuous
100
AcDbLine
 10
271.893012
 20
187.708032
 30
0.0
 11
271.893012
 21
200.208032
 31
0.0
  0
LINE
  5
C2FA
330
C0F1
100
AcDbEntity
  8
2
  6
Continuous
100
AcDbLine
 10
272.705012
 20
189.114458
 30
0.0
 11
272.705012
 21
201.020032
 31
0.0
  0
LINE
  5
C2FB
330
C0F1
100
AcDbEntity
  8
2
  6
Continuous
100
AcDbLine
 10
281.0810119999998
 20
189.114458
 30
0.0
 11
281.0810119999998
 21
201.020032
 31
0.0
  0
LINE
  5
C2FC
330
C0F1
100
AcDbEntity
  8
1
  6
Continuous
100
AcDbLine
 10
281.893012
 20
200.208032
 30
0.0
 11
281.893012
 21
187.708032
 31
0.0
  0
LINE
  5
C2FD
330
C0F1
100
AcDbEntity
  8
1
  6
Continuous
100
AcDbLine
 10
280.393012
 20
201.708032
 30
0.0
 11
281.893012
 21
200.208032
 31
0.0
  0
LINE
  5
C2FE
330
C0F1
100
AcDbEntity
  8
1
  6
Continuous
100
AcDbLine
 10
273.393012
 20
201.708032
 30
0.0
 11
280.393012
 21
201.708032
 31
0.0
  0
LINE
  5
C2FF
330
C0F1
100
AcDbEntity
  8
1
  6
Continuous
100
AcDbLine
 10
368.2995959999999
 20
201.708032
 30
0.0
 11
366.799596
 21
200.208032
 31
0.0
  0
LINE
  5
C300
330
C0F1
100
AcDbEntity
  8
1
  6
Continuous
100
AcDbLine
 10
366.799596
 20
200.208032
 30
0.0
 11
376.799596
 21
200.208032
 31
0.0
  0
LINE
  5
C301
330
C0F1
100
AcDbEntity
  8
1
  6
Continuous
100
AcDbLine
 10
366.799596
 20
187.708032
 30
0.0
 11
366.799596
 21
200.208032
 31
0.0
  0
LINE
  5
C302
330
C0F1
100
AcDbEntity
  8
2
  6
Continuous
100
AcDbLine
 10
367.611596
 20
189.114458
 30
0.0
 11
367.611596
 21
201.020032
 31
0.0
  0
LINE
  5
C303
330
C0F1
100
AcDbEntity
  8
2
  6
Continuous
100
AcDbLine
 10
375.987596
 20
189.114458
 30
0.0
 11
375.987596
 21
201.020032
 31
0.0
  0
LINE
  5
C304
330
C0F1
100
AcDbEntity
  8
1
  6
Continuous
100
AcDbLine
 10
376.799596
 20
200.208032
 30
0.0
 11
376.799596
 21
187.708032
 31
0.0
  0
LINE
  5
C305
330
C0F1
100
AcDbEntity
  8
1
  6
Continuous
100
AcDbLine
 10
375.299596
 20
201.708032
 30
0.0
 11
376.799596
 21
200.208032
 31
0.0
  0
LINE
  5
C306
330
C0F1
100
AcDbEntity
  8
1
  6
Continuous
100
AcDbLine
 10
368.2995959999999
 20
201.708032
 30
0.0
 11
375.299596
 21
201.708032
 31
0.0
  0
LINE
  5
C307
330
C0F1
100
AcDbEntity
  8
1
  6
Continuous
100
AcDbLine
 10
42.06732099999999
 20
177.262112
 30
0.0
 11
56.067321
 21
177.262112
 31
0.0
  0
ARC
  5
C308
330
C0F1
100
AcDbEntity
  8
1
  6
Continuous
100
AcDbCircle
 10
42.06732099999999
 20
175.762112
 30
0.0
 40
1.5
100
AcDbArc
 50
90.0
 51
180.0
  0
ARC
  5
C309
330
C0F1
100
AcDbEntity
  8
1
  6
Continuous
100
AcDbCircle
 10
43.257129
 20
176.2796119999999
 30
0.0
 40
3.0
100
AcDbArc
 50
206.284961
 51
256.7066939999999
  0
ARC
  5
C30A
330
C0F1
100
AcDbEntity
  8
1
  6
Continuous
100
AcDbCircle
 10
43.257129
 20
174.3663169999999
 30
0.0
 40
3.0
100
AcDbArc
 50
206.284961
 51
251.4687099999999
  0
ARC
  5
C30B
330
C0F1
100
AcDbEntity
  8
1
  6
Continuous
100
AcDbCircle
 10
42.56732099999999
 20
172.8599949999999
 30
0.0
 40
0.5
100
AcDbArc
 50
90.0
 51
180.0
  0
ARC
  5
C30C
330
C0F1
100
AcDbEntity
  8
1
  6
Continuous
100
AcDbCircle
 10
54.877513
 20
176.2796119999999
 30
0.0
 40
3.0
100
AcDbArc
 50
283.2933059999998
 51
333.715039
  0
ARC
  5
C30D
330
C0F1
100
AcDbEntity
  8
1
  6
Continuous
100
AcDbCircle
 10
56.067321
 20
175.762112
 30
0.0
 40
1.5
100
AcDbArc
 50
0.0
 51
90.0
  0
LINE
  5
C30E
330
C0F1
100
AcDbEntity
  8
1
  6
Continuous
100
AcDbLine
 10
42.06732099999999
 20
172.8599949999999
 30
0.0
 11
42.06732099999999
 21
171.9466999999999
 31
0.0
  0
ARC
  5
C30F
330
C0F1
100
AcDbEntity
  8
1
  6
Continuous
100
AcDbCircle
 10
42.56732099999999
 20
171.9466999999999
 30
0.0
 40
0.5
100
AcDbArc
 50
180.0
 51
270.0
  0
LINE
  5
C310
330
C0F1
100
AcDbEntity
  8
1
  6
Continuous
100
AcDbLine
 10
55.567321
 20
173.359995
 30
0.0
 11
42.56732099999999
 21
173.359995
 31
0.0
  0
ARC
  5
C311
330
C0F1
100
AcDbEntity
  8
1
  6
Continuous
100
AcDbCircle
 10
55.567321
 20
172.8599949999999
 30
0.0
 40
0.5
100
AcDbArc
 50
0.0
 51
90.0
  0
LINE
  5
C312
330
C0F1
100
AcDbEntity
  8
1
  6
Continuous
100
AcDbLine
 10
56.067321
 20
172.8599949999999
 30
0.0
 11
56.067321
 21
171.9466999999999
 31
0.0
  0
ARC
  5
C313
330
C0F1
100
AcDbEntity
  8
1
  6
Continuous
100
AcDbCircle
 10
54.877513
 20
174.3663169999999
 30
0.0
 40
3.0
100
AcDbArc
 50
288.53129
 51
333.715039
  0
LINE
  5
C314
330
C0F1
100
AcDbEntity
  8
1
  6
Continuous
100
AcDbLine
 10
42.56732099999999
 20
171.4466999999999
 30
0.0
 11
55.567321
 21
171.4466999999999
 31
0.0
  0
ARC
  5
C315
330
C0F1
100
AcDbEntity
  8
1
  6
Continuous
100
AcDbCircle
 10
55.567321
 20
171.9466999999999
 30
0.0
 40
0.5
100
AcDbArc
 50
270.0
 51
0.0
  0
LINE
  5
C316
330
C0F1
100
AcDbEntity
  8
1
  6
Continuous
100
AcDbLine
 10
40.06732099999999
 20
172.476432
 30
0.0
 11
40.567321
 21
172.476432
 31
0.0
  0
LINE
  5
C317
330
C0F1
100
AcDbEntity
  8
1
  6
Continuous
100
AcDbLine
 10
57.567321
 20
172.476432
 30
0.0
 11
58.067321
 21
172.476432
 31
0.0
  0
ARC
  5
C318
330
C0F1
100
AcDbEntity
  8
1
  6
Continuous
100
AcDbCircle
 10
49.059944
 20
281.7421359999999
 30
0.0
 40
110.487235
100
AcDbArc
 50
266.615875
 51
273.3765089999999
  0
LINE
  5
C319
330
C0F1
100
AcDbEntity
  8
2
  6
Continuous
100
AcDbLine
 10
177.798428
 20
189.114458
 30
0.0
 11
176.986428
 21
187.708032
 31
0.0
  0
LINE
  5
C31A
330
C0F1
100
AcDbEntity
  8
1
  6
Continuous
100
AcDbLine
 10
176.986428
 20
189.114458
 30
0.0
 11
186.9864279999999
 21
189.114458
 31
0.0
  0
LINE
  5
C31B
330
C0F1
100
AcDbEntity
  8
2
  6
Continuous
100
AcDbLine
 10
186.174428
 20
189.114458
 30
0.0
 11
186.9864279999999
 21
187.708032
 31
0.0
  0
LINE
  5
C31C
330
C0F1
100
AcDbEntity
  8
1
  6
Continuous
100
AcDbLine
 10
44.067321
 20
189.114458
 30
0.0
 11
54.067321
 21
189.114458
 31
0.0
  0
LINE
  5
C31D
330
C0F1
100
AcDbEntity
  8
2
  6
Continuous
100
AcDbLine
 10
44.879321
 20
189.114458
 30
0.0
 11
44.067321
 21
187.708032
 31
0.0
  0
LINE
  5
C31E
330
C0F1
100
AcDbEntity
  8
2
  6
Continuous
100
AcDbLine
 10
53.255321
 20
189.114458
 30
0.0
 11
54.067321
 21
187.708032
 31
0.0
  0
LINE
  5
C31F
330
C0F1
100
AcDbEntity
  8
1
  6
Continuous
100
AcDbLine
 10
271.893012
 20
189.114458
 30
0.0
 11
281.893012
 21
189.114458
 31
0.0
  0
LINE
  5
C320
330
C0F1
100
AcDbEntity
  8
2
  6
Continuous
100
AcDbLine
 10
272.705012
 20
189.114458
 30
0.0
 11
271.893012
 21
187.708032
 31
0.0
  0
LINE
  5
C321
330
C0F1
100
AcDbEntity
  8
2
  6
Continuous
100
AcDbLine
 10
281.0810119999998
 20
189.114458
 30
0.0
 11
281.893012
 21
187.708032
 31
0.0
  0
LINE
  5
C322
330
C0F1
100
AcDbEntity
  8
1
  6
Continuous
100
AcDbLine
 10
366.799596
 20
189.114458
 30
0.0
 11
376.799596
 21
189.114458
 31
0.0
  0
LINE
  5
C323
330
C0F1
100
AcDbEntity
  8
2
  6
Continuous
100
AcDbLine
 10
367.611596
 20
189.114458
 30
0.0
 11
366.799596
 21
187.708032
 31
0.0
  0
LINE
  5
C324
330
C0F1
100
AcDbEntity
  8
2
  6
Continuous
100
AcDbLine
 10
375.987596
 20
189.114458
 30
0.0
 11
376.799596
 21
187.708032
 31
0.0
  0
ENDSEC
  0
SECTION
  2
OBJECTS
  0
DICTIONARY
  5
C0DF
330
0
100
AcDbDictionary
281
     1
  3
ACAD_CIP_PREVIOUS_PRODUCT_INFO
350
C386
  3
ACAD_COLOR
350
C368
  3
ACAD_DETAILVIEWSTYLE
350
C381
  3
ACAD_GROUP
350
C0E0
  3
ACAD_LAYOUT
350
C0EC
  3
ACAD_MATERIAL
350
C336
  3
ACAD_MLEADERSTYLE
350
C37D
  3
ACAD_MLINESTYLE
350
C0E9
  3
ACAD_PLOTSETTINGS
350
C0EB
  3
ACAD_PLOTSTYLENAME
350
C334
  3
ACAD_SCALELIST
350
C36B
  3
ACAD_SECTIONVIEWSTYLE
350
C37F
  3
ACAD_TABLESTYLE
350
C369
  3
ACAD_VISUALSTYLE
350
C34F
  3
ACDB_RECOMPOSE_DATA
350
C3EB
  3
AcDbVariableDictionary
350
C399
  3
DWGPROPS
350
C3EC
  0
DICTIONARY
  5
C389
330
C0E3
100
AcDbDictionary
280
     1
281
     1
  3
ADSK_XREC_LAYER_RECONCILED
360
C38A
  0
DICTIONARY
  5
C38B
330
C0F9
100
AcDbDictionary
280
     1
281
     1
  3
ADSK_XREC_LAYER_RECONCILED
360
C38C
  0
DICTIONARY
  5
C38D
330
C0FA
100
AcDbDictionary
280
     1
281
     1
  3
ADSK_XREC_LAYER_RECONCILED
360
C38E
  0
DICTIONARY
  5
C38F
330
C0FB
100
AcDbDictionary
280
     1
281
     1
  3
ADSK_XREC_LAYER_RECONCILED
360
C390
  0
DICTIONARY
  5
C391
330
C0FC
100
AcDbDictionary
280
     1
281
     1
  3
ADSK_XREC_LAYER_RECONCILED
360
C392
  0
DICTIONARY
  5
C393
330
C0FD
100
AcDbDictionary
280
     1
281
     1
  3
ADSK_XREC_LAYER_RECONCILED
360
C394
  0
DICTIONARY
  5
C395
330
C0FE
100
AcDbDictionary
280
     1
281
     1
  3
ADSK_XREC_LAYER_RECONCILED
360
C396
  0
DICTIONARY
  5
C397
330
C0FF
100
AcDbDictionary
280
     1
281
     1
  3
ADSK_XREC_LAYER_RECONCILED
360
C398
  0
DICTIONARY
  5
C32F
330
C0F1
100
AcDbDictionary
281
     1
  3
ACAD_LAYOUTSELFREF
350
C330
  0
DICTIONARY
  5
C32D
330
C0ED
100
AcDbDictionary
281
     1
  3
ACAD_LAYOUTSELFREF
350
C32E
  0
XRECORD
  5
C386
102
{ACAD_REACTORS
330
C0DF
102
}
330
C0DF
100
AcDbXrecord
280
     1
300
ACDLT
300
2014
300
ACDLT_F_S
  0
DICTIONARY
  5
C368
102
{ACAD_REACTORS
330
C0DF
102
}
330
C0DF
100
AcDbDictionary
281
     1
  0
DICTIONARY
  5
C381
102
{ACAD_REACTORS
330
C0DF
102
}
330
C0DF
100
AcDbDictionary
281
     1
  3
Imperial24
350
C382
  0
DICTIONARY
  5
C0E0
102
{ACAD_REACTORS
330
C0DF
102
}
330
C0DF
100
AcDbDictionary
281
     1
  0
DICTIONARY
  5
C0EC
102
{ACAD_REACTORS
330
C0DF
102
}
330
C0DF
100
AcDbDictionary
281
     1
  3
Model
350
C383
  3
レイアウト1
350
C384
  0
DICTIONARY
  5
C336
102
{ACAD_REACTORS
330
C0DF
102
}
330
C0DF
100
AcDbDictionary
281
     1
  3
ByBlock
350
C33F
  3
ByLayer
350
C337
  3
Global
350
C347
  0
DICTIONARY
  5
C37D
102
{ACAD_REACTORS
330
C0DF
102
}
330
C0DF
100
AcDbDictionary
281
     1
  3
Standard
350
C37E
  0
DICTIONARY
  5
C0E9
102
{ACAD_REACTORS
330
C0DF
102
}
330
C0DF
100
AcDbDictionary
281
     1
  3
STANDARD
350
C0EA
  0
DICTIONARY
  5
C0EB
102
{ACAD_REACTORS
330
C0DF
102
}
330
C0DF
100
AcDbDictionary
281
     1
  0
ACDBDICTIONARYWDFLT
  5
C334
102
{ACAD_REACTORS
330
C0DF
102
}
330
C0DF
100
AcDbDictionary
281
     1
  3
Normal
350
C335
100
AcDbDictionaryWithDefault
340
C335
  0
DICTIONARY
  5
C36B
102
{ACAD_REACTORS
330
C0DF
102
}
330
C0DF
100
AcDbDictionary
281
     1
  3
A0
350
C36C
  3
A1
350
C36D
  3
A2
350
C36E
  3
A3
350
C36F
  3
A4
350
C370
  3
A5
350
C371
  3
A6
350
C372
  3
A7
350
C373
  3
A8
350
C374
  3
A9
350
C375
  3
B0
350
C376
  3
B1
350
C377
  3
B2
350
C378
  3
B3
350
C379
  3
B4
350
C37A
  3
B5
350
C37B
  3
B6
350
C37C
  0
DICTIONARY
  5
C37F
102
{ACAD_REACTORS
330
C0DF
102
}
330
C0DF
100
AcDbDictionary
281
     1
  3
Imperial24
350
C380
  0
DICTIONARY
  5
C369
102
{ACAD_REACTORS
330
C0DF
102
}
330
C0DF
100
AcDbDictionary
281
     1
  3
Standard
350
C36A
  0
DICTIONARY
  5
C34F
102
{ACAD_REACTORS
330
C0DF
102
}
330
C0DF
100
AcDbDictionary
281
     1
  3
2dWireframe
350
C355
  3
Basic
350
C354
  3
Brighten
350
C35B
  3
ColorChange
350
C35F
  3
Conceptual
350
C358
  3
Dim
350
C35A
  3
EdgeColorOff
350
C367
  3
Facepattern
350
C35E
  3
Flat
350
C350
  3
FlatWithEdges
350
C351
  3
Gouraud
350
C352
  3
GouraudWithEdges
350
C353
  3
Hidden
350
C357
  3
JitterOff
350
C365
  3
Linepattern
350
C35D
  3
OverhangOff
350
C366
  3
Realistic
350
C359
  3
Shaded
350
C364
  3
Shaded with edges
350
C363
  3
Shades of Gray
350
C360
  3
Sketchy
350
C361
  3
Thicken
350
C35C
  3
Wireframe
350
C356
  3
X-Ray
350
C362
  0
XRECORD
  5
C3EB
102
{ACAD_REACTORS
330
C0DF
102
}
330
C0DF
100
AcDbXrecord
280
     1
 90
        1
330
C36A
  0
DICTIONARY
  5
C399
102
{ACAD_REACTORS
330
C0DF
102
}
330
C0DF
100
AcDbDictionary
281
     1
  3
CANNOSCALE
350
C39E
  3
CMLEADERSTYLE
350
C39B
  3
CTABLESTYLE
350
C39A
  3
CVIEWDETAILSTYLE
350
C39C
  3
CVIEWSECTIONSTYLE
350
C39D
  3
DIMASSOC
350
C3A1
  3
INDEXCTL
350
C3A0
  3
SORTENTS
350
C39F
  3
XCLIPFRAME
350
C3E9
  0
XRECORD
  5
C3EC
102
{ACAD_REACTORS
330
C0DF
102
}
330
C0DF
100
AcDbXrecord
280
     1
  1
DWGPROPS COOKIE
  2

  3

  4

  6

  7

  8
Yoshitsune
  9

300
=
301
=
302
=
303
=
304
=
305
=
306
=
307
=
308
=
309
=
 40
0.0027959143518519
 41
2451301.385220949
 42
2457192.692101227
  1

 90
        0
  0
XRECORD
  5
C38A
102
{ACAD_REACTORS
330
C389
102
}
330
C389
100
AcDbXrecord
280
     1
290
     1
  0
XRECORD
  5
C38C
102
{ACAD_REACTORS
330
C38B
102
}
330
C38B
100
AcDbXrecord
280
     1
290
     1
  0
XRECORD
  5
C38E
102
{ACAD_REACTORS
330
C38D
102
}
330
C38D
100
AcDbXrecord
280
     1
290
     1
  0
XRECORD
  5
C390
102
{ACAD_REACTORS
330
C38F
102
}
330
C38F
100
AcDbXrecord
280
     1
290
     1
  0
XRECORD
  5
C392
102
{ACAD_REACTORS
330
C391
102
}
330
C391
100
AcDbXrecord
280
     1
290
     1
  0
XRECORD
  5
C394
102
{ACAD_REACTORS
330
C393
102
}
330
C393
100
AcDbXrecord
280
     1
290
     1
  0
XRECORD
  5
C396
102
{ACAD_REACTORS
330
C395
102
}
330
C395
100
AcDbXrecord
280
     1
290
     1
  0
XRECORD
  5
C398
102
{ACAD_REACTORS
330
C397
102
}
330
C397
100
AcDbXrecord
280
     1
290
     1
  0
XRECORD
  5
C330
102
{ACAD_REACTORS
330
C32F
102
}
330
C32F
100
AcDbXrecord
280
     1
340
C0F1
  0
XRECORD
  5
C32E
102
{ACAD_REACTORS
330
C32D
102
}
330
C32D
100
AcDbXrecord
280
     1
340
C0ED
  0
ACDBDETAILVIEWSTYLE
  5
C382
102
{ACAD_XDICTIONARY
360
C420
102
}
102
{ACAD_REACTORS
330
C381
102
}
330
C381
100
AcDbModelDocViewStyle
 70
     0
  3
Imperial24
290
     0
100
AcDbDetailViewStyle
 70
     0
 71
     0
 90
        3
 71
     1
340
C0E4
 40
0.24
340
0
 40
0.24
300

 40
0.36
280
     3
 71
     2
340
C0E8
 90
       25
 71
     3
340
C0E4
 40
0.24
 90
        1
 40
0.75
 90
        1
300
%<\AcVar ViewType \f "%tc1">% %<\AcVar ViewDetailId>%\PSCALE %<\AcVar ViewScale \f "%sn">%
 71
     4
340
C0E8
 90
       25
340
C0E8
 90
       25
280
     0
  0
LAYOUT
  5
C383
102
{ACAD_XDICTIONARY
360
C422
102
}
102
{ACAD_REACTORS
330
C0EC
102
}
330
C0EC
100
AcDbPlotSettings
  1

  2
Canon LBP9100C
  4

  6

 40
0.0
 41
0.0
 42
0.0
 43
0.0
 44
0.0
 45
0.0
 46
0.0
 47
0.0
 48
0.0
 49
0.0
140
0.0
141
0.0
142
1.0
143
1.0
 70
  1712
 72
     0
 73
     0
 74
     0
  7

 75
     0
147
1.0
148
0.0
149
0.0
100
AcDbLayout
  1
Model
 70
     1
 71
     0
 10
0.0
 20
0.0
 11
12.0
 21
9.0
 12
0.0
 22
0.0
 32
0.0
 14
0.0
 24
0.0
 34
0.0
 15
0.0
 25
0.0
 35
0.0
146
0.0
 13
0.0
 23
0.0
 33
0.0
 16
1.0
 26
0.0
 36
0.0
 17
0.0
 27
1.0
 37
0.0
 76
     0
330
C0F1
331
C32C
  0
LAYOUT
  5
C384
102
{ACAD_XDICTIONARY
360
C424
102
}
102
{ACAD_REACTORS
330
C0EC
102
}
330
C0EC
100
AcDbPlotSettings
  1

  2
Canon LBP9100C
  4

  6

 40
0.0
 41
0.0
 42
0.0
 43
0.0
 44
0.0
 45
0.0
 46
0.0
 47
0.0
 48
0.0
 49
0.0
140
0.0
141
0.0
142
1.0
143
1.0
 70
   688
 72
     0
 73
     0
 74
     5
  7

 75
    16
147
1.0
148
0.0
149
0.0
100
AcDbLayout
  1
レイアウト1
 70
     0
 71
     1
 10
0.0
 20
0.0
 11
420.0
 21
297.0
 12
0.0
 22
0.0
 32
0.0
 14
1.000000000000000E+20
 24
1.000000000000000E+20
 34
1.000000000000000E+20
 15
-1.000000000000000E+20
 25
-1.000000000000000E+20
 35
-1.000000000000000E+20
146
0.0
 13
0.0
 23
0.0
 33
0.0
 16
1.0
 26
0.0
 36
0.0
 17
0.0
 27
1.0
 37
0.0
 76
     0
330
C0ED
  0
MATERIAL
  5
C33F
102
{ACAD_XDICTIONARY
360
C340
102
}
102
{ACAD_REACTORS
330
C336
102
}
330
C336
100
AcDbMaterial
  1
ByBlock
 72
     0
 43
0.0208333333333333
 43
0.0
 43
0.0
 43
0.0
 43
0.0
 43
0.0208333333333333
 43
0.0
 43
0.0
 43
0.0
 43
0.0
 43
1.0
 43
0.0
 43
0.0
 43
0.0
 43
0.0
 43
1.0
 77
     0
 47
0.0208333333333333
 47
0.0
 47
0.0
 47
0.0
 47
0.0
 47
0.0208333333333333
 47
0.0
 47
0.0
 47
0.0
 47
0.0
 47
1.0
 47
0.0
 47
0.0
 47
0.0
 47
0.0
 47
1.0
171
     0
 49
0.0208333333333333
 49
0.0
 49
0.0
 49
0.0
 49
0.0
 49
0.0208333333333333
 49
0.0
 49
0.0
 49
0.0
 49
0.0
 49
1.0
 49
0.0
 49
0.0
 49
0.0
 49
0.0
 49
1.0
175
     0
142
0.0208333333333333
142
0.0
142
0.0
142
0.0
142
0.0
142
0.0208333333333333
142
0.0
142
0.0
142
0.0
142
0.0
142
1.0
142
0.0
142
0.0
142
0.0
142
0.0
142
1.0
179
     0
144
0.0208333333333333
144
0.0
144
0.0
144
0.0
144
0.0
144
0.0208333333333333
144
0.0
144
0.0
144
0.0
144
0.0
144
1.0
144
0.0
144
0.0
144
0.0
144
0.0
144
1.0
147
0.0208333333333333
147
0.0
147
0.0
147
0.0
147
0.0
147
0.0208333333333333
147
0.0
147
0.0
147
0.0
147
0.0
147
1.0
147
0.0
147
0.0
147
0.0
147
0.0
147
1.0
  0
MATERIAL
  5
C337
102
{ACAD_XDICTIONARY
360
C338
102
}
102
{ACAD_REACTORS
330
C336
102
}
330
C336
100
AcDbMaterial
  1
ByLayer
 72
     0
 43
0.0208333333333333
 43
0.0
 43
0.0
 43
0.0
 43
0.0
 43
0.0208333333333333
 43
0.0
 43
0.0
 43
0.0
 43
0.0
 43
1.0
 43
0.0
 43
0.0
 43
0.0
 43
0.0
 43
1.0
 77
     0
 47
0.0208333333333333
 47
0.0
 47
0.0
 47
0.0
 47
0.0
 47
0.0208333333333333
 47
0.0
 47
0.0
 47
0.0
 47
0.0
 47
1.0
 47
0.0
 47
0.0
 47
0.0
 47
0.0
 47
1.0
171
     0
 49
0.0208333333333333
 49
0.0
 49
0.0
 49
0.0
 49
0.0
 49
0.0208333333333333
 49
0.0
 49
0.0
 49
0.0
 49
0.0
 49
1.0
 49
0.0
 49
0.0
 49
0.0
 49
0.0
 49
1.0
175
     0
142
0.0208333333333333
142
0.0
142
0.0
142
0.0
142
0.0
142
0.0208333333333333
142
0.0
142
0.0
142
0.0
142
0.0
142
1.0
142
0.0
142
0.0
142
0.0
142
0.0
142
1.0
179
     0
144
0.0208333333333333
144
0.0
144
0.0
144
0.0
144
0.0
144
0.0208333333333333
144
0.0
144
0.0
144
0.0
144
0.0
144
1.0
144
0.0
144
0.0
144
0.0
144
0.0
144
1.0
147
0.0208333333333333
147
0.0
147
0.0
147
0.0
147
0.0
147
0.0208333333333333
147
0.0
147
0.0
147
0.0
147
0.0
147
1.0
147
0.0
147
0.0
147
0.0
147
0.0
147
1.0
  0
MATERIAL
  5
C347
102
{ACAD_XDICTIONARY
360
C348
102
}
102
{ACAD_REACTORS
330
C336
102
}
330
C336
100
AcDbMaterial
  1
Global
 72
     0
 43
0.0208333333333333
 43
0.0
 43
0.0
 43
0.0
 43
0.0
 43
0.0208333333333333
 43
0.0
 43
0.0
 43
0.0
 43
0.0
 43
1.0
 43
0.0
 43
0.0
 43
0.0
 43
0.0
 43
1.0
 77
     0
 47
0.0208333333333333
 47
0.0
 47
0.0
 47
0.0
 47
0.0
 47
0.0208333333333333
 47
0.0
 47
0.0
 47
0.0
 47
0.0
 47
1.0
 47
0.0
 47
0.0
 47
0.0
 47
0.0
 47
1.0
171
     0
 49
0.0208333333333333
 49
0.0
 49
0.0
 49
0.0
 49
0.0
 49
0.0208333333333333
 49
0.0
 49
0.0
 49
0.0
 49
0.0
 49
1.0
 49
0.0
 49
0.0
 49
0.0
 49
0.0
 49
1.0
175
     0
142
0.0208333333333333
142
0.0
142
0.0
142
0.0
142
0.0
142
0.0208333333333333
142
0.0
142
0.0
142
0.0
142
0.0
142
1.0
142
0.0
142
0.0
142
0.0
142
0.0
142
1.0
179
     0
144
0.0208333333333333
144
0.0
144
0.0
144
0.0
144
0.0
144
0.0208333333333333
144
0.0
144
0.0
144
0.0
144
0.0
144
1.0
144
0.0
144
0.0
144
0.0
144
0.0
144
1.0
147
0.0208333333333333
147
0.0
147
0.0
147
0.0
147
0.0
147
0.0208333333333333
147
0.0
147
0.0
147
0.0
147
0.0
147
1.0
147
0.0
147
0.0
147
0.0
147
0.0
147
1.0
  0
MLEADERSTYLE
  5
C37E
102
{ACAD_REACTORS
330
C37D
102
}
330
C37D
100
AcDbMLeaderStyle
170
     2
171
     1
172
     0
 90
        2
 40
0.0
 41
0.0
173
     1
 91
-1056964608
340
C0E6
 92
       -2
290
     1
 42
0.09
291
     1
 43
0.36
  3
Standard
 44
0.18
300

342
C0E4
174
     1
178
     6
175
     1
176
     0
 93
-1056964608
 45
0.18
292
     0
297
     0
 46
0.18
 94
-1056964608
 47
1.0
 49
1.0
140
1.0
293
     1
141
0.0
294
     1
177
     0
142
1.0
295
     0
296
     0
143
0.125
1001
ACAD_MLEADERVER
1070
     2
  0
MLINESTYLE
  5
C0EA
102
{ACAD_REACTORS
330
C0E9
102
}
330
C0E9
100
AcDbMlineStyle
  2
STANDARD
 70
     0
  3

 62
   256
 51
90.0
 52
90.0
 71
     2
 49
0.5
 62
   256
  6
BYLAYER
 49
-0.5
 62
   256
  6
BYLAYER
  0
ACDBPLACEHOLDER
  5
C335
102
{ACAD_REACTORS
330
C334
102
}
330
C334
  0
SCALE
  5
C36C
102
{ACAD_REACTORS
330
C36B
102
}
330
C36B
100
AcDbScale
 70
     0
300
1:1
140
1.0
141
1.0
290
     1
  0
SCALE
  5
C36D
102
{ACAD_REACTORS
330
C36B
102
}
330
C36B
100
AcDbScale
 70
     0
300
1/128" = 1'-0"
140
0.0078125
141
12.0
290
     0
  0
SCALE
  5
C36E
102
{ACAD_REACTORS
330
C36B
102
}
330
C36B
100
AcDbScale
 70
     0
300
1/64" = 1'-0"
140
0.015625
141
12.0
290
     0
  0
SCALE
  5
C36F
102
{ACAD_REACTORS
330
C36B
102
}
330
C36B
100
AcDbScale
 70
     0
300
1/32" = 1'-0"
140
0.03125
141
12.0
290
     0
  0
SCALE
  5
C370
102
{ACAD_REACTORS
330
C36B
102
}
330
C36B
100
AcDbScale
 70
     0
300
1/16" = 1'-0"
140
0.0625
141
12.0
290
     0
  0
SCALE
  5
C371
102
{ACAD_REACTORS
330
C36B
102
}
330
C36B
100
AcDbScale
 70
     0
300
3/32" = 1'-0"
140
0.09375
141
12.0
290
     0
  0
SCALE
  5
C372
102
{ACAD_REACTORS
330
C36B
102
}
330
C36B
100
AcDbScale
 70
     0
300
1/8" = 1'-0"
140
0.125
141
12.0
290
     0
  0
SCALE
  5
C373
102
{ACAD_REACTORS
330
C36B
102
}
330
C36B
100
AcDbScale
 70
     0
300
3/16" = 1'-0"
140
0.1875
141
12.0
290
     0
  0
SCALE
  5
C374
102
{ACAD_REACTORS
330
C36B
102
}
330
C36B
100
AcDbScale
 70
     0
300
1/4" = 1'-0"
140
0.25
141
12.0
290
     0
  0
SCALE
  5
C375
102
{ACAD_REACTORS
330
C36B
102
}
330
C36B
100
AcDbScale
 70
     0
300
3/8" = 1'-0"
140
0.375
141
12.0
290
     0
  0
SCALE
  5
C376
102
{ACAD_REACTORS
330
C36B
102
}
330
C36B
100
AcDbScale
 70
     0
300
1/2" = 1'-0"
140
0.5
141
12.0
290
     0
  0
SCALE
  5
C377
102
{ACAD_REACTORS
330
C36B
102
}
330
C36B
100
AcDbScale
 70
     0
300
3/4" = 1'-0"
140
0.75
141
12.0
290
     0
  0
SCALE
  5
C378
102
{ACAD_REACTORS
330
C36B
102
}
330
C36B
100
AcDbScale
 70
     0
300
1" = 1'-0"
140
1.0
141
12.0
290
     0
  0
SCALE
  5
C379
102
{ACAD_REACTORS
330
C36B
102
}
330
C36B
100
AcDbScale
 70
     0
300
1-1/2" = 1'-0"
140
1.5
141
12.0
290
     0
  0
SCALE
  5
C37A
102
{ACAD_REACTORS
330
C36B
102
}
330
C36B
100
AcDbScale
 70
     0
300
3" = 1'-0"
140
3.0
141
12.0
290
     0
  0
SCALE
  5
C37B
102
{ACAD_REACTORS
330
C36B
102
}
330
C36B
100
AcDbScale
 70
     0
300
6" = 1'-0"
140
6.0
141
12.0
290
     0
  0
SCALE
  5
C37C
102
{ACAD_REACTORS
330
C36B
102
}
330
C36B
100
AcDbScale
 70
     0
300
1'-0" = 1'-0"
140
12.0
141
12.0
290
     0
  0
ACDBSECTIONVIEWSTYLE
  5
C380
102
{ACAD_XDICTIONARY
360
C41E
102
}
102
{ACAD_REACTORS
330
C37F
102
}
330
C37F
100
AcDbModelDocViewStyle
 70
     0
  3
Imperial24
290
     0
100
AcDbSectionViewStyle
 70
     0
 71
     0
 90
       78
 71
     1
340
C0E4
 40
0.24
340
0
340
0
 40
0.24
300
I, O, Q, S, X, Z
 40
0.48
 90
        3
 40
0.18
 90
        1
 71
     2
340
C0E8
 90
       25
340
C0E8
 90
       50
 40
0.24
 40
0.0
 40
0.24
 71
     3
340
C0E4
 40
0.24
 90
        1
 40
0.75
 90
        1
300
%<\AcVar ViewType \f "%tc1">% %<\AcVar ViewSectionStartId>%-%<\AcVar ViewSectionEndId>%\PSCALE %<\AcVar ViewScale \f "%sn">%
 71
     4
300
ANSI31
 40
1.0
 90
        0
290
     0
290
     0
 90
        6
 40
0.0
 40
1.570796326794896
 40
0.2617993877991494
 40
1.308996938995747
 40
-0.2617993877991494
 40
1.832595714594045
  0
TABLESTYLE
  5
C36A
102
{ACAD_XDICTIONARY
360
C3A4
102
}
102
{ACAD_REACTORS
330
C369
102
}
330
C369
100
AcDbTableStyle
  3
Standard
 70
     0
 71
     0
 40
0.06
 41
0.06
280
     0
281
     0
  7
STANDARD
140
0.18
170
     2
 62
     0
 63
     7
283
     0
274
    -2
284
     1
 64
     0
275
    -2
285
     1
 65
     0
276
    -2
286
     1
 66
     0
277
    -2
287
     1
 67
     0
278
    -2
288
     1
 68
     0
279
    -2
289
     1
 69
     0
  7
STANDARD
140
0.25
170
     5
 62
     0
 63
     7
283
     0
274
    -2
284
     1
 64
     0
275
    -2
285
     1
 65
     0
276
    -2
286
     1
 66
     0
277
    -2
287
     1
 67
     0
278
    -2
288
     1
 68
     0
279
    -2
289
     1
 69
     0
  7
STANDARD
140
0.18
170
     5
 62
     0
 63
     7
283
     0
274
    -2
284
     1
 64
     0
275
    -2
285
     1
 65
     0
276
    -2
286
     1
 66
     0
277
    -2
287
     1
 67
     0
278
    -2
288
     1
 68
     0
279
    -2
289
     1
 69
     0
  0
VISUALSTYLE
  5
C355
102
{ACAD_XDICTIONARY
360
C3F7
102
}
102
{ACAD_REACTORS
330
C34F
102
}
330
C34F
100
AcDbVisualStyle
  2

 70
     4
 71
     0
 72
     2
 73
     0
 90
        0
 40
-0.6
 41
-30.0
 62
     5
 63
     7
 74
     1
 91
        4
 64
     7
 65
   257
 75
     1
175
     1
 42
1.0
 92
        0
 66
   257
 43
1.0
 76
     1
 77
     6
 78
     2
 67
     7
 79
     5
170
     0
171
     0
290
     0
174
     0
 93
        1
 44
0.0
173
     0
291
     0
 45
0.0
1001
ACAD
1000
AcDbSavedByObjectVersion
1070
     0
  0
VISUALSTYLE
  5
C354
102
{ACAD_XDICTIONARY
360
C3F5
102
}
102
{ACAD_REACTORS
330
C34F
102
}
330
C34F
100
AcDbVisualStyle
  2

 70
     7
 71
     1
 72
     0
 73
     1
 90
        0
 40
-0.6
 41
-30.0
 62
     5
 63
     7
 74
     0
 91
        4
 64
     7
 65
   257
 75
     1
175
     1
 42
1.0
 92
        8
 66
     7
 43
1.0
 76
     1
 77
     6
 78
     2
 67
     7
 79
     5
170
     0
171
     0
290
     0
174
     0
 93
        1
 44
0.0
173
     0
291
     1
 45
0.0
1001
ACAD
1000
AcDbSavedByObjectVersion
1070
     0
  0
VISUALSTYLE
  5
C35B
102
{ACAD_XDICTIONARY
360
C403
102
}
102
{ACAD_REACTORS
330
C34F
102
}
330
C34F
100
AcDbVisualStyle
  2

 70
    12
 71
     2
 72
     2
 73
     0
 90
        0
 40
-0.6
 41
-30.0
 62
     5
 63
     7
 74
     1
 91
        4
 64
     7
 65
   257
 75
     1
175
     1
 42
1.0
 92
        8
 66
     7
 43
1.0
 76
     1
 77
     6
 78
     2
 67
     7
 79
     5
170
     0
171
     0
290
     0
174
     0
 93
        1
 44
50.0
173
     0
291
     1
 45
0.0
1001
ACAD
1000
AcDbSavedByObjectVersion
1070
     0
  0
VISUALSTYLE
  5
C35F
102
{ACAD_XDICTIONARY
360
C40B
102
}
102
{ACAD_REACTORS
330
C34F
102
}
330
C34F
100
AcDbVisualStyle
  2

 70
    16
 71
     2
 72
     2
 73
     3
 90
        0
 40
-0.6
 41
-30.0
 62
     5
 63
     8
 74
     1
 91
        4
 64
     7
 65
   257
 75
     1
175
     1
 42
1.0
 92
        8
 66
     8
 43
1.0
 76
     1
 77
     6
 78
     2
 67
     7
 79
     5
170
     0
171
     0
290
     0
174
     0
 93
        1
 44
0.0
173
     0
291
     1
 45
0.0
1001
ACAD
1000
AcDbSavedByObjectVersion
1070
     0
  0
VISUALSTYLE
  5
C358
102
{ACAD_XDICTIONARY
360
C3FD
102
}
102
{ACAD_REACTORS
330
C34F
102
}
330
C34F
100
AcDbVisualStyle
  2

 70
     9
 71
     3
 72
     2
 73
     0
 90
        0
 40
-0.6
 41
-30.0
 62
     5
 63
     7
 74
     2
 91
        2
 64
     7
 65
   257
 75
     1
175
     1
 42
179.0
 92
        8
 66
     7
 43
1.0
 76
     1
 77
     6
 78
     2
 67
     7
 79
     3
170
     0
171
     0
290
     0
174
     0
 93
        1
 44
0.0
173
     0
291
     0
 45
0.0
1001
ACAD
1000
AcDbSavedByObjectVersion
1070
     0
  0
VISUALSTYLE
  5
C35A
102
{ACAD_XDICTIONARY
360
C401
102
}
102
{ACAD_REACTORS
330
C34F
102
}
330
C34F
100
AcDbVisualStyle
  2

 70
    11
 71
     2
 72
     2
 73
     0
 90
        0
 40
-0.6
 41
-30.0
 62
     5
 63
     7
 74
     1
 91
        4
 64
     7
 65
   257
 75
     1
175
     1
 42
1.0
 92
        8
 66
     7
 43
1.0
 76
     1
 77
     6
 78
     2
 67
     7
 79
     5
170
     0
171
     0
290
     0
174
     0
 93
        1
 44
-50.0
173
     0
291
     1
 45
0.0
1001
ACAD
1000
AcDbSavedByObjectVersion
1070
     0
  0
VISUALSTYLE
  5
C367
102
{ACAD_XDICTIONARY
360
C41B
102
}
102
{ACAD_REACTORS
330
C34F
102
}
330
C34F
100
AcDbVisualStyle
  2

 70
    22
 71
     2
 72
     2
 73
     0
 90
        0
 40
-0.6
 41
-30.0
 62
     5
 63
     7
 74
     1
 91
        4
 64
     7
 65
   257
 75
     1
175
     1
 42
1.0
 92
        8
 66
     7
 43
1.0
 76
     1
 77
     6
 78
     2
 67
     7
 79
     5
170
     0
171
     0
290
     0
174
     0
 93
        1
 44
0.0
173
     0
291
     1
 45
0.0
1001
ACAD
1000
AcDbSavedByObjectVersion
1070
     0
  0
VISUALSTYLE
  5
C35E
102
{ACAD_XDICTIONARY
360
C409
102
}
102
{ACAD_REACTORS
330
C34F
102
}
330
C34F
100
AcDbVisualStyle
  2

 70
    15
 71
     2
 72
     2
 73
     0
 90
        0
 40
-0.6
 41
-30.0
 62
     5
 63
     7
 74
     1
 91
        4
 64
     7
 65
   257
 75
     1
175
     1
 42
1.0
 92
        8
 66
     7
 43
1.0
 76
     1
 77
     6
 78
     2
 67
     7
 79
     5
170
     0
171
     0
290
     0
174
     0
 93
        1
 44
0.0
173
     0
291
     1
 45
0.0
1001
ACAD
1000
AcDbSavedByObjectVersion
1070
     0
  0
VISUALSTYLE
  5
C350
102
{ACAD_XDICTIONARY
360
C3ED
102
}
102
{ACAD_REACTORS
330
C34F
102
}
330
C34F
100
AcDbVisualStyle
  2

 70
     0
 71
     2
 72
     1
 73
     1
 90
        2
 40
-0.6
 41
30.0
 62
     5
 63
     7
 74
     0
 91
        0
 64
     7
 65
   257
 75
     1
175
     1
 42
1.0
 92
        8
 66
     7
 43
1.0
 76
     1
 77
     6
 78
     2
 67
     7
 79
     5
170
     0
171
     0
290
     0
174
     0
 93
       13
 44
0.0
173
     0
291
     1
 45
0.0
1001
ACAD
1000
AcDbSavedByObjectVersion
1070
     0
  0
VISUALSTYLE
  5
C351
102
{ACAD_XDICTIONARY
360
C3EF
102
}
102
{ACAD_REACTORS
330
C34F
102
}
330
C34F
100
AcDbVisualStyle
  2

 70
     1
 71
     2
 72
     1
 73
     1
 90
        2
 40
-0.6
 41
30.0
 62
     5
 63
     7
 74
     1
 91
        0
 64
     7
 65
   257
 75
     1
175
     1
 42
1.0
 92
        0
 66
   257
 43
1.0
 76
     1
 77
     6
 78
     2
 67
     7
 79
     5
170
     0
171
     0
290
     0
174
     0
 93
       13
 44
0.0
173
     0
291
     1
 45
0.0
1001
ACAD
1000
AcDbSavedByObjectVersion
1070
     0
  0
VISUALSTYLE
  5
C352
102
{ACAD_XDICTIONARY
360
C3F1
102
}
102
{ACAD_REACTORS
330
C34F
102
}
330
C34F
100
AcDbVisualStyle
  2

 70
     2
 71
     2
 72
     2
 73
     1
 90
        2
 40
-0.6
 41
30.0
 62
     5
 63
     7
 74
     0
 91
        0
 64
     7
 65
   257
 75
     1
175
     1
 42
1.0
 92
        0
 66
     7
 43
1.0
 76
     1
 77
     6
 78
     2
 67
     7
 79
     5
170
     0
171
     0
290
     0
174
     0
 93
       13
 44
0.0
173
     0
291
     1
 45
0.0
1001
ACAD
1000
AcDbSavedByObjectVersion
1070
     0
  0
VISUALSTYLE
  5
C353
102
{ACAD_XDICTIONARY
360
C3F3
102
}
102
{ACAD_REACTORS
330
C34F
102
}
330
C34F
100
AcDbVisualStyle
  2

 70
     3
 71
     2
 72
     2
 73
     1
 90
        2
 40
-0.6
 41
30.0
 62
     5
 63
     7
 74
     1
 91
        0
 64
     7
 65
   257
 75
     1
175
     1
 42
1.0
 92
        0
 66
   257
 43
1.0
 76
     1
 77
     6
 78
     2
 67
     7
 79
     5
170
     0
171
     0
290
     0
174
     0
 93
       13
 44
0.0
173
     0
291
     1
 45
0.0
1001
ACAD
1000
AcDbSavedByObjectVersion
1070
     0
  0
VISUALSTYLE
  5
C357
102
{ACAD_XDICTIONARY
360
C3FB
102
}
102
{ACAD_REACTORS
330
C34F
102
}
330
C34F
100
AcDbVisualStyle
  2

 70
     6
 71
     1
 72
     2
 73
     2
 90
        0
 40
-0.6
 41
-30.0
 62
     5
 63
     7
 74
     2
 91
        2
 64
     7
 65
   257
 75
     2
175
     1
 42
40.0
 92
        0
 66
   257
 43
1.0
 76
     1
 77
     6
 78
     2
 67
     7
 79
     3
170
     0
171
     0
290
     0
174
     0
 93
        1
 44
0.0
173
     0
291
     0
 45
0.0
1001
ACAD
1000
AcDbSavedByObjectVersion
1070
     0
  0
VISUALSTYLE
  5
C365
102
{ACAD_XDICTIONARY
360
C417
102
}
102
{ACAD_REACTORS
330
C34F
102
}
330
C34F
100
AcDbVisualStyle
  2

 70
    20
 71
     2
 72
     2
 73
     0
 90
        0
 40
-0.6
 41
-30.0
 62
     5
 63
     7
 74
     1
 91
        4
 64
     7
 65
   257
 75
     1
175
     1
 42
1.0
 92
       10
 66
     7
 43
1.0
 76
     1
 77
     6
 78
     2
 67
     7
 79
     5
170
     0
171
     0
290
     0
174
     0
 93
        1
 44
0.0
173
     0
291
     1
 45
0.0
1001
ACAD
1000
AcDbSavedByObjectVersion
1070
     0
  0
VISUALSTYLE
  5
C35D
102
{ACAD_XDICTIONARY
360
C407
102
}
102
{ACAD_REACTORS
330
C34F
102
}
330
C34F
100
AcDbVisualStyle
  2

 70
    14
 71
     2
 72
     2
 73
     0
 90
        0
 40
-0.6
 41
-30.0
 62
     5
 63
     7
 74
     1
 91
        4
 64
     7
 65
   257
 75
     7
175
     7
 42
1.0
 92
        8
 66
     7
 43
1.0
 76
     1
 77
     6
 78
     2
 67
     7
 79
     5
170
     0
171
     0
290
     0
174
     0
 93
        1
 44
0.0
173
     0
291
     1
 45
0.0
1001
ACAD
1000
AcDbSavedByObjectVersion
1070
     0
  0
VISUALSTYLE
  5
C366
102
{ACAD_XDICTIONARY
360
C419
102
}
102
{ACAD_REACTORS
330
C34F
102
}
330
C34F
100
AcDbVisualStyle
  2

 70
    21
 71
     2
 72
     2
 73
     0
 90
        0
 40
-0.6
 41
-30.0
 62
     5
 63
     7
 74
     1
 91
        4
 64
     7
 65
   257
 75
     1
175
     1
 42
1.0
 92
        9
 66
     7
 43
1.0
 76
     1
 77
     6
 78
     2
 67
     7
 79
     5
170
     0
171
     0
290
     0
174
     0
 93
        1
 44
0.0
173
     0
291
     1
 45
0.0
1001
ACAD
1000
AcDbSavedByObjectVersion
1070
     0
  0
VISUALSTYLE
  5
C359
102
{ACAD_XDICTIONARY
360
C3FF
102
}
102
{ACAD_REACTORS
330
C34F
102
}
330
C34F
100
AcDbVisualStyle
  2

 70
     8
 71
     2
 72
     3
 73
     0
 90
        2
 40
-0.6
 41
30.0
 62
     5
 63
     7
 74
     0
 91
        0
 64
     7
 65
   257
 75
     1
175
     1
 42
1.0
 92
        8
 66
   257
 43
1.0
 76
     1
 77
     6
 78
     2
 67
     7
 79
     3
170
     0
171
     0
290
     0
174
     0
 93
       13
 44
0.0
173
     0
291
     0
 45
0.0
1001
ACAD
1000
AcDbSavedByObjectVersion
1070
     0
  0
VISUALSTYLE
  5
C364
102
{ACAD_XDICTIONARY
360
C415
102
}
102
{ACAD_REACTORS
330
C34F
102
}
330
C34F
100
AcDbVisualStyle
  2

 70
    27
 71
     2
 72
     2
 73
     1
 90
        2
 40
-0.6
 41
30.0
 62
     5
 63
     7
 74
     0
 91
        4
 64
     7
 65
   257
 75
     1
175
     1
 42
1.0
 92
        8
 66
   257
 43
1.0
 76
     1
 77
     6
 78
     2
 67
     8
 79
     3
170
     0
171
     0
290
     0
174
     0
 93
        5
 44
0.0
173
     0
291
     0
 45
0.0
1001
ACAD
1000
AcDbSavedByObjectVersion
1070
     0
  0
VISUALSTYLE
  5
C363
102
{ACAD_XDICTIONARY
360
C413
102
}
102
{ACAD_REACTORS
330
C34F
102
}
330
C34F
100
AcDbVisualStyle
  2

 70
    26
 71
     2
 72
     2
 73
     1
 90
        2
 40
-0.6
 41
30.0
 62
     5
 63
     7
 74
     1
 91
       10
 64
     7
 65
   257
 75
     2
175
     1
 42
1.0
 92
        8
 66
   257
 43
1.0
 76
     1
 77
     6
 78
     2
 67
     7
 79
     3
170
     0
171
     0
290
     0
174
     0
 93
        5
 44
0.0
173
     0
291
     0
 45
0.0
1001
ACAD
1000
AcDbSavedByObjectVersion
1070
     0
  0
VISUALSTYLE
  5
C360
102
{ACAD_XDICTIONARY
360
C40D
102
}
102
{ACAD_REACTORS
330
C34F
102
}
330
C34F
100
AcDbVisualStyle
  2

 70
    23
 71
     2
 72
     2
 73
     3
 90
        0
 40
-0.6
 41
-30.0
 62
     5
 63
     7
 74
     2
 91
        2
 64
     7
 65
     7
 75
     1
175
     1
 42
40.0
 92
        8
 66
     7
 43
1.0
 76
     1
 77
     6
 78
     2
 67
     7
 79
     3
170
     0
171
     0
290
     0
174
     0
 93
        1
 44
0.0
173
     0
291
     0
 45
0.0
1001
ACAD
1000
AcDbSavedByObjectVersion
1070
     0
  0
VISUALSTYLE
  5
C361
102
{ACAD_XDICTIONARY
360
C40F
102
}
102
{ACAD_REACTORS
330
C34F
102
}
330
C34F
100
AcDbVisualStyle
  2

 70
    24
 71
     1
 72
     2
 73
     2
 90
        0
 40
-0.6
 41
-30.0
 62
     5
 63
     7
 74
     2
 91
        2
 64
     7
 65
     7
 75
     1
175
     1
 42
40.0
 92
       11
 66
     7
 43
1.0
 76
     1
 77
     6
 78
     2
 67
     7
 79
     6
170
     0
171
     0
290
     0
174
     0
 93
        1
 44
0.0
173
     0
291
     0
 45
0.0
1001
ACAD
1000
AcDbSavedByObjectVersion
1070
     0
  0
VISUALSTYLE
  5
C35C
102
{ACAD_XDICTIONARY
360
C405
102
}
102
{ACAD_REACTORS
330
C34F
102
}
330
C34F
100
AcDbVisualStyle
  2

 70
    13
 71
     2
 72
     2
 73
     0
 90
        0
 40
-0.6
 41
-30.0
 62
     5
 63
     7
 74
     1
 91
        4
 64
     7
 65
   257
 75
     1
175
     1
 42
1.0
 92
       12
 66
     7
 43
1.0
 76
     1
 77
     6
 78
     2
 67
     7
 79
     5
170
     0
171
     0
290
     0
174
     0
 93
        1
 44
0.0
173
     0
291
     1
 45
0.0
1001
ACAD
1000
AcDbSavedByObjectVersion
1070
     0
  0
VISUALSTYLE
  5
C356
102
{ACAD_XDICTIONARY
360
C3F9
102
}
102
{ACAD_REACTORS
330
C34F
102
}
330
C34F
100
AcDbVisualStyle
  2

 70
     5
 71
     0
 72
     2
 73
     0
 90
        0
 40
-0.6
 41
-30.0
 62
     5
 63
     7
 74
     1
 91
        4
 64
     7
 65
   257
 75
     1
175
     1
 42
1.0
 92
        0
 66
   257
 43
1.0
 76
     1
 77
     6
 78
     2
 67
     7
 79
     3
170
     0
171
     0
290
     0
174
     0
 93
        1
 44
0.0
173
     0
291
     0
 45
0.0
1001
ACAD
1000
AcDbSavedByObjectVersion
1070
     0
  0
VISUALSTYLE
  5
C362
102
{ACAD_XDICTIONARY
360
C411
102
}
102
{ACAD_REACTORS
330
C34F
102
}
330
C34F
100
AcDbVisualStyle
  2

 70
    25
 71
     2
 72
     2
 73
     1
 90
        1
 40
0.5
 41
-30.0
 62
     5
 63
     7
 74
     1
 91
        0
 64
     7
 65
   257
 75
     1
175
     1
 42
1.0
 92
        8
 66
     7
 43
1.0
 76
     1
 77
     6
 78
     2
 67
     7
 79
     3
170
     0
171
     0
290
     0
174
     0
 93
       13
 44
0.0
173
     0
291
     0
 45
0.0
1001
ACAD
1000
AcDbSavedByObjectVersion
1070
     0
  0
DICTIONARYVAR
  5
C39E
102
{ACAD_REACTORS
330
C399
102
}
330
C399
100
DictionaryVariables
280
     0
  1
1:1
  0
DICTIONARYVAR
  5
C39B
102
{ACAD_REACTORS
330
C399
102
}
330
C399
100
DictionaryVariables
280
     0
  1
STANDARD
  0
DICTIONARYVAR
  5
C39A
102
{ACAD_REACTORS
330
C399
102
}
330
C399
100
DictionaryVariables
280
     0
  1
STANDARD
  0
DICTIONARYVAR
  5
C39C
102
{ACAD_REACTORS
330
C399
102
}
330
C399
100
DictionaryVariables
280
     0
  1
Imperial24
  0
DICTIONARYVAR
  5
C39D
102
{ACAD_REACTORS
330
C399
102
}
330
C399
100
DictionaryVariables
280
     0
  1
Imperial24
  0
DICTIONARYVAR
  5
C3A1
102
{ACAD_REACTORS
330
C399
102
}
330
C399
100
DictionaryVariables
280
     0
  1
1
  0
DICTIONARYVAR
  5
C3A0
102
{ACAD_REACTORS
330
C399
102
}
330
C399
100
DictionaryVariables
280
     0
  1
0
  0
DICTIONARYVAR
  5
C39F
102
{ACAD_REACTORS
330
C399
102
}
330
C399
100
DictionaryVariables
280
     0
  1
127
  0
DICTIONARYVAR
  5
C3E9
102
{ACAD_REACTORS
330
C399
102
}
330
C399
100
DictionaryVariables
280
     0
  1
2
  0
DICTIONARY
  5
C420
330
C382
100
AcDbDictionary
280
     1
281
     1
  3
ACAD_XREC_ROUNDTRIP
360
C421
  0
DICTIONARY
  5
C422
330
C383
100
AcDbDictionary
280
     1
281
     1
  3
ACAD_XREC_ROUNDTRIP
360
C423
  0
DICTIONARY
  5
C424
330
C384
100
AcDbDictionary
280
     1
281
     1
  3
ACAD_XREC_ROUNDTRIP
360
C425
  0
DICTIONARY
  5
C340
330
C33F
100
AcDbDictionary
280
     1
281
     1
  3
ACAD_XREC_ROUNDTRIP
360
C3A9
  3
BUMPTILE
360
C342
  3
DIFFUSETILE
360
C341
  3
OPACITYTILE
360
C345
  3
REFLECTIONTILE
360
C344
  3
REFRACTIONTILE
360
C346
  3
SPECULARTILE
360
C343
  0
DICTIONARY
  5
C338
330
C337
100
AcDbDictionary
280
     1
281
     1
  3
ACAD_XREC_ROUNDTRIP
360
C3A8
  3
BUMPTILE
360
C33A
  3
DIFFUSETILE
360
C339
  3
OPACITYTILE
360
C33D
  3
REFLECTIONTILE
360
C33C
  3
REFRACTIONTILE
360
C33E
  3
SPECULARTILE
360
C33B
  0
DICTIONARY
  5
C348
330
C347
100
AcDbDictionary
280
     1
281
     1
  3
ACAD_XREC_ROUNDTRIP
360
C3AA
  3
BUMPTILE
360
C34A
  3
DIFFUSETILE
360
C349
  3
OPACITYTILE
360
C34D
  3
REFLECTIONTILE
360
C34C
  3
REFRACTIONTILE
360
C34E
  3
SPECULARTILE
360
C34B
  0
DICTIONARY
  5
C41E
330
C380
100
AcDbDictionary
280
     1
281
     1
  3
ACAD_XREC_ROUNDTRIP
360
C41F
  0
DICTIONARY
  5
C3A4
330
C36A
100
AcDbDictionary
280
     1
281
     1
  3
ACAD_ROUNDTRIP_2008_TABLESTYLE_CELLSTYLEMAP
360
C3EA
  3
ACAD_XREC_ROUNDTRIP
360
C41D
  0
DICTIONARY
  5
C3F7
330
C355
100
AcDbDictionary
280
     1
281
     1
  3
ACAD_XREC_ROUNDTRIP
360
C3F8
  0
DICTIONARY
  5
C3F5
330
C354
100
AcDbDictionary
280
     1
281
     1
  3
ACAD_XREC_ROUNDTRIP
360
C3F6
  0
DICTIONARY
  5
C403
330
C35B
100
AcDbDictionary
280
     1
281
     1
  3
ACAD_XREC_ROUNDTRIP
360
C404
  0
DICTIONARY
  5
C40B
330
C35F
100
AcDbDictionary
280
     1
281
     1
  3
ACAD_XREC_ROUNDTRIP
360
C40C
  0
DICTIONARY
  5
C3FD
330
C358
100
AcDbDictionary
280
     1
281
     1
  3
ACAD_XREC_ROUNDTRIP
360
C3FE
  0
DICTIONARY
  5
C401
330
C35A
100
AcDbDictionary
280
     1
281
     1
  3
ACAD_XREC_ROUNDTRIP
360
C402
  0
DICTIONARY
  5
C41B
330
C367
100
AcDbDictionary
280
     1
281
     1
  3
ACAD_XREC_ROUNDTRIP
360
C41C
  0
DICTIONARY
  5
C409
330
C35E
100
AcDbDictionary
280
     1
281
     1
  3
ACAD_XREC_ROUNDTRIP
360
C40A
  0
DICTIONARY
  5
C3ED
330
C350
100
AcDbDictionary
280
     1
281
     1
  3
ACAD_XREC_ROUNDTRIP
360
C3EE
  0
DICTIONARY
  5
C3EF
330
C351
100
AcDbDictionary
280
     1
281
     1
  3
ACAD_XREC_ROUNDTRIP
360
C3F0
  0
DICTIONARY
  5
C3F1
330
C352
100
AcDbDictionary
280
     1
281
     1
  3
ACAD_XREC_ROUNDTRIP
360
C3F2
  0
DICTIONARY
  5
C3F3
330
C353
100
AcDbDictionary
280
     1
281
     1
  3
ACAD_XREC_ROUNDTRIP
360
C3F4
  0
DICTIONARY
  5
C3FB
330
C357
100
AcDbDictionary
280
     1
281
     1
  3
ACAD_XREC_ROUNDTRIP
360
C3FC
  0
DICTIONARY
  5
C417
330
C365
100
AcDbDictionary
280
     1
281
     1
  3
ACAD_XREC_ROUNDTRIP
360
C418
  0
DICTIONARY
  5
C407
330
C35D
100
AcDbDictionary
280
     1
281
     1
  3
ACAD_XREC_ROUNDTRIP
360
C408
  0
DICTIONARY
  5
C419
330
C366
100
AcDbDictionary
280
     1
281
     1
  3
ACAD_XREC_ROUNDTRIP
360
C41A
  0
DICTIONARY
  5
C3FF
330
C359
100
AcDbDictionary
280
     1
281
     1
  3
ACAD_XREC_ROUNDTRIP
360
C400
  0
DICTIONARY
  5
C415
330
C364
100
AcDbDictionary
280
     1
281
     1
  3
ACAD_XREC_ROUNDTRIP
360
C416
  0
DICTIONARY
  5
C413
330
C363
100
AcDbDictionary
280
     1
281
     1
  3
ACAD_XREC_ROUNDTRIP
360
C414
  0
DICTIONARY
  5
C40D
330
C360
100
AcDbDictionary
280
     1
281
     1
  3
ACAD_XREC_ROUNDTRIP
360
C40E
  0
DICTIONARY
  5
C40F
330
C361
100
AcDbDictionary
280
     1
281
     1
  3
ACAD_XREC_ROUNDTRIP
360
C410
  0
DICTIONARY
  5
C405
330
C35C
100
AcDbDictionary
280
     1
281
     1
  3
ACAD_XREC_ROUNDTRIP
360
C406
  0
DICTIONARY
  5
C3F9
330
C356
100
AcDbDictionary
280
     1
281
     1
  3
ACAD_XREC_ROUNDTRIP
360
C3FA
  0
DICTIONARY
  5
C411
330
C362
100
AcDbDictionary
280
     1
281
     1
  3
ACAD_XREC_ROUNDTRIP
360
C412
  0
XRECORD
  5
C421
102
{ACAD_REACTORS
330
C420
102
}
330
C420
100
AcDbXrecord
280
     1
102
DISPLAYNAME
  1
Imperial24
102
FLAGS
 90
        0
  0
XRECORD
  5
C423
102
{ACAD_REACTORS
330
C422
102
}
330
C422
100
AcDbXrecord
280
     1
102
SHADEPLOT
 70
     0
102
SHADEPLOTRESLEVEL
 70
     2
102
SHADEPLOTCUSTOMDPI
 70
   300
  0
XRECORD
  5
C425
102
{ACAD_REACTORS
330
C424
102
}
330
C424
100
AcDbXrecord
280
     1
102
SHADEPLOT
 70
     0
102
SHADEPLOTRESLEVEL
 70
     2
102
SHADEPLOTCUSTOMDPI
 70
   300
  0
XRECORD
  5
C3A9
102
{ACAD_REACTORS
330
C340
102
}
330
C340
100
AcDbXrecord
280
     1
102
MATERIAL
148
0.0
149
0.0
149
0.0
 93
        0
 94
      127
282
     0
 72
     0
 77
     0
171
     0
175
     0
179
     0
273
     0
  0
XRECORD
  5
C342
102
{ACAD_REACTORS
330
C340
102
}
330
C340
100
AcDbXrecord
280
     1
270
     1
271
     1
  0
XRECORD
  5
C341
102
{ACAD_REACTORS
330
C340
102
}
330
C340
100
AcDbXrecord
280
     1
270
     1
271
     1
  0
XRECORD
  5
C345
102
{ACAD_REACTORS
330
C340
102
}
330
C340
100
AcDbXrecord
280
     1
270
     1
271
     1
  0
XRECORD
  5
C344
102
{ACAD_REACTORS
330
C340
102
}
330
C340
100
AcDbXrecord
280
     1
270
     1
271
     1
  0
XRECORD
  5
C346
102
{ACAD_REACTORS
330
C340
102
}
330
C340
100
AcDbXrecord
280
     1
270
     1
271
     1
  0
XRECORD
  5
C343
102
{ACAD_REACTORS
330
C340
102
}
330
C340
100
AcDbXrecord
280
     1
270
     1
271
     1
  0
XRECORD
  5
C3A8
102
{ACAD_REACTORS
330
C338
102
}
330
C338
100
AcDbXrecord
280
     1
102
MATERIAL
148
0.0
149
0.0
149
0.0
 93
        0
 94
      127
282
     0
 72
     0
 77
     0
171
     0
175
     0
179
     0
273
     0
  0
XRECORD
  5
C33A
102
{ACAD_REACTORS
330
C338
102
}
330
C338
100
AcDbXrecord
280
     1
270
     1
271
     1
  0
XRECORD
  5
C339
102
{ACAD_REACTORS
330
C338
102
}
330
C338
100
AcDbXrecord
280
     1
270
     1
271
     1
  0
XRECORD
  5
C33D
102
{ACAD_REACTORS
330
C338
102
}
330
C338
100
AcDbXrecord
280
     1
270
     1
271
     1
  0
XRECORD
  5
C33C
102
{ACAD_REACTORS
330
C338
102
}
330
C338
100
AcDbXrecord
280
     1
270
     1
271
     1
  0
XRECORD
  5
C33E
102
{ACAD_REACTORS
330
C338
102
}
330
C338
100
AcDbXrecord
280
     1
270
     1
271
     1
  0
XRECORD
  5
C33B
102
{ACAD_REACTORS
330
C338
102
}
330
C338
100
AcDbXrecord
280
     1
270
     1
271
     1
  0
XRECORD
  5
C3AA
102
{ACAD_REACTORS
330
C348
102
}
330
C348
100
AcDbXrecord
280
     1
102
MATERIAL
148
0.0
149
0.0
149
0.0
 93
        0
 94
      127
282
     0
 72
     0
 77
     0
171
     0
175
     0
179
     0
273
     0
  0
XRECORD
  5
C34A
102
{ACAD_REACTORS
330
C348
102
}
330
C348
100
AcDbXrecord
280
     1
270
     1
271
     1
  0
XRECORD
  5
C349
102
{ACAD_REACTORS
330
C348
102
}
330
C348
100
AcDbXrecord
280
     1
270
     1
271
     1
  0
XRECORD
  5
C34D
102
{ACAD_REACTORS
330
C348
102
}
330
C348
100
AcDbXrecord
280
     1
270
     1
271
     1
  0
XRECORD
  5
C34C
102
{ACAD_REACTORS
330
C348
102
}
330
C348
100
AcDbXrecord
280
     1
270
     1
271
     1
  0
XRECORD
  5
C34E
102
{ACAD_REACTORS
330
C348
102
}
330
C348
100
AcDbXrecord
280
     1
270
     1
271
     1
  0
XRECORD
  5
C34B
102
{ACAD_REACTORS
330
C348
102
}
330
C348
100
AcDbXrecord
280
     1
270
     1
271
     1
  0
XRECORD
  5
C41F
102
{ACAD_REACTORS
330
C41E
102
}
330
C41E
100
AcDbXrecord
280
     1
102
DISPLAYNAME
  1
Imperial24
102
FLAGS
 90
        0
  0
CELLSTYLEMAP
  5
C3EA
102
{ACAD_REACTORS
330
C3A4
102
}
330
C3A4
100
AcDbCellStyleMap
 90
        3
300
CELLSTYLE
  1
TABLEFORMAT_BEGIN
 90
        5
170
     1
 91
        0
 92
    32768
 62
   257
 93
        1
300
CONTENTFORMAT
  1
CONTENTFORMAT_BEGIN
 90
        0
 91
        0
 92
      512
 93
        0
300

 40
0.0
140
1.0
 94
        5
 62
     0
340
C0E4
144
0.25
309
CONTENTFORMAT_END
171
     1
301
MARGIN
  1
CELLMARGIN_BEGIN
 40
0.06
 40
0.06
 40
0.06
 40
0.06
 40
0.18
 40
0.18
309
CELLMARGIN_END
 94
        6
 95
        1
302
GRIDFORMAT
  1
GRIDFORMAT_BEGIN
 90
        0
 91
        1
 62
     0
 92
       -2
340
0
 93
        0
 40
0.045
309
GRIDFORMAT_END
 95
        2
302
GRIDFORMAT
  1
GRIDFORMAT_BEGIN
 90
        0
 91
        1
 62
     0
 92
       -2
340
0
 93
        0
 40
0.045
309
GRIDFORMAT_END
 95
        4
302
GRIDFORMAT
  1
GRIDFORMAT_BEGIN
 90
        0
 91
        1
 62
     0
 92
       -2
340
0
 93
        0
 40
0.045
309
GRIDFORMAT_END
 95
        8
302
GRIDFORMAT
  1
GRIDFORMAT_BEGIN
 90
        0
 91
        1
 62
     0
 92
       -2
340
0
 93
        0
 40
0.045
309
GRIDFORMAT_END
 95
       16
302
GRIDFORMAT
  1
GRIDFORMAT_BEGIN
 90
        0
 91
        1
 62
     0
 92
       -2
340
0
 93
        0
 40
0.045
309
GRIDFORMAT_END
 95
       32
302
GRIDFORMAT
  1
GRIDFORMAT_BEGIN
 90
        0
 91
        1
 62
     0
 92
       -2
340
0
 93
        0
 40
0.045
309
GRIDFORMAT_END
309
TABLEFORMAT_END
  1
CELLSTYLE_BEGIN
 90
        1
 91
        1
300
_TITLE
309
CELLSTYLE_END
300
CELLSTYLE
  1
TABLEFORMAT_BEGIN
 90
        5
170
     1
 91
        0
 92
        0
 62
   257
 93
        1
300
CONTENTFORMAT
  1
CONTENTFORMAT_BEGIN
 90
        0
 91
        0
 92
      512
 93
        0
300

 40
0.0
140
1.0
 94
        5
 62
     0
340
C0E4
144
0.18
309
CONTENTFORMAT_END
171
     1
301
MARGIN
  1
CELLMARGIN_BEGIN
 40
0.06
 40
0.06
 40
0.06
 40
0.06
 40
0.18
 40
0.18
309
CELLMARGIN_END
 94
        6
 95
        1
302
GRIDFORMAT
  1
GRIDFORMAT_BEGIN
 90
        0
 91
        1
 62
     0
 92
       -2
340
0
 93
        0
 40
0.045
309
GRIDFORMAT_END
 95
        2
302
GRIDFORMAT
  1
GRIDFORMAT_BEGIN
 90
        0
 91
        1
 62
     0
 92
       -2
340
0
 93
        0
 40
0.045
309
GRIDFORMAT_END
 95
        4
302
GRIDFORMAT
  1
GRIDFORMAT_BEGIN
 90
        0
 91
        1
 62
     0
 92
       -2
340
0
 93
        0
 40
0.045
309
GRIDFORMAT_END
 95
        8
302
GRIDFORMAT
  1
GRIDFORMAT_BEGIN
 90
        0
 91
        1
 62
     0
 92
       -2
340
0
 93
        0
 40
0.045
309
GRIDFORMAT_END
 95
       16
302
GRIDFORMAT
  1
GRIDFORMAT_BEGIN
 90
        0
 91
        1
 62
     0
 92
       -2
340
0
 93
        0
 40
0.045
309
GRIDFORMAT_END
 95
       32
302
GRIDFORMAT
  1
GRIDFORMAT_BEGIN
 90
        0
 91
        1
 62
     0
 92
       -2
340
0
 93
        0
 40
0.045
309
GRIDFORMAT_END
309
TABLEFORMAT_END
  1
CELLSTYLE_BEGIN
 90
        2
 91
        1
300
_HEADER
309
CELLSTYLE_END
300
CELLSTYLE
  1
TABLEFORMAT_BEGIN
 90
        5
170
     1
 91
        0
 92
        0
 62
   257
 93
        1
300
CONTENTFORMAT
  1
CONTENTFORMAT_BEGIN
 90
        0
 91
        0
 92
      512
 93
        0
300

 40
0.0
140
1.0
 94
        2
 62
     0
340
C0E4
144
0.18
309
CONTENTFORMAT_END
171
     1
301
MARGIN
  1
CELLMARGIN_BEGIN
 40
0.06
 40
0.06
 40
0.06
 40
0.06
 40
0.18
 40
0.18
309
CELLMARGIN_END
 94
        6
 95
        1
302
GRIDFORMAT
  1
GRIDFORMAT_BEGIN
 90
        0
 91
        1
 62
     0
 92
       -2
340
0
 93
        0
 40
0.045
309
GRIDFORMAT_END
 95
        2
302
GRIDFORMAT
  1
GRIDFORMAT_BEGIN
 90
        0
 91
        1
 62
     0
 92
       -2
340
0
 93
        0
 40
0.045
309
GRIDFORMAT_END
 95
        4
302
GRIDFORMAT
  1
GRIDFORMAT_BEGIN
 90
        0
 91
        1
 62
     0
 92
       -2
340
0
 93
        0
 40
0.045
309
GRIDFORMAT_END
 95
        8
302
GRIDFORMAT
  1
GRIDFORMAT_BEGIN
 90
        0
 91
        1
 62
     0
 92
       -2
340
0
 93
        0
 40
0.045
309
GRIDFORMAT_END
 95
       16
302
GRIDFORMAT
  1
GRIDFORMAT_BEGIN
 90
        0
 91
        1
 62
     0
 92
       -2
340
0
 93
        0
 40
0.045
309
GRIDFORMAT_END
 95
       32
302
GRIDFORMAT
  1
GRIDFORMAT_BEGIN
 90
        0
 91
        1
 62
     0
 92
       -2
340
0
 93
        0
 40
0.045
309
GRIDFORMAT_END
309
TABLEFORMAT_END
  1
CELLSTYLE_BEGIN
 90
        3
 91
        2
300
_DATA
309
CELLSTYLE_END
  0
XRECORD
  5
C41D
102
{ACAD_REACTORS
330
C3A4
102
}
330
C3A4
100
AcDbXrecord
280
     1
102
ACAD_ROUNDTRIP_PRE2007_TABLESTYLE
 90
      512
 91
        0
  1

 92
      512
 93
        0
  2

 94
      512
 95
        0
  3

  0
XRECORD
  5
C3F8
102
{ACAD_REACTORS
330
C3F7
102
}
330
C3F7
100
AcDbXrecord
280
     1
102
RTVSPost2010Prop28
280
     1
102
RTVSPost2010PropOp28
 70
     1
102
RTVSPost2010Prop29
280
     1
102
RTVSPost2010PropOp29
 70
     1
102
RTVSPost2010Prop30
280
     0
102
RTVSPost2010PropOp30
 70
     1
102
RTVSPost2010Prop31
280
     0
102
RTVSPost2010PropOp31
 70
     1
102
RTVSPost2010Prop32
280
     0
102
RTVSPost2010PropOp32
 70
     1
102
RTVSPost2010Prop33
280
     0
102
RTVSPost2010PropOp33
 70
     1
102
RTVSPost2010Prop34
280
     0
102
RTVSPost2010PropOp34
 70
     1
102
RTVSPost2010Prop35
280
     0
102
RTVSPost2010PropOp35
 70
     1
102
RTVSPost2010Prop36
280
     0
102
RTVSPost2010PropOp36
 70
     1
102
RTVSPost2010Prop37
 90
       50
102
RTVSPost2010PropOp37
 70
     1
102
RTVSPost2010Prop38
140
0.0
102
RTVSPost2010PropOp38
 70
     1
102
RTVSPost2010Prop39
140
1.0
102
RTVSPost2010PropOp39
 70
     1
102
RTVSPost2010Prop40
 90
        0
102
RTVSPost2010PropOp40
 70
     1
102
RTVSPost2010Prop41ColorIndex
 90
       18
102
RTVSPost2010Prop41ColorRGB
 90
        0
102
RTVSPost2010PropOp41
 70
     1
102
RTVSPost2010Prop42
 90
       50
102
RTVSPost2010PropOp42
 70
     1
102
RTVSPost2010Prop43
 90
        3
102
RTVSPost2010PropOp43
 70
     1
102
RTVSPost2010Prop44ColorIndex
 90
        5
102
RTVSPost2010Prop44ColorRGB
 90
      255
102
RTVSPost2010PropOp44
 70
     1
102
RTVSPost2010Prop45
280
     0
102
RTVSPost2010PropOp45
 70
     1
102
RTVSPost2010Prop46
 90
       50
102
RTVSPost2010PropOp46
 70
     1
102
RTVSPost2010Prop47
 90
       50
102
RTVSPost2010PropOp47
 70
     1
102
RTVSPost2010Prop48
 90
       50
102
RTVSPost2010PropOp48
 70
     1
102
RTVSPost2010Prop49
280
     0
102
RTVSPost2010PropOp49
 70
     1
102
RTVSPost2010Prop50
 90
       50
102
RTVSPost2010PropOp50
 70
     1
102
RTVSPost2010Prop51ColorIndex
 90
      256
102
RTVSPost2010Prop51ColorRGB
 90
-16777216
102
RTVSPost2010PropOp51
 70
     0
102
RTVSPost2010Prop52
140
1.0
102
RTVSPost2010PropOp52
 70
     0
102
RTVSPost2010Prop53
 90
        2
102
RTVSPost2010PropOp53
 70
     1
102
RTVSPost2010Prop54
  1
strokes_ogs.tif
102
RTVSPost2010PropOp54
 70
     1
102
RTVSPost2010Prop55
280
     0
102
RTVSPost2010PropOp55
 70
     1
102
RTVSPost2010Prop56
140
1.0
102
RTVSPost2010PropOp56
 70
     1
102
RTVSPost2010Prop57
140
1.0
102
RTVSPost2010PropOp57
 70
     1
102
RTVSPropertyOp0
 70
     1
102
RTVSPropertyOp1
 70
     1
102
RTVSPropertyOp2
 70
     1
102
RTVSPropertyOp3
 70
     1
102
RTVSPropertyOp4
 70
     1
102
RTVSPropertyOp5
 70
     1
102
RTVSPropertyOp6
 70
     1
102
RTVSPropertyOp7
 70
     1
102
RTVSPropertyOp8
 70
     1
102
RTVSPropertyOp9
 70
     1
102
RTVSPropertyOp10
 70
     1
102
RTVSPropertyOp11
 70
     1
102
RTVSPropertyOp12
 70
     1
102
RTVSPropertyOp13
 70
     1
102
RTVSPropertyOp14
 70
     1
102
RTVSPropertyOp15
 70
     1
102
RTVSPropertyOp16
 70
     1
102
RTVSPropertyOp17
 70
     1
102
RTVSPropertyOp18
 70
     1
102
RTVSPropertyOp19
 70
     1
102
RTVSPropertyOp20
 70
     1
102
RTVSPropertyOp21
 70
     1
102
RTVSPropertyOp22
 70
     1
102
RTVSPropertyOp23
 70
     1
102
RTVSPropertyOp24
 70
     1
102
RTVSPropertyOp25
 70
     1
102
RTVSPropertyOp26
 70
     1
102
RTVSPropertyOp27
 70
     1
102
RTVSPropertyOp28
 70
     1
102
RTVSPropertyOp29
 70
     1
102
RTVSPropertyOp30
 70
     1
102
RTVSPropertyOp31
 70
     1
102
RTVSPropertyOp32
 70
     1
102
RTVSPropertyOp33
 70
     1
102
RTVSPropertyOp34
 70
     1
102
RTVSPropertyOp35
 70
     1
102
RTVSPropertyOp36
 70
     1
102
RTVSPropertyOp37
 70
     1
102
RTVSPropertyOp38
 70
     1
102
RTVSPropertyOp39
 70
     1
102
RTVSPropertyOp40
 70
     1
102
RTVSPropertyOp41
 70
     1
102
RTVSPropertyOp42
 70
     1
102
RTVSPropertyOp43
 70
     1
102
RTVSPropertyOp44
 70
     1
102
RTVSPropertyOp45
 70
     1
102
RTVSPropertyOp46
 70
     1
102
RTVSPropertyOp47
 70
     1
102
RTVSPropertyOp48
 70
     1
102
RTVSPropertyOp49
 70
     1
102
RTVSPropertyOp50
 70
     1
102
RTVSPropertyOp51
 70
     0
102
RTVSPropertyOp52
 70
     0
102
RTVSPropertyOp53
 70
     1
102
RTVSPropertyOp54
 70
     1
102
RTVSPropertyOp55
 70
     1
102
RTVSPropertyOp56
 70
     1
102
RTVSPropertyOp57
 70
     1
102
RTVSPropertyOp58
 70
     1
102
RTVSPropertyOp59
 70
     1
102
RTVSPropertyOp60
 70
     1
102
RTVSPropertyOp61
 70
     1
102
RTVSPropertyOp62
 70
     1
  0
XRECORD
  5
C3F6
102
{ACAD_REACTORS
330
C3F5
102
}
330
C3F5
100
AcDbXrecord
280
     1
102
RTVSPost2010Prop28
280
     0
102
RTVSPost2010PropOp28
 70
     1
102
RTVSPost2010Prop29
280
     1
102
RTVSPost2010PropOp29
 70
     1
102
RTVSPost2010Prop30
280
     1
102
RTVSPost2010PropOp30
 70
     1
102
RTVSPost2010Prop31
280
     0
102
RTVSPost2010PropOp31
 70
     1
102
RTVSPost2010Prop32
280
     0
102
RTVSPost2010PropOp32
 70
     1
102
RTVSPost2010Prop33
280
     0
102
RTVSPost2010PropOp33
 70
     1
102
RTVSPost2010Prop34
280
     0
102
RTVSPost2010PropOp34
 70
     1
102
RTVSPost2010Prop35
280
     0
102
RTVSPost2010PropOp35
 70
     1
102
RTVSPost2010Prop36
280
     0
102
RTVSPost2010PropOp36
 70
     1
102
RTVSPost2010Prop37
 90
       50
102
RTVSPost2010PropOp37
 70
     1
102
RTVSPost2010Prop38
140
0.0
102
RTVSPost2010PropOp38
 70
     1
102
RTVSPost2010Prop39
140
1.0
102
RTVSPost2010PropOp39
 70
     1
102
RTVSPost2010Prop40
 90
        0
102
RTVSPost2010PropOp40
 70
     1
102
RTVSPost2010Prop41ColorIndex
 90
       18
102
RTVSPost2010Prop41ColorRGB
 90
        0
102
RTVSPost2010PropOp41
 70
     1
102
RTVSPost2010Prop42
 90
       50
102
RTVSPost2010PropOp42
 70
     1
102
RTVSPost2010Prop43
 90
        3
102
RTVSPost2010PropOp43
 70
     1
102
RTVSPost2010Prop44ColorIndex
 90
        5
102
RTVSPost2010Prop44ColorRGB
 90
      255
102
RTVSPost2010PropOp44
 70
     1
102
RTVSPost2010Prop45
280
     0
102
RTVSPost2010PropOp45
 70
     1
102
RTVSPost2010Prop46
 90
       50
102
RTVSPost2010PropOp46
 70
     1
102
RTVSPost2010Prop47
 90
       50
102
RTVSPost2010PropOp47
 70
     1
102
RTVSPost2010Prop48
 90
       50
102
RTVSPost2010PropOp48
 70
     1
102
RTVSPost2010Prop49
280
     0
102
RTVSPost2010PropOp49
 70
     1
102
RTVSPost2010Prop50
 90
       50
102
RTVSPost2010PropOp50
 70
     1
102
RTVSPost2010Prop51ColorIndex
 90
      256
102
RTVSPost2010Prop51ColorRGB
 90
-16777216
102
RTVSPost2010PropOp51
 70
     0
102
RTVSPost2010Prop52
140
1.0
102
RTVSPost2010PropOp52
 70
     0
102
RTVSPost2010Prop53
 90
        2
102
RTVSPost2010PropOp53
 70
     1
102
RTVSPost2010Prop54
  1
strokes_ogs.tif
102
RTVSPost2010PropOp54
 70
     1
102
RTVSPost2010Prop55
280
     0
102
RTVSPost2010PropOp55
 70
     1
102
RTVSPost2010Prop56
140
1.0
102
RTVSPost2010PropOp56
 70
     1
102
RTVSPost2010Prop57
140
1.0
102
RTVSPost2010PropOp57
 70
     1
102
RTVSPropertyOp0
 70
     1
102
RTVSPropertyOp1
 70
     1
102
RTVSPropertyOp2
 70
     1
102
RTVSPropertyOp3
 70
     1
102
RTVSPropertyOp4
 70
     1
102
RTVSPropertyOp5
 70
     1
102
RTVSPropertyOp6
 70
     1
102
RTVSPropertyOp7
 70
     1
102
RTVSPropertyOp8
 70
     1
102
RTVSPropertyOp9
 70
     1
102
RTVSPropertyOp10
 70
     1
102
RTVSPropertyOp11
 70
     1
102
RTVSPropertyOp12
 70
     1
102
RTVSPropertyOp13
 70
     1
102
RTVSPropertyOp14
 70
     1
102
RTVSPropertyOp15
 70
     1
102
RTVSPropertyOp16
 70
     1
102
RTVSPropertyOp17
 70
     1
102
RTVSPropertyOp18
 70
     1
102
RTVSPropertyOp19
 70
     1
102
RTVSPropertyOp20
 70
     1
102
RTVSPropertyOp21
 70
     1
102
RTVSPropertyOp22
 70
     1
102
RTVSPropertyOp23
 70
     1
102
RTVSPropertyOp24
 70
     1
102
RTVSPropertyOp25
 70
     1
102
RTVSPropertyOp26
 70
     1
102
RTVSPropertyOp27
 70
     1
102
RTVSPropertyOp28
 70
     1
102
RTVSPropertyOp29
 70
     1
102
RTVSPropertyOp30
 70
     1
102
RTVSPropertyOp31
 70
     1
102
RTVSPropertyOp32
 70
     1
102
RTVSPropertyOp33
 70
     1
102
RTVSPropertyOp34
 70
     1
102
RTVSPropertyOp35
 70
     1
102
RTVSPropertyOp36
 70
     1
102
RTVSPropertyOp37
 70
     1
102
RTVSPropertyOp38
 70
     1
102
RTVSPropertyOp39
 70
     1
102
RTVSPropertyOp40
 70
     1
102
RTVSPropertyOp41
 70
     1
102
RTVSPropertyOp42
 70
     1
102
RTVSPropertyOp43
 70
     1
102
RTVSPropertyOp44
 70
     1
102
RTVSPropertyOp45
 70
     1
102
RTVSPropertyOp46
 70
     1
102
RTVSPropertyOp47
 70
     1
102
RTVSPropertyOp48
 70
     1
102
RTVSPropertyOp49
 70
     1
102
RTVSPropertyOp50
 70
     1
102
RTVSPropertyOp51
 70
     0
102
RTVSPropertyOp52
 70
     0
102
RTVSPropertyOp53
 70
     1
102
RTVSPropertyOp54
 70
     1
102
RTVSPropertyOp55
 70
     1
102
RTVSPropertyOp56
 70
     1
102
RTVSPropertyOp57
 70
     1
102
RTVSPropertyOp58
 70
     1
102
RTVSPropertyOp59
 70
     1
102
RTVSPropertyOp60
 70
     1
102
RTVSPropertyOp61
 70
     1
102
RTVSPropertyOp62
 70
     1
  0
XRECORD
  5
C404
102
{ACAD_REACTORS
330
C403
102
}
330
C403
100
AcDbXrecord
280
     1
102
RTVSPost2010Prop28
280
     0
102
RTVSPost2010PropOp28
 70
     1
102
RTVSPost2010Prop29
280
     1
102
RTVSPost2010PropOp29
 70
     1
102
RTVSPost2010Prop30
280
     1
102
RTVSPost2010PropOp30
 70
     1
102
RTVSPost2010Prop31
280
     0
102
RTVSPost2010PropOp31
 70
     1
102
RTVSPost2010Prop32
280
     0
102
RTVSPost2010PropOp32
 70
     1
102
RTVSPost2010Prop33
280
     0
102
RTVSPost2010PropOp33
 70
     1
102
RTVSPost2010Prop34
280
     0
102
RTVSPost2010PropOp34
 70
     1
102
RTVSPost2010Prop35
280
     0
102
RTVSPost2010PropOp35
 70
     1
102
RTVSPost2010Prop36
280
     0
102
RTVSPost2010PropOp36
 70
     1
102
RTVSPost2010Prop37
 90
       50
102
RTVSPost2010PropOp37
 70
     1
102
RTVSPost2010Prop38
140
0.0
102
RTVSPost2010PropOp38
 70
     1
102
RTVSPost2010Prop39
140
1.0
102
RTVSPost2010PropOp39
 70
     1
102
RTVSPost2010Prop40
 90
        0
102
RTVSPost2010PropOp40
 70
     1
102
RTVSPost2010Prop41ColorIndex
 90
       18
102
RTVSPost2010Prop41ColorRGB
 90
        0
102
RTVSPost2010PropOp41
 70
     1
102
RTVSPost2010Prop42
 90
       50
102
RTVSPost2010PropOp42
 70
     1
102
RTVSPost2010Prop43
 90
        3
102
RTVSPost2010PropOp43
 70
     1
102
RTVSPost2010Prop44ColorIndex
 90
        5
102
RTVSPost2010Prop44ColorRGB
 90
      255
102
RTVSPost2010PropOp44
 70
     1
102
RTVSPost2010Prop45
280
     0
102
RTVSPost2010PropOp45
 70
     1
102
RTVSPost2010Prop46
 90
       50
102
RTVSPost2010PropOp46
 70
     1
102
RTVSPost2010Prop47
 90
       50
102
RTVSPost2010PropOp47
 70
     1
102
RTVSPost2010Prop48
 90
       50
102
RTVSPost2010PropOp48
 70
     1
102
RTVSPost2010Prop49
280
     0
102
RTVSPost2010PropOp49
 70
     1
102
RTVSPost2010Prop50
 90
       50
102
RTVSPost2010PropOp50
 70
     1
102
RTVSPost2010Prop51ColorIndex
 90
      256
102
RTVSPost2010Prop51ColorRGB
 90
-16777216
102
RTVSPost2010PropOp51
 70
     0
102
RTVSPost2010Prop52
140
1.0
102
RTVSPost2010PropOp52
 70
     0
102
RTVSPost2010Prop53
 90
        2
102
RTVSPost2010PropOp53
 70
     1
102
RTVSPost2010Prop54
  1
strokes_ogs.tif
102
RTVSPost2010PropOp54
 70
     1
102
RTVSPost2010Prop55
280
     0
102
RTVSPost2010PropOp55
 70
     1
102
RTVSPost2010Prop56
140
1.0
102
RTVSPost2010PropOp56
 70
     1
102
RTVSPost2010Prop57
140
1.0
102
RTVSPost2010PropOp57
 70
     1
102
RTVSPropertyOp0
 70
     1
102
RTVSPropertyOp1
 70
     1
102
RTVSPropertyOp2
 70
     1
102
RTVSPropertyOp3
 70
     1
102
RTVSPropertyOp4
 70
     1
102
RTVSPropertyOp5
 70
     1
102
RTVSPropertyOp6
 70
     1
102
RTVSPropertyOp7
 70
     1
102
RTVSPropertyOp8
 70
     1
102
RTVSPropertyOp9
 70
     1
102
RTVSPropertyOp10
 70
     1
102
RTVSPropertyOp11
 70
     1
102
RTVSPropertyOp12
 70
     1
102
RTVSPropertyOp13
 70
     1
102
RTVSPropertyOp14
 70
     1
102
RTVSPropertyOp15
 70
     1
102
RTVSPropertyOp16
 70
     1
102
RTVSPropertyOp17
 70
     1
102
RTVSPropertyOp18
 70
     1
102
RTVSPropertyOp19
 70
     1
102
RTVSPropertyOp20
 70
     1
102
RTVSPropertyOp21
 70
     1
102
RTVSPropertyOp22
 70
     1
102
RTVSPropertyOp23
 70
     1
102
RTVSPropertyOp24
 70
     1
102
RTVSPropertyOp25
 70
     1
102
RTVSPropertyOp26
 70
     1
102
RTVSPropertyOp27
 70
     1
102
RTVSPropertyOp28
 70
     1
102
RTVSPropertyOp29
 70
     1
102
RTVSPropertyOp30
 70
     1
102
RTVSPropertyOp31
 70
     1
102
RTVSPropertyOp32
 70
     1
102
RTVSPropertyOp33
 70
     1
102
RTVSPropertyOp34
 70
     1
102
RTVSPropertyOp35
 70
     1
102
RTVSPropertyOp36
 70
     1
102
RTVSPropertyOp37
 70
     1
102
RTVSPropertyOp38
 70
     1
102
RTVSPropertyOp39
 70
     1
102
RTVSPropertyOp40
 70
     1
102
RTVSPropertyOp41
 70
     1
102
RTVSPropertyOp42
 70
     1
102
RTVSPropertyOp43
 70
     1
102
RTVSPropertyOp44
 70
     1
102
RTVSPropertyOp45
 70
     1
102
RTVSPropertyOp46
 70
     1
102
RTVSPropertyOp47
 70
     1
102
RTVSPropertyOp48
 70
     1
102
RTVSPropertyOp49
 70
     1
102
RTVSPropertyOp50
 70
     1
102
RTVSPropertyOp51
 70
     0
102
RTVSPropertyOp52
 70
     0
102
RTVSPropertyOp53
 70
     1
102
RTVSPropertyOp54
 70
     1
102
RTVSPropertyOp55
 70
     1
102
RTVSPropertyOp56
 70
     1
102
RTVSPropertyOp57
 70
     1
102
RTVSPropertyOp58
 70
     1
102
RTVSPropertyOp59
 70
     1
102
RTVSPropertyOp60
 70
     1
102
RTVSPropertyOp61
 70
     1
102
RTVSPropertyOp62
 70
     1
  0
XRECORD
  5
C40C
102
{ACAD_REACTORS
330
C40B
102
}
330
C40B
100
AcDbXrecord
280
     1
102
RTVSPost2010Prop28
280
     0
102
RTVSPost2010PropOp28
 70
     1
102
RTVSPost2010Prop29
280
     1
102
RTVSPost2010PropOp29
 70
     1
102
RTVSPost2010Prop30
280
     1
102
RTVSPost2010PropOp30
 70
     1
102
RTVSPost2010Prop31
280
     0
102
RTVSPost2010PropOp31
 70
     1
102
RTVSPost2010Prop32
280
     0
102
RTVSPost2010PropOp32
 70
     1
102
RTVSPost2010Prop33
280
     0
102
RTVSPost2010PropOp33
 70
     1
102
RTVSPost2010Prop34
280
     0
102
RTVSPost2010PropOp34
 70
     1
102
RTVSPost2010Prop35
280
     0
102
RTVSPost2010PropOp35
 70
     1
102
RTVSPost2010Prop36
280
     0
102
RTVSPost2010PropOp36
 70
     1
102
RTVSPost2010Prop37
 90
       50
102
RTVSPost2010PropOp37
 70
     1
102
RTVSPost2010Prop38
140
0.0
102
RTVSPost2010PropOp38
 70
     1
102
RTVSPost2010Prop39
140
1.0
102
RTVSPost2010PropOp39
 70
     1
102
RTVSPost2010Prop40
 90
        0
102
RTVSPost2010PropOp40
 70
     1
102
RTVSPost2010Prop41ColorIndex
 90
       18
102
RTVSPost2010Prop41ColorRGB
 90
        0
102
RTVSPost2010PropOp41
 70
     1
102
RTVSPost2010Prop42
 90
       50
102
RTVSPost2010PropOp42
 70
     1
102
RTVSPost2010Prop43
 90
        3
102
RTVSPost2010PropOp43
 70
     1
102
RTVSPost2010Prop44ColorIndex
 90
        5
102
RTVSPost2010Prop44ColorRGB
 90
      255
102
RTVSPost2010PropOp44
 70
     1
102
RTVSPost2010Prop45
280
     0
102
RTVSPost2010PropOp45
 70
     1
102
RTVSPost2010Prop46
 90
       50
102
RTVSPost2010PropOp46
 70
     1
102
RTVSPost2010Prop47
 90
       50
102
RTVSPost2010PropOp47
 70
     1
102
RTVSPost2010Prop48
 90
       50
102
RTVSPost2010PropOp48
 70
     1
102
RTVSPost2010Prop49
280
     0
102
RTVSPost2010PropOp49
 70
     1
102
RTVSPost2010Prop50
 90
       50
102
RTVSPost2010PropOp50
 70
     1
102
RTVSPost2010Prop51ColorIndex
 90
      256
102
RTVSPost2010Prop51ColorRGB
 90
-16777216
102
RTVSPost2010PropOp51
 70
     0
102
RTVSPost2010Prop52
140
1.0
102
RTVSPost2010PropOp52
 70
     0
102
RTVSPost2010Prop53
 90
        2
102
RTVSPost2010PropOp53
 70
     1
102
RTVSPost2010Prop54
  1
strokes_ogs.tif
102
RTVSPost2010PropOp54
 70
     1
102
RTVSPost2010Prop55
280
     0
102
RTVSPost2010PropOp55
 70
     1
102
RTVSPost2010Prop56
140
1.0
102
RTVSPost2010PropOp56
 70
     1
102
RTVSPost2010Prop57
140
1.0
102
RTVSPost2010PropOp57
 70
     1
102
RTVSPropertyOp0
 70
     1
102
RTVSPropertyOp1
 70
     1
102
RTVSPropertyOp2
 70
     1
102
RTVSPropertyOp3
 70
     1
102
RTVSPropertyOp4
 70
     1
102
RTVSPropertyOp5
 70
     1
102
RTVSPropertyOp6
 70
     1
102
RTVSPropertyOp7
 70
     1
102
RTVSPropertyOp8
 70
     1
102
RTVSPropertyOp9
 70
     1
102
RTVSPropertyOp10
 70
     1
102
RTVSPropertyOp11
 70
     1
102
RTVSPropertyOp12
 70
     1
102
RTVSPropertyOp13
 70
     1
102
RTVSPropertyOp14
 70
     1
102
RTVSPropertyOp15
 70
     1
102
RTVSPropertyOp16
 70
     1
102
RTVSPropertyOp17
 70
     1
102
RTVSPropertyOp18
 70
     1
102
RTVSPropertyOp19
 70
     1
102
RTVSPropertyOp20
 70
     1
102
RTVSPropertyOp21
 70
     1
102
RTVSPropertyOp22
 70
     1
102
RTVSPropertyOp23
 70
     1
102
RTVSPropertyOp24
 70
     1
102
RTVSPropertyOp25
 70
     1
102
RTVSPropertyOp26
 70
     1
102
RTVSPropertyOp27
 70
     1
102
RTVSPropertyOp28
 70
     1
102
RTVSPropertyOp29
 70
     1
102
RTVSPropertyOp30
 70
     1
102
RTVSPropertyOp31
 70
     1
102
RTVSPropertyOp32
 70
     1
102
RTVSPropertyOp33
 70
     1
102
RTVSPropertyOp34
 70
     1
102
RTVSPropertyOp35
 70
     1
102
RTVSPropertyOp36
 70
     1
102
RTVSPropertyOp37
 70
     1
102
RTVSPropertyOp38
 70
     1
102
RTVSPropertyOp39
 70
     1
102
RTVSPropertyOp40
 70
     1
102
RTVSPropertyOp41
 70
     1
102
RTVSPropertyOp42
 70
     1
102
RTVSPropertyOp43
 70
     1
102
RTVSPropertyOp44
 70
     1
102
RTVSPropertyOp45
 70
     1
102
RTVSPropertyOp46
 70
     1
102
RTVSPropertyOp47
 70
     1
102
RTVSPropertyOp48
 70
     1
102
RTVSPropertyOp49
 70
     1
102
RTVSPropertyOp50
 70
     1
102
RTVSPropertyOp51
 70
     0
102
RTVSPropertyOp52
 70
     0
102
RTVSPropertyOp53
 70
     1
102
RTVSPropertyOp54
 70
     1
102
RTVSPropertyOp55
 70
     1
102
RTVSPropertyOp56
 70
     1
102
RTVSPropertyOp57
 70
     1
102
RTVSPropertyOp58
 70
     1
102
RTVSPropertyOp59
 70
     1
102
RTVSPropertyOp60
 70
     1
102
RTVSPropertyOp61
 70
     1
102
RTVSPropertyOp62
 70
     1
  0
XRECORD
  5
C3FE
102
{ACAD_REACTORS
330
C3FD
102
}
330
C3FD
100
AcDbXrecord
280
     1
102
RTVSPost2010Prop28
280
     0
102
RTVSPost2010PropOp28
 70
     1
102
RTVSPost2010Prop29
280
     1
102
RTVSPost2010PropOp29
 70
     1
102
RTVSPost2010Prop30
280
     1
102
RTVSPost2010PropOp30
 70
     1
102
RTVSPost2010Prop31
280
     0
102
RTVSPost2010PropOp31
 70
     1
102
RTVSPost2010Prop32
280
     0
102
RTVSPost2010PropOp32
 70
     1
102
RTVSPost2010Prop33
280
     0
102
RTVSPost2010PropOp33
 70
     1
102
RTVSPost2010Prop34
280
     0
102
RTVSPost2010PropOp34
 70
     1
102
RTVSPost2010Prop35
280
     0
102
RTVSPost2010PropOp35
 70
     1
102
RTVSPost2010Prop36
280
     0
102
RTVSPost2010PropOp36
 70
     1
102
RTVSPost2010Prop37
 90
       50
102
RTVSPost2010PropOp37
 70
     1
102
RTVSPost2010Prop38
140
0.0
102
RTVSPost2010PropOp38
 70
     1
102
RTVSPost2010Prop39
140
1.0
102
RTVSPost2010PropOp39
 70
     1
102
RTVSPost2010Prop40
 90
        0
102
RTVSPost2010PropOp40
 70
     1
102
RTVSPost2010Prop41ColorIndex
 90
       18
102
RTVSPost2010Prop41ColorRGB
 90
        0
102
RTVSPost2010PropOp41
 70
     1
102
RTVSPost2010Prop42
 90
       50
102
RTVSPost2010PropOp42
 70
     1
102
RTVSPost2010Prop43
 90
        3
102
RTVSPost2010PropOp43
 70
     1
102
RTVSPost2010Prop44ColorIndex
 90
        5
102
RTVSPost2010Prop44ColorRGB
 90
      255
102
RTVSPost2010PropOp44
 70
     1
102
RTVSPost2010Prop45
280
     0
102
RTVSPost2010PropOp45
 70
     1
102
RTVSPost2010Prop46
 90
       50
102
RTVSPost2010PropOp46
 70
     1
102
RTVSPost2010Prop47
 90
       50
102
RTVSPost2010PropOp47
 70
     1
102
RTVSPost2010Prop48
 90
       50
102
RTVSPost2010PropOp48
 70
     1
102
RTVSPost2010Prop49
280
     0
102
RTVSPost2010PropOp49
 70
     1
102
RTVSPost2010Prop50
 90
       50
102
RTVSPost2010PropOp50
 70
     1
102
RTVSPost2010Prop51ColorIndex
 90
      256
102
RTVSPost2010Prop51ColorRGB
 90
-16777216
102
RTVSPost2010PropOp51
 70
     0
102
RTVSPost2010Prop52
140
1.0
102
RTVSPost2010PropOp52
 70
     0
102
RTVSPost2010Prop53
 90
        2
102
RTVSPost2010PropOp53
 70
     1
102
RTVSPost2010Prop54
  1
strokes_ogs.tif
102
RTVSPost2010PropOp54
 70
     1
102
RTVSPost2010Prop55
280
     0
102
RTVSPost2010PropOp55
 70
     1
102
RTVSPost2010Prop56
140
1.0
102
RTVSPost2010PropOp56
 70
     1
102
RTVSPost2010Prop57
140
1.0
102
RTVSPost2010PropOp57
 70
     1
102
RTVSPropertyOp0
 70
     1
102
RTVSPropertyOp1
 70
     1
102
RTVSPropertyOp2
 70
     1
102
RTVSPropertyOp3
 70
     1
102
RTVSPropertyOp4
 70
     1
102
RTVSPropertyOp5
 70
     1
102
RTVSPropertyOp6
 70
     1
102
RTVSPropertyOp7
 70
     1
102
RTVSPropertyOp8
 70
     1
102
RTVSPropertyOp9
 70
     1
102
RTVSPropertyOp10
 70
     1
102
RTVSPropertyOp11
 70
     1
102
RTVSPropertyOp12
 70
     1
102
RTVSPropertyOp13
 70
     1
102
RTVSPropertyOp14
 70
     1
102
RTVSPropertyOp15
 70
     1
102
RTVSPropertyOp16
 70
     1
102
RTVSPropertyOp17
 70
     1
102
RTVSPropertyOp18
 70
     1
102
RTVSPropertyOp19
 70
     1
102
RTVSPropertyOp20
 70
     1
102
RTVSPropertyOp21
 70
     1
102
RTVSPropertyOp22
 70
     1
102
RTVSPropertyOp23
 70
     1
102
RTVSPropertyOp24
 70
     1
102
RTVSPropertyOp25
 70
     1
102
RTVSPropertyOp26
 70
     1
102
RTVSPropertyOp27
 70
     1
102
RTVSPropertyOp28
 70
     1
102
RTVSPropertyOp29
 70
     1
102
RTVSPropertyOp30
 70
     1
102
RTVSPropertyOp31
 70
     1
102
RTVSPropertyOp32
 70
     1
102
RTVSPropertyOp33
 70
     1
102
RTVSPropertyOp34
 70
     1
102
RTVSPropertyOp35
 70
     1
102
RTVSPropertyOp36
 70
     1
102
RTVSPropertyOp37
 70
     1
102
RTVSPropertyOp38
 70
     1
102
RTVSPropertyOp39
 70
     1
102
RTVSPropertyOp40
 70
     1
102
RTVSPropertyOp41
 70
     1
102
RTVSPropertyOp42
 70
     1
102
RTVSPropertyOp43
 70
     1
102
RTVSPropertyOp44
 70
     1
102
RTVSPropertyOp45
 70
     1
102
RTVSPropertyOp46
 70
     1
102
RTVSPropertyOp47
 70
     1
102
RTVSPropertyOp48
 70
     1
102
RTVSPropertyOp49
 70
     1
102
RTVSPropertyOp50
 70
     1
102
RTVSPropertyOp51
 70
     0
102
RTVSPropertyOp52
 70
     0
102
RTVSPropertyOp53
 70
     1
102
RTVSPropertyOp54
 70
     1
102
RTVSPropertyOp55
 70
     1
102
RTVSPropertyOp56
 70
     1
102
RTVSPropertyOp57
 70
     1
102
RTVSPropertyOp58
 70
     1
102
RTVSPropertyOp59
 70
     1
102
RTVSPropertyOp60
 70
     1
102
RTVSPropertyOp61
 70
     1
102
RTVSPropertyOp62
 70
     1
  0
XRECORD
  5
C402
102
{ACAD_REACTORS
330
C401
102
}
330
C401
100
AcDbXrecord
280
     1
102
RTVSPost2010Prop28
280
     0
102
RTVSPost2010PropOp28
 70
     1
102
RTVSPost2010Prop29
280
     1
102
RTVSPost2010PropOp29
 70
     1
102
RTVSPost2010Prop30
280
     1
102
RTVSPost2010PropOp30
 70
     1
102
RTVSPost2010Prop31
280
     0
102
RTVSPost2010PropOp31
 70
     1
102
RTVSPost2010Prop32
280
     0
102
RTVSPost2010PropOp32
 70
     1
102
RTVSPost2010Prop33
280
     0
102
RTVSPost2010PropOp33
 70
     1
102
RTVSPost2010Prop34
280
     0
102
RTVSPost2010PropOp34
 70
     1
102
RTVSPost2010Prop35
280
     0
102
RTVSPost2010PropOp35
 70
     1
102
RTVSPost2010Prop36
280
     0
102
RTVSPost2010PropOp36
 70
     1
102
RTVSPost2010Prop37
 90
       50
102
RTVSPost2010PropOp37
 70
     1
102
RTVSPost2010Prop38
140
0.0
102
RTVSPost2010PropOp38
 70
     1
102
RTVSPost2010Prop39
140
1.0
102
RTVSPost2010PropOp39
 70
     1
102
RTVSPost2010Prop40
 90
        0
102
RTVSPost2010PropOp40
 70
     1
102
RTVSPost2010Prop41ColorIndex
 90
       18
102
RTVSPost2010Prop41ColorRGB
 90
        0
102
RTVSPost2010PropOp41
 70
     1
102
RTVSPost2010Prop42
 90
       50
102
RTVSPost2010PropOp42
 70
     1
102
RTVSPost2010Prop43
 90
        3
102
RTVSPost2010PropOp43
 70
     1
102
RTVSPost2010Prop44ColorIndex
 90
        5
102
RTVSPost2010Prop44ColorRGB
 90
      255
102
RTVSPost2010PropOp44
 70
     1
102
RTVSPost2010Prop45
280
     0
102
RTVSPost2010PropOp45
 70
     1
102
RTVSPost2010Prop46
 90
       50
102
RTVSPost2010PropOp46
 70
     1
102
RTVSPost2010Prop47
 90
       50
102
RTVSPost2010PropOp47
 70
     1
102
RTVSPost2010Prop48
 90
       50
102
RTVSPost2010PropOp48
 70
     1
102
RTVSPost2010Prop49
280
     0
102
RTVSPost2010PropOp49
 70
     1
102
RTVSPost2010Prop50
 90
       50
102
RTVSPost2010PropOp50
 70
     1
102
RTVSPost2010Prop51ColorIndex
 90
      256
102
RTVSPost2010Prop51ColorRGB
 90
-16777216
102
RTVSPost2010PropOp51
 70
     0
102
RTVSPost2010Prop52
140
1.0
102
RTVSPost2010PropOp52
 70
     0
102
RTVSPost2010Prop53
 90
        2
102
RTVSPost2010PropOp53
 70
     1
102
RTVSPost2010Prop54
  1
strokes_ogs.tif
102
RTVSPost2010PropOp54
 70
     1
102
RTVSPost2010Prop55
280
     0
102
RTVSPost2010PropOp55
 70
     1
102
RTVSPost2010Prop56
140
1.0
102
RTVSPost2010PropOp56
 70
     1
102
RTVSPost2010Prop57
140
1.0
102
RTVSPost2010PropOp57
 70
     1
102
RTVSPropertyOp0
 70
     1
102
RTVSPropertyOp1
 70
     1
102
RTVSPropertyOp2
 70
     1
102
RTVSPropertyOp3
 70
     1
102
RTVSPropertyOp4
 70
     1
102
RTVSPropertyOp5
 70
     1
102
RTVSPropertyOp6
 70
     1
102
RTVSPropertyOp7
 70
     1
102
RTVSPropertyOp8
 70
     1
102
RTVSPropertyOp9
 70
     1
102
RTVSPropertyOp10
 70
     1
102
RTVSPropertyOp11
 70
     1
102
RTVSPropertyOp12
 70
     1
102
RTVSPropertyOp13
 70
     1
102
RTVSPropertyOp14
 70
     1
102
RTVSPropertyOp15
 70
     1
102
RTVSPropertyOp16
 70
     1
102
RTVSPropertyOp17
 70
     1
102
RTVSPropertyOp18
 70
     1
102
RTVSPropertyOp19
 70
     1
102
RTVSPropertyOp20
 70
     1
102
RTVSPropertyOp21
 70
     1
102
RTVSPropertyOp22
 70
     1
102
RTVSPropertyOp23
 70
     1
102
RTVSPropertyOp24
 70
     1
102
RTVSPropertyOp25
 70
     1
102
RTVSPropertyOp26
 70
     1
102
RTVSPropertyOp27
 70
     1
102
RTVSPropertyOp28
 70
     1
102
RTVSPropertyOp29
 70
     1
102
RTVSPropertyOp30
 70
     1
102
RTVSPropertyOp31
 70
     1
102
RTVSPropertyOp32
 70
     1
102
RTVSPropertyOp33
 70
     1
102
RTVSPropertyOp34
 70
     1
102
RTVSPropertyOp35
 70
     1
102
RTVSPropertyOp36
 70
     1
102
RTVSPropertyOp37
 70
     1
102
RTVSPropertyOp38
 70
     1
102
RTVSPropertyOp39
 70
     1
102
RTVSPropertyOp40
 70
     1
102
RTVSPropertyOp41
 70
     1
102
RTVSPropertyOp42
 70
     1
102
RTVSPropertyOp43
 70
     1
102
RTVSPropertyOp44
 70
     1
102
RTVSPropertyOp45
 70
     1
102
RTVSPropertyOp46
 70
     1
102
RTVSPropertyOp47
 70
     1
102
RTVSPropertyOp48
 70
     1
102
RTVSPropertyOp49
 70
     1
102
RTVSPropertyOp50
 70
     1
102
RTVSPropertyOp51
 70
     0
102
RTVSPropertyOp52
 70
     0
102
RTVSPropertyOp53
 70
     1
102
RTVSPropertyOp54
 70
     1
102
RTVSPropertyOp55
 70
     1
102
RTVSPropertyOp56
 70
     1
102
RTVSPropertyOp57
 70
     1
102
RTVSPropertyOp58
 70
     1
102
RTVSPropertyOp59
 70
     1
102
RTVSPropertyOp60
 70
     1
102
RTVSPropertyOp61
 70
     1
102
RTVSPropertyOp62
 70
     1
  0
XRECORD
  5
C41C
102
{ACAD_REACTORS
330
C41B
102
}
330
C41B
100
AcDbXrecord
280
     1
102
RTVSPost2010Prop28
280
     0
102
RTVSPost2010PropOp28
 70
     1
102
RTVSPost2010Prop29
280
     1
102
RTVSPost2010PropOp29
 70
     1
102
RTVSPost2010Prop30
280
     1
102
RTVSPost2010PropOp30
 70
     1
102
RTVSPost2010Prop31
280
     0
102
RTVSPost2010PropOp31
 70
     1
102
RTVSPost2010Prop32
280
     0
102
RTVSPost2010PropOp32
 70
     1
102
RTVSPost2010Prop33
280
     0
102
RTVSPost2010PropOp33
 70
     1
102
RTVSPost2010Prop34
280
     0
102
RTVSPost2010PropOp34
 70
     1
102
RTVSPost2010Prop35
280
     0
102
RTVSPost2010PropOp35
 70
     1
102
RTVSPost2010Prop36
280
     0
102
RTVSPost2010PropOp36
 70
     1
102
RTVSPost2010Prop37
 90
       50
102
RTVSPost2010PropOp37
 70
     0
102
RTVSPost2010Prop38
140
0.0
102
RTVSPost2010PropOp38
 70
     0
102
RTVSPost2010Prop39
140
1.0
102
RTVSPost2010PropOp39
 70
     0
102
RTVSPost2010Prop40
 90
        0
102
RTVSPost2010PropOp40
 70
     0
102
RTVSPost2010Prop41ColorIndex
 90
       18
102
RTVSPost2010Prop41ColorRGB
 90
        0
102
RTVSPost2010PropOp41
 70
     0
102
RTVSPost2010Prop42
 90
       50
102
RTVSPost2010PropOp42
 70
     0
102
RTVSPost2010Prop43
 90
        3
102
RTVSPost2010PropOp43
 70
     0
102
RTVSPost2010Prop44ColorIndex
 90
        5
102
RTVSPost2010Prop44ColorRGB
 90
      255
102
RTVSPost2010PropOp44
 70
     0
102
RTVSPost2010Prop45
280
     0
102
RTVSPost2010PropOp45
 70
     1
102
RTVSPost2010Prop46
 90
       50
102
RTVSPost2010PropOp46
 70
     0
102
RTVSPost2010Prop47
 90
       50
102
RTVSPost2010PropOp47
 70
     0
102
RTVSPost2010Prop48
 90
       50
102
RTVSPost2010PropOp48
 70
     0
102
RTVSPost2010Prop49
280
     0
102
RTVSPost2010PropOp49
 70
     1
102
RTVSPost2010Prop50
 90
       50
102
RTVSPost2010PropOp50
 70
     0
102
RTVSPost2010Prop51ColorIndex
 90
      256
102
RTVSPost2010Prop51ColorRGB
 90
-16777216
102
RTVSPost2010PropOp51
 70
     0
102
RTVSPost2010Prop52
140
1.0
102
RTVSPost2010PropOp52
 70
     0
102
RTVSPost2010Prop53
 90
        2
102
RTVSPost2010PropOp53
 70
     0
102
RTVSPost2010Prop54
  1
strokes_ogs.tif
102
RTVSPost2010PropOp54
 70
     0
102
RTVSPost2010Prop55
280
     0
102
RTVSPost2010PropOp55
 70
     1
102
RTVSPost2010Prop56
140
1.0
102
RTVSPost2010PropOp56
 70
     0
102
RTVSPost2010Prop57
140
1.0
102
RTVSPost2010PropOp57
 70
     0
102
RTVSPropertyOp0
 70
     0
102
RTVSPropertyOp1
 70
     0
102
RTVSPropertyOp2
 70
     0
102
RTVSPropertyOp3
 70
     0
102
RTVSPropertyOp4
 70
     0
102
RTVSPropertyOp5
 70
     0
102
RTVSPropertyOp6
 70
     0
102
RTVSPropertyOp7
 70
     0
102
RTVSPropertyOp8
 70
     0
102
RTVSPropertyOp9
 70
     0
102
RTVSPropertyOp10
 70
     0
102
RTVSPropertyOp11
 70
     0
102
RTVSPropertyOp12
 70
     0
102
RTVSPropertyOp13
 70
     0
102
RTVSPropertyOp14
 70
     2
102
RTVSPropertyOp15
 70
     0
102
RTVSPropertyOp16
 70
     0
102
RTVSPropertyOp17
 70
     0
102
RTVSPropertyOp18
 70
     0
102
RTVSPropertyOp19
 70
     0
102
RTVSPropertyOp20
 70
     0
102
RTVSPropertyOp21
 70
     0
102
RTVSPropertyOp22
 70
     0
102
RTVSPropertyOp23
 70
     0
102
RTVSPropertyOp24
 70
     0
102
RTVSPropertyOp25
 70
     0
102
RTVSPropertyOp26
 70
     0
102
RTVSPropertyOp27
 70
     0
102
RTVSPropertyOp28
 70
     1
102
RTVSPropertyOp29
 70
     1
102
RTVSPropertyOp30
 70
     1
102
RTVSPropertyOp31
 70
     1
102
RTVSPropertyOp32
 70
     1
102
RTVSPropertyOp33
 70
     1
102
RTVSPropertyOp34
 70
     1
102
RTVSPropertyOp35
 70
     1
102
RTVSPropertyOp36
 70
     1
102
RTVSPropertyOp37
 70
     0
102
RTVSPropertyOp38
 70
     0
102
RTVSPropertyOp39
 70
     0
102
RTVSPropertyOp40
 70
     0
102
RTVSPropertyOp41
 70
     0
102
RTVSPropertyOp42
 70
     0
102
RTVSPropertyOp43
 70
     0
102
RTVSPropertyOp44
 70
     0
102
RTVSPropertyOp45
 70
     1
102
RTVSPropertyOp46
 70
     0
102
RTVSPropertyOp47
 70
     0
102
RTVSPropertyOp48
 70
     0
102
RTVSPropertyOp49
 70
     1
102
RTVSPropertyOp50
 70
     0
102
RTVSPropertyOp51
 70
     0
102
RTVSPropertyOp52
 70
     0
102
RTVSPropertyOp53
 70
     0
102
RTVSPropertyOp54
 70
     0
102
RTVSPropertyOp55
 70
     1
102
RTVSPropertyOp56
 70
     0
102
RTVSPropertyOp57
 70
     0
102
RTVSPropertyOp58
 70
     0
102
RTVSPropertyOp59
 70
     0
102
RTVSPropertyOp60
 70
     0
102
RTVSPropertyOp61
 70
     0
102
RTVSPropertyOp62
 70
     0
  0
XRECORD
  5
C40A
102
{ACAD_REACTORS
330
C409
102
}
330
C409
100
AcDbXrecord
280
     1
102
RTVSPost2010Prop28
280
     0
102
RTVSPost2010PropOp28
 70
     1
102
RTVSPost2010Prop29
280
     1
102
RTVSPost2010PropOp29
 70
     1
102
RTVSPost2010Prop30
280
     1
102
RTVSPost2010PropOp30
 70
     1
102
RTVSPost2010Prop31
280
     0
102
RTVSPost2010PropOp31
 70
     1
102
RTVSPost2010Prop32
280
     0
102
RTVSPost2010PropOp32
 70
     1
102
RTVSPost2010Prop33
280
     0
102
RTVSPost2010PropOp33
 70
     1
102
RTVSPost2010Prop34
280
     0
102
RTVSPost2010PropOp34
 70
     1
102
RTVSPost2010Prop35
280
     0
102
RTVSPost2010PropOp35
 70
     1
102
RTVSPost2010Prop36
280
     0
102
RTVSPost2010PropOp36
 70
     1
102
RTVSPost2010Prop37
 90
       50
102
RTVSPost2010PropOp37
 70
     1
102
RTVSPost2010Prop38
140
0.0
102
RTVSPost2010PropOp38
 70
     1
102
RTVSPost2010Prop39
140
1.0
102
RTVSPost2010PropOp39
 70
     1
102
RTVSPost2010Prop40
 90
        0
102
RTVSPost2010PropOp40
 70
     1
102
RTVSPost2010Prop41ColorIndex
 90
       18
102
RTVSPost2010Prop41ColorRGB
 90
        0
102
RTVSPost2010PropOp41
 70
     1
102
RTVSPost2010Prop42
 90
       50
102
RTVSPost2010PropOp42
 70
     1
102
RTVSPost2010Prop43
 90
        3
102
RTVSPost2010PropOp43
 70
     1
102
RTVSPost2010Prop44ColorIndex
 90
        5
102
RTVSPost2010Prop44ColorRGB
 90
      255
102
RTVSPost2010PropOp44
 70
     1
102
RTVSPost2010Prop45
280
     0
102
RTVSPost2010PropOp45
 70
     1
102
RTVSPost2010Prop46
 90
       50
102
RTVSPost2010PropOp46
 70
     1
102
RTVSPost2010Prop47
 90
       50
102
RTVSPost2010PropOp47
 70
     1
102
RTVSPost2010Prop48
 90
       50
102
RTVSPost2010PropOp48
 70
     1
102
RTVSPost2010Prop49
280
     0
102
RTVSPost2010PropOp49
 70
     1
102
RTVSPost2010Prop50
 90
       50
102
RTVSPost2010PropOp50
 70
     1
102
RTVSPost2010Prop51ColorIndex
 90
      256
102
RTVSPost2010Prop51ColorRGB
 90
-16777216
102
RTVSPost2010PropOp51
 70
     0
102
RTVSPost2010Prop52
140
1.0
102
RTVSPost2010PropOp52
 70
     0
102
RTVSPost2010Prop53
 90
        2
102
RTVSPost2010PropOp53
 70
     1
102
RTVSPost2010Prop54
  1
strokes_ogs.tif
102
RTVSPost2010PropOp54
 70
     1
102
RTVSPost2010Prop55
280
     0
102
RTVSPost2010PropOp55
 70
     1
102
RTVSPost2010Prop56
140
1.0
102
RTVSPost2010PropOp56
 70
     1
102
RTVSPost2010Prop57
140
1.0
102
RTVSPost2010PropOp57
 70
     1
102
RTVSPropertyOp0
 70
     1
102
RTVSPropertyOp1
 70
     1
102
RTVSPropertyOp2
 70
     1
102
RTVSPropertyOp3
 70
     1
102
RTVSPropertyOp4
 70
     1
102
RTVSPropertyOp5
 70
     1
102
RTVSPropertyOp6
 70
     1
102
RTVSPropertyOp7
 70
     1
102
RTVSPropertyOp8
 70
     1
102
RTVSPropertyOp9
 70
     1
102
RTVSPropertyOp10
 70
     1
102
RTVSPropertyOp11
 70
     1
102
RTVSPropertyOp12
 70
     1
102
RTVSPropertyOp13
 70
     1
102
RTVSPropertyOp14
 70
     1
102
RTVSPropertyOp15
 70
     1
102
RTVSPropertyOp16
 70
     1
102
RTVSPropertyOp17
 70
     1
102
RTVSPropertyOp18
 70
     1
102
RTVSPropertyOp19
 70
     1
102
RTVSPropertyOp20
 70
     1
102
RTVSPropertyOp21
 70
     1
102
RTVSPropertyOp22
 70
     1
102
RTVSPropertyOp23
 70
     1
102
RTVSPropertyOp24
 70
     1
102
RTVSPropertyOp25
 70
     1
102
RTVSPropertyOp26
 70
     1
102
RTVSPropertyOp27
 70
     1
102
RTVSPropertyOp28
 70
     1
102
RTVSPropertyOp29
 70
     1
102
RTVSPropertyOp30
 70
     1
102
RTVSPropertyOp31
 70
     1
102
RTVSPropertyOp32
 70
     1
102
RTVSPropertyOp33
 70
     1
102
RTVSPropertyOp34
 70
     1
102
RTVSPropertyOp35
 70
     1
102
RTVSPropertyOp36
 70
     1
102
RTVSPropertyOp37
 70
     1
102
RTVSPropertyOp38
 70
     1
102
RTVSPropertyOp39
 70
     1
102
RTVSPropertyOp40
 70
     1
102
RTVSPropertyOp41
 70
     1
102
RTVSPropertyOp42
 70
     1
102
RTVSPropertyOp43
 70
     1
102
RTVSPropertyOp44
 70
     1
102
RTVSPropertyOp45
 70
     1
102
RTVSPropertyOp46
 70
     1
102
RTVSPropertyOp47
 70
     1
102
RTVSPropertyOp48
 70
     1
102
RTVSPropertyOp49
 70
     1
102
RTVSPropertyOp50
 70
     1
102
RTVSPropertyOp51
 70
     0
102
RTVSPropertyOp52
 70
     0
102
RTVSPropertyOp53
 70
     1
102
RTVSPropertyOp54
 70
     1
102
RTVSPropertyOp55
 70
     1
102
RTVSPropertyOp56
 70
     1
102
RTVSPropertyOp57
 70
     1
102
RTVSPropertyOp58
 70
     1
102
RTVSPropertyOp59
 70
     1
102
RTVSPropertyOp60
 70
     1
102
RTVSPropertyOp61
 70
     1
102
RTVSPropertyOp62
 70
     1
  0
XRECORD
  5
C3EE
102
{ACAD_REACTORS
330
C3ED
102
}
330
C3ED
100
AcDbXrecord
280
     1
102
RTVSPost2010Prop28
280
     0
102
RTVSPost2010PropOp28
 70
     1
102
RTVSPost2010Prop29
280
     1
102
RTVSPost2010PropOp29
 70
     1
102
RTVSPost2010Prop30
280
     1
102
RTVSPost2010PropOp30
 70
     1
102
RTVSPost2010Prop31
280
     0
102
RTVSPost2010PropOp31
 70
     1
102
RTVSPost2010Prop32
280
     0
102
RTVSPost2010PropOp32
 70
     1
102
RTVSPost2010Prop33
280
     0
102
RTVSPost2010PropOp33
 70
     1
102
RTVSPost2010Prop34
280
     0
102
RTVSPost2010PropOp34
 70
     1
102
RTVSPost2010Prop35
280
     0
102
RTVSPost2010PropOp35
 70
     1
102
RTVSPost2010Prop36
280
     0
102
RTVSPost2010PropOp36
 70
     1
102
RTVSPost2010Prop37
 90
       50
102
RTVSPost2010PropOp37
 70
     1
102
RTVSPost2010Prop38
140
0.0
102
RTVSPost2010PropOp38
 70
     1
102
RTVSPost2010Prop39
140
1.0
102
RTVSPost2010PropOp39
 70
     1
102
RTVSPost2010Prop40
 90
        0
102
RTVSPost2010PropOp40
 70
     1
102
RTVSPost2010Prop41ColorIndex
 90
       18
102
RTVSPost2010Prop41ColorRGB
 90
        0
102
RTVSPost2010PropOp41
 70
     1
102
RTVSPost2010Prop42
 90
       50
102
RTVSPost2010PropOp42
 70
     1
102
RTVSPost2010Prop43
 90
        3
102
RTVSPost2010PropOp43
 70
     1
102
RTVSPost2010Prop44ColorIndex
 90
        5
102
RTVSPost2010Prop44ColorRGB
 90
      255
102
RTVSPost2010PropOp44
 70
     1
102
RTVSPost2010Prop45
280
     0
102
RTVSPost2010PropOp45
 70
     1
102
RTVSPost2010Prop46
 90
       50
102
RTVSPost2010PropOp46
 70
     1
102
RTVSPost2010Prop47
 90
       50
102
RTVSPost2010PropOp47
 70
     1
102
RTVSPost2010Prop48
 90
       50
102
RTVSPost2010PropOp48
 70
     1
102
RTVSPost2010Prop49
280
     0
102
RTVSPost2010PropOp49
 70
     1
102
RTVSPost2010Prop50
 90
       50
102
RTVSPost2010PropOp50
 70
     1
102
RTVSPost2010Prop51ColorIndex
 90
      256
102
RTVSPost2010Prop51ColorRGB
 90
-16777216
102
RTVSPost2010PropOp51
 70
     0
102
RTVSPost2010Prop52
140
1.0
102
RTVSPost2010PropOp52
 70
     0
102
RTVSPost2010Prop53
 90
        2
102
RTVSPost2010PropOp53
 70
     1
102
RTVSPost2010Prop54
  1
strokes_ogs.tif
102
RTVSPost2010PropOp54
 70
     1
102
RTVSPost2010Prop55
280
     0
102
RTVSPost2010PropOp55
 70
     1
102
RTVSPost2010Prop56
140
1.0
102
RTVSPost2010PropOp56
 70
     1
102
RTVSPost2010Prop57
140
1.0
102
RTVSPost2010PropOp57
 70
     1
102
RTVSPropertyOp0
 70
     1
102
RTVSPropertyOp1
 70
     1
102
RTVSPropertyOp2
 70
     1
102
RTVSPropertyOp3
 70
     1
102
RTVSPropertyOp4
 70
     1
102
RTVSPropertyOp5
 70
     1
102
RTVSPropertyOp6
 70
     1
102
RTVSPropertyOp7
 70
     1
102
RTVSPropertyOp8
 70
     1
102
RTVSPropertyOp9
 70
     1
102
RTVSPropertyOp10
 70
     1
102
RTVSPropertyOp11
 70
     1
102
RTVSPropertyOp12
 70
     1
102
RTVSPropertyOp13
 70
     1
102
RTVSPropertyOp14
 70
     1
102
RTVSPropertyOp15
 70
     1
102
RTVSPropertyOp16
 70
     1
102
RTVSPropertyOp17
 70
     1
102
RTVSPropertyOp18
 70
     1
102
RTVSPropertyOp19
 70
     1
102
RTVSPropertyOp20
 70
     1
102
RTVSPropertyOp21
 70
     1
102
RTVSPropertyOp22
 70
     1
102
RTVSPropertyOp23
 70
     1
102
RTVSPropertyOp24
 70
     1
102
RTVSPropertyOp25
 70
     1
102
RTVSPropertyOp26
 70
     1
102
RTVSPropertyOp27
 70
     1
102
RTVSPropertyOp28
 70
     1
102
RTVSPropertyOp29
 70
     1
102
RTVSPropertyOp30
 70
     1
102
RTVSPropertyOp31
 70
     1
102
RTVSPropertyOp32
 70
     1
102
RTVSPropertyOp33
 70
     1
102
RTVSPropertyOp34
 70
     1
102
RTVSPropertyOp35
 70
     1
102
RTVSPropertyOp36
 70
     1
102
RTVSPropertyOp37
 70
     1
102
RTVSPropertyOp38
 70
     1
102
RTVSPropertyOp39
 70
     1
102
RTVSPropertyOp40
 70
     1
102
RTVSPropertyOp41
 70
     1
102
RTVSPropertyOp42
 70
     1
102
RTVSPropertyOp43
 70
     1
102
RTVSPropertyOp44
 70
     1
102
RTVSPropertyOp45
 70
     1
102
RTVSPropertyOp46
 70
     1
102
RTVSPropertyOp47
 70
     1
102
RTVSPropertyOp48
 70
     1
102
RTVSPropertyOp49
 70
     1
102
RTVSPropertyOp50
 70
     1
102
RTVSPropertyOp51
 70
     0
102
RTVSPropertyOp52
 70
     0
102
RTVSPropertyOp53
 70
     1
102
RTVSPropertyOp54
 70
     1
102
RTVSPropertyOp55
 70
     1
102
RTVSPropertyOp56
 70
     1
102
RTVSPropertyOp57
 70
     1
102
RTVSPropertyOp58
 70
     1
102
RTVSPropertyOp59
 70
     1
102
RTVSPropertyOp60
 70
     1
102
RTVSPropertyOp61
 70
     1
102
RTVSPropertyOp62
 70
     1
  0
XRECORD
  5
C3F0
102
{ACAD_REACTORS
330
C3EF
102
}
330
C3EF
100
AcDbXrecord
280
     1
102
RTVSPost2010Prop28
280
     0
102
RTVSPost2010PropOp28
 70
     1
102
RTVSPost2010Prop29
280
     1
102
RTVSPost2010PropOp29
 70
     1
102
RTVSPost2010Prop30
280
     1
102
RTVSPost2010PropOp30
 70
     1
102
RTVSPost2010Prop31
280
     0
102
RTVSPost2010PropOp31
 70
     1
102
RTVSPost2010Prop32
280
     0
102
RTVSPost2010PropOp32
 70
     1
102
RTVSPost2010Prop33
280
     0
102
RTVSPost2010PropOp33
 70
     1
102
RTVSPost2010Prop34
280
     0
102
RTVSPost2010PropOp34
 70
     1
102
RTVSPost2010Prop35
280
     0
102
RTVSPost2010PropOp35
 70
     1
102
RTVSPost2010Prop36
280
     0
102
RTVSPost2010PropOp36
 70
     1
102
RTVSPost2010Prop37
 90
       50
102
RTVSPost2010PropOp37
 70
     1
102
RTVSPost2010Prop38
140
0.0
102
RTVSPost2010PropOp38
 70
     1
102
RTVSPost2010Prop39
140
1.0
102
RTVSPost2010PropOp39
 70
     1
102
RTVSPost2010Prop40
 90
        0
102
RTVSPost2010PropOp40
 70
     1
102
RTVSPost2010Prop41ColorIndex
 90
       18
102
RTVSPost2010Prop41ColorRGB
 90
        0
102
RTVSPost2010PropOp41
 70
     1
102
RTVSPost2010Prop42
 90
       50
102
RTVSPost2010PropOp42
 70
     1
102
RTVSPost2010Prop43
 90
        3
102
RTVSPost2010PropOp43
 70
     1
102
RTVSPost2010Prop44ColorIndex
 90
        5
102
RTVSPost2010Prop44ColorRGB
 90
      255
102
RTVSPost2010PropOp44
 70
     1
102
RTVSPost2010Prop45
280
     0
102
RTVSPost2010PropOp45
 70
     1
102
RTVSPost2010Prop46
 90
       50
102
RTVSPost2010PropOp46
 70
     1
102
RTVSPost2010Prop47
 90
       50
102
RTVSPost2010PropOp47
 70
     1
102
RTVSPost2010Prop48
 90
       50
102
RTVSPost2010PropOp48
 70
     1
102
RTVSPost2010Prop49
280
     0
102
RTVSPost2010PropOp49
 70
     1
102
RTVSPost2010Prop50
 90
       50
102
RTVSPost2010PropOp50
 70
     1
102
RTVSPost2010Prop51ColorIndex
 90
      256
102
RTVSPost2010Prop51ColorRGB
 90
-16777216
102
RTVSPost2010PropOp51
 70
     0
102
RTVSPost2010Prop52
140
1.0
102
RTVSPost2010PropOp52
 70
     0
102
RTVSPost2010Prop53
 90
        2
102
RTVSPost2010PropOp53
 70
     1
102
RTVSPost2010Prop54
  1
strokes_ogs.tif
102
RTVSPost2010PropOp54
 70
     1
102
RTVSPost2010Prop55
280
     0
102
RTVSPost2010PropOp55
 70
     1
102
RTVSPost2010Prop56
140
1.0
102
RTVSPost2010PropOp56
 70
     1
102
RTVSPost2010Prop57
140
1.0
102
RTVSPost2010PropOp57
 70
     1
102
RTVSPropertyOp0
 70
     1
102
RTVSPropertyOp1
 70
     1
102
RTVSPropertyOp2
 70
     1
102
RTVSPropertyOp3
 70
     1
102
RTVSPropertyOp4
 70
     1
102
RTVSPropertyOp5
 70
     1
102
RTVSPropertyOp6
 70
     1
102
RTVSPropertyOp7
 70
     1
102
RTVSPropertyOp8
 70
     1
102
RTVSPropertyOp9
 70
     1
102
RTVSPropertyOp10
 70
     1
102
RTVSPropertyOp11
 70
     1
102
RTVSPropertyOp12
 70
     1
102
RTVSPropertyOp13
 70
     1
102
RTVSPropertyOp14
 70
     1
102
RTVSPropertyOp15
 70
     1
102
RTVSPropertyOp16
 70
     1
102
RTVSPropertyOp17
 70
     1
102
RTVSPropertyOp18
 70
     1
102
RTVSPropertyOp19
 70
     1
102
RTVSPropertyOp20
 70
     1
102
RTVSPropertyOp21
 70
     1
102
RTVSPropertyOp22
 70
     1
102
RTVSPropertyOp23
 70
     1
102
RTVSPropertyOp24
 70
     1
102
RTVSPropertyOp25
 70
     1
102
RTVSPropertyOp26
 70
     1
102
RTVSPropertyOp27
 70
     1
102
RTVSPropertyOp28
 70
     1
102
RTVSPropertyOp29
 70
     1
102
RTVSPropertyOp30
 70
     1
102
RTVSPropertyOp31
 70
     1
102
RTVSPropertyOp32
 70
     1
102
RTVSPropertyOp33
 70
     1
102
RTVSPropertyOp34
 70
     1
102
RTVSPropertyOp35
 70
     1
102
RTVSPropertyOp36
 70
     1
102
RTVSPropertyOp37
 70
     1
102
RTVSPropertyOp38
 70
     1
102
RTVSPropertyOp39
 70
     1
102
RTVSPropertyOp40
 70
     1
102
RTVSPropertyOp41
 70
     1
102
RTVSPropertyOp42
 70
     1
102
RTVSPropertyOp43
 70
     1
102
RTVSPropertyOp44
 70
     1
102
RTVSPropertyOp45
 70
     1
102
RTVSPropertyOp46
 70
     1
102
RTVSPropertyOp47
 70
     1
102
RTVSPropertyOp48
 70
     1
102
RTVSPropertyOp49
 70
     1
102
RTVSPropertyOp50
 70
     1
102
RTVSPropertyOp51
 70
     0
102
RTVSPropertyOp52
 70
     0
102
RTVSPropertyOp53
 70
     1
102
RTVSPropertyOp54
 70
     1
102
RTVSPropertyOp55
 70
     1
102
RTVSPropertyOp56
 70
     1
102
RTVSPropertyOp57
 70
     1
102
RTVSPropertyOp58
 70
     1
102
RTVSPropertyOp59
 70
     1
102
RTVSPropertyOp60
 70
     1
102
RTVSPropertyOp61
 70
     1
102
RTVSPropertyOp62
 70
     1
  0
XRECORD
  5
C3F2
102
{ACAD_REACTORS
330
C3F1
102
}
330
C3F1
100
AcDbXrecord
280
     1
102
RTVSPost2010Prop28
280
     0
102
RTVSPost2010PropOp28
 70
     1
102
RTVSPost2010Prop29
280
     1
102
RTVSPost2010PropOp29
 70
     1
102
RTVSPost2010Prop30
280
     1
102
RTVSPost2010PropOp30
 70
     1
102
RTVSPost2010Prop31
280
     0
102
RTVSPost2010PropOp31
 70
     1
102
RTVSPost2010Prop32
280
     0
102
RTVSPost2010PropOp32
 70
     1
102
RTVSPost2010Prop33
280
     0
102
RTVSPost2010PropOp33
 70
     1
102
RTVSPost2010Prop34
280
     0
102
RTVSPost2010PropOp34
 70
     1
102
RTVSPost2010Prop35
280
     0
102
RTVSPost2010PropOp35
 70
     1
102
RTVSPost2010Prop36
280
     0
102
RTVSPost2010PropOp36
 70
     1
102
RTVSPost2010Prop37
 90
       50
102
RTVSPost2010PropOp37
 70
     1
102
RTVSPost2010Prop38
140
0.0
102
RTVSPost2010PropOp38
 70
     1
102
RTVSPost2010Prop39
140
1.0
102
RTVSPost2010PropOp39
 70
     1
102
RTVSPost2010Prop40
 90
        0
102
RTVSPost2010PropOp40
 70
     1
102
RTVSPost2010Prop41ColorIndex
 90
       18
102
RTVSPost2010Prop41ColorRGB
 90
        0
102
RTVSPost2010PropOp41
 70
     1
102
RTVSPost2010Prop42
 90
       50
102
RTVSPost2010PropOp42
 70
     1
102
RTVSPost2010Prop43
 90
        3
102
RTVSPost2010PropOp43
 70
     1
102
RTVSPost2010Prop44ColorIndex
 90
        5
102
RTVSPost2010Prop44ColorRGB
 90
      255
102
RTVSPost2010PropOp44
 70
     1
102
RTVSPost2010Prop45
280
     0
102
RTVSPost2010PropOp45
 70
     1
102
RTVSPost2010Prop46
 90
       50
102
RTVSPost2010PropOp46
 70
     1
102
RTVSPost2010Prop47
 90
       50
102
RTVSPost2010PropOp47
 70
     1
102
RTVSPost2010Prop48
 90
       50
102
RTVSPost2010PropOp48
 70
     1
102
RTVSPost2010Prop49
280
     0
102
RTVSPost2010PropOp49
 70
     1
102
RTVSPost2010Prop50
 90
       50
102
RTVSPost2010PropOp50
 70
     1
102
RTVSPost2010Prop51ColorIndex
 90
      256
102
RTVSPost2010Prop51ColorRGB
 90
-16777216
102
RTVSPost2010PropOp51
 70
     0
102
RTVSPost2010Prop52
140
1.0
102
RTVSPost2010PropOp52
 70
     0
102
RTVSPost2010Prop53
 90
        2
102
RTVSPost2010PropOp53
 70
     1
102
RTVSPost2010Prop54
  1
strokes_ogs.tif
102
RTVSPost2010PropOp54
 70
     1
102
RTVSPost2010Prop55
280
     0
102
RTVSPost2010PropOp55
 70
     1
102
RTVSPost2010Prop56
140
1.0
102
RTVSPost2010PropOp56
 70
     1
102
RTVSPost2010Prop57
140
1.0
102
RTVSPost2010PropOp57
 70
     1
102
RTVSPropertyOp0
 70
     1
102
RTVSPropertyOp1
 70
     1
102
RTVSPropertyOp2
 70
     1
102
RTVSPropertyOp3
 70
     1
102
RTVSPropertyOp4
 70
     1
102
RTVSPropertyOp5
 70
     1
102
RTVSPropertyOp6
 70
     1
102
RTVSPropertyOp7
 70
     1
102
RTVSPropertyOp8
 70
     1
102
RTVSPropertyOp9
 70
     1
102
RTVSPropertyOp10
 70
     1
102
RTVSPropertyOp11
 70
     1
102
RTVSPropertyOp12
 70
     1
102
RTVSPropertyOp13
 70
     1
102
RTVSPropertyOp14
 70
     1
102
RTVSPropertyOp15
 70
     1
102
RTVSPropertyOp16
 70
     1
102
RTVSPropertyOp17
 70
     1
102
RTVSPropertyOp18
 70
     1
102
RTVSPropertyOp19
 70
     1
102
RTVSPropertyOp20
 70
     1
102
RTVSPropertyOp21
 70
     1
102
RTVSPropertyOp22
 70
     1
102
RTVSPropertyOp23
 70
     1
102
RTVSPropertyOp24
 70
     1
102
RTVSPropertyOp25
 70
     1
102
RTVSPropertyOp26
 70
     1
102
RTVSPropertyOp27
 70
     1
102
RTVSPropertyOp28
 70
     1
102
RTVSPropertyOp29
 70
     1
102
RTVSPropertyOp30
 70
     1
102
RTVSPropertyOp31
 70
     1
102
RTVSPropertyOp32
 70
     1
102
RTVSPropertyOp33
 70
     1
102
RTVSPropertyOp34
 70
     1
102
RTVSPropertyOp35
 70
     1
102
RTVSPropertyOp36
 70
     1
102
RTVSPropertyOp37
 70
     1
102
RTVSPropertyOp38
 70
     1
102
RTVSPropertyOp39
 70
     1
102
RTVSPropertyOp40
 70
     1
102
RTVSPropertyOp41
 70
     1
102
RTVSPropertyOp42
 70
     1
102
RTVSPropertyOp43
 70
     1
102
RTVSPropertyOp44
 70
     1
102
RTVSPropertyOp45
 70
     1
102
RTVSPropertyOp46
 70
     1
102
RTVSPropertyOp47
 70
     1
102
RTVSPropertyOp48
 70
     1
102
RTVSPropertyOp49
 70
     1
102
RTVSPropertyOp50
 70
     1
102
RTVSPropertyOp51
 70
     0
102
RTVSPropertyOp52
 70
     0
102
RTVSPropertyOp53
 70
     1
102
RTVSPropertyOp54
 70
     1
102
RTVSPropertyOp55
 70
     1
102
RTVSPropertyOp56
 70
     1
102
RTVSPropertyOp57
 70
     1
102
RTVSPropertyOp58
 70
     1
102
RTVSPropertyOp59
 70
     1
102
RTVSPropertyOp60
 70
     1
102
RTVSPropertyOp61
 70
     1
102
RTVSPropertyOp62
 70
     1
  0
XRECORD
  5
C3F4
102
{ACAD_REACTORS
330
C3F3
102
}
330
C3F3
100
AcDbXrecord
280
     1
102
RTVSPost2010Prop28
280
     0
102
RTVSPost2010PropOp28
 70
     1
102
RTVSPost2010Prop29
280
     1
102
RTVSPost2010PropOp29
 70
     1
102
RTVSPost2010Prop30
280
     1
102
RTVSPost2010PropOp30
 70
     1
102
RTVSPost2010Prop31
280
     0
102
RTVSPost2010PropOp31
 70
     1
102
RTVSPost2010Prop32
280
     0
102
RTVSPost2010PropOp32
 70
     1
102
RTVSPost2010Prop33
280
     0
102
RTVSPost2010PropOp33
 70
     1
102
RTVSPost2010Prop34
280
     0
102
RTVSPost2010PropOp34
 70
     1
102
RTVSPost2010Prop35
280
     0
102
RTVSPost2010PropOp35
 70
     1
102
RTVSPost2010Prop36
280
     0
102
RTVSPost2010PropOp36
 70
     1
102
RTVSPost2010Prop37
 90
       50
102
RTVSPost2010PropOp37
 70
     1
102
RTVSPost2010Prop38
140
0.0
102
RTVSPost2010PropOp38
 70
     1
102
RTVSPost2010Prop39
140
1.0
102
RTVSPost2010PropOp39
 70
     1
102
RTVSPost2010Prop40
 90
        0
102
RTVSPost2010PropOp40
 70
     1
102
RTVSPost2010Prop41ColorIndex
 90
       18
102
RTVSPost2010Prop41ColorRGB
 90
        0
102
RTVSPost2010PropOp41
 70
     1
102
RTVSPost2010Prop42
 90
       50
102
RTVSPost2010PropOp42
 70
     1
102
RTVSPost2010Prop43
 90
        3
102
RTVSPost2010PropOp43
 70
     1
102
RTVSPost2010Prop44ColorIndex
 90
        5
102
RTVSPost2010Prop44ColorRGB
 90
      255
102
RTVSPost2010PropOp44
 70
     1
102
RTVSPost2010Prop45
280
     0
102
RTVSPost2010PropOp45
 70
     1
102
RTVSPost2010Prop46
 90
       50
102
RTVSPost2010PropOp46
 70
     1
102
RTVSPost2010Prop47
 90
       50
102
RTVSPost2010PropOp47
 70
     1
102
RTVSPost2010Prop48
 90
       50
102
RTVSPost2010PropOp48
 70
     1
102
RTVSPost2010Prop49
280
     0
102
RTVSPost2010PropOp49
 70
     1
102
RTVSPost2010Prop50
 90
       50
102
RTVSPost2010PropOp50
 70
     1
102
RTVSPost2010Prop51ColorIndex
 90
      256
102
RTVSPost2010Prop51ColorRGB
 90
-16777216
102
RTVSPost2010PropOp51
 70
     0
102
RTVSPost2010Prop52
140
1.0
102
RTVSPost2010PropOp52
 70
     0
102
RTVSPost2010Prop53
 90
        2
102
RTVSPost2010PropOp53
 70
     1
102
RTVSPost2010Prop54
  1
strokes_ogs.tif
102
RTVSPost2010PropOp54
 70
     1
102
RTVSPost2010Prop55
280
     0
102
RTVSPost2010PropOp55
 70
     1
102
RTVSPost2010Prop56
140
1.0
102
RTVSPost2010PropOp56
 70
     1
102
RTVSPost2010Prop57
140
1.0
102
RTVSPost2010PropOp57
 70
     1
102
RTVSPropertyOp0
 70
     1
102
RTVSPropertyOp1
 70
     1
102
RTVSPropertyOp2
 70
     1
102
RTVSPropertyOp3
 70
     1
102
RTVSPropertyOp4
 70
     1
102
RTVSPropertyOp5
 70
     1
102
RTVSPropertyOp6
 70
     1
102
RTVSPropertyOp7
 70
     1
102
RTVSPropertyOp8
 70
     1
102
RTVSPropertyOp9
 70
     1
102
RTVSPropertyOp10
 70
     1
102
RTVSPropertyOp11
 70
     1
102
RTVSPropertyOp12
 70
     1
102
RTVSPropertyOp13
 70
     1
102
RTVSPropertyOp14
 70
     1
102
RTVSPropertyOp15
 70
     1
102
RTVSPropertyOp16
 70
     1
102
RTVSPropertyOp17
 70
     1
102
RTVSPropertyOp18
 70
     1
102
RTVSPropertyOp19
 70
     1
102
RTVSPropertyOp20
 70
     1
102
RTVSPropertyOp21
 70
     1
102
RTVSPropertyOp22
 70
     1
102
RTVSPropertyOp23
 70
     1
102
RTVSPropertyOp24
 70
     1
102
RTVSPropertyOp25
 70
     1
102
RTVSPropertyOp26
 70
     1
102
RTVSPropertyOp27
 70
     1
102
RTVSPropertyOp28
 70
     1
102
RTVSPropertyOp29
 70
     1
102
RTVSPropertyOp30
 70
     1
102
RTVSPropertyOp31
 70
     1
102
RTVSPropertyOp32
 70
     1
102
RTVSPropertyOp33
 70
     1
102
RTVSPropertyOp34
 70
     1
102
RTVSPropertyOp35
 70
     1
102
RTVSPropertyOp36
 70
     1
102
RTVSPropertyOp37
 70
     1
102
RTVSPropertyOp38
 70
     1
102
RTVSPropertyOp39
 70
     1
102
RTVSPropertyOp40
 70
     1
102
RTVSPropertyOp41
 70
     1
102
RTVSPropertyOp42
 70
     1
102
RTVSPropertyOp43
 70
     1
102
RTVSPropertyOp44
 70
     1
102
RTVSPropertyOp45
 70
     1
102
RTVSPropertyOp46
 70
     1
102
RTVSPropertyOp47
 70
     1
102
RTVSPropertyOp48
 70
     1
102
RTVSPropertyOp49
 70
     1
102
RTVSPropertyOp50
 70
     1
102
RTVSPropertyOp51
 70
     0
102
RTVSPropertyOp52
 70
     0
102
RTVSPropertyOp53
 70
     1
102
RTVSPropertyOp54
 70
     1
102
RTVSPropertyOp55
 70
     1
102
RTVSPropertyOp56
 70
     1
102
RTVSPropertyOp57
 70
     1
102
RTVSPropertyOp58
 70
     1
102
RTVSPropertyOp59
 70
     1
102
RTVSPropertyOp60
 70
     1
102
RTVSPropertyOp61
 70
     1
102
RTVSPropertyOp62
 70
     1
  0
XRECORD
  5
C3FC
102
{ACAD_REACTORS
330
C3FB
102
}
330
C3FB
100
AcDbXrecord
280
     1
102
RTVSPost2010Prop28
280
     0
102
RTVSPost2010PropOp28
 70
     1
102
RTVSPost2010Prop29
280
     1
102
RTVSPost2010PropOp29
 70
     1
102
RTVSPost2010Prop30
280
     1
102
RTVSPost2010PropOp30
 70
     1
102
RTVSPost2010Prop31
280
     0
102
RTVSPost2010PropOp31
 70
     1
102
RTVSPost2010Prop32
280
     0
102
RTVSPost2010PropOp32
 70
     1
102
RTVSPost2010Prop33
280
     0
102
RTVSPost2010PropOp33
 70
     1
102
RTVSPost2010Prop34
280
     0
102
RTVSPost2010PropOp34
 70
     1
102
RTVSPost2010Prop35
280
     0
102
RTVSPost2010PropOp35
 70
     1
102
RTVSPost2010Prop36
280
     0
102
RTVSPost2010PropOp36
 70
     1
102
RTVSPost2010Prop37
 90
       50
102
RTVSPost2010PropOp37
 70
     1
102
RTVSPost2010Prop38
140
0.0
102
RTVSPost2010PropOp38
 70
     1
102
RTVSPost2010Prop39
140
1.0
102
RTVSPost2010PropOp39
 70
     1
102
RTVSPost2010Prop40
 90
        0
102
RTVSPost2010PropOp40
 70
     1
102
RTVSPost2010Prop41ColorIndex
 90
       18
102
RTVSPost2010Prop41ColorRGB
 90
        0
102
RTVSPost2010PropOp41
 70
     1
102
RTVSPost2010Prop42
 90
       50
102
RTVSPost2010PropOp42
 70
     1
102
RTVSPost2010Prop43
 90
        3
102
RTVSPost2010PropOp43
 70
     1
102
RTVSPost2010Prop44ColorIndex
 90
        5
102
RTVSPost2010Prop44ColorRGB
 90
      255
102
RTVSPost2010PropOp44
 70
     1
102
RTVSPost2010Prop45
280
     0
102
RTVSPost2010PropOp45
 70
     1
102
RTVSPost2010Prop46
 90
       50
102
RTVSPost2010PropOp46
 70
     1
102
RTVSPost2010Prop47
 90
       50
102
RTVSPost2010PropOp47
 70
     1
102
RTVSPost2010Prop48
 90
       50
102
RTVSPost2010PropOp48
 70
     1
102
RTVSPost2010Prop49
280
     0
102
RTVSPost2010PropOp49
 70
     1
102
RTVSPost2010Prop50
 90
       50
102
RTVSPost2010PropOp50
 70
     1
102
RTVSPost2010Prop51ColorIndex
 90
      256
102
RTVSPost2010Prop51ColorRGB
 90
-16777216
102
RTVSPost2010PropOp51
 70
     0
102
RTVSPost2010Prop52
140
1.0
102
RTVSPost2010PropOp52
 70
     0
102
RTVSPost2010Prop53
 90
        2
102
RTVSPost2010PropOp53
 70
     1
102
RTVSPost2010Prop54
  1
strokes_ogs.tif
102
RTVSPost2010PropOp54
 70
     1
102
RTVSPost2010Prop55
280
     0
102
RTVSPost2010PropOp55
 70
     1
102
RTVSPost2010Prop56
140
1.0
102
RTVSPost2010PropOp56
 70
     1
102
RTVSPost2010Prop57
140
1.0
102
RTVSPost2010PropOp57
 70
     1
102
RTVSPropertyOp0
 70
     1
102
RTVSPropertyOp1
 70
     1
102
RTVSPropertyOp2
 70
     1
102
RTVSPropertyOp3
 70
     1
102
RTVSPropertyOp4
 70
     1
102
RTVSPropertyOp5
 70
     1
102
RTVSPropertyOp6
 70
     1
102
RTVSPropertyOp7
 70
     1
102
RTVSPropertyOp8
 70
     1
102
RTVSPropertyOp9
 70
     1
102
RTVSPropertyOp10
 70
     1
102
RTVSPropertyOp11
 70
     1
102
RTVSPropertyOp12
 70
     1
102
RTVSPropertyOp13
 70
     1
102
RTVSPropertyOp14
 70
     1
102
RTVSPropertyOp15
 70
     1
102
RTVSPropertyOp16
 70
     1
102
RTVSPropertyOp17
 70
     1
102
RTVSPropertyOp18
 70
     1
102
RTVSPropertyOp19
 70
     1
102
RTVSPropertyOp20
 70
     1
102
RTVSPropertyOp21
 70
     1
102
RTVSPropertyOp22
 70
     1
102
RTVSPropertyOp23
 70
     1
102
RTVSPropertyOp24
 70
     1
102
RTVSPropertyOp25
 70
     1
102
RTVSPropertyOp26
 70
     1
102
RTVSPropertyOp27
 70
     1
102
RTVSPropertyOp28
 70
     1
102
RTVSPropertyOp29
 70
     1
102
RTVSPropertyOp30
 70
     1
102
RTVSPropertyOp31
 70
     1
102
RTVSPropertyOp32
 70
     1
102
RTVSPropertyOp33
 70
     1
102
RTVSPropertyOp34
 70
     1
102
RTVSPropertyOp35
 70
     1
102
RTVSPropertyOp36
 70
     1
102
RTVSPropertyOp37
 70
     1
102
RTVSPropertyOp38
 70
     1
102
RTVSPropertyOp39
 70
     1
102
RTVSPropertyOp40
 70
     1
102
RTVSPropertyOp41
 70
     1
102
RTVSPropertyOp42
 70
     1
102
RTVSPropertyOp43
 70
     1
102
RTVSPropertyOp44
 70
     1
102
RTVSPropertyOp45
 70
     1
102
RTVSPropertyOp46
 70
     1
102
RTVSPropertyOp47
 70
     1
102
RTVSPropertyOp48
 70
     1
102
RTVSPropertyOp49
 70
     1
102
RTVSPropertyOp50
 70
     1
102
RTVSPropertyOp51
 70
     0
102
RTVSPropertyOp52
 70
     0
102
RTVSPropertyOp53
 70
     1
102
RTVSPropertyOp54
 70
     1
102
RTVSPropertyOp55
 70
     1
102
RTVSPropertyOp56
 70
     1
102
RTVSPropertyOp57
 70
     1
102
RTVSPropertyOp58
 70
     1
102
RTVSPropertyOp59
 70
     1
102
RTVSPropertyOp60
 70
     1
102
RTVSPropertyOp61
 70
     1
102
RTVSPropertyOp62
 70
     1
  0
XRECORD
  5
C418
102
{ACAD_REACTORS
330
C417
102
}
330
C417
100
AcDbXrecord
280
     1
102
RTVSPost2010Prop28
280
     0
102
RTVSPost2010PropOp28
 70
     1
102
RTVSPost2010Prop29
280
     1
102
RTVSPost2010PropOp29
 70
     1
102
RTVSPost2010Prop30
280
     1
102
RTVSPost2010PropOp30
 70
     1
102
RTVSPost2010Prop31
280
     0
102
RTVSPost2010PropOp31
 70
     1
102
RTVSPost2010Prop32
280
     0
102
RTVSPost2010PropOp32
 70
     1
102
RTVSPost2010Prop33
280
     0
102
RTVSPost2010PropOp33
 70
     1
102
RTVSPost2010Prop34
280
     0
102
RTVSPost2010PropOp34
 70
     1
102
RTVSPost2010Prop35
280
     0
102
RTVSPost2010PropOp35
 70
     1
102
RTVSPost2010Prop36
280
     0
102
RTVSPost2010PropOp36
 70
     1
102
RTVSPost2010Prop37
 90
       50
102
RTVSPost2010PropOp37
 70
     0
102
RTVSPost2010Prop38
140
0.0
102
RTVSPost2010PropOp38
 70
     0
102
RTVSPost2010Prop39
140
1.0
102
RTVSPost2010PropOp39
 70
     0
102
RTVSPost2010Prop40
 90
        0
102
RTVSPost2010PropOp40
 70
     0
102
RTVSPost2010Prop41ColorIndex
 90
       18
102
RTVSPost2010Prop41ColorRGB
 90
        0
102
RTVSPost2010PropOp41
 70
     0
102
RTVSPost2010Prop42
 90
       50
102
RTVSPost2010PropOp42
 70
     0
102
RTVSPost2010Prop43
 90
        3
102
RTVSPost2010PropOp43
 70
     0
102
RTVSPost2010Prop44ColorIndex
 90
        5
102
RTVSPost2010Prop44ColorRGB
 90
      255
102
RTVSPost2010PropOp44
 70
     0
102
RTVSPost2010Prop45
280
     0
102
RTVSPost2010PropOp45
 70
     1
102
RTVSPost2010Prop46
 90
       50
102
RTVSPost2010PropOp46
 70
     0
102
RTVSPost2010Prop47
 90
       50
102
RTVSPost2010PropOp47
 70
     0
102
RTVSPost2010Prop48
 90
       50
102
RTVSPost2010PropOp48
 70
     0
102
RTVSPost2010Prop49
280
     0
102
RTVSPost2010PropOp49
 70
     1
102
RTVSPost2010Prop50
 90
       50
102
RTVSPost2010PropOp50
 70
     0
102
RTVSPost2010Prop51ColorIndex
 90
      256
102
RTVSPost2010Prop51ColorRGB
 90
-16777216
102
RTVSPost2010PropOp51
 70
     0
102
RTVSPost2010Prop52
140
1.0
102
RTVSPost2010PropOp52
 70
     0
102
RTVSPost2010Prop53
 90
        2
102
RTVSPost2010PropOp53
 70
     0
102
RTVSPost2010Prop54
  1
strokes_ogs.tif
102
RTVSPost2010PropOp54
 70
     0
102
RTVSPost2010Prop55
280
     0
102
RTVSPost2010PropOp55
 70
     1
102
RTVSPost2010Prop56
140
1.0
102
RTVSPost2010PropOp56
 70
     0
102
RTVSPost2010Prop57
140
1.0
102
RTVSPost2010PropOp57
 70
     0
102
RTVSPropertyOp0
 70
     0
102
RTVSPropertyOp1
 70
     0
102
RTVSPropertyOp2
 70
     0
102
RTVSPropertyOp3
 70
     0
102
RTVSPropertyOp4
 70
     0
102
RTVSPropertyOp5
 70
     0
102
RTVSPropertyOp6
 70
     0
102
RTVSPropertyOp7
 70
     0
102
RTVSPropertyOp8
 70
     0
102
RTVSPropertyOp9
 70
     0
102
RTVSPropertyOp10
 70
     0
102
RTVSPropertyOp11
 70
     0
102
RTVSPropertyOp12
 70
     0
102
RTVSPropertyOp13
 70
     0
102
RTVSPropertyOp14
 70
     2
102
RTVSPropertyOp15
 70
     0
102
RTVSPropertyOp16
 70
     0
102
RTVSPropertyOp17
 70
     0
102
RTVSPropertyOp18
 70
     0
102
RTVSPropertyOp19
 70
     0
102
RTVSPropertyOp20
 70
     0
102
RTVSPropertyOp21
 70
     0
102
RTVSPropertyOp22
 70
     0
102
RTVSPropertyOp23
 70
     0
102
RTVSPropertyOp24
 70
     0
102
RTVSPropertyOp25
 70
     0
102
RTVSPropertyOp26
 70
     0
102
RTVSPropertyOp27
 70
     0
102
RTVSPropertyOp28
 70
     1
102
RTVSPropertyOp29
 70
     1
102
RTVSPropertyOp30
 70
     1
102
RTVSPropertyOp31
 70
     1
102
RTVSPropertyOp32
 70
     1
102
RTVSPropertyOp33
 70
     1
102
RTVSPropertyOp34
 70
     1
102
RTVSPropertyOp35
 70
     1
102
RTVSPropertyOp36
 70
     1
102
RTVSPropertyOp37
 70
     0
102
RTVSPropertyOp38
 70
     0
102
RTVSPropertyOp39
 70
     0
102
RTVSPropertyOp40
 70
     0
102
RTVSPropertyOp41
 70
     0
102
RTVSPropertyOp42
 70
     0
102
RTVSPropertyOp43
 70
     0
102
RTVSPropertyOp44
 70
     0
102
RTVSPropertyOp45
 70
     1
102
RTVSPropertyOp46
 70
     0
102
RTVSPropertyOp47
 70
     0
102
RTVSPropertyOp48
 70
     0
102
RTVSPropertyOp49
 70
     1
102
RTVSPropertyOp50
 70
     0
102
RTVSPropertyOp51
 70
     0
102
RTVSPropertyOp52
 70
     0
102
RTVSPropertyOp53
 70
     0
102
RTVSPropertyOp54
 70
     0
102
RTVSPropertyOp55
 70
     1
102
RTVSPropertyOp56
 70
     0
102
RTVSPropertyOp57
 70
     0
102
RTVSPropertyOp58
 70
     0
102
RTVSPropertyOp59
 70
     0
102
RTVSPropertyOp60
 70
     0
102
RTVSPropertyOp61
 70
     0
102
RTVSPropertyOp62
 70
     0
  0
XRECORD
  5
C408
102
{ACAD_REACTORS
330
C407
102
}
330
C407
100
AcDbXrecord
280
     1
102
RTVSPost2010Prop28
280
     0
102
RTVSPost2010PropOp28
 70
     1
102
RTVSPost2010Prop29
280
     1
102
RTVSPost2010PropOp29
 70
     1
102
RTVSPost2010Prop30
280
     1
102
RTVSPost2010PropOp30
 70
     1
102
RTVSPost2010Prop31
280
     0
102
RTVSPost2010PropOp31
 70
     1
102
RTVSPost2010Prop32
280
     0
102
RTVSPost2010PropOp32
 70
     1
102
RTVSPost2010Prop33
280
     0
102
RTVSPost2010PropOp33
 70
     1
102
RTVSPost2010Prop34
280
     0
102
RTVSPost2010PropOp34
 70
     1
102
RTVSPost2010Prop35
280
     0
102
RTVSPost2010PropOp35
 70
     1
102
RTVSPost2010Prop36
280
     0
102
RTVSPost2010PropOp36
 70
     1
102
RTVSPost2010Prop37
 90
       50
102
RTVSPost2010PropOp37
 70
     1
102
RTVSPost2010Prop38
140
0.0
102
RTVSPost2010PropOp38
 70
     1
102
RTVSPost2010Prop39
140
1.0
102
RTVSPost2010PropOp39
 70
     1
102
RTVSPost2010Prop40
 90
        0
102
RTVSPost2010PropOp40
 70
     1
102
RTVSPost2010Prop41ColorIndex
 90
       18
102
RTVSPost2010Prop41ColorRGB
 90
        0
102
RTVSPost2010PropOp41
 70
     1
102
RTVSPost2010Prop42
 90
       50
102
RTVSPost2010PropOp42
 70
     1
102
RTVSPost2010Prop43
 90
        3
102
RTVSPost2010PropOp43
 70
     1
102
RTVSPost2010Prop44ColorIndex
 90
        5
102
RTVSPost2010Prop44ColorRGB
 90
      255
102
RTVSPost2010PropOp44
 70
     1
102
RTVSPost2010Prop45
280
     0
102
RTVSPost2010PropOp45
 70
     1
102
RTVSPost2010Prop46
 90
       50
102
RTVSPost2010PropOp46
 70
     1
102
RTVSPost2010Prop47
 90
       50
102
RTVSPost2010PropOp47
 70
     1
102
RTVSPost2010Prop48
 90
       50
102
RTVSPost2010PropOp48
 70
     1
102
RTVSPost2010Prop49
280
     0
102
RTVSPost2010PropOp49
 70
     1
102
RTVSPost2010Prop50
 90
       50
102
RTVSPost2010PropOp50
 70
     1
102
RTVSPost2010Prop51ColorIndex
 90
      256
102
RTVSPost2010Prop51ColorRGB
 90
-16777216
102
RTVSPost2010PropOp51
 70
     0
102
RTVSPost2010Prop52
140
1.0
102
RTVSPost2010PropOp52
 70
     0
102
RTVSPost2010Prop53
 90
        2
102
RTVSPost2010PropOp53
 70
     1
102
RTVSPost2010Prop54
  1
strokes_ogs.tif
102
RTVSPost2010PropOp54
 70
     1
102
RTVSPost2010Prop55
280
     0
102
RTVSPost2010PropOp55
 70
     1
102
RTVSPost2010Prop56
140
1.0
102
RTVSPost2010PropOp56
 70
     1
102
RTVSPost2010Prop57
140
1.0
102
RTVSPost2010PropOp57
 70
     1
102
RTVSPropertyOp0
 70
     1
102
RTVSPropertyOp1
 70
     1
102
RTVSPropertyOp2
 70
     1
102
RTVSPropertyOp3
 70
     1
102
RTVSPropertyOp4
 70
     1
102
RTVSPropertyOp5
 70
     1
102
RTVSPropertyOp6
 70
     1
102
RTVSPropertyOp7
 70
     1
102
RTVSPropertyOp8
 70
     1
102
RTVSPropertyOp9
 70
     1
102
RTVSPropertyOp10
 70
     1
102
RTVSPropertyOp11
 70
     1
102
RTVSPropertyOp12
 70
     1
102
RTVSPropertyOp13
 70
     1
102
RTVSPropertyOp14
 70
     1
102
RTVSPropertyOp15
 70
     1
102
RTVSPropertyOp16
 70
     1
102
RTVSPropertyOp17
 70
     1
102
RTVSPropertyOp18
 70
     1
102
RTVSPropertyOp19
 70
     1
102
RTVSPropertyOp20
 70
     1
102
RTVSPropertyOp21
 70
     1
102
RTVSPropertyOp22
 70
     1
102
RTVSPropertyOp23
 70
     1
102
RTVSPropertyOp24
 70
     1
102
RTVSPropertyOp25
 70
     1
102
RTVSPropertyOp26
 70
     1
102
RTVSPropertyOp27
 70
     1
102
RTVSPropertyOp28
 70
     1
102
RTVSPropertyOp29
 70
     1
102
RTVSPropertyOp30
 70
     1
102
RTVSPropertyOp31
 70
     1
102
RTVSPropertyOp32
 70
     1
102
RTVSPropertyOp33
 70
     1
102
RTVSPropertyOp34
 70
     1
102
RTVSPropertyOp35
 70
     1
102
RTVSPropertyOp36
 70
     1
102
RTVSPropertyOp37
 70
     1
102
RTVSPropertyOp38
 70
     1
102
RTVSPropertyOp39
 70
     1
102
RTVSPropertyOp40
 70
     1
102
RTVSPropertyOp41
 70
     1
102
RTVSPropertyOp42
 70
     1
102
RTVSPropertyOp43
 70
     1
102
RTVSPropertyOp44
 70
     1
102
RTVSPropertyOp45
 70
     1
102
RTVSPropertyOp46
 70
     1
102
RTVSPropertyOp47
 70
     1
102
RTVSPropertyOp48
 70
     1
102
RTVSPropertyOp49
 70
     1
102
RTVSPropertyOp50
 70
     1
102
RTVSPropertyOp51
 70
     0
102
RTVSPropertyOp52
 70
     0
102
RTVSPropertyOp53
 70
     1
102
RTVSPropertyOp54
 70
     1
102
RTVSPropertyOp55
 70
     1
102
RTVSPropertyOp56
 70
     1
102
RTVSPropertyOp57
 70
     1
102
RTVSPropertyOp58
 70
     1
102
RTVSPropertyOp59
 70
     1
102
RTVSPropertyOp60
 70
     1
102
RTVSPropertyOp61
 70
     1
102
RTVSPropertyOp62
 70
     1
  0
XRECORD
  5
C41A
102
{ACAD_REACTORS
330
C419
102
}
330
C419
100
AcDbXrecord
280
     1
102
RTVSPost2010Prop28
280
     0
102
RTVSPost2010PropOp28
 70
     1
102
RTVSPost2010Prop29
280
     1
102
RTVSPost2010PropOp29
 70
     1
102
RTVSPost2010Prop30
280
     1
102
RTVSPost2010PropOp30
 70
     1
102
RTVSPost2010Prop31
280
     0
102
RTVSPost2010PropOp31
 70
     1
102
RTVSPost2010Prop32
280
     0
102
RTVSPost2010PropOp32
 70
     1
102
RTVSPost2010Prop33
280
     0
102
RTVSPost2010PropOp33
 70
     1
102
RTVSPost2010Prop34
280
     0
102
RTVSPost2010PropOp34
 70
     1
102
RTVSPost2010Prop35
280
     0
102
RTVSPost2010PropOp35
 70
     1
102
RTVSPost2010Prop36
280
     0
102
RTVSPost2010PropOp36
 70
     1
102
RTVSPost2010Prop37
 90
       50
102
RTVSPost2010PropOp37
 70
     0
102
RTVSPost2010Prop38
140
0.0
102
RTVSPost2010PropOp38
 70
     0
102
RTVSPost2010Prop39
140
1.0
102
RTVSPost2010PropOp39
 70
     0
102
RTVSPost2010Prop40
 90
        0
102
RTVSPost2010PropOp40
 70
     0
102
RTVSPost2010Prop41ColorIndex
 90
       18
102
RTVSPost2010Prop41ColorRGB
 90
        0
102
RTVSPost2010PropOp41
 70
     0
102
RTVSPost2010Prop42
 90
       50
102
RTVSPost2010PropOp42
 70
     0
102
RTVSPost2010Prop43
 90
        3
102
RTVSPost2010PropOp43
 70
     0
102
RTVSPost2010Prop44ColorIndex
 90
        5
102
RTVSPost2010Prop44ColorRGB
 90
      255
102
RTVSPost2010PropOp44
 70
     0
102
RTVSPost2010Prop45
280
     0
102
RTVSPost2010PropOp45
 70
     1
102
RTVSPost2010Prop46
 90
       50
102
RTVSPost2010PropOp46
 70
     0
102
RTVSPost2010Prop47
 90
       50
102
RTVSPost2010PropOp47
 70
     0
102
RTVSPost2010Prop48
 90
       50
102
RTVSPost2010PropOp48
 70
     0
102
RTVSPost2010Prop49
280
     0
102
RTVSPost2010PropOp49
 70
     1
102
RTVSPost2010Prop50
 90
       50
102
RTVSPost2010PropOp50
 70
     0
102
RTVSPost2010Prop51ColorIndex
 90
      256
102
RTVSPost2010Prop51ColorRGB
 90
-16777216
102
RTVSPost2010PropOp51
 70
     0
102
RTVSPost2010Prop52
140
1.0
102
RTVSPost2010PropOp52
 70
     0
102
RTVSPost2010Prop53
 90
        2
102
RTVSPost2010PropOp53
 70
     0
102
RTVSPost2010Prop54
  1
strokes_ogs.tif
102
RTVSPost2010PropOp54
 70
     0
102
RTVSPost2010Prop55
280
     0
102
RTVSPost2010PropOp55
 70
     1
102
RTVSPost2010Prop56
140
1.0
102
RTVSPost2010PropOp56
 70
     0
102
RTVSPost2010Prop57
140
1.0
102
RTVSPost2010PropOp57
 70
     0
102
RTVSPropertyOp0
 70
     0
102
RTVSPropertyOp1
 70
     0
102
RTVSPropertyOp2
 70
     0
102
RTVSPropertyOp3
 70
     0
102
RTVSPropertyOp4
 70
     0
102
RTVSPropertyOp5
 70
     0
102
RTVSPropertyOp6
 70
     0
102
RTVSPropertyOp7
 70
     0
102
RTVSPropertyOp8
 70
     0
102
RTVSPropertyOp9
 70
     0
102
RTVSPropertyOp10
 70
     0
102
RTVSPropertyOp11
 70
     0
102
RTVSPropertyOp12
 70
     0
102
RTVSPropertyOp13
 70
     0
102
RTVSPropertyOp14
 70
     2
102
RTVSPropertyOp15
 70
     0
102
RTVSPropertyOp16
 70
     0
102
RTVSPropertyOp17
 70
     0
102
RTVSPropertyOp18
 70
     0
102
RTVSPropertyOp19
 70
     0
102
RTVSPropertyOp20
 70
     0
102
RTVSPropertyOp21
 70
     0
102
RTVSPropertyOp22
 70
     0
102
RTVSPropertyOp23
 70
     0
102
RTVSPropertyOp24
 70
     0
102
RTVSPropertyOp25
 70
     0
102
RTVSPropertyOp26
 70
     0
102
RTVSPropertyOp27
 70
     0
102
RTVSPropertyOp28
 70
     1
102
RTVSPropertyOp29
 70
     1
102
RTVSPropertyOp30
 70
     1
102
RTVSPropertyOp31
 70
     1
102
RTVSPropertyOp32
 70
     1
102
RTVSPropertyOp33
 70
     1
102
RTVSPropertyOp34
 70
     1
102
RTVSPropertyOp35
 70
     1
102
RTVSPropertyOp36
 70
     1
102
RTVSPropertyOp37
 70
     0
102
RTVSPropertyOp38
 70
     0
102
RTVSPropertyOp39
 70
     0
102
RTVSPropertyOp40
 70
     0
102
RTVSPropertyOp41
 70
     0
102
RTVSPropertyOp42
 70
     0
102
RTVSPropertyOp43
 70
     0
102
RTVSPropertyOp44
 70
     0
102
RTVSPropertyOp45
 70
     1
102
RTVSPropertyOp46
 70
     0
102
RTVSPropertyOp47
 70
     0
102
RTVSPropertyOp48
 70
     0
102
RTVSPropertyOp49
 70
     1
102
RTVSPropertyOp50
 70
     0
102
RTVSPropertyOp51
 70
     0
102
RTVSPropertyOp52
 70
     0
102
RTVSPropertyOp53
 70
     0
102
RTVSPropertyOp54
 70
     0
102
RTVSPropertyOp55
 70
     1
102
RTVSPropertyOp56
 70
     0
102
RTVSPropertyOp57
 70
     0
102
RTVSPropertyOp58
 70
     0
102
RTVSPropertyOp59
 70
     0
102
RTVSPropertyOp60
 70
     0
102
RTVSPropertyOp61
 70
     0
102
RTVSPropertyOp62
 70
     0
  0
XRECORD
  5
C400
102
{ACAD_REACTORS
330
C3FF
102
}
330
C3FF
100
AcDbXrecord
280
     1
102
RTVSPost2010Prop28
280
     0
102
RTVSPost2010PropOp28
 70
     1
102
RTVSPost2010Prop29
280
     1
102
RTVSPost2010PropOp29
 70
     1
102
RTVSPost2010Prop30
280
     1
102
RTVSPost2010PropOp30
 70
     1
102
RTVSPost2010Prop31
280
     0
102
RTVSPost2010PropOp31
 70
     1
102
RTVSPost2010Prop32
280
     0
102
RTVSPost2010PropOp32
 70
     1
102
RTVSPost2010Prop33
280
     0
102
RTVSPost2010PropOp33
 70
     1
102
RTVSPost2010Prop34
280
     0
102
RTVSPost2010PropOp34
 70
     1
102
RTVSPost2010Prop35
280
     0
102
RTVSPost2010PropOp35
 70
     1
102
RTVSPost2010Prop36
280
     0
102
RTVSPost2010PropOp36
 70
     1
102
RTVSPost2010Prop37
 90
       50
102
RTVSPost2010PropOp37
 70
     1
102
RTVSPost2010Prop38
140
0.0
102
RTVSPost2010PropOp38
 70
     1
102
RTVSPost2010Prop39
140
1.0
102
RTVSPost2010PropOp39
 70
     1
102
RTVSPost2010Prop40
 90
        0
102
RTVSPost2010PropOp40
 70
     1
102
RTVSPost2010Prop41ColorIndex
 90
       18
102
RTVSPost2010Prop41ColorRGB
 90
        0
102
RTVSPost2010PropOp41
 70
     1
102
RTVSPost2010Prop42
 90
       50
102
RTVSPost2010PropOp42
 70
     1
102
RTVSPost2010Prop43
 90
        3
102
RTVSPost2010PropOp43
 70
     1
102
RTVSPost2010Prop44ColorIndex
 90
        5
102
RTVSPost2010Prop44ColorRGB
 90
      255
102
RTVSPost2010PropOp44
 70
     1
102
RTVSPost2010Prop45
280
     0
102
RTVSPost2010PropOp45
 70
     1
102
RTVSPost2010Prop46
 90
       50
102
RTVSPost2010PropOp46
 70
     1
102
RTVSPost2010Prop47
 90
       50
102
RTVSPost2010PropOp47
 70
     1
102
RTVSPost2010Prop48
 90
       50
102
RTVSPost2010PropOp48
 70
     1
102
RTVSPost2010Prop49
280
     0
102
RTVSPost2010PropOp49
 70
     1
102
RTVSPost2010Prop50
 90
       50
102
RTVSPost2010PropOp50
 70
     1
102
RTVSPost2010Prop51ColorIndex
 90
      256
102
RTVSPost2010Prop51ColorRGB
 90
-16777216
102
RTVSPost2010PropOp51
 70
     0
102
RTVSPost2010Prop52
140
1.0
102
RTVSPost2010PropOp52
 70
     0
102
RTVSPost2010Prop53
 90
        2
102
RTVSPost2010PropOp53
 70
     1
102
RTVSPost2010Prop54
  1
strokes_ogs.tif
102
RTVSPost2010PropOp54
 70
     1
102
RTVSPost2010Prop55
280
     0
102
RTVSPost2010PropOp55
 70
     1
102
RTVSPost2010Prop56
140
1.0
102
RTVSPost2010PropOp56
 70
     1
102
RTVSPost2010Prop57
140
1.0
102
RTVSPost2010PropOp57
 70
     1
102
RTVSPropertyOp0
 70
     1
102
RTVSPropertyOp1
 70
     1
102
RTVSPropertyOp2
 70
     1
102
RTVSPropertyOp3
 70
     1
102
RTVSPropertyOp4
 70
     1
102
RTVSPropertyOp5
 70
     1
102
RTVSPropertyOp6
 70
     1
102
RTVSPropertyOp7
 70
     1
102
RTVSPropertyOp8
 70
     1
102
RTVSPropertyOp9
 70
     1
102
RTVSPropertyOp10
 70
     1
102
RTVSPropertyOp11
 70
     1
102
RTVSPropertyOp12
 70
     1
102
RTVSPropertyOp13
 70
     1
102
RTVSPropertyOp14
 70
     1
102
RTVSPropertyOp15
 70
     1
102
RTVSPropertyOp16
 70
     1
102
RTVSPropertyOp17
 70
     1
102
RTVSPropertyOp18
 70
     1
102
RTVSPropertyOp19
 70
     1
102
RTVSPropertyOp20
 70
     1
102
RTVSPropertyOp21
 70
     1
102
RTVSPropertyOp22
 70
     1
102
RTVSPropertyOp23
 70
     1
102
RTVSPropertyOp24
 70
     1
102
RTVSPropertyOp25
 70
     1
102
RTVSPropertyOp26
 70
     1
102
RTVSPropertyOp27
 70
     1
102
RTVSPropertyOp28
 70
     1
102
RTVSPropertyOp29
 70
     1
102
RTVSPropertyOp30
 70
     1
102
RTVSPropertyOp31
 70
     1
102
RTVSPropertyOp32
 70
     1
102
RTVSPropertyOp33
 70
     1
102
RTVSPropertyOp34
 70
     1
102
RTVSPropertyOp35
 70
     1
102
RTVSPropertyOp36
 70
     1
102
RTVSPropertyOp37
 70
     1
102
RTVSPropertyOp38
 70
     1
102
RTVSPropertyOp39
 70
     1
102
RTVSPropertyOp40
 70
     1
102
RTVSPropertyOp41
 70
     1
102
RTVSPropertyOp42
 70
     1
102
RTVSPropertyOp43
 70
     1
102
RTVSPropertyOp44
 70
     1
102
RTVSPropertyOp45
 70
     1
102
RTVSPropertyOp46
 70
     1
102
RTVSPropertyOp47
 70
     1
102
RTVSPropertyOp48
 70
     1
102
RTVSPropertyOp49
 70
     1
102
RTVSPropertyOp50
 70
     1
102
RTVSPropertyOp51
 70
     0
102
RTVSPropertyOp52
 70
     0
102
RTVSPropertyOp53
 70
     1
102
RTVSPropertyOp54
 70
     1
102
RTVSPropertyOp55
 70
     1
102
RTVSPropertyOp56
 70
     1
102
RTVSPropertyOp57
 70
     1
102
RTVSPropertyOp58
 70
     1
102
RTVSPropertyOp59
 70
     1
102
RTVSPropertyOp60
 70
     1
102
RTVSPropertyOp61
 70
     1
102
RTVSPropertyOp62
 70
     1
  0
XRECORD
  5
C416
102
{ACAD_REACTORS
330
C415
102
}
330
C415
100
AcDbXrecord
280
     1
102
RTVSPost2010Prop28
280
     0
102
RTVSPost2010PropOp28
 70
     1
102
RTVSPost2010Prop29
280
     1
102
RTVSPost2010PropOp29
 70
     1
102
RTVSPost2010Prop30
280
     1
102
RTVSPost2010PropOp30
 70
     1
102
RTVSPost2010Prop31
280
     0
102
RTVSPost2010PropOp31
 70
     1
102
RTVSPost2010Prop32
280
     0
102
RTVSPost2010PropOp32
 70
     1
102
RTVSPost2010Prop33
280
     0
102
RTVSPost2010PropOp33
 70
     1
102
RTVSPost2010Prop34
280
     0
102
RTVSPost2010PropOp34
 70
     1
102
RTVSPost2010Prop35
280
     0
102
RTVSPost2010PropOp35
 70
     1
102
RTVSPost2010Prop36
280
     0
102
RTVSPost2010PropOp36
 70
     1
102
RTVSPost2010Prop37
 90
       50
102
RTVSPost2010PropOp37
 70
     1
102
RTVSPost2010Prop38
140
0.0
102
RTVSPost2010PropOp38
 70
     1
102
RTVSPost2010Prop39
140
1.0
102
RTVSPost2010PropOp39
 70
     1
102
RTVSPost2010Prop40
 90
        0
102
RTVSPost2010PropOp40
 70
     1
102
RTVSPost2010Prop41ColorIndex
 90
       18
102
RTVSPost2010Prop41ColorRGB
 90
        0
102
RTVSPost2010PropOp41
 70
     1
102
RTVSPost2010Prop42
 90
       50
102
RTVSPost2010PropOp42
 70
     1
102
RTVSPost2010Prop43
 90
        3
102
RTVSPost2010PropOp43
 70
     1
102
RTVSPost2010Prop44ColorIndex
 90
        5
102
RTVSPost2010Prop44ColorRGB
 90
      255
102
RTVSPost2010PropOp44
 70
     1
102
RTVSPost2010Prop45
280
     0
102
RTVSPost2010PropOp45
 70
     1
102
RTVSPost2010Prop46
 90
       50
102
RTVSPost2010PropOp46
 70
     1
102
RTVSPost2010Prop47
 90
       50
102
RTVSPost2010PropOp47
 70
     1
102
RTVSPost2010Prop48
 90
       50
102
RTVSPost2010PropOp48
 70
     1
102
RTVSPost2010Prop49
280
     0
102
RTVSPost2010PropOp49
 70
     1
102
RTVSPost2010Prop50
 90
       50
102
RTVSPost2010PropOp50
 70
     1
102
RTVSPost2010Prop51ColorIndex
 90
      256
102
RTVSPost2010Prop51ColorRGB
 90
-16777216
102
RTVSPost2010PropOp51
 70
     0
102
RTVSPost2010Prop52
140
1.0
102
RTVSPost2010PropOp52
 70
     0
102
RTVSPost2010Prop53
 90
        2
102
RTVSPost2010PropOp53
 70
     1
102
RTVSPost2010Prop54
  1
strokes_ogs.tif
102
RTVSPost2010PropOp54
 70
     1
102
RTVSPost2010Prop55
280
     0
102
RTVSPost2010PropOp55
 70
     1
102
RTVSPost2010Prop56
140
1.0
102
RTVSPost2010PropOp56
 70
     1
102
RTVSPost2010Prop57
140
1.0
102
RTVSPost2010PropOp57
 70
     1
102
RTVSPropertyOp0
 70
     1
102
RTVSPropertyOp1
 70
     1
102
RTVSPropertyOp2
 70
     1
102
RTVSPropertyOp3
 70
     1
102
RTVSPropertyOp4
 70
     1
102
RTVSPropertyOp5
 70
     1
102
RTVSPropertyOp6
 70
     1
102
RTVSPropertyOp7
 70
     1
102
RTVSPropertyOp8
 70
     1
102
RTVSPropertyOp9
 70
     1
102
RTVSPropertyOp10
 70
     1
102
RTVSPropertyOp11
 70
     1
102
RTVSPropertyOp12
 70
     1
102
RTVSPropertyOp13
 70
     1
102
RTVSPropertyOp14
 70
     1
102
RTVSPropertyOp15
 70
     1
102
RTVSPropertyOp16
 70
     1
102
RTVSPropertyOp17
 70
     1
102
RTVSPropertyOp18
 70
     1
102
RTVSPropertyOp19
 70
     1
102
RTVSPropertyOp20
 70
     1
102
RTVSPropertyOp21
 70
     1
102
RTVSPropertyOp22
 70
     1
102
RTVSPropertyOp23
 70
     1
102
RTVSPropertyOp24
 70
     1
102
RTVSPropertyOp25
 70
     1
102
RTVSPropertyOp26
 70
     1
102
RTVSPropertyOp27
 70
     1
102
RTVSPropertyOp28
 70
     1
102
RTVSPropertyOp29
 70
     1
102
RTVSPropertyOp30
 70
     1
102
RTVSPropertyOp31
 70
     1
102
RTVSPropertyOp32
 70
     1
102
RTVSPropertyOp33
 70
     1
102
RTVSPropertyOp34
 70
     1
102
RTVSPropertyOp35
 70
     1
102
RTVSPropertyOp36
 70
     1
102
RTVSPropertyOp37
 70
     1
102
RTVSPropertyOp38
 70
     1
102
RTVSPropertyOp39
 70
     1
102
RTVSPropertyOp40
 70
     1
102
RTVSPropertyOp41
 70
     1
102
RTVSPropertyOp42
 70
     1
102
RTVSPropertyOp43
 70
     1
102
RTVSPropertyOp44
 70
     1
102
RTVSPropertyOp45
 70
     1
102
RTVSPropertyOp46
 70
     1
102
RTVSPropertyOp47
 70
     1
102
RTVSPropertyOp48
 70
     1
102
RTVSPropertyOp49
 70
     1
102
RTVSPropertyOp50
 70
     1
102
RTVSPropertyOp51
 70
     0
102
RTVSPropertyOp52
 70
     0
102
RTVSPropertyOp53
 70
     1
102
RTVSPropertyOp54
 70
     1
102
RTVSPropertyOp55
 70
     1
102
RTVSPropertyOp56
 70
     1
102
RTVSPropertyOp57
 70
     1
102
RTVSPropertyOp58
 70
     1
102
RTVSPropertyOp59
 70
     1
102
RTVSPropertyOp60
 70
     1
102
RTVSPropertyOp61
 70
     1
102
RTVSPropertyOp62
 70
     1
  0
XRECORD
  5
C414
102
{ACAD_REACTORS
330
C413
102
}
330
C413
100
AcDbXrecord
280
     1
102
RTVSPost2010Prop28
280
     0
102
RTVSPost2010PropOp28
 70
     1
102
RTVSPost2010Prop29
280
     1
102
RTVSPost2010PropOp29
 70
     1
102
RTVSPost2010Prop30
280
     1
102
RTVSPost2010PropOp30
 70
     1
102
RTVSPost2010Prop31
280
     0
102
RTVSPost2010PropOp31
 70
     1
102
RTVSPost2010Prop32
280
     0
102
RTVSPost2010PropOp32
 70
     1
102
RTVSPost2010Prop33
280
     0
102
RTVSPost2010PropOp33
 70
     1
102
RTVSPost2010Prop34
280
     0
102
RTVSPost2010PropOp34
 70
     1
102
RTVSPost2010Prop35
280
     0
102
RTVSPost2010PropOp35
 70
     1
102
RTVSPost2010Prop36
280
     0
102
RTVSPost2010PropOp36
 70
     1
102
RTVSPost2010Prop37
 90
       50
102
RTVSPost2010PropOp37
 70
     1
102
RTVSPost2010Prop38
140
0.0
102
RTVSPost2010PropOp38
 70
     1
102
RTVSPost2010Prop39
140
1.0
102
RTVSPost2010PropOp39
 70
     1
102
RTVSPost2010Prop40
 90
        0
102
RTVSPost2010PropOp40
 70
     1
102
RTVSPost2010Prop41ColorIndex
 90
       18
102
RTVSPost2010Prop41ColorRGB
 90
        0
102
RTVSPost2010PropOp41
 70
     1
102
RTVSPost2010Prop42
 90
       50
102
RTVSPost2010PropOp42
 70
     1
102
RTVSPost2010Prop43
 90
        3
102
RTVSPost2010PropOp43
 70
     1
102
RTVSPost2010Prop44ColorIndex
 90
        5
102
RTVSPost2010Prop44ColorRGB
 90
      255
102
RTVSPost2010PropOp44
 70
     1
102
RTVSPost2010Prop45
280
     0
102
RTVSPost2010PropOp45
 70
     1
102
RTVSPost2010Prop46
 90
       50
102
RTVSPost2010PropOp46
 70
     1
102
RTVSPost2010Prop47
 90
       50
102
RTVSPost2010PropOp47
 70
     1
102
RTVSPost2010Prop48
 90
       50
102
RTVSPost2010PropOp48
 70
     1
102
RTVSPost2010Prop49
280
     0
102
RTVSPost2010PropOp49
 70
     1
102
RTVSPost2010Prop50
 90
       50
102
RTVSPost2010PropOp50
 70
     1
102
RTVSPost2010Prop51ColorIndex
 90
      256
102
RTVSPost2010Prop51ColorRGB
 90
-16777216
102
RTVSPost2010PropOp51
 70
     0
102
RTVSPost2010Prop52
140
1.0
102
RTVSPost2010PropOp52
 70
     0
102
RTVSPost2010Prop53
 90
        2
102
RTVSPost2010PropOp53
 70
     1
102
RTVSPost2010Prop54
  1
strokes_ogs.tif
102
RTVSPost2010PropOp54
 70
     1
102
RTVSPost2010Prop55
280
     0
102
RTVSPost2010PropOp55
 70
     1
102
RTVSPost2010Prop56
140
1.0
102
RTVSPost2010PropOp56
 70
     1
102
RTVSPost2010Prop57
140
1.0
102
RTVSPost2010PropOp57
 70
     1
102
RTVSPropertyOp0
 70
     1
102
RTVSPropertyOp1
 70
     1
102
RTVSPropertyOp2
 70
     1
102
RTVSPropertyOp3
 70
     1
102
RTVSPropertyOp4
 70
     1
102
RTVSPropertyOp5
 70
     1
102
RTVSPropertyOp6
 70
     1
102
RTVSPropertyOp7
 70
     1
102
RTVSPropertyOp8
 70
     1
102
RTVSPropertyOp9
 70
     1
102
RTVSPropertyOp10
 70
     1
102
RTVSPropertyOp11
 70
     1
102
RTVSPropertyOp12
 70
     1
102
RTVSPropertyOp13
 70
     1
102
RTVSPropertyOp14
 70
     1
102
RTVSPropertyOp15
 70
     1
102
RTVSPropertyOp16
 70
     1
102
RTVSPropertyOp17
 70
     1
102
RTVSPropertyOp18
 70
     1
102
RTVSPropertyOp19
 70
     1
102
RTVSPropertyOp20
 70
     1
102
RTVSPropertyOp21
 70
     1
102
RTVSPropertyOp22
 70
     1
102
RTVSPropertyOp23
 70
     1
102
RTVSPropertyOp24
 70
     1
102
RTVSPropertyOp25
 70
     1
102
RTVSPropertyOp26
 70
     1
102
RTVSPropertyOp27
 70
     1
102
RTVSPropertyOp28
 70
     1
102
RTVSPropertyOp29
 70
     1
102
RTVSPropertyOp30
 70
     1
102
RTVSPropertyOp31
 70
     1
102
RTVSPropertyOp32
 70
     1
102
RTVSPropertyOp33
 70
     1
102
RTVSPropertyOp34
 70
     1
102
RTVSPropertyOp35
 70
     1
102
RTVSPropertyOp36
 70
     1
102
RTVSPropertyOp37
 70
     1
102
RTVSPropertyOp38
 70
     1
102
RTVSPropertyOp39
 70
     1
102
RTVSPropertyOp40
 70
     1
102
RTVSPropertyOp41
 70
     1
102
RTVSPropertyOp42
 70
     1
102
RTVSPropertyOp43
 70
     1
102
RTVSPropertyOp44
 70
     1
102
RTVSPropertyOp45
 70
     1
102
RTVSPropertyOp46
 70
     1
102
RTVSPropertyOp47
 70
     1
102
RTVSPropertyOp48
 70
     1
102
RTVSPropertyOp49
 70
     1
102
RTVSPropertyOp50
 70
     1
102
RTVSPropertyOp51
 70
     0
102
RTVSPropertyOp52
 70
     0
102
RTVSPropertyOp53
 70
     1
102
RTVSPropertyOp54
 70
     1
102
RTVSPropertyOp55
 70
     1
102
RTVSPropertyOp56
 70
     1
102
RTVSPropertyOp57
 70
     1
102
RTVSPropertyOp58
 70
     1
102
RTVSPropertyOp59
 70
     1
102
RTVSPropertyOp60
 70
     1
102
RTVSPropertyOp61
 70
     1
102
RTVSPropertyOp62
 70
     1
  0
XRECORD
  5
C40E
102
{ACAD_REACTORS
330
C40D
102
}
330
C40D
100
AcDbXrecord
280
     1
102
RTVSPost2010Prop28
280
     0
102
RTVSPost2010PropOp28
 70
     1
102
RTVSPost2010Prop29
280
     1
102
RTVSPost2010PropOp29
 70
     1
102
RTVSPost2010Prop30
280
     1
102
RTVSPost2010PropOp30
 70
     1
102
RTVSPost2010Prop31
280
     0
102
RTVSPost2010PropOp31
 70
     1
102
RTVSPost2010Prop32
280
     0
102
RTVSPost2010PropOp32
 70
     1
102
RTVSPost2010Prop33
280
     0
102
RTVSPost2010PropOp33
 70
     1
102
RTVSPost2010Prop34
280
     0
102
RTVSPost2010PropOp34
 70
     1
102
RTVSPost2010Prop35
280
     0
102
RTVSPost2010PropOp35
 70
     1
102
RTVSPost2010Prop36
280
     0
102
RTVSPost2010PropOp36
 70
     1
102
RTVSPost2010Prop37
 90
       50
102
RTVSPost2010PropOp37
 70
     1
102
RTVSPost2010Prop38
140
0.0
102
RTVSPost2010PropOp38
 70
     1
102
RTVSPost2010Prop39
140
1.0
102
RTVSPost2010PropOp39
 70
     1
102
RTVSPost2010Prop40
 90
        0
102
RTVSPost2010PropOp40
 70
     1
102
RTVSPost2010Prop41ColorIndex
 90
       18
102
RTVSPost2010Prop41ColorRGB
 90
        0
102
RTVSPost2010PropOp41
 70
     1
102
RTVSPost2010Prop42
 90
       50
102
RTVSPost2010PropOp42
 70
     1
102
RTVSPost2010Prop43
 90
        3
102
RTVSPost2010PropOp43
 70
     1
102
RTVSPost2010Prop44ColorIndex
 90
        5
102
RTVSPost2010Prop44ColorRGB
 90
      255
102
RTVSPost2010PropOp44
 70
     1
102
RTVSPost2010Prop45
280
     0
102
RTVSPost2010PropOp45
 70
     1
102
RTVSPost2010Prop46
 90
       50
102
RTVSPost2010PropOp46
 70
     1
102
RTVSPost2010Prop47
 90
       50
102
RTVSPost2010PropOp47
 70
     1
102
RTVSPost2010Prop48
 90
       50
102
RTVSPost2010PropOp48
 70
     1
102
RTVSPost2010Prop49
280
     0
102
RTVSPost2010PropOp49
 70
     1
102
RTVSPost2010Prop50
 90
       50
102
RTVSPost2010PropOp50
 70
     1
102
RTVSPost2010Prop51ColorIndex
 90
      256
102
RTVSPost2010Prop51ColorRGB
 90
-16777216
102
RTVSPost2010PropOp51
 70
     0
102
RTVSPost2010Prop52
140
1.0
102
RTVSPost2010PropOp52
 70
     0
102
RTVSPost2010Prop53
 90
        2
102
RTVSPost2010PropOp53
 70
     1
102
RTVSPost2010Prop54
  1
strokes_ogs.tif
102
RTVSPost2010PropOp54
 70
     1
102
RTVSPost2010Prop55
280
     0
102
RTVSPost2010PropOp55
 70
     1
102
RTVSPost2010Prop56
140
1.0
102
RTVSPost2010PropOp56
 70
     1
102
RTVSPost2010Prop57
140
1.0
102
RTVSPost2010PropOp57
 70
     1
102
RTVSPropertyOp0
 70
     1
102
RTVSPropertyOp1
 70
     1
102
RTVSPropertyOp2
 70
     1
102
RTVSPropertyOp3
 70
     1
102
RTVSPropertyOp4
 70
     1
102
RTVSPropertyOp5
 70
     1
102
RTVSPropertyOp6
 70
     1
102
RTVSPropertyOp7
 70
     1
102
RTVSPropertyOp8
 70
     1
102
RTVSPropertyOp9
 70
     1
102
RTVSPropertyOp10
 70
     1
102
RTVSPropertyOp11
 70
     1
102
RTVSPropertyOp12
 70
     1
102
RTVSPropertyOp13
 70
     1
102
RTVSPropertyOp14
 70
     1
102
RTVSPropertyOp15
 70
     1
102
RTVSPropertyOp16
 70
     1
102
RTVSPropertyOp17
 70
     1
102
RTVSPropertyOp18
 70
     1
102
RTVSPropertyOp19
 70
     1
102
RTVSPropertyOp20
 70
     1
102
RTVSPropertyOp21
 70
     1
102
RTVSPropertyOp22
 70
     1
102
RTVSPropertyOp23
 70
     1
102
RTVSPropertyOp24
 70
     1
102
RTVSPropertyOp25
 70
     1
102
RTVSPropertyOp26
 70
     1
102
RTVSPropertyOp27
 70
     1
102
RTVSPropertyOp28
 70
     1
102
RTVSPropertyOp29
 70
     1
102
RTVSPropertyOp30
 70
     1
102
RTVSPropertyOp31
 70
     1
102
RTVSPropertyOp32
 70
     1
102
RTVSPropertyOp33
 70
     1
102
RTVSPropertyOp34
 70
     1
102
RTVSPropertyOp35
 70
     1
102
RTVSPropertyOp36
 70
     1
102
RTVSPropertyOp37
 70
     1
102
RTVSPropertyOp38
 70
     1
102
RTVSPropertyOp39
 70
     1
102
RTVSPropertyOp40
 70
     1
102
RTVSPropertyOp41
 70
     1
102
RTVSPropertyOp42
 70
     1
102
RTVSPropertyOp43
 70
     1
102
RTVSPropertyOp44
 70
     1
102
RTVSPropertyOp45
 70
     1
102
RTVSPropertyOp46
 70
     1
102
RTVSPropertyOp47
 70
     1
102
RTVSPropertyOp48
 70
     1
102
RTVSPropertyOp49
 70
     1
102
RTVSPropertyOp50
 70
     1
102
RTVSPropertyOp51
 70
     0
102
RTVSPropertyOp52
 70
     0
102
RTVSPropertyOp53
 70
     1
102
RTVSPropertyOp54
 70
     1
102
RTVSPropertyOp55
 70
     1
102
RTVSPropertyOp56
 70
     1
102
RTVSPropertyOp57
 70
     1
102
RTVSPropertyOp58
 70
     1
102
RTVSPropertyOp59
 70
     1
102
RTVSPropertyOp60
 70
     1
102
RTVSPropertyOp61
 70
     1
102
RTVSPropertyOp62
 70
     1
  0
XRECORD
  5
C410
102
{ACAD_REACTORS
330
C40F
102
}
330
C40F
100
AcDbXrecord
280
     1
102
RTVSPost2010Prop28
280
     0
102
RTVSPost2010PropOp28
 70
     1
102
RTVSPost2010Prop29
280
     1
102
RTVSPost2010PropOp29
 70
     1
102
RTVSPost2010Prop30
280
     1
102
RTVSPost2010PropOp30
 70
     1
102
RTVSPost2010Prop31
280
     0
102
RTVSPost2010PropOp31
 70
     1
102
RTVSPost2010Prop32
280
     0
102
RTVSPost2010PropOp32
 70
     1
102
RTVSPost2010Prop33
280
     0
102
RTVSPost2010PropOp33
 70
     1
102
RTVSPost2010Prop34
280
     0
102
RTVSPost2010PropOp34
 70
     1
102
RTVSPost2010Prop35
280
     0
102
RTVSPost2010PropOp35
 70
     1
102
RTVSPost2010Prop36
280
     0
102
RTVSPost2010PropOp36
 70
     1
102
RTVSPost2010Prop37
 90
       50
102
RTVSPost2010PropOp37
 70
     1
102
RTVSPost2010Prop38
140
0.0
102
RTVSPost2010PropOp38
 70
     1
102
RTVSPost2010Prop39
140
1.0
102
RTVSPost2010PropOp39
 70
     1
102
RTVSPost2010Prop40
 90
        0
102
RTVSPost2010PropOp40
 70
     1
102
RTVSPost2010Prop41ColorIndex
 90
       18
102
RTVSPost2010Prop41ColorRGB
 90
        0
102
RTVSPost2010PropOp41
 70
     1
102
RTVSPost2010Prop42
 90
       50
102
RTVSPost2010PropOp42
 70
     1
102
RTVSPost2010Prop43
 90
        3
102
RTVSPost2010PropOp43
 70
     1
102
RTVSPost2010Prop44ColorIndex
 90
        5
102
RTVSPost2010Prop44ColorRGB
 90
      255
102
RTVSPost2010PropOp44
 70
     1
102
RTVSPost2010Prop45
280
     0
102
RTVSPost2010PropOp45
 70
     1
102
RTVSPost2010Prop46
 90
       50
102
RTVSPost2010PropOp46
 70
     1
102
RTVSPost2010Prop47
 90
       50
102
RTVSPost2010PropOp47
 70
     1
102
RTVSPost2010Prop48
 90
       50
102
RTVSPost2010PropOp48
 70
     1
102
RTVSPost2010Prop49
280
     0
102
RTVSPost2010PropOp49
 70
     1
102
RTVSPost2010Prop50
 90
       50
102
RTVSPost2010PropOp50
 70
     1
102
RTVSPost2010Prop51ColorIndex
 90
      256
102
RTVSPost2010Prop51ColorRGB
 90
-16777216
102
RTVSPost2010PropOp51
 70
     0
102
RTVSPost2010Prop52
140
1.0
102
RTVSPost2010PropOp52
 70
     0
102
RTVSPost2010Prop53
 90
        2
102
RTVSPost2010PropOp53
 70
     1
102
RTVSPost2010Prop54
  1
strokes_ogs.tif
102
RTVSPost2010PropOp54
 70
     1
102
RTVSPost2010Prop55
280
     0
102
RTVSPost2010PropOp55
 70
     1
102
RTVSPost2010Prop56
140
1.0
102
RTVSPost2010PropOp56
 70
     1
102
RTVSPost2010Prop57
140
1.0
102
RTVSPost2010PropOp57
 70
     1
102
RTVSPropertyOp0
 70
     1
102
RTVSPropertyOp1
 70
     1
102
RTVSPropertyOp2
 70
     1
102
RTVSPropertyOp3
 70
     1
102
RTVSPropertyOp4
 70
     1
102
RTVSPropertyOp5
 70
     1
102
RTVSPropertyOp6
 70
     1
102
RTVSPropertyOp7
 70
     1
102
RTVSPropertyOp8
 70
     1
102
RTVSPropertyOp9
 70
     1
102
RTVSPropertyOp10
 70
     1
102
RTVSPropertyOp11
 70
     1
102
RTVSPropertyOp12
 70
     1
102
RTVSPropertyOp13
 70
     1
102
RTVSPropertyOp14
 70
     1
102
RTVSPropertyOp15
 70
     1
102
RTVSPropertyOp16
 70
     1
102
RTVSPropertyOp17
 70
     1
102
RTVSPropertyOp18
 70
     1
102
RTVSPropertyOp19
 70
     1
102
RTVSPropertyOp20
 70
     1
102
RTVSPropertyOp21
 70
     1
102
RTVSPropertyOp22
 70
     1
102
RTVSPropertyOp23
 70
     1
102
RTVSPropertyOp24
 70
     1
102
RTVSPropertyOp25
 70
     1
102
RTVSPropertyOp26
 70
     1
102
RTVSPropertyOp27
 70
     1
102
RTVSPropertyOp28
 70
     1
102
RTVSPropertyOp29
 70
     1
102
RTVSPropertyOp30
 70
     1
102
RTVSPropertyOp31
 70
     1
102
RTVSPropertyOp32
 70
     1
102
RTVSPropertyOp33
 70
     1
102
RTVSPropertyOp34
 70
     1
102
RTVSPropertyOp35
 70
     1
102
RTVSPropertyOp36
 70
     1
102
RTVSPropertyOp37
 70
     1
102
RTVSPropertyOp38
 70
     1
102
RTVSPropertyOp39
 70
     1
102
RTVSPropertyOp40
 70
     1
102
RTVSPropertyOp41
 70
     1
102
RTVSPropertyOp42
 70
     1
102
RTVSPropertyOp43
 70
     1
102
RTVSPropertyOp44
 70
     1
102
RTVSPropertyOp45
 70
     1
102
RTVSPropertyOp46
 70
     1
102
RTVSPropertyOp47
 70
     1
102
RTVSPropertyOp48
 70
     1
102
RTVSPropertyOp49
 70
     1
102
RTVSPropertyOp50
 70
     1
102
RTVSPropertyOp51
 70
     0
102
RTVSPropertyOp52
 70
     0
102
RTVSPropertyOp53
 70
     1
102
RTVSPropertyOp54
 70
     1
102
RTVSPropertyOp55
 70
     1
102
RTVSPropertyOp56
 70
     1
102
RTVSPropertyOp57
 70
     1
102
RTVSPropertyOp58
 70
     1
102
RTVSPropertyOp59
 70
     1
102
RTVSPropertyOp60
 70
     1
102
RTVSPropertyOp61
 70
     1
102
RTVSPropertyOp62
 70
     1
  0
XRECORD
  5
C406
102
{ACAD_REACTORS
330
C405
102
}
330
C405
100
AcDbXrecord
280
     1
102
RTVSPost2010Prop28
280
     0
102
RTVSPost2010PropOp28
 70
     1
102
RTVSPost2010Prop29
280
     1
102
RTVSPost2010PropOp29
 70
     1
102
RTVSPost2010Prop30
280
     1
102
RTVSPost2010PropOp30
 70
     1
102
RTVSPost2010Prop31
280
     0
102
RTVSPost2010PropOp31
 70
     1
102
RTVSPost2010Prop32
280
     0
102
RTVSPost2010PropOp32
 70
     1
102
RTVSPost2010Prop33
280
     0
102
RTVSPost2010PropOp33
 70
     1
102
RTVSPost2010Prop34
280
     0
102
RTVSPost2010PropOp34
 70
     1
102
RTVSPost2010Prop35
280
     0
102
RTVSPost2010PropOp35
 70
     1
102
RTVSPost2010Prop36
280
     0
102
RTVSPost2010PropOp36
 70
     1
102
RTVSPost2010Prop37
 90
       50
102
RTVSPost2010PropOp37
 70
     1
102
RTVSPost2010Prop38
140
0.0
102
RTVSPost2010PropOp38
 70
     1
102
RTVSPost2010Prop39
140
1.0
102
RTVSPost2010PropOp39
 70
     1
102
RTVSPost2010Prop40
 90
        0
102
RTVSPost2010PropOp40
 70
     1
102
RTVSPost2010Prop41ColorIndex
 90
       18
102
RTVSPost2010Prop41ColorRGB
 90
        0
102
RTVSPost2010PropOp41
 70
     1
102
RTVSPost2010Prop42
 90
       50
102
RTVSPost2010PropOp42
 70
     1
102
RTVSPost2010Prop43
 90
        3
102
RTVSPost2010PropOp43
 70
     1
102
RTVSPost2010Prop44ColorIndex
 90
        5
102
RTVSPost2010Prop44ColorRGB
 90
      255
102
RTVSPost2010PropOp44
 70
     1
102
RTVSPost2010Prop45
280
     0
102
RTVSPost2010PropOp45
 70
     1
102
RTVSPost2010Prop46
 90
       50
102
RTVSPost2010PropOp46
 70
     1
102
RTVSPost2010Prop47
 90
       50
102
RTVSPost2010PropOp47
 70
     1
102
RTVSPost2010Prop48
 90
       50
102
RTVSPost2010PropOp48
 70
     1
102
RTVSPost2010Prop49
280
     0
102
RTVSPost2010PropOp49
 70
     1
102
RTVSPost2010Prop50
 90
       50
102
RTVSPost2010PropOp50
 70
     1
102
RTVSPost2010Prop51ColorIndex
 90
      256
102
RTVSPost2010Prop51ColorRGB
 90
-16777216
102
RTVSPost2010PropOp51
 70
     0
102
RTVSPost2010Prop52
140
1.0
102
RTVSPost2010PropOp52
 70
     0
102
RTVSPost2010Prop53
 90
        2
102
RTVSPost2010PropOp53
 70
     1
102
RTVSPost2010Prop54
  1
strokes_ogs.tif
102
RTVSPost2010PropOp54
 70
     1
102
RTVSPost2010Prop55
280
     0
102
RTVSPost2010PropOp55
 70
     1
102
RTVSPost2010Prop56
140
1.0
102
RTVSPost2010PropOp56
 70
     1
102
RTVSPost2010Prop57
140
1.0
102
RTVSPost2010PropOp57
 70
     1
102
RTVSPropertyOp0
 70
     1
102
RTVSPropertyOp1
 70
     1
102
RTVSPropertyOp2
 70
     1
102
RTVSPropertyOp3
 70
     1
102
RTVSPropertyOp4
 70
     1
102
RTVSPropertyOp5
 70
     1
102
RTVSPropertyOp6
 70
     1
102
RTVSPropertyOp7
 70
     1
102
RTVSPropertyOp8
 70
     1
102
RTVSPropertyOp9
 70
     1
102
RTVSPropertyOp10
 70
     1
102
RTVSPropertyOp11
 70
     1
102
RTVSPropertyOp12
 70
     1
102
RTVSPropertyOp13
 70
     1
102
RTVSPropertyOp14
 70
     1
102
RTVSPropertyOp15
 70
     1
102
RTVSPropertyOp16
 70
     1
102
RTVSPropertyOp17
 70
     1
102
RTVSPropertyOp18
 70
     1
102
RTVSPropertyOp19
 70
     1
102
RTVSPropertyOp20
 70
     1
102
RTVSPropertyOp21
 70
     1
102
RTVSPropertyOp22
 70
     1
102
RTVSPropertyOp23
 70
     1
102
RTVSPropertyOp24
 70
     1
102
RTVSPropertyOp25
 70
     1
102
RTVSPropertyOp26
 70
     1
102
RTVSPropertyOp27
 70
     1
102
RTVSPropertyOp28
 70
     1
102
RTVSPropertyOp29
 70
     1
102
RTVSPropertyOp30
 70
     1
102
RTVSPropertyOp31
 70
     1
102
RTVSPropertyOp32
 70
     1
102
RTVSPropertyOp33
 70
     1
102
RTVSPropertyOp34
 70
     1
102
RTVSPropertyOp35
 70
     1
102
RTVSPropertyOp36
 70
     1
102
RTVSPropertyOp37
 70
     1
102
RTVSPropertyOp38
 70
     1
102
RTVSPropertyOp39
 70
     1
102
RTVSPropertyOp40
 70
     1
102
RTVSPropertyOp41
 70
     1
102
RTVSPropertyOp42
 70
     1
102
RTVSPropertyOp43
 70
     1
102
RTVSPropertyOp44
 70
     1
102
RTVSPropertyOp45
 70
     1
102
RTVSPropertyOp46
 70
     1
102
RTVSPropertyOp47
 70
     1
102
RTVSPropertyOp48
 70
     1
102
RTVSPropertyOp49
 70
     1
102
RTVSPropertyOp50
 70
     1
102
RTVSPropertyOp51
 70
     0
102
RTVSPropertyOp52
 70
     0
102
RTVSPropertyOp53
 70
     1
102
RTVSPropertyOp54
 70
     1
102
RTVSPropertyOp55
 70
     1
102
RTVSPropertyOp56
 70
     1
102
RTVSPropertyOp57
 70
     1
102
RTVSPropertyOp58
 70
     1
102
RTVSPropertyOp59
 70
     1
102
RTVSPropertyOp60
 70
     1
102
RTVSPropertyOp61
 70
     1
102
RTVSPropertyOp62
 70
     1
  0
XRECORD
  5
C3FA
102
{ACAD_REACTORS
330
C3F9
102
}
330
C3F9
100
AcDbXrecord
280
     1
102
RTVSPost2010Prop28
280
     0
102
RTVSPost2010PropOp28
 70
     1
102
RTVSPost2010Prop29
280
     1
102
RTVSPost2010PropOp29
 70
     1
102
RTVSPost2010Prop30
280
     1
102
RTVSPost2010PropOp30
 70
     1
102
RTVSPost2010Prop31
280
     0
102
RTVSPost2010PropOp31
 70
     1
102
RTVSPost2010Prop32
280
     0
102
RTVSPost2010PropOp32
 70
     1
102
RTVSPost2010Prop33
280
     0
102
RTVSPost2010PropOp33
 70
     1
102
RTVSPost2010Prop34
280
     0
102
RTVSPost2010PropOp34
 70
     1
102
RTVSPost2010Prop35
280
     0
102
RTVSPost2010PropOp35
 70
     1
102
RTVSPost2010Prop36
280
     0
102
RTVSPost2010PropOp36
 70
     1
102
RTVSPost2010Prop37
 90
       50
102
RTVSPost2010PropOp37
 70
     1
102
RTVSPost2010Prop38
140
0.0
102
RTVSPost2010PropOp38
 70
     1
102
RTVSPost2010Prop39
140
1.0
102
RTVSPost2010PropOp39
 70
     1
102
RTVSPost2010Prop40
 90
        0
102
RTVSPost2010PropOp40
 70
     1
102
RTVSPost2010Prop41ColorIndex
 90
       18
102
RTVSPost2010Prop41ColorRGB
 90
        0
102
RTVSPost2010PropOp41
 70
     1
102
RTVSPost2010Prop42
 90
       50
102
RTVSPost2010PropOp42
 70
     1
102
RTVSPost2010Prop43
 90
        3
102
RTVSPost2010PropOp43
 70
     1
102
RTVSPost2010Prop44ColorIndex
 90
        5
102
RTVSPost2010Prop44ColorRGB
 90
      255
102
RTVSPost2010PropOp44
 70
     1
102
RTVSPost2010Prop45
280
     0
102
RTVSPost2010PropOp45
 70
     1
102
RTVSPost2010Prop46
 90
       50
102
RTVSPost2010PropOp46
 70
     1
102
RTVSPost2010Prop47
 90
       50
102
RTVSPost2010PropOp47
 70
     1
102
RTVSPost2010Prop48
 90
       50
102
RTVSPost2010PropOp48
 70
     1
102
RTVSPost2010Prop49
280
     0
102
RTVSPost2010PropOp49
 70
     1
102
RTVSPost2010Prop50
 90
       50
102
RTVSPost2010PropOp50
 70
     1
102
RTVSPost2010Prop51ColorIndex
 90
      256
102
RTVSPost2010Prop51ColorRGB
 90
-16777216
102
RTVSPost2010PropOp51
 70
     0
102
RTVSPost2010Prop52
140
1.0
102
RTVSPost2010PropOp52
 70
     0
102
RTVSPost2010Prop53
 90
        2
102
RTVSPost2010PropOp53
 70
     1
102
RTVSPost2010Prop54
  1
strokes_ogs.tif
102
RTVSPost2010PropOp54
 70
     1
102
RTVSPost2010Prop55
280
     0
102
RTVSPost2010PropOp55
 70
     1
102
RTVSPost2010Prop56
140
1.0
102
RTVSPost2010PropOp56
 70
     1
102
RTVSPost2010Prop57
140
1.0
102
RTVSPost2010PropOp57
 70
     1
102
RTVSPropertyOp0
 70
     1
102
RTVSPropertyOp1
 70
     1
102
RTVSPropertyOp2
 70
     1
102
RTVSPropertyOp3
 70
     1
102
RTVSPropertyOp4
 70
     1
102
RTVSPropertyOp5
 70
     1
102
RTVSPropertyOp6
 70
     1
102
RTVSPropertyOp7
 70
     1
102
RTVSPropertyOp8
 70
     1
102
RTVSPropertyOp9
 70
     1
102
RTVSPropertyOp10
 70
     1
102
RTVSPropertyOp11
 70
     1
102
RTVSPropertyOp12
 70
     1
102
RTVSPropertyOp13
 70
     1
102
RTVSPropertyOp14
 70
     1
102
RTVSPropertyOp15
 70
     1
102
RTVSPropertyOp16
 70
     1
102
RTVSPropertyOp17
 70
     1
102
RTVSPropertyOp18
 70
     1
102
RTVSPropertyOp19
 70
     1
102
RTVSPropertyOp20
 70
     1
102
RTVSPropertyOp21
 70
     1
102
RTVSPropertyOp22
 70
     1
102
RTVSPropertyOp23
 70
     1
102
RTVSPropertyOp24
 70
     1
102
RTVSPropertyOp25
 70
     1
102
RTVSPropertyOp26
 70
     1
102
RTVSPropertyOp27
 70
     1
102
RTVSPropertyOp28
 70
     1
102
RTVSPropertyOp29
 70
     1
102
RTVSPropertyOp30
 70
     1
102
RTVSPropertyOp31
 70
     1
102
RTVSPropertyOp32
 70
     1
102
RTVSPropertyOp33
 70
     1
102
RTVSPropertyOp34
 70
     1
102
RTVSPropertyOp35
 70
     1
102
RTVSPropertyOp36
 70
     1
102
RTVSPropertyOp37
 70
     1
102
RTVSPropertyOp38
 70
     1
102
RTVSPropertyOp39
 70
     1
102
RTVSPropertyOp40
 70
     1
102
RTVSPropertyOp41
 70
     1
102
RTVSPropertyOp42
 70
     1
102
RTVSPropertyOp43
 70
     1
102
RTVSPropertyOp44
 70
     1
102
RTVSPropertyOp45
 70
     1
102
RTVSPropertyOp46
 70
     1
102
RTVSPropertyOp47
 70
     1
102
RTVSPropertyOp48
 70
     1
102
RTVSPropertyOp49
 70
     1
102
RTVSPropertyOp50
 70
     1
102
RTVSPropertyOp51
 70
     0
102
RTVSPropertyOp52
 70
     0
102
RTVSPropertyOp53
 70
     1
102
RTVSPropertyOp54
 70
     1
102
RTVSPropertyOp55
 70
     1
102
RTVSPropertyOp56
 70
     1
102
RTVSPropertyOp57
 70
     1
102
RTVSPropertyOp58
 70
     1
102
RTVSPropertyOp59
 70
     1
102
RTVSPropertyOp60
 70
     1
102
RTVSPropertyOp61
 70
     1
102
RTVSPropertyOp62
 70
     1
  0
XRECORD
  5
C412
102
{ACAD_REACTORS
330
C411
102
}
330
C411
100
AcDbXrecord
280
     1
102
RTVSPost2010Prop28
280
     0
102
RTVSPost2010PropOp28
 70
     1
102
RTVSPost2010Prop29
280
     1
102
RTVSPost2010PropOp29
 70
     1
102
RTVSPost2010Prop30
280
     1
102
RTVSPost2010PropOp30
 70
     1
102
RTVSPost2010Prop31
280
     0
102
RTVSPost2010PropOp31
 70
     1
102
RTVSPost2010Prop32
280
     0
102
RTVSPost2010PropOp32
 70
     1
102
RTVSPost2010Prop33
280
     0
102
RTVSPost2010PropOp33
 70
     1
102
RTVSPost2010Prop34
280
     0
102
RTVSPost2010PropOp34
 70
     1
102
RTVSPost2010Prop35
280
     0
102
RTVSPost2010PropOp35
 70
     1
102
RTVSPost2010Prop36
280
     0
102
RTVSPost2010PropOp36
 70
     1
102
RTVSPost2010Prop37
 90
       50
102
RTVSPost2010PropOp37
 70
     1
102
RTVSPost2010Prop38
140
0.0
102
RTVSPost2010PropOp38
 70
     1
102
RTVSPost2010Prop39
140
1.0
102
RTVSPost2010PropOp39
 70
     1
102
RTVSPost2010Prop40
 90
        0
102
RTVSPost2010PropOp40
 70
     1
102
RTVSPost2010Prop41ColorIndex
 90
       18
102
RTVSPost2010Prop41ColorRGB
 90
        0
102
RTVSPost2010PropOp41
 70
     1
102
RTVSPost2010Prop42
 90
       50
102
RTVSPost2010PropOp42
 70
     1
102
RTVSPost2010Prop43
 90
        3
102
RTVSPost2010PropOp43
 70
     1
102
RTVSPost2010Prop44ColorIndex
 90
        5
102
RTVSPost2010Prop44ColorRGB
 90
      255
102
RTVSPost2010PropOp44
 70
     1
102
RTVSPost2010Prop45
280
     0
102
RTVSPost2010PropOp45
 70
     1
102
RTVSPost2010Prop46
 90
       50
102
RTVSPost2010PropOp46
 70
     1
102
RTVSPost2010Prop47
 90
       50
102
RTVSPost2010PropOp47
 70
     1
102
RTVSPost2010Prop48
 90
       50
102
RTVSPost2010PropOp48
 70
     1
102
RTVSPost2010Prop49
280
     0
102
RTVSPost2010PropOp49
 70
     1
102
RTVSPost2010Prop50
 90
       50
102
RTVSPost2010PropOp50
 70
     1
102
RTVSPost2010Prop51ColorIndex
 90
      256
102
RTVSPost2010Prop51ColorRGB
 90
-16777216
102
RTVSPost2010PropOp51
 70
     0
102
RTVSPost2010Prop52
140
1.0
102
RTVSPost2010PropOp52
 70
     0
102
RTVSPost2010Prop53
 90
        2
102
RTVSPost2010PropOp53
 70
     1
102
RTVSPost2010Prop54
  1
strokes_ogs.tif
102
RTVSPost2010PropOp54
 70
     1
102
RTVSPost2010Prop55
280
     0
102
RTVSPost2010PropOp55
 70
     1
102
RTVSPost2010Prop56
140
1.0
102
RTVSPost2010PropOp56
 70
     1
102
RTVSPost2010Prop57
140
1.0
102
RTVSPost2010PropOp57
 70
     1
102
RTVSPropertyOp0
 70
     1
102
RTVSPropertyOp1
 70
     1
102
RTVSPropertyOp2
 70
     1
102
RTVSPropertyOp3
 70
     1
102
RTVSPropertyOp4
 70
     1
102
RTVSPropertyOp5
 70
     1
102
RTVSPropertyOp6
 70
     1
102
RTVSPropertyOp7
 70
     1
102
RTVSPropertyOp8
 70
     1
102
RTVSPropertyOp9
 70
     1
102
RTVSPropertyOp10
 70
     1
102
RTVSPropertyOp11
 70
     1
102
RTVSPropertyOp12
 70
     1
102
RTVSPropertyOp13
 70
     1
102
RTVSPropertyOp14
 70
     1
102
RTVSPropertyOp15
 70
     1
102
RTVSPropertyOp16
 70
     1
102
RTVSPropertyOp17
 70
     1
102
RTVSPropertyOp18
 70
     1
102
RTVSPropertyOp19
 70
     1
102
RTVSPropertyOp20
 70
     1
102
RTVSPropertyOp21
 70
     1
102
RTVSPropertyOp22
 70
     1
102
RTVSPropertyOp23
 70
     1
102
RTVSPropertyOp24
 70
     1
102
RTVSPropertyOp25
 70
     1
102
RTVSPropertyOp26
 70
     1
102
RTVSPropertyOp27
 70
     1
102
RTVSPropertyOp28
 70
     1
102
RTVSPropertyOp29
 70
     1
102
RTVSPropertyOp30
 70
     1
102
RTVSPropertyOp31
 70
     1
102
RTVSPropertyOp32
 70
     1
102
RTVSPropertyOp33
 70
     1
102
RTVSPropertyOp34
 70
     1
102
RTVSPropertyOp35
 70
     1
102
RTVSPropertyOp36
 70
     1
102
RTVSPropertyOp37
 70
     1
102
RTVSPropertyOp38
 70
     1
102
RTVSPropertyOp39
 70
     1
102
RTVSPropertyOp40
 70
     1
102
RTVSPropertyOp41
 70
     1
102
RTVSPropertyOp42
 70
     1
102
RTVSPropertyOp43
 70
     1
102
RTVSPropertyOp44
 70
     1
102
RTVSPropertyOp45
 70
     1
102
RTVSPropertyOp46
 70
     1
102
RTVSPropertyOp47
 70
     1
102
RTVSPropertyOp48
 70
     1
102
RTVSPropertyOp49
 70
     1
102
RTVSPropertyOp50
 70
     1
102
RTVSPropertyOp51
 70
     0
102
RTVSPropertyOp52
 70
     0
102
RTVSPropertyOp53
 70
     1
102
RTVSPropertyOp54
 70
     1
102
RTVSPropertyOp55
 70
     1
102
RTVSPropertyOp56
 70
     1
102
RTVSPropertyOp57
 70
     1
102
RTVSPropertyOp58
 70
     1
102
RTVSPropertyOp59
 70
     1
102
RTVSPropertyOp60
 70
     1
102
RTVSPropertyOp61
 70
     1
102
RTVSPropertyOp62
 70
     1
  0
ENDSEC
  0
EOF
