  0
SECTION
  2
HEADER
  9
$ACADVER
  1
AC1015
  9
$ACADMAINTVER
 70
    20
  9
$DWGCODEPAGE
  3
ANSI_932
  9
$INSBASE
 10
0.0
 20
0.0
 30
0.0
  9
$EXTMIN
 10
9.99995
 20
9.999999999999998
 30
0.0
  9
$EXTMAX
 10
419.9929539999998
 20
295.708032
 30
0.0
  9
$LIMMIN
 10
0.0
 20
0.0
  9
$LIMMAX
 10
495.0
 20
341.25
  9
$ORTHOMODE
 70
     0
  9
$REGENMODE
 70
     1
  9
$FILLMODE
 70
     1
  9
$QTEXTMODE
 70
     0
  9
$MIRRTEXT
 70
     1
  9
$LTSCALE
 40
20.0
  9
$ATTMODE
 70
     1
  9
$TEXTSIZE
 40
5.0
  9
$TRACEWID
 40
1.0
  9
$TEXTSTYLE
  7
STANDARD
  9
$CLAYER
  8
0
  9
$CELTYPE
  6
BYLAYER
  9
$CECOLOR
 62
   256
  9
$CELTSCALE
 40
1.0
  9
$DISPSILH
 70
     0
  9
$DIMSCALE
 40
1.0
  9
$DIMASZ
 40
3.0
  9
$DIMEXO
 40
1.0
  9
$DIMDLI
 40
10.0
  9
$DIMRND
 40
0.0
  9
$DIMDLE
 40
0.0
  9
$DIMEXE
 40
1.0
  9
$DIMTP
 40
0.0
  9
$DIMTM
 40
0.0
  9
$DIMTXT
 40
3.2
  9
$DIMCEN
 40
0.0
  9
$DIMTSZ
 40
0.0
  9
$DIMTOL
 70
     0
  9
$DIMLIM
 70
     0
  9
$DIMTIH
 70
     0
  9
$DIMTOH
 70
     0
  9
$DIMSE1
 70
     0
  9
$DIMSE2
 70
     0
  9
$DIMTAD
 70
     3
  9
$DIMZIN
 70
     8
  9
$DIMBLK
  1

  9
$DIMASO
 70
     1
  9
$DIMSHO
 70
     1
  9
$DIMPOST
  1

  9
$DIMAPOST
  1

  9
$DIMALT
 70
     0
  9
$DIMALTD
 70
     2
  9
$DIMALTF
 40
25.4
  9
$DIMLFAC
 40
1.0
  9
$DIMTOFL
 70
     1
  9
$DIMTVP
 40
0.0
  9
$DIMTIX
 70
     0
  9
$DIMSOXD
 70
     0
  9
$DIMSAH
 70
     1
  9
$DIMBLK1
  1
OPEN
  9
$DIMBLK2
  1
OPEN
  9
$DIMSTYLE
  2
STANDARD
  9
$DIMCLRD
 70
     0
  9
$DIMCLRE
 70
     0
  9
$DIMCLRT
 70
     0
  9
$DIMTFAC
 40
1.0
  9
$DIMGAP
 40
1.0
  9
$DIMJUST
 70
     0
  9
$DIMSD1
 70
     0
  9
$DIMSD2
 70
     0
  9
$DIMTOLJ
 70
     1
  9
$DIMTZIN
 70
     0
  9
$DIMALTZ
 70
     0
  9
$DIMALTTZ
 70
     0
  9
$DIMUPT
 70
     0
  9
$DIMDEC
 70
     4
  9
$DIMTDEC
 70
     4
  9
$DIMALTU
 70
     2
  9
$DIMALTTD
 70
     2
  9
$DIMTXSTY
  7
STANDARD
  9
$DIMAUNIT
 70
     0
  9
$DIMADEC
 70
     0
  9
$DIMALTRND
 40
0.0
  9
$DIMAZIN
 70
     0
  9
$DIMDSEP
 70
    46
  9
$DIMATFIT
 70
     3
  9
$DIMFRAC
 70
     0
  9
$DIMLDRBLK
  1
OPEN
  9
$DIMLUNIT
 70
     2
  9
$DIMLWD
 70
    -2
  9
$DIMLWE
 70
    -2
  9
$DIMTMOVE
 70
     0
  9
$LUNITS
 70
     2
  9
$LUPREC
 70
     4
  9
$SKETCHINC
 40
1.0
  9
$FILLETRAD
 40
0.0
  9
$AUNITS
 70
     0
  9
$AUPREC
 70
     2
  9
$MENU
  1
.
  9
$ELEVATION
 40
0.0
  9
$PELEVATION
 40
0.0
  9
$THICKNESS
 40
0.0
  9
$LIMCHECK
 70
     0
  9
$CHAMFERA
 40
10.0
  9
$CHAMFERB
 40
10.0
  9
$CHAMFERC
 40
0.0
  9
$CHAMFERD
 40
0.0
  9
$SKPOLY
 70
     0
  9
$TDCREATE
 40
2451301.387859722
  9
$TDUCREATE
 40
2451301.012859722
  9
$TDUPDATE
 40
2457192.692161019
  9
$TDUUPDATE
 40
2457192.317161019
  9
$TDINDWG
 40
0.0023523727
  9
$TDUSRTIMER
 40
0.0023518403
  9
$USRTIMER
 70
     1
  9
$ANGBASE
 50
0.0
  9
$ANGDIR
 70
     0
  9
$PDMODE
 70
    34
  9
$PDSIZE
 40
0.0
  9
$PLINEWID
 40
0.0
  9
$SPLFRAME
 70
     0
  9
$SPLINETYPE
 70
     6
  9
$SPLINESEGS
 70
     8
  9
$HANDSEED
  5
C6E7
  9
$SURFTAB1
 70
     6
  9
$SURFTAB2
 70
     6
  9
$SURFTYPE
 70
     6
  9
$SURFU
 70
     6
  9
$SURFV
 70
     6
  9
$UCSBASE
  2

  9
$UCSNAME
  2

  9
$UCSORG
 10
0.0
 20
0.0
 30
0.0
  9
$UCSXDIR
 10
1.0
 20
0.0
 30
0.0
  9
$UCSYDIR
 10
0.0
 20
1.0
 30
0.0
  9
$UCSORTHOREF
  2

  9
$UCSORTHOVIEW
 70
     0
  9
$UCSORGTOP
 10
0.0
 20
0.0
 30
0.0
  9
$UCSORGBOTTOM
 10
0.0
 20
0.0
 30
0.0
  9
$UCSORGLEFT
 10
0.0
 20
0.0
 30
0.0
  9
$UCSORGRIGHT
 10
0.0
 20
0.0
 30
0.0
  9
$UCSORGFRONT
 10
0.0
 20
0.0
 30
0.0
  9
$UCSORGBACK
 10
0.0
 20
0.0
 30
0.0
  9
$PUCSBASE
  2

  9
$PUCSNAME
  2

  9
$PUCSORG
 10
0.0
 20
0.0
 30
0.0
  9
$PUCSXDIR
 10
1.0
 20
0.0
 30
0.0
  9
$PUCSYDIR
 10
0.0
 20
1.0
 30
0.0
  9
$PUCSORTHOREF
  2

  9
$PUCSORTHOVIEW
 70
     0
  9
$PUCSORGTOP
 10
0.0
 20
0.0
 30
0.0
  9
$PUCSORGBOTTOM
 10
0.0
 20
0.0
 30
0.0
  9
$PUCSORGLEFT
 10
0.0
 20
0.0
 30
0.0
  9
$PUCSORGRIGHT
 10
0.0
 20
0.0
 30
0.0
  9
$PUCSORGFRONT
 10
0.0
 20
0.0
 30
0.0
  9
$PUCSORGBACK
 10
0.0
 20
0.0
 30
0.0
  9
$USERI1
 70
     0
  9
$USERI2
 70
     0
  9
$USERI3
 70
     0
  9
$USERI4
 70
     0
  9
$USERI5
 70
     0
  9
$USERR1
 40
0.0
  9
$USERR2
 40
0.0
  9
$USERR3
 40
0.0
  9
$USERR4
 40
0.0
  9
$USERR5
 40
0.0
  9
$WORLDVIEW
 70
     1
  9
$SHADEDGE
 70
     3
  9
$SHADEDIF
 70
    70
  9
$TILEMODE
 70
     1
  9
$MAXACTVP
 70
    16
  9
$PINSBASE
 10
0.0
 20
0.0
 30
0.0
  9
$PLIMCHECK
 70
     0
  9
$PEXTMIN
 10
1.000000000000000E+20
 20
1.000000000000000E+20
 30
1.000000000000000E+20
  9
$PEXTMAX
 10
-1.000000000000000E+20
 20
-1.000000000000000E+20
 30
-1.000000000000000E+20
  9
$PLIMMIN
 10
0.0
 20
0.0
  9
$PLIMMAX
 10
420.0
 20
297.0
  9
$UNITMODE
 70
     0
  9
$VISRETAIN
 70
     0
  9
$PLINEGEN
 70
     0
  9
$PSLTSCALE
 70
     0
  9
$TREEDEPTH
 70
  3020
  9
$CMLSTYLE
  2
STANDARD
  9
$CMLJUST
 70
     0
  9
$CMLSCALE
 40
1.0
  9
$PROXYGRAPHICS
 70
     1
  9
$MEASUREMENT
 70
     0
  9
$CELWEIGHT
370
    -1
  9
$ENDCAPS
280
     0
  9
$JOINSTYLE
280
     0
  9
$LWDISPLAY
290
     0
  9
$INSUNITS
 70
     0
  9
$HYPERLINKBASE
  1

  9
$STYLESHEET
  1

  9
$XEDIT
290
     1
  9
$CEPSNTYPE
380
     0
  9
$PSTYLEMODE
290
     1
  9
$FINGERPRINTGUID
  2
{8CFCD78A-738A-42AA-945B-0CC40422F89A}
  9
$VERSIONGUID
  2
{2AF1509E-5D93-4C02-9CC3-31C7C360FD79}
  9
$EXTNAMES
290
     1
  9
$PSVPSCALE
 40
0.0
  9
$OLESTARTUP
290
     0
  0
ENDSEC
  0
SECTION
  2
CLASSES
  0
CLASS
  1
ACDBDICTIONARYWDFLT
  2
AcDbDictionaryWithDefault
  3
ObjectDBX Classes
 90
        0
280
     0
281
     0
  0
CLASS
  1
ACDBPLACEHOLDER
  2
AcDbPlaceHolder
  3
ObjectDBX Classes
 90
        0
280
     0
281
     0
  0
CLASS
  1
LAYOUT
  2
AcDbLayout
  3
ObjectDBX Classes
 90
        0
280
     0
281
     0
  0
CLASS
  1
DICTIONARYVAR
  2
AcDbDictionaryVar
  3
ObjectDBX Classes
 90
        0
280
     0
281
     0
  0
CLASS
  1
MATERIAL
  2
AcDbMaterial
  3
ObjectDBX Classes
 90
     1153
280
     0
281
     0
  0
CLASS
  1
VISUALSTYLE
  2
AcDbVisualStyle
  3
ObjectDBX Classes
 90
     4095
280
     0
281
     0
  0
CLASS
  1
TABLESTYLE
  2
AcDbTableStyle
  3
ObjectDBX Classes
 90
     4095
280
     0
281
     0
  0
CLASS
  1
SCALE
  2
AcDbScale
  3
ObjectDBX Classes
 90
     1153
280
     0
281
     0
  0
CLASS
  1
MLEADERSTYLE
  2
AcDbMLeaderStyle
  3
ACDB_MLEADERSTYLE_CLASS
 90
     4095
280
     0
281
     0
  0
CLASS
  1
ACDBSECTIONVIEWSTYLE
  2
AcDbSectionViewStyle
  3
ObjectDBX Classes
 90
     1025
280
     0
281
     0
  0
CLASS
  1
ACDBDETAILVIEWSTYLE
  2
AcDbDetailViewStyle
  3
ObjectDBX Classes
 90
     1025
280
     0
281
     0
  0
CLASS
  1
CELLSTYLEMAP
  2
AcDbCellStyleMap
  3
ObjectDBX Classes
 90
     1152
280
     0
281
     0
  0
ENDSEC
  0
SECTION
  2
TABLES
  0
TABLE
  2
VPORT
  5
C39C
330
0
100
AcDbSymbolTable
 70
     1
  0
VPORT
  5
C5ED
330
C39C
100
AcDbSymbolTableRecord
100
AcDbViewportTableRecord
  2
*ACTIVE
 70
     0
 10
0.0
 20
0.0
 11
1.0
 21
1.0
 12
271.1150851569648
 22
170.625
 13
0.0
 23
0.0
 14
10.0
 24
10.0
 15
10.0
 25
10.0
 16
0.0
 26
0.0
 36
1.0
 17
0.0
 27
0.0
 37
0.0
 40
343.7934782608696
 41
2.35006605019815
 42
50.0
 43
0.0
 44
0.0
 50
0.0
 51
0.0
 71
     0
 72
   100
 73
     1
 74
     0
 75
     0
 76
     0
 77
     0
 78
     0
281
     0
 65
     1
110
0.0
120
0.0
130
0.0
111
1.0
121
0.0
131
0.0
112
0.0
122
1.0
132
0.0
 79
     0
146
0.0
1001
ACAD_NAV_VCDISPLAY
1070
     3
  0
ENDTAB
  0
TABLE
  2
LTYPE
  5
C399
330
0
100
AcDbSymbolTable
 70
     4
  0
LTYPE
  5
C3A7
330
C399
100
AcDbSymbolTableRecord
100
AcDbLinetypeTableRecord
  2
BYBLOCK
 70
     0
  3

 72
    65
 73
     0
 40
0.0
  0
LTYPE
  5
C3A8
330
C399
100
AcDbSymbolTableRecord
100
AcDbLinetypeTableRecord
  2
BYLAYER
 70
     0
  3

 72
    65
 73
     0
 40
0.0
  0
LTYPE
  5
C3A9
330
C399
100
AcDbSymbolTableRecord
100
AcDbLinetypeTableRecord
  2
CONTINUOUS
 70
     0
  3
Solid line
 72
    65
 73
     0
 40
0.0
  0
LTYPE
  5
C3B7
330
C399
100
AcDbSymbolTableRecord
100
AcDbLinetypeTableRecord
  2
DASHED
 70
     0
  3
__ __ __ __ __ __ __ __ __ __ __ __ __ __ __ __
 72
    65
 73
     2
 40
0.75
 49
0.5
 74
     0
 49
-0.25
 74
     0
  0
LTYPE
  5
C3B8
330
C399
100
AcDbSymbolTableRecord
100
AcDbLinetypeTableRecord
  2
CENTER
 70
     0
  3
____ _ ____ _ ____ _ ____ _ ____ _ ____ _ ____ 
 72
    65
 73
     4
 40
2.0
 49
1.25
 74
     0
 49
-0.25
 74
     0
 49
0.25
 74
     0
 49
-0.25
 74
     0
  0
LTYPE
  5
C3B9
330
C399
100
AcDbSymbolTableRecord
100
AcDbLinetypeTableRecord
  2
PHANTOM
 70
     0
  3
______  __  __  ______  __  __  ______  __  __ 
 72
    65
 73
     6
 40
2.5
 49
1.25
 74
     0
 49
-0.25
 74
     0
 49
0.25
 74
     0
 49
-0.25
 74
     0
 49
0.25
 74
     0
 49
-0.25
 74
     0
  0
ENDTAB
  0
TABLE
  2
LAYER
  5
C396
330
0
100
AcDbSymbolTable
 70
     8
  0
LAYER
  5
C3A4
102
{ACAD_XDICTIONARY
360
C64A
102
}
330
C396
100
AcDbSymbolTableRecord
100
AcDbLayerTableRecord
  2
0
 70
     0
 62
     7
  6
CONTINUOUS
370
    -3
390
C5F6
  0
LAYER
  5
C3BA
102
{ACAD_XDICTIONARY
360
C64C
102
}
330
C396
100
AcDbSymbolTableRecord
100
AcDbLayerTableRecord
  2
4
 70
     0
 62
     1
  6
CENTER
370
    -3
390
C5F6
  0
LAYER
  5
C3BB
102
{ACAD_XDICTIONARY
360
C64E
102
}
330
C396
100
AcDbSymbolTableRecord
100
AcDbLayerTableRecord
  2
5
 70
     0
 62
     6
  6
PHANTOM
370
    -3
390
C5F6
  0
LAYER
  5
C3BC
102
{ACAD_XDICTIONARY
360
C650
102
}
330
C396
100
AcDbSymbolTableRecord
100
AcDbLayerTableRecord
  2
1
 70
     0
 62
     7
  6
CONTINUOUS
370
    -3
390
C5F6
  0
LAYER
  5
C3BD
102
{ACAD_XDICTIONARY
360
C652
102
}
330
C396
100
AcDbSymbolTableRecord
100
AcDbLayerTableRecord
  2
2
 70
     0
 62
     4
  6
CONTINUOUS
370
    -3
390
C5F6
  0
LAYER
  5
C3BE
102
{ACAD_XDICTIONARY
360
C654
102
}
330
C396
100
AcDbSymbolTableRecord
100
AcDbLayerTableRecord
  2
3
 70
     0
 62
     2
  6
DASHED
370
    -3
390
C5F6
  0
LAYER
  5
C3BF
102
{ACAD_XDICTIONARY
360
C656
102
}
330
C396
100
AcDbSymbolTableRecord
100
AcDbLayerTableRecord
  2
6
 70
     0
 62
     5
  6
CONTINUOUS
370
    -3
390
C5F6
  0
LAYER
  5
C3C0
102
{ACAD_XDICTIONARY
360
C658
102
}
330
C396
100
AcDbSymbolTableRecord
100
AcDbLayerTableRecord
  2
7
 70
     0
 62
     3
  6
CONTINUOUS
370
    -3
390
C5F6
  0
ENDTAB
  0
TABLE
  2
STYLE
  5
C397
330
0
100
AcDbSymbolTable
 70
     1
  0
STYLE
  5
C3A5
330
C397
100
AcDbSymbolTableRecord
100
AcDbTextStyleTableRecord
  2
STANDARD
 70
     0
 40
0.0
 41
1.0
 50
0.0
 71
     0
 42
5.0
  3
txt
  4

  0
ENDTAB
  0
TABLE
  2
VIEW
  5
C39A
330
0
100
AcDbSymbolTable
 70
     2
  0
VIEW
  5
C3C1
330
C39A
100
AcDbSymbolTableRecord
100
AcDbViewTableRecord
  2
7
 70
     0
 40
113.5991649999999
 10
207.7781589999999
 20
100.5444229999999
 41
223.824098
 11
0.0
 21
0.0
 31
1.0
 12
0.0
 22
0.0
 32
0.0
 42
50.0
 43
0.0
 44
0.0
 50
0.0
 71
     0
281
     0
 72
     0
  0
VIEW
  5
C3C2
330
C39A
100
AcDbSymbolTableRecord
100
AcDbViewTableRecord
  2
6
 70
     0
 40
267.146964
 10
253.9720659999999
 20
125.781695
 41
526.35887
 11
0.0
 21
0.0
 31
1.0
 12
0.0
 22
0.0
 32
0.0
 42
50.0
 43
0.0
 44
0.0
 50
0.0
 71
     0
281
     0
 72
     0
  0
ENDTAB
  0
TABLE
  2
UCS
  5
C39B
330
0
100
AcDbSymbolTable
 70
     0
  0
ENDTAB
  0
TABLE
  2
APPID
  5
C39D
330
0
100
AcDbSymbolTable
 70
     4
  0
APPID
  5
C3A6
330
C39D
100
AcDbSymbolTableRecord
100
AcDbRegAppTableRecord
  2
ACAD
 70
     0
  0
APPID
  5
C648
330
C39D
100
AcDbSymbolTableRecord
100
AcDbRegAppTableRecord
  2
ACAD_EXEMPT_FROM_CAD_STANDARDS
 70
     0
  0
APPID
  5
C664
330
C39D
100
AcDbSymbolTableRecord
100
AcDbRegAppTableRecord
  2
ACAD_NAV_VCDISPLAY
 70
     0
  0
APPID
  5
C69D
330
C39D
100
AcDbSymbolTableRecord
100
AcDbRegAppTableRecord
  2
ACAD_MLEADERVER
 70
     0
  0
ENDTAB
  0
TABLE
  2
DIMSTYLE
  5
C39E
330
0
100
AcDbSymbolTable
 70
     1
100
AcDbDimStyleTable
 71
     0
  0
DIMSTYLE
105
C3C4
330
C39E
100
AcDbSymbolTableRecord
100
AcDbDimStyleTableRecord
  2
STANDARD
 70
     0
 41
3.0
 42
1.0
 43
10.0
 44
1.0
 73
     0
 74
     0
 77
     3
 78
     8
140
3.2
141
0.0
147
1.0
172
     1
173
     1
284
     8
285
     8
286
     8
340
C3A5
  0
ENDTAB
  0
TABLE
  2
BLOCK_RECORD
  5
C395
330
0
100
AcDbSymbolTable
 70
     1
  0
BLOCK_RECORD
  5
C3B2
102
{ACAD_XDICTIONARY
360
C5F0
102
}
330
C395
100
AcDbSymbolTableRecord
100
AcDbBlockTableRecord
  2
*MODEL_SPACE
340
C644
  0
BLOCK_RECORD
  5
C3AE
102
{ACAD_XDICTIONARY
360
C5EE
102
}
330
C395
100
AcDbSymbolTableRecord
100
AcDbBlockTableRecord
  2
*PAPER_SPACE
340
C645
  0
BLOCK_RECORD
  5
C3CC
330
C395
100
AcDbSymbolTableRecord
100
AcDbBlockTableRecord
  2
_OPEN
340
0
  0
ENDTAB
  0
ENDSEC
  0
SECTION
  2
BLOCKS
  0
BLOCK
  5
C3B3
330
C3B2
100
AcDbEntity
  8
0
100
AcDbBlockBegin
  2
*MODEL_SPACE
 70
     0
 10
0.0
 20
0.0
 30
0.0
  3
*MODEL_SPACE
  1

  0
ENDBLK
  5
C3B4
330
C3B2
100
AcDbEntity
  8
0
100
AcDbBlockEnd
  0
BLOCK
  5
C3AF
330
C3AE
100
AcDbEntity
 67
     1
  8
0
100
AcDbBlockBegin
  2
*PAPER_SPACE
 70
     0
 10
0.0
 20
0.0
 30
0.0
  3
*PAPER_SPACE
  1

  0
ENDBLK
  5
C3B0
330
C3AE
100
AcDbEntity
 67
     1
  8
0
100
AcDbBlockEnd
  0
BLOCK
  5
C3CD
330
C3CC
100
AcDbEntity
  8
0
100
AcDbBlockBegin
  2
_OPEN
 70
     0
 10
0.0
 20
0.0
 30
0.0
  3
_OPEN
  1

  0
LINE
  5
C3CE
330
C3CC
100
AcDbEntity
  8
0
  6
ByBlock
 62
     0
100
AcDbLine
 10
-1.0
 20
0.166667
 30
0.0
 11
0.0
 21
0.0
 31
0.0
  0
LINE
  5
C3CF
330
C3CC
100
AcDbEntity
  8
0
  6
ByBlock
 62
     0
100
AcDbLine
 10
0.0
 20
0.0
 30
0.0
 11
-1.0
 21
-0.166667
 31
0.0
  0
LINE
  5
C3D0
330
C3CC
100
AcDbEntity
  8
0
  6
ByBlock
 62
     0
100
AcDbLine
 10
0.0
 20
0.0
 30
0.0
 11
-1.0
 21
0.0
 31
0.0
  0
ENDBLK
  5
C3D1
330
C3CC
100
AcDbEntity
  8
0
100
AcDbBlockEnd
  0
ENDSEC
  0
SECTION
  2
ENTITIES
  0
TEXT
  5
C3D2
330
C3B2
100
AcDbEntity
  8
6
  6
Continuous
100
AcDbText
 10
27.97945
 20
10.0487
 30
0.0
 40
1.399999999999999
  1
6
 41
1.069393
100
AcDbText
  0
TEXT
  5
C3D3
330
C3B2
100
AcDbEntity
  8
1
  6
Continuous
100
AcDbText
 10
17.97945
 20
10.0487
 30
0.0
 40
1.399999999999999
  1
1
 41
1.069393
100
AcDbText
  0
TEXT
  5
C3D4
330
C3B2
100
AcDbEntity
  8
1
  6
Continuous
100
AcDbText
 10
9.99995
 20
10.0
 30
0.0
 40
1.399999999999999
  1
LAYER
 41
1.009912999999996
100
AcDbText
  0
TEXT
  5
C3D5
330
C3B2
100
AcDbEntity
  8
2
  6
Continuous
100
AcDbText
 10
19.97944999999998
 20
10.0487
 30
0.0
 40
1.399999999999999
  1
2
 41
1.069393
100
AcDbText
  0
TEXT
  5
C3D6
330
C3B2
100
AcDbEntity
  8
3
  6
DASHED
100
AcDbText
 10
21.97945
 20
10.0487
 30
0.0
 40
1.399999999999999
  1
3
 41
1.069393
100
AcDbText
  0
TEXT
  5
C3D7
330
C3B2
100
AcDbEntity
  8
4
  6
CENTER
100
AcDbText
 10
23.97944999999999
 20
10.0487
 30
0.0
 40
1.399999999999999
  1
4
 41
1.069393
100
AcDbText
  0
TEXT
  5
C3D8
330
C3B2
100
AcDbEntity
  8
5
  6
PHANTOM
100
AcDbText
 10
25.97945
 20
10.0487
 30
0.0
 40
1.399999999999999
  1
5
 41
1.069393
100
AcDbText
  0
TEXT
  5
C3D9
330
C3B2
100
AcDbEntity
  8
7
  6
Continuous
100
AcDbText
 10
10.00005
 20
26.0
 30
0.0
 40
3.0
  1
CODE No.19008
 41
1.003962999999999
100
AcDbText
  0
TEXT
  5
C3DA
330
C3B2
100
AcDbEntity
  8
7
  6
Continuous
100
AcDbText
 10
10.00005
 20
18.0
 30
0.0
 40
3.0
  1
TYPE No.TCA-TE50N8S (TE50N8S)
 41
1.002350999999997
100
AcDbText
  0
TEXT
  5
C3DB
330
C3B2
100
AcDbEntity
  8
7
  6
Continuous
100
AcDbText
 10
29.97944999999999
 20
10.0487
 30
0.0
 40
1.399999999999999
  1
7
 41
1.069393
100
AcDbText
  0
LINE
  5
C3DC
330
C3B2
100
AcDbEntity
  8
1
  6
Continuous
100
AcDbLine
 10
139.9864279999998
 20
255.2080319999999
 30
0.0
 11
139.9864279999998
 21
249.8634809999999
 31
0.0
  0
LINE
  5
C3DD
330
C3B2
100
AcDbEntity
  8
1
  6
Continuous
100
AcDbLine
 10
189.9864279999999
 20
255.2080319999999
 30
0.0
 11
189.9864279999999
 21
249.8634809999999
 31
0.0
  0
LINE
  5
C3DE
330
C3B2
100
AcDbEntity
  8
4
  6
CENTER
100
AcDbLine
 10
164.9864279999999
 20
295.708032
 30
0.0
 11
164.9864279999999
 21
236.7080319999999
 31
0.0
  0
LINE
  5
C3DF
330
C3B2
100
AcDbEntity
  8
1
  6
Continuous
100
AcDbLine
 10
184.7523149999999
 20
245.1261
 30
0.0
 11
145.220542
 21
245.1261
 31
0.0
  0
LINE
  5
C3E0
330
C3B2
100
AcDbEntity
  8
1
  6
Continuous
100
AcDbLine
 10
148.3200889999999
 20
244.138054
 30
0.0
 11
181.6527679999999
 21
244.138054
 31
0.0
  0
LINE
  5
C3E1
330
C3B2
100
AcDbEntity
  8
1
  6
Continuous
100
AcDbLine
 10
147.6322619999999
 20
244.863929
 30
0.0
 11
182.340595
 21
244.863929
 31
0.0
  0
LINE
  5
C3E2
330
C3B2
100
AcDbEntity
  8
1
  6
Continuous
100
AcDbLine
 10
180.086428
 20
243.7080319999998
 30
0.0
 11
149.886428
 21
243.7080319999998
 31
0.0
  0
LINE
  5
C3E3
330
C3B2
100
AcDbEntity
  8
4
  6
CENTER
100
AcDbLine
 10
194.9864279999999
 20
155.2080319999998
 30
0.0
 11
134.986428
 21
155.2080319999998
 31
0.0
  0
CIRCLE
  5
C3E4
330
C3B2
100
AcDbEntity
  8
1
  6
Continuous
100
AcDbCircle
 10
164.9864279999999
 20
155.2080319999998
 30
0.0
 40
21.0
  0
CIRCLE
  5
C3E5
330
C3B2
100
AcDbEntity
  8
1
  6
Continuous
100
AcDbCircle
 10
164.9864279999999
 20
155.2080319999998
 30
0.0
 40
19.5
  0
CIRCLE
  5
C3E6
330
C3B2
100
AcDbEntity
  8
1
  6
Continuous
100
AcDbCircle
 10
164.9864279999999
 20
155.2080319999998
 30
0.0
 40
25.0
  0
CIRCLE
  5
C3E7
330
C3B2
100
AcDbEntity
  8
1
  6
Continuous
100
AcDbCircle
 10
164.9864279999999
 20
155.2080319999998
 30
0.0
 40
15.09999999999999
  0
CIRCLE
  5
C3E8
330
C3B2
100
AcDbEntity
  8
1
  6
Continuous
100
AcDbCircle
 10
164.9864279999999
 20
155.2080319999998
 30
0.0
 40
17.0
  0
LINE
  5
C3E9
330
C3B2
100
AcDbEntity
  8
4
  6
CENTER
100
AcDbLine
 10
181.986428
 20
142.7284649999998
 30
0.0
 11
181.986428
 21
211.7080319999999
 31
0.0
  0
LINE
  5
C3EA
330
C3B2
100
AcDbEntity
  8
4
  6
CENTER
100
AcDbLine
 10
164.9864279999999
 20
125.208032
 30
0.0
 11
164.9864279999999
 21
185.2080319999998
 31
0.0
  0
LINE
  5
C3EB
330
C3B2
100
AcDbEntity
  8
4
  6
CENTER
100
AcDbLine
 10
181.986428
 20
54.50803199999999
 30
0.0
 11
181.986428
 21
76.90803199999997
 31
0.0
  0
LINE
  5
C3EC
330
C3B2
100
AcDbEntity
  8
1
  6
Continuous
100
AcDbLine
 10
179.677027
 20
69.70803199999997
 30
0.0
 11
184.295829
 21
69.70803199999997
 31
0.0
  0
LINE
  5
C3ED
330
C3B2
100
AcDbEntity
  8
1
  6
Continuous
100
AcDbLine
 10
184.295829
 20
61.70803199999999
 30
0.0
 11
179.677027
 21
61.70803199999999
 31
0.0
  0
LINE
  5
C3EE
330
C3B2
100
AcDbEntity
  8
4
  6
CENTER
100
AcDbLine
 10
197.486428
 20
65.70803199999999
 30
0.0
 11
128.5673209999999
 21
65.70803199999999
 31
0.0
  0
LINE
  5
C3EF
330
C3B2
100
AcDbEntity
  8
1
  6
Continuous
100
AcDbLine
 10
184.295829
 20
69.70803199999997
 30
0.0
 11
186.605231
 21
65.70803199999999
 31
0.0
  0
LINE
  5
C3F0
330
C3B2
100
AcDbEntity
  8
1
  6
Continuous
100
AcDbLine
 10
186.605231
 20
65.70803199999999
 30
0.0
 11
184.295829
 21
61.70803199999999
 31
0.0
  0
LINE
  5
C3F1
330
C3B2
100
AcDbEntity
  8
1
  6
Continuous
100
AcDbLine
 10
177.367626
 20
65.70803199999999
 30
0.0
 11
179.677027
 21
69.70803199999997
 31
0.0
  0
LINE
  5
C3F2
330
C3B2
100
AcDbEntity
  8
1
  6
Continuous
100
AcDbLine
 10
179.677027
 20
61.70803199999999
 30
0.0
 11
177.367626
 21
65.70803199999999
 31
0.0
  0
LINE
  5
C3F3
330
C3B2
100
AcDbEntity
  8
1
  6
Continuous
100
AcDbLine
 10
190.541798
 20
180.7667539999999
 30
0.0
 11
192.3930119999999
 21
149.296115
 31
0.0
  0
LINE
  5
C3F4
330
C3B2
100
AcDbEntity
  8
1
  6
Continuous
100
AcDbLine
 10
190.8956
 20
147.7080319999998
 30
0.0
 11
188.834908
 21
147.7080319999998
 31
0.0
  0
ARC
  5
C3F5
330
C3B2
100
AcDbEntity
  8
1
  6
Continuous
100
AcDbCircle
 10
190.8956
 20
149.208032
 30
0.0
 40
1.5
100
AcDbArc
 50
270.0
 51
3.366461
  0
LINE
  5
C3F6
330
C3B2
100
AcDbEntity
  8
1
  6
Continuous
100
AcDbLine
 10
172.9864289999999
 20
187.708032
 30
0.0
 11
190.9864279999999
 21
187.708032
 31
0.0
  0
LINE
  5
C3F7
330
C3B2
100
AcDbEntity
  8
1
  6
Continuous
100
AcDbLine
 10
172.9864279999999
 20
181.708032
 30
0.0
 11
190.9864279999999
 21
181.708032
 31
0.0
  0
ARC
  5
C3F8
330
C3B2
100
AcDbEntity
  8
1
  6
Continuous
100
AcDbCircle
 10
188.340677
 20
184.708032
 30
0.0
 40
4.0
100
AcDbArc
 50
311.409622
 51
48.590378
  0
ARC
  5
C3F9
330
C3B2
100
AcDbEntity
  8
1
  6
Continuous
100
AcDbCircle
 10
189.543523
 20
180.708032
 30
0.0
 40
1.0
100
AcDbArc
 50
3.366461
 51
90.0
  0
ARC
  5
C3FA
330
C3B2
100
AcDbEntity
  8
1
  6
Continuous
100
AcDbCircle
 10
182.2987169999999
 20
184.708032
 30
0.0
 40
4.0
100
AcDbArc
 50
311.409622
 51
48.590378
  0
ARC
  5
C3FB
330
C3B2
100
AcDbEntity
  8
1
  6
Continuous
100
AcDbCircle
 10
170.2235509999999
 20
181.3193929999999
 30
0.0
 40
3.319657999999998
100
AcDbArc
 50
316.0631799999998
 51
349.3876109999998
  0
ARC
  5
C3FC
330
C3B2
100
AcDbEntity
  8
1
  6
Continuous
100
AcDbCircle
 10
181.6741399999999
 20
184.708032
 30
0.0
 40
4.0
100
AcDbArc
 50
131.4096219999999
 51
228.5903779999999
  0
ARC
  5
C3FD
330
C3B2
100
AcDbEntity
  8
1
  6
Continuous
100
AcDbCircle
 10
175.63218
 20
184.708032
 30
0.0
 40
4.0
100
AcDbArc
 50
131.4096219999999
 51
228.5903779999999
  0
ARC
  5
C3FE
330
C3B2
100
AcDbEntity
  8
1
  6
Continuous
100
AcDbCircle
 10
174.4864279999999
 20
180.708032
 30
0.0
 40
1.0
100
AcDbArc
 50
90.0
 51
180.0
  0
ARC
  5
C3FF
330
C3B2
100
AcDbEntity
  8
1
  6
Continuous
100
AcDbCircle
 10
185.986428
 20
249.8634809999999
 30
0.0
 40
4.0
100
AcDbArc
 50
292.024313
 51
0.0
  0
ARC
  5
C400
330
C3B2
100
AcDbEntity
  8
1
  6
Continuous
100
AcDbCircle
 10
164.9864279999999
 20
301.7768699999999
 30
0.0
 40
60.0
100
AcDbArc
 50
289.23427
 51
292.024313
  0
ARC
  5
C401
330
C3B2
100
AcDbEntity
  8
1
  6
Continuous
100
AcDbCircle
 10
164.9864279999999
 20
301.7768699999999
 30
0.0
 40
59.5
100
AcDbArc
 50
286.957763
 51
287.8029259999999
  0
LINE
  5
C402
330
C3B2
100
AcDbEntity
  8
1
  6
Continuous
100
AcDbLine
 10
27.98538999999999
 20
174.9739179999999
 30
0.0
 11
27.98538999999999
 21
135.442146
 31
0.0
  0
LINE
  5
C403
330
C3B2
100
AcDbEntity
  8
1
  6
Continuous
100
AcDbLine
 10
70.149253
 20
174.9739179999999
 30
0.0
 11
70.149253
 21
135.442146
 31
0.0
  0
ARC
  5
C404
330
C3B2
100
AcDbEntity
  8
1
  6
Continuous
100
AcDbCircle
 10
13.49848299999999
 20
155.2080319999998
 30
0.0
 40
59.5
100
AcDbArc
 50
342.1970739999999
 51
343.042237
  0
ARC
  5
C405
330
C3B2
100
AcDbEntity
  8
1
  6
Continuous
100
AcDbCircle
 10
84.63616
 20
155.2080319999998
 30
0.0
 40
59.5
100
AcDbArc
 50
196.957763
 51
197.802926
  0
LINE
  5
C406
330
C3B2
100
AcDbEntity
  8
4
  6
CENTER
100
AcDbLine
 10
49.067321
 20
211.7080319999999
 30
0.0
 11
49.067321
 21
135.708032
 31
0.0
  0
LINE
  5
C407
330
C3B2
100
AcDbEntity
  8
1
  6
Continuous
100
AcDbLine
 10
60.067321
 20
130.2080319999998
 30
0.0
 11
65.411872
 21
130.2080319999998
 31
0.0
  0
ARC
  5
C408
330
C3B2
100
AcDbEntity
  8
1
  6
Continuous
100
AcDbCircle
 10
13.49848299999999
 20
155.2080319999998
 30
0.0
 40
60.0
100
AcDbArc
 50
337.975687
 51
340.7657299999999
  0
ARC
  5
C409
330
C3B2
100
AcDbEntity
  8
1
  6
Continuous
100
AcDbCircle
 10
65.411872
 20
134.2080319999998
 30
0.0
 40
4.0
100
AcDbArc
 50
270.0
 51
337.975687
  0
ARC
  5
C40A
330
C3B2
100
AcDbEntity
  8
1
  6
Continuous
100
AcDbCircle
 10
60.067321
 20
130.708032
 30
0.0
 40
0.5
100
AcDbArc
 50
180.0
 51
270.0
  0
LINE
  5
C40B
330
C3B2
100
AcDbEntity
  8
1
  6
Continuous
100
AcDbLine
 10
38.06732099999999
 20
130.2080319999998
 30
0.0
 11
32.722771
 21
130.2080319999998
 31
0.0
  0
ARC
  5
C40C
330
C3B2
100
AcDbEntity
  8
1
  6
Continuous
100
AcDbCircle
 10
38.06732099999999
 20
130.708032
 30
0.0
 40
0.5
100
AcDbArc
 50
270.0
 51
0.0
  0
ARC
  5
C40D
330
C3B2
100
AcDbEntity
  8
1
  6
Continuous
100
AcDbCircle
 10
32.722771
 20
134.2080319999998
 30
0.0
 40
4.0
100
AcDbArc
 50
202.0243129999999
 51
270.0
  0
ARC
  5
C40E
330
C3B2
100
AcDbEntity
  8
1
  6
Continuous
100
AcDbCircle
 10
84.63616
 20
155.2080319999998
 30
0.0
 40
60.0
100
AcDbArc
 50
199.23427
 51
202.0243129999999
  0
LINE
  5
C40F
330
C3B2
100
AcDbEntity
  8
4
  6
CENTER
100
AcDbLine
 10
19.56732099999999
 20
155.2080319999998
 30
0.0
 11
78.56732099999998
 21
155.2080319999998
 31
0.0
  0
ARC
  5
C410
330
C3B2
100
AcDbEntity
  8
1
  6
Continuous
100
AcDbCircle
 10
164.9864279999999
 20
301.7768699999999
 30
0.0
 40
59.5
100
AcDbArc
 50
252.1970739999999
 51
253.042237
  0
ARC
  5
C411
330
C3B2
100
AcDbEntity
  8
1
  6
Continuous
100
AcDbCircle
 10
143.9864279999999
 20
249.8634809999999
 30
0.0
 40
4.0
100
AcDbArc
 50
180.0
 51
247.975687
  0
ARC
  5
C412
330
C3B2
100
AcDbEntity
  8
1
  6
Continuous
100
AcDbCircle
 10
164.9864279999999
 20
301.7768699999999
 30
0.0
 40
60.0
100
AcDbArc
 50
247.975687
 51
250.7657299999999
  0
ARC
  5
C413
330
C3B2
100
AcDbEntity
  8
1
  6
Continuous
100
AcDbCircle
 10
27.244959
 20
137.708032
 30
0.0
 40
0.5
100
AcDbArc
 50
16.957763
 51
76.54339799999998
  0
ARC
  5
C414
330
C3B2
100
AcDbEntity
  8
1
  6
Continuous
100
AcDbCircle
 10
27.244959
 20
172.7080319999998
 30
0.0
 40
0.5
100
AcDbArc
 50
283.456602
 51
343.042237
  0
LINE
  5
C415
330
C3B2
100
AcDbEntity
  8
1
  6
Continuous
100
AcDbLine
 10
71.137299
 20
171.8743719999999
 30
0.0
 11
71.137299
 21
138.5416919999999
 31
0.0
  0
LINE
  5
C416
330
C3B2
100
AcDbEntity
  8
1
  6
Continuous
100
AcDbLine
 10
70.411424
 20
172.562199
 30
0.0
 11
70.411424
 21
137.8538649999998
 31
0.0
  0
LINE
  5
C417
330
C3B2
100
AcDbEntity
  8
1
  6
Continuous
100
AcDbLine
 10
59.56732099999999
 20
130.708032
 30
0.0
 11
59.56732099999999
 21
179.708032
 31
0.0
  0
LINE
  5
C418
330
C3B2
100
AcDbEntity
  8
1
  6
Continuous
100
AcDbLine
 10
27.723219
 20
137.8538649999998
 30
0.0
 11
27.723219
 21
172.562199
 31
0.0
  0
LINE
  5
C419
330
C3B2
100
AcDbEntity
  8
1
  6
Continuous
100
AcDbLine
 10
38.567321
 20
130.708032
 30
0.0
 11
38.567321
 21
179.708032
 31
0.0
  0
LINE
  5
C41A
330
C3B2
100
AcDbEntity
  8
1
  6
Continuous
100
AcDbLine
 10
40.06732099999999
 20
147.7080319999998
 30
0.0
 11
40.06732099999999
 21
162.5466999999999
 31
0.0
  0
LINE
  5
C41B
330
C3B2
100
AcDbEntity
  8
1
  6
Continuous
100
AcDbLine
 10
58.067321
 20
147.7080319999998
 30
0.0
 11
58.067321
 21
162.5466999999999
 31
0.0
  0
LINE
  5
C41C
330
C3B2
100
AcDbEntity
  8
1
  6
Continuous
100
AcDbLine
 10
40.06732099999999
 20
147.7080319999998
 30
0.0
 11
58.067321
 21
147.7080319999998
 31
0.0
  0
LINE
  5
C41D
330
C3B2
100
AcDbEntity
  8
1
  6
Continuous
100
AcDbLine
 10
71.56732099999998
 20
170.3080319999999
 30
0.0
 11
71.56732099999998
 21
140.108032
 31
0.0
  0
LINE
  5
C41E
330
C3B2
100
AcDbEntity
  8
1
  6
Continuous
100
AcDbLine
 10
58.567321
 20
148.208032
 30
0.0
 11
58.567321
 21
161.4511349999999
 31
0.0
  0
ARC
  5
C41F
330
C3B2
100
AcDbEntity
  8
1
  6
Continuous
100
AcDbCircle
 10
70.656976
 20
138.6805779999999
 30
0.0
 40
0.5
100
AcDbArc
 50
283.456602
 51
343.872705
  0
ARC
  5
C420
330
C3B2
100
AcDbEntity
  8
1
  6
Continuous
100
AcDbCircle
 10
70.889684
 20
137.708032
 30
0.0
 40
0.5
100
AcDbArc
 50
103.4566019999999
 51
163.0422369999998
  0
ARC
  5
C421
330
C3B2
100
AcDbEntity
  8
1
  6
Continuous
100
AcDbCircle
 10
59.56732099999999
 20
148.208032
 30
0.0
 40
1.0
100
AcDbArc
 50
180.0
 51
270.0
  0
ARC
  5
C422
330
C3B2
100
AcDbEntity
  8
1
  6
Continuous
100
AcDbCircle
 10
59.56732099999999
 20
162.208032
 30
0.0
 40
1.0
100
AcDbArc
 50
90.0
 51
119.9999999999999
  0
LINE
  5
C423
330
C3B2
100
AcDbEntity
  8
1
  6
Continuous
100
AcDbLine
 10
39.56732099999999
 20
161.4511349999999
 30
0.0
 11
39.56732099999999
 21
148.208032
 31
0.0
  0
ARC
  5
C424
330
C3B2
100
AcDbEntity
  8
1
  6
Continuous
100
AcDbCircle
 10
38.567321
 20
148.208032
 30
0.0
 40
1.0
100
AcDbArc
 50
270.0
 51
0.0
  0
ARC
  5
C425
330
C3B2
100
AcDbEntity
  8
1
  6
Continuous
100
AcDbCircle
 10
38.567321
 20
162.208032
 30
0.0
 40
1.0
100
AcDbArc
 50
60.0
 51
90.0
  0
LINE
  5
C426
330
C3B2
100
AcDbEntity
  8
1
  6
Continuous
100
AcDbLine
 10
41.067321
 20
187.708032
 30
0.0
 11
57.06732099999999
 21
187.708032
 31
0.0
  0
LINE
  5
C427
330
C3B2
100
AcDbEntity
  8
1
  6
Continuous
100
AcDbLine
 10
57.06732099999999
 20
181.708032
 30
0.0
 11
41.067321
 21
181.708032
 31
0.0
  0
ARC
  5
C428
330
C3B2
100
AcDbEntity
  8
1
  6
Continuous
100
AcDbCircle
 10
49.067321
 20
79.113855
 30
0.0
 40
100.0
100
AcDbArc
 50
84.836393
 51
95.16360699999999
  0
LINE
  5
C429
330
C3B2
100
AcDbEntity
  8
1
  6
Continuous
100
AcDbLine
 10
60.067321
 20
180.2080319999998
 30
0.0
 11
65.411872
 21
180.2080319999998
 31
0.0
  0
ARC
  5
C42A
330
C3B2
100
AcDbEntity
  8
1
  6
Continuous
100
AcDbCircle
 10
65.411872
 20
176.208032
 30
0.0
 40
4.0
100
AcDbArc
 50
22.024313
 51
90.0
  0
ARC
  5
C42B
330
C3B2
100
AcDbEntity
  8
1
  6
Continuous
100
AcDbCircle
 10
13.49848299999999
 20
155.2080319999998
 30
0.0
 40
60.0
100
AcDbArc
 50
19.23427
 51
22.024313
  0
ARC
  5
C42C
330
C3B2
100
AcDbEntity
  8
1
  6
Continuous
100
AcDbCircle
 10
70.656976
 20
171.735485
 30
0.0
 40
0.5
100
AcDbArc
 50
16.127295
 51
76.54339799999998
  0
ARC
  5
C42D
330
C3B2
100
AcDbEntity
  8
1
  6
Continuous
100
AcDbCircle
 10
70.889684
 20
172.7080319999998
 30
0.0
 40
0.5
100
AcDbArc
 50
196.957763
 51
256.543398
  0
ARC
  5
C42E
330
C3B2
100
AcDbEntity
  8
1
  6
Continuous
100
AcDbCircle
 10
13.49848299999999
 20
155.2080319999998
 30
0.0
 40
59.5
100
AcDbArc
 50
16.957763
 51
17.802926
  0
ARC
  5
C42F
330
C3B2
100
AcDbEntity
  8
1
  6
Continuous
100
AcDbCircle
 10
60.067321
 20
179.708032
 30
0.0
 40
0.5
100
AcDbArc
 50
90.0
 51
180.0
  0
ARC
  5
C430
330
C3B2
100
AcDbEntity
  8
1
  6
Continuous
100
AcDbCircle
 10
57.06732099999999
 20
180.708032
 30
0.0
 40
1.0
100
AcDbArc
 50
0.0
 51
90.0
  0
LINE
  5
C431
330
C3B2
100
AcDbEntity
  8
1
  6
Continuous
100
AcDbLine
 10
57.567321
 20
182.2080319999998
 30
0.0
 11
57.567321
 21
187.208032
 31
0.0
  0
ARC
  5
C432
330
C3B2
100
AcDbEntity
  8
1
  6
Continuous
100
AcDbCircle
 10
57.06732099999999
 20
187.208032
 30
0.0
 40
0.5
100
AcDbArc
 50
0.0
 51
90.0
  0
ARC
  5
C433
330
C3B2
100
AcDbEntity
  8
1
  6
Continuous
100
AcDbCircle
 10
57.06732099999999
 20
182.2080319999998
 30
0.0
 40
0.5
100
AcDbArc
 50
270.0
 51
0.0
  0
LINE
  5
C434
330
C3B2
100
AcDbEntity
  8
1
  6
Continuous
100
AcDbLine
 10
40.567321
 20
182.2080319999998
 30
0.0
 11
40.567321
 21
187.208032
 31
0.0
  0
ARC
  5
C435
330
C3B2
100
AcDbEntity
  8
1
  6
Continuous
100
AcDbCircle
 10
41.067321
 20
187.208032
 30
0.0
 40
0.5
100
AcDbArc
 50
90.0
 51
180.0
  0
ARC
  5
C436
330
C3B2
100
AcDbEntity
  8
1
  6
Continuous
100
AcDbCircle
 10
41.067321
 20
182.2080319999998
 30
0.0
 40
0.5
100
AcDbArc
 50
180.0
 51
270.0
  0
ARC
  5
C437
330
C3B2
100
AcDbEntity
  8
1
  6
Continuous
100
AcDbCircle
 10
41.067321
 20
180.708032
 30
0.0
 40
1.0
100
AcDbArc
 50
90.0
 51
180.0
  0
ARC
  5
C438
330
C3B2
100
AcDbEntity
  8
1
  6
Continuous
100
AcDbCircle
 10
32.722771
 20
176.208032
 30
0.0
 40
4.0
100
AcDbArc
 50
90.0
 51
157.9756869999999
  0
ARC
  5
C439
330
C3B2
100
AcDbEntity
  8
1
  6
Continuous
100
AcDbCircle
 10
38.06732099999999
 20
179.708032
 30
0.0
 40
0.5
100
AcDbArc
 50
0.0
 51
90.0
  0
ARC
  5
C43A
330
C3B2
100
AcDbEntity
  8
1
  6
Continuous
100
AcDbCircle
 10
84.63616
 20
155.2080319999998
 30
0.0
 40
60.0
100
AcDbArc
 50
157.9756869999999
 51
160.7657299999999
  0
ARC
  5
C43B
330
C3B2
100
AcDbEntity
  8
1
  6
Continuous
100
AcDbCircle
 10
28.174226
 20
174.908032
 30
0.0
 40
0.2
100
AcDbArc
 50
160.7657299999999
 51
199.23427
  0
ARC
  5
C43C
330
C3B2
100
AcDbEntity
  8
1
  6
Continuous
100
AcDbCircle
 10
84.63616
 20
155.2080319999998
 30
0.0
 40
59.5
100
AcDbArc
 50
162.1970739999999
 51
163.0422369999998
  0
LINE
  5
C43D
330
C3B2
100
AcDbEntity
  8
1
  6
Continuous
100
AcDbLine
 10
38.06732099999999
 20
180.2080319999998
 30
0.0
 11
32.722771
 21
180.2080319999998
 31
0.0
  0
LINE
  5
C43E
330
C3B2
100
AcDbEntity
  8
1
  6
Continuous
100
AcDbLine
 10
26.997344
 20
171.8743719999999
 30
0.0
 11
26.997344
 21
138.5416919999999
 31
0.0
  0
LINE
  5
C43F
330
C3B2
100
AcDbEntity
  8
1
  6
Continuous
100
AcDbLine
 10
26.56732100000001
 20
140.0596789999999
 30
0.0
 11
26.56732100000001
 21
170.3563849999999
 31
0.0
  0
ARC
  5
C440
330
C3B2
100
AcDbEntity
  8
1
  6
Continuous
100
AcDbCircle
 10
27.47766699999999
 20
138.6805779999999
 30
0.0
 40
0.5
100
AcDbArc
 50
196.127295
 51
256.543398
  0
ARC
  5
C441
330
C3B2
100
AcDbEntity
  8
1
  6
Continuous
100
AcDbCircle
 10
27.47766699999999
 20
171.735485
 30
0.0
 40
0.5
100
AcDbArc
 50
103.4566019999999
 51
163.8727049999999
  0
LINE
  5
C442
330
C3B2
100
AcDbEntity
  8
1
  6
Continuous
100
AcDbLine
 10
145.220542
 20
287.289963
 30
0.0
 11
184.7523149999999
 21
287.289963
 31
0.0
  0
LINE
  5
C443
330
C3B2
100
AcDbEntity
  8
1
  6
Continuous
100
AcDbLine
 10
148.3200889999999
 20
288.27801
 30
0.0
 11
181.6527679999999
 21
288.27801
 31
0.0
  0
LINE
  5
C444
330
C3B2
100
AcDbEntity
  8
1
  6
Continuous
100
AcDbLine
 10
147.6322619999999
 20
287.5521349999999
 30
0.0
 11
182.340595
 21
287.5521349999999
 31
0.0
  0
LINE
  5
C445
330
C3B2
100
AcDbEntity
  8
1
  6
Continuous
100
AcDbLine
 10
149.838073
 20
288.7080319999999
 30
0.0
 11
180.134783
 21
288.7080319999999
 31
0.0
  0
LINE
  5
C446
330
C3B2
100
AcDbEntity
  8
4
  6
CENTER
100
AcDbLine
 10
130.066101
 20
266.208032
 30
0.0
 11
197.486428
 21
266.208032
 31
0.0
  0
LINE
  5
C447
330
C3B2
100
AcDbEntity
  8
1
  6
Continuous
100
AcDbLine
 10
188.486428
 20
275.208032
 30
0.0
 11
141.730526
 21
275.208032
 31
0.0
  0
LINE
  5
C448
330
C3B2
100
AcDbEntity
  8
1
  6
Continuous
100
AcDbLine
 10
188.486428
 20
257.2080319999999
 30
0.0
 11
141.730526
 21
257.2080319999999
 31
0.0
  0
LINE
  5
C449
330
C3B2
100
AcDbEntity
  8
1
  6
Continuous
100
AcDbLine
 10
172.9864279999999
 20
275.708032
 30
0.0
 11
156.986428
 21
275.708032
 31
0.0
  0
LINE
  5
C44A
330
C3B2
100
AcDbEntity
  8
1
  6
Continuous
100
AcDbLine
 10
172.9864279999999
 20
256.708032
 30
0.0
 11
156.986428
 21
256.708032
 31
0.0
  0
ARC
  5
C44B
330
C3B2
100
AcDbEntity
  8
1
  6
Continuous
100
AcDbCircle
 10
185.986428
 20
282.5525830000001
 30
0.0
 40
4.0
100
AcDbArc
 50
0.0
 51
67.97568699999999
  0
LINE
  5
C44C
330
C3B2
100
AcDbEntity
  8
1
  6
Continuous
100
AcDbLine
 10
177.7437879999999
 20
274.708032
 30
0.0
 11
186.2290689999999
 21
274.708032
 31
0.0
  0
LINE
  5
C44D
330
C3B2
100
AcDbEntity
  8
1
  6
Continuous
100
AcDbLine
 10
186.2290689999999
 20
257.7080319999998
 30
0.0
 11
177.7437879999999
 21
257.7080319999998
 31
0.0
  0
ARC
  5
C44E
330
C3B2
100
AcDbEntity
  8
1
  6
Continuous
100
AcDbCircle
 10
183.986428
 20
266.208032
 30
0.0
 40
8.5
100
AcDbArc
 50
301.9657189999999
 51
58.03428100000001
  0
ARC
  5
C44F
330
C3B2
100
AcDbEntity
  8
1
  6
Continuous
100
AcDbCircle
 10
181.986428
 20
266.208032
 30
0.0
 40
9.5
100
AcDbArc
 50
296.525352
 51
63.47464799999999
  0
ARC
  5
C450
330
C3B2
100
AcDbEntity
  8
1
  6
Continuous
100
AcDbCircle
 10
189.486428
 20
255.2080319999999
 30
0.0
 40
0.5
100
AcDbArc
 50
0.0
 51
90.0
  0
LINE
  5
C451
330
C3B2
100
AcDbEntity
  8
1
  6
Continuous
100
AcDbLine
 10
188.486428
 20
257.2080319999999
 30
0.0
 11
188.486428
 21
258.996929
 31
0.0
  0
LINE
  5
C452
330
C3B2
100
AcDbEntity
  8
1
  6
Continuous
100
AcDbLine
 10
188.486428
 20
273.4191339999998
 30
0.0
 11
188.486428
 21
275.208032
 31
0.0
  0
ARC
  5
C453
330
C3B2
100
AcDbEntity
  8
1
  6
Continuous
100
AcDbCircle
 10
189.486428
 20
277.208032
 30
0.0
 40
0.5
100
AcDbArc
 50
270.0
 51
0.0
  0
LINE
  5
C454
330
C3B2
100
AcDbEntity
  8
1
  6
Continuous
100
AcDbLine
 10
189.9864279999999
 20
277.208032
 30
0.0
 11
189.9864279999999
 21
282.5525830000001
 31
0.0
  0
ARC
  5
C455
330
C3B2
100
AcDbEntity
  8
1
  6
Continuous
100
AcDbCircle
 10
181.986428
 20
266.208032
 30
0.0
 40
9.5
100
AcDbArc
 50
116.525352
 51
243.474648
  0
ARC
  5
C456
330
C3B2
100
AcDbEntity
  8
1
  6
Continuous
100
AcDbCircle
 10
171.9864279999999
 20
255.7080319999998
 30
0.0
 40
1.0
100
AcDbArc
 50
0.0
 51
90.0
  0
LINE
  5
C457
330
C3B2
100
AcDbEntity
  8
1
  6
Continuous
100
AcDbLine
 10
172.9864279999999
 20
257.2080319999999
 30
0.0
 11
172.9864279999999
 21
256.708032
 31
0.0
  0
ARC
  5
C458
330
C3B2
100
AcDbEntity
  8
1
  6
Continuous
100
AcDbCircle
 10
171.9864279999999
 20
276.708032
 30
0.0
 40
1.0
100
AcDbArc
 50
270.0
 51
0.0
  0
LINE
  5
C459
330
C3B2
100
AcDbEntity
  8
1
  6
Continuous
100
AcDbLine
 10
172.9864279999999
 20
275.708032
 30
0.0
 11
172.9864279999999
 21
275.208032
 31
0.0
  0
ARC
  5
C45A
330
C3B2
100
AcDbEntity
  8
1
  6
Continuous
100
AcDbCircle
 10
164.9864279999999
 20
230.639193
 30
0.0
 40
60.0
100
AcDbArc
 50
67.97568699999999
 51
70.76573000000002
  0
ARC
  5
C45B
330
C3B2
100
AcDbEntity
  8
1
  6
Continuous
100
AcDbCircle
 10
164.9864279999999
 20
230.639193
 30
0.0
 40
59.5
100
AcDbArc
 50
72.19707400000001
 51
73.042237
  0
ARC
  5
C45C
330
C3B2
100
AcDbEntity
  8
1
  6
Continuous
100
AcDbCircle
 10
143.9864279999999
 20
282.5525830000001
 30
0.0
 40
4.0
100
AcDbArc
 50
112.0243129999999
 51
180.0
  0
ARC
  5
C45D
330
C3B2
100
AcDbEntity
  8
1
  6
Continuous
100
AcDbCircle
 10
241.326688
 20
266.208032
 30
0.0
 40
100.0
100
AcDbArc
 50
174.849051
 51
175.123975
  0
LINE
  5
C45E
330
C3B2
100
AcDbEntity
  8
1
  6
Continuous
100
AcDbLine
 10
189.486428
 20
255.7080319999998
 30
0.0
 11
140.4864279999999
 21
255.7080319999998
 31
0.0
  0
ARC
  5
C45F
330
C3B2
100
AcDbEntity
  8
1
  6
Continuous
100
AcDbCircle
 10
157.9864279999999
 20
255.7080319999998
 30
0.0
 40
1.0
100
AcDbArc
 50
90.0
 51
180.0
  0
LINE
  5
C460
330
C3B2
100
AcDbEntity
  8
1
  6
Continuous
100
AcDbLine
 10
156.986428
 20
257.2080319999999
 30
0.0
 11
156.986428
 21
256.708032
 31
0.0
  0
ARC
  5
C461
330
C3B2
100
AcDbEntity
  8
1
  6
Continuous
100
AcDbCircle
 10
140.4864279999999
 20
255.2080319999999
 30
0.0
 40
0.5
100
AcDbArc
 50
90.0
 51
180.0
  0
LINE
  5
C462
330
C3B2
100
AcDbEntity
  8
1
  6
Continuous
100
AcDbLine
 10
189.486428
 20
276.708032
 30
0.0
 11
140.4864279999999
 21
276.708032
 31
0.0
  0
ARC
  5
C463
330
C3B2
100
AcDbEntity
  8
1
  6
Continuous
100
AcDbCircle
 10
157.9864279999999
 20
276.708032
 30
0.0
 40
1.0
100
AcDbArc
 50
180.0
 51
270.0
  0
LINE
  5
C464
330
C3B2
100
AcDbEntity
  8
1
  6
Continuous
100
AcDbLine
 10
156.986428
 20
275.708032
 30
0.0
 11
156.986428
 21
275.208032
 31
0.0
  0
ARC
  5
C465
330
C3B2
100
AcDbEntity
  8
1
  6
Continuous
100
AcDbCircle
 10
140.4864279999999
 20
277.208032
 30
0.0
 40
0.5
100
AcDbArc
 50
180.0
 51
270.0
  0
LINE
  5
C466
330
C3B2
100
AcDbEntity
  8
1
  6
Continuous
100
AcDbLine
 10
139.9864279999998
 20
277.208032
 30
0.0
 11
139.9864279999998
 21
282.5525830000001
 31
0.0
  0
ARC
  5
C467
330
C3B2
100
AcDbEntity
  8
1
  6
Continuous
100
AcDbCircle
 10
164.9864279999999
 20
230.639193
 30
0.0
 40
59.5
100
AcDbArc
 50
106.9577629999999
 51
107.8029259999998
  0
ARC
  5
C468
330
C3B2
100
AcDbEntity
  8
1
  6
Continuous
100
AcDbCircle
 10
148.458975
 20
287.797686
 30
0.0
 40
0.5
100
AcDbArc
 50
106.1272949999999
 51
141.976966
  0
ARC
  5
C469
330
C3B2
100
AcDbEntity
  8
1
  6
Continuous
100
AcDbCircle
 10
164.9864279999999
 20
230.639193
 30
0.0
 40
60.0
100
AcDbArc
 50
109.2342699999998
 51
112.0243129999999
  0
ARC
  5
C46A
330
C3B2
100
AcDbEntity
  8
1
  6
Continuous
100
AcDbCircle
 10
164.9864279999999
 20
232.3398669999999
 30
0.0
 40
58.36816500000001
100
AcDbArc
 50
73.40898
 51
106.59102
  0
LINE
  5
C46B
330
C3B2
100
AcDbEntity
  8
1
  6
Continuous
100
AcDbLine
 10
148.0650939999998
 20
288.105675
 30
0.0
 11
147.6322619999999
 21
287.5521349999999
 31
0.0
  0
ARC
  5
C46C
330
C3B2
100
AcDbEntity
  8
1
  6
Continuous
100
AcDbCircle
 10
181.5138819999999
 20
287.7977089999999
 30
0.0
 40
0.5
100
AcDbArc
 50
38.023113
 51
73.87278399999998
  0
LINE
  5
C46D
330
C3B2
100
AcDbEntity
  8
1
  6
Continuous
100
AcDbLine
 10
181.9077629999999
 20
288.105699
 30
0.0
 11
182.340595
 21
287.5521589999999
 31
0.0
  0
ARC
  5
C46E
330
C3B2
100
AcDbEntity
  8
1
  6
Continuous
100
AcDbCircle
 10
164.9864279999999
 20
300.076198
 30
0.0
 40
58.36816500000001
100
AcDbArc
 50
253.40898
 51
286.59102
  0
LINE
  5
C46F
330
C3B2
100
AcDbEntity
  8
1
  6
Continuous
100
AcDbLine
 10
149.838073
 20
243.7080319999998
 30
0.0
 11
180.134783
 21
243.7080319999998
 31
0.0
  0
LINE
  5
C470
330
C3B2
100
AcDbEntity
  8
1
  6
Continuous
100
AcDbLine
 10
148.3200889999999
 20
244.138054
 30
0.0
 11
181.6527679999999
 21
244.138054
 31
0.0
  0
ARC
  5
C471
330
C3B2
100
AcDbEntity
  8
1
  6
Continuous
100
AcDbCircle
 10
181.5138819999999
 20
244.6183549999998
 30
0.0
 40
0.5
100
AcDbArc
 50
286.127216
 51
321.9768869999999
  0
ARC
  5
C472
330
C3B2
100
AcDbEntity
  8
1
  6
Continuous
100
AcDbCircle
 10
148.458975
 20
244.6183779999998
 30
0.0
 40
0.5
100
AcDbArc
 50
218.023034
 51
253.8727049999998
  0
LINE
  5
C473
330
C3B2
100
AcDbEntity
  8
4
  6
CENTER
100
AcDbLine
 10
181.986428
 20
279.708032
 30
0.0
 11
181.986428
 21
252.7080319999999
 31
0.0
  0
LINE
  5
C474
330
C3B2
100
AcDbEntity
  8
1
  6
Continuous
100
AcDbLine
 10
181.9077629999999
 20
244.3103659999999
 30
0.0
 11
182.340595
 21
244.863905
 31
0.0
  0
LINE
  5
C475
330
C3B2
100
AcDbEntity
  8
1
  6
Continuous
100
AcDbLine
 10
148.0650939999998
 20
244.3103889999999
 30
0.0
 11
147.6322619999999
 21
244.863929
 31
0.0
  0
LINE
  5
C476
330
C3B2
100
AcDbEntity
  8
4
  6
CENTER
100
AcDbLine
 10
305.5863699999999
 20
155.2080319999998
 30
0.0
 11
246.5863699999999
 21
155.2080319999998
 31
0.0
  0
ARC
  5
C477
330
C3B2
100
AcDbEntity
  8
1
  6
Continuous
100
AcDbCircle
 10
259.741819
 20
134.2080319999998
 30
0.0
 40
4.0
100
AcDbArc
 50
202.0243129999999
 51
270.0
  0
ARC
  5
C478
330
C3B2
100
AcDbEntity
  8
1
  6
Continuous
100
AcDbCircle
 10
259.741819
 20
176.208032
 30
0.0
 40
4.0
100
AcDbArc
 50
90.0
 51
157.9756869999999
  0
LINE
  5
C479
330
C3B2
100
AcDbEntity
  8
4
  6
CENTER
100
AcDbLine
 10
276.0863699999999
 20
211.7080319999999
 30
0.0
 11
276.0863699999999
 21
135.708032
 31
0.0
  0
LINE
  5
C47A
330
C3B2
100
AcDbEntity
  8
1
  6
Continuous
100
AcDbLine
 10
297.1683009999998
 20
174.9739179999999
 30
0.0
 11
297.1683009999998
 21
135.442146
 31
0.0
  0
LINE
  5
C47B
330
C3B2
100
AcDbEntity
  8
1
  6
Continuous
100
AcDbLine
 10
297.430472
 20
137.8538649999998
 30
0.0
 11
297.430472
 21
172.562199
 31
0.0
  0
LINE
  5
C47C
330
C3B2
100
AcDbEntity
  8
1
  6
Continuous
100
AcDbLine
 10
285.0863700000001
 20
147.7080319999998
 30
0.0
 11
285.0863700000001
 21
180.708032
 31
0.0
  0
LINE
  5
C47D
330
C3B2
100
AcDbEntity
  8
1
  6
Continuous
100
AcDbLine
 10
267.0863699999999
 20
147.7080319999998
 30
0.0
 11
267.0863699999999
 21
180.708032
 31
0.0
  0
LINE
  5
C47E
330
C3B2
100
AcDbEntity
  8
1
  6
Continuous
100
AcDbLine
 10
266.58637
 20
147.7080319999998
 30
0.0
 11
266.58637
 21
163.208032
 31
0.0
  0
LINE
  5
C47F
330
C3B2
100
AcDbEntity
  8
1
  6
Continuous
100
AcDbLine
 10
285.58637
 20
163.208032
 30
0.0
 11
285.58637
 21
147.7080319999998
 31
0.0
  0
LINE
  5
C480
330
C3B2
100
AcDbEntity
  8
1
  6
Continuous
100
AcDbLine
 10
298.1563469999999
 20
171.8743719999999
 30
0.0
 11
298.1563469999999
 21
138.5416919999999
 31
0.0
  0
LINE
  5
C481
330
C3B2
100
AcDbEntity
  8
1
  6
Continuous
100
AcDbLine
 10
298.5863699999999
 20
140.0596789999999
 30
0.0
 11
298.5863699999999
 21
170.3563849999999
 31
0.0
  0
LINE
  5
C482
330
C3B2
100
AcDbEntity
  8
1
  6
Continuous
100
AcDbLine
 10
287.0863700000001
 20
130.2080319999998
 30
0.0
 11
292.43092
 21
130.2080319999998
 31
0.0
  0
ARC
  5
C483
330
C3B2
100
AcDbEntity
  8
1
  6
Continuous
100
AcDbCircle
 10
292.43092
 20
134.2080319999998
 30
0.0
 40
4.0
100
AcDbArc
 50
270.0
 51
337.975687
  0
ARC
  5
C484
330
C3B2
100
AcDbEntity
  8
1
  6
Continuous
100
AcDbCircle
 10
240.517531
 20
155.2080319999998
 30
0.0
 40
59.5
100
AcDbArc
 50
342.1970739999999
 51
343.042237
  0
ARC
  5
C485
330
C3B2
100
AcDbEntity
  8
1
  6
Continuous
100
AcDbCircle
 10
240.517531
 20
155.2080319999998
 30
0.0
 40
60.0
100
AcDbArc
 50
337.975687
 51
340.7657299999999
  0
ARC
  5
C486
330
C3B2
100
AcDbEntity
  8
1
  6
Continuous
100
AcDbCircle
 10
297.908732
 20
137.708032
 30
0.0
 40
0.5
100
AcDbArc
 50
103.4566019999999
 51
163.0422369999998
  0
ARC
  5
C487
330
C3B2
100
AcDbEntity
  8
1
  6
Continuous
100
AcDbCircle
 10
297.6760239999999
 20
138.6805779999999
 30
0.0
 40
0.5
100
AcDbArc
 50
283.456602
 51
343.872705
  0
LINE
  5
C488
330
C3B2
100
AcDbEntity
  8
1
  6
Continuous
100
AcDbLine
 10
285.58637
 20
147.7080319999998
 30
0.0
 11
266.58637
 21
147.7080319999998
 31
0.0
  0
ARC
  5
C489
330
C3B2
100
AcDbEntity
  8
1
  6
Continuous
100
AcDbCircle
 10
287.0863700000001
 20
130.708032
 30
0.0
 40
0.5
100
AcDbArc
 50
180.0
 51
270.0
  0
ARC
  5
C48A
330
C3B2
100
AcDbEntity
  8
1
  6
Continuous
100
AcDbCircle
 10
286.5863699999999
 20
148.208032
 30
0.0
 40
1.0
100
AcDbArc
 50
180.0
 51
270.0
  0
LINE
  5
C48B
330
C3B2
100
AcDbEntity
  8
1
  6
Continuous
100
AcDbLine
 10
265.0863699999999
 20
130.2080319999998
 30
0.0
 11
259.741819
 21
130.2080319999998
 31
0.0
  0
ARC
  5
C48C
330
C3B2
100
AcDbEntity
  8
1
  6
Continuous
100
AcDbCircle
 10
265.0863699999999
 20
130.708032
 30
0.0
 40
0.5
100
AcDbArc
 50
270.0
 51
0.0
  0
ARC
  5
C48D
330
C3B2
100
AcDbEntity
  8
1
  6
Continuous
100
AcDbCircle
 10
265.5863699999999
 20
148.208032
 30
0.0
 40
1.0
100
AcDbArc
 50
270.0
 51
0.0
  0
LINE
  5
C48E
330
C3B2
100
AcDbEntity
  8
1
  6
Continuous
100
AcDbLine
 10
287.0863700000001
 20
180.2080319999998
 30
0.0
 11
292.43092
 21
180.2080319999998
 31
0.0
  0
ARC
  5
C48F
330
C3B2
100
AcDbEntity
  8
1
  6
Continuous
100
AcDbCircle
 10
297.908732
 20
172.7080319999998
 30
0.0
 40
0.5
100
AcDbArc
 50
196.957763
 51
256.543398
  0
ARC
  5
C490
330
C3B2
100
AcDbEntity
  8
1
  6
Continuous
100
AcDbCircle
 10
240.517531
 20
155.2080319999998
 30
0.0
 40
59.5
100
AcDbArc
 50
16.957763
 51
17.802926
  0
ARC
  5
C491
330
C3B2
100
AcDbEntity
  8
1
  6
Continuous
100
AcDbCircle
 10
297.6760239999999
 20
171.735485
 30
0.0
 40
0.5
100
AcDbArc
 50
16.127295
 51
76.54339799999998
  0
ARC
  5
C492
330
C3B2
100
AcDbEntity
  8
1
  6
Continuous
100
AcDbCircle
 10
292.43092
 20
176.208032
 30
0.0
 40
4.0
100
AcDbArc
 50
22.024313
 51
90.0
  0
ARC
  5
C493
330
C3B2
100
AcDbEntity
  8
1
  6
Continuous
100
AcDbCircle
 10
240.517531
 20
155.2080319999998
 30
0.0
 40
60.0
100
AcDbArc
 50
19.23427
 51
22.024313
  0
ARC
  5
C494
330
C3B2
100
AcDbEntity
  8
1
  6
Continuous
100
AcDbCircle
 10
296.979465
 20
174.908032
 30
0.0
 40
0.2
100
AcDbArc
 50
340.7657299999999
 51
19.23427
  0
LINE
  5
C495
330
C3B2
100
AcDbEntity
  8
1
  6
Continuous
100
AcDbLine
 10
265.5863699999999
 20
130.708032
 30
0.0
 11
265.5863699999999
 21
179.708032
 31
0.0
  0
LINE
  5
C496
330
C3B2
100
AcDbEntity
  8
1
  6
Continuous
100
AcDbLine
 10
286.5863699999999
 20
130.708032
 30
0.0
 11
286.5863699999999
 21
179.708032
 31
0.0
  0
ARC
  5
C497
330
C3B2
100
AcDbEntity
  8
1
  6
Continuous
100
AcDbCircle
 10
286.5863699999999
 20
162.208032
 30
0.0
 40
1.0
100
AcDbArc
 50
90.0
 51
180.0
  0
LINE
  5
C498
330
C3B2
100
AcDbEntity
  8
1
  6
Continuous
100
AcDbLine
 10
285.0863700000001
 20
163.208032
 30
0.0
 11
285.58637
 21
163.208032
 31
0.0
  0
ARC
  5
C499
330
C3B2
100
AcDbEntity
  8
1
  6
Continuous
100
AcDbCircle
 10
265.5863699999999
 20
162.208032
 30
0.0
 40
1.0
100
AcDbArc
 50
0.0
 51
90.0
  0
LINE
  5
C49A
330
C3B2
100
AcDbEntity
  8
1
  6
Continuous
100
AcDbLine
 10
266.58637
 20
163.208032
 30
0.0
 11
267.0863699999999
 21
163.208032
 31
0.0
  0
LINE
  5
C49B
330
C3B2
100
AcDbEntity
  8
1
  6
Continuous
100
AcDbLine
 10
284.0863699999999
 20
187.708032
 30
0.0
 11
268.0863699999999
 21
187.708032
 31
0.0
  0
LINE
  5
C49C
330
C3B2
100
AcDbEntity
  8
1
  6
Continuous
100
AcDbLine
 10
268.0863699999999
 20
181.708032
 30
0.0
 11
284.0863699999999
 21
181.708032
 31
0.0
  0
LINE
  5
C49D
330
C3B2
100
AcDbEntity
  8
1
  6
Continuous
100
AcDbLine
 10
284.5863699999999
 20
182.2080319999998
 30
0.0
 11
284.5863699999999
 21
187.208032
 31
0.0
  0
ARC
  5
C49E
330
C3B2
100
AcDbEntity
  8
1
  6
Continuous
100
AcDbCircle
 10
284.0863699999999
 20
187.208032
 30
0.0
 40
0.5
100
AcDbArc
 50
0.0
 51
90.0
  0
ARC
  5
C49F
330
C3B2
100
AcDbEntity
  8
1
  6
Continuous
100
AcDbCircle
 10
284.0863699999999
 20
182.2080319999998
 30
0.0
 40
0.5
100
AcDbArc
 50
270.0
 51
0.0
  0
ARC
  5
C4A0
330
C3B2
100
AcDbEntity
  8
1
  6
Continuous
100
AcDbCircle
 10
284.0863699999999
 20
180.708032
 30
0.0
 40
1.0
100
AcDbArc
 50
0.0
 51
90.0
  0
ARC
  5
C4A1
330
C3B2
100
AcDbEntity
  8
1
  6
Continuous
100
AcDbCircle
 10
287.0863700000001
 20
179.708032
 30
0.0
 40
0.5
100
AcDbArc
 50
90.0
 51
180.0
  0
LINE
  5
C4A2
330
C3B2
100
AcDbEntity
  8
1
  6
Continuous
100
AcDbLine
 10
265.0863699999999
 20
180.2080319999998
 30
0.0
 11
259.741819
 21
180.2080319999998
 31
0.0
  0
ARC
  5
C4A3
330
C3B2
100
AcDbEntity
  8
1
  6
Continuous
100
AcDbCircle
 10
265.0863699999999
 20
179.708032
 30
0.0
 40
0.5
100
AcDbArc
 50
0.0
 51
90.0
  0
ARC
  5
C4A4
330
C3B2
100
AcDbEntity
  8
1
  6
Continuous
100
AcDbCircle
 10
268.0863699999999
 20
180.708032
 30
0.0
 40
1.0
100
AcDbArc
 50
90.0
 51
180.0
  0
LINE
  5
C4A5
330
C3B2
100
AcDbEntity
  8
1
  6
Continuous
100
AcDbLine
 10
267.5863699999999
 20
182.2080319999998
 30
0.0
 11
267.5863699999999
 21
187.208032
 31
0.0
  0
ARC
  5
C4A6
330
C3B2
100
AcDbEntity
  8
1
  6
Continuous
100
AcDbCircle
 10
268.0863699999999
 20
187.208032
 30
0.0
 40
0.5
100
AcDbArc
 50
90.0
 51
180.0
  0
ARC
  5
C4A7
330
C3B2
100
AcDbEntity
  8
1
  6
Continuous
100
AcDbCircle
 10
268.0863699999999
 20
182.2080319999998
 30
0.0
 40
0.5
100
AcDbArc
 50
180.0
 51
270.0
  0
LINE
  5
C4A8
330
C3B2
100
AcDbEntity
  8
1
  6
Continuous
100
AcDbLine
 10
255.004438
 20
174.9739179999999
 30
0.0
 11
255.004438
 21
135.442146
 31
0.0
  0
LINE
  5
C4A9
330
C3B2
100
AcDbEntity
  8
1
  6
Continuous
100
AcDbLine
 10
254.0163919999999
 20
171.8743719999999
 30
0.0
 11
254.0163919999999
 21
138.5416919999999
 31
0.0
  0
LINE
  5
C4AA
330
C3B2
100
AcDbEntity
  8
1
  6
Continuous
100
AcDbLine
 10
254.742267
 20
172.562199
 30
0.0
 11
254.742267
 21
137.8538649999998
 31
0.0
  0
LINE
  5
C4AB
330
C3B2
100
AcDbEntity
  8
1
  6
Continuous
100
AcDbLine
 10
253.5863699999999
 20
170.3563889999998
 30
0.0
 11
253.5863699999999
 21
140.0596759999999
 31
0.0
  0
ARC
  5
C4AC
330
C3B2
100
AcDbEntity
  8
1
  6
Continuous
100
AcDbCircle
 10
311.655208
 20
155.2080319999998
 30
0.0
 40
59.5
100
AcDbArc
 50
196.957763
 51
197.802926
  0
ARC
  5
C4AD
330
C3B2
100
AcDbEntity
  8
1
  6
Continuous
100
AcDbCircle
 10
254.496715
 20
138.6805779999999
 30
0.0
 40
0.5
100
AcDbArc
 50
196.127295
 51
256.543398
  0
ARC
  5
C4AE
330
C3B2
100
AcDbEntity
  8
1
  6
Continuous
100
AcDbCircle
 10
254.264007
 20
137.708032
 30
0.0
 40
0.5
100
AcDbArc
 50
16.957763
 51
76.54339799999998
  0
ARC
  5
C4AF
330
C3B2
100
AcDbEntity
  8
1
  6
Continuous
100
AcDbCircle
 10
311.655208
 20
155.2080319999998
 30
0.0
 40
60.0
100
AcDbArc
 50
199.23427
 51
202.0243129999999
  0
ARC
  5
C4B0
330
C3B2
100
AcDbEntity
  8
1
  6
Continuous
100
AcDbCircle
 10
254.496715
 20
171.735485
 30
0.0
 40
0.5
100
AcDbArc
 50
103.4566019999999
 51
163.8727049999999
  0
ARC
  5
C4B1
330
C3B2
100
AcDbEntity
  8
1
  6
Continuous
100
AcDbCircle
 10
254.264007
 20
172.7080319999998
 30
0.0
 40
0.5
100
AcDbArc
 50
283.456602
 51
343.042237
  0
ARC
  5
C4B2
330
C3B2
100
AcDbEntity
  8
1
  6
Continuous
100
AcDbCircle
 10
311.655208
 20
155.2080319999998
 30
0.0
 40
59.5
100
AcDbArc
 50
162.1970739999999
 51
163.0422369999998
  0
ARC
  5
C4B3
330
C3B2
100
AcDbEntity
  8
1
  6
Continuous
100
AcDbCircle
 10
255.193274
 20
174.908032
 30
0.0
 40
0.2
100
AcDbArc
 50
160.7657299999999
 51
234.485278
  0
ARC
  5
C4B4
330
C3B2
100
AcDbEntity
  8
1
  6
Continuous
100
AcDbCircle
 10
311.655208
 20
155.2080319999998
 30
0.0
 40
60.0
100
AcDbArc
 50
157.9756869999999
 51
160.7657299999999
  0
ARC
  5
C4B5
330
C3B2
100
AcDbEntity
  8
1
  6
Continuous
100
AcDbCircle
 10
348.802587
 20
155.7891129999999
 30
0.0
 40
65.218805
100
AcDbArc
 50
167.677222
 51
186.2331319999999
  0
ARC
  5
C4B6
330
C3B2
100
AcDbEntity
  8
1
  6
Continuous
100
AcDbCircle
 10
203.370154
 20
155.7891129999999
 30
0.0
 40
65.218805
100
AcDbArc
 50
353.7668679999999
 51
12.322778
  0
LINE
  5
C4B7
330
C3B2
100
AcDbEntity
  8
1
  6
Continuous
100
AcDbLine
 10
148.3200889999999
 20
87.77800999999998
 30
0.0
 11
181.6527679999999
 21
87.77800999999998
 31
0.0
  0
ARC
  5
C4B8
330
C3B2
100
AcDbEntity
  8
1
  6
Continuous
100
AcDbCircle
 10
164.9864279999999
 20
31.839867
 30
0.0
 40
58.36816500000001
100
AcDbArc
 50
73.40898
 51
106.59102
  0
ARC
  5
C4B9
330
C3B2
100
AcDbEntity
  8
1
  6
Continuous
100
AcDbCircle
 10
164.9864279999999
 20
99.57619800000001
 30
0.0
 40
58.36816500000001
100
AcDbArc
 50
253.40898
 51
286.59102
  0
LINE
  5
C4BA
330
C3B2
100
AcDbEntity
  8
1
  6
Continuous
100
AcDbLine
 10
188.486428
 20
74.70803199999997
 30
0.0
 11
141.730526
 21
74.70803199999997
 31
0.0
  0
LINE
  5
C4BB
330
C3B2
100
AcDbEntity
  8
1
  6
Continuous
100
AcDbLine
 10
188.486428
 20
56.70803199999999
 30
0.0
 11
141.730526
 21
56.70803199999999
 31
0.0
  0
LINE
  5
C4BC
330
C3B2
100
AcDbEntity
  8
1
  6
Continuous
100
AcDbLine
 10
147.6322619999999
 20
44.363929
 30
0.0
 11
182.340595
 21
44.363929
 31
0.0
  0
LINE
  5
C4BD
330
C3B2
100
AcDbEntity
  8
1
  6
Continuous
100
AcDbLine
 10
148.3200889999999
 20
43.63805399999999
 30
0.0
 11
181.6527679999999
 21
43.63805399999999
 31
0.0
  0
LINE
  5
C4BE
330
C3B2
100
AcDbEntity
  8
1
  6
Continuous
100
AcDbLine
 10
145.220542
 20
44.626101
 30
0.0
 11
184.7523149999999
 21
44.626101
 31
0.0
  0
LINE
  5
C4BF
330
C3B2
100
AcDbEntity
  8
1
  6
Continuous
100
AcDbLine
 10
147.6322619999999
 20
87.05213499999997
 30
0.0
 11
182.340595
 21
87.05213499999997
 31
0.0
  0
LINE
  5
C4C0
330
C3B2
100
AcDbEntity
  8
1
  6
Continuous
100
AcDbLine
 10
148.3200889999999
 20
87.77800999999998
 30
0.0
 11
181.6527679999999
 21
87.77800999999998
 31
0.0
  0
LINE
  5
C4C1
330
C3B2
100
AcDbEntity
  8
1
  6
Continuous
100
AcDbLine
 10
184.7523149999999
 20
86.789964
 30
0.0
 11
145.220542
 21
86.789964
 31
0.0
  0
LINE
  5
C4C2
330
C3B2
100
AcDbEntity
  8
1
  6
Continuous
100
AcDbLine
 10
149.838073
 20
88.20803199999996
 30
0.0
 11
180.134783
 21
88.20803199999996
 31
0.0
  0
LINE
  5
C4C3
330
C3B2
100
AcDbEntity
  8
1
  6
Continuous
100
AcDbLine
 10
172.9864279999999
 20
75.20803199999997
 30
0.0
 11
156.986428
 21
75.20803199999997
 31
0.0
  0
LINE
  5
C4C4
330
C3B2
100
AcDbEntity
  8
1
  6
Continuous
100
AcDbLine
 10
180.086428
 20
88.20803199999996
 30
0.0
 11
149.886428
 21
88.20803199999996
 31
0.0
  0
LINE
  5
C4C5
330
C3B2
100
AcDbEntity
  8
1
  6
Continuous
100
AcDbLine
 10
172.9864279999999
 20
56.208032
 30
0.0
 11
156.986428
 21
56.208032
 31
0.0
  0
LINE
  5
C4C6
330
C3B2
100
AcDbEntity
  8
1
  6
Continuous
100
AcDbLine
 10
149.838073
 20
43.208032
 30
0.0
 11
180.134783
 21
43.208032
 31
0.0
  0
ARC
  5
C4C7
330
C3B2
100
AcDbEntity
  8
1
  6
Continuous
100
AcDbCircle
 10
241.326688
 20
65.70803199999999
 30
0.0
 40
100.0
100
AcDbArc
 50
174.836393
 51
185.1636069999999
  0
ARC
  5
C4C8
330
C3B2
100
AcDbEntity
  8
1
  6
Continuous
100
AcDbCircle
 10
143.9864279999999
 20
82.052583
 30
0.0
 40
4.0
100
AcDbArc
 50
112.0243129999999
 51
180.0
  0
ARC
  5
C4C9
330
C3B2
100
AcDbEntity
  8
1
  6
Continuous
100
AcDbCircle
 10
164.9864279999999
 20
30.139194
 30
0.0
 40
60.0
100
AcDbArc
 50
109.2342699999998
 51
112.0243129999999
  0
LINE
  5
C4CA
330
C3B2
100
AcDbEntity
  8
1
  6
Continuous
100
AcDbLine
 10
148.0650939999998
 20
87.605675
 30
0.0
 11
147.6322619999999
 21
87.05213499999997
 31
0.0
  0
ARC
  5
C4CB
330
C3B2
100
AcDbEntity
  8
1
  6
Continuous
100
AcDbCircle
 10
148.458975
 20
87.29768599999998
 30
0.0
 40
0.5
100
AcDbArc
 50
106.1272949999999
 51
141.976966
  0
ARC
  5
C4CC
330
C3B2
100
AcDbEntity
  8
1
  6
Continuous
100
AcDbCircle
 10
164.9864279999999
 20
30.139194
 30
0.0
 40
59.5
100
AcDbArc
 50
106.9577629999999
 51
107.8029259999998
  0
LINE
  5
C4CD
330
C3B2
100
AcDbEntity
  8
1
  6
Continuous
100
AcDbLine
 10
189.486428
 20
76.20803199999997
 30
0.0
 11
140.4864279999999
 21
76.20803199999997
 31
0.0
  0
ARC
  5
C4CE
330
C3B2
100
AcDbEntity
  8
1
  6
Continuous
100
AcDbCircle
 10
140.4864279999999
 20
76.70803199999998
 30
0.0
 40
0.5
100
AcDbArc
 50
180.0
 51
270.0
  0
LINE
  5
C4CF
330
C3B2
100
AcDbEntity
  8
1
  6
Continuous
100
AcDbLine
 10
139.9864279999998
 20
76.70803199999998
 30
0.0
 11
139.9864279999998
 21
82.052583
 31
0.0
  0
LINE
  5
C4D0
330
C3B2
100
AcDbEntity
  8
1
  6
Continuous
100
AcDbLine
 10
156.986428
 20
74.70803199999997
 30
0.0
 11
156.986428
 21
75.20803199999997
 31
0.0
  0
ARC
  5
C4D1
330
C3B2
100
AcDbEntity
  8
1
  6
Continuous
100
AcDbCircle
 10
157.9864279999999
 20
76.20803199999997
 30
0.0
 40
1.0
100
AcDbArc
 50
180.0
 51
270.0
  0
ARC
  5
C4D2
330
C3B2
100
AcDbEntity
  8
1
  6
Continuous
100
AcDbCircle
 10
164.9864279999999
 20
101.276871
 30
0.0
 40
60.0
100
AcDbArc
 50
247.975687
 51
250.7657299999999
  0
LINE
  5
C4D3
330
C3B2
100
AcDbEntity
  8
1
  6
Continuous
100
AcDbLine
 10
189.486428
 20
55.20803199999999
 30
0.0
 11
140.4864279999999
 21
55.20803199999999
 31
0.0
  0
LINE
  5
C4D4
330
C3B2
100
AcDbEntity
  8
1
  6
Continuous
100
AcDbLine
 10
139.9864279999998
 20
54.70803199999998
 30
0.0
 11
139.9864279999998
 21
49.363481
 31
0.0
  0
ARC
  5
C4D5
330
C3B2
100
AcDbEntity
  8
1
  6
Continuous
100
AcDbCircle
 10
140.4864279999999
 20
54.70803199999998
 30
0.0
 40
0.5
100
AcDbArc
 50
90.0
 51
180.0
  0
ARC
  5
C4D6
330
C3B2
100
AcDbEntity
  8
1
  6
Continuous
100
AcDbCircle
 10
143.9864279999999
 20
49.363481
 30
0.0
 40
4.0
100
AcDbArc
 50
180.0
 51
247.975687
  0
LINE
  5
C4D7
330
C3B2
100
AcDbEntity
  8
1
  6
Continuous
100
AcDbLine
 10
148.0650939999998
 20
43.810389
 30
0.0
 11
147.6322619999999
 21
44.363929
 31
0.0
  0
ARC
  5
C4D8
330
C3B2
100
AcDbEntity
  8
1
  6
Continuous
100
AcDbCircle
 10
148.458975
 20
44.11837799999999
 30
0.0
 40
0.5
100
AcDbArc
 50
218.023034
 51
253.8727049999998
  0
ARC
  5
C4D9
330
C3B2
100
AcDbEntity
  8
1
  6
Continuous
100
AcDbCircle
 10
164.9864279999999
 20
101.276871
 30
0.0
 40
59.5
100
AcDbArc
 50
252.1970739999999
 51
253.042237
  0
LINE
  5
C4DA
330
C3B2
100
AcDbEntity
  8
1
  6
Continuous
100
AcDbLine
 10
156.986428
 20
56.208032
 30
0.0
 11
156.986428
 21
56.70803199999999
 31
0.0
  0
ARC
  5
C4DB
330
C3B2
100
AcDbEntity
  8
1
  6
Continuous
100
AcDbCircle
 10
157.9864279999999
 20
55.20803199999999
 30
0.0
 40
1.0
100
AcDbArc
 50
90.0
 51
180.0
  0
LINE
  5
C4DC
330
C3B2
100
AcDbEntity
  8
4
  6
CENTER
100
AcDbLine
 10
164.9864279999999
 20
36.208032
 30
0.0
 11
164.9864279999999
 21
95.20803200000001
 31
0.0
  0
ARC
  5
C4DD
330
C3B2
100
AcDbEntity
  8
1
  6
Continuous
100
AcDbCircle
 10
183.986428
 20
65.70803199999999
 30
0.0
 40
8.5
100
AcDbArc
 50
301.9657189999999
 51
58.03428100000001
  0
ARC
  5
C4DE
330
C3B2
100
AcDbEntity
  8
1
  6
Continuous
100
AcDbCircle
 10
185.986428
 20
82.052583
 30
0.0
 40
4.0
100
AcDbArc
 50
0.0
 51
67.97568699999999
  0
LINE
  5
C4DF
330
C3B2
100
AcDbEntity
  8
1
  6
Continuous
100
AcDbLine
 10
181.9077629999999
 20
87.605699
 30
0.0
 11
182.340595
 21
87.052159
 31
0.0
  0
ARC
  5
C4E0
330
C3B2
100
AcDbEntity
  8
1
  6
Continuous
100
AcDbCircle
 10
181.5138819999999
 20
87.297709
 30
0.0
 40
0.5
100
AcDbArc
 50
38.023113
 51
73.87278399999998
  0
ARC
  5
C4E1
330
C3B2
100
AcDbEntity
  8
1
  6
Continuous
100
AcDbCircle
 10
164.9864279999999
 20
30.139194
 30
0.0
 40
59.5
100
AcDbArc
 50
72.19707400000001
 51
73.042237
  0
ARC
  5
C4E2
330
C3B2
100
AcDbEntity
  8
1
  6
Continuous
100
AcDbCircle
 10
164.9864279999999
 20
30.139194
 30
0.0
 40
60.0
100
AcDbArc
 50
67.97568699999999
 51
70.76573000000002
  0
LINE
  5
C4E3
330
C3B2
100
AcDbEntity
  8
1
  6
Continuous
100
AcDbLine
 10
172.9864279999999
 20
74.70803199999997
 30
0.0
 11
172.9864279999999
 21
75.20803199999997
 31
0.0
  0
ARC
  5
C4E4
330
C3B2
100
AcDbEntity
  8
1
  6
Continuous
100
AcDbCircle
 10
171.9864279999999
 20
76.20803199999997
 30
0.0
 40
1.0
100
AcDbArc
 50
270.0
 51
0.0
  0
LINE
  5
C4E5
330
C3B2
100
AcDbEntity
  8
1
  6
Continuous
100
AcDbLine
 10
188.486428
 20
74.70803199999997
 30
0.0
 11
188.486428
 21
72.91913499999998
 31
0.0
  0
ARC
  5
C4E6
330
C3B2
100
AcDbEntity
  8
1
  6
Continuous
100
AcDbCircle
 10
189.486428
 20
76.70803199999998
 30
0.0
 40
0.5
100
AcDbArc
 50
270.0
 51
0.0
  0
LINE
  5
C4E7
330
C3B2
100
AcDbEntity
  8
1
  6
Continuous
100
AcDbLine
 10
189.9864279999999
 20
76.70803199999998
 30
0.0
 11
189.9864279999999
 21
82.052583
 31
0.0
  0
LINE
  5
C4E8
330
C3B2
100
AcDbEntity
  8
1
  6
Continuous
100
AcDbLine
 10
172.9864279999999
 20
56.208032
 30
0.0
 11
172.9864279999999
 21
56.70803199999999
 31
0.0
  0
ARC
  5
C4E9
330
C3B2
100
AcDbEntity
  8
1
  6
Continuous
100
AcDbCircle
 10
171.9864279999999
 20
55.20803199999999
 30
0.0
 40
1.0
100
AcDbArc
 50
0.0
 51
90.0
  0
LINE
  5
C4EA
330
C3B2
100
AcDbEntity
  8
1
  6
Continuous
100
AcDbLine
 10
181.9077629999999
 20
43.81036599999998
 30
0.0
 11
182.340595
 21
44.36390499999999
 31
0.0
  0
ARC
  5
C4EB
330
C3B2
100
AcDbEntity
  8
1
  6
Continuous
100
AcDbCircle
 10
181.5138819999999
 20
44.118355
 30
0.0
 40
0.5
100
AcDbArc
 50
286.127216
 51
321.9768869999999
  0
ARC
  5
C4EC
330
C3B2
100
AcDbEntity
  8
1
  6
Continuous
100
AcDbCircle
 10
164.9864279999999
 20
101.276871
 30
0.0
 40
59.5
100
AcDbArc
 50
286.957763
 51
287.8029259999999
  0
ARC
  5
C4ED
330
C3B2
100
AcDbEntity
  8
1
  6
Continuous
100
AcDbCircle
 10
164.9864279999999
 20
101.276871
 30
0.0
 40
60.0
100
AcDbArc
 50
289.23427
 51
292.024313
  0
LINE
  5
C4EE
330
C3B2
100
AcDbEntity
  8
1
  6
Continuous
100
AcDbLine
 10
189.9864279999999
 20
54.70803199999998
 30
0.0
 11
189.9864279999999
 21
49.363481
 31
0.0
  0
ARC
  5
C4EF
330
C3B2
100
AcDbEntity
  8
1
  6
Continuous
100
AcDbCircle
 10
189.486428
 20
54.70803199999998
 30
0.0
 40
0.5
100
AcDbArc
 50
0.0
 51
90.0
  0
LINE
  5
C4F0
330
C3B2
100
AcDbEntity
  8
1
  6
Continuous
100
AcDbLine
 10
188.486428
 20
58.49693000000001
 30
0.0
 11
188.486428
 21
56.70803199999999
 31
0.0
  0
ARC
  5
C4F1
330
C3B2
100
AcDbEntity
  8
1
  6
Continuous
100
AcDbCircle
 10
185.986428
 20
49.363481
 30
0.0
 40
4.0
100
AcDbArc
 50
292.024313
 51
0.0
  0
CIRCLE
  5
C4F2
330
C3B2
100
AcDbEntity
  8
1
  6
Continuous
100
AcDbCircle
 10
181.986428
 20
65.70803199999999
 30
0.0
 40
4.0
  0
LINE
  5
C4F3
330
C3B2
100
AcDbEntity
  8
1
  6
Continuous
100
AcDbLine
 10
186.027881
 20
66.70803199999999
 30
0.0
 11
187.4855189999999
 21
66.70803199999999
 31
0.0
  0
LINE
  5
C4F4
330
C3B2
100
AcDbEntity
  8
1
  6
Continuous
100
AcDbLine
 10
186.027881
 20
64.70803199999997
 30
0.0
 11
187.4855189999999
 21
64.70803199999997
 31
0.0
  0
ARC
  5
C4F5
330
C3B2
100
AcDbEntity
  8
1
  6
Continuous
100
AcDbCircle
 10
269.283539
 20
148.708032
 30
0.0
 40
1.080130999999999
100
AcDbArc
 50
180.0
 51
247.791336
  0
ARC
  5
C4F6
330
C3B2
100
AcDbEntity
  8
1
  6
Continuous
100
AcDbCircle
 10
282.8892009999999
 20
148.708032
 30
0.0
 40
1.080130999999999
100
AcDbArc
 50
292.2086639999998
 51
0.0
  0
ARC
  5
C4F7
330
C3B2
100
AcDbEntity
  8
1
  6
Continuous
100
AcDbCircle
 10
309.9545469999999
 20
155.208033
 30
0.0
 40
58.368177
100
AcDbArc
 50
163.408983
 51
196.591018
  0
ARC
  5
C4F8
330
C3B2
100
AcDbEntity
  8
1
  6
Continuous
100
AcDbCircle
 10
242.218193
 20
155.208033
 30
0.0
 40
58.368177
100
AcDbArc
 50
343.408982
 51
16.591017
  0
ARC
  5
C4F9
330
C3B2
100
AcDbEntity
  8
1
  6
Continuous
100
AcDbCircle
 10
15.199144
 20
155.208033
 30
0.0
 40
58.368177
100
AcDbArc
 50
343.408982
 51
16.591017
  0
ARC
  5
C4FA
330
C3B2
100
AcDbEntity
  8
1
  6
Continuous
100
AcDbCircle
 10
82.93549799999999
 20
155.208033
 30
0.0
 40
58.368177
100
AcDbArc
 50
163.408983
 51
196.591018
  0
LINE
  5
C4FB
330
C3B2
100
AcDbEntity
  8
1
  6
Continuous
100
AcDbLine
 10
177.7437879999999
 20
274.708032
 30
0.0
 11
186.2290689999999
 21
274.708032
 31
0.0
  0
LINE
  5
C4FC
330
C3B2
100
AcDbEntity
  8
1
  6
Continuous
100
AcDbLine
 10
54.717321
 20
162.5466999999999
 30
0.0
 11
54.717321
 21
171.4745739999998
 31
0.0
  0
LINE
  5
C4FD
330
C3B2
100
AcDbEntity
  8
1
  6
Continuous
100
AcDbLine
 10
43.417321
 20
171.4745739999998
 30
0.0
 11
43.417321
 21
162.5466999999999
 31
0.0
  0
LINE
  5
C4FE
330
C3B2
100
AcDbEntity
  8
1
  6
Continuous
100
AcDbLine
 10
150.145881
 20
257.7080319999998
 30
0.0
 11
137.738875
 21
257.7080319999998
 31
0.0
  0
LINE
  5
C4FF
330
C3B2
100
AcDbEntity
  8
1
  6
Continuous
100
AcDbLine
 10
150.145881
 20
257.2080319999999
 30
0.0
 11
150.145881
 21
257.740423
 31
0.0
  0
LINE
  5
C500
330
C3B2
100
AcDbEntity
  8
1
  6
Continuous
100
AcDbLine
 10
149.744752
 20
274.708032
 30
0.0
 11
137.742739
 21
274.708032
 31
0.0
  0
LINE
  5
C501
330
C3B2
100
AcDbEntity
  8
1
  6
Continuous
100
AcDbLine
 10
150.145881
 20
274.6756409999999
 30
0.0
 11
150.145881
 21
275.208032
 31
0.0
  0
ARC
  5
C502
330
C3B2
100
AcDbEntity
  8
1
  6
Continuous
100
AcDbCircle
 10
241.326688
 20
266.208032
 30
0.0
 40
100.0
100
AcDbArc
 50
184.8760249999999
 51
185.1509489999999
  0
LINE
  5
C503
330
C3B2
100
AcDbEntity
  8
1
  6
Continuous
100
AcDbLine
 10
57.567321
 20
170.4511349999999
 30
0.0
 11
58.567321
 21
170.4511349999999
 31
0.0
  0
LINE
  5
C504
330
C3B2
100
AcDbEntity
  8
1
  6
Continuous
100
AcDbLine
 10
59.067321
 20
168.451135
 30
0.0
 11
59.56732099999999
 21
168.451135
 31
0.0
  0
LINE
  5
C505
330
C3B2
100
AcDbEntity
  8
1
  6
Continuous
100
AcDbLine
 10
59.067321
 20
165.4511349999999
 30
0.0
 11
59.56732099999999
 21
165.4511349999999
 31
0.0
  0
LINE
  5
C506
330
C3B2
100
AcDbEntity
  8
1
  6
Continuous
100
AcDbLine
 10
58.067321
 20
161.4511349999999
 30
0.0
 11
58.567321
 21
161.4511349999999
 31
0.0
  0
LINE
  5
C507
330
C3B2
100
AcDbEntity
  8
1
  6
Continuous
100
AcDbLine
 10
59.067321
 20
161.9511349999999
 30
0.0
 11
59.067321
 21
165.4511349999999
 31
0.0
  0
LINE
  5
C508
330
C3B2
100
AcDbEntity
  8
1
  6
Continuous
100
AcDbLine
 10
59.067321
 20
168.451135
 30
0.0
 11
59.067321
 21
169.9511349999999
 31
0.0
  0
ARC
  5
C509
330
C3B2
100
AcDbEntity
  8
1
  6
Continuous
100
AcDbCircle
 10
58.567321
 20
169.9511349999999
 30
0.0
 40
0.5
100
AcDbArc
 50
0.0
 51
90.0
  0
ARC
  5
C50A
330
C3B2
100
AcDbEntity
  8
1
  6
Continuous
100
AcDbCircle
 10
58.567321
 20
161.9511349999999
 30
0.0
 40
0.5
100
AcDbArc
 50
270.0
 51
0.0
  0
LINE
  5
C50B
330
C3B2
100
AcDbEntity
  8
1
  6
Continuous
100
AcDbLine
 10
58.067321
 20
172.476432
 30
0.0
 11
58.067321
 21
180.708032
 31
0.0
  0
ARC
  5
C50C
330
C3B2
100
AcDbEntity
  8
1
  6
Continuous
100
AcDbCircle
 10
39.56732099999999
 20
169.9511349999999
 30
0.0
 40
0.5
100
AcDbArc
 50
90.0
 51
180.0
  0
LINE
  5
C50D
330
C3B2
100
AcDbEntity
  8
1
  6
Continuous
100
AcDbLine
 10
40.567321
 20
170.4511349999999
 30
0.0
 11
39.56732099999999
 21
170.4511349999999
 31
0.0
  0
LINE
  5
C50E
330
C3B2
100
AcDbEntity
  8
1
  6
Continuous
100
AcDbLine
 10
39.067321
 20
168.451135
 30
0.0
 11
39.067321
 21
169.9511349999999
 31
0.0
  0
LINE
  5
C50F
330
C3B2
100
AcDbEntity
  8
1
  6
Continuous
100
AcDbLine
 10
39.067321
 20
161.9511349999999
 30
0.0
 11
39.067321
 21
165.4511349999999
 31
0.0
  0
LINE
  5
C510
330
C3B2
100
AcDbEntity
  8
1
  6
Continuous
100
AcDbLine
 10
40.06732099999999
 20
161.4511349999999
 30
0.0
 11
39.56732099999999
 21
161.4511349999999
 31
0.0
  0
ARC
  5
C511
330
C3B2
100
AcDbEntity
  8
1
  6
Continuous
100
AcDbCircle
 10
39.56732099999999
 20
161.9511349999999
 30
0.0
 40
0.5
100
AcDbArc
 50
180.0
 51
270.0
  0
LINE
  5
C512
330
C3B2
100
AcDbEntity
  8
1
  6
Continuous
100
AcDbLine
 10
39.067321
 20
165.4511349999999
 30
0.0
 11
38.567321
 21
165.4511349999999
 31
0.0
  0
LINE
  5
C513
330
C3B2
100
AcDbEntity
  8
1
  6
Continuous
100
AcDbLine
 10
39.067321
 20
168.451135
 30
0.0
 11
38.567321
 21
168.451135
 31
0.0
  0
LINE
  5
C514
330
C3B2
100
AcDbEntity
  8
1
  6
Continuous
100
AcDbLine
 10
40.06732099999999
 20
172.476432
 30
0.0
 11
40.06732099999999
 21
180.708032
 31
0.0
  0
ARC
  5
C515
330
C3B2
100
AcDbEntity
  8
1
  6
Continuous
100
AcDbCircle
 10
149.095561
 20
272.958032
 30
0.0
 40
3.75
100
AcDbArc
 50
36.869898
 51
90.0
  0
ARC
  5
C516
330
C3B2
100
AcDbEntity
  8
1
  6
Continuous
100
AcDbCircle
 10
151.095561
 20
272.958032
 30
0.0
 40
3.75
100
AcDbArc
 50
127.58965
 51
143.130102
  0
ARC
  5
C517
330
C3B2
100
AcDbEntity
  8
1
  6
Continuous
100
AcDbCircle
 10
151.367434
 20
278.9871959999999
 30
0.0
 40
3.987448
100
AcDbArc
 50
214.8608
 51
230.069396
  0
ARC
  5
C518
330
C3B2
100
AcDbEntity
  8
1
  6
Continuous
100
AcDbCircle
 10
149.095561
 20
259.4580319999999
 30
0.0
 40
3.75
100
AcDbArc
 50
270.0
 51
323.130102
  0
ARC
  5
C519
330
C3B2
100
AcDbEntity
  8
1
  6
Continuous
100
AcDbCircle
 10
151.367434
 20
253.4288689999999
 30
0.0
 40
3.987448
100
AcDbArc
 50
129.9306039999999
 51
145.1392
  0
ARC
  5
C51A
330
C3B2
100
AcDbEntity
  8
1
  6
Continuous
100
AcDbCircle
 10
151.095561
 20
259.4580319999999
 30
0.0
 40
3.75
100
AcDbArc
 50
216.869898
 51
232.41035
  0
ARC
  5
C51B
330
C3B2
100
AcDbEntity
  8
1
  6
Continuous
100
AcDbCircle
 10
151.367434
 20
52.92886899999999
 30
0.0
 40
3.987448
100
AcDbArc
 50
129.9306039999999
 51
145.1392
  0
ARC
  5
C51C
330
C3B2
100
AcDbEntity
  8
1
  6
Continuous
100
AcDbCircle
 10
151.095561
 20
58.95803199999999
 30
0.0
 40
3.75
100
AcDbArc
 50
216.869898
 51
232.41035
  0
ARC
  5
C51D
330
C3B2
100
AcDbEntity
  8
1
  6
Continuous
100
AcDbCircle
 10
149.095561
 20
58.95803199999999
 30
0.0
 40
3.75
100
AcDbArc
 50
270.0
 51
323.130102
  0
ARC
  5
C51E
330
C3B2
100
AcDbEntity
  8
1
  6
Continuous
100
AcDbCircle
 10
151.095561
 20
72.45803199999997
 30
0.0
 40
3.75
100
AcDbArc
 50
127.58965
 51
143.130102
  0
ARC
  5
C51F
330
C3B2
100
AcDbEntity
  8
1
  6
Continuous
100
AcDbCircle
 10
151.367434
 20
78.48719599999999
 30
0.0
 40
3.987448
100
AcDbArc
 50
214.8608
 51
230.069396
  0
ARC
  5
C520
330
C3B2
100
AcDbEntity
  8
1
  6
Continuous
100
AcDbCircle
 10
149.095561
 20
72.45803199999997
 30
0.0
 40
3.75
100
AcDbArc
 50
36.869898
 51
90.0
  0
LINE
  5
C521
330
C3B2
100
AcDbEntity
  8
1
  6
Continuous
100
AcDbLine
 10
286.0863699999999
 20
168.451135
 30
0.0
 11
286.5863699999999
 21
168.451135
 31
0.0
  0
LINE
  5
C522
330
C3B2
100
AcDbEntity
  8
1
  6
Continuous
100
AcDbLine
 10
286.0863699999999
 20
165.4511349999999
 30
0.0
 11
286.5863699999999
 21
165.4511349999999
 31
0.0
  0
LINE
  5
C523
330
C3B2
100
AcDbEntity
  8
1
  6
Continuous
100
AcDbLine
 10
286.0863699999999
 20
163.074058
 30
0.0
 11
286.0863699999999
 21
165.4511349999999
 31
0.0
  0
LINE
  5
C524
330
C3B2
100
AcDbEntity
  8
1
  6
Continuous
100
AcDbLine
 10
286.0863699999999
 20
168.451135
 30
0.0
 11
286.0863699999999
 21
169.9511349999999
 31
0.0
  0
LINE
  5
C525
330
C3B2
100
AcDbEntity
  8
1
  6
Continuous
100
AcDbLine
 10
285.0863700000001
 20
170.4511349999999
 30
0.0
 11
285.58637
 21
170.4511349999999
 31
0.0
  0
ARC
  5
C526
330
C3B2
100
AcDbEntity
  8
1
  6
Continuous
100
AcDbCircle
 10
285.58637
 20
169.9511349999999
 30
0.0
 40
0.5
100
AcDbArc
 50
0.0
 51
90.0
  0
LINE
  5
C527
330
C3B2
100
AcDbEntity
  8
1
  6
Continuous
100
AcDbLine
 10
267.0863699999999
 20
170.4511349999999
 30
0.0
 11
266.58637
 21
170.4511349999999
 31
0.0
  0
LINE
  5
C528
330
C3B2
100
AcDbEntity
  8
1
  6
Continuous
100
AcDbLine
 10
266.0863699999999
 20
163.074058
 30
0.0
 11
266.0863699999999
 21
165.4511349999999
 31
0.0
  0
ARC
  5
C529
330
C3B2
100
AcDbEntity
  8
1
  6
Continuous
100
AcDbCircle
 10
266.58637
 20
169.9511349999999
 30
0.0
 40
0.5
100
AcDbArc
 50
90.0
 51
180.0
  0
LINE
  5
C52A
330
C3B2
100
AcDbEntity
  8
1
  6
Continuous
100
AcDbLine
 10
266.0863699999999
 20
168.451135
 30
0.0
 11
266.0863699999999
 21
169.9511349999999
 31
0.0
  0
LINE
  5
C52B
330
C3B2
100
AcDbEntity
  8
1
  6
Continuous
100
AcDbLine
 10
266.0863699999999
 20
165.4511349999999
 30
0.0
 11
265.5863699999999
 21
165.4511349999999
 31
0.0
  0
LINE
  5
C52C
330
C3B2
100
AcDbEntity
  8
1
  6
Continuous
100
AcDbLine
 10
266.0863699999999
 20
168.451135
 30
0.0
 11
265.5863699999999
 21
168.451135
 31
0.0
  0
LINE
  5
C52D
330
C3B2
100
AcDbEntity
  8
1
  6
Continuous
100
AcDbLine
 10
152.244752
 20
260.208032
 30
0.0
 11
152.244752
 21
272.2080319999998
 31
0.0
  0
LINE
  5
C52E
330
C3B2
100
AcDbEntity
  8
1
  6
Continuous
100
AcDbLine
 10
151.9185069999998
 20
272.2080319999998
 30
0.0
 11
151.9185069999998
 21
260.208032
 31
0.0
  0
ARC
  5
C52F
330
C3B2
100
AcDbEntity
  8
1
  6
Continuous
100
AcDbCircle
 10
149.418507
 20
272.2080319999998
 30
0.0
 40
2.5
100
AcDbArc
 50
0.0
 51
90.0
  0
ARC
  5
C530
330
C3B2
100
AcDbEntity
  8
1
  6
Continuous
100
AcDbCircle
 10
149.744752
 20
272.2080319999998
 30
0.0
 40
2.5
100
AcDbArc
 50
0.0
 51
90.0
  0
ARC
  5
C531
330
C3B2
100
AcDbEntity
  8
1
  6
Continuous
100
AcDbCircle
 10
149.418507
 20
260.208032
 30
0.0
 40
2.5
100
AcDbArc
 50
270.0
 51
0.0
  0
ARC
  5
C532
330
C3B2
100
AcDbEntity
  8
1
  6
Continuous
100
AcDbCircle
 10
149.744752
 20
260.208032
 30
0.0
 40
2.5
100
AcDbArc
 50
270.0
 51
0.0
  0
LINE
  5
C533
330
C3B2
100
AcDbEntity
  8
1
  6
Continuous
100
AcDbLine
 10
40.06732099999999
 20
162.5466999999999
 30
0.0
 11
43.417321
 21
162.5466999999999
 31
0.0
  0
LINE
  5
C534
330
C3B2
100
AcDbEntity
  8
1
  6
Continuous
100
AcDbLine
 10
40.567321
 20
164.7466999999998
 30
0.0
 11
43.417321
 21
164.7466999999998
 31
0.0
  0
LINE
  5
C535
330
C3B2
100
AcDbEntity
  8
1
  6
Continuous
100
AcDbLine
 10
54.717321
 20
164.7466999999998
 30
0.0
 11
57.567321
 21
164.7466999999998
 31
0.0
  0
LINE
  5
C536
330
C3B2
100
AcDbEntity
  8
1
  6
Continuous
100
AcDbLine
 10
40.567321
 20
164.7466999999998
 30
0.0
 11
40.567321
 21
175.762112
 31
0.0
  0
LINE
  5
C537
330
C3B2
100
AcDbEntity
  8
1
  6
Continuous
100
AcDbLine
 10
57.567321
 20
164.7466999999998
 30
0.0
 11
57.567321
 21
175.762112
 31
0.0
  0
CIRCLE
  5
C538
330
C3B2
100
AcDbEntity
  8
1
  6
Continuous
100
AcDbCircle
 10
387.992954
 20
155.2080319999998
 30
0.0
 40
21.0
  0
CIRCLE
  5
C539
330
C3B2
100
AcDbEntity
  8
1
  6
Continuous
100
AcDbCircle
 10
387.992954
 20
155.2080319999998
 30
0.0
 40
19.5
  0
CIRCLE
  5
C53A
330
C3B2
100
AcDbEntity
  8
1
  6
Continuous
100
AcDbCircle
 10
387.992954
 20
155.2080319999998
 30
0.0
 40
25.0
  0
CIRCLE
  5
C53B
330
C3B2
100
AcDbEntity
  8
1
  6
Continuous
100
AcDbCircle
 10
387.992954
 20
155.2080319999998
 30
0.0
 40
15.09999999999999
  0
CIRCLE
  5
C53C
330
C3B2
100
AcDbEntity
  8
1
  6
Continuous
100
AcDbCircle
 10
387.992954
 20
155.2080319999998
 30
0.0
 40
17.0
  0
LINE
  5
C53D
330
C3B2
100
AcDbEntity
  8
1
  6
Continuous
100
AcDbLine
 10
362.4375839999999
 20
180.7667539999999
 30
0.0
 11
360.58637
 21
149.296115
 31
0.0
  0
LINE
  5
C53E
330
C3B2
100
AcDbEntity
  8
4
  6
CENTER
100
AcDbLine
 10
387.992954
 20
125.208032
 30
0.0
 11
387.992954
 21
185.2080319999998
 31
0.0
  0
LINE
  5
C53F
330
C3B2
100
AcDbEntity
  8
4
  6
CENTER
100
AcDbLine
 10
370.992954
 20
142.7284649999998
 30
0.0
 11
370.992954
 21
211.7080319999999
 31
0.0
  0
LINE
  5
C540
330
C3B2
100
AcDbEntity
  8
4
  6
CENTER
100
AcDbLine
 10
357.992954
 20
155.2080319999998
 30
0.0
 11
417.9929539999998
 21
155.2080319999998
 31
0.0
  0
LINE
  5
C541
330
C3B2
100
AcDbEntity
  8
1
  6
Continuous
100
AcDbLine
 10
362.0837819999999
 20
147.7080319999998
 30
0.0
 11
364.144474
 21
147.7080319999998
 31
0.0
  0
ARC
  5
C542
330
C3B2
100
AcDbEntity
  8
1
  6
Continuous
100
AcDbCircle
 10
362.0837819999999
 20
149.208032
 30
0.0
 40
1.5
100
AcDbArc
 50
176.6335389999999
 51
270.0
  0
LINE
  5
C543
330
C3B2
100
AcDbEntity
  8
1
  6
Continuous
100
AcDbLine
 10
379.9929539999998
 20
187.708032
 30
0.0
 11
361.992954
 21
187.708032
 31
0.0
  0
LINE
  5
C544
330
C3B2
100
AcDbEntity
  8
1
  6
Continuous
100
AcDbLine
 10
361.992954
 20
181.708032
 30
0.0
 11
379.9929539999998
 21
181.708032
 31
0.0
  0
ARC
  5
C545
330
C3B2
100
AcDbEntity
  8
1
  6
Continuous
100
AcDbCircle
 10
382.755831
 20
181.3193929999999
 30
0.0
 40
3.319657999999998
100
AcDbArc
 50
190.6123889999999
 51
223.93682
  0
ARC
  5
C546
330
C3B2
100
AcDbEntity
  8
1
  6
Continuous
100
AcDbCircle
 10
377.3472019999999
 20
184.708032
 30
0.0
 40
4.0
100
AcDbArc
 50
311.409622
 51
48.590378
  0
ARC
  5
C547
330
C3B2
100
AcDbEntity
  8
1
  6
Continuous
100
AcDbCircle
 10
378.492954
 20
180.708032
 30
0.0
 40
1.0
100
AcDbArc
 50
0.0
 51
90.0
  0
ARC
  5
C548
330
C3B2
100
AcDbEntity
  8
1
  6
Continuous
100
AcDbCircle
 10
364.6387049999999
 20
184.708032
 30
0.0
 40
4.0
100
AcDbArc
 50
131.4096219999999
 51
228.5903779999999
  0
ARC
  5
C549
330
C3B2
100
AcDbEntity
  8
1
  6
Continuous
100
AcDbCircle
 10
363.435859
 20
180.708032
 30
0.0
 40
1.0
100
AcDbArc
 50
90.0
 51
176.6335389999999
  0
ARC
  5
C54A
330
C3B2
100
AcDbEntity
  8
1
  6
Continuous
100
AcDbCircle
 10
370.6806649999998
 20
184.708032
 30
0.0
 40
4.0
100
AcDbArc
 50
131.4096219999999
 51
228.5903779999999
  0
ARC
  5
C54B
330
C3B2
100
AcDbEntity
  8
1
  6
Continuous
100
AcDbCircle
 10
371.3052419999999
 20
184.708032
 30
0.0
 40
4.0
100
AcDbArc
 50
311.409622
 51
48.590378
  0
LINE
  5
C54C
330
C3B2
100
AcDbEntity
  8
1
  6
Continuous
100
AcDbLine
 10
53.067321
 20
139.708032
 30
0.0
 11
45.06732099999999
 21
139.708032
 31
0.0
  0
ARC
  5
C54D
330
C3B2
100
AcDbEntity
  8
1
  6
Continuous
100
AcDbCircle
 10
47.06732099999999
 20
142.608032
 30
0.0
 40
2.9
100
AcDbArc
 50
226.397181
 51
313.602819
  0
LINE
  5
C54E
330
C3B2
100
AcDbEntity
  8
1
  6
Continuous
100
AcDbLine
 10
48.067321
 20
145.5080319999999
 30
0.0
 11
42.867321
 21
145.5080319999999
 31
0.0
  0
LINE
  5
C54F
330
C3B2
100
AcDbEntity
  8
1
  6
Continuous
100
AcDbLine
 10
55.267321
 20
144.0080319999999
 30
0.0
 11
42.867321
 21
144.0080319999999
 31
0.0
  0
LINE
  5
C550
330
C3B2
100
AcDbEntity
  8
1
  6
Continuous
100
AcDbLine
 10
45.06732099999999
 20
144.0080319999999
 30
0.0
 11
45.06732099999999
 21
139.708032
 31
0.0
  0
LINE
  5
C551
330
C3B2
100
AcDbEntity
  8
1
  6
Continuous
100
AcDbLine
 10
42.867321
 20
145.5080319999999
 30
0.0
 11
42.867321
 21
144.0080319999999
 31
0.0
  0
LINE
  5
C552
330
C3B2
100
AcDbEntity
  8
1
  6
Continuous
100
AcDbLine
 10
53.067321
 20
144.0080319999999
 30
0.0
 11
53.067321
 21
139.708032
 31
0.0
  0
LINE
  5
C553
330
C3B2
100
AcDbEntity
  8
1
  6
Continuous
100
AcDbLine
 10
49.067321
 20
144.0080319999999
 30
0.0
 11
49.067321
 21
140.5080319999999
 31
0.0
  0
ARC
  5
C554
330
C3B2
100
AcDbEntity
  8
1
  6
Continuous
100
AcDbCircle
 10
51.067321
 20
142.608032
 30
0.0
 40
2.9
100
AcDbArc
 50
226.397181
 51
313.602819
  0
LINE
  5
C555
330
C3B2
100
AcDbEntity
  8
1
  6
Continuous
100
AcDbLine
 10
50.067321
 20
145.5080319999999
 30
0.0
 11
50.067321
 21
144.0080319999999
 31
0.0
  0
LINE
  5
C556
330
C3B2
100
AcDbEntity
  8
1
  6
Continuous
100
AcDbLine
 10
48.067321
 20
145.5080319999999
 30
0.0
 11
48.067321
 21
144.0080319999999
 31
0.0
  0
LINE
  5
C557
330
C3B2
100
AcDbEntity
  8
1
  6
Continuous
100
AcDbLine
 10
55.267321
 20
145.5080319999999
 30
0.0
 11
55.267321
 21
144.0080319999999
 31
0.0
  0
LINE
  5
C558
330
C3B2
100
AcDbEntity
  8
1
  6
Continuous
100
AcDbLine
 10
55.267321
 20
145.5080319999999
 30
0.0
 11
50.067321
 21
145.5080319999999
 31
0.0
  0
LINE
  5
C559
330
C3B2
100
AcDbEntity
  8
1
  6
Continuous
100
AcDbLine
 10
46.067321
 20
147.7080319999998
 30
0.0
 11
46.067321
 21
145.5080319999999
 31
0.0
  0
LINE
  5
C55A
330
C3B2
100
AcDbEntity
  8
1
  6
Continuous
100
AcDbLine
 10
52.06732099999999
 20
147.7080319999998
 30
0.0
 11
52.06732099999999
 21
145.5080319999999
 31
0.0
  0
LINE
  5
C55B
330
C3B2
100
AcDbEntity
  8
1
  6
Continuous
100
AcDbLine
 10
272.0863699999999
 20
139.708032
 30
0.0
 11
280.0863699999999
 21
139.708032
 31
0.0
  0
ARC
  5
C55C
330
C3B2
100
AcDbEntity
  8
1
  6
Continuous
100
AcDbCircle
 10
278.0863699999999
 20
142.608032
 30
0.0
 40
2.9
100
AcDbArc
 50
226.397181
 51
313.602819
  0
LINE
  5
C55D
330
C3B2
100
AcDbEntity
  8
1
  6
Continuous
100
AcDbLine
 10
277.08637
 20
145.5080319999999
 30
0.0
 11
282.2863699999999
 21
145.5080319999999
 31
0.0
  0
LINE
  5
C55E
330
C3B2
100
AcDbEntity
  8
1
  6
Continuous
100
AcDbLine
 10
269.8863699999999
 20
144.0080319999999
 30
0.0
 11
282.2863699999999
 21
144.0080319999999
 31
0.0
  0
LINE
  5
C55F
330
C3B2
100
AcDbEntity
  8
1
  6
Continuous
100
AcDbLine
 10
280.0863699999999
 20
144.0080319999999
 30
0.0
 11
280.0863699999999
 21
139.708032
 31
0.0
  0
LINE
  5
C560
330
C3B2
100
AcDbEntity
  8
1
  6
Continuous
100
AcDbLine
 10
282.2863699999999
 20
145.5080319999999
 30
0.0
 11
282.2863699999999
 21
144.0080319999999
 31
0.0
  0
LINE
  5
C561
330
C3B2
100
AcDbEntity
  8
1
  6
Continuous
100
AcDbLine
 10
272.0863699999999
 20
144.0080319999999
 30
0.0
 11
272.0863699999999
 21
139.708032
 31
0.0
  0
LINE
  5
C562
330
C3B2
100
AcDbEntity
  8
1
  6
Continuous
100
AcDbLine
 10
276.0863699999999
 20
144.0080319999999
 30
0.0
 11
276.0863699999999
 21
140.5080319999999
 31
0.0
  0
ARC
  5
C563
330
C3B2
100
AcDbEntity
  8
1
  6
Continuous
100
AcDbCircle
 10
274.0863699999999
 20
142.608032
 30
0.0
 40
2.9
100
AcDbArc
 50
226.397181
 51
313.602819
  0
LINE
  5
C564
330
C3B2
100
AcDbEntity
  8
1
  6
Continuous
100
AcDbLine
 10
275.08637
 20
145.5080319999999
 30
0.0
 11
275.08637
 21
144.0080319999999
 31
0.0
  0
LINE
  5
C565
330
C3B2
100
AcDbEntity
  8
1
  6
Continuous
100
AcDbLine
 10
277.08637
 20
145.5080319999999
 30
0.0
 11
277.08637
 21
144.0080319999999
 31
0.0
  0
LINE
  5
C566
330
C3B2
100
AcDbEntity
  8
1
  6
Continuous
100
AcDbLine
 10
269.8863699999999
 20
145.5080319999999
 30
0.0
 11
269.8863699999999
 21
144.0080319999999
 31
0.0
  0
LINE
  5
C567
330
C3B2
100
AcDbEntity
  8
1
  6
Continuous
100
AcDbLine
 10
269.8863699999999
 20
145.5080319999999
 30
0.0
 11
275.08637
 21
145.5080319999999
 31
0.0
  0
LINE
  5
C568
330
C3B2
100
AcDbEntity
  8
1
  6
Continuous
100
AcDbLine
 10
279.08637
 20
147.7080319999998
 30
0.0
 11
279.08637
 21
145.5080319999999
 31
0.0
  0
LINE
  5
C569
330
C3B2
100
AcDbEntity
  8
1
  6
Continuous
100
AcDbLine
 10
273.08637
 20
147.7080319999998
 30
0.0
 11
273.08637
 21
145.5080319999999
 31
0.0
  0
ARC
  5
C56A
330
C3B2
100
AcDbEntity
  8
1
  6
Continuous
100
AcDbCircle
 10
181.986428
 20
65.70803199999999
 30
0.0
 40
6.2
100
AcDbArc
 50
15.257523
 51
344.742477
  0
ARC
  5
C56B
330
C3B2
100
AcDbEntity
  8
1
  6
Continuous
100
AcDbCircle
 10
187.4855189999999
 20
67.20803199999997
 30
0.0
 40
0.5
100
AcDbArc
 50
270.0
 51
15.257523
  0
ARC
  5
C56C
330
C3B2
100
AcDbEntity
  8
1
  6
Continuous
100
AcDbCircle
 10
187.4855189999999
 20
64.20803199999999
 30
0.0
 40
0.5
100
AcDbArc
 50
344.742477
 51
90.0
  0
LINE
  5
C56D
330
C3B2
100
AcDbEntity
  8
1
  6
Continuous
100
AcDbLine
 10
54.717321
 20
162.5466999999999
 30
0.0
 11
58.067321
 21
162.5466999999999
 31
0.0
  0
LINE
  5
C56E
330
C3B2
100
AcDbEntity
  8
1
  6
Continuous
100
AcDbLine
 10
43.417321
 20
165.2467
 30
0.0
 11
54.717321
 21
165.2467
 31
0.0
  0
CIRCLE
  5
C56F
330
C3B2
100
AcDbEntity
  8
1
  6
Continuous
100
AcDbCircle
 10
181.986428
 20
266.208032
 30
0.0
 40
2.799999999999998
  0
CIRCLE
  5
C570
330
C3B2
100
AcDbEntity
  8
2
  6
Continuous
100
AcDbCircle
 10
181.986428
 20
266.208032
 30
0.0
 40
3.3235
  0
CIRCLE
  5
C571
330
C3B2
100
AcDbEntity
  8
1
  6
Continuous
100
AcDbCircle
 10
181.986428
 20
266.208032
 30
0.0
 40
4.0
  0
LINE
  5
C572
330
C3B2
100
AcDbEntity
  8
1
  6
Continuous
100
AcDbLine
 10
45.06732099999999
 20
187.708032
 30
0.0
 11
45.06732099999999
 21
200.5080319999999
 31
0.0
  0
LINE
  5
C573
330
C3B2
100
AcDbEntity
  8
2
  6
Continuous
100
AcDbLine
 10
45.743821
 20
188.8797649999999
 30
0.0
 11
45.743821
 21
201.1845319999999
 31
0.0
  0
LINE
  5
C574
330
C3B2
100
AcDbEntity
  8
2
  6
Continuous
100
AcDbLine
 10
52.390821
 20
188.8797649999999
 30
0.0
 11
52.390821
 21
201.1845319999999
 31
0.0
  0
LINE
  5
C575
330
C3B2
100
AcDbEntity
  8
1
  6
Continuous
100
AcDbLine
 10
53.067321
 20
187.708032
 30
0.0
 11
53.067321
 21
200.5080319999999
 31
0.0
  0
LINE
  5
C576
330
C3B2
100
AcDbEntity
  8
1
  6
Continuous
100
AcDbLine
 10
45.06732099999999
 20
200.5080319999999
 30
0.0
 11
53.067321
 21
200.5080319999999
 31
0.0
  0
LINE
  5
C577
330
C3B2
100
AcDbEntity
  8
1
  6
Continuous
100
AcDbLine
 10
46.267321
 20
201.708032
 30
0.0
 11
51.867321
 21
201.708032
 31
0.0
  0
LINE
  5
C578
330
C3B2
100
AcDbEntity
  8
1
  6
Continuous
100
AcDbLine
 10
45.06732099999999
 20
200.5080319999999
 30
0.0
 11
46.267321
 21
201.708032
 31
0.0
  0
LINE
  5
C579
330
C3B2
100
AcDbEntity
  8
1
  6
Continuous
100
AcDbLine
 10
51.867321
 20
201.708032
 30
0.0
 11
53.067321
 21
200.5080319999999
 31
0.0
  0
LINE
  5
C57A
330
C3B2
100
AcDbEntity
  8
1
  6
Continuous
100
AcDbLine
 10
177.9864279999999
 20
187.708032
 30
0.0
 11
177.9864279999999
 21
200.5080319999999
 31
0.0
  0
LINE
  5
C57B
330
C3B2
100
AcDbEntity
  8
1
  6
Continuous
100
AcDbLine
 10
185.986428
 20
187.708032
 30
0.0
 11
185.986428
 21
200.5080319999999
 31
0.0
  0
LINE
  5
C57C
330
C3B2
100
AcDbEntity
  8
1
  6
Continuous
100
AcDbLine
 10
177.9864279999999
 20
200.5080319999999
 30
0.0
 11
185.986428
 21
200.5080319999999
 31
0.0
  0
LINE
  5
C57D
330
C3B2
100
AcDbEntity
  8
1
  6
Continuous
100
AcDbLine
 10
179.186428
 20
201.708032
 30
0.0
 11
184.7864279999998
 21
201.708032
 31
0.0
  0
LINE
  5
C57E
330
C3B2
100
AcDbEntity
  8
1
  6
Continuous
100
AcDbLine
 10
177.9864279999999
 20
200.5080319999999
 30
0.0
 11
179.186428
 21
201.708032
 31
0.0
  0
LINE
  5
C57F
330
C3B2
100
AcDbEntity
  8
1
  6
Continuous
100
AcDbLine
 10
184.7864279999998
 20
201.708032
 30
0.0
 11
185.986428
 21
200.5080319999999
 31
0.0
  0
LINE
  5
C580
330
C3B2
100
AcDbEntity
  8
1
  6
Continuous
100
AcDbLine
 10
272.0863699999999
 20
187.708032
 30
0.0
 11
272.0863699999999
 21
200.5080319999999
 31
0.0
  0
LINE
  5
C581
330
C3B2
100
AcDbEntity
  8
1
  6
Continuous
100
AcDbLine
 10
280.0863699999999
 20
187.708032
 30
0.0
 11
280.0863699999999
 21
200.5080319999999
 31
0.0
  0
LINE
  5
C582
330
C3B2
100
AcDbEntity
  8
1
  6
Continuous
100
AcDbLine
 10
272.0863699999999
 20
200.5080319999999
 30
0.0
 11
280.0863699999999
 21
200.5080319999999
 31
0.0
  0
LINE
  5
C583
330
C3B2
100
AcDbEntity
  8
1
  6
Continuous
100
AcDbLine
 10
273.2863699999999
 20
201.708032
 30
0.0
 11
278.8863699999998
 21
201.708032
 31
0.0
  0
LINE
  5
C584
330
C3B2
100
AcDbEntity
  8
1
  6
Continuous
100
AcDbLine
 10
272.0863699999999
 20
200.5080319999999
 30
0.0
 11
273.2863699999999
 21
201.708032
 31
0.0
  0
LINE
  5
C585
330
C3B2
100
AcDbEntity
  8
1
  6
Continuous
100
AcDbLine
 10
278.8863699999998
 20
201.708032
 30
0.0
 11
280.0863699999999
 21
200.5080319999999
 31
0.0
  0
LINE
  5
C586
330
C3B2
100
AcDbEntity
  8
1
  6
Continuous
100
AcDbLine
 10
366.992954
 20
187.708032
 30
0.0
 11
366.992954
 21
200.5080319999999
 31
0.0
  0
LINE
  5
C587
330
C3B2
100
AcDbEntity
  8
1
  6
Continuous
100
AcDbLine
 10
374.992954
 20
187.708032
 30
0.0
 11
374.992954
 21
200.5080319999999
 31
0.0
  0
LINE
  5
C588
330
C3B2
100
AcDbEntity
  8
1
  6
Continuous
100
AcDbLine
 10
366.992954
 20
200.5080319999999
 30
0.0
 11
374.992954
 21
200.5080319999999
 31
0.0
  0
LINE
  5
C589
330
C3B2
100
AcDbEntity
  8
1
  6
Continuous
100
AcDbLine
 10
368.192954
 20
201.708032
 30
0.0
 11
373.792954
 21
201.708032
 31
0.0
  0
LINE
  5
C58A
330
C3B2
100
AcDbEntity
  8
1
  6
Continuous
100
AcDbLine
 10
366.992954
 20
200.5080319999999
 30
0.0
 11
368.192954
 21
201.708032
 31
0.0
  0
LINE
  5
C58B
330
C3B2
100
AcDbEntity
  8
1
  6
Continuous
100
AcDbLine
 10
373.792954
 20
201.708032
 30
0.0
 11
374.992954
 21
200.5080319999999
 31
0.0
  0
ARC
  5
C58C
330
C3B2
100
AcDbEntity
  8
1
  6
Continuous
100
AcDbCircle
 10
42.06732099999999
 20
175.762112
 30
0.0
 40
1.5
100
AcDbArc
 50
90.0
 51
180.0
  0
LINE
  5
C58D
330
C3B2
100
AcDbEntity
  8
1
  6
Continuous
100
AcDbLine
 10
42.06732099999999
 20
177.262112
 30
0.0
 11
56.067321
 21
177.262112
 31
0.0
  0
ARC
  5
C58E
330
C3B2
100
AcDbEntity
  8
1
  6
Continuous
100
AcDbCircle
 10
56.067321
 20
175.762112
 30
0.0
 40
1.5
100
AcDbArc
 50
0.0
 51
90.0
  0
LINE
  5
C58F
330
C3B2
100
AcDbEntity
  8
1
  6
Continuous
100
AcDbLine
 10
58.067321
 20
172.476432
 30
0.0
 11
57.567321
 21
172.476432
 31
0.0
  0
LINE
  5
C590
330
C3B2
100
AcDbEntity
  8
1
  6
Continuous
100
AcDbLine
 10
40.567321
 20
172.476432
 30
0.0
 11
40.06732099999999
 21
172.476432
 31
0.0
  0
ARC
  5
C591
330
C3B2
100
AcDbEntity
  8
1
  6
Continuous
100
AcDbCircle
 10
137.705122
 20
199.2493889999998
 30
0.0
 40
26.0
100
AcDbArc
 50
260.387876
 51
302.0679830000001
  0
ARC
  5
C592
330
C3B2
100
AcDbEntity
  8
5
  6
PHANTOM
100
AcDbCircle
 10
144.8749569999999
 20
167.974017
 30
0.0
 40
6.5
100
AcDbArc
 50
73.948274
 51
150.1139659999998
  0
ARC
  5
C593
330
C3B2
100
AcDbEntity
  8
5
  6
PHANTOM
100
AcDbCircle
 10
112.1534229999999
 20
161.367437
 30
0.0
 40
28.0
100
AcDbArc
 50
347.8278519999999
 51
26.694064
  0
ARC
  5
C594
330
C3B2
100
AcDbEntity
  8
1
  6
Continuous
100
AcDbCircle
 10
140.407972
 20
170.375619
 30
0.0
 40
1.0
100
AcDbArc
 50
336.219159
 51
95.34782599999996
  0
ARC
  5
C595
330
C3B2
100
AcDbEntity
  8
1
  6
Continuous
100
AcDbCircle
 10
137.705122
 20
199.2493889999998
 30
0.0
 40
28.0
100
AcDbArc
 50
261.827852
 51
290.2750389999998
  0
ARC
  5
C596
330
C3B2
100
AcDbEntity
  8
5
  6
PHANTOM
100
AcDbCircle
 10
141.145399
 20
162.0495709999999
 30
0.0
 40
1.0
100
AcDbArc
 50
84.20794499999997
 51
181.347826
  0
ARC
  5
C597
330
C3B2
100
AcDbEntity
  8
1
  6
Continuous
100
AcDbCircle
 10
145.898539
 20
167.956183
 30
0.0
 40
5.0
100
AcDbArc
 50
156.2191589999999
 51
217.6815799999999
  0
ARC
  5
C598
330
C3B2
100
AcDbEntity
  8
5
  6
PHANTOM
100
AcDbCircle
 10
138.8058289999999
 20
171.461952
 30
0.0
 40
0.5
100
AcDbArc
 50
200.744024
 51
330.113966
  0
LINE
  5
C599
330
C3B2
100
AcDbEntity
  8
5
  6
PHANTOM
100
AcDbLine
 10
146.6722399999999
 20
174.220598
 30
0.0
 11
147.82246
 21
173.3849139999999
 31
0.0
  0
ARC
  5
C59A
330
C3B2
100
AcDbEntity
  8
5
  6
PHANTOM
100
AcDbCircle
 10
136.1983929999998
 20
172.2630419999999
 30
0.0
 40
2.0
100
AcDbArc
 50
65.58410600000001
 51
119.5385239999999
  0
ARC
  5
C59B
330
C3B2
100
AcDbEntity
  8
5
  6
PHANTOM
100
AcDbCircle
 10
136.9011
 20
173.81101
 30
0.0
 40
0.3
100
AcDbArc
 50
26.694064
 51
65.58410600000001
  0
ARC
  5
C59C
330
C3B2
100
AcDbEntity
  8
5
  6
PHANTOM
100
AcDbCircle
 10
135.3602779999999
 20
173.742084
 30
0.0
 40
0.3
100
AcDbArc
 50
119.5385239999999
 51
208.067983
  0
ARC
  5
C59D
330
C3B2
100
AcDbEntity
  8
1
  6
Continuous
100
AcDbCircle
 10
134.986428
 20
173.0157979999999
 30
0.0
 40
2.0
100
AcDbArc
 50
169.739044
 51
224.19752
  0
ARC
  5
C59E
330
C3B2
100
AcDbEntity
  8
1
  6
Continuous
100
AcDbCircle
 10
151.668453
 20
176.962276
 30
0.0
 40
0.3
100
AcDbArc
 50
33.538524
 51
122.0679829999999
  0
ARC
  5
C59F
330
C3B2
100
AcDbEntity
  8
1
  6
Continuous
100
AcDbCircle
 10
150.251478
 20
176.023031
 30
0.0
 40
2.0
100
AcDbArc
 50
18.554142
 51
33.538524
  0
LINE
  5
C5A0
330
C3B2
100
AcDbEntity
  8
1
  6
Continuous
100
AcDbLine
 10
141.688593
 20
57.20803199999998
 30
0.0
 11
137.740803
 21
57.20803199999998
 31
0.0
  0
LINE
  5
C5A1
330
C3B2
100
AcDbEntity
  8
1
  6
Continuous
100
AcDbLine
 10
141.688593
 20
74.20803199999998
 30
0.0
 11
137.740803
 21
74.20803199999998
 31
0.0
  0
LINE
  5
C5A2
330
C3B2
100
AcDbEntity
  8
1
  6
Continuous
100
AcDbLine
 10
132.986428
 20
72.143843
 30
0.0
 11
132.986428
 21
59.272002
 31
0.0
  0
ARC
  5
C5A3
330
C3B2
100
AcDbEntity
  8
1
  6
Continuous
100
AcDbCircle
 10
138.322619
 20
67.43084
 30
0.0
 40
10.23935099999998
100
AcDbArc
 50
241.8945390000001
 51
266.742612
  0
ARC
  5
C5A4
330
C3B2
100
AcDbEntity
  8
1
  6
Continuous
100
AcDbCircle
 10
133.986428
 20
59.272002
 30
0.0
 40
1.0
100
AcDbArc
 50
180.0
 51
240.821895
  0
ARC
  5
C5A5
330
C3B2
100
AcDbEntity
  8
1
  6
Continuous
100
AcDbCircle
 10
138.322619
 20
63.985224
 30
0.0
 40
10.23935099999998
100
AcDbArc
 50
93.25738800000001
 51
117.9900149999999
  0
ARC
  5
C5A6
330
C3B2
100
AcDbEntity
  8
1
  6
Continuous
100
AcDbCircle
 10
133.986428
 20
72.143843
 30
0.0
 40
1.0
100
AcDbArc
 50
117.9900149999999
 51
180.0
  0
LINE
  5
C5A7
330
C3B2
100
AcDbEntity
  8
1
  6
Continuous
100
AcDbLine
 10
132.986428
 20
259.772112
 30
0.0
 11
132.986428
 21
272.6439529999999
 31
0.0
  0
ARC
  5
C5A8
330
C3B2
100
AcDbEntity
  8
1
  6
Continuous
100
AcDbCircle
 10
138.322619
 20
264.485114
 30
0.0
 40
10.23935099999998
100
AcDbArc
 50
93.246541
 51
118.1054609999999
  0
ARC
  5
C5A9
330
C3B2
100
AcDbEntity
  8
1
  6
Continuous
100
AcDbCircle
 10
133.986428
 20
272.6439529999999
 30
0.0
 40
1.0
100
AcDbArc
 50
119.178105
 51
180.0
  0
ARC
  5
C5AA
330
C3B2
100
AcDbEntity
  8
1
  6
Continuous
100
AcDbCircle
 10
133.986428
 20
259.772112
 30
0.0
 40
1.0
100
AcDbArc
 50
180.0
 51
242.009985
  0
ARC
  5
C5AB
330
C3B2
100
AcDbEntity
  8
1
  6
Continuous
100
AcDbCircle
 10
138.322619
 20
267.93073
 30
0.0
 40
10.23935099999998
100
AcDbArc
 50
242.009985
 51
266.7318009999998
  0
ARC
  5
C5AC
330
C3B2
100
AcDbEntity
  8
1
  6
Continuous
100
AcDbCircle
 10
54.877513
 20
176.5382389999999
 30
0.0
 40
3.0
100
AcDbArc
 50
283.2933059999998
 51
333.715039
  0
LINE
  5
C5AD
330
C3B2
100
AcDbEntity
  8
1
  6
Continuous
100
AcDbLine
 10
55.567321
 20
173.618622
 30
0.0
 11
42.56732099999999
 21
173.618622
 31
0.0
  0
ARC
  5
C5AE
330
C3B2
100
AcDbEntity
  8
1
  6
Continuous
100
AcDbCircle
 10
43.257129
 20
176.5382389999999
 30
0.0
 40
3.0
100
AcDbArc
 50
206.284961
 51
256.7066939999999
  0
ARC
  5
C5AF
330
C3B2
100
AcDbEntity
  8
1
  6
Continuous
100
AcDbCircle
 10
42.56732099999999
 20
172.047798
 30
0.0
 40
0.5
100
AcDbArc
 50
180.0
 51
270.0
  0
LINE
  5
C5B0
330
C3B2
100
AcDbEntity
  8
1
  6
Continuous
100
AcDbLine
 10
42.06732099999999
 20
173.1186219999999
 30
0.0
 11
42.06732099999999
 21
171.9466999999999
 31
0.0
  0
ARC
  5
C5B1
330
C3B2
100
AcDbEntity
  8
1
  6
Continuous
100
AcDbCircle
 10
42.56732099999999
 20
173.1186219999999
 30
0.0
 40
0.5
100
AcDbArc
 50
90.0
 51
180.0
  0
ARC
  5
C5B2
330
C3B2
100
AcDbEntity
  8
1
  6
Continuous
100
AcDbCircle
 10
43.257129
 20
174.4674149999999
 30
0.0
 40
3.0
100
AcDbArc
 50
206.284961
 51
251.4687099999999
  0
LINE
  5
C5B3
330
C3B2
100
AcDbEntity
  8
1
  6
Continuous
100
AcDbLine
 10
42.56732099999999
 20
171.547798
 30
0.0
 11
55.567321
 21
171.547798
 31
0.0
  0
ARC
  5
C5B4
330
C3B2
100
AcDbEntity
  8
1
  6
Continuous
100
AcDbCircle
 10
55.567321
 20
172.047798
 30
0.0
 40
0.5
100
AcDbArc
 50
270.0
 51
0.0
  0
ARC
  5
C5B5
330
C3B2
100
AcDbEntity
  8
1
  6
Continuous
100
AcDbCircle
 10
55.567321
 20
173.1186219999999
 30
0.0
 40
0.5
100
AcDbArc
 50
0.0
 51
90.0
  0
ARC
  5
C5B6
330
C3B2
100
AcDbEntity
  8
1
  6
Continuous
100
AcDbCircle
 10
54.877513
 20
174.4674149999999
 30
0.0
 40
3.0
100
AcDbArc
 50
288.53129
 51
333.715039
  0
LINE
  5
C5B7
330
C3B2
100
AcDbEntity
  8
1
  6
Continuous
100
AcDbLine
 10
56.067321
 20
173.1186219999999
 30
0.0
 11
56.067321
 21
171.9466999999999
 31
0.0
  0
ARC
  5
C5B8
330
C3B2
100
AcDbEntity
  8
1
  6
Continuous
100
AcDbCircle
 10
133.767629
 20
171.83067
 30
0.0
 40
0.3
100
AcDbArc
 50
224.19752
 51
261.827852
  0
ARC
  5
C5B9
330
C3B2
100
AcDbEntity
  8
1
  6
Continuous
100
AcDbCircle
 10
133.3136169999999
 20
173.318622
 30
0.0
 40
0.3
100
AcDbArc
 50
80.387876
 51
169.739044
  0
ARC
  5
C5BA
330
C3B2
100
AcDbEntity
  8
5
  6
PHANTOM
100
AcDbCircle
 10
137.7146879999999
 20
155.1777899999999
 30
0.0
 40
0.3
100
AcDbArc
 50
166.387876
 51
255.739044
  0
ARC
  5
C5BB
330
C3B2
100
AcDbEntity
  8
5
  6
PHANTOM
100
AcDbCircle
 10
138.133464
 20
156.825403
 30
0.0
 40
2.0
100
AcDbArc
 50
255.739044
 51
310.19752
  0
ARC
  5
C5BC
330
C3B2
100
AcDbEntity
  8
5
  6
PHANTOM
100
AcDbCircle
 10
112.1534229999999
 20
161.367437
 30
0.0
 40
26.0
100
AcDbArc
 50
346.387876
 51
28.067983
  0
ARC
  5
C5BD
330
C3B2
100
AcDbEntity
  8
5
  6
PHANTOM
100
AcDbCircle
 10
139.2306859999999
 20
155.526902
 30
0.0
 40
0.3
100
AcDbArc
 50
310.19752
 51
347.8278519999999
  0
ARC
  5
C5BE
330
C3B2
100
AcDbEntity
  8
1
  6
Continuous
100
AcDbCircle
 10
49.067321
 20
244.0306309999999
 30
0.0
 40
72.77570899999997
100
AcDbArc
 50
264.8402249999999
 51
275.159775
  0
ARC
  5
C5BF
330
C3B2
100
AcDbEntity
  8
1
  6
Continuous
100
AcDbCircle
 10
415.27426
 20
199.2493889999998
 30
0.0
 40
26.0
100
AcDbArc
 50
237.932017
 51
279.612124
  0
ARC
  5
C5C0
330
C3B2
100
AcDbEntity
  8
1
  6
Continuous
100
AcDbCircle
 10
415.27426
 20
199.2493889999998
 30
0.0
 40
28.0
100
AcDbArc
 50
249.7249609999999
 51
278.1721479999998
  0
ARC
  5
C5C1
330
C3B2
100
AcDbEntity
  8
5
  6
PHANTOM
100
AcDbCircle
 10
408.1044249999997
 20
167.974017
 30
0.0
 40
6.5
100
AcDbArc
 50
29.88603399999999
 51
106.051726
  0
ARC
  5
C5C2
330
C3B2
100
AcDbEntity
  8
5
  6
PHANTOM
100
AcDbCircle
 10
413.748697
 20
155.526902
 30
0.0
 40
0.3
100
AcDbArc
 50
192.172148
 51
229.8024799999998
  0
ARC
  5
C5C3
330
C3B2
100
AcDbEntity
  8
5
  6
PHANTOM
100
AcDbCircle
 10
440.825959
 20
161.367437
 30
0.0
 40
28.0
100
AcDbArc
 50
153.305936
 51
192.172148
  0
ARC
  5
C5C4
330
C3B2
100
AcDbEntity
  8
5
  6
PHANTOM
100
AcDbCircle
 10
414.8459189999998
 20
156.825403
 30
0.0
 40
2.0
100
AcDbArc
 50
229.8024799999998
 51
284.260956
  0
ARC
  5
C5C5
330
C3B2
100
AcDbEntity
  8
5
  6
PHANTOM
100
AcDbCircle
 10
415.264694
 20
155.1777899999999
 30
0.0
 40
0.3
100
AcDbArc
 50
284.260956
 51
13.612124
  0
ARC
  5
C5C6
330
C3B2
100
AcDbEntity
  8
5
  6
PHANTOM
100
AcDbCircle
 10
440.825959
 20
161.367437
 30
0.0
 40
26.0
100
AcDbArc
 50
151.932017
 51
193.612124
  0
ARC
  5
C5C7
330
C3B2
100
AcDbEntity
  8
1
  6
Continuous
100
AcDbCircle
 10
419.665766
 20
173.318622
 30
0.0
 40
0.3
100
AcDbArc
 50
10.260956
 51
99.612124
  0
ARC
  5
C5C8
330
C3B2
100
AcDbEntity
  8
1
  6
Continuous
100
AcDbCircle
 10
417.9929539999998
 20
173.0157979999999
 30
0.0
 40
2.0
100
AcDbArc
 50
315.80248
 51
10.260956
  0
ARC
  5
C5C9
330
C3B2
100
AcDbEntity
  8
1
  6
Continuous
100
AcDbCircle
 10
419.2117539999999
 20
171.83067
 30
0.0
 40
0.3
100
AcDbArc
 50
278.1721479999998
 51
315.80248
  0
ARC
  5
C5CA
330
C3B2
100
AcDbEntity
  8
5
  6
PHANTOM
100
AcDbCircle
 10
417.6191039999998
 20
173.742084
 30
0.0
 40
0.3
100
AcDbArc
 50
331.9320169999999
 51
60.46147600000001
  0
ARC
  5
C5CB
330
C3B2
100
AcDbEntity
  8
5
  6
PHANTOM
100
AcDbCircle
 10
416.0782819999998
 20
173.81101
 30
0.0
 40
0.3
100
AcDbArc
 50
114.4158939999998
 51
153.305936
  0
ARC
  5
C5CC
330
C3B2
100
AcDbEntity
  8
5
  6
PHANTOM
100
AcDbCircle
 10
416.780989
 20
172.2630419999999
 30
0.0
 40
2.0
100
AcDbArc
 50
60.46147600000001
 51
114.4158939999998
  0
ARC
  5
C5CD
330
C3B2
100
AcDbEntity
  8
5
  6
PHANTOM
100
AcDbCircle
 10
414.173553
 20
171.461952
 30
0.0
 40
0.5
100
AcDbArc
 50
209.8860339999998
 51
339.2559759999999
  0
ARC
  5
C5CE
330
C3B2
100
AcDbEntity
  8
1
  6
Continuous
100
AcDbCircle
 10
407.080843
 20
167.956183
 30
0.0
 40
5.0
100
AcDbArc
 50
322.3184199999999
 51
23.780841
  0
ARC
  5
C5CF
330
C3B2
100
AcDbEntity
  8
5
  6
PHANTOM
100
AcDbCircle
 10
411.833983
 20
162.0495709999999
 30
0.0
 40
1.0
100
AcDbArc
 50
358.652174
 51
95.792055
  0
ARC
  5
C5D0
330
C3B2
100
AcDbEntity
  8
1
  6
Continuous
100
AcDbCircle
 10
412.57141
 20
170.375619
 30
0.0
 40
1.0
100
AcDbArc
 50
84.652174
 51
203.7808409999999
  0
LINE
  5
C5D1
330
C3B2
100
AcDbEntity
  8
5
  6
PHANTOM
100
AcDbLine
 10
406.3071419999998
 20
174.220598
 30
0.0
 11
405.156922
 21
173.3849139999999
 31
0.0
  0
ARC
  5
C5D2
330
C3B2
100
AcDbEntity
  8
1
  6
Continuous
100
AcDbCircle
 10
402.727904
 20
176.023031
 30
0.0
 40
2.0
100
AcDbArc
 50
146.461476
 51
161.4458579999999
  0
ARC
  5
C5D3
330
C3B2
100
AcDbEntity
  8
1
  6
Continuous
100
AcDbCircle
 10
401.310929
 20
176.962276
 30
0.0
 40
0.3
100
AcDbArc
 50
57.932017
 51
146.461476
  0
LINE
  5
C5D4
330
C3B2
100
AcDbEntity
  8
2
  6
Continuous
100
AcDbLine
 10
52.390821
 20
188.8797649999999
 30
0.0
 11
53.067321
 21
187.708032
 31
0.0
  0
LINE
  5
C5D5
330
C3B2
100
AcDbEntity
  8
2
  6
Continuous
100
AcDbLine
 10
45.743821
 20
188.8797649999999
 30
0.0
 11
45.06732099999999
 21
187.708032
 31
0.0
  0
LINE
  5
C5D6
330
C3B2
100
AcDbEntity
  8
1
  6
Continuous
100
AcDbLine
 10
45.06732099999999
 20
188.8797649999999
 30
0.0
 11
53.067321
 21
188.8797649999999
 31
0.0
  0
LINE
  5
C5D7
330
C3B2
100
AcDbEntity
  8
1
  6
Continuous
100
AcDbLine
 10
177.9864279999999
 20
188.8797649999999
 30
0.0
 11
185.986428
 21
188.8797649999999
 31
0.0
  0
LINE
  5
C5D8
330
C3B2
100
AcDbEntity
  8
2
  6
Continuous
100
AcDbLine
 10
178.6629279999999
 20
188.8797649999999
 30
0.0
 11
177.9864279999999
 21
187.708032
 31
0.0
  0
LINE
  5
C5D9
330
C3B2
100
AcDbEntity
  8
2
  6
Continuous
100
AcDbLine
 10
185.309928
 20
188.8797649999999
 30
0.0
 11
185.986428
 21
187.708032
 31
0.0
  0
LINE
  5
C5DA
330
C3B2
100
AcDbEntity
  8
2
  6
Continuous
100
AcDbLine
 10
185.309928
 20
188.8797649999999
 30
0.0
 11
185.309928
 21
201.1845319999999
 31
0.0
  0
LINE
  5
C5DB
330
C3B2
100
AcDbEntity
  8
2
  6
Continuous
100
AcDbLine
 10
178.6629279999999
 20
188.8797649999999
 30
0.0
 11
178.6629279999999
 21
201.1845319999999
 31
0.0
  0
LINE
  5
C5DC
330
C3B2
100
AcDbEntity
  8
2
  6
Continuous
100
AcDbLine
 10
279.40987
 20
188.8797649999999
 30
0.0
 11
279.40987
 21
201.1845319999999
 31
0.0
  0
LINE
  5
C5DD
330
C3B2
100
AcDbEntity
  8
2
  6
Continuous
100
AcDbLine
 10
272.76287
 20
188.8797649999999
 30
0.0
 11
272.76287
 21
201.1845319999999
 31
0.0
  0
LINE
  5
C5DE
330
C3B2
100
AcDbEntity
  8
2
  6
Continuous
100
AcDbLine
 10
279.40987
 20
188.8797649999999
 30
0.0
 11
280.0863699999999
 21
187.708032
 31
0.0
  0
LINE
  5
C5DF
330
C3B2
100
AcDbEntity
  8
2
  6
Continuous
100
AcDbLine
 10
272.76287
 20
188.8797649999999
 30
0.0
 11
272.0863699999999
 21
187.708032
 31
0.0
  0
LINE
  5
C5E0
330
C3B2
100
AcDbEntity
  8
1
  6
Continuous
100
AcDbLine
 10
272.0863699999999
 20
188.8797649999999
 30
0.0
 11
280.0863699999999
 21
188.8797649999999
 31
0.0
  0
LINE
  5
C5E1
330
C3B2
100
AcDbEntity
  8
1
  6
Continuous
100
AcDbLine
 10
366.992954
 20
188.8797649999999
 30
0.0
 11
374.992954
 21
188.8797649999999
 31
0.0
  0
LINE
  5
C5E2
330
C3B2
100
AcDbEntity
  8
2
  6
Continuous
100
AcDbLine
 10
367.6694539999999
 20
188.8797649999999
 30
0.0
 11
366.992954
 21
187.708032
 31
0.0
  0
LINE
  5
C5E3
330
C3B2
100
AcDbEntity
  8
2
  6
Continuous
100
AcDbLine
 10
374.316454
 20
188.8797649999999
 30
0.0
 11
374.992954
 21
187.708032
 31
0.0
  0
LINE
  5
C5E4
330
C3B2
100
AcDbEntity
  8
2
  6
Continuous
100
AcDbLine
 10
374.316454
 20
188.8797649999999
 30
0.0
 11
374.316454
 21
201.1845319999999
 31
0.0
  0
LINE
  5
C5E5
330
C3B2
100
AcDbEntity
  8
2
  6
Continuous
100
AcDbLine
 10
367.6694539999999
 20
188.8797649999999
 30
0.0
 11
367.6694539999999
 21
201.1845319999999
 31
0.0
  0
ENDSEC
  0
SECTION
  2
OBJECTS
  0
DICTIONARY
  5
C3A0
330
0
100
AcDbDictionary
281
     1
  3
ACAD_CIP_PREVIOUS_PRODUCT_INFO
350
C647
  3
ACAD_COLOR
350
C629
  3
ACAD_DETAILVIEWSTYLE
350
C642
  3
ACAD_GROUP
350
C3A1
  3
ACAD_LAYOUT
350
C3AD
  3
ACAD_MATERIAL
350
C5F7
  3
ACAD_MLEADERSTYLE
350
C63E
  3
ACAD_MLINESTYLE
350
C3AA
  3
ACAD_PLOTSETTINGS
350
C3AC
  3
ACAD_PLOTSTYLENAME
350
C5F5
  3
ACAD_SCALELIST
350
C62C
  3
ACAD_SECTIONVIEWSTYLE
350
C640
  3
ACAD_TABLESTYLE
350
C62A
  3
ACAD_VISUALSTYLE
350
C610
  3
ACDB_RECOMPOSE_DATA
350
C6AC
  3
AcDbVariableDictionary
350
C65A
  3
DWGPROPS
350
C6AD
  0
DICTIONARY
  5
C64A
330
C3A4
100
AcDbDictionary
280
     1
281
     1
  3
ADSK_XREC_LAYER_RECONCILED
360
C64B
  0
DICTIONARY
  5
C64C
330
C3BA
100
AcDbDictionary
280
     1
281
     1
  3
ADSK_XREC_LAYER_RECONCILED
360
C64D
  0
DICTIONARY
  5
C64E
330
C3BB
100
AcDbDictionary
280
     1
281
     1
  3
ADSK_XREC_LAYER_RECONCILED
360
C64F
  0
DICTIONARY
  5
C650
330
C3BC
100
AcDbDictionary
280
     1
281
     1
  3
ADSK_XREC_LAYER_RECONCILED
360
C651
  0
DICTIONARY
  5
C652
330
C3BD
100
AcDbDictionary
280
     1
281
     1
  3
ADSK_XREC_LAYER_RECONCILED
360
C653
  0
DICTIONARY
  5
C654
330
C3BE
100
AcDbDictionary
280
     1
281
     1
  3
ADSK_XREC_LAYER_RECONCILED
360
C655
  0
DICTIONARY
  5
C656
330
C3BF
100
AcDbDictionary
280
     1
281
     1
  3
ADSK_XREC_LAYER_RECONCILED
360
C657
  0
DICTIONARY
  5
C658
330
C3C0
100
AcDbDictionary
280
     1
281
     1
  3
ADSK_XREC_LAYER_RECONCILED
360
C659
  0
DICTIONARY
  5
C5F0
330
C3B2
100
AcDbDictionary
281
     1
  3
ACAD_LAYOUTSELFREF
350
C5F1
  0
DICTIONARY
  5
C5EE
330
C3AE
100
AcDbDictionary
281
     1
  3
ACAD_LAYOUTSELFREF
350
C5EF
  0
XRECORD
  5
C647
102
{ACAD_REACTORS
330
C3A0
102
}
330
C3A0
100
AcDbXrecord
280
     1
300
ACDLT
300
2014
300
ACDLT_F_S
  0
DICTIONARY
  5
C629
102
{ACAD_REACTORS
330
C3A0
102
}
330
C3A0
100
AcDbDictionary
281
     1
  0
DICTIONARY
  5
C642
102
{ACAD_REACTORS
330
C3A0
102
}
330
C3A0
100
AcDbDictionary
281
     1
  3
Imperial24
350
C643
  0
DICTIONARY
  5
C3A1
102
{ACAD_REACTORS
330
C3A0
102
}
330
C3A0
100
AcDbDictionary
281
     1
  0
DICTIONARY
  5
C3AD
102
{ACAD_REACTORS
330
C3A0
102
}
330
C3A0
100
AcDbDictionary
281
     1
  3
Model
350
C644
  3
レイアウト1
350
C645
  0
DICTIONARY
  5
C5F7
102
{ACAD_REACTORS
330
C3A0
102
}
330
C3A0
100
AcDbDictionary
281
     1
  3
ByBlock
350
C600
  3
ByLayer
350
C5F8
  3
Global
350
C608
  0
DICTIONARY
  5
C63E
102
{ACAD_REACTORS
330
C3A0
102
}
330
C3A0
100
AcDbDictionary
281
     1
  3
Standard
350
C63F
  0
DICTIONARY
  5
C3AA
102
{ACAD_REACTORS
330
C3A0
102
}
330
C3A0
100
AcDbDictionary
281
     1
  3
STANDARD
350
C3AB
  0
DICTIONARY
  5
C3AC
102
{ACAD_REACTORS
330
C3A0
102
}
330
C3A0
100
AcDbDictionary
281
     1
  0
ACDBDICTIONARYWDFLT
  5
C5F5
102
{ACAD_REACTORS
330
C3A0
102
}
330
C3A0
100
AcDbDictionary
281
     1
  3
Normal
350
C5F6
100
AcDbDictionaryWithDefault
340
C5F6
  0
DICTIONARY
  5
C62C
102
{ACAD_REACTORS
330
C3A0
102
}
330
C3A0
100
AcDbDictionary
281
     1
  3
A0
350
C62D
  3
A1
350
C62E
  3
A2
350
C62F
  3
A3
350
C630
  3
A4
350
C631
  3
A5
350
C632
  3
A6
350
C633
  3
A7
350
C634
  3
A8
350
C635
  3
A9
350
C636
  3
B0
350
C637
  3
B1
350
C638
  3
B2
350
C639
  3
B3
350
C63A
  3
B4
350
C63B
  3
B5
350
C63C
  3
B6
350
C63D
  0
DICTIONARY
  5
C640
102
{ACAD_REACTORS
330
C3A0
102
}
330
C3A0
100
AcDbDictionary
281
     1
  3
Imperial24
350
C641
  0
DICTIONARY
  5
C62A
102
{ACAD_REACTORS
330
C3A0
102
}
330
C3A0
100
AcDbDictionary
281
     1
  3
Standard
350
C62B
  0
DICTIONARY
  5
C610
102
{ACAD_REACTORS
330
C3A0
102
}
330
C3A0
100
AcDbDictionary
281
     1
  3
2dWireframe
350
C616
  3
Basic
350
C615
  3
Brighten
350
C61C
  3
ColorChange
350
C620
  3
Conceptual
350
C619
  3
Dim
350
C61B
  3
EdgeColorOff
350
C628
  3
Facepattern
350
C61F
  3
Flat
350
C611
  3
FlatWithEdges
350
C612
  3
Gouraud
350
C613
  3
GouraudWithEdges
350
C614
  3
Hidden
350
C618
  3
JitterOff
350
C626
  3
Linepattern
350
C61E
  3
OverhangOff
350
C627
  3
Realistic
350
C61A
  3
Shaded
350
C625
  3
Shaded with edges
350
C624
  3
Shades of Gray
350
C621
  3
Sketchy
350
C622
  3
Thicken
350
C61D
  3
Wireframe
350
C617
  3
X-Ray
350
C623
  0
XRECORD
  5
C6AC
102
{ACAD_REACTORS
330
C3A0
102
}
330
C3A0
100
AcDbXrecord
280
     1
 90
        1
330
C62B
  0
DICTIONARY
  5
C65A
102
{ACAD_REACTORS
330
C3A0
102
}
330
C3A0
100
AcDbDictionary
281
     1
  3
CANNOSCALE
350
C65F
  3
CMLEADERSTYLE
350
C65C
  3
CTABLESTYLE
350
C65B
  3
CVIEWDETAILSTYLE
350
C65D
  3
CVIEWSECTIONSTYLE
350
C65E
  3
DIMASSOC
350
C662
  3
INDEXCTL
350
C661
  3
SORTENTS
350
C660
  3
XCLIPFRAME
350
C6AA
  0
XRECORD
  5
C6AD
102
{ACAD_REACTORS
330
C3A0
102
}
330
C3A0
100
AcDbXrecord
280
     1
  1
DWGPROPS COOKIE
  2

  3

  4

  6

  7

  8
Yoshitsune
  9

300
=
301
=
302
=
303
=
304
=
305
=
306
=
307
=
308
=
309
=
 40
0.0023517013888889
 41
2451301.387859722
 42
2457192.692161019
  1

 90
        0
  0
XRECORD
  5
C64B
102
{ACAD_REACTORS
330
C64A
102
}
330
C64A
100
AcDbXrecord
280
     1
290
     1
  0
XRECORD
  5
C64D
102
{ACAD_REACTORS
330
C64C
102
}
330
C64C
100
AcDbXrecord
280
     1
290
     1
  0
XRECORD
  5
C64F
102
{ACAD_REACTORS
330
C64E
102
}
330
C64E
100
AcDbXrecord
280
     1
290
     1
  0
XRECORD
  5
C651
102
{ACAD_REACTORS
330
C650
102
}
330
C650
100
AcDbXrecord
280
     1
290
     1
  0
XRECORD
  5
C653
102
{ACAD_REACTORS
330
C652
102
}
330
C652
100
AcDbXrecord
280
     1
290
     1
  0
XRECORD
  5
C655
102
{ACAD_REACTORS
330
C654
102
}
330
C654
100
AcDbXrecord
280
     1
290
     1
  0
XRECORD
  5
C657
102
{ACAD_REACTORS
330
C656
102
}
330
C656
100
AcDbXrecord
280
     1
290
     1
  0
XRECORD
  5
C659
102
{ACAD_REACTORS
330
C658
102
}
330
C658
100
AcDbXrecord
280
     1
290
     1
  0
XRECORD
  5
C5F1
102
{ACAD_REACTORS
330
C5F0
102
}
330
C5F0
100
AcDbXrecord
280
     1
340
C3B2
  0
XRECORD
  5
C5EF
102
{ACAD_REACTORS
330
C5EE
102
}
330
C5EE
100
AcDbXrecord
280
     1
340
C3AE
  0
ACDBDETAILVIEWSTYLE
  5
C643
102
{ACAD_XDICTIONARY
360
C6E1
102
}
102
{ACAD_REACTORS
330
C642
102
}
330
C642
100
AcDbModelDocViewStyle
 70
     0
  3
Imperial24
290
     0
100
AcDbDetailViewStyle
 70
     0
 71
     0
 90
        3
 71
     1
340
C3A5
 40
0.24
340
0
 40
0.24
300

 40
0.36
280
     3
 71
     2
340
C3A9
 90
       25
 71
     3
340
C3A5
 40
0.24
 90
        1
 40
0.75
 90
        1
300
%<\AcVar ViewType \f "%tc1">% %<\AcVar ViewDetailId>%\PSCALE %<\AcVar ViewScale \f "%sn">%
 71
     4
340
C3A9
 90
       25
340
C3A9
 90
       25
280
     0
  0
LAYOUT
  5
C644
102
{ACAD_XDICTIONARY
360
C6E3
102
}
102
{ACAD_REACTORS
330
C3AD
102
}
330
C3AD
100
AcDbPlotSettings
  1

  2
Canon LBP9100C
  4

  6

 40
0.0
 41
0.0
 42
0.0
 43
0.0
 44
0.0
 45
0.0
 46
0.0
 47
0.0
 48
0.0
 49
0.0
140
0.0
141
0.0
142
1.0
143
1.0
 70
  1712
 72
     0
 73
     0
 74
     0
  7

 75
     0
147
1.0
148
0.0
149
0.0
100
AcDbLayout
  1
Model
 70
     1
 71
     0
 10
0.0
 20
0.0
 11
12.0
 21
9.0
 12
0.0
 22
0.0
 32
0.0
 14
0.0
 24
0.0
 34
0.0
 15
0.0
 25
0.0
 35
0.0
146
0.0
 13
0.0
 23
0.0
 33
0.0
 16
1.0
 26
0.0
 36
0.0
 17
0.0
 27
1.0
 37
0.0
 76
     0
330
C3B2
331
C5ED
  0
LAYOUT
  5
C645
102
{ACAD_XDICTIONARY
360
C6E5
102
}
102
{ACAD_REACTORS
330
C3AD
102
}
330
C3AD
100
AcDbPlotSettings
  1

  2
Canon LBP9100C
  4

  6

 40
0.0
 41
0.0
 42
0.0
 43
0.0
 44
0.0
 45
0.0
 46
0.0
 47
0.0
 48
0.0
 49
0.0
140
0.0
141
0.0
142
1.0
143
1.0
 70
   688
 72
     0
 73
     0
 74
     5
  7

 75
    16
147
1.0
148
0.0
149
0.0
100
AcDbLayout
  1
レイアウト1
 70
     0
 71
     1
 10
0.0
 20
0.0
 11
420.0
 21
297.0
 12
0.0
 22
0.0
 32
0.0
 14
1.000000000000000E+20
 24
1.000000000000000E+20
 34
1.000000000000000E+20
 15
-1.000000000000000E+20
 25
-1.000000000000000E+20
 35
-1.000000000000000E+20
146
0.0
 13
0.0
 23
0.0
 33
0.0
 16
1.0
 26
0.0
 36
0.0
 17
0.0
 27
1.0
 37
0.0
 76
     0
330
C3AE
  0
MATERIAL
  5
C600
102
{ACAD_XDICTIONARY
360
C601
102
}
102
{ACAD_REACTORS
330
C5F7
102
}
330
C5F7
100
AcDbMaterial
  1
ByBlock
 72
     0
 43
0.0208333333333333
 43
0.0
 43
0.0
 43
0.0
 43
0.0
 43
0.0208333333333333
 43
0.0
 43
0.0
 43
0.0
 43
0.0
 43
1.0
 43
0.0
 43
0.0
 43
0.0
 43
0.0
 43
1.0
 77
     0
 47
0.0208333333333333
 47
0.0
 47
0.0
 47
0.0
 47
0.0
 47
0.0208333333333333
 47
0.0
 47
0.0
 47
0.0
 47
0.0
 47
1.0
 47
0.0
 47
0.0
 47
0.0
 47
0.0
 47
1.0
171
     0
 49
0.0208333333333333
 49
0.0
 49
0.0
 49
0.0
 49
0.0
 49
0.0208333333333333
 49
0.0
 49
0.0
 49
0.0
 49
0.0
 49
1.0
 49
0.0
 49
0.0
 49
0.0
 49
0.0
 49
1.0
175
     0
142
0.0208333333333333
142
0.0
142
0.0
142
0.0
142
0.0
142
0.0208333333333333
142
0.0
142
0.0
142
0.0
142
0.0
142
1.0
142
0.0
142
0.0
142
0.0
142
0.0
142
1.0
179
     0
144
0.0208333333333333
144
0.0
144
0.0
144
0.0
144
0.0
144
0.0208333333333333
144
0.0
144
0.0
144
0.0
144
0.0
144
1.0
144
0.0
144
0.0
144
0.0
144
0.0
144
1.0
147
0.0208333333333333
147
0.0
147
0.0
147
0.0
147
0.0
147
0.0208333333333333
147
0.0
147
0.0
147
0.0
147
0.0
147
1.0
147
0.0
147
0.0
147
0.0
147
0.0
147
1.0
  0
MATERIAL
  5
C5F8
102
{ACAD_XDICTIONARY
360
C5F9
102
}
102
{ACAD_REACTORS
330
C5F7
102
}
330
C5F7
100
AcDbMaterial
  1
ByLayer
 72
     0
 43
0.0208333333333333
 43
0.0
 43
0.0
 43
0.0
 43
0.0
 43
0.0208333333333333
 43
0.0
 43
0.0
 43
0.0
 43
0.0
 43
1.0
 43
0.0
 43
0.0
 43
0.0
 43
0.0
 43
1.0
 77
     0
 47
0.0208333333333333
 47
0.0
 47
0.0
 47
0.0
 47
0.0
 47
0.0208333333333333
 47
0.0
 47
0.0
 47
0.0
 47
0.0
 47
1.0
 47
0.0
 47
0.0
 47
0.0
 47
0.0
 47
1.0
171
     0
 49
0.0208333333333333
 49
0.0
 49
0.0
 49
0.0
 49
0.0
 49
0.0208333333333333
 49
0.0
 49
0.0
 49
0.0
 49
0.0
 49
1.0
 49
0.0
 49
0.0
 49
0.0
 49
0.0
 49
1.0
175
     0
142
0.0208333333333333
142
0.0
142
0.0
142
0.0
142
0.0
142
0.0208333333333333
142
0.0
142
0.0
142
0.0
142
0.0
142
1.0
142
0.0
142
0.0
142
0.0
142
0.0
142
1.0
179
     0
144
0.0208333333333333
144
0.0
144
0.0
144
0.0
144
0.0
144
0.0208333333333333
144
0.0
144
0.0
144
0.0
144
0.0
144
1.0
144
0.0
144
0.0
144
0.0
144
0.0
144
1.0
147
0.0208333333333333
147
0.0
147
0.0
147
0.0
147
0.0
147
0.0208333333333333
147
0.0
147
0.0
147
0.0
147
0.0
147
1.0
147
0.0
147
0.0
147
0.0
147
0.0
147
1.0
  0
MATERIAL
  5
C608
102
{ACAD_XDICTIONARY
360
C609
102
}
102
{ACAD_REACTORS
330
C5F7
102
}
330
C5F7
100
AcDbMaterial
  1
Global
 72
     0
 43
0.0208333333333333
 43
0.0
 43
0.0
 43
0.0
 43
0.0
 43
0.0208333333333333
 43
0.0
 43
0.0
 43
0.0
 43
0.0
 43
1.0
 43
0.0
 43
0.0
 43
0.0
 43
0.0
 43
1.0
 77
     0
 47
0.0208333333333333
 47
0.0
 47
0.0
 47
0.0
 47
0.0
 47
0.0208333333333333
 47
0.0
 47
0.0
 47
0.0
 47
0.0
 47
1.0
 47
0.0
 47
0.0
 47
0.0
 47
0.0
 47
1.0
171
     0
 49
0.0208333333333333
 49
0.0
 49
0.0
 49
0.0
 49
0.0
 49
0.0208333333333333
 49
0.0
 49
0.0
 49
0.0
 49
0.0
 49
1.0
 49
0.0
 49
0.0
 49
0.0
 49
0.0
 49
1.0
175
     0
142
0.0208333333333333
142
0.0
142
0.0
142
0.0
142
0.0
142
0.0208333333333333
142
0.0
142
0.0
142
0.0
142
0.0
142
1.0
142
0.0
142
0.0
142
0.0
142
0.0
142
1.0
179
     0
144
0.0208333333333333
144
0.0
144
0.0
144
0.0
144
0.0
144
0.0208333333333333
144
0.0
144
0.0
144
0.0
144
0.0
144
1.0
144
0.0
144
0.0
144
0.0
144
0.0
144
1.0
147
0.0208333333333333
147
0.0
147
0.0
147
0.0
147
0.0
147
0.0208333333333333
147
0.0
147
0.0
147
0.0
147
0.0
147
1.0
147
0.0
147
0.0
147
0.0
147
0.0
147
1.0
  0
MLEADERSTYLE
  5
C63F
102
{ACAD_REACTORS
330
C63E
102
}
330
C63E
100
AcDbMLeaderStyle
170
     2
171
     1
172
     0
 90
        2
 40
0.0
 41
0.0
173
     1
 91
-1056964608
340
C3A7
 92
       -2
290
     1
 42
0.09
291
     1
 43
0.36
  3
Standard
 44
0.18
300

342
C3A5
174
     1
178
     6
175
     1
176
     0
 93
-1056964608
 45
0.18
292
     0
297
     0
 46
0.18
 94
-1056964608
 47
1.0
 49
1.0
140
1.0
293
     1
141
0.0
294
     1
177
     0
142
1.0
295
     0
296
     0
143
0.125
1001
ACAD_MLEADERVER
1070
     2
  0
MLINESTYLE
  5
C3AB
102
{ACAD_REACTORS
330
C3AA
102
}
330
C3AA
100
AcDbMlineStyle
  2
STANDARD
 70
     0
  3

 62
   256
 51
90.0
 52
90.0
 71
     2
 49
0.5
 62
   256
  6
BYLAYER
 49
-0.5
 62
   256
  6
BYLAYER
  0
ACDBPLACEHOLDER
  5
C5F6
102
{ACAD_REACTORS
330
C5F5
102
}
330
C5F5
  0
SCALE
  5
C62D
102
{ACAD_REACTORS
330
C62C
102
}
330
C62C
100
AcDbScale
 70
     0
300
1:1
140
1.0
141
1.0
290
     1
  0
SCALE
  5
C62E
102
{ACAD_REACTORS
330
C62C
102
}
330
C62C
100
AcDbScale
 70
     0
300
1/128" = 1'-0"
140
0.0078125
141
12.0
290
     0
  0
SCALE
  5
C62F
102
{ACAD_REACTORS
330
C62C
102
}
330
C62C
100
AcDbScale
 70
     0
300
1/64" = 1'-0"
140
0.015625
141
12.0
290
     0
  0
SCALE
  5
C630
102
{ACAD_REACTORS
330
C62C
102
}
330
C62C
100
AcDbScale
 70
     0
300
1/32" = 1'-0"
140
0.03125
141
12.0
290
     0
  0
SCALE
  5
C631
102
{ACAD_REACTORS
330
C62C
102
}
330
C62C
100
AcDbScale
 70
     0
300
1/16" = 1'-0"
140
0.0625
141
12.0
290
     0
  0
SCALE
  5
C632
102
{ACAD_REACTORS
330
C62C
102
}
330
C62C
100
AcDbScale
 70
     0
300
3/32" = 1'-0"
140
0.09375
141
12.0
290
     0
  0
SCALE
  5
C633
102
{ACAD_REACTORS
330
C62C
102
}
330
C62C
100
AcDbScale
 70
     0
300
1/8" = 1'-0"
140
0.125
141
12.0
290
     0
  0
SCALE
  5
C634
102
{ACAD_REACTORS
330
C62C
102
}
330
C62C
100
AcDbScale
 70
     0
300
3/16" = 1'-0"
140
0.1875
141
12.0
290
     0
  0
SCALE
  5
C635
102
{ACAD_REACTORS
330
C62C
102
}
330
C62C
100
AcDbScale
 70
     0
300
1/4" = 1'-0"
140
0.25
141
12.0
290
     0
  0
SCALE
  5
C636
102
{ACAD_REACTORS
330
C62C
102
}
330
C62C
100
AcDbScale
 70
     0
300
3/8" = 1'-0"
140
0.375
141
12.0
290
     0
  0
SCALE
  5
C637
102
{ACAD_REACTORS
330
C62C
102
}
330
C62C
100
AcDbScale
 70
     0
300
1/2" = 1'-0"
140
0.5
141
12.0
290
     0
  0
SCALE
  5
C638
102
{ACAD_REACTORS
330
C62C
102
}
330
C62C
100
AcDbScale
 70
     0
300
3/4" = 1'-0"
140
0.75
141
12.0
290
     0
  0
SCALE
  5
C639
102
{ACAD_REACTORS
330
C62C
102
}
330
C62C
100
AcDbScale
 70
     0
300
1" = 1'-0"
140
1.0
141
12.0
290
     0
  0
SCALE
  5
C63A
102
{ACAD_REACTORS
330
C62C
102
}
330
C62C
100
AcDbScale
 70
     0
300
1-1/2" = 1'-0"
140
1.5
141
12.0
290
     0
  0
SCALE
  5
C63B
102
{ACAD_REACTORS
330
C62C
102
}
330
C62C
100
AcDbScale
 70
     0
300
3" = 1'-0"
140
3.0
141
12.0
290
     0
  0
SCALE
  5
C63C
102
{ACAD_REACTORS
330
C62C
102
}
330
C62C
100
AcDbScale
 70
     0
300
6" = 1'-0"
140
6.0
141
12.0
290
     0
  0
SCALE
  5
C63D
102
{ACAD_REACTORS
330
C62C
102
}
330
C62C
100
AcDbScale
 70
     0
300
1'-0" = 1'-0"
140
12.0
141
12.0
290
     0
  0
ACDBSECTIONVIEWSTYLE
  5
C641
102
{ACAD_XDICTIONARY
360
C6DF
102
}
102
{ACAD_REACTORS
330
C640
102
}
330
C640
100
AcDbModelDocViewStyle
 70
     0
  3
Imperial24
290
     0
100
AcDbSectionViewStyle
 70
     0
 71
     0
 90
       78
 71
     1
340
C3A5
 40
0.24
340
0
340
0
 40
0.24
300
I, O, Q, S, X, Z
 40
0.48
 90
        3
 40
0.18
 90
        1
 71
     2
340
C3A9
 90
       25
340
C3A9
 90
       50
 40
0.24
 40
0.0
 40
0.24
 71
     3
340
C3A5
 40
0.24
 90
        1
 40
0.75
 90
        1
300
%<\AcVar ViewType \f "%tc1">% %<\AcVar ViewSectionStartId>%-%<\AcVar ViewSectionEndId>%\PSCALE %<\AcVar ViewScale \f "%sn">%
 71
     4
300
ANSI31
 40
1.0
 90
        0
290
     0
290
     0
 90
        6
 40
0.0
 40
1.570796326794896
 40
0.2617993877991494
 40
1.308996938995747
 40
-0.2617993877991494
 40
1.832595714594045
  0
TABLESTYLE
  5
C62B
102
{ACAD_XDICTIONARY
360
C665
102
}
102
{ACAD_REACTORS
330
C62A
102
}
330
C62A
100
AcDbTableStyle
  3
Standard
 70
     0
 71
     0
 40
0.06
 41
0.06
280
     0
281
     0
  7
STANDARD
140
0.18
170
     2
 62
     0
 63
     7
283
     0
274
    -2
284
     1
 64
     0
275
    -2
285
     1
 65
     0
276
    -2
286
     1
 66
     0
277
    -2
287
     1
 67
     0
278
    -2
288
     1
 68
     0
279
    -2
289
     1
 69
     0
  7
STANDARD
140
0.25
170
     5
 62
     0
 63
     7
283
     0
274
    -2
284
     1
 64
     0
275
    -2
285
     1
 65
     0
276
    -2
286
     1
 66
     0
277
    -2
287
     1
 67
     0
278
    -2
288
     1
 68
     0
279
    -2
289
     1
 69
     0
  7
STANDARD
140
0.18
170
     5
 62
     0
 63
     7
283
     0
274
    -2
284
     1
 64
     0
275
    -2
285
     1
 65
     0
276
    -2
286
     1
 66
     0
277
    -2
287
     1
 67
     0
278
    -2
288
     1
 68
     0
279
    -2
289
     1
 69
     0
  0
VISUALSTYLE
  5
C616
102
{ACAD_XDICTIONARY
360
C6B8
102
}
102
{ACAD_REACTORS
330
C610
102
}
330
C610
100
AcDbVisualStyle
  2

 70
     4
 71
     0
 72
     2
 73
     0
 90
        0
 40
-0.6
 41
-30.0
 62
     5
 63
     7
 74
     1
 91
        4
 64
     7
 65
   257
 75
     1
175
     1
 42
1.0
 92
        0
 66
   257
 43
1.0
 76
     1
 77
     6
 78
     2
 67
     7
 79
     5
170
     0
171
     0
290
     0
174
     0
 93
        1
 44
0.0
173
     0
291
     0
 45
0.0
1001
ACAD
1000
AcDbSavedByObjectVersion
1070
     0
  0
VISUALSTYLE
  5
C615
102
{ACAD_XDICTIONARY
360
C6B6
102
}
102
{ACAD_REACTORS
330
C610
102
}
330
C610
100
AcDbVisualStyle
  2

 70
     7
 71
     1
 72
     0
 73
     1
 90
        0
 40
-0.6
 41
-30.0
 62
     5
 63
     7
 74
     0
 91
        4
 64
     7
 65
   257
 75
     1
175
     1
 42
1.0
 92
        8
 66
     7
 43
1.0
 76
     1
 77
     6
 78
     2
 67
     7
 79
     5
170
     0
171
     0
290
     0
174
     0
 93
        1
 44
0.0
173
     0
291
     1
 45
0.0
1001
ACAD
1000
AcDbSavedByObjectVersion
1070
     0
  0
VISUALSTYLE
  5
C61C
102
{ACAD_XDICTIONARY
360
C6C4
102
}
102
{ACAD_REACTORS
330
C610
102
}
330
C610
100
AcDbVisualStyle
  2

 70
    12
 71
     2
 72
     2
 73
     0
 90
        0
 40
-0.6
 41
-30.0
 62
     5
 63
     7
 74
     1
 91
        4
 64
     7
 65
   257
 75
     1
175
     1
 42
1.0
 92
        8
 66
     7
 43
1.0
 76
     1
 77
     6
 78
     2
 67
     7
 79
     5
170
     0
171
     0
290
     0
174
     0
 93
        1
 44
50.0
173
     0
291
     1
 45
0.0
1001
ACAD
1000
AcDbSavedByObjectVersion
1070
     0
  0
VISUALSTYLE
  5
C620
102
{ACAD_XDICTIONARY
360
C6CC
102
}
102
{ACAD_REACTORS
330
C610
102
}
330
C610
100
AcDbVisualStyle
  2

 70
    16
 71
     2
 72
     2
 73
     3
 90
        0
 40
-0.6
 41
-30.0
 62
     5
 63
     8
 74
     1
 91
        4
 64
     7
 65
   257
 75
     1
175
     1
 42
1.0
 92
        8
 66
     8
 43
1.0
 76
     1
 77
     6
 78
     2
 67
     7
 79
     5
170
     0
171
     0
290
     0
174
     0
 93
        1
 44
0.0
173
     0
291
     1
 45
0.0
1001
ACAD
1000
AcDbSavedByObjectVersion
1070
     0
  0
VISUALSTYLE
  5
C619
102
{ACAD_XDICTIONARY
360
C6BE
102
}
102
{ACAD_REACTORS
330
C610
102
}
330
C610
100
AcDbVisualStyle
  2

 70
     9
 71
     3
 72
     2
 73
     0
 90
        0
 40
-0.6
 41
-30.0
 62
     5
 63
     7
 74
     2
 91
        2
 64
     7
 65
   257
 75
     1
175
     1
 42
179.0
 92
        8
 66
     7
 43
1.0
 76
     1
 77
     6
 78
     2
 67
     7
 79
     3
170
     0
171
     0
290
     0
174
     0
 93
        1
 44
0.0
173
     0
291
     0
 45
0.0
1001
ACAD
1000
AcDbSavedByObjectVersion
1070
     0
  0
VISUALSTYLE
  5
C61B
102
{ACAD_XDICTIONARY
360
C6C2
102
}
102
{ACAD_REACTORS
330
C610
102
}
330
C610
100
AcDbVisualStyle
  2

 70
    11
 71
     2
 72
     2
 73
     0
 90
        0
 40
-0.6
 41
-30.0
 62
     5
 63
     7
 74
     1
 91
        4
 64
     7
 65
   257
 75
     1
175
     1
 42
1.0
 92
        8
 66
     7
 43
1.0
 76
     1
 77
     6
 78
     2
 67
     7
 79
     5
170
     0
171
     0
290
     0
174
     0
 93
        1
 44
-50.0
173
     0
291
     1
 45
0.0
1001
ACAD
1000
AcDbSavedByObjectVersion
1070
     0
  0
VISUALSTYLE
  5
C628
102
{ACAD_XDICTIONARY
360
C6DC
102
}
102
{ACAD_REACTORS
330
C610
102
}
330
C610
100
AcDbVisualStyle
  2

 70
    22
 71
     2
 72
     2
 73
     0
 90
        0
 40
-0.6
 41
-30.0
 62
     5
 63
     7
 74
     1
 91
        4
 64
     7
 65
   257
 75
     1
175
     1
 42
1.0
 92
        8
 66
     7
 43
1.0
 76
     1
 77
     6
 78
     2
 67
     7
 79
     5
170
     0
171
     0
290
     0
174
     0
 93
        1
 44
0.0
173
     0
291
     1
 45
0.0
1001
ACAD
1000
AcDbSavedByObjectVersion
1070
     0
  0
VISUALSTYLE
  5
C61F
102
{ACAD_XDICTIONARY
360
C6CA
102
}
102
{ACAD_REACTORS
330
C610
102
}
330
C610
100
AcDbVisualStyle
  2

 70
    15
 71
     2
 72
     2
 73
     0
 90
        0
 40
-0.6
 41
-30.0
 62
     5
 63
     7
 74
     1
 91
        4
 64
     7
 65
   257
 75
     1
175
     1
 42
1.0
 92
        8
 66
     7
 43
1.0
 76
     1
 77
     6
 78
     2
 67
     7
 79
     5
170
     0
171
     0
290
     0
174
     0
 93
        1
 44
0.0
173
     0
291
     1
 45
0.0
1001
ACAD
1000
AcDbSavedByObjectVersion
1070
     0
  0
VISUALSTYLE
  5
C611
102
{ACAD_XDICTIONARY
360
C6AE
102
}
102
{ACAD_REACTORS
330
C610
102
}
330
C610
100
AcDbVisualStyle
  2

 70
     0
 71
     2
 72
     1
 73
     1
 90
        2
 40
-0.6
 41
30.0
 62
     5
 63
     7
 74
     0
 91
        0
 64
     7
 65
   257
 75
     1
175
     1
 42
1.0
 92
        8
 66
     7
 43
1.0
 76
     1
 77
     6
 78
     2
 67
     7
 79
     5
170
     0
171
     0
290
     0
174
     0
 93
       13
 44
0.0
173
     0
291
     1
 45
0.0
1001
ACAD
1000
AcDbSavedByObjectVersion
1070
     0
  0
VISUALSTYLE
  5
C612
102
{ACAD_XDICTIONARY
360
C6B0
102
}
102
{ACAD_REACTORS
330
C610
102
}
330
C610
100
AcDbVisualStyle
  2

 70
     1
 71
     2
 72
     1
 73
     1
 90
        2
 40
-0.6
 41
30.0
 62
     5
 63
     7
 74
     1
 91
        0
 64
     7
 65
   257
 75
     1
175
     1
 42
1.0
 92
        0
 66
   257
 43
1.0
 76
     1
 77
     6
 78
     2
 67
     7
 79
     5
170
     0
171
     0
290
     0
174
     0
 93
       13
 44
0.0
173
     0
291
     1
 45
0.0
1001
ACAD
1000
AcDbSavedByObjectVersion
1070
     0
  0
VISUALSTYLE
  5
C613
102
{ACAD_XDICTIONARY
360
C6B2
102
}
102
{ACAD_REACTORS
330
C610
102
}
330
C610
100
AcDbVisualStyle
  2

 70
     2
 71
     2
 72
     2
 73
     1
 90
        2
 40
-0.6
 41
30.0
 62
     5
 63
     7
 74
     0
 91
        0
 64
     7
 65
   257
 75
     1
175
     1
 42
1.0
 92
        0
 66
     7
 43
1.0
 76
     1
 77
     6
 78
     2
 67
     7
 79
     5
170
     0
171
     0
290
     0
174
     0
 93
       13
 44
0.0
173
     0
291
     1
 45
0.0
1001
ACAD
1000
AcDbSavedByObjectVersion
1070
     0
  0
VISUALSTYLE
  5
C614
102
{ACAD_XDICTIONARY
360
C6B4
102
}
102
{ACAD_REACTORS
330
C610
102
}
330
C610
100
AcDbVisualStyle
  2

 70
     3
 71
     2
 72
     2
 73
     1
 90
        2
 40
-0.6
 41
30.0
 62
     5
 63
     7
 74
     1
 91
        0
 64
     7
 65
   257
 75
     1
175
     1
 42
1.0
 92
        0
 66
   257
 43
1.0
 76
     1
 77
     6
 78
     2
 67
     7
 79
     5
170
     0
171
     0
290
     0
174
     0
 93
       13
 44
0.0
173
     0
291
     1
 45
0.0
1001
ACAD
1000
AcDbSavedByObjectVersion
1070
     0
  0
VISUALSTYLE
  5
C618
102
{ACAD_XDICTIONARY
360
C6BC
102
}
102
{ACAD_REACTORS
330
C610
102
}
330
C610
100
AcDbVisualStyle
  2

 70
     6
 71
     1
 72
     2
 73
     2
 90
        0
 40
-0.6
 41
-30.0
 62
     5
 63
     7
 74
     2
 91
        2
 64
     7
 65
   257
 75
     2
175
     1
 42
40.0
 92
        0
 66
   257
 43
1.0
 76
     1
 77
     6
 78
     2
 67
     7
 79
     3
170
     0
171
     0
290
     0
174
     0
 93
        1
 44
0.0
173
     0
291
     0
 45
0.0
1001
ACAD
1000
AcDbSavedByObjectVersion
1070
     0
  0
VISUALSTYLE
  5
C626
102
{ACAD_XDICTIONARY
360
C6D8
102
}
102
{ACAD_REACTORS
330
C610
102
}
330
C610
100
AcDbVisualStyle
  2

 70
    20
 71
     2
 72
     2
 73
     0
 90
        0
 40
-0.6
 41
-30.0
 62
     5
 63
     7
 74
     1
 91
        4
 64
     7
 65
   257
 75
     1
175
     1
 42
1.0
 92
       10
 66
     7
 43
1.0
 76
     1
 77
     6
 78
     2
 67
     7
 79
     5
170
     0
171
     0
290
     0
174
     0
 93
        1
 44
0.0
173
     0
291
     1
 45
0.0
1001
ACAD
1000
AcDbSavedByObjectVersion
1070
     0
  0
VISUALSTYLE
  5
C61E
102
{ACAD_XDICTIONARY
360
C6C8
102
}
102
{ACAD_REACTORS
330
C610
102
}
330
C610
100
AcDbVisualStyle
  2

 70
    14
 71
     2
 72
     2
 73
     0
 90
        0
 40
-0.6
 41
-30.0
 62
     5
 63
     7
 74
     1
 91
        4
 64
     7
 65
   257
 75
     7
175
     7
 42
1.0
 92
        8
 66
     7
 43
1.0
 76
     1
 77
     6
 78
     2
 67
     7
 79
     5
170
     0
171
     0
290
     0
174
     0
 93
        1
 44
0.0
173
     0
291
     1
 45
0.0
1001
ACAD
1000
AcDbSavedByObjectVersion
1070
     0
  0
VISUALSTYLE
  5
C627
102
{ACAD_XDICTIONARY
360
C6DA
102
}
102
{ACAD_REACTORS
330
C610
102
}
330
C610
100
AcDbVisualStyle
  2

 70
    21
 71
     2
 72
     2
 73
     0
 90
        0
 40
-0.6
 41
-30.0
 62
     5
 63
     7
 74
     1
 91
        4
 64
     7
 65
   257
 75
     1
175
     1
 42
1.0
 92
        9
 66
     7
 43
1.0
 76
     1
 77
     6
 78
     2
 67
     7
 79
     5
170
     0
171
     0
290
     0
174
     0
 93
        1
 44
0.0
173
     0
291
     1
 45
0.0
1001
ACAD
1000
AcDbSavedByObjectVersion
1070
     0
  0
VISUALSTYLE
  5
C61A
102
{ACAD_XDICTIONARY
360
C6C0
102
}
102
{ACAD_REACTORS
330
C610
102
}
330
C610
100
AcDbVisualStyle
  2

 70
     8
 71
     2
 72
     3
 73
     0
 90
        2
 40
-0.6
 41
30.0
 62
     5
 63
     7
 74
     0
 91
        0
 64
     7
 65
   257
 75
     1
175
     1
 42
1.0
 92
        8
 66
   257
 43
1.0
 76
     1
 77
     6
 78
     2
 67
     7
 79
     3
170
     0
171
     0
290
     0
174
     0
 93
       13
 44
0.0
173
     0
291
     0
 45
0.0
1001
ACAD
1000
AcDbSavedByObjectVersion
1070
     0
  0
VISUALSTYLE
  5
C625
102
{ACAD_XDICTIONARY
360
C6D6
102
}
102
{ACAD_REACTORS
330
C610
102
}
330
C610
100
AcDbVisualStyle
  2

 70
    27
 71
     2
 72
     2
 73
     1
 90
        2
 40
-0.6
 41
30.0
 62
     5
 63
     7
 74
     0
 91
        4
 64
     7
 65
   257
 75
     1
175
     1
 42
1.0
 92
        8
 66
   257
 43
1.0
 76
     1
 77
     6
 78
     2
 67
     8
 79
     3
170
     0
171
     0
290
     0
174
     0
 93
        5
 44
0.0
173
     0
291
     0
 45
0.0
1001
ACAD
1000
AcDbSavedByObjectVersion
1070
     0
  0
VISUALSTYLE
  5
C624
102
{ACAD_XDICTIONARY
360
C6D4
102
}
102
{ACAD_REACTORS
330
C610
102
}
330
C610
100
AcDbVisualStyle
  2

 70
    26
 71
     2
 72
     2
 73
     1
 90
        2
 40
-0.6
 41
30.0
 62
     5
 63
     7
 74
     1
 91
       10
 64
     7
 65
   257
 75
     2
175
     1
 42
1.0
 92
        8
 66
   257
 43
1.0
 76
     1
 77
     6
 78
     2
 67
     7
 79
     3
170
     0
171
     0
290
     0
174
     0
 93
        5
 44
0.0
173
     0
291
     0
 45
0.0
1001
ACAD
1000
AcDbSavedByObjectVersion
1070
     0
  0
VISUALSTYLE
  5
C621
102
{ACAD_XDICTIONARY
360
C6CE
102
}
102
{ACAD_REACTORS
330
C610
102
}
330
C610
100
AcDbVisualStyle
  2

 70
    23
 71
     2
 72
     2
 73
     3
 90
        0
 40
-0.6
 41
-30.0
 62
     5
 63
     7
 74
     2
 91
        2
 64
     7
 65
     7
 75
     1
175
     1
 42
40.0
 92
        8
 66
     7
 43
1.0
 76
     1
 77
     6
 78
     2
 67
     7
 79
     3
170
     0
171
     0
290
     0
174
     0
 93
        1
 44
0.0
173
     0
291
     0
 45
0.0
1001
ACAD
1000
AcDbSavedByObjectVersion
1070
     0
  0
VISUALSTYLE
  5
C622
102
{ACAD_XDICTIONARY
360
C6D0
102
}
102
{ACAD_REACTORS
330
C610
102
}
330
C610
100
AcDbVisualStyle
  2

 70
    24
 71
     1
 72
     2
 73
     2
 90
        0
 40
-0.6
 41
-30.0
 62
     5
 63
     7
 74
     2
 91
        2
 64
     7
 65
     7
 75
     1
175
     1
 42
40.0
 92
       11
 66
     7
 43
1.0
 76
     1
 77
     6
 78
     2
 67
     7
 79
     6
170
     0
171
     0
290
     0
174
     0
 93
        1
 44
0.0
173
     0
291
     0
 45
0.0
1001
ACAD
1000
AcDbSavedByObjectVersion
1070
     0
  0
VISUALSTYLE
  5
C61D
102
{ACAD_XDICTIONARY
360
C6C6
102
}
102
{ACAD_REACTORS
330
C610
102
}
330
C610
100
AcDbVisualStyle
  2

 70
    13
 71
     2
 72
     2
 73
     0
 90
        0
 40
-0.6
 41
-30.0
 62
     5
 63
     7
 74
     1
 91
        4
 64
     7
 65
   257
 75
     1
175
     1
 42
1.0
 92
       12
 66
     7
 43
1.0
 76
     1
 77
     6
 78
     2
 67
     7
 79
     5
170
     0
171
     0
290
     0
174
     0
 93
        1
 44
0.0
173
     0
291
     1
 45
0.0
1001
ACAD
1000
AcDbSavedByObjectVersion
1070
     0
  0
VISUALSTYLE
  5
C617
102
{ACAD_XDICTIONARY
360
C6BA
102
}
102
{ACAD_REACTORS
330
C610
102
}
330
C610
100
AcDbVisualStyle
  2

 70
     5
 71
     0
 72
     2
 73
     0
 90
        0
 40
-0.6
 41
-30.0
 62
     5
 63
     7
 74
     1
 91
        4
 64
     7
 65
   257
 75
     1
175
     1
 42
1.0
 92
        0
 66
   257
 43
1.0
 76
     1
 77
     6
 78
     2
 67
     7
 79
     3
170
     0
171
     0
290
     0
174
     0
 93
        1
 44
0.0
173
     0
291
     0
 45
0.0
1001
ACAD
1000
AcDbSavedByObjectVersion
1070
     0
  0
VISUALSTYLE
  5
C623
102
{ACAD_XDICTIONARY
360
C6D2
102
}
102
{ACAD_REACTORS
330
C610
102
}
330
C610
100
AcDbVisualStyle
  2

 70
    25
 71
     2
 72
     2
 73
     1
 90
        1
 40
0.5
 41
-30.0
 62
     5
 63
     7
 74
     1
 91
        0
 64
     7
 65
   257
 75
     1
175
     1
 42
1.0
 92
        8
 66
     7
 43
1.0
 76
     1
 77
     6
 78
     2
 67
     7
 79
     3
170
     0
171
     0
290
     0
174
     0
 93
       13
 44
0.0
173
     0
291
     0
 45
0.0
1001
ACAD
1000
AcDbSavedByObjectVersion
1070
     0
  0
DICTIONARYVAR
  5
C65F
102
{ACAD_REACTORS
330
C65A
102
}
330
C65A
100
DictionaryVariables
280
     0
  1
1:1
  0
DICTIONARYVAR
  5
C65C
102
{ACAD_REACTORS
330
C65A
102
}
330
C65A
100
DictionaryVariables
280
     0
  1
STANDARD
  0
DICTIONARYVAR
  5
C65B
102
{ACAD_REACTORS
330
C65A
102
}
330
C65A
100
DictionaryVariables
280
     0
  1
STANDARD
  0
DICTIONARYVAR
  5
C65D
102
{ACAD_REACTORS
330
C65A
102
}
330
C65A
100
DictionaryVariables
280
     0
  1
Imperial24
  0
DICTIONARYVAR
  5
C65E
102
{ACAD_REACTORS
330
C65A
102
}
330
C65A
100
DictionaryVariables
280
     0
  1
Imperial24
  0
DICTIONARYVAR
  5
C662
102
{ACAD_REACTORS
330
C65A
102
}
330
C65A
100
DictionaryVariables
280
     0
  1
1
  0
DICTIONARYVAR
  5
C661
102
{ACAD_REACTORS
330
C65A
102
}
330
C65A
100
DictionaryVariables
280
     0
  1
0
  0
DICTIONARYVAR
  5
C660
102
{ACAD_REACTORS
330
C65A
102
}
330
C65A
100
DictionaryVariables
280
     0
  1
127
  0
DICTIONARYVAR
  5
C6AA
102
{ACAD_REACTORS
330
C65A
102
}
330
C65A
100
DictionaryVariables
280
     0
  1
2
  0
DICTIONARY
  5
C6E1
330
C643
100
AcDbDictionary
280
     1
281
     1
  3
ACAD_XREC_ROUNDTRIP
360
C6E2
  0
DICTIONARY
  5
C6E3
330
C644
100
AcDbDictionary
280
     1
281
     1
  3
ACAD_XREC_ROUNDTRIP
360
C6E4
  0
DICTIONARY
  5
C6E5
330
C645
100
AcDbDictionary
280
     1
281
     1
  3
ACAD_XREC_ROUNDTRIP
360
C6E6
  0
DICTIONARY
  5
C601
330
C600
100
AcDbDictionary
280
     1
281
     1
  3
ACAD_XREC_ROUNDTRIP
360
C66A
  3
BUMPTILE
360
C603
  3
DIFFUSETILE
360
C602
  3
OPACITYTILE
360
C606
  3
REFLECTIONTILE
360
C605
  3
REFRACTIONTILE
360
C607
  3
SPECULARTILE
360
C604
  0
DICTIONARY
  5
C5F9
330
C5F8
100
AcDbDictionary
280
     1
281
     1
  3
ACAD_XREC_ROUNDTRIP
360
C669
  3
BUMPTILE
360
C5FB
  3
DIFFUSETILE
360
C5FA
  3
OPACITYTILE
360
C5FE
  3
REFLECTIONTILE
360
C5FD
  3
REFRACTIONTILE
360
C5FF
  3
SPECULARTILE
360
C5FC
  0
DICTIONARY
  5
C609
330
C608
100
AcDbDictionary
280
     1
281
     1
  3
ACAD_XREC_ROUNDTRIP
360
C66B
  3
BUMPTILE
360
C60B
  3
DIFFUSETILE
360
C60A
  3
OPACITYTILE
360
C60E
  3
REFLECTIONTILE
360
C60D
  3
REFRACTIONTILE
360
C60F
  3
SPECULARTILE
360
C60C
  0
DICTIONARY
  5
C6DF
330
C641
100
AcDbDictionary
280
     1
281
     1
  3
ACAD_XREC_ROUNDTRIP
360
C6E0
  0
DICTIONARY
  5
C665
330
C62B
100
AcDbDictionary
280
     1
281
     1
  3
ACAD_ROUNDTRIP_2008_TABLESTYLE_CELLSTYLEMAP
360
C6AB
  3
ACAD_XREC_ROUNDTRIP
360
C6DE
  0
DICTIONARY
  5
C6B8
330
C616
100
AcDbDictionary
280
     1
281
     1
  3
ACAD_XREC_ROUNDTRIP
360
C6B9
  0
DICTIONARY
  5
C6B6
330
C615
100
AcDbDictionary
280
     1
281
     1
  3
ACAD_XREC_ROUNDTRIP
360
C6B7
  0
DICTIONARY
  5
C6C4
330
C61C
100
AcDbDictionary
280
     1
281
     1
  3
ACAD_XREC_ROUNDTRIP
360
C6C5
  0
DICTIONARY
  5
C6CC
330
C620
100
AcDbDictionary
280
     1
281
     1
  3
ACAD_XREC_ROUNDTRIP
360
C6CD
  0
DICTIONARY
  5
C6BE
330
C619
100
AcDbDictionary
280
     1
281
     1
  3
ACAD_XREC_ROUNDTRIP
360
C6BF
  0
DICTIONARY
  5
C6C2
330
C61B
100
AcDbDictionary
280
     1
281
     1
  3
ACAD_XREC_ROUNDTRIP
360
C6C3
  0
DICTIONARY
  5
C6DC
330
C628
100
AcDbDictionary
280
     1
281
     1
  3
ACAD_XREC_ROUNDTRIP
360
C6DD
  0
DICTIONARY
  5
C6CA
330
C61F
100
AcDbDictionary
280
     1
281
     1
  3
ACAD_XREC_ROUNDTRIP
360
C6CB
  0
DICTIONARY
  5
C6AE
330
C611
100
AcDbDictionary
280
     1
281
     1
  3
ACAD_XREC_ROUNDTRIP
360
C6AF
  0
DICTIONARY
  5
C6B0
330
C612
100
AcDbDictionary
280
     1
281
     1
  3
ACAD_XREC_ROUNDTRIP
360
C6B1
  0
DICTIONARY
  5
C6B2
330
C613
100
AcDbDictionary
280
     1
281
     1
  3
ACAD_XREC_ROUNDTRIP
360
C6B3
  0
DICTIONARY
  5
C6B4
330
C614
100
AcDbDictionary
280
     1
281
     1
  3
ACAD_XREC_ROUNDTRIP
360
C6B5
  0
DICTIONARY
  5
C6BC
330
C618
100
AcDbDictionary
280
     1
281
     1
  3
ACAD_XREC_ROUNDTRIP
360
C6BD
  0
DICTIONARY
  5
C6D8
330
C626
100
AcDbDictionary
280
     1
281
     1
  3
ACAD_XREC_ROUNDTRIP
360
C6D9
  0
DICTIONARY
  5
C6C8
330
C61E
100
AcDbDictionary
280
     1
281
     1
  3
ACAD_XREC_ROUNDTRIP
360
C6C9
  0
DICTIONARY
  5
C6DA
330
C627
100
AcDbDictionary
280
     1
281
     1
  3
ACAD_XREC_ROUNDTRIP
360
C6DB
  0
DICTIONARY
  5
C6C0
330
C61A
100
AcDbDictionary
280
     1
281
     1
  3
ACAD_XREC_ROUNDTRIP
360
C6C1
  0
DICTIONARY
  5
C6D6
330
C625
100
AcDbDictionary
280
     1
281
     1
  3
ACAD_XREC_ROUNDTRIP
360
C6D7
  0
DICTIONARY
  5
C6D4
330
C624
100
AcDbDictionary
280
     1
281
     1
  3
ACAD_XREC_ROUNDTRIP
360
C6D5
  0
DICTIONARY
  5
C6CE
330
C621
100
AcDbDictionary
280
     1
281
     1
  3
ACAD_XREC_ROUNDTRIP
360
C6CF
  0
DICTIONARY
  5
C6D0
330
C622
100
AcDbDictionary
280
     1
281
     1
  3
ACAD_XREC_ROUNDTRIP
360
C6D1
  0
DICTIONARY
  5
C6C6
330
C61D
100
AcDbDictionary
280
     1
281
     1
  3
ACAD_XREC_ROUNDTRIP
360
C6C7
  0
DICTIONARY
  5
C6BA
330
C617
100
AcDbDictionary
280
     1
281
     1
  3
ACAD_XREC_ROUNDTRIP
360
C6BB
  0
DICTIONARY
  5
C6D2
330
C623
100
AcDbDictionary
280
     1
281
     1
  3
ACAD_XREC_ROUNDTRIP
360
C6D3
  0
XRECORD
  5
C6E2
102
{ACAD_REACTORS
330
C6E1
102
}
330
C6E1
100
AcDbXrecord
280
     1
102
DISPLAYNAME
  1
Imperial24
102
FLAGS
 90
        0
  0
XRECORD
  5
C6E4
102
{ACAD_REACTORS
330
C6E3
102
}
330
C6E3
100
AcDbXrecord
280
     1
102
SHADEPLOT
 70
     0
102
SHADEPLOTRESLEVEL
 70
     2
102
SHADEPLOTCUSTOMDPI
 70
   300
  0
XRECORD
  5
C6E6
102
{ACAD_REACTORS
330
C6E5
102
}
330
C6E5
100
AcDbXrecord
280
     1
102
SHADEPLOT
 70
     0
102
SHADEPLOTRESLEVEL
 70
     2
102
SHADEPLOTCUSTOMDPI
 70
   300
  0
XRECORD
  5
C66A
102
{ACAD_REACTORS
330
C601
102
}
330
C601
100
AcDbXrecord
280
     1
102
MATERIAL
148
0.0
149
0.0
149
0.0
 93
        0
 94
      127
282
     0
 72
     0
 77
     0
171
     0
175
     0
179
     0
273
     0
  0
XRECORD
  5
C603
102
{ACAD_REACTORS
330
C601
102
}
330
C601
100
AcDbXrecord
280
     1
270
     1
271
     1
  0
XRECORD
  5
C602
102
{ACAD_REACTORS
330
C601
102
}
330
C601
100
AcDbXrecord
280
     1
270
     1
271
     1
  0
XRECORD
  5
C606
102
{ACAD_REACTORS
330
C601
102
}
330
C601
100
AcDbXrecord
280
     1
270
     1
271
     1
  0
XRECORD
  5
C605
102
{ACAD_REACTORS
330
C601
102
}
330
C601
100
AcDbXrecord
280
     1
270
     1
271
     1
  0
XRECORD
  5
C607
102
{ACAD_REACTORS
330
C601
102
}
330
C601
100
AcDbXrecord
280
     1
270
     1
271
     1
  0
XRECORD
  5
C604
102
{ACAD_REACTORS
330
C601
102
}
330
C601
100
AcDbXrecord
280
     1
270
     1
271
     1
  0
XRECORD
  5
C669
102
{ACAD_REACTORS
330
C5F9
102
}
330
C5F9
100
AcDbXrecord
280
     1
102
MATERIAL
148
0.0
149
0.0
149
0.0
 93
        0
 94
      127
282
     0
 72
     0
 77
     0
171
     0
175
     0
179
     0
273
     0
  0
XRECORD
  5
C5FB
102
{ACAD_REACTORS
330
C5F9
102
}
330
C5F9
100
AcDbXrecord
280
     1
270
     1
271
     1
  0
XRECORD
  5
C5FA
102
{ACAD_REACTORS
330
C5F9
102
}
330
C5F9
100
AcDbXrecord
280
     1
270
     1
271
     1
  0
XRECORD
  5
C5FE
102
{ACAD_REACTORS
330
C5F9
102
}
330
C5F9
100
AcDbXrecord
280
     1
270
     1
271
     1
  0
XRECORD
  5
C5FD
102
{ACAD_REACTORS
330
C5F9
102
}
330
C5F9
100
AcDbXrecord
280
     1
270
     1
271
     1
  0
XRECORD
  5
C5FF
102
{ACAD_REACTORS
330
C5F9
102
}
330
C5F9
100
AcDbXrecord
280
     1
270
     1
271
     1
  0
XRECORD
  5
C5FC
102
{ACAD_REACTORS
330
C5F9
102
}
330
C5F9
100
AcDbXrecord
280
     1
270
     1
271
     1
  0
XRECORD
  5
C66B
102
{ACAD_REACTORS
330
C609
102
}
330
C609
100
AcDbXrecord
280
     1
102
MATERIAL
148
0.0
149
0.0
149
0.0
 93
        0
 94
      127
282
     0
 72
     0
 77
     0
171
     0
175
     0
179
     0
273
     0
  0
XRECORD
  5
C60B
102
{ACAD_REACTORS
330
C609
102
}
330
C609
100
AcDbXrecord
280
     1
270
     1
271
     1
  0
XRECORD
  5
C60A
102
{ACAD_REACTORS
330
C609
102
}
330
C609
100
AcDbXrecord
280
     1
270
     1
271
     1
  0
XRECORD
  5
C60E
102
{ACAD_REACTORS
330
C609
102
}
330
C609
100
AcDbXrecord
280
     1
270
     1
271
     1
  0
XRECORD
  5
C60D
102
{ACAD_REACTORS
330
C609
102
}
330
C609
100
AcDbXrecord
280
     1
270
     1
271
     1
  0
XRECORD
  5
C60F
102
{ACAD_REACTORS
330
C609
102
}
330
C609
100
AcDbXrecord
280
     1
270
     1
271
     1
  0
XRECORD
  5
C60C
102
{ACAD_REACTORS
330
C609
102
}
330
C609
100
AcDbXrecord
280
     1
270
     1
271
     1
  0
XRECORD
  5
C6E0
102
{ACAD_REACTORS
330
C6DF
102
}
330
C6DF
100
AcDbXrecord
280
     1
102
DISPLAYNAME
  1
Imperial24
102
FLAGS
 90
        0
  0
CELLSTYLEMAP
  5
C6AB
102
{ACAD_REACTORS
330
C665
102
}
330
C665
100
AcDbCellStyleMap
 90
        3
300
CELLSTYLE
  1
TABLEFORMAT_BEGIN
 90
        5
170
     1
 91
        0
 92
    32768
 62
   257
 93
        1
300
CONTENTFORMAT
  1
CONTENTFORMAT_BEGIN
 90
        0
 91
        0
 92
      512
 93
        0
300

 40
0.0
140
1.0
 94
        5
 62
     0
340
C3A5
144
0.25
309
CONTENTFORMAT_END
171
     1
301
MARGIN
  1
CELLMARGIN_BEGIN
 40
0.06
 40
0.06
 40
0.06
 40
0.06
 40
0.18
 40
0.18
309
CELLMARGIN_END
 94
        6
 95
        1
302
GRIDFORMAT
  1
GRIDFORMAT_BEGIN
 90
        0
 91
        1
 62
     0
 92
       -2
340
0
 93
        0
 40
0.045
309
GRIDFORMAT_END
 95
        2
302
GRIDFORMAT
  1
GRIDFORMAT_BEGIN
 90
        0
 91
        1
 62
     0
 92
       -2
340
0
 93
        0
 40
0.045
309
GRIDFORMAT_END
 95
        4
302
GRIDFORMAT
  1
GRIDFORMAT_BEGIN
 90
        0
 91
        1
 62
     0
 92
       -2
340
0
 93
        0
 40
0.045
309
GRIDFORMAT_END
 95
        8
302
GRIDFORMAT
  1
GRIDFORMAT_BEGIN
 90
        0
 91
        1
 62
     0
 92
       -2
340
0
 93
        0
 40
0.045
309
GRIDFORMAT_END
 95
       16
302
GRIDFORMAT
  1
GRIDFORMAT_BEGIN
 90
        0
 91
        1
 62
     0
 92
       -2
340
0
 93
        0
 40
0.045
309
GRIDFORMAT_END
 95
       32
302
GRIDFORMAT
  1
GRIDFORMAT_BEGIN
 90
        0
 91
        1
 62
     0
 92
       -2
340
0
 93
        0
 40
0.045
309
GRIDFORMAT_END
309
TABLEFORMAT_END
  1
CELLSTYLE_BEGIN
 90
        1
 91
        1
300
_TITLE
309
CELLSTYLE_END
300
CELLSTYLE
  1
TABLEFORMAT_BEGIN
 90
        5
170
     1
 91
        0
 92
        0
 62
   257
 93
        1
300
CONTENTFORMAT
  1
CONTENTFORMAT_BEGIN
 90
        0
 91
        0
 92
      512
 93
        0
300

 40
0.0
140
1.0
 94
        5
 62
     0
340
C3A5
144
0.18
309
CONTENTFORMAT_END
171
     1
301
MARGIN
  1
CELLMARGIN_BEGIN
 40
0.06
 40
0.06
 40
0.06
 40
0.06
 40
0.18
 40
0.18
309
CELLMARGIN_END
 94
        6
 95
        1
302
GRIDFORMAT
  1
GRIDFORMAT_BEGIN
 90
        0
 91
        1
 62
     0
 92
       -2
340
0
 93
        0
 40
0.045
309
GRIDFORMAT_END
 95
        2
302
GRIDFORMAT
  1
GRIDFORMAT_BEGIN
 90
        0
 91
        1
 62
     0
 92
       -2
340
0
 93
        0
 40
0.045
309
GRIDFORMAT_END
 95
        4
302
GRIDFORMAT
  1
GRIDFORMAT_BEGIN
 90
        0
 91
        1
 62
     0
 92
       -2
340
0
 93
        0
 40
0.045
309
GRIDFORMAT_END
 95
        8
302
GRIDFORMAT
  1
GRIDFORMAT_BEGIN
 90
        0
 91
        1
 62
     0
 92
       -2
340
0
 93
        0
 40
0.045
309
GRIDFORMAT_END
 95
       16
302
GRIDFORMAT
  1
GRIDFORMAT_BEGIN
 90
        0
 91
        1
 62
     0
 92
       -2
340
0
 93
        0
 40
0.045
309
GRIDFORMAT_END
 95
       32
302
GRIDFORMAT
  1
GRIDFORMAT_BEGIN
 90
        0
 91
        1
 62
     0
 92
       -2
340
0
 93
        0
 40
0.045
309
GRIDFORMAT_END
309
TABLEFORMAT_END
  1
CELLSTYLE_BEGIN
 90
        2
 91
        1
300
_HEADER
309
CELLSTYLE_END
300
CELLSTYLE
  1
TABLEFORMAT_BEGIN
 90
        5
170
     1
 91
        0
 92
        0
 62
   257
 93
        1
300
CONTENTFORMAT
  1
CONTENTFORMAT_BEGIN
 90
        0
 91
        0
 92
      512
 93
        0
300

 40
0.0
140
1.0
 94
        2
 62
     0
340
C3A5
144
0.18
309
CONTENTFORMAT_END
171
     1
301
MARGIN
  1
CELLMARGIN_BEGIN
 40
0.06
 40
0.06
 40
0.06
 40
0.06
 40
0.18
 40
0.18
309
CELLMARGIN_END
 94
        6
 95
        1
302
GRIDFORMAT
  1
GRIDFORMAT_BEGIN
 90
        0
 91
        1
 62
     0
 92
       -2
340
0
 93
        0
 40
0.045
309
GRIDFORMAT_END
 95
        2
302
GRIDFORMAT
  1
GRIDFORMAT_BEGIN
 90
        0
 91
        1
 62
     0
 92
       -2
340
0
 93
        0
 40
0.045
309
GRIDFORMAT_END
 95
        4
302
GRIDFORMAT
  1
GRIDFORMAT_BEGIN
 90
        0
 91
        1
 62
     0
 92
       -2
340
0
 93
        0
 40
0.045
309
GRIDFORMAT_END
 95
        8
302
GRIDFORMAT
  1
GRIDFORMAT_BEGIN
 90
        0
 91
        1
 62
     0
 92
       -2
340
0
 93
        0
 40
0.045
309
GRIDFORMAT_END
 95
       16
302
GRIDFORMAT
  1
GRIDFORMAT_BEGIN
 90
        0
 91
        1
 62
     0
 92
       -2
340
0
 93
        0
 40
0.045
309
GRIDFORMAT_END
 95
       32
302
GRIDFORMAT
  1
GRIDFORMAT_BEGIN
 90
        0
 91
        1
 62
     0
 92
       -2
340
0
 93
        0
 40
0.045
309
GRIDFORMAT_END
309
TABLEFORMAT_END
  1
CELLSTYLE_BEGIN
 90
        3
 91
        2
300
_DATA
309
CELLSTYLE_END
  0
XRECORD
  5
C6DE
102
{ACAD_REACTORS
330
C665
102
}
330
C665
100
AcDbXrecord
280
     1
102
ACAD_ROUNDTRIP_PRE2007_TABLESTYLE
 90
      512
 91
        0
  1

 92
      512
 93
        0
  2

 94
      512
 95
        0
  3

  0
XRECORD
  5
C6B9
102
{ACAD_REACTORS
330
C6B8
102
}
330
C6B8
100
AcDbXrecord
280
     1
102
RTVSPost2010Prop28
280
     1
102
RTVSPost2010PropOp28
 70
     1
102
RTVSPost2010Prop29
280
     1
102
RTVSPost2010PropOp29
 70
     1
102
RTVSPost2010Prop30
280
     0
102
RTVSPost2010PropOp30
 70
     1
102
RTVSPost2010Prop31
280
     0
102
RTVSPost2010PropOp31
 70
     1
102
RTVSPost2010Prop32
280
     0
102
RTVSPost2010PropOp32
 70
     1
102
RTVSPost2010Prop33
280
     0
102
RTVSPost2010PropOp33
 70
     1
102
RTVSPost2010Prop34
280
     0
102
RTVSPost2010PropOp34
 70
     1
102
RTVSPost2010Prop35
280
     0
102
RTVSPost2010PropOp35
 70
     1
102
RTVSPost2010Prop36
280
     0
102
RTVSPost2010PropOp36
 70
     1
102
RTVSPost2010Prop37
 90
       50
102
RTVSPost2010PropOp37
 70
     1
102
RTVSPost2010Prop38
140
0.0
102
RTVSPost2010PropOp38
 70
     1
102
RTVSPost2010Prop39
140
1.0
102
RTVSPost2010PropOp39
 70
     1
102
RTVSPost2010Prop40
 90
        0
102
RTVSPost2010PropOp40
 70
     1
102
RTVSPost2010Prop41ColorIndex
 90
       18
102
RTVSPost2010Prop41ColorRGB
 90
        0
102
RTVSPost2010PropOp41
 70
     1
102
RTVSPost2010Prop42
 90
       50
102
RTVSPost2010PropOp42
 70
     1
102
RTVSPost2010Prop43
 90
        3
102
RTVSPost2010PropOp43
 70
     1
102
RTVSPost2010Prop44ColorIndex
 90
        5
102
RTVSPost2010Prop44ColorRGB
 90
      255
102
RTVSPost2010PropOp44
 70
     1
102
RTVSPost2010Prop45
280
     0
102
RTVSPost2010PropOp45
 70
     1
102
RTVSPost2010Prop46
 90
       50
102
RTVSPost2010PropOp46
 70
     1
102
RTVSPost2010Prop47
 90
       50
102
RTVSPost2010PropOp47
 70
     1
102
RTVSPost2010Prop48
 90
       50
102
RTVSPost2010PropOp48
 70
     1
102
RTVSPost2010Prop49
280
     0
102
RTVSPost2010PropOp49
 70
     1
102
RTVSPost2010Prop50
 90
       50
102
RTVSPost2010PropOp50
 70
     1
102
RTVSPost2010Prop51ColorIndex
 90
      256
102
RTVSPost2010Prop51ColorRGB
 90
-16777216
102
RTVSPost2010PropOp51
 70
     0
102
RTVSPost2010Prop52
140
1.0
102
RTVSPost2010PropOp52
 70
     0
102
RTVSPost2010Prop53
 90
        2
102
RTVSPost2010PropOp53
 70
     1
102
RTVSPost2010Prop54
  1
strokes_ogs.tif
102
RTVSPost2010PropOp54
 70
     1
102
RTVSPost2010Prop55
280
     0
102
RTVSPost2010PropOp55
 70
     1
102
RTVSPost2010Prop56
140
1.0
102
RTVSPost2010PropOp56
 70
     1
102
RTVSPost2010Prop57
140
1.0
102
RTVSPost2010PropOp57
 70
     1
102
RTVSPropertyOp0
 70
     1
102
RTVSPropertyOp1
 70
     1
102
RTVSPropertyOp2
 70
     1
102
RTVSPropertyOp3
 70
     1
102
RTVSPropertyOp4
 70
     1
102
RTVSPropertyOp5
 70
     1
102
RTVSPropertyOp6
 70
     1
102
RTVSPropertyOp7
 70
     1
102
RTVSPropertyOp8
 70
     1
102
RTVSPropertyOp9
 70
     1
102
RTVSPropertyOp10
 70
     1
102
RTVSPropertyOp11
 70
     1
102
RTVSPropertyOp12
 70
     1
102
RTVSPropertyOp13
 70
     1
102
RTVSPropertyOp14
 70
     1
102
RTVSPropertyOp15
 70
     1
102
RTVSPropertyOp16
 70
     1
102
RTVSPropertyOp17
 70
     1
102
RTVSPropertyOp18
 70
     1
102
RTVSPropertyOp19
 70
     1
102
RTVSPropertyOp20
 70
     1
102
RTVSPropertyOp21
 70
     1
102
RTVSPropertyOp22
 70
     1
102
RTVSPropertyOp23
 70
     1
102
RTVSPropertyOp24
 70
     1
102
RTVSPropertyOp25
 70
     1
102
RTVSPropertyOp26
 70
     1
102
RTVSPropertyOp27
 70
     1
102
RTVSPropertyOp28
 70
     1
102
RTVSPropertyOp29
 70
     1
102
RTVSPropertyOp30
 70
     1
102
RTVSPropertyOp31
 70
     1
102
RTVSPropertyOp32
 70
     1
102
RTVSPropertyOp33
 70
     1
102
RTVSPropertyOp34
 70
     1
102
RTVSPropertyOp35
 70
     1
102
RTVSPropertyOp36
 70
     1
102
RTVSPropertyOp37
 70
     1
102
RTVSPropertyOp38
 70
     1
102
RTVSPropertyOp39
 70
     1
102
RTVSPropertyOp40
 70
     1
102
RTVSPropertyOp41
 70
     1
102
RTVSPropertyOp42
 70
     1
102
RTVSPropertyOp43
 70
     1
102
RTVSPropertyOp44
 70
     1
102
RTVSPropertyOp45
 70
     1
102
RTVSPropertyOp46
 70
     1
102
RTVSPropertyOp47
 70
     1
102
RTVSPropertyOp48
 70
     1
102
RTVSPropertyOp49
 70
     1
102
RTVSPropertyOp50
 70
     1
102
RTVSPropertyOp51
 70
     0
102
RTVSPropertyOp52
 70
     0
102
RTVSPropertyOp53
 70
     1
102
RTVSPropertyOp54
 70
     1
102
RTVSPropertyOp55
 70
     1
102
RTVSPropertyOp56
 70
     1
102
RTVSPropertyOp57
 70
     1
102
RTVSPropertyOp58
 70
     1
102
RTVSPropertyOp59
 70
     1
102
RTVSPropertyOp60
 70
     1
102
RTVSPropertyOp61
 70
     1
102
RTVSPropertyOp62
 70
     1
  0
XRECORD
  5
C6B7
102
{ACAD_REACTORS
330
C6B6
102
}
330
C6B6
100
AcDbXrecord
280
     1
102
RTVSPost2010Prop28
280
     0
102
RTVSPost2010PropOp28
 70
     1
102
RTVSPost2010Prop29
280
     1
102
RTVSPost2010PropOp29
 70
     1
102
RTVSPost2010Prop30
280
     1
102
RTVSPost2010PropOp30
 70
     1
102
RTVSPost2010Prop31
280
     0
102
RTVSPost2010PropOp31
 70
     1
102
RTVSPost2010Prop32
280
     0
102
RTVSPost2010PropOp32
 70
     1
102
RTVSPost2010Prop33
280
     0
102
RTVSPost2010PropOp33
 70
     1
102
RTVSPost2010Prop34
280
     0
102
RTVSPost2010PropOp34
 70
     1
102
RTVSPost2010Prop35
280
     0
102
RTVSPost2010PropOp35
 70
     1
102
RTVSPost2010Prop36
280
     0
102
RTVSPost2010PropOp36
 70
     1
102
RTVSPost2010Prop37
 90
       50
102
RTVSPost2010PropOp37
 70
     1
102
RTVSPost2010Prop38
140
0.0
102
RTVSPost2010PropOp38
 70
     1
102
RTVSPost2010Prop39
140
1.0
102
RTVSPost2010PropOp39
 70
     1
102
RTVSPost2010Prop40
 90
        0
102
RTVSPost2010PropOp40
 70
     1
102
RTVSPost2010Prop41ColorIndex
 90
       18
102
RTVSPost2010Prop41ColorRGB
 90
        0
102
RTVSPost2010PropOp41
 70
     1
102
RTVSPost2010Prop42
 90
       50
102
RTVSPost2010PropOp42
 70
     1
102
RTVSPost2010Prop43
 90
        3
102
RTVSPost2010PropOp43
 70
     1
102
RTVSPost2010Prop44ColorIndex
 90
        5
102
RTVSPost2010Prop44ColorRGB
 90
      255
102
RTVSPost2010PropOp44
 70
     1
102
RTVSPost2010Prop45
280
     0
102
RTVSPost2010PropOp45
 70
     1
102
RTVSPost2010Prop46
 90
       50
102
RTVSPost2010PropOp46
 70
     1
102
RTVSPost2010Prop47
 90
       50
102
RTVSPost2010PropOp47
 70
     1
102
RTVSPost2010Prop48
 90
       50
102
RTVSPost2010PropOp48
 70
     1
102
RTVSPost2010Prop49
280
     0
102
RTVSPost2010PropOp49
 70
     1
102
RTVSPost2010Prop50
 90
       50
102
RTVSPost2010PropOp50
 70
     1
102
RTVSPost2010Prop51ColorIndex
 90
      256
102
RTVSPost2010Prop51ColorRGB
 90
-16777216
102
RTVSPost2010PropOp51
 70
     0
102
RTVSPost2010Prop52
140
1.0
102
RTVSPost2010PropOp52
 70
     0
102
RTVSPost2010Prop53
 90
        2
102
RTVSPost2010PropOp53
 70
     1
102
RTVSPost2010Prop54
  1
strokes_ogs.tif
102
RTVSPost2010PropOp54
 70
     1
102
RTVSPost2010Prop55
280
     0
102
RTVSPost2010PropOp55
 70
     1
102
RTVSPost2010Prop56
140
1.0
102
RTVSPost2010PropOp56
 70
     1
102
RTVSPost2010Prop57
140
1.0
102
RTVSPost2010PropOp57
 70
     1
102
RTVSPropertyOp0
 70
     1
102
RTVSPropertyOp1
 70
     1
102
RTVSPropertyOp2
 70
     1
102
RTVSPropertyOp3
 70
     1
102
RTVSPropertyOp4
 70
     1
102
RTVSPropertyOp5
 70
     1
102
RTVSPropertyOp6
 70
     1
102
RTVSPropertyOp7
 70
     1
102
RTVSPropertyOp8
 70
     1
102
RTVSPropertyOp9
 70
     1
102
RTVSPropertyOp10
 70
     1
102
RTVSPropertyOp11
 70
     1
102
RTVSPropertyOp12
 70
     1
102
RTVSPropertyOp13
 70
     1
102
RTVSPropertyOp14
 70
     1
102
RTVSPropertyOp15
 70
     1
102
RTVSPropertyOp16
 70
     1
102
RTVSPropertyOp17
 70
     1
102
RTVSPropertyOp18
 70
     1
102
RTVSPropertyOp19
 70
     1
102
RTVSPropertyOp20
 70
     1
102
RTVSPropertyOp21
 70
     1
102
RTVSPropertyOp22
 70
     1
102
RTVSPropertyOp23
 70
     1
102
RTVSPropertyOp24
 70
     1
102
RTVSPropertyOp25
 70
     1
102
RTVSPropertyOp26
 70
     1
102
RTVSPropertyOp27
 70
     1
102
RTVSPropertyOp28
 70
     1
102
RTVSPropertyOp29
 70
     1
102
RTVSPropertyOp30
 70
     1
102
RTVSPropertyOp31
 70
     1
102
RTVSPropertyOp32
 70
     1
102
RTVSPropertyOp33
 70
     1
102
RTVSPropertyOp34
 70
     1
102
RTVSPropertyOp35
 70
     1
102
RTVSPropertyOp36
 70
     1
102
RTVSPropertyOp37
 70
     1
102
RTVSPropertyOp38
 70
     1
102
RTVSPropertyOp39
 70
     1
102
RTVSPropertyOp40
 70
     1
102
RTVSPropertyOp41
 70
     1
102
RTVSPropertyOp42
 70
     1
102
RTVSPropertyOp43
 70
     1
102
RTVSPropertyOp44
 70
     1
102
RTVSPropertyOp45
 70
     1
102
RTVSPropertyOp46
 70
     1
102
RTVSPropertyOp47
 70
     1
102
RTVSPropertyOp48
 70
     1
102
RTVSPropertyOp49
 70
     1
102
RTVSPropertyOp50
 70
     1
102
RTVSPropertyOp51
 70
     0
102
RTVSPropertyOp52
 70
     0
102
RTVSPropertyOp53
 70
     1
102
RTVSPropertyOp54
 70
     1
102
RTVSPropertyOp55
 70
     1
102
RTVSPropertyOp56
 70
     1
102
RTVSPropertyOp57
 70
     1
102
RTVSPropertyOp58
 70
     1
102
RTVSPropertyOp59
 70
     1
102
RTVSPropertyOp60
 70
     1
102
RTVSPropertyOp61
 70
     1
102
RTVSPropertyOp62
 70
     1
  0
XRECORD
  5
C6C5
102
{ACAD_REACTORS
330
C6C4
102
}
330
C6C4
100
AcDbXrecord
280
     1
102
RTVSPost2010Prop28
280
     0
102
RTVSPost2010PropOp28
 70
     1
102
RTVSPost2010Prop29
280
     1
102
RTVSPost2010PropOp29
 70
     1
102
RTVSPost2010Prop30
280
     1
102
RTVSPost2010PropOp30
 70
     1
102
RTVSPost2010Prop31
280
     0
102
RTVSPost2010PropOp31
 70
     1
102
RTVSPost2010Prop32
280
     0
102
RTVSPost2010PropOp32
 70
     1
102
RTVSPost2010Prop33
280
     0
102
RTVSPost2010PropOp33
 70
     1
102
RTVSPost2010Prop34
280
     0
102
RTVSPost2010PropOp34
 70
     1
102
RTVSPost2010Prop35
280
     0
102
RTVSPost2010PropOp35
 70
     1
102
RTVSPost2010Prop36
280
     0
102
RTVSPost2010PropOp36
 70
     1
102
RTVSPost2010Prop37
 90
       50
102
RTVSPost2010PropOp37
 70
     1
102
RTVSPost2010Prop38
140
0.0
102
RTVSPost2010PropOp38
 70
     1
102
RTVSPost2010Prop39
140
1.0
102
RTVSPost2010PropOp39
 70
     1
102
RTVSPost2010Prop40
 90
        0
102
RTVSPost2010PropOp40
 70
     1
102
RTVSPost2010Prop41ColorIndex
 90
       18
102
RTVSPost2010Prop41ColorRGB
 90
        0
102
RTVSPost2010PropOp41
 70
     1
102
RTVSPost2010Prop42
 90
       50
102
RTVSPost2010PropOp42
 70
     1
102
RTVSPost2010Prop43
 90
        3
102
RTVSPost2010PropOp43
 70
     1
102
RTVSPost2010Prop44ColorIndex
 90
        5
102
RTVSPost2010Prop44ColorRGB
 90
      255
102
RTVSPost2010PropOp44
 70
     1
102
RTVSPost2010Prop45
280
     0
102
RTVSPost2010PropOp45
 70
     1
102
RTVSPost2010Prop46
 90
       50
102
RTVSPost2010PropOp46
 70
     1
102
RTVSPost2010Prop47
 90
       50
102
RTVSPost2010PropOp47
 70
     1
102
RTVSPost2010Prop48
 90
       50
102
RTVSPost2010PropOp48
 70
     1
102
RTVSPost2010Prop49
280
     0
102
RTVSPost2010PropOp49
 70
     1
102
RTVSPost2010Prop50
 90
       50
102
RTVSPost2010PropOp50
 70
     1
102
RTVSPost2010Prop51ColorIndex
 90
      256
102
RTVSPost2010Prop51ColorRGB
 90
-16777216
102
RTVSPost2010PropOp51
 70
     0
102
RTVSPost2010Prop52
140
1.0
102
RTVSPost2010PropOp52
 70
     0
102
RTVSPost2010Prop53
 90
        2
102
RTVSPost2010PropOp53
 70
     1
102
RTVSPost2010Prop54
  1
strokes_ogs.tif
102
RTVSPost2010PropOp54
 70
     1
102
RTVSPost2010Prop55
280
     0
102
RTVSPost2010PropOp55
 70
     1
102
RTVSPost2010Prop56
140
1.0
102
RTVSPost2010PropOp56
 70
     1
102
RTVSPost2010Prop57
140
1.0
102
RTVSPost2010PropOp57
 70
     1
102
RTVSPropertyOp0
 70
     1
102
RTVSPropertyOp1
 70
     1
102
RTVSPropertyOp2
 70
     1
102
RTVSPropertyOp3
 70
     1
102
RTVSPropertyOp4
 70
     1
102
RTVSPropertyOp5
 70
     1
102
RTVSPropertyOp6
 70
     1
102
RTVSPropertyOp7
 70
     1
102
RTVSPropertyOp8
 70
     1
102
RTVSPropertyOp9
 70
     1
102
RTVSPropertyOp10
 70
     1
102
RTVSPropertyOp11
 70
     1
102
RTVSPropertyOp12
 70
     1
102
RTVSPropertyOp13
 70
     1
102
RTVSPropertyOp14
 70
     1
102
RTVSPropertyOp15
 70
     1
102
RTVSPropertyOp16
 70
     1
102
RTVSPropertyOp17
 70
     1
102
RTVSPropertyOp18
 70
     1
102
RTVSPropertyOp19
 70
     1
102
RTVSPropertyOp20
 70
     1
102
RTVSPropertyOp21
 70
     1
102
RTVSPropertyOp22
 70
     1
102
RTVSPropertyOp23
 70
     1
102
RTVSPropertyOp24
 70
     1
102
RTVSPropertyOp25
 70
     1
102
RTVSPropertyOp26
 70
     1
102
RTVSPropertyOp27
 70
     1
102
RTVSPropertyOp28
 70
     1
102
RTVSPropertyOp29
 70
     1
102
RTVSPropertyOp30
 70
     1
102
RTVSPropertyOp31
 70
     1
102
RTVSPropertyOp32
 70
     1
102
RTVSPropertyOp33
 70
     1
102
RTVSPropertyOp34
 70
     1
102
RTVSPropertyOp35
 70
     1
102
RTVSPropertyOp36
 70
     1
102
RTVSPropertyOp37
 70
     1
102
RTVSPropertyOp38
 70
     1
102
RTVSPropertyOp39
 70
     1
102
RTVSPropertyOp40
 70
     1
102
RTVSPropertyOp41
 70
     1
102
RTVSPropertyOp42
 70
     1
102
RTVSPropertyOp43
 70
     1
102
RTVSPropertyOp44
 70
     1
102
RTVSPropertyOp45
 70
     1
102
RTVSPropertyOp46
 70
     1
102
RTVSPropertyOp47
 70
     1
102
RTVSPropertyOp48
 70
     1
102
RTVSPropertyOp49
 70
     1
102
RTVSPropertyOp50
 70
     1
102
RTVSPropertyOp51
 70
     0
102
RTVSPropertyOp52
 70
     0
102
RTVSPropertyOp53
 70
     1
102
RTVSPropertyOp54
 70
     1
102
RTVSPropertyOp55
 70
     1
102
RTVSPropertyOp56
 70
     1
102
RTVSPropertyOp57
 70
     1
102
RTVSPropertyOp58
 70
     1
102
RTVSPropertyOp59
 70
     1
102
RTVSPropertyOp60
 70
     1
102
RTVSPropertyOp61
 70
     1
102
RTVSPropertyOp62
 70
     1
  0
XRECORD
  5
C6CD
102
{ACAD_REACTORS
330
C6CC
102
}
330
C6CC
100
AcDbXrecord
280
     1
102
RTVSPost2010Prop28
280
     0
102
RTVSPost2010PropOp28
 70
     1
102
RTVSPost2010Prop29
280
     1
102
RTVSPost2010PropOp29
 70
     1
102
RTVSPost2010Prop30
280
     1
102
RTVSPost2010PropOp30
 70
     1
102
RTVSPost2010Prop31
280
     0
102
RTVSPost2010PropOp31
 70
     1
102
RTVSPost2010Prop32
280
     0
102
RTVSPost2010PropOp32
 70
     1
102
RTVSPost2010Prop33
280
     0
102
RTVSPost2010PropOp33
 70
     1
102
RTVSPost2010Prop34
280
     0
102
RTVSPost2010PropOp34
 70
     1
102
RTVSPost2010Prop35
280
     0
102
RTVSPost2010PropOp35
 70
     1
102
RTVSPost2010Prop36
280
     0
102
RTVSPost2010PropOp36
 70
     1
102
RTVSPost2010Prop37
 90
       50
102
RTVSPost2010PropOp37
 70
     1
102
RTVSPost2010Prop38
140
0.0
102
RTVSPost2010PropOp38
 70
     1
102
RTVSPost2010Prop39
140
1.0
102
RTVSPost2010PropOp39
 70
     1
102
RTVSPost2010Prop40
 90
        0
102
RTVSPost2010PropOp40
 70
     1
102
RTVSPost2010Prop41ColorIndex
 90
       18
102
RTVSPost2010Prop41ColorRGB
 90
        0
102
RTVSPost2010PropOp41
 70
     1
102
RTVSPost2010Prop42
 90
       50
102
RTVSPost2010PropOp42
 70
     1
102
RTVSPost2010Prop43
 90
        3
102
RTVSPost2010PropOp43
 70
     1
102
RTVSPost2010Prop44ColorIndex
 90
        5
102
RTVSPost2010Prop44ColorRGB
 90
      255
102
RTVSPost2010PropOp44
 70
     1
102
RTVSPost2010Prop45
280
     0
102
RTVSPost2010PropOp45
 70
     1
102
RTVSPost2010Prop46
 90
       50
102
RTVSPost2010PropOp46
 70
     1
102
RTVSPost2010Prop47
 90
       50
102
RTVSPost2010PropOp47
 70
     1
102
RTVSPost2010Prop48
 90
       50
102
RTVSPost2010PropOp48
 70
     1
102
RTVSPost2010Prop49
280
     0
102
RTVSPost2010PropOp49
 70
     1
102
RTVSPost2010Prop50
 90
       50
102
RTVSPost2010PropOp50
 70
     1
102
RTVSPost2010Prop51ColorIndex
 90
      256
102
RTVSPost2010Prop51ColorRGB
 90
-16777216
102
RTVSPost2010PropOp51
 70
     0
102
RTVSPost2010Prop52
140
1.0
102
RTVSPost2010PropOp52
 70
     0
102
RTVSPost2010Prop53
 90
        2
102
RTVSPost2010PropOp53
 70
     1
102
RTVSPost2010Prop54
  1
strokes_ogs.tif
102
RTVSPost2010PropOp54
 70
     1
102
RTVSPost2010Prop55
280
     0
102
RTVSPost2010PropOp55
 70
     1
102
RTVSPost2010Prop56
140
1.0
102
RTVSPost2010PropOp56
 70
     1
102
RTVSPost2010Prop57
140
1.0
102
RTVSPost2010PropOp57
 70
     1
102
RTVSPropertyOp0
 70
     1
102
RTVSPropertyOp1
 70
     1
102
RTVSPropertyOp2
 70
     1
102
RTVSPropertyOp3
 70
     1
102
RTVSPropertyOp4
 70
     1
102
RTVSPropertyOp5
 70
     1
102
RTVSPropertyOp6
 70
     1
102
RTVSPropertyOp7
 70
     1
102
RTVSPropertyOp8
 70
     1
102
RTVSPropertyOp9
 70
     1
102
RTVSPropertyOp10
 70
     1
102
RTVSPropertyOp11
 70
     1
102
RTVSPropertyOp12
 70
     1
102
RTVSPropertyOp13
 70
     1
102
RTVSPropertyOp14
 70
     1
102
RTVSPropertyOp15
 70
     1
102
RTVSPropertyOp16
 70
     1
102
RTVSPropertyOp17
 70
     1
102
RTVSPropertyOp18
 70
     1
102
RTVSPropertyOp19
 70
     1
102
RTVSPropertyOp20
 70
     1
102
RTVSPropertyOp21
 70
     1
102
RTVSPropertyOp22
 70
     1
102
RTVSPropertyOp23
 70
     1
102
RTVSPropertyOp24
 70
     1
102
RTVSPropertyOp25
 70
     1
102
RTVSPropertyOp26
 70
     1
102
RTVSPropertyOp27
 70
     1
102
RTVSPropertyOp28
 70
     1
102
RTVSPropertyOp29
 70
     1
102
RTVSPropertyOp30
 70
     1
102
RTVSPropertyOp31
 70
     1
102
RTVSPropertyOp32
 70
     1
102
RTVSPropertyOp33
 70
     1
102
RTVSPropertyOp34
 70
     1
102
RTVSPropertyOp35
 70
     1
102
RTVSPropertyOp36
 70
     1
102
RTVSPropertyOp37
 70
     1
102
RTVSPropertyOp38
 70
     1
102
RTVSPropertyOp39
 70
     1
102
RTVSPropertyOp40
 70
     1
102
RTVSPropertyOp41
 70
     1
102
RTVSPropertyOp42
 70
     1
102
RTVSPropertyOp43
 70
     1
102
RTVSPropertyOp44
 70
     1
102
RTVSPropertyOp45
 70
     1
102
RTVSPropertyOp46
 70
     1
102
RTVSPropertyOp47
 70
     1
102
RTVSPropertyOp48
 70
     1
102
RTVSPropertyOp49
 70
     1
102
RTVSPropertyOp50
 70
     1
102
RTVSPropertyOp51
 70
     0
102
RTVSPropertyOp52
 70
     0
102
RTVSPropertyOp53
 70
     1
102
RTVSPropertyOp54
 70
     1
102
RTVSPropertyOp55
 70
     1
102
RTVSPropertyOp56
 70
     1
102
RTVSPropertyOp57
 70
     1
102
RTVSPropertyOp58
 70
     1
102
RTVSPropertyOp59
 70
     1
102
RTVSPropertyOp60
 70
     1
102
RTVSPropertyOp61
 70
     1
102
RTVSPropertyOp62
 70
     1
  0
XRECORD
  5
C6BF
102
{ACAD_REACTORS
330
C6BE
102
}
330
C6BE
100
AcDbXrecord
280
     1
102
RTVSPost2010Prop28
280
     0
102
RTVSPost2010PropOp28
 70
     1
102
RTVSPost2010Prop29
280
     1
102
RTVSPost2010PropOp29
 70
     1
102
RTVSPost2010Prop30
280
     1
102
RTVSPost2010PropOp30
 70
     1
102
RTVSPost2010Prop31
280
     0
102
RTVSPost2010PropOp31
 70
     1
102
RTVSPost2010Prop32
280
     0
102
RTVSPost2010PropOp32
 70
     1
102
RTVSPost2010Prop33
280
     0
102
RTVSPost2010PropOp33
 70
     1
102
RTVSPost2010Prop34
280
     0
102
RTVSPost2010PropOp34
 70
     1
102
RTVSPost2010Prop35
280
     0
102
RTVSPost2010PropOp35
 70
     1
102
RTVSPost2010Prop36
280
     0
102
RTVSPost2010PropOp36
 70
     1
102
RTVSPost2010Prop37
 90
       50
102
RTVSPost2010PropOp37
 70
     1
102
RTVSPost2010Prop38
140
0.0
102
RTVSPost2010PropOp38
 70
     1
102
RTVSPost2010Prop39
140
1.0
102
RTVSPost2010PropOp39
 70
     1
102
RTVSPost2010Prop40
 90
        0
102
RTVSPost2010PropOp40
 70
     1
102
RTVSPost2010Prop41ColorIndex
 90
       18
102
RTVSPost2010Prop41ColorRGB
 90
        0
102
RTVSPost2010PropOp41
 70
     1
102
RTVSPost2010Prop42
 90
       50
102
RTVSPost2010PropOp42
 70
     1
102
RTVSPost2010Prop43
 90
        3
102
RTVSPost2010PropOp43
 70
     1
102
RTVSPost2010Prop44ColorIndex
 90
        5
102
RTVSPost2010Prop44ColorRGB
 90
      255
102
RTVSPost2010PropOp44
 70
     1
102
RTVSPost2010Prop45
280
     0
102
RTVSPost2010PropOp45
 70
     1
102
RTVSPost2010Prop46
 90
       50
102
RTVSPost2010PropOp46
 70
     1
102
RTVSPost2010Prop47
 90
       50
102
RTVSPost2010PropOp47
 70
     1
102
RTVSPost2010Prop48
 90
       50
102
RTVSPost2010PropOp48
 70
     1
102
RTVSPost2010Prop49
280
     0
102
RTVSPost2010PropOp49
 70
     1
102
RTVSPost2010Prop50
 90
       50
102
RTVSPost2010PropOp50
 70
     1
102
RTVSPost2010Prop51ColorIndex
 90
      256
102
RTVSPost2010Prop51ColorRGB
 90
-16777216
102
RTVSPost2010PropOp51
 70
     0
102
RTVSPost2010Prop52
140
1.0
102
RTVSPost2010PropOp52
 70
     0
102
RTVSPost2010Prop53
 90
        2
102
RTVSPost2010PropOp53
 70
     1
102
RTVSPost2010Prop54
  1
strokes_ogs.tif
102
RTVSPost2010PropOp54
 70
     1
102
RTVSPost2010Prop55
280
     0
102
RTVSPost2010PropOp55
 70
     1
102
RTVSPost2010Prop56
140
1.0
102
RTVSPost2010PropOp56
 70
     1
102
RTVSPost2010Prop57
140
1.0
102
RTVSPost2010PropOp57
 70
     1
102
RTVSPropertyOp0
 70
     1
102
RTVSPropertyOp1
 70
     1
102
RTVSPropertyOp2
 70
     1
102
RTVSPropertyOp3
 70
     1
102
RTVSPropertyOp4
 70
     1
102
RTVSPropertyOp5
 70
     1
102
RTVSPropertyOp6
 70
     1
102
RTVSPropertyOp7
 70
     1
102
RTVSPropertyOp8
 70
     1
102
RTVSPropertyOp9
 70
     1
102
RTVSPropertyOp10
 70
     1
102
RTVSPropertyOp11
 70
     1
102
RTVSPropertyOp12
 70
     1
102
RTVSPropertyOp13
 70
     1
102
RTVSPropertyOp14
 70
     1
102
RTVSPropertyOp15
 70
     1
102
RTVSPropertyOp16
 70
     1
102
RTVSPropertyOp17
 70
     1
102
RTVSPropertyOp18
 70
     1
102
RTVSPropertyOp19
 70
     1
102
RTVSPropertyOp20
 70
     1
102
RTVSPropertyOp21
 70
     1
102
RTVSPropertyOp22
 70
     1
102
RTVSPropertyOp23
 70
     1
102
RTVSPropertyOp24
 70
     1
102
RTVSPropertyOp25
 70
     1
102
RTVSPropertyOp26
 70
     1
102
RTVSPropertyOp27
 70
     1
102
RTVSPropertyOp28
 70
     1
102
RTVSPropertyOp29
 70
     1
102
RTVSPropertyOp30
 70
     1
102
RTVSPropertyOp31
 70
     1
102
RTVSPropertyOp32
 70
     1
102
RTVSPropertyOp33
 70
     1
102
RTVSPropertyOp34
 70
     1
102
RTVSPropertyOp35
 70
     1
102
RTVSPropertyOp36
 70
     1
102
RTVSPropertyOp37
 70
     1
102
RTVSPropertyOp38
 70
     1
102
RTVSPropertyOp39
 70
     1
102
RTVSPropertyOp40
 70
     1
102
RTVSPropertyOp41
 70
     1
102
RTVSPropertyOp42
 70
     1
102
RTVSPropertyOp43
 70
     1
102
RTVSPropertyOp44
 70
     1
102
RTVSPropertyOp45
 70
     1
102
RTVSPropertyOp46
 70
     1
102
RTVSPropertyOp47
 70
     1
102
RTVSPropertyOp48
 70
     1
102
RTVSPropertyOp49
 70
     1
102
RTVSPropertyOp50
 70
     1
102
RTVSPropertyOp51
 70
     0
102
RTVSPropertyOp52
 70
     0
102
RTVSPropertyOp53
 70
     1
102
RTVSPropertyOp54
 70
     1
102
RTVSPropertyOp55
 70
     1
102
RTVSPropertyOp56
 70
     1
102
RTVSPropertyOp57
 70
     1
102
RTVSPropertyOp58
 70
     1
102
RTVSPropertyOp59
 70
     1
102
RTVSPropertyOp60
 70
     1
102
RTVSPropertyOp61
 70
     1
102
RTVSPropertyOp62
 70
     1
  0
XRECORD
  5
C6C3
102
{ACAD_REACTORS
330
C6C2
102
}
330
C6C2
100
AcDbXrecord
280
     1
102
RTVSPost2010Prop28
280
     0
102
RTVSPost2010PropOp28
 70
     1
102
RTVSPost2010Prop29
280
     1
102
RTVSPost2010PropOp29
 70
     1
102
RTVSPost2010Prop30
280
     1
102
RTVSPost2010PropOp30
 70
     1
102
RTVSPost2010Prop31
280
     0
102
RTVSPost2010PropOp31
 70
     1
102
RTVSPost2010Prop32
280
     0
102
RTVSPost2010PropOp32
 70
     1
102
RTVSPost2010Prop33
280
     0
102
RTVSPost2010PropOp33
 70
     1
102
RTVSPost2010Prop34
280
     0
102
RTVSPost2010PropOp34
 70
     1
102
RTVSPost2010Prop35
280
     0
102
RTVSPost2010PropOp35
 70
     1
102
RTVSPost2010Prop36
280
     0
102
RTVSPost2010PropOp36
 70
     1
102
RTVSPost2010Prop37
 90
       50
102
RTVSPost2010PropOp37
 70
     1
102
RTVSPost2010Prop38
140
0.0
102
RTVSPost2010PropOp38
 70
     1
102
RTVSPost2010Prop39
140
1.0
102
RTVSPost2010PropOp39
 70
     1
102
RTVSPost2010Prop40
 90
        0
102
RTVSPost2010PropOp40
 70
     1
102
RTVSPost2010Prop41ColorIndex
 90
       18
102
RTVSPost2010Prop41ColorRGB
 90
        0
102
RTVSPost2010PropOp41
 70
     1
102
RTVSPost2010Prop42
 90
       50
102
RTVSPost2010PropOp42
 70
     1
102
RTVSPost2010Prop43
 90
        3
102
RTVSPost2010PropOp43
 70
     1
102
RTVSPost2010Prop44ColorIndex
 90
        5
102
RTVSPost2010Prop44ColorRGB
 90
      255
102
RTVSPost2010PropOp44
 70
     1
102
RTVSPost2010Prop45
280
     0
102
RTVSPost2010PropOp45
 70
     1
102
RTVSPost2010Prop46
 90
       50
102
RTVSPost2010PropOp46
 70
     1
102
RTVSPost2010Prop47
 90
       50
102
RTVSPost2010PropOp47
 70
     1
102
RTVSPost2010Prop48
 90
       50
102
RTVSPost2010PropOp48
 70
     1
102
RTVSPost2010Prop49
280
     0
102
RTVSPost2010PropOp49
 70
     1
102
RTVSPost2010Prop50
 90
       50
102
RTVSPost2010PropOp50
 70
     1
102
RTVSPost2010Prop51ColorIndex
 90
      256
102
RTVSPost2010Prop51ColorRGB
 90
-16777216
102
RTVSPost2010PropOp51
 70
     0
102
RTVSPost2010Prop52
140
1.0
102
RTVSPost2010PropOp52
 70
     0
102
RTVSPost2010Prop53
 90
        2
102
RTVSPost2010PropOp53
 70
     1
102
RTVSPost2010Prop54
  1
strokes_ogs.tif
102
RTVSPost2010PropOp54
 70
     1
102
RTVSPost2010Prop55
280
     0
102
RTVSPost2010PropOp55
 70
     1
102
RTVSPost2010Prop56
140
1.0
102
RTVSPost2010PropOp56
 70
     1
102
RTVSPost2010Prop57
140
1.0
102
RTVSPost2010PropOp57
 70
     1
102
RTVSPropertyOp0
 70
     1
102
RTVSPropertyOp1
 70
     1
102
RTVSPropertyOp2
 70
     1
102
RTVSPropertyOp3
 70
     1
102
RTVSPropertyOp4
 70
     1
102
RTVSPropertyOp5
 70
     1
102
RTVSPropertyOp6
 70
     1
102
RTVSPropertyOp7
 70
     1
102
RTVSPropertyOp8
 70
     1
102
RTVSPropertyOp9
 70
     1
102
RTVSPropertyOp10
 70
     1
102
RTVSPropertyOp11
 70
     1
102
RTVSPropertyOp12
 70
     1
102
RTVSPropertyOp13
 70
     1
102
RTVSPropertyOp14
 70
     1
102
RTVSPropertyOp15
 70
     1
102
RTVSPropertyOp16
 70
     1
102
RTVSPropertyOp17
 70
     1
102
RTVSPropertyOp18
 70
     1
102
RTVSPropertyOp19
 70
     1
102
RTVSPropertyOp20
 70
     1
102
RTVSPropertyOp21
 70
     1
102
RTVSPropertyOp22
 70
     1
102
RTVSPropertyOp23
 70
     1
102
RTVSPropertyOp24
 70
     1
102
RTVSPropertyOp25
 70
     1
102
RTVSPropertyOp26
 70
     1
102
RTVSPropertyOp27
 70
     1
102
RTVSPropertyOp28
 70
     1
102
RTVSPropertyOp29
 70
     1
102
RTVSPropertyOp30
 70
     1
102
RTVSPropertyOp31
 70
     1
102
RTVSPropertyOp32
 70
     1
102
RTVSPropertyOp33
 70
     1
102
RTVSPropertyOp34
 70
     1
102
RTVSPropertyOp35
 70
     1
102
RTVSPropertyOp36
 70
     1
102
RTVSPropertyOp37
 70
     1
102
RTVSPropertyOp38
 70
     1
102
RTVSPropertyOp39
 70
     1
102
RTVSPropertyOp40
 70
     1
102
RTVSPropertyOp41
 70
     1
102
RTVSPropertyOp42
 70
     1
102
RTVSPropertyOp43
 70
     1
102
RTVSPropertyOp44
 70
     1
102
RTVSPropertyOp45
 70
     1
102
RTVSPropertyOp46
 70
     1
102
RTVSPropertyOp47
 70
     1
102
RTVSPropertyOp48
 70
     1
102
RTVSPropertyOp49
 70
     1
102
RTVSPropertyOp50
 70
     1
102
RTVSPropertyOp51
 70
     0
102
RTVSPropertyOp52
 70
     0
102
RTVSPropertyOp53
 70
     1
102
RTVSPropertyOp54
 70
     1
102
RTVSPropertyOp55
 70
     1
102
RTVSPropertyOp56
 70
     1
102
RTVSPropertyOp57
 70
     1
102
RTVSPropertyOp58
 70
     1
102
RTVSPropertyOp59
 70
     1
102
RTVSPropertyOp60
 70
     1
102
RTVSPropertyOp61
 70
     1
102
RTVSPropertyOp62
 70
     1
  0
XRECORD
  5
C6DD
102
{ACAD_REACTORS
330
C6DC
102
}
330
C6DC
100
AcDbXrecord
280
     1
102
RTVSPost2010Prop28
280
     0
102
RTVSPost2010PropOp28
 70
     1
102
RTVSPost2010Prop29
280
     1
102
RTVSPost2010PropOp29
 70
     1
102
RTVSPost2010Prop30
280
     1
102
RTVSPost2010PropOp30
 70
     1
102
RTVSPost2010Prop31
280
     0
102
RTVSPost2010PropOp31
 70
     1
102
RTVSPost2010Prop32
280
     0
102
RTVSPost2010PropOp32
 70
     1
102
RTVSPost2010Prop33
280
     0
102
RTVSPost2010PropOp33
 70
     1
102
RTVSPost2010Prop34
280
     0
102
RTVSPost2010PropOp34
 70
     1
102
RTVSPost2010Prop35
280
     0
102
RTVSPost2010PropOp35
 70
     1
102
RTVSPost2010Prop36
280
     0
102
RTVSPost2010PropOp36
 70
     1
102
RTVSPost2010Prop37
 90
       50
102
RTVSPost2010PropOp37
 70
     0
102
RTVSPost2010Prop38
140
0.0
102
RTVSPost2010PropOp38
 70
     0
102
RTVSPost2010Prop39
140
1.0
102
RTVSPost2010PropOp39
 70
     0
102
RTVSPost2010Prop40
 90
        0
102
RTVSPost2010PropOp40
 70
     0
102
RTVSPost2010Prop41ColorIndex
 90
       18
102
RTVSPost2010Prop41ColorRGB
 90
        0
102
RTVSPost2010PropOp41
 70
     0
102
RTVSPost2010Prop42
 90
       50
102
RTVSPost2010PropOp42
 70
     0
102
RTVSPost2010Prop43
 90
        3
102
RTVSPost2010PropOp43
 70
     0
102
RTVSPost2010Prop44ColorIndex
 90
        5
102
RTVSPost2010Prop44ColorRGB
 90
      255
102
RTVSPost2010PropOp44
 70
     0
102
RTVSPost2010Prop45
280
     0
102
RTVSPost2010PropOp45
 70
     1
102
RTVSPost2010Prop46
 90
       50
102
RTVSPost2010PropOp46
 70
     0
102
RTVSPost2010Prop47
 90
       50
102
RTVSPost2010PropOp47
 70
     0
102
RTVSPost2010Prop48
 90
       50
102
RTVSPost2010PropOp48
 70
     0
102
RTVSPost2010Prop49
280
     0
102
RTVSPost2010PropOp49
 70
     1
102
RTVSPost2010Prop50
 90
       50
102
RTVSPost2010PropOp50
 70
     0
102
RTVSPost2010Prop51ColorIndex
 90
      256
102
RTVSPost2010Prop51ColorRGB
 90
-16777216
102
RTVSPost2010PropOp51
 70
     0
102
RTVSPost2010Prop52
140
1.0
102
RTVSPost2010PropOp52
 70
     0
102
RTVSPost2010Prop53
 90
        2
102
RTVSPost2010PropOp53
 70
     0
102
RTVSPost2010Prop54
  1
strokes_ogs.tif
102
RTVSPost2010PropOp54
 70
     0
102
RTVSPost2010Prop55
280
     0
102
RTVSPost2010PropOp55
 70
     1
102
RTVSPost2010Prop56
140
1.0
102
RTVSPost2010PropOp56
 70
     0
102
RTVSPost2010Prop57
140
1.0
102
RTVSPost2010PropOp57
 70
     0
102
RTVSPropertyOp0
 70
     0
102
RTVSPropertyOp1
 70
     0
102
RTVSPropertyOp2
 70
     0
102
RTVSPropertyOp3
 70
     0
102
RTVSPropertyOp4
 70
     0
102
RTVSPropertyOp5
 70
     0
102
RTVSPropertyOp6
 70
     0
102
RTVSPropertyOp7
 70
     0
102
RTVSPropertyOp8
 70
     0
102
RTVSPropertyOp9
 70
     0
102
RTVSPropertyOp10
 70
     0
102
RTVSPropertyOp11
 70
     0
102
RTVSPropertyOp12
 70
     0
102
RTVSPropertyOp13
 70
     0
102
RTVSPropertyOp14
 70
     2
102
RTVSPropertyOp15
 70
     0
102
RTVSPropertyOp16
 70
     0
102
RTVSPropertyOp17
 70
     0
102
RTVSPropertyOp18
 70
     0
102
RTVSPropertyOp19
 70
     0
102
RTVSPropertyOp20
 70
     0
102
RTVSPropertyOp21
 70
     0
102
RTVSPropertyOp22
 70
     0
102
RTVSPropertyOp23
 70
     0
102
RTVSPropertyOp24
 70
     0
102
RTVSPropertyOp25
 70
     0
102
RTVSPropertyOp26
 70
     0
102
RTVSPropertyOp27
 70
     0
102
RTVSPropertyOp28
 70
     1
102
RTVSPropertyOp29
 70
     1
102
RTVSPropertyOp30
 70
     1
102
RTVSPropertyOp31
 70
     1
102
RTVSPropertyOp32
 70
     1
102
RTVSPropertyOp33
 70
     1
102
RTVSPropertyOp34
 70
     1
102
RTVSPropertyOp35
 70
     1
102
RTVSPropertyOp36
 70
     1
102
RTVSPropertyOp37
 70
     0
102
RTVSPropertyOp38
 70
     0
102
RTVSPropertyOp39
 70
     0
102
RTVSPropertyOp40
 70
     0
102
RTVSPropertyOp41
 70
     0
102
RTVSPropertyOp42
 70
     0
102
RTVSPropertyOp43
 70
     0
102
RTVSPropertyOp44
 70
     0
102
RTVSPropertyOp45
 70
     1
102
RTVSPropertyOp46
 70
     0
102
RTVSPropertyOp47
 70
     0
102
RTVSPropertyOp48
 70
     0
102
RTVSPropertyOp49
 70
     1
102
RTVSPropertyOp50
 70
     0
102
RTVSPropertyOp51
 70
     0
102
RTVSPropertyOp52
 70
     0
102
RTVSPropertyOp53
 70
     0
102
RTVSPropertyOp54
 70
     0
102
RTVSPropertyOp55
 70
     1
102
RTVSPropertyOp56
 70
     0
102
RTVSPropertyOp57
 70
     0
102
RTVSPropertyOp58
 70
     0
102
RTVSPropertyOp59
 70
     0
102
RTVSPropertyOp60
 70
     0
102
RTVSPropertyOp61
 70
     0
102
RTVSPropertyOp62
 70
     0
  0
XRECORD
  5
C6CB
102
{ACAD_REACTORS
330
C6CA
102
}
330
C6CA
100
AcDbXrecord
280
     1
102
RTVSPost2010Prop28
280
     0
102
RTVSPost2010PropOp28
 70
     1
102
RTVSPost2010Prop29
280
     1
102
RTVSPost2010PropOp29
 70
     1
102
RTVSPost2010Prop30
280
     1
102
RTVSPost2010PropOp30
 70
     1
102
RTVSPost2010Prop31
280
     0
102
RTVSPost2010PropOp31
 70
     1
102
RTVSPost2010Prop32
280
     0
102
RTVSPost2010PropOp32
 70
     1
102
RTVSPost2010Prop33
280
     0
102
RTVSPost2010PropOp33
 70
     1
102
RTVSPost2010Prop34
280
     0
102
RTVSPost2010PropOp34
 70
     1
102
RTVSPost2010Prop35
280
     0
102
RTVSPost2010PropOp35
 70
     1
102
RTVSPost2010Prop36
280
     0
102
RTVSPost2010PropOp36
 70
     1
102
RTVSPost2010Prop37
 90
       50
102
RTVSPost2010PropOp37
 70
     1
102
RTVSPost2010Prop38
140
0.0
102
RTVSPost2010PropOp38
 70
     1
102
RTVSPost2010Prop39
140
1.0
102
RTVSPost2010PropOp39
 70
     1
102
RTVSPost2010Prop40
 90
        0
102
RTVSPost2010PropOp40
 70
     1
102
RTVSPost2010Prop41ColorIndex
 90
       18
102
RTVSPost2010Prop41ColorRGB
 90
        0
102
RTVSPost2010PropOp41
 70
     1
102
RTVSPost2010Prop42
 90
       50
102
RTVSPost2010PropOp42
 70
     1
102
RTVSPost2010Prop43
 90
        3
102
RTVSPost2010PropOp43
 70
     1
102
RTVSPost2010Prop44ColorIndex
 90
        5
102
RTVSPost2010Prop44ColorRGB
 90
      255
102
RTVSPost2010PropOp44
 70
     1
102
RTVSPost2010Prop45
280
     0
102
RTVSPost2010PropOp45
 70
     1
102
RTVSPost2010Prop46
 90
       50
102
RTVSPost2010PropOp46
 70
     1
102
RTVSPost2010Prop47
 90
       50
102
RTVSPost2010PropOp47
 70
     1
102
RTVSPost2010Prop48
 90
       50
102
RTVSPost2010PropOp48
 70
     1
102
RTVSPost2010Prop49
280
     0
102
RTVSPost2010PropOp49
 70
     1
102
RTVSPost2010Prop50
 90
       50
102
RTVSPost2010PropOp50
 70
     1
102
RTVSPost2010Prop51ColorIndex
 90
      256
102
RTVSPost2010Prop51ColorRGB
 90
-16777216
102
RTVSPost2010PropOp51
 70
     0
102
RTVSPost2010Prop52
140
1.0
102
RTVSPost2010PropOp52
 70
     0
102
RTVSPost2010Prop53
 90
        2
102
RTVSPost2010PropOp53
 70
     1
102
RTVSPost2010Prop54
  1
strokes_ogs.tif
102
RTVSPost2010PropOp54
 70
     1
102
RTVSPost2010Prop55
280
     0
102
RTVSPost2010PropOp55
 70
     1
102
RTVSPost2010Prop56
140
1.0
102
RTVSPost2010PropOp56
 70
     1
102
RTVSPost2010Prop57
140
1.0
102
RTVSPost2010PropOp57
 70
     1
102
RTVSPropertyOp0
 70
     1
102
RTVSPropertyOp1
 70
     1
102
RTVSPropertyOp2
 70
     1
102
RTVSPropertyOp3
 70
     1
102
RTVSPropertyOp4
 70
     1
102
RTVSPropertyOp5
 70
     1
102
RTVSPropertyOp6
 70
     1
102
RTVSPropertyOp7
 70
     1
102
RTVSPropertyOp8
 70
     1
102
RTVSPropertyOp9
 70
     1
102
RTVSPropertyOp10
 70
     1
102
RTVSPropertyOp11
 70
     1
102
RTVSPropertyOp12
 70
     1
102
RTVSPropertyOp13
 70
     1
102
RTVSPropertyOp14
 70
     1
102
RTVSPropertyOp15
 70
     1
102
RTVSPropertyOp16
 70
     1
102
RTVSPropertyOp17
 70
     1
102
RTVSPropertyOp18
 70
     1
102
RTVSPropertyOp19
 70
     1
102
RTVSPropertyOp20
 70
     1
102
RTVSPropertyOp21
 70
     1
102
RTVSPropertyOp22
 70
     1
102
RTVSPropertyOp23
 70
     1
102
RTVSPropertyOp24
 70
     1
102
RTVSPropertyOp25
 70
     1
102
RTVSPropertyOp26
 70
     1
102
RTVSPropertyOp27
 70
     1
102
RTVSPropertyOp28
 70
     1
102
RTVSPropertyOp29
 70
     1
102
RTVSPropertyOp30
 70
     1
102
RTVSPropertyOp31
 70
     1
102
RTVSPropertyOp32
 70
     1
102
RTVSPropertyOp33
 70
     1
102
RTVSPropertyOp34
 70
     1
102
RTVSPropertyOp35
 70
     1
102
RTVSPropertyOp36
 70
     1
102
RTVSPropertyOp37
 70
     1
102
RTVSPropertyOp38
 70
     1
102
RTVSPropertyOp39
 70
     1
102
RTVSPropertyOp40
 70
     1
102
RTVSPropertyOp41
 70
     1
102
RTVSPropertyOp42
 70
     1
102
RTVSPropertyOp43
 70
     1
102
RTVSPropertyOp44
 70
     1
102
RTVSPropertyOp45
 70
     1
102
RTVSPropertyOp46
 70
     1
102
RTVSPropertyOp47
 70
     1
102
RTVSPropertyOp48
 70
     1
102
RTVSPropertyOp49
 70
     1
102
RTVSPropertyOp50
 70
     1
102
RTVSPropertyOp51
 70
     0
102
RTVSPropertyOp52
 70
     0
102
RTVSPropertyOp53
 70
     1
102
RTVSPropertyOp54
 70
     1
102
RTVSPropertyOp55
 70
     1
102
RTVSPropertyOp56
 70
     1
102
RTVSPropertyOp57
 70
     1
102
RTVSPropertyOp58
 70
     1
102
RTVSPropertyOp59
 70
     1
102
RTVSPropertyOp60
 70
     1
102
RTVSPropertyOp61
 70
     1
102
RTVSPropertyOp62
 70
     1
  0
XRECORD
  5
C6AF
102
{ACAD_REACTORS
330
C6AE
102
}
330
C6AE
100
AcDbXrecord
280
     1
102
RTVSPost2010Prop28
280
     0
102
RTVSPost2010PropOp28
 70
     1
102
RTVSPost2010Prop29
280
     1
102
RTVSPost2010PropOp29
 70
     1
102
RTVSPost2010Prop30
280
     1
102
RTVSPost2010PropOp30
 70
     1
102
RTVSPost2010Prop31
280
     0
102
RTVSPost2010PropOp31
 70
     1
102
RTVSPost2010Prop32
280
     0
102
RTVSPost2010PropOp32
 70
     1
102
RTVSPost2010Prop33
280
     0
102
RTVSPost2010PropOp33
 70
     1
102
RTVSPost2010Prop34
280
     0
102
RTVSPost2010PropOp34
 70
     1
102
RTVSPost2010Prop35
280
     0
102
RTVSPost2010PropOp35
 70
     1
102
RTVSPost2010Prop36
280
     0
102
RTVSPost2010PropOp36
 70
     1
102
RTVSPost2010Prop37
 90
       50
102
RTVSPost2010PropOp37
 70
     1
102
RTVSPost2010Prop38
140
0.0
102
RTVSPost2010PropOp38
 70
     1
102
RTVSPost2010Prop39
140
1.0
102
RTVSPost2010PropOp39
 70
     1
102
RTVSPost2010Prop40
 90
        0
102
RTVSPost2010PropOp40
 70
     1
102
RTVSPost2010Prop41ColorIndex
 90
       18
102
RTVSPost2010Prop41ColorRGB
 90
        0
102
RTVSPost2010PropOp41
 70
     1
102
RTVSPost2010Prop42
 90
       50
102
RTVSPost2010PropOp42
 70
     1
102
RTVSPost2010Prop43
 90
        3
102
RTVSPost2010PropOp43
 70
     1
102
RTVSPost2010Prop44ColorIndex
 90
        5
102
RTVSPost2010Prop44ColorRGB
 90
      255
102
RTVSPost2010PropOp44
 70
     1
102
RTVSPost2010Prop45
280
     0
102
RTVSPost2010PropOp45
 70
     1
102
RTVSPost2010Prop46
 90
       50
102
RTVSPost2010PropOp46
 70
     1
102
RTVSPost2010Prop47
 90
       50
102
RTVSPost2010PropOp47
 70
     1
102
RTVSPost2010Prop48
 90
       50
102
RTVSPost2010PropOp48
 70
     1
102
RTVSPost2010Prop49
280
     0
102
RTVSPost2010PropOp49
 70
     1
102
RTVSPost2010Prop50
 90
       50
102
RTVSPost2010PropOp50
 70
     1
102
RTVSPost2010Prop51ColorIndex
 90
      256
102
RTVSPost2010Prop51ColorRGB
 90
-16777216
102
RTVSPost2010PropOp51
 70
     0
102
RTVSPost2010Prop52
140
1.0
102
RTVSPost2010PropOp52
 70
     0
102
RTVSPost2010Prop53
 90
        2
102
RTVSPost2010PropOp53
 70
     1
102
RTVSPost2010Prop54
  1
strokes_ogs.tif
102
RTVSPost2010PropOp54
 70
     1
102
RTVSPost2010Prop55
280
     0
102
RTVSPost2010PropOp55
 70
     1
102
RTVSPost2010Prop56
140
1.0
102
RTVSPost2010PropOp56
 70
     1
102
RTVSPost2010Prop57
140
1.0
102
RTVSPost2010PropOp57
 70
     1
102
RTVSPropertyOp0
 70
     1
102
RTVSPropertyOp1
 70
     1
102
RTVSPropertyOp2
 70
     1
102
RTVSPropertyOp3
 70
     1
102
RTVSPropertyOp4
 70
     1
102
RTVSPropertyOp5
 70
     1
102
RTVSPropertyOp6
 70
     1
102
RTVSPropertyOp7
 70
     1
102
RTVSPropertyOp8
 70
     1
102
RTVSPropertyOp9
 70
     1
102
RTVSPropertyOp10
 70
     1
102
RTVSPropertyOp11
 70
     1
102
RTVSPropertyOp12
 70
     1
102
RTVSPropertyOp13
 70
     1
102
RTVSPropertyOp14
 70
     1
102
RTVSPropertyOp15
 70
     1
102
RTVSPropertyOp16
 70
     1
102
RTVSPropertyOp17
 70
     1
102
RTVSPropertyOp18
 70
     1
102
RTVSPropertyOp19
 70
     1
102
RTVSPropertyOp20
 70
     1
102
RTVSPropertyOp21
 70
     1
102
RTVSPropertyOp22
 70
     1
102
RTVSPropertyOp23
 70
     1
102
RTVSPropertyOp24
 70
     1
102
RTVSPropertyOp25
 70
     1
102
RTVSPropertyOp26
 70
     1
102
RTVSPropertyOp27
 70
     1
102
RTVSPropertyOp28
 70
     1
102
RTVSPropertyOp29
 70
     1
102
RTVSPropertyOp30
 70
     1
102
RTVSPropertyOp31
 70
     1
102
RTVSPropertyOp32
 70
     1
102
RTVSPropertyOp33
 70
     1
102
RTVSPropertyOp34
 70
     1
102
RTVSPropertyOp35
 70
     1
102
RTVSPropertyOp36
 70
     1
102
RTVSPropertyOp37
 70
     1
102
RTVSPropertyOp38
 70
     1
102
RTVSPropertyOp39
 70
     1
102
RTVSPropertyOp40
 70
     1
102
RTVSPropertyOp41
 70
     1
102
RTVSPropertyOp42
 70
     1
102
RTVSPropertyOp43
 70
     1
102
RTVSPropertyOp44
 70
     1
102
RTVSPropertyOp45
 70
     1
102
RTVSPropertyOp46
 70
     1
102
RTVSPropertyOp47
 70
     1
102
RTVSPropertyOp48
 70
     1
102
RTVSPropertyOp49
 70
     1
102
RTVSPropertyOp50
 70
     1
102
RTVSPropertyOp51
 70
     0
102
RTVSPropertyOp52
 70
     0
102
RTVSPropertyOp53
 70
     1
102
RTVSPropertyOp54
 70
     1
102
RTVSPropertyOp55
 70
     1
102
RTVSPropertyOp56
 70
     1
102
RTVSPropertyOp57
 70
     1
102
RTVSPropertyOp58
 70
     1
102
RTVSPropertyOp59
 70
     1
102
RTVSPropertyOp60
 70
     1
102
RTVSPropertyOp61
 70
     1
102
RTVSPropertyOp62
 70
     1
  0
XRECORD
  5
C6B1
102
{ACAD_REACTORS
330
C6B0
102
}
330
C6B0
100
AcDbXrecord
280
     1
102
RTVSPost2010Prop28
280
     0
102
RTVSPost2010PropOp28
 70
     1
102
RTVSPost2010Prop29
280
     1
102
RTVSPost2010PropOp29
 70
     1
102
RTVSPost2010Prop30
280
     1
102
RTVSPost2010PropOp30
 70
     1
102
RTVSPost2010Prop31
280
     0
102
RTVSPost2010PropOp31
 70
     1
102
RTVSPost2010Prop32
280
     0
102
RTVSPost2010PropOp32
 70
     1
102
RTVSPost2010Prop33
280
     0
102
RTVSPost2010PropOp33
 70
     1
102
RTVSPost2010Prop34
280
     0
102
RTVSPost2010PropOp34
 70
     1
102
RTVSPost2010Prop35
280
     0
102
RTVSPost2010PropOp35
 70
     1
102
RTVSPost2010Prop36
280
     0
102
RTVSPost2010PropOp36
 70
     1
102
RTVSPost2010Prop37
 90
       50
102
RTVSPost2010PropOp37
 70
     1
102
RTVSPost2010Prop38
140
0.0
102
RTVSPost2010PropOp38
 70
     1
102
RTVSPost2010Prop39
140
1.0
102
RTVSPost2010PropOp39
 70
     1
102
RTVSPost2010Prop40
 90
        0
102
RTVSPost2010PropOp40
 70
     1
102
RTVSPost2010Prop41ColorIndex
 90
       18
102
RTVSPost2010Prop41ColorRGB
 90
        0
102
RTVSPost2010PropOp41
 70
     1
102
RTVSPost2010Prop42
 90
       50
102
RTVSPost2010PropOp42
 70
     1
102
RTVSPost2010Prop43
 90
        3
102
RTVSPost2010PropOp43
 70
     1
102
RTVSPost2010Prop44ColorIndex
 90
        5
102
RTVSPost2010Prop44ColorRGB
 90
      255
102
RTVSPost2010PropOp44
 70
     1
102
RTVSPost2010Prop45
280
     0
102
RTVSPost2010PropOp45
 70
     1
102
RTVSPost2010Prop46
 90
       50
102
RTVSPost2010PropOp46
 70
     1
102
RTVSPost2010Prop47
 90
       50
102
RTVSPost2010PropOp47
 70
     1
102
RTVSPost2010Prop48
 90
       50
102
RTVSPost2010PropOp48
 70
     1
102
RTVSPost2010Prop49
280
     0
102
RTVSPost2010PropOp49
 70
     1
102
RTVSPost2010Prop50
 90
       50
102
RTVSPost2010PropOp50
 70
     1
102
RTVSPost2010Prop51ColorIndex
 90
      256
102
RTVSPost2010Prop51ColorRGB
 90
-16777216
102
RTVSPost2010PropOp51
 70
     0
102
RTVSPost2010Prop52
140
1.0
102
RTVSPost2010PropOp52
 70
     0
102
RTVSPost2010Prop53
 90
        2
102
RTVSPost2010PropOp53
 70
     1
102
RTVSPost2010Prop54
  1
strokes_ogs.tif
102
RTVSPost2010PropOp54
 70
     1
102
RTVSPost2010Prop55
280
     0
102
RTVSPost2010PropOp55
 70
     1
102
RTVSPost2010Prop56
140
1.0
102
RTVSPost2010PropOp56
 70
     1
102
RTVSPost2010Prop57
140
1.0
102
RTVSPost2010PropOp57
 70
     1
102
RTVSPropertyOp0
 70
     1
102
RTVSPropertyOp1
 70
     1
102
RTVSPropertyOp2
 70
     1
102
RTVSPropertyOp3
 70
     1
102
RTVSPropertyOp4
 70
     1
102
RTVSPropertyOp5
 70
     1
102
RTVSPropertyOp6
 70
     1
102
RTVSPropertyOp7
 70
     1
102
RTVSPropertyOp8
 70
     1
102
RTVSPropertyOp9
 70
     1
102
RTVSPropertyOp10
 70
     1
102
RTVSPropertyOp11
 70
     1
102
RTVSPropertyOp12
 70
     1
102
RTVSPropertyOp13
 70
     1
102
RTVSPropertyOp14
 70
     1
102
RTVSPropertyOp15
 70
     1
102
RTVSPropertyOp16
 70
     1
102
RTVSPropertyOp17
 70
     1
102
RTVSPropertyOp18
 70
     1
102
RTVSPropertyOp19
 70
     1
102
RTVSPropertyOp20
 70
     1
102
RTVSPropertyOp21
 70
     1
102
RTVSPropertyOp22
 70
     1
102
RTVSPropertyOp23
 70
     1
102
RTVSPropertyOp24
 70
     1
102
RTVSPropertyOp25
 70
     1
102
RTVSPropertyOp26
 70
     1
102
RTVSPropertyOp27
 70
     1
102
RTVSPropertyOp28
 70
     1
102
RTVSPropertyOp29
 70
     1
102
RTVSPropertyOp30
 70
     1
102
RTVSPropertyOp31
 70
     1
102
RTVSPropertyOp32
 70
     1
102
RTVSPropertyOp33
 70
     1
102
RTVSPropertyOp34
 70
     1
102
RTVSPropertyOp35
 70
     1
102
RTVSPropertyOp36
 70
     1
102
RTVSPropertyOp37
 70
     1
102
RTVSPropertyOp38
 70
     1
102
RTVSPropertyOp39
 70
     1
102
RTVSPropertyOp40
 70
     1
102
RTVSPropertyOp41
 70
     1
102
RTVSPropertyOp42
 70
     1
102
RTVSPropertyOp43
 70
     1
102
RTVSPropertyOp44
 70
     1
102
RTVSPropertyOp45
 70
     1
102
RTVSPropertyOp46
 70
     1
102
RTVSPropertyOp47
 70
     1
102
RTVSPropertyOp48
 70
     1
102
RTVSPropertyOp49
 70
     1
102
RTVSPropertyOp50
 70
     1
102
RTVSPropertyOp51
 70
     0
102
RTVSPropertyOp52
 70
     0
102
RTVSPropertyOp53
 70
     1
102
RTVSPropertyOp54
 70
     1
102
RTVSPropertyOp55
 70
     1
102
RTVSPropertyOp56
 70
     1
102
RTVSPropertyOp57
 70
     1
102
RTVSPropertyOp58
 70
     1
102
RTVSPropertyOp59
 70
     1
102
RTVSPropertyOp60
 70
     1
102
RTVSPropertyOp61
 70
     1
102
RTVSPropertyOp62
 70
     1
  0
XRECORD
  5
C6B3
102
{ACAD_REACTORS
330
C6B2
102
}
330
C6B2
100
AcDbXrecord
280
     1
102
RTVSPost2010Prop28
280
     0
102
RTVSPost2010PropOp28
 70
     1
102
RTVSPost2010Prop29
280
     1
102
RTVSPost2010PropOp29
 70
     1
102
RTVSPost2010Prop30
280
     1
102
RTVSPost2010PropOp30
 70
     1
102
RTVSPost2010Prop31
280
     0
102
RTVSPost2010PropOp31
 70
     1
102
RTVSPost2010Prop32
280
     0
102
RTVSPost2010PropOp32
 70
     1
102
RTVSPost2010Prop33
280
     0
102
RTVSPost2010PropOp33
 70
     1
102
RTVSPost2010Prop34
280
     0
102
RTVSPost2010PropOp34
 70
     1
102
RTVSPost2010Prop35
280
     0
102
RTVSPost2010PropOp35
 70
     1
102
RTVSPost2010Prop36
280
     0
102
RTVSPost2010PropOp36
 70
     1
102
RTVSPost2010Prop37
 90
       50
102
RTVSPost2010PropOp37
 70
     1
102
RTVSPost2010Prop38
140
0.0
102
RTVSPost2010PropOp38
 70
     1
102
RTVSPost2010Prop39
140
1.0
102
RTVSPost2010PropOp39
 70
     1
102
RTVSPost2010Prop40
 90
        0
102
RTVSPost2010PropOp40
 70
     1
102
RTVSPost2010Prop41ColorIndex
 90
       18
102
RTVSPost2010Prop41ColorRGB
 90
        0
102
RTVSPost2010PropOp41
 70
     1
102
RTVSPost2010Prop42
 90
       50
102
RTVSPost2010PropOp42
 70
     1
102
RTVSPost2010Prop43
 90
        3
102
RTVSPost2010PropOp43
 70
     1
102
RTVSPost2010Prop44ColorIndex
 90
        5
102
RTVSPost2010Prop44ColorRGB
 90
      255
102
RTVSPost2010PropOp44
 70
     1
102
RTVSPost2010Prop45
280
     0
102
RTVSPost2010PropOp45
 70
     1
102
RTVSPost2010Prop46
 90
       50
102
RTVSPost2010PropOp46
 70
     1
102
RTVSPost2010Prop47
 90
       50
102
RTVSPost2010PropOp47
 70
     1
102
RTVSPost2010Prop48
 90
       50
102
RTVSPost2010PropOp48
 70
     1
102
RTVSPost2010Prop49
280
     0
102
RTVSPost2010PropOp49
 70
     1
102
RTVSPost2010Prop50
 90
       50
102
RTVSPost2010PropOp50
 70
     1
102
RTVSPost2010Prop51ColorIndex
 90
      256
102
RTVSPost2010Prop51ColorRGB
 90
-16777216
102
RTVSPost2010PropOp51
 70
     0
102
RTVSPost2010Prop52
140
1.0
102
RTVSPost2010PropOp52
 70
     0
102
RTVSPost2010Prop53
 90
        2
102
RTVSPost2010PropOp53
 70
     1
102
RTVSPost2010Prop54
  1
strokes_ogs.tif
102
RTVSPost2010PropOp54
 70
     1
102
RTVSPost2010Prop55
280
     0
102
RTVSPost2010PropOp55
 70
     1
102
RTVSPost2010Prop56
140
1.0
102
RTVSPost2010PropOp56
 70
     1
102
RTVSPost2010Prop57
140
1.0
102
RTVSPost2010PropOp57
 70
     1
102
RTVSPropertyOp0
 70
     1
102
RTVSPropertyOp1
 70
     1
102
RTVSPropertyOp2
 70
     1
102
RTVSPropertyOp3
 70
     1
102
RTVSPropertyOp4
 70
     1
102
RTVSPropertyOp5
 70
     1
102
RTVSPropertyOp6
 70
     1
102
RTVSPropertyOp7
 70
     1
102
RTVSPropertyOp8
 70
     1
102
RTVSPropertyOp9
 70
     1
102
RTVSPropertyOp10
 70
     1
102
RTVSPropertyOp11
 70
     1
102
RTVSPropertyOp12
 70
     1
102
RTVSPropertyOp13
 70
     1
102
RTVSPropertyOp14
 70
     1
102
RTVSPropertyOp15
 70
     1
102
RTVSPropertyOp16
 70
     1
102
RTVSPropertyOp17
 70
     1
102
RTVSPropertyOp18
 70
     1
102
RTVSPropertyOp19
 70
     1
102
RTVSPropertyOp20
 70
     1
102
RTVSPropertyOp21
 70
     1
102
RTVSPropertyOp22
 70
     1
102
RTVSPropertyOp23
 70
     1
102
RTVSPropertyOp24
 70
     1
102
RTVSPropertyOp25
 70
     1
102
RTVSPropertyOp26
 70
     1
102
RTVSPropertyOp27
 70
     1
102
RTVSPropertyOp28
 70
     1
102
RTVSPropertyOp29
 70
     1
102
RTVSPropertyOp30
 70
     1
102
RTVSPropertyOp31
 70
     1
102
RTVSPropertyOp32
 70
     1
102
RTVSPropertyOp33
 70
     1
102
RTVSPropertyOp34
 70
     1
102
RTVSPropertyOp35
 70
     1
102
RTVSPropertyOp36
 70
     1
102
RTVSPropertyOp37
 70
     1
102
RTVSPropertyOp38
 70
     1
102
RTVSPropertyOp39
 70
     1
102
RTVSPropertyOp40
 70
     1
102
RTVSPropertyOp41
 70
     1
102
RTVSPropertyOp42
 70
     1
102
RTVSPropertyOp43
 70
     1
102
RTVSPropertyOp44
 70
     1
102
RTVSPropertyOp45
 70
     1
102
RTVSPropertyOp46
 70
     1
102
RTVSPropertyOp47
 70
     1
102
RTVSPropertyOp48
 70
     1
102
RTVSPropertyOp49
 70
     1
102
RTVSPropertyOp50
 70
     1
102
RTVSPropertyOp51
 70
     0
102
RTVSPropertyOp52
 70
     0
102
RTVSPropertyOp53
 70
     1
102
RTVSPropertyOp54
 70
     1
102
RTVSPropertyOp55
 70
     1
102
RTVSPropertyOp56
 70
     1
102
RTVSPropertyOp57
 70
     1
102
RTVSPropertyOp58
 70
     1
102
RTVSPropertyOp59
 70
     1
102
RTVSPropertyOp60
 70
     1
102
RTVSPropertyOp61
 70
     1
102
RTVSPropertyOp62
 70
     1
  0
XRECORD
  5
C6B5
102
{ACAD_REACTORS
330
C6B4
102
}
330
C6B4
100
AcDbXrecord
280
     1
102
RTVSPost2010Prop28
280
     0
102
RTVSPost2010PropOp28
 70
     1
102
RTVSPost2010Prop29
280
     1
102
RTVSPost2010PropOp29
 70
     1
102
RTVSPost2010Prop30
280
     1
102
RTVSPost2010PropOp30
 70
     1
102
RTVSPost2010Prop31
280
     0
102
RTVSPost2010PropOp31
 70
     1
102
RTVSPost2010Prop32
280
     0
102
RTVSPost2010PropOp32
 70
     1
102
RTVSPost2010Prop33
280
     0
102
RTVSPost2010PropOp33
 70
     1
102
RTVSPost2010Prop34
280
     0
102
RTVSPost2010PropOp34
 70
     1
102
RTVSPost2010Prop35
280
     0
102
RTVSPost2010PropOp35
 70
     1
102
RTVSPost2010Prop36
280
     0
102
RTVSPost2010PropOp36
 70
     1
102
RTVSPost2010Prop37
 90
       50
102
RTVSPost2010PropOp37
 70
     1
102
RTVSPost2010Prop38
140
0.0
102
RTVSPost2010PropOp38
 70
     1
102
RTVSPost2010Prop39
140
1.0
102
RTVSPost2010PropOp39
 70
     1
102
RTVSPost2010Prop40
 90
        0
102
RTVSPost2010PropOp40
 70
     1
102
RTVSPost2010Prop41ColorIndex
 90
       18
102
RTVSPost2010Prop41ColorRGB
 90
        0
102
RTVSPost2010PropOp41
 70
     1
102
RTVSPost2010Prop42
 90
       50
102
RTVSPost2010PropOp42
 70
     1
102
RTVSPost2010Prop43
 90
        3
102
RTVSPost2010PropOp43
 70
     1
102
RTVSPost2010Prop44ColorIndex
 90
        5
102
RTVSPost2010Prop44ColorRGB
 90
      255
102
RTVSPost2010PropOp44
 70
     1
102
RTVSPost2010Prop45
280
     0
102
RTVSPost2010PropOp45
 70
     1
102
RTVSPost2010Prop46
 90
       50
102
RTVSPost2010PropOp46
 70
     1
102
RTVSPost2010Prop47
 90
       50
102
RTVSPost2010PropOp47
 70
     1
102
RTVSPost2010Prop48
 90
       50
102
RTVSPost2010PropOp48
 70
     1
102
RTVSPost2010Prop49
280
     0
102
RTVSPost2010PropOp49
 70
     1
102
RTVSPost2010Prop50
 90
       50
102
RTVSPost2010PropOp50
 70
     1
102
RTVSPost2010Prop51ColorIndex
 90
      256
102
RTVSPost2010Prop51ColorRGB
 90
-16777216
102
RTVSPost2010PropOp51
 70
     0
102
RTVSPost2010Prop52
140
1.0
102
RTVSPost2010PropOp52
 70
     0
102
RTVSPost2010Prop53
 90
        2
102
RTVSPost2010PropOp53
 70
     1
102
RTVSPost2010Prop54
  1
strokes_ogs.tif
102
RTVSPost2010PropOp54
 70
     1
102
RTVSPost2010Prop55
280
     0
102
RTVSPost2010PropOp55
 70
     1
102
RTVSPost2010Prop56
140
1.0
102
RTVSPost2010PropOp56
 70
     1
102
RTVSPost2010Prop57
140
1.0
102
RTVSPost2010PropOp57
 70
     1
102
RTVSPropertyOp0
 70
     1
102
RTVSPropertyOp1
 70
     1
102
RTVSPropertyOp2
 70
     1
102
RTVSPropertyOp3
 70
     1
102
RTVSPropertyOp4
 70
     1
102
RTVSPropertyOp5
 70
     1
102
RTVSPropertyOp6
 70
     1
102
RTVSPropertyOp7
 70
     1
102
RTVSPropertyOp8
 70
     1
102
RTVSPropertyOp9
 70
     1
102
RTVSPropertyOp10
 70
     1
102
RTVSPropertyOp11
 70
     1
102
RTVSPropertyOp12
 70
     1
102
RTVSPropertyOp13
 70
     1
102
RTVSPropertyOp14
 70
     1
102
RTVSPropertyOp15
 70
     1
102
RTVSPropertyOp16
 70
     1
102
RTVSPropertyOp17
 70
     1
102
RTVSPropertyOp18
 70
     1
102
RTVSPropertyOp19
 70
     1
102
RTVSPropertyOp20
 70
     1
102
RTVSPropertyOp21
 70
     1
102
RTVSPropertyOp22
 70
     1
102
RTVSPropertyOp23
 70
     1
102
RTVSPropertyOp24
 70
     1
102
RTVSPropertyOp25
 70
     1
102
RTVSPropertyOp26
 70
     1
102
RTVSPropertyOp27
 70
     1
102
RTVSPropertyOp28
 70
     1
102
RTVSPropertyOp29
 70
     1
102
RTVSPropertyOp30
 70
     1
102
RTVSPropertyOp31
 70
     1
102
RTVSPropertyOp32
 70
     1
102
RTVSPropertyOp33
 70
     1
102
RTVSPropertyOp34
 70
     1
102
RTVSPropertyOp35
 70
     1
102
RTVSPropertyOp36
 70
     1
102
RTVSPropertyOp37
 70
     1
102
RTVSPropertyOp38
 70
     1
102
RTVSPropertyOp39
 70
     1
102
RTVSPropertyOp40
 70
     1
102
RTVSPropertyOp41
 70
     1
102
RTVSPropertyOp42
 70
     1
102
RTVSPropertyOp43
 70
     1
102
RTVSPropertyOp44
 70
     1
102
RTVSPropertyOp45
 70
     1
102
RTVSPropertyOp46
 70
     1
102
RTVSPropertyOp47
 70
     1
102
RTVSPropertyOp48
 70
     1
102
RTVSPropertyOp49
 70
     1
102
RTVSPropertyOp50
 70
     1
102
RTVSPropertyOp51
 70
     0
102
RTVSPropertyOp52
 70
     0
102
RTVSPropertyOp53
 70
     1
102
RTVSPropertyOp54
 70
     1
102
RTVSPropertyOp55
 70
     1
102
RTVSPropertyOp56
 70
     1
102
RTVSPropertyOp57
 70
     1
102
RTVSPropertyOp58
 70
     1
102
RTVSPropertyOp59
 70
     1
102
RTVSPropertyOp60
 70
     1
102
RTVSPropertyOp61
 70
     1
102
RTVSPropertyOp62
 70
     1
  0
XRECORD
  5
C6BD
102
{ACAD_REACTORS
330
C6BC
102
}
330
C6BC
100
AcDbXrecord
280
     1
102
RTVSPost2010Prop28
280
     0
102
RTVSPost2010PropOp28
 70
     1
102
RTVSPost2010Prop29
280
     1
102
RTVSPost2010PropOp29
 70
     1
102
RTVSPost2010Prop30
280
     1
102
RTVSPost2010PropOp30
 70
     1
102
RTVSPost2010Prop31
280
     0
102
RTVSPost2010PropOp31
 70
     1
102
RTVSPost2010Prop32
280
     0
102
RTVSPost2010PropOp32
 70
     1
102
RTVSPost2010Prop33
280
     0
102
RTVSPost2010PropOp33
 70
     1
102
RTVSPost2010Prop34
280
     0
102
RTVSPost2010PropOp34
 70
     1
102
RTVSPost2010Prop35
280
     0
102
RTVSPost2010PropOp35
 70
     1
102
RTVSPost2010Prop36
280
     0
102
RTVSPost2010PropOp36
 70
     1
102
RTVSPost2010Prop37
 90
       50
102
RTVSPost2010PropOp37
 70
     1
102
RTVSPost2010Prop38
140
0.0
102
RTVSPost2010PropOp38
 70
     1
102
RTVSPost2010Prop39
140
1.0
102
RTVSPost2010PropOp39
 70
     1
102
RTVSPost2010Prop40
 90
        0
102
RTVSPost2010PropOp40
 70
     1
102
RTVSPost2010Prop41ColorIndex
 90
       18
102
RTVSPost2010Prop41ColorRGB
 90
        0
102
RTVSPost2010PropOp41
 70
     1
102
RTVSPost2010Prop42
 90
       50
102
RTVSPost2010PropOp42
 70
     1
102
RTVSPost2010Prop43
 90
        3
102
RTVSPost2010PropOp43
 70
     1
102
RTVSPost2010Prop44ColorIndex
 90
        5
102
RTVSPost2010Prop44ColorRGB
 90
      255
102
RTVSPost2010PropOp44
 70
     1
102
RTVSPost2010Prop45
280
     0
102
RTVSPost2010PropOp45
 70
     1
102
RTVSPost2010Prop46
 90
       50
102
RTVSPost2010PropOp46
 70
     1
102
RTVSPost2010Prop47
 90
       50
102
RTVSPost2010PropOp47
 70
     1
102
RTVSPost2010Prop48
 90
       50
102
RTVSPost2010PropOp48
 70
     1
102
RTVSPost2010Prop49
280
     0
102
RTVSPost2010PropOp49
 70
     1
102
RTVSPost2010Prop50
 90
       50
102
RTVSPost2010PropOp50
 70
     1
102
RTVSPost2010Prop51ColorIndex
 90
      256
102
RTVSPost2010Prop51ColorRGB
 90
-16777216
102
RTVSPost2010PropOp51
 70
     0
102
RTVSPost2010Prop52
140
1.0
102
RTVSPost2010PropOp52
 70
     0
102
RTVSPost2010Prop53
 90
        2
102
RTVSPost2010PropOp53
 70
     1
102
RTVSPost2010Prop54
  1
strokes_ogs.tif
102
RTVSPost2010PropOp54
 70
     1
102
RTVSPost2010Prop55
280
     0
102
RTVSPost2010PropOp55
 70
     1
102
RTVSPost2010Prop56
140
1.0
102
RTVSPost2010PropOp56
 70
     1
102
RTVSPost2010Prop57
140
1.0
102
RTVSPost2010PropOp57
 70
     1
102
RTVSPropertyOp0
 70
     1
102
RTVSPropertyOp1
 70
     1
102
RTVSPropertyOp2
 70
     1
102
RTVSPropertyOp3
 70
     1
102
RTVSPropertyOp4
 70
     1
102
RTVSPropertyOp5
 70
     1
102
RTVSPropertyOp6
 70
     1
102
RTVSPropertyOp7
 70
     1
102
RTVSPropertyOp8
 70
     1
102
RTVSPropertyOp9
 70
     1
102
RTVSPropertyOp10
 70
     1
102
RTVSPropertyOp11
 70
     1
102
RTVSPropertyOp12
 70
     1
102
RTVSPropertyOp13
 70
     1
102
RTVSPropertyOp14
 70
     1
102
RTVSPropertyOp15
 70
     1
102
RTVSPropertyOp16
 70
     1
102
RTVSPropertyOp17
 70
     1
102
RTVSPropertyOp18
 70
     1
102
RTVSPropertyOp19
 70
     1
102
RTVSPropertyOp20
 70
     1
102
RTVSPropertyOp21
 70
     1
102
RTVSPropertyOp22
 70
     1
102
RTVSPropertyOp23
 70
     1
102
RTVSPropertyOp24
 70
     1
102
RTVSPropertyOp25
 70
     1
102
RTVSPropertyOp26
 70
     1
102
RTVSPropertyOp27
 70
     1
102
RTVSPropertyOp28
 70
     1
102
RTVSPropertyOp29
 70
     1
102
RTVSPropertyOp30
 70
     1
102
RTVSPropertyOp31
 70
     1
102
RTVSPropertyOp32
 70
     1
102
RTVSPropertyOp33
 70
     1
102
RTVSPropertyOp34
 70
     1
102
RTVSPropertyOp35
 70
     1
102
RTVSPropertyOp36
 70
     1
102
RTVSPropertyOp37
 70
     1
102
RTVSPropertyOp38
 70
     1
102
RTVSPropertyOp39
 70
     1
102
RTVSPropertyOp40
 70
     1
102
RTVSPropertyOp41
 70
     1
102
RTVSPropertyOp42
 70
     1
102
RTVSPropertyOp43
 70
     1
102
RTVSPropertyOp44
 70
     1
102
RTVSPropertyOp45
 70
     1
102
RTVSPropertyOp46
 70
     1
102
RTVSPropertyOp47
 70
     1
102
RTVSPropertyOp48
 70
     1
102
RTVSPropertyOp49
 70
     1
102
RTVSPropertyOp50
 70
     1
102
RTVSPropertyOp51
 70
     0
102
RTVSPropertyOp52
 70
     0
102
RTVSPropertyOp53
 70
     1
102
RTVSPropertyOp54
 70
     1
102
RTVSPropertyOp55
 70
     1
102
RTVSPropertyOp56
 70
     1
102
RTVSPropertyOp57
 70
     1
102
RTVSPropertyOp58
 70
     1
102
RTVSPropertyOp59
 70
     1
102
RTVSPropertyOp60
 70
     1
102
RTVSPropertyOp61
 70
     1
102
RTVSPropertyOp62
 70
     1
  0
XRECORD
  5
C6D9
102
{ACAD_REACTORS
330
C6D8
102
}
330
C6D8
100
AcDbXrecord
280
     1
102
RTVSPost2010Prop28
280
     0
102
RTVSPost2010PropOp28
 70
     1
102
RTVSPost2010Prop29
280
     1
102
RTVSPost2010PropOp29
 70
     1
102
RTVSPost2010Prop30
280
     1
102
RTVSPost2010PropOp30
 70
     1
102
RTVSPost2010Prop31
280
     0
102
RTVSPost2010PropOp31
 70
     1
102
RTVSPost2010Prop32
280
     0
102
RTVSPost2010PropOp32
 70
     1
102
RTVSPost2010Prop33
280
     0
102
RTVSPost2010PropOp33
 70
     1
102
RTVSPost2010Prop34
280
     0
102
RTVSPost2010PropOp34
 70
     1
102
RTVSPost2010Prop35
280
     0
102
RTVSPost2010PropOp35
 70
     1
102
RTVSPost2010Prop36
280
     0
102
RTVSPost2010PropOp36
 70
     1
102
RTVSPost2010Prop37
 90
       50
102
RTVSPost2010PropOp37
 70
     0
102
RTVSPost2010Prop38
140
0.0
102
RTVSPost2010PropOp38
 70
     0
102
RTVSPost2010Prop39
140
1.0
102
RTVSPost2010PropOp39
 70
     0
102
RTVSPost2010Prop40
 90
        0
102
RTVSPost2010PropOp40
 70
     0
102
RTVSPost2010Prop41ColorIndex
 90
       18
102
RTVSPost2010Prop41ColorRGB
 90
        0
102
RTVSPost2010PropOp41
 70
     0
102
RTVSPost2010Prop42
 90
       50
102
RTVSPost2010PropOp42
 70
     0
102
RTVSPost2010Prop43
 90
        3
102
RTVSPost2010PropOp43
 70
     0
102
RTVSPost2010Prop44ColorIndex
 90
        5
102
RTVSPost2010Prop44ColorRGB
 90
      255
102
RTVSPost2010PropOp44
 70
     0
102
RTVSPost2010Prop45
280
     0
102
RTVSPost2010PropOp45
 70
     1
102
RTVSPost2010Prop46
 90
       50
102
RTVSPost2010PropOp46
 70
     0
102
RTVSPost2010Prop47
 90
       50
102
RTVSPost2010PropOp47
 70
     0
102
RTVSPost2010Prop48
 90
       50
102
RTVSPost2010PropOp48
 70
     0
102
RTVSPost2010Prop49
280
     0
102
RTVSPost2010PropOp49
 70
     1
102
RTVSPost2010Prop50
 90
       50
102
RTVSPost2010PropOp50
 70
     0
102
RTVSPost2010Prop51ColorIndex
 90
      256
102
RTVSPost2010Prop51ColorRGB
 90
-16777216
102
RTVSPost2010PropOp51
 70
     0
102
RTVSPost2010Prop52
140
1.0
102
RTVSPost2010PropOp52
 70
     0
102
RTVSPost2010Prop53
 90
        2
102
RTVSPost2010PropOp53
 70
     0
102
RTVSPost2010Prop54
  1
strokes_ogs.tif
102
RTVSPost2010PropOp54
 70
     0
102
RTVSPost2010Prop55
280
     0
102
RTVSPost2010PropOp55
 70
     1
102
RTVSPost2010Prop56
140
1.0
102
RTVSPost2010PropOp56
 70
     0
102
RTVSPost2010Prop57
140
1.0
102
RTVSPost2010PropOp57
 70
     0
102
RTVSPropertyOp0
 70
     0
102
RTVSPropertyOp1
 70
     0
102
RTVSPropertyOp2
 70
     0
102
RTVSPropertyOp3
 70
     0
102
RTVSPropertyOp4
 70
     0
102
RTVSPropertyOp5
 70
     0
102
RTVSPropertyOp6
 70
     0
102
RTVSPropertyOp7
 70
     0
102
RTVSPropertyOp8
 70
     0
102
RTVSPropertyOp9
 70
     0
102
RTVSPropertyOp10
 70
     0
102
RTVSPropertyOp11
 70
     0
102
RTVSPropertyOp12
 70
     0
102
RTVSPropertyOp13
 70
     0
102
RTVSPropertyOp14
 70
     2
102
RTVSPropertyOp15
 70
     0
102
RTVSPropertyOp16
 70
     0
102
RTVSPropertyOp17
 70
     0
102
RTVSPropertyOp18
 70
     0
102
RTVSPropertyOp19
 70
     0
102
RTVSPropertyOp20
 70
     0
102
RTVSPropertyOp21
 70
     0
102
RTVSPropertyOp22
 70
     0
102
RTVSPropertyOp23
 70
     0
102
RTVSPropertyOp24
 70
     0
102
RTVSPropertyOp25
 70
     0
102
RTVSPropertyOp26
 70
     0
102
RTVSPropertyOp27
 70
     0
102
RTVSPropertyOp28
 70
     1
102
RTVSPropertyOp29
 70
     1
102
RTVSPropertyOp30
 70
     1
102
RTVSPropertyOp31
 70
     1
102
RTVSPropertyOp32
 70
     1
102
RTVSPropertyOp33
 70
     1
102
RTVSPropertyOp34
 70
     1
102
RTVSPropertyOp35
 70
     1
102
RTVSPropertyOp36
 70
     1
102
RTVSPropertyOp37
 70
     0
102
RTVSPropertyOp38
 70
     0
102
RTVSPropertyOp39
 70
     0
102
RTVSPropertyOp40
 70
     0
102
RTVSPropertyOp41
 70
     0
102
RTVSPropertyOp42
 70
     0
102
RTVSPropertyOp43
 70
     0
102
RTVSPropertyOp44
 70
     0
102
RTVSPropertyOp45
 70
     1
102
RTVSPropertyOp46
 70
     0
102
RTVSPropertyOp47
 70
     0
102
RTVSPropertyOp48
 70
     0
102
RTVSPropertyOp49
 70
     1
102
RTVSPropertyOp50
 70
     0
102
RTVSPropertyOp51
 70
     0
102
RTVSPropertyOp52
 70
     0
102
RTVSPropertyOp53
 70
     0
102
RTVSPropertyOp54
 70
     0
102
RTVSPropertyOp55
 70
     1
102
RTVSPropertyOp56
 70
     0
102
RTVSPropertyOp57
 70
     0
102
RTVSPropertyOp58
 70
     0
102
RTVSPropertyOp59
 70
     0
102
RTVSPropertyOp60
 70
     0
102
RTVSPropertyOp61
 70
     0
102
RTVSPropertyOp62
 70
     0
  0
XRECORD
  5
C6C9
102
{ACAD_REACTORS
330
C6C8
102
}
330
C6C8
100
AcDbXrecord
280
     1
102
RTVSPost2010Prop28
280
     0
102
RTVSPost2010PropOp28
 70
     1
102
RTVSPost2010Prop29
280
     1
102
RTVSPost2010PropOp29
 70
     1
102
RTVSPost2010Prop30
280
     1
102
RTVSPost2010PropOp30
 70
     1
102
RTVSPost2010Prop31
280
     0
102
RTVSPost2010PropOp31
 70
     1
102
RTVSPost2010Prop32
280
     0
102
RTVSPost2010PropOp32
 70
     1
102
RTVSPost2010Prop33
280
     0
102
RTVSPost2010PropOp33
 70
     1
102
RTVSPost2010Prop34
280
     0
102
RTVSPost2010PropOp34
 70
     1
102
RTVSPost2010Prop35
280
     0
102
RTVSPost2010PropOp35
 70
     1
102
RTVSPost2010Prop36
280
     0
102
RTVSPost2010PropOp36
 70
     1
102
RTVSPost2010Prop37
 90
       50
102
RTVSPost2010PropOp37
 70
     1
102
RTVSPost2010Prop38
140
0.0
102
RTVSPost2010PropOp38
 70
     1
102
RTVSPost2010Prop39
140
1.0
102
RTVSPost2010PropOp39
 70
     1
102
RTVSPost2010Prop40
 90
        0
102
RTVSPost2010PropOp40
 70
     1
102
RTVSPost2010Prop41ColorIndex
 90
       18
102
RTVSPost2010Prop41ColorRGB
 90
        0
102
RTVSPost2010PropOp41
 70
     1
102
RTVSPost2010Prop42
 90
       50
102
RTVSPost2010PropOp42
 70
     1
102
RTVSPost2010Prop43
 90
        3
102
RTVSPost2010PropOp43
 70
     1
102
RTVSPost2010Prop44ColorIndex
 90
        5
102
RTVSPost2010Prop44ColorRGB
 90
      255
102
RTVSPost2010PropOp44
 70
     1
102
RTVSPost2010Prop45
280
     0
102
RTVSPost2010PropOp45
 70
     1
102
RTVSPost2010Prop46
 90
       50
102
RTVSPost2010PropOp46
 70
     1
102
RTVSPost2010Prop47
 90
       50
102
RTVSPost2010PropOp47
 70
     1
102
RTVSPost2010Prop48
 90
       50
102
RTVSPost2010PropOp48
 70
     1
102
RTVSPost2010Prop49
280
     0
102
RTVSPost2010PropOp49
 70
     1
102
RTVSPost2010Prop50
 90
       50
102
RTVSPost2010PropOp50
 70
     1
102
RTVSPost2010Prop51ColorIndex
 90
      256
102
RTVSPost2010Prop51ColorRGB
 90
-16777216
102
RTVSPost2010PropOp51
 70
     0
102
RTVSPost2010Prop52
140
1.0
102
RTVSPost2010PropOp52
 70
     0
102
RTVSPost2010Prop53
 90
        2
102
RTVSPost2010PropOp53
 70
     1
102
RTVSPost2010Prop54
  1
strokes_ogs.tif
102
RTVSPost2010PropOp54
 70
     1
102
RTVSPost2010Prop55
280
     0
102
RTVSPost2010PropOp55
 70
     1
102
RTVSPost2010Prop56
140
1.0
102
RTVSPost2010PropOp56
 70
     1
102
RTVSPost2010Prop57
140
1.0
102
RTVSPost2010PropOp57
 70
     1
102
RTVSPropertyOp0
 70
     1
102
RTVSPropertyOp1
 70
     1
102
RTVSPropertyOp2
 70
     1
102
RTVSPropertyOp3
 70
     1
102
RTVSPropertyOp4
 70
     1
102
RTVSPropertyOp5
 70
     1
102
RTVSPropertyOp6
 70
     1
102
RTVSPropertyOp7
 70
     1
102
RTVSPropertyOp8
 70
     1
102
RTVSPropertyOp9
 70
     1
102
RTVSPropertyOp10
 70
     1
102
RTVSPropertyOp11
 70
     1
102
RTVSPropertyOp12
 70
     1
102
RTVSPropertyOp13
 70
     1
102
RTVSPropertyOp14
 70
     1
102
RTVSPropertyOp15
 70
     1
102
RTVSPropertyOp16
 70
     1
102
RTVSPropertyOp17
 70
     1
102
RTVSPropertyOp18
 70
     1
102
RTVSPropertyOp19
 70
     1
102
RTVSPropertyOp20
 70
     1
102
RTVSPropertyOp21
 70
     1
102
RTVSPropertyOp22
 70
     1
102
RTVSPropertyOp23
 70
     1
102
RTVSPropertyOp24
 70
     1
102
RTVSPropertyOp25
 70
     1
102
RTVSPropertyOp26
 70
     1
102
RTVSPropertyOp27
 70
     1
102
RTVSPropertyOp28
 70
     1
102
RTVSPropertyOp29
 70
     1
102
RTVSPropertyOp30
 70
     1
102
RTVSPropertyOp31
 70
     1
102
RTVSPropertyOp32
 70
     1
102
RTVSPropertyOp33
 70
     1
102
RTVSPropertyOp34
 70
     1
102
RTVSPropertyOp35
 70
     1
102
RTVSPropertyOp36
 70
     1
102
RTVSPropertyOp37
 70
     1
102
RTVSPropertyOp38
 70
     1
102
RTVSPropertyOp39
 70
     1
102
RTVSPropertyOp40
 70
     1
102
RTVSPropertyOp41
 70
     1
102
RTVSPropertyOp42
 70
     1
102
RTVSPropertyOp43
 70
     1
102
RTVSPropertyOp44
 70
     1
102
RTVSPropertyOp45
 70
     1
102
RTVSPropertyOp46
 70
     1
102
RTVSPropertyOp47
 70
     1
102
RTVSPropertyOp48
 70
     1
102
RTVSPropertyOp49
 70
     1
102
RTVSPropertyOp50
 70
     1
102
RTVSPropertyOp51
 70
     0
102
RTVSPropertyOp52
 70
     0
102
RTVSPropertyOp53
 70
     1
102
RTVSPropertyOp54
 70
     1
102
RTVSPropertyOp55
 70
     1
102
RTVSPropertyOp56
 70
     1
102
RTVSPropertyOp57
 70
     1
102
RTVSPropertyOp58
 70
     1
102
RTVSPropertyOp59
 70
     1
102
RTVSPropertyOp60
 70
     1
102
RTVSPropertyOp61
 70
     1
102
RTVSPropertyOp62
 70
     1
  0
XRECORD
  5
C6DB
102
{ACAD_REACTORS
330
C6DA
102
}
330
C6DA
100
AcDbXrecord
280
     1
102
RTVSPost2010Prop28
280
     0
102
RTVSPost2010PropOp28
 70
     1
102
RTVSPost2010Prop29
280
     1
102
RTVSPost2010PropOp29
 70
     1
102
RTVSPost2010Prop30
280
     1
102
RTVSPost2010PropOp30
 70
     1
102
RTVSPost2010Prop31
280
     0
102
RTVSPost2010PropOp31
 70
     1
102
RTVSPost2010Prop32
280
     0
102
RTVSPost2010PropOp32
 70
     1
102
RTVSPost2010Prop33
280
     0
102
RTVSPost2010PropOp33
 70
     1
102
RTVSPost2010Prop34
280
     0
102
RTVSPost2010PropOp34
 70
     1
102
RTVSPost2010Prop35
280
     0
102
RTVSPost2010PropOp35
 70
     1
102
RTVSPost2010Prop36
280
     0
102
RTVSPost2010PropOp36
 70
     1
102
RTVSPost2010Prop37
 90
       50
102
RTVSPost2010PropOp37
 70
     0
102
RTVSPost2010Prop38
140
0.0
102
RTVSPost2010PropOp38
 70
     0
102
RTVSPost2010Prop39
140
1.0
102
RTVSPost2010PropOp39
 70
     0
102
RTVSPost2010Prop40
 90
        0
102
RTVSPost2010PropOp40
 70
     0
102
RTVSPost2010Prop41ColorIndex
 90
       18
102
RTVSPost2010Prop41ColorRGB
 90
        0
102
RTVSPost2010PropOp41
 70
     0
102
RTVSPost2010Prop42
 90
       50
102
RTVSPost2010PropOp42
 70
     0
102
RTVSPost2010Prop43
 90
        3
102
RTVSPost2010PropOp43
 70
     0
102
RTVSPost2010Prop44ColorIndex
 90
        5
102
RTVSPost2010Prop44ColorRGB
 90
      255
102
RTVSPost2010PropOp44
 70
     0
102
RTVSPost2010Prop45
280
     0
102
RTVSPost2010PropOp45
 70
     1
102
RTVSPost2010Prop46
 90
       50
102
RTVSPost2010PropOp46
 70
     0
102
RTVSPost2010Prop47
 90
       50
102
RTVSPost2010PropOp47
 70
     0
102
RTVSPost2010Prop48
 90
       50
102
RTVSPost2010PropOp48
 70
     0
102
RTVSPost2010Prop49
280
     0
102
RTVSPost2010PropOp49
 70
     1
102
RTVSPost2010Prop50
 90
       50
102
RTVSPost2010PropOp50
 70
     0
102
RTVSPost2010Prop51ColorIndex
 90
      256
102
RTVSPost2010Prop51ColorRGB
 90
-16777216
102
RTVSPost2010PropOp51
 70
     0
102
RTVSPost2010Prop52
140
1.0
102
RTVSPost2010PropOp52
 70
     0
102
RTVSPost2010Prop53
 90
        2
102
RTVSPost2010PropOp53
 70
     0
102
RTVSPost2010Prop54
  1
strokes_ogs.tif
102
RTVSPost2010PropOp54
 70
     0
102
RTVSPost2010Prop55
280
     0
102
RTVSPost2010PropOp55
 70
     1
102
RTVSPost2010Prop56
140
1.0
102
RTVSPost2010PropOp56
 70
     0
102
RTVSPost2010Prop57
140
1.0
102
RTVSPost2010PropOp57
 70
     0
102
RTVSPropertyOp0
 70
     0
102
RTVSPropertyOp1
 70
     0
102
RTVSPropertyOp2
 70
     0
102
RTVSPropertyOp3
 70
     0
102
RTVSPropertyOp4
 70
     0
102
RTVSPropertyOp5
 70
     0
102
RTVSPropertyOp6
 70
     0
102
RTVSPropertyOp7
 70
     0
102
RTVSPropertyOp8
 70
     0
102
RTVSPropertyOp9
 70
     0
102
RTVSPropertyOp10
 70
     0
102
RTVSPropertyOp11
 70
     0
102
RTVSPropertyOp12
 70
     0
102
RTVSPropertyOp13
 70
     0
102
RTVSPropertyOp14
 70
     2
102
RTVSPropertyOp15
 70
     0
102
RTVSPropertyOp16
 70
     0
102
RTVSPropertyOp17
 70
     0
102
RTVSPropertyOp18
 70
     0
102
RTVSPropertyOp19
 70
     0
102
RTVSPropertyOp20
 70
     0
102
RTVSPropertyOp21
 70
     0
102
RTVSPropertyOp22
 70
     0
102
RTVSPropertyOp23
 70
     0
102
RTVSPropertyOp24
 70
     0
102
RTVSPropertyOp25
 70
     0
102
RTVSPropertyOp26
 70
     0
102
RTVSPropertyOp27
 70
     0
102
RTVSPropertyOp28
 70
     1
102
RTVSPropertyOp29
 70
     1
102
RTVSPropertyOp30
 70
     1
102
RTVSPropertyOp31
 70
     1
102
RTVSPropertyOp32
 70
     1
102
RTVSPropertyOp33
 70
     1
102
RTVSPropertyOp34
 70
     1
102
RTVSPropertyOp35
 70
     1
102
RTVSPropertyOp36
 70
     1
102
RTVSPropertyOp37
 70
     0
102
RTVSPropertyOp38
 70
     0
102
RTVSPropertyOp39
 70
     0
102
RTVSPropertyOp40
 70
     0
102
RTVSPropertyOp41
 70
     0
102
RTVSPropertyOp42
 70
     0
102
RTVSPropertyOp43
 70
     0
102
RTVSPropertyOp44
 70
     0
102
RTVSPropertyOp45
 70
     1
102
RTVSPropertyOp46
 70
     0
102
RTVSPropertyOp47
 70
     0
102
RTVSPropertyOp48
 70
     0
102
RTVSPropertyOp49
 70
     1
102
RTVSPropertyOp50
 70
     0
102
RTVSPropertyOp51
 70
     0
102
RTVSPropertyOp52
 70
     0
102
RTVSPropertyOp53
 70
     0
102
RTVSPropertyOp54
 70
     0
102
RTVSPropertyOp55
 70
     1
102
RTVSPropertyOp56
 70
     0
102
RTVSPropertyOp57
 70
     0
102
RTVSPropertyOp58
 70
     0
102
RTVSPropertyOp59
 70
     0
102
RTVSPropertyOp60
 70
     0
102
RTVSPropertyOp61
 70
     0
102
RTVSPropertyOp62
 70
     0
  0
XRECORD
  5
C6C1
102
{ACAD_REACTORS
330
C6C0
102
}
330
C6C0
100
AcDbXrecord
280
     1
102
RTVSPost2010Prop28
280
     0
102
RTVSPost2010PropOp28
 70
     1
102
RTVSPost2010Prop29
280
     1
102
RTVSPost2010PropOp29
 70
     1
102
RTVSPost2010Prop30
280
     1
102
RTVSPost2010PropOp30
 70
     1
102
RTVSPost2010Prop31
280
     0
102
RTVSPost2010PropOp31
 70
     1
102
RTVSPost2010Prop32
280
     0
102
RTVSPost2010PropOp32
 70
     1
102
RTVSPost2010Prop33
280
     0
102
RTVSPost2010PropOp33
 70
     1
102
RTVSPost2010Prop34
280
     0
102
RTVSPost2010PropOp34
 70
     1
102
RTVSPost2010Prop35
280
     0
102
RTVSPost2010PropOp35
 70
     1
102
RTVSPost2010Prop36
280
     0
102
RTVSPost2010PropOp36
 70
     1
102
RTVSPost2010Prop37
 90
       50
102
RTVSPost2010PropOp37
 70
     1
102
RTVSPost2010Prop38
140
0.0
102
RTVSPost2010PropOp38
 70
     1
102
RTVSPost2010Prop39
140
1.0
102
RTVSPost2010PropOp39
 70
     1
102
RTVSPost2010Prop40
 90
        0
102
RTVSPost2010PropOp40
 70
     1
102
RTVSPost2010Prop41ColorIndex
 90
       18
102
RTVSPost2010Prop41ColorRGB
 90
        0
102
RTVSPost2010PropOp41
 70
     1
102
RTVSPost2010Prop42
 90
       50
102
RTVSPost2010PropOp42
 70
     1
102
RTVSPost2010Prop43
 90
        3
102
RTVSPost2010PropOp43
 70
     1
102
RTVSPost2010Prop44ColorIndex
 90
        5
102
RTVSPost2010Prop44ColorRGB
 90
      255
102
RTVSPost2010PropOp44
 70
     1
102
RTVSPost2010Prop45
280
     0
102
RTVSPost2010PropOp45
 70
     1
102
RTVSPost2010Prop46
 90
       50
102
RTVSPost2010PropOp46
 70
     1
102
RTVSPost2010Prop47
 90
       50
102
RTVSPost2010PropOp47
 70
     1
102
RTVSPost2010Prop48
 90
       50
102
RTVSPost2010PropOp48
 70
     1
102
RTVSPost2010Prop49
280
     0
102
RTVSPost2010PropOp49
 70
     1
102
RTVSPost2010Prop50
 90
       50
102
RTVSPost2010PropOp50
 70
     1
102
RTVSPost2010Prop51ColorIndex
 90
      256
102
RTVSPost2010Prop51ColorRGB
 90
-16777216
102
RTVSPost2010PropOp51
 70
     0
102
RTVSPost2010Prop52
140
1.0
102
RTVSPost2010PropOp52
 70
     0
102
RTVSPost2010Prop53
 90
        2
102
RTVSPost2010PropOp53
 70
     1
102
RTVSPost2010Prop54
  1
strokes_ogs.tif
102
RTVSPost2010PropOp54
 70
     1
102
RTVSPost2010Prop55
280
     0
102
RTVSPost2010PropOp55
 70
     1
102
RTVSPost2010Prop56
140
1.0
102
RTVSPost2010PropOp56
 70
     1
102
RTVSPost2010Prop57
140
1.0
102
RTVSPost2010PropOp57
 70
     1
102
RTVSPropertyOp0
 70
     1
102
RTVSPropertyOp1
 70
     1
102
RTVSPropertyOp2
 70
     1
102
RTVSPropertyOp3
 70
     1
102
RTVSPropertyOp4
 70
     1
102
RTVSPropertyOp5
 70
     1
102
RTVSPropertyOp6
 70
     1
102
RTVSPropertyOp7
 70
     1
102
RTVSPropertyOp8
 70
     1
102
RTVSPropertyOp9
 70
     1
102
RTVSPropertyOp10
 70
     1
102
RTVSPropertyOp11
 70
     1
102
RTVSPropertyOp12
 70
     1
102
RTVSPropertyOp13
 70
     1
102
RTVSPropertyOp14
 70
     1
102
RTVSPropertyOp15
 70
     1
102
RTVSPropertyOp16
 70
     1
102
RTVSPropertyOp17
 70
     1
102
RTVSPropertyOp18
 70
     1
102
RTVSPropertyOp19
 70
     1
102
RTVSPropertyOp20
 70
     1
102
RTVSPropertyOp21
 70
     1
102
RTVSPropertyOp22
 70
     1
102
RTVSPropertyOp23
 70
     1
102
RTVSPropertyOp24
 70
     1
102
RTVSPropertyOp25
 70
     1
102
RTVSPropertyOp26
 70
     1
102
RTVSPropertyOp27
 70
     1
102
RTVSPropertyOp28
 70
     1
102
RTVSPropertyOp29
 70
     1
102
RTVSPropertyOp30
 70
     1
102
RTVSPropertyOp31
 70
     1
102
RTVSPropertyOp32
 70
     1
102
RTVSPropertyOp33
 70
     1
102
RTVSPropertyOp34
 70
     1
102
RTVSPropertyOp35
 70
     1
102
RTVSPropertyOp36
 70
     1
102
RTVSPropertyOp37
 70
     1
102
RTVSPropertyOp38
 70
     1
102
RTVSPropertyOp39
 70
     1
102
RTVSPropertyOp40
 70
     1
102
RTVSPropertyOp41
 70
     1
102
RTVSPropertyOp42
 70
     1
102
RTVSPropertyOp43
 70
     1
102
RTVSPropertyOp44
 70
     1
102
RTVSPropertyOp45
 70
     1
102
RTVSPropertyOp46
 70
     1
102
RTVSPropertyOp47
 70
     1
102
RTVSPropertyOp48
 70
     1
102
RTVSPropertyOp49
 70
     1
102
RTVSPropertyOp50
 70
     1
102
RTVSPropertyOp51
 70
     0
102
RTVSPropertyOp52
 70
     0
102
RTVSPropertyOp53
 70
     1
102
RTVSPropertyOp54
 70
     1
102
RTVSPropertyOp55
 70
     1
102
RTVSPropertyOp56
 70
     1
102
RTVSPropertyOp57
 70
     1
102
RTVSPropertyOp58
 70
     1
102
RTVSPropertyOp59
 70
     1
102
RTVSPropertyOp60
 70
     1
102
RTVSPropertyOp61
 70
     1
102
RTVSPropertyOp62
 70
     1
  0
XRECORD
  5
C6D7
102
{ACAD_REACTORS
330
C6D6
102
}
330
C6D6
100
AcDbXrecord
280
     1
102
RTVSPost2010Prop28
280
     0
102
RTVSPost2010PropOp28
 70
     1
102
RTVSPost2010Prop29
280
     1
102
RTVSPost2010PropOp29
 70
     1
102
RTVSPost2010Prop30
280
     1
102
RTVSPost2010PropOp30
 70
     1
102
RTVSPost2010Prop31
280
     0
102
RTVSPost2010PropOp31
 70
     1
102
RTVSPost2010Prop32
280
     0
102
RTVSPost2010PropOp32
 70
     1
102
RTVSPost2010Prop33
280
     0
102
RTVSPost2010PropOp33
 70
     1
102
RTVSPost2010Prop34
280
     0
102
RTVSPost2010PropOp34
 70
     1
102
RTVSPost2010Prop35
280
     0
102
RTVSPost2010PropOp35
 70
     1
102
RTVSPost2010Prop36
280
     0
102
RTVSPost2010PropOp36
 70
     1
102
RTVSPost2010Prop37
 90
       50
102
RTVSPost2010PropOp37
 70
     1
102
RTVSPost2010Prop38
140
0.0
102
RTVSPost2010PropOp38
 70
     1
102
RTVSPost2010Prop39
140
1.0
102
RTVSPost2010PropOp39
 70
     1
102
RTVSPost2010Prop40
 90
        0
102
RTVSPost2010PropOp40
 70
     1
102
RTVSPost2010Prop41ColorIndex
 90
       18
102
RTVSPost2010Prop41ColorRGB
 90
        0
102
RTVSPost2010PropOp41
 70
     1
102
RTVSPost2010Prop42
 90
       50
102
RTVSPost2010PropOp42
 70
     1
102
RTVSPost2010Prop43
 90
        3
102
RTVSPost2010PropOp43
 70
     1
102
RTVSPost2010Prop44ColorIndex
 90
        5
102
RTVSPost2010Prop44ColorRGB
 90
      255
102
RTVSPost2010PropOp44
 70
     1
102
RTVSPost2010Prop45
280
     0
102
RTVSPost2010PropOp45
 70
     1
102
RTVSPost2010Prop46
 90
       50
102
RTVSPost2010PropOp46
 70
     1
102
RTVSPost2010Prop47
 90
       50
102
RTVSPost2010PropOp47
 70
     1
102
RTVSPost2010Prop48
 90
       50
102
RTVSPost2010PropOp48
 70
     1
102
RTVSPost2010Prop49
280
     0
102
RTVSPost2010PropOp49
 70
     1
102
RTVSPost2010Prop50
 90
       50
102
RTVSPost2010PropOp50
 70
     1
102
RTVSPost2010Prop51ColorIndex
 90
      256
102
RTVSPost2010Prop51ColorRGB
 90
-16777216
102
RTVSPost2010PropOp51
 70
     0
102
RTVSPost2010Prop52
140
1.0
102
RTVSPost2010PropOp52
 70
     0
102
RTVSPost2010Prop53
 90
        2
102
RTVSPost2010PropOp53
 70
     1
102
RTVSPost2010Prop54
  1
strokes_ogs.tif
102
RTVSPost2010PropOp54
 70
     1
102
RTVSPost2010Prop55
280
     0
102
RTVSPost2010PropOp55
 70
     1
102
RTVSPost2010Prop56
140
1.0
102
RTVSPost2010PropOp56
 70
     1
102
RTVSPost2010Prop57
140
1.0
102
RTVSPost2010PropOp57
 70
     1
102
RTVSPropertyOp0
 70
     1
102
RTVSPropertyOp1
 70
     1
102
RTVSPropertyOp2
 70
     1
102
RTVSPropertyOp3
 70
     1
102
RTVSPropertyOp4
 70
     1
102
RTVSPropertyOp5
 70
     1
102
RTVSPropertyOp6
 70
     1
102
RTVSPropertyOp7
 70
     1
102
RTVSPropertyOp8
 70
     1
102
RTVSPropertyOp9
 70
     1
102
RTVSPropertyOp10
 70
     1
102
RTVSPropertyOp11
 70
     1
102
RTVSPropertyOp12
 70
     1
102
RTVSPropertyOp13
 70
     1
102
RTVSPropertyOp14
 70
     1
102
RTVSPropertyOp15
 70
     1
102
RTVSPropertyOp16
 70
     1
102
RTVSPropertyOp17
 70
     1
102
RTVSPropertyOp18
 70
     1
102
RTVSPropertyOp19
 70
     1
102
RTVSPropertyOp20
 70
     1
102
RTVSPropertyOp21
 70
     1
102
RTVSPropertyOp22
 70
     1
102
RTVSPropertyOp23
 70
     1
102
RTVSPropertyOp24
 70
     1
102
RTVSPropertyOp25
 70
     1
102
RTVSPropertyOp26
 70
     1
102
RTVSPropertyOp27
 70
     1
102
RTVSPropertyOp28
 70
     1
102
RTVSPropertyOp29
 70
     1
102
RTVSPropertyOp30
 70
     1
102
RTVSPropertyOp31
 70
     1
102
RTVSPropertyOp32
 70
     1
102
RTVSPropertyOp33
 70
     1
102
RTVSPropertyOp34
 70
     1
102
RTVSPropertyOp35
 70
     1
102
RTVSPropertyOp36
 70
     1
102
RTVSPropertyOp37
 70
     1
102
RTVSPropertyOp38
 70
     1
102
RTVSPropertyOp39
 70
     1
102
RTVSPropertyOp40
 70
     1
102
RTVSPropertyOp41
 70
     1
102
RTVSPropertyOp42
 70
     1
102
RTVSPropertyOp43
 70
     1
102
RTVSPropertyOp44
 70
     1
102
RTVSPropertyOp45
 70
     1
102
RTVSPropertyOp46
 70
     1
102
RTVSPropertyOp47
 70
     1
102
RTVSPropertyOp48
 70
     1
102
RTVSPropertyOp49
 70
     1
102
RTVSPropertyOp50
 70
     1
102
RTVSPropertyOp51
 70
     0
102
RTVSPropertyOp52
 70
     0
102
RTVSPropertyOp53
 70
     1
102
RTVSPropertyOp54
 70
     1
102
RTVSPropertyOp55
 70
     1
102
RTVSPropertyOp56
 70
     1
102
RTVSPropertyOp57
 70
     1
102
RTVSPropertyOp58
 70
     1
102
RTVSPropertyOp59
 70
     1
102
RTVSPropertyOp60
 70
     1
102
RTVSPropertyOp61
 70
     1
102
RTVSPropertyOp62
 70
     1
  0
XRECORD
  5
C6D5
102
{ACAD_REACTORS
330
C6D4
102
}
330
C6D4
100
AcDbXrecord
280
     1
102
RTVSPost2010Prop28
280
     0
102
RTVSPost2010PropOp28
 70
     1
102
RTVSPost2010Prop29
280
     1
102
RTVSPost2010PropOp29
 70
     1
102
RTVSPost2010Prop30
280
     1
102
RTVSPost2010PropOp30
 70
     1
102
RTVSPost2010Prop31
280
     0
102
RTVSPost2010PropOp31
 70
     1
102
RTVSPost2010Prop32
280
     0
102
RTVSPost2010PropOp32
 70
     1
102
RTVSPost2010Prop33
280
     0
102
RTVSPost2010PropOp33
 70
     1
102
RTVSPost2010Prop34
280
     0
102
RTVSPost2010PropOp34
 70
     1
102
RTVSPost2010Prop35
280
     0
102
RTVSPost2010PropOp35
 70
     1
102
RTVSPost2010Prop36
280
     0
102
RTVSPost2010PropOp36
 70
     1
102
RTVSPost2010Prop37
 90
       50
102
RTVSPost2010PropOp37
 70
     1
102
RTVSPost2010Prop38
140
0.0
102
RTVSPost2010PropOp38
 70
     1
102
RTVSPost2010Prop39
140
1.0
102
RTVSPost2010PropOp39
 70
     1
102
RTVSPost2010Prop40
 90
        0
102
RTVSPost2010PropOp40
 70
     1
102
RTVSPost2010Prop41ColorIndex
 90
       18
102
RTVSPost2010Prop41ColorRGB
 90
        0
102
RTVSPost2010PropOp41
 70
     1
102
RTVSPost2010Prop42
 90
       50
102
RTVSPost2010PropOp42
 70
     1
102
RTVSPost2010Prop43
 90
        3
102
RTVSPost2010PropOp43
 70
     1
102
RTVSPost2010Prop44ColorIndex
 90
        5
102
RTVSPost2010Prop44ColorRGB
 90
      255
102
RTVSPost2010PropOp44
 70
     1
102
RTVSPost2010Prop45
280
     0
102
RTVSPost2010PropOp45
 70
     1
102
RTVSPost2010Prop46
 90
       50
102
RTVSPost2010PropOp46
 70
     1
102
RTVSPost2010Prop47
 90
       50
102
RTVSPost2010PropOp47
 70
     1
102
RTVSPost2010Prop48
 90
       50
102
RTVSPost2010PropOp48
 70
     1
102
RTVSPost2010Prop49
280
     0
102
RTVSPost2010PropOp49
 70
     1
102
RTVSPost2010Prop50
 90
       50
102
RTVSPost2010PropOp50
 70
     1
102
RTVSPost2010Prop51ColorIndex
 90
      256
102
RTVSPost2010Prop51ColorRGB
 90
-16777216
102
RTVSPost2010PropOp51
 70
     0
102
RTVSPost2010Prop52
140
1.0
102
RTVSPost2010PropOp52
 70
     0
102
RTVSPost2010Prop53
 90
        2
102
RTVSPost2010PropOp53
 70
     1
102
RTVSPost2010Prop54
  1
strokes_ogs.tif
102
RTVSPost2010PropOp54
 70
     1
102
RTVSPost2010Prop55
280
     0
102
RTVSPost2010PropOp55
 70
     1
102
RTVSPost2010Prop56
140
1.0
102
RTVSPost2010PropOp56
 70
     1
102
RTVSPost2010Prop57
140
1.0
102
RTVSPost2010PropOp57
 70
     1
102
RTVSPropertyOp0
 70
     1
102
RTVSPropertyOp1
 70
     1
102
RTVSPropertyOp2
 70
     1
102
RTVSPropertyOp3
 70
     1
102
RTVSPropertyOp4
 70
     1
102
RTVSPropertyOp5
 70
     1
102
RTVSPropertyOp6
 70
     1
102
RTVSPropertyOp7
 70
     1
102
RTVSPropertyOp8
 70
     1
102
RTVSPropertyOp9
 70
     1
102
RTVSPropertyOp10
 70
     1
102
RTVSPropertyOp11
 70
     1
102
RTVSPropertyOp12
 70
     1
102
RTVSPropertyOp13
 70
     1
102
RTVSPropertyOp14
 70
     1
102
RTVSPropertyOp15
 70
     1
102
RTVSPropertyOp16
 70
     1
102
RTVSPropertyOp17
 70
     1
102
RTVSPropertyOp18
 70
     1
102
RTVSPropertyOp19
 70
     1
102
RTVSPropertyOp20
 70
     1
102
RTVSPropertyOp21
 70
     1
102
RTVSPropertyOp22
 70
     1
102
RTVSPropertyOp23
 70
     1
102
RTVSPropertyOp24
 70
     1
102
RTVSPropertyOp25
 70
     1
102
RTVSPropertyOp26
 70
     1
102
RTVSPropertyOp27
 70
     1
102
RTVSPropertyOp28
 70
     1
102
RTVSPropertyOp29
 70
     1
102
RTVSPropertyOp30
 70
     1
102
RTVSPropertyOp31
 70
     1
102
RTVSPropertyOp32
 70
     1
102
RTVSPropertyOp33
 70
     1
102
RTVSPropertyOp34
 70
     1
102
RTVSPropertyOp35
 70
     1
102
RTVSPropertyOp36
 70
     1
102
RTVSPropertyOp37
 70
     1
102
RTVSPropertyOp38
 70
     1
102
RTVSPropertyOp39
 70
     1
102
RTVSPropertyOp40
 70
     1
102
RTVSPropertyOp41
 70
     1
102
RTVSPropertyOp42
 70
     1
102
RTVSPropertyOp43
 70
     1
102
RTVSPropertyOp44
 70
     1
102
RTVSPropertyOp45
 70
     1
102
RTVSPropertyOp46
 70
     1
102
RTVSPropertyOp47
 70
     1
102
RTVSPropertyOp48
 70
     1
102
RTVSPropertyOp49
 70
     1
102
RTVSPropertyOp50
 70
     1
102
RTVSPropertyOp51
 70
     0
102
RTVSPropertyOp52
 70
     0
102
RTVSPropertyOp53
 70
     1
102
RTVSPropertyOp54
 70
     1
102
RTVSPropertyOp55
 70
     1
102
RTVSPropertyOp56
 70
     1
102
RTVSPropertyOp57
 70
     1
102
RTVSPropertyOp58
 70
     1
102
RTVSPropertyOp59
 70
     1
102
RTVSPropertyOp60
 70
     1
102
RTVSPropertyOp61
 70
     1
102
RTVSPropertyOp62
 70
     1
  0
XRECORD
  5
C6CF
102
{ACAD_REACTORS
330
C6CE
102
}
330
C6CE
100
AcDbXrecord
280
     1
102
RTVSPost2010Prop28
280
     0
102
RTVSPost2010PropOp28
 70
     1
102
RTVSPost2010Prop29
280
     1
102
RTVSPost2010PropOp29
 70
     1
102
RTVSPost2010Prop30
280
     1
102
RTVSPost2010PropOp30
 70
     1
102
RTVSPost2010Prop31
280
     0
102
RTVSPost2010PropOp31
 70
     1
102
RTVSPost2010Prop32
280
     0
102
RTVSPost2010PropOp32
 70
     1
102
RTVSPost2010Prop33
280
     0
102
RTVSPost2010PropOp33
 70
     1
102
RTVSPost2010Prop34
280
     0
102
RTVSPost2010PropOp34
 70
     1
102
RTVSPost2010Prop35
280
     0
102
RTVSPost2010PropOp35
 70
     1
102
RTVSPost2010Prop36
280
     0
102
RTVSPost2010PropOp36
 70
     1
102
RTVSPost2010Prop37
 90
       50
102
RTVSPost2010PropOp37
 70
     1
102
RTVSPost2010Prop38
140
0.0
102
RTVSPost2010PropOp38
 70
     1
102
RTVSPost2010Prop39
140
1.0
102
RTVSPost2010PropOp39
 70
     1
102
RTVSPost2010Prop40
 90
        0
102
RTVSPost2010PropOp40
 70
     1
102
RTVSPost2010Prop41ColorIndex
 90
       18
102
RTVSPost2010Prop41ColorRGB
 90
        0
102
RTVSPost2010PropOp41
 70
     1
102
RTVSPost2010Prop42
 90
       50
102
RTVSPost2010PropOp42
 70
     1
102
RTVSPost2010Prop43
 90
        3
102
RTVSPost2010PropOp43
 70
     1
102
RTVSPost2010Prop44ColorIndex
 90
        5
102
RTVSPost2010Prop44ColorRGB
 90
      255
102
RTVSPost2010PropOp44
 70
     1
102
RTVSPost2010Prop45
280
     0
102
RTVSPost2010PropOp45
 70
     1
102
RTVSPost2010Prop46
 90
       50
102
RTVSPost2010PropOp46
 70
     1
102
RTVSPost2010Prop47
 90
       50
102
RTVSPost2010PropOp47
 70
     1
102
RTVSPost2010Prop48
 90
       50
102
RTVSPost2010PropOp48
 70
     1
102
RTVSPost2010Prop49
280
     0
102
RTVSPost2010PropOp49
 70
     1
102
RTVSPost2010Prop50
 90
       50
102
RTVSPost2010PropOp50
 70
     1
102
RTVSPost2010Prop51ColorIndex
 90
      256
102
RTVSPost2010Prop51ColorRGB
 90
-16777216
102
RTVSPost2010PropOp51
 70
     0
102
RTVSPost2010Prop52
140
1.0
102
RTVSPost2010PropOp52
 70
     0
102
RTVSPost2010Prop53
 90
        2
102
RTVSPost2010PropOp53
 70
     1
102
RTVSPost2010Prop54
  1
strokes_ogs.tif
102
RTVSPost2010PropOp54
 70
     1
102
RTVSPost2010Prop55
280
     0
102
RTVSPost2010PropOp55
 70
     1
102
RTVSPost2010Prop56
140
1.0
102
RTVSPost2010PropOp56
 70
     1
102
RTVSPost2010Prop57
140
1.0
102
RTVSPost2010PropOp57
 70
     1
102
RTVSPropertyOp0
 70
     1
102
RTVSPropertyOp1
 70
     1
102
RTVSPropertyOp2
 70
     1
102
RTVSPropertyOp3
 70
     1
102
RTVSPropertyOp4
 70
     1
102
RTVSPropertyOp5
 70
     1
102
RTVSPropertyOp6
 70
     1
102
RTVSPropertyOp7
 70
     1
102
RTVSPropertyOp8
 70
     1
102
RTVSPropertyOp9
 70
     1
102
RTVSPropertyOp10
 70
     1
102
RTVSPropertyOp11
 70
     1
102
RTVSPropertyOp12
 70
     1
102
RTVSPropertyOp13
 70
     1
102
RTVSPropertyOp14
 70
     1
102
RTVSPropertyOp15
 70
     1
102
RTVSPropertyOp16
 70
     1
102
RTVSPropertyOp17
 70
     1
102
RTVSPropertyOp18
 70
     1
102
RTVSPropertyOp19
 70
     1
102
RTVSPropertyOp20
 70
     1
102
RTVSPropertyOp21
 70
     1
102
RTVSPropertyOp22
 70
     1
102
RTVSPropertyOp23
 70
     1
102
RTVSPropertyOp24
 70
     1
102
RTVSPropertyOp25
 70
     1
102
RTVSPropertyOp26
 70
     1
102
RTVSPropertyOp27
 70
     1
102
RTVSPropertyOp28
 70
     1
102
RTVSPropertyOp29
 70
     1
102
RTVSPropertyOp30
 70
     1
102
RTVSPropertyOp31
 70
     1
102
RTVSPropertyOp32
 70
     1
102
RTVSPropertyOp33
 70
     1
102
RTVSPropertyOp34
 70
     1
102
RTVSPropertyOp35
 70
     1
102
RTVSPropertyOp36
 70
     1
102
RTVSPropertyOp37
 70
     1
102
RTVSPropertyOp38
 70
     1
102
RTVSPropertyOp39
 70
     1
102
RTVSPropertyOp40
 70
     1
102
RTVSPropertyOp41
 70
     1
102
RTVSPropertyOp42
 70
     1
102
RTVSPropertyOp43
 70
     1
102
RTVSPropertyOp44
 70
     1
102
RTVSPropertyOp45
 70
     1
102
RTVSPropertyOp46
 70
     1
102
RTVSPropertyOp47
 70
     1
102
RTVSPropertyOp48
 70
     1
102
RTVSPropertyOp49
 70
     1
102
RTVSPropertyOp50
 70
     1
102
RTVSPropertyOp51
 70
     0
102
RTVSPropertyOp52
 70
     0
102
RTVSPropertyOp53
 70
     1
102
RTVSPropertyOp54
 70
     1
102
RTVSPropertyOp55
 70
     1
102
RTVSPropertyOp56
 70
     1
102
RTVSPropertyOp57
 70
     1
102
RTVSPropertyOp58
 70
     1
102
RTVSPropertyOp59
 70
     1
102
RTVSPropertyOp60
 70
     1
102
RTVSPropertyOp61
 70
     1
102
RTVSPropertyOp62
 70
     1
  0
XRECORD
  5
C6D1
102
{ACAD_REACTORS
330
C6D0
102
}
330
C6D0
100
AcDbXrecord
280
     1
102
RTVSPost2010Prop28
280
     0
102
RTVSPost2010PropOp28
 70
     1
102
RTVSPost2010Prop29
280
     1
102
RTVSPost2010PropOp29
 70
     1
102
RTVSPost2010Prop30
280
     1
102
RTVSPost2010PropOp30
 70
     1
102
RTVSPost2010Prop31
280
     0
102
RTVSPost2010PropOp31
 70
     1
102
RTVSPost2010Prop32
280
     0
102
RTVSPost2010PropOp32
 70
     1
102
RTVSPost2010Prop33
280
     0
102
RTVSPost2010PropOp33
 70
     1
102
RTVSPost2010Prop34
280
     0
102
RTVSPost2010PropOp34
 70
     1
102
RTVSPost2010Prop35
280
     0
102
RTVSPost2010PropOp35
 70
     1
102
RTVSPost2010Prop36
280
     0
102
RTVSPost2010PropOp36
 70
     1
102
RTVSPost2010Prop37
 90
       50
102
RTVSPost2010PropOp37
 70
     1
102
RTVSPost2010Prop38
140
0.0
102
RTVSPost2010PropOp38
 70
     1
102
RTVSPost2010Prop39
140
1.0
102
RTVSPost2010PropOp39
 70
     1
102
RTVSPost2010Prop40
 90
        0
102
RTVSPost2010PropOp40
 70
     1
102
RTVSPost2010Prop41ColorIndex
 90
       18
102
RTVSPost2010Prop41ColorRGB
 90
        0
102
RTVSPost2010PropOp41
 70
     1
102
RTVSPost2010Prop42
 90
       50
102
RTVSPost2010PropOp42
 70
     1
102
RTVSPost2010Prop43
 90
        3
102
RTVSPost2010PropOp43
 70
     1
102
RTVSPost2010Prop44ColorIndex
 90
        5
102
RTVSPost2010Prop44ColorRGB
 90
      255
102
RTVSPost2010PropOp44
 70
     1
102
RTVSPost2010Prop45
280
     0
102
RTVSPost2010PropOp45
 70
     1
102
RTVSPost2010Prop46
 90
       50
102
RTVSPost2010PropOp46
 70
     1
102
RTVSPost2010Prop47
 90
       50
102
RTVSPost2010PropOp47
 70
     1
102
RTVSPost2010Prop48
 90
       50
102
RTVSPost2010PropOp48
 70
     1
102
RTVSPost2010Prop49
280
     0
102
RTVSPost2010PropOp49
 70
     1
102
RTVSPost2010Prop50
 90
       50
102
RTVSPost2010PropOp50
 70
     1
102
RTVSPost2010Prop51ColorIndex
 90
      256
102
RTVSPost2010Prop51ColorRGB
 90
-16777216
102
RTVSPost2010PropOp51
 70
     0
102
RTVSPost2010Prop52
140
1.0
102
RTVSPost2010PropOp52
 70
     0
102
RTVSPost2010Prop53
 90
        2
102
RTVSPost2010PropOp53
 70
     1
102
RTVSPost2010Prop54
  1
strokes_ogs.tif
102
RTVSPost2010PropOp54
 70
     1
102
RTVSPost2010Prop55
280
     0
102
RTVSPost2010PropOp55
 70
     1
102
RTVSPost2010Prop56
140
1.0
102
RTVSPost2010PropOp56
 70
     1
102
RTVSPost2010Prop57
140
1.0
102
RTVSPost2010PropOp57
 70
     1
102
RTVSPropertyOp0
 70
     1
102
RTVSPropertyOp1
 70
     1
102
RTVSPropertyOp2
 70
     1
102
RTVSPropertyOp3
 70
     1
102
RTVSPropertyOp4
 70
     1
102
RTVSPropertyOp5
 70
     1
102
RTVSPropertyOp6
 70
     1
102
RTVSPropertyOp7
 70
     1
102
RTVSPropertyOp8
 70
     1
102
RTVSPropertyOp9
 70
     1
102
RTVSPropertyOp10
 70
     1
102
RTVSPropertyOp11
 70
     1
102
RTVSPropertyOp12
 70
     1
102
RTVSPropertyOp13
 70
     1
102
RTVSPropertyOp14
 70
     1
102
RTVSPropertyOp15
 70
     1
102
RTVSPropertyOp16
 70
     1
102
RTVSPropertyOp17
 70
     1
102
RTVSPropertyOp18
 70
     1
102
RTVSPropertyOp19
 70
     1
102
RTVSPropertyOp20
 70
     1
102
RTVSPropertyOp21
 70
     1
102
RTVSPropertyOp22
 70
     1
102
RTVSPropertyOp23
 70
     1
102
RTVSPropertyOp24
 70
     1
102
RTVSPropertyOp25
 70
     1
102
RTVSPropertyOp26
 70
     1
102
RTVSPropertyOp27
 70
     1
102
RTVSPropertyOp28
 70
     1
102
RTVSPropertyOp29
 70
     1
102
RTVSPropertyOp30
 70
     1
102
RTVSPropertyOp31
 70
     1
102
RTVSPropertyOp32
 70
     1
102
RTVSPropertyOp33
 70
     1
102
RTVSPropertyOp34
 70
     1
102
RTVSPropertyOp35
 70
     1
102
RTVSPropertyOp36
 70
     1
102
RTVSPropertyOp37
 70
     1
102
RTVSPropertyOp38
 70
     1
102
RTVSPropertyOp39
 70
     1
102
RTVSPropertyOp40
 70
     1
102
RTVSPropertyOp41
 70
     1
102
RTVSPropertyOp42
 70
     1
102
RTVSPropertyOp43
 70
     1
102
RTVSPropertyOp44
 70
     1
102
RTVSPropertyOp45
 70
     1
102
RTVSPropertyOp46
 70
     1
102
RTVSPropertyOp47
 70
     1
102
RTVSPropertyOp48
 70
     1
102
RTVSPropertyOp49
 70
     1
102
RTVSPropertyOp50
 70
     1
102
RTVSPropertyOp51
 70
     0
102
RTVSPropertyOp52
 70
     0
102
RTVSPropertyOp53
 70
     1
102
RTVSPropertyOp54
 70
     1
102
RTVSPropertyOp55
 70
     1
102
RTVSPropertyOp56
 70
     1
102
RTVSPropertyOp57
 70
     1
102
RTVSPropertyOp58
 70
     1
102
RTVSPropertyOp59
 70
     1
102
RTVSPropertyOp60
 70
     1
102
RTVSPropertyOp61
 70
     1
102
RTVSPropertyOp62
 70
     1
  0
XRECORD
  5
C6C7
102
{ACAD_REACTORS
330
C6C6
102
}
330
C6C6
100
AcDbXrecord
280
     1
102
RTVSPost2010Prop28
280
     0
102
RTVSPost2010PropOp28
 70
     1
102
RTVSPost2010Prop29
280
     1
102
RTVSPost2010PropOp29
 70
     1
102
RTVSPost2010Prop30
280
     1
102
RTVSPost2010PropOp30
 70
     1
102
RTVSPost2010Prop31
280
     0
102
RTVSPost2010PropOp31
 70
     1
102
RTVSPost2010Prop32
280
     0
102
RTVSPost2010PropOp32
 70
     1
102
RTVSPost2010Prop33
280
     0
102
RTVSPost2010PropOp33
 70
     1
102
RTVSPost2010Prop34
280
     0
102
RTVSPost2010PropOp34
 70
     1
102
RTVSPost2010Prop35
280
     0
102
RTVSPost2010PropOp35
 70
     1
102
RTVSPost2010Prop36
280
     0
102
RTVSPost2010PropOp36
 70
     1
102
RTVSPost2010Prop37
 90
       50
102
RTVSPost2010PropOp37
 70
     1
102
RTVSPost2010Prop38
140
0.0
102
RTVSPost2010PropOp38
 70
     1
102
RTVSPost2010Prop39
140
1.0
102
RTVSPost2010PropOp39
 70
     1
102
RTVSPost2010Prop40
 90
        0
102
RTVSPost2010PropOp40
 70
     1
102
RTVSPost2010Prop41ColorIndex
 90
       18
102
RTVSPost2010Prop41ColorRGB
 90
        0
102
RTVSPost2010PropOp41
 70
     1
102
RTVSPost2010Prop42
 90
       50
102
RTVSPost2010PropOp42
 70
     1
102
RTVSPost2010Prop43
 90
        3
102
RTVSPost2010PropOp43
 70
     1
102
RTVSPost2010Prop44ColorIndex
 90
        5
102
RTVSPost2010Prop44ColorRGB
 90
      255
102
RTVSPost2010PropOp44
 70
     1
102
RTVSPost2010Prop45
280
     0
102
RTVSPost2010PropOp45
 70
     1
102
RTVSPost2010Prop46
 90
       50
102
RTVSPost2010PropOp46
 70
     1
102
RTVSPost2010Prop47
 90
       50
102
RTVSPost2010PropOp47
 70
     1
102
RTVSPost2010Prop48
 90
       50
102
RTVSPost2010PropOp48
 70
     1
102
RTVSPost2010Prop49
280
     0
102
RTVSPost2010PropOp49
 70
     1
102
RTVSPost2010Prop50
 90
       50
102
RTVSPost2010PropOp50
 70
     1
102
RTVSPost2010Prop51ColorIndex
 90
      256
102
RTVSPost2010Prop51ColorRGB
 90
-16777216
102
RTVSPost2010PropOp51
 70
     0
102
RTVSPost2010Prop52
140
1.0
102
RTVSPost2010PropOp52
 70
     0
102
RTVSPost2010Prop53
 90
        2
102
RTVSPost2010PropOp53
 70
     1
102
RTVSPost2010Prop54
  1
strokes_ogs.tif
102
RTVSPost2010PropOp54
 70
     1
102
RTVSPost2010Prop55
280
     0
102
RTVSPost2010PropOp55
 70
     1
102
RTVSPost2010Prop56
140
1.0
102
RTVSPost2010PropOp56
 70
     1
102
RTVSPost2010Prop57
140
1.0
102
RTVSPost2010PropOp57
 70
     1
102
RTVSPropertyOp0
 70
     1
102
RTVSPropertyOp1
 70
     1
102
RTVSPropertyOp2
 70
     1
102
RTVSPropertyOp3
 70
     1
102
RTVSPropertyOp4
 70
     1
102
RTVSPropertyOp5
 70
     1
102
RTVSPropertyOp6
 70
     1
102
RTVSPropertyOp7
 70
     1
102
RTVSPropertyOp8
 70
     1
102
RTVSPropertyOp9
 70
     1
102
RTVSPropertyOp10
 70
     1
102
RTVSPropertyOp11
 70
     1
102
RTVSPropertyOp12
 70
     1
102
RTVSPropertyOp13
 70
     1
102
RTVSPropertyOp14
 70
     1
102
RTVSPropertyOp15
 70
     1
102
RTVSPropertyOp16
 70
     1
102
RTVSPropertyOp17
 70
     1
102
RTVSPropertyOp18
 70
     1
102
RTVSPropertyOp19
 70
     1
102
RTVSPropertyOp20
 70
     1
102
RTVSPropertyOp21
 70
     1
102
RTVSPropertyOp22
 70
     1
102
RTVSPropertyOp23
 70
     1
102
RTVSPropertyOp24
 70
     1
102
RTVSPropertyOp25
 70
     1
102
RTVSPropertyOp26
 70
     1
102
RTVSPropertyOp27
 70
     1
102
RTVSPropertyOp28
 70
     1
102
RTVSPropertyOp29
 70
     1
102
RTVSPropertyOp30
 70
     1
102
RTVSPropertyOp31
 70
     1
102
RTVSPropertyOp32
 70
     1
102
RTVSPropertyOp33
 70
     1
102
RTVSPropertyOp34
 70
     1
102
RTVSPropertyOp35
 70
     1
102
RTVSPropertyOp36
 70
     1
102
RTVSPropertyOp37
 70
     1
102
RTVSPropertyOp38
 70
     1
102
RTVSPropertyOp39
 70
     1
102
RTVSPropertyOp40
 70
     1
102
RTVSPropertyOp41
 70
     1
102
RTVSPropertyOp42
 70
     1
102
RTVSPropertyOp43
 70
     1
102
RTVSPropertyOp44
 70
     1
102
RTVSPropertyOp45
 70
     1
102
RTVSPropertyOp46
 70
     1
102
RTVSPropertyOp47
 70
     1
102
RTVSPropertyOp48
 70
     1
102
RTVSPropertyOp49
 70
     1
102
RTVSPropertyOp50
 70
     1
102
RTVSPropertyOp51
 70
     0
102
RTVSPropertyOp52
 70
     0
102
RTVSPropertyOp53
 70
     1
102
RTVSPropertyOp54
 70
     1
102
RTVSPropertyOp55
 70
     1
102
RTVSPropertyOp56
 70
     1
102
RTVSPropertyOp57
 70
     1
102
RTVSPropertyOp58
 70
     1
102
RTVSPropertyOp59
 70
     1
102
RTVSPropertyOp60
 70
     1
102
RTVSPropertyOp61
 70
     1
102
RTVSPropertyOp62
 70
     1
  0
XRECORD
  5
C6BB
102
{ACAD_REACTORS
330
C6BA
102
}
330
C6BA
100
AcDbXrecord
280
     1
102
RTVSPost2010Prop28
280
     0
102
RTVSPost2010PropOp28
 70
     1
102
RTVSPost2010Prop29
280
     1
102
RTVSPost2010PropOp29
 70
     1
102
RTVSPost2010Prop30
280
     1
102
RTVSPost2010PropOp30
 70
     1
102
RTVSPost2010Prop31
280
     0
102
RTVSPost2010PropOp31
 70
     1
102
RTVSPost2010Prop32
280
     0
102
RTVSPost2010PropOp32
 70
     1
102
RTVSPost2010Prop33
280
     0
102
RTVSPost2010PropOp33
 70
     1
102
RTVSPost2010Prop34
280
     0
102
RTVSPost2010PropOp34
 70
     1
102
RTVSPost2010Prop35
280
     0
102
RTVSPost2010PropOp35
 70
     1
102
RTVSPost2010Prop36
280
     0
102
RTVSPost2010PropOp36
 70
     1
102
RTVSPost2010Prop37
 90
       50
102
RTVSPost2010PropOp37
 70
     1
102
RTVSPost2010Prop38
140
0.0
102
RTVSPost2010PropOp38
 70
     1
102
RTVSPost2010Prop39
140
1.0
102
RTVSPost2010PropOp39
 70
     1
102
RTVSPost2010Prop40
 90
        0
102
RTVSPost2010PropOp40
 70
     1
102
RTVSPost2010Prop41ColorIndex
 90
       18
102
RTVSPost2010Prop41ColorRGB
 90
        0
102
RTVSPost2010PropOp41
 70
     1
102
RTVSPost2010Prop42
 90
       50
102
RTVSPost2010PropOp42
 70
     1
102
RTVSPost2010Prop43
 90
        3
102
RTVSPost2010PropOp43
 70
     1
102
RTVSPost2010Prop44ColorIndex
 90
        5
102
RTVSPost2010Prop44ColorRGB
 90
      255
102
RTVSPost2010PropOp44
 70
     1
102
RTVSPost2010Prop45
280
     0
102
RTVSPost2010PropOp45
 70
     1
102
RTVSPost2010Prop46
 90
       50
102
RTVSPost2010PropOp46
 70
     1
102
RTVSPost2010Prop47
 90
       50
102
RTVSPost2010PropOp47
 70
     1
102
RTVSPost2010Prop48
 90
       50
102
RTVSPost2010PropOp48
 70
     1
102
RTVSPost2010Prop49
280
     0
102
RTVSPost2010PropOp49
 70
     1
102
RTVSPost2010Prop50
 90
       50
102
RTVSPost2010PropOp50
 70
     1
102
RTVSPost2010Prop51ColorIndex
 90
      256
102
RTVSPost2010Prop51ColorRGB
 90
-16777216
102
RTVSPost2010PropOp51
 70
     0
102
RTVSPost2010Prop52
140
1.0
102
RTVSPost2010PropOp52
 70
     0
102
RTVSPost2010Prop53
 90
        2
102
RTVSPost2010PropOp53
 70
     1
102
RTVSPost2010Prop54
  1
strokes_ogs.tif
102
RTVSPost2010PropOp54
 70
     1
102
RTVSPost2010Prop55
280
     0
102
RTVSPost2010PropOp55
 70
     1
102
RTVSPost2010Prop56
140
1.0
102
RTVSPost2010PropOp56
 70
     1
102
RTVSPost2010Prop57
140
1.0
102
RTVSPost2010PropOp57
 70
     1
102
RTVSPropertyOp0
 70
     1
102
RTVSPropertyOp1
 70
     1
102
RTVSPropertyOp2
 70
     1
102
RTVSPropertyOp3
 70
     1
102
RTVSPropertyOp4
 70
     1
102
RTVSPropertyOp5
 70
     1
102
RTVSPropertyOp6
 70
     1
102
RTVSPropertyOp7
 70
     1
102
RTVSPropertyOp8
 70
     1
102
RTVSPropertyOp9
 70
     1
102
RTVSPropertyOp10
 70
     1
102
RTVSPropertyOp11
 70
     1
102
RTVSPropertyOp12
 70
     1
102
RTVSPropertyOp13
 70
     1
102
RTVSPropertyOp14
 70
     1
102
RTVSPropertyOp15
 70
     1
102
RTVSPropertyOp16
 70
     1
102
RTVSPropertyOp17
 70
     1
102
RTVSPropertyOp18
 70
     1
102
RTVSPropertyOp19
 70
     1
102
RTVSPropertyOp20
 70
     1
102
RTVSPropertyOp21
 70
     1
102
RTVSPropertyOp22
 70
     1
102
RTVSPropertyOp23
 70
     1
102
RTVSPropertyOp24
 70
     1
102
RTVSPropertyOp25
 70
     1
102
RTVSPropertyOp26
 70
     1
102
RTVSPropertyOp27
 70
     1
102
RTVSPropertyOp28
 70
     1
102
RTVSPropertyOp29
 70
     1
102
RTVSPropertyOp30
 70
     1
102
RTVSPropertyOp31
 70
     1
102
RTVSPropertyOp32
 70
     1
102
RTVSPropertyOp33
 70
     1
102
RTVSPropertyOp34
 70
     1
102
RTVSPropertyOp35
 70
     1
102
RTVSPropertyOp36
 70
     1
102
RTVSPropertyOp37
 70
     1
102
RTVSPropertyOp38
 70
     1
102
RTVSPropertyOp39
 70
     1
102
RTVSPropertyOp40
 70
     1
102
RTVSPropertyOp41
 70
     1
102
RTVSPropertyOp42
 70
     1
102
RTVSPropertyOp43
 70
     1
102
RTVSPropertyOp44
 70
     1
102
RTVSPropertyOp45
 70
     1
102
RTVSPropertyOp46
 70
     1
102
RTVSPropertyOp47
 70
     1
102
RTVSPropertyOp48
 70
     1
102
RTVSPropertyOp49
 70
     1
102
RTVSPropertyOp50
 70
     1
102
RTVSPropertyOp51
 70
     0
102
RTVSPropertyOp52
 70
     0
102
RTVSPropertyOp53
 70
     1
102
RTVSPropertyOp54
 70
     1
102
RTVSPropertyOp55
 70
     1
102
RTVSPropertyOp56
 70
     1
102
RTVSPropertyOp57
 70
     1
102
RTVSPropertyOp58
 70
     1
102
RTVSPropertyOp59
 70
     1
102
RTVSPropertyOp60
 70
     1
102
RTVSPropertyOp61
 70
     1
102
RTVSPropertyOp62
 70
     1
  0
XRECORD
  5
C6D3
102
{ACAD_REACTORS
330
C6D2
102
}
330
C6D2
100
AcDbXrecord
280
     1
102
RTVSPost2010Prop28
280
     0
102
RTVSPost2010PropOp28
 70
     1
102
RTVSPost2010Prop29
280
     1
102
RTVSPost2010PropOp29
 70
     1
102
RTVSPost2010Prop30
280
     1
102
RTVSPost2010PropOp30
 70
     1
102
RTVSPost2010Prop31
280
     0
102
RTVSPost2010PropOp31
 70
     1
102
RTVSPost2010Prop32
280
     0
102
RTVSPost2010PropOp32
 70
     1
102
RTVSPost2010Prop33
280
     0
102
RTVSPost2010PropOp33
 70
     1
102
RTVSPost2010Prop34
280
     0
102
RTVSPost2010PropOp34
 70
     1
102
RTVSPost2010Prop35
280
     0
102
RTVSPost2010PropOp35
 70
     1
102
RTVSPost2010Prop36
280
     0
102
RTVSPost2010PropOp36
 70
     1
102
RTVSPost2010Prop37
 90
       50
102
RTVSPost2010PropOp37
 70
     1
102
RTVSPost2010Prop38
140
0.0
102
RTVSPost2010PropOp38
 70
     1
102
RTVSPost2010Prop39
140
1.0
102
RTVSPost2010PropOp39
 70
     1
102
RTVSPost2010Prop40
 90
        0
102
RTVSPost2010PropOp40
 70
     1
102
RTVSPost2010Prop41ColorIndex
 90
       18
102
RTVSPost2010Prop41ColorRGB
 90
        0
102
RTVSPost2010PropOp41
 70
     1
102
RTVSPost2010Prop42
 90
       50
102
RTVSPost2010PropOp42
 70
     1
102
RTVSPost2010Prop43
 90
        3
102
RTVSPost2010PropOp43
 70
     1
102
RTVSPost2010Prop44ColorIndex
 90
        5
102
RTVSPost2010Prop44ColorRGB
 90
      255
102
RTVSPost2010PropOp44
 70
     1
102
RTVSPost2010Prop45
280
     0
102
RTVSPost2010PropOp45
 70
     1
102
RTVSPost2010Prop46
 90
       50
102
RTVSPost2010PropOp46
 70
     1
102
RTVSPost2010Prop47
 90
       50
102
RTVSPost2010PropOp47
 70
     1
102
RTVSPost2010Prop48
 90
       50
102
RTVSPost2010PropOp48
 70
     1
102
RTVSPost2010Prop49
280
     0
102
RTVSPost2010PropOp49
 70
     1
102
RTVSPost2010Prop50
 90
       50
102
RTVSPost2010PropOp50
 70
     1
102
RTVSPost2010Prop51ColorIndex
 90
      256
102
RTVSPost2010Prop51ColorRGB
 90
-16777216
102
RTVSPost2010PropOp51
 70
     0
102
RTVSPost2010Prop52
140
1.0
102
RTVSPost2010PropOp52
 70
     0
102
RTVSPost2010Prop53
 90
        2
102
RTVSPost2010PropOp53
 70
     1
102
RTVSPost2010Prop54
  1
strokes_ogs.tif
102
RTVSPost2010PropOp54
 70
     1
102
RTVSPost2010Prop55
280
     0
102
RTVSPost2010PropOp55
 70
     1
102
RTVSPost2010Prop56
140
1.0
102
RTVSPost2010PropOp56
 70
     1
102
RTVSPost2010Prop57
140
1.0
102
RTVSPost2010PropOp57
 70
     1
102
RTVSPropertyOp0
 70
     1
102
RTVSPropertyOp1
 70
     1
102
RTVSPropertyOp2
 70
     1
102
RTVSPropertyOp3
 70
     1
102
RTVSPropertyOp4
 70
     1
102
RTVSPropertyOp5
 70
     1
102
RTVSPropertyOp6
 70
     1
102
RTVSPropertyOp7
 70
     1
102
RTVSPropertyOp8
 70
     1
102
RTVSPropertyOp9
 70
     1
102
RTVSPropertyOp10
 70
     1
102
RTVSPropertyOp11
 70
     1
102
RTVSPropertyOp12
 70
     1
102
RTVSPropertyOp13
 70
     1
102
RTVSPropertyOp14
 70
     1
102
RTVSPropertyOp15
 70
     1
102
RTVSPropertyOp16
 70
     1
102
RTVSPropertyOp17
 70
     1
102
RTVSPropertyOp18
 70
     1
102
RTVSPropertyOp19
 70
     1
102
RTVSPropertyOp20
 70
     1
102
RTVSPropertyOp21
 70
     1
102
RTVSPropertyOp22
 70
     1
102
RTVSPropertyOp23
 70
     1
102
RTVSPropertyOp24
 70
     1
102
RTVSPropertyOp25
 70
     1
102
RTVSPropertyOp26
 70
     1
102
RTVSPropertyOp27
 70
     1
102
RTVSPropertyOp28
 70
     1
102
RTVSPropertyOp29
 70
     1
102
RTVSPropertyOp30
 70
     1
102
RTVSPropertyOp31
 70
     1
102
RTVSPropertyOp32
 70
     1
102
RTVSPropertyOp33
 70
     1
102
RTVSPropertyOp34
 70
     1
102
RTVSPropertyOp35
 70
     1
102
RTVSPropertyOp36
 70
     1
102
RTVSPropertyOp37
 70
     1
102
RTVSPropertyOp38
 70
     1
102
RTVSPropertyOp39
 70
     1
102
RTVSPropertyOp40
 70
     1
102
RTVSPropertyOp41
 70
     1
102
RTVSPropertyOp42
 70
     1
102
RTVSPropertyOp43
 70
     1
102
RTVSPropertyOp44
 70
     1
102
RTVSPropertyOp45
 70
     1
102
RTVSPropertyOp46
 70
     1
102
RTVSPropertyOp47
 70
     1
102
RTVSPropertyOp48
 70
     1
102
RTVSPropertyOp49
 70
     1
102
RTVSPropertyOp50
 70
     1
102
RTVSPropertyOp51
 70
     0
102
RTVSPropertyOp52
 70
     0
102
RTVSPropertyOp53
 70
     1
102
RTVSPropertyOp54
 70
     1
102
RTVSPropertyOp55
 70
     1
102
RTVSPropertyOp56
 70
     1
102
RTVSPropertyOp57
 70
     1
102
RTVSPropertyOp58
 70
     1
102
RTVSPropertyOp59
 70
     1
102
RTVSPropertyOp60
 70
     1
102
RTVSPropertyOp61
 70
     1
102
RTVSPropertyOp62
 70
     1
  0
ENDSEC
  0
EOF
