  0
SECTION
  2
HEADER
  9
$ACADVER
  1
AC1015
  9
$ACADMAINTVER
 70
    20
  9
$DWGCODEPAGE
  3
ANSI_932
  9
$INSBASE
 10
0.0
 20
0.0
 30
0.0
  9
$EXTMIN
 10
9.99995
 20
9.999999999999998
 30
0.0
  9
$EXTMAX
 10
443.5417469999999
 20
289.208032
 30
0.0
  9
$LIMMIN
 10
0.0
 20
0.0
  9
$LIMMAX
 10
495.0
 20
341.25
  9
$ORTHOMODE
 70
     0
  9
$REGENMODE
 70
     1
  9
$FILLMODE
 70
     1
  9
$QTEXTMODE
 70
     0
  9
$MIRRTEXT
 70
     1
  9
$LTSCALE
 40
20.0
  9
$ATTMODE
 70
     1
  9
$TEXTSIZE
 40
5.0
  9
$TRACEWID
 40
1.0
  9
$TEXTSTYLE
  7
STANDARD
  9
$CLAYER
  8
0
  9
$CELTYPE
  6
BYLAYER
  9
$CECOLOR
 62
   256
  9
$CELTSCALE
 40
1.0
  9
$DISPSILH
 70
     0
  9
$DIMSCALE
 40
1.0
  9
$DIMASZ
 40
3.0
  9
$DIMEXO
 40
1.0
  9
$DIMDLI
 40
10.0
  9
$DIMRND
 40
0.0
  9
$DIMDLE
 40
0.0
  9
$DIMEXE
 40
1.0
  9
$DIMTP
 40
0.0
  9
$DIMTM
 40
0.0
  9
$DIMTXT
 40
3.2
  9
$DIMCEN
 40
0.0
  9
$DIMTSZ
 40
0.0
  9
$DIMTOL
 70
     0
  9
$DIMLIM
 70
     0
  9
$DIMTIH
 70
     0
  9
$DIMTOH
 70
     0
  9
$DIMSE1
 70
     0
  9
$DIMSE2
 70
     0
  9
$DIMTAD
 70
     3
  9
$DIMZIN
 70
     8
  9
$DIMBLK
  1

  9
$DIMASO
 70
     1
  9
$DIMSHO
 70
     1
  9
$DIMPOST
  1

  9
$DIMAPOST
  1

  9
$DIMALT
 70
     0
  9
$DIMALTD
 70
     2
  9
$DIMALTF
 40
25.4
  9
$DIMLFAC
 40
1.0
  9
$DIMTOFL
 70
     1
  9
$DIMTVP
 40
0.0
  9
$DIMTIX
 70
     0
  9
$DIMSOXD
 70
     0
  9
$DIMSAH
 70
     1
  9
$DIMBLK1
  1
OPEN
  9
$DIMBLK2
  1
OPEN
  9
$DIMSTYLE
  2
STANDARD
  9
$DIMCLRD
 70
     0
  9
$DIMCLRE
 70
     0
  9
$DIMCLRT
 70
     0
  9
$DIMTFAC
 40
1.0
  9
$DIMGAP
 40
1.0
  9
$DIMJUST
 70
     0
  9
$DIMSD1
 70
     0
  9
$DIMSD2
 70
     0
  9
$DIMTOLJ
 70
     1
  9
$DIMTZIN
 70
     0
  9
$DIMALTZ
 70
     0
  9
$DIMALTTZ
 70
     0
  9
$DIMUPT
 70
     0
  9
$DIMDEC
 70
     4
  9
$DIMTDEC
 70
     4
  9
$DIMALTU
 70
     2
  9
$DIMALTTD
 70
     2
  9
$DIMTXSTY
  7
STANDARD
  9
$DIMAUNIT
 70
     0
  9
$DIMADEC
 70
     0
  9
$DIMALTRND
 40
0.0
  9
$DIMAZIN
 70
     0
  9
$DIMDSEP
 70
    46
  9
$DIMATFIT
 70
     3
  9
$DIMFRAC
 70
     0
  9
$DIMLDRBLK
  1
OPEN
  9
$DIMLUNIT
 70
     2
  9
$DIMLWD
 70
    -2
  9
$DIMLWE
 70
    -2
  9
$DIMTMOVE
 70
     0
  9
$LUNITS
 70
     2
  9
$LUPREC
 70
     4
  9
$SKETCHINC
 40
1.0
  9
$FILLETRAD
 40
0.0
  9
$AUNITS
 70
     0
  9
$AUPREC
 70
     2
  9
$MENU
  1
.
  9
$ELEVATION
 40
0.0
  9
$PELEVATION
 40
0.0
  9
$THICKNESS
 40
0.0
  9
$LIMCHECK
 70
     0
  9
$CHAMFERA
 40
10.0
  9
$CHAMFERB
 40
10.0
  9
$CHAMFERC
 40
0.0
  9
$CHAMFERD
 40
0.0
  9
$SKPOLY
 70
     0
  9
$TDCREATE
 40
2451301.388276736
  9
$TDUCREATE
 40
2451301.013276736
  9
$TDUPDATE
 40
2457192.692172003
  9
$TDUUPDATE
 40
2457192.317172003
  9
$TDINDWG
 40
0.0032924537
  9
$TDUSRTIMER
 40
0.0032921181
  9
$USRTIMER
 70
     1
  9
$ANGBASE
 50
0.0
  9
$ANGDIR
 70
     0
  9
$PDMODE
 70
    34
  9
$PDSIZE
 40
0.0
  9
$PLINEWID
 40
0.0
  9
$SPLFRAME
 70
     0
  9
$SPLINETYPE
 70
     6
  9
$SPLINESEGS
 70
     8
  9
$HANDSEED
  5
C3D1
  9
$SURFTAB1
 70
     6
  9
$SURFTAB2
 70
     6
  9
$SURFTYPE
 70
     6
  9
$SURFU
 70
     6
  9
$SURFV
 70
     6
  9
$UCSBASE
  2

  9
$UCSNAME
  2

  9
$UCSORG
 10
0.0
 20
0.0
 30
0.0
  9
$UCSXDIR
 10
1.0
 20
0.0
 30
0.0
  9
$UCSYDIR
 10
0.0
 20
1.0
 30
0.0
  9
$UCSORTHOREF
  2

  9
$UCSORTHOVIEW
 70
     0
  9
$UCSORGTOP
 10
0.0
 20
0.0
 30
0.0
  9
$UCSORGBOTTOM
 10
0.0
 20
0.0
 30
0.0
  9
$UCSORGLEFT
 10
0.0
 20
0.0
 30
0.0
  9
$UCSORGRIGHT
 10
0.0
 20
0.0
 30
0.0
  9
$UCSORGFRONT
 10
0.0
 20
0.0
 30
0.0
  9
$UCSORGBACK
 10
0.0
 20
0.0
 30
0.0
  9
$PUCSBASE
  2

  9
$PUCSNAME
  2

  9
$PUCSORG
 10
0.0
 20
0.0
 30
0.0
  9
$PUCSXDIR
 10
1.0
 20
0.0
 30
0.0
  9
$PUCSYDIR
 10
0.0
 20
1.0
 30
0.0
  9
$PUCSORTHOREF
  2

  9
$PUCSORTHOVIEW
 70
     0
  9
$PUCSORGTOP
 10
0.0
 20
0.0
 30
0.0
  9
$PUCSORGBOTTOM
 10
0.0
 20
0.0
 30
0.0
  9
$PUCSORGLEFT
 10
0.0
 20
0.0
 30
0.0
  9
$PUCSORGRIGHT
 10
0.0
 20
0.0
 30
0.0
  9
$PUCSORGFRONT
 10
0.0
 20
0.0
 30
0.0
  9
$PUCSORGBACK
 10
0.0
 20
0.0
 30
0.0
  9
$USERI1
 70
     0
  9
$USERI2
 70
     0
  9
$USERI3
 70
     0
  9
$USERI4
 70
     0
  9
$USERI5
 70
     0
  9
$USERR1
 40
0.0
  9
$USERR2
 40
0.0
  9
$USERR3
 40
0.0
  9
$USERR4
 40
0.0
  9
$USERR5
 40
0.0
  9
$WORLDVIEW
 70
     1
  9
$SHADEDGE
 70
     3
  9
$SHADEDIF
 70
    70
  9
$TILEMODE
 70
     1
  9
$MAXACTVP
 70
    16
  9
$PINSBASE
 10
0.0
 20
0.0
 30
0.0
  9
$PLIMCHECK
 70
     0
  9
$PEXTMIN
 10
1.000000000000000E+20
 20
1.000000000000000E+20
 30
1.000000000000000E+20
  9
$PEXTMAX
 10
-1.000000000000000E+20
 20
-1.000000000000000E+20
 30
-1.000000000000000E+20
  9
$PLIMMIN
 10
0.0
 20
0.0
  9
$PLIMMAX
 10
420.0
 20
297.0
  9
$UNITMODE
 70
     0
  9
$VISRETAIN
 70
     0
  9
$PLINEGEN
 70
     0
  9
$PSLTSCALE
 70
     0
  9
$TREEDEPTH
 70
  3020
  9
$CMLSTYLE
  2
STANDARD
  9
$CMLJUST
 70
     0
  9
$CMLSCALE
 40
1.0
  9
$PROXYGRAPHICS
 70
     1
  9
$MEASUREMENT
 70
     0
  9
$CELWEIGHT
370
    -1
  9
$ENDCAPS
280
     0
  9
$JOINSTYLE
280
     0
  9
$LWDISPLAY
290
     0
  9
$INSUNITS
 70
     0
  9
$HYPERLINKBASE
  1

  9
$STYLESHEET
  1

  9
$XEDIT
290
     1
  9
$CEPSNTYPE
380
     0
  9
$PSTYLEMODE
290
     1
  9
$FINGERPRINTGUID
  2
{10D0CBA9-D2C8-465C-8D9E-09149FD1B877}
  9
$VERSIONGUID
  2
{E2860110-816C-42EB-AD43-5DB6509012A8}
  9
$EXTNAMES
290
     1
  9
$PSVPSCALE
 40
0.0
  9
$OLESTARTUP
290
     0
  0
ENDSEC
  0
SECTION
  2
CLASSES
  0
CLASS
  1
ACDBDICTIONARYWDFLT
  2
AcDbDictionaryWithDefault
  3
ObjectDBX Classes
 90
        0
280
     0
281
     0
  0
CLASS
  1
ACDBPLACEHOLDER
  2
AcDbPlaceHolder
  3
ObjectDBX Classes
 90
        0
280
     0
281
     0
  0
CLASS
  1
LAYOUT
  2
AcDbLayout
  3
ObjectDBX Classes
 90
        0
280
     0
281
     0
  0
CLASS
  1
DICTIONARYVAR
  2
AcDbDictionaryVar
  3
ObjectDBX Classes
 90
        0
280
     0
281
     0
  0
CLASS
  1
MATERIAL
  2
AcDbMaterial
  3
ObjectDBX Classes
 90
     1153
280
     0
281
     0
  0
CLASS
  1
VISUALSTYLE
  2
AcDbVisualStyle
  3
ObjectDBX Classes
 90
     4095
280
     0
281
     0
  0
CLASS
  1
TABLESTYLE
  2
AcDbTableStyle
  3
ObjectDBX Classes
 90
     4095
280
     0
281
     0
  0
CLASS
  1
SCALE
  2
AcDbScale
  3
ObjectDBX Classes
 90
     1153
280
     0
281
     0
  0
CLASS
  1
MLEADERSTYLE
  2
AcDbMLeaderStyle
  3
ACDB_MLEADERSTYLE_CLASS
 90
     4095
280
     0
281
     0
  0
CLASS
  1
ACDBSECTIONVIEWSTYLE
  2
AcDbSectionViewStyle
  3
ObjectDBX Classes
 90
     1025
280
     0
281
     0
  0
CLASS
  1
ACDBDETAILVIEWSTYLE
  2
AcDbDetailViewStyle
  3
ObjectDBX Classes
 90
     1025
280
     0
281
     0
  0
CLASS
  1
CELLSTYLEMAP
  2
AcDbCellStyleMap
  3
ObjectDBX Classes
 90
     1152
280
     0
281
     0
  0
ENDSEC
  0
SECTION
  2
TABLES
  0
TABLE
  2
VPORT
  5
C0A3
330
0
100
AcDbSymbolTable
 70
     1
  0
VPORT
  5
C2D7
330
C0A3
100
AcDbSymbolTableRecord
100
AcDbViewportTableRecord
  2
*ACTIVE
 70
     0
 10
0.0
 20
0.0
 11
1.0
 21
1.0
 12
271.1150851569648
 22
170.625
 13
0.0
 23
0.0
 14
10.0
 24
10.0
 15
10.0
 25
10.0
 16
0.0
 26
0.0
 36
1.0
 17
0.0
 27
0.0
 37
0.0
 40
343.7934782608696
 41
2.35006605019815
 42
50.0
 43
0.0
 44
0.0
 50
0.0
 51
0.0
 71
     0
 72
   100
 73
     1
 74
     0
 75
     0
 76
     0
 77
     0
 78
     0
281
     0
 65
     1
110
0.0
120
0.0
130
0.0
111
1.0
121
0.0
131
0.0
112
0.0
122
1.0
132
0.0
 79
     0
146
0.0
1001
ACAD_NAV_VCDISPLAY
1070
     3
  0
ENDTAB
  0
TABLE
  2
LTYPE
  5
C0A0
330
0
100
AcDbSymbolTable
 70
     4
  0
LTYPE
  5
C0AE
330
C0A0
100
AcDbSymbolTableRecord
100
AcDbLinetypeTableRecord
  2
BYBLOCK
 70
     0
  3

 72
    65
 73
     0
 40
0.0
  0
LTYPE
  5
C0AF
330
C0A0
100
AcDbSymbolTableRecord
100
AcDbLinetypeTableRecord
  2
BYLAYER
 70
     0
  3

 72
    65
 73
     0
 40
0.0
  0
LTYPE
  5
C0B0
330
C0A0
100
AcDbSymbolTableRecord
100
AcDbLinetypeTableRecord
  2
CONTINUOUS
 70
     0
  3
Solid line
 72
    65
 73
     0
 40
0.0
  0
LTYPE
  5
C0BE
330
C0A0
100
AcDbSymbolTableRecord
100
AcDbLinetypeTableRecord
  2
DASHED
 70
     0
  3
__ __ __ __ __ __ __ __ __ __ __ __ __ __ __ __
 72
    65
 73
     2
 40
0.75
 49
0.5
 74
     0
 49
-0.25
 74
     0
  0
LTYPE
  5
C0BF
330
C0A0
100
AcDbSymbolTableRecord
100
AcDbLinetypeTableRecord
  2
CENTER
 70
     0
  3
____ _ ____ _ ____ _ ____ _ ____ _ ____ _ ____ 
 72
    65
 73
     4
 40
2.0
 49
1.25
 74
     0
 49
-0.25
 74
     0
 49
0.25
 74
     0
 49
-0.25
 74
     0
  0
LTYPE
  5
C0C0
330
C0A0
100
AcDbSymbolTableRecord
100
AcDbLinetypeTableRecord
  2
PHANTOM
 70
     0
  3
______  __  __  ______  __  __  ______  __  __ 
 72
    65
 73
     6
 40
2.5
 49
1.25
 74
     0
 49
-0.25
 74
     0
 49
0.25
 74
     0
 49
-0.25
 74
     0
 49
0.25
 74
     0
 49
-0.25
 74
     0
  0
ENDTAB
  0
TABLE
  2
LAYER
  5
C09D
330
0
100
AcDbSymbolTable
 70
     8
  0
LAYER
  5
C0AB
102
{ACAD_XDICTIONARY
360
C334
102
}
330
C09D
100
AcDbSymbolTableRecord
100
AcDbLayerTableRecord
  2
0
 70
     0
 62
     7
  6
CONTINUOUS
370
    -3
390
C2E0
  0
LAYER
  5
C0C1
102
{ACAD_XDICTIONARY
360
C336
102
}
330
C09D
100
AcDbSymbolTableRecord
100
AcDbLayerTableRecord
  2
4
 70
     0
 62
     1
  6
CENTER
370
    -3
390
C2E0
  0
LAYER
  5
C0C2
102
{ACAD_XDICTIONARY
360
C338
102
}
330
C09D
100
AcDbSymbolTableRecord
100
AcDbLayerTableRecord
  2
5
 70
     0
 62
     6
  6
PHANTOM
370
    -3
390
C2E0
  0
LAYER
  5
C0C3
102
{ACAD_XDICTIONARY
360
C33A
102
}
330
C09D
100
AcDbSymbolTableRecord
100
AcDbLayerTableRecord
  2
1
 70
     0
 62
     7
  6
CONTINUOUS
370
    -3
390
C2E0
  0
LAYER
  5
C0C4
102
{ACAD_XDICTIONARY
360
C33C
102
}
330
C09D
100
AcDbSymbolTableRecord
100
AcDbLayerTableRecord
  2
2
 70
     0
 62
     4
  6
CONTINUOUS
370
    -3
390
C2E0
  0
LAYER
  5
C0C5
102
{ACAD_XDICTIONARY
360
C33E
102
}
330
C09D
100
AcDbSymbolTableRecord
100
AcDbLayerTableRecord
  2
3
 70
     0
 62
     2
  6
DASHED
370
    -3
390
C2E0
  0
LAYER
  5
C0C6
102
{ACAD_XDICTIONARY
360
C340
102
}
330
C09D
100
AcDbSymbolTableRecord
100
AcDbLayerTableRecord
  2
6
 70
     0
 62
     5
  6
CONTINUOUS
370
    -3
390
C2E0
  0
LAYER
  5
C0C7
102
{ACAD_XDICTIONARY
360
C342
102
}
330
C09D
100
AcDbSymbolTableRecord
100
AcDbLayerTableRecord
  2
7
 70
     0
 62
     3
  6
CONTINUOUS
370
    -3
390
C2E0
  0
ENDTAB
  0
TABLE
  2
STYLE
  5
C09E
330
0
100
AcDbSymbolTable
 70
     1
  0
STYLE
  5
C0AC
330
C09E
100
AcDbSymbolTableRecord
100
AcDbTextStyleTableRecord
  2
STANDARD
 70
     0
 40
0.0
 41
1.0
 50
0.0
 71
     0
 42
5.0
  3
txt
  4

  0
ENDTAB
  0
TABLE
  2
VIEW
  5
C0A1
330
0
100
AcDbSymbolTable
 70
     2
  0
VIEW
  5
C0C8
330
C0A1
100
AcDbSymbolTableRecord
100
AcDbViewTableRecord
  2
7
 70
     0
 40
113.5991649999999
 10
207.7781589999999
 20
100.5444229999999
 41
223.824098
 11
0.0
 21
0.0
 31
1.0
 12
0.0
 22
0.0
 32
0.0
 42
50.0
 43
0.0
 44
0.0
 50
0.0
 71
     0
281
     0
 72
     0
  0
VIEW
  5
C0C9
330
C0A1
100
AcDbSymbolTableRecord
100
AcDbViewTableRecord
  2
6
 70
     0
 40
267.146964
 10
253.9720659999999
 20
125.781695
 41
526.35887
 11
0.0
 21
0.0
 31
1.0
 12
0.0
 22
0.0
 32
0.0
 42
50.0
 43
0.0
 44
0.0
 50
0.0
 71
     0
281
     0
 72
     0
  0
ENDTAB
  0
TABLE
  2
UCS
  5
C0A2
330
0
100
AcDbSymbolTable
 70
     0
  0
ENDTAB
  0
TABLE
  2
APPID
  5
C0A4
330
0
100
AcDbSymbolTable
 70
     4
  0
APPID
  5
C0AD
330
C0A4
100
AcDbSymbolTableRecord
100
AcDbRegAppTableRecord
  2
ACAD
 70
     0
  0
APPID
  5
C332
330
C0A4
100
AcDbSymbolTableRecord
100
AcDbRegAppTableRecord
  2
ACAD_EXEMPT_FROM_CAD_STANDARDS
 70
     0
  0
APPID
  5
C34E
330
C0A4
100
AcDbSymbolTableRecord
100
AcDbRegAppTableRecord
  2
ACAD_NAV_VCDISPLAY
 70
     0
  0
APPID
  5
C387
330
C0A4
100
AcDbSymbolTableRecord
100
AcDbRegAppTableRecord
  2
ACAD_MLEADERVER
 70
     0
  0
ENDTAB
  0
TABLE
  2
DIMSTYLE
  5
C0A5
330
0
100
AcDbSymbolTable
 70
     1
100
AcDbDimStyleTable
 71
     0
  0
DIMSTYLE
105
C0CB
330
C0A5
100
AcDbSymbolTableRecord
100
AcDbDimStyleTableRecord
  2
STANDARD
 70
     0
 41
3.0
 42
1.0
 43
10.0
 44
1.0
 73
     0
 74
     0
 77
     3
 78
     8
140
3.2
141
0.0
147
1.0
172
     1
173
     1
284
     8
285
     8
286
     8
340
C0AC
  0
ENDTAB
  0
TABLE
  2
BLOCK_RECORD
  5
C09C
330
0
100
AcDbSymbolTable
 70
     1
  0
BLOCK_RECORD
  5
C0B9
102
{ACAD_XDICTIONARY
360
C2DA
102
}
330
C09C
100
AcDbSymbolTableRecord
100
AcDbBlockTableRecord
  2
*MODEL_SPACE
340
C32E
  0
BLOCK_RECORD
  5
C0B5
102
{ACAD_XDICTIONARY
360
C2D8
102
}
330
C09C
100
AcDbSymbolTableRecord
100
AcDbBlockTableRecord
  2
*PAPER_SPACE
340
C32F
  0
BLOCK_RECORD
  5
C0D3
330
C09C
100
AcDbSymbolTableRecord
100
AcDbBlockTableRecord
  2
_OPEN
340
0
  0
ENDTAB
  0
ENDSEC
  0
SECTION
  2
BLOCKS
  0
BLOCK
  5
C0BA
330
C0B9
100
AcDbEntity
  8
0
100
AcDbBlockBegin
  2
*MODEL_SPACE
 70
     0
 10
0.0
 20
0.0
 30
0.0
  3
*MODEL_SPACE
  1

  0
ENDBLK
  5
C0BB
330
C0B9
100
AcDbEntity
  8
0
100
AcDbBlockEnd
  0
BLOCK
  5
C0B6
330
C0B5
100
AcDbEntity
 67
     1
  8
0
100
AcDbBlockBegin
  2
*PAPER_SPACE
 70
     0
 10
0.0
 20
0.0
 30
0.0
  3
*PAPER_SPACE
  1

  0
ENDBLK
  5
C0B7
330
C0B5
100
AcDbEntity
 67
     1
  8
0
100
AcDbBlockEnd
  0
BLOCK
  5
C0D4
330
C0D3
100
AcDbEntity
  8
0
100
AcDbBlockBegin
  2
_OPEN
 70
     0
 10
0.0
 20
0.0
 30
0.0
  3
_OPEN
  1

  0
LINE
  5
C0D5
330
C0D3
100
AcDbEntity
  8
0
  6
ByBlock
 62
     0
100
AcDbLine
 10
-1.0
 20
0.166667
 30
0.0
 11
0.0
 21
0.0
 31
0.0
  0
LINE
  5
C0D6
330
C0D3
100
AcDbEntity
  8
0
  6
ByBlock
 62
     0
100
AcDbLine
 10
0.0
 20
0.0
 30
0.0
 11
-1.0
 21
-0.166667
 31
0.0
  0
LINE
  5
C0D7
330
C0D3
100
AcDbEntity
  8
0
  6
ByBlock
 62
     0
100
AcDbLine
 10
0.0
 20
0.0
 30
0.0
 11
-1.0
 21
0.0
 31
0.0
  0
ENDBLK
  5
C0D8
330
C0D3
100
AcDbEntity
  8
0
100
AcDbBlockEnd
  0
ENDSEC
  0
SECTION
  2
ENTITIES
  0
TEXT
  5
C0D9
330
C0B9
100
AcDbEntity
  8
6
  6
Continuous
100
AcDbText
 10
27.97945
 20
10.0487
 30
0.0
 40
1.399999999999999
  1
6
 41
1.069393
100
AcDbText
  0
TEXT
  5
C0DA
330
C0B9
100
AcDbEntity
  8
1
  6
Continuous
100
AcDbText
 10
17.97945
 20
10.0487
 30
0.0
 40
1.399999999999999
  1
1
 41
1.069393
100
AcDbText
  0
TEXT
  5
C0DB
330
C0B9
100
AcDbEntity
  8
1
  6
Continuous
100
AcDbText
 10
9.99995
 20
10.0
 30
0.0
 40
1.399999999999999
  1
LAYER
 41
1.009912999999996
100
AcDbText
  0
TEXT
  5
C0DC
330
C0B9
100
AcDbEntity
  8
2
  6
Continuous
100
AcDbText
 10
19.97944999999998
 20
10.0487
 30
0.0
 40
1.399999999999999
  1
2
 41
1.069393
100
AcDbText
  0
TEXT
  5
C0DD
330
C0B9
100
AcDbEntity
  8
3
  6
DASHED
100
AcDbText
 10
21.97945
 20
10.0487
 30
0.0
 40
1.399999999999999
  1
3
 41
1.069393
100
AcDbText
  0
TEXT
  5
C0DE
330
C0B9
100
AcDbEntity
  8
4
  6
CENTER
100
AcDbText
 10
23.97944999999999
 20
10.0487
 30
0.0
 40
1.399999999999999
  1
4
 41
1.069393
100
AcDbText
  0
TEXT
  5
C0DF
330
C0B9
100
AcDbEntity
  8
5
  6
PHANTOM
100
AcDbText
 10
25.97945
 20
10.0487
 30
0.0
 40
1.399999999999999
  1
5
 41
1.069393
100
AcDbText
  0
TEXT
  5
C0E0
330
C0B9
100
AcDbEntity
  8
7
  6
Continuous
100
AcDbText
 10
10.00005
 20
26.0
 30
0.0
 40
3.0
  1
CODE No.19006
 41
1.003962999999999
100
AcDbText
  0
TEXT
  5
C0E1
330
C0B9
100
AcDbEntity
  8
7
  6
Continuous
100
AcDbText
 10
10.00005
 20
18.0
 30
0.0
 40
3.0
  1
TYPE No.TCA-TE50S (TE50S)
 41
1.002350999999997
100
AcDbText
  0
TEXT
  5
C0E2
330
C0B9
100
AcDbEntity
  8
7
  6
Continuous
100
AcDbText
 10
29.97944999999999
 20
10.0487
 30
0.0
 40
1.399999999999999
  1
7
 41
1.069393
100
AcDbText
  0
LINE
  5
C0E3
330
C0B9
100
AcDbEntity
  8
1
  6
Continuous
100
AcDbLine
 10
139.9864279999998
 20
248.708032
 30
0.0
 11
139.9864279999998
 21
243.363481
 31
0.0
  0
LINE
  5
C0E4
330
C0B9
100
AcDbEntity
  8
4
  6
CENTER
100
AcDbLine
 10
164.9864279999999
 20
289.208032
 30
0.0
 11
164.9864279999999
 21
230.2080319999999
 31
0.0
  0
LINE
  5
C0E5
330
C0B9
100
AcDbEntity
  8
1
  6
Continuous
100
AcDbLine
 10
175.504186
 20
238.6261
 30
0.0
 11
145.220542
 21
238.6261
 31
0.0
  0
LINE
  5
C0E6
330
C0B9
100
AcDbEntity
  8
1
  6
Continuous
100
AcDbLine
 10
148.3200889999999
 20
237.6380539999999
 30
0.0
 11
178.0367639999998
 21
237.6380539999999
 31
0.0
  0
LINE
  5
C0E7
330
C0B9
100
AcDbEntity
  8
1
  6
Continuous
100
AcDbLine
 10
147.6322619999999
 20
238.363929
 30
0.0
 11
176.130286
 21
238.363929
 31
0.0
  0
LINE
  5
C0E8
330
C0B9
100
AcDbEntity
  8
1
  6
Continuous
100
AcDbLine
 10
179.3219679999999
 20
237.2080319999998
 30
0.0
 11
149.886428
 21
237.2080319999998
 31
0.0
  0
LINE
  5
C0E9
330
C0B9
100
AcDbEntity
  8
4
  6
CENTER
100
AcDbLine
 10
194.9864279999999
 20
155.2080319999998
 30
0.0
 11
134.986428
 21
155.2080319999998
 31
0.0
  0
CIRCLE
  5
C0EA
330
C0B9
100
AcDbEntity
  8
1
  6
Continuous
100
AcDbCircle
 10
164.9864279999999
 20
155.2080319999998
 30
0.0
 40
21.0
  0
CIRCLE
  5
C0EB
330
C0B9
100
AcDbEntity
  8
1
  6
Continuous
100
AcDbCircle
 10
164.9864279999999
 20
155.2080319999998
 30
0.0
 40
19.5
  0
CIRCLE
  5
C0EC
330
C0B9
100
AcDbEntity
  8
1
  6
Continuous
100
AcDbCircle
 10
164.9864279999999
 20
155.2080319999998
 30
0.0
 40
25.0
  0
CIRCLE
  5
C0ED
330
C0B9
100
AcDbEntity
  8
1
  6
Continuous
100
AcDbCircle
 10
164.9864279999999
 20
155.2080319999998
 30
0.0
 40
15.09999999999999
  0
CIRCLE
  5
C0EE
330
C0B9
100
AcDbEntity
  8
1
  6
Continuous
100
AcDbCircle
 10
164.9864279999999
 20
155.2080319999998
 30
0.0
 40
17.0
  0
LINE
  5
C0EF
330
C0B9
100
AcDbEntity
  8
4
  6
CENTER
100
AcDbLine
 10
181.986428
 20
142.7284649999998
 30
0.0
 11
181.986428
 21
203.2080319999999
 31
0.0
  0
LINE
  5
C0F0
330
C0B9
100
AcDbEntity
  8
4
  6
CENTER
100
AcDbLine
 10
164.9864279999999
 20
125.208032
 30
0.0
 11
164.9864279999999
 21
185.2080319999998
 31
0.0
  0
LINE
  5
C0F1
330
C0B9
100
AcDbEntity
  8
4
  6
CENTER
100
AcDbLine
 10
181.986428
 20
37.33048
 30
0.0
 11
181.986428
 21
94.05470200000001
 31
0.0
  0
LINE
  5
C0F2
330
C0B9
100
AcDbEntity
  8
4
  6
CENTER
100
AcDbLine
 10
208.848483
 20
65.70803199999999
 30
0.0
 11
128.5673209999999
 21
65.70803199999999
 31
0.0
  0
LINE
  5
C0F3
330
C0B9
100
AcDbEntity
  8
1
  6
Continuous
100
AcDbLine
 10
190.57121
 20
180.2667539999999
 30
0.0
 11
192.3930119999999
 21
149.296115
 31
0.0
  0
LINE
  5
C0F4
330
C0B9
100
AcDbEntity
  8
1
  6
Continuous
100
AcDbLine
 10
190.8956
 20
147.7080319999998
 30
0.0
 11
188.834908
 21
147.7080319999998
 31
0.0
  0
ARC
  5
C0F5
330
C0B9
100
AcDbEntity
  8
1
  6
Continuous
100
AcDbCircle
 10
190.8956
 20
149.208032
 30
0.0
 40
1.5
100
AcDbArc
 50
270.0
 51
3.366461
  0
ARC
  5
C0F6
330
C0B9
100
AcDbEntity
  8
1
  6
Continuous
100
AcDbCircle
 10
168.579404
 20
182.543685
 30
0.0
 40
5.359380999999999
100
AcDbArc
 50
318.8352709999999
 51
334.858862
  0
LINE
  5
C0F7
330
C0B9
100
AcDbEntity
  8
1
  6
Continuous
100
AcDbLine
 10
27.98538999999999
 20
174.9739179999999
 30
0.0
 11
27.98538999999999
 21
135.442146
 31
0.0
  0
LINE
  5
C0F8
330
C0B9
100
AcDbEntity
  8
1
  6
Continuous
100
AcDbLine
 10
70.149253
 20
174.9739179999999
 30
0.0
 11
70.149253
 21
135.442146
 31
0.0
  0
ARC
  5
C0F9
330
C0B9
100
AcDbEntity
  8
1
  6
Continuous
100
AcDbCircle
 10
13.49848299999999
 20
155.2080319999998
 30
0.0
 40
59.5
100
AcDbArc
 50
342.1970739999999
 51
343.042237
  0
LINE
  5
C0FA
330
C0B9
100
AcDbEntity
  8
1
  6
Continuous
100
AcDbLine
 10
59.56732099999999
 20
179.708032
 30
0.0
 11
59.56732099999999
 21
130.708032
 31
0.0
  0
ARC
  5
C0FB
330
C0B9
100
AcDbEntity
  8
1
  6
Continuous
100
AcDbCircle
 10
84.63616
 20
155.2080319999998
 30
0.0
 40
59.5
100
AcDbArc
 50
196.957763
 51
197.802926
  0
LINE
  5
C0FC
330
C0B9
100
AcDbEntity
  8
1
  6
Continuous
100
AcDbLine
 10
38.567321
 20
179.708032
 30
0.0
 11
38.567321
 21
130.708032
 31
0.0
  0
LINE
  5
C0FD
330
C0B9
100
AcDbEntity
  8
4
  6
CENTER
100
AcDbLine
 10
49.067321
 20
203.2080319999999
 30
0.0
 11
49.067321
 21
135.708032
 31
0.0
  0
LINE
  5
C0FE
330
C0B9
100
AcDbEntity
  8
1
  6
Continuous
100
AcDbLine
 10
60.067321
 20
130.2080319999998
 30
0.0
 11
65.411872
 21
130.2080319999998
 31
0.0
  0
ARC
  5
C0FF
330
C0B9
100
AcDbEntity
  8
1
  6
Continuous
100
AcDbCircle
 10
13.49848299999999
 20
155.2080319999998
 30
0.0
 40
60.0
100
AcDbArc
 50
337.975687
 51
340.7657299999999
  0
ARC
  5
C100
330
C0B9
100
AcDbEntity
  8
1
  6
Continuous
100
AcDbCircle
 10
65.411872
 20
134.2080319999998
 30
0.0
 40
4.0
100
AcDbArc
 50
270.0
 51
337.975687
  0
ARC
  5
C101
330
C0B9
100
AcDbEntity
  8
1
  6
Continuous
100
AcDbCircle
 10
60.067321
 20
130.708032
 30
0.0
 40
0.5
100
AcDbArc
 50
180.0
 51
270.0
  0
LINE
  5
C102
330
C0B9
100
AcDbEntity
  8
1
  6
Continuous
100
AcDbLine
 10
38.06732099999999
 20
130.2080319999998
 30
0.0
 11
32.722771
 21
130.2080319999998
 31
0.0
  0
ARC
  5
C103
330
C0B9
100
AcDbEntity
  8
1
  6
Continuous
100
AcDbCircle
 10
38.06732099999999
 20
130.708032
 30
0.0
 40
0.5
100
AcDbArc
 50
270.0
 51
0.0
  0
ARC
  5
C104
330
C0B9
100
AcDbEntity
  8
1
  6
Continuous
100
AcDbCircle
 10
32.722771
 20
134.2080319999998
 30
0.0
 40
4.0
100
AcDbArc
 50
202.0243129999999
 51
270.0
  0
ARC
  5
C105
330
C0B9
100
AcDbEntity
  8
1
  6
Continuous
100
AcDbCircle
 10
84.63616
 20
155.2080319999998
 30
0.0
 40
60.0
100
AcDbArc
 50
199.23427
 51
202.0243129999999
  0
LINE
  5
C106
330
C0B9
100
AcDbEntity
  8
4
  6
CENTER
100
AcDbLine
 10
19.56732099999999
 20
155.2080319999998
 30
0.0
 11
78.56732099999998
 21
155.2080319999998
 31
0.0
  0
ARC
  5
C107
330
C0B9
100
AcDbEntity
  8
1
  6
Continuous
100
AcDbCircle
 10
164.9864279999999
 20
295.2768699999999
 30
0.0
 40
59.5
100
AcDbArc
 50
252.1970739999999
 51
253.042237
  0
ARC
  5
C108
330
C0B9
100
AcDbEntity
  8
1
  6
Continuous
100
AcDbCircle
 10
143.9864279999999
 20
243.363481
 30
0.0
 40
4.0
100
AcDbArc
 50
180.0
 51
247.975687
  0
ARC
  5
C109
330
C0B9
100
AcDbEntity
  8
1
  6
Continuous
100
AcDbCircle
 10
164.9864279999999
 20
295.2768699999999
 30
0.0
 40
60.0
100
AcDbArc
 50
247.975687
 51
250.7657299999999
  0
ARC
  5
C10A
330
C0B9
100
AcDbEntity
  8
1
  6
Continuous
100
AcDbCircle
 10
27.244959
 20
137.708032
 30
0.0
 40
0.5
100
AcDbArc
 50
16.957763
 51
76.54339799999998
  0
ARC
  5
C10B
330
C0B9
100
AcDbEntity
  8
1
  6
Continuous
100
AcDbCircle
 10
27.244959
 20
172.7080319999998
 30
0.0
 40
0.5
100
AcDbArc
 50
283.456602
 51
343.042237
  0
LINE
  5
C10C
330
C0B9
100
AcDbEntity
  8
1
  6
Continuous
100
AcDbLine
 10
71.137299
 20
171.8743719999999
 30
0.0
 11
71.137299
 21
138.5416919999999
 31
0.0
  0
LINE
  5
C10D
330
C0B9
100
AcDbEntity
  8
1
  6
Continuous
100
AcDbLine
 10
70.411424
 20
172.562199
 30
0.0
 11
70.411424
 21
137.8538649999998
 31
0.0
  0
LINE
  5
C10E
330
C0B9
100
AcDbEntity
  8
1
  6
Continuous
100
AcDbLine
 10
27.723219
 20
137.8538649999998
 30
0.0
 11
27.723219
 21
172.562199
 31
0.0
  0
LINE
  5
C10F
330
C0B9
100
AcDbEntity
  8
1
  6
Continuous
100
AcDbLine
 10
40.06732099999999
 20
147.7080319999998
 30
0.0
 11
40.06732099999999
 21
162.5466999999999
 31
0.0
  0
LINE
  5
C110
330
C0B9
100
AcDbEntity
  8
1
  6
Continuous
100
AcDbLine
 10
58.067321
 20
147.7080319999998
 30
0.0
 11
58.067321
 21
162.5466999999999
 31
0.0
  0
LINE
  5
C111
330
C0B9
100
AcDbEntity
  8
1
  6
Continuous
100
AcDbLine
 10
40.06732099999999
 20
147.7080319999998
 30
0.0
 11
58.067321
 21
147.7080319999998
 31
0.0
  0
LINE
  5
C112
330
C0B9
100
AcDbEntity
  8
1
  6
Continuous
100
AcDbLine
 10
71.56732099999998
 20
170.3080319999999
 30
0.0
 11
71.56732099999998
 21
140.108032
 31
0.0
  0
LINE
  5
C113
330
C0B9
100
AcDbEntity
  8
1
  6
Continuous
100
AcDbLine
 10
58.567321
 20
148.208032
 30
0.0
 11
58.567321
 21
161.4511349999999
 31
0.0
  0
ARC
  5
C114
330
C0B9
100
AcDbEntity
  8
1
  6
Continuous
100
AcDbCircle
 10
70.656976
 20
138.6805779999999
 30
0.0
 40
0.5
100
AcDbArc
 50
283.456602
 51
343.872705
  0
ARC
  5
C115
330
C0B9
100
AcDbEntity
  8
1
  6
Continuous
100
AcDbCircle
 10
70.889684
 20
137.708032
 30
0.0
 40
0.5
100
AcDbArc
 50
103.4566019999999
 51
163.0422369999998
  0
ARC
  5
C116
330
C0B9
100
AcDbEntity
  8
1
  6
Continuous
100
AcDbCircle
 10
59.56732099999999
 20
148.208032
 30
0.0
 40
1.0
100
AcDbArc
 50
180.0
 51
270.0
  0
ARC
  5
C117
330
C0B9
100
AcDbEntity
  8
1
  6
Continuous
100
AcDbCircle
 10
59.56732099999999
 20
162.208032
 30
0.0
 40
1.0
100
AcDbArc
 50
90.0
 51
119.9999999999999
  0
LINE
  5
C118
330
C0B9
100
AcDbEntity
  8
1
  6
Continuous
100
AcDbLine
 10
39.56732099999999
 20
161.4511349999999
 30
0.0
 11
39.56732099999999
 21
148.208032
 31
0.0
  0
ARC
  5
C119
330
C0B9
100
AcDbEntity
  8
1
  6
Continuous
100
AcDbCircle
 10
38.567321
 20
148.208032
 30
0.0
 40
1.0
100
AcDbArc
 50
270.0
 51
0.0
  0
ARC
  5
C11A
330
C0B9
100
AcDbEntity
  8
1
  6
Continuous
100
AcDbCircle
 10
38.567321
 20
162.208032
 30
0.0
 40
1.0
100
AcDbArc
 50
60.0
 51
90.0
  0
ARC
  5
C11B
330
C0B9
100
AcDbEntity
  8
1
  6
Continuous
100
AcDbCircle
 10
49.067321
 20
79.113855
 30
0.0
 40
100.0
100
AcDbArc
 50
84.836393
 51
95.16360699999999
  0
LINE
  5
C11C
330
C0B9
100
AcDbEntity
  8
1
  6
Continuous
100
AcDbLine
 10
60.067321
 20
180.2080319999998
 30
0.0
 11
65.411872
 21
180.2080319999998
 31
0.0
  0
ARC
  5
C11D
330
C0B9
100
AcDbEntity
  8
1
  6
Continuous
100
AcDbCircle
 10
65.411872
 20
176.208032
 30
0.0
 40
4.0
100
AcDbArc
 50
22.024313
 51
90.0
  0
ARC
  5
C11E
330
C0B9
100
AcDbEntity
  8
1
  6
Continuous
100
AcDbCircle
 10
13.49848299999999
 20
155.2080319999998
 30
0.0
 40
60.0
100
AcDbArc
 50
19.23427
 51
22.024313
  0
ARC
  5
C11F
330
C0B9
100
AcDbEntity
  8
1
  6
Continuous
100
AcDbCircle
 10
70.656976
 20
171.735485
 30
0.0
 40
0.5
100
AcDbArc
 50
16.127295
 51
76.54339799999998
  0
ARC
  5
C120
330
C0B9
100
AcDbEntity
  8
1
  6
Continuous
100
AcDbCircle
 10
70.889684
 20
172.7080319999998
 30
0.0
 40
0.5
100
AcDbArc
 50
196.957763
 51
256.543398
  0
ARC
  5
C121
330
C0B9
100
AcDbEntity
  8
1
  6
Continuous
100
AcDbCircle
 10
13.49848299999999
 20
155.2080319999998
 30
0.0
 40
59.5
100
AcDbArc
 50
16.957763
 51
17.802926
  0
ARC
  5
C122
330
C0B9
100
AcDbEntity
  8
1
  6
Continuous
100
AcDbCircle
 10
60.067321
 20
179.708032
 30
0.0
 40
0.5
100
AcDbArc
 50
90.0
 51
180.0
  0
ARC
  5
C123
330
C0B9
100
AcDbEntity
  8
1
  6
Continuous
100
AcDbCircle
 10
32.722771
 20
176.208032
 30
0.0
 40
4.0
100
AcDbArc
 50
90.0
 51
157.9756869999999
  0
ARC
  5
C124
330
C0B9
100
AcDbEntity
  8
1
  6
Continuous
100
AcDbCircle
 10
38.06732099999999
 20
179.708032
 30
0.0
 40
0.5
100
AcDbArc
 50
0.0
 51
90.0
  0
ARC
  5
C125
330
C0B9
100
AcDbEntity
  8
1
  6
Continuous
100
AcDbCircle
 10
84.63616
 20
155.2080319999998
 30
0.0
 40
60.0
100
AcDbArc
 50
157.9756869999999
 51
160.7657299999999
  0
ARC
  5
C126
330
C0B9
100
AcDbEntity
  8
1
  6
Continuous
100
AcDbCircle
 10
28.174226
 20
174.908032
 30
0.0
 40
0.2
100
AcDbArc
 50
160.7657299999999
 51
199.23427
  0
ARC
  5
C127
330
C0B9
100
AcDbEntity
  8
1
  6
Continuous
100
AcDbCircle
 10
84.63616
 20
155.2080319999998
 30
0.0
 40
59.5
100
AcDbArc
 50
162.1970739999999
 51
163.0422369999998
  0
LINE
  5
C128
330
C0B9
100
AcDbEntity
  8
1
  6
Continuous
100
AcDbLine
 10
38.06732099999999
 20
180.2080319999998
 30
0.0
 11
32.722771
 21
180.2080319999998
 31
0.0
  0
LINE
  5
C129
330
C0B9
100
AcDbEntity
  8
1
  6
Continuous
100
AcDbLine
 10
26.997344
 20
171.8743719999999
 30
0.0
 11
26.997344
 21
138.5416919999999
 31
0.0
  0
LINE
  5
C12A
330
C0B9
100
AcDbEntity
  8
1
  6
Continuous
100
AcDbLine
 10
26.56732100000001
 20
140.0596789999999
 30
0.0
 11
26.56732100000001
 21
170.3563849999999
 31
0.0
  0
ARC
  5
C12B
330
C0B9
100
AcDbEntity
  8
1
  6
Continuous
100
AcDbCircle
 10
27.47766699999999
 20
138.6805779999999
 30
0.0
 40
0.5
100
AcDbArc
 50
196.127295
 51
256.543398
  0
ARC
  5
C12C
330
C0B9
100
AcDbEntity
  8
1
  6
Continuous
100
AcDbCircle
 10
27.47766699999999
 20
171.735485
 30
0.0
 40
0.5
100
AcDbArc
 50
103.4566019999999
 51
163.8727049999999
  0
LINE
  5
C12D
330
C0B9
100
AcDbEntity
  8
1
  6
Continuous
100
AcDbLine
 10
145.220542
 20
280.789963
 30
0.0
 11
175.566145
 21
280.789963
 31
0.0
  0
LINE
  5
C12E
330
C0B9
100
AcDbEntity
  8
1
  6
Continuous
100
AcDbLine
 10
148.3200889999999
 20
281.7780099999998
 30
0.0
 11
178.1165969999999
 21
281.7780099999998
 31
0.0
  0
LINE
  5
C12F
330
C0B9
100
AcDbEntity
  8
1
  6
Continuous
100
AcDbLine
 10
147.6322619999999
 20
281.052135
 30
0.0
 11
176.196166
 21
281.052135
 31
0.0
  0
LINE
  5
C130
330
C0B9
100
AcDbEntity
  8
1
  6
Continuous
100
AcDbLine
 10
149.838073
 20
282.2080319999999
 30
0.0
 11
179.4134639999998
 21
282.2080319999999
 31
0.0
  0
LINE
  5
C131
330
C0B9
100
AcDbEntity
  8
4
  6
CENTER
100
AcDbLine
 10
130.066101
 20
259.7080319999998
 30
0.0
 11
208.848483
 21
259.7080319999998
 31
0.0
  0
LINE
  5
C132
330
C0B9
100
AcDbEntity
  8
1
  6
Continuous
100
AcDbLine
 10
159.5600849999999
 20
268.708032
 30
0.0
 11
141.730526
 21
268.708032
 31
0.0
  0
LINE
  5
C133
330
C0B9
100
AcDbEntity
  8
1
  6
Continuous
100
AcDbLine
 10
159.552458
 20
250.7080319999999
 30
0.0
 11
141.730526
 21
250.7080319999999
 31
0.0
  0
LINE
  5
C134
330
C0B9
100
AcDbEntity
  8
1
  6
Continuous
100
AcDbLine
 10
159.971054
 20
269.208032
 30
0.0
 11
156.986428
 21
269.208032
 31
0.0
  0
LINE
  5
C135
330
C0B9
100
AcDbEntity
  8
1
  6
Continuous
100
AcDbLine
 10
159.9625019999998
 20
250.2080319999998
 30
0.0
 11
156.986428
 21
250.2080319999998
 31
0.0
  0
ARC
  5
C136
330
C0B9
100
AcDbEntity
  8
1
  6
Continuous
100
AcDbCircle
 10
143.9864279999999
 20
276.052583
 30
0.0
 40
4.0
100
AcDbArc
 50
112.0243129999999
 51
180.0
  0
ARC
  5
C137
330
C0B9
100
AcDbEntity
  8
1
  6
Continuous
100
AcDbCircle
 10
241.326688
 20
259.7080319999998
 30
0.0
 40
100.0
100
AcDbArc
 50
174.849051
 51
175.123975
  0
LINE
  5
C138
330
C0B9
100
AcDbEntity
  8
1
  6
Continuous
100
AcDbLine
 10
160.8229999999998
 20
249.2080319999999
 30
0.0
 11
140.4864279999999
 21
249.2080319999999
 31
0.0
  0
ARC
  5
C139
330
C0B9
100
AcDbEntity
  8
1
  6
Continuous
100
AcDbCircle
 10
157.9864279999999
 20
249.2080319999999
 30
0.0
 40
1.0
100
AcDbArc
 50
90.0
 51
180.0
  0
LINE
  5
C13A
330
C0B9
100
AcDbEntity
  8
1
  6
Continuous
100
AcDbLine
 10
156.986428
 20
250.7080319999999
 30
0.0
 11
156.986428
 21
250.2080319999998
 31
0.0
  0
ARC
  5
C13B
330
C0B9
100
AcDbEntity
  8
1
  6
Continuous
100
AcDbCircle
 10
140.4864279999999
 20
248.708032
 30
0.0
 40
0.5
100
AcDbArc
 50
90.0
 51
180.0
  0
LINE
  5
C13C
330
C0B9
100
AcDbEntity
  8
1
  6
Continuous
100
AcDbLine
 10
160.833516
 20
270.2080319999998
 30
0.0
 11
140.4864279999999
 21
270.2080319999998
 31
0.0
  0
ARC
  5
C13D
330
C0B9
100
AcDbEntity
  8
1
  6
Continuous
100
AcDbCircle
 10
157.9864279999999
 20
270.2080319999998
 30
0.0
 40
1.0
100
AcDbArc
 50
180.0
 51
270.0
  0
LINE
  5
C13E
330
C0B9
100
AcDbEntity
  8
1
  6
Continuous
100
AcDbLine
 10
156.986428
 20
269.208032
 30
0.0
 11
156.986428
 21
268.708032
 31
0.0
  0
ARC
  5
C13F
330
C0B9
100
AcDbEntity
  8
1
  6
Continuous
100
AcDbCircle
 10
140.4864279999999
 20
270.708032
 30
0.0
 40
0.5
100
AcDbArc
 50
180.0
 51
270.0
  0
LINE
  5
C140
330
C0B9
100
AcDbEntity
  8
1
  6
Continuous
100
AcDbLine
 10
139.9864279999998
 20
270.708032
 30
0.0
 11
139.9864279999998
 21
276.052583
 31
0.0
  0
ARC
  5
C141
330
C0B9
100
AcDbEntity
  8
1
  6
Continuous
100
AcDbCircle
 10
164.9864279999999
 20
224.139193
 30
0.0
 40
59.5
100
AcDbArc
 50
106.9577629999999
 51
107.8029259999998
  0
ARC
  5
C142
330
C0B9
100
AcDbEntity
  8
1
  6
Continuous
100
AcDbCircle
 10
148.458975
 20
281.297686
 30
0.0
 40
0.5
100
AcDbArc
 50
106.1272949999999
 51
141.976966
  0
ARC
  5
C143
330
C0B9
100
AcDbEntity
  8
1
  6
Continuous
100
AcDbCircle
 10
164.9864279999999
 20
224.139193
 30
0.0
 40
60.0
100
AcDbArc
 50
109.2342699999998
 51
112.0243129999999
  0
ARC
  5
C144
330
C0B9
100
AcDbEntity
  8
1
  6
Continuous
100
AcDbCircle
 10
164.9864279999999
 20
225.839867
 30
0.0
 40
58.36816500000001
100
AcDbArc
 50
75.35193800000001
 51
106.59102
  0
LINE
  5
C145
330
C0B9
100
AcDbEntity
  8
1
  6
Continuous
100
AcDbLine
 10
148.0650939999998
 20
281.605675
 30
0.0
 11
147.6322619999999
 21
281.052135
 31
0.0
  0
ARC
  5
C146
330
C0B9
100
AcDbEntity
  8
1
  6
Continuous
100
AcDbCircle
 10
164.9864279999999
 20
293.5761979999999
 30
0.0
 40
58.36816500000001
100
AcDbArc
 50
253.40898
 51
284.596048
  0
ARC
  5
C147
330
C0B9
100
AcDbEntity
  8
1
  6
Continuous
100
AcDbCircle
 10
148.458975
 20
238.1183779999998
 30
0.0
 40
0.5
100
AcDbArc
 50
218.023034
 51
253.8727049999998
  0
LINE
  5
C148
330
C0B9
100
AcDbEntity
  8
4
  6
CENTER
100
AcDbLine
 10
181.986428
 20
288.054702
 30
0.0
 11
181.986428
 21
231.33048
 31
0.0
  0
LINE
  5
C149
330
C0B9
100
AcDbEntity
  8
1
  6
Continuous
100
AcDbLine
 10
148.0650939999998
 20
237.8103889999999
 30
0.0
 11
147.6322619999999
 21
238.363929
 31
0.0
  0
LINE
  5
C14A
330
C0B9
100
AcDbEntity
  8
4
  6
CENTER
100
AcDbLine
 10
317.764088
 20
155.2080319999998
 30
0.0
 11
258.764088
 21
155.2080319999998
 31
0.0
  0
ARC
  5
C14B
330
C0B9
100
AcDbEntity
  8
1
  6
Continuous
100
AcDbCircle
 10
271.919537
 20
134.2080319999998
 30
0.0
 40
4.0
100
AcDbArc
 50
202.0243129999999
 51
270.0
  0
ARC
  5
C14C
330
C0B9
100
AcDbEntity
  8
1
  6
Continuous
100
AcDbCircle
 10
271.919537
 20
176.208032
 30
0.0
 40
4.0
100
AcDbArc
 50
90.0
 51
157.9756869999999
  0
LINE
  5
C14D
330
C0B9
100
AcDbEntity
  8
1
  6
Continuous
100
AcDbLine
 10
309.346019
 20
174.9739179999999
 30
0.0
 11
309.346019
 21
135.442146
 31
0.0
  0
LINE
  5
C14E
330
C0B9
100
AcDbEntity
  8
1
  6
Continuous
100
AcDbLine
 10
309.6081899999999
 20
137.8538649999998
 30
0.0
 11
309.6081899999999
 21
172.562199
 31
0.0
  0
LINE
  5
C14F
330
C0B9
100
AcDbEntity
  8
1
  6
Continuous
100
AcDbLine
 10
297.264088
 20
147.7080319999998
 30
0.0
 11
297.264088
 21
180.2080319999998
 31
0.0
  0
LINE
  5
C150
330
C0B9
100
AcDbEntity
  8
1
  6
Continuous
100
AcDbLine
 10
279.2640879999999
 20
147.7080319999998
 30
0.0
 11
279.2640879999999
 21
180.2080319999998
 31
0.0
  0
LINE
  5
C151
330
C0B9
100
AcDbEntity
  8
1
  6
Continuous
100
AcDbLine
 10
278.764088
 20
147.7080319999998
 30
0.0
 11
278.764088
 21
163.208032
 31
0.0
  0
LINE
  5
C152
330
C0B9
100
AcDbEntity
  8
1
  6
Continuous
100
AcDbLine
 10
297.764088
 20
163.208032
 30
0.0
 11
297.764088
 21
147.7080319999998
 31
0.0
  0
LINE
  5
C153
330
C0B9
100
AcDbEntity
  8
1
  6
Continuous
100
AcDbLine
 10
310.334065
 20
171.8743719999999
 30
0.0
 11
310.334065
 21
138.5416919999999
 31
0.0
  0
LINE
  5
C154
330
C0B9
100
AcDbEntity
  8
1
  6
Continuous
100
AcDbLine
 10
310.764088
 20
140.0596789999999
 30
0.0
 11
310.764088
 21
170.3563849999999
 31
0.0
  0
LINE
  5
C155
330
C0B9
100
AcDbEntity
  8
1
  6
Continuous
100
AcDbLine
 10
299.264088
 20
130.2080319999998
 30
0.0
 11
304.6086379999999
 21
130.2080319999998
 31
0.0
  0
ARC
  5
C156
330
C0B9
100
AcDbEntity
  8
1
  6
Continuous
100
AcDbCircle
 10
304.6086379999999
 20
134.2080319999998
 30
0.0
 40
4.0
100
AcDbArc
 50
270.0
 51
337.975687
  0
ARC
  5
C157
330
C0B9
100
AcDbEntity
  8
1
  6
Continuous
100
AcDbCircle
 10
252.6952489999999
 20
155.2080319999998
 30
0.0
 40
59.5
100
AcDbArc
 50
342.1970739999999
 51
343.042237
  0
ARC
  5
C158
330
C0B9
100
AcDbEntity
  8
1
  6
Continuous
100
AcDbCircle
 10
252.6952489999999
 20
155.2080319999998
 30
0.0
 40
60.0
100
AcDbArc
 50
337.975687
 51
340.7657299999999
  0
ARC
  5
C159
330
C0B9
100
AcDbEntity
  8
1
  6
Continuous
100
AcDbCircle
 10
310.08645
 20
137.708032
 30
0.0
 40
0.5
100
AcDbArc
 50
103.4566019999999
 51
163.0422369999998
  0
ARC
  5
C15A
330
C0B9
100
AcDbEntity
  8
1
  6
Continuous
100
AcDbCircle
 10
309.8537419999999
 20
138.6805779999999
 30
0.0
 40
0.5
100
AcDbArc
 50
283.456602
 51
343.872705
  0
LINE
  5
C15B
330
C0B9
100
AcDbEntity
  8
1
  6
Continuous
100
AcDbLine
 10
297.764088
 20
147.7080319999998
 30
0.0
 11
278.764088
 21
147.7080319999998
 31
0.0
  0
LINE
  5
C15C
330
C0B9
100
AcDbEntity
  8
1
  6
Continuous
100
AcDbLine
 10
298.764088
 20
179.708032
 30
0.0
 11
298.764088
 21
130.708032
 31
0.0
  0
ARC
  5
C15D
330
C0B9
100
AcDbEntity
  8
1
  6
Continuous
100
AcDbCircle
 10
299.264088
 20
130.708032
 30
0.0
 40
0.5
100
AcDbArc
 50
180.0
 51
270.0
  0
ARC
  5
C15E
330
C0B9
100
AcDbEntity
  8
1
  6
Continuous
100
AcDbCircle
 10
298.764088
 20
148.208032
 30
0.0
 40
1.0
100
AcDbArc
 50
180.0
 51
270.0
  0
LINE
  5
C15F
330
C0B9
100
AcDbEntity
  8
1
  6
Continuous
100
AcDbLine
 10
277.764088
 20
179.708032
 30
0.0
 11
277.764088
 21
130.708032
 31
0.0
  0
LINE
  5
C160
330
C0B9
100
AcDbEntity
  8
1
  6
Continuous
100
AcDbLine
 10
277.264088
 20
130.2080319999998
 30
0.0
 11
271.919537
 21
130.2080319999998
 31
0.0
  0
ARC
  5
C161
330
C0B9
100
AcDbEntity
  8
1
  6
Continuous
100
AcDbCircle
 10
277.264088
 20
130.708032
 30
0.0
 40
0.5
100
AcDbArc
 50
270.0
 51
0.0
  0
ARC
  5
C162
330
C0B9
100
AcDbEntity
  8
1
  6
Continuous
100
AcDbCircle
 10
277.764088
 20
148.208032
 30
0.0
 40
1.0
100
AcDbArc
 50
270.0
 51
0.0
  0
LINE
  5
C163
330
C0B9
100
AcDbEntity
  8
1
  6
Continuous
100
AcDbLine
 10
299.264088
 20
180.2080319999998
 30
0.0
 11
304.6086379999999
 21
180.2080319999998
 31
0.0
  0
ARC
  5
C164
330
C0B9
100
AcDbEntity
  8
1
  6
Continuous
100
AcDbCircle
 10
310.08645
 20
172.7080319999998
 30
0.0
 40
0.5
100
AcDbArc
 50
196.957763
 51
256.543398
  0
ARC
  5
C165
330
C0B9
100
AcDbEntity
  8
1
  6
Continuous
100
AcDbCircle
 10
252.6952489999999
 20
155.2080319999998
 30
0.0
 40
59.5
100
AcDbArc
 50
16.957763
 51
17.802926
  0
ARC
  5
C166
330
C0B9
100
AcDbEntity
  8
1
  6
Continuous
100
AcDbCircle
 10
309.8537419999999
 20
171.735485
 30
0.0
 40
0.5
100
AcDbArc
 50
16.127295
 51
76.54339799999998
  0
ARC
  5
C167
330
C0B9
100
AcDbEntity
  8
1
  6
Continuous
100
AcDbCircle
 10
304.6086379999999
 20
176.208032
 30
0.0
 40
4.0
100
AcDbArc
 50
22.024313
 51
90.0
  0
ARC
  5
C168
330
C0B9
100
AcDbEntity
  8
1
  6
Continuous
100
AcDbCircle
 10
252.6952489999999
 20
155.2080319999998
 30
0.0
 40
60.0
100
AcDbArc
 50
19.23427
 51
22.024313
  0
ARC
  5
C169
330
C0B9
100
AcDbEntity
  8
1
  6
Continuous
100
AcDbCircle
 10
309.1571829999999
 20
174.908032
 30
0.0
 40
0.2
100
AcDbArc
 50
340.7657299999999
 51
19.23427
  0
ARC
  5
C16A
330
C0B9
100
AcDbEntity
  8
1
  6
Continuous
100
AcDbCircle
 10
298.764088
 20
162.208032
 30
0.0
 40
1.0
100
AcDbArc
 50
90.0
 51
180.0
  0
LINE
  5
C16B
330
C0B9
100
AcDbEntity
  8
1
  6
Continuous
100
AcDbLine
 10
297.264088
 20
163.208032
 30
0.0
 11
297.764088
 21
163.208032
 31
0.0
  0
ARC
  5
C16C
330
C0B9
100
AcDbEntity
  8
1
  6
Continuous
100
AcDbCircle
 10
277.764088
 20
162.208032
 30
0.0
 40
1.0
100
AcDbArc
 50
0.0
 51
90.0
  0
LINE
  5
C16D
330
C0B9
100
AcDbEntity
  8
1
  6
Continuous
100
AcDbLine
 10
278.764088
 20
163.208032
 30
0.0
 11
279.2640879999999
 21
163.208032
 31
0.0
  0
ARC
  5
C16E
330
C0B9
100
AcDbEntity
  8
1
  6
Continuous
100
AcDbCircle
 10
299.264088
 20
179.708032
 30
0.0
 40
0.5
100
AcDbArc
 50
90.0
 51
180.0
  0
LINE
  5
C16F
330
C0B9
100
AcDbEntity
  8
1
  6
Continuous
100
AcDbLine
 10
277.264088
 20
180.2080319999998
 30
0.0
 11
271.919537
 21
180.2080319999998
 31
0.0
  0
ARC
  5
C170
330
C0B9
100
AcDbEntity
  8
1
  6
Continuous
100
AcDbCircle
 10
277.264088
 20
179.708032
 30
0.0
 40
0.5
100
AcDbArc
 50
0.0
 51
90.0
  0
LINE
  5
C171
330
C0B9
100
AcDbEntity
  8
1
  6
Continuous
100
AcDbLine
 10
267.182156
 20
174.9739179999999
 30
0.0
 11
267.182156
 21
135.442146
 31
0.0
  0
LINE
  5
C172
330
C0B9
100
AcDbEntity
  8
1
  6
Continuous
100
AcDbLine
 10
266.19411
 20
171.8743719999999
 30
0.0
 11
266.19411
 21
138.5416919999999
 31
0.0
  0
LINE
  5
C173
330
C0B9
100
AcDbEntity
  8
1
  6
Continuous
100
AcDbLine
 10
266.919985
 20
172.562199
 30
0.0
 11
266.919985
 21
137.8538649999998
 31
0.0
  0
LINE
  5
C174
330
C0B9
100
AcDbEntity
  8
1
  6
Continuous
100
AcDbLine
 10
265.764088
 20
170.3563889999998
 30
0.0
 11
265.764088
 21
140.0596759999999
 31
0.0
  0
ARC
  5
C175
330
C0B9
100
AcDbEntity
  8
1
  6
Continuous
100
AcDbCircle
 10
323.8329259999998
 20
155.2080319999998
 30
0.0
 40
59.5
100
AcDbArc
 50
196.957763
 51
197.802926
  0
ARC
  5
C176
330
C0B9
100
AcDbEntity
  8
1
  6
Continuous
100
AcDbCircle
 10
266.674433
 20
138.6805779999999
 30
0.0
 40
0.5
100
AcDbArc
 50
196.127295
 51
256.543398
  0
ARC
  5
C177
330
C0B9
100
AcDbEntity
  8
1
  6
Continuous
100
AcDbCircle
 10
266.441725
 20
137.708032
 30
0.0
 40
0.5
100
AcDbArc
 50
16.957763
 51
76.54339799999998
  0
ARC
  5
C178
330
C0B9
100
AcDbEntity
  8
1
  6
Continuous
100
AcDbCircle
 10
323.8329259999998
 20
155.2080319999998
 30
0.0
 40
60.0
100
AcDbArc
 50
199.23427
 51
202.0243129999999
  0
ARC
  5
C179
330
C0B9
100
AcDbEntity
  8
1
  6
Continuous
100
AcDbCircle
 10
266.674433
 20
171.735485
 30
0.0
 40
0.5
100
AcDbArc
 50
103.4566019999999
 51
163.8727049999999
  0
ARC
  5
C17A
330
C0B9
100
AcDbEntity
  8
1
  6
Continuous
100
AcDbCircle
 10
266.441725
 20
172.7080319999998
 30
0.0
 40
0.5
100
AcDbArc
 50
283.456602
 51
343.042237
  0
ARC
  5
C17B
330
C0B9
100
AcDbEntity
  8
1
  6
Continuous
100
AcDbCircle
 10
323.8329259999998
 20
155.2080319999998
 30
0.0
 40
59.5
100
AcDbArc
 50
162.1970739999999
 51
163.0422369999998
  0
ARC
  5
C17C
330
C0B9
100
AcDbEntity
  8
1
  6
Continuous
100
AcDbCircle
 10
267.3709919999998
 20
174.908032
 30
0.0
 40
0.2
100
AcDbArc
 50
160.7657299999999
 51
234.485278
  0
ARC
  5
C17D
330
C0B9
100
AcDbEntity
  8
1
  6
Continuous
100
AcDbCircle
 10
323.8329259999998
 20
155.2080319999998
 30
0.0
 40
60.0
100
AcDbArc
 50
157.9756869999999
 51
160.7657299999999
  0
ARC
  5
C17E
330
C0B9
100
AcDbEntity
  8
1
  6
Continuous
100
AcDbCircle
 10
360.980304
 20
155.7891129999999
 30
0.0
 40
65.218805
100
AcDbArc
 50
167.677222
 51
186.2331319999999
  0
ARC
  5
C17F
330
C0B9
100
AcDbEntity
  8
1
  6
Continuous
100
AcDbCircle
 10
215.547871
 20
155.7891129999999
 30
0.0
 40
65.218805
100
AcDbArc
 50
353.7668679999999
 51
12.322778
  0
LINE
  5
C180
330
C0B9
100
AcDbEntity
  8
1
  6
Continuous
100
AcDbLine
 10
148.3200889999999
 20
87.77800999999998
 30
0.0
 11
181.6527679999999
 21
87.77800999999998
 31
0.0
  0
ARC
  5
C181
330
C0B9
100
AcDbEntity
  8
1
  6
Continuous
100
AcDbCircle
 10
164.9864279999999
 20
31.839867
 30
0.0
 40
58.36816500000001
100
AcDbArc
 50
73.40898
 51
106.59102
  0
ARC
  5
C182
330
C0B9
100
AcDbEntity
  8
1
  6
Continuous
100
AcDbCircle
 10
164.9864279999999
 20
99.57619800000001
 30
0.0
 40
58.36816500000001
100
AcDbArc
 50
253.40898
 51
286.59102
  0
LINE
  5
C183
330
C0B9
100
AcDbEntity
  8
1
  6
Continuous
100
AcDbLine
 10
188.486428
 20
74.70803199999997
 30
0.0
 11
141.732512
 21
74.70803199999997
 31
0.0
  0
LINE
  5
C184
330
C0B9
100
AcDbEntity
  8
1
  6
Continuous
100
AcDbLine
 10
188.486428
 20
56.70803199999999
 30
0.0
 11
141.732512
 21
56.70803199999999
 31
0.0
  0
LINE
  5
C185
330
C0B9
100
AcDbEntity
  8
1
  6
Continuous
100
AcDbLine
 10
147.6322619999999
 20
44.363929
 30
0.0
 11
182.340595
 21
44.363929
 31
0.0
  0
LINE
  5
C186
330
C0B9
100
AcDbEntity
  8
1
  6
Continuous
100
AcDbLine
 10
148.3200889999999
 20
43.63805399999999
 30
0.0
 11
181.6527679999999
 21
43.63805399999999
 31
0.0
  0
LINE
  5
C187
330
C0B9
100
AcDbEntity
  8
1
  6
Continuous
100
AcDbLine
 10
145.220542
 20
44.626101
 30
0.0
 11
184.7523149999999
 21
44.626101
 31
0.0
  0
LINE
  5
C188
330
C0B9
100
AcDbEntity
  8
1
  6
Continuous
100
AcDbLine
 10
147.6322619999999
 20
87.05213499999997
 30
0.0
 11
182.340595
 21
87.05213499999997
 31
0.0
  0
LINE
  5
C189
330
C0B9
100
AcDbEntity
  8
1
  6
Continuous
100
AcDbLine
 10
184.7523149999999
 20
86.789964
 30
0.0
 11
145.220542
 21
86.789964
 31
0.0
  0
LINE
  5
C18A
330
C0B9
100
AcDbEntity
  8
1
  6
Continuous
100
AcDbLine
 10
149.838073
 20
88.20803199999996
 30
0.0
 11
180.134783
 21
88.20803199999996
 31
0.0
  0
LINE
  5
C18B
330
C0B9
100
AcDbEntity
  8
1
  6
Continuous
100
AcDbLine
 10
172.9864279999999
 20
75.20803199999997
 30
0.0
 11
156.986428
 21
75.20803199999997
 31
0.0
  0
LINE
  5
C18C
330
C0B9
100
AcDbEntity
  8
1
  6
Continuous
100
AcDbLine
 10
172.9864279999999
 20
56.208032
 30
0.0
 11
156.986428
 21
56.208032
 31
0.0
  0
LINE
  5
C18D
330
C0B9
100
AcDbEntity
  8
1
  6
Continuous
100
AcDbLine
 10
149.838073
 20
43.208032
 30
0.0
 11
180.134783
 21
43.208032
 31
0.0
  0
ARC
  5
C18E
330
C0B9
100
AcDbEntity
  8
1
  6
Continuous
100
AcDbCircle
 10
241.326688
 20
65.70803199999999
 30
0.0
 40
100.0
100
AcDbArc
 50
174.836393
 51
185.1636069999999
  0
ARC
  5
C18F
330
C0B9
100
AcDbEntity
  8
1
  6
Continuous
100
AcDbCircle
 10
143.9864279999999
 20
82.052583
 30
0.0
 40
4.0
100
AcDbArc
 50
112.0243129999999
 51
180.0
  0
ARC
  5
C190
330
C0B9
100
AcDbEntity
  8
1
  6
Continuous
100
AcDbCircle
 10
164.9864279999999
 20
30.139194
 30
0.0
 40
60.0
100
AcDbArc
 50
109.2342699999998
 51
112.0243129999999
  0
LINE
  5
C191
330
C0B9
100
AcDbEntity
  8
1
  6
Continuous
100
AcDbLine
 10
148.0650939999998
 20
87.605675
 30
0.0
 11
147.6322619999999
 21
87.05213499999997
 31
0.0
  0
ARC
  5
C192
330
C0B9
100
AcDbEntity
  8
1
  6
Continuous
100
AcDbCircle
 10
148.458975
 20
87.29768599999998
 30
0.0
 40
0.5
100
AcDbArc
 50
106.1272949999999
 51
141.976966
  0
ARC
  5
C193
330
C0B9
100
AcDbEntity
  8
1
  6
Continuous
100
AcDbCircle
 10
164.9864279999999
 20
30.139194
 30
0.0
 40
59.5
100
AcDbArc
 50
106.9577629999999
 51
107.8029259999998
  0
LINE
  5
C194
330
C0B9
100
AcDbEntity
  8
1
  6
Continuous
100
AcDbLine
 10
189.486428
 20
76.20803199999997
 30
0.0
 11
140.4864279999999
 21
76.20803199999997
 31
0.0
  0
ARC
  5
C195
330
C0B9
100
AcDbEntity
  8
1
  6
Continuous
100
AcDbCircle
 10
140.4864279999999
 20
76.70803199999998
 30
0.0
 40
0.5
100
AcDbArc
 50
180.0
 51
270.0
  0
LINE
  5
C196
330
C0B9
100
AcDbEntity
  8
1
  6
Continuous
100
AcDbLine
 10
139.9864279999998
 20
76.70803199999998
 30
0.0
 11
139.9864279999998
 21
82.052583
 31
0.0
  0
LINE
  5
C197
330
C0B9
100
AcDbEntity
  8
1
  6
Continuous
100
AcDbLine
 10
156.986428
 20
74.70803199999997
 30
0.0
 11
156.986428
 21
75.20803199999997
 31
0.0
  0
ARC
  5
C198
330
C0B9
100
AcDbEntity
  8
1
  6
Continuous
100
AcDbCircle
 10
157.9864279999999
 20
76.20803199999997
 30
0.0
 40
1.0
100
AcDbArc
 50
180.0
 51
270.0
  0
ARC
  5
C199
330
C0B9
100
AcDbEntity
  8
1
  6
Continuous
100
AcDbCircle
 10
164.9864279999999
 20
101.276871
 30
0.0
 40
60.0
100
AcDbArc
 50
247.975687
 51
250.7657299999999
  0
LINE
  5
C19A
330
C0B9
100
AcDbEntity
  8
1
  6
Continuous
100
AcDbLine
 10
189.486428
 20
55.20803199999999
 30
0.0
 11
140.4864279999999
 21
55.20803199999999
 31
0.0
  0
LINE
  5
C19B
330
C0B9
100
AcDbEntity
  8
1
  6
Continuous
100
AcDbLine
 10
139.9864279999998
 20
54.70803199999998
 30
0.0
 11
139.9864279999998
 21
49.363481
 31
0.0
  0
ARC
  5
C19C
330
C0B9
100
AcDbEntity
  8
1
  6
Continuous
100
AcDbCircle
 10
140.4864279999999
 20
54.70803199999998
 30
0.0
 40
0.5
100
AcDbArc
 50
90.0
 51
180.0
  0
ARC
  5
C19D
330
C0B9
100
AcDbEntity
  8
1
  6
Continuous
100
AcDbCircle
 10
143.9864279999999
 20
49.363481
 30
0.0
 40
4.0
100
AcDbArc
 50
180.0
 51
247.975687
  0
LINE
  5
C19E
330
C0B9
100
AcDbEntity
  8
1
  6
Continuous
100
AcDbLine
 10
148.0650939999998
 20
43.810389
 30
0.0
 11
147.6322619999999
 21
44.363929
 31
0.0
  0
ARC
  5
C19F
330
C0B9
100
AcDbEntity
  8
1
  6
Continuous
100
AcDbCircle
 10
148.458975
 20
44.11837799999999
 30
0.0
 40
0.5
100
AcDbArc
 50
218.023034
 51
253.8727049999998
  0
ARC
  5
C1A0
330
C0B9
100
AcDbEntity
  8
1
  6
Continuous
100
AcDbCircle
 10
164.9864279999999
 20
101.276871
 30
0.0
 40
59.5
100
AcDbArc
 50
252.1970739999999
 51
253.042237
  0
LINE
  5
C1A1
330
C0B9
100
AcDbEntity
  8
1
  6
Continuous
100
AcDbLine
 10
156.986428
 20
56.208032
 30
0.0
 11
156.986428
 21
56.70803199999999
 31
0.0
  0
ARC
  5
C1A2
330
C0B9
100
AcDbEntity
  8
1
  6
Continuous
100
AcDbCircle
 10
157.9864279999999
 20
55.20803199999999
 30
0.0
 40
1.0
100
AcDbArc
 50
90.0
 51
180.0
  0
LINE
  5
C1A3
330
C0B9
100
AcDbEntity
  8
4
  6
CENTER
100
AcDbLine
 10
164.9864279999999
 20
36.208032
 30
0.0
 11
164.9864279999999
 21
95.20803200000001
 31
0.0
  0
ARC
  5
C1A4
330
C0B9
100
AcDbEntity
  8
1
  6
Continuous
100
AcDbCircle
 10
183.986428
 20
65.70803199999999
 30
0.0
 40
8.5
100
AcDbArc
 50
301.9657189999999
 51
58.03428100000001
  0
ARC
  5
C1A5
330
C0B9
100
AcDbEntity
  8
1
  6
Continuous
100
AcDbCircle
 10
185.986428
 20
82.052583
 30
0.0
 40
4.0
100
AcDbArc
 50
0.0
 51
67.97568699999999
  0
LINE
  5
C1A6
330
C0B9
100
AcDbEntity
  8
1
  6
Continuous
100
AcDbLine
 10
181.9077629999999
 20
87.605699
 30
0.0
 11
182.340595
 21
87.052159
 31
0.0
  0
ARC
  5
C1A7
330
C0B9
100
AcDbEntity
  8
1
  6
Continuous
100
AcDbCircle
 10
181.5138819999999
 20
87.297709
 30
0.0
 40
0.5
100
AcDbArc
 50
38.023113
 51
73.87278399999998
  0
ARC
  5
C1A8
330
C0B9
100
AcDbEntity
  8
1
  6
Continuous
100
AcDbCircle
 10
164.9864279999999
 20
30.139194
 30
0.0
 40
59.5
100
AcDbArc
 50
72.19707400000001
 51
73.042237
  0
ARC
  5
C1A9
330
C0B9
100
AcDbEntity
  8
1
  6
Continuous
100
AcDbCircle
 10
164.9864279999999
 20
30.139194
 30
0.0
 40
60.0
100
AcDbArc
 50
67.97568699999999
 51
70.76573000000002
  0
LINE
  5
C1AA
330
C0B9
100
AcDbEntity
  8
1
  6
Continuous
100
AcDbLine
 10
172.9864279999999
 20
74.70803199999997
 30
0.0
 11
172.9864279999999
 21
75.20803199999997
 31
0.0
  0
ARC
  5
C1AB
330
C0B9
100
AcDbEntity
  8
1
  6
Continuous
100
AcDbCircle
 10
171.9864279999999
 20
76.20803199999997
 30
0.0
 40
1.0
100
AcDbArc
 50
270.0
 51
0.0
  0
LINE
  5
C1AC
330
C0B9
100
AcDbEntity
  8
1
  6
Continuous
100
AcDbLine
 10
188.486428
 20
74.70803199999997
 30
0.0
 11
188.486428
 21
72.91913499999998
 31
0.0
  0
ARC
  5
C1AD
330
C0B9
100
AcDbEntity
  8
1
  6
Continuous
100
AcDbCircle
 10
189.486428
 20
76.70803199999998
 30
0.0
 40
0.5
100
AcDbArc
 50
270.0
 51
0.0
  0
LINE
  5
C1AE
330
C0B9
100
AcDbEntity
  8
1
  6
Continuous
100
AcDbLine
 10
189.9864279999999
 20
76.70803199999998
 30
0.0
 11
189.9864279999999
 21
82.052583
 31
0.0
  0
LINE
  5
C1AF
330
C0B9
100
AcDbEntity
  8
1
  6
Continuous
100
AcDbLine
 10
172.9864279999999
 20
56.208032
 30
0.0
 11
172.9864279999999
 21
56.70803199999999
 31
0.0
  0
ARC
  5
C1B0
330
C0B9
100
AcDbEntity
  8
1
  6
Continuous
100
AcDbCircle
 10
171.9864279999999
 20
55.20803199999999
 30
0.0
 40
1.0
100
AcDbArc
 50
0.0
 51
90.0
  0
LINE
  5
C1B1
330
C0B9
100
AcDbEntity
  8
1
  6
Continuous
100
AcDbLine
 10
181.9077629999999
 20
43.81036599999998
 30
0.0
 11
182.340595
 21
44.36390499999999
 31
0.0
  0
ARC
  5
C1B2
330
C0B9
100
AcDbEntity
  8
1
  6
Continuous
100
AcDbCircle
 10
181.5138819999999
 20
44.118355
 30
0.0
 40
0.5
100
AcDbArc
 50
286.127216
 51
321.9768869999999
  0
ARC
  5
C1B3
330
C0B9
100
AcDbEntity
  8
1
  6
Continuous
100
AcDbCircle
 10
164.9864279999999
 20
101.276871
 30
0.0
 40
59.5
100
AcDbArc
 50
286.957763
 51
287.8029259999999
  0
ARC
  5
C1B4
330
C0B9
100
AcDbEntity
  8
1
  6
Continuous
100
AcDbCircle
 10
164.9864279999999
 20
101.276871
 30
0.0
 40
60.0
100
AcDbArc
 50
289.23427
 51
292.024313
  0
LINE
  5
C1B5
330
C0B9
100
AcDbEntity
  8
1
  6
Continuous
100
AcDbLine
 10
189.9864279999999
 20
54.70803199999998
 30
0.0
 11
189.9864279999999
 21
49.363481
 31
0.0
  0
ARC
  5
C1B6
330
C0B9
100
AcDbEntity
  8
1
  6
Continuous
100
AcDbCircle
 10
189.486428
 20
54.70803199999998
 30
0.0
 40
0.5
100
AcDbArc
 50
0.0
 51
90.0
  0
LINE
  5
C1B7
330
C0B9
100
AcDbEntity
  8
1
  6
Continuous
100
AcDbLine
 10
188.486428
 20
58.49693000000001
 30
0.0
 11
188.486428
 21
56.70803199999999
 31
0.0
  0
ARC
  5
C1B8
330
C0B9
100
AcDbEntity
  8
1
  6
Continuous
100
AcDbCircle
 10
185.986428
 20
49.363481
 30
0.0
 40
4.0
100
AcDbArc
 50
292.024313
 51
0.0
  0
ARC
  5
C1B9
330
C0B9
100
AcDbEntity
  8
1
  6
Continuous
100
AcDbCircle
 10
281.461256
 20
148.708032
 30
0.0
 40
1.080130999999999
100
AcDbArc
 50
180.0
 51
247.791336
  0
ARC
  5
C1BA
330
C0B9
100
AcDbEntity
  8
1
  6
Continuous
100
AcDbCircle
 10
295.0669189999999
 20
148.708032
 30
0.0
 40
1.080130999999999
100
AcDbArc
 50
292.2086639999998
 51
0.0
  0
ARC
  5
C1BB
330
C0B9
100
AcDbEntity
  8
1
  6
Continuous
100
AcDbCircle
 10
322.132264
 20
155.208033
 30
0.0
 40
58.368177
100
AcDbArc
 50
163.408983
 51
196.591018
  0
ARC
  5
C1BC
330
C0B9
100
AcDbEntity
  8
1
  6
Continuous
100
AcDbCircle
 10
254.3959109999999
 20
155.208033
 30
0.0
 40
58.368177
100
AcDbArc
 50
343.408982
 51
16.591017
  0
ARC
  5
C1BD
330
C0B9
100
AcDbEntity
  8
1
  6
Continuous
100
AcDbCircle
 10
15.199144
 20
155.208033
 30
0.0
 40
58.368177
100
AcDbArc
 50
343.408982
 51
16.591017
  0
ARC
  5
C1BE
330
C0B9
100
AcDbEntity
  8
1
  6
Continuous
100
AcDbCircle
 10
82.93549799999999
 20
155.208033
 30
0.0
 40
58.368177
100
AcDbArc
 50
163.408983
 51
196.591018
  0
LINE
  5
C1BF
330
C0B9
100
AcDbEntity
  8
1
  6
Continuous
100
AcDbLine
 10
54.717321
 20
162.5466999999999
 30
0.0
 11
54.717321
 21
171.4745739999998
 31
0.0
  0
LINE
  5
C1C0
330
C0B9
100
AcDbEntity
  8
1
  6
Continuous
100
AcDbLine
 10
43.417321
 20
171.4745739999998
 30
0.0
 11
43.417321
 21
162.5466999999999
 31
0.0
  0
LINE
  5
C1C1
330
C0B9
100
AcDbEntity
  8
1
  6
Continuous
100
AcDbLine
 10
150.145881
 20
251.2080319999999
 30
0.0
 11
137.738875
 21
251.2080319999999
 31
0.0
  0
LINE
  5
C1C2
330
C0B9
100
AcDbEntity
  8
1
  6
Continuous
100
AcDbLine
 10
150.145881
 20
250.7080319999999
 30
0.0
 11
150.145881
 21
251.240423
 31
0.0
  0
LINE
  5
C1C3
330
C0B9
100
AcDbEntity
  8
1
  6
Continuous
100
AcDbLine
 10
149.744752
 20
268.208032
 30
0.0
 11
137.742739
 21
268.208032
 31
0.0
  0
LINE
  5
C1C4
330
C0B9
100
AcDbEntity
  8
1
  6
Continuous
100
AcDbLine
 10
150.145881
 20
268.1756409999999
 30
0.0
 11
150.145881
 21
268.708032
 31
0.0
  0
ARC
  5
C1C5
330
C0B9
100
AcDbEntity
  8
1
  6
Continuous
100
AcDbCircle
 10
241.326688
 20
259.7080319999998
 30
0.0
 40
100.0
100
AcDbArc
 50
184.8760249999999
 51
185.1509489999999
  0
LINE
  5
C1C6
330
C0B9
100
AcDbEntity
  8
1
  6
Continuous
100
AcDbLine
 10
57.567321
 20
170.4511349999999
 30
0.0
 11
58.567321
 21
170.4511349999999
 31
0.0
  0
LINE
  5
C1C7
330
C0B9
100
AcDbEntity
  8
1
  6
Continuous
100
AcDbLine
 10
59.067321
 20
168.451135
 30
0.0
 11
59.56732099999999
 21
168.451135
 31
0.0
  0
LINE
  5
C1C8
330
C0B9
100
AcDbEntity
  8
1
  6
Continuous
100
AcDbLine
 10
59.067321
 20
165.4511349999999
 30
0.0
 11
59.56732099999999
 21
165.4511349999999
 31
0.0
  0
LINE
  5
C1C9
330
C0B9
100
AcDbEntity
  8
1
  6
Continuous
100
AcDbLine
 10
58.067321
 20
161.4511349999999
 30
0.0
 11
58.567321
 21
161.4511349999999
 31
0.0
  0
LINE
  5
C1CA
330
C0B9
100
AcDbEntity
  8
1
  6
Continuous
100
AcDbLine
 10
59.067321
 20
161.9511349999999
 30
0.0
 11
59.067321
 21
165.4511349999999
 31
0.0
  0
LINE
  5
C1CB
330
C0B9
100
AcDbEntity
  8
1
  6
Continuous
100
AcDbLine
 10
59.067321
 20
168.451135
 30
0.0
 11
59.067321
 21
169.9511349999999
 31
0.0
  0
ARC
  5
C1CC
330
C0B9
100
AcDbEntity
  8
1
  6
Continuous
100
AcDbCircle
 10
58.567321
 20
169.9511349999999
 30
0.0
 40
0.5
100
AcDbArc
 50
0.0
 51
90.0
  0
ARC
  5
C1CD
330
C0B9
100
AcDbEntity
  8
1
  6
Continuous
100
AcDbCircle
 10
58.567321
 20
161.9511349999999
 30
0.0
 40
0.5
100
AcDbArc
 50
270.0
 51
0.0
  0
LINE
  5
C1CE
330
C0B9
100
AcDbEntity
  8
1
  6
Continuous
100
AcDbLine
 10
58.067321
 20
171.9764319999999
 30
0.0
 11
58.067321
 21
180.2080319999998
 31
0.0
  0
ARC
  5
C1CF
330
C0B9
100
AcDbEntity
  8
1
  6
Continuous
100
AcDbCircle
 10
39.56732099999999
 20
169.9511349999999
 30
0.0
 40
0.5
100
AcDbArc
 50
90.0
 51
180.0
  0
LINE
  5
C1D0
330
C0B9
100
AcDbEntity
  8
1
  6
Continuous
100
AcDbLine
 10
40.567321
 20
170.4511349999999
 30
0.0
 11
39.56732099999999
 21
170.4511349999999
 31
0.0
  0
LINE
  5
C1D1
330
C0B9
100
AcDbEntity
  8
1
  6
Continuous
100
AcDbLine
 10
39.067321
 20
168.451135
 30
0.0
 11
39.067321
 21
169.9511349999999
 31
0.0
  0
LINE
  5
C1D2
330
C0B9
100
AcDbEntity
  8
1
  6
Continuous
100
AcDbLine
 10
39.067321
 20
161.9511349999999
 30
0.0
 11
39.067321
 21
165.4511349999999
 31
0.0
  0
LINE
  5
C1D3
330
C0B9
100
AcDbEntity
  8
1
  6
Continuous
100
AcDbLine
 10
40.06732099999999
 20
161.4511349999999
 30
0.0
 11
39.56732099999999
 21
161.4511349999999
 31
0.0
  0
ARC
  5
C1D4
330
C0B9
100
AcDbEntity
  8
1
  6
Continuous
100
AcDbCircle
 10
39.56732099999999
 20
161.9511349999999
 30
0.0
 40
0.5
100
AcDbArc
 50
180.0
 51
270.0
  0
LINE
  5
C1D5
330
C0B9
100
AcDbEntity
  8
1
  6
Continuous
100
AcDbLine
 10
39.067321
 20
165.4511349999999
 30
0.0
 11
38.567321
 21
165.4511349999999
 31
0.0
  0
LINE
  5
C1D6
330
C0B9
100
AcDbEntity
  8
1
  6
Continuous
100
AcDbLine
 10
39.067321
 20
168.451135
 30
0.0
 11
38.567321
 21
168.451135
 31
0.0
  0
LINE
  5
C1D7
330
C0B9
100
AcDbEntity
  8
1
  6
Continuous
100
AcDbLine
 10
40.06732099999999
 20
171.9764319999999
 30
0.0
 11
40.06732099999999
 21
180.2080319999998
 31
0.0
  0
ARC
  5
C1D8
330
C0B9
100
AcDbEntity
  8
1
  6
Continuous
100
AcDbCircle
 10
149.095561
 20
266.458032
 30
0.0
 40
3.75
100
AcDbArc
 50
36.869898
 51
90.0
  0
ARC
  5
C1D9
330
C0B9
100
AcDbEntity
  8
1
  6
Continuous
100
AcDbCircle
 10
151.095561
 20
266.458032
 30
0.0
 40
3.75
100
AcDbArc
 50
127.58965
 51
143.130102
  0
ARC
  5
C1DA
330
C0B9
100
AcDbEntity
  8
1
  6
Continuous
100
AcDbCircle
 10
151.367434
 20
272.4871959999999
 30
0.0
 40
3.987448
100
AcDbArc
 50
214.8608
 51
230.069396
  0
ARC
  5
C1DB
330
C0B9
100
AcDbEntity
  8
1
  6
Continuous
100
AcDbCircle
 10
149.095561
 20
252.9580319999999
 30
0.0
 40
3.75
100
AcDbArc
 50
270.0
 51
323.130102
  0
ARC
  5
C1DC
330
C0B9
100
AcDbEntity
  8
1
  6
Continuous
100
AcDbCircle
 10
151.367434
 20
246.9288689999999
 30
0.0
 40
3.987448
100
AcDbArc
 50
129.9306039999999
 51
145.1392
  0
ARC
  5
C1DD
330
C0B9
100
AcDbEntity
  8
1
  6
Continuous
100
AcDbCircle
 10
151.095561
 20
252.9580319999999
 30
0.0
 40
3.75
100
AcDbArc
 50
216.869898
 51
232.41035
  0
ARC
  5
C1DE
330
C0B9
100
AcDbEntity
  8
1
  6
Continuous
100
AcDbCircle
 10
151.367434
 20
52.92886899999999
 30
0.0
 40
3.987448
100
AcDbArc
 50
129.9306039999999
 51
145.1392
  0
ARC
  5
C1DF
330
C0B9
100
AcDbEntity
  8
1
  6
Continuous
100
AcDbCircle
 10
151.095561
 20
58.95803199999999
 30
0.0
 40
3.75
100
AcDbArc
 50
216.869898
 51
232.41035
  0
ARC
  5
C1E0
330
C0B9
100
AcDbEntity
  8
1
  6
Continuous
100
AcDbCircle
 10
149.095561
 20
58.95803199999999
 30
0.0
 40
3.75
100
AcDbArc
 50
270.0
 51
323.130102
  0
ARC
  5
C1E1
330
C0B9
100
AcDbEntity
  8
1
  6
Continuous
100
AcDbCircle
 10
151.095561
 20
72.45803199999997
 30
0.0
 40
3.75
100
AcDbArc
 50
127.58965
 51
143.130102
  0
ARC
  5
C1E2
330
C0B9
100
AcDbEntity
  8
1
  6
Continuous
100
AcDbCircle
 10
151.367434
 20
78.48719599999999
 30
0.0
 40
3.987448
100
AcDbArc
 50
214.8608
 51
230.069396
  0
ARC
  5
C1E3
330
C0B9
100
AcDbEntity
  8
1
  6
Continuous
100
AcDbCircle
 10
149.095561
 20
72.45803199999997
 30
0.0
 40
3.75
100
AcDbArc
 50
36.869898
 51
90.0
  0
LINE
  5
C1E4
330
C0B9
100
AcDbEntity
  8
1
  6
Continuous
100
AcDbLine
 10
298.264088
 20
168.451135
 30
0.0
 11
298.764088
 21
168.451135
 31
0.0
  0
LINE
  5
C1E5
330
C0B9
100
AcDbEntity
  8
1
  6
Continuous
100
AcDbLine
 10
298.264088
 20
165.4511349999999
 30
0.0
 11
298.764088
 21
165.4511349999999
 31
0.0
  0
LINE
  5
C1E6
330
C0B9
100
AcDbEntity
  8
1
  6
Continuous
100
AcDbLine
 10
298.264088
 20
163.074058
 30
0.0
 11
298.264088
 21
165.4511349999999
 31
0.0
  0
LINE
  5
C1E7
330
C0B9
100
AcDbEntity
  8
1
  6
Continuous
100
AcDbLine
 10
298.264088
 20
168.451135
 30
0.0
 11
298.264088
 21
169.9511349999999
 31
0.0
  0
LINE
  5
C1E8
330
C0B9
100
AcDbEntity
  8
1
  6
Continuous
100
AcDbLine
 10
297.264088
 20
170.4511349999999
 30
0.0
 11
297.764088
 21
170.4511349999999
 31
0.0
  0
ARC
  5
C1E9
330
C0B9
100
AcDbEntity
  8
1
  6
Continuous
100
AcDbCircle
 10
297.764088
 20
169.9511349999999
 30
0.0
 40
0.5
100
AcDbArc
 50
0.0
 51
90.0
  0
LINE
  5
C1EA
330
C0B9
100
AcDbEntity
  8
1
  6
Continuous
100
AcDbLine
 10
279.2640879999999
 20
170.4511349999999
 30
0.0
 11
278.764088
 21
170.4511349999999
 31
0.0
  0
LINE
  5
C1EB
330
C0B9
100
AcDbEntity
  8
1
  6
Continuous
100
AcDbLine
 10
278.264088
 20
163.074058
 30
0.0
 11
278.264088
 21
165.4511349999999
 31
0.0
  0
ARC
  5
C1EC
330
C0B9
100
AcDbEntity
  8
1
  6
Continuous
100
AcDbCircle
 10
278.764088
 20
169.9511349999999
 30
0.0
 40
0.5
100
AcDbArc
 50
90.0
 51
180.0
  0
LINE
  5
C1ED
330
C0B9
100
AcDbEntity
  8
1
  6
Continuous
100
AcDbLine
 10
278.264088
 20
168.451135
 30
0.0
 11
278.264088
 21
169.9511349999999
 31
0.0
  0
LINE
  5
C1EE
330
C0B9
100
AcDbEntity
  8
1
  6
Continuous
100
AcDbLine
 10
278.264088
 20
165.4511349999999
 30
0.0
 11
277.764088
 21
165.4511349999999
 31
0.0
  0
LINE
  5
C1EF
330
C0B9
100
AcDbEntity
  8
1
  6
Continuous
100
AcDbLine
 10
278.264088
 20
168.451135
 30
0.0
 11
277.764088
 21
168.451135
 31
0.0
  0
LINE
  5
C1F0
330
C0B9
100
AcDbEntity
  8
1
  6
Continuous
100
AcDbLine
 10
138.378849
 20
251.2045509999999
 30
0.0
 11
138.378849
 21
251.2045509999999
 31
0.0
  0
LINE
  5
C1F1
330
C0B9
100
AcDbEntity
  8
1
  6
Continuous
100
AcDbLine
 10
152.244752
 20
253.7080319999998
 30
0.0
 11
152.244752
 21
265.7080319999999
 31
0.0
  0
LINE
  5
C1F2
330
C0B9
100
AcDbEntity
  8
1
  6
Continuous
100
AcDbLine
 10
151.9185069999998
 20
265.7080319999999
 30
0.0
 11
151.9185069999998
 21
253.7080319999998
 31
0.0
  0
ARC
  5
C1F3
330
C0B9
100
AcDbEntity
  8
1
  6
Continuous
100
AcDbCircle
 10
149.418507
 20
265.7080319999999
 30
0.0
 40
2.5
100
AcDbArc
 50
0.0
 51
90.0
  0
ARC
  5
C1F4
330
C0B9
100
AcDbEntity
  8
1
  6
Continuous
100
AcDbCircle
 10
149.744752
 20
265.7080319999999
 30
0.0
 40
2.5
100
AcDbArc
 50
0.0
 51
90.0
  0
ARC
  5
C1F5
330
C0B9
100
AcDbEntity
  8
1
  6
Continuous
100
AcDbCircle
 10
149.418507
 20
253.7080319999998
 30
0.0
 40
2.5
100
AcDbArc
 50
270.0
 51
0.0
  0
ARC
  5
C1F6
330
C0B9
100
AcDbEntity
  8
1
  6
Continuous
100
AcDbCircle
 10
149.744752
 20
253.7080319999998
 30
0.0
 40
2.5
100
AcDbArc
 50
270.0
 51
0.0
  0
LINE
  5
C1F7
330
C0B9
100
AcDbEntity
  8
1
  6
Continuous
100
AcDbLine
 10
40.06732099999999
 20
162.5466999999999
 30
0.0
 11
43.417321
 21
162.5466999999999
 31
0.0
  0
LINE
  5
C1F8
330
C0B9
100
AcDbEntity
  8
1
  6
Continuous
100
AcDbLine
 10
40.567321
 20
164.7466999999998
 30
0.0
 11
43.417321
 21
164.7466999999998
 31
0.0
  0
LINE
  5
C1F9
330
C0B9
100
AcDbEntity
  8
1
  6
Continuous
100
AcDbLine
 10
54.717321
 20
164.7466999999998
 30
0.0
 11
57.567321
 21
164.7466999999998
 31
0.0
  0
LINE
  5
C1FA
330
C0B9
100
AcDbEntity
  8
1
  6
Continuous
100
AcDbLine
 10
40.567321
 20
164.7466999999998
 30
0.0
 11
40.567321
 21
175.845355
 31
0.0
  0
LINE
  5
C1FB
330
C0B9
100
AcDbEntity
  8
1
  6
Continuous
100
AcDbLine
 10
57.567321
 20
164.7466999999998
 30
0.0
 11
57.567321
 21
175.762112
 31
0.0
  0
CIRCLE
  5
C1FC
330
C0B9
100
AcDbEntity
  8
1
  6
Continuous
100
AcDbCircle
 10
191.9864279999999
 20
242.387524
 30
0.0
 40
2.75
  0
CIRCLE
  5
C1FD
330
C0B9
100
AcDbEntity
  8
4
  6
CENTER
100
AcDbCircle
 10
181.986428
 20
259.7080319999998
 30
0.0
 40
20.0
  0
LINE
  5
C1FE
330
C0B9
100
AcDbEntity
  8
4
  6
CENTER
100
AcDbLine
 10
181.986428
 20
259.7080319999998
 30
0.0
 11
198.1663059999999
 21
231.68366
 31
0.0
  0
ARC
  5
C1FF
330
C0B9
100
AcDbEntity
  8
1
  6
Continuous
100
AcDbCircle
 10
191.5520579999999
 20
243.2745259999999
 30
0.0
 40
8.0
100
AcDbArc
 50
269.49773
 51
330.6669859999999
  0
ARC
  5
C200
330
C0B9
100
AcDbEntity
  8
1
  6
Continuous
100
AcDbCircle
 10
163.018155
 20
259.7080319999998
 30
0.0
 40
8.0
100
AcDbArc
 50
149.3050649999998
 51
210.624481
  0
CIRCLE
  5
C201
330
C0B9
100
AcDbEntity
  8
1
  6
Continuous
100
AcDbCircle
 10
191.9864279999999
 20
277.0285399999999
 30
0.0
 40
2.75
  0
LINE
  5
C202
330
C0B9
100
AcDbEntity
  8
4
  6
CENTER
100
AcDbLine
 10
197.8238789999998
 20
287.1393019999998
 30
0.0
 11
181.986428
 21
259.7080319999998
 31
0.0
  0
CIRCLE
  5
C203
330
C0B9
100
AcDbEntity
  8
1
  6
Continuous
100
AcDbCircle
 10
181.986428
 20
259.7080319999998
 30
0.0
 40
9.5
  0
CIRCLE
  5
C204
330
C0B9
100
AcDbEntity
  8
1
  6
Continuous
100
AcDbCircle
 10
181.986428
 20
259.7080319999998
 30
0.0
 40
7.5
  0
CIRCLE
  5
C205
330
C0B9
100
AcDbEntity
  8
1
  6
Continuous
100
AcDbCircle
 10
161.9864279999999
 20
259.7080319999998
 30
0.0
 40
2.75
  0
ARC
  5
C206
330
C0B9
100
AcDbEntity
  8
1
  6
Continuous
100
AcDbCircle
 10
191.549346
 20
276.1062589999998
 30
0.0
 40
8.0
100
AcDbArc
 50
29.34247700000002
 51
90.47097900000002
  0
LINE
  5
C207
330
C0B9
100
AcDbEntity
  8
1
  6
Continuous
100
AcDbLine
 10
203.8484879999999
 20
192.208032
 30
0.0
 11
155.018155
 21
192.208032
 31
0.0
  0
LINE
  5
C208
330
C0B9
100
AcDbEntity
  8
1
  6
Continuous
100
AcDbLine
 10
155.018155
 20
195.208032
 30
0.0
 11
203.8484879999999
 21
195.208032
 31
0.0
  0
LINE
  5
C209
330
C0B9
100
AcDbEntity
  8
1
  6
Continuous
100
AcDbLine
 10
173.486428
 20
181.2080319999998
 30
0.0
 11
190.4864279999999
 21
181.2080319999998
 31
0.0
  0
LINE
  5
C20A
330
C0B9
100
AcDbEntity
  8
1
  6
Continuous
100
AcDbLine
 10
173.486428
 20
188.208032
 30
0.0
 11
190.4864279999999
 21
188.208032
 31
0.0
  0
LINE
  5
C20B
330
C0B9
100
AcDbEntity
  8
1
  6
Continuous
100
AcDbLine
 10
172.9864279999999
 20
187.708032
 30
0.0
 11
173.486428
 21
188.208032
 31
0.0
  0
ARC
  5
C20C
330
C0B9
100
AcDbEntity
  8
1
  6
Continuous
100
AcDbCircle
 10
174.676234
 20
194.208032
 30
0.0
 40
6.0
100
AcDbArc
 50
229.899092
 51
270.0
  0
LINE
  5
C20D
330
C0B9
100
AcDbEntity
  8
1
  6
Continuous
100
AcDbLine
 10
172.9864279999999
 20
181.708032
 30
0.0
 11
173.486428
 21
181.2080319999998
 31
0.0
  0
LINE
  5
C20E
330
C0B9
100
AcDbEntity
  8
1
  6
Continuous
100
AcDbLine
 10
172.9864279999999
 20
187.708032
 30
0.0
 11
172.9864279999999
 21
181.708032
 31
0.0
  0
ARC
  5
C20F
330
C0B9
100
AcDbEntity
  8
1
  6
Continuous
100
AcDbCircle
 10
174.429333
 20
180.2080319999998
 30
0.0
 40
1.0
100
AcDbArc
 50
90.0
 51
176.6335389999999
  0
LINE
  5
C210
330
C0B9
100
AcDbEntity
  8
1
  6
Continuous
100
AcDbLine
 10
170.8114199999999
 20
189.6185649999999
 30
0.0
 11
168.2947629999999
 21
191.7378539999999
 31
0.0
  0
ARC
  5
C211
330
C0B9
100
AcDbEntity
  8
1
  6
Continuous
100
AcDbCircle
 10
167.0064919999998
 20
190.2080319999998
 30
0.0
 40
2.0
100
AcDbArc
 50
49.89909199999998
 51
90.0
  0
LINE
  5
C212
330
C0B9
100
AcDbEntity
  8
1
  6
Continuous
100
AcDbLine
 10
190.9864279999999
 20
187.708032
 30
0.0
 11
190.4864279999999
 21
188.208032
 31
0.0
  0
ARC
  5
C213
330
C0B9
100
AcDbEntity
  8
1
  6
Continuous
100
AcDbCircle
 10
189.2966209999999
 20
194.208032
 30
0.0
 40
6.0
100
AcDbArc
 50
270.0
 51
310.100908
  0
LINE
  5
C214
330
C0B9
100
AcDbEntity
  8
1
  6
Continuous
100
AcDbLine
 10
190.4864279999999
 20
181.2080319999998
 30
0.0
 11
190.9864279999999
 21
181.708032
 31
0.0
  0
LINE
  5
C215
330
C0B9
100
AcDbEntity
  8
1
  6
Continuous
100
AcDbLine
 10
190.9864279999999
 20
181.708032
 30
0.0
 11
190.9864279999999
 21
187.708032
 31
0.0
  0
ARC
  5
C216
330
C0B9
100
AcDbEntity
  8
1
  6
Continuous
100
AcDbCircle
 10
196.966363
 20
190.2080319999998
 30
0.0
 40
2.0
100
AcDbArc
 50
90.0
 51
130.100908
  0
LINE
  5
C217
330
C0B9
100
AcDbEntity
  8
1
  6
Continuous
100
AcDbLine
 10
193.161435
 20
189.6185649999999
 30
0.0
 11
195.6780919999999
 21
191.7378539999999
 31
0.0
  0
LINE
  5
C218
330
C0B9
100
AcDbEntity
  8
1
  6
Continuous
100
AcDbLine
 10
24.651721
 20
195.208032
 30
0.0
 11
73.48292099999998
 21
195.208032
 31
0.0
  0
LINE
  5
C219
330
C0B9
100
AcDbEntity
  8
1
  6
Continuous
100
AcDbLine
 10
40.567321
 20
188.208032
 30
0.0
 11
57.567321
 21
188.208032
 31
0.0
  0
ARC
  5
C21A
330
C0B9
100
AcDbEntity
  8
1
  6
Continuous
100
AcDbCircle
 10
41.757127
 20
194.208032
 30
0.0
 40
6.0
100
AcDbArc
 50
229.899092
 51
270.0
  0
LINE
  5
C21B
330
C0B9
100
AcDbEntity
  8
1
  6
Continuous
100
AcDbLine
 10
40.06732099999999
 20
187.708032
 30
0.0
 11
40.567321
 21
188.208032
 31
0.0
  0
ARC
  5
C21C
330
C0B9
100
AcDbEntity
  8
1
  6
Continuous
100
AcDbCircle
 10
34.087385
 20
190.2080319999998
 30
0.0
 40
2.0
100
AcDbArc
 50
49.89909199999998
 51
90.0
  0
LINE
  5
C21D
330
C0B9
100
AcDbEntity
  8
1
  6
Continuous
100
AcDbLine
 10
73.48292099999998
 20
192.208032
 30
0.0
 11
24.651721
 21
192.208032
 31
0.0
  0
LINE
  5
C21E
330
C0B9
100
AcDbEntity
  8
1
  6
Continuous
100
AcDbLine
 10
37.892313
 20
189.6185649999999
 30
0.0
 11
35.375656
 21
191.7378539999999
 31
0.0
  0
ARC
  5
C21F
330
C0B9
100
AcDbEntity
  8
1
  6
Continuous
100
AcDbCircle
 10
56.37751399999999
 20
194.208032
 30
0.0
 40
6.0
100
AcDbArc
 50
270.0
 51
310.100908
  0
LINE
  5
C220
330
C0B9
100
AcDbEntity
  8
1
  6
Continuous
100
AcDbLine
 10
58.067321
 20
187.708032
 30
0.0
 11
57.567321
 21
188.208032
 31
0.0
  0
LINE
  5
C221
330
C0B9
100
AcDbEntity
  8
1
  6
Continuous
100
AcDbLine
 10
60.242328
 20
189.6185649999999
 30
0.0
 11
62.758985
 21
191.7378539999999
 31
0.0
  0
ARC
  5
C222
330
C0B9
100
AcDbEntity
  8
1
  6
Continuous
100
AcDbCircle
 10
64.047256
 20
190.2080319999998
 30
0.0
 40
2.0
100
AcDbArc
 50
90.0
 51
130.100908
  0
LINE
  5
C223
330
C0B9
100
AcDbEntity
  8
1
  6
Continuous
100
AcDbLine
 10
40.567321
 20
181.2080319999998
 30
0.0
 11
57.567321
 21
181.2080319999998
 31
0.0
  0
LINE
  5
C224
330
C0B9
100
AcDbEntity
  8
1
  6
Continuous
100
AcDbLine
 10
40.06732099999999
 20
181.708032
 30
0.0
 11
40.567321
 21
181.2080319999998
 31
0.0
  0
ARC
  5
C225
330
C0B9
100
AcDbEntity
  8
1
  6
Continuous
100
AcDbCircle
 10
41.067321
 20
180.2080319999998
 30
0.0
 40
1.0
100
AcDbArc
 50
90.0
 51
180.0
  0
LINE
  5
C226
330
C0B9
100
AcDbEntity
  8
1
  6
Continuous
100
AcDbLine
 10
40.06732099999999
 20
187.708032
 30
0.0
 11
40.06732099999999
 21
181.708032
 31
0.0
  0
LINE
  5
C227
330
C0B9
100
AcDbEntity
  8
1
  6
Continuous
100
AcDbLine
 10
58.067321
 20
181.708032
 30
0.0
 11
58.067321
 21
187.708032
 31
0.0
  0
LINE
  5
C228
330
C0B9
100
AcDbEntity
  8
1
  6
Continuous
100
AcDbLine
 10
57.567321
 20
181.2080319999998
 30
0.0
 11
58.067321
 21
181.708032
 31
0.0
  0
ARC
  5
C229
330
C0B9
100
AcDbEntity
  8
1
  6
Continuous
100
AcDbCircle
 10
57.06732099999999
 20
180.2080319999998
 30
0.0
 40
1.0
100
AcDbArc
 50
0.0
 51
90.0
  0
ARC
  5
C22A
330
C0B9
100
AcDbEntity
  8
1
  6
Continuous
100
AcDbCircle
 10
189.5729359999999
 20
180.2080319999998
 30
0.0
 40
1.0
100
AcDbArc
 50
3.366461
 51
90.0
  0
ARC
  5
C22B
330
C0B9
100
AcDbEntity
  8
1
  6
Continuous
100
AcDbCircle
 10
191.8247169999999
 20
242.6073909999999
 30
0.0
 40
41.5
100
AcDbArc
 50
90.47097900000002
 51
149.3050649999998
  0
ARC
  5
C22C
330
C0B9
100
AcDbEntity
  8
1
  6
Continuous
100
AcDbCircle
 10
162.3484879999998
 20
259.6879809999999
 30
0.0
 40
41.5
100
AcDbArc
 50
330.6615750000001
 51
29.34788900000001
  0
ARC
  5
C22D
330
C0B9
100
AcDbEntity
  8
1
  6
Continuous
100
AcDbCircle
 10
191.845724
 20
276.7732379999998
 30
0.0
 40
41.5
100
AcDbArc
 50
210.624481
 51
269.49773
  0
LINE
  5
C22E
330
C0B9
100
AcDbEntity
  8
1
  6
Continuous
100
AcDbLine
 10
155.018155
 20
192.208032
 30
0.0
 11
155.018155
 21
195.208032
 31
0.0
  0
LINE
  5
C22F
330
C0B9
100
AcDbEntity
  8
1
  6
Continuous
100
AcDbLine
 10
203.8484879999999
 20
195.208032
 30
0.0
 11
203.8484879999999
 21
192.208032
 31
0.0
  0
LINE
  5
C230
330
C0B9
100
AcDbEntity
  8
4
  6
CENTER
100
AcDbLine
 10
161.9864279999999
 20
200.208032
 30
0.0
 11
161.9864279999999
 21
187.208032
 31
0.0
  0
LINE
  5
C231
330
C0B9
100
AcDbEntity
  8
4
  6
CENTER
100
AcDbLine
 10
191.9864279999999
 20
200.208032
 30
0.0
 11
191.9864279999999
 21
187.208032
 31
0.0
  0
LINE
  5
C232
330
C0B9
100
AcDbEntity
  8
1
  6
Continuous
100
AcDbLine
 10
24.651721
 20
195.208032
 30
0.0
 11
24.651721
 21
192.208032
 31
0.0
  0
LINE
  5
C233
330
C0B9
100
AcDbEntity
  8
1
  6
Continuous
100
AcDbLine
 10
73.48292099999998
 20
195.208032
 30
0.0
 11
73.48292099999998
 21
192.208032
 31
0.0
  0
LINE
  5
C234
330
C0B9
100
AcDbEntity
  8
4
  6
CENTER
100
AcDbLine
 10
66.38832099999999
 20
200.208032
 30
0.0
 11
66.38832099999999
 21
187.208032
 31
0.0
  0
LINE
  5
C235
330
C0B9
100
AcDbEntity
  8
4
  6
CENTER
100
AcDbLine
 10
31.746321
 20
200.208032
 30
0.0
 11
31.746321
 21
187.208032
 31
0.0
  0
LINE
  5
C236
330
C0B9
100
AcDbEntity
  8
4
  6
CENTER
100
AcDbLine
 10
288.264088
 20
203.2080319999999
 30
0.0
 11
288.264088
 21
135.708032
 31
0.0
  0
ARC
  5
C237
330
C0B9
100
AcDbEntity
  8
1
  6
Continuous
100
AcDbCircle
 10
273.2841529999999
 20
190.2080319999998
 30
0.0
 40
2.0
100
AcDbArc
 50
49.89909199999998
 51
90.0
  0
LINE
  5
C238
330
C0B9
100
AcDbEntity
  8
1
  6
Continuous
100
AcDbLine
 10
263.8484879999999
 20
192.208032
 30
0.0
 11
312.679688
 21
192.208032
 31
0.0
  0
LINE
  5
C239
330
C0B9
100
AcDbEntity
  8
1
  6
Continuous
100
AcDbLine
 10
312.679688
 20
195.208032
 30
0.0
 11
263.8484879999999
 21
195.208032
 31
0.0
  0
LINE
  5
C23A
330
C0B9
100
AcDbEntity
  8
4
  6
CENTER
100
AcDbLine
 10
305.5850879999999
 20
200.208032
 30
0.0
 11
305.5850879999999
 21
187.208032
 31
0.0
  0
LINE
  5
C23B
330
C0B9
100
AcDbEntity
  8
1
  6
Continuous
100
AcDbLine
 10
312.679688
 20
195.208032
 30
0.0
 11
312.679688
 21
192.208032
 31
0.0
  0
LINE
  5
C23C
330
C0B9
100
AcDbEntity
  8
1
  6
Continuous
100
AcDbLine
 10
296.764088
 20
188.208032
 30
0.0
 11
279.764088
 21
188.208032
 31
0.0
  0
ARC
  5
C23D
330
C0B9
100
AcDbEntity
  8
1
  6
Continuous
100
AcDbCircle
 10
295.5742819999999
 20
194.208032
 30
0.0
 40
6.0
100
AcDbArc
 50
270.0
 51
310.100908
  0
LINE
  5
C23E
330
C0B9
100
AcDbEntity
  8
1
  6
Continuous
100
AcDbLine
 10
297.264088
 20
187.708032
 30
0.0
 11
296.764088
 21
188.208032
 31
0.0
  0
LINE
  5
C23F
330
C0B9
100
AcDbEntity
  8
1
  6
Continuous
100
AcDbLine
 10
297.264088
 20
187.708032
 30
0.0
 11
297.264088
 21
181.708032
 31
0.0
  0
ARC
  5
C240
330
C0B9
100
AcDbEntity
  8
1
  6
Continuous
100
AcDbCircle
 10
303.244024
 20
190.2080319999998
 30
0.0
 40
2.0
100
AcDbArc
 50
90.0
 51
130.100908
  0
LINE
  5
C241
330
C0B9
100
AcDbEntity
  8
1
  6
Continuous
100
AcDbLine
 10
299.439096
 20
189.6185649999999
 30
0.0
 11
301.9557529999999
 21
191.7378539999999
 31
0.0
  0
ARC
  5
C242
330
C0B9
100
AcDbEntity
  8
1
  6
Continuous
100
AcDbCircle
 10
280.9538949999999
 20
194.208032
 30
0.0
 40
6.0
100
AcDbArc
 50
229.899092
 51
270.0
  0
LINE
  5
C243
330
C0B9
100
AcDbEntity
  8
1
  6
Continuous
100
AcDbLine
 10
279.2640879999999
 20
187.708032
 30
0.0
 11
279.764088
 21
188.208032
 31
0.0
  0
LINE
  5
C244
330
C0B9
100
AcDbEntity
  8
1
  6
Continuous
100
AcDbLine
 10
279.2640879999999
 20
181.708032
 30
0.0
 11
279.2640879999999
 21
187.708032
 31
0.0
  0
LINE
  5
C245
330
C0B9
100
AcDbEntity
  8
1
  6
Continuous
100
AcDbLine
 10
277.089081
 20
189.6185649999999
 30
0.0
 11
274.572424
 21
191.7378539999999
 31
0.0
  0
LINE
  5
C246
330
C0B9
100
AcDbEntity
  8
4
  6
CENTER
100
AcDbLine
 10
270.9430879999998
 20
200.208032
 30
0.0
 11
270.9430879999998
 21
187.208032
 31
0.0
  0
LINE
  5
C247
330
C0B9
100
AcDbEntity
  8
1
  6
Continuous
100
AcDbLine
 10
263.8484879999999
 20
195.208032
 30
0.0
 11
263.8484879999999
 21
192.208032
 31
0.0
  0
LINE
  5
C248
330
C0B9
100
AcDbEntity
  8
1
  6
Continuous
100
AcDbLine
 10
296.764088
 20
181.2080319999998
 30
0.0
 11
279.764088
 21
181.2080319999998
 31
0.0
  0
LINE
  5
C249
330
C0B9
100
AcDbEntity
  8
1
  6
Continuous
100
AcDbLine
 10
297.264088
 20
181.708032
 30
0.0
 11
296.764088
 21
181.2080319999998
 31
0.0
  0
LINE
  5
C24A
330
C0B9
100
AcDbEntity
  8
1
  6
Continuous
100
AcDbLine
 10
279.764088
 20
181.2080319999998
 30
0.0
 11
279.2640879999999
 21
181.708032
 31
0.0
  0
ARC
  5
C24B
330
C0B9
100
AcDbEntity
  8
1
  6
Continuous
100
AcDbCircle
 10
296.264088
 20
180.2080319999998
 30
0.0
 40
1.0
100
AcDbArc
 50
0.0
 51
90.0
  0
ARC
  5
C24C
330
C0B9
100
AcDbEntity
  8
1
  6
Continuous
100
AcDbCircle
 10
280.264088
 20
180.2080319999998
 30
0.0
 40
1.0
100
AcDbArc
 50
90.0
 51
180.0
  0
LINE
  5
C24D
330
C0B9
100
AcDbEntity
  8
1
  6
Continuous
100
AcDbLine
 10
54.717321
 20
162.5466999999999
 30
0.0
 11
58.067321
 21
162.5466999999999
 31
0.0
  0
LINE
  5
C24E
330
C0B9
100
AcDbEntity
  8
1
  6
Continuous
100
AcDbLine
 10
43.417321
 20
165.2467
 30
0.0
 11
54.717321
 21
165.2467
 31
0.0
  0
CIRCLE
  5
C24F
330
C0B9
100
AcDbEntity
  8
1
  6
Continuous
100
AcDbCircle
 10
181.986428
 20
65.70803199999999
 30
0.0
 40
5.75
  0
ARC
  5
C250
330
C0B9
100
AcDbEntity
  8
1
  6
Continuous
100
AcDbCircle
 10
181.986428
 20
65.70803199999999
 30
0.0
 40
9.5
100
AcDbArc
 50
251.3282819999999
 51
288.671718
  0
ARC
  5
C251
330
C0B9
100
AcDbEntity
  8
1
  6
Continuous
100
AcDbCircle
 10
162.3484879999998
 20
65.68798100000001
 30
0.0
 40
41.5
100
AcDbArc
 50
330.6615750000001
 51
29.34788900000001
  0
LINE
  5
C252
330
C0B9
100
AcDbEntity
  8
4
  6
CENTER
100
AcDbLine
 10
181.986428
 20
65.70803199999999
 30
0.0
 11
198.1663059999999
 21
37.68365999999998
 31
0.0
  0
ARC
  5
C253
330
C0B9
100
AcDbEntity
  8
1
  6
Continuous
100
AcDbCircle
 10
191.5520579999999
 20
49.274526
 30
0.0
 40
8.0
100
AcDbArc
 50
269.49773
 51
330.6669859999999
  0
ARC
  5
C254
330
C0B9
100
AcDbEntity
  8
1
  6
Continuous
100
AcDbCircle
 10
191.9864279999999
 20
48.387524
 30
0.0
 40
2.75
100
AcDbArc
 50
202.2347349999999
 51
136.658242
  0
ARC
  5
C255
330
C0B9
100
AcDbEntity
  8
1
  6
Continuous
100
AcDbCircle
 10
191.549346
 20
82.10625899999998
 30
0.0
 40
8.0
100
AcDbArc
 50
29.34247700000002
 51
90.47097900000002
  0
LINE
  5
C256
330
C0B9
100
AcDbEntity
  8
4
  6
CENTER
100
AcDbLine
 10
197.8238789999998
 20
93.13930199999999
 30
0.0
 11
181.986428
 21
65.70803199999999
 31
0.0
  0
ARC
  5
C257
330
C0B9
100
AcDbEntity
  8
1
  6
Continuous
100
AcDbCircle
 10
191.9864279999999
 20
83.02854000000001
 30
0.0
 40
2.75
100
AcDbArc
 50
223.341758
 51
157.765265
  0
ARC
  5
C258
330
C0B9
100
AcDbEntity
  8
1
  6
Continuous
100
AcDbCircle
 10
191.8247169999999
 20
48.60739099999999
 30
0.0
 40
41.5
100
AcDbArc
 50
90.47097900000002
 51
106.9201269999999
  0
ARC
  5
C259
330
C0B9
100
AcDbEntity
  8
1
  6
Continuous
100
AcDbCircle
 10
191.845724
 20
82.77323800000003
 30
0.0
 40
41.5
100
AcDbArc
 50
252.9755419999998
 51
269.49773
  0
CIRCLE
  5
C25A
330
C0B9
100
AcDbEntity
  8
4
  6
CENTER
100
AcDbCircle
 10
181.986428
 20
65.70803199999999
 30
0.0
 40
20.0
  0
ARC
  5
C25B
330
C0B9
100
AcDbEntity
  8
1
  6
Continuous
100
AcDbCircle
 10
181.986428
 20
65.70803199999999
 30
0.0
 40
9.5
100
AcDbArc
 50
71.328282
 51
108.6717179999999
  0
LINE
  5
C25C
330
C0B9
100
AcDbEntity
  8
1
  6
Continuous
100
AcDbLine
 10
385.9569649999999
 20
180.2667539999999
 30
0.0
 11
384.1351629999999
 21
149.296115
 31
0.0
  0
LINE
  5
C25D
330
C0B9
100
AcDbEntity
  8
4
  6
CENTER
100
AcDbLine
 10
411.5417469999998
 20
125.208032
 30
0.0
 11
411.5417469999998
 21
185.2080319999998
 31
0.0
  0
LINE
  5
C25E
330
C0B9
100
AcDbEntity
  8
4
  6
CENTER
100
AcDbLine
 10
394.5417469999999
 20
142.7284649999998
 30
0.0
 11
394.5417469999999
 21
203.2080319999999
 31
0.0
  0
CIRCLE
  5
C25F
330
C0B9
100
AcDbEntity
  8
1
  6
Continuous
100
AcDbCircle
 10
411.5417469999998
 20
155.2080319999998
 30
0.0
 40
17.0
  0
CIRCLE
  5
C260
330
C0B9
100
AcDbEntity
  8
1
  6
Continuous
100
AcDbCircle
 10
411.5417469999998
 20
155.2080319999998
 30
0.0
 40
15.09999999999999
  0
CIRCLE
  5
C261
330
C0B9
100
AcDbEntity
  8
1
  6
Continuous
100
AcDbCircle
 10
411.5417469999998
 20
155.2080319999998
 30
0.0
 40
25.0
  0
CIRCLE
  5
C262
330
C0B9
100
AcDbEntity
  8
1
  6
Continuous
100
AcDbCircle
 10
411.5417469999998
 20
155.2080319999998
 30
0.0
 40
19.5
  0
CIRCLE
  5
C263
330
C0B9
100
AcDbEntity
  8
1
  6
Continuous
100
AcDbCircle
 10
411.5417469999998
 20
155.2080319999998
 30
0.0
 40
21.0
  0
LINE
  5
C264
330
C0B9
100
AcDbEntity
  8
4
  6
CENTER
100
AcDbLine
 10
381.5417469999999
 20
155.2080319999998
 30
0.0
 11
441.541747
 21
155.2080319999998
 31
0.0
  0
ARC
  5
C265
330
C0B9
100
AcDbEntity
  8
1
  6
Continuous
100
AcDbCircle
 10
385.6325749999998
 20
149.208032
 30
0.0
 40
1.5
100
AcDbArc
 50
176.6335389999999
 51
270.0
  0
LINE
  5
C266
330
C0B9
100
AcDbEntity
  8
1
  6
Continuous
100
AcDbLine
 10
385.6325749999998
 20
147.7080319999998
 30
0.0
 11
387.693267
 21
147.7080319999998
 31
0.0
  0
LINE
  5
C267
330
C0B9
100
AcDbEntity
  8
1
  6
Continuous
100
AcDbLine
 10
403.0417469999998
 20
188.208032
 30
0.0
 11
386.0417469999999
 21
188.208032
 31
0.0
  0
LINE
  5
C268
330
C0B9
100
AcDbEntity
  8
1
  6
Continuous
100
AcDbLine
 10
403.0417469999998
 20
181.2080319999998
 30
0.0
 11
386.0417469999999
 21
181.2080319999998
 31
0.0
  0
LINE
  5
C269
330
C0B9
100
AcDbEntity
  8
1
  6
Continuous
100
AcDbLine
 10
421.51002
 20
195.208032
 30
0.0
 11
372.679688
 21
195.208032
 31
0.0
  0
LINE
  5
C26A
330
C0B9
100
AcDbEntity
  8
1
  6
Continuous
100
AcDbLine
 10
372.679688
 20
192.208032
 30
0.0
 11
421.51002
 21
192.208032
 31
0.0
  0
LINE
  5
C26B
330
C0B9
100
AcDbEntity
  8
1
  6
Continuous
100
AcDbLine
 10
421.51002
 20
192.208032
 30
0.0
 11
421.51002
 21
195.208032
 31
0.0
  0
LINE
  5
C26C
330
C0B9
100
AcDbEntity
  8
4
  6
CENTER
100
AcDbLine
 10
414.5417469999999
 20
200.208032
 30
0.0
 11
414.5417469999999
 21
187.208032
 31
0.0
  0
ARC
  5
C26D
330
C0B9
100
AcDbEntity
  8
1
  6
Continuous
100
AcDbCircle
 10
409.521683
 20
190.2080319999998
 30
0.0
 40
2.0
100
AcDbArc
 50
90.0
 51
130.100908
  0
LINE
  5
C26E
330
C0B9
100
AcDbEntity
  8
1
  6
Continuous
100
AcDbLine
 10
405.7167549999999
 20
189.6185649999999
 30
0.0
 11
408.2334119999998
 21
191.7378539999999
 31
0.0
  0
ARC
  5
C26F
330
C0B9
100
AcDbEntity
  8
1
  6
Continuous
100
AcDbCircle
 10
402.098842
 20
180.2080319999998
 30
0.0
 40
1.0
100
AcDbArc
 50
3.366461
 51
90.0
  0
LINE
  5
C270
330
C0B9
100
AcDbEntity
  8
1
  6
Continuous
100
AcDbLine
 10
403.5417469999998
 20
187.708032
 30
0.0
 11
403.5417469999998
 21
181.708032
 31
0.0
  0
LINE
  5
C271
330
C0B9
100
AcDbEntity
  8
1
  6
Continuous
100
AcDbLine
 10
403.5417469999998
 20
181.708032
 30
0.0
 11
403.0417469999998
 21
181.2080319999998
 31
0.0
  0
ARC
  5
C272
330
C0B9
100
AcDbEntity
  8
1
  6
Continuous
100
AcDbCircle
 10
401.851941
 20
194.208032
 30
0.0
 40
6.0
100
AcDbArc
 50
270.0
 51
310.100908
  0
LINE
  5
C273
330
C0B9
100
AcDbEntity
  8
1
  6
Continuous
100
AcDbLine
 10
403.5417469999998
 20
187.708032
 30
0.0
 11
403.0417469999998
 21
188.208032
 31
0.0
  0
ARC
  5
C274
330
C0B9
100
AcDbEntity
  8
1
  6
Continuous
100
AcDbCircle
 10
407.948771
 20
182.543685
 30
0.0
 40
5.359380999999999
100
AcDbArc
 50
205.1411379999999
 51
221.164729
  0
LINE
  5
C275
330
C0B9
100
AcDbEntity
  8
1
  6
Continuous
100
AcDbLine
 10
383.3667399999998
 20
189.6185649999999
 30
0.0
 11
380.8500829999999
 21
191.7378539999999
 31
0.0
  0
LINE
  5
C276
330
C0B9
100
AcDbEntity
  8
4
  6
CENTER
100
AcDbLine
 10
384.5417470000001
 20
200.208032
 30
0.0
 11
384.5417470000001
 21
187.208032
 31
0.0
  0
ARC
  5
C277
330
C0B9
100
AcDbEntity
  8
1
  6
Continuous
100
AcDbCircle
 10
386.9552389999999
 20
180.2080319999998
 30
0.0
 40
1.0
100
AcDbArc
 50
90.0
 51
176.6335389999999
  0
LINE
  5
C278
330
C0B9
100
AcDbEntity
  8
1
  6
Continuous
100
AcDbLine
 10
385.5417469999999
 20
181.708032
 30
0.0
 11
385.5417469999999
 21
187.708032
 31
0.0
  0
LINE
  5
C279
330
C0B9
100
AcDbEntity
  8
1
  6
Continuous
100
AcDbLine
 10
386.0417469999999
 20
181.2080319999998
 30
0.0
 11
385.5417469999999
 21
181.708032
 31
0.0
  0
ARC
  5
C27A
330
C0B9
100
AcDbEntity
  8
1
  6
Continuous
100
AcDbCircle
 10
387.231554
 20
194.208032
 30
0.0
 40
6.0
100
AcDbArc
 50
229.899092
 51
270.0
  0
LINE
  5
C27B
330
C0B9
100
AcDbEntity
  8
1
  6
Continuous
100
AcDbLine
 10
385.5417469999999
 20
187.708032
 30
0.0
 11
386.0417469999999
 21
188.208032
 31
0.0
  0
LINE
  5
C27C
330
C0B9
100
AcDbEntity
  8
1
  6
Continuous
100
AcDbLine
 10
372.679688
 20
195.208032
 30
0.0
 11
372.679688
 21
192.208032
 31
0.0
  0
ARC
  5
C27D
330
C0B9
100
AcDbEntity
  8
1
  6
Continuous
100
AcDbCircle
 10
379.5618119999998
 20
190.2080319999998
 30
0.0
 40
2.0
100
AcDbArc
 50
49.89909199999998
 51
90.0
  0
LINE
  5
C27E
330
C0B9
100
AcDbEntity
  8
1
  6
Continuous
100
AcDbLine
 10
44.317321
 20
144.7080319999998
 30
0.0
 11
53.817321
 21
144.7080319999998
 31
0.0
  0
LINE
  5
C27F
330
C0B9
100
AcDbEntity
  8
1
  6
Continuous
100
AcDbLine
 10
54.817321
 20
147.7080319999998
 30
0.0
 11
54.817321
 21
145.708032
 31
0.0
  0
LINE
  5
C280
330
C0B9
100
AcDbEntity
  8
1
  6
Continuous
100
AcDbLine
 10
43.31732099999999
 20
147.7080319999998
 30
0.0
 11
43.31732099999999
 21
145.708032
 31
0.0
  0
ARC
  5
C281
330
C0B9
100
AcDbEntity
  8
1
  6
Continuous
100
AcDbCircle
 10
44.317321
 20
145.708032
 30
0.0
 40
1.0
100
AcDbArc
 50
180.0
 51
270.0
  0
ARC
  5
C282
330
C0B9
100
AcDbEntity
  8
1
  6
Continuous
100
AcDbCircle
 10
53.817321
 20
145.708032
 30
0.0
 40
1.0
100
AcDbArc
 50
270.0
 51
0.0
  0
LINE
  5
C283
330
C0B9
100
AcDbEntity
  8
1
  6
Continuous
100
AcDbLine
 10
293.014088
 20
144.7080319999998
 30
0.0
 11
283.514088
 21
144.7080319999998
 31
0.0
  0
LINE
  5
C284
330
C0B9
100
AcDbEntity
  8
1
  6
Continuous
100
AcDbLine
 10
294.014088
 20
147.7080319999998
 30
0.0
 11
294.014088
 21
145.708032
 31
0.0
  0
LINE
  5
C285
330
C0B9
100
AcDbEntity
  8
1
  6
Continuous
100
AcDbLine
 10
282.514088
 20
147.7080319999998
 30
0.0
 11
282.514088
 21
145.708032
 31
0.0
  0
ARC
  5
C286
330
C0B9
100
AcDbEntity
  8
1
  6
Continuous
100
AcDbCircle
 10
293.014088
 20
145.708032
 30
0.0
 40
1.0
100
AcDbArc
 50
270.0
 51
0.0
  0
ARC
  5
C287
330
C0B9
100
AcDbEntity
  8
1
  6
Continuous
100
AcDbCircle
 10
283.514088
 20
145.708032
 30
0.0
 40
1.0
100
AcDbArc
 50
180.0
 51
270.0
  0
LINE
  5
C288
330
C0B9
100
AcDbEntity
  8
1
  6
Continuous
100
AcDbLine
 10
58.067321
 20
171.9764319999999
 30
0.0
 11
57.567321
 21
171.9764319999999
 31
0.0
  0
LINE
  5
C289
330
C0B9
100
AcDbEntity
  8
1
  6
Continuous
100
AcDbLine
 10
40.567321
 20
171.9764319999999
 30
0.0
 11
40.06732099999999
 21
171.9764319999999
 31
0.0
  0
ARC
  5
C28A
330
C0B9
100
AcDbEntity
  8
1
  6
Continuous
100
AcDbCircle
 10
42.06732099999999
 20
175.762112
 30
0.0
 40
1.5
100
AcDbArc
 50
90.0
 51
180.0
  0
LINE
  5
C28B
330
C0B9
100
AcDbEntity
  8
1
  6
Continuous
100
AcDbLine
 10
42.06732099999999
 20
177.262112
 30
0.0
 11
56.067321
 21
177.262112
 31
0.0
  0
ARC
  5
C28C
330
C0B9
100
AcDbEntity
  8
1
  6
Continuous
100
AcDbCircle
 10
56.067321
 20
175.762112
 30
0.0
 40
1.5
100
AcDbArc
 50
0.0
 51
90.0
  0
ARC
  5
C28D
330
C0B9
100
AcDbEntity
  8
1
  6
Continuous
100
AcDbCircle
 10
137.705122
 20
199.2493889999998
 30
0.0
 40
26.0
100
AcDbArc
 50
260.387876
 51
302.0679830000001
  0
ARC
  5
C28E
330
C0B9
100
AcDbEntity
  8
5
  6
PHANTOM
100
AcDbCircle
 10
144.8749569999999
 20
167.974017
 30
0.0
 40
6.5
100
AcDbArc
 50
73.948274
 51
150.1139659999998
  0
ARC
  5
C28F
330
C0B9
100
AcDbEntity
  8
5
  6
PHANTOM
100
AcDbCircle
 10
112.1534229999999
 20
161.367437
 30
0.0
 40
28.0
100
AcDbArc
 50
347.8278519999999
 51
26.694064
  0
ARC
  5
C290
330
C0B9
100
AcDbEntity
  8
1
  6
Continuous
100
AcDbCircle
 10
140.407972
 20
170.375619
 30
0.0
 40
1.0
100
AcDbArc
 50
336.219159
 51
95.34782599999996
  0
ARC
  5
C291
330
C0B9
100
AcDbEntity
  8
1
  6
Continuous
100
AcDbCircle
 10
137.705122
 20
199.2493889999998
 30
0.0
 40
28.0
100
AcDbArc
 50
261.827852
 51
290.2750389999998
  0
ARC
  5
C292
330
C0B9
100
AcDbEntity
  8
5
  6
PHANTOM
100
AcDbCircle
 10
141.145399
 20
162.0495709999999
 30
0.0
 40
1.0
100
AcDbArc
 50
84.20794499999997
 51
181.347826
  0
ARC
  5
C293
330
C0B9
100
AcDbEntity
  8
1
  6
Continuous
100
AcDbCircle
 10
145.898539
 20
167.956183
 30
0.0
 40
5.0
100
AcDbArc
 50
156.2191589999999
 51
217.6815799999999
  0
ARC
  5
C294
330
C0B9
100
AcDbEntity
  8
5
  6
PHANTOM
100
AcDbCircle
 10
138.8058289999999
 20
171.461952
 30
0.0
 40
0.5
100
AcDbArc
 50
200.744024
 51
330.113966
  0
LINE
  5
C295
330
C0B9
100
AcDbEntity
  8
5
  6
PHANTOM
100
AcDbLine
 10
146.6722399999999
 20
174.220598
 30
0.0
 11
147.82246
 21
173.3849139999999
 31
0.0
  0
ARC
  5
C296
330
C0B9
100
AcDbEntity
  8
5
  6
PHANTOM
100
AcDbCircle
 10
136.1983929999998
 20
172.2630419999999
 30
0.0
 40
2.0
100
AcDbArc
 50
65.58410600000001
 51
119.5385239999999
  0
ARC
  5
C297
330
C0B9
100
AcDbEntity
  8
5
  6
PHANTOM
100
AcDbCircle
 10
136.9011
 20
173.81101
 30
0.0
 40
0.3
100
AcDbArc
 50
26.694064
 51
65.58410600000001
  0
ARC
  5
C298
330
C0B9
100
AcDbEntity
  8
5
  6
PHANTOM
100
AcDbCircle
 10
135.3602779999999
 20
173.742084
 30
0.0
 40
0.3
100
AcDbArc
 50
119.5385239999999
 51
208.067983
  0
ARC
  5
C299
330
C0B9
100
AcDbEntity
  8
1
  6
Continuous
100
AcDbCircle
 10
134.986428
 20
173.0157979999999
 30
0.0
 40
2.0
100
AcDbArc
 50
169.739044
 51
224.19752
  0
ARC
  5
C29A
330
C0B9
100
AcDbEntity
  8
1
  6
Continuous
100
AcDbCircle
 10
151.668453
 20
176.962276
 30
0.0
 40
0.3
100
AcDbArc
 50
33.538524
 51
122.0679829999999
  0
ARC
  5
C29B
330
C0B9
100
AcDbEntity
  8
1
  6
Continuous
100
AcDbCircle
 10
150.251478
 20
176.023031
 30
0.0
 40
2.0
100
AcDbArc
 50
18.554142
 51
33.538524
  0
LINE
  5
C29C
330
C0B9
100
AcDbEntity
  8
1
  6
Continuous
100
AcDbLine
 10
141.688593
 20
57.20803199999998
 30
0.0
 11
137.740803
 21
57.20803199999998
 31
0.0
  0
LINE
  5
C29D
330
C0B9
100
AcDbEntity
  8
1
  6
Continuous
100
AcDbLine
 10
141.688593
 20
74.20803199999998
 30
0.0
 11
137.740803
 21
74.20803199999998
 31
0.0
  0
LINE
  5
C29E
330
C0B9
100
AcDbEntity
  8
1
  6
Continuous
100
AcDbLine
 10
132.986428
 20
72.143843
 30
0.0
 11
132.986428
 21
59.272002
 31
0.0
  0
ARC
  5
C29F
330
C0B9
100
AcDbEntity
  8
1
  6
Continuous
100
AcDbCircle
 10
138.322619
 20
67.43084
 30
0.0
 40
10.23935099999998
100
AcDbArc
 50
241.8945390000001
 51
266.742612
  0
ARC
  5
C2A0
330
C0B9
100
AcDbEntity
  8
1
  6
Continuous
100
AcDbCircle
 10
133.986428
 20
59.272002
 30
0.0
 40
1.0
100
AcDbArc
 50
180.0
 51
240.821895
  0
ARC
  5
C2A1
330
C0B9
100
AcDbEntity
  8
1
  6
Continuous
100
AcDbCircle
 10
138.322619
 20
63.985224
 30
0.0
 40
10.23935099999998
100
AcDbArc
 50
93.25738800000001
 51
117.9900149999999
  0
ARC
  5
C2A2
330
C0B9
100
AcDbEntity
  8
1
  6
Continuous
100
AcDbCircle
 10
133.986428
 20
72.143843
 30
0.0
 40
1.0
100
AcDbArc
 50
117.9900149999999
 51
180.0
  0
LINE
  5
C2A3
330
C0B9
100
AcDbEntity
  8
1
  6
Continuous
100
AcDbLine
 10
132.986428
 20
253.272112
 30
0.0
 11
132.986428
 21
266.1439529999999
 31
0.0
  0
ARC
  5
C2A4
330
C0B9
100
AcDbEntity
  8
1
  6
Continuous
100
AcDbCircle
 10
138.322619
 20
257.985114
 30
0.0
 40
10.23935099999998
100
AcDbArc
 50
93.246541
 51
118.1054609999999
  0
ARC
  5
C2A5
330
C0B9
100
AcDbEntity
  8
1
  6
Continuous
100
AcDbCircle
 10
133.986428
 20
266.1439529999999
 30
0.0
 40
1.0
100
AcDbArc
 50
119.178105
 51
180.0
  0
ARC
  5
C2A6
330
C0B9
100
AcDbEntity
  8
1
  6
Continuous
100
AcDbCircle
 10
133.986428
 20
253.272112
 30
0.0
 40
1.0
100
AcDbArc
 50
180.0
 51
242.009985
  0
ARC
  5
C2A7
330
C0B9
100
AcDbEntity
  8
1
  6
Continuous
100
AcDbCircle
 10
138.322619
 20
261.4307299999999
 30
0.0
 40
10.23935099999998
100
AcDbArc
 50
242.009985
 51
266.7318009999998
  0
ARC
  5
C2A8
330
C0B9
100
AcDbEntity
  8
1
  6
Continuous
100
AcDbCircle
 10
54.877513
 20
176.5382389999999
 30
0.0
 40
3.0
100
AcDbArc
 50
283.2933059999998
 51
333.715039
  0
LINE
  5
C2A9
330
C0B9
100
AcDbEntity
  8
1
  6
Continuous
100
AcDbLine
 10
55.567321
 20
173.618622
 30
0.0
 11
42.56732099999999
 21
173.618622
 31
0.0
  0
ARC
  5
C2AA
330
C0B9
100
AcDbEntity
  8
1
  6
Continuous
100
AcDbCircle
 10
43.257129
 20
176.5382389999999
 30
0.0
 40
3.0
100
AcDbArc
 50
206.284961
 51
256.7066939999999
  0
ARC
  5
C2AB
330
C0B9
100
AcDbEntity
  8
1
  6
Continuous
100
AcDbCircle
 10
42.56732099999999
 20
172.047798
 30
0.0
 40
0.5
100
AcDbArc
 50
180.0
 51
270.0
  0
LINE
  5
C2AC
330
C0B9
100
AcDbEntity
  8
1
  6
Continuous
100
AcDbLine
 10
42.06732099999999
 20
173.1186219999999
 30
0.0
 11
42.06732099999999
 21
171.9466999999999
 31
0.0
  0
ARC
  5
C2AD
330
C0B9
100
AcDbEntity
  8
1
  6
Continuous
100
AcDbCircle
 10
42.56732099999999
 20
173.1186219999999
 30
0.0
 40
0.5
100
AcDbArc
 50
90.0
 51
180.0
  0
ARC
  5
C2AE
330
C0B9
100
AcDbEntity
  8
1
  6
Continuous
100
AcDbCircle
 10
43.257129
 20
174.4674149999999
 30
0.0
 40
3.0
100
AcDbArc
 50
206.284961
 51
251.4687099999999
  0
LINE
  5
C2AF
330
C0B9
100
AcDbEntity
  8
1
  6
Continuous
100
AcDbLine
 10
42.56732099999999
 20
171.547798
 30
0.0
 11
55.567321
 21
171.547798
 31
0.0
  0
ARC
  5
C2B0
330
C0B9
100
AcDbEntity
  8
1
  6
Continuous
100
AcDbCircle
 10
55.567321
 20
172.047798
 30
0.0
 40
0.5
100
AcDbArc
 50
270.0
 51
0.0
  0
ARC
  5
C2B1
330
C0B9
100
AcDbEntity
  8
1
  6
Continuous
100
AcDbCircle
 10
55.567321
 20
173.1186219999999
 30
0.0
 40
0.5
100
AcDbArc
 50
0.0
 51
90.0
  0
ARC
  5
C2B2
330
C0B9
100
AcDbEntity
  8
1
  6
Continuous
100
AcDbCircle
 10
54.877513
 20
174.4674149999999
 30
0.0
 40
3.0
100
AcDbArc
 50
288.53129
 51
333.715039
  0
LINE
  5
C2B3
330
C0B9
100
AcDbEntity
  8
1
  6
Continuous
100
AcDbLine
 10
56.067321
 20
173.1186219999999
 30
0.0
 11
56.067321
 21
171.9466999999999
 31
0.0
  0
ARC
  5
C2B4
330
C0B9
100
AcDbEntity
  8
1
  6
Continuous
100
AcDbCircle
 10
133.767629
 20
171.83067
 30
0.0
 40
0.3
100
AcDbArc
 50
224.19752
 51
261.827852
  0
ARC
  5
C2B5
330
C0B9
100
AcDbEntity
  8
1
  6
Continuous
100
AcDbCircle
 10
133.3136169999999
 20
173.318622
 30
0.0
 40
0.3
100
AcDbArc
 50
80.387876
 51
169.739044
  0
ARC
  5
C2B6
330
C0B9
100
AcDbEntity
  8
5
  6
PHANTOM
100
AcDbCircle
 10
137.7146879999999
 20
155.1777899999999
 30
0.0
 40
0.3
100
AcDbArc
 50
166.387876
 51
255.739044
  0
ARC
  5
C2B7
330
C0B9
100
AcDbEntity
  8
5
  6
PHANTOM
100
AcDbCircle
 10
138.133464
 20
156.825403
 30
0.0
 40
2.0
100
AcDbArc
 50
255.739044
 51
310.19752
  0
ARC
  5
C2B8
330
C0B9
100
AcDbEntity
  8
5
  6
PHANTOM
100
AcDbCircle
 10
112.1534229999999
 20
161.367437
 30
0.0
 40
26.0
100
AcDbArc
 50
346.387876
 51
28.067983
  0
ARC
  5
C2B9
330
C0B9
100
AcDbEntity
  8
5
  6
PHANTOM
100
AcDbCircle
 10
139.2306859999999
 20
155.526902
 30
0.0
 40
0.3
100
AcDbArc
 50
310.19752
 51
347.8278519999999
  0
ARC
  5
C2BA
330
C0B9
100
AcDbEntity
  8
1
  6
Continuous
100
AcDbCircle
 10
49.067321
 20
244.0306309999999
 30
0.0
 40
72.77570899999997
100
AcDbArc
 50
264.8402249999999
 51
275.159775
  0
ARC
  5
C2BB
330
C0B9
100
AcDbEntity
  8
1
  6
Continuous
100
AcDbCircle
 10
438.823053
 20
199.2493889999998
 30
0.0
 40
26.0
100
AcDbArc
 50
237.932017
 51
279.612124
  0
ARC
  5
C2BC
330
C0B9
100
AcDbEntity
  8
1
  6
Continuous
100
AcDbCircle
 10
438.823053
 20
199.2493889999998
 30
0.0
 40
28.0
100
AcDbArc
 50
249.7249609999999
 51
278.1721479999998
  0
ARC
  5
C2BD
330
C0B9
100
AcDbEntity
  8
5
  6
PHANTOM
100
AcDbCircle
 10
431.653218
 20
167.974017
 30
0.0
 40
6.5
100
AcDbArc
 50
29.88603399999999
 51
106.051726
  0
ARC
  5
C2BE
330
C0B9
100
AcDbEntity
  8
5
  6
PHANTOM
100
AcDbCircle
 10
437.297489
 20
155.526902
 30
0.0
 40
0.3
100
AcDbArc
 50
192.172148
 51
229.8024799999998
  0
ARC
  5
C2BF
330
C0B9
100
AcDbEntity
  8
5
  6
PHANTOM
100
AcDbCircle
 10
464.3747519999998
 20
161.367437
 30
0.0
 40
28.0
100
AcDbArc
 50
153.305936
 51
192.172148
  0
ARC
  5
C2C0
330
C0B9
100
AcDbEntity
  8
5
  6
PHANTOM
100
AcDbCircle
 10
438.394711
 20
156.825403
 30
0.0
 40
2.0
100
AcDbArc
 50
229.8024799999998
 51
284.260956
  0
ARC
  5
C2C1
330
C0B9
100
AcDbEntity
  8
5
  6
PHANTOM
100
AcDbCircle
 10
438.813487
 20
155.1777899999999
 30
0.0
 40
0.3
100
AcDbArc
 50
284.260956
 51
13.612124
  0
ARC
  5
C2C2
330
C0B9
100
AcDbEntity
  8
5
  6
PHANTOM
100
AcDbCircle
 10
464.3747519999998
 20
161.367437
 30
0.0
 40
26.0
100
AcDbArc
 50
151.932017
 51
193.612124
  0
ARC
  5
C2C3
330
C0B9
100
AcDbEntity
  8
1
  6
Continuous
100
AcDbCircle
 10
443.214558
 20
173.318622
 30
0.0
 40
0.3
100
AcDbArc
 50
10.260956
 51
99.612124
  0
ARC
  5
C2C4
330
C0B9
100
AcDbEntity
  8
1
  6
Continuous
100
AcDbCircle
 10
441.541747
 20
173.0157979999999
 30
0.0
 40
2.0
100
AcDbArc
 50
315.80248
 51
10.260956
  0
ARC
  5
C2C5
330
C0B9
100
AcDbEntity
  8
1
  6
Continuous
100
AcDbCircle
 10
442.7605459999998
 20
171.83067
 30
0.0
 40
0.3
100
AcDbArc
 50
278.1721479999998
 51
315.80248
  0
ARC
  5
C2C6
330
C0B9
100
AcDbEntity
  8
5
  6
PHANTOM
100
AcDbCircle
 10
441.1678969999998
 20
173.742084
 30
0.0
 40
0.3
100
AcDbArc
 50
331.9320169999999
 51
60.46147600000001
  0
ARC
  5
C2C7
330
C0B9
100
AcDbEntity
  8
5
  6
PHANTOM
100
AcDbCircle
 10
439.627075
 20
173.81101
 30
0.0
 40
0.3
100
AcDbArc
 50
114.4158939999998
 51
153.305936
  0
ARC
  5
C2C8
330
C0B9
100
AcDbEntity
  8
5
  6
PHANTOM
100
AcDbCircle
 10
440.329782
 20
172.2630419999999
 30
0.0
 40
2.0
100
AcDbArc
 50
60.46147600000001
 51
114.4158939999998
  0
ARC
  5
C2C9
330
C0B9
100
AcDbEntity
  8
5
  6
PHANTOM
100
AcDbCircle
 10
437.722346
 20
171.461952
 30
0.0
 40
0.5
100
AcDbArc
 50
209.8860339999998
 51
339.2559759999999
  0
ARC
  5
C2CA
330
C0B9
100
AcDbEntity
  8
1
  6
Continuous
100
AcDbCircle
 10
430.6296360000001
 20
167.956183
 30
0.0
 40
5.0
100
AcDbArc
 50
322.3184199999999
 51
23.780841
  0
ARC
  5
C2CB
330
C0B9
100
AcDbEntity
  8
5
  6
PHANTOM
100
AcDbCircle
 10
435.3827759999998
 20
162.0495709999999
 30
0.0
 40
1.0
100
AcDbArc
 50
358.652174
 51
95.792055
  0
ARC
  5
C2CC
330
C0B9
100
AcDbEntity
  8
1
  6
Continuous
100
AcDbCircle
 10
436.120203
 20
170.375619
 30
0.0
 40
1.0
100
AcDbArc
 50
84.652174
 51
203.7808409999999
  0
LINE
  5
C2CD
330
C0B9
100
AcDbEntity
  8
5
  6
PHANTOM
100
AcDbLine
 10
429.8559349999998
 20
174.220598
 30
0.0
 11
428.705715
 21
173.3849139999999
 31
0.0
  0
ARC
  5
C2CE
330
C0B9
100
AcDbEntity
  8
1
  6
Continuous
100
AcDbCircle
 10
426.2766969999998
 20
176.023031
 30
0.0
 40
2.0
100
AcDbArc
 50
146.461476
 51
161.4458579999999
  0
ARC
  5
C2CF
330
C0B9
100
AcDbEntity
  8
1
  6
Continuous
100
AcDbCircle
 10
424.8597219999998
 20
176.962276
 30
0.0
 40
0.3
100
AcDbArc
 50
57.932017
 51
146.461476
  0
ENDSEC
  0
SECTION
  2
OBJECTS
  0
DICTIONARY
  5
C0A7
330
0
100
AcDbDictionary
281
     1
  3
ACAD_CIP_PREVIOUS_PRODUCT_INFO
350
C331
  3
ACAD_COLOR
350
C313
  3
ACAD_DETAILVIEWSTYLE
350
C32C
  3
ACAD_GROUP
350
C0A8
  3
ACAD_LAYOUT
350
C0B4
  3
ACAD_MATERIAL
350
C2E1
  3
ACAD_MLEADERSTYLE
350
C328
  3
ACAD_MLINESTYLE
350
C0B1
  3
ACAD_PLOTSETTINGS
350
C0B3
  3
ACAD_PLOTSTYLENAME
350
C2DF
  3
ACAD_SCALELIST
350
C316
  3
ACAD_SECTIONVIEWSTYLE
350
C32A
  3
ACAD_TABLESTYLE
350
C314
  3
ACAD_VISUALSTYLE
350
C2FA
  3
ACDB_RECOMPOSE_DATA
350
C396
  3
AcDbVariableDictionary
350
C344
  3
DWGPROPS
350
C397
  0
DICTIONARY
  5
C334
330
C0AB
100
AcDbDictionary
280
     1
281
     1
  3
ADSK_XREC_LAYER_RECONCILED
360
C335
  0
DICTIONARY
  5
C336
330
C0C1
100
AcDbDictionary
280
     1
281
     1
  3
ADSK_XREC_LAYER_RECONCILED
360
C337
  0
DICTIONARY
  5
C338
330
C0C2
100
AcDbDictionary
280
     1
281
     1
  3
ADSK_XREC_LAYER_RECONCILED
360
C339
  0
DICTIONARY
  5
C33A
330
C0C3
100
AcDbDictionary
280
     1
281
     1
  3
ADSK_XREC_LAYER_RECONCILED
360
C33B
  0
DICTIONARY
  5
C33C
330
C0C4
100
AcDbDictionary
280
     1
281
     1
  3
ADSK_XREC_LAYER_RECONCILED
360
C33D
  0
DICTIONARY
  5
C33E
330
C0C5
100
AcDbDictionary
280
     1
281
     1
  3
ADSK_XREC_LAYER_RECONCILED
360
C33F
  0
DICTIONARY
  5
C340
330
C0C6
100
AcDbDictionary
280
     1
281
     1
  3
ADSK_XREC_LAYER_RECONCILED
360
C341
  0
DICTIONARY
  5
C342
330
C0C7
100
AcDbDictionary
280
     1
281
     1
  3
ADSK_XREC_LAYER_RECONCILED
360
C343
  0
DICTIONARY
  5
C2DA
330
C0B9
100
AcDbDictionary
281
     1
  3
ACAD_LAYOUTSELFREF
350
C2DB
  0
DICTIONARY
  5
C2D8
330
C0B5
100
AcDbDictionary
281
     1
  3
ACAD_LAYOUTSELFREF
350
C2D9
  0
XRECORD
  5
C331
102
{ACAD_REACTORS
330
C0A7
102
}
330
C0A7
100
AcDbXrecord
280
     1
300
ACDLT
300
2014
300
ACDLT_F_S
  0
DICTIONARY
  5
C313
102
{ACAD_REACTORS
330
C0A7
102
}
330
C0A7
100
AcDbDictionary
281
     1
  0
DICTIONARY
  5
C32C
102
{ACAD_REACTORS
330
C0A7
102
}
330
C0A7
100
AcDbDictionary
281
     1
  3
Imperial24
350
C32D
  0
DICTIONARY
  5
C0A8
102
{ACAD_REACTORS
330
C0A7
102
}
330
C0A7
100
AcDbDictionary
281
     1
  0
DICTIONARY
  5
C0B4
102
{ACAD_REACTORS
330
C0A7
102
}
330
C0A7
100
AcDbDictionary
281
     1
  3
Model
350
C32E
  3
レイアウト1
350
C32F
  0
DICTIONARY
  5
C2E1
102
{ACAD_REACTORS
330
C0A7
102
}
330
C0A7
100
AcDbDictionary
281
     1
  3
ByBlock
350
C2EA
  3
ByLayer
350
C2E2
  3
Global
350
C2F2
  0
DICTIONARY
  5
C328
102
{ACAD_REACTORS
330
C0A7
102
}
330
C0A7
100
AcDbDictionary
281
     1
  3
Standard
350
C329
  0
DICTIONARY
  5
C0B1
102
{ACAD_REACTORS
330
C0A7
102
}
330
C0A7
100
AcDbDictionary
281
     1
  3
STANDARD
350
C0B2
  0
DICTIONARY
  5
C0B3
102
{ACAD_REACTORS
330
C0A7
102
}
330
C0A7
100
AcDbDictionary
281
     1
  0
ACDBDICTIONARYWDFLT
  5
C2DF
102
{ACAD_REACTORS
330
C0A7
102
}
330
C0A7
100
AcDbDictionary
281
     1
  3
Normal
350
C2E0
100
AcDbDictionaryWithDefault
340
C2E0
  0
DICTIONARY
  5
C316
102
{ACAD_REACTORS
330
C0A7
102
}
330
C0A7
100
AcDbDictionary
281
     1
  3
A0
350
C317
  3
A1
350
C318
  3
A2
350
C319
  3
A3
350
C31A
  3
A4
350
C31B
  3
A5
350
C31C
  3
A6
350
C31D
  3
A7
350
C31E
  3
A8
350
C31F
  3
A9
350
C320
  3
B0
350
C321
  3
B1
350
C322
  3
B2
350
C323
  3
B3
350
C324
  3
B4
350
C325
  3
B5
350
C326
  3
B6
350
C327
  0
DICTIONARY
  5
C32A
102
{ACAD_REACTORS
330
C0A7
102
}
330
C0A7
100
AcDbDictionary
281
     1
  3
Imperial24
350
C32B
  0
DICTIONARY
  5
C314
102
{ACAD_REACTORS
330
C0A7
102
}
330
C0A7
100
AcDbDictionary
281
     1
  3
Standard
350
C315
  0
DICTIONARY
  5
C2FA
102
{ACAD_REACTORS
330
C0A7
102
}
330
C0A7
100
AcDbDictionary
281
     1
  3
2dWireframe
350
C300
  3
Basic
350
C2FF
  3
Brighten
350
C306
  3
ColorChange
350
C30A
  3
Conceptual
350
C303
  3
Dim
350
C305
  3
EdgeColorOff
350
C312
  3
Facepattern
350
C309
  3
Flat
350
C2FB
  3
FlatWithEdges
350
C2FC
  3
Gouraud
350
C2FD
  3
GouraudWithEdges
350
C2FE
  3
Hidden
350
C302
  3
JitterOff
350
C310
  3
Linepattern
350
C308
  3
OverhangOff
350
C311
  3
Realistic
350
C304
  3
Shaded
350
C30F
  3
Shaded with edges
350
C30E
  3
Shades of Gray
350
C30B
  3
Sketchy
350
C30C
  3
Thicken
350
C307
  3
Wireframe
350
C301
  3
X-Ray
350
C30D
  0
XRECORD
  5
C396
102
{ACAD_REACTORS
330
C0A7
102
}
330
C0A7
100
AcDbXrecord
280
     1
 90
        1
330
C315
  0
DICTIONARY
  5
C344
102
{ACAD_REACTORS
330
C0A7
102
}
330
C0A7
100
AcDbDictionary
281
     1
  3
CANNOSCALE
350
C349
  3
CMLEADERSTYLE
350
C346
  3
CTABLESTYLE
350
C345
  3
CVIEWDETAILSTYLE
350
C347
  3
CVIEWSECTIONSTYLE
350
C348
  3
DIMASSOC
350
C34C
  3
INDEXCTL
350
C34B
  3
SORTENTS
350
C34A
  3
XCLIPFRAME
350
C394
  0
XRECORD
  5
C397
102
{ACAD_REACTORS
330
C0A7
102
}
330
C0A7
100
AcDbXrecord
280
     1
  1
DWGPROPS COOKIE
  2

  3

  4

  6

  7

  8
Yoshitsune
  9

300
=
301
=
302
=
303
=
304
=
305
=
306
=
307
=
308
=
309
=
 40
0.0032917939814815
 41
2451301.388276736
 42
2457192.692172003
  1

 90
        0
  0
XRECORD
  5
C335
102
{ACAD_REACTORS
330
C334
102
}
330
C334
100
AcDbXrecord
280
     1
290
     1
  0
XRECORD
  5
C337
102
{ACAD_REACTORS
330
C336
102
}
330
C336
100
AcDbXrecord
280
     1
290
     1
  0
XRECORD
  5
C339
102
{ACAD_REACTORS
330
C338
102
}
330
C338
100
AcDbXrecord
280
     1
290
     1
  0
XRECORD
  5
C33B
102
{ACAD_REACTORS
330
C33A
102
}
330
C33A
100
AcDbXrecord
280
     1
290
     1
  0
XRECORD
  5
C33D
102
{ACAD_REACTORS
330
C33C
102
}
330
C33C
100
AcDbXrecord
280
     1
290
     1
  0
XRECORD
  5
C33F
102
{ACAD_REACTORS
330
C33E
102
}
330
C33E
100
AcDbXrecord
280
     1
290
     1
  0
XRECORD
  5
C341
102
{ACAD_REACTORS
330
C340
102
}
330
C340
100
AcDbXrecord
280
     1
290
     1
  0
XRECORD
  5
C343
102
{ACAD_REACTORS
330
C342
102
}
330
C342
100
AcDbXrecord
280
     1
290
     1
  0
XRECORD
  5
C2DB
102
{ACAD_REACTORS
330
C2DA
102
}
330
C2DA
100
AcDbXrecord
280
     1
340
C0B9
  0
XRECORD
  5
C2D9
102
{ACAD_REACTORS
330
C2D8
102
}
330
C2D8
100
AcDbXrecord
280
     1
340
C0B5
  0
ACDBDETAILVIEWSTYLE
  5
C32D
102
{ACAD_XDICTIONARY
360
C3CB
102
}
102
{ACAD_REACTORS
330
C32C
102
}
330
C32C
100
AcDbModelDocViewStyle
 70
     0
  3
Imperial24
290
     0
100
AcDbDetailViewStyle
 70
     0
 71
     0
 90
        3
 71
     1
340
C0AC
 40
0.24
340
0
 40
0.24
300

 40
0.36
280
     3
 71
     2
340
C0B0
 90
       25
 71
     3
340
C0AC
 40
0.24
 90
        1
 40
0.75
 90
        1
300
%<\AcVar ViewType \f "%tc1">% %<\AcVar ViewDetailId>%\PSCALE %<\AcVar ViewScale \f "%sn">%
 71
     4
340
C0B0
 90
       25
340
C0B0
 90
       25
280
     0
  0
LAYOUT
  5
C32E
102
{ACAD_XDICTIONARY
360
C3CD
102
}
102
{ACAD_REACTORS
330
C0B4
102
}
330
C0B4
100
AcDbPlotSettings
  1

  2
Canon LBP9100C
  4

  6

 40
0.0
 41
0.0
 42
0.0
 43
0.0
 44
0.0
 45
0.0
 46
0.0
 47
0.0
 48
0.0
 49
0.0
140
0.0
141
0.0
142
1.0
143
1.0
 70
  1712
 72
     0
 73
     0
 74
     0
  7

 75
     0
147
1.0
148
0.0
149
0.0
100
AcDbLayout
  1
Model
 70
     1
 71
     0
 10
0.0
 20
0.0
 11
12.0
 21
9.0
 12
0.0
 22
0.0
 32
0.0
 14
0.0
 24
0.0
 34
0.0
 15
0.0
 25
0.0
 35
0.0
146
0.0
 13
0.0
 23
0.0
 33
0.0
 16
1.0
 26
0.0
 36
0.0
 17
0.0
 27
1.0
 37
0.0
 76
     0
330
C0B9
331
C2D7
  0
LAYOUT
  5
C32F
102
{ACAD_XDICTIONARY
360
C3CF
102
}
102
{ACAD_REACTORS
330
C0B4
102
}
330
C0B4
100
AcDbPlotSettings
  1

  2
Canon LBP9100C
  4

  6

 40
0.0
 41
0.0
 42
0.0
 43
0.0
 44
0.0
 45
0.0
 46
0.0
 47
0.0
 48
0.0
 49
0.0
140
0.0
141
0.0
142
1.0
143
1.0
 70
   688
 72
     0
 73
     0
 74
     5
  7

 75
    16
147
1.0
148
0.0
149
0.0
100
AcDbLayout
  1
レイアウト1
 70
     0
 71
     1
 10
0.0
 20
0.0
 11
420.0
 21
297.0
 12
0.0
 22
0.0
 32
0.0
 14
1.000000000000000E+20
 24
1.000000000000000E+20
 34
1.000000000000000E+20
 15
-1.000000000000000E+20
 25
-1.000000000000000E+20
 35
-1.000000000000000E+20
146
0.0
 13
0.0
 23
0.0
 33
0.0
 16
1.0
 26
0.0
 36
0.0
 17
0.0
 27
1.0
 37
0.0
 76
     0
330
C0B5
  0
MATERIAL
  5
C2EA
102
{ACAD_XDICTIONARY
360
C2EB
102
}
102
{ACAD_REACTORS
330
C2E1
102
}
330
C2E1
100
AcDbMaterial
  1
ByBlock
 72
     0
 43
0.0208333333333333
 43
0.0
 43
0.0
 43
0.0
 43
0.0
 43
0.0208333333333333
 43
0.0
 43
0.0
 43
0.0
 43
0.0
 43
1.0
 43
0.0
 43
0.0
 43
0.0
 43
0.0
 43
1.0
 77
     0
 47
0.0208333333333333
 47
0.0
 47
0.0
 47
0.0
 47
0.0
 47
0.0208333333333333
 47
0.0
 47
0.0
 47
0.0
 47
0.0
 47
1.0
 47
0.0
 47
0.0
 47
0.0
 47
0.0
 47
1.0
171
     0
 49
0.0208333333333333
 49
0.0
 49
0.0
 49
0.0
 49
0.0
 49
0.0208333333333333
 49
0.0
 49
0.0
 49
0.0
 49
0.0
 49
1.0
 49
0.0
 49
0.0
 49
0.0
 49
0.0
 49
1.0
175
     0
142
0.0208333333333333
142
0.0
142
0.0
142
0.0
142
0.0
142
0.0208333333333333
142
0.0
142
0.0
142
0.0
142
0.0
142
1.0
142
0.0
142
0.0
142
0.0
142
0.0
142
1.0
179
     0
144
0.0208333333333333
144
0.0
144
0.0
144
0.0
144
0.0
144
0.0208333333333333
144
0.0
144
0.0
144
0.0
144
0.0
144
1.0
144
0.0
144
0.0
144
0.0
144
0.0
144
1.0
147
0.0208333333333333
147
0.0
147
0.0
147
0.0
147
0.0
147
0.0208333333333333
147
0.0
147
0.0
147
0.0
147
0.0
147
1.0
147
0.0
147
0.0
147
0.0
147
0.0
147
1.0
  0
MATERIAL
  5
C2E2
102
{ACAD_XDICTIONARY
360
C2E3
102
}
102
{ACAD_REACTORS
330
C2E1
102
}
330
C2E1
100
AcDbMaterial
  1
ByLayer
 72
     0
 43
0.0208333333333333
 43
0.0
 43
0.0
 43
0.0
 43
0.0
 43
0.0208333333333333
 43
0.0
 43
0.0
 43
0.0
 43
0.0
 43
1.0
 43
0.0
 43
0.0
 43
0.0
 43
0.0
 43
1.0
 77
     0
 47
0.0208333333333333
 47
0.0
 47
0.0
 47
0.0
 47
0.0
 47
0.0208333333333333
 47
0.0
 47
0.0
 47
0.0
 47
0.0
 47
1.0
 47
0.0
 47
0.0
 47
0.0
 47
0.0
 47
1.0
171
     0
 49
0.0208333333333333
 49
0.0
 49
0.0
 49
0.0
 49
0.0
 49
0.0208333333333333
 49
0.0
 49
0.0
 49
0.0
 49
0.0
 49
1.0
 49
0.0
 49
0.0
 49
0.0
 49
0.0
 49
1.0
175
     0
142
0.0208333333333333
142
0.0
142
0.0
142
0.0
142
0.0
142
0.0208333333333333
142
0.0
142
0.0
142
0.0
142
0.0
142
1.0
142
0.0
142
0.0
142
0.0
142
0.0
142
1.0
179
     0
144
0.0208333333333333
144
0.0
144
0.0
144
0.0
144
0.0
144
0.0208333333333333
144
0.0
144
0.0
144
0.0
144
0.0
144
1.0
144
0.0
144
0.0
144
0.0
144
0.0
144
1.0
147
0.0208333333333333
147
0.0
147
0.0
147
0.0
147
0.0
147
0.0208333333333333
147
0.0
147
0.0
147
0.0
147
0.0
147
1.0
147
0.0
147
0.0
147
0.0
147
0.0
147
1.0
  0
MATERIAL
  5
C2F2
102
{ACAD_XDICTIONARY
360
C2F3
102
}
102
{ACAD_REACTORS
330
C2E1
102
}
330
C2E1
100
AcDbMaterial
  1
Global
 72
     0
 43
0.0208333333333333
 43
0.0
 43
0.0
 43
0.0
 43
0.0
 43
0.0208333333333333
 43
0.0
 43
0.0
 43
0.0
 43
0.0
 43
1.0
 43
0.0
 43
0.0
 43
0.0
 43
0.0
 43
1.0
 77
     0
 47
0.0208333333333333
 47
0.0
 47
0.0
 47
0.0
 47
0.0
 47
0.0208333333333333
 47
0.0
 47
0.0
 47
0.0
 47
0.0
 47
1.0
 47
0.0
 47
0.0
 47
0.0
 47
0.0
 47
1.0
171
     0
 49
0.0208333333333333
 49
0.0
 49
0.0
 49
0.0
 49
0.0
 49
0.0208333333333333
 49
0.0
 49
0.0
 49
0.0
 49
0.0
 49
1.0
 49
0.0
 49
0.0
 49
0.0
 49
0.0
 49
1.0
175
     0
142
0.0208333333333333
142
0.0
142
0.0
142
0.0
142
0.0
142
0.0208333333333333
142
0.0
142
0.0
142
0.0
142
0.0
142
1.0
142
0.0
142
0.0
142
0.0
142
0.0
142
1.0
179
     0
144
0.0208333333333333
144
0.0
144
0.0
144
0.0
144
0.0
144
0.0208333333333333
144
0.0
144
0.0
144
0.0
144
0.0
144
1.0
144
0.0
144
0.0
144
0.0
144
0.0
144
1.0
147
0.0208333333333333
147
0.0
147
0.0
147
0.0
147
0.0
147
0.0208333333333333
147
0.0
147
0.0
147
0.0
147
0.0
147
1.0
147
0.0
147
0.0
147
0.0
147
0.0
147
1.0
  0
MLEADERSTYLE
  5
C329
102
{ACAD_REACTORS
330
C328
102
}
330
C328
100
AcDbMLeaderStyle
170
     2
171
     1
172
     0
 90
        2
 40
0.0
 41
0.0
173
     1
 91
-1056964608
340
C0AE
 92
       -2
290
     1
 42
0.09
291
     1
 43
0.36
  3
Standard
 44
0.18
300

342
C0AC
174
     1
178
     6
175
     1
176
     0
 93
-1056964608
 45
0.18
292
     0
297
     0
 46
0.18
 94
-1056964608
 47
1.0
 49
1.0
140
1.0
293
     1
141
0.0
294
     1
177
     0
142
1.0
295
     0
296
     0
143
0.125
1001
ACAD_MLEADERVER
1070
     2
  0
MLINESTYLE
  5
C0B2
102
{ACAD_REACTORS
330
C0B1
102
}
330
C0B1
100
AcDbMlineStyle
  2
STANDARD
 70
     0
  3

 62
   256
 51
90.0
 52
90.0
 71
     2
 49
0.5
 62
   256
  6
BYLAYER
 49
-0.5
 62
   256
  6
BYLAYER
  0
ACDBPLACEHOLDER
  5
C2E0
102
{ACAD_REACTORS
330
C2DF
102
}
330
C2DF
  0
SCALE
  5
C317
102
{ACAD_REACTORS
330
C316
102
}
330
C316
100
AcDbScale
 70
     0
300
1:1
140
1.0
141
1.0
290
     1
  0
SCALE
  5
C318
102
{ACAD_REACTORS
330
C316
102
}
330
C316
100
AcDbScale
 70
     0
300
1/128" = 1'-0"
140
0.0078125
141
12.0
290
     0
  0
SCALE
  5
C319
102
{ACAD_REACTORS
330
C316
102
}
330
C316
100
AcDbScale
 70
     0
300
1/64" = 1'-0"
140
0.015625
141
12.0
290
     0
  0
SCALE
  5
C31A
102
{ACAD_REACTORS
330
C316
102
}
330
C316
100
AcDbScale
 70
     0
300
1/32" = 1'-0"
140
0.03125
141
12.0
290
     0
  0
SCALE
  5
C31B
102
{ACAD_REACTORS
330
C316
102
}
330
C316
100
AcDbScale
 70
     0
300
1/16" = 1'-0"
140
0.0625
141
12.0
290
     0
  0
SCALE
  5
C31C
102
{ACAD_REACTORS
330
C316
102
}
330
C316
100
AcDbScale
 70
     0
300
3/32" = 1'-0"
140
0.09375
141
12.0
290
     0
  0
SCALE
  5
C31D
102
{ACAD_REACTORS
330
C316
102
}
330
C316
100
AcDbScale
 70
     0
300
1/8" = 1'-0"
140
0.125
141
12.0
290
     0
  0
SCALE
  5
C31E
102
{ACAD_REACTORS
330
C316
102
}
330
C316
100
AcDbScale
 70
     0
300
3/16" = 1'-0"
140
0.1875
141
12.0
290
     0
  0
SCALE
  5
C31F
102
{ACAD_REACTORS
330
C316
102
}
330
C316
100
AcDbScale
 70
     0
300
1/4" = 1'-0"
140
0.25
141
12.0
290
     0
  0
SCALE
  5
C320
102
{ACAD_REACTORS
330
C316
102
}
330
C316
100
AcDbScale
 70
     0
300
3/8" = 1'-0"
140
0.375
141
12.0
290
     0
  0
SCALE
  5
C321
102
{ACAD_REACTORS
330
C316
102
}
330
C316
100
AcDbScale
 70
     0
300
1/2" = 1'-0"
140
0.5
141
12.0
290
     0
  0
SCALE
  5
C322
102
{ACAD_REACTORS
330
C316
102
}
330
C316
100
AcDbScale
 70
     0
300
3/4" = 1'-0"
140
0.75
141
12.0
290
     0
  0
SCALE
  5
C323
102
{ACAD_REACTORS
330
C316
102
}
330
C316
100
AcDbScale
 70
     0
300
1" = 1'-0"
140
1.0
141
12.0
290
     0
  0
SCALE
  5
C324
102
{ACAD_REACTORS
330
C316
102
}
330
C316
100
AcDbScale
 70
     0
300
1-1/2" = 1'-0"
140
1.5
141
12.0
290
     0
  0
SCALE
  5
C325
102
{ACAD_REACTORS
330
C316
102
}
330
C316
100
AcDbScale
 70
     0
300
3" = 1'-0"
140
3.0
141
12.0
290
     0
  0
SCALE
  5
C326
102
{ACAD_REACTORS
330
C316
102
}
330
C316
100
AcDbScale
 70
     0
300
6" = 1'-0"
140
6.0
141
12.0
290
     0
  0
SCALE
  5
C327
102
{ACAD_REACTORS
330
C316
102
}
330
C316
100
AcDbScale
 70
     0
300
1'-0" = 1'-0"
140
12.0
141
12.0
290
     0
  0
ACDBSECTIONVIEWSTYLE
  5
C32B
102
{ACAD_XDICTIONARY
360
C3C9
102
}
102
{ACAD_REACTORS
330
C32A
102
}
330
C32A
100
AcDbModelDocViewStyle
 70
     0
  3
Imperial24
290
     0
100
AcDbSectionViewStyle
 70
     0
 71
     0
 90
       78
 71
     1
340
C0AC
 40
0.24
340
0
340
0
 40
0.24
300
I, O, Q, S, X, Z
 40
0.48
 90
        3
 40
0.18
 90
        1
 71
     2
340
C0B0
 90
       25
340
C0B0
 90
       50
 40
0.24
 40
0.0
 40
0.24
 71
     3
340
C0AC
 40
0.24
 90
        1
 40
0.75
 90
        1
300
%<\AcVar ViewType \f "%tc1">% %<\AcVar ViewSectionStartId>%-%<\AcVar ViewSectionEndId>%\PSCALE %<\AcVar ViewScale \f "%sn">%
 71
     4
300
ANSI31
 40
1.0
 90
        0
290
     0
290
     0
 90
        6
 40
0.0
 40
1.570796326794896
 40
0.2617993877991494
 40
1.308996938995747
 40
-0.2617993877991494
 40
1.832595714594045
  0
TABLESTYLE
  5
C315
102
{ACAD_XDICTIONARY
360
C34F
102
}
102
{ACAD_REACTORS
330
C314
102
}
330
C314
100
AcDbTableStyle
  3
Standard
 70
     0
 71
     0
 40
0.06
 41
0.06
280
     0
281
     0
  7
STANDARD
140
0.18
170
     2
 62
     0
 63
     7
283
     0
274
    -2
284
     1
 64
     0
275
    -2
285
     1
 65
     0
276
    -2
286
     1
 66
     0
277
    -2
287
     1
 67
     0
278
    -2
288
     1
 68
     0
279
    -2
289
     1
 69
     0
  7
STANDARD
140
0.25
170
     5
 62
     0
 63
     7
283
     0
274
    -2
284
     1
 64
     0
275
    -2
285
     1
 65
     0
276
    -2
286
     1
 66
     0
277
    -2
287
     1
 67
     0
278
    -2
288
     1
 68
     0
279
    -2
289
     1
 69
     0
  7
STANDARD
140
0.18
170
     5
 62
     0
 63
     7
283
     0
274
    -2
284
     1
 64
     0
275
    -2
285
     1
 65
     0
276
    -2
286
     1
 66
     0
277
    -2
287
     1
 67
     0
278
    -2
288
     1
 68
     0
279
    -2
289
     1
 69
     0
  0
VISUALSTYLE
  5
C300
102
{ACAD_XDICTIONARY
360
C3A2
102
}
102
{ACAD_REACTORS
330
C2FA
102
}
330
C2FA
100
AcDbVisualStyle
  2

 70
     4
 71
     0
 72
     2
 73
     0
 90
        0
 40
-0.6
 41
-30.0
 62
     5
 63
     7
 74
     1
 91
        4
 64
     7
 65
   257
 75
     1
175
     1
 42
1.0
 92
        0
 66
   257
 43
1.0
 76
     1
 77
     6
 78
     2
 67
     7
 79
     5
170
     0
171
     0
290
     0
174
     0
 93
        1
 44
0.0
173
     0
291
     0
 45
0.0
1001
ACAD
1000
AcDbSavedByObjectVersion
1070
     0
  0
VISUALSTYLE
  5
C2FF
102
{ACAD_XDICTIONARY
360
C3A0
102
}
102
{ACAD_REACTORS
330
C2FA
102
}
330
C2FA
100
AcDbVisualStyle
  2

 70
     7
 71
     1
 72
     0
 73
     1
 90
        0
 40
-0.6
 41
-30.0
 62
     5
 63
     7
 74
     0
 91
        4
 64
     7
 65
   257
 75
     1
175
     1
 42
1.0
 92
        8
 66
     7
 43
1.0
 76
     1
 77
     6
 78
     2
 67
     7
 79
     5
170
     0
171
     0
290
     0
174
     0
 93
        1
 44
0.0
173
     0
291
     1
 45
0.0
1001
ACAD
1000
AcDbSavedByObjectVersion
1070
     0
  0
VISUALSTYLE
  5
C306
102
{ACAD_XDICTIONARY
360
C3AE
102
}
102
{ACAD_REACTORS
330
C2FA
102
}
330
C2FA
100
AcDbVisualStyle
  2

 70
    12
 71
     2
 72
     2
 73
     0
 90
        0
 40
-0.6
 41
-30.0
 62
     5
 63
     7
 74
     1
 91
        4
 64
     7
 65
   257
 75
     1
175
     1
 42
1.0
 92
        8
 66
     7
 43
1.0
 76
     1
 77
     6
 78
     2
 67
     7
 79
     5
170
     0
171
     0
290
     0
174
     0
 93
        1
 44
50.0
173
     0
291
     1
 45
0.0
1001
ACAD
1000
AcDbSavedByObjectVersion
1070
     0
  0
VISUALSTYLE
  5
C30A
102
{ACAD_XDICTIONARY
360
C3B6
102
}
102
{ACAD_REACTORS
330
C2FA
102
}
330
C2FA
100
AcDbVisualStyle
  2

 70
    16
 71
     2
 72
     2
 73
     3
 90
        0
 40
-0.6
 41
-30.0
 62
     5
 63
     8
 74
     1
 91
        4
 64
     7
 65
   257
 75
     1
175
     1
 42
1.0
 92
        8
 66
     8
 43
1.0
 76
     1
 77
     6
 78
     2
 67
     7
 79
     5
170
     0
171
     0
290
     0
174
     0
 93
        1
 44
0.0
173
     0
291
     1
 45
0.0
1001
ACAD
1000
AcDbSavedByObjectVersion
1070
     0
  0
VISUALSTYLE
  5
C303
102
{ACAD_XDICTIONARY
360
C3A8
102
}
102
{ACAD_REACTORS
330
C2FA
102
}
330
C2FA
100
AcDbVisualStyle
  2

 70
     9
 71
     3
 72
     2
 73
     0
 90
        0
 40
-0.6
 41
-30.0
 62
     5
 63
     7
 74
     2
 91
        2
 64
     7
 65
   257
 75
     1
175
     1
 42
179.0
 92
        8
 66
     7
 43
1.0
 76
     1
 77
     6
 78
     2
 67
     7
 79
     3
170
     0
171
     0
290
     0
174
     0
 93
        1
 44
0.0
173
     0
291
     0
 45
0.0
1001
ACAD
1000
AcDbSavedByObjectVersion
1070
     0
  0
VISUALSTYLE
  5
C305
102
{ACAD_XDICTIONARY
360
C3AC
102
}
102
{ACAD_REACTORS
330
C2FA
102
}
330
C2FA
100
AcDbVisualStyle
  2

 70
    11
 71
     2
 72
     2
 73
     0
 90
        0
 40
-0.6
 41
-30.0
 62
     5
 63
     7
 74
     1
 91
        4
 64
     7
 65
   257
 75
     1
175
     1
 42
1.0
 92
        8
 66
     7
 43
1.0
 76
     1
 77
     6
 78
     2
 67
     7
 79
     5
170
     0
171
     0
290
     0
174
     0
 93
        1
 44
-50.0
173
     0
291
     1
 45
0.0
1001
ACAD
1000
AcDbSavedByObjectVersion
1070
     0
  0
VISUALSTYLE
  5
C312
102
{ACAD_XDICTIONARY
360
C3C6
102
}
102
{ACAD_REACTORS
330
C2FA
102
}
330
C2FA
100
AcDbVisualStyle
  2

 70
    22
 71
     2
 72
     2
 73
     0
 90
        0
 40
-0.6
 41
-30.0
 62
     5
 63
     7
 74
     1
 91
        4
 64
     7
 65
   257
 75
     1
175
     1
 42
1.0
 92
        8
 66
     7
 43
1.0
 76
     1
 77
     6
 78
     2
 67
     7
 79
     5
170
     0
171
     0
290
     0
174
     0
 93
        1
 44
0.0
173
     0
291
     1
 45
0.0
1001
ACAD
1000
AcDbSavedByObjectVersion
1070
     0
  0
VISUALSTYLE
  5
C309
102
{ACAD_XDICTIONARY
360
C3B4
102
}
102
{ACAD_REACTORS
330
C2FA
102
}
330
C2FA
100
AcDbVisualStyle
  2

 70
    15
 71
     2
 72
     2
 73
     0
 90
        0
 40
-0.6
 41
-30.0
 62
     5
 63
     7
 74
     1
 91
        4
 64
     7
 65
   257
 75
     1
175
     1
 42
1.0
 92
        8
 66
     7
 43
1.0
 76
     1
 77
     6
 78
     2
 67
     7
 79
     5
170
     0
171
     0
290
     0
174
     0
 93
        1
 44
0.0
173
     0
291
     1
 45
0.0
1001
ACAD
1000
AcDbSavedByObjectVersion
1070
     0
  0
VISUALSTYLE
  5
C2FB
102
{ACAD_XDICTIONARY
360
C398
102
}
102
{ACAD_REACTORS
330
C2FA
102
}
330
C2FA
100
AcDbVisualStyle
  2

 70
     0
 71
     2
 72
     1
 73
     1
 90
        2
 40
-0.6
 41
30.0
 62
     5
 63
     7
 74
     0
 91
        0
 64
     7
 65
   257
 75
     1
175
     1
 42
1.0
 92
        8
 66
     7
 43
1.0
 76
     1
 77
     6
 78
     2
 67
     7
 79
     5
170
     0
171
     0
290
     0
174
     0
 93
       13
 44
0.0
173
     0
291
     1
 45
0.0
1001
ACAD
1000
AcDbSavedByObjectVersion
1070
     0
  0
VISUALSTYLE
  5
C2FC
102
{ACAD_XDICTIONARY
360
C39A
102
}
102
{ACAD_REACTORS
330
C2FA
102
}
330
C2FA
100
AcDbVisualStyle
  2

 70
     1
 71
     2
 72
     1
 73
     1
 90
        2
 40
-0.6
 41
30.0
 62
     5
 63
     7
 74
     1
 91
        0
 64
     7
 65
   257
 75
     1
175
     1
 42
1.0
 92
        0
 66
   257
 43
1.0
 76
     1
 77
     6
 78
     2
 67
     7
 79
     5
170
     0
171
     0
290
     0
174
     0
 93
       13
 44
0.0
173
     0
291
     1
 45
0.0
1001
ACAD
1000
AcDbSavedByObjectVersion
1070
     0
  0
VISUALSTYLE
  5
C2FD
102
{ACAD_XDICTIONARY
360
C39C
102
}
102
{ACAD_REACTORS
330
C2FA
102
}
330
C2FA
100
AcDbVisualStyle
  2

 70
     2
 71
     2
 72
     2
 73
     1
 90
        2
 40
-0.6
 41
30.0
 62
     5
 63
     7
 74
     0
 91
        0
 64
     7
 65
   257
 75
     1
175
     1
 42
1.0
 92
        0
 66
     7
 43
1.0
 76
     1
 77
     6
 78
     2
 67
     7
 79
     5
170
     0
171
     0
290
     0
174
     0
 93
       13
 44
0.0
173
     0
291
     1
 45
0.0
1001
ACAD
1000
AcDbSavedByObjectVersion
1070
     0
  0
VISUALSTYLE
  5
C2FE
102
{ACAD_XDICTIONARY
360
C39E
102
}
102
{ACAD_REACTORS
330
C2FA
102
}
330
C2FA
100
AcDbVisualStyle
  2

 70
     3
 71
     2
 72
     2
 73
     1
 90
        2
 40
-0.6
 41
30.0
 62
     5
 63
     7
 74
     1
 91
        0
 64
     7
 65
   257
 75
     1
175
     1
 42
1.0
 92
        0
 66
   257
 43
1.0
 76
     1
 77
     6
 78
     2
 67
     7
 79
     5
170
     0
171
     0
290
     0
174
     0
 93
       13
 44
0.0
173
     0
291
     1
 45
0.0
1001
ACAD
1000
AcDbSavedByObjectVersion
1070
     0
  0
VISUALSTYLE
  5
C302
102
{ACAD_XDICTIONARY
360
C3A6
102
}
102
{ACAD_REACTORS
330
C2FA
102
}
330
C2FA
100
AcDbVisualStyle
  2

 70
     6
 71
     1
 72
     2
 73
     2
 90
        0
 40
-0.6
 41
-30.0
 62
     5
 63
     7
 74
     2
 91
        2
 64
     7
 65
   257
 75
     2
175
     1
 42
40.0
 92
        0
 66
   257
 43
1.0
 76
     1
 77
     6
 78
     2
 67
     7
 79
     3
170
     0
171
     0
290
     0
174
     0
 93
        1
 44
0.0
173
     0
291
     0
 45
0.0
1001
ACAD
1000
AcDbSavedByObjectVersion
1070
     0
  0
VISUALSTYLE
  5
C310
102
{ACAD_XDICTIONARY
360
C3C2
102
}
102
{ACAD_REACTORS
330
C2FA
102
}
330
C2FA
100
AcDbVisualStyle
  2

 70
    20
 71
     2
 72
     2
 73
     0
 90
        0
 40
-0.6
 41
-30.0
 62
     5
 63
     7
 74
     1
 91
        4
 64
     7
 65
   257
 75
     1
175
     1
 42
1.0
 92
       10
 66
     7
 43
1.0
 76
     1
 77
     6
 78
     2
 67
     7
 79
     5
170
     0
171
     0
290
     0
174
     0
 93
        1
 44
0.0
173
     0
291
     1
 45
0.0
1001
ACAD
1000
AcDbSavedByObjectVersion
1070
     0
  0
VISUALSTYLE
  5
C308
102
{ACAD_XDICTIONARY
360
C3B2
102
}
102
{ACAD_REACTORS
330
C2FA
102
}
330
C2FA
100
AcDbVisualStyle
  2

 70
    14
 71
     2
 72
     2
 73
     0
 90
        0
 40
-0.6
 41
-30.0
 62
     5
 63
     7
 74
     1
 91
        4
 64
     7
 65
   257
 75
     7
175
     7
 42
1.0
 92
        8
 66
     7
 43
1.0
 76
     1
 77
     6
 78
     2
 67
     7
 79
     5
170
     0
171
     0
290
     0
174
     0
 93
        1
 44
0.0
173
     0
291
     1
 45
0.0
1001
ACAD
1000
AcDbSavedByObjectVersion
1070
     0
  0
VISUALSTYLE
  5
C311
102
{ACAD_XDICTIONARY
360
C3C4
102
}
102
{ACAD_REACTORS
330
C2FA
102
}
330
C2FA
100
AcDbVisualStyle
  2

 70
    21
 71
     2
 72
     2
 73
     0
 90
        0
 40
-0.6
 41
-30.0
 62
     5
 63
     7
 74
     1
 91
        4
 64
     7
 65
   257
 75
     1
175
     1
 42
1.0
 92
        9
 66
     7
 43
1.0
 76
     1
 77
     6
 78
     2
 67
     7
 79
     5
170
     0
171
     0
290
     0
174
     0
 93
        1
 44
0.0
173
     0
291
     1
 45
0.0
1001
ACAD
1000
AcDbSavedByObjectVersion
1070
     0
  0
VISUALSTYLE
  5
C304
102
{ACAD_XDICTIONARY
360
C3AA
102
}
102
{ACAD_REACTORS
330
C2FA
102
}
330
C2FA
100
AcDbVisualStyle
  2

 70
     8
 71
     2
 72
     3
 73
     0
 90
        2
 40
-0.6
 41
30.0
 62
     5
 63
     7
 74
     0
 91
        0
 64
     7
 65
   257
 75
     1
175
     1
 42
1.0
 92
        8
 66
   257
 43
1.0
 76
     1
 77
     6
 78
     2
 67
     7
 79
     3
170
     0
171
     0
290
     0
174
     0
 93
       13
 44
0.0
173
     0
291
     0
 45
0.0
1001
ACAD
1000
AcDbSavedByObjectVersion
1070
     0
  0
VISUALSTYLE
  5
C30F
102
{ACAD_XDICTIONARY
360
C3C0
102
}
102
{ACAD_REACTORS
330
C2FA
102
}
330
C2FA
100
AcDbVisualStyle
  2

 70
    27
 71
     2
 72
     2
 73
     1
 90
        2
 40
-0.6
 41
30.0
 62
     5
 63
     7
 74
     0
 91
        4
 64
     7
 65
   257
 75
     1
175
     1
 42
1.0
 92
        8
 66
   257
 43
1.0
 76
     1
 77
     6
 78
     2
 67
     8
 79
     3
170
     0
171
     0
290
     0
174
     0
 93
        5
 44
0.0
173
     0
291
     0
 45
0.0
1001
ACAD
1000
AcDbSavedByObjectVersion
1070
     0
  0
VISUALSTYLE
  5
C30E
102
{ACAD_XDICTIONARY
360
C3BE
102
}
102
{ACAD_REACTORS
330
C2FA
102
}
330
C2FA
100
AcDbVisualStyle
  2

 70
    26
 71
     2
 72
     2
 73
     1
 90
        2
 40
-0.6
 41
30.0
 62
     5
 63
     7
 74
     1
 91
       10
 64
     7
 65
   257
 75
     2
175
     1
 42
1.0
 92
        8
 66
   257
 43
1.0
 76
     1
 77
     6
 78
     2
 67
     7
 79
     3
170
     0
171
     0
290
     0
174
     0
 93
        5
 44
0.0
173
     0
291
     0
 45
0.0
1001
ACAD
1000
AcDbSavedByObjectVersion
1070
     0
  0
VISUALSTYLE
  5
C30B
102
{ACAD_XDICTIONARY
360
C3B8
102
}
102
{ACAD_REACTORS
330
C2FA
102
}
330
C2FA
100
AcDbVisualStyle
  2

 70
    23
 71
     2
 72
     2
 73
     3
 90
        0
 40
-0.6
 41
-30.0
 62
     5
 63
     7
 74
     2
 91
        2
 64
     7
 65
     7
 75
     1
175
     1
 42
40.0
 92
        8
 66
     7
 43
1.0
 76
     1
 77
     6
 78
     2
 67
     7
 79
     3
170
     0
171
     0
290
     0
174
     0
 93
        1
 44
0.0
173
     0
291
     0
 45
0.0
1001
ACAD
1000
AcDbSavedByObjectVersion
1070
     0
  0
VISUALSTYLE
  5
C30C
102
{ACAD_XDICTIONARY
360
C3BA
102
}
102
{ACAD_REACTORS
330
C2FA
102
}
330
C2FA
100
AcDbVisualStyle
  2

 70
    24
 71
     1
 72
     2
 73
     2
 90
        0
 40
-0.6
 41
-30.0
 62
     5
 63
     7
 74
     2
 91
        2
 64
     7
 65
     7
 75
     1
175
     1
 42
40.0
 92
       11
 66
     7
 43
1.0
 76
     1
 77
     6
 78
     2
 67
     7
 79
     6
170
     0
171
     0
290
     0
174
     0
 93
        1
 44
0.0
173
     0
291
     0
 45
0.0
1001
ACAD
1000
AcDbSavedByObjectVersion
1070
     0
  0
VISUALSTYLE
  5
C307
102
{ACAD_XDICTIONARY
360
C3B0
102
}
102
{ACAD_REACTORS
330
C2FA
102
}
330
C2FA
100
AcDbVisualStyle
  2

 70
    13
 71
     2
 72
     2
 73
     0
 90
        0
 40
-0.6
 41
-30.0
 62
     5
 63
     7
 74
     1
 91
        4
 64
     7
 65
   257
 75
     1
175
     1
 42
1.0
 92
       12
 66
     7
 43
1.0
 76
     1
 77
     6
 78
     2
 67
     7
 79
     5
170
     0
171
     0
290
     0
174
     0
 93
        1
 44
0.0
173
     0
291
     1
 45
0.0
1001
ACAD
1000
AcDbSavedByObjectVersion
1070
     0
  0
VISUALSTYLE
  5
C301
102
{ACAD_XDICTIONARY
360
C3A4
102
}
102
{ACAD_REACTORS
330
C2FA
102
}
330
C2FA
100
AcDbVisualStyle
  2

 70
     5
 71
     0
 72
     2
 73
     0
 90
        0
 40
-0.6
 41
-30.0
 62
     5
 63
     7
 74
     1
 91
        4
 64
     7
 65
   257
 75
     1
175
     1
 42
1.0
 92
        0
 66
   257
 43
1.0
 76
     1
 77
     6
 78
     2
 67
     7
 79
     3
170
     0
171
     0
290
     0
174
     0
 93
        1
 44
0.0
173
     0
291
     0
 45
0.0
1001
ACAD
1000
AcDbSavedByObjectVersion
1070
     0
  0
VISUALSTYLE
  5
C30D
102
{ACAD_XDICTIONARY
360
C3BC
102
}
102
{ACAD_REACTORS
330
C2FA
102
}
330
C2FA
100
AcDbVisualStyle
  2

 70
    25
 71
     2
 72
     2
 73
     1
 90
        1
 40
0.5
 41
-30.0
 62
     5
 63
     7
 74
     1
 91
        0
 64
     7
 65
   257
 75
     1
175
     1
 42
1.0
 92
        8
 66
     7
 43
1.0
 76
     1
 77
     6
 78
     2
 67
     7
 79
     3
170
     0
171
     0
290
     0
174
     0
 93
       13
 44
0.0
173
     0
291
     0
 45
0.0
1001
ACAD
1000
AcDbSavedByObjectVersion
1070
     0
  0
DICTIONARYVAR
  5
C349
102
{ACAD_REACTORS
330
C344
102
}
330
C344
100
DictionaryVariables
280
     0
  1
1:1
  0
DICTIONARYVAR
  5
C346
102
{ACAD_REACTORS
330
C344
102
}
330
C344
100
DictionaryVariables
280
     0
  1
STANDARD
  0
DICTIONARYVAR
  5
C345
102
{ACAD_REACTORS
330
C344
102
}
330
C344
100
DictionaryVariables
280
     0
  1
STANDARD
  0
DICTIONARYVAR
  5
C347
102
{ACAD_REACTORS
330
C344
102
}
330
C344
100
DictionaryVariables
280
     0
  1
Imperial24
  0
DICTIONARYVAR
  5
C348
102
{ACAD_REACTORS
330
C344
102
}
330
C344
100
DictionaryVariables
280
     0
  1
Imperial24
  0
DICTIONARYVAR
  5
C34C
102
{ACAD_REACTORS
330
C344
102
}
330
C344
100
DictionaryVariables
280
     0
  1
1
  0
DICTIONARYVAR
  5
C34B
102
{ACAD_REACTORS
330
C344
102
}
330
C344
100
DictionaryVariables
280
     0
  1
0
  0
DICTIONARYVAR
  5
C34A
102
{ACAD_REACTORS
330
C344
102
}
330
C344
100
DictionaryVariables
280
     0
  1
127
  0
DICTIONARYVAR
  5
C394
102
{ACAD_REACTORS
330
C344
102
}
330
C344
100
DictionaryVariables
280
     0
  1
2
  0
DICTIONARY
  5
C3CB
330
C32D
100
AcDbDictionary
280
     1
281
     1
  3
ACAD_XREC_ROUNDTRIP
360
C3CC
  0
DICTIONARY
  5
C3CD
330
C32E
100
AcDbDictionary
280
     1
281
     1
  3
ACAD_XREC_ROUNDTRIP
360
C3CE
  0
DICTIONARY
  5
C3CF
330
C32F
100
AcDbDictionary
280
     1
281
     1
  3
ACAD_XREC_ROUNDTRIP
360
C3D0
  0
DICTIONARY
  5
C2EB
330
C2EA
100
AcDbDictionary
280
     1
281
     1
  3
ACAD_XREC_ROUNDTRIP
360
C354
  3
BUMPTILE
360
C2ED
  3
DIFFUSETILE
360
C2EC
  3
OPACITYTILE
360
C2F0
  3
REFLECTIONTILE
360
C2EF
  3
REFRACTIONTILE
360
C2F1
  3
SPECULARTILE
360
C2EE
  0
DICTIONARY
  5
C2E3
330
C2E2
100
AcDbDictionary
280
     1
281
     1
  3
ACAD_XREC_ROUNDTRIP
360
C353
  3
BUMPTILE
360
C2E5
  3
DIFFUSETILE
360
C2E4
  3
OPACITYTILE
360
C2E8
  3
REFLECTIONTILE
360
C2E7
  3
REFRACTIONTILE
360
C2E9
  3
SPECULARTILE
360
C2E6
  0
DICTIONARY
  5
C2F3
330
C2F2
100
AcDbDictionary
280
     1
281
     1
  3
ACAD_XREC_ROUNDTRIP
360
C355
  3
BUMPTILE
360
C2F5
  3
DIFFUSETILE
360
C2F4
  3
OPACITYTILE
360
C2F8
  3
REFLECTIONTILE
360
C2F7
  3
REFRACTIONTILE
360
C2F9
  3
SPECULARTILE
360
C2F6
  0
DICTIONARY
  5
C3C9
330
C32B
100
AcDbDictionary
280
     1
281
     1
  3
ACAD_XREC_ROUNDTRIP
360
C3CA
  0
DICTIONARY
  5
C34F
330
C315
100
AcDbDictionary
280
     1
281
     1
  3
ACAD_ROUNDTRIP_2008_TABLESTYLE_CELLSTYLEMAP
360
C395
  3
ACAD_XREC_ROUNDTRIP
360
C3C8
  0
DICTIONARY
  5
C3A2
330
C300
100
AcDbDictionary
280
     1
281
     1
  3
ACAD_XREC_ROUNDTRIP
360
C3A3
  0
DICTIONARY
  5
C3A0
330
C2FF
100
AcDbDictionary
280
     1
281
     1
  3
ACAD_XREC_ROUNDTRIP
360
C3A1
  0
DICTIONARY
  5
C3AE
330
C306
100
AcDbDictionary
280
     1
281
     1
  3
ACAD_XREC_ROUNDTRIP
360
C3AF
  0
DICTIONARY
  5
C3B6
330
C30A
100
AcDbDictionary
280
     1
281
     1
  3
ACAD_XREC_ROUNDTRIP
360
C3B7
  0
DICTIONARY
  5
C3A8
330
C303
100
AcDbDictionary
280
     1
281
     1
  3
ACAD_XREC_ROUNDTRIP
360
C3A9
  0
DICTIONARY
  5
C3AC
330
C305
100
AcDbDictionary
280
     1
281
     1
  3
ACAD_XREC_ROUNDTRIP
360
C3AD
  0
DICTIONARY
  5
C3C6
330
C312
100
AcDbDictionary
280
     1
281
     1
  3
ACAD_XREC_ROUNDTRIP
360
C3C7
  0
DICTIONARY
  5
C3B4
330
C309
100
AcDbDictionary
280
     1
281
     1
  3
ACAD_XREC_ROUNDTRIP
360
C3B5
  0
DICTIONARY
  5
C398
330
C2FB
100
AcDbDictionary
280
     1
281
     1
  3
ACAD_XREC_ROUNDTRIP
360
C399
  0
DICTIONARY
  5
C39A
330
C2FC
100
AcDbDictionary
280
     1
281
     1
  3
ACAD_XREC_ROUNDTRIP
360
C39B
  0
DICTIONARY
  5
C39C
330
C2FD
100
AcDbDictionary
280
     1
281
     1
  3
ACAD_XREC_ROUNDTRIP
360
C39D
  0
DICTIONARY
  5
C39E
330
C2FE
100
AcDbDictionary
280
     1
281
     1
  3
ACAD_XREC_ROUNDTRIP
360
C39F
  0
DICTIONARY
  5
C3A6
330
C302
100
AcDbDictionary
280
     1
281
     1
  3
ACAD_XREC_ROUNDTRIP
360
C3A7
  0
DICTIONARY
  5
C3C2
330
C310
100
AcDbDictionary
280
     1
281
     1
  3
ACAD_XREC_ROUNDTRIP
360
C3C3
  0
DICTIONARY
  5
C3B2
330
C308
100
AcDbDictionary
280
     1
281
     1
  3
ACAD_XREC_ROUNDTRIP
360
C3B3
  0
DICTIONARY
  5
C3C4
330
C311
100
AcDbDictionary
280
     1
281
     1
  3
ACAD_XREC_ROUNDTRIP
360
C3C5
  0
DICTIONARY
  5
C3AA
330
C304
100
AcDbDictionary
280
     1
281
     1
  3
ACAD_XREC_ROUNDTRIP
360
C3AB
  0
DICTIONARY
  5
C3C0
330
C30F
100
AcDbDictionary
280
     1
281
     1
  3
ACAD_XREC_ROUNDTRIP
360
C3C1
  0
DICTIONARY
  5
C3BE
330
C30E
100
AcDbDictionary
280
     1
281
     1
  3
ACAD_XREC_ROUNDTRIP
360
C3BF
  0
DICTIONARY
  5
C3B8
330
C30B
100
AcDbDictionary
280
     1
281
     1
  3
ACAD_XREC_ROUNDTRIP
360
C3B9
  0
DICTIONARY
  5
C3BA
330
C30C
100
AcDbDictionary
280
     1
281
     1
  3
ACAD_XREC_ROUNDTRIP
360
C3BB
  0
DICTIONARY
  5
C3B0
330
C307
100
AcDbDictionary
280
     1
281
     1
  3
ACAD_XREC_ROUNDTRIP
360
C3B1
  0
DICTIONARY
  5
C3A4
330
C301
100
AcDbDictionary
280
     1
281
     1
  3
ACAD_XREC_ROUNDTRIP
360
C3A5
  0
DICTIONARY
  5
C3BC
330
C30D
100
AcDbDictionary
280
     1
281
     1
  3
ACAD_XREC_ROUNDTRIP
360
C3BD
  0
XRECORD
  5
C3CC
102
{ACAD_REACTORS
330
C3CB
102
}
330
C3CB
100
AcDbXrecord
280
     1
102
DISPLAYNAME
  1
Imperial24
102
FLAGS
 90
        0
  0
XRECORD
  5
C3CE
102
{ACAD_REACTORS
330
C3CD
102
}
330
C3CD
100
AcDbXrecord
280
     1
102
SHADEPLOT
 70
     0
102
SHADEPLOTRESLEVEL
 70
     2
102
SHADEPLOTCUSTOMDPI
 70
   300
  0
XRECORD
  5
C3D0
102
{ACAD_REACTORS
330
C3CF
102
}
330
C3CF
100
AcDbXrecord
280
     1
102
SHADEPLOT
 70
     0
102
SHADEPLOTRESLEVEL
 70
     2
102
SHADEPLOTCUSTOMDPI
 70
   300
  0
XRECORD
  5
C354
102
{ACAD_REACTORS
330
C2EB
102
}
330
C2EB
100
AcDbXrecord
280
     1
102
MATERIAL
148
0.0
149
0.0
149
0.0
 93
        0
 94
      127
282
     0
 72
     0
 77
     0
171
     0
175
     0
179
     0
273
     0
  0
XRECORD
  5
C2ED
102
{ACAD_REACTORS
330
C2EB
102
}
330
C2EB
100
AcDbXrecord
280
     1
270
     1
271
     1
  0
XRECORD
  5
C2EC
102
{ACAD_REACTORS
330
C2EB
102
}
330
C2EB
100
AcDbXrecord
280
     1
270
     1
271
     1
  0
XRECORD
  5
C2F0
102
{ACAD_REACTORS
330
C2EB
102
}
330
C2EB
100
AcDbXrecord
280
     1
270
     1
271
     1
  0
XRECORD
  5
C2EF
102
{ACAD_REACTORS
330
C2EB
102
}
330
C2EB
100
AcDbXrecord
280
     1
270
     1
271
     1
  0
XRECORD
  5
C2F1
102
{ACAD_REACTORS
330
C2EB
102
}
330
C2EB
100
AcDbXrecord
280
     1
270
     1
271
     1
  0
XRECORD
  5
C2EE
102
{ACAD_REACTORS
330
C2EB
102
}
330
C2EB
100
AcDbXrecord
280
     1
270
     1
271
     1
  0
XRECORD
  5
C353
102
{ACAD_REACTORS
330
C2E3
102
}
330
C2E3
100
AcDbXrecord
280
     1
102
MATERIAL
148
0.0
149
0.0
149
0.0
 93
        0
 94
      127
282
     0
 72
     0
 77
     0
171
     0
175
     0
179
     0
273
     0
  0
XRECORD
  5
C2E5
102
{ACAD_REACTORS
330
C2E3
102
}
330
C2E3
100
AcDbXrecord
280
     1
270
     1
271
     1
  0
XRECORD
  5
C2E4
102
{ACAD_REACTORS
330
C2E3
102
}
330
C2E3
100
AcDbXrecord
280
     1
270
     1
271
     1
  0
XRECORD
  5
C2E8
102
{ACAD_REACTORS
330
C2E3
102
}
330
C2E3
100
AcDbXrecord
280
     1
270
     1
271
     1
  0
XRECORD
  5
C2E7
102
{ACAD_REACTORS
330
C2E3
102
}
330
C2E3
100
AcDbXrecord
280
     1
270
     1
271
     1
  0
XRECORD
  5
C2E9
102
{ACAD_REACTORS
330
C2E3
102
}
330
C2E3
100
AcDbXrecord
280
     1
270
     1
271
     1
  0
XRECORD
  5
C2E6
102
{ACAD_REACTORS
330
C2E3
102
}
330
C2E3
100
AcDbXrecord
280
     1
270
     1
271
     1
  0
XRECORD
  5
C355
102
{ACAD_REACTORS
330
C2F3
102
}
330
C2F3
100
AcDbXrecord
280
     1
102
MATERIAL
148
0.0
149
0.0
149
0.0
 93
        0
 94
      127
282
     0
 72
     0
 77
     0
171
     0
175
     0
179
     0
273
     0
  0
XRECORD
  5
C2F5
102
{ACAD_REACTORS
330
C2F3
102
}
330
C2F3
100
AcDbXrecord
280
     1
270
     1
271
     1
  0
XRECORD
  5
C2F4
102
{ACAD_REACTORS
330
C2F3
102
}
330
C2F3
100
AcDbXrecord
280
     1
270
     1
271
     1
  0
XRECORD
  5
C2F8
102
{ACAD_REACTORS
330
C2F3
102
}
330
C2F3
100
AcDbXrecord
280
     1
270
     1
271
     1
  0
XRECORD
  5
C2F7
102
{ACAD_REACTORS
330
C2F3
102
}
330
C2F3
100
AcDbXrecord
280
     1
270
     1
271
     1
  0
XRECORD
  5
C2F9
102
{ACAD_REACTORS
330
C2F3
102
}
330
C2F3
100
AcDbXrecord
280
     1
270
     1
271
     1
  0
XRECORD
  5
C2F6
102
{ACAD_REACTORS
330
C2F3
102
}
330
C2F3
100
AcDbXrecord
280
     1
270
     1
271
     1
  0
XRECORD
  5
C3CA
102
{ACAD_REACTORS
330
C3C9
102
}
330
C3C9
100
AcDbXrecord
280
     1
102
DISPLAYNAME
  1
Imperial24
102
FLAGS
 90
        0
  0
CELLSTYLEMAP
  5
C395
102
{ACAD_REACTORS
330
C34F
102
}
330
C34F
100
AcDbCellStyleMap
 90
        3
300
CELLSTYLE
  1
TABLEFORMAT_BEGIN
 90
        5
170
     1
 91
        0
 92
    32768
 62
   257
 93
        1
300
CONTENTFORMAT
  1
CONTENTFORMAT_BEGIN
 90
        0
 91
        0
 92
      512
 93
        0
300

 40
0.0
140
1.0
 94
        5
 62
     0
340
C0AC
144
0.25
309
CONTENTFORMAT_END
171
     1
301
MARGIN
  1
CELLMARGIN_BEGIN
 40
0.06
 40
0.06
 40
0.06
 40
0.06
 40
0.18
 40
0.18
309
CELLMARGIN_END
 94
        6
 95
        1
302
GRIDFORMAT
  1
GRIDFORMAT_BEGIN
 90
        0
 91
        1
 62
     0
 92
       -2
340
0
 93
        0
 40
0.045
309
GRIDFORMAT_END
 95
        2
302
GRIDFORMAT
  1
GRIDFORMAT_BEGIN
 90
        0
 91
        1
 62
     0
 92
       -2
340
0
 93
        0
 40
0.045
309
GRIDFORMAT_END
 95
        4
302
GRIDFORMAT
  1
GRIDFORMAT_BEGIN
 90
        0
 91
        1
 62
     0
 92
       -2
340
0
 93
        0
 40
0.045
309
GRIDFORMAT_END
 95
        8
302
GRIDFORMAT
  1
GRIDFORMAT_BEGIN
 90
        0
 91
        1
 62
     0
 92
       -2
340
0
 93
        0
 40
0.045
309
GRIDFORMAT_END
 95
       16
302
GRIDFORMAT
  1
GRIDFORMAT_BEGIN
 90
        0
 91
        1
 62
     0
 92
       -2
340
0
 93
        0
 40
0.045
309
GRIDFORMAT_END
 95
       32
302
GRIDFORMAT
  1
GRIDFORMAT_BEGIN
 90
        0
 91
        1
 62
     0
 92
       -2
340
0
 93
        0
 40
0.045
309
GRIDFORMAT_END
309
TABLEFORMAT_END
  1
CELLSTYLE_BEGIN
 90
        1
 91
        1
300
_TITLE
309
CELLSTYLE_END
300
CELLSTYLE
  1
TABLEFORMAT_BEGIN
 90
        5
170
     1
 91
        0
 92
        0
 62
   257
 93
        1
300
CONTENTFORMAT
  1
CONTENTFORMAT_BEGIN
 90
        0
 91
        0
 92
      512
 93
        0
300

 40
0.0
140
1.0
 94
        5
 62
     0
340
C0AC
144
0.18
309
CONTENTFORMAT_END
171
     1
301
MARGIN
  1
CELLMARGIN_BEGIN
 40
0.06
 40
0.06
 40
0.06
 40
0.06
 40
0.18
 40
0.18
309
CELLMARGIN_END
 94
        6
 95
        1
302
GRIDFORMAT
  1
GRIDFORMAT_BEGIN
 90
        0
 91
        1
 62
     0
 92
       -2
340
0
 93
        0
 40
0.045
309
GRIDFORMAT_END
 95
        2
302
GRIDFORMAT
  1
GRIDFORMAT_BEGIN
 90
        0
 91
        1
 62
     0
 92
       -2
340
0
 93
        0
 40
0.045
309
GRIDFORMAT_END
 95
        4
302
GRIDFORMAT
  1
GRIDFORMAT_BEGIN
 90
        0
 91
        1
 62
     0
 92
       -2
340
0
 93
        0
 40
0.045
309
GRIDFORMAT_END
 95
        8
302
GRIDFORMAT
  1
GRIDFORMAT_BEGIN
 90
        0
 91
        1
 62
     0
 92
       -2
340
0
 93
        0
 40
0.045
309
GRIDFORMAT_END
 95
       16
302
GRIDFORMAT
  1
GRIDFORMAT_BEGIN
 90
        0
 91
        1
 62
     0
 92
       -2
340
0
 93
        0
 40
0.045
309
GRIDFORMAT_END
 95
       32
302
GRIDFORMAT
  1
GRIDFORMAT_BEGIN
 90
        0
 91
        1
 62
     0
 92
       -2
340
0
 93
        0
 40
0.045
309
GRIDFORMAT_END
309
TABLEFORMAT_END
  1
CELLSTYLE_BEGIN
 90
        2
 91
        1
300
_HEADER
309
CELLSTYLE_END
300
CELLSTYLE
  1
TABLEFORMAT_BEGIN
 90
        5
170
     1
 91
        0
 92
        0
 62
   257
 93
        1
300
CONTENTFORMAT
  1
CONTENTFORMAT_BEGIN
 90
        0
 91
        0
 92
      512
 93
        0
300

 40
0.0
140
1.0
 94
        2
 62
     0
340
C0AC
144
0.18
309
CONTENTFORMAT_END
171
     1
301
MARGIN
  1
CELLMARGIN_BEGIN
 40
0.06
 40
0.06
 40
0.06
 40
0.06
 40
0.18
 40
0.18
309
CELLMARGIN_END
 94
        6
 95
        1
302
GRIDFORMAT
  1
GRIDFORMAT_BEGIN
 90
        0
 91
        1
 62
     0
 92
       -2
340
0
 93
        0
 40
0.045
309
GRIDFORMAT_END
 95
        2
302
GRIDFORMAT
  1
GRIDFORMAT_BEGIN
 90
        0
 91
        1
 62
     0
 92
       -2
340
0
 93
        0
 40
0.045
309
GRIDFORMAT_END
 95
        4
302
GRIDFORMAT
  1
GRIDFORMAT_BEGIN
 90
        0
 91
        1
 62
     0
 92
       -2
340
0
 93
        0
 40
0.045
309
GRIDFORMAT_END
 95
        8
302
GRIDFORMAT
  1
GRIDFORMAT_BEGIN
 90
        0
 91
        1
 62
     0
 92
       -2
340
0
 93
        0
 40
0.045
309
GRIDFORMAT_END
 95
       16
302
GRIDFORMAT
  1
GRIDFORMAT_BEGIN
 90
        0
 91
        1
 62
     0
 92
       -2
340
0
 93
        0
 40
0.045
309
GRIDFORMAT_END
 95
       32
302
GRIDFORMAT
  1
GRIDFORMAT_BEGIN
 90
        0
 91
        1
 62
     0
 92
       -2
340
0
 93
        0
 40
0.045
309
GRIDFORMAT_END
309
TABLEFORMAT_END
  1
CELLSTYLE_BEGIN
 90
        3
 91
        2
300
_DATA
309
CELLSTYLE_END
  0
XRECORD
  5
C3C8
102
{ACAD_REACTORS
330
C34F
102
}
330
C34F
100
AcDbXrecord
280
     1
102
ACAD_ROUNDTRIP_PRE2007_TABLESTYLE
 90
      512
 91
        0
  1

 92
      512
 93
        0
  2

 94
      512
 95
        0
  3

  0
XRECORD
  5
C3A3
102
{ACAD_REACTORS
330
C3A2
102
}
330
C3A2
100
AcDbXrecord
280
     1
102
RTVSPost2010Prop28
280
     1
102
RTVSPost2010PropOp28
 70
     1
102
RTVSPost2010Prop29
280
     1
102
RTVSPost2010PropOp29
 70
     1
102
RTVSPost2010Prop30
280
     0
102
RTVSPost2010PropOp30
 70
     1
102
RTVSPost2010Prop31
280
     0
102
RTVSPost2010PropOp31
 70
     1
102
RTVSPost2010Prop32
280
     0
102
RTVSPost2010PropOp32
 70
     1
102
RTVSPost2010Prop33
280
     0
102
RTVSPost2010PropOp33
 70
     1
102
RTVSPost2010Prop34
280
     0
102
RTVSPost2010PropOp34
 70
     1
102
RTVSPost2010Prop35
280
     0
102
RTVSPost2010PropOp35
 70
     1
102
RTVSPost2010Prop36
280
     0
102
RTVSPost2010PropOp36
 70
     1
102
RTVSPost2010Prop37
 90
       50
102
RTVSPost2010PropOp37
 70
     1
102
RTVSPost2010Prop38
140
0.0
102
RTVSPost2010PropOp38
 70
     1
102
RTVSPost2010Prop39
140
1.0
102
RTVSPost2010PropOp39
 70
     1
102
RTVSPost2010Prop40
 90
        0
102
RTVSPost2010PropOp40
 70
     1
102
RTVSPost2010Prop41ColorIndex
 90
       18
102
RTVSPost2010Prop41ColorRGB
 90
        0
102
RTVSPost2010PropOp41
 70
     1
102
RTVSPost2010Prop42
 90
       50
102
RTVSPost2010PropOp42
 70
     1
102
RTVSPost2010Prop43
 90
        3
102
RTVSPost2010PropOp43
 70
     1
102
RTVSPost2010Prop44ColorIndex
 90
        5
102
RTVSPost2010Prop44ColorRGB
 90
      255
102
RTVSPost2010PropOp44
 70
     1
102
RTVSPost2010Prop45
280
     0
102
RTVSPost2010PropOp45
 70
     1
102
RTVSPost2010Prop46
 90
       50
102
RTVSPost2010PropOp46
 70
     1
102
RTVSPost2010Prop47
 90
       50
102
RTVSPost2010PropOp47
 70
     1
102
RTVSPost2010Prop48
 90
       50
102
RTVSPost2010PropOp48
 70
     1
102
RTVSPost2010Prop49
280
     0
102
RTVSPost2010PropOp49
 70
     1
102
RTVSPost2010Prop50
 90
       50
102
RTVSPost2010PropOp50
 70
     1
102
RTVSPost2010Prop51ColorIndex
 90
      256
102
RTVSPost2010Prop51ColorRGB
 90
-16777216
102
RTVSPost2010PropOp51
 70
     0
102
RTVSPost2010Prop52
140
1.0
102
RTVSPost2010PropOp52
 70
     0
102
RTVSPost2010Prop53
 90
        2
102
RTVSPost2010PropOp53
 70
     1
102
RTVSPost2010Prop54
  1
strokes_ogs.tif
102
RTVSPost2010PropOp54
 70
     1
102
RTVSPost2010Prop55
280
     0
102
RTVSPost2010PropOp55
 70
     1
102
RTVSPost2010Prop56
140
1.0
102
RTVSPost2010PropOp56
 70
     1
102
RTVSPost2010Prop57
140
1.0
102
RTVSPost2010PropOp57
 70
     1
102
RTVSPropertyOp0
 70
     1
102
RTVSPropertyOp1
 70
     1
102
RTVSPropertyOp2
 70
     1
102
RTVSPropertyOp3
 70
     1
102
RTVSPropertyOp4
 70
     1
102
RTVSPropertyOp5
 70
     1
102
RTVSPropertyOp6
 70
     1
102
RTVSPropertyOp7
 70
     1
102
RTVSPropertyOp8
 70
     1
102
RTVSPropertyOp9
 70
     1
102
RTVSPropertyOp10
 70
     1
102
RTVSPropertyOp11
 70
     1
102
RTVSPropertyOp12
 70
     1
102
RTVSPropertyOp13
 70
     1
102
RTVSPropertyOp14
 70
     1
102
RTVSPropertyOp15
 70
     1
102
RTVSPropertyOp16
 70
     1
102
RTVSPropertyOp17
 70
     1
102
RTVSPropertyOp18
 70
     1
102
RTVSPropertyOp19
 70
     1
102
RTVSPropertyOp20
 70
     1
102
RTVSPropertyOp21
 70
     1
102
RTVSPropertyOp22
 70
     1
102
RTVSPropertyOp23
 70
     1
102
RTVSPropertyOp24
 70
     1
102
RTVSPropertyOp25
 70
     1
102
RTVSPropertyOp26
 70
     1
102
RTVSPropertyOp27
 70
     1
102
RTVSPropertyOp28
 70
     1
102
RTVSPropertyOp29
 70
     1
102
RTVSPropertyOp30
 70
     1
102
RTVSPropertyOp31
 70
     1
102
RTVSPropertyOp32
 70
     1
102
RTVSPropertyOp33
 70
     1
102
RTVSPropertyOp34
 70
     1
102
RTVSPropertyOp35
 70
     1
102
RTVSPropertyOp36
 70
     1
102
RTVSPropertyOp37
 70
     1
102
RTVSPropertyOp38
 70
     1
102
RTVSPropertyOp39
 70
     1
102
RTVSPropertyOp40
 70
     1
102
RTVSPropertyOp41
 70
     1
102
RTVSPropertyOp42
 70
     1
102
RTVSPropertyOp43
 70
     1
102
RTVSPropertyOp44
 70
     1
102
RTVSPropertyOp45
 70
     1
102
RTVSPropertyOp46
 70
     1
102
RTVSPropertyOp47
 70
     1
102
RTVSPropertyOp48
 70
     1
102
RTVSPropertyOp49
 70
     1
102
RTVSPropertyOp50
 70
     1
102
RTVSPropertyOp51
 70
     0
102
RTVSPropertyOp52
 70
     0
102
RTVSPropertyOp53
 70
     1
102
RTVSPropertyOp54
 70
     1
102
RTVSPropertyOp55
 70
     1
102
RTVSPropertyOp56
 70
     1
102
RTVSPropertyOp57
 70
     1
102
RTVSPropertyOp58
 70
     1
102
RTVSPropertyOp59
 70
     1
102
RTVSPropertyOp60
 70
     1
102
RTVSPropertyOp61
 70
     1
102
RTVSPropertyOp62
 70
     1
  0
XRECORD
  5
C3A1
102
{ACAD_REACTORS
330
C3A0
102
}
330
C3A0
100
AcDbXrecord
280
     1
102
RTVSPost2010Prop28
280
     0
102
RTVSPost2010PropOp28
 70
     1
102
RTVSPost2010Prop29
280
     1
102
RTVSPost2010PropOp29
 70
     1
102
RTVSPost2010Prop30
280
     1
102
RTVSPost2010PropOp30
 70
     1
102
RTVSPost2010Prop31
280
     0
102
RTVSPost2010PropOp31
 70
     1
102
RTVSPost2010Prop32
280
     0
102
RTVSPost2010PropOp32
 70
     1
102
RTVSPost2010Prop33
280
     0
102
RTVSPost2010PropOp33
 70
     1
102
RTVSPost2010Prop34
280
     0
102
RTVSPost2010PropOp34
 70
     1
102
RTVSPost2010Prop35
280
     0
102
RTVSPost2010PropOp35
 70
     1
102
RTVSPost2010Prop36
280
     0
102
RTVSPost2010PropOp36
 70
     1
102
RTVSPost2010Prop37
 90
       50
102
RTVSPost2010PropOp37
 70
     1
102
RTVSPost2010Prop38
140
0.0
102
RTVSPost2010PropOp38
 70
     1
102
RTVSPost2010Prop39
140
1.0
102
RTVSPost2010PropOp39
 70
     1
102
RTVSPost2010Prop40
 90
        0
102
RTVSPost2010PropOp40
 70
     1
102
RTVSPost2010Prop41ColorIndex
 90
       18
102
RTVSPost2010Prop41ColorRGB
 90
        0
102
RTVSPost2010PropOp41
 70
     1
102
RTVSPost2010Prop42
 90
       50
102
RTVSPost2010PropOp42
 70
     1
102
RTVSPost2010Prop43
 90
        3
102
RTVSPost2010PropOp43
 70
     1
102
RTVSPost2010Prop44ColorIndex
 90
        5
102
RTVSPost2010Prop44ColorRGB
 90
      255
102
RTVSPost2010PropOp44
 70
     1
102
RTVSPost2010Prop45
280
     0
102
RTVSPost2010PropOp45
 70
     1
102
RTVSPost2010Prop46
 90
       50
102
RTVSPost2010PropOp46
 70
     1
102
RTVSPost2010Prop47
 90
       50
102
RTVSPost2010PropOp47
 70
     1
102
RTVSPost2010Prop48
 90
       50
102
RTVSPost2010PropOp48
 70
     1
102
RTVSPost2010Prop49
280
     0
102
RTVSPost2010PropOp49
 70
     1
102
RTVSPost2010Prop50
 90
       50
102
RTVSPost2010PropOp50
 70
     1
102
RTVSPost2010Prop51ColorIndex
 90
      256
102
RTVSPost2010Prop51ColorRGB
 90
-16777216
102
RTVSPost2010PropOp51
 70
     0
102
RTVSPost2010Prop52
140
1.0
102
RTVSPost2010PropOp52
 70
     0
102
RTVSPost2010Prop53
 90
        2
102
RTVSPost2010PropOp53
 70
     1
102
RTVSPost2010Prop54
  1
strokes_ogs.tif
102
RTVSPost2010PropOp54
 70
     1
102
RTVSPost2010Prop55
280
     0
102
RTVSPost2010PropOp55
 70
     1
102
RTVSPost2010Prop56
140
1.0
102
RTVSPost2010PropOp56
 70
     1
102
RTVSPost2010Prop57
140
1.0
102
RTVSPost2010PropOp57
 70
     1
102
RTVSPropertyOp0
 70
     1
102
RTVSPropertyOp1
 70
     1
102
RTVSPropertyOp2
 70
     1
102
RTVSPropertyOp3
 70
     1
102
RTVSPropertyOp4
 70
     1
102
RTVSPropertyOp5
 70
     1
102
RTVSPropertyOp6
 70
     1
102
RTVSPropertyOp7
 70
     1
102
RTVSPropertyOp8
 70
     1
102
RTVSPropertyOp9
 70
     1
102
RTVSPropertyOp10
 70
     1
102
RTVSPropertyOp11
 70
     1
102
RTVSPropertyOp12
 70
     1
102
RTVSPropertyOp13
 70
     1
102
RTVSPropertyOp14
 70
     1
102
RTVSPropertyOp15
 70
     1
102
RTVSPropertyOp16
 70
     1
102
RTVSPropertyOp17
 70
     1
102
RTVSPropertyOp18
 70
     1
102
RTVSPropertyOp19
 70
     1
102
RTVSPropertyOp20
 70
     1
102
RTVSPropertyOp21
 70
     1
102
RTVSPropertyOp22
 70
     1
102
RTVSPropertyOp23
 70
     1
102
RTVSPropertyOp24
 70
     1
102
RTVSPropertyOp25
 70
     1
102
RTVSPropertyOp26
 70
     1
102
RTVSPropertyOp27
 70
     1
102
RTVSPropertyOp28
 70
     1
102
RTVSPropertyOp29
 70
     1
102
RTVSPropertyOp30
 70
     1
102
RTVSPropertyOp31
 70
     1
102
RTVSPropertyOp32
 70
     1
102
RTVSPropertyOp33
 70
     1
102
RTVSPropertyOp34
 70
     1
102
RTVSPropertyOp35
 70
     1
102
RTVSPropertyOp36
 70
     1
102
RTVSPropertyOp37
 70
     1
102
RTVSPropertyOp38
 70
     1
102
RTVSPropertyOp39
 70
     1
102
RTVSPropertyOp40
 70
     1
102
RTVSPropertyOp41
 70
     1
102
RTVSPropertyOp42
 70
     1
102
RTVSPropertyOp43
 70
     1
102
RTVSPropertyOp44
 70
     1
102
RTVSPropertyOp45
 70
     1
102
RTVSPropertyOp46
 70
     1
102
RTVSPropertyOp47
 70
     1
102
RTVSPropertyOp48
 70
     1
102
RTVSPropertyOp49
 70
     1
102
RTVSPropertyOp50
 70
     1
102
RTVSPropertyOp51
 70
     0
102
RTVSPropertyOp52
 70
     0
102
RTVSPropertyOp53
 70
     1
102
RTVSPropertyOp54
 70
     1
102
RTVSPropertyOp55
 70
     1
102
RTVSPropertyOp56
 70
     1
102
RTVSPropertyOp57
 70
     1
102
RTVSPropertyOp58
 70
     1
102
RTVSPropertyOp59
 70
     1
102
RTVSPropertyOp60
 70
     1
102
RTVSPropertyOp61
 70
     1
102
RTVSPropertyOp62
 70
     1
  0
XRECORD
  5
C3AF
102
{ACAD_REACTORS
330
C3AE
102
}
330
C3AE
100
AcDbXrecord
280
     1
102
RTVSPost2010Prop28
280
     0
102
RTVSPost2010PropOp28
 70
     1
102
RTVSPost2010Prop29
280
     1
102
RTVSPost2010PropOp29
 70
     1
102
RTVSPost2010Prop30
280
     1
102
RTVSPost2010PropOp30
 70
     1
102
RTVSPost2010Prop31
280
     0
102
RTVSPost2010PropOp31
 70
     1
102
RTVSPost2010Prop32
280
     0
102
RTVSPost2010PropOp32
 70
     1
102
RTVSPost2010Prop33
280
     0
102
RTVSPost2010PropOp33
 70
     1
102
RTVSPost2010Prop34
280
     0
102
RTVSPost2010PropOp34
 70
     1
102
RTVSPost2010Prop35
280
     0
102
RTVSPost2010PropOp35
 70
     1
102
RTVSPost2010Prop36
280
     0
102
RTVSPost2010PropOp36
 70
     1
102
RTVSPost2010Prop37
 90
       50
102
RTVSPost2010PropOp37
 70
     1
102
RTVSPost2010Prop38
140
0.0
102
RTVSPost2010PropOp38
 70
     1
102
RTVSPost2010Prop39
140
1.0
102
RTVSPost2010PropOp39
 70
     1
102
RTVSPost2010Prop40
 90
        0
102
RTVSPost2010PropOp40
 70
     1
102
RTVSPost2010Prop41ColorIndex
 90
       18
102
RTVSPost2010Prop41ColorRGB
 90
        0
102
RTVSPost2010PropOp41
 70
     1
102
RTVSPost2010Prop42
 90
       50
102
RTVSPost2010PropOp42
 70
     1
102
RTVSPost2010Prop43
 90
        3
102
RTVSPost2010PropOp43
 70
     1
102
RTVSPost2010Prop44ColorIndex
 90
        5
102
RTVSPost2010Prop44ColorRGB
 90
      255
102
RTVSPost2010PropOp44
 70
     1
102
RTVSPost2010Prop45
280
     0
102
RTVSPost2010PropOp45
 70
     1
102
RTVSPost2010Prop46
 90
       50
102
RTVSPost2010PropOp46
 70
     1
102
RTVSPost2010Prop47
 90
       50
102
RTVSPost2010PropOp47
 70
     1
102
RTVSPost2010Prop48
 90
       50
102
RTVSPost2010PropOp48
 70
     1
102
RTVSPost2010Prop49
280
     0
102
RTVSPost2010PropOp49
 70
     1
102
RTVSPost2010Prop50
 90
       50
102
RTVSPost2010PropOp50
 70
     1
102
RTVSPost2010Prop51ColorIndex
 90
      256
102
RTVSPost2010Prop51ColorRGB
 90
-16777216
102
RTVSPost2010PropOp51
 70
     0
102
RTVSPost2010Prop52
140
1.0
102
RTVSPost2010PropOp52
 70
     0
102
RTVSPost2010Prop53
 90
        2
102
RTVSPost2010PropOp53
 70
     1
102
RTVSPost2010Prop54
  1
strokes_ogs.tif
102
RTVSPost2010PropOp54
 70
     1
102
RTVSPost2010Prop55
280
     0
102
RTVSPost2010PropOp55
 70
     1
102
RTVSPost2010Prop56
140
1.0
102
RTVSPost2010PropOp56
 70
     1
102
RTVSPost2010Prop57
140
1.0
102
RTVSPost2010PropOp57
 70
     1
102
RTVSPropertyOp0
 70
     1
102
RTVSPropertyOp1
 70
     1
102
RTVSPropertyOp2
 70
     1
102
RTVSPropertyOp3
 70
     1
102
RTVSPropertyOp4
 70
     1
102
RTVSPropertyOp5
 70
     1
102
RTVSPropertyOp6
 70
     1
102
RTVSPropertyOp7
 70
     1
102
RTVSPropertyOp8
 70
     1
102
RTVSPropertyOp9
 70
     1
102
RTVSPropertyOp10
 70
     1
102
RTVSPropertyOp11
 70
     1
102
RTVSPropertyOp12
 70
     1
102
RTVSPropertyOp13
 70
     1
102
RTVSPropertyOp14
 70
     1
102
RTVSPropertyOp15
 70
     1
102
RTVSPropertyOp16
 70
     1
102
RTVSPropertyOp17
 70
     1
102
RTVSPropertyOp18
 70
     1
102
RTVSPropertyOp19
 70
     1
102
RTVSPropertyOp20
 70
     1
102
RTVSPropertyOp21
 70
     1
102
RTVSPropertyOp22
 70
     1
102
RTVSPropertyOp23
 70
     1
102
RTVSPropertyOp24
 70
     1
102
RTVSPropertyOp25
 70
     1
102
RTVSPropertyOp26
 70
     1
102
RTVSPropertyOp27
 70
     1
102
RTVSPropertyOp28
 70
     1
102
RTVSPropertyOp29
 70
     1
102
RTVSPropertyOp30
 70
     1
102
RTVSPropertyOp31
 70
     1
102
RTVSPropertyOp32
 70
     1
102
RTVSPropertyOp33
 70
     1
102
RTVSPropertyOp34
 70
     1
102
RTVSPropertyOp35
 70
     1
102
RTVSPropertyOp36
 70
     1
102
RTVSPropertyOp37
 70
     1
102
RTVSPropertyOp38
 70
     1
102
RTVSPropertyOp39
 70
     1
102
RTVSPropertyOp40
 70
     1
102
RTVSPropertyOp41
 70
     1
102
RTVSPropertyOp42
 70
     1
102
RTVSPropertyOp43
 70
     1
102
RTVSPropertyOp44
 70
     1
102
RTVSPropertyOp45
 70
     1
102
RTVSPropertyOp46
 70
     1
102
RTVSPropertyOp47
 70
     1
102
RTVSPropertyOp48
 70
     1
102
RTVSPropertyOp49
 70
     1
102
RTVSPropertyOp50
 70
     1
102
RTVSPropertyOp51
 70
     0
102
RTVSPropertyOp52
 70
     0
102
RTVSPropertyOp53
 70
     1
102
RTVSPropertyOp54
 70
     1
102
RTVSPropertyOp55
 70
     1
102
RTVSPropertyOp56
 70
     1
102
RTVSPropertyOp57
 70
     1
102
RTVSPropertyOp58
 70
     1
102
RTVSPropertyOp59
 70
     1
102
RTVSPropertyOp60
 70
     1
102
RTVSPropertyOp61
 70
     1
102
RTVSPropertyOp62
 70
     1
  0
XRECORD
  5
C3B7
102
{ACAD_REACTORS
330
C3B6
102
}
330
C3B6
100
AcDbXrecord
280
     1
102
RTVSPost2010Prop28
280
     0
102
RTVSPost2010PropOp28
 70
     1
102
RTVSPost2010Prop29
280
     1
102
RTVSPost2010PropOp29
 70
     1
102
RTVSPost2010Prop30
280
     1
102
RTVSPost2010PropOp30
 70
     1
102
RTVSPost2010Prop31
280
     0
102
RTVSPost2010PropOp31
 70
     1
102
RTVSPost2010Prop32
280
     0
102
RTVSPost2010PropOp32
 70
     1
102
RTVSPost2010Prop33
280
     0
102
RTVSPost2010PropOp33
 70
     1
102
RTVSPost2010Prop34
280
     0
102
RTVSPost2010PropOp34
 70
     1
102
RTVSPost2010Prop35
280
     0
102
RTVSPost2010PropOp35
 70
     1
102
RTVSPost2010Prop36
280
     0
102
RTVSPost2010PropOp36
 70
     1
102
RTVSPost2010Prop37
 90
       50
102
RTVSPost2010PropOp37
 70
     1
102
RTVSPost2010Prop38
140
0.0
102
RTVSPost2010PropOp38
 70
     1
102
RTVSPost2010Prop39
140
1.0
102
RTVSPost2010PropOp39
 70
     1
102
RTVSPost2010Prop40
 90
        0
102
RTVSPost2010PropOp40
 70
     1
102
RTVSPost2010Prop41ColorIndex
 90
       18
102
RTVSPost2010Prop41ColorRGB
 90
        0
102
RTVSPost2010PropOp41
 70
     1
102
RTVSPost2010Prop42
 90
       50
102
RTVSPost2010PropOp42
 70
     1
102
RTVSPost2010Prop43
 90
        3
102
RTVSPost2010PropOp43
 70
     1
102
RTVSPost2010Prop44ColorIndex
 90
        5
102
RTVSPost2010Prop44ColorRGB
 90
      255
102
RTVSPost2010PropOp44
 70
     1
102
RTVSPost2010Prop45
280
     0
102
RTVSPost2010PropOp45
 70
     1
102
RTVSPost2010Prop46
 90
       50
102
RTVSPost2010PropOp46
 70
     1
102
RTVSPost2010Prop47
 90
       50
102
RTVSPost2010PropOp47
 70
     1
102
RTVSPost2010Prop48
 90
       50
102
RTVSPost2010PropOp48
 70
     1
102
RTVSPost2010Prop49
280
     0
102
RTVSPost2010PropOp49
 70
     1
102
RTVSPost2010Prop50
 90
       50
102
RTVSPost2010PropOp50
 70
     1
102
RTVSPost2010Prop51ColorIndex
 90
      256
102
RTVSPost2010Prop51ColorRGB
 90
-16777216
102
RTVSPost2010PropOp51
 70
     0
102
RTVSPost2010Prop52
140
1.0
102
RTVSPost2010PropOp52
 70
     0
102
RTVSPost2010Prop53
 90
        2
102
RTVSPost2010PropOp53
 70
     1
102
RTVSPost2010Prop54
  1
strokes_ogs.tif
102
RTVSPost2010PropOp54
 70
     1
102
RTVSPost2010Prop55
280
     0
102
RTVSPost2010PropOp55
 70
     1
102
RTVSPost2010Prop56
140
1.0
102
RTVSPost2010PropOp56
 70
     1
102
RTVSPost2010Prop57
140
1.0
102
RTVSPost2010PropOp57
 70
     1
102
RTVSPropertyOp0
 70
     1
102
RTVSPropertyOp1
 70
     1
102
RTVSPropertyOp2
 70
     1
102
RTVSPropertyOp3
 70
     1
102
RTVSPropertyOp4
 70
     1
102
RTVSPropertyOp5
 70
     1
102
RTVSPropertyOp6
 70
     1
102
RTVSPropertyOp7
 70
     1
102
RTVSPropertyOp8
 70
     1
102
RTVSPropertyOp9
 70
     1
102
RTVSPropertyOp10
 70
     1
102
RTVSPropertyOp11
 70
     1
102
RTVSPropertyOp12
 70
     1
102
RTVSPropertyOp13
 70
     1
102
RTVSPropertyOp14
 70
     1
102
RTVSPropertyOp15
 70
     1
102
RTVSPropertyOp16
 70
     1
102
RTVSPropertyOp17
 70
     1
102
RTVSPropertyOp18
 70
     1
102
RTVSPropertyOp19
 70
     1
102
RTVSPropertyOp20
 70
     1
102
RTVSPropertyOp21
 70
     1
102
RTVSPropertyOp22
 70
     1
102
RTVSPropertyOp23
 70
     1
102
RTVSPropertyOp24
 70
     1
102
RTVSPropertyOp25
 70
     1
102
RTVSPropertyOp26
 70
     1
102
RTVSPropertyOp27
 70
     1
102
RTVSPropertyOp28
 70
     1
102
RTVSPropertyOp29
 70
     1
102
RTVSPropertyOp30
 70
     1
102
RTVSPropertyOp31
 70
     1
102
RTVSPropertyOp32
 70
     1
102
RTVSPropertyOp33
 70
     1
102
RTVSPropertyOp34
 70
     1
102
RTVSPropertyOp35
 70
     1
102
RTVSPropertyOp36
 70
     1
102
RTVSPropertyOp37
 70
     1
102
RTVSPropertyOp38
 70
     1
102
RTVSPropertyOp39
 70
     1
102
RTVSPropertyOp40
 70
     1
102
RTVSPropertyOp41
 70
     1
102
RTVSPropertyOp42
 70
     1
102
RTVSPropertyOp43
 70
     1
102
RTVSPropertyOp44
 70
     1
102
RTVSPropertyOp45
 70
     1
102
RTVSPropertyOp46
 70
     1
102
RTVSPropertyOp47
 70
     1
102
RTVSPropertyOp48
 70
     1
102
RTVSPropertyOp49
 70
     1
102
RTVSPropertyOp50
 70
     1
102
RTVSPropertyOp51
 70
     0
102
RTVSPropertyOp52
 70
     0
102
RTVSPropertyOp53
 70
     1
102
RTVSPropertyOp54
 70
     1
102
RTVSPropertyOp55
 70
     1
102
RTVSPropertyOp56
 70
     1
102
RTVSPropertyOp57
 70
     1
102
RTVSPropertyOp58
 70
     1
102
RTVSPropertyOp59
 70
     1
102
RTVSPropertyOp60
 70
     1
102
RTVSPropertyOp61
 70
     1
102
RTVSPropertyOp62
 70
     1
  0
XRECORD
  5
C3A9
102
{ACAD_REACTORS
330
C3A8
102
}
330
C3A8
100
AcDbXrecord
280
     1
102
RTVSPost2010Prop28
280
     0
102
RTVSPost2010PropOp28
 70
     1
102
RTVSPost2010Prop29
280
     1
102
RTVSPost2010PropOp29
 70
     1
102
RTVSPost2010Prop30
280
     1
102
RTVSPost2010PropOp30
 70
     1
102
RTVSPost2010Prop31
280
     0
102
RTVSPost2010PropOp31
 70
     1
102
RTVSPost2010Prop32
280
     0
102
RTVSPost2010PropOp32
 70
     1
102
RTVSPost2010Prop33
280
     0
102
RTVSPost2010PropOp33
 70
     1
102
RTVSPost2010Prop34
280
     0
102
RTVSPost2010PropOp34
 70
     1
102
RTVSPost2010Prop35
280
     0
102
RTVSPost2010PropOp35
 70
     1
102
RTVSPost2010Prop36
280
     0
102
RTVSPost2010PropOp36
 70
     1
102
RTVSPost2010Prop37
 90
       50
102
RTVSPost2010PropOp37
 70
     1
102
RTVSPost2010Prop38
140
0.0
102
RTVSPost2010PropOp38
 70
     1
102
RTVSPost2010Prop39
140
1.0
102
RTVSPost2010PropOp39
 70
     1
102
RTVSPost2010Prop40
 90
        0
102
RTVSPost2010PropOp40
 70
     1
102
RTVSPost2010Prop41ColorIndex
 90
       18
102
RTVSPost2010Prop41ColorRGB
 90
        0
102
RTVSPost2010PropOp41
 70
     1
102
RTVSPost2010Prop42
 90
       50
102
RTVSPost2010PropOp42
 70
     1
102
RTVSPost2010Prop43
 90
        3
102
RTVSPost2010PropOp43
 70
     1
102
RTVSPost2010Prop44ColorIndex
 90
        5
102
RTVSPost2010Prop44ColorRGB
 90
      255
102
RTVSPost2010PropOp44
 70
     1
102
RTVSPost2010Prop45
280
     0
102
RTVSPost2010PropOp45
 70
     1
102
RTVSPost2010Prop46
 90
       50
102
RTVSPost2010PropOp46
 70
     1
102
RTVSPost2010Prop47
 90
       50
102
RTVSPost2010PropOp47
 70
     1
102
RTVSPost2010Prop48
 90
       50
102
RTVSPost2010PropOp48
 70
     1
102
RTVSPost2010Prop49
280
     0
102
RTVSPost2010PropOp49
 70
     1
102
RTVSPost2010Prop50
 90
       50
102
RTVSPost2010PropOp50
 70
     1
102
RTVSPost2010Prop51ColorIndex
 90
      256
102
RTVSPost2010Prop51ColorRGB
 90
-16777216
102
RTVSPost2010PropOp51
 70
     0
102
RTVSPost2010Prop52
140
1.0
102
RTVSPost2010PropOp52
 70
     0
102
RTVSPost2010Prop53
 90
        2
102
RTVSPost2010PropOp53
 70
     1
102
RTVSPost2010Prop54
  1
strokes_ogs.tif
102
RTVSPost2010PropOp54
 70
     1
102
RTVSPost2010Prop55
280
     0
102
RTVSPost2010PropOp55
 70
     1
102
RTVSPost2010Prop56
140
1.0
102
RTVSPost2010PropOp56
 70
     1
102
RTVSPost2010Prop57
140
1.0
102
RTVSPost2010PropOp57
 70
     1
102
RTVSPropertyOp0
 70
     1
102
RTVSPropertyOp1
 70
     1
102
RTVSPropertyOp2
 70
     1
102
RTVSPropertyOp3
 70
     1
102
RTVSPropertyOp4
 70
     1
102
RTVSPropertyOp5
 70
     1
102
RTVSPropertyOp6
 70
     1
102
RTVSPropertyOp7
 70
     1
102
RTVSPropertyOp8
 70
     1
102
RTVSPropertyOp9
 70
     1
102
RTVSPropertyOp10
 70
     1
102
RTVSPropertyOp11
 70
     1
102
RTVSPropertyOp12
 70
     1
102
RTVSPropertyOp13
 70
     1
102
RTVSPropertyOp14
 70
     1
102
RTVSPropertyOp15
 70
     1
102
RTVSPropertyOp16
 70
     1
102
RTVSPropertyOp17
 70
     1
102
RTVSPropertyOp18
 70
     1
102
RTVSPropertyOp19
 70
     1
102
RTVSPropertyOp20
 70
     1
102
RTVSPropertyOp21
 70
     1
102
RTVSPropertyOp22
 70
     1
102
RTVSPropertyOp23
 70
     1
102
RTVSPropertyOp24
 70
     1
102
RTVSPropertyOp25
 70
     1
102
RTVSPropertyOp26
 70
     1
102
RTVSPropertyOp27
 70
     1
102
RTVSPropertyOp28
 70
     1
102
RTVSPropertyOp29
 70
     1
102
RTVSPropertyOp30
 70
     1
102
RTVSPropertyOp31
 70
     1
102
RTVSPropertyOp32
 70
     1
102
RTVSPropertyOp33
 70
     1
102
RTVSPropertyOp34
 70
     1
102
RTVSPropertyOp35
 70
     1
102
RTVSPropertyOp36
 70
     1
102
RTVSPropertyOp37
 70
     1
102
RTVSPropertyOp38
 70
     1
102
RTVSPropertyOp39
 70
     1
102
RTVSPropertyOp40
 70
     1
102
RTVSPropertyOp41
 70
     1
102
RTVSPropertyOp42
 70
     1
102
RTVSPropertyOp43
 70
     1
102
RTVSPropertyOp44
 70
     1
102
RTVSPropertyOp45
 70
     1
102
RTVSPropertyOp46
 70
     1
102
RTVSPropertyOp47
 70
     1
102
RTVSPropertyOp48
 70
     1
102
RTVSPropertyOp49
 70
     1
102
RTVSPropertyOp50
 70
     1
102
RTVSPropertyOp51
 70
     0
102
RTVSPropertyOp52
 70
     0
102
RTVSPropertyOp53
 70
     1
102
RTVSPropertyOp54
 70
     1
102
RTVSPropertyOp55
 70
     1
102
RTVSPropertyOp56
 70
     1
102
RTVSPropertyOp57
 70
     1
102
RTVSPropertyOp58
 70
     1
102
RTVSPropertyOp59
 70
     1
102
RTVSPropertyOp60
 70
     1
102
RTVSPropertyOp61
 70
     1
102
RTVSPropertyOp62
 70
     1
  0
XRECORD
  5
C3AD
102
{ACAD_REACTORS
330
C3AC
102
}
330
C3AC
100
AcDbXrecord
280
     1
102
RTVSPost2010Prop28
280
     0
102
RTVSPost2010PropOp28
 70
     1
102
RTVSPost2010Prop29
280
     1
102
RTVSPost2010PropOp29
 70
     1
102
RTVSPost2010Prop30
280
     1
102
RTVSPost2010PropOp30
 70
     1
102
RTVSPost2010Prop31
280
     0
102
RTVSPost2010PropOp31
 70
     1
102
RTVSPost2010Prop32
280
     0
102
RTVSPost2010PropOp32
 70
     1
102
RTVSPost2010Prop33
280
     0
102
RTVSPost2010PropOp33
 70
     1
102
RTVSPost2010Prop34
280
     0
102
RTVSPost2010PropOp34
 70
     1
102
RTVSPost2010Prop35
280
     0
102
RTVSPost2010PropOp35
 70
     1
102
RTVSPost2010Prop36
280
     0
102
RTVSPost2010PropOp36
 70
     1
102
RTVSPost2010Prop37
 90
       50
102
RTVSPost2010PropOp37
 70
     1
102
RTVSPost2010Prop38
140
0.0
102
RTVSPost2010PropOp38
 70
     1
102
RTVSPost2010Prop39
140
1.0
102
RTVSPost2010PropOp39
 70
     1
102
RTVSPost2010Prop40
 90
        0
102
RTVSPost2010PropOp40
 70
     1
102
RTVSPost2010Prop41ColorIndex
 90
       18
102
RTVSPost2010Prop41ColorRGB
 90
        0
102
RTVSPost2010PropOp41
 70
     1
102
RTVSPost2010Prop42
 90
       50
102
RTVSPost2010PropOp42
 70
     1
102
RTVSPost2010Prop43
 90
        3
102
RTVSPost2010PropOp43
 70
     1
102
RTVSPost2010Prop44ColorIndex
 90
        5
102
RTVSPost2010Prop44ColorRGB
 90
      255
102
RTVSPost2010PropOp44
 70
     1
102
RTVSPost2010Prop45
280
     0
102
RTVSPost2010PropOp45
 70
     1
102
RTVSPost2010Prop46
 90
       50
102
RTVSPost2010PropOp46
 70
     1
102
RTVSPost2010Prop47
 90
       50
102
RTVSPost2010PropOp47
 70
     1
102
RTVSPost2010Prop48
 90
       50
102
RTVSPost2010PropOp48
 70
     1
102
RTVSPost2010Prop49
280
     0
102
RTVSPost2010PropOp49
 70
     1
102
RTVSPost2010Prop50
 90
       50
102
RTVSPost2010PropOp50
 70
     1
102
RTVSPost2010Prop51ColorIndex
 90
      256
102
RTVSPost2010Prop51ColorRGB
 90
-16777216
102
RTVSPost2010PropOp51
 70
     0
102
RTVSPost2010Prop52
140
1.0
102
RTVSPost2010PropOp52
 70
     0
102
RTVSPost2010Prop53
 90
        2
102
RTVSPost2010PropOp53
 70
     1
102
RTVSPost2010Prop54
  1
strokes_ogs.tif
102
RTVSPost2010PropOp54
 70
     1
102
RTVSPost2010Prop55
280
     0
102
RTVSPost2010PropOp55
 70
     1
102
RTVSPost2010Prop56
140
1.0
102
RTVSPost2010PropOp56
 70
     1
102
RTVSPost2010Prop57
140
1.0
102
RTVSPost2010PropOp57
 70
     1
102
RTVSPropertyOp0
 70
     1
102
RTVSPropertyOp1
 70
     1
102
RTVSPropertyOp2
 70
     1
102
RTVSPropertyOp3
 70
     1
102
RTVSPropertyOp4
 70
     1
102
RTVSPropertyOp5
 70
     1
102
RTVSPropertyOp6
 70
     1
102
RTVSPropertyOp7
 70
     1
102
RTVSPropertyOp8
 70
     1
102
RTVSPropertyOp9
 70
     1
102
RTVSPropertyOp10
 70
     1
102
RTVSPropertyOp11
 70
     1
102
RTVSPropertyOp12
 70
     1
102
RTVSPropertyOp13
 70
     1
102
RTVSPropertyOp14
 70
     1
102
RTVSPropertyOp15
 70
     1
102
RTVSPropertyOp16
 70
     1
102
RTVSPropertyOp17
 70
     1
102
RTVSPropertyOp18
 70
     1
102
RTVSPropertyOp19
 70
     1
102
RTVSPropertyOp20
 70
     1
102
RTVSPropertyOp21
 70
     1
102
RTVSPropertyOp22
 70
     1
102
RTVSPropertyOp23
 70
     1
102
RTVSPropertyOp24
 70
     1
102
RTVSPropertyOp25
 70
     1
102
RTVSPropertyOp26
 70
     1
102
RTVSPropertyOp27
 70
     1
102
RTVSPropertyOp28
 70
     1
102
RTVSPropertyOp29
 70
     1
102
RTVSPropertyOp30
 70
     1
102
RTVSPropertyOp31
 70
     1
102
RTVSPropertyOp32
 70
     1
102
RTVSPropertyOp33
 70
     1
102
RTVSPropertyOp34
 70
     1
102
RTVSPropertyOp35
 70
     1
102
RTVSPropertyOp36
 70
     1
102
RTVSPropertyOp37
 70
     1
102
RTVSPropertyOp38
 70
     1
102
RTVSPropertyOp39
 70
     1
102
RTVSPropertyOp40
 70
     1
102
RTVSPropertyOp41
 70
     1
102
RTVSPropertyOp42
 70
     1
102
RTVSPropertyOp43
 70
     1
102
RTVSPropertyOp44
 70
     1
102
RTVSPropertyOp45
 70
     1
102
RTVSPropertyOp46
 70
     1
102
RTVSPropertyOp47
 70
     1
102
RTVSPropertyOp48
 70
     1
102
RTVSPropertyOp49
 70
     1
102
RTVSPropertyOp50
 70
     1
102
RTVSPropertyOp51
 70
     0
102
RTVSPropertyOp52
 70
     0
102
RTVSPropertyOp53
 70
     1
102
RTVSPropertyOp54
 70
     1
102
RTVSPropertyOp55
 70
     1
102
RTVSPropertyOp56
 70
     1
102
RTVSPropertyOp57
 70
     1
102
RTVSPropertyOp58
 70
     1
102
RTVSPropertyOp59
 70
     1
102
RTVSPropertyOp60
 70
     1
102
RTVSPropertyOp61
 70
     1
102
RTVSPropertyOp62
 70
     1
  0
XRECORD
  5
C3C7
102
{ACAD_REACTORS
330
C3C6
102
}
330
C3C6
100
AcDbXrecord
280
     1
102
RTVSPost2010Prop28
280
     0
102
RTVSPost2010PropOp28
 70
     1
102
RTVSPost2010Prop29
280
     1
102
RTVSPost2010PropOp29
 70
     1
102
RTVSPost2010Prop30
280
     1
102
RTVSPost2010PropOp30
 70
     1
102
RTVSPost2010Prop31
280
     0
102
RTVSPost2010PropOp31
 70
     1
102
RTVSPost2010Prop32
280
     0
102
RTVSPost2010PropOp32
 70
     1
102
RTVSPost2010Prop33
280
     0
102
RTVSPost2010PropOp33
 70
     1
102
RTVSPost2010Prop34
280
     0
102
RTVSPost2010PropOp34
 70
     1
102
RTVSPost2010Prop35
280
     0
102
RTVSPost2010PropOp35
 70
     1
102
RTVSPost2010Prop36
280
     0
102
RTVSPost2010PropOp36
 70
     1
102
RTVSPost2010Prop37
 90
       50
102
RTVSPost2010PropOp37
 70
     0
102
RTVSPost2010Prop38
140
0.0
102
RTVSPost2010PropOp38
 70
     0
102
RTVSPost2010Prop39
140
1.0
102
RTVSPost2010PropOp39
 70
     0
102
RTVSPost2010Prop40
 90
        0
102
RTVSPost2010PropOp40
 70
     0
102
RTVSPost2010Prop41ColorIndex
 90
       18
102
RTVSPost2010Prop41ColorRGB
 90
        0
102
RTVSPost2010PropOp41
 70
     0
102
RTVSPost2010Prop42
 90
       50
102
RTVSPost2010PropOp42
 70
     0
102
RTVSPost2010Prop43
 90
        3
102
RTVSPost2010PropOp43
 70
     0
102
RTVSPost2010Prop44ColorIndex
 90
        5
102
RTVSPost2010Prop44ColorRGB
 90
      255
102
RTVSPost2010PropOp44
 70
     0
102
RTVSPost2010Prop45
280
     0
102
RTVSPost2010PropOp45
 70
     1
102
RTVSPost2010Prop46
 90
       50
102
RTVSPost2010PropOp46
 70
     0
102
RTVSPost2010Prop47
 90
       50
102
RTVSPost2010PropOp47
 70
     0
102
RTVSPost2010Prop48
 90
       50
102
RTVSPost2010PropOp48
 70
     0
102
RTVSPost2010Prop49
280
     0
102
RTVSPost2010PropOp49
 70
     1
102
RTVSPost2010Prop50
 90
       50
102
RTVSPost2010PropOp50
 70
     0
102
RTVSPost2010Prop51ColorIndex
 90
      256
102
RTVSPost2010Prop51ColorRGB
 90
-16777216
102
RTVSPost2010PropOp51
 70
     0
102
RTVSPost2010Prop52
140
1.0
102
RTVSPost2010PropOp52
 70
     0
102
RTVSPost2010Prop53
 90
        2
102
RTVSPost2010PropOp53
 70
     0
102
RTVSPost2010Prop54
  1
strokes_ogs.tif
102
RTVSPost2010PropOp54
 70
     0
102
RTVSPost2010Prop55
280
     0
102
RTVSPost2010PropOp55
 70
     1
102
RTVSPost2010Prop56
140
1.0
102
RTVSPost2010PropOp56
 70
     0
102
RTVSPost2010Prop57
140
1.0
102
RTVSPost2010PropOp57
 70
     0
102
RTVSPropertyOp0
 70
     0
102
RTVSPropertyOp1
 70
     0
102
RTVSPropertyOp2
 70
     0
102
RTVSPropertyOp3
 70
     0
102
RTVSPropertyOp4
 70
     0
102
RTVSPropertyOp5
 70
     0
102
RTVSPropertyOp6
 70
     0
102
RTVSPropertyOp7
 70
     0
102
RTVSPropertyOp8
 70
     0
102
RTVSPropertyOp9
 70
     0
102
RTVSPropertyOp10
 70
     0
102
RTVSPropertyOp11
 70
     0
102
RTVSPropertyOp12
 70
     0
102
RTVSPropertyOp13
 70
     0
102
RTVSPropertyOp14
 70
     2
102
RTVSPropertyOp15
 70
     0
102
RTVSPropertyOp16
 70
     0
102
RTVSPropertyOp17
 70
     0
102
RTVSPropertyOp18
 70
     0
102
RTVSPropertyOp19
 70
     0
102
RTVSPropertyOp20
 70
     0
102
RTVSPropertyOp21
 70
     0
102
RTVSPropertyOp22
 70
     0
102
RTVSPropertyOp23
 70
     0
102
RTVSPropertyOp24
 70
     0
102
RTVSPropertyOp25
 70
     0
102
RTVSPropertyOp26
 70
     0
102
RTVSPropertyOp27
 70
     0
102
RTVSPropertyOp28
 70
     1
102
RTVSPropertyOp29
 70
     1
102
RTVSPropertyOp30
 70
     1
102
RTVSPropertyOp31
 70
     1
102
RTVSPropertyOp32
 70
     1
102
RTVSPropertyOp33
 70
     1
102
RTVSPropertyOp34
 70
     1
102
RTVSPropertyOp35
 70
     1
102
RTVSPropertyOp36
 70
     1
102
RTVSPropertyOp37
 70
     0
102
RTVSPropertyOp38
 70
     0
102
RTVSPropertyOp39
 70
     0
102
RTVSPropertyOp40
 70
     0
102
RTVSPropertyOp41
 70
     0
102
RTVSPropertyOp42
 70
     0
102
RTVSPropertyOp43
 70
     0
102
RTVSPropertyOp44
 70
     0
102
RTVSPropertyOp45
 70
     1
102
RTVSPropertyOp46
 70
     0
102
RTVSPropertyOp47
 70
     0
102
RTVSPropertyOp48
 70
     0
102
RTVSPropertyOp49
 70
     1
102
RTVSPropertyOp50
 70
     0
102
RTVSPropertyOp51
 70
     0
102
RTVSPropertyOp52
 70
     0
102
RTVSPropertyOp53
 70
     0
102
RTVSPropertyOp54
 70
     0
102
RTVSPropertyOp55
 70
     1
102
RTVSPropertyOp56
 70
     0
102
RTVSPropertyOp57
 70
     0
102
RTVSPropertyOp58
 70
     0
102
RTVSPropertyOp59
 70
     0
102
RTVSPropertyOp60
 70
     0
102
RTVSPropertyOp61
 70
     0
102
RTVSPropertyOp62
 70
     0
  0
XRECORD
  5
C3B5
102
{ACAD_REACTORS
330
C3B4
102
}
330
C3B4
100
AcDbXrecord
280
     1
102
RTVSPost2010Prop28
280
     0
102
RTVSPost2010PropOp28
 70
     1
102
RTVSPost2010Prop29
280
     1
102
RTVSPost2010PropOp29
 70
     1
102
RTVSPost2010Prop30
280
     1
102
RTVSPost2010PropOp30
 70
     1
102
RTVSPost2010Prop31
280
     0
102
RTVSPost2010PropOp31
 70
     1
102
RTVSPost2010Prop32
280
     0
102
RTVSPost2010PropOp32
 70
     1
102
RTVSPost2010Prop33
280
     0
102
RTVSPost2010PropOp33
 70
     1
102
RTVSPost2010Prop34
280
     0
102
RTVSPost2010PropOp34
 70
     1
102
RTVSPost2010Prop35
280
     0
102
RTVSPost2010PropOp35
 70
     1
102
RTVSPost2010Prop36
280
     0
102
RTVSPost2010PropOp36
 70
     1
102
RTVSPost2010Prop37
 90
       50
102
RTVSPost2010PropOp37
 70
     1
102
RTVSPost2010Prop38
140
0.0
102
RTVSPost2010PropOp38
 70
     1
102
RTVSPost2010Prop39
140
1.0
102
RTVSPost2010PropOp39
 70
     1
102
RTVSPost2010Prop40
 90
        0
102
RTVSPost2010PropOp40
 70
     1
102
RTVSPost2010Prop41ColorIndex
 90
       18
102
RTVSPost2010Prop41ColorRGB
 90
        0
102
RTVSPost2010PropOp41
 70
     1
102
RTVSPost2010Prop42
 90
       50
102
RTVSPost2010PropOp42
 70
     1
102
RTVSPost2010Prop43
 90
        3
102
RTVSPost2010PropOp43
 70
     1
102
RTVSPost2010Prop44ColorIndex
 90
        5
102
RTVSPost2010Prop44ColorRGB
 90
      255
102
RTVSPost2010PropOp44
 70
     1
102
RTVSPost2010Prop45
280
     0
102
RTVSPost2010PropOp45
 70
     1
102
RTVSPost2010Prop46
 90
       50
102
RTVSPost2010PropOp46
 70
     1
102
RTVSPost2010Prop47
 90
       50
102
RTVSPost2010PropOp47
 70
     1
102
RTVSPost2010Prop48
 90
       50
102
RTVSPost2010PropOp48
 70
     1
102
RTVSPost2010Prop49
280
     0
102
RTVSPost2010PropOp49
 70
     1
102
RTVSPost2010Prop50
 90
       50
102
RTVSPost2010PropOp50
 70
     1
102
RTVSPost2010Prop51ColorIndex
 90
      256
102
RTVSPost2010Prop51ColorRGB
 90
-16777216
102
RTVSPost2010PropOp51
 70
     0
102
RTVSPost2010Prop52
140
1.0
102
RTVSPost2010PropOp52
 70
     0
102
RTVSPost2010Prop53
 90
        2
102
RTVSPost2010PropOp53
 70
     1
102
RTVSPost2010Prop54
  1
strokes_ogs.tif
102
RTVSPost2010PropOp54
 70
     1
102
RTVSPost2010Prop55
280
     0
102
RTVSPost2010PropOp55
 70
     1
102
RTVSPost2010Prop56
140
1.0
102
RTVSPost2010PropOp56
 70
     1
102
RTVSPost2010Prop57
140
1.0
102
RTVSPost2010PropOp57
 70
     1
102
RTVSPropertyOp0
 70
     1
102
RTVSPropertyOp1
 70
     1
102
RTVSPropertyOp2
 70
     1
102
RTVSPropertyOp3
 70
     1
102
RTVSPropertyOp4
 70
     1
102
RTVSPropertyOp5
 70
     1
102
RTVSPropertyOp6
 70
     1
102
RTVSPropertyOp7
 70
     1
102
RTVSPropertyOp8
 70
     1
102
RTVSPropertyOp9
 70
     1
102
RTVSPropertyOp10
 70
     1
102
RTVSPropertyOp11
 70
     1
102
RTVSPropertyOp12
 70
     1
102
RTVSPropertyOp13
 70
     1
102
RTVSPropertyOp14
 70
     1
102
RTVSPropertyOp15
 70
     1
102
RTVSPropertyOp16
 70
     1
102
RTVSPropertyOp17
 70
     1
102
RTVSPropertyOp18
 70
     1
102
RTVSPropertyOp19
 70
     1
102
RTVSPropertyOp20
 70
     1
102
RTVSPropertyOp21
 70
     1
102
RTVSPropertyOp22
 70
     1
102
RTVSPropertyOp23
 70
     1
102
RTVSPropertyOp24
 70
     1
102
RTVSPropertyOp25
 70
     1
102
RTVSPropertyOp26
 70
     1
102
RTVSPropertyOp27
 70
     1
102
RTVSPropertyOp28
 70
     1
102
RTVSPropertyOp29
 70
     1
102
RTVSPropertyOp30
 70
     1
102
RTVSPropertyOp31
 70
     1
102
RTVSPropertyOp32
 70
     1
102
RTVSPropertyOp33
 70
     1
102
RTVSPropertyOp34
 70
     1
102
RTVSPropertyOp35
 70
     1
102
RTVSPropertyOp36
 70
     1
102
RTVSPropertyOp37
 70
     1
102
RTVSPropertyOp38
 70
     1
102
RTVSPropertyOp39
 70
     1
102
RTVSPropertyOp40
 70
     1
102
RTVSPropertyOp41
 70
     1
102
RTVSPropertyOp42
 70
     1
102
RTVSPropertyOp43
 70
     1
102
RTVSPropertyOp44
 70
     1
102
RTVSPropertyOp45
 70
     1
102
RTVSPropertyOp46
 70
     1
102
RTVSPropertyOp47
 70
     1
102
RTVSPropertyOp48
 70
     1
102
RTVSPropertyOp49
 70
     1
102
RTVSPropertyOp50
 70
     1
102
RTVSPropertyOp51
 70
     0
102
RTVSPropertyOp52
 70
     0
102
RTVSPropertyOp53
 70
     1
102
RTVSPropertyOp54
 70
     1
102
RTVSPropertyOp55
 70
     1
102
RTVSPropertyOp56
 70
     1
102
RTVSPropertyOp57
 70
     1
102
RTVSPropertyOp58
 70
     1
102
RTVSPropertyOp59
 70
     1
102
RTVSPropertyOp60
 70
     1
102
RTVSPropertyOp61
 70
     1
102
RTVSPropertyOp62
 70
     1
  0
XRECORD
  5
C399
102
{ACAD_REACTORS
330
C398
102
}
330
C398
100
AcDbXrecord
280
     1
102
RTVSPost2010Prop28
280
     0
102
RTVSPost2010PropOp28
 70
     1
102
RTVSPost2010Prop29
280
     1
102
RTVSPost2010PropOp29
 70
     1
102
RTVSPost2010Prop30
280
     1
102
RTVSPost2010PropOp30
 70
     1
102
RTVSPost2010Prop31
280
     0
102
RTVSPost2010PropOp31
 70
     1
102
RTVSPost2010Prop32
280
     0
102
RTVSPost2010PropOp32
 70
     1
102
RTVSPost2010Prop33
280
     0
102
RTVSPost2010PropOp33
 70
     1
102
RTVSPost2010Prop34
280
     0
102
RTVSPost2010PropOp34
 70
     1
102
RTVSPost2010Prop35
280
     0
102
RTVSPost2010PropOp35
 70
     1
102
RTVSPost2010Prop36
280
     0
102
RTVSPost2010PropOp36
 70
     1
102
RTVSPost2010Prop37
 90
       50
102
RTVSPost2010PropOp37
 70
     1
102
RTVSPost2010Prop38
140
0.0
102
RTVSPost2010PropOp38
 70
     1
102
RTVSPost2010Prop39
140
1.0
102
RTVSPost2010PropOp39
 70
     1
102
RTVSPost2010Prop40
 90
        0
102
RTVSPost2010PropOp40
 70
     1
102
RTVSPost2010Prop41ColorIndex
 90
       18
102
RTVSPost2010Prop41ColorRGB
 90
        0
102
RTVSPost2010PropOp41
 70
     1
102
RTVSPost2010Prop42
 90
       50
102
RTVSPost2010PropOp42
 70
     1
102
RTVSPost2010Prop43
 90
        3
102
RTVSPost2010PropOp43
 70
     1
102
RTVSPost2010Prop44ColorIndex
 90
        5
102
RTVSPost2010Prop44ColorRGB
 90
      255
102
RTVSPost2010PropOp44
 70
     1
102
RTVSPost2010Prop45
280
     0
102
RTVSPost2010PropOp45
 70
     1
102
RTVSPost2010Prop46
 90
       50
102
RTVSPost2010PropOp46
 70
     1
102
RTVSPost2010Prop47
 90
       50
102
RTVSPost2010PropOp47
 70
     1
102
RTVSPost2010Prop48
 90
       50
102
RTVSPost2010PropOp48
 70
     1
102
RTVSPost2010Prop49
280
     0
102
RTVSPost2010PropOp49
 70
     1
102
RTVSPost2010Prop50
 90
       50
102
RTVSPost2010PropOp50
 70
     1
102
RTVSPost2010Prop51ColorIndex
 90
      256
102
RTVSPost2010Prop51ColorRGB
 90
-16777216
102
RTVSPost2010PropOp51
 70
     0
102
RTVSPost2010Prop52
140
1.0
102
RTVSPost2010PropOp52
 70
     0
102
RTVSPost2010Prop53
 90
        2
102
RTVSPost2010PropOp53
 70
     1
102
RTVSPost2010Prop54
  1
strokes_ogs.tif
102
RTVSPost2010PropOp54
 70
     1
102
RTVSPost2010Prop55
280
     0
102
RTVSPost2010PropOp55
 70
     1
102
RTVSPost2010Prop56
140
1.0
102
RTVSPost2010PropOp56
 70
     1
102
RTVSPost2010Prop57
140
1.0
102
RTVSPost2010PropOp57
 70
     1
102
RTVSPropertyOp0
 70
     1
102
RTVSPropertyOp1
 70
     1
102
RTVSPropertyOp2
 70
     1
102
RTVSPropertyOp3
 70
     1
102
RTVSPropertyOp4
 70
     1
102
RTVSPropertyOp5
 70
     1
102
RTVSPropertyOp6
 70
     1
102
RTVSPropertyOp7
 70
     1
102
RTVSPropertyOp8
 70
     1
102
RTVSPropertyOp9
 70
     1
102
RTVSPropertyOp10
 70
     1
102
RTVSPropertyOp11
 70
     1
102
RTVSPropertyOp12
 70
     1
102
RTVSPropertyOp13
 70
     1
102
RTVSPropertyOp14
 70
     1
102
RTVSPropertyOp15
 70
     1
102
RTVSPropertyOp16
 70
     1
102
RTVSPropertyOp17
 70
     1
102
RTVSPropertyOp18
 70
     1
102
RTVSPropertyOp19
 70
     1
102
RTVSPropertyOp20
 70
     1
102
RTVSPropertyOp21
 70
     1
102
RTVSPropertyOp22
 70
     1
102
RTVSPropertyOp23
 70
     1
102
RTVSPropertyOp24
 70
     1
102
RTVSPropertyOp25
 70
     1
102
RTVSPropertyOp26
 70
     1
102
RTVSPropertyOp27
 70
     1
102
RTVSPropertyOp28
 70
     1
102
RTVSPropertyOp29
 70
     1
102
RTVSPropertyOp30
 70
     1
102
RTVSPropertyOp31
 70
     1
102
RTVSPropertyOp32
 70
     1
102
RTVSPropertyOp33
 70
     1
102
RTVSPropertyOp34
 70
     1
102
RTVSPropertyOp35
 70
     1
102
RTVSPropertyOp36
 70
     1
102
RTVSPropertyOp37
 70
     1
102
RTVSPropertyOp38
 70
     1
102
RTVSPropertyOp39
 70
     1
102
RTVSPropertyOp40
 70
     1
102
RTVSPropertyOp41
 70
     1
102
RTVSPropertyOp42
 70
     1
102
RTVSPropertyOp43
 70
     1
102
RTVSPropertyOp44
 70
     1
102
RTVSPropertyOp45
 70
     1
102
RTVSPropertyOp46
 70
     1
102
RTVSPropertyOp47
 70
     1
102
RTVSPropertyOp48
 70
     1
102
RTVSPropertyOp49
 70
     1
102
RTVSPropertyOp50
 70
     1
102
RTVSPropertyOp51
 70
     0
102
RTVSPropertyOp52
 70
     0
102
RTVSPropertyOp53
 70
     1
102
RTVSPropertyOp54
 70
     1
102
RTVSPropertyOp55
 70
     1
102
RTVSPropertyOp56
 70
     1
102
RTVSPropertyOp57
 70
     1
102
RTVSPropertyOp58
 70
     1
102
RTVSPropertyOp59
 70
     1
102
RTVSPropertyOp60
 70
     1
102
RTVSPropertyOp61
 70
     1
102
RTVSPropertyOp62
 70
     1
  0
XRECORD
  5
C39B
102
{ACAD_REACTORS
330
C39A
102
}
330
C39A
100
AcDbXrecord
280
     1
102
RTVSPost2010Prop28
280
     0
102
RTVSPost2010PropOp28
 70
     1
102
RTVSPost2010Prop29
280
     1
102
RTVSPost2010PropOp29
 70
     1
102
RTVSPost2010Prop30
280
     1
102
RTVSPost2010PropOp30
 70
     1
102
RTVSPost2010Prop31
280
     0
102
RTVSPost2010PropOp31
 70
     1
102
RTVSPost2010Prop32
280
     0
102
RTVSPost2010PropOp32
 70
     1
102
RTVSPost2010Prop33
280
     0
102
RTVSPost2010PropOp33
 70
     1
102
RTVSPost2010Prop34
280
     0
102
RTVSPost2010PropOp34
 70
     1
102
RTVSPost2010Prop35
280
     0
102
RTVSPost2010PropOp35
 70
     1
102
RTVSPost2010Prop36
280
     0
102
RTVSPost2010PropOp36
 70
     1
102
RTVSPost2010Prop37
 90
       50
102
RTVSPost2010PropOp37
 70
     1
102
RTVSPost2010Prop38
140
0.0
102
RTVSPost2010PropOp38
 70
     1
102
RTVSPost2010Prop39
140
1.0
102
RTVSPost2010PropOp39
 70
     1
102
RTVSPost2010Prop40
 90
        0
102
RTVSPost2010PropOp40
 70
     1
102
RTVSPost2010Prop41ColorIndex
 90
       18
102
RTVSPost2010Prop41ColorRGB
 90
        0
102
RTVSPost2010PropOp41
 70
     1
102
RTVSPost2010Prop42
 90
       50
102
RTVSPost2010PropOp42
 70
     1
102
RTVSPost2010Prop43
 90
        3
102
RTVSPost2010PropOp43
 70
     1
102
RTVSPost2010Prop44ColorIndex
 90
        5
102
RTVSPost2010Prop44ColorRGB
 90
      255
102
RTVSPost2010PropOp44
 70
     1
102
RTVSPost2010Prop45
280
     0
102
RTVSPost2010PropOp45
 70
     1
102
RTVSPost2010Prop46
 90
       50
102
RTVSPost2010PropOp46
 70
     1
102
RTVSPost2010Prop47
 90
       50
102
RTVSPost2010PropOp47
 70
     1
102
RTVSPost2010Prop48
 90
       50
102
RTVSPost2010PropOp48
 70
     1
102
RTVSPost2010Prop49
280
     0
102
RTVSPost2010PropOp49
 70
     1
102
RTVSPost2010Prop50
 90
       50
102
RTVSPost2010PropOp50
 70
     1
102
RTVSPost2010Prop51ColorIndex
 90
      256
102
RTVSPost2010Prop51ColorRGB
 90
-16777216
102
RTVSPost2010PropOp51
 70
     0
102
RTVSPost2010Prop52
140
1.0
102
RTVSPost2010PropOp52
 70
     0
102
RTVSPost2010Prop53
 90
        2
102
RTVSPost2010PropOp53
 70
     1
102
RTVSPost2010Prop54
  1
strokes_ogs.tif
102
RTVSPost2010PropOp54
 70
     1
102
RTVSPost2010Prop55
280
     0
102
RTVSPost2010PropOp55
 70
     1
102
RTVSPost2010Prop56
140
1.0
102
RTVSPost2010PropOp56
 70
     1
102
RTVSPost2010Prop57
140
1.0
102
RTVSPost2010PropOp57
 70
     1
102
RTVSPropertyOp0
 70
     1
102
RTVSPropertyOp1
 70
     1
102
RTVSPropertyOp2
 70
     1
102
RTVSPropertyOp3
 70
     1
102
RTVSPropertyOp4
 70
     1
102
RTVSPropertyOp5
 70
     1
102
RTVSPropertyOp6
 70
     1
102
RTVSPropertyOp7
 70
     1
102
RTVSPropertyOp8
 70
     1
102
RTVSPropertyOp9
 70
     1
102
RTVSPropertyOp10
 70
     1
102
RTVSPropertyOp11
 70
     1
102
RTVSPropertyOp12
 70
     1
102
RTVSPropertyOp13
 70
     1
102
RTVSPropertyOp14
 70
     1
102
RTVSPropertyOp15
 70
     1
102
RTVSPropertyOp16
 70
     1
102
RTVSPropertyOp17
 70
     1
102
RTVSPropertyOp18
 70
     1
102
RTVSPropertyOp19
 70
     1
102
RTVSPropertyOp20
 70
     1
102
RTVSPropertyOp21
 70
     1
102
RTVSPropertyOp22
 70
     1
102
RTVSPropertyOp23
 70
     1
102
RTVSPropertyOp24
 70
     1
102
RTVSPropertyOp25
 70
     1
102
RTVSPropertyOp26
 70
     1
102
RTVSPropertyOp27
 70
     1
102
RTVSPropertyOp28
 70
     1
102
RTVSPropertyOp29
 70
     1
102
RTVSPropertyOp30
 70
     1
102
RTVSPropertyOp31
 70
     1
102
RTVSPropertyOp32
 70
     1
102
RTVSPropertyOp33
 70
     1
102
RTVSPropertyOp34
 70
     1
102
RTVSPropertyOp35
 70
     1
102
RTVSPropertyOp36
 70
     1
102
RTVSPropertyOp37
 70
     1
102
RTVSPropertyOp38
 70
     1
102
RTVSPropertyOp39
 70
     1
102
RTVSPropertyOp40
 70
     1
102
RTVSPropertyOp41
 70
     1
102
RTVSPropertyOp42
 70
     1
102
RTVSPropertyOp43
 70
     1
102
RTVSPropertyOp44
 70
     1
102
RTVSPropertyOp45
 70
     1
102
RTVSPropertyOp46
 70
     1
102
RTVSPropertyOp47
 70
     1
102
RTVSPropertyOp48
 70
     1
102
RTVSPropertyOp49
 70
     1
102
RTVSPropertyOp50
 70
     1
102
RTVSPropertyOp51
 70
     0
102
RTVSPropertyOp52
 70
     0
102
RTVSPropertyOp53
 70
     1
102
RTVSPropertyOp54
 70
     1
102
RTVSPropertyOp55
 70
     1
102
RTVSPropertyOp56
 70
     1
102
RTVSPropertyOp57
 70
     1
102
RTVSPropertyOp58
 70
     1
102
RTVSPropertyOp59
 70
     1
102
RTVSPropertyOp60
 70
     1
102
RTVSPropertyOp61
 70
     1
102
RTVSPropertyOp62
 70
     1
  0
XRECORD
  5
C39D
102
{ACAD_REACTORS
330
C39C
102
}
330
C39C
100
AcDbXrecord
280
     1
102
RTVSPost2010Prop28
280
     0
102
RTVSPost2010PropOp28
 70
     1
102
RTVSPost2010Prop29
280
     1
102
RTVSPost2010PropOp29
 70
     1
102
RTVSPost2010Prop30
280
     1
102
RTVSPost2010PropOp30
 70
     1
102
RTVSPost2010Prop31
280
     0
102
RTVSPost2010PropOp31
 70
     1
102
RTVSPost2010Prop32
280
     0
102
RTVSPost2010PropOp32
 70
     1
102
RTVSPost2010Prop33
280
     0
102
RTVSPost2010PropOp33
 70
     1
102
RTVSPost2010Prop34
280
     0
102
RTVSPost2010PropOp34
 70
     1
102
RTVSPost2010Prop35
280
     0
102
RTVSPost2010PropOp35
 70
     1
102
RTVSPost2010Prop36
280
     0
102
RTVSPost2010PropOp36
 70
     1
102
RTVSPost2010Prop37
 90
       50
102
RTVSPost2010PropOp37
 70
     1
102
RTVSPost2010Prop38
140
0.0
102
RTVSPost2010PropOp38
 70
     1
102
RTVSPost2010Prop39
140
1.0
102
RTVSPost2010PropOp39
 70
     1
102
RTVSPost2010Prop40
 90
        0
102
RTVSPost2010PropOp40
 70
     1
102
RTVSPost2010Prop41ColorIndex
 90
       18
102
RTVSPost2010Prop41ColorRGB
 90
        0
102
RTVSPost2010PropOp41
 70
     1
102
RTVSPost2010Prop42
 90
       50
102
RTVSPost2010PropOp42
 70
     1
102
RTVSPost2010Prop43
 90
        3
102
RTVSPost2010PropOp43
 70
     1
102
RTVSPost2010Prop44ColorIndex
 90
        5
102
RTVSPost2010Prop44ColorRGB
 90
      255
102
RTVSPost2010PropOp44
 70
     1
102
RTVSPost2010Prop45
280
     0
102
RTVSPost2010PropOp45
 70
     1
102
RTVSPost2010Prop46
 90
       50
102
RTVSPost2010PropOp46
 70
     1
102
RTVSPost2010Prop47
 90
       50
102
RTVSPost2010PropOp47
 70
     1
102
RTVSPost2010Prop48
 90
       50
102
RTVSPost2010PropOp48
 70
     1
102
RTVSPost2010Prop49
280
     0
102
RTVSPost2010PropOp49
 70
     1
102
RTVSPost2010Prop50
 90
       50
102
RTVSPost2010PropOp50
 70
     1
102
RTVSPost2010Prop51ColorIndex
 90
      256
102
RTVSPost2010Prop51ColorRGB
 90
-16777216
102
RTVSPost2010PropOp51
 70
     0
102
RTVSPost2010Prop52
140
1.0
102
RTVSPost2010PropOp52
 70
     0
102
RTVSPost2010Prop53
 90
        2
102
RTVSPost2010PropOp53
 70
     1
102
RTVSPost2010Prop54
  1
strokes_ogs.tif
102
RTVSPost2010PropOp54
 70
     1
102
RTVSPost2010Prop55
280
     0
102
RTVSPost2010PropOp55
 70
     1
102
RTVSPost2010Prop56
140
1.0
102
RTVSPost2010PropOp56
 70
     1
102
RTVSPost2010Prop57
140
1.0
102
RTVSPost2010PropOp57
 70
     1
102
RTVSPropertyOp0
 70
     1
102
RTVSPropertyOp1
 70
     1
102
RTVSPropertyOp2
 70
     1
102
RTVSPropertyOp3
 70
     1
102
RTVSPropertyOp4
 70
     1
102
RTVSPropertyOp5
 70
     1
102
RTVSPropertyOp6
 70
     1
102
RTVSPropertyOp7
 70
     1
102
RTVSPropertyOp8
 70
     1
102
RTVSPropertyOp9
 70
     1
102
RTVSPropertyOp10
 70
     1
102
RTVSPropertyOp11
 70
     1
102
RTVSPropertyOp12
 70
     1
102
RTVSPropertyOp13
 70
     1
102
RTVSPropertyOp14
 70
     1
102
RTVSPropertyOp15
 70
     1
102
RTVSPropertyOp16
 70
     1
102
RTVSPropertyOp17
 70
     1
102
RTVSPropertyOp18
 70
     1
102
RTVSPropertyOp19
 70
     1
102
RTVSPropertyOp20
 70
     1
102
RTVSPropertyOp21
 70
     1
102
RTVSPropertyOp22
 70
     1
102
RTVSPropertyOp23
 70
     1
102
RTVSPropertyOp24
 70
     1
102
RTVSPropertyOp25
 70
     1
102
RTVSPropertyOp26
 70
     1
102
RTVSPropertyOp27
 70
     1
102
RTVSPropertyOp28
 70
     1
102
RTVSPropertyOp29
 70
     1
102
RTVSPropertyOp30
 70
     1
102
RTVSPropertyOp31
 70
     1
102
RTVSPropertyOp32
 70
     1
102
RTVSPropertyOp33
 70
     1
102
RTVSPropertyOp34
 70
     1
102
RTVSPropertyOp35
 70
     1
102
RTVSPropertyOp36
 70
     1
102
RTVSPropertyOp37
 70
     1
102
RTVSPropertyOp38
 70
     1
102
RTVSPropertyOp39
 70
     1
102
RTVSPropertyOp40
 70
     1
102
RTVSPropertyOp41
 70
     1
102
RTVSPropertyOp42
 70
     1
102
RTVSPropertyOp43
 70
     1
102
RTVSPropertyOp44
 70
     1
102
RTVSPropertyOp45
 70
     1
102
RTVSPropertyOp46
 70
     1
102
RTVSPropertyOp47
 70
     1
102
RTVSPropertyOp48
 70
     1
102
RTVSPropertyOp49
 70
     1
102
RTVSPropertyOp50
 70
     1
102
RTVSPropertyOp51
 70
     0
102
RTVSPropertyOp52
 70
     0
102
RTVSPropertyOp53
 70
     1
102
RTVSPropertyOp54
 70
     1
102
RTVSPropertyOp55
 70
     1
102
RTVSPropertyOp56
 70
     1
102
RTVSPropertyOp57
 70
     1
102
RTVSPropertyOp58
 70
     1
102
RTVSPropertyOp59
 70
     1
102
RTVSPropertyOp60
 70
     1
102
RTVSPropertyOp61
 70
     1
102
RTVSPropertyOp62
 70
     1
  0
XRECORD
  5
C39F
102
{ACAD_REACTORS
330
C39E
102
}
330
C39E
100
AcDbXrecord
280
     1
102
RTVSPost2010Prop28
280
     0
102
RTVSPost2010PropOp28
 70
     1
102
RTVSPost2010Prop29
280
     1
102
RTVSPost2010PropOp29
 70
     1
102
RTVSPost2010Prop30
280
     1
102
RTVSPost2010PropOp30
 70
     1
102
RTVSPost2010Prop31
280
     0
102
RTVSPost2010PropOp31
 70
     1
102
RTVSPost2010Prop32
280
     0
102
RTVSPost2010PropOp32
 70
     1
102
RTVSPost2010Prop33
280
     0
102
RTVSPost2010PropOp33
 70
     1
102
RTVSPost2010Prop34
280
     0
102
RTVSPost2010PropOp34
 70
     1
102
RTVSPost2010Prop35
280
     0
102
RTVSPost2010PropOp35
 70
     1
102
RTVSPost2010Prop36
280
     0
102
RTVSPost2010PropOp36
 70
     1
102
RTVSPost2010Prop37
 90
       50
102
RTVSPost2010PropOp37
 70
     1
102
RTVSPost2010Prop38
140
0.0
102
RTVSPost2010PropOp38
 70
     1
102
RTVSPost2010Prop39
140
1.0
102
RTVSPost2010PropOp39
 70
     1
102
RTVSPost2010Prop40
 90
        0
102
RTVSPost2010PropOp40
 70
     1
102
RTVSPost2010Prop41ColorIndex
 90
       18
102
RTVSPost2010Prop41ColorRGB
 90
        0
102
RTVSPost2010PropOp41
 70
     1
102
RTVSPost2010Prop42
 90
       50
102
RTVSPost2010PropOp42
 70
     1
102
RTVSPost2010Prop43
 90
        3
102
RTVSPost2010PropOp43
 70
     1
102
RTVSPost2010Prop44ColorIndex
 90
        5
102
RTVSPost2010Prop44ColorRGB
 90
      255
102
RTVSPost2010PropOp44
 70
     1
102
RTVSPost2010Prop45
280
     0
102
RTVSPost2010PropOp45
 70
     1
102
RTVSPost2010Prop46
 90
       50
102
RTVSPost2010PropOp46
 70
     1
102
RTVSPost2010Prop47
 90
       50
102
RTVSPost2010PropOp47
 70
     1
102
RTVSPost2010Prop48
 90
       50
102
RTVSPost2010PropOp48
 70
     1
102
RTVSPost2010Prop49
280
     0
102
RTVSPost2010PropOp49
 70
     1
102
RTVSPost2010Prop50
 90
       50
102
RTVSPost2010PropOp50
 70
     1
102
RTVSPost2010Prop51ColorIndex
 90
      256
102
RTVSPost2010Prop51ColorRGB
 90
-16777216
102
RTVSPost2010PropOp51
 70
     0
102
RTVSPost2010Prop52
140
1.0
102
RTVSPost2010PropOp52
 70
     0
102
RTVSPost2010Prop53
 90
        2
102
RTVSPost2010PropOp53
 70
     1
102
RTVSPost2010Prop54
  1
strokes_ogs.tif
102
RTVSPost2010PropOp54
 70
     1
102
RTVSPost2010Prop55
280
     0
102
RTVSPost2010PropOp55
 70
     1
102
RTVSPost2010Prop56
140
1.0
102
RTVSPost2010PropOp56
 70
     1
102
RTVSPost2010Prop57
140
1.0
102
RTVSPost2010PropOp57
 70
     1
102
RTVSPropertyOp0
 70
     1
102
RTVSPropertyOp1
 70
     1
102
RTVSPropertyOp2
 70
     1
102
RTVSPropertyOp3
 70
     1
102
RTVSPropertyOp4
 70
     1
102
RTVSPropertyOp5
 70
     1
102
RTVSPropertyOp6
 70
     1
102
RTVSPropertyOp7
 70
     1
102
RTVSPropertyOp8
 70
     1
102
RTVSPropertyOp9
 70
     1
102
RTVSPropertyOp10
 70
     1
102
RTVSPropertyOp11
 70
     1
102
RTVSPropertyOp12
 70
     1
102
RTVSPropertyOp13
 70
     1
102
RTVSPropertyOp14
 70
     1
102
RTVSPropertyOp15
 70
     1
102
RTVSPropertyOp16
 70
     1
102
RTVSPropertyOp17
 70
     1
102
RTVSPropertyOp18
 70
     1
102
RTVSPropertyOp19
 70
     1
102
RTVSPropertyOp20
 70
     1
102
RTVSPropertyOp21
 70
     1
102
RTVSPropertyOp22
 70
     1
102
RTVSPropertyOp23
 70
     1
102
RTVSPropertyOp24
 70
     1
102
RTVSPropertyOp25
 70
     1
102
RTVSPropertyOp26
 70
     1
102
RTVSPropertyOp27
 70
     1
102
RTVSPropertyOp28
 70
     1
102
RTVSPropertyOp29
 70
     1
102
RTVSPropertyOp30
 70
     1
102
RTVSPropertyOp31
 70
     1
102
RTVSPropertyOp32
 70
     1
102
RTVSPropertyOp33
 70
     1
102
RTVSPropertyOp34
 70
     1
102
RTVSPropertyOp35
 70
     1
102
RTVSPropertyOp36
 70
     1
102
RTVSPropertyOp37
 70
     1
102
RTVSPropertyOp38
 70
     1
102
RTVSPropertyOp39
 70
     1
102
RTVSPropertyOp40
 70
     1
102
RTVSPropertyOp41
 70
     1
102
RTVSPropertyOp42
 70
     1
102
RTVSPropertyOp43
 70
     1
102
RTVSPropertyOp44
 70
     1
102
RTVSPropertyOp45
 70
     1
102
RTVSPropertyOp46
 70
     1
102
RTVSPropertyOp47
 70
     1
102
RTVSPropertyOp48
 70
     1
102
RTVSPropertyOp49
 70
     1
102
RTVSPropertyOp50
 70
     1
102
RTVSPropertyOp51
 70
     0
102
RTVSPropertyOp52
 70
     0
102
RTVSPropertyOp53
 70
     1
102
RTVSPropertyOp54
 70
     1
102
RTVSPropertyOp55
 70
     1
102
RTVSPropertyOp56
 70
     1
102
RTVSPropertyOp57
 70
     1
102
RTVSPropertyOp58
 70
     1
102
RTVSPropertyOp59
 70
     1
102
RTVSPropertyOp60
 70
     1
102
RTVSPropertyOp61
 70
     1
102
RTVSPropertyOp62
 70
     1
  0
XRECORD
  5
C3A7
102
{ACAD_REACTORS
330
C3A6
102
}
330
C3A6
100
AcDbXrecord
280
     1
102
RTVSPost2010Prop28
280
     0
102
RTVSPost2010PropOp28
 70
     1
102
RTVSPost2010Prop29
280
     1
102
RTVSPost2010PropOp29
 70
     1
102
RTVSPost2010Prop30
280
     1
102
RTVSPost2010PropOp30
 70
     1
102
RTVSPost2010Prop31
280
     0
102
RTVSPost2010PropOp31
 70
     1
102
RTVSPost2010Prop32
280
     0
102
RTVSPost2010PropOp32
 70
     1
102
RTVSPost2010Prop33
280
     0
102
RTVSPost2010PropOp33
 70
     1
102
RTVSPost2010Prop34
280
     0
102
RTVSPost2010PropOp34
 70
     1
102
RTVSPost2010Prop35
280
     0
102
RTVSPost2010PropOp35
 70
     1
102
RTVSPost2010Prop36
280
     0
102
RTVSPost2010PropOp36
 70
     1
102
RTVSPost2010Prop37
 90
       50
102
RTVSPost2010PropOp37
 70
     1
102
RTVSPost2010Prop38
140
0.0
102
RTVSPost2010PropOp38
 70
     1
102
RTVSPost2010Prop39
140
1.0
102
RTVSPost2010PropOp39
 70
     1
102
RTVSPost2010Prop40
 90
        0
102
RTVSPost2010PropOp40
 70
     1
102
RTVSPost2010Prop41ColorIndex
 90
       18
102
RTVSPost2010Prop41ColorRGB
 90
        0
102
RTVSPost2010PropOp41
 70
     1
102
RTVSPost2010Prop42
 90
       50
102
RTVSPost2010PropOp42
 70
     1
102
RTVSPost2010Prop43
 90
        3
102
RTVSPost2010PropOp43
 70
     1
102
RTVSPost2010Prop44ColorIndex
 90
        5
102
RTVSPost2010Prop44ColorRGB
 90
      255
102
RTVSPost2010PropOp44
 70
     1
102
RTVSPost2010Prop45
280
     0
102
RTVSPost2010PropOp45
 70
     1
102
RTVSPost2010Prop46
 90
       50
102
RTVSPost2010PropOp46
 70
     1
102
RTVSPost2010Prop47
 90
       50
102
RTVSPost2010PropOp47
 70
     1
102
RTVSPost2010Prop48
 90
       50
102
RTVSPost2010PropOp48
 70
     1
102
RTVSPost2010Prop49
280
     0
102
RTVSPost2010PropOp49
 70
     1
102
RTVSPost2010Prop50
 90
       50
102
RTVSPost2010PropOp50
 70
     1
102
RTVSPost2010Prop51ColorIndex
 90
      256
102
RTVSPost2010Prop51ColorRGB
 90
-16777216
102
RTVSPost2010PropOp51
 70
     0
102
RTVSPost2010Prop52
140
1.0
102
RTVSPost2010PropOp52
 70
     0
102
RTVSPost2010Prop53
 90
        2
102
RTVSPost2010PropOp53
 70
     1
102
RTVSPost2010Prop54
  1
strokes_ogs.tif
102
RTVSPost2010PropOp54
 70
     1
102
RTVSPost2010Prop55
280
     0
102
RTVSPost2010PropOp55
 70
     1
102
RTVSPost2010Prop56
140
1.0
102
RTVSPost2010PropOp56
 70
     1
102
RTVSPost2010Prop57
140
1.0
102
RTVSPost2010PropOp57
 70
     1
102
RTVSPropertyOp0
 70
     1
102
RTVSPropertyOp1
 70
     1
102
RTVSPropertyOp2
 70
     1
102
RTVSPropertyOp3
 70
     1
102
RTVSPropertyOp4
 70
     1
102
RTVSPropertyOp5
 70
     1
102
RTVSPropertyOp6
 70
     1
102
RTVSPropertyOp7
 70
     1
102
RTVSPropertyOp8
 70
     1
102
RTVSPropertyOp9
 70
     1
102
RTVSPropertyOp10
 70
     1
102
RTVSPropertyOp11
 70
     1
102
RTVSPropertyOp12
 70
     1
102
RTVSPropertyOp13
 70
     1
102
RTVSPropertyOp14
 70
     1
102
RTVSPropertyOp15
 70
     1
102
RTVSPropertyOp16
 70
     1
102
RTVSPropertyOp17
 70
     1
102
RTVSPropertyOp18
 70
     1
102
RTVSPropertyOp19
 70
     1
102
RTVSPropertyOp20
 70
     1
102
RTVSPropertyOp21
 70
     1
102
RTVSPropertyOp22
 70
     1
102
RTVSPropertyOp23
 70
     1
102
RTVSPropertyOp24
 70
     1
102
RTVSPropertyOp25
 70
     1
102
RTVSPropertyOp26
 70
     1
102
RTVSPropertyOp27
 70
     1
102
RTVSPropertyOp28
 70
     1
102
RTVSPropertyOp29
 70
     1
102
RTVSPropertyOp30
 70
     1
102
RTVSPropertyOp31
 70
     1
102
RTVSPropertyOp32
 70
     1
102
RTVSPropertyOp33
 70
     1
102
RTVSPropertyOp34
 70
     1
102
RTVSPropertyOp35
 70
     1
102
RTVSPropertyOp36
 70
     1
102
RTVSPropertyOp37
 70
     1
102
RTVSPropertyOp38
 70
     1
102
RTVSPropertyOp39
 70
     1
102
RTVSPropertyOp40
 70
     1
102
RTVSPropertyOp41
 70
     1
102
RTVSPropertyOp42
 70
     1
102
RTVSPropertyOp43
 70
     1
102
RTVSPropertyOp44
 70
     1
102
RTVSPropertyOp45
 70
     1
102
RTVSPropertyOp46
 70
     1
102
RTVSPropertyOp47
 70
     1
102
RTVSPropertyOp48
 70
     1
102
RTVSPropertyOp49
 70
     1
102
RTVSPropertyOp50
 70
     1
102
RTVSPropertyOp51
 70
     0
102
RTVSPropertyOp52
 70
     0
102
RTVSPropertyOp53
 70
     1
102
RTVSPropertyOp54
 70
     1
102
RTVSPropertyOp55
 70
     1
102
RTVSPropertyOp56
 70
     1
102
RTVSPropertyOp57
 70
     1
102
RTVSPropertyOp58
 70
     1
102
RTVSPropertyOp59
 70
     1
102
RTVSPropertyOp60
 70
     1
102
RTVSPropertyOp61
 70
     1
102
RTVSPropertyOp62
 70
     1
  0
XRECORD
  5
C3C3
102
{ACAD_REACTORS
330
C3C2
102
}
330
C3C2
100
AcDbXrecord
280
     1
102
RTVSPost2010Prop28
280
     0
102
RTVSPost2010PropOp28
 70
     1
102
RTVSPost2010Prop29
280
     1
102
RTVSPost2010PropOp29
 70
     1
102
RTVSPost2010Prop30
280
     1
102
RTVSPost2010PropOp30
 70
     1
102
RTVSPost2010Prop31
280
     0
102
RTVSPost2010PropOp31
 70
     1
102
RTVSPost2010Prop32
280
     0
102
RTVSPost2010PropOp32
 70
     1
102
RTVSPost2010Prop33
280
     0
102
RTVSPost2010PropOp33
 70
     1
102
RTVSPost2010Prop34
280
     0
102
RTVSPost2010PropOp34
 70
     1
102
RTVSPost2010Prop35
280
     0
102
RTVSPost2010PropOp35
 70
     1
102
RTVSPost2010Prop36
280
     0
102
RTVSPost2010PropOp36
 70
     1
102
RTVSPost2010Prop37
 90
       50
102
RTVSPost2010PropOp37
 70
     0
102
RTVSPost2010Prop38
140
0.0
102
RTVSPost2010PropOp38
 70
     0
102
RTVSPost2010Prop39
140
1.0
102
RTVSPost2010PropOp39
 70
     0
102
RTVSPost2010Prop40
 90
        0
102
RTVSPost2010PropOp40
 70
     0
102
RTVSPost2010Prop41ColorIndex
 90
       18
102
RTVSPost2010Prop41ColorRGB
 90
        0
102
RTVSPost2010PropOp41
 70
     0
102
RTVSPost2010Prop42
 90
       50
102
RTVSPost2010PropOp42
 70
     0
102
RTVSPost2010Prop43
 90
        3
102
RTVSPost2010PropOp43
 70
     0
102
RTVSPost2010Prop44ColorIndex
 90
        5
102
RTVSPost2010Prop44ColorRGB
 90
      255
102
RTVSPost2010PropOp44
 70
     0
102
RTVSPost2010Prop45
280
     0
102
RTVSPost2010PropOp45
 70
     1
102
RTVSPost2010Prop46
 90
       50
102
RTVSPost2010PropOp46
 70
     0
102
RTVSPost2010Prop47
 90
       50
102
RTVSPost2010PropOp47
 70
     0
102
RTVSPost2010Prop48
 90
       50
102
RTVSPost2010PropOp48
 70
     0
102
RTVSPost2010Prop49
280
     0
102
RTVSPost2010PropOp49
 70
     1
102
RTVSPost2010Prop50
 90
       50
102
RTVSPost2010PropOp50
 70
     0
102
RTVSPost2010Prop51ColorIndex
 90
      256
102
RTVSPost2010Prop51ColorRGB
 90
-16777216
102
RTVSPost2010PropOp51
 70
     0
102
RTVSPost2010Prop52
140
1.0
102
RTVSPost2010PropOp52
 70
     0
102
RTVSPost2010Prop53
 90
        2
102
RTVSPost2010PropOp53
 70
     0
102
RTVSPost2010Prop54
  1
strokes_ogs.tif
102
RTVSPost2010PropOp54
 70
     0
102
RTVSPost2010Prop55
280
     0
102
RTVSPost2010PropOp55
 70
     1
102
RTVSPost2010Prop56
140
1.0
102
RTVSPost2010PropOp56
 70
     0
102
RTVSPost2010Prop57
140
1.0
102
RTVSPost2010PropOp57
 70
     0
102
RTVSPropertyOp0
 70
     0
102
RTVSPropertyOp1
 70
     0
102
RTVSPropertyOp2
 70
     0
102
RTVSPropertyOp3
 70
     0
102
RTVSPropertyOp4
 70
     0
102
RTVSPropertyOp5
 70
     0
102
RTVSPropertyOp6
 70
     0
102
RTVSPropertyOp7
 70
     0
102
RTVSPropertyOp8
 70
     0
102
RTVSPropertyOp9
 70
     0
102
RTVSPropertyOp10
 70
     0
102
RTVSPropertyOp11
 70
     0
102
RTVSPropertyOp12
 70
     0
102
RTVSPropertyOp13
 70
     0
102
RTVSPropertyOp14
 70
     2
102
RTVSPropertyOp15
 70
     0
102
RTVSPropertyOp16
 70
     0
102
RTVSPropertyOp17
 70
     0
102
RTVSPropertyOp18
 70
     0
102
RTVSPropertyOp19
 70
     0
102
RTVSPropertyOp20
 70
     0
102
RTVSPropertyOp21
 70
     0
102
RTVSPropertyOp22
 70
     0
102
RTVSPropertyOp23
 70
     0
102
RTVSPropertyOp24
 70
     0
102
RTVSPropertyOp25
 70
     0
102
RTVSPropertyOp26
 70
     0
102
RTVSPropertyOp27
 70
     0
102
RTVSPropertyOp28
 70
     1
102
RTVSPropertyOp29
 70
     1
102
RTVSPropertyOp30
 70
     1
102
RTVSPropertyOp31
 70
     1
102
RTVSPropertyOp32
 70
     1
102
RTVSPropertyOp33
 70
     1
102
RTVSPropertyOp34
 70
     1
102
RTVSPropertyOp35
 70
     1
102
RTVSPropertyOp36
 70
     1
102
RTVSPropertyOp37
 70
     0
102
RTVSPropertyOp38
 70
     0
102
RTVSPropertyOp39
 70
     0
102
RTVSPropertyOp40
 70
     0
102
RTVSPropertyOp41
 70
     0
102
RTVSPropertyOp42
 70
     0
102
RTVSPropertyOp43
 70
     0
102
RTVSPropertyOp44
 70
     0
102
RTVSPropertyOp45
 70
     1
102
RTVSPropertyOp46
 70
     0
102
RTVSPropertyOp47
 70
     0
102
RTVSPropertyOp48
 70
     0
102
RTVSPropertyOp49
 70
     1
102
RTVSPropertyOp50
 70
     0
102
RTVSPropertyOp51
 70
     0
102
RTVSPropertyOp52
 70
     0
102
RTVSPropertyOp53
 70
     0
102
RTVSPropertyOp54
 70
     0
102
RTVSPropertyOp55
 70
     1
102
RTVSPropertyOp56
 70
     0
102
RTVSPropertyOp57
 70
     0
102
RTVSPropertyOp58
 70
     0
102
RTVSPropertyOp59
 70
     0
102
RTVSPropertyOp60
 70
     0
102
RTVSPropertyOp61
 70
     0
102
RTVSPropertyOp62
 70
     0
  0
XRECORD
  5
C3B3
102
{ACAD_REACTORS
330
C3B2
102
}
330
C3B2
100
AcDbXrecord
280
     1
102
RTVSPost2010Prop28
280
     0
102
RTVSPost2010PropOp28
 70
     1
102
RTVSPost2010Prop29
280
     1
102
RTVSPost2010PropOp29
 70
     1
102
RTVSPost2010Prop30
280
     1
102
RTVSPost2010PropOp30
 70
     1
102
RTVSPost2010Prop31
280
     0
102
RTVSPost2010PropOp31
 70
     1
102
RTVSPost2010Prop32
280
     0
102
RTVSPost2010PropOp32
 70
     1
102
RTVSPost2010Prop33
280
     0
102
RTVSPost2010PropOp33
 70
     1
102
RTVSPost2010Prop34
280
     0
102
RTVSPost2010PropOp34
 70
     1
102
RTVSPost2010Prop35
280
     0
102
RTVSPost2010PropOp35
 70
     1
102
RTVSPost2010Prop36
280
     0
102
RTVSPost2010PropOp36
 70
     1
102
RTVSPost2010Prop37
 90
       50
102
RTVSPost2010PropOp37
 70
     1
102
RTVSPost2010Prop38
140
0.0
102
RTVSPost2010PropOp38
 70
     1
102
RTVSPost2010Prop39
140
1.0
102
RTVSPost2010PropOp39
 70
     1
102
RTVSPost2010Prop40
 90
        0
102
RTVSPost2010PropOp40
 70
     1
102
RTVSPost2010Prop41ColorIndex
 90
       18
102
RTVSPost2010Prop41ColorRGB
 90
        0
102
RTVSPost2010PropOp41
 70
     1
102
RTVSPost2010Prop42
 90
       50
102
RTVSPost2010PropOp42
 70
     1
102
RTVSPost2010Prop43
 90
        3
102
RTVSPost2010PropOp43
 70
     1
102
RTVSPost2010Prop44ColorIndex
 90
        5
102
RTVSPost2010Prop44ColorRGB
 90
      255
102
RTVSPost2010PropOp44
 70
     1
102
RTVSPost2010Prop45
280
     0
102
RTVSPost2010PropOp45
 70
     1
102
RTVSPost2010Prop46
 90
       50
102
RTVSPost2010PropOp46
 70
     1
102
RTVSPost2010Prop47
 90
       50
102
RTVSPost2010PropOp47
 70
     1
102
RTVSPost2010Prop48
 90
       50
102
RTVSPost2010PropOp48
 70
     1
102
RTVSPost2010Prop49
280
     0
102
RTVSPost2010PropOp49
 70
     1
102
RTVSPost2010Prop50
 90
       50
102
RTVSPost2010PropOp50
 70
     1
102
RTVSPost2010Prop51ColorIndex
 90
      256
102
RTVSPost2010Prop51ColorRGB
 90
-16777216
102
RTVSPost2010PropOp51
 70
     0
102
RTVSPost2010Prop52
140
1.0
102
RTVSPost2010PropOp52
 70
     0
102
RTVSPost2010Prop53
 90
        2
102
RTVSPost2010PropOp53
 70
     1
102
RTVSPost2010Prop54
  1
strokes_ogs.tif
102
RTVSPost2010PropOp54
 70
     1
102
RTVSPost2010Prop55
280
     0
102
RTVSPost2010PropOp55
 70
     1
102
RTVSPost2010Prop56
140
1.0
102
RTVSPost2010PropOp56
 70
     1
102
RTVSPost2010Prop57
140
1.0
102
RTVSPost2010PropOp57
 70
     1
102
RTVSPropertyOp0
 70
     1
102
RTVSPropertyOp1
 70
     1
102
RTVSPropertyOp2
 70
     1
102
RTVSPropertyOp3
 70
     1
102
RTVSPropertyOp4
 70
     1
102
RTVSPropertyOp5
 70
     1
102
RTVSPropertyOp6
 70
     1
102
RTVSPropertyOp7
 70
     1
102
RTVSPropertyOp8
 70
     1
102
RTVSPropertyOp9
 70
     1
102
RTVSPropertyOp10
 70
     1
102
RTVSPropertyOp11
 70
     1
102
RTVSPropertyOp12
 70
     1
102
RTVSPropertyOp13
 70
     1
102
RTVSPropertyOp14
 70
     1
102
RTVSPropertyOp15
 70
     1
102
RTVSPropertyOp16
 70
     1
102
RTVSPropertyOp17
 70
     1
102
RTVSPropertyOp18
 70
     1
102
RTVSPropertyOp19
 70
     1
102
RTVSPropertyOp20
 70
     1
102
RTVSPropertyOp21
 70
     1
102
RTVSPropertyOp22
 70
     1
102
RTVSPropertyOp23
 70
     1
102
RTVSPropertyOp24
 70
     1
102
RTVSPropertyOp25
 70
     1
102
RTVSPropertyOp26
 70
     1
102
RTVSPropertyOp27
 70
     1
102
RTVSPropertyOp28
 70
     1
102
RTVSPropertyOp29
 70
     1
102
RTVSPropertyOp30
 70
     1
102
RTVSPropertyOp31
 70
     1
102
RTVSPropertyOp32
 70
     1
102
RTVSPropertyOp33
 70
     1
102
RTVSPropertyOp34
 70
     1
102
RTVSPropertyOp35
 70
     1
102
RTVSPropertyOp36
 70
     1
102
RTVSPropertyOp37
 70
     1
102
RTVSPropertyOp38
 70
     1
102
RTVSPropertyOp39
 70
     1
102
RTVSPropertyOp40
 70
     1
102
RTVSPropertyOp41
 70
     1
102
RTVSPropertyOp42
 70
     1
102
RTVSPropertyOp43
 70
     1
102
RTVSPropertyOp44
 70
     1
102
RTVSPropertyOp45
 70
     1
102
RTVSPropertyOp46
 70
     1
102
RTVSPropertyOp47
 70
     1
102
RTVSPropertyOp48
 70
     1
102
RTVSPropertyOp49
 70
     1
102
RTVSPropertyOp50
 70
     1
102
RTVSPropertyOp51
 70
     0
102
RTVSPropertyOp52
 70
     0
102
RTVSPropertyOp53
 70
     1
102
RTVSPropertyOp54
 70
     1
102
RTVSPropertyOp55
 70
     1
102
RTVSPropertyOp56
 70
     1
102
RTVSPropertyOp57
 70
     1
102
RTVSPropertyOp58
 70
     1
102
RTVSPropertyOp59
 70
     1
102
RTVSPropertyOp60
 70
     1
102
RTVSPropertyOp61
 70
     1
102
RTVSPropertyOp62
 70
     1
  0
XRECORD
  5
C3C5
102
{ACAD_REACTORS
330
C3C4
102
}
330
C3C4
100
AcDbXrecord
280
     1
102
RTVSPost2010Prop28
280
     0
102
RTVSPost2010PropOp28
 70
     1
102
RTVSPost2010Prop29
280
     1
102
RTVSPost2010PropOp29
 70
     1
102
RTVSPost2010Prop30
280
     1
102
RTVSPost2010PropOp30
 70
     1
102
RTVSPost2010Prop31
280
     0
102
RTVSPost2010PropOp31
 70
     1
102
RTVSPost2010Prop32
280
     0
102
RTVSPost2010PropOp32
 70
     1
102
RTVSPost2010Prop33
280
     0
102
RTVSPost2010PropOp33
 70
     1
102
RTVSPost2010Prop34
280
     0
102
RTVSPost2010PropOp34
 70
     1
102
RTVSPost2010Prop35
280
     0
102
RTVSPost2010PropOp35
 70
     1
102
RTVSPost2010Prop36
280
     0
102
RTVSPost2010PropOp36
 70
     1
102
RTVSPost2010Prop37
 90
       50
102
RTVSPost2010PropOp37
 70
     0
102
RTVSPost2010Prop38
140
0.0
102
RTVSPost2010PropOp38
 70
     0
102
RTVSPost2010Prop39
140
1.0
102
RTVSPost2010PropOp39
 70
     0
102
RTVSPost2010Prop40
 90
        0
102
RTVSPost2010PropOp40
 70
     0
102
RTVSPost2010Prop41ColorIndex
 90
       18
102
RTVSPost2010Prop41ColorRGB
 90
        0
102
RTVSPost2010PropOp41
 70
     0
102
RTVSPost2010Prop42
 90
       50
102
RTVSPost2010PropOp42
 70
     0
102
RTVSPost2010Prop43
 90
        3
102
RTVSPost2010PropOp43
 70
     0
102
RTVSPost2010Prop44ColorIndex
 90
        5
102
RTVSPost2010Prop44ColorRGB
 90
      255
102
RTVSPost2010PropOp44
 70
     0
102
RTVSPost2010Prop45
280
     0
102
RTVSPost2010PropOp45
 70
     1
102
RTVSPost2010Prop46
 90
       50
102
RTVSPost2010PropOp46
 70
     0
102
RTVSPost2010Prop47
 90
       50
102
RTVSPost2010PropOp47
 70
     0
102
RTVSPost2010Prop48
 90
       50
102
RTVSPost2010PropOp48
 70
     0
102
RTVSPost2010Prop49
280
     0
102
RTVSPost2010PropOp49
 70
     1
102
RTVSPost2010Prop50
 90
       50
102
RTVSPost2010PropOp50
 70
     0
102
RTVSPost2010Prop51ColorIndex
 90
      256
102
RTVSPost2010Prop51ColorRGB
 90
-16777216
102
RTVSPost2010PropOp51
 70
     0
102
RTVSPost2010Prop52
140
1.0
102
RTVSPost2010PropOp52
 70
     0
102
RTVSPost2010Prop53
 90
        2
102
RTVSPost2010PropOp53
 70
     0
102
RTVSPost2010Prop54
  1
strokes_ogs.tif
102
RTVSPost2010PropOp54
 70
     0
102
RTVSPost2010Prop55
280
     0
102
RTVSPost2010PropOp55
 70
     1
102
RTVSPost2010Prop56
140
1.0
102
RTVSPost2010PropOp56
 70
     0
102
RTVSPost2010Prop57
140
1.0
102
RTVSPost2010PropOp57
 70
     0
102
RTVSPropertyOp0
 70
     0
102
RTVSPropertyOp1
 70
     0
102
RTVSPropertyOp2
 70
     0
102
RTVSPropertyOp3
 70
     0
102
RTVSPropertyOp4
 70
     0
102
RTVSPropertyOp5
 70
     0
102
RTVSPropertyOp6
 70
     0
102
RTVSPropertyOp7
 70
     0
102
RTVSPropertyOp8
 70
     0
102
RTVSPropertyOp9
 70
     0
102
RTVSPropertyOp10
 70
     0
102
RTVSPropertyOp11
 70
     0
102
RTVSPropertyOp12
 70
     0
102
RTVSPropertyOp13
 70
     0
102
RTVSPropertyOp14
 70
     2
102
RTVSPropertyOp15
 70
     0
102
RTVSPropertyOp16
 70
     0
102
RTVSPropertyOp17
 70
     0
102
RTVSPropertyOp18
 70
     0
102
RTVSPropertyOp19
 70
     0
102
RTVSPropertyOp20
 70
     0
102
RTVSPropertyOp21
 70
     0
102
RTVSPropertyOp22
 70
     0
102
RTVSPropertyOp23
 70
     0
102
RTVSPropertyOp24
 70
     0
102
RTVSPropertyOp25
 70
     0
102
RTVSPropertyOp26
 70
     0
102
RTVSPropertyOp27
 70
     0
102
RTVSPropertyOp28
 70
     1
102
RTVSPropertyOp29
 70
     1
102
RTVSPropertyOp30
 70
     1
102
RTVSPropertyOp31
 70
     1
102
RTVSPropertyOp32
 70
     1
102
RTVSPropertyOp33
 70
     1
102
RTVSPropertyOp34
 70
     1
102
RTVSPropertyOp35
 70
     1
102
RTVSPropertyOp36
 70
     1
102
RTVSPropertyOp37
 70
     0
102
RTVSPropertyOp38
 70
     0
102
RTVSPropertyOp39
 70
     0
102
RTVSPropertyOp40
 70
     0
102
RTVSPropertyOp41
 70
     0
102
RTVSPropertyOp42
 70
     0
102
RTVSPropertyOp43
 70
     0
102
RTVSPropertyOp44
 70
     0
102
RTVSPropertyOp45
 70
     1
102
RTVSPropertyOp46
 70
     0
102
RTVSPropertyOp47
 70
     0
102
RTVSPropertyOp48
 70
     0
102
RTVSPropertyOp49
 70
     1
102
RTVSPropertyOp50
 70
     0
102
RTVSPropertyOp51
 70
     0
102
RTVSPropertyOp52
 70
     0
102
RTVSPropertyOp53
 70
     0
102
RTVSPropertyOp54
 70
     0
102
RTVSPropertyOp55
 70
     1
102
RTVSPropertyOp56
 70
     0
102
RTVSPropertyOp57
 70
     0
102
RTVSPropertyOp58
 70
     0
102
RTVSPropertyOp59
 70
     0
102
RTVSPropertyOp60
 70
     0
102
RTVSPropertyOp61
 70
     0
102
RTVSPropertyOp62
 70
     0
  0
XRECORD
  5
C3AB
102
{ACAD_REACTORS
330
C3AA
102
}
330
C3AA
100
AcDbXrecord
280
     1
102
RTVSPost2010Prop28
280
     0
102
RTVSPost2010PropOp28
 70
     1
102
RTVSPost2010Prop29
280
     1
102
RTVSPost2010PropOp29
 70
     1
102
RTVSPost2010Prop30
280
     1
102
RTVSPost2010PropOp30
 70
     1
102
RTVSPost2010Prop31
280
     0
102
RTVSPost2010PropOp31
 70
     1
102
RTVSPost2010Prop32
280
     0
102
RTVSPost2010PropOp32
 70
     1
102
RTVSPost2010Prop33
280
     0
102
RTVSPost2010PropOp33
 70
     1
102
RTVSPost2010Prop34
280
     0
102
RTVSPost2010PropOp34
 70
     1
102
RTVSPost2010Prop35
280
     0
102
RTVSPost2010PropOp35
 70
     1
102
RTVSPost2010Prop36
280
     0
102
RTVSPost2010PropOp36
 70
     1
102
RTVSPost2010Prop37
 90
       50
102
RTVSPost2010PropOp37
 70
     1
102
RTVSPost2010Prop38
140
0.0
102
RTVSPost2010PropOp38
 70
     1
102
RTVSPost2010Prop39
140
1.0
102
RTVSPost2010PropOp39
 70
     1
102
RTVSPost2010Prop40
 90
        0
102
RTVSPost2010PropOp40
 70
     1
102
RTVSPost2010Prop41ColorIndex
 90
       18
102
RTVSPost2010Prop41ColorRGB
 90
        0
102
RTVSPost2010PropOp41
 70
     1
102
RTVSPost2010Prop42
 90
       50
102
RTVSPost2010PropOp42
 70
     1
102
RTVSPost2010Prop43
 90
        3
102
RTVSPost2010PropOp43
 70
     1
102
RTVSPost2010Prop44ColorIndex
 90
        5
102
RTVSPost2010Prop44ColorRGB
 90
      255
102
RTVSPost2010PropOp44
 70
     1
102
RTVSPost2010Prop45
280
     0
102
RTVSPost2010PropOp45
 70
     1
102
RTVSPost2010Prop46
 90
       50
102
RTVSPost2010PropOp46
 70
     1
102
RTVSPost2010Prop47
 90
       50
102
RTVSPost2010PropOp47
 70
     1
102
RTVSPost2010Prop48
 90
       50
102
RTVSPost2010PropOp48
 70
     1
102
RTVSPost2010Prop49
280
     0
102
RTVSPost2010PropOp49
 70
     1
102
RTVSPost2010Prop50
 90
       50
102
RTVSPost2010PropOp50
 70
     1
102
RTVSPost2010Prop51ColorIndex
 90
      256
102
RTVSPost2010Prop51ColorRGB
 90
-16777216
102
RTVSPost2010PropOp51
 70
     0
102
RTVSPost2010Prop52
140
1.0
102
RTVSPost2010PropOp52
 70
     0
102
RTVSPost2010Prop53
 90
        2
102
RTVSPost2010PropOp53
 70
     1
102
RTVSPost2010Prop54
  1
strokes_ogs.tif
102
RTVSPost2010PropOp54
 70
     1
102
RTVSPost2010Prop55
280
     0
102
RTVSPost2010PropOp55
 70
     1
102
RTVSPost2010Prop56
140
1.0
102
RTVSPost2010PropOp56
 70
     1
102
RTVSPost2010Prop57
140
1.0
102
RTVSPost2010PropOp57
 70
     1
102
RTVSPropertyOp0
 70
     1
102
RTVSPropertyOp1
 70
     1
102
RTVSPropertyOp2
 70
     1
102
RTVSPropertyOp3
 70
     1
102
RTVSPropertyOp4
 70
     1
102
RTVSPropertyOp5
 70
     1
102
RTVSPropertyOp6
 70
     1
102
RTVSPropertyOp7
 70
     1
102
RTVSPropertyOp8
 70
     1
102
RTVSPropertyOp9
 70
     1
102
RTVSPropertyOp10
 70
     1
102
RTVSPropertyOp11
 70
     1
102
RTVSPropertyOp12
 70
     1
102
RTVSPropertyOp13
 70
     1
102
RTVSPropertyOp14
 70
     1
102
RTVSPropertyOp15
 70
     1
102
RTVSPropertyOp16
 70
     1
102
RTVSPropertyOp17
 70
     1
102
RTVSPropertyOp18
 70
     1
102
RTVSPropertyOp19
 70
     1
102
RTVSPropertyOp20
 70
     1
102
RTVSPropertyOp21
 70
     1
102
RTVSPropertyOp22
 70
     1
102
RTVSPropertyOp23
 70
     1
102
RTVSPropertyOp24
 70
     1
102
RTVSPropertyOp25
 70
     1
102
RTVSPropertyOp26
 70
     1
102
RTVSPropertyOp27
 70
     1
102
RTVSPropertyOp28
 70
     1
102
RTVSPropertyOp29
 70
     1
102
RTVSPropertyOp30
 70
     1
102
RTVSPropertyOp31
 70
     1
102
RTVSPropertyOp32
 70
     1
102
RTVSPropertyOp33
 70
     1
102
RTVSPropertyOp34
 70
     1
102
RTVSPropertyOp35
 70
     1
102
RTVSPropertyOp36
 70
     1
102
RTVSPropertyOp37
 70
     1
102
RTVSPropertyOp38
 70
     1
102
RTVSPropertyOp39
 70
     1
102
RTVSPropertyOp40
 70
     1
102
RTVSPropertyOp41
 70
     1
102
RTVSPropertyOp42
 70
     1
102
RTVSPropertyOp43
 70
     1
102
RTVSPropertyOp44
 70
     1
102
RTVSPropertyOp45
 70
     1
102
RTVSPropertyOp46
 70
     1
102
RTVSPropertyOp47
 70
     1
102
RTVSPropertyOp48
 70
     1
102
RTVSPropertyOp49
 70
     1
102
RTVSPropertyOp50
 70
     1
102
RTVSPropertyOp51
 70
     0
102
RTVSPropertyOp52
 70
     0
102
RTVSPropertyOp53
 70
     1
102
RTVSPropertyOp54
 70
     1
102
RTVSPropertyOp55
 70
     1
102
RTVSPropertyOp56
 70
     1
102
RTVSPropertyOp57
 70
     1
102
RTVSPropertyOp58
 70
     1
102
RTVSPropertyOp59
 70
     1
102
RTVSPropertyOp60
 70
     1
102
RTVSPropertyOp61
 70
     1
102
RTVSPropertyOp62
 70
     1
  0
XRECORD
  5
C3C1
102
{ACAD_REACTORS
330
C3C0
102
}
330
C3C0
100
AcDbXrecord
280
     1
102
RTVSPost2010Prop28
280
     0
102
RTVSPost2010PropOp28
 70
     1
102
RTVSPost2010Prop29
280
     1
102
RTVSPost2010PropOp29
 70
     1
102
RTVSPost2010Prop30
280
     1
102
RTVSPost2010PropOp30
 70
     1
102
RTVSPost2010Prop31
280
     0
102
RTVSPost2010PropOp31
 70
     1
102
RTVSPost2010Prop32
280
     0
102
RTVSPost2010PropOp32
 70
     1
102
RTVSPost2010Prop33
280
     0
102
RTVSPost2010PropOp33
 70
     1
102
RTVSPost2010Prop34
280
     0
102
RTVSPost2010PropOp34
 70
     1
102
RTVSPost2010Prop35
280
     0
102
RTVSPost2010PropOp35
 70
     1
102
RTVSPost2010Prop36
280
     0
102
RTVSPost2010PropOp36
 70
     1
102
RTVSPost2010Prop37
 90
       50
102
RTVSPost2010PropOp37
 70
     1
102
RTVSPost2010Prop38
140
0.0
102
RTVSPost2010PropOp38
 70
     1
102
RTVSPost2010Prop39
140
1.0
102
RTVSPost2010PropOp39
 70
     1
102
RTVSPost2010Prop40
 90
        0
102
RTVSPost2010PropOp40
 70
     1
102
RTVSPost2010Prop41ColorIndex
 90
       18
102
RTVSPost2010Prop41ColorRGB
 90
        0
102
RTVSPost2010PropOp41
 70
     1
102
RTVSPost2010Prop42
 90
       50
102
RTVSPost2010PropOp42
 70
     1
102
RTVSPost2010Prop43
 90
        3
102
RTVSPost2010PropOp43
 70
     1
102
RTVSPost2010Prop44ColorIndex
 90
        5
102
RTVSPost2010Prop44ColorRGB
 90
      255
102
RTVSPost2010PropOp44
 70
     1
102
RTVSPost2010Prop45
280
     0
102
RTVSPost2010PropOp45
 70
     1
102
RTVSPost2010Prop46
 90
       50
102
RTVSPost2010PropOp46
 70
     1
102
RTVSPost2010Prop47
 90
       50
102
RTVSPost2010PropOp47
 70
     1
102
RTVSPost2010Prop48
 90
       50
102
RTVSPost2010PropOp48
 70
     1
102
RTVSPost2010Prop49
280
     0
102
RTVSPost2010PropOp49
 70
     1
102
RTVSPost2010Prop50
 90
       50
102
RTVSPost2010PropOp50
 70
     1
102
RTVSPost2010Prop51ColorIndex
 90
      256
102
RTVSPost2010Prop51ColorRGB
 90
-16777216
102
RTVSPost2010PropOp51
 70
     0
102
RTVSPost2010Prop52
140
1.0
102
RTVSPost2010PropOp52
 70
     0
102
RTVSPost2010Prop53
 90
        2
102
RTVSPost2010PropOp53
 70
     1
102
RTVSPost2010Prop54
  1
strokes_ogs.tif
102
RTVSPost2010PropOp54
 70
     1
102
RTVSPost2010Prop55
280
     0
102
RTVSPost2010PropOp55
 70
     1
102
RTVSPost2010Prop56
140
1.0
102
RTVSPost2010PropOp56
 70
     1
102
RTVSPost2010Prop57
140
1.0
102
RTVSPost2010PropOp57
 70
     1
102
RTVSPropertyOp0
 70
     1
102
RTVSPropertyOp1
 70
     1
102
RTVSPropertyOp2
 70
     1
102
RTVSPropertyOp3
 70
     1
102
RTVSPropertyOp4
 70
     1
102
RTVSPropertyOp5
 70
     1
102
RTVSPropertyOp6
 70
     1
102
RTVSPropertyOp7
 70
     1
102
RTVSPropertyOp8
 70
     1
102
RTVSPropertyOp9
 70
     1
102
RTVSPropertyOp10
 70
     1
102
RTVSPropertyOp11
 70
     1
102
RTVSPropertyOp12
 70
     1
102
RTVSPropertyOp13
 70
     1
102
RTVSPropertyOp14
 70
     1
102
RTVSPropertyOp15
 70
     1
102
RTVSPropertyOp16
 70
     1
102
RTVSPropertyOp17
 70
     1
102
RTVSPropertyOp18
 70
     1
102
RTVSPropertyOp19
 70
     1
102
RTVSPropertyOp20
 70
     1
102
RTVSPropertyOp21
 70
     1
102
RTVSPropertyOp22
 70
     1
102
RTVSPropertyOp23
 70
     1
102
RTVSPropertyOp24
 70
     1
102
RTVSPropertyOp25
 70
     1
102
RTVSPropertyOp26
 70
     1
102
RTVSPropertyOp27
 70
     1
102
RTVSPropertyOp28
 70
     1
102
RTVSPropertyOp29
 70
     1
102
RTVSPropertyOp30
 70
     1
102
RTVSPropertyOp31
 70
     1
102
RTVSPropertyOp32
 70
     1
102
RTVSPropertyOp33
 70
     1
102
RTVSPropertyOp34
 70
     1
102
RTVSPropertyOp35
 70
     1
102
RTVSPropertyOp36
 70
     1
102
RTVSPropertyOp37
 70
     1
102
RTVSPropertyOp38
 70
     1
102
RTVSPropertyOp39
 70
     1
102
RTVSPropertyOp40
 70
     1
102
RTVSPropertyOp41
 70
     1
102
RTVSPropertyOp42
 70
     1
102
RTVSPropertyOp43
 70
     1
102
RTVSPropertyOp44
 70
     1
102
RTVSPropertyOp45
 70
     1
102
RTVSPropertyOp46
 70
     1
102
RTVSPropertyOp47
 70
     1
102
RTVSPropertyOp48
 70
     1
102
RTVSPropertyOp49
 70
     1
102
RTVSPropertyOp50
 70
     1
102
RTVSPropertyOp51
 70
     0
102
RTVSPropertyOp52
 70
     0
102
RTVSPropertyOp53
 70
     1
102
RTVSPropertyOp54
 70
     1
102
RTVSPropertyOp55
 70
     1
102
RTVSPropertyOp56
 70
     1
102
RTVSPropertyOp57
 70
     1
102
RTVSPropertyOp58
 70
     1
102
RTVSPropertyOp59
 70
     1
102
RTVSPropertyOp60
 70
     1
102
RTVSPropertyOp61
 70
     1
102
RTVSPropertyOp62
 70
     1
  0
XRECORD
  5
C3BF
102
{ACAD_REACTORS
330
C3BE
102
}
330
C3BE
100
AcDbXrecord
280
     1
102
RTVSPost2010Prop28
280
     0
102
RTVSPost2010PropOp28
 70
     1
102
RTVSPost2010Prop29
280
     1
102
RTVSPost2010PropOp29
 70
     1
102
RTVSPost2010Prop30
280
     1
102
RTVSPost2010PropOp30
 70
     1
102
RTVSPost2010Prop31
280
     0
102
RTVSPost2010PropOp31
 70
     1
102
RTVSPost2010Prop32
280
     0
102
RTVSPost2010PropOp32
 70
     1
102
RTVSPost2010Prop33
280
     0
102
RTVSPost2010PropOp33
 70
     1
102
RTVSPost2010Prop34
280
     0
102
RTVSPost2010PropOp34
 70
     1
102
RTVSPost2010Prop35
280
     0
102
RTVSPost2010PropOp35
 70
     1
102
RTVSPost2010Prop36
280
     0
102
RTVSPost2010PropOp36
 70
     1
102
RTVSPost2010Prop37
 90
       50
102
RTVSPost2010PropOp37
 70
     1
102
RTVSPost2010Prop38
140
0.0
102
RTVSPost2010PropOp38
 70
     1
102
RTVSPost2010Prop39
140
1.0
102
RTVSPost2010PropOp39
 70
     1
102
RTVSPost2010Prop40
 90
        0
102
RTVSPost2010PropOp40
 70
     1
102
RTVSPost2010Prop41ColorIndex
 90
       18
102
RTVSPost2010Prop41ColorRGB
 90
        0
102
RTVSPost2010PropOp41
 70
     1
102
RTVSPost2010Prop42
 90
       50
102
RTVSPost2010PropOp42
 70
     1
102
RTVSPost2010Prop43
 90
        3
102
RTVSPost2010PropOp43
 70
     1
102
RTVSPost2010Prop44ColorIndex
 90
        5
102
RTVSPost2010Prop44ColorRGB
 90
      255
102
RTVSPost2010PropOp44
 70
     1
102
RTVSPost2010Prop45
280
     0
102
RTVSPost2010PropOp45
 70
     1
102
RTVSPost2010Prop46
 90
       50
102
RTVSPost2010PropOp46
 70
     1
102
RTVSPost2010Prop47
 90
       50
102
RTVSPost2010PropOp47
 70
     1
102
RTVSPost2010Prop48
 90
       50
102
RTVSPost2010PropOp48
 70
     1
102
RTVSPost2010Prop49
280
     0
102
RTVSPost2010PropOp49
 70
     1
102
RTVSPost2010Prop50
 90
       50
102
RTVSPost2010PropOp50
 70
     1
102
RTVSPost2010Prop51ColorIndex
 90
      256
102
RTVSPost2010Prop51ColorRGB
 90
-16777216
102
RTVSPost2010PropOp51
 70
     0
102
RTVSPost2010Prop52
140
1.0
102
RTVSPost2010PropOp52
 70
     0
102
RTVSPost2010Prop53
 90
        2
102
RTVSPost2010PropOp53
 70
     1
102
RTVSPost2010Prop54
  1
strokes_ogs.tif
102
RTVSPost2010PropOp54
 70
     1
102
RTVSPost2010Prop55
280
     0
102
RTVSPost2010PropOp55
 70
     1
102
RTVSPost2010Prop56
140
1.0
102
RTVSPost2010PropOp56
 70
     1
102
RTVSPost2010Prop57
140
1.0
102
RTVSPost2010PropOp57
 70
     1
102
RTVSPropertyOp0
 70
     1
102
RTVSPropertyOp1
 70
     1
102
RTVSPropertyOp2
 70
     1
102
RTVSPropertyOp3
 70
     1
102
RTVSPropertyOp4
 70
     1
102
RTVSPropertyOp5
 70
     1
102
RTVSPropertyOp6
 70
     1
102
RTVSPropertyOp7
 70
     1
102
RTVSPropertyOp8
 70
     1
102
RTVSPropertyOp9
 70
     1
102
RTVSPropertyOp10
 70
     1
102
RTVSPropertyOp11
 70
     1
102
RTVSPropertyOp12
 70
     1
102
RTVSPropertyOp13
 70
     1
102
RTVSPropertyOp14
 70
     1
102
RTVSPropertyOp15
 70
     1
102
RTVSPropertyOp16
 70
     1
102
RTVSPropertyOp17
 70
     1
102
RTVSPropertyOp18
 70
     1
102
RTVSPropertyOp19
 70
     1
102
RTVSPropertyOp20
 70
     1
102
RTVSPropertyOp21
 70
     1
102
RTVSPropertyOp22
 70
     1
102
RTVSPropertyOp23
 70
     1
102
RTVSPropertyOp24
 70
     1
102
RTVSPropertyOp25
 70
     1
102
RTVSPropertyOp26
 70
     1
102
RTVSPropertyOp27
 70
     1
102
RTVSPropertyOp28
 70
     1
102
RTVSPropertyOp29
 70
     1
102
RTVSPropertyOp30
 70
     1
102
RTVSPropertyOp31
 70
     1
102
RTVSPropertyOp32
 70
     1
102
RTVSPropertyOp33
 70
     1
102
RTVSPropertyOp34
 70
     1
102
RTVSPropertyOp35
 70
     1
102
RTVSPropertyOp36
 70
     1
102
RTVSPropertyOp37
 70
     1
102
RTVSPropertyOp38
 70
     1
102
RTVSPropertyOp39
 70
     1
102
RTVSPropertyOp40
 70
     1
102
RTVSPropertyOp41
 70
     1
102
RTVSPropertyOp42
 70
     1
102
RTVSPropertyOp43
 70
     1
102
RTVSPropertyOp44
 70
     1
102
RTVSPropertyOp45
 70
     1
102
RTVSPropertyOp46
 70
     1
102
RTVSPropertyOp47
 70
     1
102
RTVSPropertyOp48
 70
     1
102
RTVSPropertyOp49
 70
     1
102
RTVSPropertyOp50
 70
     1
102
RTVSPropertyOp51
 70
     0
102
RTVSPropertyOp52
 70
     0
102
RTVSPropertyOp53
 70
     1
102
RTVSPropertyOp54
 70
     1
102
RTVSPropertyOp55
 70
     1
102
RTVSPropertyOp56
 70
     1
102
RTVSPropertyOp57
 70
     1
102
RTVSPropertyOp58
 70
     1
102
RTVSPropertyOp59
 70
     1
102
RTVSPropertyOp60
 70
     1
102
RTVSPropertyOp61
 70
     1
102
RTVSPropertyOp62
 70
     1
  0
XRECORD
  5
C3B9
102
{ACAD_REACTORS
330
C3B8
102
}
330
C3B8
100
AcDbXrecord
280
     1
102
RTVSPost2010Prop28
280
     0
102
RTVSPost2010PropOp28
 70
     1
102
RTVSPost2010Prop29
280
     1
102
RTVSPost2010PropOp29
 70
     1
102
RTVSPost2010Prop30
280
     1
102
RTVSPost2010PropOp30
 70
     1
102
RTVSPost2010Prop31
280
     0
102
RTVSPost2010PropOp31
 70
     1
102
RTVSPost2010Prop32
280
     0
102
RTVSPost2010PropOp32
 70
     1
102
RTVSPost2010Prop33
280
     0
102
RTVSPost2010PropOp33
 70
     1
102
RTVSPost2010Prop34
280
     0
102
RTVSPost2010PropOp34
 70
     1
102
RTVSPost2010Prop35
280
     0
102
RTVSPost2010PropOp35
 70
     1
102
RTVSPost2010Prop36
280
     0
102
RTVSPost2010PropOp36
 70
     1
102
RTVSPost2010Prop37
 90
       50
102
RTVSPost2010PropOp37
 70
     1
102
RTVSPost2010Prop38
140
0.0
102
RTVSPost2010PropOp38
 70
     1
102
RTVSPost2010Prop39
140
1.0
102
RTVSPost2010PropOp39
 70
     1
102
RTVSPost2010Prop40
 90
        0
102
RTVSPost2010PropOp40
 70
     1
102
RTVSPost2010Prop41ColorIndex
 90
       18
102
RTVSPost2010Prop41ColorRGB
 90
        0
102
RTVSPost2010PropOp41
 70
     1
102
RTVSPost2010Prop42
 90
       50
102
RTVSPost2010PropOp42
 70
     1
102
RTVSPost2010Prop43
 90
        3
102
RTVSPost2010PropOp43
 70
     1
102
RTVSPost2010Prop44ColorIndex
 90
        5
102
RTVSPost2010Prop44ColorRGB
 90
      255
102
RTVSPost2010PropOp44
 70
     1
102
RTVSPost2010Prop45
280
     0
102
RTVSPost2010PropOp45
 70
     1
102
RTVSPost2010Prop46
 90
       50
102
RTVSPost2010PropOp46
 70
     1
102
RTVSPost2010Prop47
 90
       50
102
RTVSPost2010PropOp47
 70
     1
102
RTVSPost2010Prop48
 90
       50
102
RTVSPost2010PropOp48
 70
     1
102
RTVSPost2010Prop49
280
     0
102
RTVSPost2010PropOp49
 70
     1
102
RTVSPost2010Prop50
 90
       50
102
RTVSPost2010PropOp50
 70
     1
102
RTVSPost2010Prop51ColorIndex
 90
      256
102
RTVSPost2010Prop51ColorRGB
 90
-16777216
102
RTVSPost2010PropOp51
 70
     0
102
RTVSPost2010Prop52
140
1.0
102
RTVSPost2010PropOp52
 70
     0
102
RTVSPost2010Prop53
 90
        2
102
RTVSPost2010PropOp53
 70
     1
102
RTVSPost2010Prop54
  1
strokes_ogs.tif
102
RTVSPost2010PropOp54
 70
     1
102
RTVSPost2010Prop55
280
     0
102
RTVSPost2010PropOp55
 70
     1
102
RTVSPost2010Prop56
140
1.0
102
RTVSPost2010PropOp56
 70
     1
102
RTVSPost2010Prop57
140
1.0
102
RTVSPost2010PropOp57
 70
     1
102
RTVSPropertyOp0
 70
     1
102
RTVSPropertyOp1
 70
     1
102
RTVSPropertyOp2
 70
     1
102
RTVSPropertyOp3
 70
     1
102
RTVSPropertyOp4
 70
     1
102
RTVSPropertyOp5
 70
     1
102
RTVSPropertyOp6
 70
     1
102
RTVSPropertyOp7
 70
     1
102
RTVSPropertyOp8
 70
     1
102
RTVSPropertyOp9
 70
     1
102
RTVSPropertyOp10
 70
     1
102
RTVSPropertyOp11
 70
     1
102
RTVSPropertyOp12
 70
     1
102
RTVSPropertyOp13
 70
     1
102
RTVSPropertyOp14
 70
     1
102
RTVSPropertyOp15
 70
     1
102
RTVSPropertyOp16
 70
     1
102
RTVSPropertyOp17
 70
     1
102
RTVSPropertyOp18
 70
     1
102
RTVSPropertyOp19
 70
     1
102
RTVSPropertyOp20
 70
     1
102
RTVSPropertyOp21
 70
     1
102
RTVSPropertyOp22
 70
     1
102
RTVSPropertyOp23
 70
     1
102
RTVSPropertyOp24
 70
     1
102
RTVSPropertyOp25
 70
     1
102
RTVSPropertyOp26
 70
     1
102
RTVSPropertyOp27
 70
     1
102
RTVSPropertyOp28
 70
     1
102
RTVSPropertyOp29
 70
     1
102
RTVSPropertyOp30
 70
     1
102
RTVSPropertyOp31
 70
     1
102
RTVSPropertyOp32
 70
     1
102
RTVSPropertyOp33
 70
     1
102
RTVSPropertyOp34
 70
     1
102
RTVSPropertyOp35
 70
     1
102
RTVSPropertyOp36
 70
     1
102
RTVSPropertyOp37
 70
     1
102
RTVSPropertyOp38
 70
     1
102
RTVSPropertyOp39
 70
     1
102
RTVSPropertyOp40
 70
     1
102
RTVSPropertyOp41
 70
     1
102
RTVSPropertyOp42
 70
     1
102
RTVSPropertyOp43
 70
     1
102
RTVSPropertyOp44
 70
     1
102
RTVSPropertyOp45
 70
     1
102
RTVSPropertyOp46
 70
     1
102
RTVSPropertyOp47
 70
     1
102
RTVSPropertyOp48
 70
     1
102
RTVSPropertyOp49
 70
     1
102
RTVSPropertyOp50
 70
     1
102
RTVSPropertyOp51
 70
     0
102
RTVSPropertyOp52
 70
     0
102
RTVSPropertyOp53
 70
     1
102
RTVSPropertyOp54
 70
     1
102
RTVSPropertyOp55
 70
     1
102
RTVSPropertyOp56
 70
     1
102
RTVSPropertyOp57
 70
     1
102
RTVSPropertyOp58
 70
     1
102
RTVSPropertyOp59
 70
     1
102
RTVSPropertyOp60
 70
     1
102
RTVSPropertyOp61
 70
     1
102
RTVSPropertyOp62
 70
     1
  0
XRECORD
  5
C3BB
102
{ACAD_REACTORS
330
C3BA
102
}
330
C3BA
100
AcDbXrecord
280
     1
102
RTVSPost2010Prop28
280
     0
102
RTVSPost2010PropOp28
 70
     1
102
RTVSPost2010Prop29
280
     1
102
RTVSPost2010PropOp29
 70
     1
102
RTVSPost2010Prop30
280
     1
102
RTVSPost2010PropOp30
 70
     1
102
RTVSPost2010Prop31
280
     0
102
RTVSPost2010PropOp31
 70
     1
102
RTVSPost2010Prop32
280
     0
102
RTVSPost2010PropOp32
 70
     1
102
RTVSPost2010Prop33
280
     0
102
RTVSPost2010PropOp33
 70
     1
102
RTVSPost2010Prop34
280
     0
102
RTVSPost2010PropOp34
 70
     1
102
RTVSPost2010Prop35
280
     0
102
RTVSPost2010PropOp35
 70
     1
102
RTVSPost2010Prop36
280
     0
102
RTVSPost2010PropOp36
 70
     1
102
RTVSPost2010Prop37
 90
       50
102
RTVSPost2010PropOp37
 70
     1
102
RTVSPost2010Prop38
140
0.0
102
RTVSPost2010PropOp38
 70
     1
102
RTVSPost2010Prop39
140
1.0
102
RTVSPost2010PropOp39
 70
     1
102
RTVSPost2010Prop40
 90
        0
102
RTVSPost2010PropOp40
 70
     1
102
RTVSPost2010Prop41ColorIndex
 90
       18
102
RTVSPost2010Prop41ColorRGB
 90
        0
102
RTVSPost2010PropOp41
 70
     1
102
RTVSPost2010Prop42
 90
       50
102
RTVSPost2010PropOp42
 70
     1
102
RTVSPost2010Prop43
 90
        3
102
RTVSPost2010PropOp43
 70
     1
102
RTVSPost2010Prop44ColorIndex
 90
        5
102
RTVSPost2010Prop44ColorRGB
 90
      255
102
RTVSPost2010PropOp44
 70
     1
102
RTVSPost2010Prop45
280
     0
102
RTVSPost2010PropOp45
 70
     1
102
RTVSPost2010Prop46
 90
       50
102
RTVSPost2010PropOp46
 70
     1
102
RTVSPost2010Prop47
 90
       50
102
RTVSPost2010PropOp47
 70
     1
102
RTVSPost2010Prop48
 90
       50
102
RTVSPost2010PropOp48
 70
     1
102
RTVSPost2010Prop49
280
     0
102
RTVSPost2010PropOp49
 70
     1
102
RTVSPost2010Prop50
 90
       50
102
RTVSPost2010PropOp50
 70
     1
102
RTVSPost2010Prop51ColorIndex
 90
      256
102
RTVSPost2010Prop51ColorRGB
 90
-16777216
102
RTVSPost2010PropOp51
 70
     0
102
RTVSPost2010Prop52
140
1.0
102
RTVSPost2010PropOp52
 70
     0
102
RTVSPost2010Prop53
 90
        2
102
RTVSPost2010PropOp53
 70
     1
102
RTVSPost2010Prop54
  1
strokes_ogs.tif
102
RTVSPost2010PropOp54
 70
     1
102
RTVSPost2010Prop55
280
     0
102
RTVSPost2010PropOp55
 70
     1
102
RTVSPost2010Prop56
140
1.0
102
RTVSPost2010PropOp56
 70
     1
102
RTVSPost2010Prop57
140
1.0
102
RTVSPost2010PropOp57
 70
     1
102
RTVSPropertyOp0
 70
     1
102
RTVSPropertyOp1
 70
     1
102
RTVSPropertyOp2
 70
     1
102
RTVSPropertyOp3
 70
     1
102
RTVSPropertyOp4
 70
     1
102
RTVSPropertyOp5
 70
     1
102
RTVSPropertyOp6
 70
     1
102
RTVSPropertyOp7
 70
     1
102
RTVSPropertyOp8
 70
     1
102
RTVSPropertyOp9
 70
     1
102
RTVSPropertyOp10
 70
     1
102
RTVSPropertyOp11
 70
     1
102
RTVSPropertyOp12
 70
     1
102
RTVSPropertyOp13
 70
     1
102
RTVSPropertyOp14
 70
     1
102
RTVSPropertyOp15
 70
     1
102
RTVSPropertyOp16
 70
     1
102
RTVSPropertyOp17
 70
     1
102
RTVSPropertyOp18
 70
     1
102
RTVSPropertyOp19
 70
     1
102
RTVSPropertyOp20
 70
     1
102
RTVSPropertyOp21
 70
     1
102
RTVSPropertyOp22
 70
     1
102
RTVSPropertyOp23
 70
     1
102
RTVSPropertyOp24
 70
     1
102
RTVSPropertyOp25
 70
     1
102
RTVSPropertyOp26
 70
     1
102
RTVSPropertyOp27
 70
     1
102
RTVSPropertyOp28
 70
     1
102
RTVSPropertyOp29
 70
     1
102
RTVSPropertyOp30
 70
     1
102
RTVSPropertyOp31
 70
     1
102
RTVSPropertyOp32
 70
     1
102
RTVSPropertyOp33
 70
     1
102
RTVSPropertyOp34
 70
     1
102
RTVSPropertyOp35
 70
     1
102
RTVSPropertyOp36
 70
     1
102
RTVSPropertyOp37
 70
     1
102
RTVSPropertyOp38
 70
     1
102
RTVSPropertyOp39
 70
     1
102
RTVSPropertyOp40
 70
     1
102
RTVSPropertyOp41
 70
     1
102
RTVSPropertyOp42
 70
     1
102
RTVSPropertyOp43
 70
     1
102
RTVSPropertyOp44
 70
     1
102
RTVSPropertyOp45
 70
     1
102
RTVSPropertyOp46
 70
     1
102
RTVSPropertyOp47
 70
     1
102
RTVSPropertyOp48
 70
     1
102
RTVSPropertyOp49
 70
     1
102
RTVSPropertyOp50
 70
     1
102
RTVSPropertyOp51
 70
     0
102
RTVSPropertyOp52
 70
     0
102
RTVSPropertyOp53
 70
     1
102
RTVSPropertyOp54
 70
     1
102
RTVSPropertyOp55
 70
     1
102
RTVSPropertyOp56
 70
     1
102
RTVSPropertyOp57
 70
     1
102
RTVSPropertyOp58
 70
     1
102
RTVSPropertyOp59
 70
     1
102
RTVSPropertyOp60
 70
     1
102
RTVSPropertyOp61
 70
     1
102
RTVSPropertyOp62
 70
     1
  0
XRECORD
  5
C3B1
102
{ACAD_REACTORS
330
C3B0
102
}
330
C3B0
100
AcDbXrecord
280
     1
102
RTVSPost2010Prop28
280
     0
102
RTVSPost2010PropOp28
 70
     1
102
RTVSPost2010Prop29
280
     1
102
RTVSPost2010PropOp29
 70
     1
102
RTVSPost2010Prop30
280
     1
102
RTVSPost2010PropOp30
 70
     1
102
RTVSPost2010Prop31
280
     0
102
RTVSPost2010PropOp31
 70
     1
102
RTVSPost2010Prop32
280
     0
102
RTVSPost2010PropOp32
 70
     1
102
RTVSPost2010Prop33
280
     0
102
RTVSPost2010PropOp33
 70
     1
102
RTVSPost2010Prop34
280
     0
102
RTVSPost2010PropOp34
 70
     1
102
RTVSPost2010Prop35
280
     0
102
RTVSPost2010PropOp35
 70
     1
102
RTVSPost2010Prop36
280
     0
102
RTVSPost2010PropOp36
 70
     1
102
RTVSPost2010Prop37
 90
       50
102
RTVSPost2010PropOp37
 70
     1
102
RTVSPost2010Prop38
140
0.0
102
RTVSPost2010PropOp38
 70
     1
102
RTVSPost2010Prop39
140
1.0
102
RTVSPost2010PropOp39
 70
     1
102
RTVSPost2010Prop40
 90
        0
102
RTVSPost2010PropOp40
 70
     1
102
RTVSPost2010Prop41ColorIndex
 90
       18
102
RTVSPost2010Prop41ColorRGB
 90
        0
102
RTVSPost2010PropOp41
 70
     1
102
RTVSPost2010Prop42
 90
       50
102
RTVSPost2010PropOp42
 70
     1
102
RTVSPost2010Prop43
 90
        3
102
RTVSPost2010PropOp43
 70
     1
102
RTVSPost2010Prop44ColorIndex
 90
        5
102
RTVSPost2010Prop44ColorRGB
 90
      255
102
RTVSPost2010PropOp44
 70
     1
102
RTVSPost2010Prop45
280
     0
102
RTVSPost2010PropOp45
 70
     1
102
RTVSPost2010Prop46
 90
       50
102
RTVSPost2010PropOp46
 70
     1
102
RTVSPost2010Prop47
 90
       50
102
RTVSPost2010PropOp47
 70
     1
102
RTVSPost2010Prop48
 90
       50
102
RTVSPost2010PropOp48
 70
     1
102
RTVSPost2010Prop49
280
     0
102
RTVSPost2010PropOp49
 70
     1
102
RTVSPost2010Prop50
 90
       50
102
RTVSPost2010PropOp50
 70
     1
102
RTVSPost2010Prop51ColorIndex
 90
      256
102
RTVSPost2010Prop51ColorRGB
 90
-16777216
102
RTVSPost2010PropOp51
 70
     0
102
RTVSPost2010Prop52
140
1.0
102
RTVSPost2010PropOp52
 70
     0
102
RTVSPost2010Prop53
 90
        2
102
RTVSPost2010PropOp53
 70
     1
102
RTVSPost2010Prop54
  1
strokes_ogs.tif
102
RTVSPost2010PropOp54
 70
     1
102
RTVSPost2010Prop55
280
     0
102
RTVSPost2010PropOp55
 70
     1
102
RTVSPost2010Prop56
140
1.0
102
RTVSPost2010PropOp56
 70
     1
102
RTVSPost2010Prop57
140
1.0
102
RTVSPost2010PropOp57
 70
     1
102
RTVSPropertyOp0
 70
     1
102
RTVSPropertyOp1
 70
     1
102
RTVSPropertyOp2
 70
     1
102
RTVSPropertyOp3
 70
     1
102
RTVSPropertyOp4
 70
     1
102
RTVSPropertyOp5
 70
     1
102
RTVSPropertyOp6
 70
     1
102
RTVSPropertyOp7
 70
     1
102
RTVSPropertyOp8
 70
     1
102
RTVSPropertyOp9
 70
     1
102
RTVSPropertyOp10
 70
     1
102
RTVSPropertyOp11
 70
     1
102
RTVSPropertyOp12
 70
     1
102
RTVSPropertyOp13
 70
     1
102
RTVSPropertyOp14
 70
     1
102
RTVSPropertyOp15
 70
     1
102
RTVSPropertyOp16
 70
     1
102
RTVSPropertyOp17
 70
     1
102
RTVSPropertyOp18
 70
     1
102
RTVSPropertyOp19
 70
     1
102
RTVSPropertyOp20
 70
     1
102
RTVSPropertyOp21
 70
     1
102
RTVSPropertyOp22
 70
     1
102
RTVSPropertyOp23
 70
     1
102
RTVSPropertyOp24
 70
     1
102
RTVSPropertyOp25
 70
     1
102
RTVSPropertyOp26
 70
     1
102
RTVSPropertyOp27
 70
     1
102
RTVSPropertyOp28
 70
     1
102
RTVSPropertyOp29
 70
     1
102
RTVSPropertyOp30
 70
     1
102
RTVSPropertyOp31
 70
     1
102
RTVSPropertyOp32
 70
     1
102
RTVSPropertyOp33
 70
     1
102
RTVSPropertyOp34
 70
     1
102
RTVSPropertyOp35
 70
     1
102
RTVSPropertyOp36
 70
     1
102
RTVSPropertyOp37
 70
     1
102
RTVSPropertyOp38
 70
     1
102
RTVSPropertyOp39
 70
     1
102
RTVSPropertyOp40
 70
     1
102
RTVSPropertyOp41
 70
     1
102
RTVSPropertyOp42
 70
     1
102
RTVSPropertyOp43
 70
     1
102
RTVSPropertyOp44
 70
     1
102
RTVSPropertyOp45
 70
     1
102
RTVSPropertyOp46
 70
     1
102
RTVSPropertyOp47
 70
     1
102
RTVSPropertyOp48
 70
     1
102
RTVSPropertyOp49
 70
     1
102
RTVSPropertyOp50
 70
     1
102
RTVSPropertyOp51
 70
     0
102
RTVSPropertyOp52
 70
     0
102
RTVSPropertyOp53
 70
     1
102
RTVSPropertyOp54
 70
     1
102
RTVSPropertyOp55
 70
     1
102
RTVSPropertyOp56
 70
     1
102
RTVSPropertyOp57
 70
     1
102
RTVSPropertyOp58
 70
     1
102
RTVSPropertyOp59
 70
     1
102
RTVSPropertyOp60
 70
     1
102
RTVSPropertyOp61
 70
     1
102
RTVSPropertyOp62
 70
     1
  0
XRECORD
  5
C3A5
102
{ACAD_REACTORS
330
C3A4
102
}
330
C3A4
100
AcDbXrecord
280
     1
102
RTVSPost2010Prop28
280
     0
102
RTVSPost2010PropOp28
 70
     1
102
RTVSPost2010Prop29
280
     1
102
RTVSPost2010PropOp29
 70
     1
102
RTVSPost2010Prop30
280
     1
102
RTVSPost2010PropOp30
 70
     1
102
RTVSPost2010Prop31
280
     0
102
RTVSPost2010PropOp31
 70
     1
102
RTVSPost2010Prop32
280
     0
102
RTVSPost2010PropOp32
 70
     1
102
RTVSPost2010Prop33
280
     0
102
RTVSPost2010PropOp33
 70
     1
102
RTVSPost2010Prop34
280
     0
102
RTVSPost2010PropOp34
 70
     1
102
RTVSPost2010Prop35
280
     0
102
RTVSPost2010PropOp35
 70
     1
102
RTVSPost2010Prop36
280
     0
102
RTVSPost2010PropOp36
 70
     1
102
RTVSPost2010Prop37
 90
       50
102
RTVSPost2010PropOp37
 70
     1
102
RTVSPost2010Prop38
140
0.0
102
RTVSPost2010PropOp38
 70
     1
102
RTVSPost2010Prop39
140
1.0
102
RTVSPost2010PropOp39
 70
     1
102
RTVSPost2010Prop40
 90
        0
102
RTVSPost2010PropOp40
 70
     1
102
RTVSPost2010Prop41ColorIndex
 90
       18
102
RTVSPost2010Prop41ColorRGB
 90
        0
102
RTVSPost2010PropOp41
 70
     1
102
RTVSPost2010Prop42
 90
       50
102
RTVSPost2010PropOp42
 70
     1
102
RTVSPost2010Prop43
 90
        3
102
RTVSPost2010PropOp43
 70
     1
102
RTVSPost2010Prop44ColorIndex
 90
        5
102
RTVSPost2010Prop44ColorRGB
 90
      255
102
RTVSPost2010PropOp44
 70
     1
102
RTVSPost2010Prop45
280
     0
102
RTVSPost2010PropOp45
 70
     1
102
RTVSPost2010Prop46
 90
       50
102
RTVSPost2010PropOp46
 70
     1
102
RTVSPost2010Prop47
 90
       50
102
RTVSPost2010PropOp47
 70
     1
102
RTVSPost2010Prop48
 90
       50
102
RTVSPost2010PropOp48
 70
     1
102
RTVSPost2010Prop49
280
     0
102
RTVSPost2010PropOp49
 70
     1
102
RTVSPost2010Prop50
 90
       50
102
RTVSPost2010PropOp50
 70
     1
102
RTVSPost2010Prop51ColorIndex
 90
      256
102
RTVSPost2010Prop51ColorRGB
 90
-16777216
102
RTVSPost2010PropOp51
 70
     0
102
RTVSPost2010Prop52
140
1.0
102
RTVSPost2010PropOp52
 70
     0
102
RTVSPost2010Prop53
 90
        2
102
RTVSPost2010PropOp53
 70
     1
102
RTVSPost2010Prop54
  1
strokes_ogs.tif
102
RTVSPost2010PropOp54
 70
     1
102
RTVSPost2010Prop55
280
     0
102
RTVSPost2010PropOp55
 70
     1
102
RTVSPost2010Prop56
140
1.0
102
RTVSPost2010PropOp56
 70
     1
102
RTVSPost2010Prop57
140
1.0
102
RTVSPost2010PropOp57
 70
     1
102
RTVSPropertyOp0
 70
     1
102
RTVSPropertyOp1
 70
     1
102
RTVSPropertyOp2
 70
     1
102
RTVSPropertyOp3
 70
     1
102
RTVSPropertyOp4
 70
     1
102
RTVSPropertyOp5
 70
     1
102
RTVSPropertyOp6
 70
     1
102
RTVSPropertyOp7
 70
     1
102
RTVSPropertyOp8
 70
     1
102
RTVSPropertyOp9
 70
     1
102
RTVSPropertyOp10
 70
     1
102
RTVSPropertyOp11
 70
     1
102
RTVSPropertyOp12
 70
     1
102
RTVSPropertyOp13
 70
     1
102
RTVSPropertyOp14
 70
     1
102
RTVSPropertyOp15
 70
     1
102
RTVSPropertyOp16
 70
     1
102
RTVSPropertyOp17
 70
     1
102
RTVSPropertyOp18
 70
     1
102
RTVSPropertyOp19
 70
     1
102
RTVSPropertyOp20
 70
     1
102
RTVSPropertyOp21
 70
     1
102
RTVSPropertyOp22
 70
     1
102
RTVSPropertyOp23
 70
     1
102
RTVSPropertyOp24
 70
     1
102
RTVSPropertyOp25
 70
     1
102
RTVSPropertyOp26
 70
     1
102
RTVSPropertyOp27
 70
     1
102
RTVSPropertyOp28
 70
     1
102
RTVSPropertyOp29
 70
     1
102
RTVSPropertyOp30
 70
     1
102
RTVSPropertyOp31
 70
     1
102
RTVSPropertyOp32
 70
     1
102
RTVSPropertyOp33
 70
     1
102
RTVSPropertyOp34
 70
     1
102
RTVSPropertyOp35
 70
     1
102
RTVSPropertyOp36
 70
     1
102
RTVSPropertyOp37
 70
     1
102
RTVSPropertyOp38
 70
     1
102
RTVSPropertyOp39
 70
     1
102
RTVSPropertyOp40
 70
     1
102
RTVSPropertyOp41
 70
     1
102
RTVSPropertyOp42
 70
     1
102
RTVSPropertyOp43
 70
     1
102
RTVSPropertyOp44
 70
     1
102
RTVSPropertyOp45
 70
     1
102
RTVSPropertyOp46
 70
     1
102
RTVSPropertyOp47
 70
     1
102
RTVSPropertyOp48
 70
     1
102
RTVSPropertyOp49
 70
     1
102
RTVSPropertyOp50
 70
     1
102
RTVSPropertyOp51
 70
     0
102
RTVSPropertyOp52
 70
     0
102
RTVSPropertyOp53
 70
     1
102
RTVSPropertyOp54
 70
     1
102
RTVSPropertyOp55
 70
     1
102
RTVSPropertyOp56
 70
     1
102
RTVSPropertyOp57
 70
     1
102
RTVSPropertyOp58
 70
     1
102
RTVSPropertyOp59
 70
     1
102
RTVSPropertyOp60
 70
     1
102
RTVSPropertyOp61
 70
     1
102
RTVSPropertyOp62
 70
     1
  0
XRECORD
  5
C3BD
102
{ACAD_REACTORS
330
C3BC
102
}
330
C3BC
100
AcDbXrecord
280
     1
102
RTVSPost2010Prop28
280
     0
102
RTVSPost2010PropOp28
 70
     1
102
RTVSPost2010Prop29
280
     1
102
RTVSPost2010PropOp29
 70
     1
102
RTVSPost2010Prop30
280
     1
102
RTVSPost2010PropOp30
 70
     1
102
RTVSPost2010Prop31
280
     0
102
RTVSPost2010PropOp31
 70
     1
102
RTVSPost2010Prop32
280
     0
102
RTVSPost2010PropOp32
 70
     1
102
RTVSPost2010Prop33
280
     0
102
RTVSPost2010PropOp33
 70
     1
102
RTVSPost2010Prop34
280
     0
102
RTVSPost2010PropOp34
 70
     1
102
RTVSPost2010Prop35
280
     0
102
RTVSPost2010PropOp35
 70
     1
102
RTVSPost2010Prop36
280
     0
102
RTVSPost2010PropOp36
 70
     1
102
RTVSPost2010Prop37
 90
       50
102
RTVSPost2010PropOp37
 70
     1
102
RTVSPost2010Prop38
140
0.0
102
RTVSPost2010PropOp38
 70
     1
102
RTVSPost2010Prop39
140
1.0
102
RTVSPost2010PropOp39
 70
     1
102
RTVSPost2010Prop40
 90
        0
102
RTVSPost2010PropOp40
 70
     1
102
RTVSPost2010Prop41ColorIndex
 90
       18
102
RTVSPost2010Prop41ColorRGB
 90
        0
102
RTVSPost2010PropOp41
 70
     1
102
RTVSPost2010Prop42
 90
       50
102
RTVSPost2010PropOp42
 70
     1
102
RTVSPost2010Prop43
 90
        3
102
RTVSPost2010PropOp43
 70
     1
102
RTVSPost2010Prop44ColorIndex
 90
        5
102
RTVSPost2010Prop44ColorRGB
 90
      255
102
RTVSPost2010PropOp44
 70
     1
102
RTVSPost2010Prop45
280
     0
102
RTVSPost2010PropOp45
 70
     1
102
RTVSPost2010Prop46
 90
       50
102
RTVSPost2010PropOp46
 70
     1
102
RTVSPost2010Prop47
 90
       50
102
RTVSPost2010PropOp47
 70
     1
102
RTVSPost2010Prop48
 90
       50
102
RTVSPost2010PropOp48
 70
     1
102
RTVSPost2010Prop49
280
     0
102
RTVSPost2010PropOp49
 70
     1
102
RTVSPost2010Prop50
 90
       50
102
RTVSPost2010PropOp50
 70
     1
102
RTVSPost2010Prop51ColorIndex
 90
      256
102
RTVSPost2010Prop51ColorRGB
 90
-16777216
102
RTVSPost2010PropOp51
 70
     0
102
RTVSPost2010Prop52
140
1.0
102
RTVSPost2010PropOp52
 70
     0
102
RTVSPost2010Prop53
 90
        2
102
RTVSPost2010PropOp53
 70
     1
102
RTVSPost2010Prop54
  1
strokes_ogs.tif
102
RTVSPost2010PropOp54
 70
     1
102
RTVSPost2010Prop55
280
     0
102
RTVSPost2010PropOp55
 70
     1
102
RTVSPost2010Prop56
140
1.0
102
RTVSPost2010PropOp56
 70
     1
102
RTVSPost2010Prop57
140
1.0
102
RTVSPost2010PropOp57
 70
     1
102
RTVSPropertyOp0
 70
     1
102
RTVSPropertyOp1
 70
     1
102
RTVSPropertyOp2
 70
     1
102
RTVSPropertyOp3
 70
     1
102
RTVSPropertyOp4
 70
     1
102
RTVSPropertyOp5
 70
     1
102
RTVSPropertyOp6
 70
     1
102
RTVSPropertyOp7
 70
     1
102
RTVSPropertyOp8
 70
     1
102
RTVSPropertyOp9
 70
     1
102
RTVSPropertyOp10
 70
     1
102
RTVSPropertyOp11
 70
     1
102
RTVSPropertyOp12
 70
     1
102
RTVSPropertyOp13
 70
     1
102
RTVSPropertyOp14
 70
     1
102
RTVSPropertyOp15
 70
     1
102
RTVSPropertyOp16
 70
     1
102
RTVSPropertyOp17
 70
     1
102
RTVSPropertyOp18
 70
     1
102
RTVSPropertyOp19
 70
     1
102
RTVSPropertyOp20
 70
     1
102
RTVSPropertyOp21
 70
     1
102
RTVSPropertyOp22
 70
     1
102
RTVSPropertyOp23
 70
     1
102
RTVSPropertyOp24
 70
     1
102
RTVSPropertyOp25
 70
     1
102
RTVSPropertyOp26
 70
     1
102
RTVSPropertyOp27
 70
     1
102
RTVSPropertyOp28
 70
     1
102
RTVSPropertyOp29
 70
     1
102
RTVSPropertyOp30
 70
     1
102
RTVSPropertyOp31
 70
     1
102
RTVSPropertyOp32
 70
     1
102
RTVSPropertyOp33
 70
     1
102
RTVSPropertyOp34
 70
     1
102
RTVSPropertyOp35
 70
     1
102
RTVSPropertyOp36
 70
     1
102
RTVSPropertyOp37
 70
     1
102
RTVSPropertyOp38
 70
     1
102
RTVSPropertyOp39
 70
     1
102
RTVSPropertyOp40
 70
     1
102
RTVSPropertyOp41
 70
     1
102
RTVSPropertyOp42
 70
     1
102
RTVSPropertyOp43
 70
     1
102
RTVSPropertyOp44
 70
     1
102
RTVSPropertyOp45
 70
     1
102
RTVSPropertyOp46
 70
     1
102
RTVSPropertyOp47
 70
     1
102
RTVSPropertyOp48
 70
     1
102
RTVSPropertyOp49
 70
     1
102
RTVSPropertyOp50
 70
     1
102
RTVSPropertyOp51
 70
     0
102
RTVSPropertyOp52
 70
     0
102
RTVSPropertyOp53
 70
     1
102
RTVSPropertyOp54
 70
     1
102
RTVSPropertyOp55
 70
     1
102
RTVSPropertyOp56
 70
     1
102
RTVSPropertyOp57
 70
     1
102
RTVSPropertyOp58
 70
     1
102
RTVSPropertyOp59
 70
     1
102
RTVSPropertyOp60
 70
     1
102
RTVSPropertyOp61
 70
     1
102
RTVSPropertyOp62
 70
     1
  0
ENDSEC
  0
EOF
