  0
SECTION
  2
HEADER
  9
$ACADVER
  1
AC1015
  9
$DWGCODEPAGE
  3
ANSI_932
  9
$LTSCALE
 40
20.0
  9
$FILLMODE
 70
     1
  9
$CLAYER
  8
0
  9
$PDMODE
 70
     0
  9
$SPLFRAME
 70
     0
  9
$SPLINETYPE
 70
     6
  9
$SPLINESEGS
 70
     8
  9
$DIMASZ
 40
2.000000
  9
$DIMEXE
 40
1.500000
  9
$DIMEXO
 40
0.800000
  9
$DIMTAD
 70
     1
  9
$DIMTIH
 70
     0
  9
$DIMTOH
 70
     0
  9
$DIMTVP
 40
0.500000
  9
$DIMTXT
 40
3.100000
  9
$EXTMIN
 10
0.000000
 20
0.000000
 30
0.000000
  9
$EXTMAX
 10
297.000000
 20
420.000000
 30
0.000000
  9
$MEASUREMENT
 70
  1
  9
$LIMMIN
 10
0.000000
 20
0.000000
  9
$LIMMAX
 10
297.000000
 20
420.000000
  9
$HANDSEED
  5
175
  9
$LWDISPLAY
290
     0
  9
$DIMBLK
  1
_OPEN
  9
$DIMDEC
 70
     2
  9
$DIMADEC
 70
     2
  9
$DIMAUNIT
 70
     0
  9
$DIMZIN
 70
     8
  9
$DIMAZIN
 70
     2
  9
$DIMTOFL
 70
     1
  0
ENDSEC
  0
SECTION
  2
CLASSES
  0
ENDSEC
  0
SECTION
  2
TABLES
  0
TABLE
  2
VPORT
  5
140
100
AcDbSymbolTable
 70
     1
  0
VPORT
  5
141
100
AcDbSymbolTableRecord
100
AcDbViewportTableRecord
  2
*ACTIVE
 70
     0
 12
100.903988
 22
112.155250
 40
188.310498
 41
0.965469
  0
ENDTAB
  0
TABLE
  2
LTYPE
  5
142
100
AcDbSymbolTable
 70
     3
  0
LTYPE
  5
143
100
AcDbSymbolTableRecord
100
AcDbLinetypeTableRecord
  2
BYBLOCK
 70
     0
  3

 72
    65
 73
     0
 40
0.0
  0
LTYPE
  5
144
100
AcDbSymbolTableRecord
100
AcDbLinetypeTableRecord
  2
BYLAYER
 70
     0
  3

 72
    65
 73
     0
 40
0.0
  0
LTYPE
  5
145
100
AcDbSymbolTableRecord
100
AcDbLinetypeTableRecord
  2
CONTINUOUS
 70
     0
  3
Solid line (NEC CAE2D for Win R17.0 : 2022.11.09)
 72
    65
 73
     0
 40
0.0
  0
LTYPE
  5
146
100
AcDbSymbolTableRecord
100
AcDbLinetypeTableRecord
  2
CENTER
 70
     0
  3
____ _ ____ _ ____ _ ____ _ ____ _ ____
 72
    65
 73
     4
 40
2.0
 49
1.25
 74
     0
 49
-0.25
 74
     0
 49
0.25
 74
     0
 49
-0.25
 74
     0
  0
LTYPE
  5
147
100
AcDbSymbolTableRecord
100
AcDbLinetypeTableRecord
  2
PHANTOM
 70
     0
  3
______  __  __  ______  __  __  ______ 
 72
    65
 73
     6
 40
2.5
 49
1.25
 74
     0
 49
-0.25
 74
     0
 49
0.25
 74
     0
 49
-0.25
 74
     0
 49
0.25
 74
     0
 49
-0.25
 74
     0
  0
ENDTAB
  0
TABLE
  2
LAYER
  5
148
100
AcDbSymbolTable
 70
    13
  0
LAYER
  5
149
100
AcDbSymbolTableRecord
100
AcDbLayerTableRecord
  2
0
 70
     0
 62
     7
  6
CONTINUOUS
370
    -3
390

  0
LAYER
  5
14A
100
AcDbSymbolTableRecord
100
AcDbLayerTableRecord
  2
A0
 70
     0
 62
     9
  6
CONTINUOUS
370
    -3
390

  0
LAYER
  5
14B
100
AcDbSymbolTableRecord
100
AcDbLayerTableRecord
  2
A1
 70
     0
 62
     8
  6
CONTINUOUS
370
    -3
390

  0
LAYER
  5
14C
100
AcDbSymbolTableRecord
100
AcDbLayerTableRecord
  2
A2
 70
     0
 62
    12
  6
CONTINUOUS
370
    -3
390

  0
LAYER
  5
14D
100
AcDbSymbolTableRecord
100
AcDbLayerTableRecord
  2
A4
 70
     0
 62
    10
  6
CONTINUOUS
370
    -3
390

  0
LAYER
  5
14E
100
AcDbSymbolTableRecord
100
AcDbLayerTableRecord
  2
A5
 70
     0
 62
     9
  6
CONTINUOUS
370
    -3
390

  0
LAYER
  5
14F
100
AcDbSymbolTableRecord
100
AcDbLayerTableRecord
  2
A7
 70
     0
 62
    12
  6
CONTINUOUS
370
    -3
390

  0
LAYER
  5
150
100
AcDbSymbolTableRecord
100
AcDbLayerTableRecord
  2
A10
 70
     0
 62
     6
  6
CONTINUOUS
370
    -3
390

  0
LAYER
  5
151
100
AcDbSymbolTableRecord
100
AcDbLayerTableRecord
  2
A20
 70
     0
 62
     1
  6
CONTINUOUS
370
    -3
390

  0
LAYER
  5
152
100
AcDbSymbolTableRecord
100
AcDbLayerTableRecord
  2
A30
 70
     0
 62
     1
  6
CONTINUOUS
370
    -3
390

  0
LAYER
  5
153
100
AcDbSymbolTableRecord
100
AcDbLayerTableRecord
  2
A40
 70
     0
 62
     9
  6
CONTINUOUS
370
    -3
390

  0
LAYER
  5
154
100
AcDbSymbolTableRecord
100
AcDbLayerTableRecord
  2
A50
 70
     0
 62
    12
  6
CONTINUOUS
370
    -3
390

  0
LAYER
  5
155
100
AcDbSymbolTableRecord
100
AcDbLayerTableRecord
  2
A1023
 70
     0
 62
    16
  6
CONTINUOUS
370
    -3
390

  0
ENDTAB
  0
TABLE
  2
STYLE
  5
156
100
AcDbSymbolTable
 70
     4
  0
STYLE
  5
157
100
AcDbSymbolTableRecord
100
AcDbTextStyleTableRecord
  2
STANDARD
 70
    64
 40
0.0
 41
1.0
 50
0.0
 71
     0
 42
2.000000000000000
  3
TXT
  4

  0
STYLE
  5
158
100
AcDbSymbolTableRecord
100
AcDbTextStyleTableRecord
  2
ANKTATE
 70
    68
 40
0.0
 41
1.0
 50
0.0
 71
     0
 42
2.000000000000000
  3
TXT
  4

  0
STYLE
  5
159
100
AcDbSymbolTableRecord
100
AcDbTextStyleTableRecord
  2
KNJYOKO
 70
    64
 40
0.0
 41
1.0
 50
0.0
 71
     0
 42
2.000000000000000
  3
TXT
  4
BIGFONT
  0
STYLE
  5
15A
100
AcDbSymbolTableRecord
100
AcDbTextStyleTableRecord
  2
KNJTATE
 70
    68
 40
0.0
 41
1.0
 50
0.0
 71
     0
 42
2.000000000000000
  3
TXT
  4
BIGFONT
  0
ENDTAB
  0
TABLE
  2
VIEW
  5
15B
100
AcDbSymbolTable
 70
     0
  0
ENDTAB
  0
TABLE
  2
UCS
  5
15C
100
AcDbSymbolTable
 70
     0
  0
ENDTAB
  0
TABLE
  2
APPID
  5
15D
100
AcDbSymbolTable
 70
     1
  0
APPID
  5
15E
100
AcDbSymbolTableRecord
100
AcDbRegAppTableRecord
  2
ACAD
 70
     0
  0
ENDTAB
  0
TABLE
  2
DIMSTYLE
  5
15F
100
AcDbSymbolTable
 70
     2
100
AcDbDimStyleTable
  0
DIMSTYLE
105
160
100
AcDbSymbolTableRecord
100
AcDbDimStyleTableRecord
  2
STANDARD
 70
     0
 41
2.000000
 44
1.500000
 42
0.800000
145
0.661290
140
3.100000
144
1.000000
146
0.645161
340
157
  0
DIMSTYLE
105
161
100
AcDbSymbolTableRecord
100
AcDbDimStyleTableRecord
  2
A001
 70
     0
 41
2.000000
 44
1.500000
 42
0.800000
145
0.661290
140
3.100000
144
1.000000
146
0.645161
 77
     1
 73
     0
 74
     0
271
     2
179
     2
275
     0
 78
     8
 79
     2
172
     1
340
157
  0
ENDTAB
  0
TABLE
  2
BLOCK_RECORD
  5
162
100
AcDbSymbolTable
 70
    12
  0
BLOCK_RECORD
  5
163
100
AcDbSymbolTableRecord
100
AcDbBlockTableRecord
  2
*MODEL_SPACE
  0
BLOCK_RECORD
  5
164
100
AcDbSymbolTableRecord
100
AcDbBlockTableRecord
  2
*PAPER_SPACE
  0
BLOCK_RECORD
  5
165
100
AcDbSymbolTableRecord
100
AcDbBlockTableRecord
  2
*PAPER_SPACE0
  0
BLOCK_RECORD
  5
1
100
AcDbSymbolTableRecord
100
AcDbBlockTableRecord
  2
_NONE
  0
BLOCK_RECORD
  5
4
100
AcDbSymbolTableRecord
100
AcDbBlockTableRecord
  2
_CLOSED
  0
BLOCK_RECORD
  5
B
100
AcDbSymbolTableRecord
100
AcDbBlockTableRecord
  2
_DOT
  0
BLOCK_RECORD
  5
13
100
AcDbSymbolTableRecord
100
AcDbBlockTableRecord
  2
_OPEN
  0
BLOCK_RECORD
  5
19
100
AcDbSymbolTableRecord
100
AcDbBlockTableRecord
  2
_ORIGIN
  0
BLOCK_RECORD
  5
1E
100
AcDbSymbolTableRecord
100
AcDbBlockTableRecord
  2
_OPEN30
  0
BLOCK_RECORD
  5
24
100
AcDbSymbolTableRecord
100
AcDbBlockTableRecord
  2
_BOXFILLED
  0
BLOCK_RECORD
  5
29
100
AcDbSymbolTableRecord
100
AcDbBlockTableRecord
  2
_BOXBLANK
  0
BLOCK_RECORD
  5
31
100
AcDbSymbolTableRecord
100
AcDbBlockTableRecord
  2
_OBLIQUE
  0
BLOCK_RECORD
  5
35
100
AcDbSymbolTableRecord
100
AcDbBlockTableRecord
  2
_OPEN90
  0
BLOCK_RECORD
  5
3B
100
AcDbSymbolTableRecord
100
AcDbBlockTableRecord
  2
_CLOSEDBLANK
  0
BLOCK_RECORD
  5
41
100
AcDbSymbolTableRecord
100
AcDbBlockTableRecord
  2
_DOTBLANK
  0
ENDTAB
  0
ENDSEC
  0
SECTION
  2
BLOCKS
  0
BLOCK
  5
166
100
AcDbEntity
  8
0
100
AcDbBlockBegin
  2
*MODEL_SPACE
 70
     0
 10
0.0
 20
0.0
 30
0.0
  3
*MODEL_SPACE
  1

  0
ENDBLK
  5
167
100
AcDbEntity
  8
0
100
AcDbBlockEnd
  0
BLOCK
  5
168
100
AcDbEntity
  8
0
100
AcDbBlockBegin
  2
*PAPER_SPACE
 70
     0
 10
0.0
 20
0.0
 30
0.0
  3
*PAPER_SPACE
  1

  0
ENDBLK
  5
169
100
AcDbEntity
  8
0
100
AcDbBlockEnd
  0
BLOCK
  5
16A
100
AcDbEntity
  8
0
100
AcDbBlockBegin
  2
*PAPER_SPACE0
 70
     0
 10
0.0
 20
0.0
 30
0.0
  3
*PAPER_SPACE0
  1

  0
ENDBLK
  5
16B
100
AcDbEntity
  8
0
100
AcDbBlockEnd
  0
BLOCK
  5
2
330
1
100
AcDbEntity
  8
0
100
AcDbBlockBegin
  2
_NONE
 70
     0
 10
0.0
 20
0.0
 30
0.0
  3
_NONE
  1

  0
ENDBLK
  5
3
330
1
100
AcDbEntity
  8
0
100
AcDbBlockEnd
  0
BLOCK
  5
5
330
4
100
AcDbEntity
  8
0
100
AcDbBlockBegin
  2
_CLOSED
 70
     0
 10
0.0
 20
0.0
 30
0.0
  3
_CLOSED
  1

  0
LINE
  5
6
330
4
100
AcDbEntity
  8
0
  6
BYBLOCK
 62
     0
370
    -2
100
AcDbLine
 10
-1.0
 20
0.166667
 30
0.0
 11
0.0
 21
0.0
 31
0.0
  0
LINE
  5
7
330
4
100
AcDbEntity
  8
0
  6
BYBLOCK
 62
     0
370
    -2
100
AcDbLine
 10
0.0
 20
0.0
 30
0.0
 11
-1.0
 21
-0.166667
 31
0.0
  0
LINE
  5
8
330
4
100
AcDbEntity
  8
0
  6
BYBLOCK
 62
     0
370
    -2
100
AcDbLine
 10
-1.0
 20
0.166667
 30
0.0
 11
-1.0
 21
-0.166667
 31
0.0
  0
LINE
  5
9
330
4
100
AcDbEntity
  8
0
  6
BYBLOCK
 62
     0
370
    -2
100
AcDbLine
 10
0.0
 20
0.0
 30
0.0
 11
-1.0
 21
0.0
 31
0.0
  0
ENDBLK
  5
A
330
4
100
AcDbEntity
  8
0
100
AcDbBlockEnd
  0
BLOCK
  5
C
330
B
100
AcDbEntity
  8
0
100
AcDbBlockBegin
  2
_DOT
 70
     0
 10
0.0
 20
0.0
 30
0.0
  3
_DOT
  1

  0
POLYLINE
  5
D
330
B
100
AcDbEntity
  8
0
  6
BYBLOCK
 62
     0
370
    -2
100
AcDb2dPolyline
 66
     1
 10
0.0
 20
0.0
 30
0.0
 70
     1
 40
0.5
 41
0.5
  0
VERTEX
  5
E
330
B
100
AcDbEntity
  8
0
  6
BYBLOCK
 62
     0
370
    -2
100
AcDbVertex
100
AcDb2dVertex
 10
-0.25
 20
0.0
 30
0.0
 42
1.0
  0
VERTEX
  5
F
330
B
100
AcDbEntity
  8
0
  6
BYBLOCK
 62
     0
370
    -2
100
AcDbVertex
100
AcDb2dVertex
 10
0.25
 20
0.0
 30
0.0
 42
1.0
  0
SEQEND
  5
10
330
B
100
AcDbEntity
  8
0
  6
BYBLOCK
 62
     0
370
    -2
  0
LINE
  5
11
330
B
100
AcDbEntity
  8
0
  6
BYBLOCK
 62
     0
370
    -2
100
AcDbLine
 10
-0.5
 20
0.0
 30
0.0
 11
-1.0
 21
0.0
 31
0.0
  0
ENDBLK
  5
12
330
B
100
AcDbEntity
  8
0
100
AcDbBlockEnd
  0
BLOCK
  5
14
330
13
100
AcDbEntity
  8
0
100
AcDbBlockBegin
  2
_OPEN
 70
     0
 10
0.0
 20
0.0
 30
0.0
  3
_OPEN
  1

  0
LINE
  5
15
330
13
100
AcDbEntity
  8
0
  6
BYBLOCK
 62
     0
370
    -2
100
AcDbLine
 10
-1.0
 20
0.166667
 30
0.0
 11
0.0
 21
0.0
 31
0.0
  0
LINE
  5
16
330
13
100
AcDbEntity
  8
0
  6
BYBLOCK
 62
     0
370
    -2
100
AcDbLine
 10
0.0
 20
0.0
 30
0.0
 11
-1.0
 21
-0.166667
 31
0.0
  0
LINE
  5
17
330
13
100
AcDbEntity
  8
0
  6
BYBLOCK
 62
     0
370
    -2
100
AcDbLine
 10
0.0
 20
0.0
 30
0.0
 11
-1.0
 21
0.0
 31
0.0
  0
ENDBLK
  5
18
330
13
100
AcDbEntity
  8
0
100
AcDbBlockEnd
  0
BLOCK
  5
1A
330
19
100
AcDbEntity
  8
0
100
AcDbBlockBegin
  2
_ORIGIN
 70
     0
 10
0.0
 20
0.0
 30
0.0
  3
_ORIGIN
  1

  0
CIRCLE
  5
1B
330
19
100
AcDbEntity
  8
0
  6
BYBLOCK
 62
     0
370
    -2
100
AcDbCircle
 10
0.0
 20
0.0
 30
0.0
 40
0.5
  0
LINE
  5
1C
330
19
100
AcDbEntity
  8
0
  6
BYBLOCK
 62
     0
370
    -2
100
AcDbLine
 10
0.0
 20
0.0
 30
0.0
 11
-1.0
 21
0.0
 31
0.0
  0
ENDBLK
  5
1D
330
19
100
AcDbEntity
  8
0
100
AcDbBlockEnd
  0
BLOCK
  5
1F
330
1E
100
AcDbEntity
  8
0
100
AcDbBlockBegin
  2
_OPEN30
 70
     0
 10
0.0
 20
0.0
 30
0.0
  3
_OPEN30
  1

  0
LINE
  5
20
330
1E
100
AcDbEntity
  8
0
  6
BYBLOCK
 62
     0
370
    -2
100
AcDbLine
 10
-1.0
 20
0.267949
 30
0.0
 11
0.0
 21
0.0
 31
0.0
  0
LINE
  5
21
330
1E
100
AcDbEntity
  8
0
  6
BYBLOCK
 62
     0
370
    -2
100
AcDbLine
 10
0.0
 20
0.0
 30
0.0
 11
-1.0
 21
-0.267949
 31
0.0
  0
LINE
  5
22
330
1E
100
AcDbEntity
  8
0
  6
BYBLOCK
 62
     0
370
    -2
100
AcDbLine
 10
0.0
 20
0.0
 30
0.0
 11
-1.0
 21
0.0
 31
0.0
  0
ENDBLK
  5
23
330
1E
100
AcDbEntity
  8
0
100
AcDbBlockEnd
  0
BLOCK
  5
25
330
24
100
AcDbEntity
  8
0
100
AcDbBlockBegin
  2
_BOXFILLED
 70
     0
 10
0.0
 20
0.0
 30
0.0
  3
_BOXFILLED
  1

  0
SOLID
  5
26
330
24
100
AcDbEntity
  8
0
  6
BYBLOCK
 62
     0
370
    -2
100
AcDbTrace
 10
-0.5
 20
0.5
 30
0.0
 11
0.5
 21
0.5
 31
0.0
 12
-0.5
 22
-0.5
 32
0.0
 13
0.5
 23
-0.5
 33
0.0
  0
LINE
  5
27
330
24
100
AcDbEntity
  8
0
  6
BYBLOCK
 62
     0
370
    -2
100
AcDbLine
 10
-0.5
 20
0.0
 30
0.0
 11
-1.0
 21
0.0
 31
0.0
  0
ENDBLK
  5
28
330
24
100
AcDbEntity
  8
0
100
AcDbBlockEnd
  0
BLOCK
  5
2A
330
29
100
AcDbEntity
  8
0
100
AcDbBlockBegin
  2
_BOXBLANK
 70
     0
 10
0.0
 20
0.0
 30
0.0
  3
_BOXBLANK
  1

  0
LINE
  5
2B
330
29
100
AcDbEntity
  8
0
  6
BYBLOCK
 62
     0
370
    -2
100
AcDbLine
 10
-0.5
 20
-0.5
 30
0.0
 11
0.5
 21
-0.5
 31
0.0
  0
LINE
  5
2C
330
29
100
AcDbEntity
  8
0
  6
BYBLOCK
 62
     0
370
    -2
100
AcDbLine
 10
0.5
 20
-0.5
 30
0.0
 11
0.5
 21
0.5
 31
0.0
  0
LINE
  5
2D
330
29
100
AcDbEntity
  8
0
  6
BYBLOCK
 62
     0
370
    -2
100
AcDbLine
 10
0.5
 20
0.5
 30
0.0
 11
-0.5
 21
0.5
 31
0.0
  0
LINE
  5
2E
330
29
100
AcDbEntity
  8
0
  6
BYBLOCK
 62
     0
370
    -2
100
AcDbLine
 10
-0.5
 20
0.5
 30
0.0
 11
-0.5
 21
-0.5
 31
0.0
  0
LINE
  5
2F
330
29
100
AcDbEntity
  8
0
  6
BYBLOCK
 62
     0
370
    -2
100
AcDbLine
 10
-0.5
 20
0.0
 30
0.0
 11
-1.0
 21
0.0
 31
0.0
  0
ENDBLK
  5
30
330
29
100
AcDbEntity
  8
0
100
AcDbBlockEnd
  0
BLOCK
  5
32
330
31
100
AcDbEntity
  8
0
100
AcDbBlockBegin
  2
_OBLIQUE
 70
     0
 10
0.0
 20
0.0
 30
0.0
  3
_OBLIQUE
  1

  0
LINE
  5
33
330
31
100
AcDbEntity
  8
0
  6
BYBLOCK
 62
     0
370
    -2
100
AcDbLine
 10
-0.5
 20
-0.5
 30
0.0
 11
0.5
 21
0.5
 31
0.0
  0
ENDBLK
  5
34
330
31
100
AcDbEntity
  8
0
100
AcDbBlockEnd
  0
BLOCK
  5
36
330
35
100
AcDbEntity
  8
0
100
AcDbBlockBegin
  2
_OPEN90
 70
     0
 10
0.0
 20
0.0
 30
0.0
  3
_OPEN90
  1

  0
LINE
  5
37
330
35
100
AcDbEntity
  8
0
  6
BYBLOCK
 62
     0
370
    -2
100
AcDbLine
 10
-0.5
 20
0.5
 30
0.0
 11
0.0
 21
0.0
 31
0.0
  0
LINE
  5
38
330
35
100
AcDbEntity
  8
0
  6
BYBLOCK
 62
     0
370
    -2
100
AcDbLine
 10
0.0
 20
0.0
 30
0.0
 11
-0.5
 21
-0.5
 31
0.0
  0
LINE
  5
39
330
35
100
AcDbEntity
  8
0
  6
BYBLOCK
 62
     0
370
    -2
100
AcDbLine
 10
0.0
 20
0.0
 30
0.0
 11
-1.0
 21
0.0
 31
0.0
  0
ENDBLK
  5
3A
330
35
100
AcDbEntity
  8
0
100
AcDbBlockEnd
  0
BLOCK
  5
3C
330
3B
100
AcDbEntity
  8
0
100
AcDbBlockBegin
  2
_CLOSEDBLANK
 70
     0
 10
0.0
 20
0.0
 30
0.0
  3
_CLOSEDBLANK
  1

  0
LINE
  5
3D
330
3B
100
AcDbEntity
  8
0
  6
BYBLOCK
 62
     0
370
    -2
100
AcDbLine
 10
-1.0
 20
0.1666666666666666
 30
0.0
 11
0.0
 21
0.0
 31
0.0
  0
LINE
  5
3E
330
3B
100
AcDbEntity
  8
0
  6
BYBLOCK
 62
     0
370
    -2
100
AcDbLine
 10
0.0
 20
0.0
 30
0.0
 11
-1.0
 21
-0.1666666666666666
 31
0.0
  0
LINE
  5
3F
330
3B
100
AcDbEntity
  8
0
  6
BYBLOCK
 62
     0
370
    -2
100
AcDbLine
 10
-1.0
 20
0.1666666666666666
 30
0.0
 11
-1.0
 21
-0.1666666666666666
 31
0.0
  0
ENDBLK
  5
40
330
3B
100
AcDbEntity
  8
0
100
AcDbBlockEnd
  0
BLOCK
  5
42
330
41
100
AcDbEntity
  8
0
100
AcDbBlockBegin
  2
_DOTBLANK
 70
     0
 10
0.0
 20
0.0
 30
0.0
  3
_DOTBLANK
  1

  0
CIRCLE
  5
43
330
41
100
AcDbEntity
  8
0
  6
BYBLOCK
 62
     0
370
    -2
100
AcDbCircle
 10
0.0
 20
0.0
 30
0.0
 40
0.5
  0
LINE
  5
44
330
41
100
AcDbEntity
  8
0
  6
BYBLOCK
 62
     0
370
    -2
100
AcDbLine
 10
-0.5
 20
0.0
 30
0.0
 11
-1.0
 21
0.0
 31
0.0
  0
ENDBLK
  5
45
330
41
100
AcDbEntity
  8
0
100
AcDbBlockEnd
  0
ENDSEC
  0
SECTION
  2
ENTITIES
  0
MTEXT
  5
46
100
AcDbEntity
  8
A7
  6
CONTINUOUS
 62
3
100
AcDbMText
 10
9.999997526638502
 20
18.00000076076889
 30
0.000000000000000
 40
3.000000000000000
 41
0.000000000000000
 44
0.6739999771118164
 71
     7
 72
     1
  1
{\H0.94x;{TYPE No.TCA-TE60JN10S}}
 11
1.000000000000000
 21
0.000000000000000
 31
0.000000000000000
  7
STANDARD
  0
POINT
  5
47
100
AcDbEntity
  8
A0
  6
CONTINUOUS
 62
3
100
AcDbPoint
 10
9.999997526638502
 20
18.00000076076889
 30
0.000000000000000
  0
CIRCLE
  5
48
100
AcDbEntity
  8
A1
  6
CONTINUOUS
 62
7
100
AcDbCircle
 10
80.00000000000000
 20
80.00000000000000
 30
0.000000000000000
 40
30.00000000000000
  0
LINE
  5
49
100
AcDbEntity
  8
A1
  6
CONTINUOUS
 62
7
100
AcDbLine
 10
71.50000000000000
 20
112.5000000000000
 30
0.000000000000000
 11
54.50000000000000
 21
112.5000000000000
 31
0.000000000000000
  0
LINE
  5
4A
100
AcDbEntity
  8
A1
  6
CONTINUOUS
 62
7
100
AcDbLine
 10
54.50000000000000
 20
111.5000000000000
 30
0.000000000000000
 11
54.50000000000000
 21
98.18653300000000
 31
0.000000000000000
  0
LINE
  5
4B
100
AcDbEntity
  8
A1
  6
CONTINUOUS
 62
7
100
AcDbLine
 10
71.50000000000000
 20
111.5000000000000
 30
0.000000000000000
 11
71.50000000000000
 21
111.5238000000000
 31
0.000000000000000
  0
ARC
  5
4C
100
AcDbEntity
  8
A1
  6
CONTINUOUS
 62
7
100
AcDbCircle
 10
55.50000000000000
 20
111.5000000000000
 30
0.000000000000000
 40
1.000000000000000
100
AcDbArc
 50
89.99999999998290
 51
179.9999999999658
  0
ARC
  5
4D
100
AcDbEntity
  8
A1
  6
CONTINUOUS
 62
7
100
AcDbCircle
 10
70.50000000000000
 20
111.5000000000000
 30
0.000000000000000
 40
1.000000000000000
100
AcDbArc
 50
359.9999999999316
 51
449.9999999999153
  0
ARC
  5
4E
100
AcDbEntity
  8
A1
  6
CONTINUOUS
 62
7
100
AcDbCircle
 10
34.50000000000000
 20
98.18653300000000
 30
0.000000000000000
 40
20.00000000000000
100
AcDbArc
 50
352.3071079999336
 51
359.9999999999321
  0
ARC
  5
4F
100
AcDbEntity
  8
A1
  6
CONTINUOUS
 62
7
100
AcDbCircle
 10
74.50000000000000
 20
111.5238000000000
 30
0.000000000000000
 40
3.000000000000000
100
AcDbArc
 50
179.9999999999658
 51
233.7417349999559
  0
LINE
  5
50
100
AcDbEntity
  8
A1
  6
CONTINUOUS
 62
7
100
AcDbLine
 10
110.0000000000000
 20
168.4052500000000
 30
0.000000000000000
 11
110.0000000000000
 21
162.4870850000000
 31
0.000000000000000
  0
ARC
  5
51
100
AcDbEntity
  8
A1
  6
CONTINUOUS
 62
7
100
AcDbCircle
 10
109.5000000000000
 20
191.4052500000000
 30
0.000000000000000
 40
0.5000000000000000
100
AcDbArc
 50
269.9999999999479
 51
359.9999999999316
  0
ARC
  5
52
100
AcDbEntity
  8
A1
  6
CONTINUOUS
 62
7
100
AcDbCircle
 10
109.5000000000000
 20
168.4052500000000
 30
0.000000000000000
 40
0.5000000000000000
100
AcDbArc
 50
359.9999999999316
 51
449.9999999999153
  0
LINE
  5
53
100
AcDbEntity
  8
A1
  6
CONTINUOUS
 62
7
100
AcDbLine
 10
110.0000000000000
 20
191.4052500000000
 30
0.000000000000000
 11
110.0000000000000
 21
197.3234139999999
 31
0.000000000000000
  0
ARC
  5
54
100
AcDbEntity
  8
A1
  6
CONTINUOUS
 62
7
100
AcDbCircle
 10
108.3063290000000
 20
170.2052500000000
 30
0.000000000000000
 40
0.3000000000000000
100
AcDbArc
 50
269.9999999999512
 51
355.3518869999303
  0
ARC
  5
55
100
AcDbEntity
  8
A1
  6
CONTINUOUS
 62
7
100
AcDbCircle
 10
108.3063290000000
 20
189.6052500000000
 30
0.000000000000000
 40
0.3000000000000000
100
AcDbArc
 50
4.648112999998976
 51
89.99999999998371
  0
LINE
  5
56
100
AcDbEntity
  8
A1
  6
CONTINUOUS
 62
7
100
AcDbLine
 10
157.9027290000000
 20
112.5000000000000
 30
0.000000000000000
 11
172.9027290000000
 21
112.5000000000000
 31
0.000000000000000
  0
LINE
  5
57
100
AcDbEntity
  8
A1
  6
CONTINUOUS
 62
7
100
AcDbLine
 10
153.9027290000000
 20
110.0000000000000
 30
0.000000000000000
 11
147.9845650000000
 21
110.0000000000000
 31
0.000000000000000
  0
LINE
  5
58
100
AcDbEntity
  8
A1
  6
CONTINUOUS
 62
7
100
AcDbLine
 10
153.9027290000000
 20
50.00000000000001
 30
0.000000000000000
 11
147.9845650000000
 21
50.00000000000001
 31
0.000000000000000
  0
LINE
  5
59
100
AcDbEntity
  8
A1
  6
CONTINUOUS
 62
7
100
AcDbLine
 10
155.4027290000000
 20
71.80000000000001
 30
0.000000000000000
 11
155.4027290000000
 21
85.77739000000000
 31
0.000000000000000
  0
LINE
  5
5A
100
AcDbEntity
  8
A1
  6
CONTINUOUS
 62
7
100
AcDbLine
 10
175.4027290000000
 20
71.80000000000001
 30
0.000000000000000
 11
175.4027290000000
 21
85.77739000000000
 31
0.000000000000000
  0
LINE
  5
5B
100
AcDbEntity
  8
A1
  6
CONTINUOUS
 62
7
100
AcDbLine
 10
154.4027290000000
 20
50.50000000000001
 30
0.000000000000000
 11
154.4027290000000
 21
109.5000000000000
 31
0.000000000000000
  0
LINE
  5
5C
100
AcDbEntity
  8
A1
  6
CONTINUOUS
 62
7
100
AcDbLine
 10
176.4027290000000
 20
50.50000000000001
 30
0.000000000000000
 11
176.4027290000000
 21
109.5000000000000
 31
0.000000000000000
  0
ARC
  5
5D
100
AcDbEntity
  8
A1
  6
CONTINUOUS
 62
7
100
AcDbCircle
 10
165.4027290000000
 20
-10.99999999999999
 30
0.000000000000000
 40
120.0000000000000
100
AcDbArc
 50
85.35188699998389
 51
94.64811299998215
  0
LINE
  5
5E
100
AcDbEntity
  8
A1
  6
CONTINUOUS
 62
7
100
AcDbLine
 10
176.9027290000000
 20
50.00000000000001
 30
0.000000000000000
 11
182.8208940000000
 21
50.00000000000001
 31
0.000000000000000
  0
LINE
  5
5F
100
AcDbEntity
  8
A1
  6
CONTINUOUS
 62
7
100
AcDbLine
 10
176.9027290000000
 20
110.0000000000000
 30
0.000000000000000
 11
182.8208940000000
 21
110.0000000000000
 31
0.000000000000000
  0
LINE
  5
60
100
AcDbEntity
  8
A1
  6
CONTINUOUS
 62
7
100
AcDbLine
 10
156.9027290000000
 20
108.6985790000000
 30
0.000000000000000
 11
156.9027290000000
 21
111.5000000000000
 31
0.000000000000000
  0
LINE
  5
61
100
AcDbEntity
  8
A1
  6
CONTINUOUS
 62
7
100
AcDbLine
 10
173.9027290000000
 20
108.6985790000000
 30
0.000000000000000
 11
173.9027290000000
 21
111.5000000000000
 31
0.000000000000000
  0
ARC
  5
62
100
AcDbEntity
  8
A1
  6
CONTINUOUS
 62
7
100
AcDbCircle
 10
157.9027290000000
 20
111.5000000000000
 30
0.000000000000000
 40
1.000000000000000
100
AcDbArc
 50
89.99999999998371
 51
179.9999999999658
  0
ARC
  5
63
100
AcDbEntity
  8
A1
  6
CONTINUOUS
 62
7
100
AcDbCircle
 10
172.9027290000000
 20
111.5000000000000
 30
0.000000000000000
 40
1.000000000000000
100
AcDbArc
 50
359.9999999999316
 51
449.9999999999153
  0
ARC
  5
64
100
AcDbEntity
  8
A1
  6
CONTINUOUS
 62
7
100
AcDbCircle
 10
153.9027290000000
 20
109.5000000000000
 30
0.000000000000000
 40
0.5000000000000000
100
AcDbArc
 50
359.9999999999316
 51
449.9999999999153
  0
ARC
  5
65
100
AcDbEntity
  8
A1
  6
CONTINUOUS
 62
7
100
AcDbCircle
 10
176.9027290000000
 20
109.5000000000000
 30
0.000000000000000
 40
0.5000000000000000
100
AcDbArc
 50
89.99999999998371
 51
179.9999999999674
  0
ARC
  5
66
100
AcDbEntity
  8
A1
  6
CONTINUOUS
 62
7
100
AcDbCircle
 10
176.9027290000000
 20
50.50000000000001
 30
0.000000000000000
 40
0.5000000000000000
100
AcDbArc
 50
179.9999999999658
 51
269.9999999999479
  0
ARC
  5
67
100
AcDbEntity
  8
A1
  6
CONTINUOUS
 62
7
100
AcDbCircle
 10
153.9027290000000
 20
50.50000000000001
 30
0.000000000000000
 40
0.5000000000000000
100
AcDbArc
 50
269.9999999999479
 51
359.9999999999316
  0
ARC
  5
68
100
AcDbEntity
  8
A1
  6
CONTINUOUS
 62
7
100
AcDbCircle
 10
155.7027290000000
 20
108.3063280000000
 30
0.000000000000000
 40
0.3000000000000000
100
AcDbArc
 50
94.64811299998230
 51
179.9999999999674
  0
ARC
  5
69
100
AcDbEntity
  8
A1
  6
CONTINUOUS
 62
7
100
AcDbCircle
 10
175.1027290000000
 20
108.3063280000000
 30
0.000000000000000
 40
0.3000000000000000
100
AcDbArc
 50
0.000000000000000
 51
85.35188699998481
  0
ARC
  5
6A
100
AcDbEntity
  8
A1
  6
CONTINUOUS
 62
7
100
AcDbCircle
 10
175.1027290000000
 20
71.80000000000001
 30
0.000000000000000
 40
0.3000000000000000
100
AcDbArc
 50
269.9999999999512
 51
359.9999999999322
  0
ARC
  5
6B
100
AcDbEntity
  8
A1
  6
CONTINUOUS
 62
7
100
AcDbCircle
 10
155.7027290000000
 20
71.80000000000001
 30
0.000000000000000
 40
0.3000000000000000
100
AcDbArc
 50
179.9999999999647
 51
269.9999999999512
  0
LINE
  5
6C
100
AcDbEntity
  8
A1
  6
CONTINUOUS
 62
7
100
AcDbLine
 10
154.4027290000000
 20
71.50000000000000
 30
0.000000000000000
 11
176.4027290000000
 21
71.50000000000000
 31
0.000000000000000
  0
LINE
  5
6D
100
AcDbEntity
  8
A1
  6
CONTINUOUS
 62
7
100
AcDbLine
 10
154.4027290000000
 20
88.50000000000000
 30
0.000000000000000
 11
155.4027290000000
 21
88.50000000000000
 31
0.000000000000000
  0
LINE
  5
6E
100
AcDbEntity
  8
A1
  6
CONTINUOUS
 62
7
100
AcDbLine
 10
175.4027290000000
 20
88.50000000000000
 30
0.000000000000000
 11
176.4027290000000
 21
88.50000000000000
 31
0.000000000000000
  0
LINE
  5
6F
100
AcDbEntity
  8
A1
  6
CONTINUOUS
 62
7
100
AcDbLine
 10
155.4027290000000
 20
98.06300200000004
 30
0.000000000000000
 11
155.4027290000000
 21
108.3063280000000
 31
0.000000000000000
  0
LINE
  5
70
100
AcDbEntity
  8
A1
  6
CONTINUOUS
 62
7
100
AcDbLine
 10
175.4027290000000
 20
98.06300200000004
 30
0.000000000000000
 11
175.4027290000000
 21
108.3063280000000
 31
0.000000000000000
  0
CIRCLE
  5
71
100
AcDbEntity
  8
A1
  6
CONTINUOUS
 62
7
100
AcDbCircle
 10
80.00000000000000
 20
80.00000000000000
 30
0.000000000000000
 40
15.00000000000000
  0
CIRCLE
  5
72
100
AcDbEntity
  8
A1
  6
CONTINUOUS
 62
7
100
AcDbCircle
 10
80.00000000000000
 20
80.00000000000000
 30
0.000000000000000
 40
23.00000000000000
  0
CIRCLE
  5
73
100
AcDbEntity
  8
A1
  6
CONTINUOUS
 62
7
100
AcDbCircle
 10
80.00000000000000
 20
80.00000000000000
 30
0.000000000000000
 40
18.00000000000000
  0
LINE
  5
74
100
AcDbEntity
  8
A1
  6
CONTINUOUS
 62
7
100
AcDbLine
 10
142.4027290000000
 20
95.00000000000000
 30
0.000000000000000
 11
142.4027290000000
 21
65.00000000000000
 31
0.000000000000000
  0
LINE
  5
75
100
AcDbEntity
  8
A1
  6
CONTINUOUS
 62
7
100
AcDbLine
 10
188.4027290000000
 20
95.00000000000000
 30
0.000000000000000
 11
188.4027290000000
 21
65.00000000000000
 31
0.000000000000000
  0
ARC
  5
76
100
AcDbEntity
  8
A1
  6
CONTINUOUS
 62
7
100
AcDbCircle
 10
200.4974800000000
 20
80.00000000000000
 30
0.000000000000000
 40
60.00000000000000
100
AcDbArc
 50
165.5224879999687
 51
194.4775119999632
  0
ARC
  5
77
100
AcDbEntity
  8
A1
  6
CONTINUOUS
 62
7
100
AcDbCircle
 10
130.3079789999999
 20
80.00000000000000
 30
0.000000000000000
 40
60.00000000000000
100
AcDbArc
 50
345.5224879999348
 51
374.4775119999293
  0
ARC
  5
78
100
AcDbEntity
  8
A1
  6
CONTINUOUS
 62
7
100
AcDbCircle
 10
291.6508449999999
 20
80.00000000000000
 30
0.000000000000000
 40
150.0000000000000
100
AcDbArc
 50
185.7391699999649
 51
190.2580729999640
  0
ARC
  5
79
100
AcDbEntity
  8
A1
  6
CONTINUOUS
 62
7
100
AcDbCircle
 10
39.15461400000004
 20
80.00000000000000
 30
0.000000000000000
 40
150.0000000000000
100
AcDbArc
 50
5.739169999998913
 51
10.25807299999806
  0
ARC
  5
7A
100
AcDbEntity
  8
A1
  6
CONTINUOUS
 62
7
100
AcDbCircle
 10
147.9845650000000
 20
106.0000000000000
 30
0.000000000000000
 40
4.000000000000000
100
AcDbArc
 50
89.99999999998290
 51
169.7419269999681
  0
ARC
  5
7B
100
AcDbEntity
  8
A1
  6
CONTINUOUS
 62
7
100
AcDbCircle
 10
147.9845650000000
 20
54.00000000000001
 30
0.000000000000000
 40
4.000000000000000
100
AcDbArc
 50
190.2580729999640
 51
269.9999999999491
  0
ARC
  5
7C
100
AcDbEntity
  8
A1
  6
CONTINUOUS
 62
7
100
AcDbCircle
 10
182.8208940000000
 20
54.00000000000001
 30
0.000000000000000
 40
4.000000000000000
100
AcDbArc
 50
269.9999999999491
 51
349.7419269999340
  0
ARC
  5
7D
100
AcDbEntity
  8
A1
  6
CONTINUOUS
 62
7
100
AcDbCircle
 10
182.8208940000000
 20
106.0000000000000
 30
0.000000000000000
 40
4.000000000000000
100
AcDbArc
 50
10.25807299999789
 51
89.99999999998290
  0
ARC
  5
7E
100
AcDbEntity
  8
A1
  6
CONTINUOUS
 62
7
100
AcDbCircle
 10
291.6508449999999
 20
80.00000000000000
 30
0.000000000000000
 40
150.0000000000000
100
AcDbArc
 50
169.7419269999679
 51
174.2608299999671
  0
ARC
  5
7F
100
AcDbEntity
  8
A1
  6
CONTINUOUS
 62
7
100
AcDbCircle
 10
39.15461400000004
 20
80.00000000000000
 30
0.000000000000000
 40
150.0000000000000
100
AcDbArc
 50
349.7419269999340
 51
354.2608299999331
  0
ARC
  5
80
100
AcDbEntity
  8
A1
  6
CONTINUOUS
 62
7
100
AcDbCircle
 10
80.00000000000000
 20
306.1533650000000
 30
0.000000000000000
 40
150.0000000000000
100
AcDbArc
 50
275.7391699999479
 51
280.2580729999472
  0
ARC
  5
81
100
AcDbEntity
  8
A1
  6
CONTINUOUS
 62
7
100
AcDbCircle
 10
106.0000000000000
 20
162.4870850000000
 30
0.000000000000000
 40
4.000000000000000
100
AcDbArc
 50
280.2580729999470
 51
359.9999999999321
  0
ARC
  5
82
100
AcDbEntity
  8
A1
  6
CONTINUOUS
 62
7
100
AcDbCircle
 10
80.00000000000000
 20
53.65713399999996
 30
0.000000000000000
 40
150.0000000000000
100
AcDbArc
 50
79.74192699998495
 51
84.26082999998408
  0
ARC
  5
83
100
AcDbEntity
  8
A1
  6
CONTINUOUS
 62
7
100
AcDbCircle
 10
-11.00000000000000
 20
179.9052500000000
 30
0.000000000000000
 40
120.0000000000000
100
AcDbArc
 50
4.061852999999227
 51
4.648112999999122
  0
LINE
  5
84
100
AcDbEntity
  8
A1
  6
CONTINUOUS
 62
7
100
AcDbLine
 10
50.00000000000000
 20
168.4052500000000
 30
0.000000000000000
 11
50.00000000000000
 21
162.4870850000000
 31
0.000000000000000
  0
LINE
  5
85
100
AcDbEntity
  8
A1
  6
CONTINUOUS
 62
7
100
AcDbLine
 10
109.5000000000000
 20
168.9052500000000
 30
0.000000000000000
 11
50.50000000000000
 21
168.9052500000000
 31
0.000000000000000
  0
LINE
  5
86
100
AcDbEntity
  8
A1
  6
CONTINUOUS
 62
7
100
AcDbLine
 10
109.5000000000000
 20
190.9052500000000
 30
0.000000000000000
 11
50.50000000000000
 21
190.9052500000000
 31
0.000000000000000
  0
ARC
  5
87
100
AcDbEntity
  8
A1
  6
CONTINUOUS
 62
7
100
AcDbCircle
 10
171.0000000000000
 20
179.9052500000000
 30
0.000000000000000
 40
120.0000000000000
100
AcDbArc
 50
175.3518869999669
 51
184.6481129999651
  0
LINE
  5
88
100
AcDbEntity
  8
A1
  6
CONTINUOUS
 62
7
100
AcDbLine
 10
50.00000000000000
 20
191.4052500000000
 30
0.000000000000000
 11
50.00000000000000
 21
197.3234139999999
 31
0.000000000000000
  0
ARC
  5
89
100
AcDbEntity
  8
A1
  6
CONTINUOUS
 62
7
100
AcDbCircle
 10
50.50000000000000
 20
168.4052500000000
 30
0.000000000000000
 40
0.5000000000000000
100
AcDbArc
 50
89.99999999998371
 51
179.9999999999674
  0
ARC
  5
8A
100
AcDbEntity
  8
A1
  6
CONTINUOUS
 62
7
100
AcDbCircle
 10
50.50000000000000
 20
191.4052500000000
 30
0.000000000000000
 40
0.5000000000000000
100
AcDbArc
 50
179.9999999999674
 51
269.9999999999495
  0
ARC
  5
8B
100
AcDbEntity
  8
A1
  6
CONTINUOUS
 62
7
100
AcDbCircle
 10
51.69367199999999
 20
170.2052500000000
 30
0.000000000000000
 40
0.3000000000000000
100
AcDbArc
 50
184.6481129999661
 51
269.9999999999484
  0
ARC
  5
8C
100
AcDbEntity
  8
A1
  6
CONTINUOUS
 62
7
100
AcDbCircle
 10
51.69367199999999
 20
189.6052500000000
 30
0.000000000000000
 40
0.3000000000000000
100
AcDbArc
 50
89.99999999998371
 51
175.3518869999683
  0
LINE
  5
8D
100
AcDbEntity
  8
A1
  6
CONTINUOUS
 62
7
100
AcDbLine
 10
71.50000000000000
 20
168.9052500000000
 30
0.000000000000000
 11
71.50000000000000
 21
169.9052500000000
 31
0.000000000000000
  0
LINE
  5
8E
100
AcDbEntity
  8
A1
  6
CONTINUOUS
 62
7
100
AcDbLine
 10
71.50000000000000
 20
189.9052500000000
 30
0.000000000000000
 11
71.50000000000000
 21
190.9052500000000
 31
0.000000000000000
  0
LINE
  5
8F
100
AcDbEntity
  8
A1
  6
CONTINUOUS
 62
7
100
AcDbLine
 10
65.00000000000000
 20
156.9052500000000
 30
0.000000000000000
 11
95.00000000000000
 21
156.9052500000000
 31
0.000000000000000
  0
LINE
  5
90
100
AcDbEntity
  8
A1
  6
CONTINUOUS
 62
7
100
AcDbLine
 10
65.00000000000000
 20
202.9052500000000
 30
0.000000000000000
 11
95.00000000000000
 21
202.9052500000000
 31
0.000000000000000
  0
ARC
  5
91
100
AcDbEntity
  8
A1
  6
CONTINUOUS
 62
7
100
AcDbCircle
 10
80.00000000000000
 20
215.0000000000000
 30
0.000000000000000
 40
60.00000000000000
100
AcDbArc
 50
255.5224879999517
 51
284.4775119999463
  0
ARC
  5
92
100
AcDbEntity
  8
A1
  6
CONTINUOUS
 62
7
100
AcDbCircle
 10
80.00000000000000
 20
144.8104989999999
 30
0.000000000000000
 40
60.00000000000000
100
AcDbArc
 50
75.52248799998574
 51
104.4775119999803
  0
ARC
  5
93
100
AcDbEntity
  8
A1
  6
CONTINUOUS
 62
7
100
AcDbCircle
 10
80.00000000000000
 20
53.65713399999996
 30
0.000000000000000
 40
150.0000000000000
100
AcDbArc
 50
95.73916999998193
 51
100.2580729999811
  0
ARC
  5
94
100
AcDbEntity
  8
A1
  6
CONTINUOUS
 62
7
100
AcDbCircle
 10
54.00000000000000
 20
162.4870850000000
 30
0.000000000000000
 40
4.000000000000000
100
AcDbArc
 50
179.9999999999658
 51
259.7419269999510
  0
ARC
  5
95
100
AcDbEntity
  8
A1
  6
CONTINUOUS
 62
7
100
AcDbCircle
 10
106.0000000000000
 20
197.3234139999999
 30
0.000000000000000
 40
4.000000000000000
100
AcDbArc
 50
359.9999999999321
 51
439.7419269999168
  0
ARC
  5
96
100
AcDbEntity
  8
A1
  6
CONTINUOUS
 62
7
100
AcDbCircle
 10
54.00000000000000
 20
197.3234139999999
 30
0.000000000000000
 40
4.000000000000000
100
AcDbArc
 50
100.2580729999810
 51
179.9999999999658
  0
ARC
  5
97
100
AcDbEntity
  8
A1
  6
CONTINUOUS
 62
7
100
AcDbCircle
 10
80.00000000000000
 20
306.1533650000000
 30
0.000000000000000
 40
150.0000000000000
100
AcDbArc
 50
259.7419269999509
 51
264.2608299999501
  0
ARC
  5
98
100
AcDbEntity
  8
A1
  6
CONTINUOUS
 62
7
100
AcDbCircle
 10
54.50000000000000
 20
113.5000000000000
 30
0.000000000000000
 40
1.000000000000000
100
AcDbArc
 50
179.9999999999658
 51
269.9999999999487
  0
ARC
  5
99
100
AcDbEntity
  8
A1
  6
CONTINUOUS
 62
7
100
AcDbCircle
 10
71.50000000000000
 20
113.5000000000000
 30
0.000000000000000
 40
1.000000000000000
100
AcDbArc
 50
269.9999999999487
 51
359.9999999999316
  0
LINE
  5
9A
100
AcDbEntity
  8
A1
  6
CONTINUOUS
 62
7
100
AcDbLine
 10
54.50000000000000
 20
118.5000000000000
 30
0.000000000000000
 11
71.50000000000000
 21
118.5000000000000
 31
0.000000000000000
  0
LINE
  5
9B
100
AcDbEntity
  8
A1
  6
CONTINUOUS
 62
7
100
AcDbLine
 10
58.99999999999994
 20
132.5000000000000
 30
0.000000000000000
 11
67.00000000000000
 21
132.5000000000000
 31
0.000000000000000
  0
LINE
  5
9C
100
AcDbEntity
  8
A1
  6
CONTINUOUS
 62
7
100
AcDbLine
 10
53.50000000000000
 20
113.5000000000000
 30
0.000000000000000
 11
53.50000000000000
 21
117.5000000000000
 31
0.000000000000000
  0
LINE
  5
9D
100
AcDbEntity
  8
A1
  6
CONTINUOUS
 62
7
100
AcDbLine
 10
72.50000000000000
 20
113.5000000000000
 30
0.000000000000000
 11
72.50000000000000
 21
117.5000000000000
 31
0.000000000000000
  0
ARC
  5
9E
100
AcDbEntity
  8
A1
  6
CONTINUOUS
 62
7
100
AcDbCircle
 10
54.50000000000000
 20
117.5000000000000
 30
0.000000000000000
 40
1.000000000000000
100
AcDbArc
 50
89.99999999998290
 51
179.9999999999658
  0
ARC
  5
9F
100
AcDbEntity
  8
A1
  6
CONTINUOUS
 62
7
100
AcDbCircle
 10
71.50000000000000
 20
117.5000000000000
 30
0.000000000000000
 40
1.000000000000000
100
AcDbArc
 50
359.9999999999316
 51
449.9999999999153
  0
ARC
  5
A0
100
AcDbEntity
  8
A1
  6
CONTINUOUS
 62
7
100
AcDbCircle
 10
64.75735999999995
 20
115.5000000000000
 30
0.000000000000000
 40
6.000000000000000
100
AcDbArc
 50
149.9999999999718
 51
209.9999999999602
  0
ARC
  5
A1
100
AcDbEntity
  8
A1
  6
CONTINUOUS
 62
7
100
AcDbCircle
 10
61.24264099999999
 20
115.5000000000000
 30
0.000000000000000
 40
6.000000000000000
100
AcDbArc
 50
329.9999999999376
 51
389.9999999999264
  0
ARC
  5
A2
100
AcDbEntity
  8
A1
  6
CONTINUOUS
 62
7
100
AcDbCircle
 10
157.9027290000000
 20
117.5000000000000
 30
0.000000000000000
 40
1.000000000000000
100
AcDbArc
 50
89.99999999998371
 51
179.9999999999658
  0
ARC
  5
A3
100
AcDbEntity
  8
A1
  6
CONTINUOUS
 62
7
100
AcDbCircle
 10
157.9027290000000
 20
113.5000000000000
 30
0.000000000000000
 40
1.000000000000000
100
AcDbArc
 50
179.9999999999658
 51
269.9999999999495
  0
LINE
  5
A4
100
AcDbEntity
  8
A1
  6
CONTINUOUS
 62
7
100
AcDbLine
 10
157.9027290000000
 20
118.5000000000000
 30
0.000000000000000
 11
172.9027290000000
 21
118.5000000000000
 31
0.000000000000000
  0
ARC
  5
A5
100
AcDbEntity
  8
A1
  6
CONTINUOUS
 62
7
100
AcDbCircle
 10
172.9027290000000
 20
113.5000000000000
 30
0.000000000000000
 40
1.000000000000000
100
AcDbArc
 50
269.9999999999495
 51
359.9999999999316
  0
ARC
  5
A6
100
AcDbEntity
  8
A1
  6
CONTINUOUS
 62
7
100
AcDbCircle
 10
172.9027290000000
 20
117.5000000000000
 30
0.000000000000000
 40
1.000000000000000
100
AcDbArc
 50
0.000000000000000
 51
89.99999999998371
  0
LINE
  5
A7
100
AcDbEntity
  8
A1
  6
CONTINUOUS
 62
7
100
AcDbLine
 10
156.9027290000000
 20
117.5000000000000
 30
0.000000000000000
 11
156.9027290000000
 21
113.5000000000000
 31
0.000000000000000
  0
LINE
  5
A8
100
AcDbEntity
  8
A1
  6
CONTINUOUS
 62
7
100
AcDbLine
 10
173.9027290000000
 20
113.5000000000000
 30
0.000000000000000
 11
173.9027290000000
 21
117.5000000000000
 31
0.000000000000000
  0
ARC
  5
A9
100
AcDbEntity
  8
A1
  6
CONTINUOUS
 62
7
100
AcDbCircle
 10
63.00000000000000
 20
179.9052500000000
 30
0.000000000000000
 40
9.500000000000000
100
AcDbArc
 50
116.5253519999780
 51
243.4746479999540
  0
LINE
  5
AA
100
AcDbEntity
  8
A1
  6
CONTINUOUS
 62
7
100
AcDbLine
 10
58.75735999999995
 20
188.4052500000000
 30
0.000000000000000
 11
67.24264099999999
 21
188.4052500000000
 31
0.000000000000000
  0
LINE
  5
AB
100
AcDbEntity
  8
A1
  6
CONTINUOUS
 62
7
100
AcDbLine
 10
58.75735999999995
 20
171.4052500000000
 30
0.000000000000000
 11
67.24264099999999
 21
171.4052500000000
 31
0.000000000000000
  0
ARC
  5
AC
100
AcDbEntity
  8
A1
  6
CONTINUOUS
 62
7
100
AcDbCircle
 10
63.00000000000000
 20
179.9052500000000
 30
0.000000000000000
 40
9.000000000000000
100
AcDbArc
 50
109.1881359999794
 51
250.8118639999526
  0
ARC
  5
AD
100
AcDbEntity
  8
A1
  6
CONTINUOUS
 62
7
100
AcDbCircle
 10
63.00000000000000
 20
179.9052500000000
 30
0.000000000000000
 40
9.500000000000000
100
AcDbArc
 50
296.5253519999441
 51
423.4746479999200
  0
ARC
  5
AE
100
AcDbEntity
  8
A1
  6
CONTINUOUS
 62
7
100
AcDbCircle
 10
63.00000000000000
 20
179.9052500000000
 30
0.000000000000000
 40
9.000000000000000
100
AcDbArc
 50
289.1881359999454
 51
430.8118639999186
  0
LINE
  5
AF
100
AcDbEntity
  8
A1
  6
CONTINUOUS
 62
7
100
AcDbLine
 10
88.50000000000000
 20
190.9052500000000
 30
0.000000000000000
 11
88.50000000000000
 21
189.9052500000000
 31
0.000000000000000
  0
LINE
  5
B0
100
AcDbEntity
  8
A1
  6
CONTINUOUS
 62
7
100
AcDbLine
 10
88.50000000000000
 20
168.9052500000000
 30
0.000000000000000
 11
88.50000000000000
 21
169.9052500000000
 31
0.000000000000000
  0
CIRCLE
  5
B1
100
AcDbEntity
  8
A1
  6
CONTINUOUS
 62
7
100
AcDbCircle
 10
80.00000000000000
 20
80.00000000000000
 30
0.000000000000000
 40
26.00000000000000
  0
LINE
  5
B2
100
AcDbEntity
  8
A4
  6
CENTER
 62
1
100
AcDbLine
 10
63.00000000000000
 20
48.50000000000001
 30
0.000000000000000
 11
63.00000000000000
 21
134.0000000000000
 31
0.000000000000000
  0
LINE
  5
B3
100
AcDbEntity
  8
A4
  6
CENTER
 62
1
100
AcDbLine
 10
48.50000000000000
 20
179.9052500000000
 30
0.000000000000000
 11
119.3430930000000
 21
179.9052500000000
 31
0.000000000000000
  0
LINE
  5
B4
100
AcDbEntity
  8
A4
  6
CENTER
 62
1
100
AcDbLine
 10
80.00000000000000
 20
48.50000000000001
 30
0.000000000000000
 11
80.00000000000000
 21
111.5000000000000
 31
0.000000000000000
  0
LINE
  5
B5
100
AcDbEntity
  8
A4
  6
CENTER
 62
1
100
AcDbLine
 10
111.5000000000000
 20
80.00000000000000
 30
0.000000000000000
 11
48.50000000000000
 21
80.00000000000000
 31
0.000000000000000
  0
LINE
  5
B6
100
AcDbEntity
  8
A4
  6
CENTER
 62
1
100
AcDbLine
 10
80.00000000000000
 20
153.4999999999999
 30
0.000000000000000
 11
80.00000000000000
 21
206.3104989999999
 31
0.000000000000000
  0
LINE
  5
B7
100
AcDbEntity
  8
A4
  6
CENTER
 62
1
100
AcDbLine
 10
63.00000000000000
 20
189.9052500000000
 30
0.000000000000000
 11
63.00000000000000
 21
169.9052499999999
 31
0.000000000000000
  0
LINE
  5
B8
100
AcDbEntity
  8
A4
  6
CENTER
 62
1
100
AcDbLine
 10
191.8079789999999
 20
80.00000000000000
 30
0.000000000000000
 11
138.9974800000000
 21
80.00000000000000
 31
0.000000000000000
  0
LINE
  5
B9
100
AcDbEntity
  8
A1
  6
CONTINUOUS
 62
7
100
AcDbLine
 10
159.9027289999999
 20
85.77739000000000
 30
0.000000000000000
 11
155.4027289999999
 21
85.77739000000000
 31
0.000000000000000
  0
LINE
  5
BA
100
AcDbEntity
  8
A1
  6
CONTINUOUS
 62
7
100
AcDbLine
 10
159.9027289999999
 20
85.77739000000000
 30
0.000000000000000
 11
159.9027289999999
 21
98.18727200000001
 31
0.000000000000000
  0
LINE
  5
BB
100
AcDbEntity
  8
A1
  6
CONTINUOUS
 62
7
100
AcDbLine
 10
170.9027289999999
 20
85.77739000000000
 30
0.000000000000000
 11
170.9027289999999
 21
98.15566200000001
 31
0.000000000000000
  0
LINE
  5
BC
100
AcDbEntity
  8
A1
  6
CONTINUOUS
 62
7
100
AcDbLine
 10
159.9027289999999
 20
91.60119100000000
 30
0.000000000000000
 11
170.9027289999999
 21
91.60119100000000
 31
0.000000000000000
  0
LINE
  5
BD
100
AcDbEntity
  8
A1
  6
CONTINUOUS
 62
7
100
AcDbLine
 10
159.9027289999999
 20
97.23889400000002
 30
0.000000000000000
 11
170.9027289999999
 21
97.23889400000002
 31
0.000000000000000
  0
LINE
  5
BE
100
AcDbEntity
  8
A1
  6
CONTINUOUS
 62
7
100
AcDbLine
 10
170.9027289999999
 20
85.77739000000000
 30
0.000000000000000
 11
175.4027289999999
 21
85.77739000000000
 31
0.000000000000000
  0
LINE
  5
BF
100
AcDbEntity
  8
A1
  6
CONTINUOUS
 62
7
100
AcDbLine
 10
155.4027289999999
 20
101.0814440000000
 30
0.000000000000000
 11
156.9027289999999
 21
101.0814440000000
 31
0.000000000000000
  0
LINE
  5
C0
100
AcDbEntity
  8
A1
  6
CONTINUOUS
 62
7
100
AcDbLine
 10
155.4027289999999
 20
99.77133300000000
 30
0.000000000000000
 11
156.9027289999999
 21
99.77133300000000
 31
0.000000000000000
  0
LINE
  5
C1
100
AcDbEntity
  8
A1
  6
CONTINUOUS
 62
7
100
AcDbLine
 10
175.4027289999999
 20
99.77133300000000
 30
0.000000000000000
 11
173.9027289999999
 21
99.77133300000000
 31
0.000000000000000
  0
LINE
  5
C2
100
AcDbEntity
  8
A1
  6
CONTINUOUS
 62
7
100
AcDbLine
 10
175.4027289999999
 20
101.0814440000000
 30
0.000000000000000
 11
173.9027289999999
 21
101.0814440000000
 31
0.000000000000000
  0
LINE
  5
C3
100
AcDbEntity
  8
A1
  6
CONTINUOUS
 62
7
100
AcDbLine
 10
156.9027289999999
 20
103.3836000000000
 30
0.000000000000000
 11
156.9027289999999
 21
85.77739000000000
 31
0.000000000000000
  0
LINE
  5
C4
100
AcDbEntity
  8
A1
  6
CONTINUOUS
 62
7
100
AcDbLine
 10
173.9027289999999
 20
103.3836000000000
 30
0.000000000000000
 11
173.9027289999999
 21
85.77739000000000
 31
0.000000000000000
  0
LINE
  5
C5
100
AcDbEntity
  8
A1
  6
CONTINUOUS
 62
7
100
AcDbLine
 10
159.7527289999999
 20
85.77739000000000
 30
0.000000000000000
 11
159.7527289999999
 21
98.19607999999999
 31
0.000000000000000
  0
LINE
  5
C6
100
AcDbEntity
  8
A1
  6
CONTINUOUS
 62
7
100
AcDbLine
 10
171.0527289999999
 20
85.77739000000000
 30
0.000000000000000
 11
171.0527289999999
 21
98.16360499999999
 31
0.000000000000000
  0
ARC
  5
C7
100
AcDbEntity
  8
A1
  6
CONTINUOUS
 62
7
100
AcDbCircle
 10
165.4027289999999
 20
5.132646000000008
 30
0.000000000000000
 40
100.0000000000000
100
AcDbArc
 50
85.92478399998377
 51
94.07521599998222
  0
ARC
  5
C8
100
AcDbEntity
  8
A1
  6
CONTINUOUS
 62
7
100
AcDbCircle
 10
158.4027289999999
 20
103.3836000000000
 30
0.000000000000000
 40
1.500000000000000
100
AcDbArc
 50
94.07521599998174
 51
179.9999999999664
  0
ARC
  5
C9
100
AcDbEntity
  8
A1
  6
CONTINUOUS
 62
7
100
AcDbCircle
 10
172.4027289999999
 20
103.3836000000000
 30
0.000000000000000
 40
1.500000000000000
100
AcDbArc
 50
0.000000000000000
 51
85.92478399998346
  0
ARC
  5
CA
100
AcDbEntity
  8
A1
  6
CONTINUOUS
 62
7
100
AcDbCircle
 10
165.6896529999999
 20
198.0196890000000
 30
0.000000000000000
 40
100.0000000000000
100
AcDbArc
 50
266.0574809999497
 51
273.6097229999483
  0
ARC
  5
CB
100
AcDbEntity
  8
A1
  6
CONTINUOUS
 62
7
100
AcDbCircle
 10
165.4027289999999
 20
200.1926380000000
 30
0.000000000000000
 40
100.0000000000000
100
AcDbArc
 50
266.2238949999497
 51
273.7761049999482
  0
ARC
  5
CC
100
AcDbEntity
  8
A1
  6
CONTINUOUS
 62
7
100
AcDbCircle
 10
159.9027289999999
 20
103.0360150000000
 30
0.000000000000000
 40
3.000000000000000
100
AcDbArc
 50
179.9999999999658
 51
228.8529869999567
  0
ARC
  5
CD
100
AcDbEntity
  8
A1
  6
CONTINUOUS
 62
7
100
AcDbCircle
 10
159.9027289999999
 20
100.8836150000000
 30
0.000000000000000
 40
3.000000000000000
100
AcDbArc
 50
179.9999999999658
 51
228.9281009999568
  0
ARC
  5
CE
100
AcDbEntity
  8
A1
  6
CONTINUOUS
 62
7
100
AcDbCircle
 10
170.9027289999999
 20
103.0360150000000
 30
0.000000000000000
 40
3.000000000000000
100
AcDbArc
 50
311.1470129999414
 51
359.9999999999322
  0
ARC
  5
CF
100
AcDbEntity
  8
A1
  6
CONTINUOUS
 62
7
100
AcDbCircle
 10
170.9027289999999
 20
100.8433460000000
 30
0.000000000000000
 40
3.000000000000000
100
AcDbArc
 50
311.2222009999414
 51
359.9999999999322
  0
ARC
  5
D0
100
AcDbEntity
  8
A1
  6
CONTINUOUS
 62
7
100
AcDbCircle
 10
158.9157389999999
 20
101.9064800000000
 30
0.000000000000000
 40
1.500000000000000
100
AcDbArc
 50
228.8529869999563
 51
266.2238949999494
  0
ARC
  5
D1
100
AcDbEntity
  8
A1
  6
CONTINUOUS
 62
7
100
AcDbCircle
 10
171.8897189999999
 20
101.9064800000000
 30
0.000000000000000
 40
1.500000000000000
100
AcDbArc
 50
273.7761049999483
 51
311.1470129999414
  0
ARC
  5
D2
100
AcDbEntity
  8
A1
  6
CONTINUOUS
 62
7
100
AcDbCircle
 10
158.9172209999999
 20
99.75278600000001
 30
0.000000000000000
 40
1.500000000000000
100
AcDbArc
 50
228.9281009999568
 51
266.0574809999498
  0
ARC
  5
D3
100
AcDbEntity
  8
A1
  6
CONTINUOUS
 62
7
100
AcDbCircle
 10
171.8912009999999
 20
99.71510699999999
 30
0.000000000000000
 40
1.500000000000000
100
AcDbArc
 50
273.6097229999484
 51
311.2222009999410
  0
LINE
  5
D4
100
AcDbEntity
  8
A1
  6
CONTINUOUS
 62
7
100
AcDbLine
 10
154.4027289999999
 20
98.06300200000001
 30
0.000000000000000
 11
156.8027289999999
 21
98.06300200000001
 31
0.000000000000000
  0
LINE
  5
D5
100
AcDbEntity
  8
A1
  6
CONTINUOUS
 62
7
100
AcDbLine
 10
154.4027289999999
 20
92.91957300000001
 30
0.000000000000000
 11
156.8027289999999
 21
92.91957300000001
 31
0.000000000000000
  0
LINE
  5
D6
100
AcDbEntity
  8
A1
  6
CONTINUOUS
 62
7
100
AcDbLine
 10
154.4027289999999
 20
95.36460800000000
 30
0.000000000000000
 11
156.8027289999999
 21
95.36460800000000
 31
0.000000000000000
  0
LINE
  5
D7
100
AcDbEntity
  8
A1
  6
CONTINUOUS
 62
7
100
AcDbLine
 10
154.4027289999999
 20
91.01425100000000
 30
0.000000000000000
 11
156.8027289999999
 21
91.01425100000000
 31
0.000000000000000
  0
LINE
  5
D8
100
AcDbEntity
  8
A1
  6
CONTINUOUS
 62
7
100
AcDbLine
 10
154.4027289999999
 20
88.48268000000002
 30
0.000000000000000
 11
156.8027289999999
 21
88.48268000000002
 31
0.000000000000000
  0
LINE
  5
D9
100
AcDbEntity
  8
A1
  6
CONTINUOUS
 62
7
100
AcDbLine
 10
154.4027289999999
 20
86.24633699999998
 30
0.000000000000000
 11
156.8027289999999
 21
86.24633699999998
 31
0.000000000000000
  0
LINE
  5
DA
100
AcDbEntity
  8
A1
  6
CONTINUOUS
 62
7
100
AcDbLine
 10
156.8027289999999
 20
98.06300200000001
 30
0.000000000000000
 11
156.8027289999999
 21
85.77739000000000
 31
0.000000000000000
  0
LINE
  5
DB
100
AcDbEntity
  8
A1
  6
CONTINUOUS
 62
7
100
AcDbLine
 10
174.0027289999999
 20
98.06300200000001
 30
0.000000000000000
 11
174.0027289999999
 21
85.77739000000000
 31
0.000000000000000
  0
LINE
  5
DC
100
AcDbEntity
  8
A1
  6
CONTINUOUS
 62
7
100
AcDbLine
 10
174.0027289999999
 20
98.06300200000001
 30
0.000000000000000
 11
176.4027289999999
 21
98.06300200000001
 31
0.000000000000000
  0
LINE
  5
DD
100
AcDbEntity
  8
A1
  6
CONTINUOUS
 62
7
100
AcDbLine
 10
174.0027289999999
 20
95.36460800000000
 30
0.000000000000000
 11
176.4027289999999
 21
95.36460800000000
 31
0.000000000000000
  0
LINE
  5
DE
100
AcDbEntity
  8
A1
  6
CONTINUOUS
 62
7
100
AcDbLine
 10
174.0027289999999
 20
92.91957300000001
 30
0.000000000000000
 11
176.4027289999999
 21
92.91957300000001
 31
0.000000000000000
  0
LINE
  5
DF
100
AcDbEntity
  8
A1
  6
CONTINUOUS
 62
7
100
AcDbLine
 10
174.0027289999999
 20
91.01425100000000
 30
0.000000000000000
 11
176.4027289999999
 21
91.01425100000000
 31
0.000000000000000
  0
LINE
  5
E0
100
AcDbEntity
  8
A1
  6
CONTINUOUS
 62
7
100
AcDbLine
 10
174.0027289999999
 20
88.48268000000002
 30
0.000000000000000
 11
176.4027289999999
 21
88.48268000000002
 31
0.000000000000000
  0
LINE
  5
E1
100
AcDbEntity
  8
A1
  6
CONTINUOUS
 62
7
100
AcDbLine
 10
174.0027289999999
 20
86.24633699999998
 30
0.000000000000000
 11
176.4027289999999
 21
86.24633699999998
 31
0.000000000000000
  0
LINE
  5
E2
100
AcDbEntity
  8
A1
  6
CONTINUOUS
 62
7
100
AcDbLine
 10
175.4027289999999
 20
88.50000000000000
 30
0.000000000000000
 11
176.4027289999999
 21
88.50000000000000
 31
0.000000000000000
  0
LINE
  5
E3
100
AcDbEntity
  8
A1
  6
CONTINUOUS
 62
7
100
AcDbLine
 10
154.4027289999999
 20
88.50000000000000
 30
0.000000000000000
 11
155.4027289999999
 21
88.50000000000000
 31
0.000000000000000
  0
LINE
  5
E4
100
AcDbEntity
  8
A1
  6
CONTINUOUS
 62
7
100
AcDbLine
 10
175.4027289999999
 20
85.50480900000002
 30
0.000000000000000
 11
176.4027289999999
 21
85.50480900000002
 31
0.000000000000000
  0
LINE
  5
E5
100
AcDbEntity
  8
A1
  6
CONTINUOUS
 62
7
100
AcDbLine
 10
154.4027289999999
 20
85.50480900000002
 30
0.000000000000000
 11
155.4027289999999
 21
85.50480900000002
 31
0.000000000000000
  0
LINE
  5
E6
100
AcDbEntity
  8
A1
  6
CONTINUOUS
 62
7
100
AcDbLine
 10
51.69367199999999
 20
189.9052500000000
 30
0.000000000000000
 11
99.91413299999999
 21
189.9052500000000
 31
0.000000000000000
  0
LINE
  5
E7
100
AcDbEntity
  8
A1
  6
CONTINUOUS
 62
7
100
AcDbLine
 10
51.69367199999999
 20
169.9052500000000
 30
0.000000000000000
 11
99.91413299999999
 21
169.9052500000000
 31
0.000000000000000
  0
ARC
  5
E8
100
AcDbEntity
  8
A1
  6
CONTINUOUS
 62
7
100
AcDbCircle
 10
-11.00000000000000
 20
179.9052500000000
 30
0.000000000000000
 40
120.0000000000000
100
AcDbArc
 50
355.3518869999328
 51
355.9381469999328
  0
ARC
  5
E9
100
AcDbEntity
  8
A1
  6
CONTINUOUS
 62
7
100
AcDbCircle
 10
108.3063290000000
 20
170.2052500000000
 30
0.000000000000000
 40
0.3000000000000000
100
AcDbArc
 50
269.9999999999512
 51
355.3518869999303
  0
ARC
  5
EA
100
AcDbEntity
  8
A1
  6
CONTINUOUS
 62
7
100
AcDbCircle
 10
108.3063290000000
 20
189.6052500000000
 30
0.000000000000000
 40
0.3000000000000000
100
AcDbArc
 50
4.648112999998976
 51
89.99999999998371
  0
LINE
  5
EB
100
AcDbEntity
  8
A1
  6
CONTINUOUS
 62
7
100
AcDbLine
 10
97.84468299999997
 20
189.9052500000000
 30
0.000000000000000
 11
97.84468299999997
 21
190.9052500000000
 31
0.000000000000000
  0
LINE
  5
EC
100
AcDbEntity
  8
A1
  6
CONTINUOUS
 62
7
100
AcDbLine
 10
104.5346100000000
 20
189.9052500000000
 30
0.000000000000000
 11
108.3156990000000
 21
189.9052500000000
 31
0.000000000000000
  0
LINE
  5
ED
100
AcDbEntity
  8
A1
  6
CONTINUOUS
 62
7
100
AcDbLine
 10
104.5346100000000
 20
169.9052500000000
 30
0.000000000000000
 11
108.3156990000000
 21
169.9052500000000
 31
0.000000000000000
  0
MTEXT
  5
EE
100
AcDbEntity
  8
A7
  6
CONTINUOUS
 62
3
100
AcDbMText
 10
101.8606220000000
 20
175.0290220000000
 30
0.000000000000000
 40
2.000000000000000
 41
0.000000000000000
 44
0.6720000028610229
 71
     7
 72
     1
  1
{ＦＲＥＥ}
 11
2.976010029394993e-13
 21
1.000000000000000
 31
0.000000000000000
  7
KNJYOKO
  0
ARC
  5
EF
100
AcDbEntity
  8
A1
  6
CONTINUOUS
 62
7
100
AcDbCircle
 10
-11.00000000000000
 20
179.9052500000000
 30
0.000000000000000
 40
120.0000000000000
100
AcDbArc
 50
4.061852999999227
 51
4.648112999999122
  0
LINE
  5
F0
100
AcDbEntity
  8
A1
  6
CONTINUOUS
 62
7
100
AcDbLine
 10
106.1017840000000
 20
169.9052500000000
 30
0.000000000000000
 11
106.1017840000000
 21
171.4052500000000
 31
0.000000000000000
  0
LINE
  5
F1
100
AcDbEntity
  8
A1
  6
CONTINUOUS
 62
7
100
AcDbLine
 10
108.3156990000000
 20
169.9052500000000
 30
0.000000000000000
 11
108.3156990000000
 21
171.4052500000000
 31
0.000000000000000
  0
LINE
  5
F2
100
AcDbEntity
  8
A1
  6
CONTINUOUS
 62
7
100
AcDbLine
 10
108.3156990000000
 20
189.9052500000000
 30
0.000000000000000
 11
108.3156990000000
 21
188.4052500000000
 31
0.000000000000000
  0
LINE
  5
F3
100
AcDbEntity
  8
A1
  6
CONTINUOUS
 62
7
100
AcDbLine
 10
106.1017840000000
 20
189.9052500000000
 30
0.000000000000000
 11
106.1017840000000
 21
188.4052500000000
 31
0.000000000000000
  0
MTEXT
  5
F4
100
AcDbEntity
  8
A7
  6
CONTINUOUS
 62
3
100
AcDbMText
 10
116.5665729999999
 20
175.0015769999999
 30
0.000000000000000
 40
2.000000000000000
 41
0.000000000000000
 44
0.6720000028610229
 71
     7
 72
     1
  1
{ＳＴＯＰ}
 11
2.976010029394993e-13
 21
1.000000000000000
 31
0.000000000000000
  7
KNJYOKO
  0
LINE
  5
F5
100
AcDbEntity
  8
A1
  6
CONTINUOUS
 62
7
100
AcDbLine
 10
97.25859900000000
 20
189.9052500000000
 30
0.000000000000000
 11
97.25859900000000
 21
190.9052500000000
 31
0.000000000000000
  0
LINE
  5
F6
100
AcDbEntity
  8
A1
  6
CONTINUOUS
 62
7
100
AcDbLine
 10
101.4363120000000
 20
188.4052500000000
 30
0.000000000000000
 11
111.0594430000000
 21
188.4052500000000
 31
0.000000000000000
  0
LINE
  5
F7
100
AcDbEntity
  8
A1
  6
CONTINUOUS
 62
7
100
AcDbLine
 10
101.4363120000000
 20
171.4052500000000
 30
0.000000000000000
 11
111.0594430000000
 21
171.4052500000000
 31
0.000000000000000
  0
ARC
  5
F8
100
AcDbEntity
  8
A1
  6
CONTINUOUS
 62
7
100
AcDbCircle
 10
17.84309299999998
 20
179.9052500000000
 30
0.000000000000000
 40
100.0000000000000
100
AcDbArc
 50
356.5081589999326
 51
363.4918409999314
  0
ARC
  5
F9
100
AcDbEntity
  8
A1
  6
CONTINUOUS
 62
7
100
AcDbCircle
 10
197.6202969999999
 20
179.9052500000000
 30
0.000000000000000
 40
100.0000000000000
100
AcDbArc
 50
176.3395159999667
 51
183.6604839999653
  0
ARC
  5
FA
100
AcDbEntity
  8
A1
  6
CONTINUOUS
 62
7
100
AcDbCircle
 10
198.8452159999999
 20
179.9052500000000
 30
0.000000000000000
 40
100.0000000000000
100
AcDbArc
 50
176.3395159999667
 51
183.6604839999653
  0
ARC
  5
FB
100
AcDbEntity
  8
A1
  6
CONTINUOUS
 62
7
100
AcDbCircle
 10
111.0594430000000
 20
173.4052500000000
 30
0.000000000000000
 40
15.00000000000000
100
AcDbArc
 50
67.80031399998724
 51
89.99999999998296
  0
ARC
  5
FC
100
AcDbEntity
  8
A1
  6
CONTINUOUS
 62
7
100
AcDbCircle
 10
111.0594430000000
 20
186.4052500000000
 30
0.000000000000000
 40
15.00000000000000
100
AcDbArc
 50
269.9999999999490
 51
292.1996859999447
  0
ARC
  5
FD
100
AcDbEntity
  8
A1
  6
CONTINUOUS
 62
7
100
AcDbCircle
 10
101.4363120000000
 20
183.4052500000000
 30
0.000000000000000
 40
5.000000000000000
100
AcDbArc
 50
89.99999999998306
 51
127.1787759999760
  0
ARC
  5
FE
100
AcDbEntity
  8
A1
  6
CONTINUOUS
 62
7
100
AcDbCircle
 10
102.6612310000000
 20
183.4052500000000
 30
0.000000000000000
 40
5.000000000000000
100
AcDbArc
 50
89.99999999998306
 51
127.1787759999760
  0
ARC
  5
FF
100
AcDbEntity
  8
A1
  6
CONTINUOUS
 62
7
100
AcDbCircle
 10
102.6612310000000
 20
176.4052500000000
 30
0.000000000000000
 40
5.000000000000000
100
AcDbArc
 50
232.8212239999561
 51
269.9999999999488
  0
ARC
  5
100
100
AcDbEntity
  8
A1
  6
CONTINUOUS
 62
7
100
AcDbCircle
 10
101.4363120000000
 20
176.4052500000000
 30
0.000000000000000
 40
5.000000000000000
100
AcDbArc
 50
232.8212239999561
 51
269.9999999999488
  0
ARC
  5
101
100
AcDbEntity
  8
A1
  6
CONTINUOUS
 62
7
100
AcDbCircle
 10
99.32124799999997
 20
186.1938880000000
 30
0.000000000000000
 40
1.500000000000000
100
AcDbArc
 50
127.1787759999762
 51
176.3395159999662
  0
ARC
  5
102
100
AcDbEntity
  8
A1
  6
CONTINUOUS
 62
7
100
AcDbCircle
 10
99.32124799999997
 20
173.6166110000000
 30
0.000000000000000
 40
1.500000000000000
100
AcDbArc
 50
183.6604839999653
 51
232.8212239999561
  0
ARC
  5
103
100
AcDbEntity
  8
A1
  6
CONTINUOUS
 62
7
100
AcDbCircle
 10
100.5461670000000
 20
173.6166110000000
 30
0.000000000000000
 40
1.500000000000000
100
AcDbArc
 50
183.6604839999653
 51
232.8212239999561
  0
ARC
  5
104
100
AcDbEntity
  8
A1
  6
CONTINUOUS
 62
7
100
AcDbCircle
 10
100.5461670000000
 20
186.1938880000000
 30
0.000000000000000
 40
1.500000000000000
100
AcDbArc
 50
127.1787759999762
 51
176.3395159999662
  0
ARC
  5
105
100
AcDbEntity
  8
A1
  6
CONTINUOUS
 62
7
100
AcDbCircle
 10
116.1602260000000
 20
185.9045300000000
 30
0.000000000000000
 40
1.500000000000000
100
AcDbArc
 50
3.491840999999256
 51
67.80031399998752
  0
ARC
  5
106
100
AcDbEntity
  8
A1
  6
CONTINUOUS
 62
7
100
AcDbCircle
 10
116.1602260000000
 20
173.9059690000000
 30
0.000000000000000
 40
1.500000000000000
100
AcDbArc
 50
292.1996859999447
 51
356.5081589999322
  0
LINE
  5
107
100
AcDbEntity
  8
A1
  6
CONTINUOUS
 62
7
100
AcDbLine
 10
97.25859900000000
 20
168.9052500000000
 30
0.000000000000000
 11
97.25859900000000
 21
169.9052500000000
 31
0.000000000000000
  0
LINE
  5
108
100
AcDbEntity
  8
A1
  6
CONTINUOUS
 62
7
100
AcDbLine
 10
104.5346100000000
 20
168.9052500000000
 30
0.000000000000000
 11
104.5346100000000
 21
171.4052500000000
 31
0.000000000000000
  0
LINE
  5
109
100
AcDbEntity
  8
A1
  6
CONTINUOUS
 62
7
100
AcDbLine
 10
97.84468299999997
 20
168.9052500000000
 30
0.000000000000000
 11
97.84468299999997
 21
169.9052500000000
 31
0.000000000000000
  0
LINE
  5
10A
100
AcDbEntity
  8
A1
  6
CONTINUOUS
 62
7
100
AcDbLine
 10
98.96669099999997
 20
168.9052500000000
 30
0.000000000000000
 11
98.96669099999997
 21
169.9052500000000
 31
0.000000000000000
  0
LINE
  5
10B
100
AcDbEntity
  8
A1
  6
CONTINUOUS
 62
7
100
AcDbLine
 10
101.6118870000000
 20
168.9052500000000
 30
0.000000000000000
 11
101.6118870000000
 21
171.4052500000000
 31
0.000000000000000
  0
LINE
  5
10C
100
AcDbEntity
  8
A1
  6
CONTINUOUS
 62
7
100
AcDbLine
 10
103.9105440000000
 20
168.9052500000000
 30
0.000000000000000
 11
103.9105440000000
 21
171.4052500000000
 31
0.000000000000000
  0
LINE
  5
10D
100
AcDbEntity
  8
A1
  6
CONTINUOUS
 62
7
100
AcDbLine
 10
104.5346100000000
 20
188.4052500000000
 30
0.000000000000000
 11
104.5346100000000
 21
190.9052500000000
 31
0.000000000000000
  0
LINE
  5
10E
100
AcDbEntity
  8
A1
  6
CONTINUOUS
 62
7
100
AcDbLine
 10
101.6118870000000
 20
188.4052500000000
 30
0.000000000000000
 11
101.6118870000000
 21
190.9052500000000
 31
0.000000000000000
  0
LINE
  5
10F
100
AcDbEntity
  8
A1
  6
CONTINUOUS
 62
7
100
AcDbLine
 10
103.9105440000000
 20
188.4052500000000
 30
0.000000000000000
 11
103.9105440000000
 21
190.9052500000000
 31
0.000000000000000
  0
LINE
  5
110
100
AcDbEntity
  8
A1
  6
CONTINUOUS
 62
7
100
AcDbLine
 10
98.96669099999997
 20
189.9052500000000
 30
0.000000000000000
 11
98.96669099999997
 21
190.9052500000000
 31
0.000000000000000
  0
LINE
  5
111
100
AcDbEntity
  8
A1
  6
CONTINUOUS
 62
7
100
AcDbLine
 10
99.91413299999999
 20
169.9052500000000
 30
0.000000000000000
 11
99.91413299999999
 21
171.6425850000000
 31
0.000000000000000
  0
LINE
  5
112
100
AcDbEntity
  8
A1
  6
CONTINUOUS
 62
7
100
AcDbLine
 10
99.91413299999999
 20
189.9052500000000
 30
0.000000000000000
 11
99.91413299999999
 21
188.1679139999999
 31
0.000000000000000
  0
ARC
  5
113
100
AcDbEntity
  8
A1
  6
CONTINUOUS
 62
7
100
AcDbCircle
 10
-11.00000000000000
 20
179.9052500000000
 30
0.000000000000000
 40
120.0000000000000
100
AcDbArc
 50
355.3518869999328
 51
355.9381474799180
  0
ARC
  5
114
100
AcDbEntity
  8
A5
  6
PHANTOM
 62
6
100
AcDbCircle
 10
113.1077620000000
 20
100.6692740000000
 30
0.000000000000000
 40
0.3000000000000000
100
AcDbArc
 50
77.99999999998337
 51
150.3539499999742
  0
ARC
  5
115
100
AcDbEntity
  8
A5
  6
PHANTOM
 62
6
100
AcDbCircle
 10
112.5464009999999
 20
98.02827500000001
 30
0.000000000000000
 40
3.000000000000000
100
AcDbArc
 50
47.91436099999076
 51
77.99999999998543
  0
ARC
  5
116
100
AcDbEntity
  8
A5
  6
PHANTOM
 62
6
100
AcDbCircle
 10
114.3560500000000
 20
100.0320640000000
 30
0.000000000000000
 40
0.3000000000000000
100
AcDbArc
 50
330.2203519999379
 51
407.9143609999261
  0
ARC
  5
117
100
AcDbEntity
  8
A1
  6
CONTINUOUS
 62
7
100
AcDbCircle
 10
103.2055940000000
 20
95.12031800000000
 30
0.000000000000000
 40
5.000000000000000
100
AcDbArc
 50
326.0101199999385
 51
376.6547639999288
  0
ARC
  5
118
100
AcDbEntity
  8
A1
  6
CONTINUOUS
 62
7
100
AcDbCircle
 10
114.6312940000000
 20
127.0369780000000
 30
0.000000000000000
 40
29.00000000000000
100
AcDbArc
 50
241.8502739999543
 51
276.0217649999478
  0
ARC
  5
119
100
AcDbEntity
  8
A1
  6
CONTINUOUS
 62
7
100
AcDbCircle
 10
114.6312940000000
 20
127.0369780000000
 30
0.000000000000000
 40
27.00000000000000
100
AcDbArc
 50
234.2203519999558
 51
276.1553629999478
  0
ARC
  5
11A
100
AcDbEntity
  8
A1
  6
CONTINUOUS
 62
7
100
AcDbCircle
 10
109.4329130000000
 20
96.98324500000001
 30
0.000000000000000
 40
1.500000000000000
100
AcDbArc
 50
80.18667199998472
 51
196.6547639999628
  0
ARC
  5
11B
100
AcDbEntity
  8
A1
  6
CONTINUOUS
 62
7
100
AcDbCircle
 10
100.4734670000000
 20
102.8800750000000
 30
0.000000000000000
 40
3.000000000000000
100
AcDbArc
 50
131.9143609999751
 51
154.4634309999708
  0
ARC
  5
11C
100
AcDbEntity
  8
A1
  6
CONTINUOUS
 62
7
100
AcDbCircle
 10
114.9974800000000
 20
99.03937200000001
 30
0.000000000000000
 40
3.000000000000000
100
AcDbArc
 50
348.3757159999342
 51
378.4613539999285
  0
ARC
  5
11D
100
AcDbEntity
  8
A1
  6
CONTINUOUS
 62
7
100
AcDbCircle
 10
117.5585310000000
 20
99.89436800000001
 30
0.000000000000000
 40
0.3000000000000000
100
AcDbArc
 50
18.46135399999476
 51
96.15536299998054
  0
ARC
  5
11E
100
AcDbEntity
  8
A1
  6
CONTINUOUS
 62
7
100
AcDbCircle
 10
117.6421030000000
 20
98.49534100000000
 30
0.000000000000000
 40
0.3000000000000000
100
AcDbArc
 50
276.0217649999500
 51
348.3757159999350
  0
ARC
  5
11F
100
AcDbEntity
  8
A1
  6
CONTINUOUS
 62
7
100
AcDbCircle
 10
98.66981499999997
 20
104.8892640000000
 30
0.000000000000000
 40
0.3000000000000000
100
AcDbArc
 50
54.22035199998925
 51
131.9143609999740
  0
ARC
  5
120
100
AcDbEntity
  8
A5
  6
PHANTOM
 62
6
100
AcDbCircle
 10
110.2449100000000
 20
83.18236300000001
 30
0.000000000000000
 40
3.000000000000000
100
AcDbArc
 50
265.3055269999497
 51
294.4613539999445
  0
LINE
  5
121
100
AcDbEntity
  8
A5
  6
PHANTOM
 62
6
100
AcDbLine
 10
102.3844409999999
 20
101.3626059999999
 30
0.000000000000000
 11
101.6150420000000
 21
100.8036050000000
 31
0.000000000000000
  0
ARC
  5
122
100
AcDbEntity
  8
A5
  6
PHANTOM
 62
6
100
AcDbCircle
 10
104.1817240000000
 20
95.11602500000001
 30
0.000000000000000
 40
6.500000000000000
100
AcDbArc
 50
20.74440699999620
 51
106.0517259999800
  0
ARC
  5
123
100
AcDbEntity
  8
A5
  6
PHANTOM
 62
6
100
AcDbCircle
 10
138.0508650000000
 20
86.47309000000001
 30
0.000000000000000
 40
29.00000000000000
100
AcDbArc
 50
150.3539499999716
 51
178.1179649999664
  0
ARC
  5
124
100
AcDbEntity
  8
A5
  6
PHANTOM
 62
6
100
AcDbCircle
 10
138.0508650000000
 20
86.47309000000001
 30
0.000000000000000
 40
27.00000000000000
100
AcDbArc
 50
150.2203519999716
 51
192.1553629999637
  0
ARC
  5
125
100
AcDbEntity
  8
A5
  6
PHANTOM
 62
6
100
AcDbCircle
 10
110.7279129999999
 20
97.59542300000001
 30
0.000000000000000
 40
0.5000000000000000
100
AcDbArc
 50
200.7444069999626
 51
337.8502739999345
  0
ARC
  5
126
100
AcDbEntity
  8
A5
  6
PHANTOM
 62
6
100
AcDbCircle
 10
107.6183910000000
 20
88.50152300000002
 30
0.000000000000000
 40
1.500000000000000
100
AcDbArc
 50
356.1866719999326
 51
420.7871989999205
  0
ARC
  5
127
100
AcDbEntity
  8
A5
  6
PHANTOM
 62
6
100
AcDbCircle
 10
111.3629250000000
 20
80.72471300000001
 30
0.000000000000000
 40
0.3000000000000000
100
AcDbArc
 50
294.4613539999432
 51
372.1553629999308
  0
LINE
  5
128
100
AcDbEntity
  8
A4
  6
CENTER
 62
1
100
AcDbLine
 10
165.4027289999999
 20
70.00000000000000
 30
0.000000000000000
 11
165.4027289999999
 21
134.0000000000000
 31
0.000000000000000
  0
CIRCLE
  5
129
100
AcDbEntity
  8
A1
  6
CONTINUOUS
 62
7
100
AcDbCircle
 10
63.00000000000000
 20
179.9052500000000
 30
0.000000000000000
 40
5.000000000000000
  0
CIRCLE
  5
12A
100
AcDbEntity
  8
A1
  6
CONTINUOUS
 62
7
100
AcDbCircle
 10
63.00000000000000
 20
179.9052500000000
 30
0.000000000000000
 40
4.000000000000000
  0
LINE
  5
12B
100
AcDbEntity
  8
A1
  6
CONTINUOUS
 62
7
100
AcDbLine
 10
160.4027289999999
 20
121.0000000000000
 30
0.000000000000000
 11
170.4027289999999
 21
121.0000000000000
 31
0.000000000000000
  0
LINE
  5
12C
100
AcDbEntity
  8
A1
  6
CONTINUOUS
 62
7
100
AcDbLine
 10
161.4027289999999
 20
132.5000000000000
 30
0.000000000000000
 11
169.4027289999999
 21
132.5000000000000
 31
0.000000000000000
  0
LINE
  5
12D
100
AcDbEntity
  8
A2
  6
CONTINUOUS
 62
4
100
AcDbLine
 10
161.4027289999999
 20
121.0000000000000
 30
0.000000000000000
 11
161.4027289999999
 21
132.5000000000000
 31
0.000000000000000
  0
LINE
  5
12E
100
AcDbEntity
  8
A2
  6
CONTINUOUS
 62
4
100
AcDbLine
 10
169.4027289999999
 20
121.0000000000000
 30
0.000000000000000
 11
169.4027289999999
 21
132.5000000000000
 31
0.000000000000000
  0
LINE
  5
12F
100
AcDbEntity
  8
A1
  6
CONTINUOUS
 62
7
100
AcDbLine
 10
160.4027289999999
 20
118.5000000000000
 30
0.000000000000000
 11
160.4027289999999
 21
131.5000000000000
 31
0.000000000000000
  0
LINE
  5
130
100
AcDbEntity
  8
A1
  6
CONTINUOUS
 62
7
100
AcDbLine
 10
170.4027289999999
 20
118.5000000000000
 30
0.000000000000000
 11
170.4027289999999
 21
131.5000000000000
 31
0.000000000000000
  0
LINE
  5
131
100
AcDbEntity
  8
A1
  6
CONTINUOUS
 62
7
100
AcDbLine
 10
160.4027289999999
 20
131.5000000000000
 30
0.000000000000000
 11
170.4027289999999
 21
131.5000000000000
 31
0.000000000000000
  0
LINE
  5
132
100
AcDbEntity
  8
A1
  6
CONTINUOUS
 62
7
100
AcDbLine
 10
161.4027289999997
 20
132.4999999999999
 30
0.000000000000000
 11
160.4027289999997
 21
131.4999999999999
 31
0.000000000000000
  0
LINE
  5
133
100
AcDbEntity
  8
A1
  6
CONTINUOUS
 62
7
100
AcDbLine
 10
169.4027290000000
 20
132.5000000000000
 30
0.000000000000000
 11
170.4027290000000
 21
131.5000000000000
 31
0.000000000000000
  0
LINE
  5
134
100
AcDbEntity
  8
A2
  6
CONTINUOUS
 62
4
100
AcDbLine
 10
161.4027289999999
 20
121.0000000000000
 30
0.000000000000000
 11
160.4027289999999
 21
118.5000000000000
 31
0.000000000000000
  0
LINE
  5
135
100
AcDbEntity
  8
A2
  6
CONTINUOUS
 62
4
100
AcDbLine
 10
169.4027289999999
 20
121.0000000000000
 30
0.000000000000000
 11
170.4027289999999
 21
118.5000000000000
 31
0.000000000000000
  0
LINE
  5
136
100
AcDbEntity
  8
A1
  6
CONTINUOUS
 62
7
100
AcDbLine
 10
58.00000000000000
 20
121.0000000000000
 30
0.000000000000000
 11
68.00000000000000
 21
121.0000000000000
 31
0.000000000000000
  0
LINE
  5
137
100
AcDbEntity
  8
A2
  6
CONTINUOUS
 62
4
100
AcDbLine
 10
59.00000000000000
 20
121.0000000000000
 30
0.000000000000000
 11
59.00000000000000
 21
132.5000000000000
 31
0.000000000000000
  0
LINE
  5
138
100
AcDbEntity
  8
A2
  6
CONTINUOUS
 62
4
100
AcDbLine
 10
67.00000000000000
 20
121.0000000000000
 30
0.000000000000000
 11
67.00000000000000
 21
132.5000000000000
 31
0.000000000000000
  0
LINE
  5
139
100
AcDbEntity
  8
A1
  6
CONTINUOUS
 62
7
100
AcDbLine
 10
58.00000000000000
 20
118.5000000000000
 30
0.000000000000000
 11
58.00000000000000
 21
131.5000000000000
 31
0.000000000000000
  0
LINE
  5
13A
100
AcDbEntity
  8
A1
  6
CONTINUOUS
 62
7
100
AcDbLine
 10
68.00000000000000
 20
118.5000000000000
 30
0.000000000000000
 11
68.00000000000000
 21
131.5000000000000
 31
0.000000000000000
  0
LINE
  5
13B
100
AcDbEntity
  8
A1
  6
CONTINUOUS
 62
7
100
AcDbLine
 10
58.00000000000000
 20
131.5000000000000
 30
0.000000000000000
 11
68.00000000000000
 21
131.5000000000000
 31
0.000000000000000
  0
LINE
  5
13C
100
AcDbEntity
  8
A1
  6
CONTINUOUS
 62
7
100
AcDbLine
 10
58.99999999999991
 20
132.5000000000000
 30
0.000000000000000
 11
57.99999999999989
 21
131.5000000000000
 31
0.000000000000000
  0
LINE
  5
13D
100
AcDbEntity
  8
A1
  6
CONTINUOUS
 62
7
100
AcDbLine
 10
67.00000000000003
 20
132.5000000000000
 30
0.000000000000000
 11
68.00000000000003
 21
131.5000000000000
 31
0.000000000000000
  0
LINE
  5
13E
100
AcDbEntity
  8
A2
  6
CONTINUOUS
 62
4
100
AcDbLine
 10
58.99999999999996
 20
121.0000000000000
 30
0.000000000000000
 11
57.99999999999996
 21
118.5000000000000
 31
0.000000000000000
  0
LINE
  5
13F
100
AcDbEntity
  8
A2
  6
CONTINUOUS
 62
4
100
AcDbLine
 10
66.99999999999997
 20
121.0000000000000
 30
0.000000000000000
 11
67.99999999999997
 21
118.5000000000000
 31
0.000000000000000
  0
ENDSEC
  0
SECTION
  2
OBJECTS
  0
DICTIONARY
  5
16C
100
AcDbDictionary
  3
ACAD_GROUP
350
16D
  3
ACAD_LAYOUT
350
16E
  3
ACAD_MLINESTYLE
350
16F
  3
DWGPROPS
350
170
  0
DICTIONARY
  5
16D
102
{ACAD_REACTORS
330
16C
102
}
330
16C
100
AcDbDictionary
  0
DICTIONARY
  5
16E
102
{ACAD_REACTORS
330
16C
102
}
330
16C
100
AcDbDictionary
  3
Model
350
171
  3
ﾚｲｱｳﾄ1
350
172
  3
ﾚｲｱｳﾄ2
350
173
  0
DICTIONARY
  5
16F
102
{ACAD_REACTORS
330
16C
102
}
330
16C
100
AcDbDictionary
  3
STANDARD
350
174
  0
LAYOUT
  5
171
102
{ACAD_REACTORS
330
16E
102
}
330
16E
100
AcDbPlotSettings
 70
11952
  4
A3
 44
297.000000
 45
420.000000
 73
  1
 72
  1
100
AcDbLayout
  1
Model
 71
0
330
163
  0
LAYOUT
  5
172
102
{ACAD_REACTORS
330
16E
102
}
330
16E
100
AcDbPlotSettings
100
AcDbLayout
  1
ﾚｲｱｳﾄ1
 71
1
330
164
  0
LAYOUT
  5
173
102
{ACAD_REACTORS
330
16E
102
}
330
16E
100
AcDbPlotSettings
100
AcDbLayout
  1
ﾚｲｱｳﾄ2
 71
2
330
165
  0
MLINESTYLE
  5
174
102
{ACAD_REACTORS
330
16F
102
}
330
16F
100
AcDbMlineStyle
  2
STANDARD
 70
     0
  3

 62
   256
 51
90.00
 52
90.00
 71
     2
 49
0.50
 62
   256
  6
BYLAYER
 49
-0.50
 62
   256
  6
BYLAYER
  0
XRECORD
  5
170
102
{ACAD_REACTORS
330
16C
102
}
100
AcDbXrecord
280
     1
  1
DWGPROPS COOKIE
  2
TCA-TE60JN10S
  3

  4

  6
TE型双輪キャスター
  7

  8

  9

300
=
301
=
302
=
303
=
304
=
305
=
306
=
307
=
308
=
309
=
 40
0.000000
 41
0.000000
 42
0.000000
  1

 90
        0
  0
ENDSEC
  0
EOF
