  0
SECTION
  2
HEADER
  9
$ACADVER
  1
AC1015
  9
$DWGCODEPAGE
  3
ANSI_932
  9
$LTSCALE
 40
20.0
  9
$FILLMODE
 70
     1
  9
$CLAYER
  8
0
  9
$PDMODE
 70
     0
  9
$SPLFRAME
 70
     0
  9
$SPLINETYPE
 70
     6
  9
$SPLINESEGS
 70
     8
  9
$DIMASZ
 40
2.000000
  9
$DIMEXE
 40
1.500000
  9
$DIMEXO
 40
0.800000
  9
$DIMTAD
 70
     1
  9
$DIMTIH
 70
     0
  9
$DIMTOH
 70
     0
  9
$DIMTVP
 40
0.500000
  9
$DIMTXT
 40
3.100000
  9
$EXTMIN
 10
0.000000
 20
0.000000
 30
0.000000
  9
$EXTMAX
 10
297.000000
 20
420.000000
 30
0.000000
  9
$MEASUREMENT
 70
  1
  9
$LIMMIN
 10
0.000000
 20
0.000000
  9
$LIMMAX
 10
297.000000
 20
420.000000
  9
$HANDSEED
  5
105
  9
$LWDISPLAY
290
     0
  9
$DIMBLK
  1
_OPEN
  9
$DIMDEC
 70
     2
  9
$DIMADEC
 70
     2
  9
$DIMAUNIT
 70
     0
  9
$DIMZIN
 70
     8
  9
$DIMAZIN
 70
     2
  9
$DIMTOFL
 70
     1
  0
ENDSEC
  0
SECTION
  2
CLASSES
  0
ENDSEC
  0
SECTION
  2
TABLES
  0
TABLE
  2
VPORT
  5
D2
100
AcDbSymbolTable
 70
     1
  0
VPORT
  5
D3
100
AcDbSymbolTableRecord
100
AcDbViewportTableRecord
  2
*ACTIVE
 70
     0
 12
96.905248
 22
112.155250
 40
188.310498
 41
0.923000
  0
ENDTAB
  0
TABLE
  2
LTYPE
  5
D4
100
AcDbSymbolTable
 70
     2
  0
LTYPE
  5
D5
100
AcDbSymbolTableRecord
100
AcDbLinetypeTableRecord
  2
BYBLOCK
 70
     0
  3

 72
    65
 73
     0
 40
0.0
  0
LTYPE
  5
D6
100
AcDbSymbolTableRecord
100
AcDbLinetypeTableRecord
  2
BYLAYER
 70
     0
  3

 72
    65
 73
     0
 40
0.0
  0
LTYPE
  5
D7
100
AcDbSymbolTableRecord
100
AcDbLinetypeTableRecord
  2
CONTINUOUS
 70
     0
  3
Solid line (NEC CAE2D for Win R17.0 : 2022.11.09)
 72
    65
 73
     0
 40
0.0
  0
LTYPE
  5
D8
100
AcDbSymbolTableRecord
100
AcDbLinetypeTableRecord
  2
CENTER
 70
     0
  3
____ _ ____ _ ____ _ ____ _ ____ _ ____
 72
    65
 73
     4
 40
2.0
 49
1.25
 74
     0
 49
-0.25
 74
     0
 49
0.25
 74
     0
 49
-0.25
 74
     0
  0
ENDTAB
  0
TABLE
  2
LAYER
  5
D9
100
AcDbSymbolTable
 70
    12
  0
LAYER
  5
DA
100
AcDbSymbolTableRecord
100
AcDbLayerTableRecord
  2
0
 70
     0
 62
     7
  6
CONTINUOUS
370
    -3
390

  0
LAYER
  5
DB
100
AcDbSymbolTableRecord
100
AcDbLayerTableRecord
  2
A0
 70
     0
 62
     9
  6
CONTINUOUS
370
    -3
390

  0
LAYER
  5
DC
100
AcDbSymbolTableRecord
100
AcDbLayerTableRecord
  2
A1
 70
     0
 62
     8
  6
CONTINUOUS
370
    -3
390

  0
LAYER
  5
DD
100
AcDbSymbolTableRecord
100
AcDbLayerTableRecord
  2
A2
 70
     0
 62
    12
  6
CONTINUOUS
370
    -3
390

  0
LAYER
  5
DE
100
AcDbSymbolTableRecord
100
AcDbLayerTableRecord
  2
A4
 70
     0
 62
    10
  6
CONTINUOUS
370
    -3
390

  0
LAYER
  5
DF
100
AcDbSymbolTableRecord
100
AcDbLayerTableRecord
  2
A7
 70
     0
 62
    12
  6
CONTINUOUS
370
    -3
390

  0
LAYER
  5
E0
100
AcDbSymbolTableRecord
100
AcDbLayerTableRecord
  2
A10
 70
     0
 62
     6
  6
CONTINUOUS
370
    -3
390

  0
LAYER
  5
E1
100
AcDbSymbolTableRecord
100
AcDbLayerTableRecord
  2
A20
 70
     0
 62
     1
  6
CONTINUOUS
370
    -3
390

  0
LAYER
  5
E2
100
AcDbSymbolTableRecord
100
AcDbLayerTableRecord
  2
A30
 70
     0
 62
     1
  6
CONTINUOUS
370
    -3
390

  0
LAYER
  5
E3
100
AcDbSymbolTableRecord
100
AcDbLayerTableRecord
  2
A40
 70
     0
 62
     9
  6
CONTINUOUS
370
    -3
390

  0
LAYER
  5
E4
100
AcDbSymbolTableRecord
100
AcDbLayerTableRecord
  2
A50
 70
     0
 62
    12
  6
CONTINUOUS
370
    -3
390

  0
LAYER
  5
E5
100
AcDbSymbolTableRecord
100
AcDbLayerTableRecord
  2
A1023
 70
     0
 62
    16
  6
CONTINUOUS
370
    -3
390

  0
ENDTAB
  0
TABLE
  2
STYLE
  5
E6
100
AcDbSymbolTable
 70
     4
  0
STYLE
  5
E7
100
AcDbSymbolTableRecord
100
AcDbTextStyleTableRecord
  2
STANDARD
 70
    64
 40
0.0
 41
1.0
 50
0.0
 71
     0
 42
3.000000000000000
  3
TXT
  4

  0
STYLE
  5
E8
100
AcDbSymbolTableRecord
100
AcDbTextStyleTableRecord
  2
ANKTATE
 70
    68
 40
0.0
 41
1.0
 50
0.0
 71
     0
 42
3.000000000000000
  3
TXT
  4

  0
STYLE
  5
E9
100
AcDbSymbolTableRecord
100
AcDbTextStyleTableRecord
  2
KNJYOKO
 70
    64
 40
0.0
 41
1.0
 50
0.0
 71
     0
 42
3.000000000000000
  3
TXT
  4
BIGFONT
  0
STYLE
  5
EA
100
AcDbSymbolTableRecord
100
AcDbTextStyleTableRecord
  2
KNJTATE
 70
    68
 40
0.0
 41
1.0
 50
0.0
 71
     0
 42
3.000000000000000
  3
TXT
  4
BIGFONT
  0
ENDTAB
  0
TABLE
  2
VIEW
  5
EB
100
AcDbSymbolTable
 70
     0
  0
ENDTAB
  0
TABLE
  2
UCS
  5
EC
100
AcDbSymbolTable
 70
     0
  0
ENDTAB
  0
TABLE
  2
APPID
  5
ED
100
AcDbSymbolTable
 70
     1
  0
APPID
  5
EE
100
AcDbSymbolTableRecord
100
AcDbRegAppTableRecord
  2
ACAD
 70
     0
  0
ENDTAB
  0
TABLE
  2
DIMSTYLE
  5
EF
100
AcDbSymbolTable
 70
     2
100
AcDbDimStyleTable
  0
DIMSTYLE
105
F0
100
AcDbSymbolTableRecord
100
AcDbDimStyleTableRecord
  2
STANDARD
 70
     0
 41
2.000000
 44
1.500000
 42
0.800000
145
0.661290
140
3.100000
144
1.000000
146
0.645161
340
E7
  0
DIMSTYLE
105
F1
100
AcDbSymbolTableRecord
100
AcDbDimStyleTableRecord
  2
A001
 70
     0
 41
2.000000
 44
1.500000
 42
0.800000
145
0.661290
140
3.100000
144
1.000000
146
0.645161
 77
     1
 73
     0
 74
     0
271
     2
179
     2
275
     0
 78
     8
 79
     2
172
     1
340
E7
  0
ENDTAB
  0
TABLE
  2
BLOCK_RECORD
  5
F2
100
AcDbSymbolTable
 70
    12
  0
BLOCK_RECORD
  5
F3
100
AcDbSymbolTableRecord
100
AcDbBlockTableRecord
  2
*MODEL_SPACE
  0
BLOCK_RECORD
  5
F4
100
AcDbSymbolTableRecord
100
AcDbBlockTableRecord
  2
*PAPER_SPACE
  0
BLOCK_RECORD
  5
F5
100
AcDbSymbolTableRecord
100
AcDbBlockTableRecord
  2
*PAPER_SPACE0
  0
BLOCK_RECORD
  5
1
100
AcDbSymbolTableRecord
100
AcDbBlockTableRecord
  2
_NONE
  0
BLOCK_RECORD
  5
4
100
AcDbSymbolTableRecord
100
AcDbBlockTableRecord
  2
_CLOSED
  0
BLOCK_RECORD
  5
B
100
AcDbSymbolTableRecord
100
AcDbBlockTableRecord
  2
_DOT
  0
BLOCK_RECORD
  5
13
100
AcDbSymbolTableRecord
100
AcDbBlockTableRecord
  2
_OPEN
  0
BLOCK_RECORD
  5
19
100
AcDbSymbolTableRecord
100
AcDbBlockTableRecord
  2
_ORIGIN
  0
BLOCK_RECORD
  5
1E
100
AcDbSymbolTableRecord
100
AcDbBlockTableRecord
  2
_OPEN30
  0
BLOCK_RECORD
  5
24
100
AcDbSymbolTableRecord
100
AcDbBlockTableRecord
  2
_BOXFILLED
  0
BLOCK_RECORD
  5
29
100
AcDbSymbolTableRecord
100
AcDbBlockTableRecord
  2
_BOXBLANK
  0
BLOCK_RECORD
  5
31
100
AcDbSymbolTableRecord
100
AcDbBlockTableRecord
  2
_OBLIQUE
  0
BLOCK_RECORD
  5
35
100
AcDbSymbolTableRecord
100
AcDbBlockTableRecord
  2
_OPEN90
  0
BLOCK_RECORD
  5
3B
100
AcDbSymbolTableRecord
100
AcDbBlockTableRecord
  2
_CLOSEDBLANK
  0
BLOCK_RECORD
  5
41
100
AcDbSymbolTableRecord
100
AcDbBlockTableRecord
  2
_DOTBLANK
  0
ENDTAB
  0
ENDSEC
  0
SECTION
  2
BLOCKS
  0
BLOCK
  5
F6
100
AcDbEntity
  8
0
100
AcDbBlockBegin
  2
*MODEL_SPACE
 70
     0
 10
0.0
 20
0.0
 30
0.0
  3
*MODEL_SPACE
  1

  0
ENDBLK
  5
F7
100
AcDbEntity
  8
0
100
AcDbBlockEnd
  0
BLOCK
  5
F8
100
AcDbEntity
  8
0
100
AcDbBlockBegin
  2
*PAPER_SPACE
 70
     0
 10
0.0
 20
0.0
 30
0.0
  3
*PAPER_SPACE
  1

  0
ENDBLK
  5
F9
100
AcDbEntity
  8
0
100
AcDbBlockEnd
  0
BLOCK
  5
FA
100
AcDbEntity
  8
0
100
AcDbBlockBegin
  2
*PAPER_SPACE0
 70
     0
 10
0.0
 20
0.0
 30
0.0
  3
*PAPER_SPACE0
  1

  0
ENDBLK
  5
FB
100
AcDbEntity
  8
0
100
AcDbBlockEnd
  0
BLOCK
  5
2
330
1
100
AcDbEntity
  8
0
100
AcDbBlockBegin
  2
_NONE
 70
     0
 10
0.0
 20
0.0
 30
0.0
  3
_NONE
  1

  0
ENDBLK
  5
3
330
1
100
AcDbEntity
  8
0
100
AcDbBlockEnd
  0
BLOCK
  5
5
330
4
100
AcDbEntity
  8
0
100
AcDbBlockBegin
  2
_CLOSED
 70
     0
 10
0.0
 20
0.0
 30
0.0
  3
_CLOSED
  1

  0
LINE
  5
6
330
4
100
AcDbEntity
  8
0
  6
BYBLOCK
 62
     0
370
    -2
100
AcDbLine
 10
-1.0
 20
0.166667
 30
0.0
 11
0.0
 21
0.0
 31
0.0
  0
LINE
  5
7
330
4
100
AcDbEntity
  8
0
  6
BYBLOCK
 62
     0
370
    -2
100
AcDbLine
 10
0.0
 20
0.0
 30
0.0
 11
-1.0
 21
-0.166667
 31
0.0
  0
LINE
  5
8
330
4
100
AcDbEntity
  8
0
  6
BYBLOCK
 62
     0
370
    -2
100
AcDbLine
 10
-1.0
 20
0.166667
 30
0.0
 11
-1.0
 21
-0.166667
 31
0.0
  0
LINE
  5
9
330
4
100
AcDbEntity
  8
0
  6
BYBLOCK
 62
     0
370
    -2
100
AcDbLine
 10
0.0
 20
0.0
 30
0.0
 11
-1.0
 21
0.0
 31
0.0
  0
ENDBLK
  5
A
330
4
100
AcDbEntity
  8
0
100
AcDbBlockEnd
  0
BLOCK
  5
C
330
B
100
AcDbEntity
  8
0
100
AcDbBlockBegin
  2
_DOT
 70
     0
 10
0.0
 20
0.0
 30
0.0
  3
_DOT
  1

  0
POLYLINE
  5
D
330
B
100
AcDbEntity
  8
0
  6
BYBLOCK
 62
     0
370
    -2
100
AcDb2dPolyline
 66
     1
 10
0.0
 20
0.0
 30
0.0
 70
     1
 40
0.5
 41
0.5
  0
VERTEX
  5
E
330
B
100
AcDbEntity
  8
0
  6
BYBLOCK
 62
     0
370
    -2
100
AcDbVertex
100
AcDb2dVertex
 10
-0.25
 20
0.0
 30
0.0
 42
1.0
  0
VERTEX
  5
F
330
B
100
AcDbEntity
  8
0
  6
BYBLOCK
 62
     0
370
    -2
100
AcDbVertex
100
AcDb2dVertex
 10
0.25
 20
0.0
 30
0.0
 42
1.0
  0
SEQEND
  5
10
330
B
100
AcDbEntity
  8
0
  6
BYBLOCK
 62
     0
370
    -2
  0
LINE
  5
11
330
B
100
AcDbEntity
  8
0
  6
BYBLOCK
 62
     0
370
    -2
100
AcDbLine
 10
-0.5
 20
0.0
 30
0.0
 11
-1.0
 21
0.0
 31
0.0
  0
ENDBLK
  5
12
330
B
100
AcDbEntity
  8
0
100
AcDbBlockEnd
  0
BLOCK
  5
14
330
13
100
AcDbEntity
  8
0
100
AcDbBlockBegin
  2
_OPEN
 70
     0
 10
0.0
 20
0.0
 30
0.0
  3
_OPEN
  1

  0
LINE
  5
15
330
13
100
AcDbEntity
  8
0
  6
BYBLOCK
 62
     0
370
    -2
100
AcDbLine
 10
-1.0
 20
0.166667
 30
0.0
 11
0.0
 21
0.0
 31
0.0
  0
LINE
  5
16
330
13
100
AcDbEntity
  8
0
  6
BYBLOCK
 62
     0
370
    -2
100
AcDbLine
 10
0.0
 20
0.0
 30
0.0
 11
-1.0
 21
-0.166667
 31
0.0
  0
LINE
  5
17
330
13
100
AcDbEntity
  8
0
  6
BYBLOCK
 62
     0
370
    -2
100
AcDbLine
 10
0.0
 20
0.0
 30
0.0
 11
-1.0
 21
0.0
 31
0.0
  0
ENDBLK
  5
18
330
13
100
AcDbEntity
  8
0
100
AcDbBlockEnd
  0
BLOCK
  5
1A
330
19
100
AcDbEntity
  8
0
100
AcDbBlockBegin
  2
_ORIGIN
 70
     0
 10
0.0
 20
0.0
 30
0.0
  3
_ORIGIN
  1

  0
CIRCLE
  5
1B
330
19
100
AcDbEntity
  8
0
  6
BYBLOCK
 62
     0
370
    -2
100
AcDbCircle
 10
0.0
 20
0.0
 30
0.0
 40
0.5
  0
LINE
  5
1C
330
19
100
AcDbEntity
  8
0
  6
BYBLOCK
 62
     0
370
    -2
100
AcDbLine
 10
0.0
 20
0.0
 30
0.0
 11
-1.0
 21
0.0
 31
0.0
  0
ENDBLK
  5
1D
330
19
100
AcDbEntity
  8
0
100
AcDbBlockEnd
  0
BLOCK
  5
1F
330
1E
100
AcDbEntity
  8
0
100
AcDbBlockBegin
  2
_OPEN30
 70
     0
 10
0.0
 20
0.0
 30
0.0
  3
_OPEN30
  1

  0
LINE
  5
20
330
1E
100
AcDbEntity
  8
0
  6
BYBLOCK
 62
     0
370
    -2
100
AcDbLine
 10
-1.0
 20
0.267949
 30
0.0
 11
0.0
 21
0.0
 31
0.0
  0
LINE
  5
21
330
1E
100
AcDbEntity
  8
0
  6
BYBLOCK
 62
     0
370
    -2
100
AcDbLine
 10
0.0
 20
0.0
 30
0.0
 11
-1.0
 21
-0.267949
 31
0.0
  0
LINE
  5
22
330
1E
100
AcDbEntity
  8
0
  6
BYBLOCK
 62
     0
370
    -2
100
AcDbLine
 10
0.0
 20
0.0
 30
0.0
 11
-1.0
 21
0.0
 31
0.0
  0
ENDBLK
  5
23
330
1E
100
AcDbEntity
  8
0
100
AcDbBlockEnd
  0
BLOCK
  5
25
330
24
100
AcDbEntity
  8
0
100
AcDbBlockBegin
  2
_BOXFILLED
 70
     0
 10
0.0
 20
0.0
 30
0.0
  3
_BOXFILLED
  1

  0
SOLID
  5
26
330
24
100
AcDbEntity
  8
0
  6
BYBLOCK
 62
     0
370
    -2
100
AcDbTrace
 10
-0.5
 20
0.5
 30
0.0
 11
0.5
 21
0.5
 31
0.0
 12
-0.5
 22
-0.5
 32
0.0
 13
0.5
 23
-0.5
 33
0.0
  0
LINE
  5
27
330
24
100
AcDbEntity
  8
0
  6
BYBLOCK
 62
     0
370
    -2
100
AcDbLine
 10
-0.5
 20
0.0
 30
0.0
 11
-1.0
 21
0.0
 31
0.0
  0
ENDBLK
  5
28
330
24
100
AcDbEntity
  8
0
100
AcDbBlockEnd
  0
BLOCK
  5
2A
330
29
100
AcDbEntity
  8
0
100
AcDbBlockBegin
  2
_BOXBLANK
 70
     0
 10
0.0
 20
0.0
 30
0.0
  3
_BOXBLANK
  1

  0
LINE
  5
2B
330
29
100
AcDbEntity
  8
0
  6
BYBLOCK
 62
     0
370
    -2
100
AcDbLine
 10
-0.5
 20
-0.5
 30
0.0
 11
0.5
 21
-0.5
 31
0.0
  0
LINE
  5
2C
330
29
100
AcDbEntity
  8
0
  6
BYBLOCK
 62
     0
370
    -2
100
AcDbLine
 10
0.5
 20
-0.5
 30
0.0
 11
0.5
 21
0.5
 31
0.0
  0
LINE
  5
2D
330
29
100
AcDbEntity
  8
0
  6
BYBLOCK
 62
     0
370
    -2
100
AcDbLine
 10
0.5
 20
0.5
 30
0.0
 11
-0.5
 21
0.5
 31
0.0
  0
LINE
  5
2E
330
29
100
AcDbEntity
  8
0
  6
BYBLOCK
 62
     0
370
    -2
100
AcDbLine
 10
-0.5
 20
0.5
 30
0.0
 11
-0.5
 21
-0.5
 31
0.0
  0
LINE
  5
2F
330
29
100
AcDbEntity
  8
0
  6
BYBLOCK
 62
     0
370
    -2
100
AcDbLine
 10
-0.5
 20
0.0
 30
0.0
 11
-1.0
 21
0.0
 31
0.0
  0
ENDBLK
  5
30
330
29
100
AcDbEntity
  8
0
100
AcDbBlockEnd
  0
BLOCK
  5
32
330
31
100
AcDbEntity
  8
0
100
AcDbBlockBegin
  2
_OBLIQUE
 70
     0
 10
0.0
 20
0.0
 30
0.0
  3
_OBLIQUE
  1

  0
LINE
  5
33
330
31
100
AcDbEntity
  8
0
  6
BYBLOCK
 62
     0
370
    -2
100
AcDbLine
 10
-0.5
 20
-0.5
 30
0.0
 11
0.5
 21
0.5
 31
0.0
  0
ENDBLK
  5
34
330
31
100
AcDbEntity
  8
0
100
AcDbBlockEnd
  0
BLOCK
  5
36
330
35
100
AcDbEntity
  8
0
100
AcDbBlockBegin
  2
_OPEN90
 70
     0
 10
0.0
 20
0.0
 30
0.0
  3
_OPEN90
  1

  0
LINE
  5
37
330
35
100
AcDbEntity
  8
0
  6
BYBLOCK
 62
     0
370
    -2
100
AcDbLine
 10
-0.5
 20
0.5
 30
0.0
 11
0.0
 21
0.0
 31
0.0
  0
LINE
  5
38
330
35
100
AcDbEntity
  8
0
  6
BYBLOCK
 62
     0
370
    -2
100
AcDbLine
 10
0.0
 20
0.0
 30
0.0
 11
-0.5
 21
-0.5
 31
0.0
  0
LINE
  5
39
330
35
100
AcDbEntity
  8
0
  6
BYBLOCK
 62
     0
370
    -2
100
AcDbLine
 10
0.0
 20
0.0
 30
0.0
 11
-1.0
 21
0.0
 31
0.0
  0
ENDBLK
  5
3A
330
35
100
AcDbEntity
  8
0
100
AcDbBlockEnd
  0
BLOCK
  5
3C
330
3B
100
AcDbEntity
  8
0
100
AcDbBlockBegin
  2
_CLOSEDBLANK
 70
     0
 10
0.0
 20
0.0
 30
0.0
  3
_CLOSEDBLANK
  1

  0
LINE
  5
3D
330
3B
100
AcDbEntity
  8
0
  6
BYBLOCK
 62
     0
370
    -2
100
AcDbLine
 10
-1.0
 20
0.1666666666666666
 30
0.0
 11
0.0
 21
0.0
 31
0.0
  0
LINE
  5
3E
330
3B
100
AcDbEntity
  8
0
  6
BYBLOCK
 62
     0
370
    -2
100
AcDbLine
 10
0.0
 20
0.0
 30
0.0
 11
-1.0
 21
-0.1666666666666666
 31
0.0
  0
LINE
  5
3F
330
3B
100
AcDbEntity
  8
0
  6
BYBLOCK
 62
     0
370
    -2
100
AcDbLine
 10
-1.0
 20
0.1666666666666666
 30
0.0
 11
-1.0
 21
-0.1666666666666666
 31
0.0
  0
ENDBLK
  5
40
330
3B
100
AcDbEntity
  8
0
100
AcDbBlockEnd
  0
BLOCK
  5
42
330
41
100
AcDbEntity
  8
0
100
AcDbBlockBegin
  2
_DOTBLANK
 70
     0
 10
0.0
 20
0.0
 30
0.0
  3
_DOTBLANK
  1

  0
CIRCLE
  5
43
330
41
100
AcDbEntity
  8
0
  6
BYBLOCK
 62
     0
370
    -2
100
AcDbCircle
 10
0.0
 20
0.0
 30
0.0
 40
0.5
  0
LINE
  5
44
330
41
100
AcDbEntity
  8
0
  6
BYBLOCK
 62
     0
370
    -2
100
AcDbLine
 10
-0.5
 20
0.0
 30
0.0
 11
-1.0
 21
0.0
 31
0.0
  0
ENDBLK
  5
45
330
41
100
AcDbEntity
  8
0
100
AcDbBlockEnd
  0
ENDSEC
  0
SECTION
  2
ENTITIES
  0
MTEXT
  5
46
100
AcDbEntity
  8
A7
  6
CONTINUOUS
 62
3
100
AcDbMText
 10
9.999997526638502
 20
18.00000076076889
 30
0.000000000000000
 40
3.000000000000000
 41
0.000000000000000
 44
0.6739999771118164
 71
     7
 72
     1
  1
{\H0.94x;{TYPE No.TCA-TE60JN8}}
 11
1.000000000000000
 21
0.000000000000000
 31
0.000000000000000
  7
STANDARD
  0
POINT
  5
47
100
AcDbEntity
  8
A0
  6
CONTINUOUS
 62
3
100
AcDbPoint
 10
9.999997526638502
 20
18.00000076076889
 30
0.000000000000000
  0
CIRCLE
  5
48
100
AcDbEntity
  8
A1
  6
CONTINUOUS
 62
7
100
AcDbCircle
 10
80.00000000000000
 20
80.00000000000000
 30
0.000000000000000
 40
30.00000000000000
  0
LINE
  5
49
100
AcDbEntity
  8
A1
  6
CONTINUOUS
 62
7
100
AcDbLine
 10
71.50000000000000
 20
112.5000000000000
 30
0.000000000000000
 11
54.50000000000000
 21
112.5000000000000
 31
0.000000000000000
  0
LINE
  5
4A
100
AcDbEntity
  8
A1
  6
CONTINUOUS
 62
7
100
AcDbLine
 10
54.50000000000000
 20
111.5000000000000
 30
0.000000000000000
 11
54.50000000000000
 21
98.18653300000000
 31
0.000000000000000
  0
LINE
  5
4B
100
AcDbEntity
  8
A1
  6
CONTINUOUS
 62
7
100
AcDbLine
 10
71.50000000000000
 20
111.5000000000000
 30
0.000000000000000
 11
71.50000000000000
 21
111.5238000000000
 31
0.000000000000000
  0
ARC
  5
4C
100
AcDbEntity
  8
A1
  6
CONTINUOUS
 62
7
100
AcDbCircle
 10
55.50000000000000
 20
111.5000000000000
 30
0.000000000000000
 40
1.000000000000000
100
AcDbArc
 50
89.99999999998290
 51
179.9999999999658
  0
ARC
  5
4D
100
AcDbEntity
  8
A1
  6
CONTINUOUS
 62
7
100
AcDbCircle
 10
70.50000000000000
 20
111.5000000000000
 30
0.000000000000000
 40
1.000000000000000
100
AcDbArc
 50
359.9999999999316
 51
449.9999999999153
  0
ARC
  5
4E
100
AcDbEntity
  8
A1
  6
CONTINUOUS
 62
7
100
AcDbCircle
 10
34.50000000000000
 20
98.18653300000000
 30
0.000000000000000
 40
20.00000000000000
100
AcDbArc
 50
352.3071079999336
 51
359.9999999999321
  0
ARC
  5
4F
100
AcDbEntity
  8
A1
  6
CONTINUOUS
 62
7
100
AcDbCircle
 10
74.50000000000000
 20
111.5238000000000
 30
0.000000000000000
 40
3.000000000000000
100
AcDbArc
 50
179.9999999999658
 51
233.7417349999559
  0
LINE
  5
50
100
AcDbEntity
  8
A1
  6
CONTINUOUS
 62
7
100
AcDbLine
 10
110.0000000000000
 20
168.4052500000000
 30
0.000000000000000
 11
110.0000000000000
 21
162.4870850000000
 31
0.000000000000000
  0
ARC
  5
51
100
AcDbEntity
  8
A1
  6
CONTINUOUS
 62
7
100
AcDbCircle
 10
109.5000000000000
 20
191.4052500000000
 30
0.000000000000000
 40
0.5000000000000000
100
AcDbArc
 50
269.9999999999479
 51
359.9999999999316
  0
ARC
  5
52
100
AcDbEntity
  8
A1
  6
CONTINUOUS
 62
7
100
AcDbCircle
 10
109.5000000000000
 20
168.4052500000000
 30
0.000000000000000
 40
0.5000000000000000
100
AcDbArc
 50
359.9999999999316
 51
449.9999999999153
  0
ARC
  5
53
100
AcDbEntity
  8
A1
  6
CONTINUOUS
 62
7
100
AcDbCircle
 10
-11.00000000000000
 20
179.9052500000000
 30
0.000000000000000
 40
120.0000000000000
100
AcDbArc
 50
355.3518869999328
 51
364.0618529999312
  0
LINE
  5
54
100
AcDbEntity
  8
A1
  6
CONTINUOUS
 62
7
100
AcDbLine
 10
110.0000000000000
 20
191.4052500000000
 30
0.000000000000000
 11
110.0000000000000
 21
197.3234139999999
 31
0.000000000000000
  0
ARC
  5
55
100
AcDbEntity
  8
A1
  6
CONTINUOUS
 62
7
100
AcDbCircle
 10
108.3063290000000
 20
170.2052500000000
 30
0.000000000000000
 40
0.3000000000000000
100
AcDbArc
 50
269.9999999999512
 51
355.3518869999303
  0
ARC
  5
56
100
AcDbEntity
  8
A1
  6
CONTINUOUS
 62
7
100
AcDbCircle
 10
108.3063290000000
 20
189.6052500000000
 30
0.000000000000000
 40
0.3000000000000000
100
AcDbArc
 50
4.648112999998976
 51
89.99999999998371
  0
LINE
  5
57
100
AcDbEntity
  8
A1
  6
CONTINUOUS
 62
7
100
AcDbLine
 10
149.9052490000000
 20
112.5000000000000
 30
0.000000000000000
 11
164.9052490000000
 21
112.5000000000000
 31
0.000000000000000
  0
LINE
  5
58
100
AcDbEntity
  8
A1
  6
CONTINUOUS
 62
7
100
AcDbLine
 10
145.9052490000000
 20
110.0000000000000
 30
0.000000000000000
 11
139.9870850000000
 21
110.0000000000000
 31
0.000000000000000
  0
LINE
  5
59
100
AcDbEntity
  8
A1
  6
CONTINUOUS
 62
7
100
AcDbLine
 10
145.9052490000000
 20
50.00000000000001
 30
0.000000000000000
 11
139.9870850000000
 21
50.00000000000001
 31
0.000000000000000
  0
LINE
  5
5A
100
AcDbEntity
  8
A1
  6
CONTINUOUS
 62
7
100
AcDbLine
 10
146.4052490000000
 20
50.50000000000001
 30
0.000000000000000
 11
146.4052490000000
 21
109.5000000000000
 31
0.000000000000000
  0
LINE
  5
5B
100
AcDbEntity
  8
A1
  6
CONTINUOUS
 62
7
100
AcDbLine
 10
168.4052490000000
 20
50.50000000000001
 30
0.000000000000000
 11
168.4052490000000
 21
109.5000000000000
 31
0.000000000000000
  0
ARC
  5
5C
100
AcDbEntity
  8
A1
  6
CONTINUOUS
 62
7
100
AcDbCircle
 10
157.4052490000000
 20
-10.99999999999999
 30
0.000000000000000
 40
120.0000000000000
100
AcDbArc
 50
85.35188699998389
 51
94.64811299998215
  0
LINE
  5
5D
100
AcDbEntity
  8
A1
  6
CONTINUOUS
 62
7
100
AcDbLine
 10
168.9052490000000
 20
50.00000000000001
 30
0.000000000000000
 11
174.8234140000000
 21
50.00000000000001
 31
0.000000000000000
  0
LINE
  5
5E
100
AcDbEntity
  8
A1
  6
CONTINUOUS
 62
7
100
AcDbLine
 10
168.9052490000000
 20
110.0000000000000
 30
0.000000000000000
 11
174.8234140000000
 21
110.0000000000000
 31
0.000000000000000
  0
LINE
  5
5F
100
AcDbEntity
  8
A1
  6
CONTINUOUS
 62
7
100
AcDbLine
 10
148.9052490000000
 20
108.6985790000000
 30
0.000000000000000
 11
148.9052490000000
 21
111.5000000000000
 31
0.000000000000000
  0
LINE
  5
60
100
AcDbEntity
  8
A1
  6
CONTINUOUS
 62
7
100
AcDbLine
 10
165.9052490000000
 20
108.6985790000000
 30
0.000000000000000
 11
165.9052490000000
 21
111.5000000000000
 31
0.000000000000000
  0
ARC
  5
61
100
AcDbEntity
  8
A1
  6
CONTINUOUS
 62
7
100
AcDbCircle
 10
149.9052490000000
 20
111.5000000000000
 30
0.000000000000000
 40
1.000000000000000
100
AcDbArc
 50
89.99999999998371
 51
179.9999999999658
  0
ARC
  5
62
100
AcDbEntity
  8
A1
  6
CONTINUOUS
 62
7
100
AcDbCircle
 10
164.9052490000000
 20
111.5000000000000
 30
0.000000000000000
 40
1.000000000000000
100
AcDbArc
 50
359.9999999999316
 51
449.9999999999153
  0
ARC
  5
63
100
AcDbEntity
  8
A1
  6
CONTINUOUS
 62
7
100
AcDbCircle
 10
145.9052490000000
 20
109.5000000000000
 30
0.000000000000000
 40
0.5000000000000000
100
AcDbArc
 50
359.9999999999316
 51
449.9999999999153
  0
ARC
  5
64
100
AcDbEntity
  8
A1
  6
CONTINUOUS
 62
7
100
AcDbCircle
 10
168.9052490000000
 20
109.5000000000000
 30
0.000000000000000
 40
0.5000000000000000
100
AcDbArc
 50
89.99999999998371
 51
179.9999999999674
  0
ARC
  5
65
100
AcDbEntity
  8
A1
  6
CONTINUOUS
 62
7
100
AcDbCircle
 10
168.9052490000000
 20
50.50000000000001
 30
0.000000000000000
 40
0.5000000000000000
100
AcDbArc
 50
179.9999999999658
 51
269.9999999999479
  0
ARC
  5
66
100
AcDbEntity
  8
A1
  6
CONTINUOUS
 62
7
100
AcDbCircle
 10
145.9052490000000
 20
50.50000000000001
 30
0.000000000000000
 40
0.5000000000000000
100
AcDbArc
 50
269.9999999999479
 51
359.9999999999316
  0
ARC
  5
67
100
AcDbEntity
  8
A1
  6
CONTINUOUS
 62
7
100
AcDbCircle
 10
147.7052490000000
 20
108.3063280000000
 30
0.000000000000000
 40
0.3000000000000000
100
AcDbArc
 50
94.64811299998230
 51
179.9999999999674
  0
ARC
  5
68
100
AcDbEntity
  8
A1
  6
CONTINUOUS
 62
7
100
AcDbCircle
 10
167.1052490000000
 20
108.3063280000000
 30
0.000000000000000
 40
0.3000000000000000
100
AcDbArc
 50
0.000000000000000
 51
85.35188699998481
  0
ARC
  5
69
100
AcDbEntity
  8
A1
  6
CONTINUOUS
 62
7
100
AcDbCircle
 10
167.1052490000000
 20
71.80000000000001
 30
0.000000000000000
 40
0.3000000000000000
100
AcDbArc
 50
269.9999999999512
 51
359.9999999999322
  0
ARC
  5
6A
100
AcDbEntity
  8
A1
  6
CONTINUOUS
 62
7
100
AcDbCircle
 10
147.7052490000000
 20
71.80000000000001
 30
0.000000000000000
 40
0.3000000000000000
100
AcDbArc
 50
179.9999999999647
 51
269.9999999999512
  0
LINE
  5
6B
100
AcDbEntity
  8
A1
  6
CONTINUOUS
 62
7
100
AcDbLine
 10
146.4052490000000
 20
71.50000000000000
 30
0.000000000000000
 11
168.4052490000000
 21
71.50000000000000
 31
0.000000000000000
  0
LINE
  5
6C
100
AcDbEntity
  8
A1
  6
CONTINUOUS
 62
7
100
AcDbLine
 10
146.4052490000000
 20
88.50000000000000
 30
0.000000000000000
 11
147.4052490000000
 21
88.50000000000000
 31
0.000000000000000
  0
LINE
  5
6D
100
AcDbEntity
  8
A1
  6
CONTINUOUS
 62
7
100
AcDbLine
 10
167.4052490000000
 20
88.50000000000000
 30
0.000000000000000
 11
168.4052490000000
 21
88.50000000000000
 31
0.000000000000000
  0
CIRCLE
  5
6E
100
AcDbEntity
  8
A1
  6
CONTINUOUS
 62
7
100
AcDbCircle
 10
80.00000000000000
 20
80.00000000000000
 30
0.000000000000000
 40
15.00000000000000
  0
CIRCLE
  5
6F
100
AcDbEntity
  8
A1
  6
CONTINUOUS
 62
7
100
AcDbCircle
 10
80.00000000000000
 20
80.00000000000000
 30
0.000000000000000
 40
23.00000000000000
  0
CIRCLE
  5
70
100
AcDbEntity
  8
A1
  6
CONTINUOUS
 62
7
100
AcDbCircle
 10
80.00000000000000
 20
80.00000000000000
 30
0.000000000000000
 40
18.00000000000000
  0
LINE
  5
71
100
AcDbEntity
  8
A1
  6
CONTINUOUS
 62
7
100
AcDbLine
 10
134.4052490000000
 20
95.00000000000000
 30
0.000000000000000
 11
134.4052490000000
 21
65.00000000000000
 31
0.000000000000000
  0
LINE
  5
72
100
AcDbEntity
  8
A1
  6
CONTINUOUS
 62
7
100
AcDbLine
 10
180.4052490000000
 20
95.00000000000000
 30
0.000000000000000
 11
180.4052490000000
 21
65.00000000000000
 31
0.000000000000000
  0
ARC
  5
73
100
AcDbEntity
  8
A1
  6
CONTINUOUS
 62
7
100
AcDbCircle
 10
192.5000000000000
 20
80.00000000000000
 30
0.000000000000000
 40
60.00000000000000
100
AcDbArc
 50
165.5224879999687
 51
194.4775119999632
  0
ARC
  5
74
100
AcDbEntity
  8
A1
  6
CONTINUOUS
 62
7
100
AcDbCircle
 10
122.3104989999999
 20
80.00000000000000
 30
0.000000000000000
 40
60.00000000000000
100
AcDbArc
 50
345.5224879999348
 51
374.4775119999293
  0
ARC
  5
75
100
AcDbEntity
  8
A1
  6
CONTINUOUS
 62
7
100
AcDbCircle
 10
283.6533650000000
 20
80.00000000000000
 30
0.000000000000000
 40
150.0000000000000
100
AcDbArc
 50
185.7391699999649
 51
190.2580729999640
  0
ARC
  5
76
100
AcDbEntity
  8
A1
  6
CONTINUOUS
 62
7
100
AcDbCircle
 10
31.15713400000004
 20
80.00000000000000
 30
0.000000000000000
 40
150.0000000000000
100
AcDbArc
 50
5.739169999998913
 51
10.25807299999806
  0
ARC
  5
77
100
AcDbEntity
  8
A1
  6
CONTINUOUS
 62
7
100
AcDbCircle
 10
139.9870850000000
 20
106.0000000000000
 30
0.000000000000000
 40
4.000000000000000
100
AcDbArc
 50
89.99999999998290
 51
169.7419269999681
  0
ARC
  5
78
100
AcDbEntity
  8
A1
  6
CONTINUOUS
 62
7
100
AcDbCircle
 10
139.9870850000000
 20
54.00000000000001
 30
0.000000000000000
 40
4.000000000000000
100
AcDbArc
 50
190.2580729999640
 51
269.9999999999491
  0
ARC
  5
79
100
AcDbEntity
  8
A1
  6
CONTINUOUS
 62
7
100
AcDbCircle
 10
174.8234140000000
 20
54.00000000000001
 30
0.000000000000000
 40
4.000000000000000
100
AcDbArc
 50
269.9999999999491
 51
349.7419269999340
  0
ARC
  5
7A
100
AcDbEntity
  8
A1
  6
CONTINUOUS
 62
7
100
AcDbCircle
 10
174.8234140000000
 20
106.0000000000000
 30
0.000000000000000
 40
4.000000000000000
100
AcDbArc
 50
10.25807299999789
 51
89.99999999998290
  0
ARC
  5
7B
100
AcDbEntity
  8
A1
  6
CONTINUOUS
 62
7
100
AcDbCircle
 10
283.6533650000000
 20
80.00000000000000
 30
0.000000000000000
 40
150.0000000000000
100
AcDbArc
 50
169.7419269999679
 51
174.2608299999671
  0
ARC
  5
7C
100
AcDbEntity
  8
A1
  6
CONTINUOUS
 62
7
100
AcDbCircle
 10
31.15713400000004
 20
80.00000000000000
 30
0.000000000000000
 40
150.0000000000000
100
AcDbArc
 50
349.7419269999340
 51
354.2608299999331
  0
ARC
  5
7D
100
AcDbEntity
  8
A1
  6
CONTINUOUS
 62
7
100
AcDbCircle
 10
80.00000000000000
 20
306.1533650000000
 30
0.000000000000000
 40
150.0000000000000
100
AcDbArc
 50
275.7391699999479
 51
280.2580729999472
  0
ARC
  5
7E
100
AcDbEntity
  8
A1
  6
CONTINUOUS
 62
7
100
AcDbCircle
 10
106.0000000000000
 20
162.4870850000000
 30
0.000000000000000
 40
4.000000000000000
100
AcDbArc
 50
280.2580729999470
 51
359.9999999999321
  0
ARC
  5
7F
100
AcDbEntity
  8
A1
  6
CONTINUOUS
 62
7
100
AcDbCircle
 10
80.00000000000000
 20
53.65713399999996
 30
0.000000000000000
 40
150.0000000000000
100
AcDbArc
 50
79.74192699998495
 51
84.26082999998408
  0
ARC
  5
80
100
AcDbEntity
  8
A1
  6
CONTINUOUS
 62
7
100
AcDbCircle
 10
-11.00000000000000
 20
179.9052500000000
 30
0.000000000000000
 40
120.0000000000000
100
AcDbArc
 50
4.061852999999227
 51
4.648112999999122
  0
LINE
  5
81
100
AcDbEntity
  8
A1
  6
CONTINUOUS
 62
7
100
AcDbLine
 10
50.00000000000000
 20
168.4052500000000
 30
0.000000000000000
 11
50.00000000000000
 21
162.4870850000000
 31
0.000000000000000
  0
LINE
  5
82
100
AcDbEntity
  8
A1
  6
CONTINUOUS
 62
7
100
AcDbLine
 10
109.5000000000000
 20
168.9052500000000
 30
0.000000000000000
 11
50.50000000000000
 21
168.9052500000000
 31
0.000000000000000
  0
LINE
  5
83
100
AcDbEntity
  8
A1
  6
CONTINUOUS
 62
7
100
AcDbLine
 10
109.5000000000000
 20
190.9052500000000
 30
0.000000000000000
 11
50.50000000000000
 21
190.9052500000000
 31
0.000000000000000
  0
ARC
  5
84
100
AcDbEntity
  8
A1
  6
CONTINUOUS
 62
7
100
AcDbCircle
 10
171.0000000000000
 20
179.9052500000000
 30
0.000000000000000
 40
120.0000000000000
100
AcDbArc
 50
175.3518869999669
 51
184.6481129999651
  0
LINE
  5
85
100
AcDbEntity
  8
A1
  6
CONTINUOUS
 62
7
100
AcDbLine
 10
50.00000000000000
 20
191.4052500000000
 30
0.000000000000000
 11
50.00000000000000
 21
197.3234139999999
 31
0.000000000000000
  0
ARC
  5
86
100
AcDbEntity
  8
A1
  6
CONTINUOUS
 62
7
100
AcDbCircle
 10
50.50000000000000
 20
168.4052500000000
 30
0.000000000000000
 40
0.5000000000000000
100
AcDbArc
 50
89.99999999998371
 51
179.9999999999674
  0
ARC
  5
87
100
AcDbEntity
  8
A1
  6
CONTINUOUS
 62
7
100
AcDbCircle
 10
50.50000000000000
 20
191.4052500000000
 30
0.000000000000000
 40
0.5000000000000000
100
AcDbArc
 50
179.9999999999674
 51
269.9999999999495
  0
ARC
  5
88
100
AcDbEntity
  8
A1
  6
CONTINUOUS
 62
7
100
AcDbCircle
 10
51.69367199999999
 20
170.2052500000000
 30
0.000000000000000
 40
0.3000000000000000
100
AcDbArc
 50
184.6481129999661
 51
269.9999999999484
  0
ARC
  5
89
100
AcDbEntity
  8
A1
  6
CONTINUOUS
 62
7
100
AcDbCircle
 10
51.69367199999999
 20
189.6052500000000
 30
0.000000000000000
 40
0.3000000000000000
100
AcDbArc
 50
89.99999999998371
 51
175.3518869999683
  0
LINE
  5
8A
100
AcDbEntity
  8
A1
  6
CONTINUOUS
 62
7
100
AcDbLine
 10
71.50000000000000
 20
168.9052500000000
 30
0.000000000000000
 11
71.50000000000000
 21
169.9052500000000
 31
0.000000000000000
  0
LINE
  5
8B
100
AcDbEntity
  8
A1
  6
CONTINUOUS
 62
7
100
AcDbLine
 10
71.50000000000000
 20
189.9052500000000
 30
0.000000000000000
 11
71.50000000000000
 21
190.9052500000000
 31
0.000000000000000
  0
LINE
  5
8C
100
AcDbEntity
  8
A1
  6
CONTINUOUS
 62
7
100
AcDbLine
 10
65.00000000000000
 20
156.9052500000000
 30
0.000000000000000
 11
95.00000000000000
 21
156.9052500000000
 31
0.000000000000000
  0
LINE
  5
8D
100
AcDbEntity
  8
A1
  6
CONTINUOUS
 62
7
100
AcDbLine
 10
65.00000000000000
 20
202.9052500000000
 30
0.000000000000000
 11
95.00000000000000
 21
202.9052500000000
 31
0.000000000000000
  0
ARC
  5
8E
100
AcDbEntity
  8
A1
  6
CONTINUOUS
 62
7
100
AcDbCircle
 10
80.00000000000000
 20
215.0000000000000
 30
0.000000000000000
 40
60.00000000000000
100
AcDbArc
 50
255.5224879999517
 51
284.4775119999463
  0
ARC
  5
8F
100
AcDbEntity
  8
A1
  6
CONTINUOUS
 62
7
100
AcDbCircle
 10
80.00000000000000
 20
144.8104989999999
 30
0.000000000000000
 40
60.00000000000000
100
AcDbArc
 50
75.52248799998574
 51
104.4775119999803
  0
ARC
  5
90
100
AcDbEntity
  8
A1
  6
CONTINUOUS
 62
7
100
AcDbCircle
 10
80.00000000000000
 20
53.65713399999996
 30
0.000000000000000
 40
150.0000000000000
100
AcDbArc
 50
95.73916999998193
 51
100.2580729999811
  0
ARC
  5
91
100
AcDbEntity
  8
A1
  6
CONTINUOUS
 62
7
100
AcDbCircle
 10
54.00000000000000
 20
162.4870850000000
 30
0.000000000000000
 40
4.000000000000000
100
AcDbArc
 50
179.9999999999658
 51
259.7419269999510
  0
ARC
  5
92
100
AcDbEntity
  8
A1
  6
CONTINUOUS
 62
7
100
AcDbCircle
 10
106.0000000000000
 20
197.3234139999999
 30
0.000000000000000
 40
4.000000000000000
100
AcDbArc
 50
359.9999999999321
 51
439.7419269999168
  0
ARC
  5
93
100
AcDbEntity
  8
A1
  6
CONTINUOUS
 62
7
100
AcDbCircle
 10
54.00000000000000
 20
197.3234139999999
 30
0.000000000000000
 40
4.000000000000000
100
AcDbArc
 50
100.2580729999810
 51
179.9999999999658
  0
ARC
  5
94
100
AcDbEntity
  8
A1
  6
CONTINUOUS
 62
7
100
AcDbCircle
 10
80.00000000000000
 20
306.1533650000000
 30
0.000000000000000
 40
150.0000000000000
100
AcDbArc
 50
259.7419269999509
 51
264.2608299999501
  0
ARC
  5
95
100
AcDbEntity
  8
A1
  6
CONTINUOUS
 62
7
100
AcDbCircle
 10
54.50000000000000
 20
113.5000000000000
 30
0.000000000000000
 40
1.000000000000000
100
AcDbArc
 50
179.9999999999658
 51
269.9999999999487
  0
ARC
  5
96
100
AcDbEntity
  8
A1
  6
CONTINUOUS
 62
7
100
AcDbCircle
 10
71.50000000000000
 20
113.5000000000000
 30
0.000000000000000
 40
1.000000000000000
100
AcDbArc
 50
269.9999999999487
 51
359.9999999999316
  0
LINE
  5
97
100
AcDbEntity
  8
A1
  6
CONTINUOUS
 62
7
100
AcDbLine
 10
54.50000000000000
 20
118.5000000000000
 30
0.000000000000000
 11
71.50000000000000
 21
118.5000000000000
 31
0.000000000000000
  0
LINE
  5
98
100
AcDbEntity
  8
A1
  6
CONTINUOUS
 62
7
100
AcDbLine
 10
60.00000000000000
 20
132.5000000000000
 30
0.000000000000000
 11
66.00000000000000
 21
132.5000000000000
 31
0.000000000000000
  0
LINE
  5
99
100
AcDbEntity
  8
A1
  6
CONTINUOUS
 62
7
100
AcDbLine
 10
53.50000000000000
 20
113.5000000000000
 30
0.000000000000000
 11
53.50000000000000
 21
117.5000000000000
 31
0.000000000000000
  0
LINE
  5
9A
100
AcDbEntity
  8
A1
  6
CONTINUOUS
 62
7
100
AcDbLine
 10
72.50000000000000
 20
113.5000000000000
 30
0.000000000000000
 11
72.50000000000000
 21
117.5000000000000
 31
0.000000000000000
  0
ARC
  5
9B
100
AcDbEntity
  8
A1
  6
CONTINUOUS
 62
7
100
AcDbCircle
 10
54.50000000000000
 20
117.5000000000000
 30
0.000000000000000
 40
1.000000000000000
100
AcDbArc
 50
89.99999999998290
 51
179.9999999999658
  0
ARC
  5
9C
100
AcDbEntity
  8
A1
  6
CONTINUOUS
 62
7
100
AcDbCircle
 10
71.50000000000000
 20
117.5000000000000
 30
0.000000000000000
 40
1.000000000000000
100
AcDbArc
 50
359.9999999999316
 51
449.9999999999153
  0
ARC
  5
9D
100
AcDbEntity
  8
A1
  6
CONTINUOUS
 62
7
100
AcDbCircle
 10
64.75735999999995
 20
115.5000000000000
 30
0.000000000000000
 40
6.000000000000000
100
AcDbArc
 50
149.9999999999718
 51
209.9999999999602
  0
ARC
  5
9E
100
AcDbEntity
  8
A1
  6
CONTINUOUS
 62
7
100
AcDbCircle
 10
61.24264099999999
 20
115.5000000000000
 30
0.000000000000000
 40
6.000000000000000
100
AcDbArc
 50
329.9999999999376
 51
389.9999999999264
  0
ARC
  5
9F
100
AcDbEntity
  8
A1
  6
CONTINUOUS
 62
7
100
AcDbCircle
 10
149.9052490000000
 20
117.5000000000000
 30
0.000000000000000
 40
1.000000000000000
100
AcDbArc
 50
89.99999999998371
 51
179.9999999999658
  0
ARC
  5
A0
100
AcDbEntity
  8
A1
  6
CONTINUOUS
 62
7
100
AcDbCircle
 10
149.9052490000000
 20
113.5000000000000
 30
0.000000000000000
 40
1.000000000000000
100
AcDbArc
 50
179.9999999999658
 51
269.9999999999495
  0
LINE
  5
A1
100
AcDbEntity
  8
A1
  6
CONTINUOUS
 62
7
100
AcDbLine
 10
149.9052490000000
 20
118.5000000000000
 30
0.000000000000000
 11
164.9052490000000
 21
118.5000000000000
 31
0.000000000000000
  0
ARC
  5
A2
100
AcDbEntity
  8
A1
  6
CONTINUOUS
 62
7
100
AcDbCircle
 10
164.9052490000000
 20
113.5000000000000
 30
0.000000000000000
 40
1.000000000000000
100
AcDbArc
 50
269.9999999999495
 51
359.9999999999316
  0
ARC
  5
A3
100
AcDbEntity
  8
A1
  6
CONTINUOUS
 62
7
100
AcDbCircle
 10
164.9052490000000
 20
117.5000000000000
 30
0.000000000000000
 40
1.000000000000000
100
AcDbArc
 50
0.000000000000000
 51
89.99999999998371
  0
LINE
  5
A4
100
AcDbEntity
  8
A1
  6
CONTINUOUS
 62
7
100
AcDbLine
 10
148.9052490000000
 20
117.5000000000000
 30
0.000000000000000
 11
148.9052490000000
 21
113.5000000000000
 31
0.000000000000000
  0
LINE
  5
A5
100
AcDbEntity
  8
A1
  6
CONTINUOUS
 62
7
100
AcDbLine
 10
165.9052490000000
 20
113.5000000000000
 30
0.000000000000000
 11
165.9052490000000
 21
117.5000000000000
 31
0.000000000000000
  0
ARC
  5
A6
100
AcDbEntity
  8
A1
  6
CONTINUOUS
 62
7
100
AcDbCircle
 10
63.00000000000000
 20
179.9052500000000
 30
0.000000000000000
 40
9.500000000000000
100
AcDbArc
 50
116.5253519999780
 51
243.4746479999540
  0
LINE
  5
A7
100
AcDbEntity
  8
A1
  6
CONTINUOUS
 62
7
100
AcDbLine
 10
58.75735999999995
 20
188.4052500000000
 30
0.000000000000000
 11
67.24264099999999
 21
188.4052500000000
 31
0.000000000000000
  0
LINE
  5
A8
100
AcDbEntity
  8
A1
  6
CONTINUOUS
 62
7
100
AcDbLine
 10
58.75735999999995
 20
171.4052500000000
 30
0.000000000000000
 11
67.24264099999999
 21
171.4052500000000
 31
0.000000000000000
  0
ARC
  5
A9
100
AcDbEntity
  8
A1
  6
CONTINUOUS
 62
7
100
AcDbCircle
 10
63.00000000000000
 20
179.9052500000000
 30
0.000000000000000
 40
9.000000000000000
100
AcDbArc
 50
109.1881359999794
 51
250.8118639999526
  0
ARC
  5
AA
100
AcDbEntity
  8
A1
  6
CONTINUOUS
 62
7
100
AcDbCircle
 10
63.00000000000000
 20
179.9052500000000
 30
0.000000000000000
 40
9.500000000000000
100
AcDbArc
 50
296.5253519999441
 51
423.4746479999200
  0
ARC
  5
AB
100
AcDbEntity
  8
A1
  6
CONTINUOUS
 62
7
100
AcDbCircle
 10
63.00000000000000
 20
179.9052500000000
 30
0.000000000000000
 40
9.000000000000000
100
AcDbArc
 50
289.1881359999454
 51
430.8118639999186
  0
LINE
  5
AC
100
AcDbEntity
  8
A1
  6
CONTINUOUS
 62
7
100
AcDbLine
 10
88.50000000000000
 20
190.9052500000000
 30
0.000000000000000
 11
88.50000000000000
 21
189.9052500000000
 31
0.000000000000000
  0
LINE
  5
AD
100
AcDbEntity
  8
A1
  6
CONTINUOUS
 62
7
100
AcDbLine
 10
88.50000000000000
 20
168.9052500000000
 30
0.000000000000000
 11
88.50000000000000
 21
169.9052500000000
 31
0.000000000000000
  0
CIRCLE
  5
AE
100
AcDbEntity
  8
A1
  6
CONTINUOUS
 62
7
100
AcDbCircle
 10
80.00000000000000
 20
80.00000000000000
 30
0.000000000000000
 40
26.00000000000000
  0
LINE
  5
AF
100
AcDbEntity
  8
A4
  6
CENTER
 62
1
100
AcDbLine
 10
63.00000000000000
 20
48.50000000000001
 30
0.000000000000000
 11
63.00000000000000
 21
134.0000000000000
 31
0.000000000000000
  0
LINE
  5
B0
100
AcDbEntity
  8
A4
  6
CENTER
 62
1
100
AcDbLine
 10
48.50000000000000
 20
179.9052500000000
 30
0.000000000000000
 11
111.5000000000000
 21
179.9052500000000
 31
0.000000000000000
  0
LINE
  5
B1
100
AcDbEntity
  8
A4
  6
CENTER
 62
1
100
AcDbLine
 10
80.00000000000000
 20
48.50000000000001
 30
0.000000000000000
 11
80.00000000000000
 21
111.5000000000000
 31
0.000000000000000
  0
LINE
  5
B2
100
AcDbEntity
  8
A4
  6
CENTER
 62
1
100
AcDbLine
 10
111.5000000000000
 20
80.00000000000000
 30
0.000000000000000
 11
48.50000000000000
 21
80.00000000000000
 31
0.000000000000000
  0
LINE
  5
B3
100
AcDbEntity
  8
A4
  6
CENTER
 62
1
100
AcDbLine
 10
80.00000000000000
 20
153.4999999999999
 30
0.000000000000000
 11
80.00000000000000
 21
206.3104989999999
 31
0.000000000000000
  0
LINE
  5
B4
100
AcDbEntity
  8
A4
  6
CENTER
 62
1
100
AcDbLine
 10
63.00000000000000
 20
189.9052500000000
 30
0.000000000000000
 11
63.00000000000000
 21
169.9052499999999
 31
0.000000000000000
  0
LINE
  5
B5
100
AcDbEntity
  8
A4
  6
CENTER
 62
1
100
AcDbLine
 10
183.8104989999999
 20
80.00000000000000
 30
0.000000000000000
 11
131.0000000000000
 21
80.00000000000000
 31
0.000000000000000
  0
LINE
  5
B6
100
AcDbEntity
  8
A4
  6
CENTER
 62
1
100
AcDbLine
 10
157.4052489999999
 20
70.00000000000000
 30
0.000000000000000
 11
157.4052489999999
 21
134.0000000000000
 31
0.000000000000000
  0
LINE
  5
B7
100
AcDbEntity
  8
A1
  6
CONTINUOUS
 62
7
100
AcDbLine
 10
147.4052490000000
 20
71.80000000000001
 30
0.000000000000000
 11
147.4052490000000
 21
108.3063280000000
 31
0.000000000000000
  0
LINE
  5
B8
100
AcDbEntity
  8
A1
  6
CONTINUOUS
 62
7
100
AcDbLine
 10
167.4052490000000
 20
71.80000000000001
 30
0.000000000000000
 11
167.4052490000000
 21
108.3063280000000
 31
0.000000000000000
  0
LINE
  5
B9
100
AcDbEntity
  8
A1
  6
CONTINUOUS
 62
7
100
AcDbLine
 10
51.69367199999999
 20
169.9052500000000
 30
0.000000000000000
 11
108.3156990000000
 21
169.9052500000000
 31
0.000000000000000
  0
LINE
  5
BA
100
AcDbEntity
  8
A1
  6
CONTINUOUS
 62
7
100
AcDbLine
 10
51.69367199999999
 20
189.9052500000000
 30
0.000000000000000
 11
108.3156990000000
 21
189.9052500000000
 31
0.000000000000000
  0
CIRCLE
  5
BB
100
AcDbEntity
  8
A1
  6
CONTINUOUS
 62
7
100
AcDbCircle
 10
62.99999999999994
 20
179.9052500000000
 30
0.000000000000000
 40
4.000000000000000
  0
CIRCLE
  5
BC
100
AcDbEntity
  8
A1
  6
CONTINUOUS
 62
7
100
AcDbCircle
 10
62.99999999999994
 20
179.9052500000000
 30
0.000000000000000
 40
3.000000000000000
  0
LINE
  5
BD
100
AcDbEntity
  8
A1
  6
CONTINUOUS
 62
7
100
AcDbLine
 10
153.4052489999999
 20
121.0000000000000
 30
0.000000000000000
 11
161.4052489999999
 21
121.0000000000000
 31
0.000000000000000
  0
LINE
  5
BE
100
AcDbEntity
  8
A1
  6
CONTINUOUS
 62
7
100
AcDbLine
 10
154.4052489999999
 20
132.5000000000000
 30
0.000000000000000
 11
160.4052489999999
 21
132.5000000000000
 31
0.000000000000000
  0
LINE
  5
BF
100
AcDbEntity
  8
A2
  6
CONTINUOUS
 62
4
100
AcDbLine
 10
154.4052489999999
 20
121.0000000000000
 30
0.000000000000000
 11
154.4052489999999
 21
132.5000000000000
 31
0.000000000000000
  0
LINE
  5
C0
100
AcDbEntity
  8
A2
  6
CONTINUOUS
 62
4
100
AcDbLine
 10
160.4052489999999
 20
121.0000000000000
 30
0.000000000000000
 11
160.4052489999999
 21
132.5000000000000
 31
0.000000000000000
  0
LINE
  5
C1
100
AcDbEntity
  8
A1
  6
CONTINUOUS
 62
7
100
AcDbLine
 10
153.4052489999999
 20
118.5000000000000
 30
0.000000000000000
 11
153.4052489999999
 21
131.5000000000000
 31
0.000000000000000
  0
LINE
  5
C2
100
AcDbEntity
  8
A1
  6
CONTINUOUS
 62
7
100
AcDbLine
 10
161.4052489999999
 20
118.5000000000000
 30
0.000000000000000
 11
161.4052489999999
 21
131.5000000000000
 31
0.000000000000000
  0
LINE
  5
C3
100
AcDbEntity
  8
A1
  6
CONTINUOUS
 62
7
100
AcDbLine
 10
153.4052489999999
 20
131.5000000000000
 30
0.000000000000000
 11
161.4052489999999
 21
131.5000000000000
 31
0.000000000000000
  0
LINE
  5
C4
100
AcDbEntity
  8
A1
  6
CONTINUOUS
 62
7
100
AcDbLine
 10
154.4052489999998
 20
132.5000000000000
 30
0.000000000000000
 11
153.4052489999998
 21
131.5000000000000
 31
0.000000000000000
  0
LINE
  5
C5
100
AcDbEntity
  8
A1
  6
CONTINUOUS
 62
7
100
AcDbLine
 10
160.4052489999999
 20
132.5000000000000
 30
0.000000000000000
 11
161.4052489999998
 21
131.5000000000000
 31
0.000000000000000
  0
LINE
  5
C6
100
AcDbEntity
  8
A2
  6
CONTINUOUS
 62
4
100
AcDbLine
 10
154.4052490000000
 20
121.0000000000000
 30
0.000000000000000
 11
153.4052490000000
 21
118.5000000000000
 31
0.000000000000000
  0
LINE
  5
C7
100
AcDbEntity
  8
A2
  6
CONTINUOUS
 62
4
100
AcDbLine
 10
160.4052490000000
 20
121.0000000000000
 30
0.000000000000000
 11
161.4052490000000
 21
118.5000000000000
 31
0.000000000000000
  0
LINE
  5
C8
100
AcDbEntity
  8
A1
  6
CONTINUOUS
 62
7
100
AcDbLine
 10
59.00000000000000
 20
121.0000000000000
 30
0.000000000000000
 11
67.00000000000000
 21
121.0000000000000
 31
0.000000000000000
  0
LINE
  5
C9
100
AcDbEntity
  8
A2
  6
CONTINUOUS
 62
4
100
AcDbLine
 10
60.00000000000000
 20
121.0000000000000
 30
0.000000000000000
 11
60.00000000000000
 21
132.5000000000000
 31
0.000000000000000
  0
LINE
  5
CA
100
AcDbEntity
  8
A2
  6
CONTINUOUS
 62
4
100
AcDbLine
 10
66.00000000000000
 20
121.0000000000000
 30
0.000000000000000
 11
66.00000000000000
 21
132.5000000000000
 31
0.000000000000000
  0
LINE
  5
CB
100
AcDbEntity
  8
A1
  6
CONTINUOUS
 62
7
100
AcDbLine
 10
59.00000000000000
 20
118.5000000000000
 30
0.000000000000000
 11
59.00000000000000
 21
131.5000000000000
 31
0.000000000000000
  0
LINE
  5
CC
100
AcDbEntity
  8
A1
  6
CONTINUOUS
 62
7
100
AcDbLine
 10
67.00000000000000
 20
118.5000000000000
 30
0.000000000000000
 11
67.00000000000000
 21
131.5000000000000
 31
0.000000000000000
  0
LINE
  5
CD
100
AcDbEntity
  8
A1
  6
CONTINUOUS
 62
7
100
AcDbLine
 10
59.00000000000000
 20
131.5000000000000
 30
0.000000000000000
 11
67.00000000000000
 21
131.5000000000000
 31
0.000000000000000
  0
LINE
  5
CE
100
AcDbEntity
  8
A1
  6
CONTINUOUS
 62
7
100
AcDbLine
 10
59.99999999999994
 20
132.4999999999999
 30
0.000000000000000
 11
58.99999999999994
 21
131.4999999999999
 31
0.000000000000000
  0
LINE
  5
CF
100
AcDbEntity
  8
A1
  6
CONTINUOUS
 62
7
100
AcDbLine
 10
65.99999999999997
 20
132.5000000000000
 30
0.000000000000000
 11
66.99999999999997
 21
131.5000000000000
 31
0.000000000000000
  0
LINE
  5
D0
100
AcDbEntity
  8
A2
  6
CONTINUOUS
 62
4
100
AcDbLine
 10
60.00000000000000
 20
121.0000000000000
 30
0.000000000000000
 11
59.00000000000000
 21
118.5000000000000
 31
0.000000000000000
  0
LINE
  5
D1
100
AcDbEntity
  8
A2
  6
CONTINUOUS
 62
4
100
AcDbLine
 10
66.00000000000000
 20
121.0000000000000
 30
0.000000000000000
 11
67.00000000000000
 21
118.5000000000000
 31
0.000000000000000
  0
ENDSEC
  0
SECTION
  2
OBJECTS
  0
DICTIONARY
  5
FC
100
AcDbDictionary
  3
ACAD_GROUP
350
FD
  3
ACAD_LAYOUT
350
FE
  3
ACAD_MLINESTYLE
350
FF
  3
DWGPROPS
350
100
  0
DICTIONARY
  5
FD
102
{ACAD_REACTORS
330
FC
102
}
330
FC
100
AcDbDictionary
  0
DICTIONARY
  5
FE
102
{ACAD_REACTORS
330
FC
102
}
330
FC
100
AcDbDictionary
  3
Model
350
101
  3
ﾚｲｱｳﾄ1
350
102
  3
ﾚｲｱｳﾄ2
350
103
  0
DICTIONARY
  5
FF
102
{ACAD_REACTORS
330
FC
102
}
330
FC
100
AcDbDictionary
  3
STANDARD
350
104
  0
LAYOUT
  5
101
102
{ACAD_REACTORS
330
FE
102
}
330
FE
100
AcDbPlotSettings
 70
11952
  4
A3
 44
297.000000
 45
420.000000
 73
  1
 72
  1
100
AcDbLayout
  1
Model
 71
0
330
F3
  0
LAYOUT
  5
102
102
{ACAD_REACTORS
330
FE
102
}
330
FE
100
AcDbPlotSettings
100
AcDbLayout
  1
ﾚｲｱｳﾄ1
 71
1
330
F4
  0
LAYOUT
  5
103
102
{ACAD_REACTORS
330
FE
102
}
330
FE
100
AcDbPlotSettings
100
AcDbLayout
  1
ﾚｲｱｳﾄ2
 71
2
330
F5
  0
MLINESTYLE
  5
104
102
{ACAD_REACTORS
330
FF
102
}
330
FF
100
AcDbMlineStyle
  2
STANDARD
 70
     0
  3

 62
   256
 51
90.00
 52
90.00
 71
     2
 49
0.50
 62
   256
  6
BYLAYER
 49
-0.50
 62
   256
  6
BYLAYER
  0
XRECORD
  5
100
102
{ACAD_REACTORS
330
FC
102
}
100
AcDbXrecord
280
     1
  1
DWGPROPS COOKIE
  2
TCA-TE60JN8
  3

  4

  6
TE型双輪キャスター
  7

  8

  9

300
=
301
=
302
=
303
=
304
=
305
=
306
=
307
=
308
=
309
=
 40
0.000000
 41
0.000000
 42
0.000000
  1

 90
        0
  0
ENDSEC
  0
EOF
