  0
SECTION
  2
HEADER
  9
$ACADVER
  1
AC1015
  9
$ACADMAINTVER
 70
    20
  9
$DWGCODEPAGE
  3
ANSI_932
  9
$INSBASE
 10
0.0
 20
0.0
 30
0.0
  9
$EXTMIN
 10
9.99995
 20
9.999999999999998
 30
0.0
  9
$EXTMAX
 10
486.4999999999997
 20
321.0
 30
0.0
  9
$LIMMIN
 10
0.0
 20
0.0
  9
$LIMMAX
 10
495.0
 20
341.25
  9
$ORTHOMODE
 70
     1
  9
$REGENMODE
 70
     1
  9
$FILLMODE
 70
     1
  9
$QTEXTMODE
 70
     0
  9
$MIRRTEXT
 70
     1
  9
$LTSCALE
 40
20.0
  9
$ATTMODE
 70
     1
  9
$TEXTSIZE
 40
5.0
  9
$TRACEWID
 40
1.0
  9
$TEXTSTYLE
  7
STANDARD
  9
$CLAYER
  8
0
  9
$CELTYPE
  6
BYLAYER
  9
$CECOLOR
 62
   256
  9
$CELTSCALE
 40
1.0
  9
$DISPSILH
 70
     0
  9
$DIMSCALE
 40
1.0
  9
$DIMASZ
 40
3.0
  9
$DIMEXO
 40
1.0
  9
$DIMDLI
 40
10.0
  9
$DIMRND
 40
0.0
  9
$DIMDLE
 40
0.0
  9
$DIMEXE
 40
1.0
  9
$DIMTP
 40
0.0
  9
$DIMTM
 40
0.0
  9
$DIMTXT
 40
3.2
  9
$DIMCEN
 40
0.0
  9
$DIMTSZ
 40
0.0
  9
$DIMTOL
 70
     0
  9
$DIMLIM
 70
     0
  9
$DIMTIH
 70
     0
  9
$DIMTOH
 70
     0
  9
$DIMSE1
 70
     0
  9
$DIMSE2
 70
     0
  9
$DIMTAD
 70
     3
  9
$DIMZIN
 70
     8
  9
$DIMBLK
  1

  9
$DIMASO
 70
     1
  9
$DIMSHO
 70
     1
  9
$DIMPOST
  1

  9
$DIMAPOST
  1

  9
$DIMALT
 70
     0
  9
$DIMALTD
 70
     2
  9
$DIMALTF
 40
25.4
  9
$DIMLFAC
 40
1.0
  9
$DIMTOFL
 70
     1
  9
$DIMTVP
 40
0.0
  9
$DIMTIX
 70
     0
  9
$DIMSOXD
 70
     0
  9
$DIMSAH
 70
     1
  9
$DIMBLK1
  1
OPEN
  9
$DIMBLK2
  1
OPEN
  9
$DIMSTYLE
  2
STANDARD
  9
$DIMCLRD
 70
     0
  9
$DIMCLRE
 70
     0
  9
$DIMCLRT
 70
     0
  9
$DIMTFAC
 40
1.0
  9
$DIMGAP
 40
1.0
  9
$DIMJUST
 70
     0
  9
$DIMSD1
 70
     0
  9
$DIMSD2
 70
     0
  9
$DIMTOLJ
 70
     1
  9
$DIMTZIN
 70
     0
  9
$DIMALTZ
 70
     0
  9
$DIMALTTZ
 70
     0
  9
$DIMUPT
 70
     0
  9
$DIMDEC
 70
     4
  9
$DIMTDEC
 70
     4
  9
$DIMALTU
 70
     2
  9
$DIMALTTD
 70
     2
  9
$DIMTXSTY
  7
STANDARD
  9
$DIMAUNIT
 70
     0
  9
$DIMADEC
 70
     0
  9
$DIMALTRND
 40
0.0
  9
$DIMAZIN
 70
     0
  9
$DIMDSEP
 70
    46
  9
$DIMATFIT
 70
     3
  9
$DIMFRAC
 70
     0
  9
$DIMLDRBLK
  1
OPEN
  9
$DIMLUNIT
 70
     2
  9
$DIMLWD
 70
    -2
  9
$DIMLWE
 70
    -2
  9
$DIMTMOVE
 70
     0
  9
$LUNITS
 70
     2
  9
$LUPREC
 70
     4
  9
$SKETCHINC
 40
1.0
  9
$FILLETRAD
 40
0.0
  9
$AUNITS
 70
     0
  9
$AUPREC
 70
     2
  9
$MENU
  1
.
  9
$ELEVATION
 40
0.0
  9
$PELEVATION
 40
0.0
  9
$THICKNESS
 40
0.0
  9
$LIMCHECK
 70
     0
  9
$CHAMFERA
 40
10.0
  9
$CHAMFERB
 40
10.0
  9
$CHAMFERC
 40
0.0
  9
$CHAMFERD
 40
0.0
  9
$SKPOLY
 70
     0
  9
$TDCREATE
 40
2451301.399498380
  9
$TDUCREATE
 40
2451301.024498380
  9
$TDUPDATE
 40
2457192.692577905
  9
$TDUUPDATE
 40
2457192.317577905
  9
$TDINDWG
 40
0.0014229630
  9
$TDUSRTIMER
 40
0.0014226157
  9
$USRTIMER
 70
     1
  9
$ANGBASE
 50
0.0
  9
$ANGDIR
 70
     0
  9
$PDMODE
 70
    34
  9
$PDSIZE
 40
0.0
  9
$PLINEWID
 40
0.0
  9
$SPLFRAME
 70
     0
  9
$SPLINETYPE
 70
     6
  9
$SPLINESEGS
 70
     8
  9
$HANDSEED
  5
F56B
  9
$SURFTAB1
 70
     6
  9
$SURFTAB2
 70
     6
  9
$SURFTYPE
 70
     6
  9
$SURFU
 70
     6
  9
$SURFV
 70
     6
  9
$UCSBASE
  2

  9
$UCSNAME
  2

  9
$UCSORG
 10
0.0
 20
0.0
 30
0.0
  9
$UCSXDIR
 10
1.0
 20
0.0
 30
0.0
  9
$UCSYDIR
 10
0.0
 20
1.0
 30
0.0
  9
$UCSORTHOREF
  2

  9
$UCSORTHOVIEW
 70
     0
  9
$UCSORGTOP
 10
0.0
 20
0.0
 30
0.0
  9
$UCSORGBOTTOM
 10
0.0
 20
0.0
 30
0.0
  9
$UCSORGLEFT
 10
0.0
 20
0.0
 30
0.0
  9
$UCSORGRIGHT
 10
0.0
 20
0.0
 30
0.0
  9
$UCSORGFRONT
 10
0.0
 20
0.0
 30
0.0
  9
$UCSORGBACK
 10
0.0
 20
0.0
 30
0.0
  9
$PUCSBASE
  2

  9
$PUCSNAME
  2

  9
$PUCSORG
 10
0.0
 20
0.0
 30
0.0
  9
$PUCSXDIR
 10
1.0
 20
0.0
 30
0.0
  9
$PUCSYDIR
 10
0.0
 20
1.0
 30
0.0
  9
$PUCSORTHOREF
  2

  9
$PUCSORTHOVIEW
 70
     0
  9
$PUCSORGTOP
 10
0.0
 20
0.0
 30
0.0
  9
$PUCSORGBOTTOM
 10
0.0
 20
0.0
 30
0.0
  9
$PUCSORGLEFT
 10
0.0
 20
0.0
 30
0.0
  9
$PUCSORGRIGHT
 10
0.0
 20
0.0
 30
0.0
  9
$PUCSORGFRONT
 10
0.0
 20
0.0
 30
0.0
  9
$PUCSORGBACK
 10
0.0
 20
0.0
 30
0.0
  9
$USERI1
 70
     0
  9
$USERI2
 70
     0
  9
$USERI3
 70
     0
  9
$USERI4
 70
     0
  9
$USERI5
 70
     0
  9
$USERR1
 40
0.0
  9
$USERR2
 40
0.0
  9
$USERR3
 40
0.0
  9
$USERR4
 40
0.0
  9
$USERR5
 40
0.0
  9
$WORLDVIEW
 70
     1
  9
$SHADEDGE
 70
     3
  9
$SHADEDIF
 70
    70
  9
$TILEMODE
 70
     1
  9
$MAXACTVP
 70
    16
  9
$PINSBASE
 10
0.0
 20
0.0
 30
0.0
  9
$PLIMCHECK
 70
     0
  9
$PEXTMIN
 10
1.000000000000000E+20
 20
1.000000000000000E+20
 30
1.000000000000000E+20
  9
$PEXTMAX
 10
-1.000000000000000E+20
 20
-1.000000000000000E+20
 30
-1.000000000000000E+20
  9
$PLIMMIN
 10
0.0
 20
0.0
  9
$PLIMMAX
 10
420.0
 20
297.0
  9
$UNITMODE
 70
     0
  9
$VISRETAIN
 70
     0
  9
$PLINEGEN
 70
     0
  9
$PSLTSCALE
 70
     0
  9
$TREEDEPTH
 70
  3020
  9
$CMLSTYLE
  2
STANDARD
  9
$CMLJUST
 70
     0
  9
$CMLSCALE
 40
1.0
  9
$PROXYGRAPHICS
 70
     1
  9
$MEASUREMENT
 70
     0
  9
$CELWEIGHT
370
    -1
  9
$ENDCAPS
280
     0
  9
$JOINSTYLE
280
     0
  9
$LWDISPLAY
290
     0
  9
$INSUNITS
 70
     0
  9
$HYPERLINKBASE
  1

  9
$STYLESHEET
  1

  9
$XEDIT
290
     1
  9
$CEPSNTYPE
380
     0
  9
$PSTYLEMODE
290
     1
  9
$FINGERPRINTGUID
  2
{848EC5F6-123E-429E-A3D8-26FF3A951DF7}
  9
$VERSIONGUID
  2
{78531EC5-7691-45BC-9722-9629F2A900F3}
  9
$EXTNAMES
290
     1
  9
$PSVPSCALE
 40
0.0
  9
$OLESTARTUP
290
     0
  0
ENDSEC
  0
SECTION
  2
CLASSES
  0
CLASS
  1
ACDBDICTIONARYWDFLT
  2
AcDbDictionaryWithDefault
  3
ObjectDBX Classes
 90
        0
280
     0
281
     0
  0
CLASS
  1
ACDBPLACEHOLDER
  2
AcDbPlaceHolder
  3
ObjectDBX Classes
 90
        0
280
     0
281
     0
  0
CLASS
  1
LAYOUT
  2
AcDbLayout
  3
ObjectDBX Classes
 90
        0
280
     0
281
     0
  0
CLASS
  1
DICTIONARYVAR
  2
AcDbDictionaryVar
  3
ObjectDBX Classes
 90
        0
280
     0
281
     0
  0
CLASS
  1
MATERIAL
  2
AcDbMaterial
  3
ObjectDBX Classes
 90
     1153
280
     0
281
     0
  0
CLASS
  1
VISUALSTYLE
  2
AcDbVisualStyle
  3
ObjectDBX Classes
 90
     4095
280
     0
281
     0
  0
CLASS
  1
TABLESTYLE
  2
AcDbTableStyle
  3
ObjectDBX Classes
 90
     4095
280
     0
281
     0
  0
CLASS
  1
SCALE
  2
AcDbScale
  3
ObjectDBX Classes
 90
     1153
280
     0
281
     0
  0
CLASS
  1
MLEADERSTYLE
  2
AcDbMLeaderStyle
  3
ACDB_MLEADERSTYLE_CLASS
 90
     4095
280
     0
281
     0
  0
CLASS
  1
ACDBSECTIONVIEWSTYLE
  2
AcDbSectionViewStyle
  3
ObjectDBX Classes
 90
     1025
280
     0
281
     0
  0
CLASS
  1
ACDBDETAILVIEWSTYLE
  2
AcDbDetailViewStyle
  3
ObjectDBX Classes
 90
     1025
280
     0
281
     0
  0
CLASS
  1
CELLSTYLEMAP
  2
AcDbCellStyleMap
  3
ObjectDBX Classes
 90
     1152
280
     0
281
     0
  0
ENDSEC
  0
SECTION
  2
TABLES
  0
TABLE
  2
VPORT
  5
F284
330
0
100
AcDbSymbolTable
 70
     1
  0
VPORT
  5
F471
330
F284
100
AcDbSymbolTableRecord
100
AcDbViewportTableRecord
  2
*ACTIVE
 70
     0
 10
0.0
 20
0.0
 11
1.0
 21
1.0
 12
342.4649140956969
 22
165.4960449474991
 13
0.0
 23
0.0
 14
10.0
 24
10.0
 15
10.0
 25
10.0
 16
0.0
 26
0.0
 36
1.0
 17
0.0
 27
0.0
 37
0.0
 40
314.569812582644
 41
2.35006605019815
 42
50.0
 43
0.0
 44
0.0
 50
0.0
 51
0.0
 71
     0
 72
   100
 73
     1
 74
     0
 75
     0
 76
     0
 77
     0
 78
     0
281
     0
 65
     1
110
0.0
120
0.0
130
0.0
111
1.0
121
0.0
131
0.0
112
0.0
122
1.0
132
0.0
 79
     0
146
0.0
1001
ACAD_NAV_VCDISPLAY
1070
     3
  0
ENDTAB
  0
TABLE
  2
LTYPE
  5
F281
330
0
100
AcDbSymbolTable
 70
     4
  0
LTYPE
  5
F28F
330
F281
100
AcDbSymbolTableRecord
100
AcDbLinetypeTableRecord
  2
BYBLOCK
 70
     0
  3

 72
    65
 73
     0
 40
0.0
  0
LTYPE
  5
F290
330
F281
100
AcDbSymbolTableRecord
100
AcDbLinetypeTableRecord
  2
BYLAYER
 70
     0
  3

 72
    65
 73
     0
 40
0.0
  0
LTYPE
  5
F291
330
F281
100
AcDbSymbolTableRecord
100
AcDbLinetypeTableRecord
  2
CONTINUOUS
 70
     0
  3
Solid line
 72
    65
 73
     0
 40
0.0
  0
LTYPE
  5
F29F
330
F281
100
AcDbSymbolTableRecord
100
AcDbLinetypeTableRecord
  2
DASHED
 70
     0
  3
__ __ __ __ __ __ __ __ __ __ __ __ __ __ __ __
 72
    65
 73
     2
 40
0.75
 49
0.5
 74
     0
 49
-0.25
 74
     0
  0
LTYPE
  5
F2A0
330
F281
100
AcDbSymbolTableRecord
100
AcDbLinetypeTableRecord
  2
CENTER
 70
     0
  3
____ _ ____ _ ____ _ ____ _ ____ _ ____ _ ____ 
 72
    65
 73
     4
 40
2.0
 49
1.25
 74
     0
 49
-0.25
 74
     0
 49
0.25
 74
     0
 49
-0.25
 74
     0
  0
LTYPE
  5
F2A1
330
F281
100
AcDbSymbolTableRecord
100
AcDbLinetypeTableRecord
  2
PHANTOM
 70
     0
  3
______  __  __  ______  __  __  ______  __  __ 
 72
    65
 73
     6
 40
2.5
 49
1.25
 74
     0
 49
-0.25
 74
     0
 49
0.25
 74
     0
 49
-0.25
 74
     0
 49
0.25
 74
     0
 49
-0.25
 74
     0
  0
ENDTAB
  0
TABLE
  2
LAYER
  5
F27E
330
0
100
AcDbSymbolTable
 70
     8
  0
LAYER
  5
F28C
102
{ACAD_XDICTIONARY
360
F4CE
102
}
330
F27E
100
AcDbSymbolTableRecord
100
AcDbLayerTableRecord
  2
0
 70
     0
 62
     7
  6
CONTINUOUS
370
    -3
390
F47A
  0
LAYER
  5
F2A2
102
{ACAD_XDICTIONARY
360
F4D0
102
}
330
F27E
100
AcDbSymbolTableRecord
100
AcDbLayerTableRecord
  2
4
 70
     0
 62
     1
  6
CENTER
370
    -3
390
F47A
  0
LAYER
  5
F2A3
102
{ACAD_XDICTIONARY
360
F4D2
102
}
330
F27E
100
AcDbSymbolTableRecord
100
AcDbLayerTableRecord
  2
5
 70
     0
 62
     6
  6
PHANTOM
370
    -3
390
F47A
  0
LAYER
  5
F2A4
102
{ACAD_XDICTIONARY
360
F4D4
102
}
330
F27E
100
AcDbSymbolTableRecord
100
AcDbLayerTableRecord
  2
1
 70
     0
 62
     7
  6
CONTINUOUS
370
    -3
390
F47A
  0
LAYER
  5
F2A5
102
{ACAD_XDICTIONARY
360
F4D6
102
}
330
F27E
100
AcDbSymbolTableRecord
100
AcDbLayerTableRecord
  2
2
 70
     0
 62
     4
  6
CONTINUOUS
370
    -3
390
F47A
  0
LAYER
  5
F2A6
102
{ACAD_XDICTIONARY
360
F4D8
102
}
330
F27E
100
AcDbSymbolTableRecord
100
AcDbLayerTableRecord
  2
3
 70
     0
 62
     2
  6
DASHED
370
    -3
390
F47A
  0
LAYER
  5
F2A7
102
{ACAD_XDICTIONARY
360
F4DA
102
}
330
F27E
100
AcDbSymbolTableRecord
100
AcDbLayerTableRecord
  2
6
 70
     0
 62
     5
  6
CONTINUOUS
370
    -3
390
F47A
  0
LAYER
  5
F2A8
102
{ACAD_XDICTIONARY
360
F4DC
102
}
330
F27E
100
AcDbSymbolTableRecord
100
AcDbLayerTableRecord
  2
7
 70
     0
 62
     3
  6
CONTINUOUS
370
    -3
390
F47A
  0
ENDTAB
  0
TABLE
  2
STYLE
  5
F27F
330
0
100
AcDbSymbolTable
 70
     1
  0
STYLE
  5
F28D
330
F27F
100
AcDbSymbolTableRecord
100
AcDbTextStyleTableRecord
  2
STANDARD
 70
     0
 40
0.0
 41
1.0
 50
0.0
 71
     0
 42
5.0
  3
txt
  4

  0
ENDTAB
  0
TABLE
  2
VIEW
  5
F282
330
0
100
AcDbSymbolTable
 70
     2
  0
VIEW
  5
F2A9
330
F282
100
AcDbSymbolTableRecord
100
AcDbViewTableRecord
  2
7
 70
     0
 40
342.2793679999998
 10
334.425922
 20
171.1396839999999
 41
668.851844
 11
0.0
 21
0.0
 31
1.0
 12
0.0
 22
0.0
 32
0.0
 42
50.0
 43
0.0
 44
0.0
 50
0.0
 71
     0
281
     0
 72
     0
  0
VIEW
  5
F2AA
330
F282
100
AcDbSymbolTableRecord
100
AcDbViewTableRecord
  2
1
 70
     0
 40
249.466496
 10
136.846708
 20
233.977284
 41
487.485198
 11
0.0
 21
0.0
 31
1.0
 12
0.0
 22
0.0
 32
0.0
 42
50.0
 43
0.0
 44
0.0
 50
0.0
 71
     0
281
     0
 72
     0
  0
ENDTAB
  0
TABLE
  2
UCS
  5
F283
330
0
100
AcDbSymbolTable
 70
     0
  0
ENDTAB
  0
TABLE
  2
APPID
  5
F285
330
0
100
AcDbSymbolTable
 70
     4
  0
APPID
  5
F28E
330
F285
100
AcDbSymbolTableRecord
100
AcDbRegAppTableRecord
  2
ACAD
 70
     0
  0
APPID
  5
F4CC
330
F285
100
AcDbSymbolTableRecord
100
AcDbRegAppTableRecord
  2
ACAD_EXEMPT_FROM_CAD_STANDARDS
 70
     0
  0
APPID
  5
F4E8
330
F285
100
AcDbSymbolTableRecord
100
AcDbRegAppTableRecord
  2
ACAD_NAV_VCDISPLAY
 70
     0
  0
APPID
  5
F521
330
F285
100
AcDbSymbolTableRecord
100
AcDbRegAppTableRecord
  2
ACAD_MLEADERVER
 70
     0
  0
ENDTAB
  0
TABLE
  2
DIMSTYLE
  5
F286
330
0
100
AcDbSymbolTable
 70
     1
100
AcDbDimStyleTable
 71
     0
  0
DIMSTYLE
105
F2AC
330
F286
100
AcDbSymbolTableRecord
100
AcDbDimStyleTableRecord
  2
STANDARD
 70
     0
 41
3.0
 42
1.0
 43
10.0
 44
1.0
 73
     0
 74
     0
 77
     3
 78
     8
140
3.2
141
0.0
147
1.0
172
     1
173
     1
284
     8
285
     8
286
     8
340
F28D
  0
ENDTAB
  0
TABLE
  2
BLOCK_RECORD
  5
F27D
330
0
100
AcDbSymbolTable
 70
     1
  0
BLOCK_RECORD
  5
F29A
102
{ACAD_XDICTIONARY
360
F474
102
}
330
F27D
100
AcDbSymbolTableRecord
100
AcDbBlockTableRecord
  2
*MODEL_SPACE
340
F4C8
  0
BLOCK_RECORD
  5
F296
102
{ACAD_XDICTIONARY
360
F472
102
}
330
F27D
100
AcDbSymbolTableRecord
100
AcDbBlockTableRecord
  2
*PAPER_SPACE
340
F4C9
  0
BLOCK_RECORD
  5
F2B4
330
F27D
100
AcDbSymbolTableRecord
100
AcDbBlockTableRecord
  2
_OPEN
340
0
  0
ENDTAB
  0
ENDSEC
  0
SECTION
  2
BLOCKS
  0
BLOCK
  5
F29B
330
F29A
100
AcDbEntity
  8
0
100
AcDbBlockBegin
  2
*MODEL_SPACE
 70
     0
 10
0.0
 20
0.0
 30
0.0
  3
*MODEL_SPACE
  1

  0
ENDBLK
  5
F29C
330
F29A
100
AcDbEntity
  8
0
100
AcDbBlockEnd
  0
BLOCK
  5
F297
330
F296
100
AcDbEntity
 67
     1
  8
0
100
AcDbBlockBegin
  2
*PAPER_SPACE
 70
     0
 10
0.0
 20
0.0
 30
0.0
  3
*PAPER_SPACE
  1

  0
ENDBLK
  5
F298
330
F296
100
AcDbEntity
 67
     1
  8
0
100
AcDbBlockEnd
  0
BLOCK
  5
F2B5
330
F2B4
100
AcDbEntity
  8
0
100
AcDbBlockBegin
  2
_OPEN
 70
     0
 10
0.0
 20
0.0
 30
0.0
  3
_OPEN
  1

  0
LINE
  5
F2B6
330
F2B4
100
AcDbEntity
  8
0
  6
ByBlock
 62
     0
100
AcDbLine
 10
-1.0
 20
0.166667
 30
0.0
 11
0.0
 21
0.0
 31
0.0
  0
LINE
  5
F2B7
330
F2B4
100
AcDbEntity
  8
0
  6
ByBlock
 62
     0
100
AcDbLine
 10
0.0
 20
0.0
 30
0.0
 11
-1.0
 21
-0.166667
 31
0.0
  0
LINE
  5
F2B8
330
F2B4
100
AcDbEntity
  8
0
  6
ByBlock
 62
     0
100
AcDbLine
 10
0.0
 20
0.0
 30
0.0
 11
-1.0
 21
0.0
 31
0.0
  0
ENDBLK
  5
F2B9
330
F2B4
100
AcDbEntity
  8
0
100
AcDbBlockEnd
  0
ENDSEC
  0
SECTION
  2
ENTITIES
  0
TEXT
  5
F2BA
330
F29A
100
AcDbEntity
  8
6
  6
Continuous
100
AcDbText
 10
27.97945
 20
10.0487
 30
0.0
 40
1.399999999999999
  1
6
 41
1.069393
100
AcDbText
  0
TEXT
  5
F2BB
330
F29A
100
AcDbEntity
  8
1
  6
Continuous
100
AcDbText
 10
17.97945
 20
10.0487
 30
0.0
 40
1.399999999999999
  1
1
 41
1.069393
100
AcDbText
  0
TEXT
  5
F2BC
330
F29A
100
AcDbEntity
  8
1
  6
Continuous
100
AcDbText
 10
9.99995
 20
10.0
 30
0.0
 40
1.399999999999999
  1
LAYER
 41
1.009912999999996
100
AcDbText
  0
TEXT
  5
F2BD
330
F29A
100
AcDbEntity
  8
2
  6
Continuous
100
AcDbText
 10
19.97944999999998
 20
10.0487
 30
0.0
 40
1.399999999999999
  1
2
 41
1.069393
100
AcDbText
  0
TEXT
  5
F2BE
330
F29A
100
AcDbEntity
  8
3
  6
DASHED
100
AcDbText
 10
21.97945
 20
10.0487
 30
0.0
 40
1.399999999999999
  1
3
 41
1.069393
100
AcDbText
  0
TEXT
  5
F2BF
330
F29A
100
AcDbEntity
  8
4
  6
CENTER
100
AcDbText
 10
23.97944999999999
 20
10.0487
 30
0.0
 40
1.399999999999999
  1
4
 41
1.069393
100
AcDbText
  0
TEXT
  5
F2C0
330
F29A
100
AcDbEntity
  8
5
  6
PHANTOM
100
AcDbText
 10
25.97945
 20
10.0487
 30
0.0
 40
1.399999999999999
  1
5
 41
1.069393
100
AcDbText
  0
TEXT
  5
F2C1
330
F29A
100
AcDbEntity
  8
7
  6
Continuous
100
AcDbText
 10
10.00005
 20
26.0
 30
0.0
 40
3.0
  1
CODE No.19027
 41
1.003962999999999
100
AcDbText
  0
TEXT
  5
F2C2
330
F29A
100
AcDbEntity
  8
7
  6
Continuous
100
AcDbText
 10
10.00005
 20
18.0
 30
0.0
 40
3.0
  1
TYPE No.TCA-TY50N3S (TY50N3S)
 41
1.002350999999997
100
AcDbText
  0
TEXT
  5
F2C3
330
F29A
100
AcDbEntity
  8
7
  6
Continuous
100
AcDbText
 10
29.97944999999999
 20
10.0487
 30
0.0
 40
1.399999999999999
  1
7
 41
1.069393
100
AcDbText
  0
LINE
  5
F2C4
330
F29A
100
AcDbEntity
  8
1
  6
Continuous
100
AcDbLine
 10
311.5
 20
183.0
 30
0.0
 11
327.4999999999999
 21
183.0
 31
0.0
  0
ARC
  5
F2C5
330
F29A
100
AcDbEntity
  8
1
  6
Continuous
100
AcDbCircle
 10
319.5
 20
74.40582299999999
 30
0.0
 40
100.0
100
AcDbArc
 50
84.836393
 51
95.16360699999999
  0
LINE
  5
F2C6
330
F29A
100
AcDbEntity
  8
1
  6
Continuous
100
AcDbLine
 10
311.5
 20
177.0
 30
0.0
 11
327.4999999999999
 21
177.0
 31
0.0
  0
LINE
  5
F2C7
330
F29A
100
AcDbEntity
  8
1
  6
Continuous
100
AcDbLine
 10
329.0
 20
143.0
 30
0.0
 11
310.0
 21
143.0
 31
0.0
  0
LINE
  5
F2C8
330
F29A
100
AcDbEntity
  8
4
  6
CENTER
100
AcDbLine
 10
349.0
 20
150.5
 30
0.0
 11
290.0
 21
150.5
 31
0.0
  0
ARC
  5
F2C9
330
F29A
100
AcDbEntity
  8
1
  6
Continuous
100
AcDbCircle
 10
285.9975
 20
150.5
 30
0.0
 40
58.0025
100
AcDbArc
 50
337.115739
 51
22.884261
  0
LINE
  5
F2CA
330
F29A
100
AcDbEntity
  8
1
  6
Continuous
100
AcDbLine
 10
330.0
 20
175.0
 30
0.0
 11
330.0
 21
126.0
 31
0.0
  0
LINE
  5
F2CB
330
F29A
100
AcDbEntity
  8
1
  6
Continuous
100
AcDbLine
 10
342.0
 20
135.4
 30
0.0
 11
342.0
 21
165.5999999999998
 31
0.0
  0
LINE
  5
F2CC
330
F29A
100
AcDbEntity
  8
1
  6
Continuous
100
AcDbLine
 10
328.5
 20
143.0
 30
0.0
 11
328.5
 21
176.0
 31
0.0
  0
ARC
  5
F2CD
330
F29A
100
AcDbEntity
  8
1
  6
Continuous
100
AcDbCircle
 10
335.749585
 20
129.4999999999998
 30
0.0
 40
4.0
100
AcDbArc
 50
270.0
 51
337.115739
  0
LINE
  5
F2CE
330
F29A
100
AcDbEntity
  8
1
  6
Continuous
100
AcDbLine
 10
330.5
 20
125.5
 30
0.0
 11
335.749585
 21
125.5
 31
0.0
  0
ARC
  5
F2CF
330
F29A
100
AcDbEntity
  8
1
  6
Continuous
100
AcDbCircle
 10
330.5
 20
126.0
 30
0.0
 40
0.5
100
AcDbArc
 50
180.0
 51
270.0
  0
LINE
  5
F2D0
330
F29A
100
AcDbEntity
  8
1
  6
Continuous
100
AcDbLine
 10
329.0
 20
158.4999999999998
 30
0.0
 11
329.0
 21
143.0
 31
0.0
  0
ARC
  5
F2D1
330
F29A
100
AcDbEntity
  8
1
  6
Continuous
100
AcDbCircle
 10
330.0
 20
143.5
 30
0.0
 40
1.0
100
AcDbArc
 50
180.0
 51
270.0
  0
ARC
  5
F2D2
330
F29A
100
AcDbEntity
  8
1
  6
Continuous
100
AcDbCircle
 10
330.0
 20
157.5
 30
0.0
 40
1.0
100
AcDbArc
 50
90.0
 51
180.0
  0
LINE
  5
F2D3
330
F29A
100
AcDbEntity
  8
1
  6
Continuous
100
AcDbLine
 10
328.5
 20
158.4999999999998
 30
0.0
 11
329.0
 21
158.4999999999998
 31
0.0
  0
LINE
  5
F2D4
330
F29A
100
AcDbEntity
  8
1
  6
Continuous
100
AcDbLine
 10
328.0
 20
177.5
 30
0.0
 11
328.0
 21
182.5
 31
0.0
  0
ARC
  5
F2D5
330
F29A
100
AcDbEntity
  8
1
  6
Continuous
100
AcDbCircle
 10
335.749585
 20
171.5
 30
0.0
 40
4.0
100
AcDbArc
 50
22.884261
 51
90.0
  0
LINE
  5
F2D6
330
F29A
100
AcDbEntity
  8
1
  6
Continuous
100
AcDbLine
 10
330.5
 20
175.5
 30
0.0
 11
335.749585
 21
175.5
 31
0.0
  0
ARC
  5
F2D7
330
F29A
100
AcDbEntity
  8
1
  6
Continuous
100
AcDbCircle
 10
330.5
 20
175.0
 30
0.0
 40
0.5
100
AcDbArc
 50
90.0
 51
180.0
  0
ARC
  5
F2D8
330
F29A
100
AcDbEntity
  8
1
  6
Continuous
100
AcDbCircle
 10
327.4999999999999
 20
177.5
 30
0.0
 40
0.5
100
AcDbArc
 50
270.0
 51
0.0
  0
ARC
  5
F2D9
330
F29A
100
AcDbEntity
  8
1
  6
Continuous
100
AcDbCircle
 10
327.4999999999999
 20
176.0
 30
0.0
 40
1.0
100
AcDbArc
 50
0.0
 51
90.0
  0
ARC
  5
F2DA
330
F29A
100
AcDbEntity
  8
1
  6
Continuous
100
AcDbCircle
 10
327.4999999999999
 20
182.5
 30
0.0
 40
0.5
100
AcDbArc
 50
0.0
 51
90.0
  0
LINE
  5
F2DB
330
F29A
100
AcDbEntity
  8
1
  6
Continuous
100
AcDbLine
 10
297.0
 20
135.4
 30
0.0
 11
297.0
 21
165.5999999999998
 31
0.0
  0
ARC
  5
F2DC
330
F29A
100
AcDbEntity
  8
1
  6
Continuous
100
AcDbCircle
 10
353.0025
 20
150.5
 30
0.0
 40
58.0025
100
AcDbArc
 50
157.1157389999999
 51
202.884261
  0
LINE
  5
F2DD
330
F29A
100
AcDbEntity
  8
1
  6
Continuous
100
AcDbLine
 10
309.0
 20
175.0
 30
0.0
 11
309.0
 21
126.0
 31
0.0
  0
LINE
  5
F2DE
330
F29A
100
AcDbEntity
  8
1
  6
Continuous
100
AcDbLine
 10
310.4999999999999
 20
143.0
 30
0.0
 11
310.4999999999999
 21
176.0
 31
0.0
  0
LINE
  5
F2DF
330
F29A
100
AcDbEntity
  8
4
  6
CENTER
100
AcDbLine
 10
319.5
 20
207.0
 30
0.0
 11
319.5
 21
130.2499999999998
 31
0.0
  0
LINE
  5
F2E0
330
F29A
100
AcDbEntity
  8
1
  6
Continuous
100
AcDbLine
 10
308.4999999999999
 20
125.5
 30
0.0
 11
303.2504149999998
 21
125.5
 31
0.0
  0
ARC
  5
F2E1
330
F29A
100
AcDbEntity
  8
1
  6
Continuous
100
AcDbCircle
 10
303.2504149999998
 20
129.4999999999998
 30
0.0
 40
4.0
100
AcDbArc
 50
202.884261
 51
270.0
  0
ARC
  5
F2E2
330
F29A
100
AcDbEntity
  8
1
  6
Continuous
100
AcDbCircle
 10
308.4999999999999
 20
126.0
 30
0.0
 40
0.5
100
AcDbArc
 50
270.0
 51
0.0
  0
LINE
  5
F2E3
330
F29A
100
AcDbEntity
  8
1
  6
Continuous
100
AcDbLine
 10
310.0
 20
143.0
 30
0.0
 11
310.0
 21
158.4999999999998
 31
0.0
  0
ARC
  5
F2E4
330
F29A
100
AcDbEntity
  8
1
  6
Continuous
100
AcDbCircle
 10
309.0
 20
143.5
 30
0.0
 40
1.0
100
AcDbArc
 50
270.0
 51
0.0
  0
ARC
  5
F2E5
330
F29A
100
AcDbEntity
  8
1
  6
Continuous
100
AcDbCircle
 10
309.0
 20
157.5
 30
0.0
 40
1.0
100
AcDbArc
 50
0.0
 51
90.0
  0
LINE
  5
F2E6
330
F29A
100
AcDbEntity
  8
1
  6
Continuous
100
AcDbLine
 10
310.0
 20
158.4999999999998
 30
0.0
 11
310.4999999999999
 21
158.4999999999998
 31
0.0
  0
LINE
  5
F2E7
330
F29A
100
AcDbEntity
  8
1
  6
Continuous
100
AcDbLine
 10
311.0
 20
177.5
 30
0.0
 11
311.0
 21
182.5
 31
0.0
  0
ARC
  5
F2E8
330
F29A
100
AcDbEntity
  8
1
  6
Continuous
100
AcDbCircle
 10
311.5
 20
177.5
 30
0.0
 40
0.5
100
AcDbArc
 50
180.0
 51
270.0
  0
ARC
  5
F2E9
330
F29A
100
AcDbEntity
  8
1
  6
Continuous
100
AcDbCircle
 10
311.5
 20
176.0
 30
0.0
 40
1.0
100
AcDbArc
 50
90.0
 51
180.0
  0
LINE
  5
F2EA
330
F29A
100
AcDbEntity
  8
1
  6
Continuous
100
AcDbLine
 10
308.4999999999999
 20
175.5
 30
0.0
 11
303.2504149999998
 21
175.5
 31
0.0
  0
ARC
  5
F2EB
330
F29A
100
AcDbEntity
  8
1
  6
Continuous
100
AcDbCircle
 10
303.2504149999998
 20
171.5
 30
0.0
 40
4.0
100
AcDbArc
 50
90.0
 51
157.1157389999999
  0
ARC
  5
F2EC
330
F29A
100
AcDbEntity
  8
1
  6
Continuous
100
AcDbCircle
 10
308.4999999999999
 20
175.0
 30
0.0
 40
0.5
100
AcDbArc
 50
0.0
 51
90.0
  0
ARC
  5
F2ED
330
F29A
100
AcDbEntity
  8
1
  6
Continuous
100
AcDbCircle
 10
311.5
 20
182.5
 30
0.0
 40
0.5
100
AcDbArc
 50
90.0
 51
180.0
  0
ARC
  5
F2EE
330
F29A
100
AcDbEntity
  8
1
  6
Continuous
100
AcDbCircle
 10
194.5
 20
84.00249999999997
 30
0.0
 40
58.0025
100
AcDbArc
 50
247.115739
 51
292.8842609999999
  0
ARC
  5
F2EF
330
F29A
100
AcDbEntity
  8
1
  6
Continuous
100
AcDbCircle
 10
194.5
 20
16.99749999999999
 30
0.0
 40
58.0025
100
AcDbArc
 50
67.11573900000001
 51
112.884261
  0
LINE
  5
F2F0
330
F29A
100
AcDbEntity
  8
1
  6
Continuous
100
AcDbLine
 10
171.246084
 20
59.5
 30
0.0
 11
218.0
 21
59.5
 31
0.0
  0
LINE
  5
F2F1
330
F29A
100
AcDbEntity
  8
1
  6
Continuous
100
AcDbLine
 10
179.4
 20
73.0
 30
0.0
 11
209.6
 21
73.0
 31
0.0
  0
LINE
  5
F2F2
330
F29A
100
AcDbEntity
  8
1
  6
Continuous
100
AcDbLine
 10
171.246084
 20
41.5
 30
0.0
 11
218.0
 21
41.5
 31
0.0
  0
LINE
  5
F2F3
330
F29A
100
AcDbEntity
  8
1
  6
Continuous
100
AcDbLine
 10
179.4
 20
28.0
 30
0.0
 11
209.6
 21
28.0
 31
0.0
  0
LINE
  5
F2F4
330
F29A
100
AcDbEntity
  8
4
  6
CENTER
100
AcDbLine
 10
227.0
 20
50.5
 30
0.0
 11
157.5164909999998
 21
50.5
 31
0.0
  0
ARC
  5
F2F5
330
F29A
100
AcDbEntity
  8
1
  6
Continuous
100
AcDbCircle
 10
270.8402599999998
 20
50.5
 30
0.0
 40
100.0
100
AcDbArc
 50
174.836393
 51
185.1636069999999
  0
LINE
  5
F2F6
330
F29A
100
AcDbEntity
  8
1
  6
Continuous
100
AcDbLine
 10
169.5
 20
39.5
 30
0.0
 11
169.5
 21
34.25041499999999
 31
0.0
  0
ARC
  5
F2F7
330
F29A
100
AcDbEntity
  8
1
  6
Continuous
100
AcDbCircle
 10
173.5
 20
34.25041499999999
 30
0.0
 40
4.0
100
AcDbArc
 50
180.0
 51
247.115739
  0
ARC
  5
F2F8
330
F29A
100
AcDbEntity
  8
1
  6
Continuous
100
AcDbCircle
 10
170.0
 20
39.5
 30
0.0
 40
0.5
100
AcDbArc
 50
90.0
 51
180.0
  0
ARC
  5
F2F9
330
F29A
100
AcDbEntity
  8
1
  6
Continuous
100
AcDbCircle
 10
173.5
 20
66.74958499999999
 30
0.0
 40
4.0
100
AcDbArc
 50
112.884261
 51
180.0
  0
ARC
  5
F2FA
330
F29A
100
AcDbEntity
  8
1
  6
Continuous
100
AcDbCircle
 10
170.0
 20
61.5
 30
0.0
 40
0.5
100
AcDbArc
 50
180.0
 51
270.0
  0
LINE
  5
F2FB
330
F29A
100
AcDbEntity
  8
1
  6
Continuous
100
AcDbLine
 10
169.5
 20
61.5
 30
0.0
 11
169.5
 21
66.74958499999999
 31
0.0
  0
LINE
  5
F2FC
330
F29A
100
AcDbEntity
  8
4
  6
CENTER
100
AcDbLine
 10
194.5
 20
80.0
 30
0.0
 11
194.5
 21
21.0
 31
0.0
  0
LINE
  5
F2FD
330
F29A
100
AcDbEntity
  8
4
  6
CENTER
100
AcDbLine
 10
211.5
 20
77.6631
 30
0.0
 11
211.5
 21
23.3369
 31
0.0
  0
ARC
  5
F2FE
330
F29A
100
AcDbEntity
  8
1
  6
Continuous
100
AcDbCircle
 10
213.5
 20
50.5
 30
0.0
 40
8.5
100
AcDbArc
 50
301.9657189999999
 51
58.03428100000001
  0
LINE
  5
F2FF
330
F29A
100
AcDbEntity
  8
1
  6
Continuous
100
AcDbLine
 10
170.0
 20
40.0
 30
0.0
 11
219.0
 21
40.0
 31
0.0
  0
LINE
  5
F300
330
F29A
100
AcDbEntity
  8
1
  6
Continuous
100
AcDbLine
 10
186.5
 20
41.0
 30
0.0
 11
202.4999999999999
 21
41.0
 31
0.0
  0
LINE
  5
F301
330
F29A
100
AcDbEntity
  8
1
  6
Continuous
100
AcDbLine
 10
186.5
 20
41.5
 30
0.0
 11
186.5
 21
41.0
 31
0.0
  0
ARC
  5
F302
330
F29A
100
AcDbEntity
  8
1
  6
Continuous
100
AcDbCircle
 10
187.5
 20
40.0
 30
0.0
 40
1.0
100
AcDbArc
 50
90.0
 51
180.0
  0
LINE
  5
F303
330
F29A
100
AcDbEntity
  8
1
  6
Continuous
100
AcDbLine
 10
202.4999999999999
 20
41.5
 30
0.0
 11
202.4999999999999
 21
41.0
 31
0.0
  0
ARC
  5
F304
330
F29A
100
AcDbEntity
  8
1
  6
Continuous
100
AcDbCircle
 10
201.5
 20
40.0
 30
0.0
 40
1.0
100
AcDbArc
 50
0.0
 51
90.0
  0
LINE
  5
F305
330
F29A
100
AcDbEntity
  8
1
  6
Continuous
100
AcDbLine
 10
219.4999999999998
 20
39.5
 30
0.0
 11
219.4999999999998
 21
34.25041499999999
 31
0.0
  0
ARC
  5
F306
330
F29A
100
AcDbEntity
  8
1
  6
Continuous
100
AcDbCircle
 10
215.5
 20
34.25041499999999
 30
0.0
 40
4.0
100
AcDbArc
 50
292.8842609999999
 51
0.0
  0
LINE
  5
F307
330
F29A
100
AcDbEntity
  8
1
  6
Continuous
100
AcDbLine
 10
218.0
 20
41.5
 30
0.0
 11
218.0
 21
43.288897
 31
0.0
  0
ARC
  5
F308
330
F29A
100
AcDbEntity
  8
1
  6
Continuous
100
AcDbCircle
 10
219.0
 20
39.5
 30
0.0
 40
0.5
100
AcDbArc
 50
0.0
 51
90.0
  0
LINE
  5
F309
330
F29A
100
AcDbEntity
  8
1
  6
Continuous
100
AcDbLine
 10
170.0
 20
61.0
 30
0.0
 11
219.0
 21
61.0
 31
0.0
  0
LINE
  5
F30A
330
F29A
100
AcDbEntity
  8
1
  6
Continuous
100
AcDbLine
 10
186.5
 20
60.0
 30
0.0
 11
202.4999999999999
 21
60.0
 31
0.0
  0
LINE
  5
F30B
330
F29A
100
AcDbEntity
  8
1
  6
Continuous
100
AcDbLine
 10
186.5
 20
60.0
 30
0.0
 11
186.5
 21
59.5
 31
0.0
  0
ARC
  5
F30C
330
F29A
100
AcDbEntity
  8
1
  6
Continuous
100
AcDbCircle
 10
187.5
 20
61.0
 30
0.0
 40
1.0
100
AcDbArc
 50
180.0
 51
270.0
  0
LINE
  5
F30D
330
F29A
100
AcDbEntity
  8
1
  6
Continuous
100
AcDbLine
 10
202.4999999999999
 20
60.0
 30
0.0
 11
202.4999999999999
 21
59.5
 31
0.0
  0
ARC
  5
F30E
330
F29A
100
AcDbEntity
  8
1
  6
Continuous
100
AcDbCircle
 10
201.5
 20
61.0
 30
0.0
 40
1.0
100
AcDbArc
 50
270.0
 51
0.0
  0
ARC
  5
F30F
330
F29A
100
AcDbEntity
  8
1
  6
Continuous
100
AcDbCircle
 10
215.5
 20
66.74958499999999
 30
0.0
 40
4.0
100
AcDbArc
 50
0.0
 51
67.11573900000001
  0
LINE
  5
F310
330
F29A
100
AcDbEntity
  8
1
  6
Continuous
100
AcDbLine
 10
218.0
 20
57.71110199999998
 30
0.0
 11
218.0
 21
59.5
 31
0.0
  0
ARC
  5
F311
330
F29A
100
AcDbEntity
  8
1
  6
Continuous
100
AcDbCircle
 10
219.0
 20
61.5
 30
0.0
 40
0.5
100
AcDbArc
 50
270.0
 51
0.0
  0
LINE
  5
F312
330
F29A
100
AcDbEntity
  8
1
  6
Continuous
100
AcDbLine
 10
219.4999999999998
 20
61.5
 30
0.0
 11
219.4999999999998
 21
66.74958499999999
 31
0.0
  0
ARC
  5
F313
330
F29A
100
AcDbEntity
  8
1
  6
Continuous
100
AcDbCircle
 10
211.5
 20
50.5
 30
0.0
 40
6.275
100
AcDbArc
 50
17.63970099999999
 51
342.360299
  0
LINE
  5
F314
330
F29A
100
AcDbEntity
  8
1
  6
Continuous
100
AcDbLine
 10
217.0034649999998
 20
51.75
 30
0.0
 11
215.3971149999999
 21
51.75
 31
0.0
  0
LINE
  5
F315
330
F29A
100
AcDbEntity
  8
1
  6
Continuous
100
AcDbLine
 10
217.0034649999998
 20
49.25
 30
0.0
 11
215.3971149999999
 21
49.25
 31
0.0
  0
ARC
  5
F316
330
F29A
100
AcDbEntity
  8
1
  6
Continuous
100
AcDbCircle
 10
253.572323
 20
147.207232
 30
0.0
 40
59.077677
100
AcDbArc
 50
356.9398239999999
 51
15.50497699999999
  0
ARC
  5
F317
330
F29A
100
AcDbEntity
  8
1
  6
Continuous
100
AcDbCircle
 10
385.427677
 20
147.207232
 30
0.0
 40
59.077677
100
AcDbArc
 50
164.495023
 51
183.060176
  0
ARC
  5
F318
330
F29A
100
AcDbEntity
  8
1
  6
Continuous
100
AcDbCircle
 10
313.5643299999999
 20
144.0
 30
0.0
 40
1.0
100
AcDbArc
 50
176.939824
 51
270.0
  0
ARC
  5
F319
330
F29A
100
AcDbEntity
  8
1
  6
Continuous
100
AcDbCircle
 10
325.43567
 20
144.0
 30
0.0
 40
1.0
100
AcDbArc
 50
270.0
 51
3.060175999999998
  0
CIRCLE
  5
F31A
330
F29A
100
AcDbEntity
  8
1
  6
Continuous
100
AcDbCircle
 10
211.5
 20
50.5
 30
0.0
 40
4.0
  0
LINE
  5
F31B
330
F29A
100
AcDbEntity
  8
1
  6
Continuous
100
AcDbLine
 10
206.8811979999999
 20
50.5
 30
0.0
 11
209.1905989999999
 21
54.5
 31
0.0
  0
LINE
  5
F31C
330
F29A
100
AcDbEntity
  8
1
  6
Continuous
100
AcDbLine
 10
209.1905989999999
 20
46.5
 30
0.0
 11
206.8811979999999
 21
50.5
 31
0.0
  0
LINE
  5
F31D
330
F29A
100
AcDbEntity
  8
1
  6
Continuous
100
AcDbLine
 10
80.775
 20
139.55
 30
0.0
 11
68.22499999999999
 21
139.55
 31
0.0
  0
LINE
  5
F31E
330
F29A
100
AcDbEntity
  8
1
  6
Continuous
100
AcDbLine
 10
80.775
 20
141.05
 30
0.0
 11
68.22499999999999
 21
141.05
 31
0.0
  0
LINE
  5
F31F
330
F29A
100
AcDbEntity
  8
1
  6
Continuous
100
AcDbLine
 10
77.5
 20
143.0
 30
0.0
 11
77.5
 21
141.05
 31
0.0
  0
ARC
  5
F320
330
F29A
100
AcDbEntity
  8
1
  6
Continuous
100
AcDbCircle
 10
76.5
 20
138.15
 30
0.0
 40
2.9
100
AcDbArc
 50
226.397181
 51
313.602819
  0
LINE
  5
F321
330
F29A
100
AcDbEntity
  8
1
  6
Continuous
100
AcDbLine
 10
78.5
 20
139.55
 30
0.0
 11
78.5
 21
135.25
 31
0.0
  0
LINE
  5
F322
330
F29A
100
AcDbEntity
  8
1
  6
Continuous
100
AcDbLine
 10
71.5
 20
143.0
 30
0.0
 11
71.5
 21
141.05
 31
0.0
  0
LINE
  5
F323
330
F29A
100
AcDbEntity
  8
1
  6
Continuous
100
AcDbLine
 10
68.22499999999999
 20
141.05
 30
0.0
 11
68.22499999999999
 21
139.55
 31
0.0
  0
LINE
  5
F324
330
F29A
100
AcDbEntity
  8
1
  6
Continuous
100
AcDbLine
 10
70.5
 20
139.55
 30
0.0
 11
70.5
 21
135.25
 31
0.0
  0
ARC
  5
F325
330
F29A
100
AcDbEntity
  8
1
  6
Continuous
100
AcDbCircle
 10
72.5
 20
138.15
 30
0.0
 40
2.9
100
AcDbArc
 50
226.397181
 51
313.602819
  0
LINE
  5
F326
330
F29A
100
AcDbEntity
  8
1
  6
Continuous
100
AcDbLine
 10
78.5
 20
135.25
 30
0.0
 11
70.5
 21
135.25
 31
0.0
  0
LINE
  5
F327
330
F29A
100
AcDbEntity
  8
1
  6
Continuous
100
AcDbLine
 10
216.1188029999999
 20
50.5
 30
0.0
 11
213.8094009999999
 21
46.5
 31
0.0
  0
LINE
  5
F328
330
F29A
100
AcDbEntity
  8
1
  6
Continuous
100
AcDbLine
 10
213.8094009999999
 20
46.5
 30
0.0
 11
209.1905989999999
 21
46.5
 31
0.0
  0
LINE
  5
F329
330
F29A
100
AcDbEntity
  8
1
  6
Continuous
100
AcDbLine
 10
209.1905989999999
 20
54.5
 30
0.0
 11
213.8094009999999
 21
54.5
 31
0.0
  0
LINE
  5
F32A
330
F29A
100
AcDbEntity
  8
1
  6
Continuous
100
AcDbLine
 10
213.8094009999999
 20
54.5
 30
0.0
 11
216.1188029999999
 21
50.5
 31
0.0
  0
LINE
  5
F32B
330
F29A
100
AcDbEntity
  8
1
  6
Continuous
100
AcDbLine
 10
80.775
 20
141.05
 30
0.0
 11
80.775
 21
139.55
 31
0.0
  0
LINE
  5
F32C
330
F29A
100
AcDbEntity
  8
1
  6
Continuous
100
AcDbLine
 10
313.225
 20
139.55
 30
0.0
 11
325.7749999999999
 21
139.55
 31
0.0
  0
LINE
  5
F32D
330
F29A
100
AcDbEntity
  8
1
  6
Continuous
100
AcDbLine
 10
320.5
 20
141.05
 30
0.0
 11
325.7749999999999
 21
141.05
 31
0.0
  0
LINE
  5
F32E
330
F29A
100
AcDbEntity
  8
1
  6
Continuous
100
AcDbLine
 10
322.5
 20
143.0
 30
0.0
 11
322.5
 21
141.05
 31
0.0
  0
LINE
  5
F32F
330
F29A
100
AcDbEntity
  8
1
  6
Continuous
100
AcDbLine
 10
323.4999999999998
 20
139.55
 30
0.0
 11
323.4999999999998
 21
135.25
 31
0.0
  0
LINE
  5
F330
330
F29A
100
AcDbEntity
  8
1
  6
Continuous
100
AcDbLine
 10
313.225
 20
141.05
 30
0.0
 11
318.5
 21
141.05
 31
0.0
  0
LINE
  5
F331
330
F29A
100
AcDbEntity
  8
1
  6
Continuous
100
AcDbLine
 10
313.225
 20
141.05
 30
0.0
 11
313.225
 21
139.55
 31
0.0
  0
ARC
  5
F332
330
F29A
100
AcDbEntity
  8
1
  6
Continuous
100
AcDbCircle
 10
317.5
 20
138.15
 30
0.0
 40
2.9
100
AcDbArc
 50
226.397181
 51
313.602819
  0
LINE
  5
F333
330
F29A
100
AcDbEntity
  8
1
  6
Continuous
100
AcDbLine
 10
319.5
 20
139.55
 30
0.0
 11
319.5
 21
136.05
 31
0.0
  0
LINE
  5
F334
330
F29A
100
AcDbEntity
  8
1
  6
Continuous
100
AcDbLine
 10
316.5
 20
143.0
 30
0.0
 11
316.5
 21
141.05
 31
0.0
  0
LINE
  5
F335
330
F29A
100
AcDbEntity
  8
1
  6
Continuous
100
AcDbLine
 10
318.5
 20
141.05
 30
0.0
 11
318.5
 21
139.55
 31
0.0
  0
LINE
  5
F336
330
F29A
100
AcDbEntity
  8
1
  6
Continuous
100
AcDbLine
 10
320.5
 20
141.05
 30
0.0
 11
320.5
 21
139.55
 31
0.0
  0
LINE
  5
F337
330
F29A
100
AcDbEntity
  8
1
  6
Continuous
100
AcDbLine
 10
315.5
 20
139.55
 30
0.0
 11
315.5
 21
135.25
 31
0.0
  0
ARC
  5
F338
330
F29A
100
AcDbEntity
  8
1
  6
Continuous
100
AcDbCircle
 10
321.4999999999998
 20
138.15
 30
0.0
 40
2.9
100
AcDbArc
 50
226.397181
 51
313.602819
  0
LINE
  5
F339
330
F29A
100
AcDbEntity
  8
1
  6
Continuous
100
AcDbLine
 10
315.5
 20
135.25
 30
0.0
 11
323.4999999999998
 21
135.25
 31
0.0
  0
LINE
  5
F33A
330
F29A
100
AcDbEntity
  8
1
  6
Continuous
100
AcDbLine
 10
325.7749999999999
 20
141.05
 30
0.0
 11
325.7749999999999
 21
139.55
 31
0.0
  0
ARC
  5
F33B
330
F29A
100
AcDbEntity
  8
1
  6
Continuous
100
AcDbCircle
 10
217.0034649999998
 20
52.25
 30
0.0
 40
0.5
100
AcDbArc
 50
270.0
 51
17.63970099999999
  0
ARC
  5
F33C
330
F29A
100
AcDbEntity
  8
1
  6
Continuous
100
AcDbCircle
 10
217.0034649999998
 20
48.75
 30
0.0
 40
0.5
100
AcDbArc
 50
342.360299
 51
90.0
  0
LINE
  5
F33D
330
F29A
100
AcDbEntity
  8
1
  6
Continuous
100
AcDbLine
 10
169.5
 20
280.5
 30
0.0
 11
169.5
 21
275.2504149999999
 31
0.0
  0
LINE
  5
F33E
330
F29A
100
AcDbEntity
  8
1
  6
Continuous
100
AcDbLine
 10
219.4999999999998
 20
280.5
 30
0.0
 11
219.4999999999998
 21
275.2504149999999
 31
0.0
  0
LINE
  5
F33F
330
F29A
100
AcDbEntity
  8
4
  6
CENTER
100
AcDbLine
 10
211.5
 20
264.3369
 30
0.0
 11
211.5
 21
318.6630999999998
 31
0.0
  0
LINE
  5
F340
330
F29A
100
AcDbEntity
  8
4
  6
CENTER
100
AcDbLine
 10
194.5
 20
321.0
 30
0.0
 11
194.5
 21
262.0
 31
0.0
  0
LINE
  5
F341
330
F29A
100
AcDbEntity
  8
4
  6
CENTER
100
AcDbLine
 10
226.567467
 20
150.5
 30
0.0
 11
164.5
 21
150.5
 31
0.0
  0
CIRCLE
  5
F342
330
F29A
100
AcDbEntity
  8
1
  6
Continuous
100
AcDbCircle
 10
194.5
 20
150.5
 30
0.0
 40
25.0
  0
CIRCLE
  5
F343
330
F29A
100
AcDbEntity
  8
1
  6
Continuous
100
AcDbCircle
 10
194.5
 20
150.5
 30
0.0
 40
15.09999999999999
  0
LINE
  5
F344
330
F29A
100
AcDbEntity
  8
4
  6
CENTER
100
AcDbLine
 10
211.5
 20
125.781586
 30
0.0
 11
211.5
 21
207.0
 31
0.0
  0
LINE
  5
F345
330
F29A
100
AcDbEntity
  8
4
  6
CENTER
100
AcDbLine
 10
194.5
 20
120.5
 30
0.0
 11
194.5
 21
180.4999999999998
 31
0.0
  0
LINE
  5
F346
330
F29A
100
AcDbEntity
  8
1
  6
Continuous
100
AcDbLine
 10
220.0553699999999
 20
176.0587219999999
 30
0.0
 11
221.9065839999999
 21
144.588083
 31
0.0
  0
LINE
  5
F347
330
F29A
100
AcDbEntity
  8
1
  6
Continuous
100
AcDbLine
 10
220.409172
 20
143.0
 30
0.0
 11
218.34848
 21
143.0
 31
0.0
  0
ARC
  5
F348
330
F29A
100
AcDbEntity
  8
1
  6
Continuous
100
AcDbCircle
 10
220.409172
 20
144.5
 30
0.0
 40
1.5
100
AcDbArc
 50
270.0
 51
3.366461
  0
LINE
  5
F349
330
F29A
100
AcDbEntity
  8
1
  6
Continuous
100
AcDbLine
 10
220.5
 20
183.0
 30
0.0
 11
202.4999999999999
 21
183.0
 31
0.0
  0
LINE
  5
F34A
330
F29A
100
AcDbEntity
  8
1
  6
Continuous
100
AcDbLine
 10
202.4999999999999
 20
177.0
 30
0.0
 11
220.5
 21
177.0
 31
0.0
  0
ARC
  5
F34B
330
F29A
100
AcDbEntity
  8
1
  6
Continuous
100
AcDbCircle
 10
219.0570950000001
 20
176.0
 30
0.0
 40
1.0
100
AcDbArc
 50
3.366461
 51
90.0
  0
ARC
  5
F34C
330
F29A
100
AcDbEntity
  8
1
  6
Continuous
100
AcDbCircle
 10
217.854249
 20
180.0
 30
0.0
 40
4.0
100
AcDbArc
 50
311.409622
 51
48.590378
  0
ARC
  5
F34D
330
F29A
100
AcDbEntity
  8
1
  6
Continuous
100
AcDbCircle
 10
211.8122889999999
 20
180.0
 30
0.0
 40
4.0
100
AcDbArc
 50
311.409622
 51
48.590378
  0
ARC
  5
F34E
330
F29A
100
AcDbEntity
  8
1
  6
Continuous
100
AcDbCircle
 10
200.0
 20
176.4229629999999
 30
0.0
 40
3.0
100
AcDbArc
 50
315.1705810000001
 51
351.9749
  0
ARC
  5
F34F
330
F29A
100
AcDbEntity
  8
1
  6
Continuous
100
AcDbCircle
 10
211.1877119999999
 20
180.0
 30
0.0
 40
4.0
100
AcDbArc
 50
131.4096219999999
 51
228.5903779999999
  0
ARC
  5
F350
330
F29A
100
AcDbEntity
  8
1
  6
Continuous
100
AcDbCircle
 10
204.0
 20
176.0
 30
0.0
 40
1.0
100
AcDbArc
 50
90.0
 51
180.0
  0
ARC
  5
F351
330
F29A
100
AcDbEntity
  8
1
  6
Continuous
100
AcDbCircle
 10
205.145752
 20
180.0
 30
0.0
 40
4.0
100
AcDbArc
 50
131.4096219999999
 51
228.5903779999999
  0
LINE
  5
F352
330
F29A
100
AcDbEntity
  8
1
  6
Continuous
100
AcDbLine
 10
64.0
 20
175.0
 30
0.0
 11
64.0
 21
126.0
 31
0.0
  0
LINE
  5
F353
330
F29A
100
AcDbEntity
  8
1
  6
Continuous
100
AcDbLine
 10
85.0
 20
175.0
 30
0.0
 11
85.0
 21
126.0
 31
0.0
  0
LINE
  5
F354
330
F29A
100
AcDbEntity
  8
4
  6
CENTER
100
AcDbLine
 10
74.5
 20
207.0
 30
0.0
 11
74.5
 21
130.2499999999998
 31
0.0
  0
LINE
  5
F355
330
F29A
100
AcDbEntity
  8
1
  6
Continuous
100
AcDbLine
 10
85.5
 20
125.5
 30
0.0
 11
90.74958499999999
 21
125.5
 31
0.0
  0
ARC
  5
F356
330
F29A
100
AcDbEntity
  8
1
  6
Continuous
100
AcDbCircle
 10
85.5
 20
126.0
 30
0.0
 40
0.5
100
AcDbArc
 50
180.0
 51
270.0
  0
LINE
  5
F357
330
F29A
100
AcDbEntity
  8
1
  6
Continuous
100
AcDbLine
 10
63.5
 20
125.5
 30
0.0
 11
58.25041500000001
 21
125.5
 31
0.0
  0
ARC
  5
F358
330
F29A
100
AcDbEntity
  8
1
  6
Continuous
100
AcDbCircle
 10
63.5
 20
126.0
 30
0.0
 40
0.5
100
AcDbArc
 50
270.0
 51
0.0
  0
LINE
  5
F359
330
F29A
100
AcDbEntity
  8
4
  6
CENTER
100
AcDbLine
 10
45.0
 20
150.5
 30
0.0
 11
104.0
 21
150.5
 31
0.0
  0
ARC
  5
F35A
330
F29A
100
AcDbEntity
  8
1
  6
Continuous
100
AcDbCircle
 10
169.921611
 20
165.667627
 30
0.0
 40
1.0
100
AcDbArc
 50
336.219159
 51
95.34782599999996
  0
ARC
  5
F35B
330
F29A
100
AcDbEntity
  8
1
  6
Continuous
100
AcDbCircle
 10
167.2187609999998
 20
194.5413969999999
 30
0.0
 40
28.0
100
AcDbArc
 50
262.055411
 51
290.2749469999998
  0
ARC
  5
F35C
330
F29A
100
AcDbEntity
  8
1
  6
Continuous
100
AcDbCircle
 10
175.412178
 20
163.2481909999999
 30
0.0
 40
5.0
100
AcDbArc
 50
156.2191589999999
 51
217.6815799999999
  0
ARC
  5
F35D
330
F29A
100
AcDbEntity
  8
1
  6
Continuous
100
AcDbCircle
 10
167.2187609999998
 20
194.5413969999999
 30
0.0
 40
26.0
100
AcDbArc
 50
260.358623
 51
302.0679830000001
  0
ARC
  5
F35E
330
F29A
100
AcDbEntity
  8
1
  6
Continuous
100
AcDbCircle
 10
181.1820919999999
 20
172.254284
 30
0.0
 40
0.3
100
AcDbArc
 50
33.538524
 51
122.0679829999999
  0
ARC
  5
F35F
330
F29A
100
AcDbEntity
  8
1
  6
Continuous
100
AcDbCircle
 10
179.7651169999998
 20
171.3150389999999
 30
0.0
 40
2.0
100
AcDbArc
 50
18.554139
 51
33.538524
  0
ARC
  5
F360
330
F29A
100
AcDbEntity
  8
1
  6
Continuous
100
AcDbCircle
 10
164.5
 20
168.3950199999999
 30
0.0
 40
2.0
100
AcDbArc
 50
172.6372709999999
 51
229.244997
  0
LINE
  5
F361
330
F29A
100
AcDbEntity
  8
1
  6
Continuous
100
AcDbLine
 10
65.5
 20
156.0
 30
0.0
 11
65.5
 21
176.0
 31
0.0
  0
LINE
  5
F362
330
F29A
100
AcDbEntity
  8
1
  6
Continuous
100
AcDbLine
 10
83.49999999999999
 20
156.0
 30
0.0
 11
83.49999999999999
 21
176.0
 31
0.0
  0
LINE
  5
F363
330
F29A
100
AcDbEntity
  8
1
  6
Continuous
100
AcDbLine
 10
65.0
 20
143.0
 30
0.0
 11
84.0
 21
143.0
 31
0.0
  0
LINE
  5
F364
330
F29A
100
AcDbEntity
  8
1
  6
Continuous
100
AcDbLine
 10
84.0
 20
143.0
 30
0.0
 11
84.0
 21
156.0
 31
0.0
  0
ARC
  5
F365
330
F29A
100
AcDbEntity
  8
1
  6
Continuous
100
AcDbCircle
 10
85.0
 20
143.5
 30
0.0
 40
1.0
100
AcDbArc
 50
180.0
 51
270.0
  0
ARC
  5
F366
330
F29A
100
AcDbEntity
  8
1
  6
Continuous
100
AcDbCircle
 10
85.0
 20
157.5
 30
0.0
 40
1.0
100
AcDbArc
 50
90.0
 51
138.5903779999999
  0
LINE
  5
F367
330
F29A
100
AcDbEntity
  8
1
  6
Continuous
100
AcDbLine
 10
65.0
 20
156.0
 30
0.0
 11
65.0
 21
143.0
 31
0.0
  0
ARC
  5
F368
330
F29A
100
AcDbEntity
  8
1
  6
Continuous
100
AcDbCircle
 10
64.0
 20
143.5
 30
0.0
 40
1.0
100
AcDbArc
 50
270.0
 51
0.0
  0
ARC
  5
F369
330
F29A
100
AcDbEntity
  8
1
  6
Continuous
100
AcDbCircle
 10
64.0
 20
157.5
 30
0.0
 40
1.0
100
AcDbArc
 50
41.40962199999999
 51
90.0
  0
LINE
  5
F36A
330
F29A
100
AcDbEntity
  8
1
  6
Continuous
100
AcDbLine
 10
82.5
 20
183.0
 30
0.0
 11
66.5
 21
183.0
 31
0.0
  0
LINE
  5
F36B
330
F29A
100
AcDbEntity
  8
1
  6
Continuous
100
AcDbLine
 10
82.5
 20
177.0
 30
0.0
 11
66.5
 21
177.0
 31
0.0
  0
ARC
  5
F36C
330
F29A
100
AcDbEntity
  8
1
  6
Continuous
100
AcDbCircle
 10
74.5
 20
74.40582299999999
 30
0.0
 40
100.0
100
AcDbArc
 50
84.836393
 51
95.16360699999999
  0
LINE
  5
F36D
330
F29A
100
AcDbEntity
  8
1
  6
Continuous
100
AcDbLine
 10
85.5
 20
175.5
 30
0.0
 11
90.74958499999999
 21
175.5
 31
0.0
  0
ARC
  5
F36E
330
F29A
100
AcDbEntity
  8
1
  6
Continuous
100
AcDbCircle
 10
85.5
 20
175.0
 30
0.0
 40
0.5
100
AcDbArc
 50
90.0
 51
180.0
  0
LINE
  5
F36F
330
F29A
100
AcDbEntity
  8
1
  6
Continuous
100
AcDbLine
 10
83.0
 20
169.7341439999999
 30
0.0
 11
83.49999999999999
 21
169.7341439999999
 31
0.0
  0
LINE
  5
F370
330
F29A
100
AcDbEntity
  8
1
  6
Continuous
100
AcDbLine
 10
80.15
 20
156.0
 30
0.0
 11
80.15
 21
166.72928
 31
0.0
  0
ARC
  5
F371
330
F29A
100
AcDbEntity
  8
1
  6
Continuous
100
AcDbCircle
 10
82.5
 20
176.0
 30
0.0
 40
1.0
100
AcDbArc
 50
0.0
 51
90.0
  0
ARC
  5
F372
330
F29A
100
AcDbEntity
  8
1
  6
Continuous
100
AcDbCircle
 10
82.5
 20
176.0
 30
0.0
 40
1.0
100
AcDbArc
 50
0.0
 51
90.0
  0
ARC
  5
F373
330
F29A
100
AcDbEntity
  8
1
  6
Continuous
100
AcDbCircle
 10
82.5
 20
182.5
 30
0.0
 40
0.5
100
AcDbArc
 50
0.0
 51
90.0
  0
ARC
  5
F374
330
F29A
100
AcDbEntity
  8
1
  6
Continuous
100
AcDbCircle
 10
82.5
 20
177.5
 30
0.0
 40
0.5
100
AcDbArc
 50
270.0
 51
0.0
  0
LINE
  5
F375
330
F29A
100
AcDbEntity
  8
1
  6
Continuous
100
AcDbLine
 10
83.0
 20
177.5
 30
0.0
 11
83.0
 21
182.5
 31
0.0
  0
LINE
  5
F376
330
F29A
100
AcDbEntity
  8
1
  6
Continuous
100
AcDbLine
 10
68.84999999999999
 20
166.72928
 30
0.0
 11
68.84999999999999
 21
156.0
 31
0.0
  0
LINE
  5
F377
330
F29A
100
AcDbEntity
  8
1
  6
Continuous
100
AcDbLine
 10
66.0
 20
169.7341439999999
 30
0.0
 11
65.5
 21
169.7341439999999
 31
0.0
  0
ARC
  5
F378
330
F29A
100
AcDbEntity
  8
1
  6
Continuous
100
AcDbCircle
 10
66.5
 20
182.5
 30
0.0
 40
0.5
100
AcDbArc
 50
90.0
 51
180.0
  0
ARC
  5
F379
330
F29A
100
AcDbEntity
  8
1
  6
Continuous
100
AcDbCircle
 10
66.5
 20
176.0
 30
0.0
 40
1.0
100
AcDbArc
 50
90.0
 51
180.0
  0
ARC
  5
F37A
330
F29A
100
AcDbEntity
  8
1
  6
Continuous
100
AcDbCircle
 10
66.5
 20
177.5
 30
0.0
 40
0.5
100
AcDbArc
 50
180.0
 51
270.0
  0
ARC
  5
F37B
330
F29A
100
AcDbEntity
  8
1
  6
Continuous
100
AcDbCircle
 10
66.5
 20
176.0
 30
0.0
 40
1.0
100
AcDbArc
 50
90.0
 51
180.0
  0
LINE
  5
F37C
330
F29A
100
AcDbEntity
  8
1
  6
Continuous
100
AcDbLine
 10
66.0
 20
177.5
 30
0.0
 11
66.0
 21
182.5
 31
0.0
  0
ARC
  5
F37D
330
F29A
100
AcDbEntity
  8
1
  6
Continuous
100
AcDbCircle
 10
63.5
 20
175.0
 30
0.0
 40
0.5
100
AcDbArc
 50
0.0
 51
90.0
  0
LINE
  5
F37E
330
F29A
100
AcDbEntity
  8
1
  6
Continuous
100
AcDbLine
 10
63.5
 20
175.5
 30
0.0
 11
58.25041500000001
 21
175.5
 31
0.0
  0
LINE
  5
F37F
330
F29A
100
AcDbEntity
  8
1
  6
Continuous
100
AcDbLine
 10
52.0
 20
135.4
 30
0.0
 11
52.0
 21
165.5999999999998
 31
0.0
  0
LINE
  5
F380
330
F29A
100
AcDbEntity
  8
1
  6
Continuous
100
AcDbLine
 10
179.4
 20
314.0
 30
0.0
 11
209.6
 21
314.0
 31
0.0
  0
LINE
  5
F381
330
F29A
100
AcDbEntity
  8
1
  6
Continuous
100
AcDbLine
 10
179.7763339999999
 20
300.4999999999999
 30
0.0
 11
218.0
 21
300.4999999999999
 31
0.0
  0
LINE
  5
F382
330
F29A
100
AcDbEntity
  8
1
  6
Continuous
100
AcDbLine
 10
186.5
 20
301.0
 30
0.0
 11
202.4999999999999
 21
301.0
 31
0.0
  0
LINE
  5
F383
330
F29A
100
AcDbEntity
  8
1
  6
Continuous
100
AcDbLine
 10
179.7763339999999
 20
282.5
 30
0.0
 11
218.0
 21
282.5
 31
0.0
  0
LINE
  5
F384
330
F29A
100
AcDbEntity
  8
1
  6
Continuous
100
AcDbLine
 10
186.5
 20
282.0
 30
0.0
 11
202.4999999999999
 21
282.0
 31
0.0
  0
LINE
  5
F385
330
F29A
100
AcDbEntity
  8
4
  6
CENTER
100
AcDbLine
 10
157.5164909999998
 20
291.5
 30
0.0
 11
227.0
 21
291.5
 31
0.0
  0
LINE
  5
F386
330
F29A
100
AcDbEntity
  8
1
  6
Continuous
100
AcDbLine
 10
216.767827
 20
300.0
 30
0.0
 11
206.2321739999999
 21
300.0
 31
0.0
  0
LINE
  5
F387
330
F29A
100
AcDbEntity
  8
1
  6
Continuous
100
AcDbLine
 10
216.767827
 20
283.0
 30
0.0
 11
206.2321739999999
 21
283.0
 31
0.0
  0
ARC
  5
F388
330
F29A
100
AcDbEntity
  8
1
  6
Continuous
100
AcDbCircle
 10
213.5
 20
291.5
 30
0.0
 40
8.5
100
AcDbArc
 50
314.309137
 51
45.69086300000001
  0
ARC
  5
F389
330
F29A
100
AcDbEntity
  8
1
  6
Continuous
100
AcDbCircle
 10
211.5
 20
291.5
 30
0.0
 40
9.0
100
AcDbArc
 50
289.1881359999998
 51
70.81186399999999
  0
ARC
  5
F38A
330
F29A
100
AcDbEntity
  8
1
  6
Continuous
100
AcDbCircle
 10
211.5
 20
291.5
 30
0.0
 40
10.0
100
AcDbArc
 50
301.7883310000001
 51
58.21166899999997
  0
ARC
  5
F38B
330
F29A
100
AcDbEntity
  8
1
  6
Continuous
100
AcDbCircle
 10
219.0
 20
280.5
 30
0.0
 40
0.5
100
AcDbArc
 50
0.0
 51
90.0
  0
LINE
  5
F38C
330
F29A
100
AcDbEntity
  8
1
  6
Continuous
100
AcDbLine
 10
218.0
 20
282.5
 30
0.0
 11
218.0
 21
283.900658
 31
0.0
  0
LINE
  5
F38D
330
F29A
100
AcDbEntity
  8
1
  6
Continuous
100
AcDbLine
 10
218.0
 20
299.0993419999999
 30
0.0
 11
218.0
 21
300.4999999999999
 31
0.0
  0
ARC
  5
F38E
330
F29A
100
AcDbEntity
  8
1
  6
Continuous
100
AcDbCircle
 10
219.0
 20
302.4999999999999
 30
0.0
 40
0.5
100
AcDbArc
 50
270.0
 51
0.0
  0
LINE
  5
F38F
330
F29A
100
AcDbEntity
  8
1
  6
Continuous
100
AcDbLine
 10
219.4999999999998
 20
302.4999999999999
 30
0.0
 11
219.4999999999998
 21
307.749585
 31
0.0
  0
ARC
  5
F390
330
F29A
100
AcDbEntity
  8
1
  6
Continuous
100
AcDbCircle
 10
211.5
 20
291.5
 30
0.0
 40
9.0
100
AcDbArc
 50
109.188136
 51
250.811864
  0
ARC
  5
F391
330
F29A
100
AcDbEntity
  8
1
  6
Continuous
100
AcDbCircle
 10
211.5
 20
291.5
 30
0.0
 40
10.0
100
AcDbArc
 50
121.7883309999999
 51
238.211669
  0
LINE
  5
F392
330
F29A
100
AcDbEntity
  8
1
  6
Continuous
100
AcDbLine
 10
202.4999999999999
 20
282.5
 30
0.0
 11
202.4999999999999
 21
282.0
 31
0.0
  0
ARC
  5
F393
330
F29A
100
AcDbEntity
  8
1
  6
Continuous
100
AcDbCircle
 10
201.5
 20
281.0
 30
0.0
 40
1.0
100
AcDbArc
 50
0.0
 51
90.0
  0
ARC
  5
F394
330
F29A
100
AcDbEntity
  8
1
  6
Continuous
100
AcDbCircle
 10
201.5
 20
302.0
 30
0.0
 40
1.0
100
AcDbArc
 50
270.0
 51
0.0
  0
LINE
  5
F395
330
F29A
100
AcDbEntity
  8
1
  6
Continuous
100
AcDbLine
 10
202.4999999999999
 20
301.0
 30
0.0
 11
202.4999999999999
 21
300.4999999999999
 31
0.0
  0
LINE
  5
F396
330
F29A
100
AcDbEntity
  8
1
  6
Continuous
100
AcDbLine
 10
179.7651169999998
 20
283.0
 30
0.0
 11
167.809658
 21
283.0
 31
0.0
  0
LINE
  5
F397
330
F29A
100
AcDbEntity
  8
1
  6
Continuous
100
AcDbLine
 10
219.0
 20
281.0
 30
0.0
 11
170.0
 21
281.0
 31
0.0
  0
LINE
  5
F398
330
F29A
100
AcDbEntity
  8
1
  6
Continuous
100
AcDbLine
 10
179.7763339999999
 20
282.5
 30
0.0
 11
179.7763339999999
 21
283.0000309999999
 31
0.0
  0
LINE
  5
F399
330
F29A
100
AcDbEntity
  8
1
  6
Continuous
100
AcDbLine
 10
186.5
 20
282.5
 30
0.0
 11
186.5
 21
282.0
 31
0.0
  0
ARC
  5
F39A
330
F29A
100
AcDbEntity
  8
1
  6
Continuous
100
AcDbCircle
 10
187.5
 20
281.0
 30
0.0
 40
1.0
100
AcDbArc
 50
90.0
 51
180.0
  0
ARC
  5
F39B
330
F29A
100
AcDbEntity
  8
1
  6
Continuous
100
AcDbCircle
 10
170.0
 20
280.5
 30
0.0
 40
0.5
100
AcDbArc
 50
90.0
 51
180.0
  0
LINE
  5
F39C
330
F29A
100
AcDbEntity
  8
1
  6
Continuous
100
AcDbLine
 10
179.7651169999998
 20
300.0
 30
0.0
 11
167.809658
 21
300.0
 31
0.0
  0
LINE
  5
F39D
330
F29A
100
AcDbEntity
  8
1
  6
Continuous
100
AcDbLine
 10
219.0
 20
302.0
 30
0.0
 11
170.0
 21
302.0
 31
0.0
  0
ARC
  5
F39E
330
F29A
100
AcDbEntity
  8
1
  6
Continuous
100
AcDbCircle
 10
187.5
 20
302.0
 30
0.0
 40
1.0
100
AcDbArc
 50
180.0
 51
270.0
  0
LINE
  5
F39F
330
F29A
100
AcDbEntity
  8
1
  6
Continuous
100
AcDbLine
 10
186.5
 20
301.0
 30
0.0
 11
186.5
 21
300.4999999999999
 31
0.0
  0
LINE
  5
F3A0
330
F29A
100
AcDbEntity
  8
1
  6
Continuous
100
AcDbLine
 10
179.7763339999999
 20
299.999969
 30
0.0
 11
179.7763339999999
 21
300.4999999999999
 31
0.0
  0
ARC
  5
F3A1
330
F29A
100
AcDbEntity
  8
1
  6
Continuous
100
AcDbCircle
 10
170.0
 20
302.4999999999999
 30
0.0
 40
0.5
100
AcDbArc
 50
180.0
 51
270.0
  0
LINE
  5
F3A2
330
F29A
100
AcDbEntity
  8
1
  6
Continuous
100
AcDbLine
 10
169.5
 20
302.4999999999999
 30
0.0
 11
169.5
 21
307.749585
 31
0.0
  0
ARC
  5
F3A3
330
F29A
100
AcDbEntity
  8
1
  6
Continuous
100
AcDbCircle
 10
194.5
 20
257.9975
 30
0.0
 40
58.0025
100
AcDbArc
 50
67.11573900000001
 51
112.884261
  0
ARC
  5
F3A4
330
F29A
100
AcDbEntity
  8
1
  6
Continuous
100
AcDbCircle
 10
173.5
 20
307.749585
 30
0.0
 40
4.0
100
AcDbArc
 50
112.884261
 51
180.0
  0
ARC
  5
F3A5
330
F29A
100
AcDbEntity
  8
1
  6
Continuous
100
AcDbCircle
 10
215.5
 20
307.749585
 30
0.0
 40
4.0
100
AcDbArc
 50
0.0
 51
67.11573900000001
  0
ARC
  5
F3A6
330
F29A
100
AcDbEntity
  8
1
  6
Continuous
100
AcDbCircle
 10
194.5
 20
325.0024999999999
 30
0.0
 40
58.0025
100
AcDbArc
 50
247.115739
 51
292.8842609999999
  0
LINE
  5
F3A7
330
F29A
100
AcDbEntity
  8
1
  6
Continuous
100
AcDbLine
 10
179.4
 20
269.0
 30
0.0
 11
209.6
 21
269.0
 31
0.0
  0
ARC
  5
F3A8
330
F29A
100
AcDbEntity
  8
1
  6
Continuous
100
AcDbCircle
 10
215.5
 20
275.2504149999999
 30
0.0
 40
4.0
100
AcDbArc
 50
292.8842609999999
 51
0.0
  0
ARC
  5
F3A9
330
F29A
100
AcDbEntity
  8
1
  6
Continuous
100
AcDbCircle
 10
173.5
 20
275.2504149999999
 30
0.0
 40
4.0
100
AcDbArc
 50
180.0
 51
247.115739
  0
ARC
  5
F3AA
330
F29A
100
AcDbEntity
  8
1
  6
Continuous
100
AcDbCircle
 10
162.8140169999998
 20
168.6128749999998
 30
0.0
 40
0.3
100
AcDbArc
 50
80.35862300000003
 51
172.6372709999999
  0
ARC
  5
F3AB
330
F29A
100
AcDbEntity
  8
1
  6
Continuous
100
AcDbCircle
 10
163.390196
 20
167.1072559999998
 30
0.0
 40
0.3
100
AcDbArc
 50
229.244997
 51
262.055411
  0
ARC
  5
F3AC
330
F29A
100
AcDbEntity
  8
1
  6
Continuous
100
AcDbCircle
 10
108.0025
 20
150.5
 30
0.0
 40
58.0025
100
AcDbArc
 50
157.1157389999999
 51
202.884261
  0
ARC
  5
F3AD
330
F29A
100
AcDbEntity
  8
1
  6
Continuous
100
AcDbCircle
 10
58.25041500000001
 20
171.5
 30
0.0
 40
4.0
100
AcDbArc
 50
90.0
 51
157.1157389999999
  0
ARC
  5
F3AE
330
F29A
100
AcDbEntity
  8
1
  6
Continuous
100
AcDbCircle
 10
58.25041500000001
 20
129.4999999999998
 30
0.0
 40
4.0
100
AcDbArc
 50
202.884261
 51
270.0
  0
ARC
  5
F3AF
330
F29A
100
AcDbEntity
  8
1
  6
Continuous
100
AcDbCircle
 10
90.74958499999999
 20
171.5
 30
0.0
 40
4.0
100
AcDbArc
 50
22.884261
 51
90.0
  0
ARC
  5
F3B0
330
F29A
100
AcDbEntity
  8
1
  6
Continuous
100
AcDbCircle
 10
40.9975
 20
150.5
 30
0.0
 40
58.0025
100
AcDbArc
 50
337.115739
 51
22.884261
  0
LINE
  5
F3B1
330
F29A
100
AcDbEntity
  8
1
  6
Continuous
100
AcDbLine
 10
97.0
 20
135.4
 30
0.0
 11
97.0
 21
165.5999999999998
 31
0.0
  0
ARC
  5
F3B2
330
F29A
100
AcDbEntity
  8
1
  6
Continuous
100
AcDbCircle
 10
90.74958499999999
 20
129.4999999999998
 30
0.0
 40
4.0
100
AcDbArc
 50
270.0
 51
337.115739
  0
LINE
  5
F3B3
330
F29A
100
AcDbEntity
  8
1
  6
Continuous
100
AcDbLine
 10
67.5
 20
172.5542839999999
 30
0.0
 11
81.5
 21
172.5542839999999
 31
0.0
  0
LINE
  5
F3B4
330
F29A
100
AcDbEntity
  8
1
  6
Continuous
100
AcDbLine
 10
67.74435699999999
 20
168.912875
 30
0.0
 11
81.255643
 21
168.912875
 31
0.0
  0
LINE
  5
F3B5
330
F29A
100
AcDbEntity
  8
1
  6
Continuous
100
AcDbLine
 10
81.255643
 20
166.810135
 30
0.0
 11
67.74435699999999
 21
166.810135
 31
0.0
  0
LINE
  5
F3B6
330
F29A
100
AcDbEntity
  8
1
  6
Continuous
100
AcDbLine
 10
67.24435699999999
 20
168.412875
 30
0.0
 11
67.24435699999999
 21
167.310135
 31
0.0
  0
LINE
  5
F3B7
330
F29A
100
AcDbEntity
  8
1
  6
Continuous
100
AcDbLine
 10
81.75564300000003
 20
168.412875
 30
0.0
 11
81.75564300000003
 21
167.310135
 31
0.0
  0
ARC
  5
F3B8
330
F29A
100
AcDbEntity
  8
1
  6
Continuous
100
AcDbCircle
 10
67.74435699999999
 20
168.412875
 30
0.0
 40
0.5
100
AcDbArc
 50
90.0
 51
180.0
  0
ARC
  5
F3B9
330
F29A
100
AcDbEntity
  8
1
  6
Continuous
100
AcDbCircle
 10
81.255643
 20
168.412875
 30
0.0
 40
0.5
100
AcDbArc
 50
0.0
 51
90.0
  0
ARC
  5
F3BA
330
F29A
100
AcDbEntity
  8
1
  6
Continuous
100
AcDbCircle
 10
81.255643
 20
167.310135
 30
0.0
 40
0.5
100
AcDbArc
 50
270.0
 51
0.0
  0
ARC
  5
F3BB
330
F29A
100
AcDbEntity
  8
1
  6
Continuous
100
AcDbCircle
 10
67.74435699999999
 20
167.310135
 30
0.0
 40
0.5
100
AcDbArc
 50
180.0
 51
270.0
  0
ARC
  5
F3BC
330
F29A
100
AcDbEntity
  8
1
  6
Continuous
100
AcDbCircle
 10
74.5
 20
251.5886669999999
 30
0.0
 40
85.04726999999999
100
AcDbArc
 50
265.3901389999999
 51
274.6098609999999
  0
LINE
  5
F3BD
330
F29A
100
AcDbEntity
  8
1
  6
Continuous
100
AcDbLine
 10
66.0
 20
171.054284
 30
0.0
 11
66.0
 21
158.4999999999998
 31
0.0
  0
LINE
  5
F3BE
330
F29A
100
AcDbEntity
  8
1
  6
Continuous
100
AcDbLine
 10
83.0
 20
171.054284
 30
0.0
 11
83.0
 21
158.4999999999998
 31
0.0
  0
ARC
  5
F3BF
330
F29A
100
AcDbEntity
  8
1
  6
Continuous
100
AcDbCircle
 10
67.5
 20
171.054284
 30
0.0
 40
1.5
100
AcDbArc
 50
90.0
 51
180.0
  0
ARC
  5
F3C0
330
F29A
100
AcDbEntity
  8
1
  6
Continuous
100
AcDbCircle
 10
81.5
 20
171.054284
 30
0.0
 40
1.5
100
AcDbArc
 50
0.0
 51
90.0
  0
ARC
  5
F3C1
330
F29A
100
AcDbEntity
  8
1
  6
Continuous
100
AcDbCircle
 10
68.984752
 20
171.704448
 30
0.0
 40
3.054743
100
AcDbArc
 50
192.2886889999998
 51
246.0427249999999
  0
ARC
  5
F3C2
330
F29A
100
AcDbEntity
  8
1
  6
Continuous
100
AcDbCircle
 10
68.90510500000001
 20
169.6080919999999
 30
0.0
 40
3.054743
100
AcDbArc
 50
198.0077959999999
 51
240.35861
  0
ARC
  5
F3C3
330
F29A
100
AcDbEntity
  8
1
  6
Continuous
100
AcDbCircle
 10
80.015248
 20
171.704448
 30
0.0
 40
3.054743
100
AcDbArc
 50
293.9572749999999
 51
347.7113109999999
  0
ARC
  5
F3C4
330
F29A
100
AcDbEntity
  8
1
  6
Continuous
100
AcDbCircle
 10
80.09489499999999
 20
169.6080919999999
 30
0.0
 40
3.054743
100
AcDbArc
 50
299.64139
 51
341.992204
  0
LINE
  5
F3C5
330
F29A
100
AcDbEntity
  8
1
  6
Continuous
100
AcDbLine
 10
65.0
 20
156.0
 30
0.0
 11
68.84999999999999
 21
156.0
 31
0.0
  0
LINE
  5
F3C6
330
F29A
100
AcDbEntity
  8
1
  6
Continuous
100
AcDbLine
 10
80.15
 20
156.0
 30
0.0
 11
84.0
 21
156.0
 31
0.0
  0
LINE
  5
F3C7
330
F29A
100
AcDbEntity
  8
1
  6
Continuous
100
AcDbLine
 10
84.25
 20
163.25
 30
0.0
 11
84.25
 21
162.5
 31
0.0
  0
LINE
  5
F3C8
330
F29A
100
AcDbEntity
  8
1
  6
Continuous
100
AcDbLine
 10
84.74999999999999
 20
159.0
 30
0.0
 11
85.0
 21
159.0
 31
0.0
  0
LINE
  5
F3C9
330
F29A
100
AcDbEntity
  8
1
  6
Continuous
100
AcDbLine
 10
85.0
 20
162.0
 30
0.0
 11
84.74999999999999
 21
162.0
 31
0.0
  0
LINE
  5
F3CA
330
F29A
100
AcDbEntity
  8
1
  6
Continuous
100
AcDbLine
 10
83.49999999999999
 20
164.0
 30
0.0
 11
83.49999999999999
 21
164.0
 31
0.0
  0
LINE
  5
F3CB
330
F29A
100
AcDbEntity
  8
1
  6
Continuous
100
AcDbLine
 10
84.25
 20
158.4999999999998
 30
0.0
 11
84.25
 21
154.75
 31
0.0
  0
LINE
  5
F3CC
330
F29A
100
AcDbEntity
  8
1
  6
Continuous
100
AcDbLine
 10
68.84999999999999
 20
158.0
 30
0.0
 11
80.15
 21
158.0
 31
0.0
  0
ARC
  5
F3CD
330
F29A
100
AcDbEntity
  8
1
  6
Continuous
100
AcDbCircle
 10
84.74999999999999
 20
162.5
 30
0.0
 40
0.5
100
AcDbArc
 50
180.0
 51
270.0
  0
ARC
  5
F3CE
330
F29A
100
AcDbEntity
  8
1
  6
Continuous
100
AcDbCircle
 10
84.74999999999999
 20
158.4999999999998
 30
0.0
 40
0.5
100
AcDbArc
 50
90.0
 51
180.0
  0
ARC
  5
F3CF
330
F29A
100
AcDbEntity
  8
1
  6
Continuous
100
AcDbCircle
 10
83.49999999999999
 20
163.25
 30
0.0
 40
0.75
100
AcDbArc
 50
0.0
 51
90.0
  0
ARC
  5
F3D0
330
F29A
100
AcDbEntity
  8
1
  6
Continuous
100
AcDbCircle
 10
83.49999999999999
 20
154.75
 30
0.0
 40
0.75
100
AcDbArc
 50
311.810315
 51
0.0
  0
ARC
  5
F3D1
330
F29A
100
AcDbEntity
  8
1
  6
Continuous
100
AcDbCircle
 10
65.5
 20
163.25
 30
0.0
 40
0.75
100
AcDbArc
 50
90.0
 51
180.0
  0
LINE
  5
F3D2
330
F29A
100
AcDbEntity
  8
1
  6
Continuous
100
AcDbLine
 10
64.75
 20
163.25
 30
0.0
 11
64.75
 21
162.5
 31
0.0
  0
ARC
  5
F3D3
330
F29A
100
AcDbEntity
  8
1
  6
Continuous
100
AcDbCircle
 10
64.25
 20
162.5
 30
0.0
 40
0.5
100
AcDbArc
 50
270.0
 51
0.0
  0
LINE
  5
F3D4
330
F29A
100
AcDbEntity
  8
1
  6
Continuous
100
AcDbLine
 10
64.0
 20
162.0
 30
0.0
 11
64.25
 21
162.0
 31
0.0
  0
ARC
  5
F3D5
330
F29A
100
AcDbEntity
  8
1
  6
Continuous
100
AcDbCircle
 10
64.25
 20
158.4999999999998
 30
0.0
 40
0.5
100
AcDbArc
 50
0.0
 51
90.0
  0
LINE
  5
F3D6
330
F29A
100
AcDbEntity
  8
1
  6
Continuous
100
AcDbLine
 10
64.25
 20
159.0
 30
0.0
 11
64.0
 21
159.0
 31
0.0
  0
LINE
  5
F3D7
330
F29A
100
AcDbEntity
  8
1
  6
Continuous
100
AcDbLine
 10
64.75
 20
158.4999999999998
 30
0.0
 11
64.75
 21
154.75
 31
0.0
  0
ARC
  5
F3D8
330
F29A
100
AcDbEntity
  8
1
  6
Continuous
100
AcDbCircle
 10
65.5
 20
154.75
 30
0.0
 40
0.75
100
AcDbArc
 50
180.0
 51
228.1896849999998
  0
LINE
  5
F3D9
330
F29A
100
AcDbEntity
  8
1
  6
Continuous
100
AcDbLine
 10
80.15
 20
158.4999999999998
 30
0.0
 11
83.0
 21
158.4999999999998
 31
0.0
  0
LINE
  5
F3DA
330
F29A
100
AcDbEntity
  8
1
  6
Continuous
100
AcDbLine
 10
66.0
 20
158.4999999999998
 30
0.0
 11
68.84999999999999
 21
158.4999999999998
 31
0.0
  0
LINE
  5
F3DB
330
F29A
100
AcDbEntity
  8
1
  6
Continuous
100
AcDbLine
 10
162.5
 20
297.2832799999998
 30
0.0
 11
162.5
 21
285.71672
 31
0.0
  0
ARC
  5
F3DC
330
F29A
100
AcDbEntity
  8
1
  6
Continuous
100
AcDbCircle
 10
164.5
 20
297.2832799999998
 30
0.0
 40
2.0
100
AcDbArc
 50
114.437936
 51
180.0
  0
LINE
  5
F3DD
330
F29A
100
AcDbEntity
  8
1
  6
Continuous
100
AcDbLine
 10
181.7651169999998
 20
298.0
 30
0.0
 11
181.7651169999998
 21
285.0
 31
0.0
  0
LINE
  5
F3DE
330
F29A
100
AcDbEntity
  8
1
  6
Continuous
100
AcDbLine
 10
181.432146
 20
298.0
 30
0.0
 11
181.432146
 21
285.0
 31
0.0
  0
ARC
  5
F3DF
330
F29A
100
AcDbEntity
  8
1
  6
Continuous
100
AcDbCircle
 10
179.7651169999998
 20
298.0
 30
0.0
 40
2.0
100
AcDbArc
 50
0.0
 51
90.0
  0
ARC
  5
F3E0
330
F29A
100
AcDbEntity
  8
1
  6
Continuous
100
AcDbCircle
 10
179.4321459999999
 20
298.0
 30
0.0
 40
2.0
100
AcDbArc
 50
0.0
 51
90.0
  0
ARC
  5
F3E1
330
F29A
100
AcDbEntity
  8
1
  6
Continuous
100
AcDbCircle
 10
179.4321459999999
 20
285.0
 30
0.0
 40
2.0
100
AcDbArc
 50
270.0
 51
0.0
  0
ARC
  5
F3E2
330
F29A
100
AcDbEntity
  8
1
  6
Continuous
100
AcDbCircle
 10
179.7651169999998
 20
285.0
 30
0.0
 40
2.0
100
AcDbArc
 50
270.0
 51
0.0
  0
ARC
  5
F3E3
330
F29A
100
AcDbEntity
  8
1
  6
Continuous
100
AcDbCircle
 10
310.4999999999999
 20
163.25
 30
0.0
 40
0.75
100
AcDbArc
 50
90.0
 51
180.0
  0
ARC
  5
F3E4
330
F29A
100
AcDbEntity
  8
1
  6
Continuous
100
AcDbCircle
 10
309.25
 20
162.5
 30
0.0
 40
0.5
100
AcDbArc
 50
270.0
 51
0.0
  0
LINE
  5
F3E5
330
F29A
100
AcDbEntity
  8
1
  6
Continuous
100
AcDbLine
 10
310.4999999999999
 20
164.0
 30
0.0
 11
310.4999999999999
 21
164.0
 31
0.0
  0
LINE
  5
F3E6
330
F29A
100
AcDbEntity
  8
1
  6
Continuous
100
AcDbLine
 10
309.0
 20
162.0
 30
0.0
 11
309.25
 21
162.0
 31
0.0
  0
LINE
  5
F3E7
330
F29A
100
AcDbEntity
  8
1
  6
Continuous
100
AcDbLine
 10
309.75
 20
163.25
 30
0.0
 11
309.75
 21
162.5
 31
0.0
  0
ARC
  5
F3E8
330
F29A
100
AcDbEntity
  8
1
  6
Continuous
100
AcDbCircle
 10
309.25
 20
158.4999999999998
 30
0.0
 40
0.5
100
AcDbArc
 50
0.0
 51
90.0
  0
LINE
  5
F3E9
330
F29A
100
AcDbEntity
  8
1
  6
Continuous
100
AcDbLine
 10
309.75
 20
158.4999999999998
 30
0.0
 11
309.75
 21
158.1614379999998
 31
0.0
  0
LINE
  5
F3EA
330
F29A
100
AcDbEntity
  8
1
  6
Continuous
100
AcDbLine
 10
330.0
 20
162.0
 30
0.0
 11
329.7499999999998
 21
162.0
 31
0.0
  0
ARC
  5
F3EB
330
F29A
100
AcDbEntity
  8
1
  6
Continuous
100
AcDbCircle
 10
329.7499999999998
 20
162.5
 30
0.0
 40
0.5
100
AcDbArc
 50
180.0
 51
270.0
  0
LINE
  5
F3EC
330
F29A
100
AcDbEntity
  8
1
  6
Continuous
100
AcDbLine
 10
329.2499999999999
 20
163.25
 30
0.0
 11
329.2499999999999
 21
162.5
 31
0.0
  0
ARC
  5
F3ED
330
F29A
100
AcDbEntity
  8
1
  6
Continuous
100
AcDbCircle
 10
328.5
 20
163.25
 30
0.0
 40
0.75
100
AcDbArc
 50
0.0
 51
90.0
  0
LINE
  5
F3EE
330
F29A
100
AcDbEntity
  8
1
  6
Continuous
100
AcDbLine
 10
329.7499999999998
 20
159.0
 30
0.0
 11
330.0
 21
159.0
 31
0.0
  0
LINE
  5
F3EF
330
F29A
100
AcDbEntity
  8
1
  6
Continuous
100
AcDbLine
 10
329.2499999999999
 20
158.4999999999998
 30
0.0
 11
329.2499999999999
 21
158.1614379999998
 31
0.0
  0
LINE
  5
F3F0
330
F29A
100
AcDbEntity
  8
1
  6
Continuous
100
AcDbLine
 10
309.25
 20
159.0
 30
0.0
 11
309.0
 21
159.0
 31
0.0
  0
ARC
  5
F3F1
330
F29A
100
AcDbEntity
  8
1
  6
Continuous
100
AcDbCircle
 10
329.7499999999998
 20
158.4999999999998
 30
0.0
 40
0.5
100
AcDbArc
 50
90.0
 51
180.0
  0
LINE
  5
F3F2
330
F29A
100
AcDbEntity
  8
1
  6
Continuous
100
AcDbLine
 10
171.2021649999998
 20
59.0
 30
0.0
 11
167.809658
 21
59.0
 31
0.0
  0
LINE
  5
F3F3
330
F29A
100
AcDbEntity
  8
1
  6
Continuous
100
AcDbLine
 10
171.2021649999998
 20
42.0
 30
0.0
 11
167.809658
 21
42.0
 31
0.0
  0
ARC
  5
F3F4
330
F29A
100
AcDbEntity
  8
1
  6
Continuous
100
AcDbCircle
 10
167.809658
 20
290.0
 30
0.0
 40
10.0
100
AcDbArc
 50
90.0
 51
114.437936
  0
ARC
  5
F3F5
330
F29A
100
AcDbEntity
  8
1
  6
Continuous
100
AcDbCircle
 10
164.5
 20
285.71672
 30
0.0
 40
2.0
100
AcDbArc
 50
180.0
 51
245.562064
  0
ARC
  5
F3F6
330
F29A
100
AcDbEntity
  8
1
  6
Continuous
100
AcDbCircle
 10
167.809658
 20
293.0
 30
0.0
 40
10.0
100
AcDbArc
 50
245.562064
 51
270.0
  0
LINE
  5
F3F7
330
F29A
100
AcDbEntity
  8
1
  6
Continuous
100
AcDbLine
 10
162.5
 20
44.71672
 30
0.0
 11
162.5
 21
56.28327999999999
 31
0.0
  0
ARC
  5
F3F8
330
F29A
100
AcDbEntity
  8
1
  6
Continuous
100
AcDbCircle
 10
164.5
 20
44.71672
 30
0.0
 40
2.0
100
AcDbArc
 50
180.0
 51
245.562064
  0
ARC
  5
F3F9
330
F29A
100
AcDbEntity
  8
1
  6
Continuous
100
AcDbCircle
 10
167.809658
 20
52.0
 30
0.0
 40
10.0
100
AcDbArc
 50
245.562064
 51
270.0
  0
ARC
  5
F3FA
330
F29A
100
AcDbEntity
  8
1
  6
Continuous
100
AcDbCircle
 10
167.809658
 20
49.0
 30
0.0
 40
10.0
100
AcDbArc
 50
90.0
 51
114.437936
  0
ARC
  5
F3FB
330
F29A
100
AcDbEntity
  8
1
  6
Continuous
100
AcDbCircle
 10
164.5
 20
56.28327999999999
 30
0.0
 40
2.0
100
AcDbArc
 50
114.437936
 51
180.0
  0
LINE
  5
F3FC
330
F29A
100
AcDbEntity
  8
1
  6
Continuous
100
AcDbLine
 10
74.5
 20
136.05
 30
0.0
 11
74.5
 21
139.55
 31
0.0
  0
ARC
  5
F3FD
330
F29A
100
AcDbEntity
  8
1
  6
Continuous
100
AcDbCircle
 10
181.4865739999999
 20
298.269154
 30
0.0
 40
3.75
100
AcDbArc
 50
127.58965
 51
152.5122429999998
  0
ARC
  5
F3FE
330
F29A
100
AcDbEntity
  8
1
  6
Continuous
100
AcDbCircle
 10
181.4999999999998
 20
298.2499999999999
 30
0.0
 40
3.75
100
AcDbArc
 50
36.869898
 51
90.0
  0
ARC
  5
F3FF
330
F29A
100
AcDbEntity
  8
1
  6
Continuous
100
AcDbCircle
 10
181.7584469999999
 20
304.2983169999998
 30
0.0
 40
3.987448
100
AcDbArc
 50
215.196897
 51
230.069396
  0
ARC
  5
F400
330
F29A
100
AcDbEntity
  8
1
  6
Continuous
100
AcDbCircle
 10
181.7584469999999
 20
278.701683
 30
0.0
 40
3.987448
100
AcDbArc
 50
129.9306039999999
 51
144.8031029999999
  0
ARC
  5
F401
330
F29A
100
AcDbEntity
  8
1
  6
Continuous
100
AcDbCircle
 10
181.4865739999999
 20
284.7308459999998
 30
0.0
 40
3.75
100
AcDbArc
 50
207.4877569999999
 51
232.41035
  0
ARC
  5
F402
330
F29A
100
AcDbEntity
  8
1
  6
Continuous
100
AcDbCircle
 10
181.4999999999998
 20
284.75
 30
0.0
 40
3.75
100
AcDbArc
 50
270.0
 51
323.130102
  0
ARC
  5
F403
330
F29A
100
AcDbEntity
  8
1
  6
Continuous
100
AcDbCircle
 10
181.7584469999999
 20
63.29831699999999
 30
0.0
 40
3.987448
100
AcDbArc
 50
215.196897
 51
230.069396
  0
ARC
  5
F404
330
F29A
100
AcDbEntity
  8
1
  6
Continuous
100
AcDbCircle
 10
181.4865739999999
 20
57.269154
 30
0.0
 40
3.75
100
AcDbArc
 50
127.58965
 51
143.495039
  0
ARC
  5
F405
330
F29A
100
AcDbEntity
  8
1
  6
Continuous
100
AcDbCircle
 10
181.4999999999998
 20
57.25
 30
0.0
 40
3.75
100
AcDbArc
 50
36.869898
 51
90.0
  0
ARC
  5
F406
330
F29A
100
AcDbEntity
  8
1
  6
Continuous
100
AcDbCircle
 10
181.7584469999999
 20
37.701683
 30
0.0
 40
3.987448
100
AcDbArc
 50
129.9306039999999
 51
144.8031029999999
  0
ARC
  5
F407
330
F29A
100
AcDbEntity
  8
1
  6
Continuous
100
AcDbCircle
 10
181.4865739999999
 20
43.730846
 30
0.0
 40
3.75
100
AcDbArc
 50
216.504961
 51
232.41035
  0
ARC
  5
F408
330
F29A
100
AcDbEntity
  8
1
  6
Continuous
100
AcDbCircle
 10
181.4999999999998
 20
43.75
 30
0.0
 40
3.75
100
AcDbArc
 50
270.0
 51
323.130102
  0
LINE
  5
F409
330
F29A
100
AcDbEntity
  8
1
  6
Continuous
100
AcDbLine
 10
79.2625
 20
183.0
 30
0.0
 11
79.2625
 21
200.4999999999999
 31
0.0
  0
LINE
  5
F40A
330
F29A
100
AcDbEntity
  8
2
  6
Continuous
100
AcDbLine
 10
78.24649999999998
 20
184.759764
 30
0.0
 11
78.24649999999998
 21
201.5159999999999
 31
0.0
  0
LINE
  5
F40B
330
F29A
100
AcDbEntity
  8
2
  6
Continuous
100
AcDbLine
 10
70.7535
 20
184.759764
 30
0.0
 11
70.7535
 21
201.5159999999999
 31
0.0
  0
LINE
  5
F40C
330
F29A
100
AcDbEntity
  8
1
  6
Continuous
100
AcDbLine
 10
69.73749999999999
 20
183.0
 30
0.0
 11
69.73749999999999
 21
200.4999999999999
 31
0.0
  0
LINE
  5
F40D
330
F29A
100
AcDbEntity
  8
1
  6
Continuous
100
AcDbLine
 10
77.7625
 20
202.0
 30
0.0
 11
71.2375
 21
202.0
 31
0.0
  0
LINE
  5
F40E
330
F29A
100
AcDbEntity
  8
1
  6
Continuous
100
AcDbLine
 10
79.2625
 20
200.4999999999999
 30
0.0
 11
69.73749999999999
 21
200.4999999999999
 31
0.0
  0
LINE
  5
F40F
330
F29A
100
AcDbEntity
  8
1
  6
Continuous
100
AcDbLine
 10
71.2375
 20
202.0
 30
0.0
 11
69.73749999999999
 21
200.4999999999999
 31
0.0
  0
LINE
  5
F410
330
F29A
100
AcDbEntity
  8
1
  6
Continuous
100
AcDbLine
 10
79.2625
 20
200.4999999999999
 30
0.0
 11
77.7625
 21
202.0
 31
0.0
  0
LINE
  5
F411
330
F29A
100
AcDbEntity
  8
2
  6
Continuous
100
AcDbLine
 10
207.7535
 20
184.759764
 30
0.0
 11
207.7535
 21
201.5159999999999
 31
0.0
  0
LINE
  5
F412
330
F29A
100
AcDbEntity
  8
2
  6
Continuous
100
AcDbLine
 10
215.2464999999998
 20
184.759764
 30
0.0
 11
215.2464999999998
 21
201.5159999999999
 31
0.0
  0
LINE
  5
F413
330
F29A
100
AcDbEntity
  8
1
  6
Continuous
100
AcDbLine
 10
206.7375
 20
183.0
 30
0.0
 11
206.7375
 21
200.4999999999999
 31
0.0
  0
LINE
  5
F414
330
F29A
100
AcDbEntity
  8
1
  6
Continuous
100
AcDbLine
 10
216.2624999999999
 20
183.0
 30
0.0
 11
216.2624999999999
 21
200.4999999999999
 31
0.0
  0
LINE
  5
F415
330
F29A
100
AcDbEntity
  8
1
  6
Continuous
100
AcDbLine
 10
216.2624999999999
 20
200.4999999999999
 30
0.0
 11
214.7625
 21
202.0
 31
0.0
  0
LINE
  5
F416
330
F29A
100
AcDbEntity
  8
1
  6
Continuous
100
AcDbLine
 10
208.2375
 20
202.0
 30
0.0
 11
206.7375
 21
200.4999999999999
 31
0.0
  0
LINE
  5
F417
330
F29A
100
AcDbEntity
  8
1
  6
Continuous
100
AcDbLine
 10
216.2624999999999
 20
200.4999999999999
 30
0.0
 11
206.7375
 21
200.4999999999999
 31
0.0
  0
LINE
  5
F418
330
F29A
100
AcDbEntity
  8
1
  6
Continuous
100
AcDbLine
 10
214.7625
 20
202.0
 30
0.0
 11
208.2375
 21
202.0
 31
0.0
  0
CIRCLE
  5
F419
330
F29A
100
AcDbEntity
  8
1
  6
Continuous
100
AcDbCircle
 10
211.5
 20
291.5
 30
0.0
 40
3.2625
  0
CIRCLE
  5
F41A
330
F29A
100
AcDbEntity
  8
2
  6
Continuous
100
AcDbCircle
 10
211.5
 20
291.5
 30
0.0
 40
3.7465
  0
CIRCLE
  5
F41B
330
F29A
100
AcDbEntity
  8
1
  6
Continuous
100
AcDbCircle
 10
211.5
 20
291.5
 30
0.0
 40
4.7625
  0
LINE
  5
F41C
330
F29A
100
AcDbEntity
  8
1
  6
Continuous
100
AcDbLine
 10
322.7624999999998
 20
202.0
 30
0.0
 11
316.2375
 21
202.0
 31
0.0
  0
LINE
  5
F41D
330
F29A
100
AcDbEntity
  8
1
  6
Continuous
100
AcDbLine
 10
324.2624999999998
 20
200.4999999999999
 30
0.0
 11
314.7375
 21
200.4999999999999
 31
0.0
  0
LINE
  5
F41E
330
F29A
100
AcDbEntity
  8
1
  6
Continuous
100
AcDbLine
 10
314.7375
 20
183.0
 30
0.0
 11
314.7375
 21
200.4999999999999
 31
0.0
  0
LINE
  5
F41F
330
F29A
100
AcDbEntity
  8
2
  6
Continuous
100
AcDbLine
 10
315.7534999999999
 20
184.759764
 30
0.0
 11
315.7534999999999
 21
201.5159999999999
 31
0.0
  0
LINE
  5
F420
330
F29A
100
AcDbEntity
  8
1
  6
Continuous
100
AcDbLine
 10
316.2375
 20
202.0
 30
0.0
 11
314.7375
 21
200.4999999999999
 31
0.0
  0
LINE
  5
F421
330
F29A
100
AcDbEntity
  8
1
  6
Continuous
100
AcDbLine
 10
324.2624999999998
 20
183.0
 30
0.0
 11
324.2624999999998
 21
200.4999999999999
 31
0.0
  0
LINE
  5
F422
330
F29A
100
AcDbEntity
  8
2
  6
Continuous
100
AcDbLine
 10
323.2465
 20
184.759764
 30
0.0
 11
323.2465
 21
201.5159999999999
 31
0.0
  0
LINE
  5
F423
330
F29A
100
AcDbEntity
  8
1
  6
Continuous
100
AcDbLine
 10
324.2624999999998
 20
200.4999999999999
 30
0.0
 11
322.7624999999998
 21
202.0
 31
0.0
  0
ARC
  5
F424
330
F29A
100
AcDbEntity
  8
5
  6
PHANTOM
100
AcDbCircle
 10
167.686499
 20
152.680798
 30
0.0
 40
2.0
100
AcDbArc
 50
258.718392
 51
314.397699
  0
ARC
  5
F425
330
F29A
100
AcDbEntity
  8
5
  6
PHANTOM
100
AcDbCircle
 10
170.6590379999999
 20
157.341579
 30
0.0
 40
1.0
100
AcDbArc
 50
84.20794499999997
 51
181.347826
  0
ARC
  5
F426
330
F29A
100
AcDbEntity
  8
5
  6
PHANTOM
100
AcDbCircle
 10
168.3194679999998
 20
166.75396
 30
0.0
 40
0.5
100
AcDbArc
 50
200.744024
 51
330.113966
  0
ARC
  5
F427
330
F29A
100
AcDbEntity
  8
5
  6
PHANTOM
100
AcDbCircle
 10
141.6670619999999
 20
156.659445
 30
0.0
 40
26.0
100
AcDbArc
 50
347.6038819999998
 51
28.067983
  0
ARC
  5
F428
330
F29A
100
AcDbEntity
  8
5
  6
PHANTOM
100
AcDbCircle
 10
164.8739169999998
 20
169.0340919999998
 30
0.0
 40
0.3
100
AcDbArc
 50
119.5385239999999
 51
208.067983
  0
ARC
  5
F429
330
F29A
100
AcDbEntity
  8
5
  6
PHANTOM
100
AcDbCircle
 10
166.414739
 20
169.103018
 30
0.0
 40
0.3
100
AcDbArc
 50
26.694064
 51
65.58410600000001
  0
ARC
  5
F42A
330
F29A
100
AcDbEntity
  8
5
  6
PHANTOM
100
AcDbCircle
 10
167.353925
 20
151.0136469999999
 30
0.0
 40
0.3
100
AcDbArc
 50
167.603882
 51
258.718392
  0
ARC
  5
F42B
330
F29A
100
AcDbEntity
  8
5
  6
PHANTOM
100
AcDbCircle
 10
168.8758769999998
 20
151.466147
 30
0.0
 40
0.3
100
AcDbArc
 50
314.397699
 51
349.194028
  0
ARC
  5
F42C
330
F29A
100
AcDbEntity
  8
5
  6
PHANTOM
100
AcDbCircle
 10
141.6670619999999
 20
156.659445
 30
0.0
 40
28.0
100
AcDbArc
 50
349.194028
 51
26.694064
  0
ARC
  5
F42D
330
F29A
100
AcDbEntity
  8
5
  6
PHANTOM
100
AcDbCircle
 10
165.7120319999999
 20
167.5550499999999
 30
0.0
 40
2.0
100
AcDbArc
 50
65.58410600000001
 51
119.5385239999999
  0
ARC
  5
F42E
330
F29A
100
AcDbEntity
  8
5
  6
PHANTOM
100
AcDbCircle
 10
174.388596
 20
163.266025
 30
0.0
 40
6.5
100
AcDbArc
 50
73.948274
 51
150.1139659999998
  0
LINE
  5
F42F
330
F29A
100
AcDbEntity
  8
5
  6
PHANTOM
100
AcDbLine
 10
176.1858789999998
 20
169.5126059999998
 30
0.0
 11
177.336099
 21
168.6769219999999
 31
0.0
  0
ARC
  5
F430
330
F29A
100
AcDbEntity
  8
1
  6
Continuous
100
AcDbCircle
 10
479.0783889999998
 20
165.667627
 30
0.0
 40
1.0
100
AcDbArc
 50
84.652174
 51
203.7808409999999
  0
ARC
  5
F431
330
F29A
100
AcDbEntity
  8
1
  6
Continuous
100
AcDbCircle
 10
481.7812389999998
 20
194.5413969999999
 30
0.0
 40
28.0
100
AcDbArc
 50
249.725053
 51
277.944589
  0
CIRCLE
  5
F432
330
F29A
100
AcDbEntity
  8
1
  6
Continuous
100
AcDbCircle
 10
454.4999999999998
 20
150.5
 30
0.0
 40
25.0
  0
LINE
  5
F433
330
F29A
100
AcDbEntity
  8
4
  6
CENTER
100
AcDbLine
 10
437.5
 20
125.781586
 30
0.0
 11
437.5
 21
207.0
 31
0.0
  0
LINE
  5
F434
330
F29A
100
AcDbEntity
  8
4
  6
CENTER
100
AcDbLine
 10
454.4999999999998
 20
120.5
 30
0.0
 11
454.4999999999998
 21
180.4999999999998
 31
0.0
  0
ARC
  5
F435
330
F29A
100
AcDbEntity
  8
5
  6
PHANTOM
100
AcDbCircle
 10
507.332938
 20
156.659445
 30
0.0
 40
28.0
100
AcDbArc
 50
153.305936
 51
190.805972
  0
ARC
  5
F436
330
F29A
100
AcDbEntity
  8
5
  6
PHANTOM
100
AcDbCircle
 10
507.332938
 20
156.659445
 30
0.0
 40
26.0
100
AcDbArc
 50
151.932017
 51
192.396118
  0
LINE
  5
F437
330
F29A
100
AcDbEntity
  8
1
  6
Continuous
100
AcDbLine
 10
428.9446299999998
 20
176.0587219999999
 30
0.0
 11
427.093416
 21
144.588083
 31
0.0
  0
LINE
  5
F438
330
F29A
100
AcDbEntity
  8
4
  6
CENTER
100
AcDbLine
 10
422.432533
 20
150.5
 30
0.0
 11
484.4999999999997
 21
150.5
 31
0.0
  0
CIRCLE
  5
F439
330
F29A
100
AcDbEntity
  8
1
  6
Continuous
100
AcDbCircle
 10
454.4999999999998
 20
150.5
 30
0.0
 40
15.09999999999999
  0
ARC
  5
F43A
330
F29A
100
AcDbEntity
  8
5
  6
PHANTOM
100
AcDbCircle
 10
478.3409619999998
 20
157.341579
 30
0.0
 40
1.0
100
AcDbArc
 50
358.652174
 51
95.792055
  0
ARC
  5
F43B
330
F29A
100
AcDbEntity
  8
1
  6
Continuous
100
AcDbCircle
 10
473.587822
 20
163.2481909999999
 30
0.0
 40
5.0
100
AcDbArc
 50
322.3184199999999
 51
23.780841
  0
ARC
  5
F43C
330
F29A
100
AcDbEntity
  8
5
  6
PHANTOM
100
AcDbCircle
 10
480.124123
 20
151.466147
 30
0.0
 40
0.3
100
AcDbArc
 50
190.805972
 51
225.602301
  0
ARC
  5
F43D
330
F29A
100
AcDbEntity
  8
5
  6
PHANTOM
100
AcDbCircle
 10
481.646075
 20
151.0136469999999
 30
0.0
 40
0.3
100
AcDbArc
 50
281.281608
 51
12.396118
  0
ARC
  5
F43E
330
F29A
100
AcDbEntity
  8
5
  6
PHANTOM
100
AcDbCircle
 10
481.3135009999998
 20
152.680798
 30
0.0
 40
2.0
100
AcDbArc
 50
225.602301
 51
281.281608
  0
ARC
  5
F43F
330
F29A
100
AcDbEntity
  8
1
  6
Continuous
100
AcDbCircle
 10
428.590828
 20
144.5
 30
0.0
 40
1.5
100
AcDbArc
 50
176.6335389999999
 51
270.0
  0
LINE
  5
F440
330
F29A
100
AcDbEntity
  8
1
  6
Continuous
100
AcDbLine
 10
428.590828
 20
143.0
 30
0.0
 11
430.6515199999998
 21
143.0
 31
0.0
  0
LINE
  5
F441
330
F29A
100
AcDbEntity
  8
1
  6
Continuous
100
AcDbLine
 10
446.4999999999998
 20
177.0
 30
0.0
 11
428.5
 21
177.0
 31
0.0
  0
LINE
  5
F442
330
F29A
100
AcDbEntity
  8
1
  6
Continuous
100
AcDbLine
 10
428.5
 20
183.0
 30
0.0
 11
446.4999999999998
 21
183.0
 31
0.0
  0
ARC
  5
F443
330
F29A
100
AcDbEntity
  8
1
  6
Continuous
100
AcDbCircle
 10
481.7812389999998
 20
194.5413969999999
 30
0.0
 40
26.0
100
AcDbArc
 50
237.932017
 51
279.641377
  0
ARC
  5
F444
330
F29A
100
AcDbEntity
  8
5
  6
PHANTOM
100
AcDbCircle
 10
474.611404
 20
163.266025
 30
0.0
 40
6.5
100
AcDbArc
 50
29.88603399999999
 51
106.051726
  0
ARC
  5
F445
330
F29A
100
AcDbEntity
  8
5
  6
PHANTOM
100
AcDbCircle
 10
484.126083
 20
169.0340919999998
 30
0.0
 40
0.3
100
AcDbArc
 50
331.9320169999999
 51
60.46147600000001
  0
ARC
  5
F446
330
F29A
100
AcDbEntity
  8
1
  6
Continuous
100
AcDbCircle
 10
485.609804
 20
167.1072559999998
 30
0.0
 40
0.3
100
AcDbArc
 50
277.944589
 51
310.755003
  0
ARC
  5
F447
330
F29A
100
AcDbEntity
  8
1
  6
Continuous
100
AcDbCircle
 10
486.185983
 20
168.6128749999998
 30
0.0
 40
0.3
100
AcDbArc
 50
7.362728999999997
 51
99.64137700000001
  0
ARC
  5
F448
330
F29A
100
AcDbEntity
  8
1
  6
Continuous
100
AcDbCircle
 10
484.4999999999997
 20
168.3950199999999
 30
0.0
 40
2.0
100
AcDbArc
 50
310.755003
 51
7.362728999999997
  0
ARC
  5
F449
330
F29A
100
AcDbEntity
  8
5
  6
PHANTOM
100
AcDbCircle
 10
482.585261
 20
169.103018
 30
0.0
 40
0.3
100
AcDbArc
 50
114.4158939999998
 51
153.305936
  0
ARC
  5
F44A
330
F29A
100
AcDbEntity
  8
5
  6
PHANTOM
100
AcDbCircle
 10
480.680532
 20
166.75396
 30
0.0
 40
0.5
100
AcDbArc
 50
209.8860339999998
 51
339.2559759999999
  0
ARC
  5
F44B
330
F29A
100
AcDbEntity
  8
5
  6
PHANTOM
100
AcDbCircle
 10
483.2879679999998
 20
167.5550499999999
 30
0.0
 40
2.0
100
AcDbArc
 50
60.46147600000001
 51
114.4158939999998
  0
LINE
  5
F44C
330
F29A
100
AcDbEntity
  8
5
  6
PHANTOM
100
AcDbLine
 10
472.814121
 20
169.5126059999998
 30
0.0
 11
471.6639009999998
 21
168.6769219999999
 31
0.0
  0
ARC
  5
F44D
330
F29A
100
AcDbEntity
  8
1
  6
Continuous
100
AcDbCircle
 10
469.234883
 20
171.3150389999999
 30
0.0
 40
2.0
100
AcDbArc
 50
146.461476
 51
161.4458609999998
  0
ARC
  5
F44E
330
F29A
100
AcDbEntity
  8
1
  6
Continuous
100
AcDbCircle
 10
467.8179079999998
 20
172.254284
 30
0.0
 40
0.3
100
AcDbArc
 50
57.932017
 51
146.461476
  0
ARC
  5
F44F
330
F29A
100
AcDbEntity
  8
1
  6
Continuous
100
AcDbCircle
 10
449.0
 20
176.4229629999999
 30
0.0
 40
3.0
100
AcDbArc
 50
188.0251
 51
224.829419
  0
ARC
  5
F450
330
F29A
100
AcDbEntity
  8
1
  6
Continuous
100
AcDbCircle
 10
445.0
 20
176.0
 30
0.0
 40
1.0
100
AcDbArc
 50
0.0
 51
90.0
  0
ARC
  5
F451
330
F29A
100
AcDbEntity
  8
1
  6
Continuous
100
AcDbCircle
 10
443.8542479999998
 20
180.0
 30
0.0
 40
4.0
100
AcDbArc
 50
311.409622
 51
48.590378
  0
LINE
  5
F452
330
F29A
100
AcDbEntity
  8
1
  6
Continuous
100
AcDbLine
 10
442.2625
 20
183.0
 30
0.0
 11
442.2625
 21
200.4999999999999
 31
0.0
  0
LINE
  5
F453
330
F29A
100
AcDbEntity
  8
2
  6
Continuous
100
AcDbLine
 10
441.2465
 20
184.759764
 30
0.0
 11
441.2465
 21
201.5159999999999
 31
0.0
  0
LINE
  5
F454
330
F29A
100
AcDbEntity
  8
1
  6
Continuous
100
AcDbLine
 10
432.7374999999998
 20
183.0
 30
0.0
 11
432.7374999999998
 21
200.4999999999999
 31
0.0
  0
LINE
  5
F455
330
F29A
100
AcDbEntity
  8
2
  6
Continuous
100
AcDbLine
 10
433.7534999999999
 20
184.759764
 30
0.0
 11
433.7534999999999
 21
201.5159999999999
 31
0.0
  0
ARC
  5
F456
330
F29A
100
AcDbEntity
  8
1
  6
Continuous
100
AcDbCircle
 10
429.9429049999998
 20
176.0
 30
0.0
 40
1.0
100
AcDbArc
 50
90.0
 51
176.6335389999999
  0
ARC
  5
F457
330
F29A
100
AcDbEntity
  8
1
  6
Continuous
100
AcDbCircle
 10
437.8122879999998
 20
180.0
 30
0.0
 40
4.0
100
AcDbArc
 50
311.409622
 51
48.590378
  0
ARC
  5
F458
330
F29A
100
AcDbEntity
  8
1
  6
Continuous
100
AcDbCircle
 10
437.1877109999998
 20
180.0
 30
0.0
 40
4.0
100
AcDbArc
 50
131.4096219999999
 51
228.5903779999999
  0
ARC
  5
F459
330
F29A
100
AcDbEntity
  8
1
  6
Continuous
100
AcDbCircle
 10
431.1457509999998
 20
180.0
 30
0.0
 40
4.0
100
AcDbArc
 50
131.4096219999999
 51
228.5903779999999
  0
LINE
  5
F45A
330
F29A
100
AcDbEntity
  8
1
  6
Continuous
100
AcDbLine
 10
434.2375
 20
202.0
 30
0.0
 11
440.7625
 21
202.0
 31
0.0
  0
LINE
  5
F45B
330
F29A
100
AcDbEntity
  8
1
  6
Continuous
100
AcDbLine
 10
432.7374999999998
 20
200.4999999999999
 30
0.0
 11
442.2625
 21
200.4999999999999
 31
0.0
  0
LINE
  5
F45C
330
F29A
100
AcDbEntity
  8
1
  6
Continuous
100
AcDbLine
 10
440.7625
 20
202.0
 30
0.0
 11
442.2625
 21
200.4999999999999
 31
0.0
  0
LINE
  5
F45D
330
F29A
100
AcDbEntity
  8
1
  6
Continuous
100
AcDbLine
 10
432.7374999999998
 20
200.4999999999999
 30
0.0
 11
434.2375
 21
202.0
 31
0.0
  0
LINE
  5
F45E
330
F29A
100
AcDbEntity
  8
2
  6
Continuous
100
AcDbLine
 10
70.7535
 20
184.759764
 30
0.0
 11
69.73749999999999
 21
183.0
 31
0.0
  0
LINE
  5
F45F
330
F29A
100
AcDbEntity
  8
1
  6
Continuous
100
AcDbLine
 10
79.2625
 20
184.759764
 30
0.0
 11
69.73749999999999
 21
184.759764
 31
0.0
  0
LINE
  5
F460
330
F29A
100
AcDbEntity
  8
2
  6
Continuous
100
AcDbLine
 10
78.24649999999998
 20
184.759764
 30
0.0
 11
79.2625
 21
183.0
 31
0.0
  0
LINE
  5
F461
330
F29A
100
AcDbEntity
  8
2
  6
Continuous
100
AcDbLine
 10
207.7535
 20
184.759764
 30
0.0
 11
206.7375
 21
183.0
 31
0.0
  0
LINE
  5
F462
330
F29A
100
AcDbEntity
  8
1
  6
Continuous
100
AcDbLine
 10
216.2624999999999
 20
184.759764
 30
0.0
 11
206.7375
 21
184.759764
 31
0.0
  0
LINE
  5
F463
330
F29A
100
AcDbEntity
  8
2
  6
Continuous
100
AcDbLine
 10
215.2464999999998
 20
184.759764
 30
0.0
 11
216.2624999999999
 21
183.0
 31
0.0
  0
LINE
  5
F464
330
F29A
100
AcDbEntity
  8
2
  6
Continuous
100
AcDbLine
 10
315.7534999999999
 20
184.759764
 30
0.0
 11
314.7375
 21
183.0
 31
0.0
  0
LINE
  5
F465
330
F29A
100
AcDbEntity
  8
1
  6
Continuous
100
AcDbLine
 10
324.2624999999998
 20
184.759764
 30
0.0
 11
314.7375
 21
184.759764
 31
0.0
  0
LINE
  5
F466
330
F29A
100
AcDbEntity
  8
2
  6
Continuous
100
AcDbLine
 10
323.2465
 20
184.759764
 30
0.0
 11
324.2624999999998
 21
183.0
 31
0.0
  0
LINE
  5
F467
330
F29A
100
AcDbEntity
  8
2
  6
Continuous
100
AcDbLine
 10
433.7534999999999
 20
184.759764
 30
0.0
 11
432.7374999999998
 21
183.0
 31
0.0
  0
LINE
  5
F468
330
F29A
100
AcDbEntity
  8
1
  6
Continuous
100
AcDbLine
 10
442.2625
 20
184.759764
 30
0.0
 11
432.7374999999998
 21
184.759764
 31
0.0
  0
LINE
  5
F469
330
F29A
100
AcDbEntity
  8
2
  6
Continuous
100
AcDbLine
 10
441.2465
 20
184.759764
 30
0.0
 11
442.2625
 21
183.0
 31
0.0
  0
ENDSEC
  0
SECTION
  2
OBJECTS
  0
DICTIONARY
  5
F288
330
0
100
AcDbDictionary
281
     1
  3
ACAD_CIP_PREVIOUS_PRODUCT_INFO
350
F4CB
  3
ACAD_COLOR
350
F4AD
  3
ACAD_DETAILVIEWSTYLE
350
F4C6
  3
ACAD_GROUP
350
F289
  3
ACAD_LAYOUT
350
F295
  3
ACAD_MATERIAL
350
F47B
  3
ACAD_MLEADERSTYLE
350
F4C2
  3
ACAD_MLINESTYLE
350
F292
  3
ACAD_PLOTSETTINGS
350
F294
  3
ACAD_PLOTSTYLENAME
350
F479
  3
ACAD_SCALELIST
350
F4B0
  3
ACAD_SECTIONVIEWSTYLE
350
F4C4
  3
ACAD_TABLESTYLE
350
F4AE
  3
ACAD_VISUALSTYLE
350
F494
  3
ACDB_RECOMPOSE_DATA
350
F530
  3
AcDbVariableDictionary
350
F4DE
  3
DWGPROPS
350
F531
  0
DICTIONARY
  5
F4CE
330
F28C
100
AcDbDictionary
280
     1
281
     1
  3
ADSK_XREC_LAYER_RECONCILED
360
F4CF
  0
DICTIONARY
  5
F4D0
330
F2A2
100
AcDbDictionary
280
     1
281
     1
  3
ADSK_XREC_LAYER_RECONCILED
360
F4D1
  0
DICTIONARY
  5
F4D2
330
F2A3
100
AcDbDictionary
280
     1
281
     1
  3
ADSK_XREC_LAYER_RECONCILED
360
F4D3
  0
DICTIONARY
  5
F4D4
330
F2A4
100
AcDbDictionary
280
     1
281
     1
  3
ADSK_XREC_LAYER_RECONCILED
360
F4D5
  0
DICTIONARY
  5
F4D6
330
F2A5
100
AcDbDictionary
280
     1
281
     1
  3
ADSK_XREC_LAYER_RECONCILED
360
F4D7
  0
DICTIONARY
  5
F4D8
330
F2A6
100
AcDbDictionary
280
     1
281
     1
  3
ADSK_XREC_LAYER_RECONCILED
360
F4D9
  0
DICTIONARY
  5
F4DA
330
F2A7
100
AcDbDictionary
280
     1
281
     1
  3
ADSK_XREC_LAYER_RECONCILED
360
F4DB
  0
DICTIONARY
  5
F4DC
330
F2A8
100
AcDbDictionary
280
     1
281
     1
  3
ADSK_XREC_LAYER_RECONCILED
360
F4DD
  0
DICTIONARY
  5
F474
330
F29A
100
AcDbDictionary
281
     1
  3
ACAD_LAYOUTSELFREF
350
F475
  0
DICTIONARY
  5
F472
330
F296
100
AcDbDictionary
281
     1
  3
ACAD_LAYOUTSELFREF
350
F473
  0
XRECORD
  5
F4CB
102
{ACAD_REACTORS
330
F288
102
}
330
F288
100
AcDbXrecord
280
     1
300
ACDLT
300
2014
300
ACDLT_F_S
  0
DICTIONARY
  5
F4AD
102
{ACAD_REACTORS
330
F288
102
}
330
F288
100
AcDbDictionary
281
     1
  0
DICTIONARY
  5
F4C6
102
{ACAD_REACTORS
330
F288
102
}
330
F288
100
AcDbDictionary
281
     1
  3
Imperial24
350
F4C7
  0
DICTIONARY
  5
F289
102
{ACAD_REACTORS
330
F288
102
}
330
F288
100
AcDbDictionary
281
     1
  0
DICTIONARY
  5
F295
102
{ACAD_REACTORS
330
F288
102
}
330
F288
100
AcDbDictionary
281
     1
  3
Model
350
F4C8
  3
レイアウト1
350
F4C9
  0
DICTIONARY
  5
F47B
102
{ACAD_REACTORS
330
F288
102
}
330
F288
100
AcDbDictionary
281
     1
  3
ByBlock
350
F484
  3
ByLayer
350
F47C
  3
Global
350
F48C
  0
DICTIONARY
  5
F4C2
102
{ACAD_REACTORS
330
F288
102
}
330
F288
100
AcDbDictionary
281
     1
  3
Standard
350
F4C3
  0
DICTIONARY
  5
F292
102
{ACAD_REACTORS
330
F288
102
}
330
F288
100
AcDbDictionary
281
     1
  3
STANDARD
350
F293
  0
DICTIONARY
  5
F294
102
{ACAD_REACTORS
330
F288
102
}
330
F288
100
AcDbDictionary
281
     1
  0
ACDBDICTIONARYWDFLT
  5
F479
102
{ACAD_REACTORS
330
F288
102
}
330
F288
100
AcDbDictionary
281
     1
  3
Normal
350
F47A
100
AcDbDictionaryWithDefault
340
F47A
  0
DICTIONARY
  5
F4B0
102
{ACAD_REACTORS
330
F288
102
}
330
F288
100
AcDbDictionary
281
     1
  3
A0
350
F4B1
  3
A1
350
F4B2
  3
A2
350
F4B3
  3
A3
350
F4B4
  3
A4
350
F4B5
  3
A5
350
F4B6
  3
A6
350
F4B7
  3
A7
350
F4B8
  3
A8
350
F4B9
  3
A9
350
F4BA
  3
B0
350
F4BB
  3
B1
350
F4BC
  3
B2
350
F4BD
  3
B3
350
F4BE
  3
B4
350
F4BF
  3
B5
350
F4C0
  3
B6
350
F4C1
  0
DICTIONARY
  5
F4C4
102
{ACAD_REACTORS
330
F288
102
}
330
F288
100
AcDbDictionary
281
     1
  3
Imperial24
350
F4C5
  0
DICTIONARY
  5
F4AE
102
{ACAD_REACTORS
330
F288
102
}
330
F288
100
AcDbDictionary
281
     1
  3
Standard
350
F4AF
  0
DICTIONARY
  5
F494
102
{ACAD_REACTORS
330
F288
102
}
330
F288
100
AcDbDictionary
281
     1
  3
2dWireframe
350
F49A
  3
Basic
350
F499
  3
Brighten
350
F4A0
  3
ColorChange
350
F4A4
  3
Conceptual
350
F49D
  3
Dim
350
F49F
  3
EdgeColorOff
350
F4AC
  3
Facepattern
350
F4A3
  3
Flat
350
F495
  3
FlatWithEdges
350
F496
  3
Gouraud
350
F497
  3
GouraudWithEdges
350
F498
  3
Hidden
350
F49C
  3
JitterOff
350
F4AA
  3
Linepattern
350
F4A2
  3
OverhangOff
350
F4AB
  3
Realistic
350
F49E
  3
Shaded
350
F4A9
  3
Shaded with edges
350
F4A8
  3
Shades of Gray
350
F4A5
  3
Sketchy
350
F4A6
  3
Thicken
350
F4A1
  3
Wireframe
350
F49B
  3
X-Ray
350
F4A7
  0
XRECORD
  5
F530
102
{ACAD_REACTORS
330
F288
102
}
330
F288
100
AcDbXrecord
280
     1
 90
        1
330
F4AF
  0
DICTIONARY
  5
F4DE
102
{ACAD_REACTORS
330
F288
102
}
330
F288
100
AcDbDictionary
281
     1
  3
CANNOSCALE
350
F4E3
  3
CMLEADERSTYLE
350
F4E0
  3
CTABLESTYLE
350
F4DF
  3
CVIEWDETAILSTYLE
350
F4E1
  3
CVIEWSECTIONSTYLE
350
F4E2
  3
DIMASSOC
350
F4E6
  3
INDEXCTL
350
F4E5
  3
SORTENTS
350
F4E4
  3
XCLIPFRAME
350
F52E
  0
XRECORD
  5
F531
102
{ACAD_REACTORS
330
F288
102
}
330
F288
100
AcDbXrecord
280
     1
  1
DWGPROPS COOKIE
  2

  3

  4

  6

  7

  8
Yoshitsune
  9

300
=
301
=
302
=
303
=
304
=
305
=
306
=
307
=
308
=
309
=
 40
0.0014221990740741
 41
2451301.39949838
 42
2457192.692577905
  1

 90
        0
  0
XRECORD
  5
F4CF
102
{ACAD_REACTORS
330
F4CE
102
}
330
F4CE
100
AcDbXrecord
280
     1
290
     1
  0
XRECORD
  5
F4D1
102
{ACAD_REACTORS
330
F4D0
102
}
330
F4D0
100
AcDbXrecord
280
     1
290
     1
  0
XRECORD
  5
F4D3
102
{ACAD_REACTORS
330
F4D2
102
}
330
F4D2
100
AcDbXrecord
280
     1
290
     1
  0
XRECORD
  5
F4D5
102
{ACAD_REACTORS
330
F4D4
102
}
330
F4D4
100
AcDbXrecord
280
     1
290
     1
  0
XRECORD
  5
F4D7
102
{ACAD_REACTORS
330
F4D6
102
}
330
F4D6
100
AcDbXrecord
280
     1
290
     1
  0
XRECORD
  5
F4D9
102
{ACAD_REACTORS
330
F4D8
102
}
330
F4D8
100
AcDbXrecord
280
     1
290
     1
  0
XRECORD
  5
F4DB
102
{ACAD_REACTORS
330
F4DA
102
}
330
F4DA
100
AcDbXrecord
280
     1
290
     1
  0
XRECORD
  5
F4DD
102
{ACAD_REACTORS
330
F4DC
102
}
330
F4DC
100
AcDbXrecord
280
     1
290
     1
  0
XRECORD
  5
F475
102
{ACAD_REACTORS
330
F474
102
}
330
F474
100
AcDbXrecord
280
     1
340
F29A
  0
XRECORD
  5
F473
102
{ACAD_REACTORS
330
F472
102
}
330
F472
100
AcDbXrecord
280
     1
340
F296
  0
ACDBDETAILVIEWSTYLE
  5
F4C7
102
{ACAD_XDICTIONARY
360
F565
102
}
102
{ACAD_REACTORS
330
F4C6
102
}
330
F4C6
100
AcDbModelDocViewStyle
 70
     0
  3
Imperial24
290
     0
100
AcDbDetailViewStyle
 70
     0
 71
     0
 90
        3
 71
     1
340
F28D
 40
0.24
340
0
 40
0.24
300

 40
0.36
280
     3
 71
     2
340
F291
 90
       25
 71
     3
340
F28D
 40
0.24
 90
        1
 40
0.75
 90
        1
300
%<\AcVar ViewType \f "%tc1">% %<\AcVar ViewDetailId>%\PSCALE %<\AcVar ViewScale \f "%sn">%
 71
     4
340
F291
 90
       25
340
F291
 90
       25
280
     0
  0
LAYOUT
  5
F4C8
102
{ACAD_XDICTIONARY
360
F567
102
}
102
{ACAD_REACTORS
330
F295
102
}
330
F295
100
AcDbPlotSettings
  1

  2
Canon LBP9100C
  4

  6

 40
0.0
 41
0.0
 42
0.0
 43
0.0
 44
0.0
 45
0.0
 46
0.0
 47
0.0
 48
0.0
 49
0.0
140
0.0
141
0.0
142
1.0
143
1.0
 70
  1712
 72
     0
 73
     0
 74
     0
  7

 75
     0
147
1.0
148
0.0
149
0.0
100
AcDbLayout
  1
Model
 70
     1
 71
     0
 10
0.0
 20
0.0
 11
12.0
 21
9.0
 12
0.0
 22
0.0
 32
0.0
 14
0.0
 24
0.0
 34
0.0
 15
0.0
 25
0.0
 35
0.0
146
0.0
 13
0.0
 23
0.0
 33
0.0
 16
1.0
 26
0.0
 36
0.0
 17
0.0
 27
1.0
 37
0.0
 76
     0
330
F29A
331
F471
  0
LAYOUT
  5
F4C9
102
{ACAD_XDICTIONARY
360
F569
102
}
102
{ACAD_REACTORS
330
F295
102
}
330
F295
100
AcDbPlotSettings
  1

  2
Canon LBP9100C
  4

  6

 40
0.0
 41
0.0
 42
0.0
 43
0.0
 44
0.0
 45
0.0
 46
0.0
 47
0.0
 48
0.0
 49
0.0
140
0.0
141
0.0
142
1.0
143
1.0
 70
   688
 72
     0
 73
     0
 74
     5
  7

 75
    16
147
1.0
148
0.0
149
0.0
100
AcDbLayout
  1
レイアウト1
 70
     0
 71
     1
 10
0.0
 20
0.0
 11
420.0
 21
297.0
 12
0.0
 22
0.0
 32
0.0
 14
1.000000000000000E+20
 24
1.000000000000000E+20
 34
1.000000000000000E+20
 15
-1.000000000000000E+20
 25
-1.000000000000000E+20
 35
-1.000000000000000E+20
146
0.0
 13
0.0
 23
0.0
 33
0.0
 16
1.0
 26
0.0
 36
0.0
 17
0.0
 27
1.0
 37
0.0
 76
     0
330
F296
  0
MATERIAL
  5
F484
102
{ACAD_XDICTIONARY
360
F485
102
}
102
{ACAD_REACTORS
330
F47B
102
}
330
F47B
100
AcDbMaterial
  1
ByBlock
 72
     0
 43
0.0208333333333333
 43
0.0
 43
0.0
 43
0.0
 43
0.0
 43
0.0208333333333333
 43
0.0
 43
0.0
 43
0.0
 43
0.0
 43
1.0
 43
0.0
 43
0.0
 43
0.0
 43
0.0
 43
1.0
 77
     0
 47
0.0208333333333333
 47
0.0
 47
0.0
 47
0.0
 47
0.0
 47
0.0208333333333333
 47
0.0
 47
0.0
 47
0.0
 47
0.0
 47
1.0
 47
0.0
 47
0.0
 47
0.0
 47
0.0
 47
1.0
171
     0
 49
0.0208333333333333
 49
0.0
 49
0.0
 49
0.0
 49
0.0
 49
0.0208333333333333
 49
0.0
 49
0.0
 49
0.0
 49
0.0
 49
1.0
 49
0.0
 49
0.0
 49
0.0
 49
0.0
 49
1.0
175
     0
142
0.0208333333333333
142
0.0
142
0.0
142
0.0
142
0.0
142
0.0208333333333333
142
0.0
142
0.0
142
0.0
142
0.0
142
1.0
142
0.0
142
0.0
142
0.0
142
0.0
142
1.0
179
     0
144
0.0208333333333333
144
0.0
144
0.0
144
0.0
144
0.0
144
0.0208333333333333
144
0.0
144
0.0
144
0.0
144
0.0
144
1.0
144
0.0
144
0.0
144
0.0
144
0.0
144
1.0
147
0.0208333333333333
147
0.0
147
0.0
147
0.0
147
0.0
147
0.0208333333333333
147
0.0
147
0.0
147
0.0
147
0.0
147
1.0
147
0.0
147
0.0
147
0.0
147
0.0
147
1.0
  0
MATERIAL
  5
F47C
102
{ACAD_XDICTIONARY
360
F47D
102
}
102
{ACAD_REACTORS
330
F47B
102
}
330
F47B
100
AcDbMaterial
  1
ByLayer
 72
     0
 43
0.0208333333333333
 43
0.0
 43
0.0
 43
0.0
 43
0.0
 43
0.0208333333333333
 43
0.0
 43
0.0
 43
0.0
 43
0.0
 43
1.0
 43
0.0
 43
0.0
 43
0.0
 43
0.0
 43
1.0
 77
     0
 47
0.0208333333333333
 47
0.0
 47
0.0
 47
0.0
 47
0.0
 47
0.0208333333333333
 47
0.0
 47
0.0
 47
0.0
 47
0.0
 47
1.0
 47
0.0
 47
0.0
 47
0.0
 47
0.0
 47
1.0
171
     0
 49
0.0208333333333333
 49
0.0
 49
0.0
 49
0.0
 49
0.0
 49
0.0208333333333333
 49
0.0
 49
0.0
 49
0.0
 49
0.0
 49
1.0
 49
0.0
 49
0.0
 49
0.0
 49
0.0
 49
1.0
175
     0
142
0.0208333333333333
142
0.0
142
0.0
142
0.0
142
0.0
142
0.0208333333333333
142
0.0
142
0.0
142
0.0
142
0.0
142
1.0
142
0.0
142
0.0
142
0.0
142
0.0
142
1.0
179
     0
144
0.0208333333333333
144
0.0
144
0.0
144
0.0
144
0.0
144
0.0208333333333333
144
0.0
144
0.0
144
0.0
144
0.0
144
1.0
144
0.0
144
0.0
144
0.0
144
0.0
144
1.0
147
0.0208333333333333
147
0.0
147
0.0
147
0.0
147
0.0
147
0.0208333333333333
147
0.0
147
0.0
147
0.0
147
0.0
147
1.0
147
0.0
147
0.0
147
0.0
147
0.0
147
1.0
  0
MATERIAL
  5
F48C
102
{ACAD_XDICTIONARY
360
F48D
102
}
102
{ACAD_REACTORS
330
F47B
102
}
330
F47B
100
AcDbMaterial
  1
Global
 72
     0
 43
0.0208333333333333
 43
0.0
 43
0.0
 43
0.0
 43
0.0
 43
0.0208333333333333
 43
0.0
 43
0.0
 43
0.0
 43
0.0
 43
1.0
 43
0.0
 43
0.0
 43
0.0
 43
0.0
 43
1.0
 77
     0
 47
0.0208333333333333
 47
0.0
 47
0.0
 47
0.0
 47
0.0
 47
0.0208333333333333
 47
0.0
 47
0.0
 47
0.0
 47
0.0
 47
1.0
 47
0.0
 47
0.0
 47
0.0
 47
0.0
 47
1.0
171
     0
 49
0.0208333333333333
 49
0.0
 49
0.0
 49
0.0
 49
0.0
 49
0.0208333333333333
 49
0.0
 49
0.0
 49
0.0
 49
0.0
 49
1.0
 49
0.0
 49
0.0
 49
0.0
 49
0.0
 49
1.0
175
     0
142
0.0208333333333333
142
0.0
142
0.0
142
0.0
142
0.0
142
0.0208333333333333
142
0.0
142
0.0
142
0.0
142
0.0
142
1.0
142
0.0
142
0.0
142
0.0
142
0.0
142
1.0
179
     0
144
0.0208333333333333
144
0.0
144
0.0
144
0.0
144
0.0
144
0.0208333333333333
144
0.0
144
0.0
144
0.0
144
0.0
144
1.0
144
0.0
144
0.0
144
0.0
144
0.0
144
1.0
147
0.0208333333333333
147
0.0
147
0.0
147
0.0
147
0.0
147
0.0208333333333333
147
0.0
147
0.0
147
0.0
147
0.0
147
1.0
147
0.0
147
0.0
147
0.0
147
0.0
147
1.0
  0
MLEADERSTYLE
  5
F4C3
102
{ACAD_REACTORS
330
F4C2
102
}
330
F4C2
100
AcDbMLeaderStyle
170
     2
171
     1
172
     0
 90
        2
 40
0.0
 41
0.0
173
     1
 91
-1056964608
340
F28F
 92
       -2
290
     1
 42
0.09
291
     1
 43
0.36
  3
Standard
 44
0.18
300

342
F28D
174
     1
178
     6
175
     1
176
     0
 93
-1056964608
 45
0.18
292
     0
297
     0
 46
0.18
 94
-1056964608
 47
1.0
 49
1.0
140
1.0
293
     1
141
0.0
294
     1
177
     0
142
1.0
295
     0
296
     0
143
0.125
1001
ACAD_MLEADERVER
1070
     2
  0
MLINESTYLE
  5
F293
102
{ACAD_REACTORS
330
F292
102
}
330
F292
100
AcDbMlineStyle
  2
STANDARD
 70
     0
  3

 62
   256
 51
90.0
 52
90.0
 71
     2
 49
0.5
 62
   256
  6
BYLAYER
 49
-0.5
 62
   256
  6
BYLAYER
  0
ACDBPLACEHOLDER
  5
F47A
102
{ACAD_REACTORS
330
F479
102
}
330
F479
  0
SCALE
  5
F4B1
102
{ACAD_REACTORS
330
F4B0
102
}
330
F4B0
100
AcDbScale
 70
     0
300
1:1
140
1.0
141
1.0
290
     1
  0
SCALE
  5
F4B2
102
{ACAD_REACTORS
330
F4B0
102
}
330
F4B0
100
AcDbScale
 70
     0
300
1/128" = 1'-0"
140
0.0078125
141
12.0
290
     0
  0
SCALE
  5
F4B3
102
{ACAD_REACTORS
330
F4B0
102
}
330
F4B0
100
AcDbScale
 70
     0
300
1/64" = 1'-0"
140
0.015625
141
12.0
290
     0
  0
SCALE
  5
F4B4
102
{ACAD_REACTORS
330
F4B0
102
}
330
F4B0
100
AcDbScale
 70
     0
300
1/32" = 1'-0"
140
0.03125
141
12.0
290
     0
  0
SCALE
  5
F4B5
102
{ACAD_REACTORS
330
F4B0
102
}
330
F4B0
100
AcDbScale
 70
     0
300
1/16" = 1'-0"
140
0.0625
141
12.0
290
     0
  0
SCALE
  5
F4B6
102
{ACAD_REACTORS
330
F4B0
102
}
330
F4B0
100
AcDbScale
 70
     0
300
3/32" = 1'-0"
140
0.09375
141
12.0
290
     0
  0
SCALE
  5
F4B7
102
{ACAD_REACTORS
330
F4B0
102
}
330
F4B0
100
AcDbScale
 70
     0
300
1/8" = 1'-0"
140
0.125
141
12.0
290
     0
  0
SCALE
  5
F4B8
102
{ACAD_REACTORS
330
F4B0
102
}
330
F4B0
100
AcDbScale
 70
     0
300
3/16" = 1'-0"
140
0.1875
141
12.0
290
     0
  0
SCALE
  5
F4B9
102
{ACAD_REACTORS
330
F4B0
102
}
330
F4B0
100
AcDbScale
 70
     0
300
1/4" = 1'-0"
140
0.25
141
12.0
290
     0
  0
SCALE
  5
F4BA
102
{ACAD_REACTORS
330
F4B0
102
}
330
F4B0
100
AcDbScale
 70
     0
300
3/8" = 1'-0"
140
0.375
141
12.0
290
     0
  0
SCALE
  5
F4BB
102
{ACAD_REACTORS
330
F4B0
102
}
330
F4B0
100
AcDbScale
 70
     0
300
1/2" = 1'-0"
140
0.5
141
12.0
290
     0
  0
SCALE
  5
F4BC
102
{ACAD_REACTORS
330
F4B0
102
}
330
F4B0
100
AcDbScale
 70
     0
300
3/4" = 1'-0"
140
0.75
141
12.0
290
     0
  0
SCALE
  5
F4BD
102
{ACAD_REACTORS
330
F4B0
102
}
330
F4B0
100
AcDbScale
 70
     0
300
1" = 1'-0"
140
1.0
141
12.0
290
     0
  0
SCALE
  5
F4BE
102
{ACAD_REACTORS
330
F4B0
102
}
330
F4B0
100
AcDbScale
 70
     0
300
1-1/2" = 1'-0"
140
1.5
141
12.0
290
     0
  0
SCALE
  5
F4BF
102
{ACAD_REACTORS
330
F4B0
102
}
330
F4B0
100
AcDbScale
 70
     0
300
3" = 1'-0"
140
3.0
141
12.0
290
     0
  0
SCALE
  5
F4C0
102
{ACAD_REACTORS
330
F4B0
102
}
330
F4B0
100
AcDbScale
 70
     0
300
6" = 1'-0"
140
6.0
141
12.0
290
     0
  0
SCALE
  5
F4C1
102
{ACAD_REACTORS
330
F4B0
102
}
330
F4B0
100
AcDbScale
 70
     0
300
1'-0" = 1'-0"
140
12.0
141
12.0
290
     0
  0
ACDBSECTIONVIEWSTYLE
  5
F4C5
102
{ACAD_XDICTIONARY
360
F563
102
}
102
{ACAD_REACTORS
330
F4C4
102
}
330
F4C4
100
AcDbModelDocViewStyle
 70
     0
  3
Imperial24
290
     0
100
AcDbSectionViewStyle
 70
     0
 71
     0
 90
       78
 71
     1
340
F28D
 40
0.24
340
0
340
0
 40
0.24
300
I, O, Q, S, X, Z
 40
0.48
 90
        3
 40
0.18
 90
        1
 71
     2
340
F291
 90
       25
340
F291
 90
       50
 40
0.24
 40
0.0
 40
0.24
 71
     3
340
F28D
 40
0.24
 90
        1
 40
0.75
 90
        1
300
%<\AcVar ViewType \f "%tc1">% %<\AcVar ViewSectionStartId>%-%<\AcVar ViewSectionEndId>%\PSCALE %<\AcVar ViewScale \f "%sn">%
 71
     4
300
ANSI31
 40
1.0
 90
        0
290
     0
290
     0
 90
        6
 40
0.0
 40
1.570796326794896
 40
0.2617993877991494
 40
1.308996938995747
 40
-0.2617993877991494
 40
1.832595714594045
  0
TABLESTYLE
  5
F4AF
102
{ACAD_XDICTIONARY
360
F4E9
102
}
102
{ACAD_REACTORS
330
F4AE
102
}
330
F4AE
100
AcDbTableStyle
  3
Standard
 70
     0
 71
     0
 40
0.06
 41
0.06
280
     0
281
     0
  7
STANDARD
140
0.18
170
     2
 62
     0
 63
     7
283
     0
274
    -2
284
     1
 64
     0
275
    -2
285
     1
 65
     0
276
    -2
286
     1
 66
     0
277
    -2
287
     1
 67
     0
278
    -2
288
     1
 68
     0
279
    -2
289
     1
 69
     0
  7
STANDARD
140
0.25
170
     5
 62
     0
 63
     7
283
     0
274
    -2
284
     1
 64
     0
275
    -2
285
     1
 65
     0
276
    -2
286
     1
 66
     0
277
    -2
287
     1
 67
     0
278
    -2
288
     1
 68
     0
279
    -2
289
     1
 69
     0
  7
STANDARD
140
0.18
170
     5
 62
     0
 63
     7
283
     0
274
    -2
284
     1
 64
     0
275
    -2
285
     1
 65
     0
276
    -2
286
     1
 66
     0
277
    -2
287
     1
 67
     0
278
    -2
288
     1
 68
     0
279
    -2
289
     1
 69
     0
  0
VISUALSTYLE
  5
F49A
102
{ACAD_XDICTIONARY
360
F53C
102
}
102
{ACAD_REACTORS
330
F494
102
}
330
F494
100
AcDbVisualStyle
  2

 70
     4
 71
     0
 72
     2
 73
     0
 90
        0
 40
-0.6
 41
-30.0
 62
     5
 63
     7
 74
     1
 91
        4
 64
     7
 65
   257
 75
     1
175
     1
 42
1.0
 92
        0
 66
   257
 43
1.0
 76
     1
 77
     6
 78
     2
 67
     7
 79
     5
170
     0
171
     0
290
     0
174
     0
 93
        1
 44
0.0
173
     0
291
     0
 45
0.0
1001
ACAD
1000
AcDbSavedByObjectVersion
1070
     0
  0
VISUALSTYLE
  5
F499
102
{ACAD_XDICTIONARY
360
F53A
102
}
102
{ACAD_REACTORS
330
F494
102
}
330
F494
100
AcDbVisualStyle
  2

 70
     7
 71
     1
 72
     0
 73
     1
 90
        0
 40
-0.6
 41
-30.0
 62
     5
 63
     7
 74
     0
 91
        4
 64
     7
 65
   257
 75
     1
175
     1
 42
1.0
 92
        8
 66
     7
 43
1.0
 76
     1
 77
     6
 78
     2
 67
     7
 79
     5
170
     0
171
     0
290
     0
174
     0
 93
        1
 44
0.0
173
     0
291
     1
 45
0.0
1001
ACAD
1000
AcDbSavedByObjectVersion
1070
     0
  0
VISUALSTYLE
  5
F4A0
102
{ACAD_XDICTIONARY
360
F548
102
}
102
{ACAD_REACTORS
330
F494
102
}
330
F494
100
AcDbVisualStyle
  2

 70
    12
 71
     2
 72
     2
 73
     0
 90
        0
 40
-0.6
 41
-30.0
 62
     5
 63
     7
 74
     1
 91
        4
 64
     7
 65
   257
 75
     1
175
     1
 42
1.0
 92
        8
 66
     7
 43
1.0
 76
     1
 77
     6
 78
     2
 67
     7
 79
     5
170
     0
171
     0
290
     0
174
     0
 93
        1
 44
50.0
173
     0
291
     1
 45
0.0
1001
ACAD
1000
AcDbSavedByObjectVersion
1070
     0
  0
VISUALSTYLE
  5
F4A4
102
{ACAD_XDICTIONARY
360
F550
102
}
102
{ACAD_REACTORS
330
F494
102
}
330
F494
100
AcDbVisualStyle
  2

 70
    16
 71
     2
 72
     2
 73
     3
 90
        0
 40
-0.6
 41
-30.0
 62
     5
 63
     8
 74
     1
 91
        4
 64
     7
 65
   257
 75
     1
175
     1
 42
1.0
 92
        8
 66
     8
 43
1.0
 76
     1
 77
     6
 78
     2
 67
     7
 79
     5
170
     0
171
     0
290
     0
174
     0
 93
        1
 44
0.0
173
     0
291
     1
 45
0.0
1001
ACAD
1000
AcDbSavedByObjectVersion
1070
     0
  0
VISUALSTYLE
  5
F49D
102
{ACAD_XDICTIONARY
360
F542
102
}
102
{ACAD_REACTORS
330
F494
102
}
330
F494
100
AcDbVisualStyle
  2

 70
     9
 71
     3
 72
     2
 73
     0
 90
        0
 40
-0.6
 41
-30.0
 62
     5
 63
     7
 74
     2
 91
        2
 64
     7
 65
   257
 75
     1
175
     1
 42
179.0
 92
        8
 66
     7
 43
1.0
 76
     1
 77
     6
 78
     2
 67
     7
 79
     3
170
     0
171
     0
290
     0
174
     0
 93
        1
 44
0.0
173
     0
291
     0
 45
0.0
1001
ACAD
1000
AcDbSavedByObjectVersion
1070
     0
  0
VISUALSTYLE
  5
F49F
102
{ACAD_XDICTIONARY
360
F546
102
}
102
{ACAD_REACTORS
330
F494
102
}
330
F494
100
AcDbVisualStyle
  2

 70
    11
 71
     2
 72
     2
 73
     0
 90
        0
 40
-0.6
 41
-30.0
 62
     5
 63
     7
 74
     1
 91
        4
 64
     7
 65
   257
 75
     1
175
     1
 42
1.0
 92
        8
 66
     7
 43
1.0
 76
     1
 77
     6
 78
     2
 67
     7
 79
     5
170
     0
171
     0
290
     0
174
     0
 93
        1
 44
-50.0
173
     0
291
     1
 45
0.0
1001
ACAD
1000
AcDbSavedByObjectVersion
1070
     0
  0
VISUALSTYLE
  5
F4AC
102
{ACAD_XDICTIONARY
360
F560
102
}
102
{ACAD_REACTORS
330
F494
102
}
330
F494
100
AcDbVisualStyle
  2

 70
    22
 71
     2
 72
     2
 73
     0
 90
        0
 40
-0.6
 41
-30.0
 62
     5
 63
     7
 74
     1
 91
        4
 64
     7
 65
   257
 75
     1
175
     1
 42
1.0
 92
        8
 66
     7
 43
1.0
 76
     1
 77
     6
 78
     2
 67
     7
 79
     5
170
     0
171
     0
290
     0
174
     0
 93
        1
 44
0.0
173
     0
291
     1
 45
0.0
1001
ACAD
1000
AcDbSavedByObjectVersion
1070
     0
  0
VISUALSTYLE
  5
F4A3
102
{ACAD_XDICTIONARY
360
F54E
102
}
102
{ACAD_REACTORS
330
F494
102
}
330
F494
100
AcDbVisualStyle
  2

 70
    15
 71
     2
 72
     2
 73
     0
 90
        0
 40
-0.6
 41
-30.0
 62
     5
 63
     7
 74
     1
 91
        4
 64
     7
 65
   257
 75
     1
175
     1
 42
1.0
 92
        8
 66
     7
 43
1.0
 76
     1
 77
     6
 78
     2
 67
     7
 79
     5
170
     0
171
     0
290
     0
174
     0
 93
        1
 44
0.0
173
     0
291
     1
 45
0.0
1001
ACAD
1000
AcDbSavedByObjectVersion
1070
     0
  0
VISUALSTYLE
  5
F495
102
{ACAD_XDICTIONARY
360
F532
102
}
102
{ACAD_REACTORS
330
F494
102
}
330
F494
100
AcDbVisualStyle
  2

 70
     0
 71
     2
 72
     1
 73
     1
 90
        2
 40
-0.6
 41
30.0
 62
     5
 63
     7
 74
     0
 91
        0
 64
     7
 65
   257
 75
     1
175
     1
 42
1.0
 92
        8
 66
     7
 43
1.0
 76
     1
 77
     6
 78
     2
 67
     7
 79
     5
170
     0
171
     0
290
     0
174
     0
 93
       13
 44
0.0
173
     0
291
     1
 45
0.0
1001
ACAD
1000
AcDbSavedByObjectVersion
1070
     0
  0
VISUALSTYLE
  5
F496
102
{ACAD_XDICTIONARY
360
F534
102
}
102
{ACAD_REACTORS
330
F494
102
}
330
F494
100
AcDbVisualStyle
  2

 70
     1
 71
     2
 72
     1
 73
     1
 90
        2
 40
-0.6
 41
30.0
 62
     5
 63
     7
 74
     1
 91
        0
 64
     7
 65
   257
 75
     1
175
     1
 42
1.0
 92
        0
 66
   257
 43
1.0
 76
     1
 77
     6
 78
     2
 67
     7
 79
     5
170
     0
171
     0
290
     0
174
     0
 93
       13
 44
0.0
173
     0
291
     1
 45
0.0
1001
ACAD
1000
AcDbSavedByObjectVersion
1070
     0
  0
VISUALSTYLE
  5
F497
102
{ACAD_XDICTIONARY
360
F536
102
}
102
{ACAD_REACTORS
330
F494
102
}
330
F494
100
AcDbVisualStyle
  2

 70
     2
 71
     2
 72
     2
 73
     1
 90
        2
 40
-0.6
 41
30.0
 62
     5
 63
     7
 74
     0
 91
        0
 64
     7
 65
   257
 75
     1
175
     1
 42
1.0
 92
        0
 66
     7
 43
1.0
 76
     1
 77
     6
 78
     2
 67
     7
 79
     5
170
     0
171
     0
290
     0
174
     0
 93
       13
 44
0.0
173
     0
291
     1
 45
0.0
1001
ACAD
1000
AcDbSavedByObjectVersion
1070
     0
  0
VISUALSTYLE
  5
F498
102
{ACAD_XDICTIONARY
360
F538
102
}
102
{ACAD_REACTORS
330
F494
102
}
330
F494
100
AcDbVisualStyle
  2

 70
     3
 71
     2
 72
     2
 73
     1
 90
        2
 40
-0.6
 41
30.0
 62
     5
 63
     7
 74
     1
 91
        0
 64
     7
 65
   257
 75
     1
175
     1
 42
1.0
 92
        0
 66
   257
 43
1.0
 76
     1
 77
     6
 78
     2
 67
     7
 79
     5
170
     0
171
     0
290
     0
174
     0
 93
       13
 44
0.0
173
     0
291
     1
 45
0.0
1001
ACAD
1000
AcDbSavedByObjectVersion
1070
     0
  0
VISUALSTYLE
  5
F49C
102
{ACAD_XDICTIONARY
360
F540
102
}
102
{ACAD_REACTORS
330
F494
102
}
330
F494
100
AcDbVisualStyle
  2

 70
     6
 71
     1
 72
     2
 73
     2
 90
        0
 40
-0.6
 41
-30.0
 62
     5
 63
     7
 74
     2
 91
        2
 64
     7
 65
   257
 75
     2
175
     1
 42
40.0
 92
        0
 66
   257
 43
1.0
 76
     1
 77
     6
 78
     2
 67
     7
 79
     3
170
     0
171
     0
290
     0
174
     0
 93
        1
 44
0.0
173
     0
291
     0
 45
0.0
1001
ACAD
1000
AcDbSavedByObjectVersion
1070
     0
  0
VISUALSTYLE
  5
F4AA
102
{ACAD_XDICTIONARY
360
F55C
102
}
102
{ACAD_REACTORS
330
F494
102
}
330
F494
100
AcDbVisualStyle
  2

 70
    20
 71
     2
 72
     2
 73
     0
 90
        0
 40
-0.6
 41
-30.0
 62
     5
 63
     7
 74
     1
 91
        4
 64
     7
 65
   257
 75
     1
175
     1
 42
1.0
 92
       10
 66
     7
 43
1.0
 76
     1
 77
     6
 78
     2
 67
     7
 79
     5
170
     0
171
     0
290
     0
174
     0
 93
        1
 44
0.0
173
     0
291
     1
 45
0.0
1001
ACAD
1000
AcDbSavedByObjectVersion
1070
     0
  0
VISUALSTYLE
  5
F4A2
102
{ACAD_XDICTIONARY
360
F54C
102
}
102
{ACAD_REACTORS
330
F494
102
}
330
F494
100
AcDbVisualStyle
  2

 70
    14
 71
     2
 72
     2
 73
     0
 90
        0
 40
-0.6
 41
-30.0
 62
     5
 63
     7
 74
     1
 91
        4
 64
     7
 65
   257
 75
     7
175
     7
 42
1.0
 92
        8
 66
     7
 43
1.0
 76
     1
 77
     6
 78
     2
 67
     7
 79
     5
170
     0
171
     0
290
     0
174
     0
 93
        1
 44
0.0
173
     0
291
     1
 45
0.0
1001
ACAD
1000
AcDbSavedByObjectVersion
1070
     0
  0
VISUALSTYLE
  5
F4AB
102
{ACAD_XDICTIONARY
360
F55E
102
}
102
{ACAD_REACTORS
330
F494
102
}
330
F494
100
AcDbVisualStyle
  2

 70
    21
 71
     2
 72
     2
 73
     0
 90
        0
 40
-0.6
 41
-30.0
 62
     5
 63
     7
 74
     1
 91
        4
 64
     7
 65
   257
 75
     1
175
     1
 42
1.0
 92
        9
 66
     7
 43
1.0
 76
     1
 77
     6
 78
     2
 67
     7
 79
     5
170
     0
171
     0
290
     0
174
     0
 93
        1
 44
0.0
173
     0
291
     1
 45
0.0
1001
ACAD
1000
AcDbSavedByObjectVersion
1070
     0
  0
VISUALSTYLE
  5
F49E
102
{ACAD_XDICTIONARY
360
F544
102
}
102
{ACAD_REACTORS
330
F494
102
}
330
F494
100
AcDbVisualStyle
  2

 70
     8
 71
     2
 72
     3
 73
     0
 90
        2
 40
-0.6
 41
30.0
 62
     5
 63
     7
 74
     0
 91
        0
 64
     7
 65
   257
 75
     1
175
     1
 42
1.0
 92
        8
 66
   257
 43
1.0
 76
     1
 77
     6
 78
     2
 67
     7
 79
     3
170
     0
171
     0
290
     0
174
     0
 93
       13
 44
0.0
173
     0
291
     0
 45
0.0
1001
ACAD
1000
AcDbSavedByObjectVersion
1070
     0
  0
VISUALSTYLE
  5
F4A9
102
{ACAD_XDICTIONARY
360
F55A
102
}
102
{ACAD_REACTORS
330
F494
102
}
330
F494
100
AcDbVisualStyle
  2

 70
    27
 71
     2
 72
     2
 73
     1
 90
        2
 40
-0.6
 41
30.0
 62
     5
 63
     7
 74
     0
 91
        4
 64
     7
 65
   257
 75
     1
175
     1
 42
1.0
 92
        8
 66
   257
 43
1.0
 76
     1
 77
     6
 78
     2
 67
     8
 79
     3
170
     0
171
     0
290
     0
174
     0
 93
        5
 44
0.0
173
     0
291
     0
 45
0.0
1001
ACAD
1000
AcDbSavedByObjectVersion
1070
     0
  0
VISUALSTYLE
  5
F4A8
102
{ACAD_XDICTIONARY
360
F558
102
}
102
{ACAD_REACTORS
330
F494
102
}
330
F494
100
AcDbVisualStyle
  2

 70
    26
 71
     2
 72
     2
 73
     1
 90
        2
 40
-0.6
 41
30.0
 62
     5
 63
     7
 74
     1
 91
       10
 64
     7
 65
   257
 75
     2
175
     1
 42
1.0
 92
        8
 66
   257
 43
1.0
 76
     1
 77
     6
 78
     2
 67
     7
 79
     3
170
     0
171
     0
290
     0
174
     0
 93
        5
 44
0.0
173
     0
291
     0
 45
0.0
1001
ACAD
1000
AcDbSavedByObjectVersion
1070
     0
  0
VISUALSTYLE
  5
F4A5
102
{ACAD_XDICTIONARY
360
F552
102
}
102
{ACAD_REACTORS
330
F494
102
}
330
F494
100
AcDbVisualStyle
  2

 70
    23
 71
     2
 72
     2
 73
     3
 90
        0
 40
-0.6
 41
-30.0
 62
     5
 63
     7
 74
     2
 91
        2
 64
     7
 65
     7
 75
     1
175
     1
 42
40.0
 92
        8
 66
     7
 43
1.0
 76
     1
 77
     6
 78
     2
 67
     7
 79
     3
170
     0
171
     0
290
     0
174
     0
 93
        1
 44
0.0
173
     0
291
     0
 45
0.0
1001
ACAD
1000
AcDbSavedByObjectVersion
1070
     0
  0
VISUALSTYLE
  5
F4A6
102
{ACAD_XDICTIONARY
360
F554
102
}
102
{ACAD_REACTORS
330
F494
102
}
330
F494
100
AcDbVisualStyle
  2

 70
    24
 71
     1
 72
     2
 73
     2
 90
        0
 40
-0.6
 41
-30.0
 62
     5
 63
     7
 74
     2
 91
        2
 64
     7
 65
     7
 75
     1
175
     1
 42
40.0
 92
       11
 66
     7
 43
1.0
 76
     1
 77
     6
 78
     2
 67
     7
 79
     6
170
     0
171
     0
290
     0
174
     0
 93
        1
 44
0.0
173
     0
291
     0
 45
0.0
1001
ACAD
1000
AcDbSavedByObjectVersion
1070
     0
  0
VISUALSTYLE
  5
F4A1
102
{ACAD_XDICTIONARY
360
F54A
102
}
102
{ACAD_REACTORS
330
F494
102
}
330
F494
100
AcDbVisualStyle
  2

 70
    13
 71
     2
 72
     2
 73
     0
 90
        0
 40
-0.6
 41
-30.0
 62
     5
 63
     7
 74
     1
 91
        4
 64
     7
 65
   257
 75
     1
175
     1
 42
1.0
 92
       12
 66
     7
 43
1.0
 76
     1
 77
     6
 78
     2
 67
     7
 79
     5
170
     0
171
     0
290
     0
174
     0
 93
        1
 44
0.0
173
     0
291
     1
 45
0.0
1001
ACAD
1000
AcDbSavedByObjectVersion
1070
     0
  0
VISUALSTYLE
  5
F49B
102
{ACAD_XDICTIONARY
360
F53E
102
}
102
{ACAD_REACTORS
330
F494
102
}
330
F494
100
AcDbVisualStyle
  2

 70
     5
 71
     0
 72
     2
 73
     0
 90
        0
 40
-0.6
 41
-30.0
 62
     5
 63
     7
 74
     1
 91
        4
 64
     7
 65
   257
 75
     1
175
     1
 42
1.0
 92
        0
 66
   257
 43
1.0
 76
     1
 77
     6
 78
     2
 67
     7
 79
     3
170
     0
171
     0
290
     0
174
     0
 93
        1
 44
0.0
173
     0
291
     0
 45
0.0
1001
ACAD
1000
AcDbSavedByObjectVersion
1070
     0
  0
VISUALSTYLE
  5
F4A7
102
{ACAD_XDICTIONARY
360
F556
102
}
102
{ACAD_REACTORS
330
F494
102
}
330
F494
100
AcDbVisualStyle
  2

 70
    25
 71
     2
 72
     2
 73
     1
 90
        1
 40
0.5
 41
-30.0
 62
     5
 63
     7
 74
     1
 91
        0
 64
     7
 65
   257
 75
     1
175
     1
 42
1.0
 92
        8
 66
     7
 43
1.0
 76
     1
 77
     6
 78
     2
 67
     7
 79
     3
170
     0
171
     0
290
     0
174
     0
 93
       13
 44
0.0
173
     0
291
     0
 45
0.0
1001
ACAD
1000
AcDbSavedByObjectVersion
1070
     0
  0
DICTIONARYVAR
  5
F4E3
102
{ACAD_REACTORS
330
F4DE
102
}
330
F4DE
100
DictionaryVariables
280
     0
  1
1:1
  0
DICTIONARYVAR
  5
F4E0
102
{ACAD_REACTORS
330
F4DE
102
}
330
F4DE
100
DictionaryVariables
280
     0
  1
STANDARD
  0
DICTIONARYVAR
  5
F4DF
102
{ACAD_REACTORS
330
F4DE
102
}
330
F4DE
100
DictionaryVariables
280
     0
  1
STANDARD
  0
DICTIONARYVAR
  5
F4E1
102
{ACAD_REACTORS
330
F4DE
102
}
330
F4DE
100
DictionaryVariables
280
     0
  1
Imperial24
  0
DICTIONARYVAR
  5
F4E2
102
{ACAD_REACTORS
330
F4DE
102
}
330
F4DE
100
DictionaryVariables
280
     0
  1
Imperial24
  0
DICTIONARYVAR
  5
F4E6
102
{ACAD_REACTORS
330
F4DE
102
}
330
F4DE
100
DictionaryVariables
280
     0
  1
1
  0
DICTIONARYVAR
  5
F4E5
102
{ACAD_REACTORS
330
F4DE
102
}
330
F4DE
100
DictionaryVariables
280
     0
  1
0
  0
DICTIONARYVAR
  5
F4E4
102
{ACAD_REACTORS
330
F4DE
102
}
330
F4DE
100
DictionaryVariables
280
     0
  1
127
  0
DICTIONARYVAR
  5
F52E
102
{ACAD_REACTORS
330
F4DE
102
}
330
F4DE
100
DictionaryVariables
280
     0
  1
2
  0
DICTIONARY
  5
F565
330
F4C7
100
AcDbDictionary
280
     1
281
     1
  3
ACAD_XREC_ROUNDTRIP
360
F566
  0
DICTIONARY
  5
F567
330
F4C8
100
AcDbDictionary
280
     1
281
     1
  3
ACAD_XREC_ROUNDTRIP
360
F568
  0
DICTIONARY
  5
F569
330
F4C9
100
AcDbDictionary
280
     1
281
     1
  3
ACAD_XREC_ROUNDTRIP
360
F56A
  0
DICTIONARY
  5
F485
330
F484
100
AcDbDictionary
280
     1
281
     1
  3
ACAD_XREC_ROUNDTRIP
360
F4EE
  3
BUMPTILE
360
F487
  3
DIFFUSETILE
360
F486
  3
OPACITYTILE
360
F48A
  3
REFLECTIONTILE
360
F489
  3
REFRACTIONTILE
360
F48B
  3
SPECULARTILE
360
F488
  0
DICTIONARY
  5
F47D
330
F47C
100
AcDbDictionary
280
     1
281
     1
  3
ACAD_XREC_ROUNDTRIP
360
F4ED
  3
BUMPTILE
360
F47F
  3
DIFFUSETILE
360
F47E
  3
OPACITYTILE
360
F482
  3
REFLECTIONTILE
360
F481
  3
REFRACTIONTILE
360
F483
  3
SPECULARTILE
360
F480
  0
DICTIONARY
  5
F48D
330
F48C
100
AcDbDictionary
280
     1
281
     1
  3
ACAD_XREC_ROUNDTRIP
360
F4EF
  3
BUMPTILE
360
F48F
  3
DIFFUSETILE
360
F48E
  3
OPACITYTILE
360
F492
  3
REFLECTIONTILE
360
F491
  3
REFRACTIONTILE
360
F493
  3
SPECULARTILE
360
F490
  0
DICTIONARY
  5
F563
330
F4C5
100
AcDbDictionary
280
     1
281
     1
  3
ACAD_XREC_ROUNDTRIP
360
F564
  0
DICTIONARY
  5
F4E9
330
F4AF
100
AcDbDictionary
280
     1
281
     1
  3
ACAD_ROUNDTRIP_2008_TABLESTYLE_CELLSTYLEMAP
360
F52F
  3
ACAD_XREC_ROUNDTRIP
360
F562
  0
DICTIONARY
  5
F53C
330
F49A
100
AcDbDictionary
280
     1
281
     1
  3
ACAD_XREC_ROUNDTRIP
360
F53D
  0
DICTIONARY
  5
F53A
330
F499
100
AcDbDictionary
280
     1
281
     1
  3
ACAD_XREC_ROUNDTRIP
360
F53B
  0
DICTIONARY
  5
F548
330
F4A0
100
AcDbDictionary
280
     1
281
     1
  3
ACAD_XREC_ROUNDTRIP
360
F549
  0
DICTIONARY
  5
F550
330
F4A4
100
AcDbDictionary
280
     1
281
     1
  3
ACAD_XREC_ROUNDTRIP
360
F551
  0
DICTIONARY
  5
F542
330
F49D
100
AcDbDictionary
280
     1
281
     1
  3
ACAD_XREC_ROUNDTRIP
360
F543
  0
DICTIONARY
  5
F546
330
F49F
100
AcDbDictionary
280
     1
281
     1
  3
ACAD_XREC_ROUNDTRIP
360
F547
  0
DICTIONARY
  5
F560
330
F4AC
100
AcDbDictionary
280
     1
281
     1
  3
ACAD_XREC_ROUNDTRIP
360
F561
  0
DICTIONARY
  5
F54E
330
F4A3
100
AcDbDictionary
280
     1
281
     1
  3
ACAD_XREC_ROUNDTRIP
360
F54F
  0
DICTIONARY
  5
F532
330
F495
100
AcDbDictionary
280
     1
281
     1
  3
ACAD_XREC_ROUNDTRIP
360
F533
  0
DICTIONARY
  5
F534
330
F496
100
AcDbDictionary
280
     1
281
     1
  3
ACAD_XREC_ROUNDTRIP
360
F535
  0
DICTIONARY
  5
F536
330
F497
100
AcDbDictionary
280
     1
281
     1
  3
ACAD_XREC_ROUNDTRIP
360
F537
  0
DICTIONARY
  5
F538
330
F498
100
AcDbDictionary
280
     1
281
     1
  3
ACAD_XREC_ROUNDTRIP
360
F539
  0
DICTIONARY
  5
F540
330
F49C
100
AcDbDictionary
280
     1
281
     1
  3
ACAD_XREC_ROUNDTRIP
360
F541
  0
DICTIONARY
  5
F55C
330
F4AA
100
AcDbDictionary
280
     1
281
     1
  3
ACAD_XREC_ROUNDTRIP
360
F55D
  0
DICTIONARY
  5
F54C
330
F4A2
100
AcDbDictionary
280
     1
281
     1
  3
ACAD_XREC_ROUNDTRIP
360
F54D
  0
DICTIONARY
  5
F55E
330
F4AB
100
AcDbDictionary
280
     1
281
     1
  3
ACAD_XREC_ROUNDTRIP
360
F55F
  0
DICTIONARY
  5
F544
330
F49E
100
AcDbDictionary
280
     1
281
     1
  3
ACAD_XREC_ROUNDTRIP
360
F545
  0
DICTIONARY
  5
F55A
330
F4A9
100
AcDbDictionary
280
     1
281
     1
  3
ACAD_XREC_ROUNDTRIP
360
F55B
  0
DICTIONARY
  5
F558
330
F4A8
100
AcDbDictionary
280
     1
281
     1
  3
ACAD_XREC_ROUNDTRIP
360
F559
  0
DICTIONARY
  5
F552
330
F4A5
100
AcDbDictionary
280
     1
281
     1
  3
ACAD_XREC_ROUNDTRIP
360
F553
  0
DICTIONARY
  5
F554
330
F4A6
100
AcDbDictionary
280
     1
281
     1
  3
ACAD_XREC_ROUNDTRIP
360
F555
  0
DICTIONARY
  5
F54A
330
F4A1
100
AcDbDictionary
280
     1
281
     1
  3
ACAD_XREC_ROUNDTRIP
360
F54B
  0
DICTIONARY
  5
F53E
330
F49B
100
AcDbDictionary
280
     1
281
     1
  3
ACAD_XREC_ROUNDTRIP
360
F53F
  0
DICTIONARY
  5
F556
330
F4A7
100
AcDbDictionary
280
     1
281
     1
  3
ACAD_XREC_ROUNDTRIP
360
F557
  0
XRECORD
  5
F566
102
{ACAD_REACTORS
330
F565
102
}
330
F565
100
AcDbXrecord
280
     1
102
DISPLAYNAME
  1
Imperial24
102
FLAGS
 90
        0
  0
XRECORD
  5
F568
102
{ACAD_REACTORS
330
F567
102
}
330
F567
100
AcDbXrecord
280
     1
102
SHADEPLOT
 70
     0
102
SHADEPLOTRESLEVEL
 70
     2
102
SHADEPLOTCUSTOMDPI
 70
   300
  0
XRECORD
  5
F56A
102
{ACAD_REACTORS
330
F569
102
}
330
F569
100
AcDbXrecord
280
     1
102
SHADEPLOT
 70
     0
102
SHADEPLOTRESLEVEL
 70
     2
102
SHADEPLOTCUSTOMDPI
 70
   300
  0
XRECORD
  5
F4EE
102
{ACAD_REACTORS
330
F485
102
}
330
F485
100
AcDbXrecord
280
     1
102
MATERIAL
148
0.0
149
0.0
149
0.0
 93
        0
 94
      127
282
     0
 72
     0
 77
     0
171
     0
175
     0
179
     0
273
     0
  0
XRECORD
  5
F487
102
{ACAD_REACTORS
330
F485
102
}
330
F485
100
AcDbXrecord
280
     1
270
     1
271
     1
  0
XRECORD
  5
F486
102
{ACAD_REACTORS
330
F485
102
}
330
F485
100
AcDbXrecord
280
     1
270
     1
271
     1
  0
XRECORD
  5
F48A
102
{ACAD_REACTORS
330
F485
102
}
330
F485
100
AcDbXrecord
280
     1
270
     1
271
     1
  0
XRECORD
  5
F489
102
{ACAD_REACTORS
330
F485
102
}
330
F485
100
AcDbXrecord
280
     1
270
     1
271
     1
  0
XRECORD
  5
F48B
102
{ACAD_REACTORS
330
F485
102
}
330
F485
100
AcDbXrecord
280
     1
270
     1
271
     1
  0
XRECORD
  5
F488
102
{ACAD_REACTORS
330
F485
102
}
330
F485
100
AcDbXrecord
280
     1
270
     1
271
     1
  0
XRECORD
  5
F4ED
102
{ACAD_REACTORS
330
F47D
102
}
330
F47D
100
AcDbXrecord
280
     1
102
MATERIAL
148
0.0
149
0.0
149
0.0
 93
        0
 94
      127
282
     0
 72
     0
 77
     0
171
     0
175
     0
179
     0
273
     0
  0
XRECORD
  5
F47F
102
{ACAD_REACTORS
330
F47D
102
}
330
F47D
100
AcDbXrecord
280
     1
270
     1
271
     1
  0
XRECORD
  5
F47E
102
{ACAD_REACTORS
330
F47D
102
}
330
F47D
100
AcDbXrecord
280
     1
270
     1
271
     1
  0
XRECORD
  5
F482
102
{ACAD_REACTORS
330
F47D
102
}
330
F47D
100
AcDbXrecord
280
     1
270
     1
271
     1
  0
XRECORD
  5
F481
102
{ACAD_REACTORS
330
F47D
102
}
330
F47D
100
AcDbXrecord
280
     1
270
     1
271
     1
  0
XRECORD
  5
F483
102
{ACAD_REACTORS
330
F47D
102
}
330
F47D
100
AcDbXrecord
280
     1
270
     1
271
     1
  0
XRECORD
  5
F480
102
{ACAD_REACTORS
330
F47D
102
}
330
F47D
100
AcDbXrecord
280
     1
270
     1
271
     1
  0
XRECORD
  5
F4EF
102
{ACAD_REACTORS
330
F48D
102
}
330
F48D
100
AcDbXrecord
280
     1
102
MATERIAL
148
0.0
149
0.0
149
0.0
 93
        0
 94
      127
282
     0
 72
     0
 77
     0
171
     0
175
     0
179
     0
273
     0
  0
XRECORD
  5
F48F
102
{ACAD_REACTORS
330
F48D
102
}
330
F48D
100
AcDbXrecord
280
     1
270
     1
271
     1
  0
XRECORD
  5
F48E
102
{ACAD_REACTORS
330
F48D
102
}
330
F48D
100
AcDbXrecord
280
     1
270
     1
271
     1
  0
XRECORD
  5
F492
102
{ACAD_REACTORS
330
F48D
102
}
330
F48D
100
AcDbXrecord
280
     1
270
     1
271
     1
  0
XRECORD
  5
F491
102
{ACAD_REACTORS
330
F48D
102
}
330
F48D
100
AcDbXrecord
280
     1
270
     1
271
     1
  0
XRECORD
  5
F493
102
{ACAD_REACTORS
330
F48D
102
}
330
F48D
100
AcDbXrecord
280
     1
270
     1
271
     1
  0
XRECORD
  5
F490
102
{ACAD_REACTORS
330
F48D
102
}
330
F48D
100
AcDbXrecord
280
     1
270
     1
271
     1
  0
XRECORD
  5
F564
102
{ACAD_REACTORS
330
F563
102
}
330
F563
100
AcDbXrecord
280
     1
102
DISPLAYNAME
  1
Imperial24
102
FLAGS
 90
        0
  0
CELLSTYLEMAP
  5
F52F
102
{ACAD_REACTORS
330
F4E9
102
}
330
F4E9
100
AcDbCellStyleMap
 90
        3
300
CELLSTYLE
  1
TABLEFORMAT_BEGIN
 90
        5
170
     1
 91
        0
 92
    32768
 62
   257
 93
        1
300
CONTENTFORMAT
  1
CONTENTFORMAT_BEGIN
 90
        0
 91
        0
 92
      512
 93
        0
300

 40
0.0
140
1.0
 94
        5
 62
     0
340
F28D
144
0.25
309
CONTENTFORMAT_END
171
     1
301
MARGIN
  1
CELLMARGIN_BEGIN
 40
0.06
 40
0.06
 40
0.06
 40
0.06
 40
0.18
 40
0.18
309
CELLMARGIN_END
 94
        6
 95
        1
302
GRIDFORMAT
  1
GRIDFORMAT_BEGIN
 90
        0
 91
        1
 62
     0
 92
       -2
340
0
 93
        0
 40
0.045
309
GRIDFORMAT_END
 95
        2
302
GRIDFORMAT
  1
GRIDFORMAT_BEGIN
 90
        0
 91
        1
 62
     0
 92
       -2
340
0
 93
        0
 40
0.045
309
GRIDFORMAT_END
 95
        4
302
GRIDFORMAT
  1
GRIDFORMAT_BEGIN
 90
        0
 91
        1
 62
     0
 92
       -2
340
0
 93
        0
 40
0.045
309
GRIDFORMAT_END
 95
        8
302
GRIDFORMAT
  1
GRIDFORMAT_BEGIN
 90
        0
 91
        1
 62
     0
 92
       -2
340
0
 93
        0
 40
0.045
309
GRIDFORMAT_END
 95
       16
302
GRIDFORMAT
  1
GRIDFORMAT_BEGIN
 90
        0
 91
        1
 62
     0
 92
       -2
340
0
 93
        0
 40
0.045
309
GRIDFORMAT_END
 95
       32
302
GRIDFORMAT
  1
GRIDFORMAT_BEGIN
 90
        0
 91
        1
 62
     0
 92
       -2
340
0
 93
        0
 40
0.045
309
GRIDFORMAT_END
309
TABLEFORMAT_END
  1
CELLSTYLE_BEGIN
 90
        1
 91
        1
300
_TITLE
309
CELLSTYLE_END
300
CELLSTYLE
  1
TABLEFORMAT_BEGIN
 90
        5
170
     1
 91
        0
 92
        0
 62
   257
 93
        1
300
CONTENTFORMAT
  1
CONTENTFORMAT_BEGIN
 90
        0
 91
        0
 92
      512
 93
        0
300

 40
0.0
140
1.0
 94
        5
 62
     0
340
F28D
144
0.18
309
CONTENTFORMAT_END
171
     1
301
MARGIN
  1
CELLMARGIN_BEGIN
 40
0.06
 40
0.06
 40
0.06
 40
0.06
 40
0.18
 40
0.18
309
CELLMARGIN_END
 94
        6
 95
        1
302
GRIDFORMAT
  1
GRIDFORMAT_BEGIN
 90
        0
 91
        1
 62
     0
 92
       -2
340
0
 93
        0
 40
0.045
309
GRIDFORMAT_END
 95
        2
302
GRIDFORMAT
  1
GRIDFORMAT_BEGIN
 90
        0
 91
        1
 62
     0
 92
       -2
340
0
 93
        0
 40
0.045
309
GRIDFORMAT_END
 95
        4
302
GRIDFORMAT
  1
GRIDFORMAT_BEGIN
 90
        0
 91
        1
 62
     0
 92
       -2
340
0
 93
        0
 40
0.045
309
GRIDFORMAT_END
 95
        8
302
GRIDFORMAT
  1
GRIDFORMAT_BEGIN
 90
        0
 91
        1
 62
     0
 92
       -2
340
0
 93
        0
 40
0.045
309
GRIDFORMAT_END
 95
       16
302
GRIDFORMAT
  1
GRIDFORMAT_BEGIN
 90
        0
 91
        1
 62
     0
 92
       -2
340
0
 93
        0
 40
0.045
309
GRIDFORMAT_END
 95
       32
302
GRIDFORMAT
  1
GRIDFORMAT_BEGIN
 90
        0
 91
        1
 62
     0
 92
       -2
340
0
 93
        0
 40
0.045
309
GRIDFORMAT_END
309
TABLEFORMAT_END
  1
CELLSTYLE_BEGIN
 90
        2
 91
        1
300
_HEADER
309
CELLSTYLE_END
300
CELLSTYLE
  1
TABLEFORMAT_BEGIN
 90
        5
170
     1
 91
        0
 92
        0
 62
   257
 93
        1
300
CONTENTFORMAT
  1
CONTENTFORMAT_BEGIN
 90
        0
 91
        0
 92
      512
 93
        0
300

 40
0.0
140
1.0
 94
        2
 62
     0
340
F28D
144
0.18
309
CONTENTFORMAT_END
171
     1
301
MARGIN
  1
CELLMARGIN_BEGIN
 40
0.06
 40
0.06
 40
0.06
 40
0.06
 40
0.18
 40
0.18
309
CELLMARGIN_END
 94
        6
 95
        1
302
GRIDFORMAT
  1
GRIDFORMAT_BEGIN
 90
        0
 91
        1
 62
     0
 92
       -2
340
0
 93
        0
 40
0.045
309
GRIDFORMAT_END
 95
        2
302
GRIDFORMAT
  1
GRIDFORMAT_BEGIN
 90
        0
 91
        1
 62
     0
 92
       -2
340
0
 93
        0
 40
0.045
309
GRIDFORMAT_END
 95
        4
302
GRIDFORMAT
  1
GRIDFORMAT_BEGIN
 90
        0
 91
        1
 62
     0
 92
       -2
340
0
 93
        0
 40
0.045
309
GRIDFORMAT_END
 95
        8
302
GRIDFORMAT
  1
GRIDFORMAT_BEGIN
 90
        0
 91
        1
 62
     0
 92
       -2
340
0
 93
        0
 40
0.045
309
GRIDFORMAT_END
 95
       16
302
GRIDFORMAT
  1
GRIDFORMAT_BEGIN
 90
        0
 91
        1
 62
     0
 92
       -2
340
0
 93
        0
 40
0.045
309
GRIDFORMAT_END
 95
       32
302
GRIDFORMAT
  1
GRIDFORMAT_BEGIN
 90
        0
 91
        1
 62
     0
 92
       -2
340
0
 93
        0
 40
0.045
309
GRIDFORMAT_END
309
TABLEFORMAT_END
  1
CELLSTYLE_BEGIN
 90
        3
 91
        2
300
_DATA
309
CELLSTYLE_END
  0
XRECORD
  5
F562
102
{ACAD_REACTORS
330
F4E9
102
}
330
F4E9
100
AcDbXrecord
280
     1
102
ACAD_ROUNDTRIP_PRE2007_TABLESTYLE
 90
      512
 91
        0
  1

 92
      512
 93
        0
  2

 94
      512
 95
        0
  3

  0
XRECORD
  5
F53D
102
{ACAD_REACTORS
330
F53C
102
}
330
F53C
100
AcDbXrecord
280
     1
102
RTVSPost2010Prop28
280
     1
102
RTVSPost2010PropOp28
 70
     1
102
RTVSPost2010Prop29
280
     1
102
RTVSPost2010PropOp29
 70
     1
102
RTVSPost2010Prop30
280
     0
102
RTVSPost2010PropOp30
 70
     1
102
RTVSPost2010Prop31
280
     0
102
RTVSPost2010PropOp31
 70
     1
102
RTVSPost2010Prop32
280
     0
102
RTVSPost2010PropOp32
 70
     1
102
RTVSPost2010Prop33
280
     0
102
RTVSPost2010PropOp33
 70
     1
102
RTVSPost2010Prop34
280
     0
102
RTVSPost2010PropOp34
 70
     1
102
RTVSPost2010Prop35
280
     0
102
RTVSPost2010PropOp35
 70
     1
102
RTVSPost2010Prop36
280
     0
102
RTVSPost2010PropOp36
 70
     1
102
RTVSPost2010Prop37
 90
       50
102
RTVSPost2010PropOp37
 70
     1
102
RTVSPost2010Prop38
140
0.0
102
RTVSPost2010PropOp38
 70
     1
102
RTVSPost2010Prop39
140
1.0
102
RTVSPost2010PropOp39
 70
     1
102
RTVSPost2010Prop40
 90
        0
102
RTVSPost2010PropOp40
 70
     1
102
RTVSPost2010Prop41ColorIndex
 90
       18
102
RTVSPost2010Prop41ColorRGB
 90
        0
102
RTVSPost2010PropOp41
 70
     1
102
RTVSPost2010Prop42
 90
       50
102
RTVSPost2010PropOp42
 70
     1
102
RTVSPost2010Prop43
 90
        3
102
RTVSPost2010PropOp43
 70
     1
102
RTVSPost2010Prop44ColorIndex
 90
        5
102
RTVSPost2010Prop44ColorRGB
 90
      255
102
RTVSPost2010PropOp44
 70
     1
102
RTVSPost2010Prop45
280
     0
102
RTVSPost2010PropOp45
 70
     1
102
RTVSPost2010Prop46
 90
       50
102
RTVSPost2010PropOp46
 70
     1
102
RTVSPost2010Prop47
 90
       50
102
RTVSPost2010PropOp47
 70
     1
102
RTVSPost2010Prop48
 90
       50
102
RTVSPost2010PropOp48
 70
     1
102
RTVSPost2010Prop49
280
     0
102
RTVSPost2010PropOp49
 70
     1
102
RTVSPost2010Prop50
 90
       50
102
RTVSPost2010PropOp50
 70
     1
102
RTVSPost2010Prop51ColorIndex
 90
      256
102
RTVSPost2010Prop51ColorRGB
 90
-16777216
102
RTVSPost2010PropOp51
 70
     0
102
RTVSPost2010Prop52
140
1.0
102
RTVSPost2010PropOp52
 70
     0
102
RTVSPost2010Prop53
 90
        2
102
RTVSPost2010PropOp53
 70
     1
102
RTVSPost2010Prop54
  1
strokes_ogs.tif
102
RTVSPost2010PropOp54
 70
     1
102
RTVSPost2010Prop55
280
     0
102
RTVSPost2010PropOp55
 70
     1
102
RTVSPost2010Prop56
140
1.0
102
RTVSPost2010PropOp56
 70
     1
102
RTVSPost2010Prop57
140
1.0
102
RTVSPost2010PropOp57
 70
     1
102
RTVSPropertyOp0
 70
     1
102
RTVSPropertyOp1
 70
     1
102
RTVSPropertyOp2
 70
     1
102
RTVSPropertyOp3
 70
     1
102
RTVSPropertyOp4
 70
     1
102
RTVSPropertyOp5
 70
     1
102
RTVSPropertyOp6
 70
     1
102
RTVSPropertyOp7
 70
     1
102
RTVSPropertyOp8
 70
     1
102
RTVSPropertyOp9
 70
     1
102
RTVSPropertyOp10
 70
     1
102
RTVSPropertyOp11
 70
     1
102
RTVSPropertyOp12
 70
     1
102
RTVSPropertyOp13
 70
     1
102
RTVSPropertyOp14
 70
     1
102
RTVSPropertyOp15
 70
     1
102
RTVSPropertyOp16
 70
     1
102
RTVSPropertyOp17
 70
     1
102
RTVSPropertyOp18
 70
     1
102
RTVSPropertyOp19
 70
     1
102
RTVSPropertyOp20
 70
     1
102
RTVSPropertyOp21
 70
     1
102
RTVSPropertyOp22
 70
     1
102
RTVSPropertyOp23
 70
     1
102
RTVSPropertyOp24
 70
     1
102
RTVSPropertyOp25
 70
     1
102
RTVSPropertyOp26
 70
     1
102
RTVSPropertyOp27
 70
     1
102
RTVSPropertyOp28
 70
     1
102
RTVSPropertyOp29
 70
     1
102
RTVSPropertyOp30
 70
     1
102
RTVSPropertyOp31
 70
     1
102
RTVSPropertyOp32
 70
     1
102
RTVSPropertyOp33
 70
     1
102
RTVSPropertyOp34
 70
     1
102
RTVSPropertyOp35
 70
     1
102
RTVSPropertyOp36
 70
     1
102
RTVSPropertyOp37
 70
     1
102
RTVSPropertyOp38
 70
     1
102
RTVSPropertyOp39
 70
     1
102
RTVSPropertyOp40
 70
     1
102
RTVSPropertyOp41
 70
     1
102
RTVSPropertyOp42
 70
     1
102
RTVSPropertyOp43
 70
     1
102
RTVSPropertyOp44
 70
     1
102
RTVSPropertyOp45
 70
     1
102
RTVSPropertyOp46
 70
     1
102
RTVSPropertyOp47
 70
     1
102
RTVSPropertyOp48
 70
     1
102
RTVSPropertyOp49
 70
     1
102
RTVSPropertyOp50
 70
     1
102
RTVSPropertyOp51
 70
     0
102
RTVSPropertyOp52
 70
     0
102
RTVSPropertyOp53
 70
     1
102
RTVSPropertyOp54
 70
     1
102
RTVSPropertyOp55
 70
     1
102
RTVSPropertyOp56
 70
     1
102
RTVSPropertyOp57
 70
     1
102
RTVSPropertyOp58
 70
     1
102
RTVSPropertyOp59
 70
     1
102
RTVSPropertyOp60
 70
     1
102
RTVSPropertyOp61
 70
     1
102
RTVSPropertyOp62
 70
     1
  0
XRECORD
  5
F53B
102
{ACAD_REACTORS
330
F53A
102
}
330
F53A
100
AcDbXrecord
280
     1
102
RTVSPost2010Prop28
280
     0
102
RTVSPost2010PropOp28
 70
     1
102
RTVSPost2010Prop29
280
     1
102
RTVSPost2010PropOp29
 70
     1
102
RTVSPost2010Prop30
280
     1
102
RTVSPost2010PropOp30
 70
     1
102
RTVSPost2010Prop31
280
     0
102
RTVSPost2010PropOp31
 70
     1
102
RTVSPost2010Prop32
280
     0
102
RTVSPost2010PropOp32
 70
     1
102
RTVSPost2010Prop33
280
     0
102
RTVSPost2010PropOp33
 70
     1
102
RTVSPost2010Prop34
280
     0
102
RTVSPost2010PropOp34
 70
     1
102
RTVSPost2010Prop35
280
     0
102
RTVSPost2010PropOp35
 70
     1
102
RTVSPost2010Prop36
280
     0
102
RTVSPost2010PropOp36
 70
     1
102
RTVSPost2010Prop37
 90
       50
102
RTVSPost2010PropOp37
 70
     1
102
RTVSPost2010Prop38
140
0.0
102
RTVSPost2010PropOp38
 70
     1
102
RTVSPost2010Prop39
140
1.0
102
RTVSPost2010PropOp39
 70
     1
102
RTVSPost2010Prop40
 90
        0
102
RTVSPost2010PropOp40
 70
     1
102
RTVSPost2010Prop41ColorIndex
 90
       18
102
RTVSPost2010Prop41ColorRGB
 90
        0
102
RTVSPost2010PropOp41
 70
     1
102
RTVSPost2010Prop42
 90
       50
102
RTVSPost2010PropOp42
 70
     1
102
RTVSPost2010Prop43
 90
        3
102
RTVSPost2010PropOp43
 70
     1
102
RTVSPost2010Prop44ColorIndex
 90
        5
102
RTVSPost2010Prop44ColorRGB
 90
      255
102
RTVSPost2010PropOp44
 70
     1
102
RTVSPost2010Prop45
280
     0
102
RTVSPost2010PropOp45
 70
     1
102
RTVSPost2010Prop46
 90
       50
102
RTVSPost2010PropOp46
 70
     1
102
RTVSPost2010Prop47
 90
       50
102
RTVSPost2010PropOp47
 70
     1
102
RTVSPost2010Prop48
 90
       50
102
RTVSPost2010PropOp48
 70
     1
102
RTVSPost2010Prop49
280
     0
102
RTVSPost2010PropOp49
 70
     1
102
RTVSPost2010Prop50
 90
       50
102
RTVSPost2010PropOp50
 70
     1
102
RTVSPost2010Prop51ColorIndex
 90
      256
102
RTVSPost2010Prop51ColorRGB
 90
-16777216
102
RTVSPost2010PropOp51
 70
     0
102
RTVSPost2010Prop52
140
1.0
102
RTVSPost2010PropOp52
 70
     0
102
RTVSPost2010Prop53
 90
        2
102
RTVSPost2010PropOp53
 70
     1
102
RTVSPost2010Prop54
  1
strokes_ogs.tif
102
RTVSPost2010PropOp54
 70
     1
102
RTVSPost2010Prop55
280
     0
102
RTVSPost2010PropOp55
 70
     1
102
RTVSPost2010Prop56
140
1.0
102
RTVSPost2010PropOp56
 70
     1
102
RTVSPost2010Prop57
140
1.0
102
RTVSPost2010PropOp57
 70
     1
102
RTVSPropertyOp0
 70
     1
102
RTVSPropertyOp1
 70
     1
102
RTVSPropertyOp2
 70
     1
102
RTVSPropertyOp3
 70
     1
102
RTVSPropertyOp4
 70
     1
102
RTVSPropertyOp5
 70
     1
102
RTVSPropertyOp6
 70
     1
102
RTVSPropertyOp7
 70
     1
102
RTVSPropertyOp8
 70
     1
102
RTVSPropertyOp9
 70
     1
102
RTVSPropertyOp10
 70
     1
102
RTVSPropertyOp11
 70
     1
102
RTVSPropertyOp12
 70
     1
102
RTVSPropertyOp13
 70
     1
102
RTVSPropertyOp14
 70
     1
102
RTVSPropertyOp15
 70
     1
102
RTVSPropertyOp16
 70
     1
102
RTVSPropertyOp17
 70
     1
102
RTVSPropertyOp18
 70
     1
102
RTVSPropertyOp19
 70
     1
102
RTVSPropertyOp20
 70
     1
102
RTVSPropertyOp21
 70
     1
102
RTVSPropertyOp22
 70
     1
102
RTVSPropertyOp23
 70
     1
102
RTVSPropertyOp24
 70
     1
102
RTVSPropertyOp25
 70
     1
102
RTVSPropertyOp26
 70
     1
102
RTVSPropertyOp27
 70
     1
102
RTVSPropertyOp28
 70
     1
102
RTVSPropertyOp29
 70
     1
102
RTVSPropertyOp30
 70
     1
102
RTVSPropertyOp31
 70
     1
102
RTVSPropertyOp32
 70
     1
102
RTVSPropertyOp33
 70
     1
102
RTVSPropertyOp34
 70
     1
102
RTVSPropertyOp35
 70
     1
102
RTVSPropertyOp36
 70
     1
102
RTVSPropertyOp37
 70
     1
102
RTVSPropertyOp38
 70
     1
102
RTVSPropertyOp39
 70
     1
102
RTVSPropertyOp40
 70
     1
102
RTVSPropertyOp41
 70
     1
102
RTVSPropertyOp42
 70
     1
102
RTVSPropertyOp43
 70
     1
102
RTVSPropertyOp44
 70
     1
102
RTVSPropertyOp45
 70
     1
102
RTVSPropertyOp46
 70
     1
102
RTVSPropertyOp47
 70
     1
102
RTVSPropertyOp48
 70
     1
102
RTVSPropertyOp49
 70
     1
102
RTVSPropertyOp50
 70
     1
102
RTVSPropertyOp51
 70
     0
102
RTVSPropertyOp52
 70
     0
102
RTVSPropertyOp53
 70
     1
102
RTVSPropertyOp54
 70
     1
102
RTVSPropertyOp55
 70
     1
102
RTVSPropertyOp56
 70
     1
102
RTVSPropertyOp57
 70
     1
102
RTVSPropertyOp58
 70
     1
102
RTVSPropertyOp59
 70
     1
102
RTVSPropertyOp60
 70
     1
102
RTVSPropertyOp61
 70
     1
102
RTVSPropertyOp62
 70
     1
  0
XRECORD
  5
F549
102
{ACAD_REACTORS
330
F548
102
}
330
F548
100
AcDbXrecord
280
     1
102
RTVSPost2010Prop28
280
     0
102
RTVSPost2010PropOp28
 70
     1
102
RTVSPost2010Prop29
280
     1
102
RTVSPost2010PropOp29
 70
     1
102
RTVSPost2010Prop30
280
     1
102
RTVSPost2010PropOp30
 70
     1
102
RTVSPost2010Prop31
280
     0
102
RTVSPost2010PropOp31
 70
     1
102
RTVSPost2010Prop32
280
     0
102
RTVSPost2010PropOp32
 70
     1
102
RTVSPost2010Prop33
280
     0
102
RTVSPost2010PropOp33
 70
     1
102
RTVSPost2010Prop34
280
     0
102
RTVSPost2010PropOp34
 70
     1
102
RTVSPost2010Prop35
280
     0
102
RTVSPost2010PropOp35
 70
     1
102
RTVSPost2010Prop36
280
     0
102
RTVSPost2010PropOp36
 70
     1
102
RTVSPost2010Prop37
 90
       50
102
RTVSPost2010PropOp37
 70
     1
102
RTVSPost2010Prop38
140
0.0
102
RTVSPost2010PropOp38
 70
     1
102
RTVSPost2010Prop39
140
1.0
102
RTVSPost2010PropOp39
 70
     1
102
RTVSPost2010Prop40
 90
        0
102
RTVSPost2010PropOp40
 70
     1
102
RTVSPost2010Prop41ColorIndex
 90
       18
102
RTVSPost2010Prop41ColorRGB
 90
        0
102
RTVSPost2010PropOp41
 70
     1
102
RTVSPost2010Prop42
 90
       50
102
RTVSPost2010PropOp42
 70
     1
102
RTVSPost2010Prop43
 90
        3
102
RTVSPost2010PropOp43
 70
     1
102
RTVSPost2010Prop44ColorIndex
 90
        5
102
RTVSPost2010Prop44ColorRGB
 90
      255
102
RTVSPost2010PropOp44
 70
     1
102
RTVSPost2010Prop45
280
     0
102
RTVSPost2010PropOp45
 70
     1
102
RTVSPost2010Prop46
 90
       50
102
RTVSPost2010PropOp46
 70
     1
102
RTVSPost2010Prop47
 90
       50
102
RTVSPost2010PropOp47
 70
     1
102
RTVSPost2010Prop48
 90
       50
102
RTVSPost2010PropOp48
 70
     1
102
RTVSPost2010Prop49
280
     0
102
RTVSPost2010PropOp49
 70
     1
102
RTVSPost2010Prop50
 90
       50
102
RTVSPost2010PropOp50
 70
     1
102
RTVSPost2010Prop51ColorIndex
 90
      256
102
RTVSPost2010Prop51ColorRGB
 90
-16777216
102
RTVSPost2010PropOp51
 70
     0
102
RTVSPost2010Prop52
140
1.0
102
RTVSPost2010PropOp52
 70
     0
102
RTVSPost2010Prop53
 90
        2
102
RTVSPost2010PropOp53
 70
     1
102
RTVSPost2010Prop54
  1
strokes_ogs.tif
102
RTVSPost2010PropOp54
 70
     1
102
RTVSPost2010Prop55
280
     0
102
RTVSPost2010PropOp55
 70
     1
102
RTVSPost2010Prop56
140
1.0
102
RTVSPost2010PropOp56
 70
     1
102
RTVSPost2010Prop57
140
1.0
102
RTVSPost2010PropOp57
 70
     1
102
RTVSPropertyOp0
 70
     1
102
RTVSPropertyOp1
 70
     1
102
RTVSPropertyOp2
 70
     1
102
RTVSPropertyOp3
 70
     1
102
RTVSPropertyOp4
 70
     1
102
RTVSPropertyOp5
 70
     1
102
RTVSPropertyOp6
 70
     1
102
RTVSPropertyOp7
 70
     1
102
RTVSPropertyOp8
 70
     1
102
RTVSPropertyOp9
 70
     1
102
RTVSPropertyOp10
 70
     1
102
RTVSPropertyOp11
 70
     1
102
RTVSPropertyOp12
 70
     1
102
RTVSPropertyOp13
 70
     1
102
RTVSPropertyOp14
 70
     1
102
RTVSPropertyOp15
 70
     1
102
RTVSPropertyOp16
 70
     1
102
RTVSPropertyOp17
 70
     1
102
RTVSPropertyOp18
 70
     1
102
RTVSPropertyOp19
 70
     1
102
RTVSPropertyOp20
 70
     1
102
RTVSPropertyOp21
 70
     1
102
RTVSPropertyOp22
 70
     1
102
RTVSPropertyOp23
 70
     1
102
RTVSPropertyOp24
 70
     1
102
RTVSPropertyOp25
 70
     1
102
RTVSPropertyOp26
 70
     1
102
RTVSPropertyOp27
 70
     1
102
RTVSPropertyOp28
 70
     1
102
RTVSPropertyOp29
 70
     1
102
RTVSPropertyOp30
 70
     1
102
RTVSPropertyOp31
 70
     1
102
RTVSPropertyOp32
 70
     1
102
RTVSPropertyOp33
 70
     1
102
RTVSPropertyOp34
 70
     1
102
RTVSPropertyOp35
 70
     1
102
RTVSPropertyOp36
 70
     1
102
RTVSPropertyOp37
 70
     1
102
RTVSPropertyOp38
 70
     1
102
RTVSPropertyOp39
 70
     1
102
RTVSPropertyOp40
 70
     1
102
RTVSPropertyOp41
 70
     1
102
RTVSPropertyOp42
 70
     1
102
RTVSPropertyOp43
 70
     1
102
RTVSPropertyOp44
 70
     1
102
RTVSPropertyOp45
 70
     1
102
RTVSPropertyOp46
 70
     1
102
RTVSPropertyOp47
 70
     1
102
RTVSPropertyOp48
 70
     1
102
RTVSPropertyOp49
 70
     1
102
RTVSPropertyOp50
 70
     1
102
RTVSPropertyOp51
 70
     0
102
RTVSPropertyOp52
 70
     0
102
RTVSPropertyOp53
 70
     1
102
RTVSPropertyOp54
 70
     1
102
RTVSPropertyOp55
 70
     1
102
RTVSPropertyOp56
 70
     1
102
RTVSPropertyOp57
 70
     1
102
RTVSPropertyOp58
 70
     1
102
RTVSPropertyOp59
 70
     1
102
RTVSPropertyOp60
 70
     1
102
RTVSPropertyOp61
 70
     1
102
RTVSPropertyOp62
 70
     1
  0
XRECORD
  5
F551
102
{ACAD_REACTORS
330
F550
102
}
330
F550
100
AcDbXrecord
280
     1
102
RTVSPost2010Prop28
280
     0
102
RTVSPost2010PropOp28
 70
     1
102
RTVSPost2010Prop29
280
     1
102
RTVSPost2010PropOp29
 70
     1
102
RTVSPost2010Prop30
280
     1
102
RTVSPost2010PropOp30
 70
     1
102
RTVSPost2010Prop31
280
     0
102
RTVSPost2010PropOp31
 70
     1
102
RTVSPost2010Prop32
280
     0
102
RTVSPost2010PropOp32
 70
     1
102
RTVSPost2010Prop33
280
     0
102
RTVSPost2010PropOp33
 70
     1
102
RTVSPost2010Prop34
280
     0
102
RTVSPost2010PropOp34
 70
     1
102
RTVSPost2010Prop35
280
     0
102
RTVSPost2010PropOp35
 70
     1
102
RTVSPost2010Prop36
280
     0
102
RTVSPost2010PropOp36
 70
     1
102
RTVSPost2010Prop37
 90
       50
102
RTVSPost2010PropOp37
 70
     1
102
RTVSPost2010Prop38
140
0.0
102
RTVSPost2010PropOp38
 70
     1
102
RTVSPost2010Prop39
140
1.0
102
RTVSPost2010PropOp39
 70
     1
102
RTVSPost2010Prop40
 90
        0
102
RTVSPost2010PropOp40
 70
     1
102
RTVSPost2010Prop41ColorIndex
 90
       18
102
RTVSPost2010Prop41ColorRGB
 90
        0
102
RTVSPost2010PropOp41
 70
     1
102
RTVSPost2010Prop42
 90
       50
102
RTVSPost2010PropOp42
 70
     1
102
RTVSPost2010Prop43
 90
        3
102
RTVSPost2010PropOp43
 70
     1
102
RTVSPost2010Prop44ColorIndex
 90
        5
102
RTVSPost2010Prop44ColorRGB
 90
      255
102
RTVSPost2010PropOp44
 70
     1
102
RTVSPost2010Prop45
280
     0
102
RTVSPost2010PropOp45
 70
     1
102
RTVSPost2010Prop46
 90
       50
102
RTVSPost2010PropOp46
 70
     1
102
RTVSPost2010Prop47
 90
       50
102
RTVSPost2010PropOp47
 70
     1
102
RTVSPost2010Prop48
 90
       50
102
RTVSPost2010PropOp48
 70
     1
102
RTVSPost2010Prop49
280
     0
102
RTVSPost2010PropOp49
 70
     1
102
RTVSPost2010Prop50
 90
       50
102
RTVSPost2010PropOp50
 70
     1
102
RTVSPost2010Prop51ColorIndex
 90
      256
102
RTVSPost2010Prop51ColorRGB
 90
-16777216
102
RTVSPost2010PropOp51
 70
     0
102
RTVSPost2010Prop52
140
1.0
102
RTVSPost2010PropOp52
 70
     0
102
RTVSPost2010Prop53
 90
        2
102
RTVSPost2010PropOp53
 70
     1
102
RTVSPost2010Prop54
  1
strokes_ogs.tif
102
RTVSPost2010PropOp54
 70
     1
102
RTVSPost2010Prop55
280
     0
102
RTVSPost2010PropOp55
 70
     1
102
RTVSPost2010Prop56
140
1.0
102
RTVSPost2010PropOp56
 70
     1
102
RTVSPost2010Prop57
140
1.0
102
RTVSPost2010PropOp57
 70
     1
102
RTVSPropertyOp0
 70
     1
102
RTVSPropertyOp1
 70
     1
102
RTVSPropertyOp2
 70
     1
102
RTVSPropertyOp3
 70
     1
102
RTVSPropertyOp4
 70
     1
102
RTVSPropertyOp5
 70
     1
102
RTVSPropertyOp6
 70
     1
102
RTVSPropertyOp7
 70
     1
102
RTVSPropertyOp8
 70
     1
102
RTVSPropertyOp9
 70
     1
102
RTVSPropertyOp10
 70
     1
102
RTVSPropertyOp11
 70
     1
102
RTVSPropertyOp12
 70
     1
102
RTVSPropertyOp13
 70
     1
102
RTVSPropertyOp14
 70
     1
102
RTVSPropertyOp15
 70
     1
102
RTVSPropertyOp16
 70
     1
102
RTVSPropertyOp17
 70
     1
102
RTVSPropertyOp18
 70
     1
102
RTVSPropertyOp19
 70
     1
102
RTVSPropertyOp20
 70
     1
102
RTVSPropertyOp21
 70
     1
102
RTVSPropertyOp22
 70
     1
102
RTVSPropertyOp23
 70
     1
102
RTVSPropertyOp24
 70
     1
102
RTVSPropertyOp25
 70
     1
102
RTVSPropertyOp26
 70
     1
102
RTVSPropertyOp27
 70
     1
102
RTVSPropertyOp28
 70
     1
102
RTVSPropertyOp29
 70
     1
102
RTVSPropertyOp30
 70
     1
102
RTVSPropertyOp31
 70
     1
102
RTVSPropertyOp32
 70
     1
102
RTVSPropertyOp33
 70
     1
102
RTVSPropertyOp34
 70
     1
102
RTVSPropertyOp35
 70
     1
102
RTVSPropertyOp36
 70
     1
102
RTVSPropertyOp37
 70
     1
102
RTVSPropertyOp38
 70
     1
102
RTVSPropertyOp39
 70
     1
102
RTVSPropertyOp40
 70
     1
102
RTVSPropertyOp41
 70
     1
102
RTVSPropertyOp42
 70
     1
102
RTVSPropertyOp43
 70
     1
102
RTVSPropertyOp44
 70
     1
102
RTVSPropertyOp45
 70
     1
102
RTVSPropertyOp46
 70
     1
102
RTVSPropertyOp47
 70
     1
102
RTVSPropertyOp48
 70
     1
102
RTVSPropertyOp49
 70
     1
102
RTVSPropertyOp50
 70
     1
102
RTVSPropertyOp51
 70
     0
102
RTVSPropertyOp52
 70
     0
102
RTVSPropertyOp53
 70
     1
102
RTVSPropertyOp54
 70
     1
102
RTVSPropertyOp55
 70
     1
102
RTVSPropertyOp56
 70
     1
102
RTVSPropertyOp57
 70
     1
102
RTVSPropertyOp58
 70
     1
102
RTVSPropertyOp59
 70
     1
102
RTVSPropertyOp60
 70
     1
102
RTVSPropertyOp61
 70
     1
102
RTVSPropertyOp62
 70
     1
  0
XRECORD
  5
F543
102
{ACAD_REACTORS
330
F542
102
}
330
F542
100
AcDbXrecord
280
     1
102
RTVSPost2010Prop28
280
     0
102
RTVSPost2010PropOp28
 70
     1
102
RTVSPost2010Prop29
280
     1
102
RTVSPost2010PropOp29
 70
     1
102
RTVSPost2010Prop30
280
     1
102
RTVSPost2010PropOp30
 70
     1
102
RTVSPost2010Prop31
280
     0
102
RTVSPost2010PropOp31
 70
     1
102
RTVSPost2010Prop32
280
     0
102
RTVSPost2010PropOp32
 70
     1
102
RTVSPost2010Prop33
280
     0
102
RTVSPost2010PropOp33
 70
     1
102
RTVSPost2010Prop34
280
     0
102
RTVSPost2010PropOp34
 70
     1
102
RTVSPost2010Prop35
280
     0
102
RTVSPost2010PropOp35
 70
     1
102
RTVSPost2010Prop36
280
     0
102
RTVSPost2010PropOp36
 70
     1
102
RTVSPost2010Prop37
 90
       50
102
RTVSPost2010PropOp37
 70
     1
102
RTVSPost2010Prop38
140
0.0
102
RTVSPost2010PropOp38
 70
     1
102
RTVSPost2010Prop39
140
1.0
102
RTVSPost2010PropOp39
 70
     1
102
RTVSPost2010Prop40
 90
        0
102
RTVSPost2010PropOp40
 70
     1
102
RTVSPost2010Prop41ColorIndex
 90
       18
102
RTVSPost2010Prop41ColorRGB
 90
        0
102
RTVSPost2010PropOp41
 70
     1
102
RTVSPost2010Prop42
 90
       50
102
RTVSPost2010PropOp42
 70
     1
102
RTVSPost2010Prop43
 90
        3
102
RTVSPost2010PropOp43
 70
     1
102
RTVSPost2010Prop44ColorIndex
 90
        5
102
RTVSPost2010Prop44ColorRGB
 90
      255
102
RTVSPost2010PropOp44
 70
     1
102
RTVSPost2010Prop45
280
     0
102
RTVSPost2010PropOp45
 70
     1
102
RTVSPost2010Prop46
 90
       50
102
RTVSPost2010PropOp46
 70
     1
102
RTVSPost2010Prop47
 90
       50
102
RTVSPost2010PropOp47
 70
     1
102
RTVSPost2010Prop48
 90
       50
102
RTVSPost2010PropOp48
 70
     1
102
RTVSPost2010Prop49
280
     0
102
RTVSPost2010PropOp49
 70
     1
102
RTVSPost2010Prop50
 90
       50
102
RTVSPost2010PropOp50
 70
     1
102
RTVSPost2010Prop51ColorIndex
 90
      256
102
RTVSPost2010Prop51ColorRGB
 90
-16777216
102
RTVSPost2010PropOp51
 70
     0
102
RTVSPost2010Prop52
140
1.0
102
RTVSPost2010PropOp52
 70
     0
102
RTVSPost2010Prop53
 90
        2
102
RTVSPost2010PropOp53
 70
     1
102
RTVSPost2010Prop54
  1
strokes_ogs.tif
102
RTVSPost2010PropOp54
 70
     1
102
RTVSPost2010Prop55
280
     0
102
RTVSPost2010PropOp55
 70
     1
102
RTVSPost2010Prop56
140
1.0
102
RTVSPost2010PropOp56
 70
     1
102
RTVSPost2010Prop57
140
1.0
102
RTVSPost2010PropOp57
 70
     1
102
RTVSPropertyOp0
 70
     1
102
RTVSPropertyOp1
 70
     1
102
RTVSPropertyOp2
 70
     1
102
RTVSPropertyOp3
 70
     1
102
RTVSPropertyOp4
 70
     1
102
RTVSPropertyOp5
 70
     1
102
RTVSPropertyOp6
 70
     1
102
RTVSPropertyOp7
 70
     1
102
RTVSPropertyOp8
 70
     1
102
RTVSPropertyOp9
 70
     1
102
RTVSPropertyOp10
 70
     1
102
RTVSPropertyOp11
 70
     1
102
RTVSPropertyOp12
 70
     1
102
RTVSPropertyOp13
 70
     1
102
RTVSPropertyOp14
 70
     1
102
RTVSPropertyOp15
 70
     1
102
RTVSPropertyOp16
 70
     1
102
RTVSPropertyOp17
 70
     1
102
RTVSPropertyOp18
 70
     1
102
RTVSPropertyOp19
 70
     1
102
RTVSPropertyOp20
 70
     1
102
RTVSPropertyOp21
 70
     1
102
RTVSPropertyOp22
 70
     1
102
RTVSPropertyOp23
 70
     1
102
RTVSPropertyOp24
 70
     1
102
RTVSPropertyOp25
 70
     1
102
RTVSPropertyOp26
 70
     1
102
RTVSPropertyOp27
 70
     1
102
RTVSPropertyOp28
 70
     1
102
RTVSPropertyOp29
 70
     1
102
RTVSPropertyOp30
 70
     1
102
RTVSPropertyOp31
 70
     1
102
RTVSPropertyOp32
 70
     1
102
RTVSPropertyOp33
 70
     1
102
RTVSPropertyOp34
 70
     1
102
RTVSPropertyOp35
 70
     1
102
RTVSPropertyOp36
 70
     1
102
RTVSPropertyOp37
 70
     1
102
RTVSPropertyOp38
 70
     1
102
RTVSPropertyOp39
 70
     1
102
RTVSPropertyOp40
 70
     1
102
RTVSPropertyOp41
 70
     1
102
RTVSPropertyOp42
 70
     1
102
RTVSPropertyOp43
 70
     1
102
RTVSPropertyOp44
 70
     1
102
RTVSPropertyOp45
 70
     1
102
RTVSPropertyOp46
 70
     1
102
RTVSPropertyOp47
 70
     1
102
RTVSPropertyOp48
 70
     1
102
RTVSPropertyOp49
 70
     1
102
RTVSPropertyOp50
 70
     1
102
RTVSPropertyOp51
 70
     0
102
RTVSPropertyOp52
 70
     0
102
RTVSPropertyOp53
 70
     1
102
RTVSPropertyOp54
 70
     1
102
RTVSPropertyOp55
 70
     1
102
RTVSPropertyOp56
 70
     1
102
RTVSPropertyOp57
 70
     1
102
RTVSPropertyOp58
 70
     1
102
RTVSPropertyOp59
 70
     1
102
RTVSPropertyOp60
 70
     1
102
RTVSPropertyOp61
 70
     1
102
RTVSPropertyOp62
 70
     1
  0
XRECORD
  5
F547
102
{ACAD_REACTORS
330
F546
102
}
330
F546
100
AcDbXrecord
280
     1
102
RTVSPost2010Prop28
280
     0
102
RTVSPost2010PropOp28
 70
     1
102
RTVSPost2010Prop29
280
     1
102
RTVSPost2010PropOp29
 70
     1
102
RTVSPost2010Prop30
280
     1
102
RTVSPost2010PropOp30
 70
     1
102
RTVSPost2010Prop31
280
     0
102
RTVSPost2010PropOp31
 70
     1
102
RTVSPost2010Prop32
280
     0
102
RTVSPost2010PropOp32
 70
     1
102
RTVSPost2010Prop33
280
     0
102
RTVSPost2010PropOp33
 70
     1
102
RTVSPost2010Prop34
280
     0
102
RTVSPost2010PropOp34
 70
     1
102
RTVSPost2010Prop35
280
     0
102
RTVSPost2010PropOp35
 70
     1
102
RTVSPost2010Prop36
280
     0
102
RTVSPost2010PropOp36
 70
     1
102
RTVSPost2010Prop37
 90
       50
102
RTVSPost2010PropOp37
 70
     1
102
RTVSPost2010Prop38
140
0.0
102
RTVSPost2010PropOp38
 70
     1
102
RTVSPost2010Prop39
140
1.0
102
RTVSPost2010PropOp39
 70
     1
102
RTVSPost2010Prop40
 90
        0
102
RTVSPost2010PropOp40
 70
     1
102
RTVSPost2010Prop41ColorIndex
 90
       18
102
RTVSPost2010Prop41ColorRGB
 90
        0
102
RTVSPost2010PropOp41
 70
     1
102
RTVSPost2010Prop42
 90
       50
102
RTVSPost2010PropOp42
 70
     1
102
RTVSPost2010Prop43
 90
        3
102
RTVSPost2010PropOp43
 70
     1
102
RTVSPost2010Prop44ColorIndex
 90
        5
102
RTVSPost2010Prop44ColorRGB
 90
      255
102
RTVSPost2010PropOp44
 70
     1
102
RTVSPost2010Prop45
280
     0
102
RTVSPost2010PropOp45
 70
     1
102
RTVSPost2010Prop46
 90
       50
102
RTVSPost2010PropOp46
 70
     1
102
RTVSPost2010Prop47
 90
       50
102
RTVSPost2010PropOp47
 70
     1
102
RTVSPost2010Prop48
 90
       50
102
RTVSPost2010PropOp48
 70
     1
102
RTVSPost2010Prop49
280
     0
102
RTVSPost2010PropOp49
 70
     1
102
RTVSPost2010Prop50
 90
       50
102
RTVSPost2010PropOp50
 70
     1
102
RTVSPost2010Prop51ColorIndex
 90
      256
102
RTVSPost2010Prop51ColorRGB
 90
-16777216
102
RTVSPost2010PropOp51
 70
     0
102
RTVSPost2010Prop52
140
1.0
102
RTVSPost2010PropOp52
 70
     0
102
RTVSPost2010Prop53
 90
        2
102
RTVSPost2010PropOp53
 70
     1
102
RTVSPost2010Prop54
  1
strokes_ogs.tif
102
RTVSPost2010PropOp54
 70
     1
102
RTVSPost2010Prop55
280
     0
102
RTVSPost2010PropOp55
 70
     1
102
RTVSPost2010Prop56
140
1.0
102
RTVSPost2010PropOp56
 70
     1
102
RTVSPost2010Prop57
140
1.0
102
RTVSPost2010PropOp57
 70
     1
102
RTVSPropertyOp0
 70
     1
102
RTVSPropertyOp1
 70
     1
102
RTVSPropertyOp2
 70
     1
102
RTVSPropertyOp3
 70
     1
102
RTVSPropertyOp4
 70
     1
102
RTVSPropertyOp5
 70
     1
102
RTVSPropertyOp6
 70
     1
102
RTVSPropertyOp7
 70
     1
102
RTVSPropertyOp8
 70
     1
102
RTVSPropertyOp9
 70
     1
102
RTVSPropertyOp10
 70
     1
102
RTVSPropertyOp11
 70
     1
102
RTVSPropertyOp12
 70
     1
102
RTVSPropertyOp13
 70
     1
102
RTVSPropertyOp14
 70
     1
102
RTVSPropertyOp15
 70
     1
102
RTVSPropertyOp16
 70
     1
102
RTVSPropertyOp17
 70
     1
102
RTVSPropertyOp18
 70
     1
102
RTVSPropertyOp19
 70
     1
102
RTVSPropertyOp20
 70
     1
102
RTVSPropertyOp21
 70
     1
102
RTVSPropertyOp22
 70
     1
102
RTVSPropertyOp23
 70
     1
102
RTVSPropertyOp24
 70
     1
102
RTVSPropertyOp25
 70
     1
102
RTVSPropertyOp26
 70
     1
102
RTVSPropertyOp27
 70
     1
102
RTVSPropertyOp28
 70
     1
102
RTVSPropertyOp29
 70
     1
102
RTVSPropertyOp30
 70
     1
102
RTVSPropertyOp31
 70
     1
102
RTVSPropertyOp32
 70
     1
102
RTVSPropertyOp33
 70
     1
102
RTVSPropertyOp34
 70
     1
102
RTVSPropertyOp35
 70
     1
102
RTVSPropertyOp36
 70
     1
102
RTVSPropertyOp37
 70
     1
102
RTVSPropertyOp38
 70
     1
102
RTVSPropertyOp39
 70
     1
102
RTVSPropertyOp40
 70
     1
102
RTVSPropertyOp41
 70
     1
102
RTVSPropertyOp42
 70
     1
102
RTVSPropertyOp43
 70
     1
102
RTVSPropertyOp44
 70
     1
102
RTVSPropertyOp45
 70
     1
102
RTVSPropertyOp46
 70
     1
102
RTVSPropertyOp47
 70
     1
102
RTVSPropertyOp48
 70
     1
102
RTVSPropertyOp49
 70
     1
102
RTVSPropertyOp50
 70
     1
102
RTVSPropertyOp51
 70
     0
102
RTVSPropertyOp52
 70
     0
102
RTVSPropertyOp53
 70
     1
102
RTVSPropertyOp54
 70
     1
102
RTVSPropertyOp55
 70
     1
102
RTVSPropertyOp56
 70
     1
102
RTVSPropertyOp57
 70
     1
102
RTVSPropertyOp58
 70
     1
102
RTVSPropertyOp59
 70
     1
102
RTVSPropertyOp60
 70
     1
102
RTVSPropertyOp61
 70
     1
102
RTVSPropertyOp62
 70
     1
  0
XRECORD
  5
F561
102
{ACAD_REACTORS
330
F560
102
}
330
F560
100
AcDbXrecord
280
     1
102
RTVSPost2010Prop28
280
     0
102
RTVSPost2010PropOp28
 70
     1
102
RTVSPost2010Prop29
280
     1
102
RTVSPost2010PropOp29
 70
     1
102
RTVSPost2010Prop30
280
     1
102
RTVSPost2010PropOp30
 70
     1
102
RTVSPost2010Prop31
280
     0
102
RTVSPost2010PropOp31
 70
     1
102
RTVSPost2010Prop32
280
     0
102
RTVSPost2010PropOp32
 70
     1
102
RTVSPost2010Prop33
280
     0
102
RTVSPost2010PropOp33
 70
     1
102
RTVSPost2010Prop34
280
     0
102
RTVSPost2010PropOp34
 70
     1
102
RTVSPost2010Prop35
280
     0
102
RTVSPost2010PropOp35
 70
     1
102
RTVSPost2010Prop36
280
     0
102
RTVSPost2010PropOp36
 70
     1
102
RTVSPost2010Prop37
 90
       50
102
RTVSPost2010PropOp37
 70
     0
102
RTVSPost2010Prop38
140
0.0
102
RTVSPost2010PropOp38
 70
     0
102
RTVSPost2010Prop39
140
1.0
102
RTVSPost2010PropOp39
 70
     0
102
RTVSPost2010Prop40
 90
        0
102
RTVSPost2010PropOp40
 70
     0
102
RTVSPost2010Prop41ColorIndex
 90
       18
102
RTVSPost2010Prop41ColorRGB
 90
        0
102
RTVSPost2010PropOp41
 70
     0
102
RTVSPost2010Prop42
 90
       50
102
RTVSPost2010PropOp42
 70
     0
102
RTVSPost2010Prop43
 90
        3
102
RTVSPost2010PropOp43
 70
     0
102
RTVSPost2010Prop44ColorIndex
 90
        5
102
RTVSPost2010Prop44ColorRGB
 90
      255
102
RTVSPost2010PropOp44
 70
     0
102
RTVSPost2010Prop45
280
     0
102
RTVSPost2010PropOp45
 70
     1
102
RTVSPost2010Prop46
 90
       50
102
RTVSPost2010PropOp46
 70
     0
102
RTVSPost2010Prop47
 90
       50
102
RTVSPost2010PropOp47
 70
     0
102
RTVSPost2010Prop48
 90
       50
102
RTVSPost2010PropOp48
 70
     0
102
RTVSPost2010Prop49
280
     0
102
RTVSPost2010PropOp49
 70
     1
102
RTVSPost2010Prop50
 90
       50
102
RTVSPost2010PropOp50
 70
     0
102
RTVSPost2010Prop51ColorIndex
 90
      256
102
RTVSPost2010Prop51ColorRGB
 90
-16777216
102
RTVSPost2010PropOp51
 70
     0
102
RTVSPost2010Prop52
140
1.0
102
RTVSPost2010PropOp52
 70
     0
102
RTVSPost2010Prop53
 90
        2
102
RTVSPost2010PropOp53
 70
     0
102
RTVSPost2010Prop54
  1
strokes_ogs.tif
102
RTVSPost2010PropOp54
 70
     0
102
RTVSPost2010Prop55
280
     0
102
RTVSPost2010PropOp55
 70
     1
102
RTVSPost2010Prop56
140
1.0
102
RTVSPost2010PropOp56
 70
     0
102
RTVSPost2010Prop57
140
1.0
102
RTVSPost2010PropOp57
 70
     0
102
RTVSPropertyOp0
 70
     0
102
RTVSPropertyOp1
 70
     0
102
RTVSPropertyOp2
 70
     0
102
RTVSPropertyOp3
 70
     0
102
RTVSPropertyOp4
 70
     0
102
RTVSPropertyOp5
 70
     0
102
RTVSPropertyOp6
 70
     0
102
RTVSPropertyOp7
 70
     0
102
RTVSPropertyOp8
 70
     0
102
RTVSPropertyOp9
 70
     0
102
RTVSPropertyOp10
 70
     0
102
RTVSPropertyOp11
 70
     0
102
RTVSPropertyOp12
 70
     0
102
RTVSPropertyOp13
 70
     0
102
RTVSPropertyOp14
 70
     2
102
RTVSPropertyOp15
 70
     0
102
RTVSPropertyOp16
 70
     0
102
RTVSPropertyOp17
 70
     0
102
RTVSPropertyOp18
 70
     0
102
RTVSPropertyOp19
 70
     0
102
RTVSPropertyOp20
 70
     0
102
RTVSPropertyOp21
 70
     0
102
RTVSPropertyOp22
 70
     0
102
RTVSPropertyOp23
 70
     0
102
RTVSPropertyOp24
 70
     0
102
RTVSPropertyOp25
 70
     0
102
RTVSPropertyOp26
 70
     0
102
RTVSPropertyOp27
 70
     0
102
RTVSPropertyOp28
 70
     1
102
RTVSPropertyOp29
 70
     1
102
RTVSPropertyOp30
 70
     1
102
RTVSPropertyOp31
 70
     1
102
RTVSPropertyOp32
 70
     1
102
RTVSPropertyOp33
 70
     1
102
RTVSPropertyOp34
 70
     1
102
RTVSPropertyOp35
 70
     1
102
RTVSPropertyOp36
 70
     1
102
RTVSPropertyOp37
 70
     0
102
RTVSPropertyOp38
 70
     0
102
RTVSPropertyOp39
 70
     0
102
RTVSPropertyOp40
 70
     0
102
RTVSPropertyOp41
 70
     0
102
RTVSPropertyOp42
 70
     0
102
RTVSPropertyOp43
 70
     0
102
RTVSPropertyOp44
 70
     0
102
RTVSPropertyOp45
 70
     1
102
RTVSPropertyOp46
 70
     0
102
RTVSPropertyOp47
 70
     0
102
RTVSPropertyOp48
 70
     0
102
RTVSPropertyOp49
 70
     1
102
RTVSPropertyOp50
 70
     0
102
RTVSPropertyOp51
 70
     0
102
RTVSPropertyOp52
 70
     0
102
RTVSPropertyOp53
 70
     0
102
RTVSPropertyOp54
 70
     0
102
RTVSPropertyOp55
 70
     1
102
RTVSPropertyOp56
 70
     0
102
RTVSPropertyOp57
 70
     0
102
RTVSPropertyOp58
 70
     0
102
RTVSPropertyOp59
 70
     0
102
RTVSPropertyOp60
 70
     0
102
RTVSPropertyOp61
 70
     0
102
RTVSPropertyOp62
 70
     0
  0
XRECORD
  5
F54F
102
{ACAD_REACTORS
330
F54E
102
}
330
F54E
100
AcDbXrecord
280
     1
102
RTVSPost2010Prop28
280
     0
102
RTVSPost2010PropOp28
 70
     1
102
RTVSPost2010Prop29
280
     1
102
RTVSPost2010PropOp29
 70
     1
102
RTVSPost2010Prop30
280
     1
102
RTVSPost2010PropOp30
 70
     1
102
RTVSPost2010Prop31
280
     0
102
RTVSPost2010PropOp31
 70
     1
102
RTVSPost2010Prop32
280
     0
102
RTVSPost2010PropOp32
 70
     1
102
RTVSPost2010Prop33
280
     0
102
RTVSPost2010PropOp33
 70
     1
102
RTVSPost2010Prop34
280
     0
102
RTVSPost2010PropOp34
 70
     1
102
RTVSPost2010Prop35
280
     0
102
RTVSPost2010PropOp35
 70
     1
102
RTVSPost2010Prop36
280
     0
102
RTVSPost2010PropOp36
 70
     1
102
RTVSPost2010Prop37
 90
       50
102
RTVSPost2010PropOp37
 70
     1
102
RTVSPost2010Prop38
140
0.0
102
RTVSPost2010PropOp38
 70
     1
102
RTVSPost2010Prop39
140
1.0
102
RTVSPost2010PropOp39
 70
     1
102
RTVSPost2010Prop40
 90
        0
102
RTVSPost2010PropOp40
 70
     1
102
RTVSPost2010Prop41ColorIndex
 90
       18
102
RTVSPost2010Prop41ColorRGB
 90
        0
102
RTVSPost2010PropOp41
 70
     1
102
RTVSPost2010Prop42
 90
       50
102
RTVSPost2010PropOp42
 70
     1
102
RTVSPost2010Prop43
 90
        3
102
RTVSPost2010PropOp43
 70
     1
102
RTVSPost2010Prop44ColorIndex
 90
        5
102
RTVSPost2010Prop44ColorRGB
 90
      255
102
RTVSPost2010PropOp44
 70
     1
102
RTVSPost2010Prop45
280
     0
102
RTVSPost2010PropOp45
 70
     1
102
RTVSPost2010Prop46
 90
       50
102
RTVSPost2010PropOp46
 70
     1
102
RTVSPost2010Prop47
 90
       50
102
RTVSPost2010PropOp47
 70
     1
102
RTVSPost2010Prop48
 90
       50
102
RTVSPost2010PropOp48
 70
     1
102
RTVSPost2010Prop49
280
     0
102
RTVSPost2010PropOp49
 70
     1
102
RTVSPost2010Prop50
 90
       50
102
RTVSPost2010PropOp50
 70
     1
102
RTVSPost2010Prop51ColorIndex
 90
      256
102
RTVSPost2010Prop51ColorRGB
 90
-16777216
102
RTVSPost2010PropOp51
 70
     0
102
RTVSPost2010Prop52
140
1.0
102
RTVSPost2010PropOp52
 70
     0
102
RTVSPost2010Prop53
 90
        2
102
RTVSPost2010PropOp53
 70
     1
102
RTVSPost2010Prop54
  1
strokes_ogs.tif
102
RTVSPost2010PropOp54
 70
     1
102
RTVSPost2010Prop55
280
     0
102
RTVSPost2010PropOp55
 70
     1
102
RTVSPost2010Prop56
140
1.0
102
RTVSPost2010PropOp56
 70
     1
102
RTVSPost2010Prop57
140
1.0
102
RTVSPost2010PropOp57
 70
     1
102
RTVSPropertyOp0
 70
     1
102
RTVSPropertyOp1
 70
     1
102
RTVSPropertyOp2
 70
     1
102
RTVSPropertyOp3
 70
     1
102
RTVSPropertyOp4
 70
     1
102
RTVSPropertyOp5
 70
     1
102
RTVSPropertyOp6
 70
     1
102
RTVSPropertyOp7
 70
     1
102
RTVSPropertyOp8
 70
     1
102
RTVSPropertyOp9
 70
     1
102
RTVSPropertyOp10
 70
     1
102
RTVSPropertyOp11
 70
     1
102
RTVSPropertyOp12
 70
     1
102
RTVSPropertyOp13
 70
     1
102
RTVSPropertyOp14
 70
     1
102
RTVSPropertyOp15
 70
     1
102
RTVSPropertyOp16
 70
     1
102
RTVSPropertyOp17
 70
     1
102
RTVSPropertyOp18
 70
     1
102
RTVSPropertyOp19
 70
     1
102
RTVSPropertyOp20
 70
     1
102
RTVSPropertyOp21
 70
     1
102
RTVSPropertyOp22
 70
     1
102
RTVSPropertyOp23
 70
     1
102
RTVSPropertyOp24
 70
     1
102
RTVSPropertyOp25
 70
     1
102
RTVSPropertyOp26
 70
     1
102
RTVSPropertyOp27
 70
     1
102
RTVSPropertyOp28
 70
     1
102
RTVSPropertyOp29
 70
     1
102
RTVSPropertyOp30
 70
     1
102
RTVSPropertyOp31
 70
     1
102
RTVSPropertyOp32
 70
     1
102
RTVSPropertyOp33
 70
     1
102
RTVSPropertyOp34
 70
     1
102
RTVSPropertyOp35
 70
     1
102
RTVSPropertyOp36
 70
     1
102
RTVSPropertyOp37
 70
     1
102
RTVSPropertyOp38
 70
     1
102
RTVSPropertyOp39
 70
     1
102
RTVSPropertyOp40
 70
     1
102
RTVSPropertyOp41
 70
     1
102
RTVSPropertyOp42
 70
     1
102
RTVSPropertyOp43
 70
     1
102
RTVSPropertyOp44
 70
     1
102
RTVSPropertyOp45
 70
     1
102
RTVSPropertyOp46
 70
     1
102
RTVSPropertyOp47
 70
     1
102
RTVSPropertyOp48
 70
     1
102
RTVSPropertyOp49
 70
     1
102
RTVSPropertyOp50
 70
     1
102
RTVSPropertyOp51
 70
     0
102
RTVSPropertyOp52
 70
     0
102
RTVSPropertyOp53
 70
     1
102
RTVSPropertyOp54
 70
     1
102
RTVSPropertyOp55
 70
     1
102
RTVSPropertyOp56
 70
     1
102
RTVSPropertyOp57
 70
     1
102
RTVSPropertyOp58
 70
     1
102
RTVSPropertyOp59
 70
     1
102
RTVSPropertyOp60
 70
     1
102
RTVSPropertyOp61
 70
     1
102
RTVSPropertyOp62
 70
     1
  0
XRECORD
  5
F533
102
{ACAD_REACTORS
330
F532
102
}
330
F532
100
AcDbXrecord
280
     1
102
RTVSPost2010Prop28
280
     0
102
RTVSPost2010PropOp28
 70
     1
102
RTVSPost2010Prop29
280
     1
102
RTVSPost2010PropOp29
 70
     1
102
RTVSPost2010Prop30
280
     1
102
RTVSPost2010PropOp30
 70
     1
102
RTVSPost2010Prop31
280
     0
102
RTVSPost2010PropOp31
 70
     1
102
RTVSPost2010Prop32
280
     0
102
RTVSPost2010PropOp32
 70
     1
102
RTVSPost2010Prop33
280
     0
102
RTVSPost2010PropOp33
 70
     1
102
RTVSPost2010Prop34
280
     0
102
RTVSPost2010PropOp34
 70
     1
102
RTVSPost2010Prop35
280
     0
102
RTVSPost2010PropOp35
 70
     1
102
RTVSPost2010Prop36
280
     0
102
RTVSPost2010PropOp36
 70
     1
102
RTVSPost2010Prop37
 90
       50
102
RTVSPost2010PropOp37
 70
     1
102
RTVSPost2010Prop38
140
0.0
102
RTVSPost2010PropOp38
 70
     1
102
RTVSPost2010Prop39
140
1.0
102
RTVSPost2010PropOp39
 70
     1
102
RTVSPost2010Prop40
 90
        0
102
RTVSPost2010PropOp40
 70
     1
102
RTVSPost2010Prop41ColorIndex
 90
       18
102
RTVSPost2010Prop41ColorRGB
 90
        0
102
RTVSPost2010PropOp41
 70
     1
102
RTVSPost2010Prop42
 90
       50
102
RTVSPost2010PropOp42
 70
     1
102
RTVSPost2010Prop43
 90
        3
102
RTVSPost2010PropOp43
 70
     1
102
RTVSPost2010Prop44ColorIndex
 90
        5
102
RTVSPost2010Prop44ColorRGB
 90
      255
102
RTVSPost2010PropOp44
 70
     1
102
RTVSPost2010Prop45
280
     0
102
RTVSPost2010PropOp45
 70
     1
102
RTVSPost2010Prop46
 90
       50
102
RTVSPost2010PropOp46
 70
     1
102
RTVSPost2010Prop47
 90
       50
102
RTVSPost2010PropOp47
 70
     1
102
RTVSPost2010Prop48
 90
       50
102
RTVSPost2010PropOp48
 70
     1
102
RTVSPost2010Prop49
280
     0
102
RTVSPost2010PropOp49
 70
     1
102
RTVSPost2010Prop50
 90
       50
102
RTVSPost2010PropOp50
 70
     1
102
RTVSPost2010Prop51ColorIndex
 90
      256
102
RTVSPost2010Prop51ColorRGB
 90
-16777216
102
RTVSPost2010PropOp51
 70
     0
102
RTVSPost2010Prop52
140
1.0
102
RTVSPost2010PropOp52
 70
     0
102
RTVSPost2010Prop53
 90
        2
102
RTVSPost2010PropOp53
 70
     1
102
RTVSPost2010Prop54
  1
strokes_ogs.tif
102
RTVSPost2010PropOp54
 70
     1
102
RTVSPost2010Prop55
280
     0
102
RTVSPost2010PropOp55
 70
     1
102
RTVSPost2010Prop56
140
1.0
102
RTVSPost2010PropOp56
 70
     1
102
RTVSPost2010Prop57
140
1.0
102
RTVSPost2010PropOp57
 70
     1
102
RTVSPropertyOp0
 70
     1
102
RTVSPropertyOp1
 70
     1
102
RTVSPropertyOp2
 70
     1
102
RTVSPropertyOp3
 70
     1
102
RTVSPropertyOp4
 70
     1
102
RTVSPropertyOp5
 70
     1
102
RTVSPropertyOp6
 70
     1
102
RTVSPropertyOp7
 70
     1
102
RTVSPropertyOp8
 70
     1
102
RTVSPropertyOp9
 70
     1
102
RTVSPropertyOp10
 70
     1
102
RTVSPropertyOp11
 70
     1
102
RTVSPropertyOp12
 70
     1
102
RTVSPropertyOp13
 70
     1
102
RTVSPropertyOp14
 70
     1
102
RTVSPropertyOp15
 70
     1
102
RTVSPropertyOp16
 70
     1
102
RTVSPropertyOp17
 70
     1
102
RTVSPropertyOp18
 70
     1
102
RTVSPropertyOp19
 70
     1
102
RTVSPropertyOp20
 70
     1
102
RTVSPropertyOp21
 70
     1
102
RTVSPropertyOp22
 70
     1
102
RTVSPropertyOp23
 70
     1
102
RTVSPropertyOp24
 70
     1
102
RTVSPropertyOp25
 70
     1
102
RTVSPropertyOp26
 70
     1
102
RTVSPropertyOp27
 70
     1
102
RTVSPropertyOp28
 70
     1
102
RTVSPropertyOp29
 70
     1
102
RTVSPropertyOp30
 70
     1
102
RTVSPropertyOp31
 70
     1
102
RTVSPropertyOp32
 70
     1
102
RTVSPropertyOp33
 70
     1
102
RTVSPropertyOp34
 70
     1
102
RTVSPropertyOp35
 70
     1
102
RTVSPropertyOp36
 70
     1
102
RTVSPropertyOp37
 70
     1
102
RTVSPropertyOp38
 70
     1
102
RTVSPropertyOp39
 70
     1
102
RTVSPropertyOp40
 70
     1
102
RTVSPropertyOp41
 70
     1
102
RTVSPropertyOp42
 70
     1
102
RTVSPropertyOp43
 70
     1
102
RTVSPropertyOp44
 70
     1
102
RTVSPropertyOp45
 70
     1
102
RTVSPropertyOp46
 70
     1
102
RTVSPropertyOp47
 70
     1
102
RTVSPropertyOp48
 70
     1
102
RTVSPropertyOp49
 70
     1
102
RTVSPropertyOp50
 70
     1
102
RTVSPropertyOp51
 70
     0
102
RTVSPropertyOp52
 70
     0
102
RTVSPropertyOp53
 70
     1
102
RTVSPropertyOp54
 70
     1
102
RTVSPropertyOp55
 70
     1
102
RTVSPropertyOp56
 70
     1
102
RTVSPropertyOp57
 70
     1
102
RTVSPropertyOp58
 70
     1
102
RTVSPropertyOp59
 70
     1
102
RTVSPropertyOp60
 70
     1
102
RTVSPropertyOp61
 70
     1
102
RTVSPropertyOp62
 70
     1
  0
XRECORD
  5
F535
102
{ACAD_REACTORS
330
F534
102
}
330
F534
100
AcDbXrecord
280
     1
102
RTVSPost2010Prop28
280
     0
102
RTVSPost2010PropOp28
 70
     1
102
RTVSPost2010Prop29
280
     1
102
RTVSPost2010PropOp29
 70
     1
102
RTVSPost2010Prop30
280
     1
102
RTVSPost2010PropOp30
 70
     1
102
RTVSPost2010Prop31
280
     0
102
RTVSPost2010PropOp31
 70
     1
102
RTVSPost2010Prop32
280
     0
102
RTVSPost2010PropOp32
 70
     1
102
RTVSPost2010Prop33
280
     0
102
RTVSPost2010PropOp33
 70
     1
102
RTVSPost2010Prop34
280
     0
102
RTVSPost2010PropOp34
 70
     1
102
RTVSPost2010Prop35
280
     0
102
RTVSPost2010PropOp35
 70
     1
102
RTVSPost2010Prop36
280
     0
102
RTVSPost2010PropOp36
 70
     1
102
RTVSPost2010Prop37
 90
       50
102
RTVSPost2010PropOp37
 70
     1
102
RTVSPost2010Prop38
140
0.0
102
RTVSPost2010PropOp38
 70
     1
102
RTVSPost2010Prop39
140
1.0
102
RTVSPost2010PropOp39
 70
     1
102
RTVSPost2010Prop40
 90
        0
102
RTVSPost2010PropOp40
 70
     1
102
RTVSPost2010Prop41ColorIndex
 90
       18
102
RTVSPost2010Prop41ColorRGB
 90
        0
102
RTVSPost2010PropOp41
 70
     1
102
RTVSPost2010Prop42
 90
       50
102
RTVSPost2010PropOp42
 70
     1
102
RTVSPost2010Prop43
 90
        3
102
RTVSPost2010PropOp43
 70
     1
102
RTVSPost2010Prop44ColorIndex
 90
        5
102
RTVSPost2010Prop44ColorRGB
 90
      255
102
RTVSPost2010PropOp44
 70
     1
102
RTVSPost2010Prop45
280
     0
102
RTVSPost2010PropOp45
 70
     1
102
RTVSPost2010Prop46
 90
       50
102
RTVSPost2010PropOp46
 70
     1
102
RTVSPost2010Prop47
 90
       50
102
RTVSPost2010PropOp47
 70
     1
102
RTVSPost2010Prop48
 90
       50
102
RTVSPost2010PropOp48
 70
     1
102
RTVSPost2010Prop49
280
     0
102
RTVSPost2010PropOp49
 70
     1
102
RTVSPost2010Prop50
 90
       50
102
RTVSPost2010PropOp50
 70
     1
102
RTVSPost2010Prop51ColorIndex
 90
      256
102
RTVSPost2010Prop51ColorRGB
 90
-16777216
102
RTVSPost2010PropOp51
 70
     0
102
RTVSPost2010Prop52
140
1.0
102
RTVSPost2010PropOp52
 70
     0
102
RTVSPost2010Prop53
 90
        2
102
RTVSPost2010PropOp53
 70
     1
102
RTVSPost2010Prop54
  1
strokes_ogs.tif
102
RTVSPost2010PropOp54
 70
     1
102
RTVSPost2010Prop55
280
     0
102
RTVSPost2010PropOp55
 70
     1
102
RTVSPost2010Prop56
140
1.0
102
RTVSPost2010PropOp56
 70
     1
102
RTVSPost2010Prop57
140
1.0
102
RTVSPost2010PropOp57
 70
     1
102
RTVSPropertyOp0
 70
     1
102
RTVSPropertyOp1
 70
     1
102
RTVSPropertyOp2
 70
     1
102
RTVSPropertyOp3
 70
     1
102
RTVSPropertyOp4
 70
     1
102
RTVSPropertyOp5
 70
     1
102
RTVSPropertyOp6
 70
     1
102
RTVSPropertyOp7
 70
     1
102
RTVSPropertyOp8
 70
     1
102
RTVSPropertyOp9
 70
     1
102
RTVSPropertyOp10
 70
     1
102
RTVSPropertyOp11
 70
     1
102
RTVSPropertyOp12
 70
     1
102
RTVSPropertyOp13
 70
     1
102
RTVSPropertyOp14
 70
     1
102
RTVSPropertyOp15
 70
     1
102
RTVSPropertyOp16
 70
     1
102
RTVSPropertyOp17
 70
     1
102
RTVSPropertyOp18
 70
     1
102
RTVSPropertyOp19
 70
     1
102
RTVSPropertyOp20
 70
     1
102
RTVSPropertyOp21
 70
     1
102
RTVSPropertyOp22
 70
     1
102
RTVSPropertyOp23
 70
     1
102
RTVSPropertyOp24
 70
     1
102
RTVSPropertyOp25
 70
     1
102
RTVSPropertyOp26
 70
     1
102
RTVSPropertyOp27
 70
     1
102
RTVSPropertyOp28
 70
     1
102
RTVSPropertyOp29
 70
     1
102
RTVSPropertyOp30
 70
     1
102
RTVSPropertyOp31
 70
     1
102
RTVSPropertyOp32
 70
     1
102
RTVSPropertyOp33
 70
     1
102
RTVSPropertyOp34
 70
     1
102
RTVSPropertyOp35
 70
     1
102
RTVSPropertyOp36
 70
     1
102
RTVSPropertyOp37
 70
     1
102
RTVSPropertyOp38
 70
     1
102
RTVSPropertyOp39
 70
     1
102
RTVSPropertyOp40
 70
     1
102
RTVSPropertyOp41
 70
     1
102
RTVSPropertyOp42
 70
     1
102
RTVSPropertyOp43
 70
     1
102
RTVSPropertyOp44
 70
     1
102
RTVSPropertyOp45
 70
     1
102
RTVSPropertyOp46
 70
     1
102
RTVSPropertyOp47
 70
     1
102
RTVSPropertyOp48
 70
     1
102
RTVSPropertyOp49
 70
     1
102
RTVSPropertyOp50
 70
     1
102
RTVSPropertyOp51
 70
     0
102
RTVSPropertyOp52
 70
     0
102
RTVSPropertyOp53
 70
     1
102
RTVSPropertyOp54
 70
     1
102
RTVSPropertyOp55
 70
     1
102
RTVSPropertyOp56
 70
     1
102
RTVSPropertyOp57
 70
     1
102
RTVSPropertyOp58
 70
     1
102
RTVSPropertyOp59
 70
     1
102
RTVSPropertyOp60
 70
     1
102
RTVSPropertyOp61
 70
     1
102
RTVSPropertyOp62
 70
     1
  0
XRECORD
  5
F537
102
{ACAD_REACTORS
330
F536
102
}
330
F536
100
AcDbXrecord
280
     1
102
RTVSPost2010Prop28
280
     0
102
RTVSPost2010PropOp28
 70
     1
102
RTVSPost2010Prop29
280
     1
102
RTVSPost2010PropOp29
 70
     1
102
RTVSPost2010Prop30
280
     1
102
RTVSPost2010PropOp30
 70
     1
102
RTVSPost2010Prop31
280
     0
102
RTVSPost2010PropOp31
 70
     1
102
RTVSPost2010Prop32
280
     0
102
RTVSPost2010PropOp32
 70
     1
102
RTVSPost2010Prop33
280
     0
102
RTVSPost2010PropOp33
 70
     1
102
RTVSPost2010Prop34
280
     0
102
RTVSPost2010PropOp34
 70
     1
102
RTVSPost2010Prop35
280
     0
102
RTVSPost2010PropOp35
 70
     1
102
RTVSPost2010Prop36
280
     0
102
RTVSPost2010PropOp36
 70
     1
102
RTVSPost2010Prop37
 90
       50
102
RTVSPost2010PropOp37
 70
     1
102
RTVSPost2010Prop38
140
0.0
102
RTVSPost2010PropOp38
 70
     1
102
RTVSPost2010Prop39
140
1.0
102
RTVSPost2010PropOp39
 70
     1
102
RTVSPost2010Prop40
 90
        0
102
RTVSPost2010PropOp40
 70
     1
102
RTVSPost2010Prop41ColorIndex
 90
       18
102
RTVSPost2010Prop41ColorRGB
 90
        0
102
RTVSPost2010PropOp41
 70
     1
102
RTVSPost2010Prop42
 90
       50
102
RTVSPost2010PropOp42
 70
     1
102
RTVSPost2010Prop43
 90
        3
102
RTVSPost2010PropOp43
 70
     1
102
RTVSPost2010Prop44ColorIndex
 90
        5
102
RTVSPost2010Prop44ColorRGB
 90
      255
102
RTVSPost2010PropOp44
 70
     1
102
RTVSPost2010Prop45
280
     0
102
RTVSPost2010PropOp45
 70
     1
102
RTVSPost2010Prop46
 90
       50
102
RTVSPost2010PropOp46
 70
     1
102
RTVSPost2010Prop47
 90
       50
102
RTVSPost2010PropOp47
 70
     1
102
RTVSPost2010Prop48
 90
       50
102
RTVSPost2010PropOp48
 70
     1
102
RTVSPost2010Prop49
280
     0
102
RTVSPost2010PropOp49
 70
     1
102
RTVSPost2010Prop50
 90
       50
102
RTVSPost2010PropOp50
 70
     1
102
RTVSPost2010Prop51ColorIndex
 90
      256
102
RTVSPost2010Prop51ColorRGB
 90
-16777216
102
RTVSPost2010PropOp51
 70
     0
102
RTVSPost2010Prop52
140
1.0
102
RTVSPost2010PropOp52
 70
     0
102
RTVSPost2010Prop53
 90
        2
102
RTVSPost2010PropOp53
 70
     1
102
RTVSPost2010Prop54
  1
strokes_ogs.tif
102
RTVSPost2010PropOp54
 70
     1
102
RTVSPost2010Prop55
280
     0
102
RTVSPost2010PropOp55
 70
     1
102
RTVSPost2010Prop56
140
1.0
102
RTVSPost2010PropOp56
 70
     1
102
RTVSPost2010Prop57
140
1.0
102
RTVSPost2010PropOp57
 70
     1
102
RTVSPropertyOp0
 70
     1
102
RTVSPropertyOp1
 70
     1
102
RTVSPropertyOp2
 70
     1
102
RTVSPropertyOp3
 70
     1
102
RTVSPropertyOp4
 70
     1
102
RTVSPropertyOp5
 70
     1
102
RTVSPropertyOp6
 70
     1
102
RTVSPropertyOp7
 70
     1
102
RTVSPropertyOp8
 70
     1
102
RTVSPropertyOp9
 70
     1
102
RTVSPropertyOp10
 70
     1
102
RTVSPropertyOp11
 70
     1
102
RTVSPropertyOp12
 70
     1
102
RTVSPropertyOp13
 70
     1
102
RTVSPropertyOp14
 70
     1
102
RTVSPropertyOp15
 70
     1
102
RTVSPropertyOp16
 70
     1
102
RTVSPropertyOp17
 70
     1
102
RTVSPropertyOp18
 70
     1
102
RTVSPropertyOp19
 70
     1
102
RTVSPropertyOp20
 70
     1
102
RTVSPropertyOp21
 70
     1
102
RTVSPropertyOp22
 70
     1
102
RTVSPropertyOp23
 70
     1
102
RTVSPropertyOp24
 70
     1
102
RTVSPropertyOp25
 70
     1
102
RTVSPropertyOp26
 70
     1
102
RTVSPropertyOp27
 70
     1
102
RTVSPropertyOp28
 70
     1
102
RTVSPropertyOp29
 70
     1
102
RTVSPropertyOp30
 70
     1
102
RTVSPropertyOp31
 70
     1
102
RTVSPropertyOp32
 70
     1
102
RTVSPropertyOp33
 70
     1
102
RTVSPropertyOp34
 70
     1
102
RTVSPropertyOp35
 70
     1
102
RTVSPropertyOp36
 70
     1
102
RTVSPropertyOp37
 70
     1
102
RTVSPropertyOp38
 70
     1
102
RTVSPropertyOp39
 70
     1
102
RTVSPropertyOp40
 70
     1
102
RTVSPropertyOp41
 70
     1
102
RTVSPropertyOp42
 70
     1
102
RTVSPropertyOp43
 70
     1
102
RTVSPropertyOp44
 70
     1
102
RTVSPropertyOp45
 70
     1
102
RTVSPropertyOp46
 70
     1
102
RTVSPropertyOp47
 70
     1
102
RTVSPropertyOp48
 70
     1
102
RTVSPropertyOp49
 70
     1
102
RTVSPropertyOp50
 70
     1
102
RTVSPropertyOp51
 70
     0
102
RTVSPropertyOp52
 70
     0
102
RTVSPropertyOp53
 70
     1
102
RTVSPropertyOp54
 70
     1
102
RTVSPropertyOp55
 70
     1
102
RTVSPropertyOp56
 70
     1
102
RTVSPropertyOp57
 70
     1
102
RTVSPropertyOp58
 70
     1
102
RTVSPropertyOp59
 70
     1
102
RTVSPropertyOp60
 70
     1
102
RTVSPropertyOp61
 70
     1
102
RTVSPropertyOp62
 70
     1
  0
XRECORD
  5
F539
102
{ACAD_REACTORS
330
F538
102
}
330
F538
100
AcDbXrecord
280
     1
102
RTVSPost2010Prop28
280
     0
102
RTVSPost2010PropOp28
 70
     1
102
RTVSPost2010Prop29
280
     1
102
RTVSPost2010PropOp29
 70
     1
102
RTVSPost2010Prop30
280
     1
102
RTVSPost2010PropOp30
 70
     1
102
RTVSPost2010Prop31
280
     0
102
RTVSPost2010PropOp31
 70
     1
102
RTVSPost2010Prop32
280
     0
102
RTVSPost2010PropOp32
 70
     1
102
RTVSPost2010Prop33
280
     0
102
RTVSPost2010PropOp33
 70
     1
102
RTVSPost2010Prop34
280
     0
102
RTVSPost2010PropOp34
 70
     1
102
RTVSPost2010Prop35
280
     0
102
RTVSPost2010PropOp35
 70
     1
102
RTVSPost2010Prop36
280
     0
102
RTVSPost2010PropOp36
 70
     1
102
RTVSPost2010Prop37
 90
       50
102
RTVSPost2010PropOp37
 70
     1
102
RTVSPost2010Prop38
140
0.0
102
RTVSPost2010PropOp38
 70
     1
102
RTVSPost2010Prop39
140
1.0
102
RTVSPost2010PropOp39
 70
     1
102
RTVSPost2010Prop40
 90
        0
102
RTVSPost2010PropOp40
 70
     1
102
RTVSPost2010Prop41ColorIndex
 90
       18
102
RTVSPost2010Prop41ColorRGB
 90
        0
102
RTVSPost2010PropOp41
 70
     1
102
RTVSPost2010Prop42
 90
       50
102
RTVSPost2010PropOp42
 70
     1
102
RTVSPost2010Prop43
 90
        3
102
RTVSPost2010PropOp43
 70
     1
102
RTVSPost2010Prop44ColorIndex
 90
        5
102
RTVSPost2010Prop44ColorRGB
 90
      255
102
RTVSPost2010PropOp44
 70
     1
102
RTVSPost2010Prop45
280
     0
102
RTVSPost2010PropOp45
 70
     1
102
RTVSPost2010Prop46
 90
       50
102
RTVSPost2010PropOp46
 70
     1
102
RTVSPost2010Prop47
 90
       50
102
RTVSPost2010PropOp47
 70
     1
102
RTVSPost2010Prop48
 90
       50
102
RTVSPost2010PropOp48
 70
     1
102
RTVSPost2010Prop49
280
     0
102
RTVSPost2010PropOp49
 70
     1
102
RTVSPost2010Prop50
 90
       50
102
RTVSPost2010PropOp50
 70
     1
102
RTVSPost2010Prop51ColorIndex
 90
      256
102
RTVSPost2010Prop51ColorRGB
 90
-16777216
102
RTVSPost2010PropOp51
 70
     0
102
RTVSPost2010Prop52
140
1.0
102
RTVSPost2010PropOp52
 70
     0
102
RTVSPost2010Prop53
 90
        2
102
RTVSPost2010PropOp53
 70
     1
102
RTVSPost2010Prop54
  1
strokes_ogs.tif
102
RTVSPost2010PropOp54
 70
     1
102
RTVSPost2010Prop55
280
     0
102
RTVSPost2010PropOp55
 70
     1
102
RTVSPost2010Prop56
140
1.0
102
RTVSPost2010PropOp56
 70
     1
102
RTVSPost2010Prop57
140
1.0
102
RTVSPost2010PropOp57
 70
     1
102
RTVSPropertyOp0
 70
     1
102
RTVSPropertyOp1
 70
     1
102
RTVSPropertyOp2
 70
     1
102
RTVSPropertyOp3
 70
     1
102
RTVSPropertyOp4
 70
     1
102
RTVSPropertyOp5
 70
     1
102
RTVSPropertyOp6
 70
     1
102
RTVSPropertyOp7
 70
     1
102
RTVSPropertyOp8
 70
     1
102
RTVSPropertyOp9
 70
     1
102
RTVSPropertyOp10
 70
     1
102
RTVSPropertyOp11
 70
     1
102
RTVSPropertyOp12
 70
     1
102
RTVSPropertyOp13
 70
     1
102
RTVSPropertyOp14
 70
     1
102
RTVSPropertyOp15
 70
     1
102
RTVSPropertyOp16
 70
     1
102
RTVSPropertyOp17
 70
     1
102
RTVSPropertyOp18
 70
     1
102
RTVSPropertyOp19
 70
     1
102
RTVSPropertyOp20
 70
     1
102
RTVSPropertyOp21
 70
     1
102
RTVSPropertyOp22
 70
     1
102
RTVSPropertyOp23
 70
     1
102
RTVSPropertyOp24
 70
     1
102
RTVSPropertyOp25
 70
     1
102
RTVSPropertyOp26
 70
     1
102
RTVSPropertyOp27
 70
     1
102
RTVSPropertyOp28
 70
     1
102
RTVSPropertyOp29
 70
     1
102
RTVSPropertyOp30
 70
     1
102
RTVSPropertyOp31
 70
     1
102
RTVSPropertyOp32
 70
     1
102
RTVSPropertyOp33
 70
     1
102
RTVSPropertyOp34
 70
     1
102
RTVSPropertyOp35
 70
     1
102
RTVSPropertyOp36
 70
     1
102
RTVSPropertyOp37
 70
     1
102
RTVSPropertyOp38
 70
     1
102
RTVSPropertyOp39
 70
     1
102
RTVSPropertyOp40
 70
     1
102
RTVSPropertyOp41
 70
     1
102
RTVSPropertyOp42
 70
     1
102
RTVSPropertyOp43
 70
     1
102
RTVSPropertyOp44
 70
     1
102
RTVSPropertyOp45
 70
     1
102
RTVSPropertyOp46
 70
     1
102
RTVSPropertyOp47
 70
     1
102
RTVSPropertyOp48
 70
     1
102
RTVSPropertyOp49
 70
     1
102
RTVSPropertyOp50
 70
     1
102
RTVSPropertyOp51
 70
     0
102
RTVSPropertyOp52
 70
     0
102
RTVSPropertyOp53
 70
     1
102
RTVSPropertyOp54
 70
     1
102
RTVSPropertyOp55
 70
     1
102
RTVSPropertyOp56
 70
     1
102
RTVSPropertyOp57
 70
     1
102
RTVSPropertyOp58
 70
     1
102
RTVSPropertyOp59
 70
     1
102
RTVSPropertyOp60
 70
     1
102
RTVSPropertyOp61
 70
     1
102
RTVSPropertyOp62
 70
     1
  0
XRECORD
  5
F541
102
{ACAD_REACTORS
330
F540
102
}
330
F540
100
AcDbXrecord
280
     1
102
RTVSPost2010Prop28
280
     0
102
RTVSPost2010PropOp28
 70
     1
102
RTVSPost2010Prop29
280
     1
102
RTVSPost2010PropOp29
 70
     1
102
RTVSPost2010Prop30
280
     1
102
RTVSPost2010PropOp30
 70
     1
102
RTVSPost2010Prop31
280
     0
102
RTVSPost2010PropOp31
 70
     1
102
RTVSPost2010Prop32
280
     0
102
RTVSPost2010PropOp32
 70
     1
102
RTVSPost2010Prop33
280
     0
102
RTVSPost2010PropOp33
 70
     1
102
RTVSPost2010Prop34
280
     0
102
RTVSPost2010PropOp34
 70
     1
102
RTVSPost2010Prop35
280
     0
102
RTVSPost2010PropOp35
 70
     1
102
RTVSPost2010Prop36
280
     0
102
RTVSPost2010PropOp36
 70
     1
102
RTVSPost2010Prop37
 90
       50
102
RTVSPost2010PropOp37
 70
     1
102
RTVSPost2010Prop38
140
0.0
102
RTVSPost2010PropOp38
 70
     1
102
RTVSPost2010Prop39
140
1.0
102
RTVSPost2010PropOp39
 70
     1
102
RTVSPost2010Prop40
 90
        0
102
RTVSPost2010PropOp40
 70
     1
102
RTVSPost2010Prop41ColorIndex
 90
       18
102
RTVSPost2010Prop41ColorRGB
 90
        0
102
RTVSPost2010PropOp41
 70
     1
102
RTVSPost2010Prop42
 90
       50
102
RTVSPost2010PropOp42
 70
     1
102
RTVSPost2010Prop43
 90
        3
102
RTVSPost2010PropOp43
 70
     1
102
RTVSPost2010Prop44ColorIndex
 90
        5
102
RTVSPost2010Prop44ColorRGB
 90
      255
102
RTVSPost2010PropOp44
 70
     1
102
RTVSPost2010Prop45
280
     0
102
RTVSPost2010PropOp45
 70
     1
102
RTVSPost2010Prop46
 90
       50
102
RTVSPost2010PropOp46
 70
     1
102
RTVSPost2010Prop47
 90
       50
102
RTVSPost2010PropOp47
 70
     1
102
RTVSPost2010Prop48
 90
       50
102
RTVSPost2010PropOp48
 70
     1
102
RTVSPost2010Prop49
280
     0
102
RTVSPost2010PropOp49
 70
     1
102
RTVSPost2010Prop50
 90
       50
102
RTVSPost2010PropOp50
 70
     1
102
RTVSPost2010Prop51ColorIndex
 90
      256
102
RTVSPost2010Prop51ColorRGB
 90
-16777216
102
RTVSPost2010PropOp51
 70
     0
102
RTVSPost2010Prop52
140
1.0
102
RTVSPost2010PropOp52
 70
     0
102
RTVSPost2010Prop53
 90
        2
102
RTVSPost2010PropOp53
 70
     1
102
RTVSPost2010Prop54
  1
strokes_ogs.tif
102
RTVSPost2010PropOp54
 70
     1
102
RTVSPost2010Prop55
280
     0
102
RTVSPost2010PropOp55
 70
     1
102
RTVSPost2010Prop56
140
1.0
102
RTVSPost2010PropOp56
 70
     1
102
RTVSPost2010Prop57
140
1.0
102
RTVSPost2010PropOp57
 70
     1
102
RTVSPropertyOp0
 70
     1
102
RTVSPropertyOp1
 70
     1
102
RTVSPropertyOp2
 70
     1
102
RTVSPropertyOp3
 70
     1
102
RTVSPropertyOp4
 70
     1
102
RTVSPropertyOp5
 70
     1
102
RTVSPropertyOp6
 70
     1
102
RTVSPropertyOp7
 70
     1
102
RTVSPropertyOp8
 70
     1
102
RTVSPropertyOp9
 70
     1
102
RTVSPropertyOp10
 70
     1
102
RTVSPropertyOp11
 70
     1
102
RTVSPropertyOp12
 70
     1
102
RTVSPropertyOp13
 70
     1
102
RTVSPropertyOp14
 70
     1
102
RTVSPropertyOp15
 70
     1
102
RTVSPropertyOp16
 70
     1
102
RTVSPropertyOp17
 70
     1
102
RTVSPropertyOp18
 70
     1
102
RTVSPropertyOp19
 70
     1
102
RTVSPropertyOp20
 70
     1
102
RTVSPropertyOp21
 70
     1
102
RTVSPropertyOp22
 70
     1
102
RTVSPropertyOp23
 70
     1
102
RTVSPropertyOp24
 70
     1
102
RTVSPropertyOp25
 70
     1
102
RTVSPropertyOp26
 70
     1
102
RTVSPropertyOp27
 70
     1
102
RTVSPropertyOp28
 70
     1
102
RTVSPropertyOp29
 70
     1
102
RTVSPropertyOp30
 70
     1
102
RTVSPropertyOp31
 70
     1
102
RTVSPropertyOp32
 70
     1
102
RTVSPropertyOp33
 70
     1
102
RTVSPropertyOp34
 70
     1
102
RTVSPropertyOp35
 70
     1
102
RTVSPropertyOp36
 70
     1
102
RTVSPropertyOp37
 70
     1
102
RTVSPropertyOp38
 70
     1
102
RTVSPropertyOp39
 70
     1
102
RTVSPropertyOp40
 70
     1
102
RTVSPropertyOp41
 70
     1
102
RTVSPropertyOp42
 70
     1
102
RTVSPropertyOp43
 70
     1
102
RTVSPropertyOp44
 70
     1
102
RTVSPropertyOp45
 70
     1
102
RTVSPropertyOp46
 70
     1
102
RTVSPropertyOp47
 70
     1
102
RTVSPropertyOp48
 70
     1
102
RTVSPropertyOp49
 70
     1
102
RTVSPropertyOp50
 70
     1
102
RTVSPropertyOp51
 70
     0
102
RTVSPropertyOp52
 70
     0
102
RTVSPropertyOp53
 70
     1
102
RTVSPropertyOp54
 70
     1
102
RTVSPropertyOp55
 70
     1
102
RTVSPropertyOp56
 70
     1
102
RTVSPropertyOp57
 70
     1
102
RTVSPropertyOp58
 70
     1
102
RTVSPropertyOp59
 70
     1
102
RTVSPropertyOp60
 70
     1
102
RTVSPropertyOp61
 70
     1
102
RTVSPropertyOp62
 70
     1
  0
XRECORD
  5
F55D
102
{ACAD_REACTORS
330
F55C
102
}
330
F55C
100
AcDbXrecord
280
     1
102
RTVSPost2010Prop28
280
     0
102
RTVSPost2010PropOp28
 70
     1
102
RTVSPost2010Prop29
280
     1
102
RTVSPost2010PropOp29
 70
     1
102
RTVSPost2010Prop30
280
     1
102
RTVSPost2010PropOp30
 70
     1
102
RTVSPost2010Prop31
280
     0
102
RTVSPost2010PropOp31
 70
     1
102
RTVSPost2010Prop32
280
     0
102
RTVSPost2010PropOp32
 70
     1
102
RTVSPost2010Prop33
280
     0
102
RTVSPost2010PropOp33
 70
     1
102
RTVSPost2010Prop34
280
     0
102
RTVSPost2010PropOp34
 70
     1
102
RTVSPost2010Prop35
280
     0
102
RTVSPost2010PropOp35
 70
     1
102
RTVSPost2010Prop36
280
     0
102
RTVSPost2010PropOp36
 70
     1
102
RTVSPost2010Prop37
 90
       50
102
RTVSPost2010PropOp37
 70
     0
102
RTVSPost2010Prop38
140
0.0
102
RTVSPost2010PropOp38
 70
     0
102
RTVSPost2010Prop39
140
1.0
102
RTVSPost2010PropOp39
 70
     0
102
RTVSPost2010Prop40
 90
        0
102
RTVSPost2010PropOp40
 70
     0
102
RTVSPost2010Prop41ColorIndex
 90
       18
102
RTVSPost2010Prop41ColorRGB
 90
        0
102
RTVSPost2010PropOp41
 70
     0
102
RTVSPost2010Prop42
 90
       50
102
RTVSPost2010PropOp42
 70
     0
102
RTVSPost2010Prop43
 90
        3
102
RTVSPost2010PropOp43
 70
     0
102
RTVSPost2010Prop44ColorIndex
 90
        5
102
RTVSPost2010Prop44ColorRGB
 90
      255
102
RTVSPost2010PropOp44
 70
     0
102
RTVSPost2010Prop45
280
     0
102
RTVSPost2010PropOp45
 70
     1
102
RTVSPost2010Prop46
 90
       50
102
RTVSPost2010PropOp46
 70
     0
102
RTVSPost2010Prop47
 90
       50
102
RTVSPost2010PropOp47
 70
     0
102
RTVSPost2010Prop48
 90
       50
102
RTVSPost2010PropOp48
 70
     0
102
RTVSPost2010Prop49
280
     0
102
RTVSPost2010PropOp49
 70
     1
102
RTVSPost2010Prop50
 90
       50
102
RTVSPost2010PropOp50
 70
     0
102
RTVSPost2010Prop51ColorIndex
 90
      256
102
RTVSPost2010Prop51ColorRGB
 90
-16777216
102
RTVSPost2010PropOp51
 70
     0
102
RTVSPost2010Prop52
140
1.0
102
RTVSPost2010PropOp52
 70
     0
102
RTVSPost2010Prop53
 90
        2
102
RTVSPost2010PropOp53
 70
     0
102
RTVSPost2010Prop54
  1
strokes_ogs.tif
102
RTVSPost2010PropOp54
 70
     0
102
RTVSPost2010Prop55
280
     0
102
RTVSPost2010PropOp55
 70
     1
102
RTVSPost2010Prop56
140
1.0
102
RTVSPost2010PropOp56
 70
     0
102
RTVSPost2010Prop57
140
1.0
102
RTVSPost2010PropOp57
 70
     0
102
RTVSPropertyOp0
 70
     0
102
RTVSPropertyOp1
 70
     0
102
RTVSPropertyOp2
 70
     0
102
RTVSPropertyOp3
 70
     0
102
RTVSPropertyOp4
 70
     0
102
RTVSPropertyOp5
 70
     0
102
RTVSPropertyOp6
 70
     0
102
RTVSPropertyOp7
 70
     0
102
RTVSPropertyOp8
 70
     0
102
RTVSPropertyOp9
 70
     0
102
RTVSPropertyOp10
 70
     0
102
RTVSPropertyOp11
 70
     0
102
RTVSPropertyOp12
 70
     0
102
RTVSPropertyOp13
 70
     0
102
RTVSPropertyOp14
 70
     2
102
RTVSPropertyOp15
 70
     0
102
RTVSPropertyOp16
 70
     0
102
RTVSPropertyOp17
 70
     0
102
RTVSPropertyOp18
 70
     0
102
RTVSPropertyOp19
 70
     0
102
RTVSPropertyOp20
 70
     0
102
RTVSPropertyOp21
 70
     0
102
RTVSPropertyOp22
 70
     0
102
RTVSPropertyOp23
 70
     0
102
RTVSPropertyOp24
 70
     0
102
RTVSPropertyOp25
 70
     0
102
RTVSPropertyOp26
 70
     0
102
RTVSPropertyOp27
 70
     0
102
RTVSPropertyOp28
 70
     1
102
RTVSPropertyOp29
 70
     1
102
RTVSPropertyOp30
 70
     1
102
RTVSPropertyOp31
 70
     1
102
RTVSPropertyOp32
 70
     1
102
RTVSPropertyOp33
 70
     1
102
RTVSPropertyOp34
 70
     1
102
RTVSPropertyOp35
 70
     1
102
RTVSPropertyOp36
 70
     1
102
RTVSPropertyOp37
 70
     0
102
RTVSPropertyOp38
 70
     0
102
RTVSPropertyOp39
 70
     0
102
RTVSPropertyOp40
 70
     0
102
RTVSPropertyOp41
 70
     0
102
RTVSPropertyOp42
 70
     0
102
RTVSPropertyOp43
 70
     0
102
RTVSPropertyOp44
 70
     0
102
RTVSPropertyOp45
 70
     1
102
RTVSPropertyOp46
 70
     0
102
RTVSPropertyOp47
 70
     0
102
RTVSPropertyOp48
 70
     0
102
RTVSPropertyOp49
 70
     1
102
RTVSPropertyOp50
 70
     0
102
RTVSPropertyOp51
 70
     0
102
RTVSPropertyOp52
 70
     0
102
RTVSPropertyOp53
 70
     0
102
RTVSPropertyOp54
 70
     0
102
RTVSPropertyOp55
 70
     1
102
RTVSPropertyOp56
 70
     0
102
RTVSPropertyOp57
 70
     0
102
RTVSPropertyOp58
 70
     0
102
RTVSPropertyOp59
 70
     0
102
RTVSPropertyOp60
 70
     0
102
RTVSPropertyOp61
 70
     0
102
RTVSPropertyOp62
 70
     0
  0
XRECORD
  5
F54D
102
{ACAD_REACTORS
330
F54C
102
}
330
F54C
100
AcDbXrecord
280
     1
102
RTVSPost2010Prop28
280
     0
102
RTVSPost2010PropOp28
 70
     1
102
RTVSPost2010Prop29
280
     1
102
RTVSPost2010PropOp29
 70
     1
102
RTVSPost2010Prop30
280
     1
102
RTVSPost2010PropOp30
 70
     1
102
RTVSPost2010Prop31
280
     0
102
RTVSPost2010PropOp31
 70
     1
102
RTVSPost2010Prop32
280
     0
102
RTVSPost2010PropOp32
 70
     1
102
RTVSPost2010Prop33
280
     0
102
RTVSPost2010PropOp33
 70
     1
102
RTVSPost2010Prop34
280
     0
102
RTVSPost2010PropOp34
 70
     1
102
RTVSPost2010Prop35
280
     0
102
RTVSPost2010PropOp35
 70
     1
102
RTVSPost2010Prop36
280
     0
102
RTVSPost2010PropOp36
 70
     1
102
RTVSPost2010Prop37
 90
       50
102
RTVSPost2010PropOp37
 70
     1
102
RTVSPost2010Prop38
140
0.0
102
RTVSPost2010PropOp38
 70
     1
102
RTVSPost2010Prop39
140
1.0
102
RTVSPost2010PropOp39
 70
     1
102
RTVSPost2010Prop40
 90
        0
102
RTVSPost2010PropOp40
 70
     1
102
RTVSPost2010Prop41ColorIndex
 90
       18
102
RTVSPost2010Prop41ColorRGB
 90
        0
102
RTVSPost2010PropOp41
 70
     1
102
RTVSPost2010Prop42
 90
       50
102
RTVSPost2010PropOp42
 70
     1
102
RTVSPost2010Prop43
 90
        3
102
RTVSPost2010PropOp43
 70
     1
102
RTVSPost2010Prop44ColorIndex
 90
        5
102
RTVSPost2010Prop44ColorRGB
 90
      255
102
RTVSPost2010PropOp44
 70
     1
102
RTVSPost2010Prop45
280
     0
102
RTVSPost2010PropOp45
 70
     1
102
RTVSPost2010Prop46
 90
       50
102
RTVSPost2010PropOp46
 70
     1
102
RTVSPost2010Prop47
 90
       50
102
RTVSPost2010PropOp47
 70
     1
102
RTVSPost2010Prop48
 90
       50
102
RTVSPost2010PropOp48
 70
     1
102
RTVSPost2010Prop49
280
     0
102
RTVSPost2010PropOp49
 70
     1
102
RTVSPost2010Prop50
 90
       50
102
RTVSPost2010PropOp50
 70
     1
102
RTVSPost2010Prop51ColorIndex
 90
      256
102
RTVSPost2010Prop51ColorRGB
 90
-16777216
102
RTVSPost2010PropOp51
 70
     0
102
RTVSPost2010Prop52
140
1.0
102
RTVSPost2010PropOp52
 70
     0
102
RTVSPost2010Prop53
 90
        2
102
RTVSPost2010PropOp53
 70
     1
102
RTVSPost2010Prop54
  1
strokes_ogs.tif
102
RTVSPost2010PropOp54
 70
     1
102
RTVSPost2010Prop55
280
     0
102
RTVSPost2010PropOp55
 70
     1
102
RTVSPost2010Prop56
140
1.0
102
RTVSPost2010PropOp56
 70
     1
102
RTVSPost2010Prop57
140
1.0
102
RTVSPost2010PropOp57
 70
     1
102
RTVSPropertyOp0
 70
     1
102
RTVSPropertyOp1
 70
     1
102
RTVSPropertyOp2
 70
     1
102
RTVSPropertyOp3
 70
     1
102
RTVSPropertyOp4
 70
     1
102
RTVSPropertyOp5
 70
     1
102
RTVSPropertyOp6
 70
     1
102
RTVSPropertyOp7
 70
     1
102
RTVSPropertyOp8
 70
     1
102
RTVSPropertyOp9
 70
     1
102
RTVSPropertyOp10
 70
     1
102
RTVSPropertyOp11
 70
     1
102
RTVSPropertyOp12
 70
     1
102
RTVSPropertyOp13
 70
     1
102
RTVSPropertyOp14
 70
     1
102
RTVSPropertyOp15
 70
     1
102
RTVSPropertyOp16
 70
     1
102
RTVSPropertyOp17
 70
     1
102
RTVSPropertyOp18
 70
     1
102
RTVSPropertyOp19
 70
     1
102
RTVSPropertyOp20
 70
     1
102
RTVSPropertyOp21
 70
     1
102
RTVSPropertyOp22
 70
     1
102
RTVSPropertyOp23
 70
     1
102
RTVSPropertyOp24
 70
     1
102
RTVSPropertyOp25
 70
     1
102
RTVSPropertyOp26
 70
     1
102
RTVSPropertyOp27
 70
     1
102
RTVSPropertyOp28
 70
     1
102
RTVSPropertyOp29
 70
     1
102
RTVSPropertyOp30
 70
     1
102
RTVSPropertyOp31
 70
     1
102
RTVSPropertyOp32
 70
     1
102
RTVSPropertyOp33
 70
     1
102
RTVSPropertyOp34
 70
     1
102
RTVSPropertyOp35
 70
     1
102
RTVSPropertyOp36
 70
     1
102
RTVSPropertyOp37
 70
     1
102
RTVSPropertyOp38
 70
     1
102
RTVSPropertyOp39
 70
     1
102
RTVSPropertyOp40
 70
     1
102
RTVSPropertyOp41
 70
     1
102
RTVSPropertyOp42
 70
     1
102
RTVSPropertyOp43
 70
     1
102
RTVSPropertyOp44
 70
     1
102
RTVSPropertyOp45
 70
     1
102
RTVSPropertyOp46
 70
     1
102
RTVSPropertyOp47
 70
     1
102
RTVSPropertyOp48
 70
     1
102
RTVSPropertyOp49
 70
     1
102
RTVSPropertyOp50
 70
     1
102
RTVSPropertyOp51
 70
     0
102
RTVSPropertyOp52
 70
     0
102
RTVSPropertyOp53
 70
     1
102
RTVSPropertyOp54
 70
     1
102
RTVSPropertyOp55
 70
     1
102
RTVSPropertyOp56
 70
     1
102
RTVSPropertyOp57
 70
     1
102
RTVSPropertyOp58
 70
     1
102
RTVSPropertyOp59
 70
     1
102
RTVSPropertyOp60
 70
     1
102
RTVSPropertyOp61
 70
     1
102
RTVSPropertyOp62
 70
     1
  0
XRECORD
  5
F55F
102
{ACAD_REACTORS
330
F55E
102
}
330
F55E
100
AcDbXrecord
280
     1
102
RTVSPost2010Prop28
280
     0
102
RTVSPost2010PropOp28
 70
     1
102
RTVSPost2010Prop29
280
     1
102
RTVSPost2010PropOp29
 70
     1
102
RTVSPost2010Prop30
280
     1
102
RTVSPost2010PropOp30
 70
     1
102
RTVSPost2010Prop31
280
     0
102
RTVSPost2010PropOp31
 70
     1
102
RTVSPost2010Prop32
280
     0
102
RTVSPost2010PropOp32
 70
     1
102
RTVSPost2010Prop33
280
     0
102
RTVSPost2010PropOp33
 70
     1
102
RTVSPost2010Prop34
280
     0
102
RTVSPost2010PropOp34
 70
     1
102
RTVSPost2010Prop35
280
     0
102
RTVSPost2010PropOp35
 70
     1
102
RTVSPost2010Prop36
280
     0
102
RTVSPost2010PropOp36
 70
     1
102
RTVSPost2010Prop37
 90
       50
102
RTVSPost2010PropOp37
 70
     0
102
RTVSPost2010Prop38
140
0.0
102
RTVSPost2010PropOp38
 70
     0
102
RTVSPost2010Prop39
140
1.0
102
RTVSPost2010PropOp39
 70
     0
102
RTVSPost2010Prop40
 90
        0
102
RTVSPost2010PropOp40
 70
     0
102
RTVSPost2010Prop41ColorIndex
 90
       18
102
RTVSPost2010Prop41ColorRGB
 90
        0
102
RTVSPost2010PropOp41
 70
     0
102
RTVSPost2010Prop42
 90
       50
102
RTVSPost2010PropOp42
 70
     0
102
RTVSPost2010Prop43
 90
        3
102
RTVSPost2010PropOp43
 70
     0
102
RTVSPost2010Prop44ColorIndex
 90
        5
102
RTVSPost2010Prop44ColorRGB
 90
      255
102
RTVSPost2010PropOp44
 70
     0
102
RTVSPost2010Prop45
280
     0
102
RTVSPost2010PropOp45
 70
     1
102
RTVSPost2010Prop46
 90
       50
102
RTVSPost2010PropOp46
 70
     0
102
RTVSPost2010Prop47
 90
       50
102
RTVSPost2010PropOp47
 70
     0
102
RTVSPost2010Prop48
 90
       50
102
RTVSPost2010PropOp48
 70
     0
102
RTVSPost2010Prop49
280
     0
102
RTVSPost2010PropOp49
 70
     1
102
RTVSPost2010Prop50
 90
       50
102
RTVSPost2010PropOp50
 70
     0
102
RTVSPost2010Prop51ColorIndex
 90
      256
102
RTVSPost2010Prop51ColorRGB
 90
-16777216
102
RTVSPost2010PropOp51
 70
     0
102
RTVSPost2010Prop52
140
1.0
102
RTVSPost2010PropOp52
 70
     0
102
RTVSPost2010Prop53
 90
        2
102
RTVSPost2010PropOp53
 70
     0
102
RTVSPost2010Prop54
  1
strokes_ogs.tif
102
RTVSPost2010PropOp54
 70
     0
102
RTVSPost2010Prop55
280
     0
102
RTVSPost2010PropOp55
 70
     1
102
RTVSPost2010Prop56
140
1.0
102
RTVSPost2010PropOp56
 70
     0
102
RTVSPost2010Prop57
140
1.0
102
RTVSPost2010PropOp57
 70
     0
102
RTVSPropertyOp0
 70
     0
102
RTVSPropertyOp1
 70
     0
102
RTVSPropertyOp2
 70
     0
102
RTVSPropertyOp3
 70
     0
102
RTVSPropertyOp4
 70
     0
102
RTVSPropertyOp5
 70
     0
102
RTVSPropertyOp6
 70
     0
102
RTVSPropertyOp7
 70
     0
102
RTVSPropertyOp8
 70
     0
102
RTVSPropertyOp9
 70
     0
102
RTVSPropertyOp10
 70
     0
102
RTVSPropertyOp11
 70
     0
102
RTVSPropertyOp12
 70
     0
102
RTVSPropertyOp13
 70
     0
102
RTVSPropertyOp14
 70
     2
102
RTVSPropertyOp15
 70
     0
102
RTVSPropertyOp16
 70
     0
102
RTVSPropertyOp17
 70
     0
102
RTVSPropertyOp18
 70
     0
102
RTVSPropertyOp19
 70
     0
102
RTVSPropertyOp20
 70
     0
102
RTVSPropertyOp21
 70
     0
102
RTVSPropertyOp22
 70
     0
102
RTVSPropertyOp23
 70
     0
102
RTVSPropertyOp24
 70
     0
102
RTVSPropertyOp25
 70
     0
102
RTVSPropertyOp26
 70
     0
102
RTVSPropertyOp27
 70
     0
102
RTVSPropertyOp28
 70
     1
102
RTVSPropertyOp29
 70
     1
102
RTVSPropertyOp30
 70
     1
102
RTVSPropertyOp31
 70
     1
102
RTVSPropertyOp32
 70
     1
102
RTVSPropertyOp33
 70
     1
102
RTVSPropertyOp34
 70
     1
102
RTVSPropertyOp35
 70
     1
102
RTVSPropertyOp36
 70
     1
102
RTVSPropertyOp37
 70
     0
102
RTVSPropertyOp38
 70
     0
102
RTVSPropertyOp39
 70
     0
102
RTVSPropertyOp40
 70
     0
102
RTVSPropertyOp41
 70
     0
102
RTVSPropertyOp42
 70
     0
102
RTVSPropertyOp43
 70
     0
102
RTVSPropertyOp44
 70
     0
102
RTVSPropertyOp45
 70
     1
102
RTVSPropertyOp46
 70
     0
102
RTVSPropertyOp47
 70
     0
102
RTVSPropertyOp48
 70
     0
102
RTVSPropertyOp49
 70
     1
102
RTVSPropertyOp50
 70
     0
102
RTVSPropertyOp51
 70
     0
102
RTVSPropertyOp52
 70
     0
102
RTVSPropertyOp53
 70
     0
102
RTVSPropertyOp54
 70
     0
102
RTVSPropertyOp55
 70
     1
102
RTVSPropertyOp56
 70
     0
102
RTVSPropertyOp57
 70
     0
102
RTVSPropertyOp58
 70
     0
102
RTVSPropertyOp59
 70
     0
102
RTVSPropertyOp60
 70
     0
102
RTVSPropertyOp61
 70
     0
102
RTVSPropertyOp62
 70
     0
  0
XRECORD
  5
F545
102
{ACAD_REACTORS
330
F544
102
}
330
F544
100
AcDbXrecord
280
     1
102
RTVSPost2010Prop28
280
     0
102
RTVSPost2010PropOp28
 70
     1
102
RTVSPost2010Prop29
280
     1
102
RTVSPost2010PropOp29
 70
     1
102
RTVSPost2010Prop30
280
     1
102
RTVSPost2010PropOp30
 70
     1
102
RTVSPost2010Prop31
280
     0
102
RTVSPost2010PropOp31
 70
     1
102
RTVSPost2010Prop32
280
     0
102
RTVSPost2010PropOp32
 70
     1
102
RTVSPost2010Prop33
280
     0
102
RTVSPost2010PropOp33
 70
     1
102
RTVSPost2010Prop34
280
     0
102
RTVSPost2010PropOp34
 70
     1
102
RTVSPost2010Prop35
280
     0
102
RTVSPost2010PropOp35
 70
     1
102
RTVSPost2010Prop36
280
     0
102
RTVSPost2010PropOp36
 70
     1
102
RTVSPost2010Prop37
 90
       50
102
RTVSPost2010PropOp37
 70
     1
102
RTVSPost2010Prop38
140
0.0
102
RTVSPost2010PropOp38
 70
     1
102
RTVSPost2010Prop39
140
1.0
102
RTVSPost2010PropOp39
 70
     1
102
RTVSPost2010Prop40
 90
        0
102
RTVSPost2010PropOp40
 70
     1
102
RTVSPost2010Prop41ColorIndex
 90
       18
102
RTVSPost2010Prop41ColorRGB
 90
        0
102
RTVSPost2010PropOp41
 70
     1
102
RTVSPost2010Prop42
 90
       50
102
RTVSPost2010PropOp42
 70
     1
102
RTVSPost2010Prop43
 90
        3
102
RTVSPost2010PropOp43
 70
     1
102
RTVSPost2010Prop44ColorIndex
 90
        5
102
RTVSPost2010Prop44ColorRGB
 90
      255
102
RTVSPost2010PropOp44
 70
     1
102
RTVSPost2010Prop45
280
     0
102
RTVSPost2010PropOp45
 70
     1
102
RTVSPost2010Prop46
 90
       50
102
RTVSPost2010PropOp46
 70
     1
102
RTVSPost2010Prop47
 90
       50
102
RTVSPost2010PropOp47
 70
     1
102
RTVSPost2010Prop48
 90
       50
102
RTVSPost2010PropOp48
 70
     1
102
RTVSPost2010Prop49
280
     0
102
RTVSPost2010PropOp49
 70
     1
102
RTVSPost2010Prop50
 90
       50
102
RTVSPost2010PropOp50
 70
     1
102
RTVSPost2010Prop51ColorIndex
 90
      256
102
RTVSPost2010Prop51ColorRGB
 90
-16777216
102
RTVSPost2010PropOp51
 70
     0
102
RTVSPost2010Prop52
140
1.0
102
RTVSPost2010PropOp52
 70
     0
102
RTVSPost2010Prop53
 90
        2
102
RTVSPost2010PropOp53
 70
     1
102
RTVSPost2010Prop54
  1
strokes_ogs.tif
102
RTVSPost2010PropOp54
 70
     1
102
RTVSPost2010Prop55
280
     0
102
RTVSPost2010PropOp55
 70
     1
102
RTVSPost2010Prop56
140
1.0
102
RTVSPost2010PropOp56
 70
     1
102
RTVSPost2010Prop57
140
1.0
102
RTVSPost2010PropOp57
 70
     1
102
RTVSPropertyOp0
 70
     1
102
RTVSPropertyOp1
 70
     1
102
RTVSPropertyOp2
 70
     1
102
RTVSPropertyOp3
 70
     1
102
RTVSPropertyOp4
 70
     1
102
RTVSPropertyOp5
 70
     1
102
RTVSPropertyOp6
 70
     1
102
RTVSPropertyOp7
 70
     1
102
RTVSPropertyOp8
 70
     1
102
RTVSPropertyOp9
 70
     1
102
RTVSPropertyOp10
 70
     1
102
RTVSPropertyOp11
 70
     1
102
RTVSPropertyOp12
 70
     1
102
RTVSPropertyOp13
 70
     1
102
RTVSPropertyOp14
 70
     1
102
RTVSPropertyOp15
 70
     1
102
RTVSPropertyOp16
 70
     1
102
RTVSPropertyOp17
 70
     1
102
RTVSPropertyOp18
 70
     1
102
RTVSPropertyOp19
 70
     1
102
RTVSPropertyOp20
 70
     1
102
RTVSPropertyOp21
 70
     1
102
RTVSPropertyOp22
 70
     1
102
RTVSPropertyOp23
 70
     1
102
RTVSPropertyOp24
 70
     1
102
RTVSPropertyOp25
 70
     1
102
RTVSPropertyOp26
 70
     1
102
RTVSPropertyOp27
 70
     1
102
RTVSPropertyOp28
 70
     1
102
RTVSPropertyOp29
 70
     1
102
RTVSPropertyOp30
 70
     1
102
RTVSPropertyOp31
 70
     1
102
RTVSPropertyOp32
 70
     1
102
RTVSPropertyOp33
 70
     1
102
RTVSPropertyOp34
 70
     1
102
RTVSPropertyOp35
 70
     1
102
RTVSPropertyOp36
 70
     1
102
RTVSPropertyOp37
 70
     1
102
RTVSPropertyOp38
 70
     1
102
RTVSPropertyOp39
 70
     1
102
RTVSPropertyOp40
 70
     1
102
RTVSPropertyOp41
 70
     1
102
RTVSPropertyOp42
 70
     1
102
RTVSPropertyOp43
 70
     1
102
RTVSPropertyOp44
 70
     1
102
RTVSPropertyOp45
 70
     1
102
RTVSPropertyOp46
 70
     1
102
RTVSPropertyOp47
 70
     1
102
RTVSPropertyOp48
 70
     1
102
RTVSPropertyOp49
 70
     1
102
RTVSPropertyOp50
 70
     1
102
RTVSPropertyOp51
 70
     0
102
RTVSPropertyOp52
 70
     0
102
RTVSPropertyOp53
 70
     1
102
RTVSPropertyOp54
 70
     1
102
RTVSPropertyOp55
 70
     1
102
RTVSPropertyOp56
 70
     1
102
RTVSPropertyOp57
 70
     1
102
RTVSPropertyOp58
 70
     1
102
RTVSPropertyOp59
 70
     1
102
RTVSPropertyOp60
 70
     1
102
RTVSPropertyOp61
 70
     1
102
RTVSPropertyOp62
 70
     1
  0
XRECORD
  5
F55B
102
{ACAD_REACTORS
330
F55A
102
}
330
F55A
100
AcDbXrecord
280
     1
102
RTVSPost2010Prop28
280
     0
102
RTVSPost2010PropOp28
 70
     1
102
RTVSPost2010Prop29
280
     1
102
RTVSPost2010PropOp29
 70
     1
102
RTVSPost2010Prop30
280
     1
102
RTVSPost2010PropOp30
 70
     1
102
RTVSPost2010Prop31
280
     0
102
RTVSPost2010PropOp31
 70
     1
102
RTVSPost2010Prop32
280
     0
102
RTVSPost2010PropOp32
 70
     1
102
RTVSPost2010Prop33
280
     0
102
RTVSPost2010PropOp33
 70
     1
102
RTVSPost2010Prop34
280
     0
102
RTVSPost2010PropOp34
 70
     1
102
RTVSPost2010Prop35
280
     0
102
RTVSPost2010PropOp35
 70
     1
102
RTVSPost2010Prop36
280
     0
102
RTVSPost2010PropOp36
 70
     1
102
RTVSPost2010Prop37
 90
       50
102
RTVSPost2010PropOp37
 70
     1
102
RTVSPost2010Prop38
140
0.0
102
RTVSPost2010PropOp38
 70
     1
102
RTVSPost2010Prop39
140
1.0
102
RTVSPost2010PropOp39
 70
     1
102
RTVSPost2010Prop40
 90
        0
102
RTVSPost2010PropOp40
 70
     1
102
RTVSPost2010Prop41ColorIndex
 90
       18
102
RTVSPost2010Prop41ColorRGB
 90
        0
102
RTVSPost2010PropOp41
 70
     1
102
RTVSPost2010Prop42
 90
       50
102
RTVSPost2010PropOp42
 70
     1
102
RTVSPost2010Prop43
 90
        3
102
RTVSPost2010PropOp43
 70
     1
102
RTVSPost2010Prop44ColorIndex
 90
        5
102
RTVSPost2010Prop44ColorRGB
 90
      255
102
RTVSPost2010PropOp44
 70
     1
102
RTVSPost2010Prop45
280
     0
102
RTVSPost2010PropOp45
 70
     1
102
RTVSPost2010Prop46
 90
       50
102
RTVSPost2010PropOp46
 70
     1
102
RTVSPost2010Prop47
 90
       50
102
RTVSPost2010PropOp47
 70
     1
102
RTVSPost2010Prop48
 90
       50
102
RTVSPost2010PropOp48
 70
     1
102
RTVSPost2010Prop49
280
     0
102
RTVSPost2010PropOp49
 70
     1
102
RTVSPost2010Prop50
 90
       50
102
RTVSPost2010PropOp50
 70
     1
102
RTVSPost2010Prop51ColorIndex
 90
      256
102
RTVSPost2010Prop51ColorRGB
 90
-16777216
102
RTVSPost2010PropOp51
 70
     0
102
RTVSPost2010Prop52
140
1.0
102
RTVSPost2010PropOp52
 70
     0
102
RTVSPost2010Prop53
 90
        2
102
RTVSPost2010PropOp53
 70
     1
102
RTVSPost2010Prop54
  1
strokes_ogs.tif
102
RTVSPost2010PropOp54
 70
     1
102
RTVSPost2010Prop55
280
     0
102
RTVSPost2010PropOp55
 70
     1
102
RTVSPost2010Prop56
140
1.0
102
RTVSPost2010PropOp56
 70
     1
102
RTVSPost2010Prop57
140
1.0
102
RTVSPost2010PropOp57
 70
     1
102
RTVSPropertyOp0
 70
     1
102
RTVSPropertyOp1
 70
     1
102
RTVSPropertyOp2
 70
     1
102
RTVSPropertyOp3
 70
     1
102
RTVSPropertyOp4
 70
     1
102
RTVSPropertyOp5
 70
     1
102
RTVSPropertyOp6
 70
     1
102
RTVSPropertyOp7
 70
     1
102
RTVSPropertyOp8
 70
     1
102
RTVSPropertyOp9
 70
     1
102
RTVSPropertyOp10
 70
     1
102
RTVSPropertyOp11
 70
     1
102
RTVSPropertyOp12
 70
     1
102
RTVSPropertyOp13
 70
     1
102
RTVSPropertyOp14
 70
     1
102
RTVSPropertyOp15
 70
     1
102
RTVSPropertyOp16
 70
     1
102
RTVSPropertyOp17
 70
     1
102
RTVSPropertyOp18
 70
     1
102
RTVSPropertyOp19
 70
     1
102
RTVSPropertyOp20
 70
     1
102
RTVSPropertyOp21
 70
     1
102
RTVSPropertyOp22
 70
     1
102
RTVSPropertyOp23
 70
     1
102
RTVSPropertyOp24
 70
     1
102
RTVSPropertyOp25
 70
     1
102
RTVSPropertyOp26
 70
     1
102
RTVSPropertyOp27
 70
     1
102
RTVSPropertyOp28
 70
     1
102
RTVSPropertyOp29
 70
     1
102
RTVSPropertyOp30
 70
     1
102
RTVSPropertyOp31
 70
     1
102
RTVSPropertyOp32
 70
     1
102
RTVSPropertyOp33
 70
     1
102
RTVSPropertyOp34
 70
     1
102
RTVSPropertyOp35
 70
     1
102
RTVSPropertyOp36
 70
     1
102
RTVSPropertyOp37
 70
     1
102
RTVSPropertyOp38
 70
     1
102
RTVSPropertyOp39
 70
     1
102
RTVSPropertyOp40
 70
     1
102
RTVSPropertyOp41
 70
     1
102
RTVSPropertyOp42
 70
     1
102
RTVSPropertyOp43
 70
     1
102
RTVSPropertyOp44
 70
     1
102
RTVSPropertyOp45
 70
     1
102
RTVSPropertyOp46
 70
     1
102
RTVSPropertyOp47
 70
     1
102
RTVSPropertyOp48
 70
     1
102
RTVSPropertyOp49
 70
     1
102
RTVSPropertyOp50
 70
     1
102
RTVSPropertyOp51
 70
     0
102
RTVSPropertyOp52
 70
     0
102
RTVSPropertyOp53
 70
     1
102
RTVSPropertyOp54
 70
     1
102
RTVSPropertyOp55
 70
     1
102
RTVSPropertyOp56
 70
     1
102
RTVSPropertyOp57
 70
     1
102
RTVSPropertyOp58
 70
     1
102
RTVSPropertyOp59
 70
     1
102
RTVSPropertyOp60
 70
     1
102
RTVSPropertyOp61
 70
     1
102
RTVSPropertyOp62
 70
     1
  0
XRECORD
  5
F559
102
{ACAD_REACTORS
330
F558
102
}
330
F558
100
AcDbXrecord
280
     1
102
RTVSPost2010Prop28
280
     0
102
RTVSPost2010PropOp28
 70
     1
102
RTVSPost2010Prop29
280
     1
102
RTVSPost2010PropOp29
 70
     1
102
RTVSPost2010Prop30
280
     1
102
RTVSPost2010PropOp30
 70
     1
102
RTVSPost2010Prop31
280
     0
102
RTVSPost2010PropOp31
 70
     1
102
RTVSPost2010Prop32
280
     0
102
RTVSPost2010PropOp32
 70
     1
102
RTVSPost2010Prop33
280
     0
102
RTVSPost2010PropOp33
 70
     1
102
RTVSPost2010Prop34
280
     0
102
RTVSPost2010PropOp34
 70
     1
102
RTVSPost2010Prop35
280
     0
102
RTVSPost2010PropOp35
 70
     1
102
RTVSPost2010Prop36
280
     0
102
RTVSPost2010PropOp36
 70
     1
102
RTVSPost2010Prop37
 90
       50
102
RTVSPost2010PropOp37
 70
     1
102
RTVSPost2010Prop38
140
0.0
102
RTVSPost2010PropOp38
 70
     1
102
RTVSPost2010Prop39
140
1.0
102
RTVSPost2010PropOp39
 70
     1
102
RTVSPost2010Prop40
 90
        0
102
RTVSPost2010PropOp40
 70
     1
102
RTVSPost2010Prop41ColorIndex
 90
       18
102
RTVSPost2010Prop41ColorRGB
 90
        0
102
RTVSPost2010PropOp41
 70
     1
102
RTVSPost2010Prop42
 90
       50
102
RTVSPost2010PropOp42
 70
     1
102
RTVSPost2010Prop43
 90
        3
102
RTVSPost2010PropOp43
 70
     1
102
RTVSPost2010Prop44ColorIndex
 90
        5
102
RTVSPost2010Prop44ColorRGB
 90
      255
102
RTVSPost2010PropOp44
 70
     1
102
RTVSPost2010Prop45
280
     0
102
RTVSPost2010PropOp45
 70
     1
102
RTVSPost2010Prop46
 90
       50
102
RTVSPost2010PropOp46
 70
     1
102
RTVSPost2010Prop47
 90
       50
102
RTVSPost2010PropOp47
 70
     1
102
RTVSPost2010Prop48
 90
       50
102
RTVSPost2010PropOp48
 70
     1
102
RTVSPost2010Prop49
280
     0
102
RTVSPost2010PropOp49
 70
     1
102
RTVSPost2010Prop50
 90
       50
102
RTVSPost2010PropOp50
 70
     1
102
RTVSPost2010Prop51ColorIndex
 90
      256
102
RTVSPost2010Prop51ColorRGB
 90
-16777216
102
RTVSPost2010PropOp51
 70
     0
102
RTVSPost2010Prop52
140
1.0
102
RTVSPost2010PropOp52
 70
     0
102
RTVSPost2010Prop53
 90
        2
102
RTVSPost2010PropOp53
 70
     1
102
RTVSPost2010Prop54
  1
strokes_ogs.tif
102
RTVSPost2010PropOp54
 70
     1
102
RTVSPost2010Prop55
280
     0
102
RTVSPost2010PropOp55
 70
     1
102
RTVSPost2010Prop56
140
1.0
102
RTVSPost2010PropOp56
 70
     1
102
RTVSPost2010Prop57
140
1.0
102
RTVSPost2010PropOp57
 70
     1
102
RTVSPropertyOp0
 70
     1
102
RTVSPropertyOp1
 70
     1
102
RTVSPropertyOp2
 70
     1
102
RTVSPropertyOp3
 70
     1
102
RTVSPropertyOp4
 70
     1
102
RTVSPropertyOp5
 70
     1
102
RTVSPropertyOp6
 70
     1
102
RTVSPropertyOp7
 70
     1
102
RTVSPropertyOp8
 70
     1
102
RTVSPropertyOp9
 70
     1
102
RTVSPropertyOp10
 70
     1
102
RTVSPropertyOp11
 70
     1
102
RTVSPropertyOp12
 70
     1
102
RTVSPropertyOp13
 70
     1
102
RTVSPropertyOp14
 70
     1
102
RTVSPropertyOp15
 70
     1
102
RTVSPropertyOp16
 70
     1
102
RTVSPropertyOp17
 70
     1
102
RTVSPropertyOp18
 70
     1
102
RTVSPropertyOp19
 70
     1
102
RTVSPropertyOp20
 70
     1
102
RTVSPropertyOp21
 70
     1
102
RTVSPropertyOp22
 70
     1
102
RTVSPropertyOp23
 70
     1
102
RTVSPropertyOp24
 70
     1
102
RTVSPropertyOp25
 70
     1
102
RTVSPropertyOp26
 70
     1
102
RTVSPropertyOp27
 70
     1
102
RTVSPropertyOp28
 70
     1
102
RTVSPropertyOp29
 70
     1
102
RTVSPropertyOp30
 70
     1
102
RTVSPropertyOp31
 70
     1
102
RTVSPropertyOp32
 70
     1
102
RTVSPropertyOp33
 70
     1
102
RTVSPropertyOp34
 70
     1
102
RTVSPropertyOp35
 70
     1
102
RTVSPropertyOp36
 70
     1
102
RTVSPropertyOp37
 70
     1
102
RTVSPropertyOp38
 70
     1
102
RTVSPropertyOp39
 70
     1
102
RTVSPropertyOp40
 70
     1
102
RTVSPropertyOp41
 70
     1
102
RTVSPropertyOp42
 70
     1
102
RTVSPropertyOp43
 70
     1
102
RTVSPropertyOp44
 70
     1
102
RTVSPropertyOp45
 70
     1
102
RTVSPropertyOp46
 70
     1
102
RTVSPropertyOp47
 70
     1
102
RTVSPropertyOp48
 70
     1
102
RTVSPropertyOp49
 70
     1
102
RTVSPropertyOp50
 70
     1
102
RTVSPropertyOp51
 70
     0
102
RTVSPropertyOp52
 70
     0
102
RTVSPropertyOp53
 70
     1
102
RTVSPropertyOp54
 70
     1
102
RTVSPropertyOp55
 70
     1
102
RTVSPropertyOp56
 70
     1
102
RTVSPropertyOp57
 70
     1
102
RTVSPropertyOp58
 70
     1
102
RTVSPropertyOp59
 70
     1
102
RTVSPropertyOp60
 70
     1
102
RTVSPropertyOp61
 70
     1
102
RTVSPropertyOp62
 70
     1
  0
XRECORD
  5
F553
102
{ACAD_REACTORS
330
F552
102
}
330
F552
100
AcDbXrecord
280
     1
102
RTVSPost2010Prop28
280
     0
102
RTVSPost2010PropOp28
 70
     1
102
RTVSPost2010Prop29
280
     1
102
RTVSPost2010PropOp29
 70
     1
102
RTVSPost2010Prop30
280
     1
102
RTVSPost2010PropOp30
 70
     1
102
RTVSPost2010Prop31
280
     0
102
RTVSPost2010PropOp31
 70
     1
102
RTVSPost2010Prop32
280
     0
102
RTVSPost2010PropOp32
 70
     1
102
RTVSPost2010Prop33
280
     0
102
RTVSPost2010PropOp33
 70
     1
102
RTVSPost2010Prop34
280
     0
102
RTVSPost2010PropOp34
 70
     1
102
RTVSPost2010Prop35
280
     0
102
RTVSPost2010PropOp35
 70
     1
102
RTVSPost2010Prop36
280
     0
102
RTVSPost2010PropOp36
 70
     1
102
RTVSPost2010Prop37
 90
       50
102
RTVSPost2010PropOp37
 70
     1
102
RTVSPost2010Prop38
140
0.0
102
RTVSPost2010PropOp38
 70
     1
102
RTVSPost2010Prop39
140
1.0
102
RTVSPost2010PropOp39
 70
     1
102
RTVSPost2010Prop40
 90
        0
102
RTVSPost2010PropOp40
 70
     1
102
RTVSPost2010Prop41ColorIndex
 90
       18
102
RTVSPost2010Prop41ColorRGB
 90
        0
102
RTVSPost2010PropOp41
 70
     1
102
RTVSPost2010Prop42
 90
       50
102
RTVSPost2010PropOp42
 70
     1
102
RTVSPost2010Prop43
 90
        3
102
RTVSPost2010PropOp43
 70
     1
102
RTVSPost2010Prop44ColorIndex
 90
        5
102
RTVSPost2010Prop44ColorRGB
 90
      255
102
RTVSPost2010PropOp44
 70
     1
102
RTVSPost2010Prop45
280
     0
102
RTVSPost2010PropOp45
 70
     1
102
RTVSPost2010Prop46
 90
       50
102
RTVSPost2010PropOp46
 70
     1
102
RTVSPost2010Prop47
 90
       50
102
RTVSPost2010PropOp47
 70
     1
102
RTVSPost2010Prop48
 90
       50
102
RTVSPost2010PropOp48
 70
     1
102
RTVSPost2010Prop49
280
     0
102
RTVSPost2010PropOp49
 70
     1
102
RTVSPost2010Prop50
 90
       50
102
RTVSPost2010PropOp50
 70
     1
102
RTVSPost2010Prop51ColorIndex
 90
      256
102
RTVSPost2010Prop51ColorRGB
 90
-16777216
102
RTVSPost2010PropOp51
 70
     0
102
RTVSPost2010Prop52
140
1.0
102
RTVSPost2010PropOp52
 70
     0
102
RTVSPost2010Prop53
 90
        2
102
RTVSPost2010PropOp53
 70
     1
102
RTVSPost2010Prop54
  1
strokes_ogs.tif
102
RTVSPost2010PropOp54
 70
     1
102
RTVSPost2010Prop55
280
     0
102
RTVSPost2010PropOp55
 70
     1
102
RTVSPost2010Prop56
140
1.0
102
RTVSPost2010PropOp56
 70
     1
102
RTVSPost2010Prop57
140
1.0
102
RTVSPost2010PropOp57
 70
     1
102
RTVSPropertyOp0
 70
     1
102
RTVSPropertyOp1
 70
     1
102
RTVSPropertyOp2
 70
     1
102
RTVSPropertyOp3
 70
     1
102
RTVSPropertyOp4
 70
     1
102
RTVSPropertyOp5
 70
     1
102
RTVSPropertyOp6
 70
     1
102
RTVSPropertyOp7
 70
     1
102
RTVSPropertyOp8
 70
     1
102
RTVSPropertyOp9
 70
     1
102
RTVSPropertyOp10
 70
     1
102
RTVSPropertyOp11
 70
     1
102
RTVSPropertyOp12
 70
     1
102
RTVSPropertyOp13
 70
     1
102
RTVSPropertyOp14
 70
     1
102
RTVSPropertyOp15
 70
     1
102
RTVSPropertyOp16
 70
     1
102
RTVSPropertyOp17
 70
     1
102
RTVSPropertyOp18
 70
     1
102
RTVSPropertyOp19
 70
     1
102
RTVSPropertyOp20
 70
     1
102
RTVSPropertyOp21
 70
     1
102
RTVSPropertyOp22
 70
     1
102
RTVSPropertyOp23
 70
     1
102
RTVSPropertyOp24
 70
     1
102
RTVSPropertyOp25
 70
     1
102
RTVSPropertyOp26
 70
     1
102
RTVSPropertyOp27
 70
     1
102
RTVSPropertyOp28
 70
     1
102
RTVSPropertyOp29
 70
     1
102
RTVSPropertyOp30
 70
     1
102
RTVSPropertyOp31
 70
     1
102
RTVSPropertyOp32
 70
     1
102
RTVSPropertyOp33
 70
     1
102
RTVSPropertyOp34
 70
     1
102
RTVSPropertyOp35
 70
     1
102
RTVSPropertyOp36
 70
     1
102
RTVSPropertyOp37
 70
     1
102
RTVSPropertyOp38
 70
     1
102
RTVSPropertyOp39
 70
     1
102
RTVSPropertyOp40
 70
     1
102
RTVSPropertyOp41
 70
     1
102
RTVSPropertyOp42
 70
     1
102
RTVSPropertyOp43
 70
     1
102
RTVSPropertyOp44
 70
     1
102
RTVSPropertyOp45
 70
     1
102
RTVSPropertyOp46
 70
     1
102
RTVSPropertyOp47
 70
     1
102
RTVSPropertyOp48
 70
     1
102
RTVSPropertyOp49
 70
     1
102
RTVSPropertyOp50
 70
     1
102
RTVSPropertyOp51
 70
     0
102
RTVSPropertyOp52
 70
     0
102
RTVSPropertyOp53
 70
     1
102
RTVSPropertyOp54
 70
     1
102
RTVSPropertyOp55
 70
     1
102
RTVSPropertyOp56
 70
     1
102
RTVSPropertyOp57
 70
     1
102
RTVSPropertyOp58
 70
     1
102
RTVSPropertyOp59
 70
     1
102
RTVSPropertyOp60
 70
     1
102
RTVSPropertyOp61
 70
     1
102
RTVSPropertyOp62
 70
     1
  0
XRECORD
  5
F555
102
{ACAD_REACTORS
330
F554
102
}
330
F554
100
AcDbXrecord
280
     1
102
RTVSPost2010Prop28
280
     0
102
RTVSPost2010PropOp28
 70
     1
102
RTVSPost2010Prop29
280
     1
102
RTVSPost2010PropOp29
 70
     1
102
RTVSPost2010Prop30
280
     1
102
RTVSPost2010PropOp30
 70
     1
102
RTVSPost2010Prop31
280
     0
102
RTVSPost2010PropOp31
 70
     1
102
RTVSPost2010Prop32
280
     0
102
RTVSPost2010PropOp32
 70
     1
102
RTVSPost2010Prop33
280
     0
102
RTVSPost2010PropOp33
 70
     1
102
RTVSPost2010Prop34
280
     0
102
RTVSPost2010PropOp34
 70
     1
102
RTVSPost2010Prop35
280
     0
102
RTVSPost2010PropOp35
 70
     1
102
RTVSPost2010Prop36
280
     0
102
RTVSPost2010PropOp36
 70
     1
102
RTVSPost2010Prop37
 90
       50
102
RTVSPost2010PropOp37
 70
     1
102
RTVSPost2010Prop38
140
0.0
102
RTVSPost2010PropOp38
 70
     1
102
RTVSPost2010Prop39
140
1.0
102
RTVSPost2010PropOp39
 70
     1
102
RTVSPost2010Prop40
 90
        0
102
RTVSPost2010PropOp40
 70
     1
102
RTVSPost2010Prop41ColorIndex
 90
       18
102
RTVSPost2010Prop41ColorRGB
 90
        0
102
RTVSPost2010PropOp41
 70
     1
102
RTVSPost2010Prop42
 90
       50
102
RTVSPost2010PropOp42
 70
     1
102
RTVSPost2010Prop43
 90
        3
102
RTVSPost2010PropOp43
 70
     1
102
RTVSPost2010Prop44ColorIndex
 90
        5
102
RTVSPost2010Prop44ColorRGB
 90
      255
102
RTVSPost2010PropOp44
 70
     1
102
RTVSPost2010Prop45
280
     0
102
RTVSPost2010PropOp45
 70
     1
102
RTVSPost2010Prop46
 90
       50
102
RTVSPost2010PropOp46
 70
     1
102
RTVSPost2010Prop47
 90
       50
102
RTVSPost2010PropOp47
 70
     1
102
RTVSPost2010Prop48
 90
       50
102
RTVSPost2010PropOp48
 70
     1
102
RTVSPost2010Prop49
280
     0
102
RTVSPost2010PropOp49
 70
     1
102
RTVSPost2010Prop50
 90
       50
102
RTVSPost2010PropOp50
 70
     1
102
RTVSPost2010Prop51ColorIndex
 90
      256
102
RTVSPost2010Prop51ColorRGB
 90
-16777216
102
RTVSPost2010PropOp51
 70
     0
102
RTVSPost2010Prop52
140
1.0
102
RTVSPost2010PropOp52
 70
     0
102
RTVSPost2010Prop53
 90
        2
102
RTVSPost2010PropOp53
 70
     1
102
RTVSPost2010Prop54
  1
strokes_ogs.tif
102
RTVSPost2010PropOp54
 70
     1
102
RTVSPost2010Prop55
280
     0
102
RTVSPost2010PropOp55
 70
     1
102
RTVSPost2010Prop56
140
1.0
102
RTVSPost2010PropOp56
 70
     1
102
RTVSPost2010Prop57
140
1.0
102
RTVSPost2010PropOp57
 70
     1
102
RTVSPropertyOp0
 70
     1
102
RTVSPropertyOp1
 70
     1
102
RTVSPropertyOp2
 70
     1
102
RTVSPropertyOp3
 70
     1
102
RTVSPropertyOp4
 70
     1
102
RTVSPropertyOp5
 70
     1
102
RTVSPropertyOp6
 70
     1
102
RTVSPropertyOp7
 70
     1
102
RTVSPropertyOp8
 70
     1
102
RTVSPropertyOp9
 70
     1
102
RTVSPropertyOp10
 70
     1
102
RTVSPropertyOp11
 70
     1
102
RTVSPropertyOp12
 70
     1
102
RTVSPropertyOp13
 70
     1
102
RTVSPropertyOp14
 70
     1
102
RTVSPropertyOp15
 70
     1
102
RTVSPropertyOp16
 70
     1
102
RTVSPropertyOp17
 70
     1
102
RTVSPropertyOp18
 70
     1
102
RTVSPropertyOp19
 70
     1
102
RTVSPropertyOp20
 70
     1
102
RTVSPropertyOp21
 70
     1
102
RTVSPropertyOp22
 70
     1
102
RTVSPropertyOp23
 70
     1
102
RTVSPropertyOp24
 70
     1
102
RTVSPropertyOp25
 70
     1
102
RTVSPropertyOp26
 70
     1
102
RTVSPropertyOp27
 70
     1
102
RTVSPropertyOp28
 70
     1
102
RTVSPropertyOp29
 70
     1
102
RTVSPropertyOp30
 70
     1
102
RTVSPropertyOp31
 70
     1
102
RTVSPropertyOp32
 70
     1
102
RTVSPropertyOp33
 70
     1
102
RTVSPropertyOp34
 70
     1
102
RTVSPropertyOp35
 70
     1
102
RTVSPropertyOp36
 70
     1
102
RTVSPropertyOp37
 70
     1
102
RTVSPropertyOp38
 70
     1
102
RTVSPropertyOp39
 70
     1
102
RTVSPropertyOp40
 70
     1
102
RTVSPropertyOp41
 70
     1
102
RTVSPropertyOp42
 70
     1
102
RTVSPropertyOp43
 70
     1
102
RTVSPropertyOp44
 70
     1
102
RTVSPropertyOp45
 70
     1
102
RTVSPropertyOp46
 70
     1
102
RTVSPropertyOp47
 70
     1
102
RTVSPropertyOp48
 70
     1
102
RTVSPropertyOp49
 70
     1
102
RTVSPropertyOp50
 70
     1
102
RTVSPropertyOp51
 70
     0
102
RTVSPropertyOp52
 70
     0
102
RTVSPropertyOp53
 70
     1
102
RTVSPropertyOp54
 70
     1
102
RTVSPropertyOp55
 70
     1
102
RTVSPropertyOp56
 70
     1
102
RTVSPropertyOp57
 70
     1
102
RTVSPropertyOp58
 70
     1
102
RTVSPropertyOp59
 70
     1
102
RTVSPropertyOp60
 70
     1
102
RTVSPropertyOp61
 70
     1
102
RTVSPropertyOp62
 70
     1
  0
XRECORD
  5
F54B
102
{ACAD_REACTORS
330
F54A
102
}
330
F54A
100
AcDbXrecord
280
     1
102
RTVSPost2010Prop28
280
     0
102
RTVSPost2010PropOp28
 70
     1
102
RTVSPost2010Prop29
280
     1
102
RTVSPost2010PropOp29
 70
     1
102
RTVSPost2010Prop30
280
     1
102
RTVSPost2010PropOp30
 70
     1
102
RTVSPost2010Prop31
280
     0
102
RTVSPost2010PropOp31
 70
     1
102
RTVSPost2010Prop32
280
     0
102
RTVSPost2010PropOp32
 70
     1
102
RTVSPost2010Prop33
280
     0
102
RTVSPost2010PropOp33
 70
     1
102
RTVSPost2010Prop34
280
     0
102
RTVSPost2010PropOp34
 70
     1
102
RTVSPost2010Prop35
280
     0
102
RTVSPost2010PropOp35
 70
     1
102
RTVSPost2010Prop36
280
     0
102
RTVSPost2010PropOp36
 70
     1
102
RTVSPost2010Prop37
 90
       50
102
RTVSPost2010PropOp37
 70
     1
102
RTVSPost2010Prop38
140
0.0
102
RTVSPost2010PropOp38
 70
     1
102
RTVSPost2010Prop39
140
1.0
102
RTVSPost2010PropOp39
 70
     1
102
RTVSPost2010Prop40
 90
        0
102
RTVSPost2010PropOp40
 70
     1
102
RTVSPost2010Prop41ColorIndex
 90
       18
102
RTVSPost2010Prop41ColorRGB
 90
        0
102
RTVSPost2010PropOp41
 70
     1
102
RTVSPost2010Prop42
 90
       50
102
RTVSPost2010PropOp42
 70
     1
102
RTVSPost2010Prop43
 90
        3
102
RTVSPost2010PropOp43
 70
     1
102
RTVSPost2010Prop44ColorIndex
 90
        5
102
RTVSPost2010Prop44ColorRGB
 90
      255
102
RTVSPost2010PropOp44
 70
     1
102
RTVSPost2010Prop45
280
     0
102
RTVSPost2010PropOp45
 70
     1
102
RTVSPost2010Prop46
 90
       50
102
RTVSPost2010PropOp46
 70
     1
102
RTVSPost2010Prop47
 90
       50
102
RTVSPost2010PropOp47
 70
     1
102
RTVSPost2010Prop48
 90
       50
102
RTVSPost2010PropOp48
 70
     1
102
RTVSPost2010Prop49
280
     0
102
RTVSPost2010PropOp49
 70
     1
102
RTVSPost2010Prop50
 90
       50
102
RTVSPost2010PropOp50
 70
     1
102
RTVSPost2010Prop51ColorIndex
 90
      256
102
RTVSPost2010Prop51ColorRGB
 90
-16777216
102
RTVSPost2010PropOp51
 70
     0
102
RTVSPost2010Prop52
140
1.0
102
RTVSPost2010PropOp52
 70
     0
102
RTVSPost2010Prop53
 90
        2
102
RTVSPost2010PropOp53
 70
     1
102
RTVSPost2010Prop54
  1
strokes_ogs.tif
102
RTVSPost2010PropOp54
 70
     1
102
RTVSPost2010Prop55
280
     0
102
RTVSPost2010PropOp55
 70
     1
102
RTVSPost2010Prop56
140
1.0
102
RTVSPost2010PropOp56
 70
     1
102
RTVSPost2010Prop57
140
1.0
102
RTVSPost2010PropOp57
 70
     1
102
RTVSPropertyOp0
 70
     1
102
RTVSPropertyOp1
 70
     1
102
RTVSPropertyOp2
 70
     1
102
RTVSPropertyOp3
 70
     1
102
RTVSPropertyOp4
 70
     1
102
RTVSPropertyOp5
 70
     1
102
RTVSPropertyOp6
 70
     1
102
RTVSPropertyOp7
 70
     1
102
RTVSPropertyOp8
 70
     1
102
RTVSPropertyOp9
 70
     1
102
RTVSPropertyOp10
 70
     1
102
RTVSPropertyOp11
 70
     1
102
RTVSPropertyOp12
 70
     1
102
RTVSPropertyOp13
 70
     1
102
RTVSPropertyOp14
 70
     1
102
RTVSPropertyOp15
 70
     1
102
RTVSPropertyOp16
 70
     1
102
RTVSPropertyOp17
 70
     1
102
RTVSPropertyOp18
 70
     1
102
RTVSPropertyOp19
 70
     1
102
RTVSPropertyOp20
 70
     1
102
RTVSPropertyOp21
 70
     1
102
RTVSPropertyOp22
 70
     1
102
RTVSPropertyOp23
 70
     1
102
RTVSPropertyOp24
 70
     1
102
RTVSPropertyOp25
 70
     1
102
RTVSPropertyOp26
 70
     1
102
RTVSPropertyOp27
 70
     1
102
RTVSPropertyOp28
 70
     1
102
RTVSPropertyOp29
 70
     1
102
RTVSPropertyOp30
 70
     1
102
RTVSPropertyOp31
 70
     1
102
RTVSPropertyOp32
 70
     1
102
RTVSPropertyOp33
 70
     1
102
RTVSPropertyOp34
 70
     1
102
RTVSPropertyOp35
 70
     1
102
RTVSPropertyOp36
 70
     1
102
RTVSPropertyOp37
 70
     1
102
RTVSPropertyOp38
 70
     1
102
RTVSPropertyOp39
 70
     1
102
RTVSPropertyOp40
 70
     1
102
RTVSPropertyOp41
 70
     1
102
RTVSPropertyOp42
 70
     1
102
RTVSPropertyOp43
 70
     1
102
RTVSPropertyOp44
 70
     1
102
RTVSPropertyOp45
 70
     1
102
RTVSPropertyOp46
 70
     1
102
RTVSPropertyOp47
 70
     1
102
RTVSPropertyOp48
 70
     1
102
RTVSPropertyOp49
 70
     1
102
RTVSPropertyOp50
 70
     1
102
RTVSPropertyOp51
 70
     0
102
RTVSPropertyOp52
 70
     0
102
RTVSPropertyOp53
 70
     1
102
RTVSPropertyOp54
 70
     1
102
RTVSPropertyOp55
 70
     1
102
RTVSPropertyOp56
 70
     1
102
RTVSPropertyOp57
 70
     1
102
RTVSPropertyOp58
 70
     1
102
RTVSPropertyOp59
 70
     1
102
RTVSPropertyOp60
 70
     1
102
RTVSPropertyOp61
 70
     1
102
RTVSPropertyOp62
 70
     1
  0
XRECORD
  5
F53F
102
{ACAD_REACTORS
330
F53E
102
}
330
F53E
100
AcDbXrecord
280
     1
102
RTVSPost2010Prop28
280
     0
102
RTVSPost2010PropOp28
 70
     1
102
RTVSPost2010Prop29
280
     1
102
RTVSPost2010PropOp29
 70
     1
102
RTVSPost2010Prop30
280
     1
102
RTVSPost2010PropOp30
 70
     1
102
RTVSPost2010Prop31
280
     0
102
RTVSPost2010PropOp31
 70
     1
102
RTVSPost2010Prop32
280
     0
102
RTVSPost2010PropOp32
 70
     1
102
RTVSPost2010Prop33
280
     0
102
RTVSPost2010PropOp33
 70
     1
102
RTVSPost2010Prop34
280
     0
102
RTVSPost2010PropOp34
 70
     1
102
RTVSPost2010Prop35
280
     0
102
RTVSPost2010PropOp35
 70
     1
102
RTVSPost2010Prop36
280
     0
102
RTVSPost2010PropOp36
 70
     1
102
RTVSPost2010Prop37
 90
       50
102
RTVSPost2010PropOp37
 70
     1
102
RTVSPost2010Prop38
140
0.0
102
RTVSPost2010PropOp38
 70
     1
102
RTVSPost2010Prop39
140
1.0
102
RTVSPost2010PropOp39
 70
     1
102
RTVSPost2010Prop40
 90
        0
102
RTVSPost2010PropOp40
 70
     1
102
RTVSPost2010Prop41ColorIndex
 90
       18
102
RTVSPost2010Prop41ColorRGB
 90
        0
102
RTVSPost2010PropOp41
 70
     1
102
RTVSPost2010Prop42
 90
       50
102
RTVSPost2010PropOp42
 70
     1
102
RTVSPost2010Prop43
 90
        3
102
RTVSPost2010PropOp43
 70
     1
102
RTVSPost2010Prop44ColorIndex
 90
        5
102
RTVSPost2010Prop44ColorRGB
 90
      255
102
RTVSPost2010PropOp44
 70
     1
102
RTVSPost2010Prop45
280
     0
102
RTVSPost2010PropOp45
 70
     1
102
RTVSPost2010Prop46
 90
       50
102
RTVSPost2010PropOp46
 70
     1
102
RTVSPost2010Prop47
 90
       50
102
RTVSPost2010PropOp47
 70
     1
102
RTVSPost2010Prop48
 90
       50
102
RTVSPost2010PropOp48
 70
     1
102
RTVSPost2010Prop49
280
     0
102
RTVSPost2010PropOp49
 70
     1
102
RTVSPost2010Prop50
 90
       50
102
RTVSPost2010PropOp50
 70
     1
102
RTVSPost2010Prop51ColorIndex
 90
      256
102
RTVSPost2010Prop51ColorRGB
 90
-16777216
102
RTVSPost2010PropOp51
 70
     0
102
RTVSPost2010Prop52
140
1.0
102
RTVSPost2010PropOp52
 70
     0
102
RTVSPost2010Prop53
 90
        2
102
RTVSPost2010PropOp53
 70
     1
102
RTVSPost2010Prop54
  1
strokes_ogs.tif
102
RTVSPost2010PropOp54
 70
     1
102
RTVSPost2010Prop55
280
     0
102
RTVSPost2010PropOp55
 70
     1
102
RTVSPost2010Prop56
140
1.0
102
RTVSPost2010PropOp56
 70
     1
102
RTVSPost2010Prop57
140
1.0
102
RTVSPost2010PropOp57
 70
     1
102
RTVSPropertyOp0
 70
     1
102
RTVSPropertyOp1
 70
     1
102
RTVSPropertyOp2
 70
     1
102
RTVSPropertyOp3
 70
     1
102
RTVSPropertyOp4
 70
     1
102
RTVSPropertyOp5
 70
     1
102
RTVSPropertyOp6
 70
     1
102
RTVSPropertyOp7
 70
     1
102
RTVSPropertyOp8
 70
     1
102
RTVSPropertyOp9
 70
     1
102
RTVSPropertyOp10
 70
     1
102
RTVSPropertyOp11
 70
     1
102
RTVSPropertyOp12
 70
     1
102
RTVSPropertyOp13
 70
     1
102
RTVSPropertyOp14
 70
     1
102
RTVSPropertyOp15
 70
     1
102
RTVSPropertyOp16
 70
     1
102
RTVSPropertyOp17
 70
     1
102
RTVSPropertyOp18
 70
     1
102
RTVSPropertyOp19
 70
     1
102
RTVSPropertyOp20
 70
     1
102
RTVSPropertyOp21
 70
     1
102
RTVSPropertyOp22
 70
     1
102
RTVSPropertyOp23
 70
     1
102
RTVSPropertyOp24
 70
     1
102
RTVSPropertyOp25
 70
     1
102
RTVSPropertyOp26
 70
     1
102
RTVSPropertyOp27
 70
     1
102
RTVSPropertyOp28
 70
     1
102
RTVSPropertyOp29
 70
     1
102
RTVSPropertyOp30
 70
     1
102
RTVSPropertyOp31
 70
     1
102
RTVSPropertyOp32
 70
     1
102
RTVSPropertyOp33
 70
     1
102
RTVSPropertyOp34
 70
     1
102
RTVSPropertyOp35
 70
     1
102
RTVSPropertyOp36
 70
     1
102
RTVSPropertyOp37
 70
     1
102
RTVSPropertyOp38
 70
     1
102
RTVSPropertyOp39
 70
     1
102
RTVSPropertyOp40
 70
     1
102
RTVSPropertyOp41
 70
     1
102
RTVSPropertyOp42
 70
     1
102
RTVSPropertyOp43
 70
     1
102
RTVSPropertyOp44
 70
     1
102
RTVSPropertyOp45
 70
     1
102
RTVSPropertyOp46
 70
     1
102
RTVSPropertyOp47
 70
     1
102
RTVSPropertyOp48
 70
     1
102
RTVSPropertyOp49
 70
     1
102
RTVSPropertyOp50
 70
     1
102
RTVSPropertyOp51
 70
     0
102
RTVSPropertyOp52
 70
     0
102
RTVSPropertyOp53
 70
     1
102
RTVSPropertyOp54
 70
     1
102
RTVSPropertyOp55
 70
     1
102
RTVSPropertyOp56
 70
     1
102
RTVSPropertyOp57
 70
     1
102
RTVSPropertyOp58
 70
     1
102
RTVSPropertyOp59
 70
     1
102
RTVSPropertyOp60
 70
     1
102
RTVSPropertyOp61
 70
     1
102
RTVSPropertyOp62
 70
     1
  0
XRECORD
  5
F557
102
{ACAD_REACTORS
330
F556
102
}
330
F556
100
AcDbXrecord
280
     1
102
RTVSPost2010Prop28
280
     0
102
RTVSPost2010PropOp28
 70
     1
102
RTVSPost2010Prop29
280
     1
102
RTVSPost2010PropOp29
 70
     1
102
RTVSPost2010Prop30
280
     1
102
RTVSPost2010PropOp30
 70
     1
102
RTVSPost2010Prop31
280
     0
102
RTVSPost2010PropOp31
 70
     1
102
RTVSPost2010Prop32
280
     0
102
RTVSPost2010PropOp32
 70
     1
102
RTVSPost2010Prop33
280
     0
102
RTVSPost2010PropOp33
 70
     1
102
RTVSPost2010Prop34
280
     0
102
RTVSPost2010PropOp34
 70
     1
102
RTVSPost2010Prop35
280
     0
102
RTVSPost2010PropOp35
 70
     1
102
RTVSPost2010Prop36
280
     0
102
RTVSPost2010PropOp36
 70
     1
102
RTVSPost2010Prop37
 90
       50
102
RTVSPost2010PropOp37
 70
     1
102
RTVSPost2010Prop38
140
0.0
102
RTVSPost2010PropOp38
 70
     1
102
RTVSPost2010Prop39
140
1.0
102
RTVSPost2010PropOp39
 70
     1
102
RTVSPost2010Prop40
 90
        0
102
RTVSPost2010PropOp40
 70
     1
102
RTVSPost2010Prop41ColorIndex
 90
       18
102
RTVSPost2010Prop41ColorRGB
 90
        0
102
RTVSPost2010PropOp41
 70
     1
102
RTVSPost2010Prop42
 90
       50
102
RTVSPost2010PropOp42
 70
     1
102
RTVSPost2010Prop43
 90
        3
102
RTVSPost2010PropOp43
 70
     1
102
RTVSPost2010Prop44ColorIndex
 90
        5
102
RTVSPost2010Prop44ColorRGB
 90
      255
102
RTVSPost2010PropOp44
 70
     1
102
RTVSPost2010Prop45
280
     0
102
RTVSPost2010PropOp45
 70
     1
102
RTVSPost2010Prop46
 90
       50
102
RTVSPost2010PropOp46
 70
     1
102
RTVSPost2010Prop47
 90
       50
102
RTVSPost2010PropOp47
 70
     1
102
RTVSPost2010Prop48
 90
       50
102
RTVSPost2010PropOp48
 70
     1
102
RTVSPost2010Prop49
280
     0
102
RTVSPost2010PropOp49
 70
     1
102
RTVSPost2010Prop50
 90
       50
102
RTVSPost2010PropOp50
 70
     1
102
RTVSPost2010Prop51ColorIndex
 90
      256
102
RTVSPost2010Prop51ColorRGB
 90
-16777216
102
RTVSPost2010PropOp51
 70
     0
102
RTVSPost2010Prop52
140
1.0
102
RTVSPost2010PropOp52
 70
     0
102
RTVSPost2010Prop53
 90
        2
102
RTVSPost2010PropOp53
 70
     1
102
RTVSPost2010Prop54
  1
strokes_ogs.tif
102
RTVSPost2010PropOp54
 70
     1
102
RTVSPost2010Prop55
280
     0
102
RTVSPost2010PropOp55
 70
     1
102
RTVSPost2010Prop56
140
1.0
102
RTVSPost2010PropOp56
 70
     1
102
RTVSPost2010Prop57
140
1.0
102
RTVSPost2010PropOp57
 70
     1
102
RTVSPropertyOp0
 70
     1
102
RTVSPropertyOp1
 70
     1
102
RTVSPropertyOp2
 70
     1
102
RTVSPropertyOp3
 70
     1
102
RTVSPropertyOp4
 70
     1
102
RTVSPropertyOp5
 70
     1
102
RTVSPropertyOp6
 70
     1
102
RTVSPropertyOp7
 70
     1
102
RTVSPropertyOp8
 70
     1
102
RTVSPropertyOp9
 70
     1
102
RTVSPropertyOp10
 70
     1
102
RTVSPropertyOp11
 70
     1
102
RTVSPropertyOp12
 70
     1
102
RTVSPropertyOp13
 70
     1
102
RTVSPropertyOp14
 70
     1
102
RTVSPropertyOp15
 70
     1
102
RTVSPropertyOp16
 70
     1
102
RTVSPropertyOp17
 70
     1
102
RTVSPropertyOp18
 70
     1
102
RTVSPropertyOp19
 70
     1
102
RTVSPropertyOp20
 70
     1
102
RTVSPropertyOp21
 70
     1
102
RTVSPropertyOp22
 70
     1
102
RTVSPropertyOp23
 70
     1
102
RTVSPropertyOp24
 70
     1
102
RTVSPropertyOp25
 70
     1
102
RTVSPropertyOp26
 70
     1
102
RTVSPropertyOp27
 70
     1
102
RTVSPropertyOp28
 70
     1
102
RTVSPropertyOp29
 70
     1
102
RTVSPropertyOp30
 70
     1
102
RTVSPropertyOp31
 70
     1
102
RTVSPropertyOp32
 70
     1
102
RTVSPropertyOp33
 70
     1
102
RTVSPropertyOp34
 70
     1
102
RTVSPropertyOp35
 70
     1
102
RTVSPropertyOp36
 70
     1
102
RTVSPropertyOp37
 70
     1
102
RTVSPropertyOp38
 70
     1
102
RTVSPropertyOp39
 70
     1
102
RTVSPropertyOp40
 70
     1
102
RTVSPropertyOp41
 70
     1
102
RTVSPropertyOp42
 70
     1
102
RTVSPropertyOp43
 70
     1
102
RTVSPropertyOp44
 70
     1
102
RTVSPropertyOp45
 70
     1
102
RTVSPropertyOp46
 70
     1
102
RTVSPropertyOp47
 70
     1
102
RTVSPropertyOp48
 70
     1
102
RTVSPropertyOp49
 70
     1
102
RTVSPropertyOp50
 70
     1
102
RTVSPropertyOp51
 70
     0
102
RTVSPropertyOp52
 70
     0
102
RTVSPropertyOp53
 70
     1
102
RTVSPropertyOp54
 70
     1
102
RTVSPropertyOp55
 70
     1
102
RTVSPropertyOp56
 70
     1
102
RTVSPropertyOp57
 70
     1
102
RTVSPropertyOp58
 70
     1
102
RTVSPropertyOp59
 70
     1
102
RTVSPropertyOp60
 70
     1
102
RTVSPropertyOp61
 70
     1
102
RTVSPropertyOp62
 70
     1
  0
ENDSEC
  0
EOF
