  0
SECTION
  2
HEADER
  9
$ACADVER
  1
AC1015
  9
$ACADMAINTVER
 70
    20
  9
$DWGCODEPAGE
  3
ANSI_932
  9
$INSBASE
 10
0.0
 20
0.0
 30
0.0
  9
$EXTMIN
 10
9.9999975266385
 20
10.0
 30
0.0
  9
$EXTMAX
 10
590.7827617232747
 20
418.0309888092617
 30
0.0
  9
$LIMMIN
 10
0.0000015376081137
 20
-0.0000001931532552
  9
$LIMMAX
 10
655.0000015376078
 20
451.5530301098768
  9
$ORTHOMODE
 70
     1
  9
$REGENMODE
 70
     1
  9
$FILLMODE
 70
     1
  9
$QTEXTMODE
 70
     0
  9
$MIRRTEXT
 70
     1
  9
$LTSCALE
 40
1.0
  9
$ATTMODE
 70
     1
  9
$TEXTSIZE
 40
2.5
  9
$TRACEWID
 40
1.0
  9
$TEXTSTYLE
  7
STANDARD
  9
$CLAYER
  8
0
  9
$CELTYPE
  6
BYLAYER
  9
$CECOLOR
 62
   256
  9
$CELTSCALE
 40
1.0
  9
$DISPSILH
 70
     0
  9
$DIMSCALE
 40
1.0
  9
$DIMASZ
 40
3.0
  9
$DIMEXO
 40
1.0
  9
$DIMDLI
 40
10.0
  9
$DIMRND
 40
0.0
  9
$DIMDLE
 40
0.0
  9
$DIMEXE
 40
1.0
  9
$DIMTP
 40
0.0
  9
$DIMTM
 40
0.0
  9
$DIMTXT
 40
3.2
  9
$DIMCEN
 40
0.0
  9
$DIMTSZ
 40
0.0
  9
$DIMTOL
 70
     0
  9
$DIMLIM
 70
     0
  9
$DIMTIH
 70
     0
  9
$DIMTOH
 70
     0
  9
$DIMSE1
 70
     0
  9
$DIMSE2
 70
     0
  9
$DIMTAD
 70
     3
  9
$DIMZIN
 70
     8
  9
$DIMBLK
  1

  9
$DIMASO
 70
     1
  9
$DIMSHO
 70
     1
  9
$DIMPOST
  1

  9
$DIMAPOST
  1

  9
$DIMALT
 70
     0
  9
$DIMALTD
 70
     2
  9
$DIMALTF
 40
25.4
  9
$DIMLFAC
 40
1.0
  9
$DIMTOFL
 70
     1
  9
$DIMTVP
 40
0.0
  9
$DIMTIX
 70
     0
  9
$DIMSOXD
 70
     0
  9
$DIMSAH
 70
     1
  9
$DIMBLK1
  1
OPEN
  9
$DIMBLK2
  1
OPEN
  9
$DIMSTYLE
  2
STANDARD
  9
$DIMCLRD
 70
     0
  9
$DIMCLRE
 70
     0
  9
$DIMCLRT
 70
     0
  9
$DIMTFAC
 40
1.0
  9
$DIMGAP
 40
1.0
  9
$DIMJUST
 70
     0
  9
$DIMSD1
 70
     0
  9
$DIMSD2
 70
     0
  9
$DIMTOLJ
 70
     1
  9
$DIMTZIN
 70
     0
  9
$DIMALTZ
 70
     0
  9
$DIMALTTZ
 70
     0
  9
$DIMUPT
 70
     0
  9
$DIMDEC
 70
     4
  9
$DIMTDEC
 70
     4
  9
$DIMALTU
 70
     2
  9
$DIMALTTD
 70
     2
  9
$DIMTXSTY
  7
STANDARD
  9
$DIMAUNIT
 70
     0
  9
$DIMADEC
 70
     0
  9
$DIMALTRND
 40
0.0
  9
$DIMAZIN
 70
     0
  9
$DIMDSEP
 70
    46
  9
$DIMATFIT
 70
     3
  9
$DIMFRAC
 70
     0
  9
$DIMLDRBLK
  1
OPEN
  9
$DIMLUNIT
 70
     2
  9
$DIMLWD
 70
    -2
  9
$DIMLWE
 70
    -2
  9
$DIMTMOVE
 70
     0
  9
$LUNITS
 70
     2
  9
$LUPREC
 70
     4
  9
$SKETCHINC
 40
1.0
  9
$FILLETRAD
 40
0.0
  9
$AUNITS
 70
     0
  9
$AUPREC
 70
     0
  9
$MENU
  1
.
  9
$ELEVATION
 40
0.0
  9
$PELEVATION
 40
0.0
  9
$THICKNESS
 40
0.0
  9
$LIMCHECK
 70
     0
  9
$CHAMFERA
 40
10.0
  9
$CHAMFERB
 40
10.0
  9
$CHAMFERC
 40
20.0
  9
$CHAMFERD
 40
0.0
  9
$SKPOLY
 70
     0
  9
$TDCREATE
 40
2453811.402924803
  9
$TDUCREATE
 40
2453811.027924803
  9
$TDUPDATE
 40
2457192.692647870
  9
$TDUUPDATE
 40
2457192.317647870
  9
$TDINDWG
 40
0.1722126968
  9
$TDUSRTIMER
 40
0.1722126389
  9
$USRTIMER
 70
     1
  9
$ANGBASE
 50
0.0
  9
$ANGDIR
 70
     0
  9
$PDMODE
 70
     0
  9
$PDSIZE
 40
0.0
  9
$PLINEWID
 40
0.0
  9
$SPLFRAME
 70
     0
  9
$SPLINETYPE
 70
     6
  9
$SPLINESEGS
 70
     8
  9
$HANDSEED
  5
3093
  9
$SURFTAB1
 70
     6
  9
$SURFTAB2
 70
     6
  9
$SURFTYPE
 70
     6
  9
$SURFU
 70
     6
  9
$SURFV
 70
     6
  9
$UCSBASE
  2

  9
$UCSNAME
  2

  9
$UCSORG
 10
0.0
 20
0.0
 30
0.0
  9
$UCSXDIR
 10
1.0
 20
0.0
 30
0.0
  9
$UCSYDIR
 10
0.0
 20
1.0
 30
0.0
  9
$UCSORTHOREF
  2

  9
$UCSORTHOVIEW
 70
     0
  9
$UCSORGTOP
 10
0.0
 20
0.0
 30
0.0
  9
$UCSORGBOTTOM
 10
0.0
 20
0.0
 30
0.0
  9
$UCSORGLEFT
 10
0.0
 20
0.0
 30
0.0
  9
$UCSORGRIGHT
 10
0.0
 20
0.0
 30
0.0
  9
$UCSORGFRONT
 10
0.0
 20
0.0
 30
0.0
  9
$UCSORGBACK
 10
0.0
 20
0.0
 30
0.0
  9
$PUCSBASE
  2

  9
$PUCSNAME
  2

  9
$PUCSORG
 10
0.0
 20
0.0
 30
0.0
  9
$PUCSXDIR
 10
1.0
 20
0.0
 30
0.0
  9
$PUCSYDIR
 10
0.0
 20
1.0
 30
0.0
  9
$PUCSORTHOREF
  2

  9
$PUCSORTHOVIEW
 70
     0
  9
$PUCSORGTOP
 10
0.0
 20
0.0
 30
0.0
  9
$PUCSORGBOTTOM
 10
0.0
 20
0.0
 30
0.0
  9
$PUCSORGLEFT
 10
0.0
 20
0.0
 30
0.0
  9
$PUCSORGRIGHT
 10
0.0
 20
0.0
 30
0.0
  9
$PUCSORGFRONT
 10
0.0
 20
0.0
 30
0.0
  9
$PUCSORGBACK
 10
0.0
 20
0.0
 30
0.0
  9
$USERI1
 70
     0
  9
$USERI2
 70
     0
  9
$USERI3
 70
     0
  9
$USERI4
 70
     0
  9
$USERI5
 70
     0
  9
$USERR1
 40
0.0
  9
$USERR2
 40
0.0
  9
$USERR3
 40
0.0
  9
$USERR4
 40
0.0
  9
$USERR5
 40
0.0
  9
$WORLDVIEW
 70
     1
  9
$SHADEDGE
 70
     3
  9
$SHADEDIF
 70
    70
  9
$TILEMODE
 70
     1
  9
$MAXACTVP
 70
    48
  9
$PINSBASE
 10
0.0
 20
0.0
 30
0.0
  9
$PLIMCHECK
 70
     0
  9
$PEXTMIN
 10
1.000000000000000E+20
 20
1.000000000000000E+20
 30
1.000000000000000E+20
  9
$PEXTMAX
 10
-1.000000000000000E+20
 20
-1.000000000000000E+20
 30
-1.000000000000000E+20
  9
$PLIMMIN
 10
0.0
 20
0.0
  9
$PLIMMAX
 10
420.0
 20
297.0
  9
$UNITMODE
 70
     0
  9
$VISRETAIN
 70
     1
  9
$PLINEGEN
 70
     0
  9
$PSLTSCALE
 70
     1
  9
$TREEDEPTH
 70
  3020
  9
$CMLSTYLE
  2
STANDARD
  9
$CMLJUST
 70
     0
  9
$CMLSCALE
 40
20.0
  9
$PROXYGRAPHICS
 70
     1
  9
$MEASUREMENT
 70
     0
  9
$CELWEIGHT
370
    -1
  9
$ENDCAPS
280
     0
  9
$JOINSTYLE
280
     0
  9
$LWDISPLAY
290
     0
  9
$INSUNITS
 70
     0
  9
$HYPERLINKBASE
  1

  9
$STYLESHEET
  1

  9
$XEDIT
290
     1
  9
$CEPSNTYPE
380
     0
  9
$PSTYLEMODE
290
     1
  9
$FINGERPRINTGUID
  2
{642DFD44-369B-4F0F-864E-86853722AD38}
  9
$VERSIONGUID
  2
{2FA639BC-8D64-4D77-B1DA-7F158770AD53}
  9
$EXTNAMES
290
     1
  9
$PSVPSCALE
 40
0.0
  9
$OLESTARTUP
290
     0
  0
ENDSEC
  0
SECTION
  2
CLASSES
  0
CLASS
  1
ACDBDICTIONARYWDFLT
  2
AcDbDictionaryWithDefault
  3
ObjectDBX Classes
 90
        0
280
     0
281
     0
  0
CLASS
  1
ACDBPLACEHOLDER
  2
AcDbPlaceHolder
  3
ObjectDBX Classes
 90
        0
280
     0
281
     0
  0
CLASS
  1
LAYOUT
  2
AcDbLayout
  3
ObjectDBX Classes
 90
        0
280
     0
281
     0
  0
CLASS
  1
DICTIONARYVAR
  2
AcDbDictionaryVar
  3
ObjectDBX Classes
 90
        0
280
     0
281
     0
  0
CLASS
  1
MATERIAL
  2
AcDbMaterial
  3
ObjectDBX Classes
 90
     1153
280
     0
281
     0
  0
CLASS
  1
VISUALSTYLE
  2
AcDbVisualStyle
  3
ObjectDBX Classes
 90
     4095
280
     0
281
     0
  0
CLASS
  1
TABLESTYLE
  2
AcDbTableStyle
  3
ObjectDBX Classes
 90
     4095
280
     0
281
     0
  0
CLASS
  1
SCALE
  2
AcDbScale
  3
ObjectDBX Classes
 90
     1153
280
     0
281
     0
  0
CLASS
  1
MLEADERSTYLE
  2
AcDbMLeaderStyle
  3
ACDB_MLEADERSTYLE_CLASS
 90
     4095
280
     0
281
     0
  0
CLASS
  1
ACDBSECTIONVIEWSTYLE
  2
AcDbSectionViewStyle
  3
ObjectDBX Classes
 90
     1025
280
     0
281
     0
  0
CLASS
  1
ACDBDETAILVIEWSTYLE
  2
AcDbDetailViewStyle
  3
ObjectDBX Classes
 90
     1025
280
     0
281
     0
  0
CLASS
  1
CELLSTYLEMAP
  2
AcDbCellStyleMap
  3
ObjectDBX Classes
 90
     1152
280
     0
281
     0
  0
ENDSEC
  0
SECTION
  2
TABLES
  0
TABLE
  2
VPORT
  5
8
330
0
100
AcDbSymbolTable
 70
     1
  0
VPORT
  5
2F9B
330
8
100
AcDbSymbolTableRecord
100
AcDbViewportTableRecord
  2
*ACTIVE
 70
     0
 10
0.0
 20
0.0
 11
1.0
 21
1.0
 12
358.7482455331875
 22
225.7765149583618
 13
0.0
 23
0.0
 14
10.0
 24
10.0
 15
10.0
 25
10.0
 16
0.0
 26
0.0
 36
1.0
 17
0.0
 27
0.0
 37
0.0
 40
454.9186429512514
 41
2.35006605019815
 42
50.0
 43
0.0
 44
0.0
 50
0.0
 51
0.0
 71
     0
 72
   100
 73
     1
 74
     0
 75
     0
 76
     0
 77
     0
 78
     0
281
     0
 65
     1
110
0.0
120
0.0
130
0.0
111
1.0
121
0.0
131
0.0
112
0.0
122
1.0
132
0.0
 79
     0
146
0.0
1001
ACAD_NAV_VCDISPLAY
1070
     3
  0
ENDTAB
  0
TABLE
  2
LTYPE
  5
5
330
0
100
AcDbSymbolTable
 70
     4
  0
LTYPE
  5
12
330
5
100
AcDbSymbolTableRecord
100
AcDbLinetypeTableRecord
  2
BYBLOCK
 70
     0
  3

 72
    65
 73
     0
 40
0.0
  0
LTYPE
  5
13
330
5
100
AcDbSymbolTableRecord
100
AcDbLinetypeTableRecord
  2
BYLAYER
 70
     0
  3

 72
    65
 73
     0
 40
0.0
  0
LTYPE
  5
14
330
5
100
AcDbSymbolTableRecord
100
AcDbLinetypeTableRecord
  2
CONTINUOUS
 70
     0
  3
Solid line
 72
    65
 73
     0
 40
0.0
  0
LTYPE
  5
4B
330
5
100
AcDbSymbolTableRecord
100
AcDbLinetypeTableRecord
  2
DASHED
 70
     0
  3
Dashed __ __ __ __ __ __ __ __ __ __ __ __ __ _
 72
    65
 73
     2
 40
19.04999999999999
 49
12.7
 74
     0
 49
-6.349999999999997
 74
     0
  0
LTYPE
  5
4C
330
5
100
AcDbSymbolTableRecord
100
AcDbLinetypeTableRecord
  2
CENTER
 70
     0
  3
Center ____ _ ____ _ ____ _ ____ _ ____ _ ____
 72
    65
 73
     4
 40
50.8
 49
31.75
 74
     0
 49
-6.349999999999997
 74
     0
 49
6.349999999999997
 74
     0
 49
-6.349999999999997
 74
     0
  0
LTYPE
  5
4D
330
5
100
AcDbSymbolTableRecord
100
AcDbLinetypeTableRecord
  2
PHANTOM
 70
     0
  3
Phantom ______  __  __  ______  __  __  ______
 72
    65
 73
     6
 40
63.5
 49
31.75
 74
     0
 49
-6.349999999999997
 74
     0
 49
6.349999999999997
 74
     0
 49
-6.349999999999997
 74
     0
 49
6.349999999999997
 74
     0
 49
-6.349999999999997
 74
     0
  0
ENDTAB
  0
TABLE
  2
LAYER
  5
2
330
0
100
AcDbSymbolTable
 70
     8
  0
LAYER
  5
E
102
{ACAD_XDICTIONARY
360
2FF7
102
}
330
2
100
AcDbSymbolTableRecord
100
AcDbLayerTableRecord
  2
0
 70
     0
 62
     7
  6
CONTINUOUS
370
    -3
390
2FA4
  0
LAYER
  5
4E
102
{ACAD_XDICTIONARY
360
2FF9
102
}
330
2
100
AcDbSymbolTableRecord
100
AcDbLayerTableRecord
  2
4
 70
     0
 62
     1
  6
CENTER
370
    -3
390
2FA4
  0
LAYER
  5
4F
102
{ACAD_XDICTIONARY
360
2FFB
102
}
330
2
100
AcDbSymbolTableRecord
100
AcDbLayerTableRecord
  2
5
 70
     0
 62
     6
  6
PHANTOM
370
    -3
390
2FA4
  0
LAYER
  5
50
102
{ACAD_XDICTIONARY
360
2FFD
102
}
330
2
100
AcDbSymbolTableRecord
100
AcDbLayerTableRecord
  2
1
 70
     0
 62
     7
  6
CONTINUOUS
370
    -3
390
2FA4
  0
LAYER
  5
51
102
{ACAD_XDICTIONARY
360
2FFF
102
}
330
2
100
AcDbSymbolTableRecord
100
AcDbLayerTableRecord
  2
2
 70
     0
 62
     4
  6
CONTINUOUS
370
    -3
390
2FA4
  0
LAYER
  5
52
102
{ACAD_XDICTIONARY
360
3001
102
}
330
2
100
AcDbSymbolTableRecord
100
AcDbLayerTableRecord
  2
3
 70
     0
 62
     2
  6
DASHED
370
    -3
390
2FA4
  0
LAYER
  5
53
102
{ACAD_XDICTIONARY
360
3003
102
}
330
2
100
AcDbSymbolTableRecord
100
AcDbLayerTableRecord
  2
6
 70
     0
 62
     5
  6
CONTINUOUS
370
    -3
390
2FA4
  0
LAYER
  5
54
102
{ACAD_XDICTIONARY
360
3005
102
}
330
2
100
AcDbSymbolTableRecord
100
AcDbLayerTableRecord
  2
7
 70
     0
 62
     3
  6
CONTINUOUS
370
    -3
390
2FA4
  0
ENDTAB
  0
TABLE
  2
STYLE
  5
3
330
0
100
AcDbSymbolTable
 70
     1
  0
STYLE
  5
F
330
3
100
AcDbSymbolTableRecord
100
AcDbTextStyleTableRecord
  2
STANDARD
 70
     0
 40
0.0
 41
1.0
 50
0.0
 71
     0
 42
2.5
  3
simplex.shx
  4

  0
ENDTAB
  0
TABLE
  2
VIEW
  5
6
330
0
100
AcDbSymbolTable
 70
     0
  0
ENDTAB
  0
TABLE
  2
UCS
  5
7
330
0
100
AcDbSymbolTable
 70
     0
  0
ENDTAB
  0
TABLE
  2
APPID
  5
9
330
0
100
AcDbSymbolTable
 70
     6
  0
APPID
  5
10
330
9
100
AcDbSymbolTableRecord
100
AcDbRegAppTableRecord
  2
ACAD
 70
     0
  0
APPID
  5
3E
330
9
100
AcDbSymbolTableRecord
100
AcDbRegAppTableRecord
  2
CONTENTTABDATA
 70
     0
  0
APPID
  5
3F
330
9
100
AcDbSymbolTableRecord
100
AcDbRegAppTableRecord
  2
CONTENTCURRENTTAB
 70
     0
  0
APPID
  5
2FF5
330
9
100
AcDbSymbolTableRecord
100
AcDbRegAppTableRecord
  2
ACAD_EXEMPT_FROM_CAD_STANDARDS
 70
     0
  0
APPID
  5
3011
330
9
100
AcDbSymbolTableRecord
100
AcDbRegAppTableRecord
  2
ACAD_NAV_VCDISPLAY
 70
     0
  0
APPID
  5
304A
330
9
100
AcDbSymbolTableRecord
100
AcDbRegAppTableRecord
  2
ACAD_MLEADERVER
 70
     0
  0
ENDTAB
  0
TABLE
  2
DIMSTYLE
  5
A
330
0
100
AcDbSymbolTable
 70
     1
100
AcDbDimStyleTable
 71
     0
  0
DIMSTYLE
105
1D
330
A
100
AcDbSymbolTableRecord
100
AcDbDimStyleTableRecord
  2
STANDARD
 70
     0
 41
3.0
 42
1.0
 43
10.0
 44
1.0
 73
     0
 74
     0
 77
     3
 78
     8
140
3.2
141
0.0
147
1.0
172
     1
173
     1
340
F
341
2E
343
2E
344
2E
  0
ENDTAB
  0
TABLE
  2
BLOCK_RECORD
  5
1
330
0
100
AcDbSymbolTable
 70
     1
  0
BLOCK_RECORD
  5
18
102
{ACAD_XDICTIONARY
360
2F9E
102
}
330
1
100
AcDbSymbolTableRecord
100
AcDbBlockTableRecord
  2
*MODEL_SPACE
340
2FF2
  0
BLOCK_RECORD
  5
15
102
{ACAD_XDICTIONARY
360
2F9C
102
}
330
1
100
AcDbSymbolTableRecord
100
AcDbBlockTableRecord
  2
*PAPER_SPACE
340
2FF3
  0
BLOCK_RECORD
  5
2E
330
1
100
AcDbSymbolTableRecord
100
AcDbBlockTableRecord
  2
_OPEN
340
0
  0
ENDTAB
  0
ENDSEC
  0
SECTION
  2
BLOCKS
  0
BLOCK
  5
19
330
18
100
AcDbEntity
  8
0
100
AcDbBlockBegin
  2
*MODEL_SPACE
 70
     0
 10
0.0
 20
0.0
 30
0.0
  3
*MODEL_SPACE
  1

  0
ENDBLK
  5
1A
330
18
100
AcDbEntity
  8
0
100
AcDbBlockEnd
  0
BLOCK
  5
16
330
15
100
AcDbEntity
 67
     1
  8
0
100
AcDbBlockBegin
  2
*PAPER_SPACE
 70
     0
 10
0.0
 20
0.0
 30
0.0
  3
*PAPER_SPACE
  1

  0
ENDBLK
  5
17
330
15
100
AcDbEntity
 67
     1
  8
0
100
AcDbBlockEnd
  0
BLOCK
  5
2F
330
2E
100
AcDbEntity
  8
0
100
AcDbBlockBegin
  2
_OPEN
 70
     0
 10
0.0
 20
0.0
 30
0.0
  3
_OPEN
  1

  0
LINE
  5
30
330
2E
100
AcDbEntity
  8
0
  6
ByBlock
 62
     0
100
AcDbLine
 10
-1.0
 20
0.1666666666666666
 30
0.0
 11
0.0
 21
0.0
 31
0.0
  0
LINE
  5
31
330
2E
100
AcDbEntity
  8
0
  6
ByBlock
 62
     0
100
AcDbLine
 10
0.0
 20
0.0
 30
0.0
 11
-1.0
 21
-0.1666666666666666
 31
0.0
  0
LINE
  5
32
330
2E
100
AcDbEntity
  8
0
  6
ByBlock
 62
     0
100
AcDbLine
 10
0.0
 20
0.0
 30
0.0
 11
-1.0
 21
0.0
 31
0.0
  0
ENDBLK
  5
33
330
2E
100
AcDbEntity
  8
0
100
AcDbBlockEnd
  0
ENDSEC
  0
SECTION
  2
ENTITIES
  0
TEXT
  5
63
330
18
100
AcDbEntity
  8
4
  6
CENTER
 48
0.25
100
AcDbText
 10
23.97950852663849
 20
10.0
 30
0.0
 40
1.399999999999999
  1
4
100
AcDbText
  0
TEXT
  5
64
330
18
100
AcDbEntity
  8
7
  6
Continuous
 48
0.25
100
AcDbText
 10
9.999997526638502
 20
26.0000007607689
 30
0.0
 40
3.0
  1
CODE No.19071
100
AcDbText
  0
TEXT
  5
65
330
18
100
AcDbEntity
  8
7
  6
Continuous
 48
0.25
100
AcDbText
 10
9.999997526638502
 20
18.00000076076889
 30
0.0
 40
3.0
  1
TYPE No.TCA-TY75N12S (TY75N12S)
100
AcDbText
  0
TEXT
  5
66
330
18
100
AcDbEntity
  8
1
  6
Continuous
 48
0.25
100
AcDbText
 10
9.999997526638502
 20
10.00000076076889
 30
0.0
 40
1.399999999999999
  1
LAYER
100
AcDbText
  0
TEXT
  5
67
330
18
100
AcDbEntity
  8
2
  6
Continuous
 48
0.25
100
AcDbText
 10
19.9795085266385
 20
10.0
 30
0.0
 40
1.399999999999999
  1
2
100
AcDbText
  0
TEXT
  5
68
330
18
100
AcDbEntity
  8
3
  6
DASHED
 48
0.25
100
AcDbText
 10
21.9795085266385
 20
10.0
 30
0.0
 40
1.399999999999999
  1
3
100
AcDbText
  0
TEXT
  5
69
330
18
100
AcDbEntity
  8
1
  6
Continuous
 48
0.25
100
AcDbText
 10
17.9795085266385
 20
10.0
 30
0.0
 40
1.399999999999999
  1
1
100
AcDbText
  0
TEXT
  5
6A
330
18
100
AcDbEntity
  8
5
  6
PHANTOM
 48
0.25
100
AcDbText
 10
25.9795085266385
 20
10.0
 30
0.0
 40
1.399999999999999
  1
5
100
AcDbText
  0
TEXT
  5
6B
330
18
100
AcDbEntity
  8
6
  6
Continuous
 48
0.25
100
AcDbText
 10
27.9795085266385
 20
10.0
 30
0.0
 40
1.399999999999999
  1
6
100
AcDbText
  0
TEXT
  5
6C
330
18
100
AcDbEntity
  8
7
  6
Continuous
 48
0.25
100
AcDbText
 10
29.9795085266385
 20
10.0
 30
0.0
 40
1.399999999999999
  1
7
100
AcDbText
  0
ARC
  5
8AA
330
18
100
AcDbEntity
  8
1
  6
Continuous
100
AcDbCircle
 10
393.5387749310213
 20
252.0414951640614
 30
0.0
 40
30.0
100
AcDbArc
 50
187.5389760171647
 51
230.1070044522165
  0
ARC
  5
8AB
330
18
100
AcDbEntity
  8
1
  6
Continuous
100
AcDbCircle
 10
355.0574245155277
 20
252.0414951640614
 30
0.0
 40
30.0
100
AcDbArc
 50
309.8929955477834
 51
352.4610239828352
  0
LINE
  5
B9E
330
18
100
AcDbEntity
  8
1
  6
Continuous
100
AcDbLine
 10
217.7563617232745
 20
82.54963069199186
 30
0.0
 11
217.7563617232745
 21
60.54963069199186
 31
0.0
  0
LINE
  5
1205
330
18
100
AcDbEntity
  8
1
  6
Continuous
100
AcDbLine
 10
170.2563617232746
 20
396.2184358092617
 30
0.0
 11
170.2563617232746
 21
405.6177698092616
 31
0.0
  0
LINE
  5
1208
330
18
100
AcDbEntity
  8
1
  6
Continuous
100
AcDbLine
 10
245.2563617232747
 20
396.2184358092617
 30
0.0
 11
245.2563617232747
 21
405.6177698092616
 31
0.0
  0
CIRCLE
  5
120A
330
18
100
AcDbEntity
  8
1
  6
Continuous
100
AcDbCircle
 10
207.7563617232746
 20
216.3840332505671
 30
0.0
 40
17.7
  0
CIRCLE
  5
120B
330
18
100
AcDbEntity
  8
1
  6
Continuous
100
AcDbCircle
 10
207.7563617232746
 20
216.3840332505671
 30
0.0
 40
28.0
  0
CIRCLE
  5
120C
330
18
100
AcDbEntity
  8
1
  6
Continuous
100
AcDbCircle
 10
207.7563617232746
 20
216.3840332505671
 30
0.0
 40
23.0
  0
CIRCLE
  5
120D
330
18
100
AcDbEntity
  8
1
  6
Continuous
100
AcDbCircle
 10
207.7563617232746
 20
216.3840332505671
 30
0.0
 40
37.5
  0
LINE
  5
1211
330
18
100
AcDbEntity
  8
1
  6
Continuous
100
AcDbLine
 10
224.8696107232747
 20
66.54963069199311
 30
0.0
 11
221.9828587232747
 21
71.54963069199311
 31
0.0
  0
LINE
  5
1212
330
18
100
AcDbEntity
  8
1
  6
Continuous
100
AcDbLine
 10
233.5298647232747
 20
71.54963069199311
 30
0.0
 11
230.6431127232747
 21
66.54963069199311
 31
0.0
  0
LINE
  5
1213
330
18
100
AcDbEntity
  8
1
  6
Continuous
100
AcDbLine
 10
230.6431127232747
 20
66.54963069199311
 30
0.0
 11
224.8696107232747
 21
66.54963069199311
 31
0.0
  0
LINE
  5
1214
330
18
100
AcDbEntity
  8
1
  6
Continuous
100
AcDbLine
 10
224.8696107232747
 20
76.54963069199311
 30
0.0
 11
230.6431127232747
 21
76.54963069199311
 31
0.0
  0
LINE
  5
1215
330
18
100
AcDbEntity
  8
1
  6
Continuous
100
AcDbLine
 10
230.6431127232747
 20
76.54963069199311
 30
0.0
 11
233.5298647232747
 21
71.54963069199311
 31
0.0
  0
LINE
  5
1216
330
18
100
AcDbEntity
  8
1
  6
Continuous
100
AcDbLine
 10
221.9828587232747
 20
71.54963069199311
 30
0.0
 11
224.8696107232747
 21
76.54963069199311
 31
0.0
  0
LINE
  5
1218
330
18
100
AcDbEntity
  8
1
  6
Continuous
100
AcDbLine
 10
238.2563617232747
 20
255.3840332505671
 30
0.0
 11
243.0618357232745
 21
229.0241882505672
 31
0.0
  0
LINE
  5
1219
330
18
100
AcDbEntity
  8
1
  6
Continuous
100
AcDbLine
 10
222.7563617232746
 20
285.3840332505671
 30
0.0
 11
221.7563617232745
 21
284.3840332505672
 31
0.0
  0
LINE
  5
121A
330
18
100
AcDbEntity
  8
1
  6
Continuous
100
AcDbLine
 10
233.7563617232747
 20
284.3840332505672
 30
0.0
 11
221.7563617232745
 21
284.3840332505672
 31
0.0
  0
LINE
  5
121B
330
18
100
AcDbEntity
  8
1
  6
Continuous
100
AcDbLine
 10
233.7563617232747
 20
264.3840332505671
 30
0.0
 11
221.7563617232745
 21
264.3840332505671
 31
0.0
  0
LINE
  5
121F
330
18
100
AcDbEntity
  8
1
  6
Continuous
100
AcDbLine
 10
233.7563617232747
 20
263.3840332505672
 30
0.0
 11
233.7563617232747
 21
284.3840332505672
 31
0.0
  0
LINE
  5
1220
330
18
100
AcDbEntity
  8
2
  6
Continuous
100
AcDbLine
 10
232.8093617232746
 20
264.3840332505671
 30
0.0
 11
232.8093617232744
 21
285.3310332505673
 31
0.0
  0
LINE
  5
1225
330
18
100
AcDbEntity
  8
1
  6
Continuous
100
AcDbLine
 10
232.7563617232747
 20
285.3840332505671
 30
0.0
 11
222.7563617232746
 21
285.3840332505671
 31
0.0
  0
LINE
  5
1226
330
18
100
AcDbEntity
  8
1
  6
Continuous
100
AcDbLine
 10
233.7563617232747
 20
284.3840332505672
 30
0.0
 11
232.7563617232747
 21
285.3840332505671
 31
0.0
  0
LINE
  5
1227
330
18
100
AcDbEntity
  8
1
  6
Continuous
100
AcDbLine
 10
221.7563617232745
 20
284.3840332505672
 30
0.0
 11
221.7563617232745
 21
263.3840332505672
 31
0.0
  0
ARC
  5
122A
330
18
100
AcDbEntity
  8
1
  6
Continuous
100
AcDbCircle
 10
210.8976507232746
 20
263.1019862505671
 30
0.0
 40
10.0
100
AcDbArc
 50
285.0144260000486
 51
309.4846190000434
  0
LINE
  5
122B
330
18
100
AcDbEntity
  8
1
  6
Continuous
100
AcDbLine
 10
238.7563617232746
 20
255.3840332505671
 30
0.0
 11
216.7563617232746
 21
255.3840332505671
 31
0.0
  0
ARC
  5
122C
330
18
100
AcDbEntity
  8
1
  6
Continuous
100
AcDbCircle
 10
207.7563617232746
 20
600.0910678092617
 30
0.0
 40
250.0
100
AcDbArc
 50
262.2749430000541
 51
265.9400620000549
  0
LINE
  5
122D
330
18
100
AcDbEntity
  8
1
  6
Continuous
100
AcDbLine
 10
184.7563617232746
 20
351.1513168092617
 30
0.0
 11
230.7563617232747
 21
351.1513168092617
 31
0.0
  0
LINE
  5
122E
330
18
100
AcDbEntity
  8
1
  6
Continuous
100
AcDbLine
 10
237.7563617232747
 20
351.8975948092617
 30
0.0
 11
177.7563617232746
 21
351.8975948092617
 31
0.0
  0
LINE
  5
1230
330
18
100
AcDbEntity
  8
1
  6
Continuous
100
AcDbLine
 10
170.8632027232745
 20
370.2184358092618
 30
0.0
 11
244.6495207232747
 21
370.2184358092618
 31
0.0
  0
LINE
  5
1231
330
18
100
AcDbEntity
  8
1
  6
Continuous
100
AcDbLine
 10
170.8632027232745
 20
392.2184358092617
 30
0.0
 11
244.6495207232747
 21
392.2184358092617
 31
0.0
  0
LINE
  5
1232
330
18
100
AcDbEntity
  8
1
  6
Continuous
100
AcDbLine
 10
243.7563617232747
 20
367.7184358092617
 30
0.0
 11
171.7563617232745
 21
367.7184358092617
 31
0.0
  0
LINE
  5
1233
330
18
100
AcDbEntity
  8
1
  6
Continuous
100
AcDbLine
 10
243.7563617232747
 20
394.7184358092617
 30
0.0
 11
171.7563617232745
 21
394.7184358092617
 31
0.0
  0
LINE
  5
1234
330
18
100
AcDbEntity
  8
1
  6
Continuous
100
AcDbLine
 10
245.2563617232747
 20
366.2184358092618
 30
0.0
 11
245.2563617232747
 21
356.8191008092617
 31
0.0
  0
LINE
  5
1235
330
18
100
AcDbEntity
  8
1
  6
Continuous
100
AcDbLine
 10
225.4563617232746
 20
350.7184358092617
 30
0.0
 11
190.0563617232746
 21
350.7184358092617
 31
0.0
  0
ARC
  5
1236
330
18
100
AcDbEntity
  8
1
  6
Continuous
100
AcDbCircle
 10
207.7563617232746
 20
469.4058818092616
 30
0.0
 40
120.0
100
AcDbArc
 50
261.5179240000569
 51
278.4820760000481
  0
ARC
  5
1237
330
18
100
AcDbEntity
  8
1
  6
Continuous
100
AcDbCircle
 10
207.7563617232746
 20
600.0910678092617
 30
0.0
 40
250.0
100
AcDbArc
 50
274.0599380000495
 51
277.7250570000509
  0
ARC
  5
1238
330
18
100
AcDbEntity
  8
1
  6
Continuous
100
AcDbCircle
 10
240.7563617232747
 20
356.8191008092617
 30
0.0
 40
4.5
100
AcDbArc
 50
277.7250570000509
 51
0.0000000000358328
  0
CIRCLE
  5
123A
330
18
100
AcDbEntity
  8
1
  6
Continuous
100
AcDbCircle
 10
227.7563617232746
 20
381.2184358092618
 30
0.0
 40
6.0
  0
CIRCLE
  5
123B
330
18
100
AcDbEntity
  8
2
  6
Continuous
100
AcDbCircle
 10
227.7563617232746
 20
381.2184358092618
 30
0.0
 40
5.052999999999997
  0
ARC
  5
123C
330
18
100
AcDbEntity
  8
1
  6
Continuous
100
AcDbCircle
 10
145.2563617232746
 20
381.2184358092618
 30
0.0
 40
100.0
100
AcDbArc
 50
353.6846840000344
 51
6.315316000034272
  0
ARC
  5
123F
330
18
100
AcDbEntity
  8
1
  6
Continuous
100
AcDbCircle
 10
243.7563617232747
 20
366.2184358092618
 30
0.0
 40
1.5
100
AcDbArc
 50
0.0000000000358328
 51
90.00000000001952
  0
ARC
  5
1240
330
18
100
AcDbEntity
  8
1
  6
Continuous
100
AcDbCircle
 10
243.7563617232747
 20
396.2184358092617
 30
0.0
 40
1.5
100
AcDbArc
 50
270.0000000000521
 51
0.0000000000358328
  0
LINE
  5
1242
330
18
100
AcDbEntity
  8
1
  6
Continuous
100
AcDbLine
 10
216.2563617232746
 20
369.2184358092617
 30
0.0
 11
199.2563617232746
 21
369.2184358092617
 31
0.0
  0
ARC
  5
1243
330
18
100
AcDbEntity
  8
1
  6
Continuous
100
AcDbCircle
 10
216.2563617232746
 20
368.2184358092618
 30
0.0
 40
1.0
100
AcDbArc
 50
0.0000000000358328
 51
90.00000000001952
  0
LINE
  5
1244
330
18
100
AcDbEntity
  8
1
  6
Continuous
100
AcDbLine
 10
217.2563617232746
 20
368.2184358092618
 30
0.0
 11
217.2563617232746
 21
367.7184358092617
 31
0.0
  0
ARC
  5
1245
330
18
100
AcDbEntity
  8
1
  6
Continuous
100
AcDbCircle
 10
215.7563617232745
 20
370.2184358092618
 30
0.0
 40
1.0
100
AcDbArc
 50
270.0000000000521
 51
0.0000000000358328
  0
ARC
  5
1246
330
18
100
AcDbEntity
  8
1
  6
Continuous
100
AcDbCircle
 10
199.2563617232746
 20
368.2184358092618
 30
0.0
 40
1.0
100
AcDbArc
 50
90.00000000008467
 51
180.0000000000684
  0
LINE
  5
1247
330
18
100
AcDbEntity
  8
1
  6
Continuous
100
AcDbLine
 10
198.2563617232746
 20
368.2184358092618
 30
0.0
 11
198.2563617232746
 21
367.7184358092617
 31
0.0
  0
ARC
  5
1248
330
18
100
AcDbEntity
  8
1
  6
Continuous
100
AcDbCircle
 10
199.7563617232746
 20
370.2184358092618
 30
0.0
 40
1.0
100
AcDbArc
 50
180.0000000000684
 51
270.0000000000521
  0
LINE
  5
1249
330
18
100
AcDbEntity
  8
1
  6
Continuous
100
AcDbLine
 10
216.2563617232746
 20
393.2184358092618
 30
0.0
 11
199.2563617232746
 21
393.2184358092618
 31
0.0
  0
LINE
  5
124A
330
18
100
AcDbEntity
  8
1
  6
Continuous
100
AcDbLine
 10
217.2563617232746
 20
394.2184358092617
 30
0.0
 11
217.2563617232746
 21
394.7184358092617
 31
0.0
  0
ARC
  5
124B
330
18
100
AcDbEntity
  8
1
  6
Continuous
100
AcDbCircle
 10
215.7563617232745
 20
392.2184358092617
 30
0.0
 40
1.0
100
AcDbArc
 50
0.0000000000358328
 51
90.00000000001952
  0
ARC
  5
124C
330
18
100
AcDbEntity
  8
1
  6
Continuous
100
AcDbCircle
 10
216.2563617232746
 20
394.2184358092617
 30
0.0
 40
1.0
100
AcDbArc
 50
270.0000000000521
 51
0.0000000000325759
  0
LINE
  5
124D
330
18
100
AcDbEntity
  8
1
  6
Continuous
100
AcDbLine
 10
198.2563617232746
 20
394.2184358092617
 30
0.0
 11
198.2563617232746
 21
394.7184358092617
 31
0.0
  0
ARC
  5
124E
330
18
100
AcDbEntity
  8
1
  6
Continuous
100
AcDbCircle
 10
199.7563617232746
 20
392.2184358092617
 30
0.0
 40
1.0
100
AcDbArc
 50
90.00000000008467
 51
180.0000000000684
  0
ARC
  5
124F
330
18
100
AcDbEntity
  8
1
  6
Continuous
100
AcDbCircle
 10
199.2563617232746
 20
394.2184358092617
 30
0.0
 40
1.0
100
AcDbArc
 50
180.0000000000684
 51
270.0000000000521
  0
LINE
  5
1250
330
18
100
AcDbEntity
  8
1
  6
Continuous
100
AcDbLine
 10
170.2563617232746
 20
366.2184358092618
 30
0.0
 11
170.2563617232746
 21
356.8191008092617
 31
0.0
  0
ARC
  5
1251
330
18
100
AcDbEntity
  8
1
  6
Continuous
100
AcDbCircle
 10
174.7563617232746
 20
356.8191008092617
 30
0.0
 40
4.5
100
AcDbArc
 50
180.0000000000684
 51
262.2749430000541
  0
ARC
  5
1253
330
18
100
AcDbEntity
  8
1
  6
Continuous
100
AcDbCircle
 10
171.7563617232745
 20
366.2184358092618
 30
0.0
 40
1.5
100
AcDbArc
 50
90.00000000008467
 51
180.0000000000684
  0
ARC
  5
1254
330
18
100
AcDbEntity
  8
1
  6
Continuous
100
AcDbCircle
 10
171.7563617232745
 20
396.2184358092617
 30
0.0
 40
1.5
100
AcDbArc
 50
180.0000000000684
 51
270.0000000000521
  0
LINE
  5
1255
330
18
100
AcDbEntity
  8
1
  6
Continuous
100
AcDbLine
 10
30.71462372327459
 20
234.0840332505671
 30
0.0
 11
30.71462372327459
 21
198.6840332505672
 31
0.0
  0
ARC
  5
1256
330
18
100
AcDbEntity
  8
1
  6
Continuous
100
AcDbCircle
 10
149.4020707232746
 20
216.3840332505671
 30
0.0
 40
120.0
100
AcDbArc
 50
171.5179240000702
 51
188.4820760000679
  0
ARC
  5
1257
330
18
100
AcDbEntity
  8
1
  6
Continuous
100
AcDbCircle
 10
50.2146237232746
 20
208.3840332505672
 30
0.0
 40
1.0
100
AcDbArc
 50
180.0000000000684
 51
270.0000000000521
  0
ARC
  5
1258
330
18
100
AcDbEntity
  8
1
  6
Continuous
100
AcDbCircle
 10
72.2146237232746
 20
208.3840332505672
 30
0.0
 40
1.0
100
AcDbArc
 50
270.0000000000521
 51
0.0000000000358328
  0
LINE
  5
1259
330
18
100
AcDbEntity
  8
1
  6
Continuous
100
AcDbLine
 10
72.2146237232746
 20
252.7771922505672
 30
0.0
 11
72.2146237232746
 21
206.3840332505672
 31
0.0
  0
LINE
  5
125A
330
18
100
AcDbEntity
  8
1
  6
Continuous
100
AcDbLine
 10
50.2146237232746
 20
252.7771922505672
 30
0.0
 11
50.2146237232746
 21
206.3840332505672
 31
0.0
  0
LINE
  5
125B
330
18
100
AcDbEntity
  8
1
  6
Continuous
100
AcDbLine
 10
73.21462372327459
 20
224.8840332505671
 30
0.0
 11
73.21462372327459
 21
207.8840332505671
 31
0.0
  0
LINE
  5
125C
330
18
100
AcDbEntity
  8
1
  6
Continuous
100
AcDbLine
 10
74.7146237232746
 20
252.3840332505672
 30
0.0
 11
74.7146237232746
 21
180.3840332505671
 31
0.0
  0
LINE
  5
125D
330
18
100
AcDbEntity
  8
1
  6
Continuous
100
AcDbLine
 10
91.71462372327459
 20
234.0840332505671
 30
0.0
 11
91.71462372327459
 21
198.6840332505672
 31
0.0
  0
ARC
  5
125E
330
18
100
AcDbEntity
  8
1
  6
Continuous
100
AcDbCircle
 10
-26.97282327672542
 20
216.3840332505671
 30
0.0
 40
120.0
100
AcDbArc
 50
351.5179240000372
 51
8.482076000031527
  0
LINE
  5
125F
330
18
100
AcDbEntity
  8
1
  6
Continuous
100
AcDbLine
 10
91.28174272327463
 20
193.3840332505671
 30
0.0
 11
91.28174272327463
 21
239.3840332505671
 31
0.0
  0
LINE
  5
1260
330
18
100
AcDbEntity
  8
1
  6
Continuous
100
AcDbLine
 10
90.53546372327469
 20
246.3840332505672
 30
0.0
 11
90.53546372327469
 21
186.3840332505672
 31
0.0
  0
LINE
  5
1261
330
18
100
AcDbEntity
  8
1
  6
Continuous
100
AcDbLine
 10
49.21462372327461
 20
224.8840332505671
 30
0.0
 11
49.21462372327461
 21
207.8840332505671
 31
0.0
  0
LINE
  5
1262
330
18
100
AcDbEntity
  8
1
  6
Continuous
100
AcDbLine
 10
47.7146237232746
 20
252.3840332505672
 30
0.0
 11
47.7146237232746
 21
180.3840332505671
 31
0.0
  0
LINE
  5
1263
330
18
100
AcDbEntity
  8
1
  6
Continuous
100
AcDbLine
 10
31.14750472327466
 20
193.3840332505671
 30
0.0
 11
31.14750472327466
 21
239.3840332505671
 31
0.0
  0
LINE
  5
1264
330
18
100
AcDbEntity
  8
1
  6
Continuous
100
AcDbLine
 10
31.89378372327463
 20
246.3840332505672
 30
0.0
 11
31.89378372327463
 21
186.3840332505672
 31
0.0
  0
LINE
  5
1266
330
18
100
AcDbEntity
  8
1
  6
Continuous
100
AcDbLine
 10
50.2146237232746
 20
206.3840332505672
 30
0.0
 11
72.2146237232746
 21
206.3840332505672
 31
0.0
  0
ARC
  5
1267
330
18
100
AcDbEntity
  8
1
  6
Continuous
100
AcDbCircle
 10
-157.6580092767253
 20
216.3840332505671
 30
0.0
 40
250.0
100
AcDbArc
 50
352.2749430000378
 51
355.9400620000356
  0
LINE
  5
1268
330
18
100
AcDbEntity
  8
1
  6
Continuous
100
AcDbLine
 10
76.2146237232746
 20
178.8840332505671
 30
0.0
 11
85.61395772327466
 21
178.8840332505671
 31
0.0
  0
ARC
  5
1269
330
18
100
AcDbEntity
  8
1
  6
Continuous
100
AcDbCircle
 10
85.61395772327466
 20
183.3840332505672
 30
0.0
 40
4.5
100
AcDbArc
 50
270.0000000000521
 51
352.2749430000378
  0
ARC
  5
126A
330
18
100
AcDbEntity
  8
1
  6
Continuous
100
AcDbCircle
 10
76.2146237232746
 20
180.3840332505671
 30
0.0
 40
1.5
100
AcDbArc
 50
180.0000000000684
 51
270.0000000000521
  0
ARC
  5
126B
330
18
100
AcDbEntity
  8
1
  6
Continuous
100
AcDbCircle
 10
74.2146237232746
 20
207.8840332505671
 30
0.0
 40
1.0
100
AcDbArc
 50
180.0000000000684
 51
270.0000000000521
  0
LINE
  5
126C
330
18
100
AcDbEntity
  8
1
  6
Continuous
100
AcDbLine
 10
74.2146237232746
 20
206.8840332505672
 30
0.0
 11
74.7146237232746
 21
206.8840332505672
 31
0.0
  0
ARC
  5
126D
330
18
100
AcDbEntity
  8
1
  6
Continuous
100
AcDbCircle
 10
280.0872567232746
 20
216.3840332505671
 30
0.0
 40
250.0
100
AcDbArc
 50
184.0599380000693
 51
187.7250570000671
  0
LINE
  5
126E
330
18
100
AcDbEntity
  8
1
  6
Continuous
100
AcDbLine
 10
46.21462372327459
 20
178.8840332505671
 30
0.0
 11
36.81528972327464
 21
178.8840332505671
 31
0.0
  0
ARC
  5
126F
330
18
100
AcDbEntity
  8
1
  6
Continuous
100
AcDbCircle
 10
46.21462372327459
 20
180.3840332505671
 30
0.0
 40
1.5
100
AcDbArc
 50
270.0000000000521
 51
0.0000000000358328
  0
ARC
  5
1270
330
18
100
AcDbEntity
  8
1
  6
Continuous
100
AcDbCircle
 10
36.81528972327464
 20
183.3840332505672
 30
0.0
 40
4.5
100
AcDbArc
 50
187.7250570000671
 51
270.0000000000521
  0
LINE
  5
1271
330
18
100
AcDbEntity
  8
1
  6
Continuous
100
AcDbLine
 10
48.21462372327459
 20
206.8840332505672
 30
0.0
 11
47.7146237232746
 21
206.8840332505672
 31
0.0
  0
ARC
  5
1272
330
18
100
AcDbEntity
  8
1
  6
Continuous
100
AcDbCircle
 10
48.21462372327459
 20
207.8840332505671
 30
0.0
 40
1.0
100
AcDbArc
 50
270.0000000000521
 51
0.0000000000358328
  0
LINE
  5
1273
330
18
100
AcDbEntity
  8
1
  6
Continuous
100
AcDbLine
 10
67.2146237232746
 20
264.3840332505671
 30
0.0
 11
55.2146237232746
 21
264.3840332505671
 31
0.0
  0
LINE
  5
1274
330
18
100
AcDbEntity
  8
1
  6
Continuous
100
AcDbLine
 10
67.2146237232746
 20
284.3840332505672
 30
0.0
 11
55.2146237232746
 21
284.3840332505672
 31
0.0
  0
LINE
  5
1275
330
18
100
AcDbEntity
  8
1
  6
Continuous
100
AcDbLine
 10
66.2146237232746
 20
285.3840332505671
 30
0.0
 11
56.2146237232746
 21
285.3840332505671
 31
0.0
  0
LINE
  5
1277
330
18
100
AcDbEntity
  8
1
  6
Continuous
100
AcDbLine
 10
71.7146237232746
 20
255.3840332505671
 30
0.0
 11
50.71462372327459
 21
255.3840332505671
 31
0.0
  0
ARC
  5
127A
330
18
100
AcDbEntity
  8
1
  6
Continuous
100
AcDbCircle
 10
85.61395772327466
 20
249.3840332505671
 30
0.0
 40
4.5
100
AcDbArc
 50
7.725057000034787
 51
90.00000000001952
  0
ARC
  5
127B
330
18
100
AcDbEntity
  8
1
  6
Continuous
100
AcDbCircle
 10
72.2146237232746
 20
224.3840332505671
 30
0.0
 40
1.0
100
AcDbArc
 50
0.0000000000358328
 51
90.00000000001952
  0
ARC
  5
127C
330
18
100
AcDbEntity
  8
1
  6
Continuous
100
AcDbCircle
 10
74.2146237232746
 20
224.8840332505671
 30
0.0
 40
1.0
100
AcDbArc
 50
90.00000000001952
 51
180.0
  0
LINE
  5
127D
330
18
100
AcDbEntity
  8
1
  6
Continuous
100
AcDbLine
 10
74.2146237232746
 20
225.8840332505672
 30
0.0
 11
74.7146237232746
 21
225.8840332505672
 31
0.0
  0
ARC
  5
127E
330
18
100
AcDbEntity
  8
1
  6
Continuous
100
AcDbCircle
 10
-157.6580092767253
 20
216.3840332505671
 30
0.0
 40
250.0
100
AcDbArc
 50
4.05993800003307
 51
7.725057000034787
  0
LINE
  5
1280
330
18
100
AcDbEntity
  8
1
  6
Continuous
100
AcDbLine
 10
67.2146237232746
 20
263.3840332505672
 30
0.0
 11
67.2146237232746
 21
284.3840332505672
 31
0.0
  0
LINE
  5
1281
330
18
100
AcDbEntity
  8
1
  6
Continuous
100
AcDbLine
 10
76.2146237232746
 20
253.8840332505671
 30
0.0
 11
85.61395772327466
 21
253.8840332505671
 31
0.0
  0
LINE
  5
1284
330
18
100
AcDbEntity
  8
1
  6
Continuous
100
AcDbLine
 10
71.7146237232746
 20
255.3840332505671
 30
0.0
 11
71.7146237232746
 21
252.8312552505671
 31
0.0
  0
ARC
  5
1285
330
18
100
AcDbEntity
  8
1
  6
Continuous
100
AcDbCircle
 10
76.2146237232746
 20
252.3840332505672
 30
0.0
 40
1.5
100
AcDbArc
 50
90.00000000001952
 51
180.0
  0
LINE
  5
1287
330
18
100
AcDbEntity
  8
1
  6
Continuous
100
AcDbLine
 10
67.2146237232746
 20
284.3840332505672
 30
0.0
 11
66.2146237232746
 21
285.3840332505671
 31
0.0
  0
ARC
  5
1288
330
18
100
AcDbEntity
  8
1
  6
Continuous
100
AcDbCircle
 10
36.81528972327464
 20
249.3840332505671
 30
0.0
 40
4.5
100
AcDbArc
 50
90.00000000001952
 51
172.2749430000015
  0
LINE
  5
1289
330
18
100
AcDbEntity
  8
1
  6
Continuous
100
AcDbLine
 10
48.21462372327459
 20
225.8840332505672
 30
0.0
 11
47.7146237232746
 21
225.8840332505672
 31
0.0
  0
ARC
  5
128A
330
18
100
AcDbEntity
  8
1
  6
Continuous
100
AcDbCircle
 10
50.2146237232746
 20
224.3840332505671
 30
0.0
 40
1.0
100
AcDbArc
 50
90.00000000001952
 51
180.0
  0
ARC
  5
128B
330
18
100
AcDbEntity
  8
1
  6
Continuous
100
AcDbCircle
 10
48.21462372327459
 20
224.8840332505671
 30
0.0
 40
1.0
100
AcDbArc
 50
0.0000000000358328
 51
90.00000000001952
  0
ARC
  5
128C
330
18
100
AcDbEntity
  8
1
  6
Continuous
100
AcDbCircle
 10
280.0872567232746
 20
216.3840332505671
 30
0.0
 40
250.0
100
AcDbArc
 50
172.2749430000015
 51
175.9400620000026
  0
LINE
  5
128E
330
18
100
AcDbEntity
  8
1
  6
Continuous
100
AcDbLine
 10
55.2146237232746
 20
284.3840332505672
 30
0.0
 11
55.2146237232746
 21
263.3840332505672
 31
0.0
  0
LINE
  5
128F
330
18
100
AcDbEntity
  8
1
  6
Continuous
100
AcDbLine
 10
46.21462372327459
 20
253.8840332505671
 30
0.0
 11
36.81528972327464
 21
253.8840332505671
 31
0.0
  0
ARC
  5
1291
330
18
100
AcDbEntity
  8
1
  6
Continuous
100
AcDbCircle
 10
46.21462372327459
 20
252.3840332505672
 30
0.0
 40
1.5
100
AcDbArc
 50
0.0000000000358328
 51
90.00000000001952
  0
LINE
  5
1293
330
18
100
AcDbEntity
  8
1
  6
Continuous
100
AcDbLine
 10
50.71462372327459
 20
255.3840332505671
 30
0.0
 11
50.71462372327459
 21
252.8312552505671
 31
0.0
  0
LINE
  5
1295
330
18
100
AcDbEntity
  8
1
  6
Continuous
100
AcDbLine
 10
56.2146237232746
 20
285.3840332505671
 30
0.0
 11
55.2146237232746
 21
284.3840332505672
 31
0.0
  0
ARC
  5
1296
330
18
100
AcDbEntity
  8
1
  6
Continuous
100
AcDbCircle
 10
207.7563617232746
 20
162.3458028092617
 30
0.0
 40
250.0
100
AcDbArc
 50
94.05993800001679
 51
97.72505700001822
  0
LINE
  5
1297
330
18
100
AcDbEntity
  8
1
  6
Continuous
100
AcDbLine
 10
184.7563617232746
 20
411.2855548092618
 30
0.0
 11
230.7563617232747
 21
411.2855548092618
 31
0.0
  0
LINE
  5
1298
330
18
100
AcDbEntity
  8
1
  6
Continuous
100
AcDbLine
 10
237.7563617232747
 20
410.5392758092618
 30
0.0
 11
177.7563617232746
 21
410.5392758092618
 31
0.0
  0
LINE
  5
1299
330
18
100
AcDbEntity
  8
1
  6
Continuous
100
AcDbLine
 10
225.4563617232746
 20
411.7184358092615
 30
0.0
 11
190.0563617232746
 21
411.7184358092615
 31
0.0
  0
ARC
  5
129A
330
18
100
AcDbEntity
  8
1
  6
Continuous
100
AcDbCircle
 10
207.7563617232746
 20
293.0309888092617
 30
0.0
 40
120.0
100
AcDbArc
 50
81.51792400001777
 51
98.48207600001543
  0
ARC
  5
129B
330
18
100
AcDbEntity
  8
1
  6
Continuous
100
AcDbCircle
 10
207.7563617232746
 20
162.3458028092617
 30
0.0
 40
250.0
100
AcDbArc
 50
82.2749430000214
 51
85.94006200001592
  0
ARC
  5
129C
330
18
100
AcDbEntity
  8
1
  6
Continuous
100
AcDbCircle
 10
240.7563617232747
 20
405.6177698092616
 30
0.0
 40
4.5
100
AcDbArc
 50
0.0000000000358328
 51
82.2749430000214
  0
ARC
  5
129D
330
18
100
AcDbEntity
  8
1
  6
Continuous
100
AcDbCircle
 10
174.7563617232746
 20
405.6177698092616
 30
0.0
 40
4.5
100
AcDbArc
 50
97.72505700008403
 51
180.0000000000684
  0
LINE
  5
129E
330
18
100
AcDbEntity
  8
4
  6
CENTER
 48
0.3
100
AcDbLine
 10
250.2563617232746
 20
216.3840332505671
 30
0.0
 11
165.2563617232746
 21
216.3840332505671
 31
0.0
  0
LINE
  5
129F
330
18
100
AcDbEntity
  8
4
  6
CENTER
 48
0.3
100
AcDbLine
 10
207.7563617232746
 20
258.8840332505672
 30
0.0
 11
207.7563617232746
 21
173.8840332505672
 31
0.0
  0
LINE
  5
12A0
330
18
100
AcDbEntity
  8
4
  6
CENTER
 48
0.3
100
AcDbLine
 10
227.7563617232747
 20
201.3840332505671
 30
0.0
 11
227.7563617232746
 21
290.3840332505671
 31
0.0
  0
LINE
  5
12A1
330
18
100
AcDbEntity
  8
4
  6
CENTER
 48
0.3
100
AcDbLine
 10
24.40207072327462
 20
216.3840332505671
 30
0.0
 11
98.02717672327458
 21
216.3840332505671
 31
0.0
  0
LINE
  5
12A2
330
18
100
AcDbEntity
  8
4
  6
CENTER
 48
0.3
100
AcDbLine
 10
61.2146237232746
 20
201.3840332505671
 30
0.0
 11
61.2146237232746
 21
290.3840332505671
 31
0.0
  0
LINE
  5
12A3
330
18
100
AcDbEntity
  8
4
  6
CENTER
 48
0.3
100
AcDbLine
 10
227.7563617232747
 20
365.2184358092617
 30
0.0
 11
227.7563617232747
 21
397.2184358092618
 31
0.0
  0
LINE
  5
12A4
330
18
100
AcDbEntity
  8
4
  6
CENTER
 48
0.3
100
AcDbLine
 10
207.7563617232746
 20
418.0309888092617
 30
0.0
 11
207.7563617232746
 21
344.4058818092618
 31
0.0
  0
LINE
  5
12A5
330
18
100
AcDbEntity
  8
4
  6
CENTER
 48
0.3
100
AcDbLine
 10
250.2563617232746
 20
381.2184358091412
 30
0.0
 11
152.8134377232754
 21
381.2184358091412
 31
0.0
  0
LINE
  5
12A6
330
18
100
AcDbEntity
  8
2
  6
Continuous
100
AcDbLine
 10
222.7033617232746
 20
264.3840332505671
 30
0.0
 11
222.7033617232747
 21
285.3310332505673
 31
0.0
  0
LINE
  5
12A7
330
18
100
AcDbEntity
  8
2
  6
Continuous
100
AcDbLine
 10
66.26762372327459
 20
264.3840332505671
 30
0.0
 11
66.26762372327448
 21
285.3310332505673
 31
0.0
  0
LINE
  5
12A8
330
18
100
AcDbEntity
  8
2
  6
Continuous
100
AcDbLine
 10
56.1616237232746
 20
264.3840332505671
 30
0.0
 11
56.16162372327472
 21
285.3310332505673
 31
0.0
  0
ARC
  5
1465
330
18
100
AcDbEntity
  8
1
  6
Continuous
100
AcDbCircle
 10
389.2980997232746
 20
252.3840332505672
 30
0.0
 40
1.5
100
AcDbArc
 50
89.99999999998047
 51
179.9999999999641
  0
ARC
  5
1466
330
18
100
AcDbEntity
  8
1
  6
Continuous
100
AcDbCircle
 10
389.2980997232746
 20
180.3840332505671
 30
0.0
 40
1.5
100
AcDbArc
 50
179.9999999999641
 51
269.9999999999478
  0
LINE
  5
1467
330
18
100
AcDbEntity
  8
4
  6
CENTER
 48
0.3
100
AcDbLine
 10
411.1106527232745
 20
216.3840332505671
 30
0.0
 11
337.4855467232746
 21
216.3840332505671
 31
0.0
  0
LINE
  5
1468
330
18
100
AcDbEntity
  8
1
  6
Continuous
100
AcDbLine
 10
403.6189397232745
 20
246.3840332505672
 30
0.0
 11
403.6189397232745
 21
186.3840332505672
 31
0.0
  0
LINE
  5
1469
330
18
100
AcDbEntity
  8
1
  6
Continuous
100
AcDbLine
 10
404.3652187232745
 20
193.3840332505671
 30
0.0
 11
404.3652187232745
 21
239.3840332505671
 31
0.0
  0
ARC
  5
146A
330
18
100
AcDbEntity
  8
1
  6
Continuous
100
AcDbCircle
 10
286.1106527232745
 20
216.3840332505671
 30
0.0
 40
120.0
100
AcDbArc
 50
351.517923999932
 51
8.482075999929751
  0
LINE
  5
146B
330
18
100
AcDbEntity
  8
1
  6
Continuous
100
AcDbLine
 10
404.7980997232746
 20
234.0840332505671
 30
0.0
 11
404.7980997232746
 21
198.6840332505672
 31
0.0
  0
ARC
  5
146C
330
18
100
AcDbEntity
  8
1
  6
Continuous
100
AcDbCircle
 10
155.4254667232745
 20
216.3840332505671
 30
0.0
 40
250.0
100
AcDbArc
 50
352.2749429999328
 51
355.9400619999307
  0
LINE
  5
146D
330
18
100
AcDbEntity
  8
1
  6
Continuous
100
AcDbLine
 10
389.2980997232746
 20
178.8840332505671
 30
0.0
 11
398.6974337232745
 21
178.8840332505671
 31
0.0
  0
ARC
  5
146E
330
18
100
AcDbEntity
  8
1
  6
Continuous
100
AcDbCircle
 10
398.6974337232745
 20
183.3840332505672
 30
0.0
 40
4.5
100
AcDbArc
 50
269.9999999999478
 51
352.2749429999328
  0
ARC
  5
146F
330
18
100
AcDbEntity
  8
1
  6
Continuous
100
AcDbCircle
 10
155.4254667232745
 20
216.3840332505671
 30
0.0
 40
250.0
100
AcDbArc
 50
4.059937999997321
 51
7.725056999998428
  0
LINE
  5
1470
330
18
100
AcDbEntity
  8
1
  6
Continuous
100
AcDbLine
 10
389.2980997232746
 20
253.8840332505671
 30
0.0
 11
398.6974337232745
 21
253.8840332505671
 31
0.0
  0
ARC
  5
1471
330
18
100
AcDbEntity
  8
1
  6
Continuous
100
AcDbCircle
 10
398.6974337232745
 20
249.3840332505671
 30
0.0
 40
4.5
100
AcDbArc
 50
7.725056999998428
 51
89.99999999998047
  0
LINE
  5
1475
330
18
100
AcDbEntity
  8
4
  6
CENTER
 48
0.3
100
AcDbLine
 10
374.2980997232746
 20
201.3840332505671
 30
0.0
 11
374.2980997232746
 21
290.3840332505671
 31
0.0
  0
LINE
  5
1477
330
18
100
AcDbEntity
  8
1
  6
Continuous
100
AcDbLine
 10
387.7980997232746
 20
252.3840332505672
 30
0.0
 11
387.7980997232746
 21
180.3840332505671
 31
0.0
  0
LINE
  5
1478
330
18
100
AcDbEntity
  8
1
  6
Continuous
100
AcDbLine
 10
386.2980997232746
 20
224.8840332505671
 30
0.0
 11
386.2980997232746
 21
207.8840332505671
 31
0.0
  0
LINE
  5
1479
330
18
100
AcDbEntity
  8
1
  6
Continuous
100
AcDbLine
 10
344.9772597232745
 20
246.3840332505672
 30
0.0
 11
344.9772597232745
 21
186.3840332505672
 31
0.0
  0
LINE
  5
147A
330
18
100
AcDbEntity
  8
1
  6
Continuous
100
AcDbLine
 10
344.2309807232745
 20
193.3840332505671
 30
0.0
 11
344.2309807232745
 21
239.3840332505671
 31
0.0
  0
ARC
  5
147B
330
18
100
AcDbEntity
  8
1
  6
Continuous
100
AcDbCircle
 10
462.4855467232746
 20
216.3840332505671
 30
0.0
 40
120.0
100
AcDbArc
 50
171.5179239999684
 51
188.4820759999629
  0
LINE
  5
147C
330
18
100
AcDbEntity
  8
1
  6
Continuous
100
AcDbLine
 10
343.7980997232746
 20
234.0840332505671
 30
0.0
 11
343.7980997232746
 21
198.6840332505672
 31
0.0
  0
LINE
  5
147D
330
18
100
AcDbEntity
  8
1
  6
Continuous
100
AcDbLine
 10
360.7980997232746
 20
252.3840332505672
 30
0.0
 11
360.7980997232746
 21
180.3840332505671
 31
0.0
  0
LINE
  5
147E
330
18
100
AcDbEntity
  8
1
  6
Continuous
100
AcDbLine
 10
362.2980997232746
 20
224.8840332505671
 30
0.0
 11
362.2980997232746
 21
207.8840332505671
 31
0.0
  0
LINE
  5
147F
330
18
100
AcDbEntity
  8
1
  6
Continuous
100
AcDbLine
 10
385.2980997232746
 20
252.7771922505672
 30
0.0
 11
385.2980997232746
 21
206.3840332505672
 31
0.0
  0
LINE
  5
1480
330
18
100
AcDbEntity
  8
1
  6
Continuous
100
AcDbLine
 10
363.2980997232746
 20
252.7771922505672
 30
0.0
 11
363.2980997232746
 21
206.3840332505672
 31
0.0
  0
LINE
  5
1481
330
18
100
AcDbEntity
  8
1
  6
Continuous
100
AcDbLine
 10
359.2980997232746
 20
178.8840332505671
 30
0.0
 11
349.8987657232746
 21
178.8840332505671
 31
0.0
  0
ARC
  5
1483
330
18
100
AcDbEntity
  8
1
  6
Continuous
100
AcDbCircle
 10
359.2980997232746
 20
180.3840332505671
 30
0.0
 40
1.5
100
AcDbArc
 50
269.9999999999478
 51
359.9999999999316
  0
LINE
  5
1484
330
18
100
AcDbEntity
  8
1
  6
Continuous
100
AcDbLine
 10
385.2980997232746
 20
206.3840332505672
 30
0.0
 11
363.2980997232746
 21
206.3840332505672
 31
0.0
  0
ARC
  5
1485
330
18
100
AcDbEntity
  8
1
  6
Continuous
100
AcDbCircle
 10
387.2980997232746
 20
207.8840332505671
 30
0.0
 40
1.0
100
AcDbArc
 50
179.9999999999641
 51
269.9999999999478
  0
LINE
  5
1486
330
18
100
AcDbEntity
  8
1
  6
Continuous
100
AcDbLine
 10
387.2980997232746
 20
206.8840332505672
 30
0.0
 11
387.7980997232746
 21
206.8840332505672
 31
0.0
  0
ARC
  5
1487
330
18
100
AcDbEntity
  8
1
  6
Continuous
100
AcDbCircle
 10
385.2980997232746
 20
208.3840332505672
 30
0.0
 40
1.0
100
AcDbArc
 50
269.9999999999478
 51
359.9999999999316
  0
LINE
  5
1488
330
18
100
AcDbEntity
  8
1
  6
Continuous
100
AcDbLine
 10
361.2980997232746
 20
206.8840332505672
 30
0.0
 11
360.7980997232746
 21
206.8840332505672
 31
0.0
  0
ARC
  5
1489
330
18
100
AcDbEntity
  8
1
  6
Continuous
100
AcDbCircle
 10
361.2980997232746
 20
207.8840332505671
 30
0.0
 40
1.0
100
AcDbArc
 50
269.9999999999478
 51
359.9999999999316
  0
ARC
  5
148A
330
18
100
AcDbEntity
  8
1
  6
Continuous
100
AcDbCircle
 10
363.2980997232746
 20
208.3840332505672
 30
0.0
 40
1.0
100
AcDbArc
 50
179.9999999999641
 51
269.9999999999478
  0
ARC
  5
148B
330
18
100
AcDbEntity
  8
1
  6
Continuous
100
AcDbCircle
 10
593.1707327232746
 20
216.3840332505671
 30
0.0
 40
250.0
100
AcDbArc
 50
184.0599379999643
 51
187.725056999962
  0
ARC
  5
148C
330
18
100
AcDbEntity
  8
1
  6
Continuous
100
AcDbCircle
 10
349.8987657232746
 20
183.3840332505672
 30
0.0
 40
4.5
100
AcDbArc
 50
187.725056999962
 51
269.9999999999478
  0
LINE
  5
148D
330
18
100
AcDbEntity
  8
1
  6
Continuous
100
AcDbLine
 10
359.2980997232746
 20
253.8840332505671
 30
0.0
 11
349.8987657232746
 21
253.8840332505671
 31
0.0
  0
ARC
  5
148E
330
18
100
AcDbEntity
  8
1
  6
Continuous
100
AcDbCircle
 10
387.2980997232746
 20
224.8840332505671
 30
0.0
 40
1.0
100
AcDbArc
 50
89.99999999998047
 51
179.9999999999641
  0
ARC
  5
148F
330
18
100
AcDbEntity
  8
1
  6
Continuous
100
AcDbCircle
 10
385.2980997232746
 20
224.3840332505671
 30
0.0
 40
1.0
100
AcDbArc
 50
0.000000000000007
 51
89.99999999998047
  0
LINE
  5
1490
330
18
100
AcDbEntity
  8
1
  6
Continuous
100
AcDbLine
 10
387.2980997232746
 20
225.8840332505672
 30
0.0
 11
387.7980997232746
 21
225.8840332505672
 31
0.0
  0
LINE
  5
1491
330
18
100
AcDbEntity
  8
1
  6
Continuous
100
AcDbLine
 10
361.2980997232746
 20
225.8840332505672
 30
0.0
 11
360.7980997232746
 21
225.8840332505672
 31
0.0
  0
ARC
  5
1492
330
18
100
AcDbEntity
  8
1
  6
Continuous
100
AcDbCircle
 10
361.2980997232746
 20
224.8840332505671
 30
0.0
 40
1.0
100
AcDbArc
 50
0.000000000000007
 51
89.99999999998047
  0
ARC
  5
1493
330
18
100
AcDbEntity
  8
1
  6
Continuous
100
AcDbCircle
 10
363.2980997232746
 20
224.3840332505671
 30
0.0
 40
1.0
100
AcDbArc
 50
89.99999999998047
 51
179.9999999999641
  0
ARC
  5
1494
330
18
100
AcDbEntity
  8
1
  6
Continuous
100
AcDbCircle
 10
374.2980997232746
 20
153.3840332505671
 30
0.0
 40
100.0
100
AcDbArc
 50
83.6846839999823
 51
83.9728334398689
  0
LINE
  5
1495
330
18
100
AcDbEntity
  8
1
  6
Continuous
100
AcDbLine
 10
363.7980997232746
 20
255.3840332505671
 30
0.0
 11
384.7980997232746
 21
255.3840332505671
 31
0.0
  0
LINE
  5
1496
330
18
100
AcDbEntity
  8
1
  6
Continuous
100
AcDbLine
 10
384.7980997232746
 20
255.3840332505671
 30
0.0
 11
384.7980997232747
 21
248.1054771016922
 31
0.0
  0
ARC
  5
1498
330
18
100
AcDbEntity
  8
1
  6
Continuous
100
AcDbCircle
 10
359.2980997232746
 20
252.3840332505672
 30
0.0
 40
1.5
100
AcDbArc
 50
0.000000000000007
 51
89.99999999998047
  0
LINE
  5
1499
330
18
100
AcDbEntity
  8
1
  6
Continuous
100
AcDbLine
 10
363.7980997232746
 20
255.3840332505671
 30
0.0
 11
363.7980997232746
 21
248.1054771016895
 31
0.0
  0
ARC
  5
149B
330
18
100
AcDbEntity
  8
1
  6
Continuous
100
AcDbCircle
 10
593.1707327232746
 20
216.3840332505671
 30
0.0
 40
250.0
100
AcDbArc
 50
172.2749429999652
 51
175.9400619999669
  0
ARC
  5
149C
330
18
100
AcDbEntity
  8
1
  6
Continuous
100
AcDbCircle
 10
349.8987657232746
 20
249.3840332505671
 30
0.0
 40
4.5
100
AcDbArc
 50
89.99999999998047
 51
172.2749429999652
  0
LINE
  5
14A0
330
18
100
AcDbEntity
  8
2
  6
Continuous
100
AcDbLine
 10
379.3510997232746
 20
264.3840332505671
 30
0.0
 11
379.3510997232746
 21
285.3310332505673
 31
0.0
  0
LINE
  5
14A1
330
18
100
AcDbEntity
  8
2
  6
Continuous
100
AcDbLine
 10
369.2450997232746
 20
264.3840332505671
 30
0.0
 11
369.2450997232747
 21
285.3310332505673
 31
0.0
  0
LINE
  5
14A2
330
18
100
AcDbEntity
  8
1
  6
Continuous
100
AcDbLine
 10
380.2980997232746
 20
284.3840332505672
 30
0.0
 11
380.2980997232746
 21
263.3840332505672
 31
0.0
  0
LINE
  5
14A3
330
18
100
AcDbEntity
  8
1
  6
Continuous
100
AcDbLine
 10
368.2980997232746
 20
263.3840332505672
 30
0.0
 11
368.2980997232746
 21
284.3840332505672
 31
0.0
  0
LINE
  5
14A5
330
18
100
AcDbEntity
  8
1
  6
Continuous
100
AcDbLine
 10
368.2980997232746
 20
264.3840332505671
 30
0.0
 11
380.2980997232746
 21
264.3840332505671
 31
0.0
  0
LINE
  5
14A9
330
18
100
AcDbEntity
  8
1
  6
Continuous
100
AcDbLine
 10
369.2980997232746
 20
285.3840332505671
 30
0.0
 11
379.2980997232746
 21
285.3840332505671
 31
0.0
  0
LINE
  5
14AA
330
18
100
AcDbEntity
  8
1
  6
Continuous
100
AcDbLine
 10
368.2980997232746
 20
284.3840332505672
 30
0.0
 11
380.2980997232746
 21
284.3840332505672
 31
0.0
  0
LINE
  5
14AB
330
18
100
AcDbEntity
  8
1
  6
Continuous
100
AcDbLine
 10
379.2980997232746
 20
285.3840332505671
 30
0.0
 11
380.2980997232746
 21
284.3840332505672
 31
0.0
  0
LINE
  5
14AC
330
18
100
AcDbEntity
  8
1
  6
Continuous
100
AcDbLine
 10
368.2980997232746
 20
284.3840332505672
 30
0.0
 11
369.2980997232746
 21
285.3840332505671
 31
0.0
  0
LINE
  5
158B
330
18
100
AcDbEntity
  8
1
  6
Continuous
100
AcDbLine
 10
184.7563617232746
 20
101.6167496918726
 30
0.0
 11
230.7563617232747
 21
101.6167496918726
 31
0.0
  0
LINE
  5
158C
330
18
100
AcDbEntity
  8
1
  6
Continuous
100
AcDbLine
 10
237.7563617232747
 20
100.8704716918725
 30
0.0
 11
177.7563617232746
 21
100.8704716918725
 31
0.0
  0
LINE
  5
158D
330
18
100
AcDbEntity
  8
1
  6
Continuous
100
AcDbLine
 10
170.8632027232745
 20
82.5496306918726
 30
0.0
 11
244.6495207232747
 21
82.5496306918726
 31
0.0
  0
LINE
  5
158E
330
18
100
AcDbEntity
  8
1
  6
Continuous
100
AcDbLine
 10
170.8632027232745
 20
60.54963069187261
 30
0.0
 11
244.6495207232747
 21
60.54963069187261
 31
0.0
  0
LINE
  5
158F
330
18
100
AcDbEntity
  8
1
  6
Continuous
100
AcDbLine
 10
243.7563617232747
 20
85.0496306918726
 30
0.0
 11
171.7563617232745
 21
85.0496306918726
 31
0.0
  0
LINE
  5
1590
330
18
100
AcDbEntity
  8
1
  6
Continuous
100
AcDbLine
 10
243.7563617232747
 20
58.04963069187261
 30
0.0
 11
171.7563617232745
 21
58.04963069187261
 31
0.0
  0
LINE
  5
1591
330
18
100
AcDbEntity
  8
1
  6
Continuous
100
AcDbLine
 10
225.4563617232746
 20
102.0496306918726
 30
0.0
 11
190.0563617232746
 21
102.0496306918726
 31
0.0
  0
ARC
  5
1592
330
18
100
AcDbEntity
  8
1
  6
Continuous
100
AcDbCircle
 10
207.7563617232746
 20
-16.63781530812741
 30
0.0
 40
120.0
100
AcDbArc
 50
81.51792399995192
 51
98.48207599994312
  0
LINE
  5
1593
330
18
100
AcDbEntity
  8
1
  6
Continuous
100
AcDbLine
 10
184.7563617232746
 20
41.48251169187256
 30
0.0
 11
230.7563617232747
 21
41.48251169187256
 31
0.0
  0
LINE
  5
1594
330
18
100
AcDbEntity
  8
1
  6
Continuous
100
AcDbLine
 10
237.7563617232747
 20
42.22879069187263
 30
0.0
 11
177.7563617232746
 21
42.22879069187263
 31
0.0
  0
LINE
  5
1595
330
18
100
AcDbEntity
  8
1
  6
Continuous
100
AcDbLine
 10
225.4563617232746
 20
41.0496306918726
 30
0.0
 11
190.0563617232746
 21
41.0496306918726
 31
0.0
  0
ARC
  5
1596
330
18
100
AcDbEntity
  8
1
  6
Continuous
100
AcDbCircle
 10
207.7563617232746
 20
159.7370776918726
 30
0.0
 40
120.0
100
AcDbArc
 50
261.5179239999846
 51
278.4820759999822
  0
LINE
  5
1597
330
18
100
AcDbEntity
  8
4
  6
CENTER
 48
0.3
100
AcDbLine
 10
250.2563617232746
 20
71.54963069199311
 30
0.0
 11
152.8134377232746
 21
71.54963069199311
 31
0.0
  0
LINE
  5
1598
330
18
100
AcDbEntity
  8
1
  6
Continuous
100
AcDbLine
 10
170.2563617232746
 20
86.54963069187258
 30
0.0
 11
170.2563617232746
 21
95.94896569187268
 31
0.0
  0
ARC
  5
1599
330
18
100
AcDbEntity
  8
1
  6
Continuous
100
AcDbCircle
 10
207.7563617232746
 20
-147.3230013081274
 30
0.0
 40
250.0
100
AcDbArc
 50
94.05993799994512
 51
97.72505699994592
  0
ARC
  5
159A
330
18
100
AcDbEntity
  8
1
  6
Continuous
100
AcDbCircle
 10
174.7563617232746
 20
95.94896569187268
 30
0.0
 40
4.5
100
AcDbArc
 50
97.72505699994592
 51
179.9999999999315
  0
ARC
  5
159B
330
18
100
AcDbEntity
  8
1
  6
Continuous
100
AcDbCircle
 10
174.7563617232746
 20
47.15029669187265
 30
0.0
 40
4.5
100
AcDbArc
 50
179.9999999999315
 51
262.274942999916
  0
ARC
  5
159D
330
18
100
AcDbEntity
  8
1
  6
Continuous
100
AcDbCircle
 10
270.2563617232746
 20
71.54963069187259
 30
0.0
 40
100.0
100
AcDbArc
 50
173.6846839999326
 51
186.3153159999292
  0
ARC
  5
159E
330
18
100
AcDbEntity
  8
1
  6
Continuous
100
AcDbCircle
 10
171.7563617232745
 20
86.54963069187258
 30
0.0
 40
1.5
100
AcDbArc
 50
179.9999999999315
 51
269.9999999999153
  0
ARC
  5
159F
330
18
100
AcDbEntity
  8
1
  6
Continuous
100
AcDbCircle
 10
171.7563617232745
 20
56.5496306918726
 30
0.0
 40
1.5
100
AcDbArc
 50
89.99999999994789
 51
179.9999999999315
  0
LINE
  5
15A0
330
18
100
AcDbEntity
  8
1
  6
Continuous
100
AcDbLine
 10
170.2563617232746
 20
56.5496306918726
 30
0.0
 11
170.2563617232746
 21
47.15029669187265
 31
0.0
  0
ARC
  5
15A1
330
18
100
AcDbEntity
  8
1
  6
Continuous
100
AcDbCircle
 10
207.7563617232746
 20
290.4222636918726
 30
0.0
 40
250.0
100
AcDbArc
 50
262.2749429999817
 51
265.9400619999832
  0
LINE
  5
15A3
330
18
100
AcDbEntity
  8
1
  6
Continuous
100
AcDbLine
 10
245.2563617232747
 20
86.54963069187258
 30
0.0
 11
245.2563617232747
 21
95.94896569187268
 31
0.0
  0
LINE
  5
15A4
330
18
100
AcDbEntity
  8
4
  6
CENTER
 48
0.3
100
AcDbLine
 10
207.7563617232746
 20
34.73707769187262
 30
0.0
 11
207.7563617232746
 21
108.3621846918725
 31
0.0
  0
ARC
  5
15A5
330
18
100
AcDbEntity
  8
1
  6
Continuous
100
AcDbCircle
 10
207.7563617232746
 20
-147.3230013081274
 30
0.0
 40
250.0
100
AcDbArc
 50
82.27494299994907
 51
85.94006199995048
  0
ARC
  5
15A6
330
18
100
AcDbEntity
  8
1
  6
Continuous
100
AcDbCircle
 10
240.7563617232747
 20
95.94896569187268
 30
0.0
 40
4.5
100
AcDbArc
 50
359.9999999999643
 51
82.27494299994907
  0
ARC
  5
15A9
330
18
100
AcDbEntity
  8
1
  6
Continuous
100
AcDbCircle
 10
240.7563617232747
 20
47.15029669187265
 30
0.0
 40
4.5
100
AcDbArc
 50
277.7250569999785
 51
359.9999999999643
  0
LINE
  5
15AE
330
18
100
AcDbEntity
  8
4
  6
CENTER
 48
0.3
100
AcDbLine
 10
227.7563617232747
 20
87.5496306918726
 30
0.0
 11
227.7563617232747
 21
55.54963069187261
 31
0.0
  0
LINE
  5
15B0
330
18
100
AcDbEntity
  8
1
  6
Continuous
100
AcDbLine
 10
216.2563617232746
 20
83.54963069187261
 30
0.0
 11
199.2563617232746
 21
83.54963069187261
 31
0.0
  0
ARC
  5
15B1
330
18
100
AcDbEntity
  8
1
  6
Continuous
100
AcDbCircle
 10
199.2563617232746
 20
84.54963069187261
 30
0.0
 40
1.0
100
AcDbArc
 50
179.9999999999315
 51
269.9999999999153
  0
ARC
  5
15B2
330
18
100
AcDbEntity
  8
1
  6
Continuous
100
AcDbCircle
 10
199.7563617232746
 20
82.5496306918726
 30
0.0
 40
1.0
100
AcDbArc
 50
89.99999999994789
 51
179.9999999999315
  0
LINE
  5
15B3
330
18
100
AcDbEntity
  8
1
  6
Continuous
100
AcDbLine
 10
198.2563617232746
 20
84.54963069187261
 30
0.0
 11
198.2563617232746
 21
85.0496306918726
 31
0.0
  0
ARC
  5
15B4
330
18
100
AcDbEntity
  8
1
  6
Continuous
100
AcDbCircle
 10
216.2563617232746
 20
84.54963069187261
 30
0.0
 40
1.0
100
AcDbArc
 50
269.9999999999804
 51
359.9999999999643
  0
ARC
  5
15B5
330
18
100
AcDbEntity
  8
1
  6
Continuous
100
AcDbCircle
 10
215.7563617232745
 20
82.5496306918726
 30
0.0
 40
1.0
100
AcDbArc
 50
359.9999999999643
 51
89.99999999994789
  0
LINE
  5
15B6
330
18
100
AcDbEntity
  8
1
  6
Continuous
100
AcDbLine
 10
217.2563617232746
 20
84.54963069187261
 30
0.0
 11
217.2563617232746
 21
85.0496306918726
 31
0.0
  0
LINE
  5
15B7
330
18
100
AcDbEntity
  8
1
  6
Continuous
100
AcDbLine
 10
216.2563617232746
 20
59.54963069187261
 30
0.0
 11
199.2563617232746
 21
59.54963069187261
 31
0.0
  0
LINE
  5
15B8
330
18
100
AcDbEntity
  8
1
  6
Continuous
100
AcDbLine
 10
198.2563617232746
 20
58.5496306918726
 30
0.0
 11
198.2563617232746
 21
58.04963069187261
 31
0.0
  0
ARC
  5
15B9
330
18
100
AcDbEntity
  8
1
  6
Continuous
100
AcDbCircle
 10
199.7563617232746
 20
60.54963069187261
 30
0.0
 40
1.0
100
AcDbArc
 50
179.9999999999315
 51
269.9999999999153
  0
ARC
  5
15BA
330
18
100
AcDbEntity
  8
1
  6
Continuous
100
AcDbCircle
 10
199.2563617232746
 20
58.5496306918726
 30
0.0
 40
1.0
100
AcDbArc
 50
89.99999999994789
 51
179.9999999999315
  0
LINE
  5
15BB
330
18
100
AcDbEntity
  8
1
  6
Continuous
100
AcDbLine
 10
217.2563617232746
 20
58.5496306918726
 30
0.0
 11
217.2563617232746
 21
58.04963069187261
 31
0.0
  0
ARC
  5
15BC
330
18
100
AcDbEntity
  8
1
  6
Continuous
100
AcDbCircle
 10
215.7563617232745
 20
60.54963069187261
 30
0.0
 40
1.0
100
AcDbArc
 50
269.9999999999804
 51
359.9999999999643
  0
ARC
  5
15BD
330
18
100
AcDbEntity
  8
1
  6
Continuous
100
AcDbCircle
 10
216.2563617232746
 20
58.5496306918726
 30
0.0
 40
1.0
100
AcDbArc
 50
359.9999999999674
 51
89.99999999994789
  0
ARC
  5
15BF
330
18
100
AcDbEntity
  8
1
  6
Continuous
100
AcDbCircle
 10
145.2563617232746
 20
71.54963069187259
 30
0.0
 40
100.0
100
AcDbArc
 50
353.6846839999657
 51
6.315315999965577
  0
ARC
  5
15C1
330
18
100
AcDbEntity
  8
1
  6
Continuous
100
AcDbCircle
 10
243.7563617232747
 20
86.54963069187258
 30
0.0
 40
1.5
100
AcDbArc
 50
269.9999999999804
 51
359.9999999999643
  0
ARC
  5
15C2
330
18
100
AcDbEntity
  8
1
  6
Continuous
100
AcDbCircle
 10
243.7563617232747
 20
56.5496306918726
 30
0.0
 40
1.5
100
AcDbArc
 50
359.9999999999643
 51
89.99999999994789
  0
LINE
  5
15C3
330
18
100
AcDbEntity
  8
1
  6
Continuous
100
AcDbLine
 10
245.2563617232747
 20
56.5496306918726
 30
0.0
 11
245.2563617232747
 21
47.15029669187265
 31
0.0
  0
ARC
  5
15C4
330
18
100
AcDbEntity
  8
1
  6
Continuous
100
AcDbCircle
 10
207.7563617232746
 20
290.4222636918726
 30
0.0
 40
250.0
100
AcDbArc
 50
274.059937999984
 51
277.7250569999785
  0
ARC
  5
17DC
330
18
100
AcDbEntity
  8
1
  6
Continuous
100
AcDbCircle
 10
374.2980997232746
 20
153.3840332505671
 30
0.0
 40
100.0
100
AcDbArc
 50
96.02716656013114
 51
96.31531599998496
  0
LINE
  5
1A14
330
18
100
AcDbEntity
  8
1
  6
Continuous
100
AcDbLine
 10
70.71462372327459
 20
263.3840332505672
 30
0.0
 11
51.71462372327461
 21
263.3840332505672
 31
0.0
  0
LINE
  5
1A1B
330
18
100
AcDbEntity
  8
1
  6
Continuous
100
AcDbLine
 10
50.71462372327459
 20
262.3840332505671
 30
0.0
 11
50.71462372327459
 21
256.3840332505671
 31
0.0
  0
ARC
  5
1A1D
330
18
100
AcDbEntity
  8
1
  6
Continuous
100
AcDbCircle
 10
51.71462372327461
 20
256.3840332505671
 30
0.0
 40
1.0
100
AcDbArc
 50
180.0000000000651
 51
270.0000000000521
  0
ARC
  5
1A1F
330
18
100
AcDbEntity
  8
1
  6
Continuous
100
AcDbCircle
 10
51.71462372327461
 20
262.3840332505671
 30
0.0
 40
1.0
100
AcDbArc
 50
90.00000000009119
 51
180.0000000000651
  0
LINE
  5
1A20
330
18
100
AcDbEntity
  8
1
  6
Continuous
100
AcDbLine
 10
71.7146237232746
 20
262.3840332505671
 30
0.0
 11
71.7146237232746
 21
256.3840332505671
 31
0.0
  0
ARC
  5
1A21
330
18
100
AcDbEntity
  8
1
  6
Continuous
100
AcDbCircle
 10
70.71462372327459
 20
256.3840332505671
 30
0.0
 40
1.0
100
AcDbArc
 50
270.0000000000521
 51
0.0000000000390827
  0
ARC
  5
1A23
330
18
100
AcDbEntity
  8
1
  6
Continuous
100
AcDbCircle
 10
70.71462372327459
 20
262.3840332505671
 30
0.0
 40
1.0
100
AcDbArc
 50
0.0000000000390827
 51
90.00000000001303
  0
LINE
  5
1A37
330
18
100
AcDbEntity
  8
1
  6
Continuous
100
AcDbLine
 10
238.7563617232746
 20
263.3840332505672
 30
0.0
 11
216.7563617232746
 21
263.3840332505672
 31
0.0
  0
ARC
  5
1A3A
330
18
100
AcDbEntity
  8
1
  6
Continuous
100
AcDbCircle
 10
223.9468857232744
 20
261.3840332505672
 30
0.0
 40
2.0
100
AcDbArc
 50
90.00000000001303
 51
180.0
  0
LINE
  5
1A3B
330
18
100
AcDbEntity
  8
1
  6
Continuous
100
AcDbLine
 10
215.7563617232745
 20
262.3840332505671
 30
0.0
 11
215.7563617232745
 21
256.3840332505671
 31
0.0
  0
ARC
  5
1A3C
330
18
100
AcDbEntity
  8
1
  6
Continuous
100
AcDbCircle
 10
216.7563617232746
 20
256.3840332505671
 30
0.0
 40
1.0
100
AcDbArc
 50
180.0000000000651
 51
270.0000000000521
  0
LINE
  5
1A3E
330
18
100
AcDbEntity
  8
1
  6
Continuous
100
AcDbLine
 10
221.9468857232744
 20
257.3840332505672
 30
0.0
 11
221.9468857232744
 21
261.3840332505672
 31
0.0
  0
ARC
  5
1A3F
330
18
100
AcDbEntity
  8
1
  6
Continuous
100
AcDbCircle
 10
223.9468857232744
 20
257.3840332505672
 30
0.0
 40
2.0
100
AcDbArc
 50
180.0000000000651
 51
270.0000000000521
  0
ARC
  5
1A40
330
18
100
AcDbEntity
  8
1
  6
Continuous
100
AcDbCircle
 10
216.7563617232746
 20
262.3840332505671
 30
0.0
 40
1.0
100
AcDbArc
 50
90.00000000009119
 51
180.0000000000651
  0
ARC
  5
1A41
330
18
100
AcDbEntity
  8
1
  6
Continuous
100
AcDbCircle
 10
231.5658367232746
 20
261.3840332505672
 30
0.0
 40
2.0
100
AcDbArc
 50
0.0000000000390827
 51
90.00000000001303
  0
LINE
  5
1A42
330
18
100
AcDbEntity
  8
1
  6
Continuous
100
AcDbLine
 10
239.7563617232746
 20
262.3840332505671
 30
0.0
 11
239.7563617232746
 21
256.3840332505671
 31
0.0
  0
LINE
  5
1A43
330
18
100
AcDbEntity
  8
1
  6
Continuous
100
AcDbLine
 10
233.5658367232746
 20
261.3840332505672
 30
0.0
 11
233.5658367232746
 21
257.3840332505672
 31
0.0
  0
ARC
  5
1A44
330
18
100
AcDbEntity
  8
1
  6
Continuous
100
AcDbCircle
 10
231.5658367232746
 20
257.3840332505672
 30
0.0
 40
2.0
100
AcDbArc
 50
270.0000000000521
 51
0.0000000000390827
  0
ARC
  5
1A45
330
18
100
AcDbEntity
  8
1
  6
Continuous
100
AcDbCircle
 10
238.7563617232746
 20
256.3840332505671
 30
0.0
 40
1.0
100
AcDbArc
 50
270.0000000000521
 51
0.0000000000390827
  0
ARC
  5
1A46
330
18
100
AcDbEntity
  8
1
  6
Continuous
100
AcDbCircle
 10
238.7563617232746
 20
262.3840332505671
 30
0.0
 40
1.0
100
AcDbArc
 50
0.0000000000390827
 51
90.00000000001303
  0
ARC
  5
1A7F
330
18
100
AcDbEntity
  8
1
  6
Continuous
100
AcDbCircle
 10
227.7563617232745
 20
381.218435809262
 30
0.0
 40
12.0
100
AcDbArc
 50
298.9550240000477
 51
61.04497600002495
  0
ARC
  5
1A80
330
18
100
AcDbEntity
  8
1
  6
Continuous
100
AcDbCircle
 10
227.7563617232745
 20
381.218435809262
 30
0.0
 40
12.0
100
AcDbArc
 50
118.9550240000769
 51
241.0449760000572
  0
LINE
  5
1A84
330
18
100
AcDbEntity
  8
1
  6
Continuous
100
AcDbLine
 10
233.5658367232745
 20
370.718435809262
 30
0.0
 11
221.9468857232746
 21
370.718435809262
 31
0.0
  0
LINE
  5
1A88
330
18
100
AcDbEntity
  8
1
  6
Continuous
100
AcDbLine
 10
233.5658367232745
 20
391.718435809262
 30
0.0
 11
221.9468857232746
 21
391.718435809262
 31
0.0
  0
LINE
  5
1D22
330
18
100
AcDbEntity
  8
1
  6
Continuous
100
AcDbLine
 10
383.7980997232746
 20
263.3840332505672
 30
0.0
 11
364.7980997232746
 21
263.3840332505672
 31
0.0
  0
ARC
  5
1D23
330
18
100
AcDbEntity
  8
1
  6
Continuous
100
AcDbCircle
 10
364.7980997232746
 20
262.3840332505671
 30
0.0
 40
1.0
100
AcDbArc
 50
90.00000000009119
 51
180.0000000000651
  0
ARC
  5
1D24
330
18
100
AcDbEntity
  8
1
  6
Continuous
100
AcDbCircle
 10
383.7980997232746
 20
262.3840332505671
 30
0.0
 40
1.0
100
AcDbArc
 50
0.0000000000390827
 51
90.00000000001303
  0
LINE
  5
1D25
330
18
100
AcDbEntity
  8
1
  6
Continuous
100
AcDbLine
 10
384.7980997232746
 20
262.3840332505671
 30
0.0
 11
384.7980997232746
 21
256.3840332505671
 31
0.0
  0
ARC
  5
1D26
330
18
100
AcDbEntity
  8
1
  6
Continuous
100
AcDbCircle
 10
383.7980997232746
 20
256.3840332505671
 30
0.0
 40
1.0
100
AcDbArc
 50
270.0000000000521
 51
0.0000000000390827
  0
ARC
  5
1D27
330
18
100
AcDbEntity
  8
1
  6
Continuous
100
AcDbCircle
 10
364.7980997232746
 20
256.3840332505671
 30
0.0
 40
1.0
100
AcDbArc
 50
180.0000000000651
 51
270.0000000000521
  0
LINE
  5
1D28
330
18
100
AcDbEntity
  8
1
  6
Continuous
100
AcDbLine
 10
363.7980997232746
 20
262.3840332505671
 30
0.0
 11
363.7980997232746
 21
256.3840332505671
 31
0.0
  0
ARC
  5
1D61
330
18
100
AcDbEntity
  8
1
  6
Continuous
100
AcDbCircle
 10
227.7563617232747
 20
71.54963069199311
 30
0.0
 40
7.5
100
AcDbArc
 50
13.49339882155122
 51
346.5066011784481
  0
LINE
  5
1D62
330
18
100
AcDbEntity
  8
1
  6
Continuous
100
AcDbLine
 10
235.0493377961821
 20
73.29963069199312
 30
0.0
 11
232.5195015232749
 21
73.29963069199312
 31
0.0
  0
LINE
  5
1D63
330
18
100
AcDbEntity
  8
1
  6
Continuous
100
AcDbLine
 10
235.0493377961821
 20
69.79963069199311
 30
0.0
 11
232.5195015232748
 21
69.79963069199311
 31
0.0
  0
LINE
  5
1D66
330
18
100
AcDbEntity
  8
1
  6
Continuous
100
AcDbLine
 10
242.2563617232745
 20
60.54963069187261
 30
0.0
 11
242.2563617232745
 21
82.5496306918726
 31
0.0
  0
LINE
  5
1D67
330
18
100
AcDbEntity
  8
1
  6
Continuous
100
AcDbLine
 10
385.2980997232746
 20
216.3840332505671
 30
0.0
 11
363.2980997232746
 21
216.3840332505671
 31
0.0
  0
LINE
  5
1D68
330
18
100
AcDbEntity
  8
1
  6
Continuous
100
AcDbLine
 10
379.2980997232747
 20
212.3840332505671
 30
0.0
 11
369.2980997232746
 21
212.3840332505671
 31
0.0
  0
LINE
  5
1D73
330
18
100
AcDbEntity
  8
1
  6
Continuous
100
AcDbLine
 10
374.2980997232746
 20
212.8306154158362
 30
0.0
 11
374.2980997232746
 21
216.3840332505671
 31
0.0
  0
LINE
  5
1D74
330
18
100
AcDbEntity
  8
1
  6
Continuous
100
AcDbLine
 10
379.2980997232747
 20
212.3840332505671
 30
0.0
 11
379.2980997232746
 21
216.3840332505671
 31
0.0
  0
LINE
  5
1D75
330
18
100
AcDbEntity
  8
1
  6
Continuous
100
AcDbLine
 10
369.2980997232746
 20
212.3840332505671
 30
0.0
 11
369.2980997232746
 21
216.3840332505671
 31
0.0
  0
ARC
  5
1D76
330
18
100
AcDbEntity
  8
1
  6
Continuous
100
AcDbCircle
 10
376.7980997232746
 20
219.6049168100915
 30
0.0
 40
7.220883559524308
100
AcDbArc
 50
249.7438340981222
 51
290.2561659018777
  0
ARC
  5
1D77
330
18
100
AcDbEntity
  8
1
  6
Continuous
100
AcDbCircle
 10
371.7980997232746
 20
219.6049168100915
 30
0.0
 40
7.220883559524308
100
AcDbArc
 50
249.7438340981222
 51
290.2561659018777
  0
LINE
  5
1D9B
330
18
100
AcDbEntity
  8
4
  6
CENTER
 48
0.3
100
AcDbLine
 10
520.8398377232745
 20
201.3840332505671
 30
0.0
 11
520.8398377232747
 21
290.3840332505671
 31
0.0
  0
LINE
  5
1D9C
330
18
100
AcDbEntity
  8
4
  6
CENTER
 48
0.3
100
AcDbLine
 10
540.8398377232747
 20
258.8840332505672
 30
0.0
 11
540.8398377232747
 21
173.8840332505672
 31
0.0
  0
LINE
  5
1D9D
330
18
100
AcDbEntity
  8
1
  6
Continuous
100
AcDbLine
 10
510.3398377232744
 20
255.3840332505671
 30
0.0
 11
505.5343637232745
 21
229.0241882505672
 31
0.0
  0
CIRCLE
  5
1D9E
330
18
100
AcDbEntity
  8
1
  6
Continuous
100
AcDbCircle
 10
540.8398377232747
 20
216.3840332505671
 30
0.0
 40
37.5
  0
CIRCLE
  5
1D9F
330
18
100
AcDbEntity
  8
1
  6
Continuous
100
AcDbCircle
 10
540.8398377232747
 20
216.3840332505671
 30
0.0
 40
23.0
  0
CIRCLE
  5
1DA0
330
18
100
AcDbEntity
  8
1
  6
Continuous
100
AcDbCircle
 10
540.8398377232747
 20
216.3840332505671
 30
0.0
 40
28.0
  0
CIRCLE
  5
1DA1
330
18
100
AcDbEntity
  8
1
  6
Continuous
100
AcDbCircle
 10
540.8398377232747
 20
216.3840332505671
 30
0.0
 40
17.7
  0
LINE
  5
1DA3
330
18
100
AcDbEntity
  8
4
  6
CENTER
 48
0.3
100
AcDbLine
 10
498.3398377232746
 20
216.3840332505671
 30
0.0
 11
583.3398377232747
 21
216.3840332505671
 31
0.0
  0
LINE
  5
1DA5
330
18
100
AcDbEntity
  8
2
  6
Continuous
100
AcDbLine
 10
525.8928377232746
 20
264.3840332505671
 30
0.0
 11
525.8928377232746
 21
285.3310332505673
 31
0.0
  0
LINE
  5
1DA6
330
18
100
AcDbEntity
  8
1
  6
Continuous
100
AcDbLine
 10
526.8398377232747
 20
284.3840332505672
 30
0.0
 11
526.8398377232747
 21
263.3840332505672
 31
0.0
  0
LINE
  5
1DA7
330
18
100
AcDbEntity
  8
2
  6
Continuous
100
AcDbLine
 10
515.7868377232746
 20
264.3840332505671
 30
0.0
 11
515.7868377232748
 21
285.3310332505673
 31
0.0
  0
LINE
  5
1DA8
330
18
100
AcDbEntity
  8
1
  6
Continuous
100
AcDbLine
 10
514.8398377232743
 20
263.3840332505672
 30
0.0
 11
514.8398377232743
 21
284.3840332505672
 31
0.0
  0
ARC
  5
1DA9
330
18
100
AcDbEntity
  8
1
  6
Continuous
100
AcDbCircle
 10
537.6985487232746
 20
263.1019862505671
 30
0.0
 40
10.0
100
AcDbArc
 50
230.5153809999566
 51
254.9855739999514
  0
LINE
  5
1DAA
330
18
100
AcDbEntity
  8
1
  6
Continuous
100
AcDbLine
 10
509.8398377232746
 20
255.3840332505671
 30
0.0
 11
531.8398377232747
 21
255.3840332505671
 31
0.0
  0
LINE
  5
1DAB
330
18
100
AcDbEntity
  8
1
  6
Continuous
100
AcDbLine
 10
509.8398377232746
 20
263.3840332505672
 30
0.0
 11
531.8398377232747
 21
263.3840332505672
 31
0.0
  0
LINE
  5
1DAC
330
18
100
AcDbEntity
  8
1
  6
Continuous
100
AcDbLine
 10
514.8398377232743
 20
264.3840332505671
 30
0.0
 11
526.8398377232747
 21
264.3840332505671
 31
0.0
  0
ARC
  5
1DAD
330
18
100
AcDbEntity
  8
1
  6
Continuous
100
AcDbCircle
 10
531.8398377232747
 20
256.3840332505671
 30
0.0
 40
1.0
100
AcDbArc
 50
269.9999999999478
 51
359.9999999999349
  0
ARC
  5
1DAE
330
18
100
AcDbEntity
  8
1
  6
Continuous
100
AcDbCircle
 10
524.6493137232746
 20
257.3840332505672
 30
0.0
 40
2.0
100
AcDbArc
 50
269.9999999999478
 51
359.9999999999349
  0
ARC
  5
1DAF
330
18
100
AcDbEntity
  8
1
  6
Continuous
100
AcDbCircle
 10
531.8398377232747
 20
262.3840332505671
 30
0.0
 40
1.0
100
AcDbArc
 50
359.9999999999349
 51
89.99999999990881
  0
LINE
  5
1DB0
330
18
100
AcDbEntity
  8
1
  6
Continuous
100
AcDbLine
 10
526.6493137232746
 20
257.3840332505672
 30
0.0
 11
526.6493137232746
 21
261.3840332505672
 31
0.0
  0
ARC
  5
1DB1
330
18
100
AcDbEntity
  8
1
  6
Continuous
100
AcDbCircle
 10
524.6493137232746
 20
261.3840332505672
 30
0.0
 40
2.0
100
AcDbArc
 50
0.000000000000007
 51
89.99999999998697
  0
LINE
  5
1DB2
330
18
100
AcDbEntity
  8
1
  6
Continuous
100
AcDbLine
 10
532.8398377232747
 20
262.3840332505671
 30
0.0
 11
532.8398377232747
 21
256.3840332505671
 31
0.0
  0
ARC
  5
1DB3
330
18
100
AcDbEntity
  8
1
  6
Continuous
100
AcDbCircle
 10
517.0303627232747
 20
257.3840332505672
 30
0.0
 40
2.0
100
AcDbArc
 50
179.9999999999609
 51
269.9999999999478
  0
LINE
  5
1DB4
330
18
100
AcDbEntity
  8
1
  6
Continuous
100
AcDbLine
 10
515.0303627232747
 20
261.3840332505672
 30
0.0
 11
515.0303627232747
 21
257.3840332505672
 31
0.0
  0
ARC
  5
1DB5
330
18
100
AcDbEntity
  8
1
  6
Continuous
100
AcDbCircle
 10
517.0303627232747
 20
261.3840332505672
 30
0.0
 40
2.0
100
AcDbArc
 50
89.99999999998697
 51
179.9999999999609
  0
ARC
  5
1DB6
330
18
100
AcDbEntity
  8
1
  6
Continuous
100
AcDbCircle
 10
509.8398377232746
 20
256.3840332505671
 30
0.0
 40
1.0
100
AcDbArc
 50
179.9999999999609
 51
269.9999999999478
  0
ARC
  5
1DB7
330
18
100
AcDbEntity
  8
1
  6
Continuous
100
AcDbCircle
 10
509.8398377232746
 20
262.3840332505671
 30
0.0
 40
1.0
100
AcDbArc
 50
89.99999999998697
 51
179.9999999999609
  0
LINE
  5
1DB8
330
18
100
AcDbEntity
  8
1
  6
Continuous
100
AcDbLine
 10
508.8398377232747
 20
262.3840332505671
 30
0.0
 11
508.8398377232747
 21
256.3840332505671
 31
0.0
  0
LINE
  5
1DBB
330
18
100
AcDbEntity
  8
1
  6
Continuous
100
AcDbLine
 10
515.8398377232745
 20
285.3840332505671
 30
0.0
 11
525.8398377232747
 21
285.3840332505671
 31
0.0
  0
LINE
  5
1DBC
330
18
100
AcDbEntity
  8
1
  6
Continuous
100
AcDbLine
 10
514.8398377232743
 20
284.3840332505672
 30
0.0
 11
526.8398377232747
 21
284.3840332505672
 31
0.0
  0
LINE
  5
1DBD
330
18
100
AcDbEntity
  8
1
  6
Continuous
100
AcDbLine
 10
525.8398377232747
 20
285.3840332505671
 30
0.0
 11
526.8398377232747
 21
284.3840332505672
 31
0.0
  0
LINE
  5
1DBE
330
18
100
AcDbEntity
  8
1
  6
Continuous
100
AcDbLine
 10
514.8398377232743
 20
284.3840332505672
 30
0.0
 11
515.8398377232745
 21
285.3840332505671
 31
0.0
  0
LINE
  5
28C1
330
18
100
AcDbEntity
  8
1
  6
Continuous
100
AcDbLine
 10
53.86462372327469
 20
226.2642379517063
 30
0.0
 11
53.86462372327469
 21
240.1562907397781
 31
0.0
  0
LINE
  5
28C2
330
18
100
AcDbEntity
  8
1
  6
Continuous
100
AcDbLine
 10
50.71462372327459
 20
226.2642379517063
 30
0.0
 11
50.71462372327459
 21
250.7675682505671
 31
0.0
  0
LINE
  5
28C3
330
18
100
AcDbEntity
  8
1
  6
Continuous
100
AcDbLine
 10
68.56462372327475
 20
226.2642379517063
 30
0.0
 11
68.56462372327475
 21
240.1562907397781
 31
0.0
  0
LINE
  5
28C4
330
18
100
AcDbEntity
  8
1
  6
Continuous
100
AcDbLine
 10
71.7146237232746
 20
226.2642379517063
 30
0.0
 11
71.7146237232746
 21
250.7675682505671
 31
0.0
  0
LINE
  5
28D2
330
18
100
AcDbEntity
  8
1
  6
Continuous
100
AcDbLine
 10
53.86462372327469
 20
226.2642379517064
 30
0.0
 11
50.2146237232746
 21
226.2642379517063
 31
0.0
  0
LINE
  5
28D4
330
18
100
AcDbEntity
  8
1
  6
Continuous
100
AcDbLine
 10
72.2146237232746
 20
226.2642379517064
 30
0.0
 11
68.56462372327475
 21
226.2642379517064
 31
0.0
  0
LINE
  5
28DC
330
18
100
AcDbEntity
  8
1
  6
Continuous
100
AcDbLine
 10
69.3339077232747
 20
240.1562907397781
 30
0.0
 11
53.0953407232746
 21
240.1562907397781
 31
0.0
  0
LINE
  5
28DD
330
18
100
AcDbEntity
  8
1
  6
Continuous
100
AcDbLine
 10
69.3339077232747
 20
243.229667739778
 30
0.0
 11
53.0953407232746
 21
243.229667739778
 31
0.0
  0
LINE
  5
28DE
330
18
100
AcDbEntity
  8
1
  6
Continuous
100
AcDbLine
 10
69.73649872327475
 20
253.3656442505671
 30
0.0
 11
52.69274872327469
 21
253.3656442505671
 31
0.0
  0
LINE
  5
28E2
330
18
100
AcDbEntity
  8
1
  6
Continuous
100
AcDbLine
 10
52.21462372327462
 20
241.1562907397781
 30
0.0
 11
52.21462372327462
 21
242.2296677397781
 31
0.0
  0
ARC
  5
28E3
330
18
100
AcDbEntity
  8
1
  6
Continuous
100
AcDbCircle
 10
60.71462372327459
 20
245.4241177397781
 30
0.0
 40
10.0
100
AcDbArc
 50
180.0000000000683
 51
206.312947000062
  0
ARC
  5
28E4
330
18
100
AcDbEntity
  8
1
  6
Continuous
100
AcDbCircle
 10
60.71462372327459
 20
248.497494739778
 30
0.0
 40
10.0
100
AcDbArc
 50
180.0000000000683
 51
206.312947000062
  0
ARC
  5
28E5
330
18
100
AcDbEntity
  8
1
  6
Continuous
100
AcDbCircle
 10
53.21462372327459
 20
242.2296677397781
 30
0.0
 40
1.0
100
AcDbArc
 50
90.00000000001952
 51
180.0
  0
ARC
  5
28E6
330
18
100
AcDbEntity
  8
1
  6
Continuous
100
AcDbCircle
 10
53.0953407232746
 20
244.7296677397781
 30
0.0
 40
1.5
100
AcDbArc
 50
206.312947000062
 51
270.0000000000521
  0
ARC
  5
28E7
330
18
100
AcDbEntity
  8
1
  6
Continuous
100
AcDbCircle
 10
53.0953407232746
 20
241.6562907397781
 30
0.0
 40
1.5
100
AcDbArc
 50
206.312947000062
 51
270.0000000000521
  0
ARC
  5
28E8
330
18
100
AcDbEntity
  8
1
  6
Continuous
100
AcDbCircle
 10
53.21462372327459
 20
241.1562907397781
 30
0.0
 40
1.0
100
AcDbArc
 50
180.0000000000683
 51
270.0000000000521
  0
ARC
  5
28ED
330
18
100
AcDbEntity
  8
1
  6
Continuous
100
AcDbCircle
 10
61.2146237232746
 20
153.3840332505671
 30
0.0
 40
100.0
100
AcDbArc
 50
95.50089575068298
 51
96.31531600001787
  0
ARC
  5
28EE
330
18
100
AcDbEntity
  8
1
  6
Continuous
100
AcDbCircle
 10
52.69274872327469
 20
251.8656442505672
 30
0.0
 40
1.5
100
AcDbArc
 50
90.00000000001952
 51
132.9414030000087
  0
ARC
  5
28EF
330
18
100
AcDbEntity
  8
1
  6
Continuous
100
AcDbCircle
 10
53.7146237232746
 20
250.7675682505671
 30
0.0
 40
3.0
100
AcDbArc
 50
132.9414030000087
 51
180.0
  0
ARC
  5
28F3
330
18
100
AcDbEntity
  8
1
  6
Continuous
100
AcDbCircle
 10
69.2146237232746
 20
242.2296677397781
 30
0.0
 40
1.0
100
AcDbArc
 50
0.0000000000341973
 51
90.00000000001952
  0
ARC
  5
28F4
330
18
100
AcDbEntity
  8
1
  6
Continuous
100
AcDbCircle
 10
69.3339077232747
 20
244.7296677397781
 30
0.0
 40
1.5
100
AcDbArc
 50
270.0000000000521
 51
333.6870530000413
  0
LINE
  5
28F5
330
18
100
AcDbEntity
  8
1
  6
Continuous
100
AcDbLine
 10
70.2146237232746
 20
242.2296677397781
 30
0.0
 11
70.2146237232746
 21
241.1562907397781
 31
0.0
  0
ARC
  5
28F6
330
18
100
AcDbEntity
  8
1
  6
Continuous
100
AcDbCircle
 10
61.71462372327461
 20
245.4241177397781
 30
0.0
 40
10.0
100
AcDbArc
 50
333.6870530000413
 51
0.0000000000341973
  0
ARC
  5
28F7
330
18
100
AcDbEntity
  8
1
  6
Continuous
100
AcDbCircle
 10
61.71462372327461
 20
248.497494739778
 30
0.0
 40
10.0
100
AcDbArc
 50
333.6870530000413
 51
0.0000000000341973
  0
ARC
  5
28F8
330
18
100
AcDbEntity
  8
1
  6
Continuous
100
AcDbCircle
 10
69.3339077232747
 20
241.6562907397781
 30
0.0
 40
1.5
100
AcDbArc
 50
270.0000000000521
 51
333.6870530000413
  0
ARC
  5
28F9
330
18
100
AcDbEntity
  8
1
  6
Continuous
100
AcDbCircle
 10
69.2146237232746
 20
241.1562907397781
 30
0.0
 40
1.0
100
AcDbArc
 50
270.0000000000521
 51
0.0000000000341973
  0
ARC
  5
28FB
330
18
100
AcDbEntity
  8
1
  6
Continuous
100
AcDbCircle
 10
61.2146237232746
 20
153.3840332505671
 30
0.0
 40
100.0
100
AcDbArc
 50
83.68468400001502
 51
84.49910424931701
  0
ARC
  5
28FC
330
18
100
AcDbEntity
  8
1
  6
Continuous
100
AcDbCircle
 10
69.73649872327475
 20
251.8656442505672
 30
0.0
 40
1.5
100
AcDbArc
 50
47.05859700002696
 51
90.00000000001952
  0
ARC
  5
28FD
330
18
100
AcDbEntity
  8
1
  6
Continuous
100
AcDbCircle
 10
68.7146237232746
 20
250.7675682505671
 30
0.0
 40
3.0
100
AcDbArc
 50
0.0000000000341973
 51
47.05859700002696
  0
ARC
  5
292A
330
18
100
AcDbEntity
  8
1
  6
Continuous
100
AcDbCircle
 10
307.8134377232746
 20
71.54963069199311
 30
0.0
 40
150.0
100
AcDbArc
 50
176.9890110000695
 51
183.0109890000673
  0
ARC
  5
292C
330
18
100
AcDbEntity
  8
1
  6
Continuous
100
AcDbCircle
 10
170.2389267232748
 20
111.0496306919931
 30
0.0
 40
50.0
100
AcDbArc
 50
257.2298250000537
 51
270.0
  0
ARC
  5
292E
330
18
100
AcDbEntity
  8
1
  6
Continuous
100
AcDbCircle
 10
159.5184457232748
 20
63.74929969199309
 30
0.0
 40
1.5
100
AcDbArc
 50
183.010989000069
 51
257.2298250000537
  0
LINE
  5
292F
330
18
100
AcDbEntity
  8
1
  6
Continuous
100
AcDbLine
 10
170.8091395398471
 20
61.04963069199261
 30
0.0
 11
170.2389267232748
 21
61.04963069199261
 31
0.0
  0
ARC
  5
2930
330
18
100
AcDbEntity
  8
1
  6
Continuous
100
AcDbCircle
 10
170.2389267232748
 20
32.04963069199311
 30
0.0
 40
50.0
100
AcDbArc
 50
90.0
 51
102.770175000013
  0
ARC
  5
2932
330
18
100
AcDbEntity
  8
1
  6
Continuous
100
AcDbCircle
 10
159.5184457232748
 20
79.34996069199304
 30
0.0
 40
1.5
100
AcDbArc
 50
102.770175000013
 51
176.9890110000009
  0
LINE
  5
2934
330
18
100
AcDbEntity
  8
1
  6
Continuous
100
AcDbLine
 10
170.809139539847
 20
82.04963069199266
 30
0.0
 11
170.2389267232748
 21
82.04963069199266
 31
0.0
  0
ARC
  5
296A
330
18
100
AcDbEntity
  8
5
  6
PHANTOM
 48
0.2
100
AcDbCircle
 10
120.2251147232745
 20
220.5310222505671
 30
0.0
 40
50.0
100
AcDbArc
 50
348.0537040000391
 51
28.2480400000305
  0
ARC
  5
296B
330
18
100
AcDbEntity
  8
5
  6
PHANTOM
 48
0.2
100
AcDbCircle
 10
86.11897772327461
 20
215.7200112505672
 30
0.0
 40
80.0
100
AcDbArc
 50
356.746594000034
 51
19.40312500003031
  0
ARC
  5
296C
330
18
100
AcDbEntity
  8
5
  6
PHANTOM
 48
0.2
100
AcDbCircle
 10
173.1305767232746
 20
223.6952112505671
 30
0.0
 40
3.0
100
AcDbArc
 50
121.0917100000801
 51
183.4226900000693
  0
ARC
  5
296D
330
18
100
AcDbEntity
  8
5
  6
PHANTOM
 48
0.2
100
AcDbCircle
 10
168.6530467232746
 20
210.2847802505671
 30
0.0
 40
0.5
100
AcDbArc
 50
280.0000000000449
 51
348.0537040000391
  0
LINE
  5
296E
330
18
100
AcDbEntity
  8
5
  6
PHANTOM
 48
0.2
100
AcDbLine
 10
168.7398707232746
 20
209.7923762505672
 30
0.0
 11
167.7480967232746
 21
209.6175002505671
 31
0.0
  0
ARC
  5
296F
330
18
100
AcDbEntity
  8
5
  6
PHANTOM
 48
0.2
100
AcDbCircle
 10
167.4876237232746
 20
211.0947112505671
 30
0.0
 40
1.5
100
AcDbArc
 50
176.7465940000702
 51
280.0000000000513
  0
ARC
  5
2970
330
18
100
AcDbEntity
  8
1
  6
Continuous
100
AcDbCircle
 10
149.7389517232746
 20
322.8673872505672
 30
0.0
 40
80.0
100
AcDbArc
 50
276.7465940000544
 51
299.4031250000458
  0
ARC
  5
2971
330
18
100
AcDbEntity
  8
1
  6
Continuous
100
AcDbCircle
 10
160.3993407232746
 20
290.1148222505672
 30
0.0
 40
50.0
100
AcDbArc
 50
268.0537040000532
 51
308.2480400000467
  0
ARC
  5
2972
330
18
100
AcDbEntity
  8
5
  6
PHANTOM
 48
0.2
100
AcDbCircle
 10
168.9491357232745
 20
240.0814652505672
 30
0.0
 40
2.5
100
AcDbArc
 50
201.8630540000661
 51
325.5740830000385
  0
ARC
  5
2973
330
18
100
AcDbEntity
  8
5
  6
PHANTOM
 48
0.2
100
AcDbCircle
 10
162.9901477232746
 20
242.7953372505671
 30
0.0
 40
1.5
100
AcDbArc
 50
100.0000000000845
 51
199.4031250000669
  0
ARC
  5
2974
330
18
100
AcDbEntity
  8
1
  6
Continuous
100
AcDbCircle
 10
159.3134377232746
 20
241.9317382505671
 30
0.0
 40
1.5
100
AcDbArc
 50
96.74659400008707
 51
200.0000000000655
  0
LINE
  5
2975
330
18
100
AcDbEntity
  8
1
  6
Continuous
100
AcDbLine
 10
158.2483387232746
 20
240.4723682505671
 30
0.0
 11
157.9038987232746
 21
241.4187082505672
 31
0.0
  0
ARC
  5
2976
330
18
100
AcDbEntity
  8
1
  6
Continuous
100
AcDbCircle
 10
158.7181847232745
 20
240.6433782505672
 30
0.0
 40
0.5
100
AcDbArc
 50
200.0000000000655
 51
268.0537040000532
  0
ARC
  5
2977
330
18
100
AcDbEntity
  8
5
  6
PHANTOM
 48
0.2
100
AcDbCircle
 10
163.8300077232746
 20
243.9588532505672
 30
0.0
 40
0.5
100
AcDbArc
 50
28.2480400000305
 51
100.0000000000117
  0
LINE
  5
2978
330
18
100
AcDbEntity
  8
5
  6
PHANTOM
 48
0.2
100
AcDbLine
 10
163.7431837232746
 20
244.4512572505671
 30
0.0
 11
162.7296757232746
 21
244.2725482505671
 31
0.0
  0
ARC
  5
2979
330
18
100
AcDbEntity
  8
1
  6
Continuous
100
AcDbCircle
 10
172.7023957232746
 20
238.5625682505671
 30
0.0
 40
3.0
100
AcDbArc
 50
336.6520290000396
 51
103.4226900000138
  0
ARC
  5
297A
330
18
100
AcDbEntity
  8
1
  6
Continuous
100
AcDbCircle
 10
182.8016597232746
 20
234.2031112505671
 30
0.0
 40
8.0
100
AcDbArc
 50
156.6520290000046
 51
179.4500559999985
  0
ARC
  5
297B
330
18
100
AcDbEntity
  8
5
  6
PHANTOM
 48
0.2
100
AcDbCircle
 10
180.9095737232746
 20
231.8840332505672
 30
0.0
 40
12.0
100
AcDbArc
 50
83.88523100001597
 51
145.5740830000046
  0
LINE
  5
297C
330
18
100
AcDbEntity
  8
1
  6
Continuous
100
AcDbLine
 10
191.5130077232746
 20
251.4115952505671
 30
0.0
 11
191.1610197232746
 21
252.3786742505671
 31
0.0
  0
ARC
  5
297D
330
18
100
AcDbEntity
  8
1
  6
Continuous
100
AcDbCircle
 10
189.7514807232746
 20
251.8656442505672
 30
0.0
 40
1.5
100
AcDbArc
 50
20.00000000003042
 51
119.4031250000086
  0
ARC
  5
297E
330
18
100
AcDbEntity
  8
1
  6
Continuous
100
AcDbCircle
 10
191.0431607232746
 20
251.2405852505672
 30
0.0
 40
0.5
100
AcDbArc
 50
308.2480400000467
 51
20.00000000003042
  0
LINE
  5
29E8
330
18
100
AcDbEntity
  8
1
  6
Continuous
100
AcDbLine
 10
188.2756397232754
 20
370.7184358092612
 30
0.0
 11
170.2389267232755
 21
370.7184358092612
 31
0.0
  0
LINE
  5
29E9
330
18
100
AcDbEntity
  8
1
  6
Continuous
100
AcDbLine
 10
188.2756397232754
 20
391.7184358092614
 30
0.0
 11
170.2389267232755
 21
391.7184358092614
 31
0.0
  0
ARC
  5
29EE
330
18
100
AcDbEntity
  8
1
  6
Continuous
100
AcDbCircle
 10
307.8134377232754
 20
381.2184358092613
 30
0.0
 40
150.0
100
AcDbArc
 50
176.9890110000695
 51
183.0109890000673
  0
ARC
  5
29EF
330
18
100
AcDbEntity
  8
1
  6
Continuous
100
AcDbCircle
 10
170.2389267232755
 20
420.7184358092613
 30
0.0
 40
50.0
100
AcDbArc
 50
257.2298250000537
 51
270.0000000000521
  0
ARC
  5
29F1
330
18
100
AcDbEntity
  8
1
  6
Continuous
100
AcDbCircle
 10
159.5184457232754
 20
373.4181048092612
 30
0.0
 40
1.5
100
AcDbArc
 50
183.0109890000673
 51
257.2298250000537
  0
ARC
  5
29F3
330
18
100
AcDbEntity
  8
1
  6
Continuous
100
AcDbCircle
 10
270.2563617232744
 20
381.2184358092618
 30
0.0
 40
100.0
100
AcDbArc
 50
186.0271665601322
 51
186.3153159999308
  0
ARC
  5
29F4
330
18
100
AcDbEntity
  8
1
  6
Continuous
100
AcDbCircle
 10
170.2389267232755
 20
341.7184358092612
 30
0.0
 40
50.0
100
AcDbArc
 50
90.00000000001952
 51
102.770175000013
  0
ARC
  5
29F6
330
18
100
AcDbEntity
  8
1
  6
Continuous
100
AcDbCircle
 10
159.5184457232754
 20
389.0187658092611
 30
0.0
 40
1.5
100
AcDbArc
 50
102.770175000013
 51
176.9890110000009
  0
ARC
  5
29F7
330
18
100
AcDbEntity
  8
1
  6
Continuous
100
AcDbCircle
 10
270.2563617232744
 20
381.2184358092618
 30
0.0
 40
100.0
100
AcDbArc
 50
173.6846839999326
 51
173.9728334398694
  0
ARC
  5
29F8
330
18
100
AcDbEntity
  8
1
  6
Continuous
100
AcDbCircle
 10
41.63621688195006
 20
381.2184358092613
 30
0.0
 40
150.0
100
AcDbArc
 50
356.7846070000343
 51
3.215393000034346
  0
ARC
  5
29F9
330
18
100
AcDbEntity
  8
1
  6
Continuous
100
AcDbCircle
 10
39.75148072327522
 20
381.2184358092613
 30
0.0
 40
150.0
100
AcDbArc
 50
356.7846070000343
 51
3.215393000034346
  0
ARC
  5
29FA
330
18
100
AcDbEntity
  8
1
  6
Continuous
100
AcDbCircle
 10
189.9024378819499
 20
372.8891098092611
 30
0.0
 40
1.5
100
AcDbArc
 50
309.0640570000387
 51
356.7846070000343
  0
ARC
  5
29FB
330
18
100
AcDbEntity
  8
1
  6
Continuous
100
AcDbCircle
 10
188.017701723275
 20
372.8891098092611
 30
0.0
 40
1.5
100
AcDbArc
 50
309.0640570000387
 51
356.7846070000343
  0
ARC
  5
29FC
330
18
100
AcDbEntity
  8
1
  6
Continuous
100
AcDbCircle
 10
190.477192560989
 20
373.1594427557566
 30
0.0
 40
0.9410069464954723
100
AcDbArc
 50
176.9394271215422
 51
356.9007469329002
  0
ARC
  5
29FD
330
18
100
AcDbEntity
  8
1
  6
Continuous
100
AcDbCircle
 10
188.01187088195
 20
375.2184358092612
 30
0.0
 40
4.5
100
AcDbArc
 50
270.0000000000521
 51
309.0640570000387
  0
ARC
  5
29FE
330
18
100
AcDbEntity
  8
1
  6
Continuous
100
AcDbCircle
 10
186.1271357232752
 20
375.2184358092612
 30
0.0
 40
4.5
100
AcDbArc
 50
270.0000000000521
 51
309.0640570000387
  0
ARC
  5
29FF
330
18
100
AcDbEntity
  8
1
  6
Continuous
100
AcDbCircle
 10
188.017701723275
 20
389.5477618092611
 30
0.0
 40
1.5
100
AcDbArc
 50
3.215393000034346
 51
50.93594300002838
  0
ARC
  5
2A00
330
18
100
AcDbEntity
  8
1
  6
Continuous
100
AcDbCircle
 10
189.9024378819499
 20
389.5477618092611
 30
0.0
 40
1.5
100
AcDbArc
 50
3.215393000034346
 51
50.93594300002838
  0
ARC
  5
2A01
330
18
100
AcDbEntity
  8
1
  6
Continuous
100
AcDbCircle
 10
190.477192560989
 20
389.2774288627658
 30
0.0
 40
0.9410069464954723
100
AcDbArc
 50
3.099253067099815
 51
183.0605728784576
  0
ARC
  5
2A02
330
18
100
AcDbEntity
  8
1
  6
Continuous
100
AcDbCircle
 10
188.01187088195
 20
387.2184358092614
 30
0.0
 40
4.5
100
AcDbArc
 50
50.93594300002838
 51
90.00000000001952
  0
ARC
  5
2A03
330
18
100
AcDbEntity
  8
1
  6
Continuous
100
AcDbCircle
 10
186.1271357232752
 20
387.2184358092614
 30
0.0
 40
4.5
100
AcDbArc
 50
50.93594300002838
 51
90.00000000001952
  0
ARC
  5
2A31
330
18
100
AcDbEntity
  8
1
  6
Continuous
100
AcDbCircle
 10
598.8572477232747
 20
322.8673872505672
 30
0.0
 40
80.0
100
AcDbArc
 50
240.5968749999541
 51
263.2534059999456
  0
ARC
  5
2A32
330
18
100
AcDbEntity
  8
1
  6
Continuous
100
AcDbCircle
 10
588.1968587232747
 20
290.1148222505672
 30
0.0
 40
50.0
100
AcDbArc
 50
231.7519599999532
 51
271.9462959999467
  0
ARC
  5
2A37
330
18
100
AcDbEntity
  8
1
  6
Continuous
100
AcDbCircle
 10
575.8938037232748
 20
238.5625682505671
 30
0.0
 40
3.0
100
AcDbArc
 50
76.57730999998618
 51
203.3479709999602
  0
ARC
  5
2A38
330
18
100
AcDbEntity
  8
1
  6
Continuous
100
AcDbCircle
 10
565.7945397232747
 20
234.2031112505671
 30
0.0
 40
8.0
100
AcDbArc
 50
0.5499440000014913
 51
23.34797099999531
  0
LINE
  5
2A39
330
18
100
AcDbEntity
  8
1
  6
Continuous
100
AcDbLine
 10
557.0831917232745
 20
251.4115952505671
 30
0.0
 11
557.4351797232745
 21
252.3786742505671
 31
0.0
  0
ARC
  5
2A3A
330
18
100
AcDbEntity
  8
1
  6
Continuous
100
AcDbCircle
 10
557.5530387232745
 20
251.2405852505672
 30
0.0
 40
0.5
100
AcDbArc
 50
159.9999999999695
 51
231.7519599999532
  0
ARC
  5
2A3B
330
18
100
AcDbEntity
  8
1
  6
Continuous
100
AcDbCircle
 10
558.8447187232747
 20
251.8656442505672
 30
0.0
 40
1.5
100
AcDbArc
 50
60.59687499999132
 51
159.9999999999695
  0
ARC
  5
2A3C
330
18
100
AcDbEntity
  8
1
  6
Continuous
100
AcDbCircle
 10
589.2827617232748
 20
241.9317382505671
 30
0.0
 40
1.5
100
AcDbArc
 50
339.9999999999345
 51
83.25340599991291
  0
ARC
  5
2A3D
330
18
100
AcDbEntity
  8
1
  6
Continuous
100
AcDbCircle
 10
589.8780147232749
 20
240.6433782505672
 30
0.0
 40
0.5
100
AcDbArc
 50
271.9462959999467
 51
339.9999999999345
  0
LINE
  5
2A3E
330
18
100
AcDbEntity
  8
1
  6
Continuous
100
AcDbLine
 10
590.3478607232747
 20
240.4723682505671
 30
0.0
 11
590.6923007232745
 21
241.4187082505672
 31
0.0
  0
ENDSEC
  0
SECTION
  2
OBJECTS
  0
DICTIONARY
  5
C
330
0
100
AcDbDictionary
281
     1
  3
ACAD_CIP_PREVIOUS_PRODUCT_INFO
350
2FF4
  3
ACAD_COLOR
350
2FD7
  3
ACAD_DETAILVIEWSTYLE
350
2FF0
  3
ACAD_GROUP
350
D
  3
ACAD_LAYOUT
350
94
  3
ACAD_MATERIAL
350
2FA5
  3
ACAD_MLEADERSTYLE
350
2FEC
  3
ACAD_MLINESTYLE
350
1B
  3
ACAD_PLOTSETTINGS
350
95
  3
ACAD_PLOTSTYLENAME
350
2FA3
  3
ACAD_SCALELIST
350
2FDA
  3
ACAD_SECTIONVIEWSTYLE
350
2FEE
  3
ACAD_TABLESTYLE
350
2FD8
  3
ACAD_VISUALSTYLE
350
2FBE
  3
ACDB_RECOMPOSE_DATA
350
3058
  3
AcDbVariableDictionary
350
3007
  3
CONTENTDICTIONARY
350
3D
  3
DWGPROPS
350
3059
  0
DICTIONARY
  5
2FF7
330
E
100
AcDbDictionary
280
     1
281
     1
  3
ADSK_XREC_LAYER_RECONCILED
360
2FF8
  0
DICTIONARY
  5
2FF9
330
4E
100
AcDbDictionary
280
     1
281
     1
  3
ADSK_XREC_LAYER_RECONCILED
360
2FFA
  0
DICTIONARY
  5
2FFB
330
4F
100
AcDbDictionary
280
     1
281
     1
  3
ADSK_XREC_LAYER_RECONCILED
360
2FFC
  0
DICTIONARY
  5
2FFD
330
50
100
AcDbDictionary
280
     1
281
     1
  3
ADSK_XREC_LAYER_RECONCILED
360
2FFE
  0
DICTIONARY
  5
2FFF
330
51
100
AcDbDictionary
280
     1
281
     1
  3
ADSK_XREC_LAYER_RECONCILED
360
3000
  0
DICTIONARY
  5
3001
330
52
100
AcDbDictionary
280
     1
281
     1
  3
ADSK_XREC_LAYER_RECONCILED
360
3002
  0
DICTIONARY
  5
3003
330
53
100
AcDbDictionary
280
     1
281
     1
  3
ADSK_XREC_LAYER_RECONCILED
360
3004
  0
DICTIONARY
  5
3005
330
54
100
AcDbDictionary
280
     1
281
     1
  3
ADSK_XREC_LAYER_RECONCILED
360
3006
  0
DICTIONARY
  5
2F9E
330
18
100
AcDbDictionary
281
     1
  3
ACAD_LAYOUTSELFREF
350
2F9F
  0
DICTIONARY
  5
2F9C
330
15
100
AcDbDictionary
281
     1
  3
ACAD_LAYOUTSELFREF
350
2F9D
  0
XRECORD
  5
2FF4
102
{ACAD_REACTORS
330
C
102
}
330
C
100
AcDbXrecord
280
     1
300
ACDLT
300
2014
300
ACDLT_F_S
  0
DICTIONARY
  5
2FD7
102
{ACAD_REACTORS
330
C
102
}
330
C
100
AcDbDictionary
281
     1
  0
DICTIONARY
  5
2FF0
102
{ACAD_REACTORS
330
C
102
}
330
C
100
AcDbDictionary
281
     1
  3
Imperial24
350
2FF1
  0
DICTIONARY
  5
D
102
{ACAD_REACTORS
330
C
102
}
330
C
100
AcDbDictionary
281
     1
  0
DICTIONARY
  5
94
102
{ACAD_REACTORS
330
C
102
}
330
C
100
AcDbDictionary
281
     1
  3
Model
350
2FF2
  3
レイアウト1
350
2FF3
  0
DICTIONARY
  5
2FA5
102
{ACAD_REACTORS
330
C
102
}
330
C
100
AcDbDictionary
281
     1
  3
ByBlock
350
2FAE
  3
ByLayer
350
2FA6
  3
Global
350
2FB6
  0
DICTIONARY
  5
2FEC
102
{ACAD_REACTORS
330
C
102
}
330
C
100
AcDbDictionary
281
     1
  3
Standard
350
2FED
  0
DICTIONARY
  5
1B
102
{ACAD_REACTORS
330
C
102
}
330
C
100
AcDbDictionary
281
     1
  3
STANDARD
350
1C
  0
DICTIONARY
  5
95
102
{ACAD_REACTORS
330
C
102
}
330
C
100
AcDbDictionary
281
     1
  0
ACDBDICTIONARYWDFLT
  5
2FA3
102
{ACAD_REACTORS
330
C
102
}
330
C
100
AcDbDictionary
281
     1
  3
Normal
350
2FA4
100
AcDbDictionaryWithDefault
340
2FA4
  0
DICTIONARY
  5
2FDA
102
{ACAD_REACTORS
330
C
102
}
330
C
100
AcDbDictionary
281
     1
  3
A0
350
2FDB
  3
A1
350
2FDC
  3
A2
350
2FDD
  3
A3
350
2FDE
  3
A4
350
2FDF
  3
A5
350
2FE0
  3
A6
350
2FE1
  3
A7
350
2FE2
  3
A8
350
2FE3
  3
A9
350
2FE4
  3
B0
350
2FE5
  3
B1
350
2FE6
  3
B2
350
2FE7
  3
B3
350
2FE8
  3
B4
350
2FE9
  3
B5
350
2FEA
  3
B6
350
2FEB
  0
DICTIONARY
  5
2FEE
102
{ACAD_REACTORS
330
C
102
}
330
C
100
AcDbDictionary
281
     1
  3
Imperial24
350
2FEF
  0
DICTIONARY
  5
2FD8
102
{ACAD_REACTORS
330
C
102
}
330
C
100
AcDbDictionary
281
     1
  3
Standard
350
2FD9
  0
DICTIONARY
  5
2FBE
102
{ACAD_REACTORS
330
C
102
}
330
C
100
AcDbDictionary
281
     1
  3
2dWireframe
350
2FC4
  3
Basic
350
2FC3
  3
Brighten
350
2FCA
  3
ColorChange
350
2FCE
  3
Conceptual
350
2FC7
  3
Dim
350
2FC9
  3
EdgeColorOff
350
2FD6
  3
Facepattern
350
2FCD
  3
Flat
350
2FBF
  3
FlatWithEdges
350
2FC0
  3
Gouraud
350
2FC1
  3
GouraudWithEdges
350
2FC2
  3
Hidden
350
2FC6
  3
JitterOff
350
2FD4
  3
Linepattern
350
2FCC
  3
OverhangOff
350
2FD5
  3
Realistic
350
2FC8
  3
Shaded
350
2FD3
  3
Shaded with edges
350
2FD2
  3
Shades of Gray
350
2FCF
  3
Sketchy
350
2FD0
  3
Thicken
350
2FCB
  3
Wireframe
350
2FC5
  3
X-Ray
350
2FD1
  0
XRECORD
  5
3058
102
{ACAD_REACTORS
330
C
102
}
330
C
100
AcDbXrecord
280
     1
 90
        1
330
2FD9
  0
DICTIONARY
  5
3007
102
{ACAD_REACTORS
330
C
102
}
330
C
100
AcDbDictionary
281
     1
  3
CANNOSCALE
350
300C
  3
CMLEADERSTYLE
350
3009
  3
CTABLESTYLE
350
3008
  3
CVIEWDETAILSTYLE
350
300A
  3
CVIEWSECTIONSTYLE
350
300B
  3
DIMASSOC
350
300F
  3
INDEXCTL
350
300E
  3
SORTENTS
350
300D
  3
XCLIPFRAME
350
3056
  0
DICTIONARY
  5
3D
102
{ACAD_REACTORS
330
C
102
}
330
C
100
AcDbDictionary
281
     1
  0
XRECORD
  5
3059
102
{ACAD_REACTORS
330
C
102
}
330
C
100
AcDbXrecord
280
     1
  1
DWGPROPS COOKIE
  2

  3

  4

  6

  7

  8
Yoshitsune
  9

300
=
301
=
302
=
303
=
304
=
305
=
306
=
307
=
308
=
309
=
 40
0.172212025462963
 41
2453811.402924803
 42
2457192.69264787
  1

 90
        0
  0
XRECORD
  5
2FF8
102
{ACAD_REACTORS
330
2FF7
102
}
330
2FF7
100
AcDbXrecord
280
     1
290
     1
  0
XRECORD
  5
2FFA
102
{ACAD_REACTORS
330
2FF9
102
}
330
2FF9
100
AcDbXrecord
280
     1
290
     1
  0
XRECORD
  5
2FFC
102
{ACAD_REACTORS
330
2FFB
102
}
330
2FFB
100
AcDbXrecord
280
     1
290
     1
  0
XRECORD
  5
2FFE
102
{ACAD_REACTORS
330
2FFD
102
}
330
2FFD
100
AcDbXrecord
280
     1
290
     1
  0
XRECORD
  5
3000
102
{ACAD_REACTORS
330
2FFF
102
}
330
2FFF
100
AcDbXrecord
280
     1
290
     1
  0
XRECORD
  5
3002
102
{ACAD_REACTORS
330
3001
102
}
330
3001
100
AcDbXrecord
280
     1
290
     1
  0
XRECORD
  5
3004
102
{ACAD_REACTORS
330
3003
102
}
330
3003
100
AcDbXrecord
280
     1
290
     1
  0
XRECORD
  5
3006
102
{ACAD_REACTORS
330
3005
102
}
330
3005
100
AcDbXrecord
280
     1
290
     1
  0
XRECORD
  5
2F9F
102
{ACAD_REACTORS
330
2F9E
102
}
330
2F9E
100
AcDbXrecord
280
     1
340
18
  0
XRECORD
  5
2F9D
102
{ACAD_REACTORS
330
2F9C
102
}
330
2F9C
100
AcDbXrecord
280
     1
340
15
  0
ACDBDETAILVIEWSTYLE
  5
2FF1
102
{ACAD_XDICTIONARY
360
308D
102
}
102
{ACAD_REACTORS
330
2FF0
102
}
330
2FF0
100
AcDbModelDocViewStyle
 70
     0
  3
Imperial24
290
     0
100
AcDbDetailViewStyle
 70
     0
 71
     0
 90
        3
 71
     1
340
F
 40
0.24
340
0
 40
0.24
300

 40
0.36
280
     3
 71
     2
340
14
 90
       25
 71
     3
340
F
 40
0.24
 90
        1
 40
0.75
 90
        1
300
%<\AcVar ViewType \f "%tc1">% %<\AcVar ViewDetailId>%\PSCALE %<\AcVar ViewScale \f "%sn">%
 71
     4
340
14
 90
       25
340
14
 90
       25
280
     0
  0
LAYOUT
  5
2FF2
102
{ACAD_XDICTIONARY
360
308F
102
}
102
{ACAD_REACTORS
330
94
102
}
330
94
100
AcDbPlotSettings
  1

  2
Canon LBP9100C
  4

  6

 40
0.0
 41
0.0
 42
0.0
 43
0.0
 44
0.0
 45
0.0
 46
0.0
 47
0.0
 48
0.0
 49
0.0
140
0.0
141
0.0
142
1.0
143
1.0
 70
  1712
 72
     0
 73
     0
 74
     0
  7

 75
     0
147
1.0
148
0.0
149
0.0
100
AcDbLayout
  1
Model
 70
     1
 71
     0
 10
0.0
 20
0.0
 11
12.0
 21
9.0
 12
0.0
 22
0.0
 32
0.0
 14
0.0
 24
0.0
 34
0.0
 15
0.0
 25
0.0
 35
0.0
146
0.0
 13
0.0
 23
0.0
 33
0.0
 16
1.0
 26
0.0
 36
0.0
 17
0.0
 27
1.0
 37
0.0
 76
     0
330
18
331
2F9B
  0
LAYOUT
  5
2FF3
102
{ACAD_XDICTIONARY
360
3091
102
}
102
{ACAD_REACTORS
330
94
102
}
330
94
100
AcDbPlotSettings
  1

  2
Canon LBP9100C
  4

  6

 40
0.0
 41
0.0
 42
0.0
 43
0.0
 44
0.0
 45
0.0
 46
0.0
 47
0.0
 48
0.0
 49
0.0
140
0.0
141
0.0
142
1.0
143
1.0
 70
   688
 72
     0
 73
     0
 74
     5
  7

 75
    16
147
1.0
148
0.0
149
0.0
100
AcDbLayout
  1
レイアウト1
 70
     1
 71
     1
 10
0.0
 20
0.0
 11
420.0
 21
297.0
 12
0.0
 22
0.0
 32
0.0
 14
1.000000000000000E+20
 24
1.000000000000000E+20
 34
1.000000000000000E+20
 15
-1.000000000000000E+20
 25
-1.000000000000000E+20
 35
-1.000000000000000E+20
146
0.0
 13
0.0
 23
0.0
 33
0.0
 16
1.0
 26
0.0
 36
0.0
 17
0.0
 27
1.0
 37
0.0
 76
     0
330
15
  0
MATERIAL
  5
2FAE
102
{ACAD_XDICTIONARY
360
2FAF
102
}
102
{ACAD_REACTORS
330
2FA5
102
}
330
2FA5
100
AcDbMaterial
  1
ByBlock
 72
     0
 43
0.0208333333333333
 43
0.0
 43
0.0
 43
0.0
 43
0.0
 43
0.0208333333333333
 43
0.0
 43
0.0
 43
0.0
 43
0.0
 43
1.0
 43
0.0
 43
0.0
 43
0.0
 43
0.0
 43
1.0
 77
     0
 47
0.0208333333333333
 47
0.0
 47
0.0
 47
0.0
 47
0.0
 47
0.0208333333333333
 47
0.0
 47
0.0
 47
0.0
 47
0.0
 47
1.0
 47
0.0
 47
0.0
 47
0.0
 47
0.0
 47
1.0
171
     0
 49
0.0208333333333333
 49
0.0
 49
0.0
 49
0.0
 49
0.0
 49
0.0208333333333333
 49
0.0
 49
0.0
 49
0.0
 49
0.0
 49
1.0
 49
0.0
 49
0.0
 49
0.0
 49
0.0
 49
1.0
175
     0
142
0.0208333333333333
142
0.0
142
0.0
142
0.0
142
0.0
142
0.0208333333333333
142
0.0
142
0.0
142
0.0
142
0.0
142
1.0
142
0.0
142
0.0
142
0.0
142
0.0
142
1.0
179
     0
144
0.0208333333333333
144
0.0
144
0.0
144
0.0
144
0.0
144
0.0208333333333333
144
0.0
144
0.0
144
0.0
144
0.0
144
1.0
144
0.0
144
0.0
144
0.0
144
0.0
144
1.0
147
0.0208333333333333
147
0.0
147
0.0
147
0.0
147
0.0
147
0.0208333333333333
147
0.0
147
0.0
147
0.0
147
0.0
147
1.0
147
0.0
147
0.0
147
0.0
147
0.0
147
1.0
  0
MATERIAL
  5
2FA6
102
{ACAD_XDICTIONARY
360
2FA7
102
}
102
{ACAD_REACTORS
330
2FA5
102
}
330
2FA5
100
AcDbMaterial
  1
ByLayer
 72
     0
 43
0.0208333333333333
 43
0.0
 43
0.0
 43
0.0
 43
0.0
 43
0.0208333333333333
 43
0.0
 43
0.0
 43
0.0
 43
0.0
 43
1.0
 43
0.0
 43
0.0
 43
0.0
 43
0.0
 43
1.0
 77
     0
 47
0.0208333333333333
 47
0.0
 47
0.0
 47
0.0
 47
0.0
 47
0.0208333333333333
 47
0.0
 47
0.0
 47
0.0
 47
0.0
 47
1.0
 47
0.0
 47
0.0
 47
0.0
 47
0.0
 47
1.0
171
     0
 49
0.0208333333333333
 49
0.0
 49
0.0
 49
0.0
 49
0.0
 49
0.0208333333333333
 49
0.0
 49
0.0
 49
0.0
 49
0.0
 49
1.0
 49
0.0
 49
0.0
 49
0.0
 49
0.0
 49
1.0
175
     0
142
0.0208333333333333
142
0.0
142
0.0
142
0.0
142
0.0
142
0.0208333333333333
142
0.0
142
0.0
142
0.0
142
0.0
142
1.0
142
0.0
142
0.0
142
0.0
142
0.0
142
1.0
179
     0
144
0.0208333333333333
144
0.0
144
0.0
144
0.0
144
0.0
144
0.0208333333333333
144
0.0
144
0.0
144
0.0
144
0.0
144
1.0
144
0.0
144
0.0
144
0.0
144
0.0
144
1.0
147
0.0208333333333333
147
0.0
147
0.0
147
0.0
147
0.0
147
0.0208333333333333
147
0.0
147
0.0
147
0.0
147
0.0
147
1.0
147
0.0
147
0.0
147
0.0
147
0.0
147
1.0
  0
MATERIAL
  5
2FB6
102
{ACAD_XDICTIONARY
360
2FB7
102
}
102
{ACAD_REACTORS
330
2FA5
102
}
330
2FA5
100
AcDbMaterial
  1
Global
 72
     0
 43
0.0208333333333333
 43
0.0
 43
0.0
 43
0.0
 43
0.0
 43
0.0208333333333333
 43
0.0
 43
0.0
 43
0.0
 43
0.0
 43
1.0
 43
0.0
 43
0.0
 43
0.0
 43
0.0
 43
1.0
 77
     0
 47
0.0208333333333333
 47
0.0
 47
0.0
 47
0.0
 47
0.0
 47
0.0208333333333333
 47
0.0
 47
0.0
 47
0.0
 47
0.0
 47
1.0
 47
0.0
 47
0.0
 47
0.0
 47
0.0
 47
1.0
171
     0
 49
0.0208333333333333
 49
0.0
 49
0.0
 49
0.0
 49
0.0
 49
0.0208333333333333
 49
0.0
 49
0.0
 49
0.0
 49
0.0
 49
1.0
 49
0.0
 49
0.0
 49
0.0
 49
0.0
 49
1.0
175
     0
142
0.0208333333333333
142
0.0
142
0.0
142
0.0
142
0.0
142
0.0208333333333333
142
0.0
142
0.0
142
0.0
142
0.0
142
1.0
142
0.0
142
0.0
142
0.0
142
0.0
142
1.0
179
     0
144
0.0208333333333333
144
0.0
144
0.0
144
0.0
144
0.0
144
0.0208333333333333
144
0.0
144
0.0
144
0.0
144
0.0
144
1.0
144
0.0
144
0.0
144
0.0
144
0.0
144
1.0
147
0.0208333333333333
147
0.0
147
0.0
147
0.0
147
0.0
147
0.0208333333333333
147
0.0
147
0.0
147
0.0
147
0.0
147
1.0
147
0.0
147
0.0
147
0.0
147
0.0
147
1.0
  0
MLEADERSTYLE
  5
2FED
102
{ACAD_REACTORS
330
2FEC
102
}
330
2FEC
100
AcDbMLeaderStyle
170
     2
171
     1
172
     0
 90
        2
 40
0.0
 41
0.0
173
     1
 91
-1056964608
340
12
 92
       -2
290
     1
 42
0.09
291
     1
 43
0.36
  3
Standard
 44
0.18
300

342
F
174
     1
178
     6
175
     1
176
     0
 93
-1056964608
 45
0.18
292
     0
297
     0
 46
0.18
 94
-1056964608
 47
1.0
 49
1.0
140
1.0
293
     1
141
0.0
294
     1
177
     0
142
1.0
295
     0
296
     0
143
0.125
1001
ACAD_MLEADERVER
1070
     2
  0
MLINESTYLE
  5
1C
102
{ACAD_REACTORS
330
1B
102
}
330
1B
100
AcDbMlineStyle
  2
STANDARD
 70
     0
  3

 62
   256
 51
90.0
 52
90.0
 71
     2
 49
0.5
 62
   256
  6
BYLAYER
 49
-0.5
 62
   256
  6
BYLAYER
  0
ACDBPLACEHOLDER
  5
2FA4
102
{ACAD_REACTORS
330
2FA3
102
}
330
2FA3
  0
SCALE
  5
2FDB
102
{ACAD_REACTORS
330
2FDA
102
}
330
2FDA
100
AcDbScale
 70
     0
300
1:1
140
1.0
141
1.0
290
     1
  0
SCALE
  5
2FDC
102
{ACAD_REACTORS
330
2FDA
102
}
330
2FDA
100
AcDbScale
 70
     0
300
1/128" = 1'-0"
140
0.0078125
141
12.0
290
     0
  0
SCALE
  5
2FDD
102
{ACAD_REACTORS
330
2FDA
102
}
330
2FDA
100
AcDbScale
 70
     0
300
1/64" = 1'-0"
140
0.015625
141
12.0
290
     0
  0
SCALE
  5
2FDE
102
{ACAD_REACTORS
330
2FDA
102
}
330
2FDA
100
AcDbScale
 70
     0
300
1/32" = 1'-0"
140
0.03125
141
12.0
290
     0
  0
SCALE
  5
2FDF
102
{ACAD_REACTORS
330
2FDA
102
}
330
2FDA
100
AcDbScale
 70
     0
300
1/16" = 1'-0"
140
0.0625
141
12.0
290
     0
  0
SCALE
  5
2FE0
102
{ACAD_REACTORS
330
2FDA
102
}
330
2FDA
100
AcDbScale
 70
     0
300
3/32" = 1'-0"
140
0.09375
141
12.0
290
     0
  0
SCALE
  5
2FE1
102
{ACAD_REACTORS
330
2FDA
102
}
330
2FDA
100
AcDbScale
 70
     0
300
1/8" = 1'-0"
140
0.125
141
12.0
290
     0
  0
SCALE
  5
2FE2
102
{ACAD_REACTORS
330
2FDA
102
}
330
2FDA
100
AcDbScale
 70
     0
300
3/16" = 1'-0"
140
0.1875
141
12.0
290
     0
  0
SCALE
  5
2FE3
102
{ACAD_REACTORS
330
2FDA
102
}
330
2FDA
100
AcDbScale
 70
     0
300
1/4" = 1'-0"
140
0.25
141
12.0
290
     0
  0
SCALE
  5
2FE4
102
{ACAD_REACTORS
330
2FDA
102
}
330
2FDA
100
AcDbScale
 70
     0
300
3/8" = 1'-0"
140
0.375
141
12.0
290
     0
  0
SCALE
  5
2FE5
102
{ACAD_REACTORS
330
2FDA
102
}
330
2FDA
100
AcDbScale
 70
     0
300
1/2" = 1'-0"
140
0.5
141
12.0
290
     0
  0
SCALE
  5
2FE6
102
{ACAD_REACTORS
330
2FDA
102
}
330
2FDA
100
AcDbScale
 70
     0
300
3/4" = 1'-0"
140
0.75
141
12.0
290
     0
  0
SCALE
  5
2FE7
102
{ACAD_REACTORS
330
2FDA
102
}
330
2FDA
100
AcDbScale
 70
     0
300
1" = 1'-0"
140
1.0
141
12.0
290
     0
  0
SCALE
  5
2FE8
102
{ACAD_REACTORS
330
2FDA
102
}
330
2FDA
100
AcDbScale
 70
     0
300
1-1/2" = 1'-0"
140
1.5
141
12.0
290
     0
  0
SCALE
  5
2FE9
102
{ACAD_REACTORS
330
2FDA
102
}
330
2FDA
100
AcDbScale
 70
     0
300
3" = 1'-0"
140
3.0
141
12.0
290
     0
  0
SCALE
  5
2FEA
102
{ACAD_REACTORS
330
2FDA
102
}
330
2FDA
100
AcDbScale
 70
     0
300
6" = 1'-0"
140
6.0
141
12.0
290
     0
  0
SCALE
  5
2FEB
102
{ACAD_REACTORS
330
2FDA
102
}
330
2FDA
100
AcDbScale
 70
     0
300
1'-0" = 1'-0"
140
12.0
141
12.0
290
     0
  0
ACDBSECTIONVIEWSTYLE
  5
2FEF
102
{ACAD_XDICTIONARY
360
308B
102
}
102
{ACAD_REACTORS
330
2FEE
102
}
330
2FEE
100
AcDbModelDocViewStyle
 70
     0
  3
Imperial24
290
     0
100
AcDbSectionViewStyle
 70
     0
 71
     0
 90
       78
 71
     1
340
F
 40
0.24
340
0
340
0
 40
0.24
300
I, O, Q, S, X, Z
 40
0.48
 90
        3
 40
0.18
 90
        1
 71
     2
340
14
 90
       25
340
14
 90
       50
 40
0.24
 40
0.0
 40
0.24
 71
     3
340
F
 40
0.24
 90
        1
 40
0.75
 90
        1
300
%<\AcVar ViewType \f "%tc1">% %<\AcVar ViewSectionStartId>%-%<\AcVar ViewSectionEndId>%\PSCALE %<\AcVar ViewScale \f "%sn">%
 71
     4
300
ANSI31
 40
1.0
 90
        0
290
     0
290
     0
 90
        6
 40
0.0
 40
1.570796326794896
 40
0.2617993877991494
 40
1.308996938995747
 40
-0.2617993877991494
 40
1.832595714594045
  0
TABLESTYLE
  5
2FD9
102
{ACAD_XDICTIONARY
360
3012
102
}
102
{ACAD_REACTORS
330
2FD8
102
}
330
2FD8
100
AcDbTableStyle
  3
Standard
 70
     0
 71
     0
 40
0.06
 41
0.06
280
     0
281
     0
  7
STANDARD
140
0.18
170
     2
 62
     0
 63
     7
283
     0
274
    -2
284
     1
 64
     0
275
    -2
285
     1
 65
     0
276
    -2
286
     1
 66
     0
277
    -2
287
     1
 67
     0
278
    -2
288
     1
 68
     0
279
    -2
289
     1
 69
     0
  7
STANDARD
140
0.25
170
     5
 62
     0
 63
     7
283
     0
274
    -2
284
     1
 64
     0
275
    -2
285
     1
 65
     0
276
    -2
286
     1
 66
     0
277
    -2
287
     1
 67
     0
278
    -2
288
     1
 68
     0
279
    -2
289
     1
 69
     0
  7
STANDARD
140
0.18
170
     5
 62
     0
 63
     7
283
     0
274
    -2
284
     1
 64
     0
275
    -2
285
     1
 65
     0
276
    -2
286
     1
 66
     0
277
    -2
287
     1
 67
     0
278
    -2
288
     1
 68
     0
279
    -2
289
     1
 69
     0
  0
VISUALSTYLE
  5
2FC4
102
{ACAD_XDICTIONARY
360
3064
102
}
102
{ACAD_REACTORS
330
2FBE
102
}
330
2FBE
100
AcDbVisualStyle
  2

 70
     4
 71
     0
 72
     2
 73
     0
 90
        0
 40
-0.6
 41
-30.0
 62
     5
 63
     7
 74
     1
 91
        4
 64
     7
 65
   257
 75
     1
175
     1
 42
1.0
 92
        0
 66
   257
 43
1.0
 76
     1
 77
     6
 78
     2
 67
     7
 79
     5
170
     0
171
     0
290
     0
174
     0
 93
        1
 44
0.0
173
     0
291
     0
 45
0.0
1001
ACAD
1000
AcDbSavedByObjectVersion
1070
     0
  0
VISUALSTYLE
  5
2FC3
102
{ACAD_XDICTIONARY
360
3062
102
}
102
{ACAD_REACTORS
330
2FBE
102
}
330
2FBE
100
AcDbVisualStyle
  2

 70
     7
 71
     1
 72
     0
 73
     1
 90
        0
 40
-0.6
 41
-30.0
 62
     5
 63
     7
 74
     0
 91
        4
 64
     7
 65
   257
 75
     1
175
     1
 42
1.0
 92
        8
 66
     7
 43
1.0
 76
     1
 77
     6
 78
     2
 67
     7
 79
     5
170
     0
171
     0
290
     0
174
     0
 93
        1
 44
0.0
173
     0
291
     1
 45
0.0
1001
ACAD
1000
AcDbSavedByObjectVersion
1070
     0
  0
VISUALSTYLE
  5
2FCA
102
{ACAD_XDICTIONARY
360
3070
102
}
102
{ACAD_REACTORS
330
2FBE
102
}
330
2FBE
100
AcDbVisualStyle
  2

 70
    12
 71
     2
 72
     2
 73
     0
 90
        0
 40
-0.6
 41
-30.0
 62
     5
 63
     7
 74
     1
 91
        4
 64
     7
 65
   257
 75
     1
175
     1
 42
1.0
 92
        8
 66
     7
 43
1.0
 76
     1
 77
     6
 78
     2
 67
     7
 79
     5
170
     0
171
     0
290
     0
174
     0
 93
        1
 44
50.0
173
     0
291
     1
 45
0.0
1001
ACAD
1000
AcDbSavedByObjectVersion
1070
     0
  0
VISUALSTYLE
  5
2FCE
102
{ACAD_XDICTIONARY
360
3078
102
}
102
{ACAD_REACTORS
330
2FBE
102
}
330
2FBE
100
AcDbVisualStyle
  2

 70
    16
 71
     2
 72
     2
 73
     3
 90
        0
 40
-0.6
 41
-30.0
 62
     5
 63
     8
 74
     1
 91
        4
 64
     7
 65
   257
 75
     1
175
     1
 42
1.0
 92
        8
 66
     8
 43
1.0
 76
     1
 77
     6
 78
     2
 67
     7
 79
     5
170
     0
171
     0
290
     0
174
     0
 93
        1
 44
0.0
173
     0
291
     1
 45
0.0
1001
ACAD
1000
AcDbSavedByObjectVersion
1070
     0
  0
VISUALSTYLE
  5
2FC7
102
{ACAD_XDICTIONARY
360
306A
102
}
102
{ACAD_REACTORS
330
2FBE
102
}
330
2FBE
100
AcDbVisualStyle
  2

 70
     9
 71
     3
 72
     2
 73
     0
 90
        0
 40
-0.6
 41
-30.0
 62
     5
 63
     7
 74
     2
 91
        2
 64
     7
 65
   257
 75
     1
175
     1
 42
179.0
 92
        8
 66
     7
 43
1.0
 76
     1
 77
     6
 78
     2
 67
     7
 79
     3
170
     0
171
     0
290
     0
174
     0
 93
        1
 44
0.0
173
     0
291
     0
 45
0.0
1001
ACAD
1000
AcDbSavedByObjectVersion
1070
     0
  0
VISUALSTYLE
  5
2FC9
102
{ACAD_XDICTIONARY
360
306E
102
}
102
{ACAD_REACTORS
330
2FBE
102
}
330
2FBE
100
AcDbVisualStyle
  2

 70
    11
 71
     2
 72
     2
 73
     0
 90
        0
 40
-0.6
 41
-30.0
 62
     5
 63
     7
 74
     1
 91
        4
 64
     7
 65
   257
 75
     1
175
     1
 42
1.0
 92
        8
 66
     7
 43
1.0
 76
     1
 77
     6
 78
     2
 67
     7
 79
     5
170
     0
171
     0
290
     0
174
     0
 93
        1
 44
-50.0
173
     0
291
     1
 45
0.0
1001
ACAD
1000
AcDbSavedByObjectVersion
1070
     0
  0
VISUALSTYLE
  5
2FD6
102
{ACAD_XDICTIONARY
360
3088
102
}
102
{ACAD_REACTORS
330
2FBE
102
}
330
2FBE
100
AcDbVisualStyle
  2

 70
    22
 71
     2
 72
     2
 73
     0
 90
        0
 40
-0.6
 41
-30.0
 62
     5
 63
     7
 74
     1
 91
        4
 64
     7
 65
   257
 75
     1
175
     1
 42
1.0
 92
        8
 66
     7
 43
1.0
 76
     1
 77
     6
 78
     2
 67
     7
 79
     5
170
     0
171
     0
290
     0
174
     0
 93
        1
 44
0.0
173
     0
291
     1
 45
0.0
1001
ACAD
1000
AcDbSavedByObjectVersion
1070
     0
  0
VISUALSTYLE
  5
2FCD
102
{ACAD_XDICTIONARY
360
3076
102
}
102
{ACAD_REACTORS
330
2FBE
102
}
330
2FBE
100
AcDbVisualStyle
  2

 70
    15
 71
     2
 72
     2
 73
     0
 90
        0
 40
-0.6
 41
-30.0
 62
     5
 63
     7
 74
     1
 91
        4
 64
     7
 65
   257
 75
     1
175
     1
 42
1.0
 92
        8
 66
     7
 43
1.0
 76
     1
 77
     6
 78
     2
 67
     7
 79
     5
170
     0
171
     0
290
     0
174
     0
 93
        1
 44
0.0
173
     0
291
     1
 45
0.0
1001
ACAD
1000
AcDbSavedByObjectVersion
1070
     0
  0
VISUALSTYLE
  5
2FBF
102
{ACAD_XDICTIONARY
360
305A
102
}
102
{ACAD_REACTORS
330
2FBE
102
}
330
2FBE
100
AcDbVisualStyle
  2

 70
     0
 71
     2
 72
     1
 73
     1
 90
        2
 40
-0.6
 41
30.0
 62
     5
 63
     7
 74
     0
 91
        0
 64
     7
 65
   257
 75
     1
175
     1
 42
1.0
 92
        8
 66
     7
 43
1.0
 76
     1
 77
     6
 78
     2
 67
     7
 79
     5
170
     0
171
     0
290
     0
174
     0
 93
       13
 44
0.0
173
     0
291
     1
 45
0.0
1001
ACAD
1000
AcDbSavedByObjectVersion
1070
     0
  0
VISUALSTYLE
  5
2FC0
102
{ACAD_XDICTIONARY
360
305C
102
}
102
{ACAD_REACTORS
330
2FBE
102
}
330
2FBE
100
AcDbVisualStyle
  2

 70
     1
 71
     2
 72
     1
 73
     1
 90
        2
 40
-0.6
 41
30.0
 62
     5
 63
     7
 74
     1
 91
        0
 64
     7
 65
   257
 75
     1
175
     1
 42
1.0
 92
        0
 66
   257
 43
1.0
 76
     1
 77
     6
 78
     2
 67
     7
 79
     5
170
     0
171
     0
290
     0
174
     0
 93
       13
 44
0.0
173
     0
291
     1
 45
0.0
1001
ACAD
1000
AcDbSavedByObjectVersion
1070
     0
  0
VISUALSTYLE
  5
2FC1
102
{ACAD_XDICTIONARY
360
305E
102
}
102
{ACAD_REACTORS
330
2FBE
102
}
330
2FBE
100
AcDbVisualStyle
  2

 70
     2
 71
     2
 72
     2
 73
     1
 90
        2
 40
-0.6
 41
30.0
 62
     5
 63
     7
 74
     0
 91
        0
 64
     7
 65
   257
 75
     1
175
     1
 42
1.0
 92
        0
 66
     7
 43
1.0
 76
     1
 77
     6
 78
     2
 67
     7
 79
     5
170
     0
171
     0
290
     0
174
     0
 93
       13
 44
0.0
173
     0
291
     1
 45
0.0
1001
ACAD
1000
AcDbSavedByObjectVersion
1070
     0
  0
VISUALSTYLE
  5
2FC2
102
{ACAD_XDICTIONARY
360
3060
102
}
102
{ACAD_REACTORS
330
2FBE
102
}
330
2FBE
100
AcDbVisualStyle
  2

 70
     3
 71
     2
 72
     2
 73
     1
 90
        2
 40
-0.6
 41
30.0
 62
     5
 63
     7
 74
     1
 91
        0
 64
     7
 65
   257
 75
     1
175
     1
 42
1.0
 92
        0
 66
   257
 43
1.0
 76
     1
 77
     6
 78
     2
 67
     7
 79
     5
170
     0
171
     0
290
     0
174
     0
 93
       13
 44
0.0
173
     0
291
     1
 45
0.0
1001
ACAD
1000
AcDbSavedByObjectVersion
1070
     0
  0
VISUALSTYLE
  5
2FC6
102
{ACAD_XDICTIONARY
360
3068
102
}
102
{ACAD_REACTORS
330
2FBE
102
}
330
2FBE
100
AcDbVisualStyle
  2

 70
     6
 71
     1
 72
     2
 73
     2
 90
        0
 40
-0.6
 41
-30.0
 62
     5
 63
     7
 74
     2
 91
        2
 64
     7
 65
   257
 75
     2
175
     1
 42
40.0
 92
        0
 66
   257
 43
1.0
 76
     1
 77
     6
 78
     2
 67
     7
 79
     3
170
     0
171
     0
290
     0
174
     0
 93
        1
 44
0.0
173
     0
291
     0
 45
0.0
1001
ACAD
1000
AcDbSavedByObjectVersion
1070
     0
  0
VISUALSTYLE
  5
2FD4
102
{ACAD_XDICTIONARY
360
3084
102
}
102
{ACAD_REACTORS
330
2FBE
102
}
330
2FBE
100
AcDbVisualStyle
  2

 70
    20
 71
     2
 72
     2
 73
     0
 90
        0
 40
-0.6
 41
-30.0
 62
     5
 63
     7
 74
     1
 91
        4
 64
     7
 65
   257
 75
     1
175
     1
 42
1.0
 92
       10
 66
     7
 43
1.0
 76
     1
 77
     6
 78
     2
 67
     7
 79
     5
170
     0
171
     0
290
     0
174
     0
 93
        1
 44
0.0
173
     0
291
     1
 45
0.0
1001
ACAD
1000
AcDbSavedByObjectVersion
1070
     0
  0
VISUALSTYLE
  5
2FCC
102
{ACAD_XDICTIONARY
360
3074
102
}
102
{ACAD_REACTORS
330
2FBE
102
}
330
2FBE
100
AcDbVisualStyle
  2

 70
    14
 71
     2
 72
     2
 73
     0
 90
        0
 40
-0.6
 41
-30.0
 62
     5
 63
     7
 74
     1
 91
        4
 64
     7
 65
   257
 75
     7
175
     7
 42
1.0
 92
        8
 66
     7
 43
1.0
 76
     1
 77
     6
 78
     2
 67
     7
 79
     5
170
     0
171
     0
290
     0
174
     0
 93
        1
 44
0.0
173
     0
291
     1
 45
0.0
1001
ACAD
1000
AcDbSavedByObjectVersion
1070
     0
  0
VISUALSTYLE
  5
2FD5
102
{ACAD_XDICTIONARY
360
3086
102
}
102
{ACAD_REACTORS
330
2FBE
102
}
330
2FBE
100
AcDbVisualStyle
  2

 70
    21
 71
     2
 72
     2
 73
     0
 90
        0
 40
-0.6
 41
-30.0
 62
     5
 63
     7
 74
     1
 91
        4
 64
     7
 65
   257
 75
     1
175
     1
 42
1.0
 92
        9
 66
     7
 43
1.0
 76
     1
 77
     6
 78
     2
 67
     7
 79
     5
170
     0
171
     0
290
     0
174
     0
 93
        1
 44
0.0
173
     0
291
     1
 45
0.0
1001
ACAD
1000
AcDbSavedByObjectVersion
1070
     0
  0
VISUALSTYLE
  5
2FC8
102
{ACAD_XDICTIONARY
360
306C
102
}
102
{ACAD_REACTORS
330
2FBE
102
}
330
2FBE
100
AcDbVisualStyle
  2

 70
     8
 71
     2
 72
     3
 73
     0
 90
        2
 40
-0.6
 41
30.0
 62
     5
 63
     7
 74
     0
 91
        0
 64
     7
 65
   257
 75
     1
175
     1
 42
1.0
 92
        8
 66
   257
 43
1.0
 76
     1
 77
     6
 78
     2
 67
     7
 79
     3
170
     0
171
     0
290
     0
174
     0
 93
       13
 44
0.0
173
     0
291
     0
 45
0.0
1001
ACAD
1000
AcDbSavedByObjectVersion
1070
     0
  0
VISUALSTYLE
  5
2FD3
102
{ACAD_XDICTIONARY
360
3082
102
}
102
{ACAD_REACTORS
330
2FBE
102
}
330
2FBE
100
AcDbVisualStyle
  2

 70
    27
 71
     2
 72
     2
 73
     1
 90
        2
 40
-0.6
 41
30.0
 62
     5
 63
     7
 74
     0
 91
        4
 64
     7
 65
   257
 75
     1
175
     1
 42
1.0
 92
        8
 66
   257
 43
1.0
 76
     1
 77
     6
 78
     2
 67
     8
 79
     3
170
     0
171
     0
290
     0
174
     0
 93
        5
 44
0.0
173
     0
291
     0
 45
0.0
1001
ACAD
1000
AcDbSavedByObjectVersion
1070
     0
  0
VISUALSTYLE
  5
2FD2
102
{ACAD_XDICTIONARY
360
3080
102
}
102
{ACAD_REACTORS
330
2FBE
102
}
330
2FBE
100
AcDbVisualStyle
  2

 70
    26
 71
     2
 72
     2
 73
     1
 90
        2
 40
-0.6
 41
30.0
 62
     5
 63
     7
 74
     1
 91
       10
 64
     7
 65
   257
 75
     2
175
     1
 42
1.0
 92
        8
 66
   257
 43
1.0
 76
     1
 77
     6
 78
     2
 67
     7
 79
     3
170
     0
171
     0
290
     0
174
     0
 93
        5
 44
0.0
173
     0
291
     0
 45
0.0
1001
ACAD
1000
AcDbSavedByObjectVersion
1070
     0
  0
VISUALSTYLE
  5
2FCF
102
{ACAD_XDICTIONARY
360
307A
102
}
102
{ACAD_REACTORS
330
2FBE
102
}
330
2FBE
100
AcDbVisualStyle
  2

 70
    23
 71
     2
 72
     2
 73
     3
 90
        0
 40
-0.6
 41
-30.0
 62
     5
 63
     7
 74
     2
 91
        2
 64
     7
 65
     7
 75
     1
175
     1
 42
40.0
 92
        8
 66
     7
 43
1.0
 76
     1
 77
     6
 78
     2
 67
     7
 79
     3
170
     0
171
     0
290
     0
174
     0
 93
        1
 44
0.0
173
     0
291
     0
 45
0.0
1001
ACAD
1000
AcDbSavedByObjectVersion
1070
     0
  0
VISUALSTYLE
  5
2FD0
102
{ACAD_XDICTIONARY
360
307C
102
}
102
{ACAD_REACTORS
330
2FBE
102
}
330
2FBE
100
AcDbVisualStyle
  2

 70
    24
 71
     1
 72
     2
 73
     2
 90
        0
 40
-0.6
 41
-30.0
 62
     5
 63
     7
 74
     2
 91
        2
 64
     7
 65
     7
 75
     1
175
     1
 42
40.0
 92
       11
 66
     7
 43
1.0
 76
     1
 77
     6
 78
     2
 67
     7
 79
     6
170
     0
171
     0
290
     0
174
     0
 93
        1
 44
0.0
173
     0
291
     0
 45
0.0
1001
ACAD
1000
AcDbSavedByObjectVersion
1070
     0
  0
VISUALSTYLE
  5
2FCB
102
{ACAD_XDICTIONARY
360
3072
102
}
102
{ACAD_REACTORS
330
2FBE
102
}
330
2FBE
100
AcDbVisualStyle
  2

 70
    13
 71
     2
 72
     2
 73
     0
 90
        0
 40
-0.6
 41
-30.0
 62
     5
 63
     7
 74
     1
 91
        4
 64
     7
 65
   257
 75
     1
175
     1
 42
1.0
 92
       12
 66
     7
 43
1.0
 76
     1
 77
     6
 78
     2
 67
     7
 79
     5
170
     0
171
     0
290
     0
174
     0
 93
        1
 44
0.0
173
     0
291
     1
 45
0.0
1001
ACAD
1000
AcDbSavedByObjectVersion
1070
     0
  0
VISUALSTYLE
  5
2FC5
102
{ACAD_XDICTIONARY
360
3066
102
}
102
{ACAD_REACTORS
330
2FBE
102
}
330
2FBE
100
AcDbVisualStyle
  2

 70
     5
 71
     0
 72
     2
 73
     0
 90
        0
 40
-0.6
 41
-30.0
 62
     5
 63
     7
 74
     1
 91
        4
 64
     7
 65
   257
 75
     1
175
     1
 42
1.0
 92
        0
 66
   257
 43
1.0
 76
     1
 77
     6
 78
     2
 67
     7
 79
     3
170
     0
171
     0
290
     0
174
     0
 93
        1
 44
0.0
173
     0
291
     0
 45
0.0
1001
ACAD
1000
AcDbSavedByObjectVersion
1070
     0
  0
VISUALSTYLE
  5
2FD1
102
{ACAD_XDICTIONARY
360
307E
102
}
102
{ACAD_REACTORS
330
2FBE
102
}
330
2FBE
100
AcDbVisualStyle
  2

 70
    25
 71
     2
 72
     2
 73
     1
 90
        1
 40
0.5
 41
-30.0
 62
     5
 63
     7
 74
     1
 91
        0
 64
     7
 65
   257
 75
     1
175
     1
 42
1.0
 92
        8
 66
     7
 43
1.0
 76
     1
 77
     6
 78
     2
 67
     7
 79
     3
170
     0
171
     0
290
     0
174
     0
 93
       13
 44
0.0
173
     0
291
     0
 45
0.0
1001
ACAD
1000
AcDbSavedByObjectVersion
1070
     0
  0
DICTIONARYVAR
  5
300C
102
{ACAD_REACTORS
330
3007
102
}
330
3007
100
DictionaryVariables
280
     0
  1
1:1
  0
DICTIONARYVAR
  5
3009
102
{ACAD_REACTORS
330
3007
102
}
330
3007
100
DictionaryVariables
280
     0
  1
STANDARD
  0
DICTIONARYVAR
  5
3008
102
{ACAD_REACTORS
330
3007
102
}
330
3007
100
DictionaryVariables
280
     0
  1
STANDARD
  0
DICTIONARYVAR
  5
300A
102
{ACAD_REACTORS
330
3007
102
}
330
3007
100
DictionaryVariables
280
     0
  1
Imperial24
  0
DICTIONARYVAR
  5
300B
102
{ACAD_REACTORS
330
3007
102
}
330
3007
100
DictionaryVariables
280
     0
  1
Imperial24
  0
DICTIONARYVAR
  5
300F
102
{ACAD_REACTORS
330
3007
102
}
330
3007
100
DictionaryVariables
280
     0
  1
1
  0
DICTIONARYVAR
  5
300E
102
{ACAD_REACTORS
330
3007
102
}
330
3007
100
DictionaryVariables
280
     0
  1
0
  0
DICTIONARYVAR
  5
300D
102
{ACAD_REACTORS
330
3007
102
}
330
3007
100
DictionaryVariables
280
     0
  1
127
  0
DICTIONARYVAR
  5
3056
102
{ACAD_REACTORS
330
3007
102
}
330
3007
100
DictionaryVariables
280
     0
  1
2
  0
DICTIONARY
  5
308D
330
2FF1
100
AcDbDictionary
280
     1
281
     1
  3
ACAD_XREC_ROUNDTRIP
360
308E
  0
DICTIONARY
  5
308F
330
2FF2
100
AcDbDictionary
280
     1
281
     1
  3
ACAD_XREC_ROUNDTRIP
360
3090
  0
DICTIONARY
  5
3091
330
2FF3
100
AcDbDictionary
280
     1
281
     1
  3
ACAD_XREC_ROUNDTRIP
360
3092
  0
DICTIONARY
  5
2FAF
330
2FAE
100
AcDbDictionary
280
     1
281
     1
  3
ACAD_XREC_ROUNDTRIP
360
3017
  3
BUMPTILE
360
2FB1
  3
DIFFUSETILE
360
2FB0
  3
OPACITYTILE
360
2FB4
  3
REFLECTIONTILE
360
2FB3
  3
REFRACTIONTILE
360
2FB5
  3
SPECULARTILE
360
2FB2
  0
DICTIONARY
  5
2FA7
330
2FA6
100
AcDbDictionary
280
     1
281
     1
  3
ACAD_XREC_ROUNDTRIP
360
3016
  3
BUMPTILE
360
2FA9
  3
DIFFUSETILE
360
2FA8
  3
OPACITYTILE
360
2FAC
  3
REFLECTIONTILE
360
2FAB
  3
REFRACTIONTILE
360
2FAD
  3
SPECULARTILE
360
2FAA
  0
DICTIONARY
  5
2FB7
330
2FB6
100
AcDbDictionary
280
     1
281
     1
  3
ACAD_XREC_ROUNDTRIP
360
3018
  3
BUMPTILE
360
2FB9
  3
DIFFUSETILE
360
2FB8
  3
OPACITYTILE
360
2FBC
  3
REFLECTIONTILE
360
2FBB
  3
REFRACTIONTILE
360
2FBD
  3
SPECULARTILE
360
2FBA
  0
DICTIONARY
  5
308B
330
2FEF
100
AcDbDictionary
280
     1
281
     1
  3
ACAD_XREC_ROUNDTRIP
360
308C
  0
DICTIONARY
  5
3012
330
2FD9
100
AcDbDictionary
280
     1
281
     1
  3
ACAD_ROUNDTRIP_2008_TABLESTYLE_CELLSTYLEMAP
360
3057
  3
ACAD_XREC_ROUNDTRIP
360
308A
  0
DICTIONARY
  5
3064
330
2FC4
100
AcDbDictionary
280
     1
281
     1
  3
ACAD_XREC_ROUNDTRIP
360
3065
  0
DICTIONARY
  5
3062
330
2FC3
100
AcDbDictionary
280
     1
281
     1
  3
ACAD_XREC_ROUNDTRIP
360
3063
  0
DICTIONARY
  5
3070
330
2FCA
100
AcDbDictionary
280
     1
281
     1
  3
ACAD_XREC_ROUNDTRIP
360
3071
  0
DICTIONARY
  5
3078
330
2FCE
100
AcDbDictionary
280
     1
281
     1
  3
ACAD_XREC_ROUNDTRIP
360
3079
  0
DICTIONARY
  5
306A
330
2FC7
100
AcDbDictionary
280
     1
281
     1
  3
ACAD_XREC_ROUNDTRIP
360
306B
  0
DICTIONARY
  5
306E
330
2FC9
100
AcDbDictionary
280
     1
281
     1
  3
ACAD_XREC_ROUNDTRIP
360
306F
  0
DICTIONARY
  5
3088
330
2FD6
100
AcDbDictionary
280
     1
281
     1
  3
ACAD_XREC_ROUNDTRIP
360
3089
  0
DICTIONARY
  5
3076
330
2FCD
100
AcDbDictionary
280
     1
281
     1
  3
ACAD_XREC_ROUNDTRIP
360
3077
  0
DICTIONARY
  5
305A
330
2FBF
100
AcDbDictionary
280
     1
281
     1
  3
ACAD_XREC_ROUNDTRIP
360
305B
  0
DICTIONARY
  5
305C
330
2FC0
100
AcDbDictionary
280
     1
281
     1
  3
ACAD_XREC_ROUNDTRIP
360
305D
  0
DICTIONARY
  5
305E
330
2FC1
100
AcDbDictionary
280
     1
281
     1
  3
ACAD_XREC_ROUNDTRIP
360
305F
  0
DICTIONARY
  5
3060
330
2FC2
100
AcDbDictionary
280
     1
281
     1
  3
ACAD_XREC_ROUNDTRIP
360
3061
  0
DICTIONARY
  5
3068
330
2FC6
100
AcDbDictionary
280
     1
281
     1
  3
ACAD_XREC_ROUNDTRIP
360
3069
  0
DICTIONARY
  5
3084
330
2FD4
100
AcDbDictionary
280
     1
281
     1
  3
ACAD_XREC_ROUNDTRIP
360
3085
  0
DICTIONARY
  5
3074
330
2FCC
100
AcDbDictionary
280
     1
281
     1
  3
ACAD_XREC_ROUNDTRIP
360
3075
  0
DICTIONARY
  5
3086
330
2FD5
100
AcDbDictionary
280
     1
281
     1
  3
ACAD_XREC_ROUNDTRIP
360
3087
  0
DICTIONARY
  5
306C
330
2FC8
100
AcDbDictionary
280
     1
281
     1
  3
ACAD_XREC_ROUNDTRIP
360
306D
  0
DICTIONARY
  5
3082
330
2FD3
100
AcDbDictionary
280
     1
281
     1
  3
ACAD_XREC_ROUNDTRIP
360
3083
  0
DICTIONARY
  5
3080
330
2FD2
100
AcDbDictionary
280
     1
281
     1
  3
ACAD_XREC_ROUNDTRIP
360
3081
  0
DICTIONARY
  5
307A
330
2FCF
100
AcDbDictionary
280
     1
281
     1
  3
ACAD_XREC_ROUNDTRIP
360
307B
  0
DICTIONARY
  5
307C
330
2FD0
100
AcDbDictionary
280
     1
281
     1
  3
ACAD_XREC_ROUNDTRIP
360
307D
  0
DICTIONARY
  5
3072
330
2FCB
100
AcDbDictionary
280
     1
281
     1
  3
ACAD_XREC_ROUNDTRIP
360
3073
  0
DICTIONARY
  5
3066
330
2FC5
100
AcDbDictionary
280
     1
281
     1
  3
ACAD_XREC_ROUNDTRIP
360
3067
  0
DICTIONARY
  5
307E
330
2FD1
100
AcDbDictionary
280
     1
281
     1
  3
ACAD_XREC_ROUNDTRIP
360
307F
  0
XRECORD
  5
308E
102
{ACAD_REACTORS
330
308D
102
}
330
308D
100
AcDbXrecord
280
     1
102
DISPLAYNAME
  1
Imperial24
102
FLAGS
 90
        0
  0
XRECORD
  5
3090
102
{ACAD_REACTORS
330
308F
102
}
330
308F
100
AcDbXrecord
280
     1
102
SHADEPLOT
 70
     0
102
SHADEPLOTRESLEVEL
 70
     2
102
SHADEPLOTCUSTOMDPI
 70
   300
  0
XRECORD
  5
3092
102
{ACAD_REACTORS
330
3091
102
}
330
3091
100
AcDbXrecord
280
     1
102
SHADEPLOT
 70
     0
102
SHADEPLOTRESLEVEL
 70
     2
102
SHADEPLOTCUSTOMDPI
 70
   300
  0
XRECORD
  5
3017
102
{ACAD_REACTORS
330
2FAF
102
}
330
2FAF
100
AcDbXrecord
280
     1
102
MATERIAL
148
0.0
149
0.0
149
0.0
 93
        0
 94
      127
282
     0
 72
     0
 77
     0
171
     0
175
     0
179
     0
273
     0
  0
XRECORD
  5
2FB1
102
{ACAD_REACTORS
330
2FAF
102
}
330
2FAF
100
AcDbXrecord
280
     1
270
     1
271
     1
  0
XRECORD
  5
2FB0
102
{ACAD_REACTORS
330
2FAF
102
}
330
2FAF
100
AcDbXrecord
280
     1
270
     1
271
     1
  0
XRECORD
  5
2FB4
102
{ACAD_REACTORS
330
2FAF
102
}
330
2FAF
100
AcDbXrecord
280
     1
270
     1
271
     1
  0
XRECORD
  5
2FB3
102
{ACAD_REACTORS
330
2FAF
102
}
330
2FAF
100
AcDbXrecord
280
     1
270
     1
271
     1
  0
XRECORD
  5
2FB5
102
{ACAD_REACTORS
330
2FAF
102
}
330
2FAF
100
AcDbXrecord
280
     1
270
     1
271
     1
  0
XRECORD
  5
2FB2
102
{ACAD_REACTORS
330
2FAF
102
}
330
2FAF
100
AcDbXrecord
280
     1
270
     1
271
     1
  0
XRECORD
  5
3016
102
{ACAD_REACTORS
330
2FA7
102
}
330
2FA7
100
AcDbXrecord
280
     1
102
MATERIAL
148
0.0
149
0.0
149
0.0
 93
        0
 94
      127
282
     0
 72
     0
 77
     0
171
     0
175
     0
179
     0
273
     0
  0
XRECORD
  5
2FA9
102
{ACAD_REACTORS
330
2FA7
102
}
330
2FA7
100
AcDbXrecord
280
     1
270
     1
271
     1
  0
XRECORD
  5
2FA8
102
{ACAD_REACTORS
330
2FA7
102
}
330
2FA7
100
AcDbXrecord
280
     1
270
     1
271
     1
  0
XRECORD
  5
2FAC
102
{ACAD_REACTORS
330
2FA7
102
}
330
2FA7
100
AcDbXrecord
280
     1
270
     1
271
     1
  0
XRECORD
  5
2FAB
102
{ACAD_REACTORS
330
2FA7
102
}
330
2FA7
100
AcDbXrecord
280
     1
270
     1
271
     1
  0
XRECORD
  5
2FAD
102
{ACAD_REACTORS
330
2FA7
102
}
330
2FA7
100
AcDbXrecord
280
     1
270
     1
271
     1
  0
XRECORD
  5
2FAA
102
{ACAD_REACTORS
330
2FA7
102
}
330
2FA7
100
AcDbXrecord
280
     1
270
     1
271
     1
  0
XRECORD
  5
3018
102
{ACAD_REACTORS
330
2FB7
102
}
330
2FB7
100
AcDbXrecord
280
     1
102
MATERIAL
148
0.0
149
0.0
149
0.0
 93
        0
 94
      127
282
     0
 72
     0
 77
     0
171
     0
175
     0
179
     0
273
     0
  0
XRECORD
  5
2FB9
102
{ACAD_REACTORS
330
2FB7
102
}
330
2FB7
100
AcDbXrecord
280
     1
270
     1
271
     1
  0
XRECORD
  5
2FB8
102
{ACAD_REACTORS
330
2FB7
102
}
330
2FB7
100
AcDbXrecord
280
     1
270
     1
271
     1
  0
XRECORD
  5
2FBC
102
{ACAD_REACTORS
330
2FB7
102
}
330
2FB7
100
AcDbXrecord
280
     1
270
     1
271
     1
  0
XRECORD
  5
2FBB
102
{ACAD_REACTORS
330
2FB7
102
}
330
2FB7
100
AcDbXrecord
280
     1
270
     1
271
     1
  0
XRECORD
  5
2FBD
102
{ACAD_REACTORS
330
2FB7
102
}
330
2FB7
100
AcDbXrecord
280
     1
270
     1
271
     1
  0
XRECORD
  5
2FBA
102
{ACAD_REACTORS
330
2FB7
102
}
330
2FB7
100
AcDbXrecord
280
     1
270
     1
271
     1
  0
XRECORD
  5
308C
102
{ACAD_REACTORS
330
308B
102
}
330
308B
100
AcDbXrecord
280
     1
102
DISPLAYNAME
  1
Imperial24
102
FLAGS
 90
        0
  0
CELLSTYLEMAP
  5
3057
102
{ACAD_REACTORS
330
3012
102
}
330
3012
100
AcDbCellStyleMap
 90
        3
300
CELLSTYLE
  1
TABLEFORMAT_BEGIN
 90
        5
170
     1
 91
        0
 92
    32768
 62
   257
 93
        1
300
CONTENTFORMAT
  1
CONTENTFORMAT_BEGIN
 90
        0
 91
        0
 92
      512
 93
        0
300

 40
0.0
140
1.0
 94
        5
 62
     0
340
F
144
0.25
309
CONTENTFORMAT_END
171
     1
301
MARGIN
  1
CELLMARGIN_BEGIN
 40
0.06
 40
0.06
 40
0.06
 40
0.06
 40
0.18
 40
0.18
309
CELLMARGIN_END
 94
        6
 95
        1
302
GRIDFORMAT
  1
GRIDFORMAT_BEGIN
 90
        0
 91
        1
 62
     0
 92
       -2
340
0
 93
        0
 40
0.045
309
GRIDFORMAT_END
 95
        2
302
GRIDFORMAT
  1
GRIDFORMAT_BEGIN
 90
        0
 91
        1
 62
     0
 92
       -2
340
0
 93
        0
 40
0.045
309
GRIDFORMAT_END
 95
        4
302
GRIDFORMAT
  1
GRIDFORMAT_BEGIN
 90
        0
 91
        1
 62
     0
 92
       -2
340
0
 93
        0
 40
0.045
309
GRIDFORMAT_END
 95
        8
302
GRIDFORMAT
  1
GRIDFORMAT_BEGIN
 90
        0
 91
        1
 62
     0
 92
       -2
340
0
 93
        0
 40
0.045
309
GRIDFORMAT_END
 95
       16
302
GRIDFORMAT
  1
GRIDFORMAT_BEGIN
 90
        0
 91
        1
 62
     0
 92
       -2
340
0
 93
        0
 40
0.045
309
GRIDFORMAT_END
 95
       32
302
GRIDFORMAT
  1
GRIDFORMAT_BEGIN
 90
        0
 91
        1
 62
     0
 92
       -2
340
0
 93
        0
 40
0.045
309
GRIDFORMAT_END
309
TABLEFORMAT_END
  1
CELLSTYLE_BEGIN
 90
        1
 91
        1
300
_TITLE
309
CELLSTYLE_END
300
CELLSTYLE
  1
TABLEFORMAT_BEGIN
 90
        5
170
     1
 91
        0
 92
        0
 62
   257
 93
        1
300
CONTENTFORMAT
  1
CONTENTFORMAT_BEGIN
 90
        0
 91
        0
 92
      512
 93
        0
300

 40
0.0
140
1.0
 94
        5
 62
     0
340
F
144
0.18
309
CONTENTFORMAT_END
171
     1
301
MARGIN
  1
CELLMARGIN_BEGIN
 40
0.06
 40
0.06
 40
0.06
 40
0.06
 40
0.18
 40
0.18
309
CELLMARGIN_END
 94
        6
 95
        1
302
GRIDFORMAT
  1
GRIDFORMAT_BEGIN
 90
        0
 91
        1
 62
     0
 92
       -2
340
0
 93
        0
 40
0.045
309
GRIDFORMAT_END
 95
        2
302
GRIDFORMAT
  1
GRIDFORMAT_BEGIN
 90
        0
 91
        1
 62
     0
 92
       -2
340
0
 93
        0
 40
0.045
309
GRIDFORMAT_END
 95
        4
302
GRIDFORMAT
  1
GRIDFORMAT_BEGIN
 90
        0
 91
        1
 62
     0
 92
       -2
340
0
 93
        0
 40
0.045
309
GRIDFORMAT_END
 95
        8
302
GRIDFORMAT
  1
GRIDFORMAT_BEGIN
 90
        0
 91
        1
 62
     0
 92
       -2
340
0
 93
        0
 40
0.045
309
GRIDFORMAT_END
 95
       16
302
GRIDFORMAT
  1
GRIDFORMAT_BEGIN
 90
        0
 91
        1
 62
     0
 92
       -2
340
0
 93
        0
 40
0.045
309
GRIDFORMAT_END
 95
       32
302
GRIDFORMAT
  1
GRIDFORMAT_BEGIN
 90
        0
 91
        1
 62
     0
 92
       -2
340
0
 93
        0
 40
0.045
309
GRIDFORMAT_END
309
TABLEFORMAT_END
  1
CELLSTYLE_BEGIN
 90
        2
 91
        1
300
_HEADER
309
CELLSTYLE_END
300
CELLSTYLE
  1
TABLEFORMAT_BEGIN
 90
        5
170
     1
 91
        0
 92
        0
 62
   257
 93
        1
300
CONTENTFORMAT
  1
CONTENTFORMAT_BEGIN
 90
        0
 91
        0
 92
      512
 93
        0
300

 40
0.0
140
1.0
 94
        2
 62
     0
340
F
144
0.18
309
CONTENTFORMAT_END
171
     1
301
MARGIN
  1
CELLMARGIN_BEGIN
 40
0.06
 40
0.06
 40
0.06
 40
0.06
 40
0.18
 40
0.18
309
CELLMARGIN_END
 94
        6
 95
        1
302
GRIDFORMAT
  1
GRIDFORMAT_BEGIN
 90
        0
 91
        1
 62
     0
 92
       -2
340
0
 93
        0
 40
0.045
309
GRIDFORMAT_END
 95
        2
302
GRIDFORMAT
  1
GRIDFORMAT_BEGIN
 90
        0
 91
        1
 62
     0
 92
       -2
340
0
 93
        0
 40
0.045
309
GRIDFORMAT_END
 95
        4
302
GRIDFORMAT
  1
GRIDFORMAT_BEGIN
 90
        0
 91
        1
 62
     0
 92
       -2
340
0
 93
        0
 40
0.045
309
GRIDFORMAT_END
 95
        8
302
GRIDFORMAT
  1
GRIDFORMAT_BEGIN
 90
        0
 91
        1
 62
     0
 92
       -2
340
0
 93
        0
 40
0.045
309
GRIDFORMAT_END
 95
       16
302
GRIDFORMAT
  1
GRIDFORMAT_BEGIN
 90
        0
 91
        1
 62
     0
 92
       -2
340
0
 93
        0
 40
0.045
309
GRIDFORMAT_END
 95
       32
302
GRIDFORMAT
  1
GRIDFORMAT_BEGIN
 90
        0
 91
        1
 62
     0
 92
       -2
340
0
 93
        0
 40
0.045
309
GRIDFORMAT_END
309
TABLEFORMAT_END
  1
CELLSTYLE_BEGIN
 90
        3
 91
        2
300
_DATA
309
CELLSTYLE_END
  0
XRECORD
  5
308A
102
{ACAD_REACTORS
330
3012
102
}
330
3012
100
AcDbXrecord
280
     1
102
ACAD_ROUNDTRIP_PRE2007_TABLESTYLE
 90
      512
 91
        0
  1

 92
      512
 93
        0
  2

 94
      512
 95
        0
  3

  0
XRECORD
  5
3065
102
{ACAD_REACTORS
330
3064
102
}
330
3064
100
AcDbXrecord
280
     1
102
RTVSPost2010Prop28
280
     1
102
RTVSPost2010PropOp28
 70
     1
102
RTVSPost2010Prop29
280
     1
102
RTVSPost2010PropOp29
 70
     1
102
RTVSPost2010Prop30
280
     0
102
RTVSPost2010PropOp30
 70
     1
102
RTVSPost2010Prop31
280
     0
102
RTVSPost2010PropOp31
 70
     1
102
RTVSPost2010Prop32
280
     0
102
RTVSPost2010PropOp32
 70
     1
102
RTVSPost2010Prop33
280
     0
102
RTVSPost2010PropOp33
 70
     1
102
RTVSPost2010Prop34
280
     0
102
RTVSPost2010PropOp34
 70
     1
102
RTVSPost2010Prop35
280
     0
102
RTVSPost2010PropOp35
 70
     1
102
RTVSPost2010Prop36
280
     0
102
RTVSPost2010PropOp36
 70
     1
102
RTVSPost2010Prop37
 90
       50
102
RTVSPost2010PropOp37
 70
     1
102
RTVSPost2010Prop38
140
0.0
102
RTVSPost2010PropOp38
 70
     1
102
RTVSPost2010Prop39
140
1.0
102
RTVSPost2010PropOp39
 70
     1
102
RTVSPost2010Prop40
 90
        0
102
RTVSPost2010PropOp40
 70
     1
102
RTVSPost2010Prop41ColorIndex
 90
       18
102
RTVSPost2010Prop41ColorRGB
 90
        0
102
RTVSPost2010PropOp41
 70
     1
102
RTVSPost2010Prop42
 90
       50
102
RTVSPost2010PropOp42
 70
     1
102
RTVSPost2010Prop43
 90
        3
102
RTVSPost2010PropOp43
 70
     1
102
RTVSPost2010Prop44ColorIndex
 90
        5
102
RTVSPost2010Prop44ColorRGB
 90
      255
102
RTVSPost2010PropOp44
 70
     1
102
RTVSPost2010Prop45
280
     0
102
RTVSPost2010PropOp45
 70
     1
102
RTVSPost2010Prop46
 90
       50
102
RTVSPost2010PropOp46
 70
     1
102
RTVSPost2010Prop47
 90
       50
102
RTVSPost2010PropOp47
 70
     1
102
RTVSPost2010Prop48
 90
       50
102
RTVSPost2010PropOp48
 70
     1
102
RTVSPost2010Prop49
280
     0
102
RTVSPost2010PropOp49
 70
     1
102
RTVSPost2010Prop50
 90
       50
102
RTVSPost2010PropOp50
 70
     1
102
RTVSPost2010Prop51ColorIndex
 90
      256
102
RTVSPost2010Prop51ColorRGB
 90
-16777216
102
RTVSPost2010PropOp51
 70
     0
102
RTVSPost2010Prop52
140
1.0
102
RTVSPost2010PropOp52
 70
     0
102
RTVSPost2010Prop53
 90
        2
102
RTVSPost2010PropOp53
 70
     1
102
RTVSPost2010Prop54
  1
strokes_ogs.tif
102
RTVSPost2010PropOp54
 70
     1
102
RTVSPost2010Prop55
280
     0
102
RTVSPost2010PropOp55
 70
     1
102
RTVSPost2010Prop56
140
1.0
102
RTVSPost2010PropOp56
 70
     1
102
RTVSPost2010Prop57
140
1.0
102
RTVSPost2010PropOp57
 70
     1
102
RTVSPropertyOp0
 70
     1
102
RTVSPropertyOp1
 70
     1
102
RTVSPropertyOp2
 70
     1
102
RTVSPropertyOp3
 70
     1
102
RTVSPropertyOp4
 70
     1
102
RTVSPropertyOp5
 70
     1
102
RTVSPropertyOp6
 70
     1
102
RTVSPropertyOp7
 70
     1
102
RTVSPropertyOp8
 70
     1
102
RTVSPropertyOp9
 70
     1
102
RTVSPropertyOp10
 70
     1
102
RTVSPropertyOp11
 70
     1
102
RTVSPropertyOp12
 70
     1
102
RTVSPropertyOp13
 70
     1
102
RTVSPropertyOp14
 70
     1
102
RTVSPropertyOp15
 70
     1
102
RTVSPropertyOp16
 70
     1
102
RTVSPropertyOp17
 70
     1
102
RTVSPropertyOp18
 70
     1
102
RTVSPropertyOp19
 70
     1
102
RTVSPropertyOp20
 70
     1
102
RTVSPropertyOp21
 70
     1
102
RTVSPropertyOp22
 70
     1
102
RTVSPropertyOp23
 70
     1
102
RTVSPropertyOp24
 70
     1
102
RTVSPropertyOp25
 70
     1
102
RTVSPropertyOp26
 70
     1
102
RTVSPropertyOp27
 70
     1
102
RTVSPropertyOp28
 70
     1
102
RTVSPropertyOp29
 70
     1
102
RTVSPropertyOp30
 70
     1
102
RTVSPropertyOp31
 70
     1
102
RTVSPropertyOp32
 70
     1
102
RTVSPropertyOp33
 70
     1
102
RTVSPropertyOp34
 70
     1
102
RTVSPropertyOp35
 70
     1
102
RTVSPropertyOp36
 70
     1
102
RTVSPropertyOp37
 70
     1
102
RTVSPropertyOp38
 70
     1
102
RTVSPropertyOp39
 70
     1
102
RTVSPropertyOp40
 70
     1
102
RTVSPropertyOp41
 70
     1
102
RTVSPropertyOp42
 70
     1
102
RTVSPropertyOp43
 70
     1
102
RTVSPropertyOp44
 70
     1
102
RTVSPropertyOp45
 70
     1
102
RTVSPropertyOp46
 70
     1
102
RTVSPropertyOp47
 70
     1
102
RTVSPropertyOp48
 70
     1
102
RTVSPropertyOp49
 70
     1
102
RTVSPropertyOp50
 70
     1
102
RTVSPropertyOp51
 70
     0
102
RTVSPropertyOp52
 70
     0
102
RTVSPropertyOp53
 70
     1
102
RTVSPropertyOp54
 70
     1
102
RTVSPropertyOp55
 70
     1
102
RTVSPropertyOp56
 70
     1
102
RTVSPropertyOp57
 70
     1
102
RTVSPropertyOp58
 70
     1
102
RTVSPropertyOp59
 70
     1
102
RTVSPropertyOp60
 70
     1
102
RTVSPropertyOp61
 70
     1
102
RTVSPropertyOp62
 70
     1
  0
XRECORD
  5
3063
102
{ACAD_REACTORS
330
3062
102
}
330
3062
100
AcDbXrecord
280
     1
102
RTVSPost2010Prop28
280
     0
102
RTVSPost2010PropOp28
 70
     1
102
RTVSPost2010Prop29
280
     1
102
RTVSPost2010PropOp29
 70
     1
102
RTVSPost2010Prop30
280
     1
102
RTVSPost2010PropOp30
 70
     1
102
RTVSPost2010Prop31
280
     0
102
RTVSPost2010PropOp31
 70
     1
102
RTVSPost2010Prop32
280
     0
102
RTVSPost2010PropOp32
 70
     1
102
RTVSPost2010Prop33
280
     0
102
RTVSPost2010PropOp33
 70
     1
102
RTVSPost2010Prop34
280
     0
102
RTVSPost2010PropOp34
 70
     1
102
RTVSPost2010Prop35
280
     0
102
RTVSPost2010PropOp35
 70
     1
102
RTVSPost2010Prop36
280
     0
102
RTVSPost2010PropOp36
 70
     1
102
RTVSPost2010Prop37
 90
       50
102
RTVSPost2010PropOp37
 70
     1
102
RTVSPost2010Prop38
140
0.0
102
RTVSPost2010PropOp38
 70
     1
102
RTVSPost2010Prop39
140
1.0
102
RTVSPost2010PropOp39
 70
     1
102
RTVSPost2010Prop40
 90
        0
102
RTVSPost2010PropOp40
 70
     1
102
RTVSPost2010Prop41ColorIndex
 90
       18
102
RTVSPost2010Prop41ColorRGB
 90
        0
102
RTVSPost2010PropOp41
 70
     1
102
RTVSPost2010Prop42
 90
       50
102
RTVSPost2010PropOp42
 70
     1
102
RTVSPost2010Prop43
 90
        3
102
RTVSPost2010PropOp43
 70
     1
102
RTVSPost2010Prop44ColorIndex
 90
        5
102
RTVSPost2010Prop44ColorRGB
 90
      255
102
RTVSPost2010PropOp44
 70
     1
102
RTVSPost2010Prop45
280
     0
102
RTVSPost2010PropOp45
 70
     1
102
RTVSPost2010Prop46
 90
       50
102
RTVSPost2010PropOp46
 70
     1
102
RTVSPost2010Prop47
 90
       50
102
RTVSPost2010PropOp47
 70
     1
102
RTVSPost2010Prop48
 90
       50
102
RTVSPost2010PropOp48
 70
     1
102
RTVSPost2010Prop49
280
     0
102
RTVSPost2010PropOp49
 70
     1
102
RTVSPost2010Prop50
 90
       50
102
RTVSPost2010PropOp50
 70
     1
102
RTVSPost2010Prop51ColorIndex
 90
      256
102
RTVSPost2010Prop51ColorRGB
 90
-16777216
102
RTVSPost2010PropOp51
 70
     0
102
RTVSPost2010Prop52
140
1.0
102
RTVSPost2010PropOp52
 70
     0
102
RTVSPost2010Prop53
 90
        2
102
RTVSPost2010PropOp53
 70
     1
102
RTVSPost2010Prop54
  1
strokes_ogs.tif
102
RTVSPost2010PropOp54
 70
     1
102
RTVSPost2010Prop55
280
     0
102
RTVSPost2010PropOp55
 70
     1
102
RTVSPost2010Prop56
140
1.0
102
RTVSPost2010PropOp56
 70
     1
102
RTVSPost2010Prop57
140
1.0
102
RTVSPost2010PropOp57
 70
     1
102
RTVSPropertyOp0
 70
     1
102
RTVSPropertyOp1
 70
     1
102
RTVSPropertyOp2
 70
     1
102
RTVSPropertyOp3
 70
     1
102
RTVSPropertyOp4
 70
     1
102
RTVSPropertyOp5
 70
     1
102
RTVSPropertyOp6
 70
     1
102
RTVSPropertyOp7
 70
     1
102
RTVSPropertyOp8
 70
     1
102
RTVSPropertyOp9
 70
     1
102
RTVSPropertyOp10
 70
     1
102
RTVSPropertyOp11
 70
     1
102
RTVSPropertyOp12
 70
     1
102
RTVSPropertyOp13
 70
     1
102
RTVSPropertyOp14
 70
     1
102
RTVSPropertyOp15
 70
     1
102
RTVSPropertyOp16
 70
     1
102
RTVSPropertyOp17
 70
     1
102
RTVSPropertyOp18
 70
     1
102
RTVSPropertyOp19
 70
     1
102
RTVSPropertyOp20
 70
     1
102
RTVSPropertyOp21
 70
     1
102
RTVSPropertyOp22
 70
     1
102
RTVSPropertyOp23
 70
     1
102
RTVSPropertyOp24
 70
     1
102
RTVSPropertyOp25
 70
     1
102
RTVSPropertyOp26
 70
     1
102
RTVSPropertyOp27
 70
     1
102
RTVSPropertyOp28
 70
     1
102
RTVSPropertyOp29
 70
     1
102
RTVSPropertyOp30
 70
     1
102
RTVSPropertyOp31
 70
     1
102
RTVSPropertyOp32
 70
     1
102
RTVSPropertyOp33
 70
     1
102
RTVSPropertyOp34
 70
     1
102
RTVSPropertyOp35
 70
     1
102
RTVSPropertyOp36
 70
     1
102
RTVSPropertyOp37
 70
     1
102
RTVSPropertyOp38
 70
     1
102
RTVSPropertyOp39
 70
     1
102
RTVSPropertyOp40
 70
     1
102
RTVSPropertyOp41
 70
     1
102
RTVSPropertyOp42
 70
     1
102
RTVSPropertyOp43
 70
     1
102
RTVSPropertyOp44
 70
     1
102
RTVSPropertyOp45
 70
     1
102
RTVSPropertyOp46
 70
     1
102
RTVSPropertyOp47
 70
     1
102
RTVSPropertyOp48
 70
     1
102
RTVSPropertyOp49
 70
     1
102
RTVSPropertyOp50
 70
     1
102
RTVSPropertyOp51
 70
     0
102
RTVSPropertyOp52
 70
     0
102
RTVSPropertyOp53
 70
     1
102
RTVSPropertyOp54
 70
     1
102
RTVSPropertyOp55
 70
     1
102
RTVSPropertyOp56
 70
     1
102
RTVSPropertyOp57
 70
     1
102
RTVSPropertyOp58
 70
     1
102
RTVSPropertyOp59
 70
     1
102
RTVSPropertyOp60
 70
     1
102
RTVSPropertyOp61
 70
     1
102
RTVSPropertyOp62
 70
     1
  0
XRECORD
  5
3071
102
{ACAD_REACTORS
330
3070
102
}
330
3070
100
AcDbXrecord
280
     1
102
RTVSPost2010Prop28
280
     0
102
RTVSPost2010PropOp28
 70
     1
102
RTVSPost2010Prop29
280
     1
102
RTVSPost2010PropOp29
 70
     1
102
RTVSPost2010Prop30
280
     1
102
RTVSPost2010PropOp30
 70
     1
102
RTVSPost2010Prop31
280
     0
102
RTVSPost2010PropOp31
 70
     1
102
RTVSPost2010Prop32
280
     0
102
RTVSPost2010PropOp32
 70
     1
102
RTVSPost2010Prop33
280
     0
102
RTVSPost2010PropOp33
 70
     1
102
RTVSPost2010Prop34
280
     0
102
RTVSPost2010PropOp34
 70
     1
102
RTVSPost2010Prop35
280
     0
102
RTVSPost2010PropOp35
 70
     1
102
RTVSPost2010Prop36
280
     0
102
RTVSPost2010PropOp36
 70
     1
102
RTVSPost2010Prop37
 90
       50
102
RTVSPost2010PropOp37
 70
     1
102
RTVSPost2010Prop38
140
0.0
102
RTVSPost2010PropOp38
 70
     1
102
RTVSPost2010Prop39
140
1.0
102
RTVSPost2010PropOp39
 70
     1
102
RTVSPost2010Prop40
 90
        0
102
RTVSPost2010PropOp40
 70
     1
102
RTVSPost2010Prop41ColorIndex
 90
       18
102
RTVSPost2010Prop41ColorRGB
 90
        0
102
RTVSPost2010PropOp41
 70
     1
102
RTVSPost2010Prop42
 90
       50
102
RTVSPost2010PropOp42
 70
     1
102
RTVSPost2010Prop43
 90
        3
102
RTVSPost2010PropOp43
 70
     1
102
RTVSPost2010Prop44ColorIndex
 90
        5
102
RTVSPost2010Prop44ColorRGB
 90
      255
102
RTVSPost2010PropOp44
 70
     1
102
RTVSPost2010Prop45
280
     0
102
RTVSPost2010PropOp45
 70
     1
102
RTVSPost2010Prop46
 90
       50
102
RTVSPost2010PropOp46
 70
     1
102
RTVSPost2010Prop47
 90
       50
102
RTVSPost2010PropOp47
 70
     1
102
RTVSPost2010Prop48
 90
       50
102
RTVSPost2010PropOp48
 70
     1
102
RTVSPost2010Prop49
280
     0
102
RTVSPost2010PropOp49
 70
     1
102
RTVSPost2010Prop50
 90
       50
102
RTVSPost2010PropOp50
 70
     1
102
RTVSPost2010Prop51ColorIndex
 90
      256
102
RTVSPost2010Prop51ColorRGB
 90
-16777216
102
RTVSPost2010PropOp51
 70
     0
102
RTVSPost2010Prop52
140
1.0
102
RTVSPost2010PropOp52
 70
     0
102
RTVSPost2010Prop53
 90
        2
102
RTVSPost2010PropOp53
 70
     1
102
RTVSPost2010Prop54
  1
strokes_ogs.tif
102
RTVSPost2010PropOp54
 70
     1
102
RTVSPost2010Prop55
280
     0
102
RTVSPost2010PropOp55
 70
     1
102
RTVSPost2010Prop56
140
1.0
102
RTVSPost2010PropOp56
 70
     1
102
RTVSPost2010Prop57
140
1.0
102
RTVSPost2010PropOp57
 70
     1
102
RTVSPropertyOp0
 70
     1
102
RTVSPropertyOp1
 70
     1
102
RTVSPropertyOp2
 70
     1
102
RTVSPropertyOp3
 70
     1
102
RTVSPropertyOp4
 70
     1
102
RTVSPropertyOp5
 70
     1
102
RTVSPropertyOp6
 70
     1
102
RTVSPropertyOp7
 70
     1
102
RTVSPropertyOp8
 70
     1
102
RTVSPropertyOp9
 70
     1
102
RTVSPropertyOp10
 70
     1
102
RTVSPropertyOp11
 70
     1
102
RTVSPropertyOp12
 70
     1
102
RTVSPropertyOp13
 70
     1
102
RTVSPropertyOp14
 70
     1
102
RTVSPropertyOp15
 70
     1
102
RTVSPropertyOp16
 70
     1
102
RTVSPropertyOp17
 70
     1
102
RTVSPropertyOp18
 70
     1
102
RTVSPropertyOp19
 70
     1
102
RTVSPropertyOp20
 70
     1
102
RTVSPropertyOp21
 70
     1
102
RTVSPropertyOp22
 70
     1
102
RTVSPropertyOp23
 70
     1
102
RTVSPropertyOp24
 70
     1
102
RTVSPropertyOp25
 70
     1
102
RTVSPropertyOp26
 70
     1
102
RTVSPropertyOp27
 70
     1
102
RTVSPropertyOp28
 70
     1
102
RTVSPropertyOp29
 70
     1
102
RTVSPropertyOp30
 70
     1
102
RTVSPropertyOp31
 70
     1
102
RTVSPropertyOp32
 70
     1
102
RTVSPropertyOp33
 70
     1
102
RTVSPropertyOp34
 70
     1
102
RTVSPropertyOp35
 70
     1
102
RTVSPropertyOp36
 70
     1
102
RTVSPropertyOp37
 70
     1
102
RTVSPropertyOp38
 70
     1
102
RTVSPropertyOp39
 70
     1
102
RTVSPropertyOp40
 70
     1
102
RTVSPropertyOp41
 70
     1
102
RTVSPropertyOp42
 70
     1
102
RTVSPropertyOp43
 70
     1
102
RTVSPropertyOp44
 70
     1
102
RTVSPropertyOp45
 70
     1
102
RTVSPropertyOp46
 70
     1
102
RTVSPropertyOp47
 70
     1
102
RTVSPropertyOp48
 70
     1
102
RTVSPropertyOp49
 70
     1
102
RTVSPropertyOp50
 70
     1
102
RTVSPropertyOp51
 70
     0
102
RTVSPropertyOp52
 70
     0
102
RTVSPropertyOp53
 70
     1
102
RTVSPropertyOp54
 70
     1
102
RTVSPropertyOp55
 70
     1
102
RTVSPropertyOp56
 70
     1
102
RTVSPropertyOp57
 70
     1
102
RTVSPropertyOp58
 70
     1
102
RTVSPropertyOp59
 70
     1
102
RTVSPropertyOp60
 70
     1
102
RTVSPropertyOp61
 70
     1
102
RTVSPropertyOp62
 70
     1
  0
XRECORD
  5
3079
102
{ACAD_REACTORS
330
3078
102
}
330
3078
100
AcDbXrecord
280
     1
102
RTVSPost2010Prop28
280
     0
102
RTVSPost2010PropOp28
 70
     1
102
RTVSPost2010Prop29
280
     1
102
RTVSPost2010PropOp29
 70
     1
102
RTVSPost2010Prop30
280
     1
102
RTVSPost2010PropOp30
 70
     1
102
RTVSPost2010Prop31
280
     0
102
RTVSPost2010PropOp31
 70
     1
102
RTVSPost2010Prop32
280
     0
102
RTVSPost2010PropOp32
 70
     1
102
RTVSPost2010Prop33
280
     0
102
RTVSPost2010PropOp33
 70
     1
102
RTVSPost2010Prop34
280
     0
102
RTVSPost2010PropOp34
 70
     1
102
RTVSPost2010Prop35
280
     0
102
RTVSPost2010PropOp35
 70
     1
102
RTVSPost2010Prop36
280
     0
102
RTVSPost2010PropOp36
 70
     1
102
RTVSPost2010Prop37
 90
       50
102
RTVSPost2010PropOp37
 70
     1
102
RTVSPost2010Prop38
140
0.0
102
RTVSPost2010PropOp38
 70
     1
102
RTVSPost2010Prop39
140
1.0
102
RTVSPost2010PropOp39
 70
     1
102
RTVSPost2010Prop40
 90
        0
102
RTVSPost2010PropOp40
 70
     1
102
RTVSPost2010Prop41ColorIndex
 90
       18
102
RTVSPost2010Prop41ColorRGB
 90
        0
102
RTVSPost2010PropOp41
 70
     1
102
RTVSPost2010Prop42
 90
       50
102
RTVSPost2010PropOp42
 70
     1
102
RTVSPost2010Prop43
 90
        3
102
RTVSPost2010PropOp43
 70
     1
102
RTVSPost2010Prop44ColorIndex
 90
        5
102
RTVSPost2010Prop44ColorRGB
 90
      255
102
RTVSPost2010PropOp44
 70
     1
102
RTVSPost2010Prop45
280
     0
102
RTVSPost2010PropOp45
 70
     1
102
RTVSPost2010Prop46
 90
       50
102
RTVSPost2010PropOp46
 70
     1
102
RTVSPost2010Prop47
 90
       50
102
RTVSPost2010PropOp47
 70
     1
102
RTVSPost2010Prop48
 90
       50
102
RTVSPost2010PropOp48
 70
     1
102
RTVSPost2010Prop49
280
     0
102
RTVSPost2010PropOp49
 70
     1
102
RTVSPost2010Prop50
 90
       50
102
RTVSPost2010PropOp50
 70
     1
102
RTVSPost2010Prop51ColorIndex
 90
      256
102
RTVSPost2010Prop51ColorRGB
 90
-16777216
102
RTVSPost2010PropOp51
 70
     0
102
RTVSPost2010Prop52
140
1.0
102
RTVSPost2010PropOp52
 70
     0
102
RTVSPost2010Prop53
 90
        2
102
RTVSPost2010PropOp53
 70
     1
102
RTVSPost2010Prop54
  1
strokes_ogs.tif
102
RTVSPost2010PropOp54
 70
     1
102
RTVSPost2010Prop55
280
     0
102
RTVSPost2010PropOp55
 70
     1
102
RTVSPost2010Prop56
140
1.0
102
RTVSPost2010PropOp56
 70
     1
102
RTVSPost2010Prop57
140
1.0
102
RTVSPost2010PropOp57
 70
     1
102
RTVSPropertyOp0
 70
     1
102
RTVSPropertyOp1
 70
     1
102
RTVSPropertyOp2
 70
     1
102
RTVSPropertyOp3
 70
     1
102
RTVSPropertyOp4
 70
     1
102
RTVSPropertyOp5
 70
     1
102
RTVSPropertyOp6
 70
     1
102
RTVSPropertyOp7
 70
     1
102
RTVSPropertyOp8
 70
     1
102
RTVSPropertyOp9
 70
     1
102
RTVSPropertyOp10
 70
     1
102
RTVSPropertyOp11
 70
     1
102
RTVSPropertyOp12
 70
     1
102
RTVSPropertyOp13
 70
     1
102
RTVSPropertyOp14
 70
     1
102
RTVSPropertyOp15
 70
     1
102
RTVSPropertyOp16
 70
     1
102
RTVSPropertyOp17
 70
     1
102
RTVSPropertyOp18
 70
     1
102
RTVSPropertyOp19
 70
     1
102
RTVSPropertyOp20
 70
     1
102
RTVSPropertyOp21
 70
     1
102
RTVSPropertyOp22
 70
     1
102
RTVSPropertyOp23
 70
     1
102
RTVSPropertyOp24
 70
     1
102
RTVSPropertyOp25
 70
     1
102
RTVSPropertyOp26
 70
     1
102
RTVSPropertyOp27
 70
     1
102
RTVSPropertyOp28
 70
     1
102
RTVSPropertyOp29
 70
     1
102
RTVSPropertyOp30
 70
     1
102
RTVSPropertyOp31
 70
     1
102
RTVSPropertyOp32
 70
     1
102
RTVSPropertyOp33
 70
     1
102
RTVSPropertyOp34
 70
     1
102
RTVSPropertyOp35
 70
     1
102
RTVSPropertyOp36
 70
     1
102
RTVSPropertyOp37
 70
     1
102
RTVSPropertyOp38
 70
     1
102
RTVSPropertyOp39
 70
     1
102
RTVSPropertyOp40
 70
     1
102
RTVSPropertyOp41
 70
     1
102
RTVSPropertyOp42
 70
     1
102
RTVSPropertyOp43
 70
     1
102
RTVSPropertyOp44
 70
     1
102
RTVSPropertyOp45
 70
     1
102
RTVSPropertyOp46
 70
     1
102
RTVSPropertyOp47
 70
     1
102
RTVSPropertyOp48
 70
     1
102
RTVSPropertyOp49
 70
     1
102
RTVSPropertyOp50
 70
     1
102
RTVSPropertyOp51
 70
     0
102
RTVSPropertyOp52
 70
     0
102
RTVSPropertyOp53
 70
     1
102
RTVSPropertyOp54
 70
     1
102
RTVSPropertyOp55
 70
     1
102
RTVSPropertyOp56
 70
     1
102
RTVSPropertyOp57
 70
     1
102
RTVSPropertyOp58
 70
     1
102
RTVSPropertyOp59
 70
     1
102
RTVSPropertyOp60
 70
     1
102
RTVSPropertyOp61
 70
     1
102
RTVSPropertyOp62
 70
     1
  0
XRECORD
  5
306B
102
{ACAD_REACTORS
330
306A
102
}
330
306A
100
AcDbXrecord
280
     1
102
RTVSPost2010Prop28
280
     0
102
RTVSPost2010PropOp28
 70
     1
102
RTVSPost2010Prop29
280
     1
102
RTVSPost2010PropOp29
 70
     1
102
RTVSPost2010Prop30
280
     1
102
RTVSPost2010PropOp30
 70
     1
102
RTVSPost2010Prop31
280
     0
102
RTVSPost2010PropOp31
 70
     1
102
RTVSPost2010Prop32
280
     0
102
RTVSPost2010PropOp32
 70
     1
102
RTVSPost2010Prop33
280
     0
102
RTVSPost2010PropOp33
 70
     1
102
RTVSPost2010Prop34
280
     0
102
RTVSPost2010PropOp34
 70
     1
102
RTVSPost2010Prop35
280
     0
102
RTVSPost2010PropOp35
 70
     1
102
RTVSPost2010Prop36
280
     0
102
RTVSPost2010PropOp36
 70
     1
102
RTVSPost2010Prop37
 90
       50
102
RTVSPost2010PropOp37
 70
     1
102
RTVSPost2010Prop38
140
0.0
102
RTVSPost2010PropOp38
 70
     1
102
RTVSPost2010Prop39
140
1.0
102
RTVSPost2010PropOp39
 70
     1
102
RTVSPost2010Prop40
 90
        0
102
RTVSPost2010PropOp40
 70
     1
102
RTVSPost2010Prop41ColorIndex
 90
       18
102
RTVSPost2010Prop41ColorRGB
 90
        0
102
RTVSPost2010PropOp41
 70
     1
102
RTVSPost2010Prop42
 90
       50
102
RTVSPost2010PropOp42
 70
     1
102
RTVSPost2010Prop43
 90
        3
102
RTVSPost2010PropOp43
 70
     1
102
RTVSPost2010Prop44ColorIndex
 90
        5
102
RTVSPost2010Prop44ColorRGB
 90
      255
102
RTVSPost2010PropOp44
 70
     1
102
RTVSPost2010Prop45
280
     0
102
RTVSPost2010PropOp45
 70
     1
102
RTVSPost2010Prop46
 90
       50
102
RTVSPost2010PropOp46
 70
     1
102
RTVSPost2010Prop47
 90
       50
102
RTVSPost2010PropOp47
 70
     1
102
RTVSPost2010Prop48
 90
       50
102
RTVSPost2010PropOp48
 70
     1
102
RTVSPost2010Prop49
280
     0
102
RTVSPost2010PropOp49
 70
     1
102
RTVSPost2010Prop50
 90
       50
102
RTVSPost2010PropOp50
 70
     1
102
RTVSPost2010Prop51ColorIndex
 90
      256
102
RTVSPost2010Prop51ColorRGB
 90
-16777216
102
RTVSPost2010PropOp51
 70
     0
102
RTVSPost2010Prop52
140
1.0
102
RTVSPost2010PropOp52
 70
     0
102
RTVSPost2010Prop53
 90
        2
102
RTVSPost2010PropOp53
 70
     1
102
RTVSPost2010Prop54
  1
strokes_ogs.tif
102
RTVSPost2010PropOp54
 70
     1
102
RTVSPost2010Prop55
280
     0
102
RTVSPost2010PropOp55
 70
     1
102
RTVSPost2010Prop56
140
1.0
102
RTVSPost2010PropOp56
 70
     1
102
RTVSPost2010Prop57
140
1.0
102
RTVSPost2010PropOp57
 70
     1
102
RTVSPropertyOp0
 70
     1
102
RTVSPropertyOp1
 70
     1
102
RTVSPropertyOp2
 70
     1
102
RTVSPropertyOp3
 70
     1
102
RTVSPropertyOp4
 70
     1
102
RTVSPropertyOp5
 70
     1
102
RTVSPropertyOp6
 70
     1
102
RTVSPropertyOp7
 70
     1
102
RTVSPropertyOp8
 70
     1
102
RTVSPropertyOp9
 70
     1
102
RTVSPropertyOp10
 70
     1
102
RTVSPropertyOp11
 70
     1
102
RTVSPropertyOp12
 70
     1
102
RTVSPropertyOp13
 70
     1
102
RTVSPropertyOp14
 70
     1
102
RTVSPropertyOp15
 70
     1
102
RTVSPropertyOp16
 70
     1
102
RTVSPropertyOp17
 70
     1
102
RTVSPropertyOp18
 70
     1
102
RTVSPropertyOp19
 70
     1
102
RTVSPropertyOp20
 70
     1
102
RTVSPropertyOp21
 70
     1
102
RTVSPropertyOp22
 70
     1
102
RTVSPropertyOp23
 70
     1
102
RTVSPropertyOp24
 70
     1
102
RTVSPropertyOp25
 70
     1
102
RTVSPropertyOp26
 70
     1
102
RTVSPropertyOp27
 70
     1
102
RTVSPropertyOp28
 70
     1
102
RTVSPropertyOp29
 70
     1
102
RTVSPropertyOp30
 70
     1
102
RTVSPropertyOp31
 70
     1
102
RTVSPropertyOp32
 70
     1
102
RTVSPropertyOp33
 70
     1
102
RTVSPropertyOp34
 70
     1
102
RTVSPropertyOp35
 70
     1
102
RTVSPropertyOp36
 70
     1
102
RTVSPropertyOp37
 70
     1
102
RTVSPropertyOp38
 70
     1
102
RTVSPropertyOp39
 70
     1
102
RTVSPropertyOp40
 70
     1
102
RTVSPropertyOp41
 70
     1
102
RTVSPropertyOp42
 70
     1
102
RTVSPropertyOp43
 70
     1
102
RTVSPropertyOp44
 70
     1
102
RTVSPropertyOp45
 70
     1
102
RTVSPropertyOp46
 70
     1
102
RTVSPropertyOp47
 70
     1
102
RTVSPropertyOp48
 70
     1
102
RTVSPropertyOp49
 70
     1
102
RTVSPropertyOp50
 70
     1
102
RTVSPropertyOp51
 70
     0
102
RTVSPropertyOp52
 70
     0
102
RTVSPropertyOp53
 70
     1
102
RTVSPropertyOp54
 70
     1
102
RTVSPropertyOp55
 70
     1
102
RTVSPropertyOp56
 70
     1
102
RTVSPropertyOp57
 70
     1
102
RTVSPropertyOp58
 70
     1
102
RTVSPropertyOp59
 70
     1
102
RTVSPropertyOp60
 70
     1
102
RTVSPropertyOp61
 70
     1
102
RTVSPropertyOp62
 70
     1
  0
XRECORD
  5
306F
102
{ACAD_REACTORS
330
306E
102
}
330
306E
100
AcDbXrecord
280
     1
102
RTVSPost2010Prop28
280
     0
102
RTVSPost2010PropOp28
 70
     1
102
RTVSPost2010Prop29
280
     1
102
RTVSPost2010PropOp29
 70
     1
102
RTVSPost2010Prop30
280
     1
102
RTVSPost2010PropOp30
 70
     1
102
RTVSPost2010Prop31
280
     0
102
RTVSPost2010PropOp31
 70
     1
102
RTVSPost2010Prop32
280
     0
102
RTVSPost2010PropOp32
 70
     1
102
RTVSPost2010Prop33
280
     0
102
RTVSPost2010PropOp33
 70
     1
102
RTVSPost2010Prop34
280
     0
102
RTVSPost2010PropOp34
 70
     1
102
RTVSPost2010Prop35
280
     0
102
RTVSPost2010PropOp35
 70
     1
102
RTVSPost2010Prop36
280
     0
102
RTVSPost2010PropOp36
 70
     1
102
RTVSPost2010Prop37
 90
       50
102
RTVSPost2010PropOp37
 70
     1
102
RTVSPost2010Prop38
140
0.0
102
RTVSPost2010PropOp38
 70
     1
102
RTVSPost2010Prop39
140
1.0
102
RTVSPost2010PropOp39
 70
     1
102
RTVSPost2010Prop40
 90
        0
102
RTVSPost2010PropOp40
 70
     1
102
RTVSPost2010Prop41ColorIndex
 90
       18
102
RTVSPost2010Prop41ColorRGB
 90
        0
102
RTVSPost2010PropOp41
 70
     1
102
RTVSPost2010Prop42
 90
       50
102
RTVSPost2010PropOp42
 70
     1
102
RTVSPost2010Prop43
 90
        3
102
RTVSPost2010PropOp43
 70
     1
102
RTVSPost2010Prop44ColorIndex
 90
        5
102
RTVSPost2010Prop44ColorRGB
 90
      255
102
RTVSPost2010PropOp44
 70
     1
102
RTVSPost2010Prop45
280
     0
102
RTVSPost2010PropOp45
 70
     1
102
RTVSPost2010Prop46
 90
       50
102
RTVSPost2010PropOp46
 70
     1
102
RTVSPost2010Prop47
 90
       50
102
RTVSPost2010PropOp47
 70
     1
102
RTVSPost2010Prop48
 90
       50
102
RTVSPost2010PropOp48
 70
     1
102
RTVSPost2010Prop49
280
     0
102
RTVSPost2010PropOp49
 70
     1
102
RTVSPost2010Prop50
 90
       50
102
RTVSPost2010PropOp50
 70
     1
102
RTVSPost2010Prop51ColorIndex
 90
      256
102
RTVSPost2010Prop51ColorRGB
 90
-16777216
102
RTVSPost2010PropOp51
 70
     0
102
RTVSPost2010Prop52
140
1.0
102
RTVSPost2010PropOp52
 70
     0
102
RTVSPost2010Prop53
 90
        2
102
RTVSPost2010PropOp53
 70
     1
102
RTVSPost2010Prop54
  1
strokes_ogs.tif
102
RTVSPost2010PropOp54
 70
     1
102
RTVSPost2010Prop55
280
     0
102
RTVSPost2010PropOp55
 70
     1
102
RTVSPost2010Prop56
140
1.0
102
RTVSPost2010PropOp56
 70
     1
102
RTVSPost2010Prop57
140
1.0
102
RTVSPost2010PropOp57
 70
     1
102
RTVSPropertyOp0
 70
     1
102
RTVSPropertyOp1
 70
     1
102
RTVSPropertyOp2
 70
     1
102
RTVSPropertyOp3
 70
     1
102
RTVSPropertyOp4
 70
     1
102
RTVSPropertyOp5
 70
     1
102
RTVSPropertyOp6
 70
     1
102
RTVSPropertyOp7
 70
     1
102
RTVSPropertyOp8
 70
     1
102
RTVSPropertyOp9
 70
     1
102
RTVSPropertyOp10
 70
     1
102
RTVSPropertyOp11
 70
     1
102
RTVSPropertyOp12
 70
     1
102
RTVSPropertyOp13
 70
     1
102
RTVSPropertyOp14
 70
     1
102
RTVSPropertyOp15
 70
     1
102
RTVSPropertyOp16
 70
     1
102
RTVSPropertyOp17
 70
     1
102
RTVSPropertyOp18
 70
     1
102
RTVSPropertyOp19
 70
     1
102
RTVSPropertyOp20
 70
     1
102
RTVSPropertyOp21
 70
     1
102
RTVSPropertyOp22
 70
     1
102
RTVSPropertyOp23
 70
     1
102
RTVSPropertyOp24
 70
     1
102
RTVSPropertyOp25
 70
     1
102
RTVSPropertyOp26
 70
     1
102
RTVSPropertyOp27
 70
     1
102
RTVSPropertyOp28
 70
     1
102
RTVSPropertyOp29
 70
     1
102
RTVSPropertyOp30
 70
     1
102
RTVSPropertyOp31
 70
     1
102
RTVSPropertyOp32
 70
     1
102
RTVSPropertyOp33
 70
     1
102
RTVSPropertyOp34
 70
     1
102
RTVSPropertyOp35
 70
     1
102
RTVSPropertyOp36
 70
     1
102
RTVSPropertyOp37
 70
     1
102
RTVSPropertyOp38
 70
     1
102
RTVSPropertyOp39
 70
     1
102
RTVSPropertyOp40
 70
     1
102
RTVSPropertyOp41
 70
     1
102
RTVSPropertyOp42
 70
     1
102
RTVSPropertyOp43
 70
     1
102
RTVSPropertyOp44
 70
     1
102
RTVSPropertyOp45
 70
     1
102
RTVSPropertyOp46
 70
     1
102
RTVSPropertyOp47
 70
     1
102
RTVSPropertyOp48
 70
     1
102
RTVSPropertyOp49
 70
     1
102
RTVSPropertyOp50
 70
     1
102
RTVSPropertyOp51
 70
     0
102
RTVSPropertyOp52
 70
     0
102
RTVSPropertyOp53
 70
     1
102
RTVSPropertyOp54
 70
     1
102
RTVSPropertyOp55
 70
     1
102
RTVSPropertyOp56
 70
     1
102
RTVSPropertyOp57
 70
     1
102
RTVSPropertyOp58
 70
     1
102
RTVSPropertyOp59
 70
     1
102
RTVSPropertyOp60
 70
     1
102
RTVSPropertyOp61
 70
     1
102
RTVSPropertyOp62
 70
     1
  0
XRECORD
  5
3089
102
{ACAD_REACTORS
330
3088
102
}
330
3088
100
AcDbXrecord
280
     1
102
RTVSPost2010Prop28
280
     0
102
RTVSPost2010PropOp28
 70
     1
102
RTVSPost2010Prop29
280
     1
102
RTVSPost2010PropOp29
 70
     1
102
RTVSPost2010Prop30
280
     1
102
RTVSPost2010PropOp30
 70
     1
102
RTVSPost2010Prop31
280
     0
102
RTVSPost2010PropOp31
 70
     1
102
RTVSPost2010Prop32
280
     0
102
RTVSPost2010PropOp32
 70
     1
102
RTVSPost2010Prop33
280
     0
102
RTVSPost2010PropOp33
 70
     1
102
RTVSPost2010Prop34
280
     0
102
RTVSPost2010PropOp34
 70
     1
102
RTVSPost2010Prop35
280
     0
102
RTVSPost2010PropOp35
 70
     1
102
RTVSPost2010Prop36
280
     0
102
RTVSPost2010PropOp36
 70
     1
102
RTVSPost2010Prop37
 90
       50
102
RTVSPost2010PropOp37
 70
     0
102
RTVSPost2010Prop38
140
0.0
102
RTVSPost2010PropOp38
 70
     0
102
RTVSPost2010Prop39
140
1.0
102
RTVSPost2010PropOp39
 70
     0
102
RTVSPost2010Prop40
 90
        0
102
RTVSPost2010PropOp40
 70
     0
102
RTVSPost2010Prop41ColorIndex
 90
       18
102
RTVSPost2010Prop41ColorRGB
 90
        0
102
RTVSPost2010PropOp41
 70
     0
102
RTVSPost2010Prop42
 90
       50
102
RTVSPost2010PropOp42
 70
     0
102
RTVSPost2010Prop43
 90
        3
102
RTVSPost2010PropOp43
 70
     0
102
RTVSPost2010Prop44ColorIndex
 90
        5
102
RTVSPost2010Prop44ColorRGB
 90
      255
102
RTVSPost2010PropOp44
 70
     0
102
RTVSPost2010Prop45
280
     0
102
RTVSPost2010PropOp45
 70
     1
102
RTVSPost2010Prop46
 90
       50
102
RTVSPost2010PropOp46
 70
     0
102
RTVSPost2010Prop47
 90
       50
102
RTVSPost2010PropOp47
 70
     0
102
RTVSPost2010Prop48
 90
       50
102
RTVSPost2010PropOp48
 70
     0
102
RTVSPost2010Prop49
280
     0
102
RTVSPost2010PropOp49
 70
     1
102
RTVSPost2010Prop50
 90
       50
102
RTVSPost2010PropOp50
 70
     0
102
RTVSPost2010Prop51ColorIndex
 90
      256
102
RTVSPost2010Prop51ColorRGB
 90
-16777216
102
RTVSPost2010PropOp51
 70
     0
102
RTVSPost2010Prop52
140
1.0
102
RTVSPost2010PropOp52
 70
     0
102
RTVSPost2010Prop53
 90
        2
102
RTVSPost2010PropOp53
 70
     0
102
RTVSPost2010Prop54
  1
strokes_ogs.tif
102
RTVSPost2010PropOp54
 70
     0
102
RTVSPost2010Prop55
280
     0
102
RTVSPost2010PropOp55
 70
     1
102
RTVSPost2010Prop56
140
1.0
102
RTVSPost2010PropOp56
 70
     0
102
RTVSPost2010Prop57
140
1.0
102
RTVSPost2010PropOp57
 70
     0
102
RTVSPropertyOp0
 70
     0
102
RTVSPropertyOp1
 70
     0
102
RTVSPropertyOp2
 70
     0
102
RTVSPropertyOp3
 70
     0
102
RTVSPropertyOp4
 70
     0
102
RTVSPropertyOp5
 70
     0
102
RTVSPropertyOp6
 70
     0
102
RTVSPropertyOp7
 70
     0
102
RTVSPropertyOp8
 70
     0
102
RTVSPropertyOp9
 70
     0
102
RTVSPropertyOp10
 70
     0
102
RTVSPropertyOp11
 70
     0
102
RTVSPropertyOp12
 70
     0
102
RTVSPropertyOp13
 70
     0
102
RTVSPropertyOp14
 70
     2
102
RTVSPropertyOp15
 70
     0
102
RTVSPropertyOp16
 70
     0
102
RTVSPropertyOp17
 70
     0
102
RTVSPropertyOp18
 70
     0
102
RTVSPropertyOp19
 70
     0
102
RTVSPropertyOp20
 70
     0
102
RTVSPropertyOp21
 70
     0
102
RTVSPropertyOp22
 70
     0
102
RTVSPropertyOp23
 70
     0
102
RTVSPropertyOp24
 70
     0
102
RTVSPropertyOp25
 70
     0
102
RTVSPropertyOp26
 70
     0
102
RTVSPropertyOp27
 70
     0
102
RTVSPropertyOp28
 70
     1
102
RTVSPropertyOp29
 70
     1
102
RTVSPropertyOp30
 70
     1
102
RTVSPropertyOp31
 70
     1
102
RTVSPropertyOp32
 70
     1
102
RTVSPropertyOp33
 70
     1
102
RTVSPropertyOp34
 70
     1
102
RTVSPropertyOp35
 70
     1
102
RTVSPropertyOp36
 70
     1
102
RTVSPropertyOp37
 70
     0
102
RTVSPropertyOp38
 70
     0
102
RTVSPropertyOp39
 70
     0
102
RTVSPropertyOp40
 70
     0
102
RTVSPropertyOp41
 70
     0
102
RTVSPropertyOp42
 70
     0
102
RTVSPropertyOp43
 70
     0
102
RTVSPropertyOp44
 70
     0
102
RTVSPropertyOp45
 70
     1
102
RTVSPropertyOp46
 70
     0
102
RTVSPropertyOp47
 70
     0
102
RTVSPropertyOp48
 70
     0
102
RTVSPropertyOp49
 70
     1
102
RTVSPropertyOp50
 70
     0
102
RTVSPropertyOp51
 70
     0
102
RTVSPropertyOp52
 70
     0
102
RTVSPropertyOp53
 70
     0
102
RTVSPropertyOp54
 70
     0
102
RTVSPropertyOp55
 70
     1
102
RTVSPropertyOp56
 70
     0
102
RTVSPropertyOp57
 70
     0
102
RTVSPropertyOp58
 70
     0
102
RTVSPropertyOp59
 70
     0
102
RTVSPropertyOp60
 70
     0
102
RTVSPropertyOp61
 70
     0
102
RTVSPropertyOp62
 70
     0
  0
XRECORD
  5
3077
102
{ACAD_REACTORS
330
3076
102
}
330
3076
100
AcDbXrecord
280
     1
102
RTVSPost2010Prop28
280
     0
102
RTVSPost2010PropOp28
 70
     1
102
RTVSPost2010Prop29
280
     1
102
RTVSPost2010PropOp29
 70
     1
102
RTVSPost2010Prop30
280
     1
102
RTVSPost2010PropOp30
 70
     1
102
RTVSPost2010Prop31
280
     0
102
RTVSPost2010PropOp31
 70
     1
102
RTVSPost2010Prop32
280
     0
102
RTVSPost2010PropOp32
 70
     1
102
RTVSPost2010Prop33
280
     0
102
RTVSPost2010PropOp33
 70
     1
102
RTVSPost2010Prop34
280
     0
102
RTVSPost2010PropOp34
 70
     1
102
RTVSPost2010Prop35
280
     0
102
RTVSPost2010PropOp35
 70
     1
102
RTVSPost2010Prop36
280
     0
102
RTVSPost2010PropOp36
 70
     1
102
RTVSPost2010Prop37
 90
       50
102
RTVSPost2010PropOp37
 70
     1
102
RTVSPost2010Prop38
140
0.0
102
RTVSPost2010PropOp38
 70
     1
102
RTVSPost2010Prop39
140
1.0
102
RTVSPost2010PropOp39
 70
     1
102
RTVSPost2010Prop40
 90
        0
102
RTVSPost2010PropOp40
 70
     1
102
RTVSPost2010Prop41ColorIndex
 90
       18
102
RTVSPost2010Prop41ColorRGB
 90
        0
102
RTVSPost2010PropOp41
 70
     1
102
RTVSPost2010Prop42
 90
       50
102
RTVSPost2010PropOp42
 70
     1
102
RTVSPost2010Prop43
 90
        3
102
RTVSPost2010PropOp43
 70
     1
102
RTVSPost2010Prop44ColorIndex
 90
        5
102
RTVSPost2010Prop44ColorRGB
 90
      255
102
RTVSPost2010PropOp44
 70
     1
102
RTVSPost2010Prop45
280
     0
102
RTVSPost2010PropOp45
 70
     1
102
RTVSPost2010Prop46
 90
       50
102
RTVSPost2010PropOp46
 70
     1
102
RTVSPost2010Prop47
 90
       50
102
RTVSPost2010PropOp47
 70
     1
102
RTVSPost2010Prop48
 90
       50
102
RTVSPost2010PropOp48
 70
     1
102
RTVSPost2010Prop49
280
     0
102
RTVSPost2010PropOp49
 70
     1
102
RTVSPost2010Prop50
 90
       50
102
RTVSPost2010PropOp50
 70
     1
102
RTVSPost2010Prop51ColorIndex
 90
      256
102
RTVSPost2010Prop51ColorRGB
 90
-16777216
102
RTVSPost2010PropOp51
 70
     0
102
RTVSPost2010Prop52
140
1.0
102
RTVSPost2010PropOp52
 70
     0
102
RTVSPost2010Prop53
 90
        2
102
RTVSPost2010PropOp53
 70
     1
102
RTVSPost2010Prop54
  1
strokes_ogs.tif
102
RTVSPost2010PropOp54
 70
     1
102
RTVSPost2010Prop55
280
     0
102
RTVSPost2010PropOp55
 70
     1
102
RTVSPost2010Prop56
140
1.0
102
RTVSPost2010PropOp56
 70
     1
102
RTVSPost2010Prop57
140
1.0
102
RTVSPost2010PropOp57
 70
     1
102
RTVSPropertyOp0
 70
     1
102
RTVSPropertyOp1
 70
     1
102
RTVSPropertyOp2
 70
     1
102
RTVSPropertyOp3
 70
     1
102
RTVSPropertyOp4
 70
     1
102
RTVSPropertyOp5
 70
     1
102
RTVSPropertyOp6
 70
     1
102
RTVSPropertyOp7
 70
     1
102
RTVSPropertyOp8
 70
     1
102
RTVSPropertyOp9
 70
     1
102
RTVSPropertyOp10
 70
     1
102
RTVSPropertyOp11
 70
     1
102
RTVSPropertyOp12
 70
     1
102
RTVSPropertyOp13
 70
     1
102
RTVSPropertyOp14
 70
     1
102
RTVSPropertyOp15
 70
     1
102
RTVSPropertyOp16
 70
     1
102
RTVSPropertyOp17
 70
     1
102
RTVSPropertyOp18
 70
     1
102
RTVSPropertyOp19
 70
     1
102
RTVSPropertyOp20
 70
     1
102
RTVSPropertyOp21
 70
     1
102
RTVSPropertyOp22
 70
     1
102
RTVSPropertyOp23
 70
     1
102
RTVSPropertyOp24
 70
     1
102
RTVSPropertyOp25
 70
     1
102
RTVSPropertyOp26
 70
     1
102
RTVSPropertyOp27
 70
     1
102
RTVSPropertyOp28
 70
     1
102
RTVSPropertyOp29
 70
     1
102
RTVSPropertyOp30
 70
     1
102
RTVSPropertyOp31
 70
     1
102
RTVSPropertyOp32
 70
     1
102
RTVSPropertyOp33
 70
     1
102
RTVSPropertyOp34
 70
     1
102
RTVSPropertyOp35
 70
     1
102
RTVSPropertyOp36
 70
     1
102
RTVSPropertyOp37
 70
     1
102
RTVSPropertyOp38
 70
     1
102
RTVSPropertyOp39
 70
     1
102
RTVSPropertyOp40
 70
     1
102
RTVSPropertyOp41
 70
     1
102
RTVSPropertyOp42
 70
     1
102
RTVSPropertyOp43
 70
     1
102
RTVSPropertyOp44
 70
     1
102
RTVSPropertyOp45
 70
     1
102
RTVSPropertyOp46
 70
     1
102
RTVSPropertyOp47
 70
     1
102
RTVSPropertyOp48
 70
     1
102
RTVSPropertyOp49
 70
     1
102
RTVSPropertyOp50
 70
     1
102
RTVSPropertyOp51
 70
     0
102
RTVSPropertyOp52
 70
     0
102
RTVSPropertyOp53
 70
     1
102
RTVSPropertyOp54
 70
     1
102
RTVSPropertyOp55
 70
     1
102
RTVSPropertyOp56
 70
     1
102
RTVSPropertyOp57
 70
     1
102
RTVSPropertyOp58
 70
     1
102
RTVSPropertyOp59
 70
     1
102
RTVSPropertyOp60
 70
     1
102
RTVSPropertyOp61
 70
     1
102
RTVSPropertyOp62
 70
     1
  0
XRECORD
  5
305B
102
{ACAD_REACTORS
330
305A
102
}
330
305A
100
AcDbXrecord
280
     1
102
RTVSPost2010Prop28
280
     0
102
RTVSPost2010PropOp28
 70
     1
102
RTVSPost2010Prop29
280
     1
102
RTVSPost2010PropOp29
 70
     1
102
RTVSPost2010Prop30
280
     1
102
RTVSPost2010PropOp30
 70
     1
102
RTVSPost2010Prop31
280
     0
102
RTVSPost2010PropOp31
 70
     1
102
RTVSPost2010Prop32
280
     0
102
RTVSPost2010PropOp32
 70
     1
102
RTVSPost2010Prop33
280
     0
102
RTVSPost2010PropOp33
 70
     1
102
RTVSPost2010Prop34
280
     0
102
RTVSPost2010PropOp34
 70
     1
102
RTVSPost2010Prop35
280
     0
102
RTVSPost2010PropOp35
 70
     1
102
RTVSPost2010Prop36
280
     0
102
RTVSPost2010PropOp36
 70
     1
102
RTVSPost2010Prop37
 90
       50
102
RTVSPost2010PropOp37
 70
     1
102
RTVSPost2010Prop38
140
0.0
102
RTVSPost2010PropOp38
 70
     1
102
RTVSPost2010Prop39
140
1.0
102
RTVSPost2010PropOp39
 70
     1
102
RTVSPost2010Prop40
 90
        0
102
RTVSPost2010PropOp40
 70
     1
102
RTVSPost2010Prop41ColorIndex
 90
       18
102
RTVSPost2010Prop41ColorRGB
 90
        0
102
RTVSPost2010PropOp41
 70
     1
102
RTVSPost2010Prop42
 90
       50
102
RTVSPost2010PropOp42
 70
     1
102
RTVSPost2010Prop43
 90
        3
102
RTVSPost2010PropOp43
 70
     1
102
RTVSPost2010Prop44ColorIndex
 90
        5
102
RTVSPost2010Prop44ColorRGB
 90
      255
102
RTVSPost2010PropOp44
 70
     1
102
RTVSPost2010Prop45
280
     0
102
RTVSPost2010PropOp45
 70
     1
102
RTVSPost2010Prop46
 90
       50
102
RTVSPost2010PropOp46
 70
     1
102
RTVSPost2010Prop47
 90
       50
102
RTVSPost2010PropOp47
 70
     1
102
RTVSPost2010Prop48
 90
       50
102
RTVSPost2010PropOp48
 70
     1
102
RTVSPost2010Prop49
280
     0
102
RTVSPost2010PropOp49
 70
     1
102
RTVSPost2010Prop50
 90
       50
102
RTVSPost2010PropOp50
 70
     1
102
RTVSPost2010Prop51ColorIndex
 90
      256
102
RTVSPost2010Prop51ColorRGB
 90
-16777216
102
RTVSPost2010PropOp51
 70
     0
102
RTVSPost2010Prop52
140
1.0
102
RTVSPost2010PropOp52
 70
     0
102
RTVSPost2010Prop53
 90
        2
102
RTVSPost2010PropOp53
 70
     1
102
RTVSPost2010Prop54
  1
strokes_ogs.tif
102
RTVSPost2010PropOp54
 70
     1
102
RTVSPost2010Prop55
280
     0
102
RTVSPost2010PropOp55
 70
     1
102
RTVSPost2010Prop56
140
1.0
102
RTVSPost2010PropOp56
 70
     1
102
RTVSPost2010Prop57
140
1.0
102
RTVSPost2010PropOp57
 70
     1
102
RTVSPropertyOp0
 70
     1
102
RTVSPropertyOp1
 70
     1
102
RTVSPropertyOp2
 70
     1
102
RTVSPropertyOp3
 70
     1
102
RTVSPropertyOp4
 70
     1
102
RTVSPropertyOp5
 70
     1
102
RTVSPropertyOp6
 70
     1
102
RTVSPropertyOp7
 70
     1
102
RTVSPropertyOp8
 70
     1
102
RTVSPropertyOp9
 70
     1
102
RTVSPropertyOp10
 70
     1
102
RTVSPropertyOp11
 70
     1
102
RTVSPropertyOp12
 70
     1
102
RTVSPropertyOp13
 70
     1
102
RTVSPropertyOp14
 70
     1
102
RTVSPropertyOp15
 70
     1
102
RTVSPropertyOp16
 70
     1
102
RTVSPropertyOp17
 70
     1
102
RTVSPropertyOp18
 70
     1
102
RTVSPropertyOp19
 70
     1
102
RTVSPropertyOp20
 70
     1
102
RTVSPropertyOp21
 70
     1
102
RTVSPropertyOp22
 70
     1
102
RTVSPropertyOp23
 70
     1
102
RTVSPropertyOp24
 70
     1
102
RTVSPropertyOp25
 70
     1
102
RTVSPropertyOp26
 70
     1
102
RTVSPropertyOp27
 70
     1
102
RTVSPropertyOp28
 70
     1
102
RTVSPropertyOp29
 70
     1
102
RTVSPropertyOp30
 70
     1
102
RTVSPropertyOp31
 70
     1
102
RTVSPropertyOp32
 70
     1
102
RTVSPropertyOp33
 70
     1
102
RTVSPropertyOp34
 70
     1
102
RTVSPropertyOp35
 70
     1
102
RTVSPropertyOp36
 70
     1
102
RTVSPropertyOp37
 70
     1
102
RTVSPropertyOp38
 70
     1
102
RTVSPropertyOp39
 70
     1
102
RTVSPropertyOp40
 70
     1
102
RTVSPropertyOp41
 70
     1
102
RTVSPropertyOp42
 70
     1
102
RTVSPropertyOp43
 70
     1
102
RTVSPropertyOp44
 70
     1
102
RTVSPropertyOp45
 70
     1
102
RTVSPropertyOp46
 70
     1
102
RTVSPropertyOp47
 70
     1
102
RTVSPropertyOp48
 70
     1
102
RTVSPropertyOp49
 70
     1
102
RTVSPropertyOp50
 70
     1
102
RTVSPropertyOp51
 70
     0
102
RTVSPropertyOp52
 70
     0
102
RTVSPropertyOp53
 70
     1
102
RTVSPropertyOp54
 70
     1
102
RTVSPropertyOp55
 70
     1
102
RTVSPropertyOp56
 70
     1
102
RTVSPropertyOp57
 70
     1
102
RTVSPropertyOp58
 70
     1
102
RTVSPropertyOp59
 70
     1
102
RTVSPropertyOp60
 70
     1
102
RTVSPropertyOp61
 70
     1
102
RTVSPropertyOp62
 70
     1
  0
XRECORD
  5
305D
102
{ACAD_REACTORS
330
305C
102
}
330
305C
100
AcDbXrecord
280
     1
102
RTVSPost2010Prop28
280
     0
102
RTVSPost2010PropOp28
 70
     1
102
RTVSPost2010Prop29
280
     1
102
RTVSPost2010PropOp29
 70
     1
102
RTVSPost2010Prop30
280
     1
102
RTVSPost2010PropOp30
 70
     1
102
RTVSPost2010Prop31
280
     0
102
RTVSPost2010PropOp31
 70
     1
102
RTVSPost2010Prop32
280
     0
102
RTVSPost2010PropOp32
 70
     1
102
RTVSPost2010Prop33
280
     0
102
RTVSPost2010PropOp33
 70
     1
102
RTVSPost2010Prop34
280
     0
102
RTVSPost2010PropOp34
 70
     1
102
RTVSPost2010Prop35
280
     0
102
RTVSPost2010PropOp35
 70
     1
102
RTVSPost2010Prop36
280
     0
102
RTVSPost2010PropOp36
 70
     1
102
RTVSPost2010Prop37
 90
       50
102
RTVSPost2010PropOp37
 70
     1
102
RTVSPost2010Prop38
140
0.0
102
RTVSPost2010PropOp38
 70
     1
102
RTVSPost2010Prop39
140
1.0
102
RTVSPost2010PropOp39
 70
     1
102
RTVSPost2010Prop40
 90
        0
102
RTVSPost2010PropOp40
 70
     1
102
RTVSPost2010Prop41ColorIndex
 90
       18
102
RTVSPost2010Prop41ColorRGB
 90
        0
102
RTVSPost2010PropOp41
 70
     1
102
RTVSPost2010Prop42
 90
       50
102
RTVSPost2010PropOp42
 70
     1
102
RTVSPost2010Prop43
 90
        3
102
RTVSPost2010PropOp43
 70
     1
102
RTVSPost2010Prop44ColorIndex
 90
        5
102
RTVSPost2010Prop44ColorRGB
 90
      255
102
RTVSPost2010PropOp44
 70
     1
102
RTVSPost2010Prop45
280
     0
102
RTVSPost2010PropOp45
 70
     1
102
RTVSPost2010Prop46
 90
       50
102
RTVSPost2010PropOp46
 70
     1
102
RTVSPost2010Prop47
 90
       50
102
RTVSPost2010PropOp47
 70
     1
102
RTVSPost2010Prop48
 90
       50
102
RTVSPost2010PropOp48
 70
     1
102
RTVSPost2010Prop49
280
     0
102
RTVSPost2010PropOp49
 70
     1
102
RTVSPost2010Prop50
 90
       50
102
RTVSPost2010PropOp50
 70
     1
102
RTVSPost2010Prop51ColorIndex
 90
      256
102
RTVSPost2010Prop51ColorRGB
 90
-16777216
102
RTVSPost2010PropOp51
 70
     0
102
RTVSPost2010Prop52
140
1.0
102
RTVSPost2010PropOp52
 70
     0
102
RTVSPost2010Prop53
 90
        2
102
RTVSPost2010PropOp53
 70
     1
102
RTVSPost2010Prop54
  1
strokes_ogs.tif
102
RTVSPost2010PropOp54
 70
     1
102
RTVSPost2010Prop55
280
     0
102
RTVSPost2010PropOp55
 70
     1
102
RTVSPost2010Prop56
140
1.0
102
RTVSPost2010PropOp56
 70
     1
102
RTVSPost2010Prop57
140
1.0
102
RTVSPost2010PropOp57
 70
     1
102
RTVSPropertyOp0
 70
     1
102
RTVSPropertyOp1
 70
     1
102
RTVSPropertyOp2
 70
     1
102
RTVSPropertyOp3
 70
     1
102
RTVSPropertyOp4
 70
     1
102
RTVSPropertyOp5
 70
     1
102
RTVSPropertyOp6
 70
     1
102
RTVSPropertyOp7
 70
     1
102
RTVSPropertyOp8
 70
     1
102
RTVSPropertyOp9
 70
     1
102
RTVSPropertyOp10
 70
     1
102
RTVSPropertyOp11
 70
     1
102
RTVSPropertyOp12
 70
     1
102
RTVSPropertyOp13
 70
     1
102
RTVSPropertyOp14
 70
     1
102
RTVSPropertyOp15
 70
     1
102
RTVSPropertyOp16
 70
     1
102
RTVSPropertyOp17
 70
     1
102
RTVSPropertyOp18
 70
     1
102
RTVSPropertyOp19
 70
     1
102
RTVSPropertyOp20
 70
     1
102
RTVSPropertyOp21
 70
     1
102
RTVSPropertyOp22
 70
     1
102
RTVSPropertyOp23
 70
     1
102
RTVSPropertyOp24
 70
     1
102
RTVSPropertyOp25
 70
     1
102
RTVSPropertyOp26
 70
     1
102
RTVSPropertyOp27
 70
     1
102
RTVSPropertyOp28
 70
     1
102
RTVSPropertyOp29
 70
     1
102
RTVSPropertyOp30
 70
     1
102
RTVSPropertyOp31
 70
     1
102
RTVSPropertyOp32
 70
     1
102
RTVSPropertyOp33
 70
     1
102
RTVSPropertyOp34
 70
     1
102
RTVSPropertyOp35
 70
     1
102
RTVSPropertyOp36
 70
     1
102
RTVSPropertyOp37
 70
     1
102
RTVSPropertyOp38
 70
     1
102
RTVSPropertyOp39
 70
     1
102
RTVSPropertyOp40
 70
     1
102
RTVSPropertyOp41
 70
     1
102
RTVSPropertyOp42
 70
     1
102
RTVSPropertyOp43
 70
     1
102
RTVSPropertyOp44
 70
     1
102
RTVSPropertyOp45
 70
     1
102
RTVSPropertyOp46
 70
     1
102
RTVSPropertyOp47
 70
     1
102
RTVSPropertyOp48
 70
     1
102
RTVSPropertyOp49
 70
     1
102
RTVSPropertyOp50
 70
     1
102
RTVSPropertyOp51
 70
     0
102
RTVSPropertyOp52
 70
     0
102
RTVSPropertyOp53
 70
     1
102
RTVSPropertyOp54
 70
     1
102
RTVSPropertyOp55
 70
     1
102
RTVSPropertyOp56
 70
     1
102
RTVSPropertyOp57
 70
     1
102
RTVSPropertyOp58
 70
     1
102
RTVSPropertyOp59
 70
     1
102
RTVSPropertyOp60
 70
     1
102
RTVSPropertyOp61
 70
     1
102
RTVSPropertyOp62
 70
     1
  0
XRECORD
  5
305F
102
{ACAD_REACTORS
330
305E
102
}
330
305E
100
AcDbXrecord
280
     1
102
RTVSPost2010Prop28
280
     0
102
RTVSPost2010PropOp28
 70
     1
102
RTVSPost2010Prop29
280
     1
102
RTVSPost2010PropOp29
 70
     1
102
RTVSPost2010Prop30
280
     1
102
RTVSPost2010PropOp30
 70
     1
102
RTVSPost2010Prop31
280
     0
102
RTVSPost2010PropOp31
 70
     1
102
RTVSPost2010Prop32
280
     0
102
RTVSPost2010PropOp32
 70
     1
102
RTVSPost2010Prop33
280
     0
102
RTVSPost2010PropOp33
 70
     1
102
RTVSPost2010Prop34
280
     0
102
RTVSPost2010PropOp34
 70
     1
102
RTVSPost2010Prop35
280
     0
102
RTVSPost2010PropOp35
 70
     1
102
RTVSPost2010Prop36
280
     0
102
RTVSPost2010PropOp36
 70
     1
102
RTVSPost2010Prop37
 90
       50
102
RTVSPost2010PropOp37
 70
     1
102
RTVSPost2010Prop38
140
0.0
102
RTVSPost2010PropOp38
 70
     1
102
RTVSPost2010Prop39
140
1.0
102
RTVSPost2010PropOp39
 70
     1
102
RTVSPost2010Prop40
 90
        0
102
RTVSPost2010PropOp40
 70
     1
102
RTVSPost2010Prop41ColorIndex
 90
       18
102
RTVSPost2010Prop41ColorRGB
 90
        0
102
RTVSPost2010PropOp41
 70
     1
102
RTVSPost2010Prop42
 90
       50
102
RTVSPost2010PropOp42
 70
     1
102
RTVSPost2010Prop43
 90
        3
102
RTVSPost2010PropOp43
 70
     1
102
RTVSPost2010Prop44ColorIndex
 90
        5
102
RTVSPost2010Prop44ColorRGB
 90
      255
102
RTVSPost2010PropOp44
 70
     1
102
RTVSPost2010Prop45
280
     0
102
RTVSPost2010PropOp45
 70
     1
102
RTVSPost2010Prop46
 90
       50
102
RTVSPost2010PropOp46
 70
     1
102
RTVSPost2010Prop47
 90
       50
102
RTVSPost2010PropOp47
 70
     1
102
RTVSPost2010Prop48
 90
       50
102
RTVSPost2010PropOp48
 70
     1
102
RTVSPost2010Prop49
280
     0
102
RTVSPost2010PropOp49
 70
     1
102
RTVSPost2010Prop50
 90
       50
102
RTVSPost2010PropOp50
 70
     1
102
RTVSPost2010Prop51ColorIndex
 90
      256
102
RTVSPost2010Prop51ColorRGB
 90
-16777216
102
RTVSPost2010PropOp51
 70
     0
102
RTVSPost2010Prop52
140
1.0
102
RTVSPost2010PropOp52
 70
     0
102
RTVSPost2010Prop53
 90
        2
102
RTVSPost2010PropOp53
 70
     1
102
RTVSPost2010Prop54
  1
strokes_ogs.tif
102
RTVSPost2010PropOp54
 70
     1
102
RTVSPost2010Prop55
280
     0
102
RTVSPost2010PropOp55
 70
     1
102
RTVSPost2010Prop56
140
1.0
102
RTVSPost2010PropOp56
 70
     1
102
RTVSPost2010Prop57
140
1.0
102
RTVSPost2010PropOp57
 70
     1
102
RTVSPropertyOp0
 70
     1
102
RTVSPropertyOp1
 70
     1
102
RTVSPropertyOp2
 70
     1
102
RTVSPropertyOp3
 70
     1
102
RTVSPropertyOp4
 70
     1
102
RTVSPropertyOp5
 70
     1
102
RTVSPropertyOp6
 70
     1
102
RTVSPropertyOp7
 70
     1
102
RTVSPropertyOp8
 70
     1
102
RTVSPropertyOp9
 70
     1
102
RTVSPropertyOp10
 70
     1
102
RTVSPropertyOp11
 70
     1
102
RTVSPropertyOp12
 70
     1
102
RTVSPropertyOp13
 70
     1
102
RTVSPropertyOp14
 70
     1
102
RTVSPropertyOp15
 70
     1
102
RTVSPropertyOp16
 70
     1
102
RTVSPropertyOp17
 70
     1
102
RTVSPropertyOp18
 70
     1
102
RTVSPropertyOp19
 70
     1
102
RTVSPropertyOp20
 70
     1
102
RTVSPropertyOp21
 70
     1
102
RTVSPropertyOp22
 70
     1
102
RTVSPropertyOp23
 70
     1
102
RTVSPropertyOp24
 70
     1
102
RTVSPropertyOp25
 70
     1
102
RTVSPropertyOp26
 70
     1
102
RTVSPropertyOp27
 70
     1
102
RTVSPropertyOp28
 70
     1
102
RTVSPropertyOp29
 70
     1
102
RTVSPropertyOp30
 70
     1
102
RTVSPropertyOp31
 70
     1
102
RTVSPropertyOp32
 70
     1
102
RTVSPropertyOp33
 70
     1
102
RTVSPropertyOp34
 70
     1
102
RTVSPropertyOp35
 70
     1
102
RTVSPropertyOp36
 70
     1
102
RTVSPropertyOp37
 70
     1
102
RTVSPropertyOp38
 70
     1
102
RTVSPropertyOp39
 70
     1
102
RTVSPropertyOp40
 70
     1
102
RTVSPropertyOp41
 70
     1
102
RTVSPropertyOp42
 70
     1
102
RTVSPropertyOp43
 70
     1
102
RTVSPropertyOp44
 70
     1
102
RTVSPropertyOp45
 70
     1
102
RTVSPropertyOp46
 70
     1
102
RTVSPropertyOp47
 70
     1
102
RTVSPropertyOp48
 70
     1
102
RTVSPropertyOp49
 70
     1
102
RTVSPropertyOp50
 70
     1
102
RTVSPropertyOp51
 70
     0
102
RTVSPropertyOp52
 70
     0
102
RTVSPropertyOp53
 70
     1
102
RTVSPropertyOp54
 70
     1
102
RTVSPropertyOp55
 70
     1
102
RTVSPropertyOp56
 70
     1
102
RTVSPropertyOp57
 70
     1
102
RTVSPropertyOp58
 70
     1
102
RTVSPropertyOp59
 70
     1
102
RTVSPropertyOp60
 70
     1
102
RTVSPropertyOp61
 70
     1
102
RTVSPropertyOp62
 70
     1
  0
XRECORD
  5
3061
102
{ACAD_REACTORS
330
3060
102
}
330
3060
100
AcDbXrecord
280
     1
102
RTVSPost2010Prop28
280
     0
102
RTVSPost2010PropOp28
 70
     1
102
RTVSPost2010Prop29
280
     1
102
RTVSPost2010PropOp29
 70
     1
102
RTVSPost2010Prop30
280
     1
102
RTVSPost2010PropOp30
 70
     1
102
RTVSPost2010Prop31
280
     0
102
RTVSPost2010PropOp31
 70
     1
102
RTVSPost2010Prop32
280
     0
102
RTVSPost2010PropOp32
 70
     1
102
RTVSPost2010Prop33
280
     0
102
RTVSPost2010PropOp33
 70
     1
102
RTVSPost2010Prop34
280
     0
102
RTVSPost2010PropOp34
 70
     1
102
RTVSPost2010Prop35
280
     0
102
RTVSPost2010PropOp35
 70
     1
102
RTVSPost2010Prop36
280
     0
102
RTVSPost2010PropOp36
 70
     1
102
RTVSPost2010Prop37
 90
       50
102
RTVSPost2010PropOp37
 70
     1
102
RTVSPost2010Prop38
140
0.0
102
RTVSPost2010PropOp38
 70
     1
102
RTVSPost2010Prop39
140
1.0
102
RTVSPost2010PropOp39
 70
     1
102
RTVSPost2010Prop40
 90
        0
102
RTVSPost2010PropOp40
 70
     1
102
RTVSPost2010Prop41ColorIndex
 90
       18
102
RTVSPost2010Prop41ColorRGB
 90
        0
102
RTVSPost2010PropOp41
 70
     1
102
RTVSPost2010Prop42
 90
       50
102
RTVSPost2010PropOp42
 70
     1
102
RTVSPost2010Prop43
 90
        3
102
RTVSPost2010PropOp43
 70
     1
102
RTVSPost2010Prop44ColorIndex
 90
        5
102
RTVSPost2010Prop44ColorRGB
 90
      255
102
RTVSPost2010PropOp44
 70
     1
102
RTVSPost2010Prop45
280
     0
102
RTVSPost2010PropOp45
 70
     1
102
RTVSPost2010Prop46
 90
       50
102
RTVSPost2010PropOp46
 70
     1
102
RTVSPost2010Prop47
 90
       50
102
RTVSPost2010PropOp47
 70
     1
102
RTVSPost2010Prop48
 90
       50
102
RTVSPost2010PropOp48
 70
     1
102
RTVSPost2010Prop49
280
     0
102
RTVSPost2010PropOp49
 70
     1
102
RTVSPost2010Prop50
 90
       50
102
RTVSPost2010PropOp50
 70
     1
102
RTVSPost2010Prop51ColorIndex
 90
      256
102
RTVSPost2010Prop51ColorRGB
 90
-16777216
102
RTVSPost2010PropOp51
 70
     0
102
RTVSPost2010Prop52
140
1.0
102
RTVSPost2010PropOp52
 70
     0
102
RTVSPost2010Prop53
 90
        2
102
RTVSPost2010PropOp53
 70
     1
102
RTVSPost2010Prop54
  1
strokes_ogs.tif
102
RTVSPost2010PropOp54
 70
     1
102
RTVSPost2010Prop55
280
     0
102
RTVSPost2010PropOp55
 70
     1
102
RTVSPost2010Prop56
140
1.0
102
RTVSPost2010PropOp56
 70
     1
102
RTVSPost2010Prop57
140
1.0
102
RTVSPost2010PropOp57
 70
     1
102
RTVSPropertyOp0
 70
     1
102
RTVSPropertyOp1
 70
     1
102
RTVSPropertyOp2
 70
     1
102
RTVSPropertyOp3
 70
     1
102
RTVSPropertyOp4
 70
     1
102
RTVSPropertyOp5
 70
     1
102
RTVSPropertyOp6
 70
     1
102
RTVSPropertyOp7
 70
     1
102
RTVSPropertyOp8
 70
     1
102
RTVSPropertyOp9
 70
     1
102
RTVSPropertyOp10
 70
     1
102
RTVSPropertyOp11
 70
     1
102
RTVSPropertyOp12
 70
     1
102
RTVSPropertyOp13
 70
     1
102
RTVSPropertyOp14
 70
     1
102
RTVSPropertyOp15
 70
     1
102
RTVSPropertyOp16
 70
     1
102
RTVSPropertyOp17
 70
     1
102
RTVSPropertyOp18
 70
     1
102
RTVSPropertyOp19
 70
     1
102
RTVSPropertyOp20
 70
     1
102
RTVSPropertyOp21
 70
     1
102
RTVSPropertyOp22
 70
     1
102
RTVSPropertyOp23
 70
     1
102
RTVSPropertyOp24
 70
     1
102
RTVSPropertyOp25
 70
     1
102
RTVSPropertyOp26
 70
     1
102
RTVSPropertyOp27
 70
     1
102
RTVSPropertyOp28
 70
     1
102
RTVSPropertyOp29
 70
     1
102
RTVSPropertyOp30
 70
     1
102
RTVSPropertyOp31
 70
     1
102
RTVSPropertyOp32
 70
     1
102
RTVSPropertyOp33
 70
     1
102
RTVSPropertyOp34
 70
     1
102
RTVSPropertyOp35
 70
     1
102
RTVSPropertyOp36
 70
     1
102
RTVSPropertyOp37
 70
     1
102
RTVSPropertyOp38
 70
     1
102
RTVSPropertyOp39
 70
     1
102
RTVSPropertyOp40
 70
     1
102
RTVSPropertyOp41
 70
     1
102
RTVSPropertyOp42
 70
     1
102
RTVSPropertyOp43
 70
     1
102
RTVSPropertyOp44
 70
     1
102
RTVSPropertyOp45
 70
     1
102
RTVSPropertyOp46
 70
     1
102
RTVSPropertyOp47
 70
     1
102
RTVSPropertyOp48
 70
     1
102
RTVSPropertyOp49
 70
     1
102
RTVSPropertyOp50
 70
     1
102
RTVSPropertyOp51
 70
     0
102
RTVSPropertyOp52
 70
     0
102
RTVSPropertyOp53
 70
     1
102
RTVSPropertyOp54
 70
     1
102
RTVSPropertyOp55
 70
     1
102
RTVSPropertyOp56
 70
     1
102
RTVSPropertyOp57
 70
     1
102
RTVSPropertyOp58
 70
     1
102
RTVSPropertyOp59
 70
     1
102
RTVSPropertyOp60
 70
     1
102
RTVSPropertyOp61
 70
     1
102
RTVSPropertyOp62
 70
     1
  0
XRECORD
  5
3069
102
{ACAD_REACTORS
330
3068
102
}
330
3068
100
AcDbXrecord
280
     1
102
RTVSPost2010Prop28
280
     0
102
RTVSPost2010PropOp28
 70
     1
102
RTVSPost2010Prop29
280
     1
102
RTVSPost2010PropOp29
 70
     1
102
RTVSPost2010Prop30
280
     1
102
RTVSPost2010PropOp30
 70
     1
102
RTVSPost2010Prop31
280
     0
102
RTVSPost2010PropOp31
 70
     1
102
RTVSPost2010Prop32
280
     0
102
RTVSPost2010PropOp32
 70
     1
102
RTVSPost2010Prop33
280
     0
102
RTVSPost2010PropOp33
 70
     1
102
RTVSPost2010Prop34
280
     0
102
RTVSPost2010PropOp34
 70
     1
102
RTVSPost2010Prop35
280
     0
102
RTVSPost2010PropOp35
 70
     1
102
RTVSPost2010Prop36
280
     0
102
RTVSPost2010PropOp36
 70
     1
102
RTVSPost2010Prop37
 90
       50
102
RTVSPost2010PropOp37
 70
     1
102
RTVSPost2010Prop38
140
0.0
102
RTVSPost2010PropOp38
 70
     1
102
RTVSPost2010Prop39
140
1.0
102
RTVSPost2010PropOp39
 70
     1
102
RTVSPost2010Prop40
 90
        0
102
RTVSPost2010PropOp40
 70
     1
102
RTVSPost2010Prop41ColorIndex
 90
       18
102
RTVSPost2010Prop41ColorRGB
 90
        0
102
RTVSPost2010PropOp41
 70
     1
102
RTVSPost2010Prop42
 90
       50
102
RTVSPost2010PropOp42
 70
     1
102
RTVSPost2010Prop43
 90
        3
102
RTVSPost2010PropOp43
 70
     1
102
RTVSPost2010Prop44ColorIndex
 90
        5
102
RTVSPost2010Prop44ColorRGB
 90
      255
102
RTVSPost2010PropOp44
 70
     1
102
RTVSPost2010Prop45
280
     0
102
RTVSPost2010PropOp45
 70
     1
102
RTVSPost2010Prop46
 90
       50
102
RTVSPost2010PropOp46
 70
     1
102
RTVSPost2010Prop47
 90
       50
102
RTVSPost2010PropOp47
 70
     1
102
RTVSPost2010Prop48
 90
       50
102
RTVSPost2010PropOp48
 70
     1
102
RTVSPost2010Prop49
280
     0
102
RTVSPost2010PropOp49
 70
     1
102
RTVSPost2010Prop50
 90
       50
102
RTVSPost2010PropOp50
 70
     1
102
RTVSPost2010Prop51ColorIndex
 90
      256
102
RTVSPost2010Prop51ColorRGB
 90
-16777216
102
RTVSPost2010PropOp51
 70
     0
102
RTVSPost2010Prop52
140
1.0
102
RTVSPost2010PropOp52
 70
     0
102
RTVSPost2010Prop53
 90
        2
102
RTVSPost2010PropOp53
 70
     1
102
RTVSPost2010Prop54
  1
strokes_ogs.tif
102
RTVSPost2010PropOp54
 70
     1
102
RTVSPost2010Prop55
280
     0
102
RTVSPost2010PropOp55
 70
     1
102
RTVSPost2010Prop56
140
1.0
102
RTVSPost2010PropOp56
 70
     1
102
RTVSPost2010Prop57
140
1.0
102
RTVSPost2010PropOp57
 70
     1
102
RTVSPropertyOp0
 70
     1
102
RTVSPropertyOp1
 70
     1
102
RTVSPropertyOp2
 70
     1
102
RTVSPropertyOp3
 70
     1
102
RTVSPropertyOp4
 70
     1
102
RTVSPropertyOp5
 70
     1
102
RTVSPropertyOp6
 70
     1
102
RTVSPropertyOp7
 70
     1
102
RTVSPropertyOp8
 70
     1
102
RTVSPropertyOp9
 70
     1
102
RTVSPropertyOp10
 70
     1
102
RTVSPropertyOp11
 70
     1
102
RTVSPropertyOp12
 70
     1
102
RTVSPropertyOp13
 70
     1
102
RTVSPropertyOp14
 70
     1
102
RTVSPropertyOp15
 70
     1
102
RTVSPropertyOp16
 70
     1
102
RTVSPropertyOp17
 70
     1
102
RTVSPropertyOp18
 70
     1
102
RTVSPropertyOp19
 70
     1
102
RTVSPropertyOp20
 70
     1
102
RTVSPropertyOp21
 70
     1
102
RTVSPropertyOp22
 70
     1
102
RTVSPropertyOp23
 70
     1
102
RTVSPropertyOp24
 70
     1
102
RTVSPropertyOp25
 70
     1
102
RTVSPropertyOp26
 70
     1
102
RTVSPropertyOp27
 70
     1
102
RTVSPropertyOp28
 70
     1
102
RTVSPropertyOp29
 70
     1
102
RTVSPropertyOp30
 70
     1
102
RTVSPropertyOp31
 70
     1
102
RTVSPropertyOp32
 70
     1
102
RTVSPropertyOp33
 70
     1
102
RTVSPropertyOp34
 70
     1
102
RTVSPropertyOp35
 70
     1
102
RTVSPropertyOp36
 70
     1
102
RTVSPropertyOp37
 70
     1
102
RTVSPropertyOp38
 70
     1
102
RTVSPropertyOp39
 70
     1
102
RTVSPropertyOp40
 70
     1
102
RTVSPropertyOp41
 70
     1
102
RTVSPropertyOp42
 70
     1
102
RTVSPropertyOp43
 70
     1
102
RTVSPropertyOp44
 70
     1
102
RTVSPropertyOp45
 70
     1
102
RTVSPropertyOp46
 70
     1
102
RTVSPropertyOp47
 70
     1
102
RTVSPropertyOp48
 70
     1
102
RTVSPropertyOp49
 70
     1
102
RTVSPropertyOp50
 70
     1
102
RTVSPropertyOp51
 70
     0
102
RTVSPropertyOp52
 70
     0
102
RTVSPropertyOp53
 70
     1
102
RTVSPropertyOp54
 70
     1
102
RTVSPropertyOp55
 70
     1
102
RTVSPropertyOp56
 70
     1
102
RTVSPropertyOp57
 70
     1
102
RTVSPropertyOp58
 70
     1
102
RTVSPropertyOp59
 70
     1
102
RTVSPropertyOp60
 70
     1
102
RTVSPropertyOp61
 70
     1
102
RTVSPropertyOp62
 70
     1
  0
XRECORD
  5
3085
102
{ACAD_REACTORS
330
3084
102
}
330
3084
100
AcDbXrecord
280
     1
102
RTVSPost2010Prop28
280
     0
102
RTVSPost2010PropOp28
 70
     1
102
RTVSPost2010Prop29
280
     1
102
RTVSPost2010PropOp29
 70
     1
102
RTVSPost2010Prop30
280
     1
102
RTVSPost2010PropOp30
 70
     1
102
RTVSPost2010Prop31
280
     0
102
RTVSPost2010PropOp31
 70
     1
102
RTVSPost2010Prop32
280
     0
102
RTVSPost2010PropOp32
 70
     1
102
RTVSPost2010Prop33
280
     0
102
RTVSPost2010PropOp33
 70
     1
102
RTVSPost2010Prop34
280
     0
102
RTVSPost2010PropOp34
 70
     1
102
RTVSPost2010Prop35
280
     0
102
RTVSPost2010PropOp35
 70
     1
102
RTVSPost2010Prop36
280
     0
102
RTVSPost2010PropOp36
 70
     1
102
RTVSPost2010Prop37
 90
       50
102
RTVSPost2010PropOp37
 70
     0
102
RTVSPost2010Prop38
140
0.0
102
RTVSPost2010PropOp38
 70
     0
102
RTVSPost2010Prop39
140
1.0
102
RTVSPost2010PropOp39
 70
     0
102
RTVSPost2010Prop40
 90
        0
102
RTVSPost2010PropOp40
 70
     0
102
RTVSPost2010Prop41ColorIndex
 90
       18
102
RTVSPost2010Prop41ColorRGB
 90
        0
102
RTVSPost2010PropOp41
 70
     0
102
RTVSPost2010Prop42
 90
       50
102
RTVSPost2010PropOp42
 70
     0
102
RTVSPost2010Prop43
 90
        3
102
RTVSPost2010PropOp43
 70
     0
102
RTVSPost2010Prop44ColorIndex
 90
        5
102
RTVSPost2010Prop44ColorRGB
 90
      255
102
RTVSPost2010PropOp44
 70
     0
102
RTVSPost2010Prop45
280
     0
102
RTVSPost2010PropOp45
 70
     1
102
RTVSPost2010Prop46
 90
       50
102
RTVSPost2010PropOp46
 70
     0
102
RTVSPost2010Prop47
 90
       50
102
RTVSPost2010PropOp47
 70
     0
102
RTVSPost2010Prop48
 90
       50
102
RTVSPost2010PropOp48
 70
     0
102
RTVSPost2010Prop49
280
     0
102
RTVSPost2010PropOp49
 70
     1
102
RTVSPost2010Prop50
 90
       50
102
RTVSPost2010PropOp50
 70
     0
102
RTVSPost2010Prop51ColorIndex
 90
      256
102
RTVSPost2010Prop51ColorRGB
 90
-16777216
102
RTVSPost2010PropOp51
 70
     0
102
RTVSPost2010Prop52
140
1.0
102
RTVSPost2010PropOp52
 70
     0
102
RTVSPost2010Prop53
 90
        2
102
RTVSPost2010PropOp53
 70
     0
102
RTVSPost2010Prop54
  1
strokes_ogs.tif
102
RTVSPost2010PropOp54
 70
     0
102
RTVSPost2010Prop55
280
     0
102
RTVSPost2010PropOp55
 70
     1
102
RTVSPost2010Prop56
140
1.0
102
RTVSPost2010PropOp56
 70
     0
102
RTVSPost2010Prop57
140
1.0
102
RTVSPost2010PropOp57
 70
     0
102
RTVSPropertyOp0
 70
     0
102
RTVSPropertyOp1
 70
     0
102
RTVSPropertyOp2
 70
     0
102
RTVSPropertyOp3
 70
     0
102
RTVSPropertyOp4
 70
     0
102
RTVSPropertyOp5
 70
     0
102
RTVSPropertyOp6
 70
     0
102
RTVSPropertyOp7
 70
     0
102
RTVSPropertyOp8
 70
     0
102
RTVSPropertyOp9
 70
     0
102
RTVSPropertyOp10
 70
     0
102
RTVSPropertyOp11
 70
     0
102
RTVSPropertyOp12
 70
     0
102
RTVSPropertyOp13
 70
     0
102
RTVSPropertyOp14
 70
     2
102
RTVSPropertyOp15
 70
     0
102
RTVSPropertyOp16
 70
     0
102
RTVSPropertyOp17
 70
     0
102
RTVSPropertyOp18
 70
     0
102
RTVSPropertyOp19
 70
     0
102
RTVSPropertyOp20
 70
     0
102
RTVSPropertyOp21
 70
     0
102
RTVSPropertyOp22
 70
     0
102
RTVSPropertyOp23
 70
     0
102
RTVSPropertyOp24
 70
     0
102
RTVSPropertyOp25
 70
     0
102
RTVSPropertyOp26
 70
     0
102
RTVSPropertyOp27
 70
     0
102
RTVSPropertyOp28
 70
     1
102
RTVSPropertyOp29
 70
     1
102
RTVSPropertyOp30
 70
     1
102
RTVSPropertyOp31
 70
     1
102
RTVSPropertyOp32
 70
     1
102
RTVSPropertyOp33
 70
     1
102
RTVSPropertyOp34
 70
     1
102
RTVSPropertyOp35
 70
     1
102
RTVSPropertyOp36
 70
     1
102
RTVSPropertyOp37
 70
     0
102
RTVSPropertyOp38
 70
     0
102
RTVSPropertyOp39
 70
     0
102
RTVSPropertyOp40
 70
     0
102
RTVSPropertyOp41
 70
     0
102
RTVSPropertyOp42
 70
     0
102
RTVSPropertyOp43
 70
     0
102
RTVSPropertyOp44
 70
     0
102
RTVSPropertyOp45
 70
     1
102
RTVSPropertyOp46
 70
     0
102
RTVSPropertyOp47
 70
     0
102
RTVSPropertyOp48
 70
     0
102
RTVSPropertyOp49
 70
     1
102
RTVSPropertyOp50
 70
     0
102
RTVSPropertyOp51
 70
     0
102
RTVSPropertyOp52
 70
     0
102
RTVSPropertyOp53
 70
     0
102
RTVSPropertyOp54
 70
     0
102
RTVSPropertyOp55
 70
     1
102
RTVSPropertyOp56
 70
     0
102
RTVSPropertyOp57
 70
     0
102
RTVSPropertyOp58
 70
     0
102
RTVSPropertyOp59
 70
     0
102
RTVSPropertyOp60
 70
     0
102
RTVSPropertyOp61
 70
     0
102
RTVSPropertyOp62
 70
     0
  0
XRECORD
  5
3075
102
{ACAD_REACTORS
330
3074
102
}
330
3074
100
AcDbXrecord
280
     1
102
RTVSPost2010Prop28
280
     0
102
RTVSPost2010PropOp28
 70
     1
102
RTVSPost2010Prop29
280
     1
102
RTVSPost2010PropOp29
 70
     1
102
RTVSPost2010Prop30
280
     1
102
RTVSPost2010PropOp30
 70
     1
102
RTVSPost2010Prop31
280
     0
102
RTVSPost2010PropOp31
 70
     1
102
RTVSPost2010Prop32
280
     0
102
RTVSPost2010PropOp32
 70
     1
102
RTVSPost2010Prop33
280
     0
102
RTVSPost2010PropOp33
 70
     1
102
RTVSPost2010Prop34
280
     0
102
RTVSPost2010PropOp34
 70
     1
102
RTVSPost2010Prop35
280
     0
102
RTVSPost2010PropOp35
 70
     1
102
RTVSPost2010Prop36
280
     0
102
RTVSPost2010PropOp36
 70
     1
102
RTVSPost2010Prop37
 90
       50
102
RTVSPost2010PropOp37
 70
     1
102
RTVSPost2010Prop38
140
0.0
102
RTVSPost2010PropOp38
 70
     1
102
RTVSPost2010Prop39
140
1.0
102
RTVSPost2010PropOp39
 70
     1
102
RTVSPost2010Prop40
 90
        0
102
RTVSPost2010PropOp40
 70
     1
102
RTVSPost2010Prop41ColorIndex
 90
       18
102
RTVSPost2010Prop41ColorRGB
 90
        0
102
RTVSPost2010PropOp41
 70
     1
102
RTVSPost2010Prop42
 90
       50
102
RTVSPost2010PropOp42
 70
     1
102
RTVSPost2010Prop43
 90
        3
102
RTVSPost2010PropOp43
 70
     1
102
RTVSPost2010Prop44ColorIndex
 90
        5
102
RTVSPost2010Prop44ColorRGB
 90
      255
102
RTVSPost2010PropOp44
 70
     1
102
RTVSPost2010Prop45
280
     0
102
RTVSPost2010PropOp45
 70
     1
102
RTVSPost2010Prop46
 90
       50
102
RTVSPost2010PropOp46
 70
     1
102
RTVSPost2010Prop47
 90
       50
102
RTVSPost2010PropOp47
 70
     1
102
RTVSPost2010Prop48
 90
       50
102
RTVSPost2010PropOp48
 70
     1
102
RTVSPost2010Prop49
280
     0
102
RTVSPost2010PropOp49
 70
     1
102
RTVSPost2010Prop50
 90
       50
102
RTVSPost2010PropOp50
 70
     1
102
RTVSPost2010Prop51ColorIndex
 90
      256
102
RTVSPost2010Prop51ColorRGB
 90
-16777216
102
RTVSPost2010PropOp51
 70
     0
102
RTVSPost2010Prop52
140
1.0
102
RTVSPost2010PropOp52
 70
     0
102
RTVSPost2010Prop53
 90
        2
102
RTVSPost2010PropOp53
 70
     1
102
RTVSPost2010Prop54
  1
strokes_ogs.tif
102
RTVSPost2010PropOp54
 70
     1
102
RTVSPost2010Prop55
280
     0
102
RTVSPost2010PropOp55
 70
     1
102
RTVSPost2010Prop56
140
1.0
102
RTVSPost2010PropOp56
 70
     1
102
RTVSPost2010Prop57
140
1.0
102
RTVSPost2010PropOp57
 70
     1
102
RTVSPropertyOp0
 70
     1
102
RTVSPropertyOp1
 70
     1
102
RTVSPropertyOp2
 70
     1
102
RTVSPropertyOp3
 70
     1
102
RTVSPropertyOp4
 70
     1
102
RTVSPropertyOp5
 70
     1
102
RTVSPropertyOp6
 70
     1
102
RTVSPropertyOp7
 70
     1
102
RTVSPropertyOp8
 70
     1
102
RTVSPropertyOp9
 70
     1
102
RTVSPropertyOp10
 70
     1
102
RTVSPropertyOp11
 70
     1
102
RTVSPropertyOp12
 70
     1
102
RTVSPropertyOp13
 70
     1
102
RTVSPropertyOp14
 70
     1
102
RTVSPropertyOp15
 70
     1
102
RTVSPropertyOp16
 70
     1
102
RTVSPropertyOp17
 70
     1
102
RTVSPropertyOp18
 70
     1
102
RTVSPropertyOp19
 70
     1
102
RTVSPropertyOp20
 70
     1
102
RTVSPropertyOp21
 70
     1
102
RTVSPropertyOp22
 70
     1
102
RTVSPropertyOp23
 70
     1
102
RTVSPropertyOp24
 70
     1
102
RTVSPropertyOp25
 70
     1
102
RTVSPropertyOp26
 70
     1
102
RTVSPropertyOp27
 70
     1
102
RTVSPropertyOp28
 70
     1
102
RTVSPropertyOp29
 70
     1
102
RTVSPropertyOp30
 70
     1
102
RTVSPropertyOp31
 70
     1
102
RTVSPropertyOp32
 70
     1
102
RTVSPropertyOp33
 70
     1
102
RTVSPropertyOp34
 70
     1
102
RTVSPropertyOp35
 70
     1
102
RTVSPropertyOp36
 70
     1
102
RTVSPropertyOp37
 70
     1
102
RTVSPropertyOp38
 70
     1
102
RTVSPropertyOp39
 70
     1
102
RTVSPropertyOp40
 70
     1
102
RTVSPropertyOp41
 70
     1
102
RTVSPropertyOp42
 70
     1
102
RTVSPropertyOp43
 70
     1
102
RTVSPropertyOp44
 70
     1
102
RTVSPropertyOp45
 70
     1
102
RTVSPropertyOp46
 70
     1
102
RTVSPropertyOp47
 70
     1
102
RTVSPropertyOp48
 70
     1
102
RTVSPropertyOp49
 70
     1
102
RTVSPropertyOp50
 70
     1
102
RTVSPropertyOp51
 70
     0
102
RTVSPropertyOp52
 70
     0
102
RTVSPropertyOp53
 70
     1
102
RTVSPropertyOp54
 70
     1
102
RTVSPropertyOp55
 70
     1
102
RTVSPropertyOp56
 70
     1
102
RTVSPropertyOp57
 70
     1
102
RTVSPropertyOp58
 70
     1
102
RTVSPropertyOp59
 70
     1
102
RTVSPropertyOp60
 70
     1
102
RTVSPropertyOp61
 70
     1
102
RTVSPropertyOp62
 70
     1
  0
XRECORD
  5
3087
102
{ACAD_REACTORS
330
3086
102
}
330
3086
100
AcDbXrecord
280
     1
102
RTVSPost2010Prop28
280
     0
102
RTVSPost2010PropOp28
 70
     1
102
RTVSPost2010Prop29
280
     1
102
RTVSPost2010PropOp29
 70
     1
102
RTVSPost2010Prop30
280
     1
102
RTVSPost2010PropOp30
 70
     1
102
RTVSPost2010Prop31
280
     0
102
RTVSPost2010PropOp31
 70
     1
102
RTVSPost2010Prop32
280
     0
102
RTVSPost2010PropOp32
 70
     1
102
RTVSPost2010Prop33
280
     0
102
RTVSPost2010PropOp33
 70
     1
102
RTVSPost2010Prop34
280
     0
102
RTVSPost2010PropOp34
 70
     1
102
RTVSPost2010Prop35
280
     0
102
RTVSPost2010PropOp35
 70
     1
102
RTVSPost2010Prop36
280
     0
102
RTVSPost2010PropOp36
 70
     1
102
RTVSPost2010Prop37
 90
       50
102
RTVSPost2010PropOp37
 70
     0
102
RTVSPost2010Prop38
140
0.0
102
RTVSPost2010PropOp38
 70
     0
102
RTVSPost2010Prop39
140
1.0
102
RTVSPost2010PropOp39
 70
     0
102
RTVSPost2010Prop40
 90
        0
102
RTVSPost2010PropOp40
 70
     0
102
RTVSPost2010Prop41ColorIndex
 90
       18
102
RTVSPost2010Prop41ColorRGB
 90
        0
102
RTVSPost2010PropOp41
 70
     0
102
RTVSPost2010Prop42
 90
       50
102
RTVSPost2010PropOp42
 70
     0
102
RTVSPost2010Prop43
 90
        3
102
RTVSPost2010PropOp43
 70
     0
102
RTVSPost2010Prop44ColorIndex
 90
        5
102
RTVSPost2010Prop44ColorRGB
 90
      255
102
RTVSPost2010PropOp44
 70
     0
102
RTVSPost2010Prop45
280
     0
102
RTVSPost2010PropOp45
 70
     1
102
RTVSPost2010Prop46
 90
       50
102
RTVSPost2010PropOp46
 70
     0
102
RTVSPost2010Prop47
 90
       50
102
RTVSPost2010PropOp47
 70
     0
102
RTVSPost2010Prop48
 90
       50
102
RTVSPost2010PropOp48
 70
     0
102
RTVSPost2010Prop49
280
     0
102
RTVSPost2010PropOp49
 70
     1
102
RTVSPost2010Prop50
 90
       50
102
RTVSPost2010PropOp50
 70
     0
102
RTVSPost2010Prop51ColorIndex
 90
      256
102
RTVSPost2010Prop51ColorRGB
 90
-16777216
102
RTVSPost2010PropOp51
 70
     0
102
RTVSPost2010Prop52
140
1.0
102
RTVSPost2010PropOp52
 70
     0
102
RTVSPost2010Prop53
 90
        2
102
RTVSPost2010PropOp53
 70
     0
102
RTVSPost2010Prop54
  1
strokes_ogs.tif
102
RTVSPost2010PropOp54
 70
     0
102
RTVSPost2010Prop55
280
     0
102
RTVSPost2010PropOp55
 70
     1
102
RTVSPost2010Prop56
140
1.0
102
RTVSPost2010PropOp56
 70
     0
102
RTVSPost2010Prop57
140
1.0
102
RTVSPost2010PropOp57
 70
     0
102
RTVSPropertyOp0
 70
     0
102
RTVSPropertyOp1
 70
     0
102
RTVSPropertyOp2
 70
     0
102
RTVSPropertyOp3
 70
     0
102
RTVSPropertyOp4
 70
     0
102
RTVSPropertyOp5
 70
     0
102
RTVSPropertyOp6
 70
     0
102
RTVSPropertyOp7
 70
     0
102
RTVSPropertyOp8
 70
     0
102
RTVSPropertyOp9
 70
     0
102
RTVSPropertyOp10
 70
     0
102
RTVSPropertyOp11
 70
     0
102
RTVSPropertyOp12
 70
     0
102
RTVSPropertyOp13
 70
     0
102
RTVSPropertyOp14
 70
     2
102
RTVSPropertyOp15
 70
     0
102
RTVSPropertyOp16
 70
     0
102
RTVSPropertyOp17
 70
     0
102
RTVSPropertyOp18
 70
     0
102
RTVSPropertyOp19
 70
     0
102
RTVSPropertyOp20
 70
     0
102
RTVSPropertyOp21
 70
     0
102
RTVSPropertyOp22
 70
     0
102
RTVSPropertyOp23
 70
     0
102
RTVSPropertyOp24
 70
     0
102
RTVSPropertyOp25
 70
     0
102
RTVSPropertyOp26
 70
     0
102
RTVSPropertyOp27
 70
     0
102
RTVSPropertyOp28
 70
     1
102
RTVSPropertyOp29
 70
     1
102
RTVSPropertyOp30
 70
     1
102
RTVSPropertyOp31
 70
     1
102
RTVSPropertyOp32
 70
     1
102
RTVSPropertyOp33
 70
     1
102
RTVSPropertyOp34
 70
     1
102
RTVSPropertyOp35
 70
     1
102
RTVSPropertyOp36
 70
     1
102
RTVSPropertyOp37
 70
     0
102
RTVSPropertyOp38
 70
     0
102
RTVSPropertyOp39
 70
     0
102
RTVSPropertyOp40
 70
     0
102
RTVSPropertyOp41
 70
     0
102
RTVSPropertyOp42
 70
     0
102
RTVSPropertyOp43
 70
     0
102
RTVSPropertyOp44
 70
     0
102
RTVSPropertyOp45
 70
     1
102
RTVSPropertyOp46
 70
     0
102
RTVSPropertyOp47
 70
     0
102
RTVSPropertyOp48
 70
     0
102
RTVSPropertyOp49
 70
     1
102
RTVSPropertyOp50
 70
     0
102
RTVSPropertyOp51
 70
     0
102
RTVSPropertyOp52
 70
     0
102
RTVSPropertyOp53
 70
     0
102
RTVSPropertyOp54
 70
     0
102
RTVSPropertyOp55
 70
     1
102
RTVSPropertyOp56
 70
     0
102
RTVSPropertyOp57
 70
     0
102
RTVSPropertyOp58
 70
     0
102
RTVSPropertyOp59
 70
     0
102
RTVSPropertyOp60
 70
     0
102
RTVSPropertyOp61
 70
     0
102
RTVSPropertyOp62
 70
     0
  0
XRECORD
  5
306D
102
{ACAD_REACTORS
330
306C
102
}
330
306C
100
AcDbXrecord
280
     1
102
RTVSPost2010Prop28
280
     0
102
RTVSPost2010PropOp28
 70
     1
102
RTVSPost2010Prop29
280
     1
102
RTVSPost2010PropOp29
 70
     1
102
RTVSPost2010Prop30
280
     1
102
RTVSPost2010PropOp30
 70
     1
102
RTVSPost2010Prop31
280
     0
102
RTVSPost2010PropOp31
 70
     1
102
RTVSPost2010Prop32
280
     0
102
RTVSPost2010PropOp32
 70
     1
102
RTVSPost2010Prop33
280
     0
102
RTVSPost2010PropOp33
 70
     1
102
RTVSPost2010Prop34
280
     0
102
RTVSPost2010PropOp34
 70
     1
102
RTVSPost2010Prop35
280
     0
102
RTVSPost2010PropOp35
 70
     1
102
RTVSPost2010Prop36
280
     0
102
RTVSPost2010PropOp36
 70
     1
102
RTVSPost2010Prop37
 90
       50
102
RTVSPost2010PropOp37
 70
     1
102
RTVSPost2010Prop38
140
0.0
102
RTVSPost2010PropOp38
 70
     1
102
RTVSPost2010Prop39
140
1.0
102
RTVSPost2010PropOp39
 70
     1
102
RTVSPost2010Prop40
 90
        0
102
RTVSPost2010PropOp40
 70
     1
102
RTVSPost2010Prop41ColorIndex
 90
       18
102
RTVSPost2010Prop41ColorRGB
 90
        0
102
RTVSPost2010PropOp41
 70
     1
102
RTVSPost2010Prop42
 90
       50
102
RTVSPost2010PropOp42
 70
     1
102
RTVSPost2010Prop43
 90
        3
102
RTVSPost2010PropOp43
 70
     1
102
RTVSPost2010Prop44ColorIndex
 90
        5
102
RTVSPost2010Prop44ColorRGB
 90
      255
102
RTVSPost2010PropOp44
 70
     1
102
RTVSPost2010Prop45
280
     0
102
RTVSPost2010PropOp45
 70
     1
102
RTVSPost2010Prop46
 90
       50
102
RTVSPost2010PropOp46
 70
     1
102
RTVSPost2010Prop47
 90
       50
102
RTVSPost2010PropOp47
 70
     1
102
RTVSPost2010Prop48
 90
       50
102
RTVSPost2010PropOp48
 70
     1
102
RTVSPost2010Prop49
280
     0
102
RTVSPost2010PropOp49
 70
     1
102
RTVSPost2010Prop50
 90
       50
102
RTVSPost2010PropOp50
 70
     1
102
RTVSPost2010Prop51ColorIndex
 90
      256
102
RTVSPost2010Prop51ColorRGB
 90
-16777216
102
RTVSPost2010PropOp51
 70
     0
102
RTVSPost2010Prop52
140
1.0
102
RTVSPost2010PropOp52
 70
     0
102
RTVSPost2010Prop53
 90
        2
102
RTVSPost2010PropOp53
 70
     1
102
RTVSPost2010Prop54
  1
strokes_ogs.tif
102
RTVSPost2010PropOp54
 70
     1
102
RTVSPost2010Prop55
280
     0
102
RTVSPost2010PropOp55
 70
     1
102
RTVSPost2010Prop56
140
1.0
102
RTVSPost2010PropOp56
 70
     1
102
RTVSPost2010Prop57
140
1.0
102
RTVSPost2010PropOp57
 70
     1
102
RTVSPropertyOp0
 70
     1
102
RTVSPropertyOp1
 70
     1
102
RTVSPropertyOp2
 70
     1
102
RTVSPropertyOp3
 70
     1
102
RTVSPropertyOp4
 70
     1
102
RTVSPropertyOp5
 70
     1
102
RTVSPropertyOp6
 70
     1
102
RTVSPropertyOp7
 70
     1
102
RTVSPropertyOp8
 70
     1
102
RTVSPropertyOp9
 70
     1
102
RTVSPropertyOp10
 70
     1
102
RTVSPropertyOp11
 70
     1
102
RTVSPropertyOp12
 70
     1
102
RTVSPropertyOp13
 70
     1
102
RTVSPropertyOp14
 70
     1
102
RTVSPropertyOp15
 70
     1
102
RTVSPropertyOp16
 70
     1
102
RTVSPropertyOp17
 70
     1
102
RTVSPropertyOp18
 70
     1
102
RTVSPropertyOp19
 70
     1
102
RTVSPropertyOp20
 70
     1
102
RTVSPropertyOp21
 70
     1
102
RTVSPropertyOp22
 70
     1
102
RTVSPropertyOp23
 70
     1
102
RTVSPropertyOp24
 70
     1
102
RTVSPropertyOp25
 70
     1
102
RTVSPropertyOp26
 70
     1
102
RTVSPropertyOp27
 70
     1
102
RTVSPropertyOp28
 70
     1
102
RTVSPropertyOp29
 70
     1
102
RTVSPropertyOp30
 70
     1
102
RTVSPropertyOp31
 70
     1
102
RTVSPropertyOp32
 70
     1
102
RTVSPropertyOp33
 70
     1
102
RTVSPropertyOp34
 70
     1
102
RTVSPropertyOp35
 70
     1
102
RTVSPropertyOp36
 70
     1
102
RTVSPropertyOp37
 70
     1
102
RTVSPropertyOp38
 70
     1
102
RTVSPropertyOp39
 70
     1
102
RTVSPropertyOp40
 70
     1
102
RTVSPropertyOp41
 70
     1
102
RTVSPropertyOp42
 70
     1
102
RTVSPropertyOp43
 70
     1
102
RTVSPropertyOp44
 70
     1
102
RTVSPropertyOp45
 70
     1
102
RTVSPropertyOp46
 70
     1
102
RTVSPropertyOp47
 70
     1
102
RTVSPropertyOp48
 70
     1
102
RTVSPropertyOp49
 70
     1
102
RTVSPropertyOp50
 70
     1
102
RTVSPropertyOp51
 70
     0
102
RTVSPropertyOp52
 70
     0
102
RTVSPropertyOp53
 70
     1
102
RTVSPropertyOp54
 70
     1
102
RTVSPropertyOp55
 70
     1
102
RTVSPropertyOp56
 70
     1
102
RTVSPropertyOp57
 70
     1
102
RTVSPropertyOp58
 70
     1
102
RTVSPropertyOp59
 70
     1
102
RTVSPropertyOp60
 70
     1
102
RTVSPropertyOp61
 70
     1
102
RTVSPropertyOp62
 70
     1
  0
XRECORD
  5
3083
102
{ACAD_REACTORS
330
3082
102
}
330
3082
100
AcDbXrecord
280
     1
102
RTVSPost2010Prop28
280
     0
102
RTVSPost2010PropOp28
 70
     1
102
RTVSPost2010Prop29
280
     1
102
RTVSPost2010PropOp29
 70
     1
102
RTVSPost2010Prop30
280
     1
102
RTVSPost2010PropOp30
 70
     1
102
RTVSPost2010Prop31
280
     0
102
RTVSPost2010PropOp31
 70
     1
102
RTVSPost2010Prop32
280
     0
102
RTVSPost2010PropOp32
 70
     1
102
RTVSPost2010Prop33
280
     0
102
RTVSPost2010PropOp33
 70
     1
102
RTVSPost2010Prop34
280
     0
102
RTVSPost2010PropOp34
 70
     1
102
RTVSPost2010Prop35
280
     0
102
RTVSPost2010PropOp35
 70
     1
102
RTVSPost2010Prop36
280
     0
102
RTVSPost2010PropOp36
 70
     1
102
RTVSPost2010Prop37
 90
       50
102
RTVSPost2010PropOp37
 70
     1
102
RTVSPost2010Prop38
140
0.0
102
RTVSPost2010PropOp38
 70
     1
102
RTVSPost2010Prop39
140
1.0
102
RTVSPost2010PropOp39
 70
     1
102
RTVSPost2010Prop40
 90
        0
102
RTVSPost2010PropOp40
 70
     1
102
RTVSPost2010Prop41ColorIndex
 90
       18
102
RTVSPost2010Prop41ColorRGB
 90
        0
102
RTVSPost2010PropOp41
 70
     1
102
RTVSPost2010Prop42
 90
       50
102
RTVSPost2010PropOp42
 70
     1
102
RTVSPost2010Prop43
 90
        3
102
RTVSPost2010PropOp43
 70
     1
102
RTVSPost2010Prop44ColorIndex
 90
        5
102
RTVSPost2010Prop44ColorRGB
 90
      255
102
RTVSPost2010PropOp44
 70
     1
102
RTVSPost2010Prop45
280
     0
102
RTVSPost2010PropOp45
 70
     1
102
RTVSPost2010Prop46
 90
       50
102
RTVSPost2010PropOp46
 70
     1
102
RTVSPost2010Prop47
 90
       50
102
RTVSPost2010PropOp47
 70
     1
102
RTVSPost2010Prop48
 90
       50
102
RTVSPost2010PropOp48
 70
     1
102
RTVSPost2010Prop49
280
     0
102
RTVSPost2010PropOp49
 70
     1
102
RTVSPost2010Prop50
 90
       50
102
RTVSPost2010PropOp50
 70
     1
102
RTVSPost2010Prop51ColorIndex
 90
      256
102
RTVSPost2010Prop51ColorRGB
 90
-16777216
102
RTVSPost2010PropOp51
 70
     0
102
RTVSPost2010Prop52
140
1.0
102
RTVSPost2010PropOp52
 70
     0
102
RTVSPost2010Prop53
 90
        2
102
RTVSPost2010PropOp53
 70
     1
102
RTVSPost2010Prop54
  1
strokes_ogs.tif
102
RTVSPost2010PropOp54
 70
     1
102
RTVSPost2010Prop55
280
     0
102
RTVSPost2010PropOp55
 70
     1
102
RTVSPost2010Prop56
140
1.0
102
RTVSPost2010PropOp56
 70
     1
102
RTVSPost2010Prop57
140
1.0
102
RTVSPost2010PropOp57
 70
     1
102
RTVSPropertyOp0
 70
     1
102
RTVSPropertyOp1
 70
     1
102
RTVSPropertyOp2
 70
     1
102
RTVSPropertyOp3
 70
     1
102
RTVSPropertyOp4
 70
     1
102
RTVSPropertyOp5
 70
     1
102
RTVSPropertyOp6
 70
     1
102
RTVSPropertyOp7
 70
     1
102
RTVSPropertyOp8
 70
     1
102
RTVSPropertyOp9
 70
     1
102
RTVSPropertyOp10
 70
     1
102
RTVSPropertyOp11
 70
     1
102
RTVSPropertyOp12
 70
     1
102
RTVSPropertyOp13
 70
     1
102
RTVSPropertyOp14
 70
     1
102
RTVSPropertyOp15
 70
     1
102
RTVSPropertyOp16
 70
     1
102
RTVSPropertyOp17
 70
     1
102
RTVSPropertyOp18
 70
     1
102
RTVSPropertyOp19
 70
     1
102
RTVSPropertyOp20
 70
     1
102
RTVSPropertyOp21
 70
     1
102
RTVSPropertyOp22
 70
     1
102
RTVSPropertyOp23
 70
     1
102
RTVSPropertyOp24
 70
     1
102
RTVSPropertyOp25
 70
     1
102
RTVSPropertyOp26
 70
     1
102
RTVSPropertyOp27
 70
     1
102
RTVSPropertyOp28
 70
     1
102
RTVSPropertyOp29
 70
     1
102
RTVSPropertyOp30
 70
     1
102
RTVSPropertyOp31
 70
     1
102
RTVSPropertyOp32
 70
     1
102
RTVSPropertyOp33
 70
     1
102
RTVSPropertyOp34
 70
     1
102
RTVSPropertyOp35
 70
     1
102
RTVSPropertyOp36
 70
     1
102
RTVSPropertyOp37
 70
     1
102
RTVSPropertyOp38
 70
     1
102
RTVSPropertyOp39
 70
     1
102
RTVSPropertyOp40
 70
     1
102
RTVSPropertyOp41
 70
     1
102
RTVSPropertyOp42
 70
     1
102
RTVSPropertyOp43
 70
     1
102
RTVSPropertyOp44
 70
     1
102
RTVSPropertyOp45
 70
     1
102
RTVSPropertyOp46
 70
     1
102
RTVSPropertyOp47
 70
     1
102
RTVSPropertyOp48
 70
     1
102
RTVSPropertyOp49
 70
     1
102
RTVSPropertyOp50
 70
     1
102
RTVSPropertyOp51
 70
     0
102
RTVSPropertyOp52
 70
     0
102
RTVSPropertyOp53
 70
     1
102
RTVSPropertyOp54
 70
     1
102
RTVSPropertyOp55
 70
     1
102
RTVSPropertyOp56
 70
     1
102
RTVSPropertyOp57
 70
     1
102
RTVSPropertyOp58
 70
     1
102
RTVSPropertyOp59
 70
     1
102
RTVSPropertyOp60
 70
     1
102
RTVSPropertyOp61
 70
     1
102
RTVSPropertyOp62
 70
     1
  0
XRECORD
  5
3081
102
{ACAD_REACTORS
330
3080
102
}
330
3080
100
AcDbXrecord
280
     1
102
RTVSPost2010Prop28
280
     0
102
RTVSPost2010PropOp28
 70
     1
102
RTVSPost2010Prop29
280
     1
102
RTVSPost2010PropOp29
 70
     1
102
RTVSPost2010Prop30
280
     1
102
RTVSPost2010PropOp30
 70
     1
102
RTVSPost2010Prop31
280
     0
102
RTVSPost2010PropOp31
 70
     1
102
RTVSPost2010Prop32
280
     0
102
RTVSPost2010PropOp32
 70
     1
102
RTVSPost2010Prop33
280
     0
102
RTVSPost2010PropOp33
 70
     1
102
RTVSPost2010Prop34
280
     0
102
RTVSPost2010PropOp34
 70
     1
102
RTVSPost2010Prop35
280
     0
102
RTVSPost2010PropOp35
 70
     1
102
RTVSPost2010Prop36
280
     0
102
RTVSPost2010PropOp36
 70
     1
102
RTVSPost2010Prop37
 90
       50
102
RTVSPost2010PropOp37
 70
     1
102
RTVSPost2010Prop38
140
0.0
102
RTVSPost2010PropOp38
 70
     1
102
RTVSPost2010Prop39
140
1.0
102
RTVSPost2010PropOp39
 70
     1
102
RTVSPost2010Prop40
 90
        0
102
RTVSPost2010PropOp40
 70
     1
102
RTVSPost2010Prop41ColorIndex
 90
       18
102
RTVSPost2010Prop41ColorRGB
 90
        0
102
RTVSPost2010PropOp41
 70
     1
102
RTVSPost2010Prop42
 90
       50
102
RTVSPost2010PropOp42
 70
     1
102
RTVSPost2010Prop43
 90
        3
102
RTVSPost2010PropOp43
 70
     1
102
RTVSPost2010Prop44ColorIndex
 90
        5
102
RTVSPost2010Prop44ColorRGB
 90
      255
102
RTVSPost2010PropOp44
 70
     1
102
RTVSPost2010Prop45
280
     0
102
RTVSPost2010PropOp45
 70
     1
102
RTVSPost2010Prop46
 90
       50
102
RTVSPost2010PropOp46
 70
     1
102
RTVSPost2010Prop47
 90
       50
102
RTVSPost2010PropOp47
 70
     1
102
RTVSPost2010Prop48
 90
       50
102
RTVSPost2010PropOp48
 70
     1
102
RTVSPost2010Prop49
280
     0
102
RTVSPost2010PropOp49
 70
     1
102
RTVSPost2010Prop50
 90
       50
102
RTVSPost2010PropOp50
 70
     1
102
RTVSPost2010Prop51ColorIndex
 90
      256
102
RTVSPost2010Prop51ColorRGB
 90
-16777216
102
RTVSPost2010PropOp51
 70
     0
102
RTVSPost2010Prop52
140
1.0
102
RTVSPost2010PropOp52
 70
     0
102
RTVSPost2010Prop53
 90
        2
102
RTVSPost2010PropOp53
 70
     1
102
RTVSPost2010Prop54
  1
strokes_ogs.tif
102
RTVSPost2010PropOp54
 70
     1
102
RTVSPost2010Prop55
280
     0
102
RTVSPost2010PropOp55
 70
     1
102
RTVSPost2010Prop56
140
1.0
102
RTVSPost2010PropOp56
 70
     1
102
RTVSPost2010Prop57
140
1.0
102
RTVSPost2010PropOp57
 70
     1
102
RTVSPropertyOp0
 70
     1
102
RTVSPropertyOp1
 70
     1
102
RTVSPropertyOp2
 70
     1
102
RTVSPropertyOp3
 70
     1
102
RTVSPropertyOp4
 70
     1
102
RTVSPropertyOp5
 70
     1
102
RTVSPropertyOp6
 70
     1
102
RTVSPropertyOp7
 70
     1
102
RTVSPropertyOp8
 70
     1
102
RTVSPropertyOp9
 70
     1
102
RTVSPropertyOp10
 70
     1
102
RTVSPropertyOp11
 70
     1
102
RTVSPropertyOp12
 70
     1
102
RTVSPropertyOp13
 70
     1
102
RTVSPropertyOp14
 70
     1
102
RTVSPropertyOp15
 70
     1
102
RTVSPropertyOp16
 70
     1
102
RTVSPropertyOp17
 70
     1
102
RTVSPropertyOp18
 70
     1
102
RTVSPropertyOp19
 70
     1
102
RTVSPropertyOp20
 70
     1
102
RTVSPropertyOp21
 70
     1
102
RTVSPropertyOp22
 70
     1
102
RTVSPropertyOp23
 70
     1
102
RTVSPropertyOp24
 70
     1
102
RTVSPropertyOp25
 70
     1
102
RTVSPropertyOp26
 70
     1
102
RTVSPropertyOp27
 70
     1
102
RTVSPropertyOp28
 70
     1
102
RTVSPropertyOp29
 70
     1
102
RTVSPropertyOp30
 70
     1
102
RTVSPropertyOp31
 70
     1
102
RTVSPropertyOp32
 70
     1
102
RTVSPropertyOp33
 70
     1
102
RTVSPropertyOp34
 70
     1
102
RTVSPropertyOp35
 70
     1
102
RTVSPropertyOp36
 70
     1
102
RTVSPropertyOp37
 70
     1
102
RTVSPropertyOp38
 70
     1
102
RTVSPropertyOp39
 70
     1
102
RTVSPropertyOp40
 70
     1
102
RTVSPropertyOp41
 70
     1
102
RTVSPropertyOp42
 70
     1
102
RTVSPropertyOp43
 70
     1
102
RTVSPropertyOp44
 70
     1
102
RTVSPropertyOp45
 70
     1
102
RTVSPropertyOp46
 70
     1
102
RTVSPropertyOp47
 70
     1
102
RTVSPropertyOp48
 70
     1
102
RTVSPropertyOp49
 70
     1
102
RTVSPropertyOp50
 70
     1
102
RTVSPropertyOp51
 70
     0
102
RTVSPropertyOp52
 70
     0
102
RTVSPropertyOp53
 70
     1
102
RTVSPropertyOp54
 70
     1
102
RTVSPropertyOp55
 70
     1
102
RTVSPropertyOp56
 70
     1
102
RTVSPropertyOp57
 70
     1
102
RTVSPropertyOp58
 70
     1
102
RTVSPropertyOp59
 70
     1
102
RTVSPropertyOp60
 70
     1
102
RTVSPropertyOp61
 70
     1
102
RTVSPropertyOp62
 70
     1
  0
XRECORD
  5
307B
102
{ACAD_REACTORS
330
307A
102
}
330
307A
100
AcDbXrecord
280
     1
102
RTVSPost2010Prop28
280
     0
102
RTVSPost2010PropOp28
 70
     1
102
RTVSPost2010Prop29
280
     1
102
RTVSPost2010PropOp29
 70
     1
102
RTVSPost2010Prop30
280
     1
102
RTVSPost2010PropOp30
 70
     1
102
RTVSPost2010Prop31
280
     0
102
RTVSPost2010PropOp31
 70
     1
102
RTVSPost2010Prop32
280
     0
102
RTVSPost2010PropOp32
 70
     1
102
RTVSPost2010Prop33
280
     0
102
RTVSPost2010PropOp33
 70
     1
102
RTVSPost2010Prop34
280
     0
102
RTVSPost2010PropOp34
 70
     1
102
RTVSPost2010Prop35
280
     0
102
RTVSPost2010PropOp35
 70
     1
102
RTVSPost2010Prop36
280
     0
102
RTVSPost2010PropOp36
 70
     1
102
RTVSPost2010Prop37
 90
       50
102
RTVSPost2010PropOp37
 70
     1
102
RTVSPost2010Prop38
140
0.0
102
RTVSPost2010PropOp38
 70
     1
102
RTVSPost2010Prop39
140
1.0
102
RTVSPost2010PropOp39
 70
     1
102
RTVSPost2010Prop40
 90
        0
102
RTVSPost2010PropOp40
 70
     1
102
RTVSPost2010Prop41ColorIndex
 90
       18
102
RTVSPost2010Prop41ColorRGB
 90
        0
102
RTVSPost2010PropOp41
 70
     1
102
RTVSPost2010Prop42
 90
       50
102
RTVSPost2010PropOp42
 70
     1
102
RTVSPost2010Prop43
 90
        3
102
RTVSPost2010PropOp43
 70
     1
102
RTVSPost2010Prop44ColorIndex
 90
        5
102
RTVSPost2010Prop44ColorRGB
 90
      255
102
RTVSPost2010PropOp44
 70
     1
102
RTVSPost2010Prop45
280
     0
102
RTVSPost2010PropOp45
 70
     1
102
RTVSPost2010Prop46
 90
       50
102
RTVSPost2010PropOp46
 70
     1
102
RTVSPost2010Prop47
 90
       50
102
RTVSPost2010PropOp47
 70
     1
102
RTVSPost2010Prop48
 90
       50
102
RTVSPost2010PropOp48
 70
     1
102
RTVSPost2010Prop49
280
     0
102
RTVSPost2010PropOp49
 70
     1
102
RTVSPost2010Prop50
 90
       50
102
RTVSPost2010PropOp50
 70
     1
102
RTVSPost2010Prop51ColorIndex
 90
      256
102
RTVSPost2010Prop51ColorRGB
 90
-16777216
102
RTVSPost2010PropOp51
 70
     0
102
RTVSPost2010Prop52
140
1.0
102
RTVSPost2010PropOp52
 70
     0
102
RTVSPost2010Prop53
 90
        2
102
RTVSPost2010PropOp53
 70
     1
102
RTVSPost2010Prop54
  1
strokes_ogs.tif
102
RTVSPost2010PropOp54
 70
     1
102
RTVSPost2010Prop55
280
     0
102
RTVSPost2010PropOp55
 70
     1
102
RTVSPost2010Prop56
140
1.0
102
RTVSPost2010PropOp56
 70
     1
102
RTVSPost2010Prop57
140
1.0
102
RTVSPost2010PropOp57
 70
     1
102
RTVSPropertyOp0
 70
     1
102
RTVSPropertyOp1
 70
     1
102
RTVSPropertyOp2
 70
     1
102
RTVSPropertyOp3
 70
     1
102
RTVSPropertyOp4
 70
     1
102
RTVSPropertyOp5
 70
     1
102
RTVSPropertyOp6
 70
     1
102
RTVSPropertyOp7
 70
     1
102
RTVSPropertyOp8
 70
     1
102
RTVSPropertyOp9
 70
     1
102
RTVSPropertyOp10
 70
     1
102
RTVSPropertyOp11
 70
     1
102
RTVSPropertyOp12
 70
     1
102
RTVSPropertyOp13
 70
     1
102
RTVSPropertyOp14
 70
     1
102
RTVSPropertyOp15
 70
     1
102
RTVSPropertyOp16
 70
     1
102
RTVSPropertyOp17
 70
     1
102
RTVSPropertyOp18
 70
     1
102
RTVSPropertyOp19
 70
     1
102
RTVSPropertyOp20
 70
     1
102
RTVSPropertyOp21
 70
     1
102
RTVSPropertyOp22
 70
     1
102
RTVSPropertyOp23
 70
     1
102
RTVSPropertyOp24
 70
     1
102
RTVSPropertyOp25
 70
     1
102
RTVSPropertyOp26
 70
     1
102
RTVSPropertyOp27
 70
     1
102
RTVSPropertyOp28
 70
     1
102
RTVSPropertyOp29
 70
     1
102
RTVSPropertyOp30
 70
     1
102
RTVSPropertyOp31
 70
     1
102
RTVSPropertyOp32
 70
     1
102
RTVSPropertyOp33
 70
     1
102
RTVSPropertyOp34
 70
     1
102
RTVSPropertyOp35
 70
     1
102
RTVSPropertyOp36
 70
     1
102
RTVSPropertyOp37
 70
     1
102
RTVSPropertyOp38
 70
     1
102
RTVSPropertyOp39
 70
     1
102
RTVSPropertyOp40
 70
     1
102
RTVSPropertyOp41
 70
     1
102
RTVSPropertyOp42
 70
     1
102
RTVSPropertyOp43
 70
     1
102
RTVSPropertyOp44
 70
     1
102
RTVSPropertyOp45
 70
     1
102
RTVSPropertyOp46
 70
     1
102
RTVSPropertyOp47
 70
     1
102
RTVSPropertyOp48
 70
     1
102
RTVSPropertyOp49
 70
     1
102
RTVSPropertyOp50
 70
     1
102
RTVSPropertyOp51
 70
     0
102
RTVSPropertyOp52
 70
     0
102
RTVSPropertyOp53
 70
     1
102
RTVSPropertyOp54
 70
     1
102
RTVSPropertyOp55
 70
     1
102
RTVSPropertyOp56
 70
     1
102
RTVSPropertyOp57
 70
     1
102
RTVSPropertyOp58
 70
     1
102
RTVSPropertyOp59
 70
     1
102
RTVSPropertyOp60
 70
     1
102
RTVSPropertyOp61
 70
     1
102
RTVSPropertyOp62
 70
     1
  0
XRECORD
  5
307D
102
{ACAD_REACTORS
330
307C
102
}
330
307C
100
AcDbXrecord
280
     1
102
RTVSPost2010Prop28
280
     0
102
RTVSPost2010PropOp28
 70
     1
102
RTVSPost2010Prop29
280
     1
102
RTVSPost2010PropOp29
 70
     1
102
RTVSPost2010Prop30
280
     1
102
RTVSPost2010PropOp30
 70
     1
102
RTVSPost2010Prop31
280
     0
102
RTVSPost2010PropOp31
 70
     1
102
RTVSPost2010Prop32
280
     0
102
RTVSPost2010PropOp32
 70
     1
102
RTVSPost2010Prop33
280
     0
102
RTVSPost2010PropOp33
 70
     1
102
RTVSPost2010Prop34
280
     0
102
RTVSPost2010PropOp34
 70
     1
102
RTVSPost2010Prop35
280
     0
102
RTVSPost2010PropOp35
 70
     1
102
RTVSPost2010Prop36
280
     0
102
RTVSPost2010PropOp36
 70
     1
102
RTVSPost2010Prop37
 90
       50
102
RTVSPost2010PropOp37
 70
     1
102
RTVSPost2010Prop38
140
0.0
102
RTVSPost2010PropOp38
 70
     1
102
RTVSPost2010Prop39
140
1.0
102
RTVSPost2010PropOp39
 70
     1
102
RTVSPost2010Prop40
 90
        0
102
RTVSPost2010PropOp40
 70
     1
102
RTVSPost2010Prop41ColorIndex
 90
       18
102
RTVSPost2010Prop41ColorRGB
 90
        0
102
RTVSPost2010PropOp41
 70
     1
102
RTVSPost2010Prop42
 90
       50
102
RTVSPost2010PropOp42
 70
     1
102
RTVSPost2010Prop43
 90
        3
102
RTVSPost2010PropOp43
 70
     1
102
RTVSPost2010Prop44ColorIndex
 90
        5
102
RTVSPost2010Prop44ColorRGB
 90
      255
102
RTVSPost2010PropOp44
 70
     1
102
RTVSPost2010Prop45
280
     0
102
RTVSPost2010PropOp45
 70
     1
102
RTVSPost2010Prop46
 90
       50
102
RTVSPost2010PropOp46
 70
     1
102
RTVSPost2010Prop47
 90
       50
102
RTVSPost2010PropOp47
 70
     1
102
RTVSPost2010Prop48
 90
       50
102
RTVSPost2010PropOp48
 70
     1
102
RTVSPost2010Prop49
280
     0
102
RTVSPost2010PropOp49
 70
     1
102
RTVSPost2010Prop50
 90
       50
102
RTVSPost2010PropOp50
 70
     1
102
RTVSPost2010Prop51ColorIndex
 90
      256
102
RTVSPost2010Prop51ColorRGB
 90
-16777216
102
RTVSPost2010PropOp51
 70
     0
102
RTVSPost2010Prop52
140
1.0
102
RTVSPost2010PropOp52
 70
     0
102
RTVSPost2010Prop53
 90
        2
102
RTVSPost2010PropOp53
 70
     1
102
RTVSPost2010Prop54
  1
strokes_ogs.tif
102
RTVSPost2010PropOp54
 70
     1
102
RTVSPost2010Prop55
280
     0
102
RTVSPost2010PropOp55
 70
     1
102
RTVSPost2010Prop56
140
1.0
102
RTVSPost2010PropOp56
 70
     1
102
RTVSPost2010Prop57
140
1.0
102
RTVSPost2010PropOp57
 70
     1
102
RTVSPropertyOp0
 70
     1
102
RTVSPropertyOp1
 70
     1
102
RTVSPropertyOp2
 70
     1
102
RTVSPropertyOp3
 70
     1
102
RTVSPropertyOp4
 70
     1
102
RTVSPropertyOp5
 70
     1
102
RTVSPropertyOp6
 70
     1
102
RTVSPropertyOp7
 70
     1
102
RTVSPropertyOp8
 70
     1
102
RTVSPropertyOp9
 70
     1
102
RTVSPropertyOp10
 70
     1
102
RTVSPropertyOp11
 70
     1
102
RTVSPropertyOp12
 70
     1
102
RTVSPropertyOp13
 70
     1
102
RTVSPropertyOp14
 70
     1
102
RTVSPropertyOp15
 70
     1
102
RTVSPropertyOp16
 70
     1
102
RTVSPropertyOp17
 70
     1
102
RTVSPropertyOp18
 70
     1
102
RTVSPropertyOp19
 70
     1
102
RTVSPropertyOp20
 70
     1
102
RTVSPropertyOp21
 70
     1
102
RTVSPropertyOp22
 70
     1
102
RTVSPropertyOp23
 70
     1
102
RTVSPropertyOp24
 70
     1
102
RTVSPropertyOp25
 70
     1
102
RTVSPropertyOp26
 70
     1
102
RTVSPropertyOp27
 70
     1
102
RTVSPropertyOp28
 70
     1
102
RTVSPropertyOp29
 70
     1
102
RTVSPropertyOp30
 70
     1
102
RTVSPropertyOp31
 70
     1
102
RTVSPropertyOp32
 70
     1
102
RTVSPropertyOp33
 70
     1
102
RTVSPropertyOp34
 70
     1
102
RTVSPropertyOp35
 70
     1
102
RTVSPropertyOp36
 70
     1
102
RTVSPropertyOp37
 70
     1
102
RTVSPropertyOp38
 70
     1
102
RTVSPropertyOp39
 70
     1
102
RTVSPropertyOp40
 70
     1
102
RTVSPropertyOp41
 70
     1
102
RTVSPropertyOp42
 70
     1
102
RTVSPropertyOp43
 70
     1
102
RTVSPropertyOp44
 70
     1
102
RTVSPropertyOp45
 70
     1
102
RTVSPropertyOp46
 70
     1
102
RTVSPropertyOp47
 70
     1
102
RTVSPropertyOp48
 70
     1
102
RTVSPropertyOp49
 70
     1
102
RTVSPropertyOp50
 70
     1
102
RTVSPropertyOp51
 70
     0
102
RTVSPropertyOp52
 70
     0
102
RTVSPropertyOp53
 70
     1
102
RTVSPropertyOp54
 70
     1
102
RTVSPropertyOp55
 70
     1
102
RTVSPropertyOp56
 70
     1
102
RTVSPropertyOp57
 70
     1
102
RTVSPropertyOp58
 70
     1
102
RTVSPropertyOp59
 70
     1
102
RTVSPropertyOp60
 70
     1
102
RTVSPropertyOp61
 70
     1
102
RTVSPropertyOp62
 70
     1
  0
XRECORD
  5
3073
102
{ACAD_REACTORS
330
3072
102
}
330
3072
100
AcDbXrecord
280
     1
102
RTVSPost2010Prop28
280
     0
102
RTVSPost2010PropOp28
 70
     1
102
RTVSPost2010Prop29
280
     1
102
RTVSPost2010PropOp29
 70
     1
102
RTVSPost2010Prop30
280
     1
102
RTVSPost2010PropOp30
 70
     1
102
RTVSPost2010Prop31
280
     0
102
RTVSPost2010PropOp31
 70
     1
102
RTVSPost2010Prop32
280
     0
102
RTVSPost2010PropOp32
 70
     1
102
RTVSPost2010Prop33
280
     0
102
RTVSPost2010PropOp33
 70
     1
102
RTVSPost2010Prop34
280
     0
102
RTVSPost2010PropOp34
 70
     1
102
RTVSPost2010Prop35
280
     0
102
RTVSPost2010PropOp35
 70
     1
102
RTVSPost2010Prop36
280
     0
102
RTVSPost2010PropOp36
 70
     1
102
RTVSPost2010Prop37
 90
       50
102
RTVSPost2010PropOp37
 70
     1
102
RTVSPost2010Prop38
140
0.0
102
RTVSPost2010PropOp38
 70
     1
102
RTVSPost2010Prop39
140
1.0
102
RTVSPost2010PropOp39
 70
     1
102
RTVSPost2010Prop40
 90
        0
102
RTVSPost2010PropOp40
 70
     1
102
RTVSPost2010Prop41ColorIndex
 90
       18
102
RTVSPost2010Prop41ColorRGB
 90
        0
102
RTVSPost2010PropOp41
 70
     1
102
RTVSPost2010Prop42
 90
       50
102
RTVSPost2010PropOp42
 70
     1
102
RTVSPost2010Prop43
 90
        3
102
RTVSPost2010PropOp43
 70
     1
102
RTVSPost2010Prop44ColorIndex
 90
        5
102
RTVSPost2010Prop44ColorRGB
 90
      255
102
RTVSPost2010PropOp44
 70
     1
102
RTVSPost2010Prop45
280
     0
102
RTVSPost2010PropOp45
 70
     1
102
RTVSPost2010Prop46
 90
       50
102
RTVSPost2010PropOp46
 70
     1
102
RTVSPost2010Prop47
 90
       50
102
RTVSPost2010PropOp47
 70
     1
102
RTVSPost2010Prop48
 90
       50
102
RTVSPost2010PropOp48
 70
     1
102
RTVSPost2010Prop49
280
     0
102
RTVSPost2010PropOp49
 70
     1
102
RTVSPost2010Prop50
 90
       50
102
RTVSPost2010PropOp50
 70
     1
102
RTVSPost2010Prop51ColorIndex
 90
      256
102
RTVSPost2010Prop51ColorRGB
 90
-16777216
102
RTVSPost2010PropOp51
 70
     0
102
RTVSPost2010Prop52
140
1.0
102
RTVSPost2010PropOp52
 70
     0
102
RTVSPost2010Prop53
 90
        2
102
RTVSPost2010PropOp53
 70
     1
102
RTVSPost2010Prop54
  1
strokes_ogs.tif
102
RTVSPost2010PropOp54
 70
     1
102
RTVSPost2010Prop55
280
     0
102
RTVSPost2010PropOp55
 70
     1
102
RTVSPost2010Prop56
140
1.0
102
RTVSPost2010PropOp56
 70
     1
102
RTVSPost2010Prop57
140
1.0
102
RTVSPost2010PropOp57
 70
     1
102
RTVSPropertyOp0
 70
     1
102
RTVSPropertyOp1
 70
     1
102
RTVSPropertyOp2
 70
     1
102
RTVSPropertyOp3
 70
     1
102
RTVSPropertyOp4
 70
     1
102
RTVSPropertyOp5
 70
     1
102
RTVSPropertyOp6
 70
     1
102
RTVSPropertyOp7
 70
     1
102
RTVSPropertyOp8
 70
     1
102
RTVSPropertyOp9
 70
     1
102
RTVSPropertyOp10
 70
     1
102
RTVSPropertyOp11
 70
     1
102
RTVSPropertyOp12
 70
     1
102
RTVSPropertyOp13
 70
     1
102
RTVSPropertyOp14
 70
     1
102
RTVSPropertyOp15
 70
     1
102
RTVSPropertyOp16
 70
     1
102
RTVSPropertyOp17
 70
     1
102
RTVSPropertyOp18
 70
     1
102
RTVSPropertyOp19
 70
     1
102
RTVSPropertyOp20
 70
     1
102
RTVSPropertyOp21
 70
     1
102
RTVSPropertyOp22
 70
     1
102
RTVSPropertyOp23
 70
     1
102
RTVSPropertyOp24
 70
     1
102
RTVSPropertyOp25
 70
     1
102
RTVSPropertyOp26
 70
     1
102
RTVSPropertyOp27
 70
     1
102
RTVSPropertyOp28
 70
     1
102
RTVSPropertyOp29
 70
     1
102
RTVSPropertyOp30
 70
     1
102
RTVSPropertyOp31
 70
     1
102
RTVSPropertyOp32
 70
     1
102
RTVSPropertyOp33
 70
     1
102
RTVSPropertyOp34
 70
     1
102
RTVSPropertyOp35
 70
     1
102
RTVSPropertyOp36
 70
     1
102
RTVSPropertyOp37
 70
     1
102
RTVSPropertyOp38
 70
     1
102
RTVSPropertyOp39
 70
     1
102
RTVSPropertyOp40
 70
     1
102
RTVSPropertyOp41
 70
     1
102
RTVSPropertyOp42
 70
     1
102
RTVSPropertyOp43
 70
     1
102
RTVSPropertyOp44
 70
     1
102
RTVSPropertyOp45
 70
     1
102
RTVSPropertyOp46
 70
     1
102
RTVSPropertyOp47
 70
     1
102
RTVSPropertyOp48
 70
     1
102
RTVSPropertyOp49
 70
     1
102
RTVSPropertyOp50
 70
     1
102
RTVSPropertyOp51
 70
     0
102
RTVSPropertyOp52
 70
     0
102
RTVSPropertyOp53
 70
     1
102
RTVSPropertyOp54
 70
     1
102
RTVSPropertyOp55
 70
     1
102
RTVSPropertyOp56
 70
     1
102
RTVSPropertyOp57
 70
     1
102
RTVSPropertyOp58
 70
     1
102
RTVSPropertyOp59
 70
     1
102
RTVSPropertyOp60
 70
     1
102
RTVSPropertyOp61
 70
     1
102
RTVSPropertyOp62
 70
     1
  0
XRECORD
  5
3067
102
{ACAD_REACTORS
330
3066
102
}
330
3066
100
AcDbXrecord
280
     1
102
RTVSPost2010Prop28
280
     0
102
RTVSPost2010PropOp28
 70
     1
102
RTVSPost2010Prop29
280
     1
102
RTVSPost2010PropOp29
 70
     1
102
RTVSPost2010Prop30
280
     1
102
RTVSPost2010PropOp30
 70
     1
102
RTVSPost2010Prop31
280
     0
102
RTVSPost2010PropOp31
 70
     1
102
RTVSPost2010Prop32
280
     0
102
RTVSPost2010PropOp32
 70
     1
102
RTVSPost2010Prop33
280
     0
102
RTVSPost2010PropOp33
 70
     1
102
RTVSPost2010Prop34
280
     0
102
RTVSPost2010PropOp34
 70
     1
102
RTVSPost2010Prop35
280
     0
102
RTVSPost2010PropOp35
 70
     1
102
RTVSPost2010Prop36
280
     0
102
RTVSPost2010PropOp36
 70
     1
102
RTVSPost2010Prop37
 90
       50
102
RTVSPost2010PropOp37
 70
     1
102
RTVSPost2010Prop38
140
0.0
102
RTVSPost2010PropOp38
 70
     1
102
RTVSPost2010Prop39
140
1.0
102
RTVSPost2010PropOp39
 70
     1
102
RTVSPost2010Prop40
 90
        0
102
RTVSPost2010PropOp40
 70
     1
102
RTVSPost2010Prop41ColorIndex
 90
       18
102
RTVSPost2010Prop41ColorRGB
 90
        0
102
RTVSPost2010PropOp41
 70
     1
102
RTVSPost2010Prop42
 90
       50
102
RTVSPost2010PropOp42
 70
     1
102
RTVSPost2010Prop43
 90
        3
102
RTVSPost2010PropOp43
 70
     1
102
RTVSPost2010Prop44ColorIndex
 90
        5
102
RTVSPost2010Prop44ColorRGB
 90
      255
102
RTVSPost2010PropOp44
 70
     1
102
RTVSPost2010Prop45
280
     0
102
RTVSPost2010PropOp45
 70
     1
102
RTVSPost2010Prop46
 90
       50
102
RTVSPost2010PropOp46
 70
     1
102
RTVSPost2010Prop47
 90
       50
102
RTVSPost2010PropOp47
 70
     1
102
RTVSPost2010Prop48
 90
       50
102
RTVSPost2010PropOp48
 70
     1
102
RTVSPost2010Prop49
280
     0
102
RTVSPost2010PropOp49
 70
     1
102
RTVSPost2010Prop50
 90
       50
102
RTVSPost2010PropOp50
 70
     1
102
RTVSPost2010Prop51ColorIndex
 90
      256
102
RTVSPost2010Prop51ColorRGB
 90
-16777216
102
RTVSPost2010PropOp51
 70
     0
102
RTVSPost2010Prop52
140
1.0
102
RTVSPost2010PropOp52
 70
     0
102
RTVSPost2010Prop53
 90
        2
102
RTVSPost2010PropOp53
 70
     1
102
RTVSPost2010Prop54
  1
strokes_ogs.tif
102
RTVSPost2010PropOp54
 70
     1
102
RTVSPost2010Prop55
280
     0
102
RTVSPost2010PropOp55
 70
     1
102
RTVSPost2010Prop56
140
1.0
102
RTVSPost2010PropOp56
 70
     1
102
RTVSPost2010Prop57
140
1.0
102
RTVSPost2010PropOp57
 70
     1
102
RTVSPropertyOp0
 70
     1
102
RTVSPropertyOp1
 70
     1
102
RTVSPropertyOp2
 70
     1
102
RTVSPropertyOp3
 70
     1
102
RTVSPropertyOp4
 70
     1
102
RTVSPropertyOp5
 70
     1
102
RTVSPropertyOp6
 70
     1
102
RTVSPropertyOp7
 70
     1
102
RTVSPropertyOp8
 70
     1
102
RTVSPropertyOp9
 70
     1
102
RTVSPropertyOp10
 70
     1
102
RTVSPropertyOp11
 70
     1
102
RTVSPropertyOp12
 70
     1
102
RTVSPropertyOp13
 70
     1
102
RTVSPropertyOp14
 70
     1
102
RTVSPropertyOp15
 70
     1
102
RTVSPropertyOp16
 70
     1
102
RTVSPropertyOp17
 70
     1
102
RTVSPropertyOp18
 70
     1
102
RTVSPropertyOp19
 70
     1
102
RTVSPropertyOp20
 70
     1
102
RTVSPropertyOp21
 70
     1
102
RTVSPropertyOp22
 70
     1
102
RTVSPropertyOp23
 70
     1
102
RTVSPropertyOp24
 70
     1
102
RTVSPropertyOp25
 70
     1
102
RTVSPropertyOp26
 70
     1
102
RTVSPropertyOp27
 70
     1
102
RTVSPropertyOp28
 70
     1
102
RTVSPropertyOp29
 70
     1
102
RTVSPropertyOp30
 70
     1
102
RTVSPropertyOp31
 70
     1
102
RTVSPropertyOp32
 70
     1
102
RTVSPropertyOp33
 70
     1
102
RTVSPropertyOp34
 70
     1
102
RTVSPropertyOp35
 70
     1
102
RTVSPropertyOp36
 70
     1
102
RTVSPropertyOp37
 70
     1
102
RTVSPropertyOp38
 70
     1
102
RTVSPropertyOp39
 70
     1
102
RTVSPropertyOp40
 70
     1
102
RTVSPropertyOp41
 70
     1
102
RTVSPropertyOp42
 70
     1
102
RTVSPropertyOp43
 70
     1
102
RTVSPropertyOp44
 70
     1
102
RTVSPropertyOp45
 70
     1
102
RTVSPropertyOp46
 70
     1
102
RTVSPropertyOp47
 70
     1
102
RTVSPropertyOp48
 70
     1
102
RTVSPropertyOp49
 70
     1
102
RTVSPropertyOp50
 70
     1
102
RTVSPropertyOp51
 70
     0
102
RTVSPropertyOp52
 70
     0
102
RTVSPropertyOp53
 70
     1
102
RTVSPropertyOp54
 70
     1
102
RTVSPropertyOp55
 70
     1
102
RTVSPropertyOp56
 70
     1
102
RTVSPropertyOp57
 70
     1
102
RTVSPropertyOp58
 70
     1
102
RTVSPropertyOp59
 70
     1
102
RTVSPropertyOp60
 70
     1
102
RTVSPropertyOp61
 70
     1
102
RTVSPropertyOp62
 70
     1
  0
XRECORD
  5
307F
102
{ACAD_REACTORS
330
307E
102
}
330
307E
100
AcDbXrecord
280
     1
102
RTVSPost2010Prop28
280
     0
102
RTVSPost2010PropOp28
 70
     1
102
RTVSPost2010Prop29
280
     1
102
RTVSPost2010PropOp29
 70
     1
102
RTVSPost2010Prop30
280
     1
102
RTVSPost2010PropOp30
 70
     1
102
RTVSPost2010Prop31
280
     0
102
RTVSPost2010PropOp31
 70
     1
102
RTVSPost2010Prop32
280
     0
102
RTVSPost2010PropOp32
 70
     1
102
RTVSPost2010Prop33
280
     0
102
RTVSPost2010PropOp33
 70
     1
102
RTVSPost2010Prop34
280
     0
102
RTVSPost2010PropOp34
 70
     1
102
RTVSPost2010Prop35
280
     0
102
RTVSPost2010PropOp35
 70
     1
102
RTVSPost2010Prop36
280
     0
102
RTVSPost2010PropOp36
 70
     1
102
RTVSPost2010Prop37
 90
       50
102
RTVSPost2010PropOp37
 70
     1
102
RTVSPost2010Prop38
140
0.0
102
RTVSPost2010PropOp38
 70
     1
102
RTVSPost2010Prop39
140
1.0
102
RTVSPost2010PropOp39
 70
     1
102
RTVSPost2010Prop40
 90
        0
102
RTVSPost2010PropOp40
 70
     1
102
RTVSPost2010Prop41ColorIndex
 90
       18
102
RTVSPost2010Prop41ColorRGB
 90
        0
102
RTVSPost2010PropOp41
 70
     1
102
RTVSPost2010Prop42
 90
       50
102
RTVSPost2010PropOp42
 70
     1
102
RTVSPost2010Prop43
 90
        3
102
RTVSPost2010PropOp43
 70
     1
102
RTVSPost2010Prop44ColorIndex
 90
        5
102
RTVSPost2010Prop44ColorRGB
 90
      255
102
RTVSPost2010PropOp44
 70
     1
102
RTVSPost2010Prop45
280
     0
102
RTVSPost2010PropOp45
 70
     1
102
RTVSPost2010Prop46
 90
       50
102
RTVSPost2010PropOp46
 70
     1
102
RTVSPost2010Prop47
 90
       50
102
RTVSPost2010PropOp47
 70
     1
102
RTVSPost2010Prop48
 90
       50
102
RTVSPost2010PropOp48
 70
     1
102
RTVSPost2010Prop49
280
     0
102
RTVSPost2010PropOp49
 70
     1
102
RTVSPost2010Prop50
 90
       50
102
RTVSPost2010PropOp50
 70
     1
102
RTVSPost2010Prop51ColorIndex
 90
      256
102
RTVSPost2010Prop51ColorRGB
 90
-16777216
102
RTVSPost2010PropOp51
 70
     0
102
RTVSPost2010Prop52
140
1.0
102
RTVSPost2010PropOp52
 70
     0
102
RTVSPost2010Prop53
 90
        2
102
RTVSPost2010PropOp53
 70
     1
102
RTVSPost2010Prop54
  1
strokes_ogs.tif
102
RTVSPost2010PropOp54
 70
     1
102
RTVSPost2010Prop55
280
     0
102
RTVSPost2010PropOp55
 70
     1
102
RTVSPost2010Prop56
140
1.0
102
RTVSPost2010PropOp56
 70
     1
102
RTVSPost2010Prop57
140
1.0
102
RTVSPost2010PropOp57
 70
     1
102
RTVSPropertyOp0
 70
     1
102
RTVSPropertyOp1
 70
     1
102
RTVSPropertyOp2
 70
     1
102
RTVSPropertyOp3
 70
     1
102
RTVSPropertyOp4
 70
     1
102
RTVSPropertyOp5
 70
     1
102
RTVSPropertyOp6
 70
     1
102
RTVSPropertyOp7
 70
     1
102
RTVSPropertyOp8
 70
     1
102
RTVSPropertyOp9
 70
     1
102
RTVSPropertyOp10
 70
     1
102
RTVSPropertyOp11
 70
     1
102
RTVSPropertyOp12
 70
     1
102
RTVSPropertyOp13
 70
     1
102
RTVSPropertyOp14
 70
     1
102
RTVSPropertyOp15
 70
     1
102
RTVSPropertyOp16
 70
     1
102
RTVSPropertyOp17
 70
     1
102
RTVSPropertyOp18
 70
     1
102
RTVSPropertyOp19
 70
     1
102
RTVSPropertyOp20
 70
     1
102
RTVSPropertyOp21
 70
     1
102
RTVSPropertyOp22
 70
     1
102
RTVSPropertyOp23
 70
     1
102
RTVSPropertyOp24
 70
     1
102
RTVSPropertyOp25
 70
     1
102
RTVSPropertyOp26
 70
     1
102
RTVSPropertyOp27
 70
     1
102
RTVSPropertyOp28
 70
     1
102
RTVSPropertyOp29
 70
     1
102
RTVSPropertyOp30
 70
     1
102
RTVSPropertyOp31
 70
     1
102
RTVSPropertyOp32
 70
     1
102
RTVSPropertyOp33
 70
     1
102
RTVSPropertyOp34
 70
     1
102
RTVSPropertyOp35
 70
     1
102
RTVSPropertyOp36
 70
     1
102
RTVSPropertyOp37
 70
     1
102
RTVSPropertyOp38
 70
     1
102
RTVSPropertyOp39
 70
     1
102
RTVSPropertyOp40
 70
     1
102
RTVSPropertyOp41
 70
     1
102
RTVSPropertyOp42
 70
     1
102
RTVSPropertyOp43
 70
     1
102
RTVSPropertyOp44
 70
     1
102
RTVSPropertyOp45
 70
     1
102
RTVSPropertyOp46
 70
     1
102
RTVSPropertyOp47
 70
     1
102
RTVSPropertyOp48
 70
     1
102
RTVSPropertyOp49
 70
     1
102
RTVSPropertyOp50
 70
     1
102
RTVSPropertyOp51
 70
     0
102
RTVSPropertyOp52
 70
     0
102
RTVSPropertyOp53
 70
     1
102
RTVSPropertyOp54
 70
     1
102
RTVSPropertyOp55
 70
     1
102
RTVSPropertyOp56
 70
     1
102
RTVSPropertyOp57
 70
     1
102
RTVSPropertyOp58
 70
     1
102
RTVSPropertyOp59
 70
     1
102
RTVSPropertyOp60
 70
     1
102
RTVSPropertyOp61
 70
     1
102
RTVSPropertyOp62
 70
     1
  0
ENDSEC
  0
EOF
