  0
SECTION
  2
HEADER
  9
$ACADVER
  1
AC1015
  9
$ACADMAINTVER
 70
    20
  9
$DWGCODEPAGE
  3
ANSI_932
  9
$INSBASE
 10
0.0
 20
0.0
 30
0.0
  9
$EXTMIN
 10
9.9999975266385
 20
10.0
 30
0.0
  9
$EXTMAX
 10
584.7878386339846
 20
421.2359817163433
 30
0.0
  9
$LIMMIN
 10
0.0000015376081137
 20
-0.0000001931532552
  9
$LIMMAX
 10
655.0000015376078
 20
451.5530301098768
  9
$ORTHOMODE
 70
     1
  9
$REGENMODE
 70
     1
  9
$FILLMODE
 70
     1
  9
$QTEXTMODE
 70
     0
  9
$MIRRTEXT
 70
     1
  9
$LTSCALE
 40
1.0
  9
$ATTMODE
 70
     1
  9
$TEXTSIZE
 40
2.5
  9
$TRACEWID
 40
1.0
  9
$TEXTSTYLE
  7
STANDARD
  9
$CLAYER
  8
0
  9
$CELTYPE
  6
BYLAYER
  9
$CECOLOR
 62
   256
  9
$CELTSCALE
 40
1.0
  9
$DISPSILH
 70
     0
  9
$DIMSCALE
 40
1.0
  9
$DIMASZ
 40
3.0
  9
$DIMEXO
 40
1.0
  9
$DIMDLI
 40
10.0
  9
$DIMRND
 40
0.0
  9
$DIMDLE
 40
0.0
  9
$DIMEXE
 40
1.0
  9
$DIMTP
 40
0.0
  9
$DIMTM
 40
0.0
  9
$DIMTXT
 40
3.2
  9
$DIMCEN
 40
0.0
  9
$DIMTSZ
 40
0.0
  9
$DIMTOL
 70
     0
  9
$DIMLIM
 70
     0
  9
$DIMTIH
 70
     0
  9
$DIMTOH
 70
     0
  9
$DIMSE1
 70
     0
  9
$DIMSE2
 70
     0
  9
$DIMTAD
 70
     3
  9
$DIMZIN
 70
     8
  9
$DIMBLK
  1

  9
$DIMASO
 70
     1
  9
$DIMSHO
 70
     1
  9
$DIMPOST
  1

  9
$DIMAPOST
  1

  9
$DIMALT
 70
     0
  9
$DIMALTD
 70
     2
  9
$DIMALTF
 40
25.4
  9
$DIMLFAC
 40
1.0
  9
$DIMTOFL
 70
     1
  9
$DIMTVP
 40
0.0
  9
$DIMTIX
 70
     0
  9
$DIMSOXD
 70
     0
  9
$DIMSAH
 70
     1
  9
$DIMBLK1
  1
OPEN
  9
$DIMBLK2
  1
OPEN
  9
$DIMSTYLE
  2
STANDARD
  9
$DIMCLRD
 70
     0
  9
$DIMCLRE
 70
     0
  9
$DIMCLRT
 70
     0
  9
$DIMTFAC
 40
1.0
  9
$DIMGAP
 40
1.0
  9
$DIMJUST
 70
     0
  9
$DIMSD1
 70
     0
  9
$DIMSD2
 70
     0
  9
$DIMTOLJ
 70
     1
  9
$DIMTZIN
 70
     0
  9
$DIMALTZ
 70
     0
  9
$DIMALTTZ
 70
     0
  9
$DIMUPT
 70
     0
  9
$DIMDEC
 70
     4
  9
$DIMTDEC
 70
     4
  9
$DIMALTU
 70
     2
  9
$DIMALTTD
 70
     2
  9
$DIMTXSTY
  7
STANDARD
  9
$DIMAUNIT
 70
     0
  9
$DIMADEC
 70
     0
  9
$DIMALTRND
 40
0.0
  9
$DIMAZIN
 70
     0
  9
$DIMDSEP
 70
    46
  9
$DIMATFIT
 70
     3
  9
$DIMFRAC
 70
     0
  9
$DIMLDRBLK
  1
OPEN
  9
$DIMLUNIT
 70
     2
  9
$DIMLWD
 70
    -2
  9
$DIMLWE
 70
    -2
  9
$DIMTMOVE
 70
     0
  9
$LUNITS
 70
     2
  9
$LUPREC
 70
     4
  9
$SKETCHINC
 40
1.0
  9
$FILLETRAD
 40
0.0
  9
$AUNITS
 70
     0
  9
$AUPREC
 70
     0
  9
$MENU
  1
.
  9
$ELEVATION
 40
0.0
  9
$PELEVATION
 40
0.0
  9
$THICKNESS
 40
0.0
  9
$LIMCHECK
 70
     0
  9
$CHAMFERA
 40
10.0
  9
$CHAMFERB
 40
10.0
  9
$CHAMFERC
 40
20.0
  9
$CHAMFERD
 40
0.0
  9
$SKPOLY
 70
     0
  9
$TDCREATE
 40
2453811.402924803
  9
$TDUCREATE
 40
2453811.027924803
  9
$TDUPDATE
 40
2457192.692677188
  9
$TDUUPDATE
 40
2457192.317677187
  9
$TDINDWG
 40
0.0641977662
  9
$TDUSRTIMER
 40
0.0641977546
  9
$USRTIMER
 70
     1
  9
$ANGBASE
 50
0.0
  9
$ANGDIR
 70
     0
  9
$PDMODE
 70
     0
  9
$PDSIZE
 40
0.0
  9
$PLINEWID
 40
0.0
  9
$SPLFRAME
 70
     0
  9
$SPLINETYPE
 70
     6
  9
$SPLINESEGS
 70
     8
  9
$HANDSEED
  5
1CA1
  9
$SURFTAB1
 70
     6
  9
$SURFTAB2
 70
     6
  9
$SURFTYPE
 70
     6
  9
$SURFU
 70
     6
  9
$SURFV
 70
     6
  9
$UCSBASE
  2

  9
$UCSNAME
  2

  9
$UCSORG
 10
0.0
 20
0.0
 30
0.0
  9
$UCSXDIR
 10
1.0
 20
0.0
 30
0.0
  9
$UCSYDIR
 10
0.0
 20
1.0
 30
0.0
  9
$UCSORTHOREF
  2

  9
$UCSORTHOVIEW
 70
     0
  9
$UCSORGTOP
 10
0.0
 20
0.0
 30
0.0
  9
$UCSORGBOTTOM
 10
0.0
 20
0.0
 30
0.0
  9
$UCSORGLEFT
 10
0.0
 20
0.0
 30
0.0
  9
$UCSORGRIGHT
 10
0.0
 20
0.0
 30
0.0
  9
$UCSORGFRONT
 10
0.0
 20
0.0
 30
0.0
  9
$UCSORGBACK
 10
0.0
 20
0.0
 30
0.0
  9
$PUCSBASE
  2

  9
$PUCSNAME
  2

  9
$PUCSORG
 10
0.0
 20
0.0
 30
0.0
  9
$PUCSXDIR
 10
1.0
 20
0.0
 30
0.0
  9
$PUCSYDIR
 10
0.0
 20
1.0
 30
0.0
  9
$PUCSORTHOREF
  2

  9
$PUCSORTHOVIEW
 70
     0
  9
$PUCSORGTOP
 10
0.0
 20
0.0
 30
0.0
  9
$PUCSORGBOTTOM
 10
0.0
 20
0.0
 30
0.0
  9
$PUCSORGLEFT
 10
0.0
 20
0.0
 30
0.0
  9
$PUCSORGRIGHT
 10
0.0
 20
0.0
 30
0.0
  9
$PUCSORGFRONT
 10
0.0
 20
0.0
 30
0.0
  9
$PUCSORGBACK
 10
0.0
 20
0.0
 30
0.0
  9
$USERI1
 70
     0
  9
$USERI2
 70
     0
  9
$USERI3
 70
     0
  9
$USERI4
 70
     0
  9
$USERI5
 70
     0
  9
$USERR1
 40
0.0
  9
$USERR2
 40
0.0
  9
$USERR3
 40
0.0
  9
$USERR4
 40
0.0
  9
$USERR5
 40
0.0
  9
$WORLDVIEW
 70
     1
  9
$SHADEDGE
 70
     3
  9
$SHADEDIF
 70
    70
  9
$TILEMODE
 70
     1
  9
$MAXACTVP
 70
    48
  9
$PINSBASE
 10
0.0
 20
0.0
 30
0.0
  9
$PLIMCHECK
 70
     0
  9
$PEXTMIN
 10
1.000000000000000E+20
 20
1.000000000000000E+20
 30
1.000000000000000E+20
  9
$PEXTMAX
 10
-1.000000000000000E+20
 20
-1.000000000000000E+20
 30
-1.000000000000000E+20
  9
$PLIMMIN
 10
0.0
 20
0.0
  9
$PLIMMAX
 10
420.0
 20
297.0
  9
$UNITMODE
 70
     0
  9
$VISRETAIN
 70
     1
  9
$PLINEGEN
 70
     0
  9
$PSLTSCALE
 70
     1
  9
$TREEDEPTH
 70
  3020
  9
$CMLSTYLE
  2
STANDARD
  9
$CMLJUST
 70
     0
  9
$CMLSCALE
 40
20.0
  9
$PROXYGRAPHICS
 70
     1
  9
$MEASUREMENT
 70
     0
  9
$CELWEIGHT
370
    -1
  9
$ENDCAPS
280
     0
  9
$JOINSTYLE
280
     0
  9
$LWDISPLAY
290
     0
  9
$INSUNITS
 70
     0
  9
$HYPERLINKBASE
  1

  9
$STYLESHEET
  1

  9
$XEDIT
290
     1
  9
$CEPSNTYPE
380
     0
  9
$PSTYLEMODE
290
     1
  9
$FINGERPRINTGUID
  2
{3DEF9103-12C0-4A56-A17D-C1704E49FCCF}
  9
$VERSIONGUID
  2
{C821638C-6DD0-4F5F-B452-62B73CACA426}
  9
$EXTNAMES
290
     1
  9
$PSVPSCALE
 40
0.0
  9
$OLESTARTUP
290
     0
  0
ENDSEC
  0
SECTION
  2
CLASSES
  0
CLASS
  1
ACDBDICTIONARYWDFLT
  2
AcDbDictionaryWithDefault
  3
ObjectDBX Classes
 90
        0
280
     0
281
     0
  0
CLASS
  1
ACDBPLACEHOLDER
  2
AcDbPlaceHolder
  3
ObjectDBX Classes
 90
        0
280
     0
281
     0
  0
CLASS
  1
LAYOUT
  2
AcDbLayout
  3
ObjectDBX Classes
 90
        0
280
     0
281
     0
  0
CLASS
  1
DICTIONARYVAR
  2
AcDbDictionaryVar
  3
ObjectDBX Classes
 90
        0
280
     0
281
     0
  0
CLASS
  1
MATERIAL
  2
AcDbMaterial
  3
ObjectDBX Classes
 90
     1153
280
     0
281
     0
  0
CLASS
  1
VISUALSTYLE
  2
AcDbVisualStyle
  3
ObjectDBX Classes
 90
     4095
280
     0
281
     0
  0
CLASS
  1
TABLESTYLE
  2
AcDbTableStyle
  3
ObjectDBX Classes
 90
     4095
280
     0
281
     0
  0
CLASS
  1
SCALE
  2
AcDbScale
  3
ObjectDBX Classes
 90
     1153
280
     0
281
     0
  0
CLASS
  1
MLEADERSTYLE
  2
AcDbMLeaderStyle
  3
ACDB_MLEADERSTYLE_CLASS
 90
     4095
280
     0
281
     0
  0
CLASS
  1
ACDBSECTIONVIEWSTYLE
  2
AcDbSectionViewStyle
  3
ObjectDBX Classes
 90
     1025
280
     0
281
     0
  0
CLASS
  1
ACDBDETAILVIEWSTYLE
  2
AcDbDetailViewStyle
  3
ObjectDBX Classes
 90
     1025
280
     0
281
     0
  0
CLASS
  1
CELLSTYLEMAP
  2
AcDbCellStyleMap
  3
ObjectDBX Classes
 90
     1152
280
     0
281
     0
  0
ENDSEC
  0
SECTION
  2
TABLES
  0
TABLE
  2
VPORT
  5
8
330
0
100
AcDbSymbolTable
 70
     1
  0
VPORT
  5
1BA9
330
8
100
AcDbSymbolTableRecord
100
AcDbViewportTableRecord
  2
*ACTIVE
 70
     0
 10
0.0
 20
0.0
 11
1.0
 21
1.0
 12
358.7482455331875
 22
225.7765149583618
 13
0.0
 23
0.0
 14
10.0
 24
10.0
 15
10.0
 25
10.0
 16
0.0
 26
0.0
 36
1.0
 17
0.0
 27
0.0
 37
0.0
 40
454.9186429512514
 41
2.35006605019815
 42
50.0
 43
0.0
 44
0.0
 50
0.0
 51
0.0
 71
     0
 72
   100
 73
     1
 74
     0
 75
     0
 76
     0
 77
     0
 78
     0
281
     0
 65
     1
110
0.0
120
0.0
130
0.0
111
1.0
121
0.0
131
0.0
112
0.0
122
1.0
132
0.0
 79
     0
146
0.0
1001
ACAD_NAV_VCDISPLAY
1070
     3
  0
ENDTAB
  0
TABLE
  2
LTYPE
  5
5
330
0
100
AcDbSymbolTable
 70
     4
  0
LTYPE
  5
12
330
5
100
AcDbSymbolTableRecord
100
AcDbLinetypeTableRecord
  2
BYBLOCK
 70
     0
  3

 72
    65
 73
     0
 40
0.0
  0
LTYPE
  5
13
330
5
100
AcDbSymbolTableRecord
100
AcDbLinetypeTableRecord
  2
BYLAYER
 70
     0
  3

 72
    65
 73
     0
 40
0.0
  0
LTYPE
  5
14
330
5
100
AcDbSymbolTableRecord
100
AcDbLinetypeTableRecord
  2
CONTINUOUS
 70
     0
  3
Solid line
 72
    65
 73
     0
 40
0.0
  0
LTYPE
  5
4B
330
5
100
AcDbSymbolTableRecord
100
AcDbLinetypeTableRecord
  2
DASHED
 70
     0
  3
Dashed __ __ __ __ __ __ __ __ __ __ __ __ __ _
 72
    65
 73
     2
 40
19.04999999999999
 49
12.7
 74
     0
 49
-6.349999999999997
 74
     0
  0
LTYPE
  5
4C
330
5
100
AcDbSymbolTableRecord
100
AcDbLinetypeTableRecord
  2
CENTER
 70
     0
  3
Center ____ _ ____ _ ____ _ ____ _ ____ _ ____
 72
    65
 73
     4
 40
50.8
 49
31.75
 74
     0
 49
-6.349999999999997
 74
     0
 49
6.349999999999997
 74
     0
 49
-6.349999999999997
 74
     0
  0
LTYPE
  5
4D
330
5
100
AcDbSymbolTableRecord
100
AcDbLinetypeTableRecord
  2
PHANTOM
 70
     0
  3
Phantom ______  __  __  ______  __  __  ______
 72
    65
 73
     6
 40
63.5
 49
31.75
 74
     0
 49
-6.349999999999997
 74
     0
 49
6.349999999999997
 74
     0
 49
-6.349999999999997
 74
     0
 49
6.349999999999997
 74
     0
 49
-6.349999999999997
 74
     0
  0
ENDTAB
  0
TABLE
  2
LAYER
  5
2
330
0
100
AcDbSymbolTable
 70
     8
  0
LAYER
  5
E
102
{ACAD_XDICTIONARY
360
1C05
102
}
330
2
100
AcDbSymbolTableRecord
100
AcDbLayerTableRecord
  2
0
 70
     0
 62
     7
  6
CONTINUOUS
370
    -3
390
1BB2
  0
LAYER
  5
4E
102
{ACAD_XDICTIONARY
360
1C07
102
}
330
2
100
AcDbSymbolTableRecord
100
AcDbLayerTableRecord
  2
4
 70
     0
 62
     1
  6
CENTER
370
    -3
390
1BB2
  0
LAYER
  5
4F
102
{ACAD_XDICTIONARY
360
1C09
102
}
330
2
100
AcDbSymbolTableRecord
100
AcDbLayerTableRecord
  2
5
 70
     0
 62
     6
  6
PHANTOM
370
    -3
390
1BB2
  0
LAYER
  5
50
102
{ACAD_XDICTIONARY
360
1C0B
102
}
330
2
100
AcDbSymbolTableRecord
100
AcDbLayerTableRecord
  2
1
 70
     0
 62
     7
  6
CONTINUOUS
370
    -3
390
1BB2
  0
LAYER
  5
51
102
{ACAD_XDICTIONARY
360
1C0D
102
}
330
2
100
AcDbSymbolTableRecord
100
AcDbLayerTableRecord
  2
2
 70
     0
 62
     4
  6
CONTINUOUS
370
    -3
390
1BB2
  0
LAYER
  5
52
102
{ACAD_XDICTIONARY
360
1C0F
102
}
330
2
100
AcDbSymbolTableRecord
100
AcDbLayerTableRecord
  2
3
 70
     0
 62
     2
  6
DASHED
370
    -3
390
1BB2
  0
LAYER
  5
53
102
{ACAD_XDICTIONARY
360
1C11
102
}
330
2
100
AcDbSymbolTableRecord
100
AcDbLayerTableRecord
  2
6
 70
     0
 62
     5
  6
CONTINUOUS
370
    -3
390
1BB2
  0
LAYER
  5
54
102
{ACAD_XDICTIONARY
360
1C13
102
}
330
2
100
AcDbSymbolTableRecord
100
AcDbLayerTableRecord
  2
7
 70
     0
 62
     3
  6
CONTINUOUS
370
    -3
390
1BB2
  0
ENDTAB
  0
TABLE
  2
STYLE
  5
3
330
0
100
AcDbSymbolTable
 70
     1
  0
STYLE
  5
F
330
3
100
AcDbSymbolTableRecord
100
AcDbTextStyleTableRecord
  2
STANDARD
 70
     0
 40
0.0
 41
1.0
 50
0.0
 71
     0
 42
2.5
  3
simplex.shx
  4

  0
ENDTAB
  0
TABLE
  2
VIEW
  5
6
330
0
100
AcDbSymbolTable
 70
     0
  0
ENDTAB
  0
TABLE
  2
UCS
  5
7
330
0
100
AcDbSymbolTable
 70
     0
  0
ENDTAB
  0
TABLE
  2
APPID
  5
9
330
0
100
AcDbSymbolTable
 70
     6
  0
APPID
  5
10
330
9
100
AcDbSymbolTableRecord
100
AcDbRegAppTableRecord
  2
ACAD
 70
     0
  0
APPID
  5
3E
330
9
100
AcDbSymbolTableRecord
100
AcDbRegAppTableRecord
  2
CONTENTTABDATA
 70
     0
  0
APPID
  5
3F
330
9
100
AcDbSymbolTableRecord
100
AcDbRegAppTableRecord
  2
CONTENTCURRENTTAB
 70
     0
  0
APPID
  5
1C03
330
9
100
AcDbSymbolTableRecord
100
AcDbRegAppTableRecord
  2
ACAD_EXEMPT_FROM_CAD_STANDARDS
 70
     0
  0
APPID
  5
1C1F
330
9
100
AcDbSymbolTableRecord
100
AcDbRegAppTableRecord
  2
ACAD_NAV_VCDISPLAY
 70
     0
  0
APPID
  5
1C58
330
9
100
AcDbSymbolTableRecord
100
AcDbRegAppTableRecord
  2
ACAD_MLEADERVER
 70
     0
  0
ENDTAB
  0
TABLE
  2
DIMSTYLE
  5
A
330
0
100
AcDbSymbolTable
 70
     1
100
AcDbDimStyleTable
 71
     0
  0
DIMSTYLE
105
1D
330
A
100
AcDbSymbolTableRecord
100
AcDbDimStyleTableRecord
  2
STANDARD
 70
     0
 41
3.0
 42
1.0
 43
10.0
 44
1.0
 73
     0
 74
     0
 77
     3
 78
     8
140
3.2
141
0.0
147
1.0
172
     1
173
     1
340
F
341
2E
343
2E
344
2E
  0
ENDTAB
  0
TABLE
  2
BLOCK_RECORD
  5
1
330
0
100
AcDbSymbolTable
 70
     1
  0
BLOCK_RECORD
  5
18
102
{ACAD_XDICTIONARY
360
1BAC
102
}
330
1
100
AcDbSymbolTableRecord
100
AcDbBlockTableRecord
  2
*MODEL_SPACE
340
1C00
  0
BLOCK_RECORD
  5
15
102
{ACAD_XDICTIONARY
360
1BAA
102
}
330
1
100
AcDbSymbolTableRecord
100
AcDbBlockTableRecord
  2
*PAPER_SPACE
340
1C01
  0
BLOCK_RECORD
  5
2E
330
1
100
AcDbSymbolTableRecord
100
AcDbBlockTableRecord
  2
_OPEN
340
0
  0
ENDTAB
  0
ENDSEC
  0
SECTION
  2
BLOCKS
  0
BLOCK
  5
19
330
18
100
AcDbEntity
  8
0
100
AcDbBlockBegin
  2
*MODEL_SPACE
 70
     0
 10
0.0
 20
0.0
 30
0.0
  3
*MODEL_SPACE
  1

  0
ENDBLK
  5
1A
330
18
100
AcDbEntity
  8
0
100
AcDbBlockEnd
  0
BLOCK
  5
16
330
15
100
AcDbEntity
 67
     1
  8
0
100
AcDbBlockBegin
  2
*PAPER_SPACE
 70
     0
 10
0.0
 20
0.0
 30
0.0
  3
*PAPER_SPACE
  1

  0
ENDBLK
  5
17
330
15
100
AcDbEntity
 67
     1
  8
0
100
AcDbBlockEnd
  0
BLOCK
  5
2F
330
2E
100
AcDbEntity
  8
0
100
AcDbBlockBegin
  2
_OPEN
 70
     0
 10
0.0
 20
0.0
 30
0.0
  3
_OPEN
  1

  0
LINE
  5
30
330
2E
100
AcDbEntity
  8
0
  6
ByBlock
 62
     0
100
AcDbLine
 10
-1.0
 20
0.1666666666666666
 30
0.0
 11
0.0
 21
0.0
 31
0.0
  0
LINE
  5
31
330
2E
100
AcDbEntity
  8
0
  6
ByBlock
 62
     0
100
AcDbLine
 10
0.0
 20
0.0
 30
0.0
 11
-1.0
 21
-0.1666666666666666
 31
0.0
  0
LINE
  5
32
330
2E
100
AcDbEntity
  8
0
  6
ByBlock
 62
     0
100
AcDbLine
 10
0.0
 20
0.0
 30
0.0
 11
-1.0
 21
0.0
 31
0.0
  0
ENDBLK
  5
33
330
2E
100
AcDbEntity
  8
0
100
AcDbBlockEnd
  0
ENDSEC
  0
SECTION
  2
ENTITIES
  0
TEXT
  5
63
330
18
100
AcDbEntity
  8
4
  6
CENTER
 48
0.25
100
AcDbText
 10
23.97950852663849
 20
10.0
 30
0.0
 40
1.399999999999999
  1
4
100
AcDbText
  0
TEXT
  5
64
330
18
100
AcDbEntity
  8
7
  6
Continuous
 48
0.25
100
AcDbText
 10
9.999997526638502
 20
26.0000007607689
 30
0.0
 40
3.0
  1
CODE No.19068
100
AcDbText
  0
TEXT
  5
65
330
18
100
AcDbEntity
  8
7
  6
Continuous
 48
0.25
100
AcDbText
 10
9.999997526638502
 20
18.00000076076889
 30
0.0
 40
3.0
  1
TYPE No.TCA-TY75S (TY75S)
100
AcDbText
  0
TEXT
  5
66
330
18
100
AcDbEntity
  8
1
  6
Continuous
 48
0.25
100
AcDbText
 10
9.999997526638502
 20
10.00000076076889
 30
0.0
 40
1.399999999999999
  1
LAYER
100
AcDbText
  0
TEXT
  5
67
330
18
100
AcDbEntity
  8
2
  6
Continuous
 48
0.25
100
AcDbText
 10
19.9795085266385
 20
10.0
 30
0.0
 40
1.399999999999999
  1
2
100
AcDbText
  0
TEXT
  5
68
330
18
100
AcDbEntity
  8
3
  6
DASHED
 48
0.25
100
AcDbText
 10
21.9795085266385
 20
10.0
 30
0.0
 40
1.399999999999999
  1
3
100
AcDbText
  0
TEXT
  5
69
330
18
100
AcDbEntity
  8
1
  6
Continuous
 48
0.25
100
AcDbText
 10
17.9795085266385
 20
10.0
 30
0.0
 40
1.399999999999999
  1
1
100
AcDbText
  0
TEXT
  5
6A
330
18
100
AcDbEntity
  8
5
  6
PHANTOM
 48
0.25
100
AcDbText
 10
25.9795085266385
 20
10.0
 30
0.0
 40
1.399999999999999
  1
5
100
AcDbText
  0
TEXT
  5
6B
330
18
100
AcDbEntity
  8
6
  6
Continuous
 48
0.25
100
AcDbText
 10
27.9795085266385
 20
10.0
 30
0.0
 40
1.399999999999999
  1
6
100
AcDbText
  0
TEXT
  5
6C
330
18
100
AcDbEntity
  8
7
  6
Continuous
 48
0.25
100
AcDbText
 10
29.9795085266385
 20
10.0
 30
0.0
 40
1.399999999999999
  1
7
100
AcDbText
  0
LINE
  5
53A
330
18
100
AcDbEntity
  8
1
  6
Continuous
100
AcDbLine
 10
27.21970063398481
 20
270.8000584786457
 30
0.0
 11
27.21970063398481
 21
274.6000584786457
 31
0.0
  0
LINE
  5
53B
330
18
100
AcDbEntity
  8
1
  6
Continuous
100
AcDbLine
 10
93.21970063398479
 20
274.6000584786457
 30
0.0
 11
93.21970063398479
 21
270.8000584786457
 31
0.0
  0
LINE
  5
53C
330
18
100
AcDbEntity
  8
4
  6
CENTER
 48
0.3
100
AcDbLine
 10
60.21970063398481
 20
204.1000584786457
 30
0.0
 11
60.21970063398481
 21
279.6000584786457
 31
0.0
  0
LINE
  5
53F
330
18
100
AcDbEntity
  8
1
  6
Continuous
100
AcDbLine
 10
27.21970063398481
 20
270.8000584786457
 30
0.0
 11
93.21970063398479
 21
270.8000584786457
 31
0.0
  0
ARC
  5
540
330
18
100
AcDbEntity
  8
1
  6
Continuous
100
AcDbCircle
 10
279.0923336339848
 20
219.1000584786457
 30
0.0
 40
250.0
100
AcDbArc
 50
172.2749430000015
 51
175.9400620000011
  0
LINE
  5
541
330
18
100
AcDbEntity
  8
4
  6
CENTER
 48
0.3
100
AcDbLine
 10
97.0322536339848
 20
219.1000584786457
 30
0.0
 11
23.4071476339848
 21
219.1000584786457
 31
0.0
  0
LINE
  5
542
330
18
100
AcDbEntity
  8
1
  6
Continuous
100
AcDbLine
 10
30.89886063398478
 20
249.1000584786457
 30
0.0
 11
30.89886063398478
 21
189.1000584786457
 31
0.0
  0
LINE
  5
543
330
18
100
AcDbEntity
  8
1
  6
Continuous
100
AcDbLine
 10
30.15258163398482
 20
196.1000584786457
 30
0.0
 11
30.15258163398482
 21
242.1000584786457
 31
0.0
  0
LINE
  5
544
330
18
100
AcDbEntity
  8
1
  6
Continuous
100
AcDbLine
 10
46.71970063398481
 20
255.1000584786457
 30
0.0
 11
46.71970063398481
 21
183.1000584786457
 31
0.0
  0
LINE
  5
545
330
18
100
AcDbEntity
  8
1
  6
Continuous
100
AcDbLine
 10
48.21970063398481
 20
227.6000584786457
 30
0.0
 11
48.21970063398481
 21
210.6000584786457
 31
0.0
  0
LINE
  5
546
330
18
100
AcDbEntity
  8
1
  6
Continuous
100
AcDbLine
 10
89.54054063398482
 20
249.1000584786457
 30
0.0
 11
89.54054063398482
 21
189.1000584786457
 31
0.0
  0
LINE
  5
547
330
18
100
AcDbEntity
  8
1
  6
Continuous
100
AcDbLine
 10
90.28681963398479
 20
196.1000584786457
 30
0.0
 11
90.28681963398479
 21
242.1000584786457
 31
0.0
  0
ARC
  5
548
330
18
100
AcDbEntity
  8
1
  6
Continuous
100
AcDbCircle
 10
-27.9677463660152
 20
219.1000584786457
 30
0.0
 40
120.0
100
AcDbArc
 50
351.5179240000357
 51
8.482076000032648
  0
LINE
  5
549
330
18
100
AcDbEntity
  8
1
  6
Continuous
100
AcDbLine
 10
90.71970063398479
 20
236.8000584786457
 30
0.0
 11
90.71970063398479
 21
201.4000584786456
 31
0.0
  0
LINE
  5
54A
330
18
100
AcDbEntity
  8
1
  6
Continuous
100
AcDbLine
 10
73.71970063398482
 20
255.1000584786457
 30
0.0
 11
73.71970063398482
 21
183.1000584786457
 31
0.0
  0
LINE
  5
54B
330
18
100
AcDbEntity
  8
1
  6
Continuous
100
AcDbLine
 10
72.21970063398481
 20
227.6000584786457
 30
0.0
 11
72.21970063398481
 21
210.6000584786457
 31
0.0
  0
LINE
  5
54C
330
18
100
AcDbEntity
  8
1
  6
Continuous
100
AcDbLine
 10
49.21970063398481
 20
255.4932164786457
 30
0.0
 11
49.21970063398481
 21
209.1000584786457
 31
0.0
  0
LINE
  5
54D
330
18
100
AcDbEntity
  8
1
  6
Continuous
100
AcDbLine
 10
71.21970063398482
 20
255.4932164786457
 30
0.0
 11
71.21970063398482
 21
209.1000584786457
 31
0.0
  0
LINE
  5
54E
330
18
100
AcDbEntity
  8
1
  6
Continuous
100
AcDbLine
 10
49.21970063398481
 20
209.1000584786457
 30
0.0
 11
71.21970063398482
 21
209.1000584786457
 31
0.0
  0
LINE
  5
54F
330
18
100
AcDbEntity
  8
1
  6
Continuous
100
AcDbLine
 10
73.21970063398481
 20
209.6000584786457
 30
0.0
 11
73.71970063398482
 21
209.6000584786457
 31
0.0
  0
ARC
  5
550
330
18
100
AcDbEntity
  8
1
  6
Continuous
100
AcDbCircle
 10
73.21970063398481
 20
210.6000584786457
 30
0.0
 40
1.0
100
AcDbArc
 50
180.0000000000692
 51
270.0000000000504
  0
ARC
  5
551
330
18
100
AcDbEntity
  8
1
  6
Continuous
100
AcDbCircle
 10
71.21970063398482
 20
211.1000584786457
 30
0.0
 40
1.0
100
AcDbArc
 50
270.0000000000504
 51
0.0000000000342043
  0
ARC
  5
552
330
18
100
AcDbEntity
  8
1
  6
Continuous
100
AcDbCircle
 10
47.21970063398481
 20
210.6000584786457
 30
0.0
 40
1.0
100
AcDbArc
 50
270.0000000000521
 51
0.0000000000342043
  0
ARC
  5
553
330
18
100
AcDbEntity
  8
1
  6
Continuous
100
AcDbCircle
 10
49.21970063398481
 20
211.1000584786457
 30
0.0
 40
1.0
100
AcDbArc
 50
180.0000000000692
 51
270.0000000000521
  0
LINE
  5
554
330
18
100
AcDbEntity
  8
1
  6
Continuous
100
AcDbLine
 10
47.21970063398481
 20
209.6000584786457
 30
0.0
 11
46.71970063398481
 21
209.6000584786457
 31
0.0
  0
LINE
  5
555
330
18
100
AcDbEntity
  8
1
  6
Continuous
100
AcDbLine
 10
49.21970063398481
 20
266.1000584786457
 30
0.0
 11
71.21970063398482
 21
266.1000584786457
 31
0.0
  0
ARC
  5
556
330
18
100
AcDbEntity
  8
1
  6
Continuous
100
AcDbCircle
 10
60.21970063398481
 20
156.1000584786456
 30
0.0
 40
100.0
100
AcDbArc
 50
83.68468400001821
 51
84.49910424931927
  0
LINE
  5
557
330
18
100
AcDbEntity
  8
1
  6
Continuous
100
AcDbLine
 10
49.21970063398481
 20
258.1000584786457
 30
0.0
 11
71.21970063398482
 21
258.1000584786457
 31
0.0
  0
ARC
  5
558
330
18
100
AcDbEntity
  8
1
  6
Continuous
100
AcDbCircle
 10
-158.652932366015
 20
219.1000584786457
 30
0.0
 40
250.0
100
AcDbArc
 50
4.059938000033986
 51
7.725057000032956
  0
LINE
  5
559
330
18
100
AcDbEntity
  8
1
  6
Continuous
100
AcDbLine
 10
73.21970063398481
 20
228.6000584786457
 30
0.0
 11
73.71970063398482
 21
228.6000584786457
 31
0.0
  0
ARC
  5
55A
330
18
100
AcDbEntity
  8
1
  6
Continuous
100
AcDbCircle
 10
73.21970063398481
 20
227.6000584786457
 30
0.0
 40
1.0
100
AcDbArc
 50
90.00000000001628
 51
180.0
  0
ARC
  5
55B
330
18
100
AcDbEntity
  8
1
  6
Continuous
100
AcDbCircle
 10
71.21970063398482
 20
227.1000584786457
 30
0.0
 40
1.0
100
AcDbArc
 50
0.0000000000342043
 51
90.00000000001628
  0
LINE
  5
55D
330
18
100
AcDbEntity
  8
1
  6
Continuous
100
AcDbLine
 10
75.21970063398481
 20
256.6000584786457
 30
0.0
 11
84.61903463398479
 21
256.6000584786457
 31
0.0
  0
ARC
  5
55E
330
18
100
AcDbEntity
  8
1
  6
Continuous
100
AcDbCircle
 10
84.61903463398479
 20
252.1000584786457
 30
0.0
 40
4.5
100
AcDbArc
 50
7.725057000032956
 51
90.0000000000179
  0
LINE
  5
55F
330
18
100
AcDbEntity
  8
1
  6
Continuous
100
AcDbLine
 10
71.21970063398482
 20
266.1000584786457
 30
0.0
 11
71.21970063398482
 21
258.1000584786457
 31
0.0
  0
ARC
  5
560
330
18
100
AcDbEntity
  8
1
  6
Continuous
100
AcDbCircle
 10
75.21970063398481
 20
255.1000584786457
 30
0.0
 40
1.5
100
AcDbArc
 50
90.0000000000179
 51
180.0
  0
LINE
  5
561
330
18
100
AcDbEntity
  8
1
  6
Continuous
100
AcDbLine
 10
70.71970063398481
 20
258.1000584786457
 30
0.0
 11
70.71970063398481
 21
255.5472804786456
 31
0.0
  0
ARC
  5
562
330
18
100
AcDbEntity
  8
1
  6
Continuous
100
AcDbCircle
 10
71.02943363398479
 20
270.1000584786457
 30
0.0
 40
4.0
100
AcDbArc
 50
270.0000000000521
 51
307.6863250000442
  0
LINE
  5
563
330
18
100
AcDbEntity
  8
1
  6
Continuous
100
AcDbLine
 10
78.21970063398481
 20
270.8000584786457
 30
0.0
 11
73.47478663398479
 21
266.9345804786457
 31
0.0
  0
ARC
  5
564
330
18
100
AcDbEntity
  8
1
  6
Continuous
100
AcDbCircle
 10
47.21970063398481
 20
227.6000584786457
 30
0.0
 40
1.0
100
AcDbArc
 50
0.0000000000342043
 51
90.00000000001628
  0
ARC
  5
565
330
18
100
AcDbEntity
  8
1
  6
Continuous
100
AcDbCircle
 10
49.21970063398481
 20
227.1000584786457
 30
0.0
 40
1.0
100
AcDbArc
 50
90.00000000001628
 51
180.0
  0
LINE
  5
566
330
18
100
AcDbEntity
  8
1
  6
Continuous
100
AcDbLine
 10
47.21970063398481
 20
228.6000584786457
 30
0.0
 11
46.71970063398481
 21
228.6000584786457
 31
0.0
  0
ARC
  5
567
330
18
100
AcDbEntity
  8
1
  6
Continuous
100
AcDbCircle
 10
49.40996763398482
 20
270.1000584786457
 30
0.0
 40
4.0
100
AcDbArc
 50
232.3136750000589
 51
270.0000000000521
  0
LINE
  5
568
330
18
100
AcDbEntity
  8
1
  6
Continuous
100
AcDbLine
 10
49.21970063398481
 20
258.1000584786457
 30
0.0
 11
49.21970063398481
 21
266.1000584786457
 31
0.0
  0
LINE
  5
569
330
18
100
AcDbEntity
  8
1
  6
Continuous
100
AcDbLine
 10
49.71970063398481
 20
258.1000584786457
 30
0.0
 11
49.71970063398481
 21
255.5472804786456
 31
0.0
  0
LINE
  5
56A
330
18
100
AcDbEntity
  8
1
  6
Continuous
100
AcDbLine
 10
45.21970063398481
 20
256.6000584786457
 30
0.0
 11
35.8203666339848
 21
256.6000584786457
 31
0.0
  0
ARC
  5
56B
330
18
100
AcDbEntity
  8
1
  6
Continuous
100
AcDbCircle
 10
45.21970063398481
 20
255.1000584786457
 30
0.0
 40
1.5
100
AcDbArc
 50
0.0000000000342043
 51
90.0000000000179
  0
ARC
  5
56C
330
18
100
AcDbEntity
  8
1
  6
Continuous
100
AcDbCircle
 10
35.8203666339848
 20
252.1000584786457
 30
0.0
 40
4.5
100
AcDbArc
 50
90.00000000001628
 51
172.2749430000015
  0
LINE
  5
56D
330
18
100
AcDbEntity
  8
1
  6
Continuous
100
AcDbLine
 10
42.21970063398481
 20
270.8000584786457
 30
0.0
 11
46.96461463398478
 21
266.9345804786457
 31
0.0
  0
ARC
  5
56E
330
18
100
AcDbEntity
  8
1
  6
Continuous
100
AcDbCircle
 10
148.4071476339848
 20
219.1000584786457
 30
0.0
 40
120.0
100
AcDbArc
 50
171.5179240000702
 51
188.4820760000671
  0
LINE
  5
56F
330
18
100
AcDbEntity
  8
1
  6
Continuous
100
AcDbLine
 10
29.71970063398481
 20
236.8000584786457
 30
0.0
 11
29.71970063398481
 21
201.4000584786456
 31
0.0
  0
LINE
  5
570
330
18
100
AcDbEntity
  8
1
  6
Continuous
100
AcDbLine
 10
27.21970063398481
 20
274.6000584786457
 30
0.0
 11
93.21970063398479
 21
274.6000584786457
 31
0.0
  0
ARC
  5
571
330
18
100
AcDbEntity
  8
1
  6
Continuous
100
AcDbCircle
 10
279.0923336339848
 20
219.1000584786457
 30
0.0
 40
250.0
100
AcDbArc
 50
184.059938000068
 51
187.7250570000675
  0
ARC
  5
572
330
18
100
AcDbEntity
  8
1
  6
Continuous
100
AcDbCircle
 10
-158.652932366015
 20
219.1000584786457
 30
0.0
 40
250.0
100
AcDbArc
 50
352.274943000036
 51
355.9400620000354
  0
LINE
  5
573
330
18
100
AcDbEntity
  8
1
  6
Continuous
100
AcDbLine
 10
75.21970063398481
 20
181.6000584786457
 30
0.0
 11
84.61903463398479
 21
181.6000584786457
 31
0.0
  0
ARC
  5
574
330
18
100
AcDbEntity
  8
1
  6
Continuous
100
AcDbCircle
 10
84.61903463398479
 20
186.1000584786457
 30
0.0
 40
4.5
100
AcDbArc
 50
270.0000000000521
 51
352.274943000036
  0
ARC
  5
575
330
18
100
AcDbEntity
  8
1
  6
Continuous
100
AcDbCircle
 10
75.21970063398481
 20
183.1000584786457
 30
0.0
 40
1.5
100
AcDbArc
 50
180.0000000000692
 51
270.0000000000521
  0
LINE
  5
576
330
18
100
AcDbEntity
  8
1
  6
Continuous
100
AcDbLine
 10
45.21970063398481
 20
181.6000584786457
 30
0.0
 11
35.8203666339848
 21
181.6000584786457
 31
0.0
  0
ARC
  5
577
330
18
100
AcDbEntity
  8
1
  6
Continuous
100
AcDbCircle
 10
45.21970063398481
 20
183.1000584786457
 30
0.0
 40
1.5
100
AcDbArc
 50
270.0000000000504
 51
0.0000000000342043
  0
ARC
  5
578
330
18
100
AcDbEntity
  8
1
  6
Continuous
100
AcDbCircle
 10
35.8203666339848
 20
186.1000584786457
 30
0.0
 40
4.5
100
AcDbArc
 50
187.7250570000675
 51
270.0000000000504
  0
LINE
  5
579
330
18
100
AcDbEntity
  8
1
  6
Continuous
100
AcDbLine
 10
188.7614386339848
 20
270.8000584786457
 30
0.0
 11
188.7614386339848
 21
274.6000584786457
 31
0.0
  0
LINE
  5
57A
330
18
100
AcDbEntity
  8
1
  6
Continuous
100
AcDbLine
 10
254.7614386339847
 20
274.6000584786457
 30
0.0
 11
254.7614386339847
 21
270.8000584786457
 31
0.0
  0
LINE
  5
57E
330
18
100
AcDbEntity
  8
4
  6
CENTER
 48
0.1
100
AcDbLine
 10
196.7614386339848
 20
277.6000584786457
 30
0.0
 11
196.7614386339848
 21
267.6000584786457
 31
0.0
  0
LINE
  5
57F
330
18
100
AcDbEntity
  8
4
  6
CENTER
 48
0.1
100
AcDbLine
 10
246.7614386339847
 20
277.6000584786457
 30
0.0
 11
246.7614386339847
 21
267.6000584786457
 31
0.0
  0
LINE
  5
580
330
18
100
AcDbEntity
  8
4
  6
CENTER
 48
0.3
100
AcDbLine
 10
221.7614386339848
 20
204.1000584786457
 30
0.0
 11
221.7614386339847
 21
279.6000584786459
 31
0.0
  0
LINE
  5
581
330
18
100
AcDbEntity
  8
1
  6
Continuous
100
AcDbLine
 10
239.7614386339848
 20
270.8000584786457
 30
0.0
 11
235.0165246339847
 21
266.9345804786457
 31
0.0
  0
LINE
  5
582
330
18
100
AcDbEntity
  8
1
  6
Continuous
100
AcDbLine
 10
188.7614386339848
 20
270.8000584786457
 30
0.0
 11
254.7614386339847
 21
270.8000584786457
 31
0.0
  0
CIRCLE
  5
583
330
18
100
AcDbEntity
  8
1
  6
Continuous
100
AcDbCircle
 10
201.7614386339847
 20
219.1000584786457
 30
0.0
 40
37.5
  0
LINE
  5
588
330
18
100
AcDbEntity
  8
4
  6
CENTER
 48
0.3
100
AcDbLine
 10
244.2614386339847
 20
219.1000584786457
 30
0.0
 11
159.2614386339846
 21
219.1000584786457
 31
0.0
  0
LINE
  5
58B
330
18
100
AcDbEntity
  8
4
  6
CENTER
 48
0.3
100
AcDbLine
 10
201.7614386339847
 20
261.6000584786457
 30
0.0
 11
201.7614386339847
 21
176.6000584786457
 31
0.0
  0
CIRCLE
  5
58D
330
18
100
AcDbEntity
  8
1
  6
Continuous
100
AcDbCircle
 10
201.7614386339847
 20
219.1000584786457
 30
0.0
 40
23.0
  0
CIRCLE
  5
58E
330
18
100
AcDbEntity
  8
1
  6
Continuous
100
AcDbCircle
 10
201.7614386339847
 20
219.1000584786457
 30
0.0
 40
28.0
  0
CIRCLE
  5
58F
330
18
100
AcDbEntity
  8
1
  6
Continuous
100
AcDbCircle
 10
201.7614386339847
 20
219.1000584786457
 30
0.0
 40
17.7
  0
LINE
  5
590
330
18
100
AcDbEntity
  8
1
  6
Continuous
100
AcDbLine
 10
232.2614386339848
 20
258.1000584786457
 30
0.0
 11
237.0669126339847
 21
231.7402134786457
 31
0.0
  0
LINE
  5
591
330
18
100
AcDbEntity
  8
1
  6
Continuous
100
AcDbLine
 10
210.9517056339848
 20
266.1000584786457
 30
0.0
 11
232.5711716339848
 21
266.1000584786457
 31
0.0
  0
LINE
  5
592
330
18
100
AcDbEntity
  8
1
  6
Continuous
100
AcDbLine
 10
232.7614386339848
 20
258.1000584786457
 30
0.0
 11
210.7614386339848
 21
258.1000584786457
 31
0.0
  0
LINE
  5
593
330
18
100
AcDbEntity
  8
1
  6
Continuous
100
AcDbLine
 10
232.7614386339848
 20
266.1000584786457
 30
0.0
 11
232.7614386339848
 21
258.1000584786457
 31
0.0
  0
ARC
  5
594
330
18
100
AcDbEntity
  8
1
  6
Continuous
100
AcDbCircle
 10
232.5711716339848
 20
270.1000584786457
 30
0.0
 40
4.0
100
AcDbArc
 50
270.0000000000521
 51
307.6863250000442
  0
LINE
  5
595
330
18
100
AcDbEntity
  8
1
  6
Continuous
100
AcDbLine
 10
210.7614386339848
 20
258.1000584786457
 30
0.0
 11
210.7614386339848
 21
266.1000584786457
 31
0.0
  0
ARC
  5
596
330
18
100
AcDbEntity
  8
1
  6
Continuous
100
AcDbCircle
 10
204.9027276339848
 20
265.8180114786457
 30
0.0
 40
10.0
100
AcDbArc
 50
285.0144260000486
 51
309.4846190000439
  0
LINE
  5
597
330
18
100
AcDbEntity
  8
1
  6
Continuous
100
AcDbLine
 10
203.7614386339847
 20
270.8000584786457
 30
0.0
 11
208.5063526339848
 21
266.9345804786457
 31
0.0
  0
ARC
  5
598
330
18
100
AcDbEntity
  8
1
  6
Continuous
100
AcDbCircle
 10
210.9517056339848
 20
270.1000584786457
 30
0.0
 40
4.0
100
AcDbArc
 50
232.3136750000584
 51
270.0000000000521
  0
LINE
  5
599
330
18
100
AcDbEntity
  8
1
  6
Continuous
100
AcDbLine
 10
188.7614386339848
 20
274.6000584786457
 30
0.0
 11
254.7614386339847
 21
274.6000584786457
 31
0.0
  0
LINE
  5
59A
330
18
100
AcDbEntity
  8
1
  6
Continuous
100
AcDbLine
 10
193.7614386339848
 20
416.2359817163433
 30
0.0
 11
249.7614386339847
 21
416.2359817163433
 31
0.0
  0
LINE
  5
59B
330
18
100
AcDbEntity
  8
1
  6
Continuous
100
AcDbLine
 10
193.7614386339848
 20
350.2359817163434
 30
0.0
 11
249.7614386339847
 21
350.2359817163434
 31
0.0
  0
LINE
  5
5A0
330
18
100
AcDbEntity
  8
4
  6
CENTER
 48
0.3
100
AcDbLine
 10
253.7614386339847
 20
408.2359817163434
 30
0.0
 11
190.6614386339848
 21
408.2359817163434
 31
0.0
  0
LINE
  5
5A1
330
18
100
AcDbEntity
  8
4
  6
CENTER
 48
0.3
100
AcDbLine
 10
253.8986845872628
 20
358.2359817163434
 30
0.0
 11
189.7614386339848
 21
358.2359817163434
 31
0.0
  0
LINE
  5
5A2
330
18
100
AcDbEntity
  8
4
  6
CENTER
 48
0.3
100
AcDbLine
 10
259.7614386339846
 20
383.2359817163434
 30
0.0
 11
146.8185146339857
 21
383.2359817163434
 31
0.0
  0
LINE
  5
5A3
330
18
100
AcDbEntity
  8
1
  6
Continuous
100
AcDbLine
 10
254.7614386339847
 20
355.2359817163434
 30
0.0
 11
254.7614386339847
 21
411.2359817163433
 31
0.0
  0
LINE
  5
5A6
330
18
100
AcDbEntity
  8
4
  6
CENTER
 48
0.3
100
AcDbLine
 10
246.7614386339847
 20
415.2359817163433
 30
0.0
 11
246.7614386339847
 21
351.0987357630654
 31
0.0
  0
ARC
  5
5A8
330
18
100
AcDbEntity
  8
1
  6
Continuous
100
AcDbCircle
 10
249.7614386339847
 20
355.2359817163434
 30
0.0
 40
5.0
100
AcDbArc
 50
270.0000000000521
 51
0.0000000000342043
  0
ARC
  5
5AA
330
18
100
AcDbEntity
  8
1
  6
Continuous
100
AcDbCircle
 10
249.7614386339847
 20
411.2359817163433
 30
0.0
 40
5.0
100
AcDbArc
 50
0.0000000000342043
 51
90.0000000000179
  0
CIRCLE
  5
5AB
330
18
100
AcDbEntity
  8
1
  6
Continuous
100
AcDbCircle
 10
246.7614386339847
 20
408.2359817163434
 30
0.0
 40
4.0
  0
CIRCLE
  5
5AD
330
18
100
AcDbEntity
  8
1
  6
Continuous
100
AcDbCircle
 10
221.7614386339848
 20
383.2359817163434
 30
0.0
 40
11.0
  0
CIRCLE
  5
5AE
330
18
100
AcDbEntity
  8
1
  6
Continuous
100
AcDbCircle
 10
221.7614386339848
 20
383.2359817163434
 30
0.0
 40
6.349999999999997
  0
LINE
  5
5AF
330
18
100
AcDbEntity
  8
1
  6
Continuous
100
AcDbLine
 10
188.7614386339848
 20
355.2359817163434
 30
0.0
 11
188.7614386339848
 21
411.2359817163433
 31
0.0
  0
LINE
  5
5B1
330
18
100
AcDbEntity
  8
4
  6
CENTER
 48
0.3
100
AcDbLine
 10
196.7614386339848
 20
414.3359817163434
 30
0.0
 11
196.7614386339848
 21
351.2359817163434
 31
0.0
  0
LINE
  5
5B2
330
18
100
AcDbEntity
  8
4
  6
CENTER
 48
0.3
100
AcDbLine
 10
221.7614386339848
 20
421.2359817163433
 30
0.0
 11
221.7614386339848
 21
345.2359817163434
 31
0.0
  0
LINE
  5
5B3
330
18
100
AcDbEntity
  8
4
  6
CENTER
 48
0.3
100
AcDbLine
 10
201.7614386339847
 20
347.2359817163434
 30
0.0
 11
201.7614386339848
 21
419.2359817163433
 31
0.0
  0
ARC
  5
5B4
330
18
100
AcDbEntity
  8
1
  6
Continuous
100
AcDbCircle
 10
201.7614386339847
 20
602.1086137163432
 30
0.0
 40
250.0
100
AcDbArc
 50
262.2749430000524
 51
265.9400620000517
  0
LINE
  5
5B5
330
18
100
AcDbEntity
  8
1
  6
Continuous
100
AcDbLine
 10
165.7614386339847
 20
369.7359817163434
 30
0.0
 11
188.7614386339848
 21
369.7359817163434
 31
0.0
  0
LINE
  5
5B6
330
18
100
AcDbEntity
  8
1
  6
Continuous
100
AcDbLine
 10
164.8682796339848
 20
372.2359817163434
 30
0.0
 11
188.7614386339848
 21
372.2359817163434
 31
0.0
  0
LINE
  5
5B8
330
18
100
AcDbEntity
  8
1
  6
Continuous
100
AcDbLine
 10
171.7614386339846
 20
353.9151407163434
 30
0.0
 11
188.7614386339848
 21
353.9151407163434
 31
0.0
  0
LINE
  5
5B9
330
18
100
AcDbEntity
  8
1
  6
Continuous
100
AcDbLine
 10
178.7614386339846
 20
353.1688627163433
 30
0.0
 11
189.2087446339848
 21
353.1688627163433
 31
0.0
  0
ARC
  5
5BA
330
18
100
AcDbEntity
  8
1
  6
Continuous
100
AcDbCircle
 10
201.7614386339847
 20
471.4234277163433
 30
0.0
 40
120.0
100
AcDbArc
 50
261.5179240000537
 51
264.3484910000519
  0
LINE
  5
5BB
330
18
100
AcDbEntity
  8
1
  6
Continuous
100
AcDbLine
 10
184.0614386339848
 20
352.7359817163433
 30
0.0
 11
189.4313116339848
 21
352.7359817163433
 31
0.0
  0
ARC
  5
5BC
330
18
100
AcDbEntity
  8
1
  6
Continuous
100
AcDbCircle
 10
193.7614386339848
 20
355.2359817163434
 30
0.0
 40
5.0
100
AcDbArc
 50
180.0000000000692
 51
270.0000000000521
  0
CIRCLE
  5
5BD
330
18
100
AcDbEntity
  8
1
  6
Continuous
100
AcDbCircle
 10
196.7614386339848
 20
358.2359817163434
 30
0.0
 40
4.0
  0
LINE
  5
5BE
330
18
100
AcDbEntity
  8
1
  6
Continuous
100
AcDbLine
 10
164.2614386339847
 20
368.2359817163434
 30
0.0
 11
164.2614386339847
 21
358.8366467163434
 31
0.0
  0
ARC
  5
5BF
330
18
100
AcDbEntity
  8
1
  6
Continuous
100
AcDbCircle
 10
168.7614386339847
 20
358.8366467163434
 30
0.0
 40
4.5
100
AcDbArc
 50
180.0000000000692
 51
262.2749430000524
  0
ARC
  5
5C0
330
18
100
AcDbEntity
  8
1
  6
Continuous
100
AcDbCircle
 10
165.7614386339847
 20
368.2359817163434
 30
0.0
 40
1.5
100
AcDbArc
 50
90.00000000008631
 51
180.0000000000692
  0
ARC
  5
5C1
330
18
100
AcDbEntity
  8
1
  6
Continuous
100
AcDbCircle
 10
201.7614386339847
 20
164.3633487163434
 30
0.0
 40
250.0
100
AcDbArc
 50
94.05993800001679
 51
97.72505700001651
  0
LINE
  5
5C2
330
18
100
AcDbEntity
  8
1
  6
Continuous
100
AcDbLine
 10
165.7614386339847
 20
396.7359817163434
 30
0.0
 11
188.7614386339848
 21
396.7359817163434
 31
0.0
  0
LINE
  5
5C3
330
18
100
AcDbEntity
  8
1
  6
Continuous
100
AcDbLine
 10
164.8682796339848
 20
394.2359817163433
 30
0.0
 11
188.7614386339848
 21
394.2359817163433
 31
0.0
  0
ARC
  5
5C4
330
18
100
AcDbEntity
  8
1
  6
Continuous
100
AcDbCircle
 10
193.7614386339848
 20
411.2359817163433
 30
0.0
 40
5.0
100
AcDbArc
 50
90.0000000000179
 51
180.0
  0
CIRCLE
  5
5C6
330
18
100
AcDbEntity
  8
1
  6
Continuous
100
AcDbCircle
 10
196.7614386339848
 20
408.2359817163434
 30
0.0
 40
3.1
  0
LINE
  5
5C7
330
18
100
AcDbEntity
  8
1
  6
Continuous
100
AcDbLine
 10
171.7614386339846
 20
412.5568217163434
 30
0.0
 11
188.7614386339848
 21
412.5568217163434
 31
0.0
  0
LINE
  5
5C8
330
18
100
AcDbEntity
  8
1
  6
Continuous
100
AcDbLine
 10
178.7614386339846
 20
413.3031007163434
 30
0.0
 11
189.2087446339848
 21
413.3031007163434
 31
0.0
  0
ARC
  5
5C9
330
18
100
AcDbEntity
  8
1
  6
Continuous
100
AcDbCircle
 10
201.7614386339847
 20
295.0485347163434
 30
0.0
 40
120.0
100
AcDbArc
 50
95.65150900001681
 51
98.48207600001536
  0
LINE
  5
5CA
330
18
100
AcDbEntity
  8
1
  6
Continuous
100
AcDbLine
 10
184.0614386339848
 20
413.7359817163431
 30
0.0
 11
189.4313116339848
 21
413.7359817163431
 31
0.0
  0
ARC
  5
5CB
330
18
100
AcDbEntity
  8
1
  6
Continuous
100
AcDbCircle
 10
168.7614386339847
 20
407.6353157163433
 30
0.0
 40
4.5
100
AcDbArc
 50
97.72505700008393
 51
180.0000000000692
  0
LINE
  5
5CC
330
18
100
AcDbEntity
  8
1
  6
Continuous
100
AcDbLine
 10
164.2614386339847
 20
398.2359817163434
 30
0.0
 11
164.2614386339847
 21
407.6353157163433
 31
0.0
  0
ARC
  5
5CD
330
18
100
AcDbEntity
  8
1
  6
Continuous
100
AcDbCircle
 10
165.7614386339847
 20
398.2359817163434
 30
0.0
 40
1.5
100
AcDbArc
 50
180.0000000000692
 51
270.0000000000521
  0
LINE
  5
5D3
330
18
100
AcDbEntity
  8
1
  6
Continuous
100
AcDbLine
 10
243.2262133152623
 20
357.3871440351808
 30
0.0
 11
245.9126027687318
 21
354.7007555814817
 31
0.0
  0
ARC
  5
5D4
330
18
100
AcDbEntity
  8
1
  6
Continuous
100
AcDbCircle
 10
245.4179356339848
 20
359.5794837163433
 30
0.0
 40
3.1
100
AcDbArc
 50
44.99195296496369
 51
225.0080683763172
  0
LINE
  5
5D5
330
18
100
AcDbEntity
  8
1
  6
Continuous
100
AcDbLine
 10
250.2966639529421
 20
359.0848183972711
 30
0.0
 11
247.610274498784
 21
361.7712068516586
 31
0.0
  0
ARC
  5
5D6
330
18
100
AcDbEntity
  8
1
  6
Continuous
100
AcDbCircle
 10
248.1049416339848
 20
356.8924787163433
 30
0.0
 40
3.1
100
AcDbArc
 50
224.991952953103
 51
45.00806837017992
  0
LINE
  5
5D7
330
18
100
AcDbEntity
  8
4
  6
CENTER
 48
0.1
100
AcDbLine
 10
85.21970063398482
 20
277.6000584786457
 30
0.0
 11
85.21970063398482
 21
267.6000584786457
 31
0.0
  0
LINE
  5
5D8
330
18
100
AcDbEntity
  8
4
  6
CENTER
 48
0.1
100
AcDbLine
 10
35.21970063398486
 20
277.6000584786457
 30
0.0
 11
35.21970063398486
 21
267.6000584786457
 31
0.0
  0
ARC
  5
71A
330
18
100
AcDbEntity
  8
1
  6
Continuous
100
AcDbCircle
 10
392.7025106339847
 20
252.1000584786457
 30
0.0
 40
4.5
100
AcDbArc
 50
7.725056999998452
 51
89.99999999998371
  0
ARC
  5
71B
330
18
100
AcDbEntity
  8
1
  6
Continuous
100
AcDbCircle
 10
383.3031766339847
 20
255.1000584786457
 30
0.0
 40
1.5
100
AcDbArc
 50
89.99999999998211
 51
179.9999999999658
  0
LINE
  5
71C
330
18
100
AcDbEntity
  8
1
  6
Continuous
100
AcDbLine
 10
378.8031766339847
 20
258.1000584786457
 30
0.0
 11
378.8031766339847
 21
250.8215023297694
 31
0.0
  0
LINE
  5
71D
330
18
100
AcDbEntity
  8
1
  6
Continuous
100
AcDbLine
 10
357.8031766339847
 20
258.1000584786457
 30
0.0
 11
357.8031766339847
 21
250.8215023297694
 31
0.0
  0
ARC
  5
71E
330
18
100
AcDbEntity
  8
1
  6
Continuous
100
AcDbCircle
 10
353.3031766339846
 20
255.1000584786457
 30
0.0
 40
1.5
100
AcDbArc
 50
0.000000000000007
 51
89.99999999998211
  0
ARC
  5
71F
330
18
100
AcDbEntity
  8
1
  6
Continuous
100
AcDbCircle
 10
343.9038426339847
 20
252.1000584786457
 30
0.0
 40
4.5
100
AcDbArc
 50
89.99999999998211
 51
172.274942999967
  0
ARC
  5
720
330
18
100
AcDbEntity
  8
1
  6
Continuous
100
AcDbCircle
 10
368.3031766339847
 20
156.1000584786456
 30
0.0
 40
100.0
100
AcDbArc
 50
83.68468399998382
 51
83.9728334398689
  0
LINE
  5
721
330
18
100
AcDbEntity
  8
4
  6
CENTER
 48
0.3
100
AcDbLine
 10
368.3031766339847
 20
204.1000584786457
 30
0.0
 11
368.3031766339847
 21
279.6000584786457
 31
0.0
  0
ARC
  5
724
330
18
100
AcDbEntity
  8
1
  6
Continuous
100
AcDbCircle
 10
392.7025106339847
 20
186.1000584786457
 30
0.0
 40
4.5
100
AcDbArc
 50
269.9999999999495
 51
352.2749429999325
  0
LINE
  5
725
330
18
100
AcDbEntity
  8
4
  6
CENTER
 48
0.3
100
AcDbLine
 10
331.4906236339847
 20
219.1000584786457
 30
0.0
 11
405.1157296339845
 21
219.1000584786457
 31
0.0
  0
LINE
  5
726
330
18
100
AcDbEntity
  8
1
  6
Continuous
100
AcDbLine
 10
398.8031766339847
 20
236.8000584786457
 30
0.0
 11
398.8031766339847
 21
201.4000584786456
 31
0.0
  0
ARC
  5
727
330
18
100
AcDbEntity
  8
1
  6
Continuous
100
AcDbCircle
 10
280.1157296339847
 20
219.1000584786457
 30
0.0
 40
120.0
100
AcDbArc
 50
351.5179239999328
 51
8.482075999929751
  0
LINE
  5
728
330
18
100
AcDbEntity
  8
1
  6
Continuous
100
AcDbLine
 10
398.3702956339847
 20
196.1000584786457
 30
0.0
 11
398.3702956339847
 21
242.1000584786457
 31
0.0
  0
LINE
  5
729
330
18
100
AcDbEntity
  8
1
  6
Continuous
100
AcDbLine
 10
397.6240166339847
 20
249.1000584786457
 30
0.0
 11
397.6240166339847
 21
189.1000584786457
 31
0.0
  0
ARC
  5
72A
330
18
100
AcDbEntity
  8
1
  6
Continuous
100
AcDbCircle
 10
149.4305436339847
 20
219.1000584786457
 30
0.0
 40
250.0
100
AcDbArc
 50
352.2749429999325
 51
355.9400619999317
  0
ARC
  5
72B
330
18
100
AcDbEntity
  8
1
  6
Continuous
100
AcDbCircle
 10
149.4305436339847
 20
219.1000584786457
 30
0.0
 40
250.0
100
AcDbArc
 50
4.059937999998871
 51
7.725056999998452
  0
LINE
  5
72D
330
18
100
AcDbEntity
  8
1
  6
Continuous
100
AcDbLine
 10
357.3031766339846
 20
255.4932164786457
 30
0.0
 11
357.3031766339846
 21
209.1000584786457
 31
0.0
  0
LINE
  5
72E
330
18
100
AcDbEntity
  8
1
  6
Continuous
100
AcDbLine
 10
379.3031766339847
 20
255.4932164786457
 30
0.0
 11
379.3031766339847
 21
209.1000584786457
 31
0.0
  0
LINE
  5
72F
330
18
100
AcDbEntity
  8
1
  6
Continuous
100
AcDbLine
 10
356.3031766339847
 20
227.6000584786457
 30
0.0
 11
356.3031766339847
 21
210.6000584786457
 31
0.0
  0
LINE
  5
730
330
18
100
AcDbEntity
  8
1
  6
Continuous
100
AcDbLine
 10
354.8031766339847
 20
255.1000584786457
 30
0.0
 11
354.8031766339847
 21
183.1000584786457
 31
0.0
  0
LINE
  5
731
330
18
100
AcDbEntity
  8
1
  6
Continuous
100
AcDbLine
 10
337.8031766339847
 20
236.8000584786457
 30
0.0
 11
337.8031766339847
 21
201.4000584786456
 31
0.0
  0
ARC
  5
732
330
18
100
AcDbEntity
  8
1
  6
Continuous
100
AcDbCircle
 10
456.4906236339846
 20
219.1000584786457
 30
0.0
 40
120.0
100
AcDbArc
 50
171.5179239999673
 51
188.4820759999643
  0
LINE
  5
733
330
18
100
AcDbEntity
  8
1
  6
Continuous
100
AcDbLine
 10
338.2360576339847
 20
196.1000584786457
 30
0.0
 11
338.2360576339847
 21
242.1000584786457
 31
0.0
  0
LINE
  5
734
330
18
100
AcDbEntity
  8
1
  6
Continuous
100
AcDbLine
 10
338.9823366339847
 20
249.1000584786457
 30
0.0
 11
338.9823366339847
 21
189.1000584786457
 31
0.0
  0
LINE
  5
735
330
18
100
AcDbEntity
  8
1
  6
Continuous
100
AcDbLine
 10
380.3031766339847
 20
227.6000584786457
 30
0.0
 11
380.3031766339847
 21
210.6000584786457
 31
0.0
  0
LINE
  5
736
330
18
100
AcDbEntity
  8
1
  6
Continuous
100
AcDbLine
 10
381.8031766339847
 20
255.1000584786457
 30
0.0
 11
381.8031766339847
 21
183.1000584786457
 31
0.0
  0
LINE
  5
737
330
18
100
AcDbEntity
  8
1
  6
Continuous
100
AcDbLine
 10
379.3031766339847
 20
209.1000584786457
 30
0.0
 11
357.3031766339846
 21
209.1000584786457
 31
0.0
  0
LINE
  5
738
330
18
100
AcDbEntity
  8
1
  6
Continuous
100
AcDbLine
 10
383.3031766339847
 20
181.6000584786457
 30
0.0
 11
392.7025106339847
 21
181.6000584786457
 31
0.0
  0
ARC
  5
739
330
18
100
AcDbEntity
  8
1
  6
Continuous
100
AcDbCircle
 10
383.3031766339847
 20
183.1000584786457
 30
0.0
 40
1.5
100
AcDbArc
 50
179.9999999999658
 51
269.9999999999495
  0
LINE
  5
73A
330
18
100
AcDbEntity
  8
1
  6
Continuous
100
AcDbLine
 10
381.3031766339847
 20
209.6000584786457
 30
0.0
 11
381.8031766339847
 21
209.6000584786457
 31
0.0
  0
ARC
  5
73B
330
18
100
AcDbEntity
  8
1
  6
Continuous
100
AcDbCircle
 10
379.3031766339847
 20
211.1000584786457
 30
0.0
 40
1.0
100
AcDbArc
 50
269.9999999999478
 51
359.9999999999307
  0
ARC
  5
73C
330
18
100
AcDbEntity
  8
1
  6
Continuous
100
AcDbCircle
 10
381.3031766339847
 20
210.6000584786457
 30
0.0
 40
1.0
100
AcDbArc
 50
179.9999999999658
 51
269.9999999999478
  0
ARC
  5
73D
330
18
100
AcDbEntity
  8
1
  6
Continuous
100
AcDbCircle
 10
587.1758096339847
 20
219.1000584786457
 30
0.0
 40
250.0
100
AcDbArc
 50
184.0599379999646
 51
187.7250569999639
  0
LINE
  5
73E
330
18
100
AcDbEntity
  8
1
  6
Continuous
100
AcDbLine
 10
353.3031766339846
 20
181.6000584786457
 30
0.0
 11
343.9038426339847
 21
181.6000584786457
 31
0.0
  0
ARC
  5
73F
330
18
100
AcDbEntity
  8
1
  6
Continuous
100
AcDbCircle
 10
353.3031766339846
 20
183.1000584786457
 30
0.0
 40
1.5
100
AcDbArc
 50
269.9999999999478
 51
359.9999999999307
  0
ARC
  5
740
330
18
100
AcDbEntity
  8
1
  6
Continuous
100
AcDbCircle
 10
343.9038426339847
 20
186.1000584786457
 30
0.0
 40
4.5
100
AcDbArc
 50
187.7250569999639
 51
269.9999999999478
  0
ARC
  5
741
330
18
100
AcDbEntity
  8
1
  6
Continuous
100
AcDbCircle
 10
357.3031766339846
 20
211.1000584786457
 30
0.0
 40
1.0
100
AcDbArc
 50
179.9999999999658
 51
269.9999999999495
  0
ARC
  5
742
330
18
100
AcDbEntity
  8
1
  6
Continuous
100
AcDbCircle
 10
355.3031766339846
 20
210.6000584786457
 30
0.0
 40
1.0
100
AcDbArc
 50
269.9999999999495
 51
359.9999999999307
  0
LINE
  5
743
330
18
100
AcDbEntity
  8
1
  6
Continuous
100
AcDbLine
 10
355.3031766339846
 20
209.6000584786457
 30
0.0
 11
354.8031766339847
 21
209.6000584786457
 31
0.0
  0
LINE
  5
744
330
18
100
AcDbEntity
  8
1
  6
Continuous
100
AcDbLine
 10
381.3031766339847
 20
228.6000584786457
 30
0.0
 11
381.8031766339847
 21
228.6000584786457
 31
0.0
  0
ARC
  5
745
330
18
100
AcDbEntity
  8
1
  6
Continuous
100
AcDbCircle
 10
379.3031766339847
 20
227.1000584786457
 30
0.0
 40
1.0
100
AcDbArc
 50
0.000000000000007
 51
89.99999999998371
  0
ARC
  5
746
330
18
100
AcDbEntity
  8
1
  6
Continuous
100
AcDbCircle
 10
381.3031766339847
 20
227.6000584786457
 30
0.0
 40
1.0
100
AcDbArc
 50
89.99999999998371
 51
179.9999999999658
  0
ARC
  5
747
330
18
100
AcDbEntity
  8
1
  6
Continuous
100
AcDbCircle
 10
357.3031766339846
 20
227.1000584786457
 30
0.0
 40
1.0
100
AcDbArc
 50
89.99999999998371
 51
179.9999999999658
  0
ARC
  5
748
330
18
100
AcDbEntity
  8
1
  6
Continuous
100
AcDbCircle
 10
355.3031766339846
 20
227.6000584786457
 30
0.0
 40
1.0
100
AcDbArc
 50
0.000000000000007
 51
89.99999999998371
  0
LINE
  5
749
330
18
100
AcDbEntity
  8
1
  6
Continuous
100
AcDbLine
 10
355.3031766339846
 20
228.6000584786457
 30
0.0
 11
354.8031766339847
 21
228.6000584786457
 31
0.0
  0
ARC
  5
74A
330
18
100
AcDbEntity
  8
1
  6
Continuous
100
AcDbCircle
 10
587.1758096339847
 20
219.1000584786457
 30
0.0
 40
250.0
100
AcDbArc
 50
172.274942999967
 51
175.940061999966
  0
LINE
  5
74C
330
18
100
AcDbEntity
  8
1
  6
Continuous
100
AcDbLine
 10
401.3031766339848
 20
270.8000584786457
 30
0.0
 11
335.3031766339847
 21
270.8000584786457
 31
0.0
  0
LINE
  5
74D
330
18
100
AcDbEntity
  8
1
  6
Continuous
100
AcDbLine
 10
401.3031766339848
 20
274.6000584786457
 30
0.0
 11
335.3031766339847
 21
274.6000584786457
 31
0.0
  0
LINE
  5
74E
330
18
100
AcDbEntity
  8
1
  6
Continuous
100
AcDbLine
 10
401.3031766339848
 20
270.8000584786457
 30
0.0
 11
401.3031766339848
 21
274.6000584786457
 31
0.0
  0
LINE
  5
751
330
18
100
AcDbEntity
  8
1
  6
Continuous
100
AcDbLine
 10
379.3031766339847
 20
258.1000584786457
 30
0.0
 11
357.3031766339846
 21
258.1000584786457
 31
0.0
  0
LINE
  5
752
330
18
100
AcDbEntity
  8
1
  6
Continuous
100
AcDbLine
 10
379.3031766339847
 20
266.1000584786457
 30
0.0
 11
357.3031766339846
 21
266.1000584786457
 31
0.0
  0
LINE
  5
753
330
18
100
AcDbEntity
  8
4
  6
CENTER
 48
0.1
100
AcDbLine
 10
393.3031766339846
 20
277.6000584786457
 30
0.0
 11
393.3031766339846
 21
267.6000584786457
 31
0.0
  0
ARC
  5
754
330
18
100
AcDbEntity
  8
1
  6
Continuous
100
AcDbCircle
 10
379.1129096339846
 20
270.1000584786457
 30
0.0
 40
4.0
100
AcDbArc
 50
269.9999999999478
 51
307.6863249999411
  0
LINE
  5
755
330
18
100
AcDbEntity
  8
1
  6
Continuous
100
AcDbLine
 10
383.3031766339847
 20
256.6000584786457
 30
0.0
 11
392.7025106339847
 21
256.6000584786457
 31
0.0
  0
LINE
  5
756
330
18
100
AcDbEntity
  8
1
  6
Continuous
100
AcDbLine
 10
379.3031766339847
 20
258.1000584786457
 30
0.0
 11
379.3031766339847
 21
266.1000584786457
 31
0.0
  0
LINE
  5
757
330
18
100
AcDbEntity
  8
1
  6
Continuous
100
AcDbLine
 10
386.3031766339847
 20
270.8000584786457
 30
0.0
 11
381.5582626339847
 21
266.9345804786457
 31
0.0
  0
LINE
  5
758
330
18
100
AcDbEntity
  8
4
  6
CENTER
 48
0.1
100
AcDbLine
 10
343.3031766339847
 20
277.6000584786457
 30
0.0
 11
343.3031766339847
 21
267.6000584786457
 31
0.0
  0
LINE
  5
759
330
18
100
AcDbEntity
  8
1
  6
Continuous
100
AcDbLine
 10
353.3031766339846
 20
256.6000584786457
 30
0.0
 11
343.9038426339847
 21
256.6000584786457
 31
0.0
  0
ARC
  5
75A
330
18
100
AcDbEntity
  8
1
  6
Continuous
100
AcDbCircle
 10
357.4934436339847
 20
270.1000584786457
 30
0.0
 40
4.0
100
AcDbArc
 50
232.3136749999556
 51
269.9999999999478
  0
LINE
  5
75B
330
18
100
AcDbEntity
  8
1
  6
Continuous
100
AcDbLine
 10
357.3031766339846
 20
266.1000584786457
 30
0.0
 11
357.3031766339846
 21
258.1000584786457
 31
0.0
  0
LINE
  5
75C
330
18
100
AcDbEntity
  8
1
  6
Continuous
100
AcDbLine
 10
350.3031766339847
 20
270.8000584786457
 30
0.0
 11
355.0480906339847
 21
266.9345804786457
 31
0.0
  0
LINE
  5
75D
330
18
100
AcDbEntity
  8
1
  6
Continuous
100
AcDbLine
 10
335.3031766339847
 20
274.6000584786457
 30
0.0
 11
335.3031766339847
 21
270.8000584786457
 31
0.0
  0
ARC
  5
8A2
330
18
100
AcDbEntity
  8
1
  6
Continuous
100
AcDbCircle
 10
368.3031766339847
 20
156.1000584786456
 30
0.0
 40
100.0
100
AcDbArc
 50
96.02716656013114
 51
96.31531599998181
  0
ARC
  5
8AA
330
18
100
AcDbEntity
  8
1
  6
Continuous
100
AcDbCircle
 10
387.5438518417316
 20
254.75752039214
 30
0.0
 40
30.0
100
AcDbArc
 50
187.5389760171647
 51
230.1070044522165
  0
ARC
  5
8AB
330
18
100
AcDbEntity
  8
1
  6
Continuous
100
AcDbCircle
 10
349.0625014262378
 20
254.75752039214
 30
0.0
 40
30.0
100
AcDbArc
 50
309.8929955477834
 51
352.4610239828352
  0
LINE
  5
8AC
330
18
100
AcDbEntity
  8
1
  6
Continuous
100
AcDbLine
 10
379.3031766339847
 20
219.1000584786457
 30
0.0
 11
357.3031766339846
 21
219.1000584786457
 31
0.0
  0
LINE
  5
8B2
330
18
100
AcDbEntity
  8
1
  6
Continuous
100
AcDbLine
 10
361.8031766339846
 20
217.1000584786457
 30
0.0
 11
374.8031766339846
 21
217.1000584786457
 31
0.0
  0
LINE
  5
8B3
330
18
100
AcDbEntity
  8
1
  6
Continuous
100
AcDbLine
 10
362.5531766339847
 20
219.1000584786457
 30
0.0
 11
361.8031766339846
 21
217.1000584786457
 31
0.0
  0
LINE
  5
8B4
330
18
100
AcDbEntity
  8
1
  6
Continuous
100
AcDbLine
 10
374.0531766339846
 20
219.1000584786457
 30
0.0
 11
374.8031766339846
 21
217.1000584786457
 31
0.0
  0
LINE
  5
8B6
330
18
100
AcDbEntity
  8
4
  6
CENTER
 48
0.3
100
AcDbLine
 10
514.8449146339845
 20
204.1000584786457
 30
0.0
 11
514.8449146339847
 21
279.6000584786459
 31
0.0
  0
LINE
  5
8B7
330
18
100
AcDbEntity
  8
1
  6
Continuous
100
AcDbLine
 10
504.3449146339844
 20
258.1000584786457
 30
0.0
 11
499.5394406339847
 21
231.7402134786457
 31
0.0
  0
CIRCLE
  5
8B8
330
18
100
AcDbEntity
  8
1
  6
Continuous
100
AcDbCircle
 10
534.8449146339845
 20
219.1000584786457
 30
0.0
 40
37.5
  0
LINE
  5
8B9
330
18
100
AcDbEntity
  8
4
  6
CENTER
 48
0.3
100
AcDbLine
 10
534.8449146339845
 20
261.6000584786457
 30
0.0
 11
534.8449146339845
 21
176.6000584786457
 31
0.0
  0
LINE
  5
8BC
330
18
100
AcDbEntity
  8
4
  6
CENTER
 48
0.3
100
AcDbLine
 10
492.3449146339846
 20
219.1000584786457
 30
0.0
 11
577.3449146339848
 21
219.1000584786457
 31
0.0
  0
CIRCLE
  5
8BE
330
18
100
AcDbEntity
  8
1
  6
Continuous
100
AcDbCircle
 10
534.8449146339845
 20
219.1000584786457
 30
0.0
 40
17.7
  0
CIRCLE
  5
8BF
330
18
100
AcDbEntity
  8
1
  6
Continuous
100
AcDbCircle
 10
534.8449146339845
 20
219.1000584786457
 30
0.0
 40
28.0
  0
CIRCLE
  5
8C0
330
18
100
AcDbEntity
  8
1
  6
Continuous
100
AcDbCircle
 10
534.8449146339845
 20
219.1000584786457
 30
0.0
 40
23.0
  0
ARC
  5
8C1
330
18
100
AcDbEntity
  8
1
  6
Continuous
100
AcDbCircle
 10
504.0351816339846
 20
270.1000584786457
 30
0.0
 40
4.0
100
AcDbArc
 50
232.3136749999556
 51
269.9999999999478
  0
LINE
  5
8C4
330
18
100
AcDbEntity
  8
1
  6
Continuous
100
AcDbLine
 10
547.8449146339847
 20
274.6000584786457
 30
0.0
 11
481.8449146339847
 21
274.6000584786457
 31
0.0
  0
LINE
  5
8C5
330
18
100
AcDbEntity
  8
1
  6
Continuous
100
AcDbLine
 10
547.8449146339847
 20
270.8000584786457
 30
0.0
 11
481.8449146339847
 21
270.8000584786457
 31
0.0
  0
LINE
  5
8C6
330
18
100
AcDbEntity
  8
4
  6
CENTER
 48
0.1
100
AcDbLine
 10
539.8449146339847
 20
277.6000584786457
 30
0.0
 11
539.8449146339847
 21
267.6000584786457
 31
0.0
  0
LINE
  5
8C7
330
18
100
AcDbEntity
  8
1
  6
Continuous
100
AcDbLine
 10
547.8449146339847
 20
270.8000584786457
 30
0.0
 11
547.8449146339847
 21
274.6000584786457
 31
0.0
  0
LINE
  5
8C8
330
18
100
AcDbEntity
  8
1
  6
Continuous
100
AcDbLine
 10
503.8449146339845
 20
258.1000584786457
 30
0.0
 11
525.8449146339845
 21
258.1000584786457
 31
0.0
  0
LINE
  5
8C9
330
18
100
AcDbEntity
  8
1
  6
Continuous
100
AcDbLine
 10
525.6546476339845
 20
266.1000584786457
 30
0.0
 11
504.0351816339846
 21
266.1000584786457
 31
0.0
  0
ARC
  5
8CA
330
18
100
AcDbEntity
  8
1
  6
Continuous
100
AcDbCircle
 10
525.6546476339845
 20
270.1000584786457
 30
0.0
 40
4.0
100
AcDbArc
 50
269.9999999999478
 51
307.6863249999415
  0
ARC
  5
8CB
330
18
100
AcDbEntity
  8
1
  6
Continuous
100
AcDbCircle
 10
531.7036256339846
 20
265.8180114786457
 30
0.0
 40
10.0
100
AcDbArc
 50
230.515380999956
 51
254.9855739999514
  0
LINE
  5
8CC
330
18
100
AcDbEntity
  8
1
  6
Continuous
100
AcDbLine
 10
525.8449146339845
 20
258.1000584786457
 30
0.0
 11
525.8449146339845
 21
266.1000584786457
 31
0.0
  0
LINE
  5
8CD
330
18
100
AcDbEntity
  8
1
  6
Continuous
100
AcDbLine
 10
532.8449146339846
 20
270.8000584786457
 30
0.0
 11
528.1000006339845
 21
266.9345804786457
 31
0.0
  0
LINE
  5
8CE
330
18
100
AcDbEntity
  8
1
  6
Continuous
100
AcDbLine
 10
503.8449146339845
 20
266.1000584786457
 30
0.0
 11
503.8449146339845
 21
258.1000584786457
 31
0.0
  0
LINE
  5
8D0
330
18
100
AcDbEntity
  8
4
  6
CENTER
 48
0.1
100
AcDbLine
 10
489.8449146339847
 20
277.6000584786457
 30
0.0
 11
489.8449146339847
 21
267.6000584786457
 31
0.0
  0
LINE
  5
8D1
330
18
100
AcDbEntity
  8
1
  6
Continuous
100
AcDbLine
 10
496.8449146339846
 20
270.8000584786457
 30
0.0
 11
501.5898286339846
 21
266.9345804786457
 31
0.0
  0
LINE
  5
8D2
330
18
100
AcDbEntity
  8
1
  6
Continuous
100
AcDbLine
 10
481.8449146339847
 20
274.6000584786457
 30
0.0
 11
481.8449146339847
 21
270.8000584786457
 31
0.0
  0
LINE
  5
96D
330
18
100
AcDbEntity
  8
1
  6
Continuous
100
AcDbLine
 10
164.8682796339848
 20
63.96413524094803
 30
0.0
 11
238.6545973522787
 21
63.96413524094803
 31
0.0
  0
LINE
  5
96F
330
18
100
AcDbEntity
  8
1
  6
Continuous
100
AcDbLine
 10
164.8682796339848
 20
85.96413524094804
 30
0.0
 11
238.6545973522787
 21
85.96413524094804
 31
0.0
  0
LINE
  5
970
330
18
100
AcDbEntity
  8
1
  6
Continuous
100
AcDbLine
 10
165.7614386339847
 20
88.46413524094804
 30
0.0
 11
237.7614386339846
 21
88.46413524094804
 31
0.0
  0
LINE
  5
974
330
18
100
AcDbEntity
  8
4
  6
CENTER
 48
0.3
100
AcDbLine
 10
259.7614386339846
 20
74.96413524094805
 30
0.0
 11
146.8185146339848
 21
74.96413524094805
 31
0.0
  0
ARC
  5
975
330
18
100
AcDbEntity
  8
1
  6
Continuous
100
AcDbCircle
 10
264.2614386339847
 20
74.96413524094805
 30
0.0
 40
100.0
100
AcDbArc
 50
173.6846839999321
 51
186.3153159999302
  0
LINE
  5
977
330
18
100
AcDbEntity
  8
1
  6
Continuous
100
AcDbLine
 10
164.2614386339847
 20
89.96413524094805
 30
0.0
 11
164.2614386339847
 21
99.36347024094809
 31
0.0
  0
ARC
  5
978
330
18
100
AcDbEntity
  8
1
  6
Continuous
100
AcDbCircle
 10
168.7614386339847
 20
99.36347024094809
 30
0.0
 40
4.5
100
AcDbArc
 50
97.72505699994757
 51
179.9999999999307
  0
ARC
  5
979
330
18
100
AcDbEntity
  8
1
  6
Continuous
100
AcDbCircle
 10
165.7614386339847
 20
89.96413524094805
 30
0.0
 40
1.5
100
AcDbArc
 50
179.9999999999307
 51
269.9999999999136
  0
LINE
  5
97A
330
18
100
AcDbEntity
  8
1
  6
Continuous
100
AcDbLine
 10
164.2614386339847
 20
59.96413524094805
 30
0.0
 11
164.2614386339847
 21
50.56480124094804
 31
0.0
  0
ARC
  5
97B
330
18
100
AcDbEntity
  8
1
  6
Continuous
100
AcDbCircle
 10
165.7614386339847
 20
59.96413524094805
 30
0.0
 40
1.5
100
AcDbArc
 50
89.99999999994789
 51
179.9999999999307
  0
ARC
  5
97C
330
18
100
AcDbEntity
  8
1
  6
Continuous
100
AcDbCircle
 10
168.7614386339847
 20
50.56480124094804
 30
0.0
 40
4.5
100
AcDbArc
 50
179.9999999999307
 51
262.274942999916
  0
LINE
  5
97F
330
18
100
AcDbEntity
  8
1
  6
Continuous
100
AcDbLine
 10
193.7614386339848
 20
107.964135240948
 30
0.0
 11
249.7614386339847
 21
107.964135240948
 31
0.0
  0
LINE
  5
980
330
18
100
AcDbEntity
  8
1
  6
Continuous
100
AcDbLine
 10
193.7614386339848
 20
41.96413524094803
 30
0.0
 11
249.7614386339847
 21
41.96413524094803
 31
0.0
  0
LINE
  5
981
330
18
100
AcDbEntity
  8
4
  6
CENTER
 48
0.3
100
AcDbLine
 10
253.8986845872628
 20
99.96413524094805
 30
0.0
 11
189.7614386339848
 21
99.96413524094805
 31
0.0
  0
LINE
  5
982
330
18
100
AcDbEntity
  8
4
  6
CENTER
 48
0.3
100
AcDbLine
 10
253.7614386339847
 20
49.96413524094805
 30
0.0
 11
190.6614386339848
 21
49.96413524094805
 31
0.0
  0
LINE
  5
984
330
18
100
AcDbEntity
  8
4
  6
CENTER
 48
0.3
100
AcDbLine
 10
196.7614386339848
 20
43.86413524094803
 30
0.0
 11
196.7614386339848
 21
106.964135240948
 31
0.0
  0
LINE
  5
985
330
18
100
AcDbEntity
  8
4
  6
CENTER
 48
0.3
100
AcDbLine
 10
221.7614386339848
 20
36.96413524094811
 30
0.0
 11
221.7614386339848
 21
112.964135240948
 31
0.0
  0
LINE
  5
986
330
18
100
AcDbEntity
  8
4
  6
CENTER
 48
0.3
100
AcDbLine
 10
201.7614386339847
 20
110.964135240948
 30
0.0
 11
201.7614386339848
 21
38.96413524094811
 31
0.0
  0
ARC
  5
98D
330
18
100
AcDbEntity
  8
1
  6
Continuous
100
AcDbCircle
 10
193.7614386339848
 20
102.964135240948
 30
0.0
 40
5.0
100
AcDbArc
 50
89.99999999994789
 51
139.7703321913356
  0
ARC
  5
991
330
18
100
AcDbEntity
  8
1
  6
Continuous
100
AcDbCircle
 10
193.7614386339848
 20
46.96413524094803
 30
0.0
 40
5.0
100
AcDbArc
 50
220.2296678086643
 51
269.9999999999821
  0
LINE
  5
995
330
18
100
AcDbEntity
  8
1
  6
Continuous
100
AcDbLine
 10
254.7614386339847
 20
102.964135240948
 30
0.0
 11
254.7614386339847
 21
46.96413524094803
 31
0.0
  0
LINE
  5
996
330
18
100
AcDbEntity
  8
4
  6
CENTER
 48
0.3
100
AcDbLine
 10
246.7614386339847
 20
42.96413524094805
 30
0.0
 11
246.7614386339847
 21
107.1013811942261
 31
0.0
  0
ARC
  5
997
330
18
100
AcDbEntity
  8
1
  6
Continuous
100
AcDbCircle
 10
245.4179356339848
 20
98.62063324094812
 30
0.0
 40
3.1
100
AcDbArc
 50
134.9919313211757
 51
315.0080473494785
  0
ARC
  5
998
330
18
100
AcDbEntity
  8
1
  6
Continuous
100
AcDbCircle
 10
248.1049416339848
 20
101.3076382409481
 30
0.0
 40
3.1
100
AcDbArc
 50
314.9919313294217
 51
135.0080473553521
  0
LINE
  5
999
330
18
100
AcDbEntity
  8
1
  6
Continuous
100
AcDbLine
 10
250.2966639414494
 20
99.11529854852762
 30
0.0
 11
247.610274510814
 21
96.42891011766272
 31
0.0
  0
LINE
  5
99A
330
18
100
AcDbEntity
  8
1
  6
Continuous
100
AcDbLine
 10
243.2262133268356
 20
100.812972933684
 30
0.0
 11
245.9126027569308
 21
103.4993613640087
 31
0.0
  0
ARC
  5
99B
330
18
100
AcDbEntity
  8
1
  6
Continuous
100
AcDbCircle
 10
249.7614386339847
 20
102.964135240948
 30
0.0
 40
5.0
100
AcDbArc
 50
359.9999999999657
 51
89.99999999994789
  0
CIRCLE
  5
99C
330
18
100
AcDbEntity
  8
1
  6
Continuous
100
AcDbCircle
 10
246.7614386339847
 20
49.96413524094805
 30
0.0
 40
4.0
  0
ARC
  5
99D
330
18
100
AcDbEntity
  8
1
  6
Continuous
100
AcDbCircle
 10
249.7614386339847
 20
46.96413524094803
 30
0.0
 40
5.0
100
AcDbArc
 50
269.9999999999821
 51
359.9999999999657
  0
ARC
  5
B01
330
18
100
AcDbEntity
  8
1
  6
Continuous
100
AcDbCircle
 10
234.7614386339846
 20
99.36347024094809
 30
0.0
 40
4.5
100
AcDbArc
 50
0.0000000000692413
 51
82.27494300005245
  0
LINE
  5
B02
330
18
100
AcDbEntity
  8
1
  6
Continuous
100
AcDbLine
 10
239.2614386339846
 20
89.96413524094805
 30
0.0
 11
239.2614386339846
 21
99.36347024094809
 31
0.0
  0
ARC
  5
B03
330
18
100
AcDbEntity
  8
1
  6
Continuous
100
AcDbCircle
 10
237.7614386339846
 20
89.96413524094805
 30
0.0
 40
1.5
100
AcDbArc
 50
270.0000000000863
 51
0.0000000000692413
  0
ARC
  5
B04
330
18
100
AcDbEntity
  8
1
  6
Continuous
100
AcDbCircle
 10
139.2614386339846
 20
74.96413524094805
 30
0.0
 40
100.0
100
AcDbArc
 50
353.6846840000698
 51
6.315316000067882
  0
LINE
  5
B05
330
18
100
AcDbEntity
  8
1
  6
Continuous
100
AcDbLine
 10
239.2614386339846
 20
59.96413524094805
 30
0.0
 11
239.2614386339846
 21
50.56480124094804
 31
0.0
  0
ARC
  5
B06
330
18
100
AcDbEntity
  8
1
  6
Continuous
100
AcDbCircle
 10
234.7614386339846
 20
50.56480124094804
 30
0.0
 40
4.5
100
AcDbArc
 50
277.7250570000838
 51
0.0000000000692413
  0
ARC
  5
B07
330
18
100
AcDbEntity
  8
1
  6
Continuous
100
AcDbCircle
 10
237.7614386339846
 20
59.96413524094805
 30
0.0
 40
1.5
100
AcDbArc
 50
0.0000000000692413
 51
90.00000000005206
  0
LINE
  5
B08
330
18
100
AcDbEntity
  8
1
  6
Continuous
100
AcDbLine
 10
219.4614386339847
 20
105.464135240948
 30
0.0
 11
184.0614386339847
 21
105.464135240948
 31
0.0
  0
ARC
  5
B09
330
18
100
AcDbEntity
  8
1
  6
Continuous
100
AcDbCircle
 10
201.7614386339847
 20
-13.22331175905196
 30
0.0
 40
120.0
100
AcDbArc
 50
81.51792400007023
 51
98.48207600006723
  0
LINE
  5
B0A
330
18
100
AcDbEntity
  8
1
  6
Continuous
100
AcDbLine
 10
178.7614386339846
 20
105.031254240948
 30
0.0
 11
224.7614386339847
 21
105.031254240948
 31
0.0
  0
LINE
  5
B0B
330
18
100
AcDbEntity
  8
1
  6
Continuous
100
AcDbLine
 10
231.7614386339847
 20
104.284975240948
 30
0.0
 11
171.7614386339846
 21
104.284975240948
 31
0.0
  0
ARC
  5
B0C
330
18
100
AcDbEntity
  8
1
  6
Continuous
100
AcDbCircle
 10
201.7614386339847
 20
-143.908497759052
 30
0.0
 40
250.0
100
AcDbArc
 50
94.05993800006829
 51
97.7250570000675
  0
ARC
  5
B0D
330
18
100
AcDbEntity
  8
1
  6
Continuous
100
AcDbCircle
 10
201.7614386339847
 20
-143.908497759052
 30
0.0
 40
250.0
100
AcDbArc
 50
82.27494300000154
 51
85.94006200000112
  0
LINE
  5
B20
330
18
100
AcDbEntity
  8
1
  6
Continuous
100
AcDbLine
 10
165.7614386339847
 20
61.46413524094803
 30
0.0
 11
237.7614386339846
 21
61.46413524094803
 31
0.0
  0
ARC
  5
B21
330
18
100
AcDbEntity
  8
1
  6
Continuous
100
AcDbCircle
 10
201.7614386339847
 20
293.8367682409481
 30
0.0
 40
250.0
100
AcDbArc
 50
262.2749429999325
 51
265.9400619999317
  0
LINE
  5
B22
330
18
100
AcDbEntity
  8
1
  6
Continuous
100
AcDbLine
 10
231.7614386339847
 20
45.64329524094802
 30
0.0
 11
171.7614386339846
 21
45.64329524094802
 31
0.0
  0
LINE
  5
B23
330
18
100
AcDbEntity
  8
1
  6
Continuous
100
AcDbLine
 10
219.4614386339847
 20
44.46413524094803
 30
0.0
 11
184.0614386339847
 21
44.46413524094803
 31
0.0
  0
ARC
  5
B24
330
18
100
AcDbEntity
  8
1
  6
Continuous
100
AcDbCircle
 10
201.7614386339847
 20
163.151582240948
 30
0.0
 40
120.0
100
AcDbArc
 50
261.5179239999327
 51
278.4820759999297
  0
LINE
  5
B25
330
18
100
AcDbEntity
  8
1
  6
Continuous
100
AcDbLine
 10
178.7614386339846
 20
44.89701624094807
 30
0.0
 11
224.7614386339847
 21
44.89701624094807
 31
0.0
  0
ARC
  5
B26
330
18
100
AcDbEntity
  8
1
  6
Continuous
100
AcDbCircle
 10
201.7614386339847
 20
293.8367682409481
 30
0.0
 40
250.0
100
AcDbArc
 50
274.0599379999989
 51
277.7250569999984
  0
CIRCLE
  5
B27
330
18
100
AcDbEntity
  8
1
  6
Continuous
100
AcDbCircle
 10
221.7614386339848
 20
74.96413524094805
 30
0.0
 40
6.5
  0
LINE
  5
B28
330
18
100
AcDbEntity
  8
1
  6
Continuous
100
AcDbLine
 10
236.2614386339846
 20
85.96413524094806
 30
0.0
 11
236.2614386339846
 21
63.96413524094803
 31
0.0
  0
ARC
  5
B2A
330
18
100
AcDbEntity
  8
1
  6
Continuous
100
AcDbCircle
 10
221.7614386339848
 20
74.96413524094805
 30
0.0
 40
18.0
100
AcDbArc
 50
311.4096221092708
 51
322.3301130356702
  0
ARC
  5
B2B
330
18
100
AcDbEntity
  8
1
  6
Continuous
100
AcDbCircle
 10
221.7614386339848
 20
74.96413524094805
 30
0.0
 40
18.0
100
AcDbArc
 50
37.66988696432967
 51
48.59037789072921
  0
ARC
  5
B2C
330
18
100
AcDbEntity
  8
1
  6
Continuous
100
AcDbCircle
 10
221.7614386339848
 20
74.96413524094805
 30
0.0
 40
18.0
100
AcDbArc
 50
345.0709960646708
 51
14.92900393532914
  0
LINE
  5
B80
330
18
100
AcDbEntity
  8
1
  6
Continuous
100
AcDbLine
 10
193.2614386339847
 20
62.96413524094806
 30
0.0
 11
210.2614386339847
 21
62.96413524094806
 31
0.0
  0
ARC
  5
B81
330
18
100
AcDbEntity
  8
1
  6
Continuous
100
AcDbCircle
 10
193.2614386339847
 20
61.96413524094804
 30
0.0
 40
1.0
100
AcDbArc
 50
89.99999999998044
 51
179.9999999999658
  0
LINE
  5
B82
330
18
100
AcDbEntity
  8
1
  6
Continuous
100
AcDbLine
 10
192.2614386339846
 20
61.96413524094804
 30
0.0
 11
192.2614386339846
 21
61.46413524094803
 31
0.0
  0
ARC
  5
B83
330
18
100
AcDbEntity
  8
1
  6
Continuous
100
AcDbCircle
 10
193.7614386339847
 20
63.96413524094803
 30
0.0
 40
1.0
100
AcDbArc
 50
179.9999999999658
 51
269.9999999999478
  0
ARC
  5
B84
330
18
100
AcDbEntity
  8
1
  6
Continuous
100
AcDbCircle
 10
210.2614386339847
 20
61.96413524094804
 30
0.0
 40
1.0
100
AcDbArc
 50
359.9999999999299
 51
89.99999999991208
  0
LINE
  5
B85
330
18
100
AcDbEntity
  8
1
  6
Continuous
100
AcDbLine
 10
211.2614386339847
 20
61.96413524094804
 30
0.0
 11
211.2614386339847
 21
61.46413524094803
 31
0.0
  0
ARC
  5
B86
330
18
100
AcDbEntity
  8
1
  6
Continuous
100
AcDbCircle
 10
209.7614386339847
 20
63.96413524094803
 30
0.0
 40
1.0
100
AcDbArc
 50
269.9999999999478
 51
359.9999999999299
  0
LINE
  5
B87
330
18
100
AcDbEntity
  8
1
  6
Continuous
100
AcDbLine
 10
193.2614386339847
 20
86.96413524094806
 30
0.0
 11
210.2614386339847
 21
86.96413524094806
 31
0.0
  0
LINE
  5
B88
330
18
100
AcDbEntity
  8
1
  6
Continuous
100
AcDbLine
 10
192.2614386339846
 20
87.96413524094807
 30
0.0
 11
192.2614386339846
 21
88.46413524094804
 31
0.0
  0
ARC
  5
B89
330
18
100
AcDbEntity
  8
1
  6
Continuous
100
AcDbCircle
 10
193.7614386339847
 20
85.96413524094804
 30
0.0
 40
1.0
100
AcDbArc
 50
89.99999999998044
 51
179.9999999999658
  0
ARC
  5
B8A
330
18
100
AcDbEntity
  8
1
  6
Continuous
100
AcDbCircle
 10
193.2614386339847
 20
87.96413524094807
 30
0.0
 40
1.0
100
AcDbArc
 50
179.9999999999658
 51
269.9999999999478
  0
LINE
  5
B8B
330
18
100
AcDbEntity
  8
1
  6
Continuous
100
AcDbLine
 10
211.2614386339847
 20
87.96413524094807
 30
0.0
 11
211.2614386339847
 21
88.46413524094804
 31
0.0
  0
ARC
  5
B8C
330
18
100
AcDbEntity
  8
1
  6
Continuous
100
AcDbCircle
 10
209.7614386339847
 20
85.96413524094804
 30
0.0
 40
1.0
100
AcDbArc
 50
359.9999999999299
 51
89.99999999991208
  0
ARC
  5
B8D
330
18
100
AcDbEntity
  8
1
  6
Continuous
100
AcDbCircle
 10
210.2614386339847
 20
87.96413524094807
 30
0.0
 40
1.0
100
AcDbArc
 50
269.9999999999478
 51
359.9999999999299
  0
LINE
  5
B9B
330
18
100
AcDbEntity
  8
1
  6
Continuous
100
AcDbLine
 10
188.761438633985
 20
88.46413524094804
 30
0.0
 11
188.761438633985
 21
85.96413524094804
 31
0.0
  0
LINE
  5
B9C
330
18
100
AcDbEntity
  8
1
  6
Continuous
100
AcDbLine
 10
188.761438633985
 20
63.96413524094803
 30
0.0
 11
188.761438633985
 21
61.46413524094803
 31
0.0
  0
LINE
  5
B9E
330
18
100
AcDbEntity
  8
1
  6
Continuous
100
AcDbLine
 10
211.7614386339847
 20
85.96413524094684
 30
0.0
 11
211.7614386339847
 21
63.96413524094683
 31
0.0
  0
ARC
  5
FFF
330
18
100
AcDbEntity
  8
5
  6
PHANTOM
 48
0.2
100
AcDbCircle
 10
80.12405463398478
 20
218.4360364786457
 30
0.0
 40
80.0
100
AcDbArc
 50
356.7465940000341
 51
19.40312500003031
  0
ARC
  5
1000
330
18
100
AcDbEntity
  8
5
  6
PHANTOM
 48
0.2
100
AcDbCircle
 10
114.2301916339847
 20
223.2470474786457
 30
0.0
 40
50.0
100
AcDbArc
 50
348.0537040000391
 51
28.2480400000305
  0
ARC
  5
1009
330
18
100
AcDbEntity
  8
5
  6
PHANTOM
 48
0.2
100
AcDbCircle
 10
161.4927006339845
 20
213.8107364786457
 30
0.0
 40
1.5
100
AcDbArc
 50
176.7465940000702
 51
280.0000000000515
  0
LINE
  5
100A
330
18
100
AcDbEntity
  8
5
  6
PHANTOM
 48
0.2
100
AcDbLine
 10
162.7449476339847
 20
212.5084014786457
 30
0.0
 11
161.7531736339848
 21
212.3335254786456
 31
0.0
  0
ARC
  5
100B
330
18
100
AcDbEntity
  8
5
  6
PHANTOM
 48
0.2
100
AcDbCircle
 10
162.6581236339848
 20
213.0008054786457
 30
0.0
 40
0.5
100
AcDbArc
 50
280.0000000000451
 51
348.0537040000391
  0
ARC
  5
100C
330
18
100
AcDbEntity
  8
5
  6
PHANTOM
 48
0.2
100
AcDbCircle
 10
167.1356536339848
 20
226.4112364786457
 30
0.0
 40
3.0
100
AcDbArc
 50
121.0917100000801
 51
183.4226900000693
  0
ARC
  5
1020
330
18
100
AcDbEntity
  8
5
  6
PHANTOM
 48
0.2
100
AcDbCircle
 10
162.9542126339846
 20
242.7974904786457
 30
0.0
 40
2.5
100
AcDbArc
 50
201.8630540000661
 51
325.5740830000398
  0
ARC
  5
1024
330
18
100
AcDbEntity
  8
1
  6
Continuous
100
AcDbCircle
 10
185.0482376339848
 20
253.9566104786457
 30
0.0
 40
0.5
100
AcDbArc
 50
308.2480400000457
 51
20.00000000003042
  0
ARC
  5
1025
330
18
100
AcDbEntity
  8
5
  6
PHANTOM
 48
0.2
100
AcDbCircle
 10
174.9146506339848
 20
234.6000584786457
 30
0.0
 40
12.0
100
AcDbArc
 50
83.885231000016
 51
145.5740830000046
  0
ARC
  5
102B
330
18
100
AcDbEntity
  8
1
  6
Continuous
100
AcDbCircle
 10
152.7232616339847
 20
243.3594034786457
 30
0.0
 40
0.5
100
AcDbArc
 50
200.0000000000655
 51
268.0537040000531
  0
LINE
  5
102C
330
18
100
AcDbEntity
  8
5
  6
PHANTOM
 48
0.2
100
AcDbLine
 10
157.7482606339848
 20
247.1672824786456
 30
0.0
 11
156.7347526339848
 21
246.9885734786457
 31
0.0
  0
ARC
  5
102D
330
18
100
AcDbEntity
  8
5
  6
PHANTOM
 48
0.2
100
AcDbCircle
 10
157.8350846339848
 20
246.6748784786457
 30
0.0
 40
0.5
100
AcDbArc
 50
28.2480400000305
 51
100.0000000000119
  0
ARC
  5
102E
330
18
100
AcDbEntity
  8
5
  6
PHANTOM
 48
0.2
100
AcDbCircle
 10
156.9952246339847
 20
245.5113624786457
 30
0.0
 40
1.5
100
AcDbArc
 50
100.0000000000842
 51
199.4031250000653
  0
ARC
  5
10BF
330
18
100
AcDbEntity
  8
1
  6
Continuous
100
AcDbCircle
 10
154.4044176339848
 20
292.8308474786457
 30
0.0
 40
50.0
100
AcDbArc
 50
268.0537040000531
 51
308.2480400000457
  0
ARC
  5
10C0
330
18
100
AcDbEntity
  8
1
  6
Continuous
100
AcDbCircle
 10
143.7440286339848
 20
325.5834124786457
 30
0.0
 40
80.0
100
AcDbArc
 50
276.7465940000541
 51
299.4031250000458
  0
LINE
  5
10C1
330
18
100
AcDbEntity
  8
1
  6
Continuous
100
AcDbLine
 10
152.2534156339848
 20
243.1883934786457
 30
0.0
 11
151.9089756339848
 21
244.1347334786457
 31
0.0
  0
ARC
  5
10C2
330
18
100
AcDbEntity
  8
1
  6
Continuous
100
AcDbCircle
 10
153.3185146339848
 20
244.6477634786457
 30
0.0
 40
1.5
100
AcDbArc
 50
96.74659400008692
 51
200.0000000000655
  0
ARC
  5
10C3
330
18
100
AcDbEntity
  8
1
  6
Continuous
100
AcDbCircle
 10
176.8067366339847
 20
236.9191364786457
 30
0.0
 40
8.0
100
AcDbArc
 50
156.6520290000046
 51
179.4500559999985
  0
ARC
  5
10C4
330
18
100
AcDbEntity
  8
1
  6
Continuous
100
AcDbCircle
 10
166.7074726339848
 20
241.2785934786457
 30
0.0
 40
3.0
100
AcDbArc
 50
336.6520290000396
 51
103.4226900000138
  0
ARC
  5
10C5
330
18
100
AcDbEntity
  8
1
  6
Continuous
100
AcDbCircle
 10
183.7565576339848
 20
254.5816694786457
 30
0.0
 40
1.5
100
AcDbArc
 50
20.00000000003042
 51
119.4031250000095
  0
LINE
  5
10C6
330
18
100
AcDbEntity
  8
1
  6
Continuous
100
AcDbLine
 10
185.5180846339846
 20
254.1276204786457
 30
0.0
 11
185.1660966339848
 21
255.0946994786457
 31
0.0
  0
ARC
  5
1164
330
18
100
AcDbEntity
  8
1
  6
Continuous
100
AcDbCircle
 10
552.8497956339846
 20
254.5816694786457
 30
0.0
 40
1.5
100
AcDbArc
 50
60.5968749999905
 51
159.9999999999695
  0
ARC
  5
1165
330
18
100
AcDbEntity
  8
1
  6
Continuous
100
AcDbCircle
 10
582.2019356339843
 20
292.8308474786457
 30
0.0
 40
50.0
100
AcDbArc
 50
231.7519599999542
 51
271.9462959999467
  0
ARC
  5
1166
330
18
100
AcDbEntity
  8
1
  6
Continuous
100
AcDbCircle
 10
592.8623246339846
 20
325.5834124786457
 30
0.0
 40
80.0
100
AcDbArc
 50
240.5968749999541
 51
263.2534059999457
  0
LINE
  5
1167
330
18
100
AcDbEntity
  8
1
  6
Continuous
100
AcDbLine
 10
584.3529376339846
 20
243.1883934786457
 30
0.0
 11
584.6973776339845
 21
244.1347334786457
 31
0.0
  0
ARC
  5
1168
330
18
100
AcDbEntity
  8
1
  6
Continuous
100
AcDbCircle
 10
583.8830916339848
 20
243.3594034786457
 30
0.0
 40
0.5
100
AcDbArc
 50
271.9462959999467
 51
339.9999999999344
  0
ARC
  5
1169
330
18
100
AcDbEntity
  8
1
  6
Continuous
100
AcDbCircle
 10
583.2878386339846
 20
244.6477634786457
 30
0.0
 40
1.5
100
AcDbArc
 50
339.9999999999344
 51
83.25340599991308
  0
ARC
  5
116A
330
18
100
AcDbEntity
  8
1
  6
Continuous
100
AcDbCircle
 10
569.8988806339846
 20
241.2785934786457
 30
0.0
 40
3.0
100
AcDbArc
 50
76.57730999998618
 51
203.3479709999602
  0
ARC
  5
116B
330
18
100
AcDbEntity
  8
1
  6
Continuous
100
AcDbCircle
 10
559.7996166339846
 20
236.9191364786457
 30
0.0
 40
8.0
100
AcDbArc
 50
0.5499440000015074
 51
23.34797099999531
  0
ARC
  5
116C
330
18
100
AcDbEntity
  8
1
  6
Continuous
100
AcDbCircle
 10
551.5581156339846
 20
253.9566104786457
 30
0.0
 40
0.5
100
AcDbArc
 50
159.9999999999695
 51
231.7519599999542
  0
LINE
  5
116D
330
18
100
AcDbEntity
  8
1
  6
Continuous
100
AcDbLine
 10
551.0882686339846
 20
254.1276204786457
 30
0.0
 11
551.4402566339846
 21
255.0946994786457
 31
0.0
  0
LINE
  5
1466
330
18
100
AcDbEntity
  8
1
  6
Continuous
100
AcDbLine
 10
70.71970063398481
 20
228.9802631797848
 30
0.0
 11
70.71970063398481
 21
253.4835934786456
 31
0.0
  0
LINE
  5
1467
330
18
100
AcDbEntity
  8
1
  6
Continuous
100
AcDbLine
 10
67.56970063398495
 20
228.9802631797849
 30
0.0
 11
67.56970063398495
 21
242.8723159678566
 31
0.0
  0
LINE
  5
1468
330
18
100
AcDbEntity
  8
1
  6
Continuous
100
AcDbLine
 10
49.7197006339847
 20
228.9802631797848
 30
0.0
 11
49.71970063398481
 21
253.4835934786456
 31
0.0
  0
LINE
  5
1469
330
18
100
AcDbEntity
  8
1
  6
Continuous
100
AcDbLine
 10
52.86970063398478
 20
228.9802631797849
 30
0.0
 11
52.86970063398491
 21
242.8723159678566
 31
0.0
  0
LINE
  5
1477
330
18
100
AcDbEntity
  8
1
  6
Continuous
100
AcDbLine
 10
52.86970063398478
 20
228.9802631797849
 30
0.0
 11
49.21970063398481
 21
228.9802631797849
 31
0.0
  0
LINE
  5
147D
330
18
100
AcDbEntity
  8
1
  6
Continuous
100
AcDbLine
 10
71.21970063398482
 20
228.9802631797849
 30
0.0
 11
67.56970063398495
 21
228.9802631797849
 31
0.0
  0
LINE
  5
1480
330
18
100
AcDbEntity
  8
1
  6
Continuous
100
AcDbLine
 10
68.74157563398495
 20
256.0816694786457
 30
0.0
 11
51.69782563398491
 21
256.0816694786457
 31
0.0
  0
LINE
  5
1481
330
18
100
AcDbEntity
  8
1
  6
Continuous
100
AcDbLine
 10
68.33898463398492
 20
245.9456929678566
 30
0.0
 11
52.10041763398482
 21
245.9456929678566
 31
0.0
  0
LINE
  5
1482
330
18
100
AcDbEntity
  8
1
  6
Continuous
100
AcDbLine
 10
68.33898463398492
 20
242.8723159678566
 30
0.0
 11
52.10041763398482
 21
242.8723159678566
 31
0.0
  0
ARC
  5
1486
330
18
100
AcDbEntity
  8
1
  6
Continuous
100
AcDbCircle
 10
52.71970063398481
 20
253.4835934786456
 30
0.0
 40
3.0
100
AcDbArc
 50
132.9414030000087
 51
180.0
  0
ARC
  5
1489
330
18
100
AcDbEntity
  8
1
  6
Continuous
100
AcDbCircle
 10
52.21970063398481
 20
243.8723159678566
 30
0.0
 40
1.0
100
AcDbArc
 50
180.0000000000683
 51
270.0000000000521
  0
ARC
  5
148A
330
18
100
AcDbEntity
  8
1
  6
Continuous
100
AcDbCircle
 10
52.10041763398482
 20
244.3723159678566
 30
0.0
 40
1.5
100
AcDbArc
 50
206.3129470000624
 51
270.0000000000521
  0
ARC
  5
148B
330
18
100
AcDbEntity
  8
1
  6
Continuous
100
AcDbCircle
 10
52.10041763398482
 20
247.4456929678566
 30
0.0
 40
1.5
100
AcDbArc
 50
206.3129470000624
 51
270.0000000000521
  0
ARC
  5
148C
330
18
100
AcDbEntity
  8
1
  6
Continuous
100
AcDbCircle
 10
52.21970063398481
 20
244.9456929678566
 30
0.0
 40
1.0
100
AcDbArc
 50
90.00000000001952
 51
180.0
  0
ARC
  5
148D
330
18
100
AcDbEntity
  8
1
  6
Continuous
100
AcDbCircle
 10
59.71970063398481
 20
251.2135199678565
 30
0.0
 40
10.0
100
AcDbArc
 50
180.0000000000683
 51
206.3129470000624
  0
ARC
  5
148E
330
18
100
AcDbEntity
  8
1
  6
Continuous
100
AcDbCircle
 10
59.71970063398481
 20
248.1401429678566
 30
0.0
 40
10.0
100
AcDbArc
 50
180.0000000000683
 51
206.3129470000624
  0
LINE
  5
148F
330
18
100
AcDbEntity
  8
1
  6
Continuous
100
AcDbLine
 10
51.21970063398482
 20
243.8723159678566
 30
0.0
 11
51.21970063398482
 21
244.9456929678566
 31
0.0
  0
ARC
  5
1494
330
18
100
AcDbEntity
  8
1
  6
Continuous
100
AcDbCircle
 10
51.69782563398491
 20
254.5816694786457
 30
0.0
 40
1.5
100
AcDbArc
 50
90.00000000001952
 51
132.9414030000087
  0
ARC
  5
1498
330
18
100
AcDbEntity
  8
1
  6
Continuous
100
AcDbCircle
 10
67.71970063398481
 20
253.4835934786456
 30
0.0
 40
3.0
100
AcDbArc
 50
0.0000000000341973
 51
47.0585970000264
  0
ARC
  5
1499
330
18
100
AcDbEntity
  8
1
  6
Continuous
100
AcDbCircle
 10
68.21970063398481
 20
243.8723159678566
 30
0.0
 40
1.0
100
AcDbArc
 50
270.0000000000521
 51
0.0000000000341973
  0
ARC
  5
149A
330
18
100
AcDbEntity
  8
1
  6
Continuous
100
AcDbCircle
 10
68.33898463398492
 20
244.3723159678566
 30
0.0
 40
1.5
100
AcDbArc
 50
270.0000000000521
 51
333.687053000041
  0
ARC
  5
149B
330
18
100
AcDbEntity
  8
1
  6
Continuous
100
AcDbCircle
 10
60.71970063398481
 20
251.2135199678565
 30
0.0
 40
10.0
100
AcDbArc
 50
333.687053000041
 51
0.0000000000341973
  0
ARC
  5
149C
330
18
100
AcDbEntity
  8
1
  6
Continuous
100
AcDbCircle
 10
60.71970063398481
 20
248.1401429678566
 30
0.0
 40
10.0
100
AcDbArc
 50
333.687053000041
 51
0.0000000000341973
  0
LINE
  5
149D
330
18
100
AcDbEntity
  8
1
  6
Continuous
100
AcDbLine
 10
69.21970063398481
 20
244.9456929678566
 30
0.0
 11
69.21970063398481
 21
243.8723159678566
 31
0.0
  0
ARC
  5
149E
330
18
100
AcDbEntity
  8
1
  6
Continuous
100
AcDbCircle
 10
68.33898463398492
 20
247.4456929678566
 30
0.0
 40
1.5
100
AcDbArc
 50
270.0000000000521
 51
333.687053000041
  0
ARC
  5
149F
330
18
100
AcDbEntity
  8
1
  6
Continuous
100
AcDbCircle
 10
68.21970063398481
 20
244.9456929678566
 30
0.0
 40
1.0
100
AcDbArc
 50
0.0000000000341973
 51
90.00000000001952
  0
ARC
  5
14A1
330
18
100
AcDbEntity
  8
1
  6
Continuous
100
AcDbCircle
 10
68.74157563398495
 20
254.5816694786457
 30
0.0
 40
1.5
100
AcDbArc
 50
47.0585970000264
 51
90.00000000001952
  0
ARC
  5
14C0
330
18
100
AcDbEntity
  8
1
  6
Continuous
100
AcDbCircle
 10
301.8185146339848
 20
74.96413524094805
 30
0.0
 40
150.0
100
AcDbArc
 50
176.9890110000695
 51
183.0109890000673
  0
ARC
  5
14C2
330
18
100
AcDbEntity
  8
1
  6
Continuous
100
AcDbCircle
 10
164.244003633985
 20
114.464135240948
 30
0.0
 40
50.0
100
AcDbArc
 50
257.2298250000538
 51
270.0
  0
ARC
  5
14C3
330
18
100
AcDbEntity
  8
1
  6
Continuous
100
AcDbCircle
 10
153.5235226339849
 20
67.16380424094802
 30
0.0
 40
1.5
100
AcDbArc
 50
183.010989000069
 51
257.2298250000538
  0
ARC
  5
14C5
330
18
100
AcDbEntity
  8
1
  6
Continuous
100
AcDbCircle
 10
164.244003633985
 20
35.46413524094805
 30
0.0
 40
50.0
100
AcDbArc
 50
90.0
 51
102.7701750000129
  0
ARC
  5
14C6
330
18
100
AcDbEntity
  8
1
  6
Continuous
100
AcDbCircle
 10
153.5235226339849
 20
82.76446524094797
 30
0.0
 40
1.5
100
AcDbArc
 50
102.7701750000129
 51
176.9890110000009
  0
LINE
  5
1893
330
18
100
AcDbEntity
  8
1
  6
Continuous
100
AcDbLine
 10
182.2807166339856
 20
393.7359817163429
 30
0.0
 11
164.2440036339857
 21
393.7359817163429
 31
0.0
  0
LINE
  5
1894
330
18
100
AcDbEntity
  8
1
  6
Continuous
100
AcDbLine
 10
182.2807166339856
 20
372.7359817163428
 30
0.0
 11
164.2440036339857
 21
372.7359817163428
 31
0.0
  0
ARC
  5
1895
330
18
100
AcDbEntity
  8
1
  6
Continuous
100
AcDbCircle
 10
301.8185146339857
 20
383.2359817163429
 30
0.0
 40
150.0
100
AcDbArc
 50
176.9890110000695
 51
183.0109890000673
  0
ARC
  5
1896
330
18
100
AcDbEntity
  8
1
  6
Continuous
100
AcDbCircle
 10
164.2440036339857
 20
422.735981716343
 30
0.0
 40
50.0
100
AcDbArc
 50
257.229825000054
 51
270.0000000000521
  0
ARC
  5
1897
330
18
100
AcDbEntity
  8
1
  6
Continuous
100
AcDbCircle
 10
153.5235226339857
 20
375.4356507163429
 30
0.0
 40
1.5
100
AcDbArc
 50
183.0109890000673
 51
257.229825000054
  0
ARC
  5
189A
330
18
100
AcDbEntity
  8
1
  6
Continuous
100
AcDbCircle
 10
164.2440036339857
 20
343.7359817163429
 30
0.0
 40
50.0
100
AcDbArc
 50
90.00000000001952
 51
102.770175000013
  0
ARC
  5
189B
330
18
100
AcDbEntity
  8
1
  6
Continuous
100
AcDbCircle
 10
153.5235226339857
 20
391.0363117163427
 30
0.0
 40
1.5
100
AcDbArc
 50
102.770175000013
 51
176.9890110000009
  0
ARC
  5
189E
330
18
100
AcDbEntity
  8
1
  6
Continuous
100
AcDbCircle
 10
33.75655763398546
 20
383.2359817163429
 30
0.0
 40
150.0
100
AcDbArc
 50
356.7846070000343
 51
3.215393000034346
  0
ARC
  5
189F
330
18
100
AcDbEntity
  8
1
  6
Continuous
100
AcDbCircle
 10
35.64129379266032
 20
383.2359817163429
 30
0.0
 40
150.0
100
AcDbArc
 50
356.7846070000343
 51
3.215393000034346
  0
ARC
  5
18A0
330
18
100
AcDbEntity
  8
1
  6
Continuous
100
AcDbCircle
 10
180.1322126339855
 20
377.2359817163429
 30
0.0
 40
4.5
100
AcDbArc
 50
270.0000000000521
 51
309.0640570000387
  0
ARC
  5
18A1
330
18
100
AcDbEntity
  8
1
  6
Continuous
100
AcDbCircle
 10
182.0169477926602
 20
377.2359817163429
 30
0.0
 40
4.5
100
AcDbArc
 50
270.0000000000521
 51
309.0640570000387
  0
ARC
  5
18A2
330
18
100
AcDbEntity
  8
1
  6
Continuous
100
AcDbCircle
 10
184.4822694716993
 20
375.1769886628383
 30
0.0
 40
0.9410069464954723
100
AcDbArc
 50
176.9394271215422
 51
356.9007469329002
  0
ARC
  5
18A3
330
18
100
AcDbEntity
  8
1
  6
Continuous
100
AcDbCircle
 10
182.0227786339853
 20
374.9066557163429
 30
0.0
 40
1.5
100
AcDbArc
 50
309.0640570000387
 51
356.7846070000343
  0
ARC
  5
18A4
330
18
100
AcDbEntity
  8
1
  6
Continuous
100
AcDbCircle
 10
183.9075147926601
 20
374.9066557163429
 30
0.0
 40
1.5
100
AcDbArc
 50
309.0640570000387
 51
356.7846070000343
  0
ARC
  5
18A8
330
18
100
AcDbEntity
  8
1
  6
Continuous
100
AcDbCircle
 10
180.1322126339855
 20
389.2359817163428
 30
0.0
 40
4.5
100
AcDbArc
 50
50.93594300002838
 51
90.00000000001952
  0
ARC
  5
18A9
330
18
100
AcDbEntity
  8
1
  6
Continuous
100
AcDbCircle
 10
182.0169477926602
 20
389.2359817163428
 30
0.0
 40
4.5
100
AcDbArc
 50
50.93594300002838
 51
90.00000000001952
  0
ARC
  5
18AA
330
18
100
AcDbEntity
  8
1
  6
Continuous
100
AcDbCircle
 10
184.4822694716993
 20
391.2949747698474
 30
0.0
 40
0.9410069464954723
100
AcDbArc
 50
3.099253067099815
 51
183.0605728784576
  0
ARC
  5
18AB
330
18
100
AcDbEntity
  8
1
  6
Continuous
100
AcDbCircle
 10
183.9075147926601
 20
391.5653077163428
 30
0.0
 40
1.5
100
AcDbArc
 50
3.215393000034346
 51
50.93594300002838
  0
ARC
  5
18AC
330
18
100
AcDbEntity
  8
1
  6
Continuous
100
AcDbCircle
 10
182.0227786339853
 20
391.5653077163428
 30
0.0
 40
1.5
100
AcDbArc
 50
3.215393000034346
 51
50.93594300002838
  0
ARC
  5
1B64
330
18
100
AcDbEntity
  8
1
  6
Continuous
100
AcDbCircle
 10
264.2614386339847
 20
383.2359817163434
 30
0.0
 40
100.0
100
AcDbArc
 50
173.6846839999321
 51
173.9728334398691
  0
ARC
  5
1B65
330
18
100
AcDbEntity
  8
1
  6
Continuous
100
AcDbCircle
 10
264.2614386339847
 20
383.2359817163434
 30
0.0
 40
100.0
100
AcDbArc
 50
186.0271665601313
 51
186.3153159999302
  0
LINE
  5
1B66
330
18
100
AcDbEntity
  8
1
  6
Continuous
100
AcDbLine
 10
164.8142164505571
 20
85.46413524094758
 30
0.0
 11
164.244003633985
 21
85.46413524094758
 31
0.0
  0
LINE
  5
1B67
330
18
100
AcDbEntity
  8
1
  6
Continuous
100
AcDbLine
 10
164.8142164505572
 20
64.46413524094754
 30
0.0
 11
164.244003633985
 21
64.46413524094754
 31
0.0
  0
ARC
  5
1B68
330
18
100
AcDbEntity
  8
1
  6
Continuous
100
AcDbCircle
 10
60.21970063398481
 20
156.1000584786456
 30
0.0
 40
100.0
100
AcDbArc
 50
95.50089575068071
 51
96.31531600001622
  0
ENDSEC
  0
SECTION
  2
OBJECTS
  0
DICTIONARY
  5
C
330
0
100
AcDbDictionary
281
     1
  3
ACAD_CIP_PREVIOUS_PRODUCT_INFO
350
1C02
  3
ACAD_COLOR
350
1BE5
  3
ACAD_DETAILVIEWSTYLE
350
1BFE
  3
ACAD_GROUP
350
D
  3
ACAD_LAYOUT
350
94
  3
ACAD_MATERIAL
350
1BB3
  3
ACAD_MLEADERSTYLE
350
1BFA
  3
ACAD_MLINESTYLE
350
1B
  3
ACAD_PLOTSETTINGS
350
95
  3
ACAD_PLOTSTYLENAME
350
1BB1
  3
ACAD_SCALELIST
350
1BE8
  3
ACAD_SECTIONVIEWSTYLE
350
1BFC
  3
ACAD_TABLESTYLE
350
1BE6
  3
ACAD_VISUALSTYLE
350
1BCC
  3
ACDB_RECOMPOSE_DATA
350
1C66
  3
AcDbVariableDictionary
350
1C15
  3
CONTENTDICTIONARY
350
3D
  3
DWGPROPS
350
1C67
  0
DICTIONARY
  5
1C05
330
E
100
AcDbDictionary
280
     1
281
     1
  3
ADSK_XREC_LAYER_RECONCILED
360
1C06
  0
DICTIONARY
  5
1C07
330
4E
100
AcDbDictionary
280
     1
281
     1
  3
ADSK_XREC_LAYER_RECONCILED
360
1C08
  0
DICTIONARY
  5
1C09
330
4F
100
AcDbDictionary
280
     1
281
     1
  3
ADSK_XREC_LAYER_RECONCILED
360
1C0A
  0
DICTIONARY
  5
1C0B
330
50
100
AcDbDictionary
280
     1
281
     1
  3
ADSK_XREC_LAYER_RECONCILED
360
1C0C
  0
DICTIONARY
  5
1C0D
330
51
100
AcDbDictionary
280
     1
281
     1
  3
ADSK_XREC_LAYER_RECONCILED
360
1C0E
  0
DICTIONARY
  5
1C0F
330
52
100
AcDbDictionary
280
     1
281
     1
  3
ADSK_XREC_LAYER_RECONCILED
360
1C10
  0
DICTIONARY
  5
1C11
330
53
100
AcDbDictionary
280
     1
281
     1
  3
ADSK_XREC_LAYER_RECONCILED
360
1C12
  0
DICTIONARY
  5
1C13
330
54
100
AcDbDictionary
280
     1
281
     1
  3
ADSK_XREC_LAYER_RECONCILED
360
1C14
  0
DICTIONARY
  5
1BAC
330
18
100
AcDbDictionary
281
     1
  3
ACAD_LAYOUTSELFREF
350
1BAD
  0
DICTIONARY
  5
1BAA
330
15
100
AcDbDictionary
281
     1
  3
ACAD_LAYOUTSELFREF
350
1BAB
  0
XRECORD
  5
1C02
102
{ACAD_REACTORS
330
C
102
}
330
C
100
AcDbXrecord
280
     1
300
ACDLT
300
2014
300
ACDLT_F_S
  0
DICTIONARY
  5
1BE5
102
{ACAD_REACTORS
330
C
102
}
330
C
100
AcDbDictionary
281
     1
  0
DICTIONARY
  5
1BFE
102
{ACAD_REACTORS
330
C
102
}
330
C
100
AcDbDictionary
281
     1
  3
Imperial24
350
1BFF
  0
DICTIONARY
  5
D
102
{ACAD_REACTORS
330
C
102
}
330
C
100
AcDbDictionary
281
     1
  0
DICTIONARY
  5
94
102
{ACAD_REACTORS
330
C
102
}
330
C
100
AcDbDictionary
281
     1
  3
Model
350
1C00
  3
レイアウト1
350
1C01
  0
DICTIONARY
  5
1BB3
102
{ACAD_REACTORS
330
C
102
}
330
C
100
AcDbDictionary
281
     1
  3
ByBlock
350
1BBC
  3
ByLayer
350
1BB4
  3
Global
350
1BC4
  0
DICTIONARY
  5
1BFA
102
{ACAD_REACTORS
330
C
102
}
330
C
100
AcDbDictionary
281
     1
  3
Standard
350
1BFB
  0
DICTIONARY
  5
1B
102
{ACAD_REACTORS
330
C
102
}
330
C
100
AcDbDictionary
281
     1
  3
STANDARD
350
1C
  0
DICTIONARY
  5
95
102
{ACAD_REACTORS
330
C
102
}
330
C
100
AcDbDictionary
281
     1
  0
ACDBDICTIONARYWDFLT
  5
1BB1
102
{ACAD_REACTORS
330
C
102
}
330
C
100
AcDbDictionary
281
     1
  3
Normal
350
1BB2
100
AcDbDictionaryWithDefault
340
1BB2
  0
DICTIONARY
  5
1BE8
102
{ACAD_REACTORS
330
C
102
}
330
C
100
AcDbDictionary
281
     1
  3
A0
350
1BE9
  3
A1
350
1BEA
  3
A2
350
1BEB
  3
A3
350
1BEC
  3
A4
350
1BED
  3
A5
350
1BEE
  3
A6
350
1BEF
  3
A7
350
1BF0
  3
A8
350
1BF1
  3
A9
350
1BF2
  3
B0
350
1BF3
  3
B1
350
1BF4
  3
B2
350
1BF5
  3
B3
350
1BF6
  3
B4
350
1BF7
  3
B5
350
1BF8
  3
B6
350
1BF9
  0
DICTIONARY
  5
1BFC
102
{ACAD_REACTORS
330
C
102
}
330
C
100
AcDbDictionary
281
     1
  3
Imperial24
350
1BFD
  0
DICTIONARY
  5
1BE6
102
{ACAD_REACTORS
330
C
102
}
330
C
100
AcDbDictionary
281
     1
  3
Standard
350
1BE7
  0
DICTIONARY
  5
1BCC
102
{ACAD_REACTORS
330
C
102
}
330
C
100
AcDbDictionary
281
     1
  3
2dWireframe
350
1BD2
  3
Basic
350
1BD1
  3
Brighten
350
1BD8
  3
ColorChange
350
1BDC
  3
Conceptual
350
1BD5
  3
Dim
350
1BD7
  3
EdgeColorOff
350
1BE4
  3
Facepattern
350
1BDB
  3
Flat
350
1BCD
  3
FlatWithEdges
350
1BCE
  3
Gouraud
350
1BCF
  3
GouraudWithEdges
350
1BD0
  3
Hidden
350
1BD4
  3
JitterOff
350
1BE2
  3
Linepattern
350
1BDA
  3
OverhangOff
350
1BE3
  3
Realistic
350
1BD6
  3
Shaded
350
1BE1
  3
Shaded with edges
350
1BE0
  3
Shades of Gray
350
1BDD
  3
Sketchy
350
1BDE
  3
Thicken
350
1BD9
  3
Wireframe
350
1BD3
  3
X-Ray
350
1BDF
  0
XRECORD
  5
1C66
102
{ACAD_REACTORS
330
C
102
}
330
C
100
AcDbXrecord
280
     1
 90
        1
330
1BE7
  0
DICTIONARY
  5
1C15
102
{ACAD_REACTORS
330
C
102
}
330
C
100
AcDbDictionary
281
     1
  3
CANNOSCALE
350
1C1A
  3
CMLEADERSTYLE
350
1C17
  3
CTABLESTYLE
350
1C16
  3
CVIEWDETAILSTYLE
350
1C18
  3
CVIEWSECTIONSTYLE
350
1C19
  3
DIMASSOC
350
1C1D
  3
INDEXCTL
350
1C1C
  3
SORTENTS
350
1C1B
  3
XCLIPFRAME
350
1C64
  0
DICTIONARY
  5
3D
102
{ACAD_REACTORS
330
C
102
}
330
C
100
AcDbDictionary
281
     1
  0
XRECORD
  5
1C67
102
{ACAD_REACTORS
330
C
102
}
330
C
100
AcDbXrecord
280
     1
  1
DWGPROPS COOKIE
  2

  3

  4

  6

  7

  8
Yoshitsune
  9

300
=
301
=
302
=
303
=
304
=
305
=
306
=
307
=
308
=
309
=
 40
0.0641970949074074
 41
2453811.402924803
 42
2457192.692677188
  1

 90
        0
  0
XRECORD
  5
1C06
102
{ACAD_REACTORS
330
1C05
102
}
330
1C05
100
AcDbXrecord
280
     1
290
     1
  0
XRECORD
  5
1C08
102
{ACAD_REACTORS
330
1C07
102
}
330
1C07
100
AcDbXrecord
280
     1
290
     1
  0
XRECORD
  5
1C0A
102
{ACAD_REACTORS
330
1C09
102
}
330
1C09
100
AcDbXrecord
280
     1
290
     1
  0
XRECORD
  5
1C0C
102
{ACAD_REACTORS
330
1C0B
102
}
330
1C0B
100
AcDbXrecord
280
     1
290
     1
  0
XRECORD
  5
1C0E
102
{ACAD_REACTORS
330
1C0D
102
}
330
1C0D
100
AcDbXrecord
280
     1
290
     1
  0
XRECORD
  5
1C10
102
{ACAD_REACTORS
330
1C0F
102
}
330
1C0F
100
AcDbXrecord
280
     1
290
     1
  0
XRECORD
  5
1C12
102
{ACAD_REACTORS
330
1C11
102
}
330
1C11
100
AcDbXrecord
280
     1
290
     1
  0
XRECORD
  5
1C14
102
{ACAD_REACTORS
330
1C13
102
}
330
1C13
100
AcDbXrecord
280
     1
290
     1
  0
XRECORD
  5
1BAD
102
{ACAD_REACTORS
330
1BAC
102
}
330
1BAC
100
AcDbXrecord
280
     1
340
18
  0
XRECORD
  5
1BAB
102
{ACAD_REACTORS
330
1BAA
102
}
330
1BAA
100
AcDbXrecord
280
     1
340
15
  0
ACDBDETAILVIEWSTYLE
  5
1BFF
102
{ACAD_XDICTIONARY
360
1C9B
102
}
102
{ACAD_REACTORS
330
1BFE
102
}
330
1BFE
100
AcDbModelDocViewStyle
 70
     0
  3
Imperial24
290
     0
100
AcDbDetailViewStyle
 70
     0
 71
     0
 90
        3
 71
     1
340
F
 40
0.24
340
0
 40
0.24
300

 40
0.36
280
     3
 71
     2
340
14
 90
       25
 71
     3
340
F
 40
0.24
 90
        1
 40
0.75
 90
        1
300
%<\AcVar ViewType \f "%tc1">% %<\AcVar ViewDetailId>%\PSCALE %<\AcVar ViewScale \f "%sn">%
 71
     4
340
14
 90
       25
340
14
 90
       25
280
     0
  0
LAYOUT
  5
1C00
102
{ACAD_XDICTIONARY
360
1C9D
102
}
102
{ACAD_REACTORS
330
94
102
}
330
94
100
AcDbPlotSettings
  1

  2
Canon LBP9100C
  4

  6

 40
0.0
 41
0.0
 42
0.0
 43
0.0
 44
0.0
 45
0.0
 46
0.0
 47
0.0
 48
0.0
 49
0.0
140
0.0
141
0.0
142
1.0
143
1.0
 70
  1712
 72
     0
 73
     0
 74
     0
  7

 75
     0
147
1.0
148
0.0
149
0.0
100
AcDbLayout
  1
Model
 70
     1
 71
     0
 10
0.0
 20
0.0
 11
12.0
 21
9.0
 12
0.0
 22
0.0
 32
0.0
 14
0.0
 24
0.0
 34
0.0
 15
0.0
 25
0.0
 35
0.0
146
0.0
 13
0.0
 23
0.0
 33
0.0
 16
1.0
 26
0.0
 36
0.0
 17
0.0
 27
1.0
 37
0.0
 76
     0
330
18
331
1BA9
  0
LAYOUT
  5
1C01
102
{ACAD_XDICTIONARY
360
1C9F
102
}
102
{ACAD_REACTORS
330
94
102
}
330
94
100
AcDbPlotSettings
  1

  2
Canon LBP9100C
  4

  6

 40
0.0
 41
0.0
 42
0.0
 43
0.0
 44
0.0
 45
0.0
 46
0.0
 47
0.0
 48
0.0
 49
0.0
140
0.0
141
0.0
142
1.0
143
1.0
 70
   688
 72
     0
 73
     0
 74
     5
  7

 75
    16
147
1.0
148
0.0
149
0.0
100
AcDbLayout
  1
レイアウト1
 70
     1
 71
     1
 10
0.0
 20
0.0
 11
420.0
 21
297.0
 12
0.0
 22
0.0
 32
0.0
 14
1.000000000000000E+20
 24
1.000000000000000E+20
 34
1.000000000000000E+20
 15
-1.000000000000000E+20
 25
-1.000000000000000E+20
 35
-1.000000000000000E+20
146
0.0
 13
0.0
 23
0.0
 33
0.0
 16
1.0
 26
0.0
 36
0.0
 17
0.0
 27
1.0
 37
0.0
 76
     0
330
15
  0
MATERIAL
  5
1BBC
102
{ACAD_XDICTIONARY
360
1BBD
102
}
102
{ACAD_REACTORS
330
1BB3
102
}
330
1BB3
100
AcDbMaterial
  1
ByBlock
 72
     0
 43
0.0208333333333333
 43
0.0
 43
0.0
 43
0.0
 43
0.0
 43
0.0208333333333333
 43
0.0
 43
0.0
 43
0.0
 43
0.0
 43
1.0
 43
0.0
 43
0.0
 43
0.0
 43
0.0
 43
1.0
 77
     0
 47
0.0208333333333333
 47
0.0
 47
0.0
 47
0.0
 47
0.0
 47
0.0208333333333333
 47
0.0
 47
0.0
 47
0.0
 47
0.0
 47
1.0
 47
0.0
 47
0.0
 47
0.0
 47
0.0
 47
1.0
171
     0
 49
0.0208333333333333
 49
0.0
 49
0.0
 49
0.0
 49
0.0
 49
0.0208333333333333
 49
0.0
 49
0.0
 49
0.0
 49
0.0
 49
1.0
 49
0.0
 49
0.0
 49
0.0
 49
0.0
 49
1.0
175
     0
142
0.0208333333333333
142
0.0
142
0.0
142
0.0
142
0.0
142
0.0208333333333333
142
0.0
142
0.0
142
0.0
142
0.0
142
1.0
142
0.0
142
0.0
142
0.0
142
0.0
142
1.0
179
     0
144
0.0208333333333333
144
0.0
144
0.0
144
0.0
144
0.0
144
0.0208333333333333
144
0.0
144
0.0
144
0.0
144
0.0
144
1.0
144
0.0
144
0.0
144
0.0
144
0.0
144
1.0
147
0.0208333333333333
147
0.0
147
0.0
147
0.0
147
0.0
147
0.0208333333333333
147
0.0
147
0.0
147
0.0
147
0.0
147
1.0
147
0.0
147
0.0
147
0.0
147
0.0
147
1.0
  0
MATERIAL
  5
1BB4
102
{ACAD_XDICTIONARY
360
1BB5
102
}
102
{ACAD_REACTORS
330
1BB3
102
}
330
1BB3
100
AcDbMaterial
  1
ByLayer
 72
     0
 43
0.0208333333333333
 43
0.0
 43
0.0
 43
0.0
 43
0.0
 43
0.0208333333333333
 43
0.0
 43
0.0
 43
0.0
 43
0.0
 43
1.0
 43
0.0
 43
0.0
 43
0.0
 43
0.0
 43
1.0
 77
     0
 47
0.0208333333333333
 47
0.0
 47
0.0
 47
0.0
 47
0.0
 47
0.0208333333333333
 47
0.0
 47
0.0
 47
0.0
 47
0.0
 47
1.0
 47
0.0
 47
0.0
 47
0.0
 47
0.0
 47
1.0
171
     0
 49
0.0208333333333333
 49
0.0
 49
0.0
 49
0.0
 49
0.0
 49
0.0208333333333333
 49
0.0
 49
0.0
 49
0.0
 49
0.0
 49
1.0
 49
0.0
 49
0.0
 49
0.0
 49
0.0
 49
1.0
175
     0
142
0.0208333333333333
142
0.0
142
0.0
142
0.0
142
0.0
142
0.0208333333333333
142
0.0
142
0.0
142
0.0
142
0.0
142
1.0
142
0.0
142
0.0
142
0.0
142
0.0
142
1.0
179
     0
144
0.0208333333333333
144
0.0
144
0.0
144
0.0
144
0.0
144
0.0208333333333333
144
0.0
144
0.0
144
0.0
144
0.0
144
1.0
144
0.0
144
0.0
144
0.0
144
0.0
144
1.0
147
0.0208333333333333
147
0.0
147
0.0
147
0.0
147
0.0
147
0.0208333333333333
147
0.0
147
0.0
147
0.0
147
0.0
147
1.0
147
0.0
147
0.0
147
0.0
147
0.0
147
1.0
  0
MATERIAL
  5
1BC4
102
{ACAD_XDICTIONARY
360
1BC5
102
}
102
{ACAD_REACTORS
330
1BB3
102
}
330
1BB3
100
AcDbMaterial
  1
Global
 72
     0
 43
0.0208333333333333
 43
0.0
 43
0.0
 43
0.0
 43
0.0
 43
0.0208333333333333
 43
0.0
 43
0.0
 43
0.0
 43
0.0
 43
1.0
 43
0.0
 43
0.0
 43
0.0
 43
0.0
 43
1.0
 77
     0
 47
0.0208333333333333
 47
0.0
 47
0.0
 47
0.0
 47
0.0
 47
0.0208333333333333
 47
0.0
 47
0.0
 47
0.0
 47
0.0
 47
1.0
 47
0.0
 47
0.0
 47
0.0
 47
0.0
 47
1.0
171
     0
 49
0.0208333333333333
 49
0.0
 49
0.0
 49
0.0
 49
0.0
 49
0.0208333333333333
 49
0.0
 49
0.0
 49
0.0
 49
0.0
 49
1.0
 49
0.0
 49
0.0
 49
0.0
 49
0.0
 49
1.0
175
     0
142
0.0208333333333333
142
0.0
142
0.0
142
0.0
142
0.0
142
0.0208333333333333
142
0.0
142
0.0
142
0.0
142
0.0
142
1.0
142
0.0
142
0.0
142
0.0
142
0.0
142
1.0
179
     0
144
0.0208333333333333
144
0.0
144
0.0
144
0.0
144
0.0
144
0.0208333333333333
144
0.0
144
0.0
144
0.0
144
0.0
144
1.0
144
0.0
144
0.0
144
0.0
144
0.0
144
1.0
147
0.0208333333333333
147
0.0
147
0.0
147
0.0
147
0.0
147
0.0208333333333333
147
0.0
147
0.0
147
0.0
147
0.0
147
1.0
147
0.0
147
0.0
147
0.0
147
0.0
147
1.0
  0
MLEADERSTYLE
  5
1BFB
102
{ACAD_REACTORS
330
1BFA
102
}
330
1BFA
100
AcDbMLeaderStyle
170
     2
171
     1
172
     0
 90
        2
 40
0.0
 41
0.0
173
     1
 91
-1056964608
340
12
 92
       -2
290
     1
 42
0.09
291
     1
 43
0.36
  3
Standard
 44
0.18
300

342
F
174
     1
178
     6
175
     1
176
     0
 93
-1056964608
 45
0.18
292
     0
297
     0
 46
0.18
 94
-1056964608
 47
1.0
 49
1.0
140
1.0
293
     1
141
0.0
294
     1
177
     0
142
1.0
295
     0
296
     0
143
0.125
1001
ACAD_MLEADERVER
1070
     2
  0
MLINESTYLE
  5
1C
102
{ACAD_REACTORS
330
1B
102
}
330
1B
100
AcDbMlineStyle
  2
STANDARD
 70
     0
  3

 62
   256
 51
90.0
 52
90.0
 71
     2
 49
0.5
 62
   256
  6
BYLAYER
 49
-0.5
 62
   256
  6
BYLAYER
  0
ACDBPLACEHOLDER
  5
1BB2
102
{ACAD_REACTORS
330
1BB1
102
}
330
1BB1
  0
SCALE
  5
1BE9
102
{ACAD_REACTORS
330
1BE8
102
}
330
1BE8
100
AcDbScale
 70
     0
300
1:1
140
1.0
141
1.0
290
     1
  0
SCALE
  5
1BEA
102
{ACAD_REACTORS
330
1BE8
102
}
330
1BE8
100
AcDbScale
 70
     0
300
1/128" = 1'-0"
140
0.0078125
141
12.0
290
     0
  0
SCALE
  5
1BEB
102
{ACAD_REACTORS
330
1BE8
102
}
330
1BE8
100
AcDbScale
 70
     0
300
1/64" = 1'-0"
140
0.015625
141
12.0
290
     0
  0
SCALE
  5
1BEC
102
{ACAD_REACTORS
330
1BE8
102
}
330
1BE8
100
AcDbScale
 70
     0
300
1/32" = 1'-0"
140
0.03125
141
12.0
290
     0
  0
SCALE
  5
1BED
102
{ACAD_REACTORS
330
1BE8
102
}
330
1BE8
100
AcDbScale
 70
     0
300
1/16" = 1'-0"
140
0.0625
141
12.0
290
     0
  0
SCALE
  5
1BEE
102
{ACAD_REACTORS
330
1BE8
102
}
330
1BE8
100
AcDbScale
 70
     0
300
3/32" = 1'-0"
140
0.09375
141
12.0
290
     0
  0
SCALE
  5
1BEF
102
{ACAD_REACTORS
330
1BE8
102
}
330
1BE8
100
AcDbScale
 70
     0
300
1/8" = 1'-0"
140
0.125
141
12.0
290
     0
  0
SCALE
  5
1BF0
102
{ACAD_REACTORS
330
1BE8
102
}
330
1BE8
100
AcDbScale
 70
     0
300
3/16" = 1'-0"
140
0.1875
141
12.0
290
     0
  0
SCALE
  5
1BF1
102
{ACAD_REACTORS
330
1BE8
102
}
330
1BE8
100
AcDbScale
 70
     0
300
1/4" = 1'-0"
140
0.25
141
12.0
290
     0
  0
SCALE
  5
1BF2
102
{ACAD_REACTORS
330
1BE8
102
}
330
1BE8
100
AcDbScale
 70
     0
300
3/8" = 1'-0"
140
0.375
141
12.0
290
     0
  0
SCALE
  5
1BF3
102
{ACAD_REACTORS
330
1BE8
102
}
330
1BE8
100
AcDbScale
 70
     0
300
1/2" = 1'-0"
140
0.5
141
12.0
290
     0
  0
SCALE
  5
1BF4
102
{ACAD_REACTORS
330
1BE8
102
}
330
1BE8
100
AcDbScale
 70
     0
300
3/4" = 1'-0"
140
0.75
141
12.0
290
     0
  0
SCALE
  5
1BF5
102
{ACAD_REACTORS
330
1BE8
102
}
330
1BE8
100
AcDbScale
 70
     0
300
1" = 1'-0"
140
1.0
141
12.0
290
     0
  0
SCALE
  5
1BF6
102
{ACAD_REACTORS
330
1BE8
102
}
330
1BE8
100
AcDbScale
 70
     0
300
1-1/2" = 1'-0"
140
1.5
141
12.0
290
     0
  0
SCALE
  5
1BF7
102
{ACAD_REACTORS
330
1BE8
102
}
330
1BE8
100
AcDbScale
 70
     0
300
3" = 1'-0"
140
3.0
141
12.0
290
     0
  0
SCALE
  5
1BF8
102
{ACAD_REACTORS
330
1BE8
102
}
330
1BE8
100
AcDbScale
 70
     0
300
6" = 1'-0"
140
6.0
141
12.0
290
     0
  0
SCALE
  5
1BF9
102
{ACAD_REACTORS
330
1BE8
102
}
330
1BE8
100
AcDbScale
 70
     0
300
1'-0" = 1'-0"
140
12.0
141
12.0
290
     0
  0
ACDBSECTIONVIEWSTYLE
  5
1BFD
102
{ACAD_XDICTIONARY
360
1C99
102
}
102
{ACAD_REACTORS
330
1BFC
102
}
330
1BFC
100
AcDbModelDocViewStyle
 70
     0
  3
Imperial24
290
     0
100
AcDbSectionViewStyle
 70
     0
 71
     0
 90
       78
 71
     1
340
F
 40
0.24
340
0
340
0
 40
0.24
300
I, O, Q, S, X, Z
 40
0.48
 90
        3
 40
0.18
 90
        1
 71
     2
340
14
 90
       25
340
14
 90
       50
 40
0.24
 40
0.0
 40
0.24
 71
     3
340
F
 40
0.24
 90
        1
 40
0.75
 90
        1
300
%<\AcVar ViewType \f "%tc1">% %<\AcVar ViewSectionStartId>%-%<\AcVar ViewSectionEndId>%\PSCALE %<\AcVar ViewScale \f "%sn">%
 71
     4
300
ANSI31
 40
1.0
 90
        0
290
     0
290
     0
 90
        6
 40
0.0
 40
1.570796326794896
 40
0.2617993877991494
 40
1.308996938995747
 40
-0.2617993877991494
 40
1.832595714594045
  0
TABLESTYLE
  5
1BE7
102
{ACAD_XDICTIONARY
360
1C20
102
}
102
{ACAD_REACTORS
330
1BE6
102
}
330
1BE6
100
AcDbTableStyle
  3
Standard
 70
     0
 71
     0
 40
0.06
 41
0.06
280
     0
281
     0
  7
STANDARD
140
0.18
170
     2
 62
     0
 63
     7
283
     0
274
    -2
284
     1
 64
     0
275
    -2
285
     1
 65
     0
276
    -2
286
     1
 66
     0
277
    -2
287
     1
 67
     0
278
    -2
288
     1
 68
     0
279
    -2
289
     1
 69
     0
  7
STANDARD
140
0.25
170
     5
 62
     0
 63
     7
283
     0
274
    -2
284
     1
 64
     0
275
    -2
285
     1
 65
     0
276
    -2
286
     1
 66
     0
277
    -2
287
     1
 67
     0
278
    -2
288
     1
 68
     0
279
    -2
289
     1
 69
     0
  7
STANDARD
140
0.18
170
     5
 62
     0
 63
     7
283
     0
274
    -2
284
     1
 64
     0
275
    -2
285
     1
 65
     0
276
    -2
286
     1
 66
     0
277
    -2
287
     1
 67
     0
278
    -2
288
     1
 68
     0
279
    -2
289
     1
 69
     0
  0
VISUALSTYLE
  5
1BD2
102
{ACAD_XDICTIONARY
360
1C72
102
}
102
{ACAD_REACTORS
330
1BCC
102
}
330
1BCC
100
AcDbVisualStyle
  2

 70
     4
 71
     0
 72
     2
 73
     0
 90
        0
 40
-0.6
 41
-30.0
 62
     5
 63
     7
 74
     1
 91
        4
 64
     7
 65
   257
 75
     1
175
     1
 42
1.0
 92
        0
 66
   257
 43
1.0
 76
     1
 77
     6
 78
     2
 67
     7
 79
     5
170
     0
171
     0
290
     0
174
     0
 93
        1
 44
0.0
173
     0
291
     0
 45
0.0
1001
ACAD
1000
AcDbSavedByObjectVersion
1070
     0
  0
VISUALSTYLE
  5
1BD1
102
{ACAD_XDICTIONARY
360
1C70
102
}
102
{ACAD_REACTORS
330
1BCC
102
}
330
1BCC
100
AcDbVisualStyle
  2

 70
     7
 71
     1
 72
     0
 73
     1
 90
        0
 40
-0.6
 41
-30.0
 62
     5
 63
     7
 74
     0
 91
        4
 64
     7
 65
   257
 75
     1
175
     1
 42
1.0
 92
        8
 66
     7
 43
1.0
 76
     1
 77
     6
 78
     2
 67
     7
 79
     5
170
     0
171
     0
290
     0
174
     0
 93
        1
 44
0.0
173
     0
291
     1
 45
0.0
1001
ACAD
1000
AcDbSavedByObjectVersion
1070
     0
  0
VISUALSTYLE
  5
1BD8
102
{ACAD_XDICTIONARY
360
1C7E
102
}
102
{ACAD_REACTORS
330
1BCC
102
}
330
1BCC
100
AcDbVisualStyle
  2

 70
    12
 71
     2
 72
     2
 73
     0
 90
        0
 40
-0.6
 41
-30.0
 62
     5
 63
     7
 74
     1
 91
        4
 64
     7
 65
   257
 75
     1
175
     1
 42
1.0
 92
        8
 66
     7
 43
1.0
 76
     1
 77
     6
 78
     2
 67
     7
 79
     5
170
     0
171
     0
290
     0
174
     0
 93
        1
 44
50.0
173
     0
291
     1
 45
0.0
1001
ACAD
1000
AcDbSavedByObjectVersion
1070
     0
  0
VISUALSTYLE
  5
1BDC
102
{ACAD_XDICTIONARY
360
1C86
102
}
102
{ACAD_REACTORS
330
1BCC
102
}
330
1BCC
100
AcDbVisualStyle
  2

 70
    16
 71
     2
 72
     2
 73
     3
 90
        0
 40
-0.6
 41
-30.0
 62
     5
 63
     8
 74
     1
 91
        4
 64
     7
 65
   257
 75
     1
175
     1
 42
1.0
 92
        8
 66
     8
 43
1.0
 76
     1
 77
     6
 78
     2
 67
     7
 79
     5
170
     0
171
     0
290
     0
174
     0
 93
        1
 44
0.0
173
     0
291
     1
 45
0.0
1001
ACAD
1000
AcDbSavedByObjectVersion
1070
     0
  0
VISUALSTYLE
  5
1BD5
102
{ACAD_XDICTIONARY
360
1C78
102
}
102
{ACAD_REACTORS
330
1BCC
102
}
330
1BCC
100
AcDbVisualStyle
  2

 70
     9
 71
     3
 72
     2
 73
     0
 90
        0
 40
-0.6
 41
-30.0
 62
     5
 63
     7
 74
     2
 91
        2
 64
     7
 65
   257
 75
     1
175
     1
 42
179.0
 92
        8
 66
     7
 43
1.0
 76
     1
 77
     6
 78
     2
 67
     7
 79
     3
170
     0
171
     0
290
     0
174
     0
 93
        1
 44
0.0
173
     0
291
     0
 45
0.0
1001
ACAD
1000
AcDbSavedByObjectVersion
1070
     0
  0
VISUALSTYLE
  5
1BD7
102
{ACAD_XDICTIONARY
360
1C7C
102
}
102
{ACAD_REACTORS
330
1BCC
102
}
330
1BCC
100
AcDbVisualStyle
  2

 70
    11
 71
     2
 72
     2
 73
     0
 90
        0
 40
-0.6
 41
-30.0
 62
     5
 63
     7
 74
     1
 91
        4
 64
     7
 65
   257
 75
     1
175
     1
 42
1.0
 92
        8
 66
     7
 43
1.0
 76
     1
 77
     6
 78
     2
 67
     7
 79
     5
170
     0
171
     0
290
     0
174
     0
 93
        1
 44
-50.0
173
     0
291
     1
 45
0.0
1001
ACAD
1000
AcDbSavedByObjectVersion
1070
     0
  0
VISUALSTYLE
  5
1BE4
102
{ACAD_XDICTIONARY
360
1C96
102
}
102
{ACAD_REACTORS
330
1BCC
102
}
330
1BCC
100
AcDbVisualStyle
  2

 70
    22
 71
     2
 72
     2
 73
     0
 90
        0
 40
-0.6
 41
-30.0
 62
     5
 63
     7
 74
     1
 91
        4
 64
     7
 65
   257
 75
     1
175
     1
 42
1.0
 92
        8
 66
     7
 43
1.0
 76
     1
 77
     6
 78
     2
 67
     7
 79
     5
170
     0
171
     0
290
     0
174
     0
 93
        1
 44
0.0
173
     0
291
     1
 45
0.0
1001
ACAD
1000
AcDbSavedByObjectVersion
1070
     0
  0
VISUALSTYLE
  5
1BDB
102
{ACAD_XDICTIONARY
360
1C84
102
}
102
{ACAD_REACTORS
330
1BCC
102
}
330
1BCC
100
AcDbVisualStyle
  2

 70
    15
 71
     2
 72
     2
 73
     0
 90
        0
 40
-0.6
 41
-30.0
 62
     5
 63
     7
 74
     1
 91
        4
 64
     7
 65
   257
 75
     1
175
     1
 42
1.0
 92
        8
 66
     7
 43
1.0
 76
     1
 77
     6
 78
     2
 67
     7
 79
     5
170
     0
171
     0
290
     0
174
     0
 93
        1
 44
0.0
173
     0
291
     1
 45
0.0
1001
ACAD
1000
AcDbSavedByObjectVersion
1070
     0
  0
VISUALSTYLE
  5
1BCD
102
{ACAD_XDICTIONARY
360
1C68
102
}
102
{ACAD_REACTORS
330
1BCC
102
}
330
1BCC
100
AcDbVisualStyle
  2

 70
     0
 71
     2
 72
     1
 73
     1
 90
        2
 40
-0.6
 41
30.0
 62
     5
 63
     7
 74
     0
 91
        0
 64
     7
 65
   257
 75
     1
175
     1
 42
1.0
 92
        8
 66
     7
 43
1.0
 76
     1
 77
     6
 78
     2
 67
     7
 79
     5
170
     0
171
     0
290
     0
174
     0
 93
       13
 44
0.0
173
     0
291
     1
 45
0.0
1001
ACAD
1000
AcDbSavedByObjectVersion
1070
     0
  0
VISUALSTYLE
  5
1BCE
102
{ACAD_XDICTIONARY
360
1C6A
102
}
102
{ACAD_REACTORS
330
1BCC
102
}
330
1BCC
100
AcDbVisualStyle
  2

 70
     1
 71
     2
 72
     1
 73
     1
 90
        2
 40
-0.6
 41
30.0
 62
     5
 63
     7
 74
     1
 91
        0
 64
     7
 65
   257
 75
     1
175
     1
 42
1.0
 92
        0
 66
   257
 43
1.0
 76
     1
 77
     6
 78
     2
 67
     7
 79
     5
170
     0
171
     0
290
     0
174
     0
 93
       13
 44
0.0
173
     0
291
     1
 45
0.0
1001
ACAD
1000
AcDbSavedByObjectVersion
1070
     0
  0
VISUALSTYLE
  5
1BCF
102
{ACAD_XDICTIONARY
360
1C6C
102
}
102
{ACAD_REACTORS
330
1BCC
102
}
330
1BCC
100
AcDbVisualStyle
  2

 70
     2
 71
     2
 72
     2
 73
     1
 90
        2
 40
-0.6
 41
30.0
 62
     5
 63
     7
 74
     0
 91
        0
 64
     7
 65
   257
 75
     1
175
     1
 42
1.0
 92
        0
 66
     7
 43
1.0
 76
     1
 77
     6
 78
     2
 67
     7
 79
     5
170
     0
171
     0
290
     0
174
     0
 93
       13
 44
0.0
173
     0
291
     1
 45
0.0
1001
ACAD
1000
AcDbSavedByObjectVersion
1070
     0
  0
VISUALSTYLE
  5
1BD0
102
{ACAD_XDICTIONARY
360
1C6E
102
}
102
{ACAD_REACTORS
330
1BCC
102
}
330
1BCC
100
AcDbVisualStyle
  2

 70
     3
 71
     2
 72
     2
 73
     1
 90
        2
 40
-0.6
 41
30.0
 62
     5
 63
     7
 74
     1
 91
        0
 64
     7
 65
   257
 75
     1
175
     1
 42
1.0
 92
        0
 66
   257
 43
1.0
 76
     1
 77
     6
 78
     2
 67
     7
 79
     5
170
     0
171
     0
290
     0
174
     0
 93
       13
 44
0.0
173
     0
291
     1
 45
0.0
1001
ACAD
1000
AcDbSavedByObjectVersion
1070
     0
  0
VISUALSTYLE
  5
1BD4
102
{ACAD_XDICTIONARY
360
1C76
102
}
102
{ACAD_REACTORS
330
1BCC
102
}
330
1BCC
100
AcDbVisualStyle
  2

 70
     6
 71
     1
 72
     2
 73
     2
 90
        0
 40
-0.6
 41
-30.0
 62
     5
 63
     7
 74
     2
 91
        2
 64
     7
 65
   257
 75
     2
175
     1
 42
40.0
 92
        0
 66
   257
 43
1.0
 76
     1
 77
     6
 78
     2
 67
     7
 79
     3
170
     0
171
     0
290
     0
174
     0
 93
        1
 44
0.0
173
     0
291
     0
 45
0.0
1001
ACAD
1000
AcDbSavedByObjectVersion
1070
     0
  0
VISUALSTYLE
  5
1BE2
102
{ACAD_XDICTIONARY
360
1C92
102
}
102
{ACAD_REACTORS
330
1BCC
102
}
330
1BCC
100
AcDbVisualStyle
  2

 70
    20
 71
     2
 72
     2
 73
     0
 90
        0
 40
-0.6
 41
-30.0
 62
     5
 63
     7
 74
     1
 91
        4
 64
     7
 65
   257
 75
     1
175
     1
 42
1.0
 92
       10
 66
     7
 43
1.0
 76
     1
 77
     6
 78
     2
 67
     7
 79
     5
170
     0
171
     0
290
     0
174
     0
 93
        1
 44
0.0
173
     0
291
     1
 45
0.0
1001
ACAD
1000
AcDbSavedByObjectVersion
1070
     0
  0
VISUALSTYLE
  5
1BDA
102
{ACAD_XDICTIONARY
360
1C82
102
}
102
{ACAD_REACTORS
330
1BCC
102
}
330
1BCC
100
AcDbVisualStyle
  2

 70
    14
 71
     2
 72
     2
 73
     0
 90
        0
 40
-0.6
 41
-30.0
 62
     5
 63
     7
 74
     1
 91
        4
 64
     7
 65
   257
 75
     7
175
     7
 42
1.0
 92
        8
 66
     7
 43
1.0
 76
     1
 77
     6
 78
     2
 67
     7
 79
     5
170
     0
171
     0
290
     0
174
     0
 93
        1
 44
0.0
173
     0
291
     1
 45
0.0
1001
ACAD
1000
AcDbSavedByObjectVersion
1070
     0
  0
VISUALSTYLE
  5
1BE3
102
{ACAD_XDICTIONARY
360
1C94
102
}
102
{ACAD_REACTORS
330
1BCC
102
}
330
1BCC
100
AcDbVisualStyle
  2

 70
    21
 71
     2
 72
     2
 73
     0
 90
        0
 40
-0.6
 41
-30.0
 62
     5
 63
     7
 74
     1
 91
        4
 64
     7
 65
   257
 75
     1
175
     1
 42
1.0
 92
        9
 66
     7
 43
1.0
 76
     1
 77
     6
 78
     2
 67
     7
 79
     5
170
     0
171
     0
290
     0
174
     0
 93
        1
 44
0.0
173
     0
291
     1
 45
0.0
1001
ACAD
1000
AcDbSavedByObjectVersion
1070
     0
  0
VISUALSTYLE
  5
1BD6
102
{ACAD_XDICTIONARY
360
1C7A
102
}
102
{ACAD_REACTORS
330
1BCC
102
}
330
1BCC
100
AcDbVisualStyle
  2

 70
     8
 71
     2
 72
     3
 73
     0
 90
        2
 40
-0.6
 41
30.0
 62
     5
 63
     7
 74
     0
 91
        0
 64
     7
 65
   257
 75
     1
175
     1
 42
1.0
 92
        8
 66
   257
 43
1.0
 76
     1
 77
     6
 78
     2
 67
     7
 79
     3
170
     0
171
     0
290
     0
174
     0
 93
       13
 44
0.0
173
     0
291
     0
 45
0.0
1001
ACAD
1000
AcDbSavedByObjectVersion
1070
     0
  0
VISUALSTYLE
  5
1BE1
102
{ACAD_XDICTIONARY
360
1C90
102
}
102
{ACAD_REACTORS
330
1BCC
102
}
330
1BCC
100
AcDbVisualStyle
  2

 70
    27
 71
     2
 72
     2
 73
     1
 90
        2
 40
-0.6
 41
30.0
 62
     5
 63
     7
 74
     0
 91
        4
 64
     7
 65
   257
 75
     1
175
     1
 42
1.0
 92
        8
 66
   257
 43
1.0
 76
     1
 77
     6
 78
     2
 67
     8
 79
     3
170
     0
171
     0
290
     0
174
     0
 93
        5
 44
0.0
173
     0
291
     0
 45
0.0
1001
ACAD
1000
AcDbSavedByObjectVersion
1070
     0
  0
VISUALSTYLE
  5
1BE0
102
{ACAD_XDICTIONARY
360
1C8E
102
}
102
{ACAD_REACTORS
330
1BCC
102
}
330
1BCC
100
AcDbVisualStyle
  2

 70
    26
 71
     2
 72
     2
 73
     1
 90
        2
 40
-0.6
 41
30.0
 62
     5
 63
     7
 74
     1
 91
       10
 64
     7
 65
   257
 75
     2
175
     1
 42
1.0
 92
        8
 66
   257
 43
1.0
 76
     1
 77
     6
 78
     2
 67
     7
 79
     3
170
     0
171
     0
290
     0
174
     0
 93
        5
 44
0.0
173
     0
291
     0
 45
0.0
1001
ACAD
1000
AcDbSavedByObjectVersion
1070
     0
  0
VISUALSTYLE
  5
1BDD
102
{ACAD_XDICTIONARY
360
1C88
102
}
102
{ACAD_REACTORS
330
1BCC
102
}
330
1BCC
100
AcDbVisualStyle
  2

 70
    23
 71
     2
 72
     2
 73
     3
 90
        0
 40
-0.6
 41
-30.0
 62
     5
 63
     7
 74
     2
 91
        2
 64
     7
 65
     7
 75
     1
175
     1
 42
40.0
 92
        8
 66
     7
 43
1.0
 76
     1
 77
     6
 78
     2
 67
     7
 79
     3
170
     0
171
     0
290
     0
174
     0
 93
        1
 44
0.0
173
     0
291
     0
 45
0.0
1001
ACAD
1000
AcDbSavedByObjectVersion
1070
     0
  0
VISUALSTYLE
  5
1BDE
102
{ACAD_XDICTIONARY
360
1C8A
102
}
102
{ACAD_REACTORS
330
1BCC
102
}
330
1BCC
100
AcDbVisualStyle
  2

 70
    24
 71
     1
 72
     2
 73
     2
 90
        0
 40
-0.6
 41
-30.0
 62
     5
 63
     7
 74
     2
 91
        2
 64
     7
 65
     7
 75
     1
175
     1
 42
40.0
 92
       11
 66
     7
 43
1.0
 76
     1
 77
     6
 78
     2
 67
     7
 79
     6
170
     0
171
     0
290
     0
174
     0
 93
        1
 44
0.0
173
     0
291
     0
 45
0.0
1001
ACAD
1000
AcDbSavedByObjectVersion
1070
     0
  0
VISUALSTYLE
  5
1BD9
102
{ACAD_XDICTIONARY
360
1C80
102
}
102
{ACAD_REACTORS
330
1BCC
102
}
330
1BCC
100
AcDbVisualStyle
  2

 70
    13
 71
     2
 72
     2
 73
     0
 90
        0
 40
-0.6
 41
-30.0
 62
     5
 63
     7
 74
     1
 91
        4
 64
     7
 65
   257
 75
     1
175
     1
 42
1.0
 92
       12
 66
     7
 43
1.0
 76
     1
 77
     6
 78
     2
 67
     7
 79
     5
170
     0
171
     0
290
     0
174
     0
 93
        1
 44
0.0
173
     0
291
     1
 45
0.0
1001
ACAD
1000
AcDbSavedByObjectVersion
1070
     0
  0
VISUALSTYLE
  5
1BD3
102
{ACAD_XDICTIONARY
360
1C74
102
}
102
{ACAD_REACTORS
330
1BCC
102
}
330
1BCC
100
AcDbVisualStyle
  2

 70
     5
 71
     0
 72
     2
 73
     0
 90
        0
 40
-0.6
 41
-30.0
 62
     5
 63
     7
 74
     1
 91
        4
 64
     7
 65
   257
 75
     1
175
     1
 42
1.0
 92
        0
 66
   257
 43
1.0
 76
     1
 77
     6
 78
     2
 67
     7
 79
     3
170
     0
171
     0
290
     0
174
     0
 93
        1
 44
0.0
173
     0
291
     0
 45
0.0
1001
ACAD
1000
AcDbSavedByObjectVersion
1070
     0
  0
VISUALSTYLE
  5
1BDF
102
{ACAD_XDICTIONARY
360
1C8C
102
}
102
{ACAD_REACTORS
330
1BCC
102
}
330
1BCC
100
AcDbVisualStyle
  2

 70
    25
 71
     2
 72
     2
 73
     1
 90
        1
 40
0.5
 41
-30.0
 62
     5
 63
     7
 74
     1
 91
        0
 64
     7
 65
   257
 75
     1
175
     1
 42
1.0
 92
        8
 66
     7
 43
1.0
 76
     1
 77
     6
 78
     2
 67
     7
 79
     3
170
     0
171
     0
290
     0
174
     0
 93
       13
 44
0.0
173
     0
291
     0
 45
0.0
1001
ACAD
1000
AcDbSavedByObjectVersion
1070
     0
  0
DICTIONARYVAR
  5
1C1A
102
{ACAD_REACTORS
330
1C15
102
}
330
1C15
100
DictionaryVariables
280
     0
  1
1:1
  0
DICTIONARYVAR
  5
1C17
102
{ACAD_REACTORS
330
1C15
102
}
330
1C15
100
DictionaryVariables
280
     0
  1
STANDARD
  0
DICTIONARYVAR
  5
1C16
102
{ACAD_REACTORS
330
1C15
102
}
330
1C15
100
DictionaryVariables
280
     0
  1
STANDARD
  0
DICTIONARYVAR
  5
1C18
102
{ACAD_REACTORS
330
1C15
102
}
330
1C15
100
DictionaryVariables
280
     0
  1
Imperial24
  0
DICTIONARYVAR
  5
1C19
102
{ACAD_REACTORS
330
1C15
102
}
330
1C15
100
DictionaryVariables
280
     0
  1
Imperial24
  0
DICTIONARYVAR
  5
1C1D
102
{ACAD_REACTORS
330
1C15
102
}
330
1C15
100
DictionaryVariables
280
     0
  1
1
  0
DICTIONARYVAR
  5
1C1C
102
{ACAD_REACTORS
330
1C15
102
}
330
1C15
100
DictionaryVariables
280
     0
  1
0
  0
DICTIONARYVAR
  5
1C1B
102
{ACAD_REACTORS
330
1C15
102
}
330
1C15
100
DictionaryVariables
280
     0
  1
127
  0
DICTIONARYVAR
  5
1C64
102
{ACAD_REACTORS
330
1C15
102
}
330
1C15
100
DictionaryVariables
280
     0
  1
2
  0
DICTIONARY
  5
1C9B
330
1BFF
100
AcDbDictionary
280
     1
281
     1
  3
ACAD_XREC_ROUNDTRIP
360
1C9C
  0
DICTIONARY
  5
1C9D
330
1C00
100
AcDbDictionary
280
     1
281
     1
  3
ACAD_XREC_ROUNDTRIP
360
1C9E
  0
DICTIONARY
  5
1C9F
330
1C01
100
AcDbDictionary
280
     1
281
     1
  3
ACAD_XREC_ROUNDTRIP
360
1CA0
  0
DICTIONARY
  5
1BBD
330
1BBC
100
AcDbDictionary
280
     1
281
     1
  3
ACAD_XREC_ROUNDTRIP
360
1C25
  3
BUMPTILE
360
1BBF
  3
DIFFUSETILE
360
1BBE
  3
OPACITYTILE
360
1BC2
  3
REFLECTIONTILE
360
1BC1
  3
REFRACTIONTILE
360
1BC3
  3
SPECULARTILE
360
1BC0
  0
DICTIONARY
  5
1BB5
330
1BB4
100
AcDbDictionary
280
     1
281
     1
  3
ACAD_XREC_ROUNDTRIP
360
1C24
  3
BUMPTILE
360
1BB7
  3
DIFFUSETILE
360
1BB6
  3
OPACITYTILE
360
1BBA
  3
REFLECTIONTILE
360
1BB9
  3
REFRACTIONTILE
360
1BBB
  3
SPECULARTILE
360
1BB8
  0
DICTIONARY
  5
1BC5
330
1BC4
100
AcDbDictionary
280
     1
281
     1
  3
ACAD_XREC_ROUNDTRIP
360
1C26
  3
BUMPTILE
360
1BC7
  3
DIFFUSETILE
360
1BC6
  3
OPACITYTILE
360
1BCA
  3
REFLECTIONTILE
360
1BC9
  3
REFRACTIONTILE
360
1BCB
  3
SPECULARTILE
360
1BC8
  0
DICTIONARY
  5
1C99
330
1BFD
100
AcDbDictionary
280
     1
281
     1
  3
ACAD_XREC_ROUNDTRIP
360
1C9A
  0
DICTIONARY
  5
1C20
330
1BE7
100
AcDbDictionary
280
     1
281
     1
  3
ACAD_ROUNDTRIP_2008_TABLESTYLE_CELLSTYLEMAP
360
1C65
  3
ACAD_XREC_ROUNDTRIP
360
1C98
  0
DICTIONARY
  5
1C72
330
1BD2
100
AcDbDictionary
280
     1
281
     1
  3
ACAD_XREC_ROUNDTRIP
360
1C73
  0
DICTIONARY
  5
1C70
330
1BD1
100
AcDbDictionary
280
     1
281
     1
  3
ACAD_XREC_ROUNDTRIP
360
1C71
  0
DICTIONARY
  5
1C7E
330
1BD8
100
AcDbDictionary
280
     1
281
     1
  3
ACAD_XREC_ROUNDTRIP
360
1C7F
  0
DICTIONARY
  5
1C86
330
1BDC
100
AcDbDictionary
280
     1
281
     1
  3
ACAD_XREC_ROUNDTRIP
360
1C87
  0
DICTIONARY
  5
1C78
330
1BD5
100
AcDbDictionary
280
     1
281
     1
  3
ACAD_XREC_ROUNDTRIP
360
1C79
  0
DICTIONARY
  5
1C7C
330
1BD7
100
AcDbDictionary
280
     1
281
     1
  3
ACAD_XREC_ROUNDTRIP
360
1C7D
  0
DICTIONARY
  5
1C96
330
1BE4
100
AcDbDictionary
280
     1
281
     1
  3
ACAD_XREC_ROUNDTRIP
360
1C97
  0
DICTIONARY
  5
1C84
330
1BDB
100
AcDbDictionary
280
     1
281
     1
  3
ACAD_XREC_ROUNDTRIP
360
1C85
  0
DICTIONARY
  5
1C68
330
1BCD
100
AcDbDictionary
280
     1
281
     1
  3
ACAD_XREC_ROUNDTRIP
360
1C69
  0
DICTIONARY
  5
1C6A
330
1BCE
100
AcDbDictionary
280
     1
281
     1
  3
ACAD_XREC_ROUNDTRIP
360
1C6B
  0
DICTIONARY
  5
1C6C
330
1BCF
100
AcDbDictionary
280
     1
281
     1
  3
ACAD_XREC_ROUNDTRIP
360
1C6D
  0
DICTIONARY
  5
1C6E
330
1BD0
100
AcDbDictionary
280
     1
281
     1
  3
ACAD_XREC_ROUNDTRIP
360
1C6F
  0
DICTIONARY
  5
1C76
330
1BD4
100
AcDbDictionary
280
     1
281
     1
  3
ACAD_XREC_ROUNDTRIP
360
1C77
  0
DICTIONARY
  5
1C92
330
1BE2
100
AcDbDictionary
280
     1
281
     1
  3
ACAD_XREC_ROUNDTRIP
360
1C93
  0
DICTIONARY
  5
1C82
330
1BDA
100
AcDbDictionary
280
     1
281
     1
  3
ACAD_XREC_ROUNDTRIP
360
1C83
  0
DICTIONARY
  5
1C94
330
1BE3
100
AcDbDictionary
280
     1
281
     1
  3
ACAD_XREC_ROUNDTRIP
360
1C95
  0
DICTIONARY
  5
1C7A
330
1BD6
100
AcDbDictionary
280
     1
281
     1
  3
ACAD_XREC_ROUNDTRIP
360
1C7B
  0
DICTIONARY
  5
1C90
330
1BE1
100
AcDbDictionary
280
     1
281
     1
  3
ACAD_XREC_ROUNDTRIP
360
1C91
  0
DICTIONARY
  5
1C8E
330
1BE0
100
AcDbDictionary
280
     1
281
     1
  3
ACAD_XREC_ROUNDTRIP
360
1C8F
  0
DICTIONARY
  5
1C88
330
1BDD
100
AcDbDictionary
280
     1
281
     1
  3
ACAD_XREC_ROUNDTRIP
360
1C89
  0
DICTIONARY
  5
1C8A
330
1BDE
100
AcDbDictionary
280
     1
281
     1
  3
ACAD_XREC_ROUNDTRIP
360
1C8B
  0
DICTIONARY
  5
1C80
330
1BD9
100
AcDbDictionary
280
     1
281
     1
  3
ACAD_XREC_ROUNDTRIP
360
1C81
  0
DICTIONARY
  5
1C74
330
1BD3
100
AcDbDictionary
280
     1
281
     1
  3
ACAD_XREC_ROUNDTRIP
360
1C75
  0
DICTIONARY
  5
1C8C
330
1BDF
100
AcDbDictionary
280
     1
281
     1
  3
ACAD_XREC_ROUNDTRIP
360
1C8D
  0
XRECORD
  5
1C9C
102
{ACAD_REACTORS
330
1C9B
102
}
330
1C9B
100
AcDbXrecord
280
     1
102
DISPLAYNAME
  1
Imperial24
102
FLAGS
 90
        0
  0
XRECORD
  5
1C9E
102
{ACAD_REACTORS
330
1C9D
102
}
330
1C9D
100
AcDbXrecord
280
     1
102
SHADEPLOT
 70
     0
102
SHADEPLOTRESLEVEL
 70
     2
102
SHADEPLOTCUSTOMDPI
 70
   300
  0
XRECORD
  5
1CA0
102
{ACAD_REACTORS
330
1C9F
102
}
330
1C9F
100
AcDbXrecord
280
     1
102
SHADEPLOT
 70
     0
102
SHADEPLOTRESLEVEL
 70
     2
102
SHADEPLOTCUSTOMDPI
 70
   300
  0
XRECORD
  5
1C25
102
{ACAD_REACTORS
330
1BBD
102
}
330
1BBD
100
AcDbXrecord
280
     1
102
MATERIAL
148
0.0
149
0.0
149
0.0
 93
        0
 94
      127
282
     0
 72
     0
 77
     0
171
     0
175
     0
179
     0
273
     0
  0
XRECORD
  5
1BBF
102
{ACAD_REACTORS
330
1BBD
102
}
330
1BBD
100
AcDbXrecord
280
     1
270
     1
271
     1
  0
XRECORD
  5
1BBE
102
{ACAD_REACTORS
330
1BBD
102
}
330
1BBD
100
AcDbXrecord
280
     1
270
     1
271
     1
  0
XRECORD
  5
1BC2
102
{ACAD_REACTORS
330
1BBD
102
}
330
1BBD
100
AcDbXrecord
280
     1
270
     1
271
     1
  0
XRECORD
  5
1BC1
102
{ACAD_REACTORS
330
1BBD
102
}
330
1BBD
100
AcDbXrecord
280
     1
270
     1
271
     1
  0
XRECORD
  5
1BC3
102
{ACAD_REACTORS
330
1BBD
102
}
330
1BBD
100
AcDbXrecord
280
     1
270
     1
271
     1
  0
XRECORD
  5
1BC0
102
{ACAD_REACTORS
330
1BBD
102
}
330
1BBD
100
AcDbXrecord
280
     1
270
     1
271
     1
  0
XRECORD
  5
1C24
102
{ACAD_REACTORS
330
1BB5
102
}
330
1BB5
100
AcDbXrecord
280
     1
102
MATERIAL
148
0.0
149
0.0
149
0.0
 93
        0
 94
      127
282
     0
 72
     0
 77
     0
171
     0
175
     0
179
     0
273
     0
  0
XRECORD
  5
1BB7
102
{ACAD_REACTORS
330
1BB5
102
}
330
1BB5
100
AcDbXrecord
280
     1
270
     1
271
     1
  0
XRECORD
  5
1BB6
102
{ACAD_REACTORS
330
1BB5
102
}
330
1BB5
100
AcDbXrecord
280
     1
270
     1
271
     1
  0
XRECORD
  5
1BBA
102
{ACAD_REACTORS
330
1BB5
102
}
330
1BB5
100
AcDbXrecord
280
     1
270
     1
271
     1
  0
XRECORD
  5
1BB9
102
{ACAD_REACTORS
330
1BB5
102
}
330
1BB5
100
AcDbXrecord
280
     1
270
     1
271
     1
  0
XRECORD
  5
1BBB
102
{ACAD_REACTORS
330
1BB5
102
}
330
1BB5
100
AcDbXrecord
280
     1
270
     1
271
     1
  0
XRECORD
  5
1BB8
102
{ACAD_REACTORS
330
1BB5
102
}
330
1BB5
100
AcDbXrecord
280
     1
270
     1
271
     1
  0
XRECORD
  5
1C26
102
{ACAD_REACTORS
330
1BC5
102
}
330
1BC5
100
AcDbXrecord
280
     1
102
MATERIAL
148
0.0
149
0.0
149
0.0
 93
        0
 94
      127
282
     0
 72
     0
 77
     0
171
     0
175
     0
179
     0
273
     0
  0
XRECORD
  5
1BC7
102
{ACAD_REACTORS
330
1BC5
102
}
330
1BC5
100
AcDbXrecord
280
     1
270
     1
271
     1
  0
XRECORD
  5
1BC6
102
{ACAD_REACTORS
330
1BC5
102
}
330
1BC5
100
AcDbXrecord
280
     1
270
     1
271
     1
  0
XRECORD
  5
1BCA
102
{ACAD_REACTORS
330
1BC5
102
}
330
1BC5
100
AcDbXrecord
280
     1
270
     1
271
     1
  0
XRECORD
  5
1BC9
102
{ACAD_REACTORS
330
1BC5
102
}
330
1BC5
100
AcDbXrecord
280
     1
270
     1
271
     1
  0
XRECORD
  5
1BCB
102
{ACAD_REACTORS
330
1BC5
102
}
330
1BC5
100
AcDbXrecord
280
     1
270
     1
271
     1
  0
XRECORD
  5
1BC8
102
{ACAD_REACTORS
330
1BC5
102
}
330
1BC5
100
AcDbXrecord
280
     1
270
     1
271
     1
  0
XRECORD
  5
1C9A
102
{ACAD_REACTORS
330
1C99
102
}
330
1C99
100
AcDbXrecord
280
     1
102
DISPLAYNAME
  1
Imperial24
102
FLAGS
 90
        0
  0
CELLSTYLEMAP
  5
1C65
102
{ACAD_REACTORS
330
1C20
102
}
330
1C20
100
AcDbCellStyleMap
 90
        3
300
CELLSTYLE
  1
TABLEFORMAT_BEGIN
 90
        5
170
     1
 91
        0
 92
    32768
 62
   257
 93
        1
300
CONTENTFORMAT
  1
CONTENTFORMAT_BEGIN
 90
        0
 91
        0
 92
      512
 93
        0
300

 40
0.0
140
1.0
 94
        5
 62
     0
340
F
144
0.25
309
CONTENTFORMAT_END
171
     1
301
MARGIN
  1
CELLMARGIN_BEGIN
 40
0.06
 40
0.06
 40
0.06
 40
0.06
 40
0.18
 40
0.18
309
CELLMARGIN_END
 94
        6
 95
        1
302
GRIDFORMAT
  1
GRIDFORMAT_BEGIN
 90
        0
 91
        1
 62
     0
 92
       -2
340
0
 93
        0
 40
0.045
309
GRIDFORMAT_END
 95
        2
302
GRIDFORMAT
  1
GRIDFORMAT_BEGIN
 90
        0
 91
        1
 62
     0
 92
       -2
340
0
 93
        0
 40
0.045
309
GRIDFORMAT_END
 95
        4
302
GRIDFORMAT
  1
GRIDFORMAT_BEGIN
 90
        0
 91
        1
 62
     0
 92
       -2
340
0
 93
        0
 40
0.045
309
GRIDFORMAT_END
 95
        8
302
GRIDFORMAT
  1
GRIDFORMAT_BEGIN
 90
        0
 91
        1
 62
     0
 92
       -2
340
0
 93
        0
 40
0.045
309
GRIDFORMAT_END
 95
       16
302
GRIDFORMAT
  1
GRIDFORMAT_BEGIN
 90
        0
 91
        1
 62
     0
 92
       -2
340
0
 93
        0
 40
0.045
309
GRIDFORMAT_END
 95
       32
302
GRIDFORMAT
  1
GRIDFORMAT_BEGIN
 90
        0
 91
        1
 62
     0
 92
       -2
340
0
 93
        0
 40
0.045
309
GRIDFORMAT_END
309
TABLEFORMAT_END
  1
CELLSTYLE_BEGIN
 90
        1
 91
        1
300
_TITLE
309
CELLSTYLE_END
300
CELLSTYLE
  1
TABLEFORMAT_BEGIN
 90
        5
170
     1
 91
        0
 92
        0
 62
   257
 93
        1
300
CONTENTFORMAT
  1
CONTENTFORMAT_BEGIN
 90
        0
 91
        0
 92
      512
 93
        0
300

 40
0.0
140
1.0
 94
        5
 62
     0
340
F
144
0.18
309
CONTENTFORMAT_END
171
     1
301
MARGIN
  1
CELLMARGIN_BEGIN
 40
0.06
 40
0.06
 40
0.06
 40
0.06
 40
0.18
 40
0.18
309
CELLMARGIN_END
 94
        6
 95
        1
302
GRIDFORMAT
  1
GRIDFORMAT_BEGIN
 90
        0
 91
        1
 62
     0
 92
       -2
340
0
 93
        0
 40
0.045
309
GRIDFORMAT_END
 95
        2
302
GRIDFORMAT
  1
GRIDFORMAT_BEGIN
 90
        0
 91
        1
 62
     0
 92
       -2
340
0
 93
        0
 40
0.045
309
GRIDFORMAT_END
 95
        4
302
GRIDFORMAT
  1
GRIDFORMAT_BEGIN
 90
        0
 91
        1
 62
     0
 92
       -2
340
0
 93
        0
 40
0.045
309
GRIDFORMAT_END
 95
        8
302
GRIDFORMAT
  1
GRIDFORMAT_BEGIN
 90
        0
 91
        1
 62
     0
 92
       -2
340
0
 93
        0
 40
0.045
309
GRIDFORMAT_END
 95
       16
302
GRIDFORMAT
  1
GRIDFORMAT_BEGIN
 90
        0
 91
        1
 62
     0
 92
       -2
340
0
 93
        0
 40
0.045
309
GRIDFORMAT_END
 95
       32
302
GRIDFORMAT
  1
GRIDFORMAT_BEGIN
 90
        0
 91
        1
 62
     0
 92
       -2
340
0
 93
        0
 40
0.045
309
GRIDFORMAT_END
309
TABLEFORMAT_END
  1
CELLSTYLE_BEGIN
 90
        2
 91
        1
300
_HEADER
309
CELLSTYLE_END
300
CELLSTYLE
  1
TABLEFORMAT_BEGIN
 90
        5
170
     1
 91
        0
 92
        0
 62
   257
 93
        1
300
CONTENTFORMAT
  1
CONTENTFORMAT_BEGIN
 90
        0
 91
        0
 92
      512
 93
        0
300

 40
0.0
140
1.0
 94
        2
 62
     0
340
F
144
0.18
309
CONTENTFORMAT_END
171
     1
301
MARGIN
  1
CELLMARGIN_BEGIN
 40
0.06
 40
0.06
 40
0.06
 40
0.06
 40
0.18
 40
0.18
309
CELLMARGIN_END
 94
        6
 95
        1
302
GRIDFORMAT
  1
GRIDFORMAT_BEGIN
 90
        0
 91
        1
 62
     0
 92
       -2
340
0
 93
        0
 40
0.045
309
GRIDFORMAT_END
 95
        2
302
GRIDFORMAT
  1
GRIDFORMAT_BEGIN
 90
        0
 91
        1
 62
     0
 92
       -2
340
0
 93
        0
 40
0.045
309
GRIDFORMAT_END
 95
        4
302
GRIDFORMAT
  1
GRIDFORMAT_BEGIN
 90
        0
 91
        1
 62
     0
 92
       -2
340
0
 93
        0
 40
0.045
309
GRIDFORMAT_END
 95
        8
302
GRIDFORMAT
  1
GRIDFORMAT_BEGIN
 90
        0
 91
        1
 62
     0
 92
       -2
340
0
 93
        0
 40
0.045
309
GRIDFORMAT_END
 95
       16
302
GRIDFORMAT
  1
GRIDFORMAT_BEGIN
 90
        0
 91
        1
 62
     0
 92
       -2
340
0
 93
        0
 40
0.045
309
GRIDFORMAT_END
 95
       32
302
GRIDFORMAT
  1
GRIDFORMAT_BEGIN
 90
        0
 91
        1
 62
     0
 92
       -2
340
0
 93
        0
 40
0.045
309
GRIDFORMAT_END
309
TABLEFORMAT_END
  1
CELLSTYLE_BEGIN
 90
        3
 91
        2
300
_DATA
309
CELLSTYLE_END
  0
XRECORD
  5
1C98
102
{ACAD_REACTORS
330
1C20
102
}
330
1C20
100
AcDbXrecord
280
     1
102
ACAD_ROUNDTRIP_PRE2007_TABLESTYLE
 90
      512
 91
        0
  1

 92
      512
 93
        0
  2

 94
      512
 95
        0
  3

  0
XRECORD
  5
1C73
102
{ACAD_REACTORS
330
1C72
102
}
330
1C72
100
AcDbXrecord
280
     1
102
RTVSPost2010Prop28
280
     1
102
RTVSPost2010PropOp28
 70
     1
102
RTVSPost2010Prop29
280
     1
102
RTVSPost2010PropOp29
 70
     1
102
RTVSPost2010Prop30
280
     0
102
RTVSPost2010PropOp30
 70
     1
102
RTVSPost2010Prop31
280
     0
102
RTVSPost2010PropOp31
 70
     1
102
RTVSPost2010Prop32
280
     0
102
RTVSPost2010PropOp32
 70
     1
102
RTVSPost2010Prop33
280
     0
102
RTVSPost2010PropOp33
 70
     1
102
RTVSPost2010Prop34
280
     0
102
RTVSPost2010PropOp34
 70
     1
102
RTVSPost2010Prop35
280
     0
102
RTVSPost2010PropOp35
 70
     1
102
RTVSPost2010Prop36
280
     0
102
RTVSPost2010PropOp36
 70
     1
102
RTVSPost2010Prop37
 90
       50
102
RTVSPost2010PropOp37
 70
     1
102
RTVSPost2010Prop38
140
0.0
102
RTVSPost2010PropOp38
 70
     1
102
RTVSPost2010Prop39
140
1.0
102
RTVSPost2010PropOp39
 70
     1
102
RTVSPost2010Prop40
 90
        0
102
RTVSPost2010PropOp40
 70
     1
102
RTVSPost2010Prop41ColorIndex
 90
       18
102
RTVSPost2010Prop41ColorRGB
 90
        0
102
RTVSPost2010PropOp41
 70
     1
102
RTVSPost2010Prop42
 90
       50
102
RTVSPost2010PropOp42
 70
     1
102
RTVSPost2010Prop43
 90
        3
102
RTVSPost2010PropOp43
 70
     1
102
RTVSPost2010Prop44ColorIndex
 90
        5
102
RTVSPost2010Prop44ColorRGB
 90
      255
102
RTVSPost2010PropOp44
 70
     1
102
RTVSPost2010Prop45
280
     0
102
RTVSPost2010PropOp45
 70
     1
102
RTVSPost2010Prop46
 90
       50
102
RTVSPost2010PropOp46
 70
     1
102
RTVSPost2010Prop47
 90
       50
102
RTVSPost2010PropOp47
 70
     1
102
RTVSPost2010Prop48
 90
       50
102
RTVSPost2010PropOp48
 70
     1
102
RTVSPost2010Prop49
280
     0
102
RTVSPost2010PropOp49
 70
     1
102
RTVSPost2010Prop50
 90
       50
102
RTVSPost2010PropOp50
 70
     1
102
RTVSPost2010Prop51ColorIndex
 90
      256
102
RTVSPost2010Prop51ColorRGB
 90
-16777216
102
RTVSPost2010PropOp51
 70
     0
102
RTVSPost2010Prop52
140
1.0
102
RTVSPost2010PropOp52
 70
     0
102
RTVSPost2010Prop53
 90
        2
102
RTVSPost2010PropOp53
 70
     1
102
RTVSPost2010Prop54
  1
strokes_ogs.tif
102
RTVSPost2010PropOp54
 70
     1
102
RTVSPost2010Prop55
280
     0
102
RTVSPost2010PropOp55
 70
     1
102
RTVSPost2010Prop56
140
1.0
102
RTVSPost2010PropOp56
 70
     1
102
RTVSPost2010Prop57
140
1.0
102
RTVSPost2010PropOp57
 70
     1
102
RTVSPropertyOp0
 70
     1
102
RTVSPropertyOp1
 70
     1
102
RTVSPropertyOp2
 70
     1
102
RTVSPropertyOp3
 70
     1
102
RTVSPropertyOp4
 70
     1
102
RTVSPropertyOp5
 70
     1
102
RTVSPropertyOp6
 70
     1
102
RTVSPropertyOp7
 70
     1
102
RTVSPropertyOp8
 70
     1
102
RTVSPropertyOp9
 70
     1
102
RTVSPropertyOp10
 70
     1
102
RTVSPropertyOp11
 70
     1
102
RTVSPropertyOp12
 70
     1
102
RTVSPropertyOp13
 70
     1
102
RTVSPropertyOp14
 70
     1
102
RTVSPropertyOp15
 70
     1
102
RTVSPropertyOp16
 70
     1
102
RTVSPropertyOp17
 70
     1
102
RTVSPropertyOp18
 70
     1
102
RTVSPropertyOp19
 70
     1
102
RTVSPropertyOp20
 70
     1
102
RTVSPropertyOp21
 70
     1
102
RTVSPropertyOp22
 70
     1
102
RTVSPropertyOp23
 70
     1
102
RTVSPropertyOp24
 70
     1
102
RTVSPropertyOp25
 70
     1
102
RTVSPropertyOp26
 70
     1
102
RTVSPropertyOp27
 70
     1
102
RTVSPropertyOp28
 70
     1
102
RTVSPropertyOp29
 70
     1
102
RTVSPropertyOp30
 70
     1
102
RTVSPropertyOp31
 70
     1
102
RTVSPropertyOp32
 70
     1
102
RTVSPropertyOp33
 70
     1
102
RTVSPropertyOp34
 70
     1
102
RTVSPropertyOp35
 70
     1
102
RTVSPropertyOp36
 70
     1
102
RTVSPropertyOp37
 70
     1
102
RTVSPropertyOp38
 70
     1
102
RTVSPropertyOp39
 70
     1
102
RTVSPropertyOp40
 70
     1
102
RTVSPropertyOp41
 70
     1
102
RTVSPropertyOp42
 70
     1
102
RTVSPropertyOp43
 70
     1
102
RTVSPropertyOp44
 70
     1
102
RTVSPropertyOp45
 70
     1
102
RTVSPropertyOp46
 70
     1
102
RTVSPropertyOp47
 70
     1
102
RTVSPropertyOp48
 70
     1
102
RTVSPropertyOp49
 70
     1
102
RTVSPropertyOp50
 70
     1
102
RTVSPropertyOp51
 70
     0
102
RTVSPropertyOp52
 70
     0
102
RTVSPropertyOp53
 70
     1
102
RTVSPropertyOp54
 70
     1
102
RTVSPropertyOp55
 70
     1
102
RTVSPropertyOp56
 70
     1
102
RTVSPropertyOp57
 70
     1
102
RTVSPropertyOp58
 70
     1
102
RTVSPropertyOp59
 70
     1
102
RTVSPropertyOp60
 70
     1
102
RTVSPropertyOp61
 70
     1
102
RTVSPropertyOp62
 70
     1
  0
XRECORD
  5
1C71
102
{ACAD_REACTORS
330
1C70
102
}
330
1C70
100
AcDbXrecord
280
     1
102
RTVSPost2010Prop28
280
     0
102
RTVSPost2010PropOp28
 70
     1
102
RTVSPost2010Prop29
280
     1
102
RTVSPost2010PropOp29
 70
     1
102
RTVSPost2010Prop30
280
     1
102
RTVSPost2010PropOp30
 70
     1
102
RTVSPost2010Prop31
280
     0
102
RTVSPost2010PropOp31
 70
     1
102
RTVSPost2010Prop32
280
     0
102
RTVSPost2010PropOp32
 70
     1
102
RTVSPost2010Prop33
280
     0
102
RTVSPost2010PropOp33
 70
     1
102
RTVSPost2010Prop34
280
     0
102
RTVSPost2010PropOp34
 70
     1
102
RTVSPost2010Prop35
280
     0
102
RTVSPost2010PropOp35
 70
     1
102
RTVSPost2010Prop36
280
     0
102
RTVSPost2010PropOp36
 70
     1
102
RTVSPost2010Prop37
 90
       50
102
RTVSPost2010PropOp37
 70
     1
102
RTVSPost2010Prop38
140
0.0
102
RTVSPost2010PropOp38
 70
     1
102
RTVSPost2010Prop39
140
1.0
102
RTVSPost2010PropOp39
 70
     1
102
RTVSPost2010Prop40
 90
        0
102
RTVSPost2010PropOp40
 70
     1
102
RTVSPost2010Prop41ColorIndex
 90
       18
102
RTVSPost2010Prop41ColorRGB
 90
        0
102
RTVSPost2010PropOp41
 70
     1
102
RTVSPost2010Prop42
 90
       50
102
RTVSPost2010PropOp42
 70
     1
102
RTVSPost2010Prop43
 90
        3
102
RTVSPost2010PropOp43
 70
     1
102
RTVSPost2010Prop44ColorIndex
 90
        5
102
RTVSPost2010Prop44ColorRGB
 90
      255
102
RTVSPost2010PropOp44
 70
     1
102
RTVSPost2010Prop45
280
     0
102
RTVSPost2010PropOp45
 70
     1
102
RTVSPost2010Prop46
 90
       50
102
RTVSPost2010PropOp46
 70
     1
102
RTVSPost2010Prop47
 90
       50
102
RTVSPost2010PropOp47
 70
     1
102
RTVSPost2010Prop48
 90
       50
102
RTVSPost2010PropOp48
 70
     1
102
RTVSPost2010Prop49
280
     0
102
RTVSPost2010PropOp49
 70
     1
102
RTVSPost2010Prop50
 90
       50
102
RTVSPost2010PropOp50
 70
     1
102
RTVSPost2010Prop51ColorIndex
 90
      256
102
RTVSPost2010Prop51ColorRGB
 90
-16777216
102
RTVSPost2010PropOp51
 70
     0
102
RTVSPost2010Prop52
140
1.0
102
RTVSPost2010PropOp52
 70
     0
102
RTVSPost2010Prop53
 90
        2
102
RTVSPost2010PropOp53
 70
     1
102
RTVSPost2010Prop54
  1
strokes_ogs.tif
102
RTVSPost2010PropOp54
 70
     1
102
RTVSPost2010Prop55
280
     0
102
RTVSPost2010PropOp55
 70
     1
102
RTVSPost2010Prop56
140
1.0
102
RTVSPost2010PropOp56
 70
     1
102
RTVSPost2010Prop57
140
1.0
102
RTVSPost2010PropOp57
 70
     1
102
RTVSPropertyOp0
 70
     1
102
RTVSPropertyOp1
 70
     1
102
RTVSPropertyOp2
 70
     1
102
RTVSPropertyOp3
 70
     1
102
RTVSPropertyOp4
 70
     1
102
RTVSPropertyOp5
 70
     1
102
RTVSPropertyOp6
 70
     1
102
RTVSPropertyOp7
 70
     1
102
RTVSPropertyOp8
 70
     1
102
RTVSPropertyOp9
 70
     1
102
RTVSPropertyOp10
 70
     1
102
RTVSPropertyOp11
 70
     1
102
RTVSPropertyOp12
 70
     1
102
RTVSPropertyOp13
 70
     1
102
RTVSPropertyOp14
 70
     1
102
RTVSPropertyOp15
 70
     1
102
RTVSPropertyOp16
 70
     1
102
RTVSPropertyOp17
 70
     1
102
RTVSPropertyOp18
 70
     1
102
RTVSPropertyOp19
 70
     1
102
RTVSPropertyOp20
 70
     1
102
RTVSPropertyOp21
 70
     1
102
RTVSPropertyOp22
 70
     1
102
RTVSPropertyOp23
 70
     1
102
RTVSPropertyOp24
 70
     1
102
RTVSPropertyOp25
 70
     1
102
RTVSPropertyOp26
 70
     1
102
RTVSPropertyOp27
 70
     1
102
RTVSPropertyOp28
 70
     1
102
RTVSPropertyOp29
 70
     1
102
RTVSPropertyOp30
 70
     1
102
RTVSPropertyOp31
 70
     1
102
RTVSPropertyOp32
 70
     1
102
RTVSPropertyOp33
 70
     1
102
RTVSPropertyOp34
 70
     1
102
RTVSPropertyOp35
 70
     1
102
RTVSPropertyOp36
 70
     1
102
RTVSPropertyOp37
 70
     1
102
RTVSPropertyOp38
 70
     1
102
RTVSPropertyOp39
 70
     1
102
RTVSPropertyOp40
 70
     1
102
RTVSPropertyOp41
 70
     1
102
RTVSPropertyOp42
 70
     1
102
RTVSPropertyOp43
 70
     1
102
RTVSPropertyOp44
 70
     1
102
RTVSPropertyOp45
 70
     1
102
RTVSPropertyOp46
 70
     1
102
RTVSPropertyOp47
 70
     1
102
RTVSPropertyOp48
 70
     1
102
RTVSPropertyOp49
 70
     1
102
RTVSPropertyOp50
 70
     1
102
RTVSPropertyOp51
 70
     0
102
RTVSPropertyOp52
 70
     0
102
RTVSPropertyOp53
 70
     1
102
RTVSPropertyOp54
 70
     1
102
RTVSPropertyOp55
 70
     1
102
RTVSPropertyOp56
 70
     1
102
RTVSPropertyOp57
 70
     1
102
RTVSPropertyOp58
 70
     1
102
RTVSPropertyOp59
 70
     1
102
RTVSPropertyOp60
 70
     1
102
RTVSPropertyOp61
 70
     1
102
RTVSPropertyOp62
 70
     1
  0
XRECORD
  5
1C7F
102
{ACAD_REACTORS
330
1C7E
102
}
330
1C7E
100
AcDbXrecord
280
     1
102
RTVSPost2010Prop28
280
     0
102
RTVSPost2010PropOp28
 70
     1
102
RTVSPost2010Prop29
280
     1
102
RTVSPost2010PropOp29
 70
     1
102
RTVSPost2010Prop30
280
     1
102
RTVSPost2010PropOp30
 70
     1
102
RTVSPost2010Prop31
280
     0
102
RTVSPost2010PropOp31
 70
     1
102
RTVSPost2010Prop32
280
     0
102
RTVSPost2010PropOp32
 70
     1
102
RTVSPost2010Prop33
280
     0
102
RTVSPost2010PropOp33
 70
     1
102
RTVSPost2010Prop34
280
     0
102
RTVSPost2010PropOp34
 70
     1
102
RTVSPost2010Prop35
280
     0
102
RTVSPost2010PropOp35
 70
     1
102
RTVSPost2010Prop36
280
     0
102
RTVSPost2010PropOp36
 70
     1
102
RTVSPost2010Prop37
 90
       50
102
RTVSPost2010PropOp37
 70
     1
102
RTVSPost2010Prop38
140
0.0
102
RTVSPost2010PropOp38
 70
     1
102
RTVSPost2010Prop39
140
1.0
102
RTVSPost2010PropOp39
 70
     1
102
RTVSPost2010Prop40
 90
        0
102
RTVSPost2010PropOp40
 70
     1
102
RTVSPost2010Prop41ColorIndex
 90
       18
102
RTVSPost2010Prop41ColorRGB
 90
        0
102
RTVSPost2010PropOp41
 70
     1
102
RTVSPost2010Prop42
 90
       50
102
RTVSPost2010PropOp42
 70
     1
102
RTVSPost2010Prop43
 90
        3
102
RTVSPost2010PropOp43
 70
     1
102
RTVSPost2010Prop44ColorIndex
 90
        5
102
RTVSPost2010Prop44ColorRGB
 90
      255
102
RTVSPost2010PropOp44
 70
     1
102
RTVSPost2010Prop45
280
     0
102
RTVSPost2010PropOp45
 70
     1
102
RTVSPost2010Prop46
 90
       50
102
RTVSPost2010PropOp46
 70
     1
102
RTVSPost2010Prop47
 90
       50
102
RTVSPost2010PropOp47
 70
     1
102
RTVSPost2010Prop48
 90
       50
102
RTVSPost2010PropOp48
 70
     1
102
RTVSPost2010Prop49
280
     0
102
RTVSPost2010PropOp49
 70
     1
102
RTVSPost2010Prop50
 90
       50
102
RTVSPost2010PropOp50
 70
     1
102
RTVSPost2010Prop51ColorIndex
 90
      256
102
RTVSPost2010Prop51ColorRGB
 90
-16777216
102
RTVSPost2010PropOp51
 70
     0
102
RTVSPost2010Prop52
140
1.0
102
RTVSPost2010PropOp52
 70
     0
102
RTVSPost2010Prop53
 90
        2
102
RTVSPost2010PropOp53
 70
     1
102
RTVSPost2010Prop54
  1
strokes_ogs.tif
102
RTVSPost2010PropOp54
 70
     1
102
RTVSPost2010Prop55
280
     0
102
RTVSPost2010PropOp55
 70
     1
102
RTVSPost2010Prop56
140
1.0
102
RTVSPost2010PropOp56
 70
     1
102
RTVSPost2010Prop57
140
1.0
102
RTVSPost2010PropOp57
 70
     1
102
RTVSPropertyOp0
 70
     1
102
RTVSPropertyOp1
 70
     1
102
RTVSPropertyOp2
 70
     1
102
RTVSPropertyOp3
 70
     1
102
RTVSPropertyOp4
 70
     1
102
RTVSPropertyOp5
 70
     1
102
RTVSPropertyOp6
 70
     1
102
RTVSPropertyOp7
 70
     1
102
RTVSPropertyOp8
 70
     1
102
RTVSPropertyOp9
 70
     1
102
RTVSPropertyOp10
 70
     1
102
RTVSPropertyOp11
 70
     1
102
RTVSPropertyOp12
 70
     1
102
RTVSPropertyOp13
 70
     1
102
RTVSPropertyOp14
 70
     1
102
RTVSPropertyOp15
 70
     1
102
RTVSPropertyOp16
 70
     1
102
RTVSPropertyOp17
 70
     1
102
RTVSPropertyOp18
 70
     1
102
RTVSPropertyOp19
 70
     1
102
RTVSPropertyOp20
 70
     1
102
RTVSPropertyOp21
 70
     1
102
RTVSPropertyOp22
 70
     1
102
RTVSPropertyOp23
 70
     1
102
RTVSPropertyOp24
 70
     1
102
RTVSPropertyOp25
 70
     1
102
RTVSPropertyOp26
 70
     1
102
RTVSPropertyOp27
 70
     1
102
RTVSPropertyOp28
 70
     1
102
RTVSPropertyOp29
 70
     1
102
RTVSPropertyOp30
 70
     1
102
RTVSPropertyOp31
 70
     1
102
RTVSPropertyOp32
 70
     1
102
RTVSPropertyOp33
 70
     1
102
RTVSPropertyOp34
 70
     1
102
RTVSPropertyOp35
 70
     1
102
RTVSPropertyOp36
 70
     1
102
RTVSPropertyOp37
 70
     1
102
RTVSPropertyOp38
 70
     1
102
RTVSPropertyOp39
 70
     1
102
RTVSPropertyOp40
 70
     1
102
RTVSPropertyOp41
 70
     1
102
RTVSPropertyOp42
 70
     1
102
RTVSPropertyOp43
 70
     1
102
RTVSPropertyOp44
 70
     1
102
RTVSPropertyOp45
 70
     1
102
RTVSPropertyOp46
 70
     1
102
RTVSPropertyOp47
 70
     1
102
RTVSPropertyOp48
 70
     1
102
RTVSPropertyOp49
 70
     1
102
RTVSPropertyOp50
 70
     1
102
RTVSPropertyOp51
 70
     0
102
RTVSPropertyOp52
 70
     0
102
RTVSPropertyOp53
 70
     1
102
RTVSPropertyOp54
 70
     1
102
RTVSPropertyOp55
 70
     1
102
RTVSPropertyOp56
 70
     1
102
RTVSPropertyOp57
 70
     1
102
RTVSPropertyOp58
 70
     1
102
RTVSPropertyOp59
 70
     1
102
RTVSPropertyOp60
 70
     1
102
RTVSPropertyOp61
 70
     1
102
RTVSPropertyOp62
 70
     1
  0
XRECORD
  5
1C87
102
{ACAD_REACTORS
330
1C86
102
}
330
1C86
100
AcDbXrecord
280
     1
102
RTVSPost2010Prop28
280
     0
102
RTVSPost2010PropOp28
 70
     1
102
RTVSPost2010Prop29
280
     1
102
RTVSPost2010PropOp29
 70
     1
102
RTVSPost2010Prop30
280
     1
102
RTVSPost2010PropOp30
 70
     1
102
RTVSPost2010Prop31
280
     0
102
RTVSPost2010PropOp31
 70
     1
102
RTVSPost2010Prop32
280
     0
102
RTVSPost2010PropOp32
 70
     1
102
RTVSPost2010Prop33
280
     0
102
RTVSPost2010PropOp33
 70
     1
102
RTVSPost2010Prop34
280
     0
102
RTVSPost2010PropOp34
 70
     1
102
RTVSPost2010Prop35
280
     0
102
RTVSPost2010PropOp35
 70
     1
102
RTVSPost2010Prop36
280
     0
102
RTVSPost2010PropOp36
 70
     1
102
RTVSPost2010Prop37
 90
       50
102
RTVSPost2010PropOp37
 70
     1
102
RTVSPost2010Prop38
140
0.0
102
RTVSPost2010PropOp38
 70
     1
102
RTVSPost2010Prop39
140
1.0
102
RTVSPost2010PropOp39
 70
     1
102
RTVSPost2010Prop40
 90
        0
102
RTVSPost2010PropOp40
 70
     1
102
RTVSPost2010Prop41ColorIndex
 90
       18
102
RTVSPost2010Prop41ColorRGB
 90
        0
102
RTVSPost2010PropOp41
 70
     1
102
RTVSPost2010Prop42
 90
       50
102
RTVSPost2010PropOp42
 70
     1
102
RTVSPost2010Prop43
 90
        3
102
RTVSPost2010PropOp43
 70
     1
102
RTVSPost2010Prop44ColorIndex
 90
        5
102
RTVSPost2010Prop44ColorRGB
 90
      255
102
RTVSPost2010PropOp44
 70
     1
102
RTVSPost2010Prop45
280
     0
102
RTVSPost2010PropOp45
 70
     1
102
RTVSPost2010Prop46
 90
       50
102
RTVSPost2010PropOp46
 70
     1
102
RTVSPost2010Prop47
 90
       50
102
RTVSPost2010PropOp47
 70
     1
102
RTVSPost2010Prop48
 90
       50
102
RTVSPost2010PropOp48
 70
     1
102
RTVSPost2010Prop49
280
     0
102
RTVSPost2010PropOp49
 70
     1
102
RTVSPost2010Prop50
 90
       50
102
RTVSPost2010PropOp50
 70
     1
102
RTVSPost2010Prop51ColorIndex
 90
      256
102
RTVSPost2010Prop51ColorRGB
 90
-16777216
102
RTVSPost2010PropOp51
 70
     0
102
RTVSPost2010Prop52
140
1.0
102
RTVSPost2010PropOp52
 70
     0
102
RTVSPost2010Prop53
 90
        2
102
RTVSPost2010PropOp53
 70
     1
102
RTVSPost2010Prop54
  1
strokes_ogs.tif
102
RTVSPost2010PropOp54
 70
     1
102
RTVSPost2010Prop55
280
     0
102
RTVSPost2010PropOp55
 70
     1
102
RTVSPost2010Prop56
140
1.0
102
RTVSPost2010PropOp56
 70
     1
102
RTVSPost2010Prop57
140
1.0
102
RTVSPost2010PropOp57
 70
     1
102
RTVSPropertyOp0
 70
     1
102
RTVSPropertyOp1
 70
     1
102
RTVSPropertyOp2
 70
     1
102
RTVSPropertyOp3
 70
     1
102
RTVSPropertyOp4
 70
     1
102
RTVSPropertyOp5
 70
     1
102
RTVSPropertyOp6
 70
     1
102
RTVSPropertyOp7
 70
     1
102
RTVSPropertyOp8
 70
     1
102
RTVSPropertyOp9
 70
     1
102
RTVSPropertyOp10
 70
     1
102
RTVSPropertyOp11
 70
     1
102
RTVSPropertyOp12
 70
     1
102
RTVSPropertyOp13
 70
     1
102
RTVSPropertyOp14
 70
     1
102
RTVSPropertyOp15
 70
     1
102
RTVSPropertyOp16
 70
     1
102
RTVSPropertyOp17
 70
     1
102
RTVSPropertyOp18
 70
     1
102
RTVSPropertyOp19
 70
     1
102
RTVSPropertyOp20
 70
     1
102
RTVSPropertyOp21
 70
     1
102
RTVSPropertyOp22
 70
     1
102
RTVSPropertyOp23
 70
     1
102
RTVSPropertyOp24
 70
     1
102
RTVSPropertyOp25
 70
     1
102
RTVSPropertyOp26
 70
     1
102
RTVSPropertyOp27
 70
     1
102
RTVSPropertyOp28
 70
     1
102
RTVSPropertyOp29
 70
     1
102
RTVSPropertyOp30
 70
     1
102
RTVSPropertyOp31
 70
     1
102
RTVSPropertyOp32
 70
     1
102
RTVSPropertyOp33
 70
     1
102
RTVSPropertyOp34
 70
     1
102
RTVSPropertyOp35
 70
     1
102
RTVSPropertyOp36
 70
     1
102
RTVSPropertyOp37
 70
     1
102
RTVSPropertyOp38
 70
     1
102
RTVSPropertyOp39
 70
     1
102
RTVSPropertyOp40
 70
     1
102
RTVSPropertyOp41
 70
     1
102
RTVSPropertyOp42
 70
     1
102
RTVSPropertyOp43
 70
     1
102
RTVSPropertyOp44
 70
     1
102
RTVSPropertyOp45
 70
     1
102
RTVSPropertyOp46
 70
     1
102
RTVSPropertyOp47
 70
     1
102
RTVSPropertyOp48
 70
     1
102
RTVSPropertyOp49
 70
     1
102
RTVSPropertyOp50
 70
     1
102
RTVSPropertyOp51
 70
     0
102
RTVSPropertyOp52
 70
     0
102
RTVSPropertyOp53
 70
     1
102
RTVSPropertyOp54
 70
     1
102
RTVSPropertyOp55
 70
     1
102
RTVSPropertyOp56
 70
     1
102
RTVSPropertyOp57
 70
     1
102
RTVSPropertyOp58
 70
     1
102
RTVSPropertyOp59
 70
     1
102
RTVSPropertyOp60
 70
     1
102
RTVSPropertyOp61
 70
     1
102
RTVSPropertyOp62
 70
     1
  0
XRECORD
  5
1C79
102
{ACAD_REACTORS
330
1C78
102
}
330
1C78
100
AcDbXrecord
280
     1
102
RTVSPost2010Prop28
280
     0
102
RTVSPost2010PropOp28
 70
     1
102
RTVSPost2010Prop29
280
     1
102
RTVSPost2010PropOp29
 70
     1
102
RTVSPost2010Prop30
280
     1
102
RTVSPost2010PropOp30
 70
     1
102
RTVSPost2010Prop31
280
     0
102
RTVSPost2010PropOp31
 70
     1
102
RTVSPost2010Prop32
280
     0
102
RTVSPost2010PropOp32
 70
     1
102
RTVSPost2010Prop33
280
     0
102
RTVSPost2010PropOp33
 70
     1
102
RTVSPost2010Prop34
280
     0
102
RTVSPost2010PropOp34
 70
     1
102
RTVSPost2010Prop35
280
     0
102
RTVSPost2010PropOp35
 70
     1
102
RTVSPost2010Prop36
280
     0
102
RTVSPost2010PropOp36
 70
     1
102
RTVSPost2010Prop37
 90
       50
102
RTVSPost2010PropOp37
 70
     1
102
RTVSPost2010Prop38
140
0.0
102
RTVSPost2010PropOp38
 70
     1
102
RTVSPost2010Prop39
140
1.0
102
RTVSPost2010PropOp39
 70
     1
102
RTVSPost2010Prop40
 90
        0
102
RTVSPost2010PropOp40
 70
     1
102
RTVSPost2010Prop41ColorIndex
 90
       18
102
RTVSPost2010Prop41ColorRGB
 90
        0
102
RTVSPost2010PropOp41
 70
     1
102
RTVSPost2010Prop42
 90
       50
102
RTVSPost2010PropOp42
 70
     1
102
RTVSPost2010Prop43
 90
        3
102
RTVSPost2010PropOp43
 70
     1
102
RTVSPost2010Prop44ColorIndex
 90
        5
102
RTVSPost2010Prop44ColorRGB
 90
      255
102
RTVSPost2010PropOp44
 70
     1
102
RTVSPost2010Prop45
280
     0
102
RTVSPost2010PropOp45
 70
     1
102
RTVSPost2010Prop46
 90
       50
102
RTVSPost2010PropOp46
 70
     1
102
RTVSPost2010Prop47
 90
       50
102
RTVSPost2010PropOp47
 70
     1
102
RTVSPost2010Prop48
 90
       50
102
RTVSPost2010PropOp48
 70
     1
102
RTVSPost2010Prop49
280
     0
102
RTVSPost2010PropOp49
 70
     1
102
RTVSPost2010Prop50
 90
       50
102
RTVSPost2010PropOp50
 70
     1
102
RTVSPost2010Prop51ColorIndex
 90
      256
102
RTVSPost2010Prop51ColorRGB
 90
-16777216
102
RTVSPost2010PropOp51
 70
     0
102
RTVSPost2010Prop52
140
1.0
102
RTVSPost2010PropOp52
 70
     0
102
RTVSPost2010Prop53
 90
        2
102
RTVSPost2010PropOp53
 70
     1
102
RTVSPost2010Prop54
  1
strokes_ogs.tif
102
RTVSPost2010PropOp54
 70
     1
102
RTVSPost2010Prop55
280
     0
102
RTVSPost2010PropOp55
 70
     1
102
RTVSPost2010Prop56
140
1.0
102
RTVSPost2010PropOp56
 70
     1
102
RTVSPost2010Prop57
140
1.0
102
RTVSPost2010PropOp57
 70
     1
102
RTVSPropertyOp0
 70
     1
102
RTVSPropertyOp1
 70
     1
102
RTVSPropertyOp2
 70
     1
102
RTVSPropertyOp3
 70
     1
102
RTVSPropertyOp4
 70
     1
102
RTVSPropertyOp5
 70
     1
102
RTVSPropertyOp6
 70
     1
102
RTVSPropertyOp7
 70
     1
102
RTVSPropertyOp8
 70
     1
102
RTVSPropertyOp9
 70
     1
102
RTVSPropertyOp10
 70
     1
102
RTVSPropertyOp11
 70
     1
102
RTVSPropertyOp12
 70
     1
102
RTVSPropertyOp13
 70
     1
102
RTVSPropertyOp14
 70
     1
102
RTVSPropertyOp15
 70
     1
102
RTVSPropertyOp16
 70
     1
102
RTVSPropertyOp17
 70
     1
102
RTVSPropertyOp18
 70
     1
102
RTVSPropertyOp19
 70
     1
102
RTVSPropertyOp20
 70
     1
102
RTVSPropertyOp21
 70
     1
102
RTVSPropertyOp22
 70
     1
102
RTVSPropertyOp23
 70
     1
102
RTVSPropertyOp24
 70
     1
102
RTVSPropertyOp25
 70
     1
102
RTVSPropertyOp26
 70
     1
102
RTVSPropertyOp27
 70
     1
102
RTVSPropertyOp28
 70
     1
102
RTVSPropertyOp29
 70
     1
102
RTVSPropertyOp30
 70
     1
102
RTVSPropertyOp31
 70
     1
102
RTVSPropertyOp32
 70
     1
102
RTVSPropertyOp33
 70
     1
102
RTVSPropertyOp34
 70
     1
102
RTVSPropertyOp35
 70
     1
102
RTVSPropertyOp36
 70
     1
102
RTVSPropertyOp37
 70
     1
102
RTVSPropertyOp38
 70
     1
102
RTVSPropertyOp39
 70
     1
102
RTVSPropertyOp40
 70
     1
102
RTVSPropertyOp41
 70
     1
102
RTVSPropertyOp42
 70
     1
102
RTVSPropertyOp43
 70
     1
102
RTVSPropertyOp44
 70
     1
102
RTVSPropertyOp45
 70
     1
102
RTVSPropertyOp46
 70
     1
102
RTVSPropertyOp47
 70
     1
102
RTVSPropertyOp48
 70
     1
102
RTVSPropertyOp49
 70
     1
102
RTVSPropertyOp50
 70
     1
102
RTVSPropertyOp51
 70
     0
102
RTVSPropertyOp52
 70
     0
102
RTVSPropertyOp53
 70
     1
102
RTVSPropertyOp54
 70
     1
102
RTVSPropertyOp55
 70
     1
102
RTVSPropertyOp56
 70
     1
102
RTVSPropertyOp57
 70
     1
102
RTVSPropertyOp58
 70
     1
102
RTVSPropertyOp59
 70
     1
102
RTVSPropertyOp60
 70
     1
102
RTVSPropertyOp61
 70
     1
102
RTVSPropertyOp62
 70
     1
  0
XRECORD
  5
1C7D
102
{ACAD_REACTORS
330
1C7C
102
}
330
1C7C
100
AcDbXrecord
280
     1
102
RTVSPost2010Prop28
280
     0
102
RTVSPost2010PropOp28
 70
     1
102
RTVSPost2010Prop29
280
     1
102
RTVSPost2010PropOp29
 70
     1
102
RTVSPost2010Prop30
280
     1
102
RTVSPost2010PropOp30
 70
     1
102
RTVSPost2010Prop31
280
     0
102
RTVSPost2010PropOp31
 70
     1
102
RTVSPost2010Prop32
280
     0
102
RTVSPost2010PropOp32
 70
     1
102
RTVSPost2010Prop33
280
     0
102
RTVSPost2010PropOp33
 70
     1
102
RTVSPost2010Prop34
280
     0
102
RTVSPost2010PropOp34
 70
     1
102
RTVSPost2010Prop35
280
     0
102
RTVSPost2010PropOp35
 70
     1
102
RTVSPost2010Prop36
280
     0
102
RTVSPost2010PropOp36
 70
     1
102
RTVSPost2010Prop37
 90
       50
102
RTVSPost2010PropOp37
 70
     1
102
RTVSPost2010Prop38
140
0.0
102
RTVSPost2010PropOp38
 70
     1
102
RTVSPost2010Prop39
140
1.0
102
RTVSPost2010PropOp39
 70
     1
102
RTVSPost2010Prop40
 90
        0
102
RTVSPost2010PropOp40
 70
     1
102
RTVSPost2010Prop41ColorIndex
 90
       18
102
RTVSPost2010Prop41ColorRGB
 90
        0
102
RTVSPost2010PropOp41
 70
     1
102
RTVSPost2010Prop42
 90
       50
102
RTVSPost2010PropOp42
 70
     1
102
RTVSPost2010Prop43
 90
        3
102
RTVSPost2010PropOp43
 70
     1
102
RTVSPost2010Prop44ColorIndex
 90
        5
102
RTVSPost2010Prop44ColorRGB
 90
      255
102
RTVSPost2010PropOp44
 70
     1
102
RTVSPost2010Prop45
280
     0
102
RTVSPost2010PropOp45
 70
     1
102
RTVSPost2010Prop46
 90
       50
102
RTVSPost2010PropOp46
 70
     1
102
RTVSPost2010Prop47
 90
       50
102
RTVSPost2010PropOp47
 70
     1
102
RTVSPost2010Prop48
 90
       50
102
RTVSPost2010PropOp48
 70
     1
102
RTVSPost2010Prop49
280
     0
102
RTVSPost2010PropOp49
 70
     1
102
RTVSPost2010Prop50
 90
       50
102
RTVSPost2010PropOp50
 70
     1
102
RTVSPost2010Prop51ColorIndex
 90
      256
102
RTVSPost2010Prop51ColorRGB
 90
-16777216
102
RTVSPost2010PropOp51
 70
     0
102
RTVSPost2010Prop52
140
1.0
102
RTVSPost2010PropOp52
 70
     0
102
RTVSPost2010Prop53
 90
        2
102
RTVSPost2010PropOp53
 70
     1
102
RTVSPost2010Prop54
  1
strokes_ogs.tif
102
RTVSPost2010PropOp54
 70
     1
102
RTVSPost2010Prop55
280
     0
102
RTVSPost2010PropOp55
 70
     1
102
RTVSPost2010Prop56
140
1.0
102
RTVSPost2010PropOp56
 70
     1
102
RTVSPost2010Prop57
140
1.0
102
RTVSPost2010PropOp57
 70
     1
102
RTVSPropertyOp0
 70
     1
102
RTVSPropertyOp1
 70
     1
102
RTVSPropertyOp2
 70
     1
102
RTVSPropertyOp3
 70
     1
102
RTVSPropertyOp4
 70
     1
102
RTVSPropertyOp5
 70
     1
102
RTVSPropertyOp6
 70
     1
102
RTVSPropertyOp7
 70
     1
102
RTVSPropertyOp8
 70
     1
102
RTVSPropertyOp9
 70
     1
102
RTVSPropertyOp10
 70
     1
102
RTVSPropertyOp11
 70
     1
102
RTVSPropertyOp12
 70
     1
102
RTVSPropertyOp13
 70
     1
102
RTVSPropertyOp14
 70
     1
102
RTVSPropertyOp15
 70
     1
102
RTVSPropertyOp16
 70
     1
102
RTVSPropertyOp17
 70
     1
102
RTVSPropertyOp18
 70
     1
102
RTVSPropertyOp19
 70
     1
102
RTVSPropertyOp20
 70
     1
102
RTVSPropertyOp21
 70
     1
102
RTVSPropertyOp22
 70
     1
102
RTVSPropertyOp23
 70
     1
102
RTVSPropertyOp24
 70
     1
102
RTVSPropertyOp25
 70
     1
102
RTVSPropertyOp26
 70
     1
102
RTVSPropertyOp27
 70
     1
102
RTVSPropertyOp28
 70
     1
102
RTVSPropertyOp29
 70
     1
102
RTVSPropertyOp30
 70
     1
102
RTVSPropertyOp31
 70
     1
102
RTVSPropertyOp32
 70
     1
102
RTVSPropertyOp33
 70
     1
102
RTVSPropertyOp34
 70
     1
102
RTVSPropertyOp35
 70
     1
102
RTVSPropertyOp36
 70
     1
102
RTVSPropertyOp37
 70
     1
102
RTVSPropertyOp38
 70
     1
102
RTVSPropertyOp39
 70
     1
102
RTVSPropertyOp40
 70
     1
102
RTVSPropertyOp41
 70
     1
102
RTVSPropertyOp42
 70
     1
102
RTVSPropertyOp43
 70
     1
102
RTVSPropertyOp44
 70
     1
102
RTVSPropertyOp45
 70
     1
102
RTVSPropertyOp46
 70
     1
102
RTVSPropertyOp47
 70
     1
102
RTVSPropertyOp48
 70
     1
102
RTVSPropertyOp49
 70
     1
102
RTVSPropertyOp50
 70
     1
102
RTVSPropertyOp51
 70
     0
102
RTVSPropertyOp52
 70
     0
102
RTVSPropertyOp53
 70
     1
102
RTVSPropertyOp54
 70
     1
102
RTVSPropertyOp55
 70
     1
102
RTVSPropertyOp56
 70
     1
102
RTVSPropertyOp57
 70
     1
102
RTVSPropertyOp58
 70
     1
102
RTVSPropertyOp59
 70
     1
102
RTVSPropertyOp60
 70
     1
102
RTVSPropertyOp61
 70
     1
102
RTVSPropertyOp62
 70
     1
  0
XRECORD
  5
1C97
102
{ACAD_REACTORS
330
1C96
102
}
330
1C96
100
AcDbXrecord
280
     1
102
RTVSPost2010Prop28
280
     0
102
RTVSPost2010PropOp28
 70
     1
102
RTVSPost2010Prop29
280
     1
102
RTVSPost2010PropOp29
 70
     1
102
RTVSPost2010Prop30
280
     1
102
RTVSPost2010PropOp30
 70
     1
102
RTVSPost2010Prop31
280
     0
102
RTVSPost2010PropOp31
 70
     1
102
RTVSPost2010Prop32
280
     0
102
RTVSPost2010PropOp32
 70
     1
102
RTVSPost2010Prop33
280
     0
102
RTVSPost2010PropOp33
 70
     1
102
RTVSPost2010Prop34
280
     0
102
RTVSPost2010PropOp34
 70
     1
102
RTVSPost2010Prop35
280
     0
102
RTVSPost2010PropOp35
 70
     1
102
RTVSPost2010Prop36
280
     0
102
RTVSPost2010PropOp36
 70
     1
102
RTVSPost2010Prop37
 90
       50
102
RTVSPost2010PropOp37
 70
     0
102
RTVSPost2010Prop38
140
0.0
102
RTVSPost2010PropOp38
 70
     0
102
RTVSPost2010Prop39
140
1.0
102
RTVSPost2010PropOp39
 70
     0
102
RTVSPost2010Prop40
 90
        0
102
RTVSPost2010PropOp40
 70
     0
102
RTVSPost2010Prop41ColorIndex
 90
       18
102
RTVSPost2010Prop41ColorRGB
 90
        0
102
RTVSPost2010PropOp41
 70
     0
102
RTVSPost2010Prop42
 90
       50
102
RTVSPost2010PropOp42
 70
     0
102
RTVSPost2010Prop43
 90
        3
102
RTVSPost2010PropOp43
 70
     0
102
RTVSPost2010Prop44ColorIndex
 90
        5
102
RTVSPost2010Prop44ColorRGB
 90
      255
102
RTVSPost2010PropOp44
 70
     0
102
RTVSPost2010Prop45
280
     0
102
RTVSPost2010PropOp45
 70
     1
102
RTVSPost2010Prop46
 90
       50
102
RTVSPost2010PropOp46
 70
     0
102
RTVSPost2010Prop47
 90
       50
102
RTVSPost2010PropOp47
 70
     0
102
RTVSPost2010Prop48
 90
       50
102
RTVSPost2010PropOp48
 70
     0
102
RTVSPost2010Prop49
280
     0
102
RTVSPost2010PropOp49
 70
     1
102
RTVSPost2010Prop50
 90
       50
102
RTVSPost2010PropOp50
 70
     0
102
RTVSPost2010Prop51ColorIndex
 90
      256
102
RTVSPost2010Prop51ColorRGB
 90
-16777216
102
RTVSPost2010PropOp51
 70
     0
102
RTVSPost2010Prop52
140
1.0
102
RTVSPost2010PropOp52
 70
     0
102
RTVSPost2010Prop53
 90
        2
102
RTVSPost2010PropOp53
 70
     0
102
RTVSPost2010Prop54
  1
strokes_ogs.tif
102
RTVSPost2010PropOp54
 70
     0
102
RTVSPost2010Prop55
280
     0
102
RTVSPost2010PropOp55
 70
     1
102
RTVSPost2010Prop56
140
1.0
102
RTVSPost2010PropOp56
 70
     0
102
RTVSPost2010Prop57
140
1.0
102
RTVSPost2010PropOp57
 70
     0
102
RTVSPropertyOp0
 70
     0
102
RTVSPropertyOp1
 70
     0
102
RTVSPropertyOp2
 70
     0
102
RTVSPropertyOp3
 70
     0
102
RTVSPropertyOp4
 70
     0
102
RTVSPropertyOp5
 70
     0
102
RTVSPropertyOp6
 70
     0
102
RTVSPropertyOp7
 70
     0
102
RTVSPropertyOp8
 70
     0
102
RTVSPropertyOp9
 70
     0
102
RTVSPropertyOp10
 70
     0
102
RTVSPropertyOp11
 70
     0
102
RTVSPropertyOp12
 70
     0
102
RTVSPropertyOp13
 70
     0
102
RTVSPropertyOp14
 70
     2
102
RTVSPropertyOp15
 70
     0
102
RTVSPropertyOp16
 70
     0
102
RTVSPropertyOp17
 70
     0
102
RTVSPropertyOp18
 70
     0
102
RTVSPropertyOp19
 70
     0
102
RTVSPropertyOp20
 70
     0
102
RTVSPropertyOp21
 70
     0
102
RTVSPropertyOp22
 70
     0
102
RTVSPropertyOp23
 70
     0
102
RTVSPropertyOp24
 70
     0
102
RTVSPropertyOp25
 70
     0
102
RTVSPropertyOp26
 70
     0
102
RTVSPropertyOp27
 70
     0
102
RTVSPropertyOp28
 70
     1
102
RTVSPropertyOp29
 70
     1
102
RTVSPropertyOp30
 70
     1
102
RTVSPropertyOp31
 70
     1
102
RTVSPropertyOp32
 70
     1
102
RTVSPropertyOp33
 70
     1
102
RTVSPropertyOp34
 70
     1
102
RTVSPropertyOp35
 70
     1
102
RTVSPropertyOp36
 70
     1
102
RTVSPropertyOp37
 70
     0
102
RTVSPropertyOp38
 70
     0
102
RTVSPropertyOp39
 70
     0
102
RTVSPropertyOp40
 70
     0
102
RTVSPropertyOp41
 70
     0
102
RTVSPropertyOp42
 70
     0
102
RTVSPropertyOp43
 70
     0
102
RTVSPropertyOp44
 70
     0
102
RTVSPropertyOp45
 70
     1
102
RTVSPropertyOp46
 70
     0
102
RTVSPropertyOp47
 70
     0
102
RTVSPropertyOp48
 70
     0
102
RTVSPropertyOp49
 70
     1
102
RTVSPropertyOp50
 70
     0
102
RTVSPropertyOp51
 70
     0
102
RTVSPropertyOp52
 70
     0
102
RTVSPropertyOp53
 70
     0
102
RTVSPropertyOp54
 70
     0
102
RTVSPropertyOp55
 70
     1
102
RTVSPropertyOp56
 70
     0
102
RTVSPropertyOp57
 70
     0
102
RTVSPropertyOp58
 70
     0
102
RTVSPropertyOp59
 70
     0
102
RTVSPropertyOp60
 70
     0
102
RTVSPropertyOp61
 70
     0
102
RTVSPropertyOp62
 70
     0
  0
XRECORD
  5
1C85
102
{ACAD_REACTORS
330
1C84
102
}
330
1C84
100
AcDbXrecord
280
     1
102
RTVSPost2010Prop28
280
     0
102
RTVSPost2010PropOp28
 70
     1
102
RTVSPost2010Prop29
280
     1
102
RTVSPost2010PropOp29
 70
     1
102
RTVSPost2010Prop30
280
     1
102
RTVSPost2010PropOp30
 70
     1
102
RTVSPost2010Prop31
280
     0
102
RTVSPost2010PropOp31
 70
     1
102
RTVSPost2010Prop32
280
     0
102
RTVSPost2010PropOp32
 70
     1
102
RTVSPost2010Prop33
280
     0
102
RTVSPost2010PropOp33
 70
     1
102
RTVSPost2010Prop34
280
     0
102
RTVSPost2010PropOp34
 70
     1
102
RTVSPost2010Prop35
280
     0
102
RTVSPost2010PropOp35
 70
     1
102
RTVSPost2010Prop36
280
     0
102
RTVSPost2010PropOp36
 70
     1
102
RTVSPost2010Prop37
 90
       50
102
RTVSPost2010PropOp37
 70
     1
102
RTVSPost2010Prop38
140
0.0
102
RTVSPost2010PropOp38
 70
     1
102
RTVSPost2010Prop39
140
1.0
102
RTVSPost2010PropOp39
 70
     1
102
RTVSPost2010Prop40
 90
        0
102
RTVSPost2010PropOp40
 70
     1
102
RTVSPost2010Prop41ColorIndex
 90
       18
102
RTVSPost2010Prop41ColorRGB
 90
        0
102
RTVSPost2010PropOp41
 70
     1
102
RTVSPost2010Prop42
 90
       50
102
RTVSPost2010PropOp42
 70
     1
102
RTVSPost2010Prop43
 90
        3
102
RTVSPost2010PropOp43
 70
     1
102
RTVSPost2010Prop44ColorIndex
 90
        5
102
RTVSPost2010Prop44ColorRGB
 90
      255
102
RTVSPost2010PropOp44
 70
     1
102
RTVSPost2010Prop45
280
     0
102
RTVSPost2010PropOp45
 70
     1
102
RTVSPost2010Prop46
 90
       50
102
RTVSPost2010PropOp46
 70
     1
102
RTVSPost2010Prop47
 90
       50
102
RTVSPost2010PropOp47
 70
     1
102
RTVSPost2010Prop48
 90
       50
102
RTVSPost2010PropOp48
 70
     1
102
RTVSPost2010Prop49
280
     0
102
RTVSPost2010PropOp49
 70
     1
102
RTVSPost2010Prop50
 90
       50
102
RTVSPost2010PropOp50
 70
     1
102
RTVSPost2010Prop51ColorIndex
 90
      256
102
RTVSPost2010Prop51ColorRGB
 90
-16777216
102
RTVSPost2010PropOp51
 70
     0
102
RTVSPost2010Prop52
140
1.0
102
RTVSPost2010PropOp52
 70
     0
102
RTVSPost2010Prop53
 90
        2
102
RTVSPost2010PropOp53
 70
     1
102
RTVSPost2010Prop54
  1
strokes_ogs.tif
102
RTVSPost2010PropOp54
 70
     1
102
RTVSPost2010Prop55
280
     0
102
RTVSPost2010PropOp55
 70
     1
102
RTVSPost2010Prop56
140
1.0
102
RTVSPost2010PropOp56
 70
     1
102
RTVSPost2010Prop57
140
1.0
102
RTVSPost2010PropOp57
 70
     1
102
RTVSPropertyOp0
 70
     1
102
RTVSPropertyOp1
 70
     1
102
RTVSPropertyOp2
 70
     1
102
RTVSPropertyOp3
 70
     1
102
RTVSPropertyOp4
 70
     1
102
RTVSPropertyOp5
 70
     1
102
RTVSPropertyOp6
 70
     1
102
RTVSPropertyOp7
 70
     1
102
RTVSPropertyOp8
 70
     1
102
RTVSPropertyOp9
 70
     1
102
RTVSPropertyOp10
 70
     1
102
RTVSPropertyOp11
 70
     1
102
RTVSPropertyOp12
 70
     1
102
RTVSPropertyOp13
 70
     1
102
RTVSPropertyOp14
 70
     1
102
RTVSPropertyOp15
 70
     1
102
RTVSPropertyOp16
 70
     1
102
RTVSPropertyOp17
 70
     1
102
RTVSPropertyOp18
 70
     1
102
RTVSPropertyOp19
 70
     1
102
RTVSPropertyOp20
 70
     1
102
RTVSPropertyOp21
 70
     1
102
RTVSPropertyOp22
 70
     1
102
RTVSPropertyOp23
 70
     1
102
RTVSPropertyOp24
 70
     1
102
RTVSPropertyOp25
 70
     1
102
RTVSPropertyOp26
 70
     1
102
RTVSPropertyOp27
 70
     1
102
RTVSPropertyOp28
 70
     1
102
RTVSPropertyOp29
 70
     1
102
RTVSPropertyOp30
 70
     1
102
RTVSPropertyOp31
 70
     1
102
RTVSPropertyOp32
 70
     1
102
RTVSPropertyOp33
 70
     1
102
RTVSPropertyOp34
 70
     1
102
RTVSPropertyOp35
 70
     1
102
RTVSPropertyOp36
 70
     1
102
RTVSPropertyOp37
 70
     1
102
RTVSPropertyOp38
 70
     1
102
RTVSPropertyOp39
 70
     1
102
RTVSPropertyOp40
 70
     1
102
RTVSPropertyOp41
 70
     1
102
RTVSPropertyOp42
 70
     1
102
RTVSPropertyOp43
 70
     1
102
RTVSPropertyOp44
 70
     1
102
RTVSPropertyOp45
 70
     1
102
RTVSPropertyOp46
 70
     1
102
RTVSPropertyOp47
 70
     1
102
RTVSPropertyOp48
 70
     1
102
RTVSPropertyOp49
 70
     1
102
RTVSPropertyOp50
 70
     1
102
RTVSPropertyOp51
 70
     0
102
RTVSPropertyOp52
 70
     0
102
RTVSPropertyOp53
 70
     1
102
RTVSPropertyOp54
 70
     1
102
RTVSPropertyOp55
 70
     1
102
RTVSPropertyOp56
 70
     1
102
RTVSPropertyOp57
 70
     1
102
RTVSPropertyOp58
 70
     1
102
RTVSPropertyOp59
 70
     1
102
RTVSPropertyOp60
 70
     1
102
RTVSPropertyOp61
 70
     1
102
RTVSPropertyOp62
 70
     1
  0
XRECORD
  5
1C69
102
{ACAD_REACTORS
330
1C68
102
}
330
1C68
100
AcDbXrecord
280
     1
102
RTVSPost2010Prop28
280
     0
102
RTVSPost2010PropOp28
 70
     1
102
RTVSPost2010Prop29
280
     1
102
RTVSPost2010PropOp29
 70
     1
102
RTVSPost2010Prop30
280
     1
102
RTVSPost2010PropOp30
 70
     1
102
RTVSPost2010Prop31
280
     0
102
RTVSPost2010PropOp31
 70
     1
102
RTVSPost2010Prop32
280
     0
102
RTVSPost2010PropOp32
 70
     1
102
RTVSPost2010Prop33
280
     0
102
RTVSPost2010PropOp33
 70
     1
102
RTVSPost2010Prop34
280
     0
102
RTVSPost2010PropOp34
 70
     1
102
RTVSPost2010Prop35
280
     0
102
RTVSPost2010PropOp35
 70
     1
102
RTVSPost2010Prop36
280
     0
102
RTVSPost2010PropOp36
 70
     1
102
RTVSPost2010Prop37
 90
       50
102
RTVSPost2010PropOp37
 70
     1
102
RTVSPost2010Prop38
140
0.0
102
RTVSPost2010PropOp38
 70
     1
102
RTVSPost2010Prop39
140
1.0
102
RTVSPost2010PropOp39
 70
     1
102
RTVSPost2010Prop40
 90
        0
102
RTVSPost2010PropOp40
 70
     1
102
RTVSPost2010Prop41ColorIndex
 90
       18
102
RTVSPost2010Prop41ColorRGB
 90
        0
102
RTVSPost2010PropOp41
 70
     1
102
RTVSPost2010Prop42
 90
       50
102
RTVSPost2010PropOp42
 70
     1
102
RTVSPost2010Prop43
 90
        3
102
RTVSPost2010PropOp43
 70
     1
102
RTVSPost2010Prop44ColorIndex
 90
        5
102
RTVSPost2010Prop44ColorRGB
 90
      255
102
RTVSPost2010PropOp44
 70
     1
102
RTVSPost2010Prop45
280
     0
102
RTVSPost2010PropOp45
 70
     1
102
RTVSPost2010Prop46
 90
       50
102
RTVSPost2010PropOp46
 70
     1
102
RTVSPost2010Prop47
 90
       50
102
RTVSPost2010PropOp47
 70
     1
102
RTVSPost2010Prop48
 90
       50
102
RTVSPost2010PropOp48
 70
     1
102
RTVSPost2010Prop49
280
     0
102
RTVSPost2010PropOp49
 70
     1
102
RTVSPost2010Prop50
 90
       50
102
RTVSPost2010PropOp50
 70
     1
102
RTVSPost2010Prop51ColorIndex
 90
      256
102
RTVSPost2010Prop51ColorRGB
 90
-16777216
102
RTVSPost2010PropOp51
 70
     0
102
RTVSPost2010Prop52
140
1.0
102
RTVSPost2010PropOp52
 70
     0
102
RTVSPost2010Prop53
 90
        2
102
RTVSPost2010PropOp53
 70
     1
102
RTVSPost2010Prop54
  1
strokes_ogs.tif
102
RTVSPost2010PropOp54
 70
     1
102
RTVSPost2010Prop55
280
     0
102
RTVSPost2010PropOp55
 70
     1
102
RTVSPost2010Prop56
140
1.0
102
RTVSPost2010PropOp56
 70
     1
102
RTVSPost2010Prop57
140
1.0
102
RTVSPost2010PropOp57
 70
     1
102
RTVSPropertyOp0
 70
     1
102
RTVSPropertyOp1
 70
     1
102
RTVSPropertyOp2
 70
     1
102
RTVSPropertyOp3
 70
     1
102
RTVSPropertyOp4
 70
     1
102
RTVSPropertyOp5
 70
     1
102
RTVSPropertyOp6
 70
     1
102
RTVSPropertyOp7
 70
     1
102
RTVSPropertyOp8
 70
     1
102
RTVSPropertyOp9
 70
     1
102
RTVSPropertyOp10
 70
     1
102
RTVSPropertyOp11
 70
     1
102
RTVSPropertyOp12
 70
     1
102
RTVSPropertyOp13
 70
     1
102
RTVSPropertyOp14
 70
     1
102
RTVSPropertyOp15
 70
     1
102
RTVSPropertyOp16
 70
     1
102
RTVSPropertyOp17
 70
     1
102
RTVSPropertyOp18
 70
     1
102
RTVSPropertyOp19
 70
     1
102
RTVSPropertyOp20
 70
     1
102
RTVSPropertyOp21
 70
     1
102
RTVSPropertyOp22
 70
     1
102
RTVSPropertyOp23
 70
     1
102
RTVSPropertyOp24
 70
     1
102
RTVSPropertyOp25
 70
     1
102
RTVSPropertyOp26
 70
     1
102
RTVSPropertyOp27
 70
     1
102
RTVSPropertyOp28
 70
     1
102
RTVSPropertyOp29
 70
     1
102
RTVSPropertyOp30
 70
     1
102
RTVSPropertyOp31
 70
     1
102
RTVSPropertyOp32
 70
     1
102
RTVSPropertyOp33
 70
     1
102
RTVSPropertyOp34
 70
     1
102
RTVSPropertyOp35
 70
     1
102
RTVSPropertyOp36
 70
     1
102
RTVSPropertyOp37
 70
     1
102
RTVSPropertyOp38
 70
     1
102
RTVSPropertyOp39
 70
     1
102
RTVSPropertyOp40
 70
     1
102
RTVSPropertyOp41
 70
     1
102
RTVSPropertyOp42
 70
     1
102
RTVSPropertyOp43
 70
     1
102
RTVSPropertyOp44
 70
     1
102
RTVSPropertyOp45
 70
     1
102
RTVSPropertyOp46
 70
     1
102
RTVSPropertyOp47
 70
     1
102
RTVSPropertyOp48
 70
     1
102
RTVSPropertyOp49
 70
     1
102
RTVSPropertyOp50
 70
     1
102
RTVSPropertyOp51
 70
     0
102
RTVSPropertyOp52
 70
     0
102
RTVSPropertyOp53
 70
     1
102
RTVSPropertyOp54
 70
     1
102
RTVSPropertyOp55
 70
     1
102
RTVSPropertyOp56
 70
     1
102
RTVSPropertyOp57
 70
     1
102
RTVSPropertyOp58
 70
     1
102
RTVSPropertyOp59
 70
     1
102
RTVSPropertyOp60
 70
     1
102
RTVSPropertyOp61
 70
     1
102
RTVSPropertyOp62
 70
     1
  0
XRECORD
  5
1C6B
102
{ACAD_REACTORS
330
1C6A
102
}
330
1C6A
100
AcDbXrecord
280
     1
102
RTVSPost2010Prop28
280
     0
102
RTVSPost2010PropOp28
 70
     1
102
RTVSPost2010Prop29
280
     1
102
RTVSPost2010PropOp29
 70
     1
102
RTVSPost2010Prop30
280
     1
102
RTVSPost2010PropOp30
 70
     1
102
RTVSPost2010Prop31
280
     0
102
RTVSPost2010PropOp31
 70
     1
102
RTVSPost2010Prop32
280
     0
102
RTVSPost2010PropOp32
 70
     1
102
RTVSPost2010Prop33
280
     0
102
RTVSPost2010PropOp33
 70
     1
102
RTVSPost2010Prop34
280
     0
102
RTVSPost2010PropOp34
 70
     1
102
RTVSPost2010Prop35
280
     0
102
RTVSPost2010PropOp35
 70
     1
102
RTVSPost2010Prop36
280
     0
102
RTVSPost2010PropOp36
 70
     1
102
RTVSPost2010Prop37
 90
       50
102
RTVSPost2010PropOp37
 70
     1
102
RTVSPost2010Prop38
140
0.0
102
RTVSPost2010PropOp38
 70
     1
102
RTVSPost2010Prop39
140
1.0
102
RTVSPost2010PropOp39
 70
     1
102
RTVSPost2010Prop40
 90
        0
102
RTVSPost2010PropOp40
 70
     1
102
RTVSPost2010Prop41ColorIndex
 90
       18
102
RTVSPost2010Prop41ColorRGB
 90
        0
102
RTVSPost2010PropOp41
 70
     1
102
RTVSPost2010Prop42
 90
       50
102
RTVSPost2010PropOp42
 70
     1
102
RTVSPost2010Prop43
 90
        3
102
RTVSPost2010PropOp43
 70
     1
102
RTVSPost2010Prop44ColorIndex
 90
        5
102
RTVSPost2010Prop44ColorRGB
 90
      255
102
RTVSPost2010PropOp44
 70
     1
102
RTVSPost2010Prop45
280
     0
102
RTVSPost2010PropOp45
 70
     1
102
RTVSPost2010Prop46
 90
       50
102
RTVSPost2010PropOp46
 70
     1
102
RTVSPost2010Prop47
 90
       50
102
RTVSPost2010PropOp47
 70
     1
102
RTVSPost2010Prop48
 90
       50
102
RTVSPost2010PropOp48
 70
     1
102
RTVSPost2010Prop49
280
     0
102
RTVSPost2010PropOp49
 70
     1
102
RTVSPost2010Prop50
 90
       50
102
RTVSPost2010PropOp50
 70
     1
102
RTVSPost2010Prop51ColorIndex
 90
      256
102
RTVSPost2010Prop51ColorRGB
 90
-16777216
102
RTVSPost2010PropOp51
 70
     0
102
RTVSPost2010Prop52
140
1.0
102
RTVSPost2010PropOp52
 70
     0
102
RTVSPost2010Prop53
 90
        2
102
RTVSPost2010PropOp53
 70
     1
102
RTVSPost2010Prop54
  1
strokes_ogs.tif
102
RTVSPost2010PropOp54
 70
     1
102
RTVSPost2010Prop55
280
     0
102
RTVSPost2010PropOp55
 70
     1
102
RTVSPost2010Prop56
140
1.0
102
RTVSPost2010PropOp56
 70
     1
102
RTVSPost2010Prop57
140
1.0
102
RTVSPost2010PropOp57
 70
     1
102
RTVSPropertyOp0
 70
     1
102
RTVSPropertyOp1
 70
     1
102
RTVSPropertyOp2
 70
     1
102
RTVSPropertyOp3
 70
     1
102
RTVSPropertyOp4
 70
     1
102
RTVSPropertyOp5
 70
     1
102
RTVSPropertyOp6
 70
     1
102
RTVSPropertyOp7
 70
     1
102
RTVSPropertyOp8
 70
     1
102
RTVSPropertyOp9
 70
     1
102
RTVSPropertyOp10
 70
     1
102
RTVSPropertyOp11
 70
     1
102
RTVSPropertyOp12
 70
     1
102
RTVSPropertyOp13
 70
     1
102
RTVSPropertyOp14
 70
     1
102
RTVSPropertyOp15
 70
     1
102
RTVSPropertyOp16
 70
     1
102
RTVSPropertyOp17
 70
     1
102
RTVSPropertyOp18
 70
     1
102
RTVSPropertyOp19
 70
     1
102
RTVSPropertyOp20
 70
     1
102
RTVSPropertyOp21
 70
     1
102
RTVSPropertyOp22
 70
     1
102
RTVSPropertyOp23
 70
     1
102
RTVSPropertyOp24
 70
     1
102
RTVSPropertyOp25
 70
     1
102
RTVSPropertyOp26
 70
     1
102
RTVSPropertyOp27
 70
     1
102
RTVSPropertyOp28
 70
     1
102
RTVSPropertyOp29
 70
     1
102
RTVSPropertyOp30
 70
     1
102
RTVSPropertyOp31
 70
     1
102
RTVSPropertyOp32
 70
     1
102
RTVSPropertyOp33
 70
     1
102
RTVSPropertyOp34
 70
     1
102
RTVSPropertyOp35
 70
     1
102
RTVSPropertyOp36
 70
     1
102
RTVSPropertyOp37
 70
     1
102
RTVSPropertyOp38
 70
     1
102
RTVSPropertyOp39
 70
     1
102
RTVSPropertyOp40
 70
     1
102
RTVSPropertyOp41
 70
     1
102
RTVSPropertyOp42
 70
     1
102
RTVSPropertyOp43
 70
     1
102
RTVSPropertyOp44
 70
     1
102
RTVSPropertyOp45
 70
     1
102
RTVSPropertyOp46
 70
     1
102
RTVSPropertyOp47
 70
     1
102
RTVSPropertyOp48
 70
     1
102
RTVSPropertyOp49
 70
     1
102
RTVSPropertyOp50
 70
     1
102
RTVSPropertyOp51
 70
     0
102
RTVSPropertyOp52
 70
     0
102
RTVSPropertyOp53
 70
     1
102
RTVSPropertyOp54
 70
     1
102
RTVSPropertyOp55
 70
     1
102
RTVSPropertyOp56
 70
     1
102
RTVSPropertyOp57
 70
     1
102
RTVSPropertyOp58
 70
     1
102
RTVSPropertyOp59
 70
     1
102
RTVSPropertyOp60
 70
     1
102
RTVSPropertyOp61
 70
     1
102
RTVSPropertyOp62
 70
     1
  0
XRECORD
  5
1C6D
102
{ACAD_REACTORS
330
1C6C
102
}
330
1C6C
100
AcDbXrecord
280
     1
102
RTVSPost2010Prop28
280
     0
102
RTVSPost2010PropOp28
 70
     1
102
RTVSPost2010Prop29
280
     1
102
RTVSPost2010PropOp29
 70
     1
102
RTVSPost2010Prop30
280
     1
102
RTVSPost2010PropOp30
 70
     1
102
RTVSPost2010Prop31
280
     0
102
RTVSPost2010PropOp31
 70
     1
102
RTVSPost2010Prop32
280
     0
102
RTVSPost2010PropOp32
 70
     1
102
RTVSPost2010Prop33
280
     0
102
RTVSPost2010PropOp33
 70
     1
102
RTVSPost2010Prop34
280
     0
102
RTVSPost2010PropOp34
 70
     1
102
RTVSPost2010Prop35
280
     0
102
RTVSPost2010PropOp35
 70
     1
102
RTVSPost2010Prop36
280
     0
102
RTVSPost2010PropOp36
 70
     1
102
RTVSPost2010Prop37
 90
       50
102
RTVSPost2010PropOp37
 70
     1
102
RTVSPost2010Prop38
140
0.0
102
RTVSPost2010PropOp38
 70
     1
102
RTVSPost2010Prop39
140
1.0
102
RTVSPost2010PropOp39
 70
     1
102
RTVSPost2010Prop40
 90
        0
102
RTVSPost2010PropOp40
 70
     1
102
RTVSPost2010Prop41ColorIndex
 90
       18
102
RTVSPost2010Prop41ColorRGB
 90
        0
102
RTVSPost2010PropOp41
 70
     1
102
RTVSPost2010Prop42
 90
       50
102
RTVSPost2010PropOp42
 70
     1
102
RTVSPost2010Prop43
 90
        3
102
RTVSPost2010PropOp43
 70
     1
102
RTVSPost2010Prop44ColorIndex
 90
        5
102
RTVSPost2010Prop44ColorRGB
 90
      255
102
RTVSPost2010PropOp44
 70
     1
102
RTVSPost2010Prop45
280
     0
102
RTVSPost2010PropOp45
 70
     1
102
RTVSPost2010Prop46
 90
       50
102
RTVSPost2010PropOp46
 70
     1
102
RTVSPost2010Prop47
 90
       50
102
RTVSPost2010PropOp47
 70
     1
102
RTVSPost2010Prop48
 90
       50
102
RTVSPost2010PropOp48
 70
     1
102
RTVSPost2010Prop49
280
     0
102
RTVSPost2010PropOp49
 70
     1
102
RTVSPost2010Prop50
 90
       50
102
RTVSPost2010PropOp50
 70
     1
102
RTVSPost2010Prop51ColorIndex
 90
      256
102
RTVSPost2010Prop51ColorRGB
 90
-16777216
102
RTVSPost2010PropOp51
 70
     0
102
RTVSPost2010Prop52
140
1.0
102
RTVSPost2010PropOp52
 70
     0
102
RTVSPost2010Prop53
 90
        2
102
RTVSPost2010PropOp53
 70
     1
102
RTVSPost2010Prop54
  1
strokes_ogs.tif
102
RTVSPost2010PropOp54
 70
     1
102
RTVSPost2010Prop55
280
     0
102
RTVSPost2010PropOp55
 70
     1
102
RTVSPost2010Prop56
140
1.0
102
RTVSPost2010PropOp56
 70
     1
102
RTVSPost2010Prop57
140
1.0
102
RTVSPost2010PropOp57
 70
     1
102
RTVSPropertyOp0
 70
     1
102
RTVSPropertyOp1
 70
     1
102
RTVSPropertyOp2
 70
     1
102
RTVSPropertyOp3
 70
     1
102
RTVSPropertyOp4
 70
     1
102
RTVSPropertyOp5
 70
     1
102
RTVSPropertyOp6
 70
     1
102
RTVSPropertyOp7
 70
     1
102
RTVSPropertyOp8
 70
     1
102
RTVSPropertyOp9
 70
     1
102
RTVSPropertyOp10
 70
     1
102
RTVSPropertyOp11
 70
     1
102
RTVSPropertyOp12
 70
     1
102
RTVSPropertyOp13
 70
     1
102
RTVSPropertyOp14
 70
     1
102
RTVSPropertyOp15
 70
     1
102
RTVSPropertyOp16
 70
     1
102
RTVSPropertyOp17
 70
     1
102
RTVSPropertyOp18
 70
     1
102
RTVSPropertyOp19
 70
     1
102
RTVSPropertyOp20
 70
     1
102
RTVSPropertyOp21
 70
     1
102
RTVSPropertyOp22
 70
     1
102
RTVSPropertyOp23
 70
     1
102
RTVSPropertyOp24
 70
     1
102
RTVSPropertyOp25
 70
     1
102
RTVSPropertyOp26
 70
     1
102
RTVSPropertyOp27
 70
     1
102
RTVSPropertyOp28
 70
     1
102
RTVSPropertyOp29
 70
     1
102
RTVSPropertyOp30
 70
     1
102
RTVSPropertyOp31
 70
     1
102
RTVSPropertyOp32
 70
     1
102
RTVSPropertyOp33
 70
     1
102
RTVSPropertyOp34
 70
     1
102
RTVSPropertyOp35
 70
     1
102
RTVSPropertyOp36
 70
     1
102
RTVSPropertyOp37
 70
     1
102
RTVSPropertyOp38
 70
     1
102
RTVSPropertyOp39
 70
     1
102
RTVSPropertyOp40
 70
     1
102
RTVSPropertyOp41
 70
     1
102
RTVSPropertyOp42
 70
     1
102
RTVSPropertyOp43
 70
     1
102
RTVSPropertyOp44
 70
     1
102
RTVSPropertyOp45
 70
     1
102
RTVSPropertyOp46
 70
     1
102
RTVSPropertyOp47
 70
     1
102
RTVSPropertyOp48
 70
     1
102
RTVSPropertyOp49
 70
     1
102
RTVSPropertyOp50
 70
     1
102
RTVSPropertyOp51
 70
     0
102
RTVSPropertyOp52
 70
     0
102
RTVSPropertyOp53
 70
     1
102
RTVSPropertyOp54
 70
     1
102
RTVSPropertyOp55
 70
     1
102
RTVSPropertyOp56
 70
     1
102
RTVSPropertyOp57
 70
     1
102
RTVSPropertyOp58
 70
     1
102
RTVSPropertyOp59
 70
     1
102
RTVSPropertyOp60
 70
     1
102
RTVSPropertyOp61
 70
     1
102
RTVSPropertyOp62
 70
     1
  0
XRECORD
  5
1C6F
102
{ACAD_REACTORS
330
1C6E
102
}
330
1C6E
100
AcDbXrecord
280
     1
102
RTVSPost2010Prop28
280
     0
102
RTVSPost2010PropOp28
 70
     1
102
RTVSPost2010Prop29
280
     1
102
RTVSPost2010PropOp29
 70
     1
102
RTVSPost2010Prop30
280
     1
102
RTVSPost2010PropOp30
 70
     1
102
RTVSPost2010Prop31
280
     0
102
RTVSPost2010PropOp31
 70
     1
102
RTVSPost2010Prop32
280
     0
102
RTVSPost2010PropOp32
 70
     1
102
RTVSPost2010Prop33
280
     0
102
RTVSPost2010PropOp33
 70
     1
102
RTVSPost2010Prop34
280
     0
102
RTVSPost2010PropOp34
 70
     1
102
RTVSPost2010Prop35
280
     0
102
RTVSPost2010PropOp35
 70
     1
102
RTVSPost2010Prop36
280
     0
102
RTVSPost2010PropOp36
 70
     1
102
RTVSPost2010Prop37
 90
       50
102
RTVSPost2010PropOp37
 70
     1
102
RTVSPost2010Prop38
140
0.0
102
RTVSPost2010PropOp38
 70
     1
102
RTVSPost2010Prop39
140
1.0
102
RTVSPost2010PropOp39
 70
     1
102
RTVSPost2010Prop40
 90
        0
102
RTVSPost2010PropOp40
 70
     1
102
RTVSPost2010Prop41ColorIndex
 90
       18
102
RTVSPost2010Prop41ColorRGB
 90
        0
102
RTVSPost2010PropOp41
 70
     1
102
RTVSPost2010Prop42
 90
       50
102
RTVSPost2010PropOp42
 70
     1
102
RTVSPost2010Prop43
 90
        3
102
RTVSPost2010PropOp43
 70
     1
102
RTVSPost2010Prop44ColorIndex
 90
        5
102
RTVSPost2010Prop44ColorRGB
 90
      255
102
RTVSPost2010PropOp44
 70
     1
102
RTVSPost2010Prop45
280
     0
102
RTVSPost2010PropOp45
 70
     1
102
RTVSPost2010Prop46
 90
       50
102
RTVSPost2010PropOp46
 70
     1
102
RTVSPost2010Prop47
 90
       50
102
RTVSPost2010PropOp47
 70
     1
102
RTVSPost2010Prop48
 90
       50
102
RTVSPost2010PropOp48
 70
     1
102
RTVSPost2010Prop49
280
     0
102
RTVSPost2010PropOp49
 70
     1
102
RTVSPost2010Prop50
 90
       50
102
RTVSPost2010PropOp50
 70
     1
102
RTVSPost2010Prop51ColorIndex
 90
      256
102
RTVSPost2010Prop51ColorRGB
 90
-16777216
102
RTVSPost2010PropOp51
 70
     0
102
RTVSPost2010Prop52
140
1.0
102
RTVSPost2010PropOp52
 70
     0
102
RTVSPost2010Prop53
 90
        2
102
RTVSPost2010PropOp53
 70
     1
102
RTVSPost2010Prop54
  1
strokes_ogs.tif
102
RTVSPost2010PropOp54
 70
     1
102
RTVSPost2010Prop55
280
     0
102
RTVSPost2010PropOp55
 70
     1
102
RTVSPost2010Prop56
140
1.0
102
RTVSPost2010PropOp56
 70
     1
102
RTVSPost2010Prop57
140
1.0
102
RTVSPost2010PropOp57
 70
     1
102
RTVSPropertyOp0
 70
     1
102
RTVSPropertyOp1
 70
     1
102
RTVSPropertyOp2
 70
     1
102
RTVSPropertyOp3
 70
     1
102
RTVSPropertyOp4
 70
     1
102
RTVSPropertyOp5
 70
     1
102
RTVSPropertyOp6
 70
     1
102
RTVSPropertyOp7
 70
     1
102
RTVSPropertyOp8
 70
     1
102
RTVSPropertyOp9
 70
     1
102
RTVSPropertyOp10
 70
     1
102
RTVSPropertyOp11
 70
     1
102
RTVSPropertyOp12
 70
     1
102
RTVSPropertyOp13
 70
     1
102
RTVSPropertyOp14
 70
     1
102
RTVSPropertyOp15
 70
     1
102
RTVSPropertyOp16
 70
     1
102
RTVSPropertyOp17
 70
     1
102
RTVSPropertyOp18
 70
     1
102
RTVSPropertyOp19
 70
     1
102
RTVSPropertyOp20
 70
     1
102
RTVSPropertyOp21
 70
     1
102
RTVSPropertyOp22
 70
     1
102
RTVSPropertyOp23
 70
     1
102
RTVSPropertyOp24
 70
     1
102
RTVSPropertyOp25
 70
     1
102
RTVSPropertyOp26
 70
     1
102
RTVSPropertyOp27
 70
     1
102
RTVSPropertyOp28
 70
     1
102
RTVSPropertyOp29
 70
     1
102
RTVSPropertyOp30
 70
     1
102
RTVSPropertyOp31
 70
     1
102
RTVSPropertyOp32
 70
     1
102
RTVSPropertyOp33
 70
     1
102
RTVSPropertyOp34
 70
     1
102
RTVSPropertyOp35
 70
     1
102
RTVSPropertyOp36
 70
     1
102
RTVSPropertyOp37
 70
     1
102
RTVSPropertyOp38
 70
     1
102
RTVSPropertyOp39
 70
     1
102
RTVSPropertyOp40
 70
     1
102
RTVSPropertyOp41
 70
     1
102
RTVSPropertyOp42
 70
     1
102
RTVSPropertyOp43
 70
     1
102
RTVSPropertyOp44
 70
     1
102
RTVSPropertyOp45
 70
     1
102
RTVSPropertyOp46
 70
     1
102
RTVSPropertyOp47
 70
     1
102
RTVSPropertyOp48
 70
     1
102
RTVSPropertyOp49
 70
     1
102
RTVSPropertyOp50
 70
     1
102
RTVSPropertyOp51
 70
     0
102
RTVSPropertyOp52
 70
     0
102
RTVSPropertyOp53
 70
     1
102
RTVSPropertyOp54
 70
     1
102
RTVSPropertyOp55
 70
     1
102
RTVSPropertyOp56
 70
     1
102
RTVSPropertyOp57
 70
     1
102
RTVSPropertyOp58
 70
     1
102
RTVSPropertyOp59
 70
     1
102
RTVSPropertyOp60
 70
     1
102
RTVSPropertyOp61
 70
     1
102
RTVSPropertyOp62
 70
     1
  0
XRECORD
  5
1C77
102
{ACAD_REACTORS
330
1C76
102
}
330
1C76
100
AcDbXrecord
280
     1
102
RTVSPost2010Prop28
280
     0
102
RTVSPost2010PropOp28
 70
     1
102
RTVSPost2010Prop29
280
     1
102
RTVSPost2010PropOp29
 70
     1
102
RTVSPost2010Prop30
280
     1
102
RTVSPost2010PropOp30
 70
     1
102
RTVSPost2010Prop31
280
     0
102
RTVSPost2010PropOp31
 70
     1
102
RTVSPost2010Prop32
280
     0
102
RTVSPost2010PropOp32
 70
     1
102
RTVSPost2010Prop33
280
     0
102
RTVSPost2010PropOp33
 70
     1
102
RTVSPost2010Prop34
280
     0
102
RTVSPost2010PropOp34
 70
     1
102
RTVSPost2010Prop35
280
     0
102
RTVSPost2010PropOp35
 70
     1
102
RTVSPost2010Prop36
280
     0
102
RTVSPost2010PropOp36
 70
     1
102
RTVSPost2010Prop37
 90
       50
102
RTVSPost2010PropOp37
 70
     1
102
RTVSPost2010Prop38
140
0.0
102
RTVSPost2010PropOp38
 70
     1
102
RTVSPost2010Prop39
140
1.0
102
RTVSPost2010PropOp39
 70
     1
102
RTVSPost2010Prop40
 90
        0
102
RTVSPost2010PropOp40
 70
     1
102
RTVSPost2010Prop41ColorIndex
 90
       18
102
RTVSPost2010Prop41ColorRGB
 90
        0
102
RTVSPost2010PropOp41
 70
     1
102
RTVSPost2010Prop42
 90
       50
102
RTVSPost2010PropOp42
 70
     1
102
RTVSPost2010Prop43
 90
        3
102
RTVSPost2010PropOp43
 70
     1
102
RTVSPost2010Prop44ColorIndex
 90
        5
102
RTVSPost2010Prop44ColorRGB
 90
      255
102
RTVSPost2010PropOp44
 70
     1
102
RTVSPost2010Prop45
280
     0
102
RTVSPost2010PropOp45
 70
     1
102
RTVSPost2010Prop46
 90
       50
102
RTVSPost2010PropOp46
 70
     1
102
RTVSPost2010Prop47
 90
       50
102
RTVSPost2010PropOp47
 70
     1
102
RTVSPost2010Prop48
 90
       50
102
RTVSPost2010PropOp48
 70
     1
102
RTVSPost2010Prop49
280
     0
102
RTVSPost2010PropOp49
 70
     1
102
RTVSPost2010Prop50
 90
       50
102
RTVSPost2010PropOp50
 70
     1
102
RTVSPost2010Prop51ColorIndex
 90
      256
102
RTVSPost2010Prop51ColorRGB
 90
-16777216
102
RTVSPost2010PropOp51
 70
     0
102
RTVSPost2010Prop52
140
1.0
102
RTVSPost2010PropOp52
 70
     0
102
RTVSPost2010Prop53
 90
        2
102
RTVSPost2010PropOp53
 70
     1
102
RTVSPost2010Prop54
  1
strokes_ogs.tif
102
RTVSPost2010PropOp54
 70
     1
102
RTVSPost2010Prop55
280
     0
102
RTVSPost2010PropOp55
 70
     1
102
RTVSPost2010Prop56
140
1.0
102
RTVSPost2010PropOp56
 70
     1
102
RTVSPost2010Prop57
140
1.0
102
RTVSPost2010PropOp57
 70
     1
102
RTVSPropertyOp0
 70
     1
102
RTVSPropertyOp1
 70
     1
102
RTVSPropertyOp2
 70
     1
102
RTVSPropertyOp3
 70
     1
102
RTVSPropertyOp4
 70
     1
102
RTVSPropertyOp5
 70
     1
102
RTVSPropertyOp6
 70
     1
102
RTVSPropertyOp7
 70
     1
102
RTVSPropertyOp8
 70
     1
102
RTVSPropertyOp9
 70
     1
102
RTVSPropertyOp10
 70
     1
102
RTVSPropertyOp11
 70
     1
102
RTVSPropertyOp12
 70
     1
102
RTVSPropertyOp13
 70
     1
102
RTVSPropertyOp14
 70
     1
102
RTVSPropertyOp15
 70
     1
102
RTVSPropertyOp16
 70
     1
102
RTVSPropertyOp17
 70
     1
102
RTVSPropertyOp18
 70
     1
102
RTVSPropertyOp19
 70
     1
102
RTVSPropertyOp20
 70
     1
102
RTVSPropertyOp21
 70
     1
102
RTVSPropertyOp22
 70
     1
102
RTVSPropertyOp23
 70
     1
102
RTVSPropertyOp24
 70
     1
102
RTVSPropertyOp25
 70
     1
102
RTVSPropertyOp26
 70
     1
102
RTVSPropertyOp27
 70
     1
102
RTVSPropertyOp28
 70
     1
102
RTVSPropertyOp29
 70
     1
102
RTVSPropertyOp30
 70
     1
102
RTVSPropertyOp31
 70
     1
102
RTVSPropertyOp32
 70
     1
102
RTVSPropertyOp33
 70
     1
102
RTVSPropertyOp34
 70
     1
102
RTVSPropertyOp35
 70
     1
102
RTVSPropertyOp36
 70
     1
102
RTVSPropertyOp37
 70
     1
102
RTVSPropertyOp38
 70
     1
102
RTVSPropertyOp39
 70
     1
102
RTVSPropertyOp40
 70
     1
102
RTVSPropertyOp41
 70
     1
102
RTVSPropertyOp42
 70
     1
102
RTVSPropertyOp43
 70
     1
102
RTVSPropertyOp44
 70
     1
102
RTVSPropertyOp45
 70
     1
102
RTVSPropertyOp46
 70
     1
102
RTVSPropertyOp47
 70
     1
102
RTVSPropertyOp48
 70
     1
102
RTVSPropertyOp49
 70
     1
102
RTVSPropertyOp50
 70
     1
102
RTVSPropertyOp51
 70
     0
102
RTVSPropertyOp52
 70
     0
102
RTVSPropertyOp53
 70
     1
102
RTVSPropertyOp54
 70
     1
102
RTVSPropertyOp55
 70
     1
102
RTVSPropertyOp56
 70
     1
102
RTVSPropertyOp57
 70
     1
102
RTVSPropertyOp58
 70
     1
102
RTVSPropertyOp59
 70
     1
102
RTVSPropertyOp60
 70
     1
102
RTVSPropertyOp61
 70
     1
102
RTVSPropertyOp62
 70
     1
  0
XRECORD
  5
1C93
102
{ACAD_REACTORS
330
1C92
102
}
330
1C92
100
AcDbXrecord
280
     1
102
RTVSPost2010Prop28
280
     0
102
RTVSPost2010PropOp28
 70
     1
102
RTVSPost2010Prop29
280
     1
102
RTVSPost2010PropOp29
 70
     1
102
RTVSPost2010Prop30
280
     1
102
RTVSPost2010PropOp30
 70
     1
102
RTVSPost2010Prop31
280
     0
102
RTVSPost2010PropOp31
 70
     1
102
RTVSPost2010Prop32
280
     0
102
RTVSPost2010PropOp32
 70
     1
102
RTVSPost2010Prop33
280
     0
102
RTVSPost2010PropOp33
 70
     1
102
RTVSPost2010Prop34
280
     0
102
RTVSPost2010PropOp34
 70
     1
102
RTVSPost2010Prop35
280
     0
102
RTVSPost2010PropOp35
 70
     1
102
RTVSPost2010Prop36
280
     0
102
RTVSPost2010PropOp36
 70
     1
102
RTVSPost2010Prop37
 90
       50
102
RTVSPost2010PropOp37
 70
     0
102
RTVSPost2010Prop38
140
0.0
102
RTVSPost2010PropOp38
 70
     0
102
RTVSPost2010Prop39
140
1.0
102
RTVSPost2010PropOp39
 70
     0
102
RTVSPost2010Prop40
 90
        0
102
RTVSPost2010PropOp40
 70
     0
102
RTVSPost2010Prop41ColorIndex
 90
       18
102
RTVSPost2010Prop41ColorRGB
 90
        0
102
RTVSPost2010PropOp41
 70
     0
102
RTVSPost2010Prop42
 90
       50
102
RTVSPost2010PropOp42
 70
     0
102
RTVSPost2010Prop43
 90
        3
102
RTVSPost2010PropOp43
 70
     0
102
RTVSPost2010Prop44ColorIndex
 90
        5
102
RTVSPost2010Prop44ColorRGB
 90
      255
102
RTVSPost2010PropOp44
 70
     0
102
RTVSPost2010Prop45
280
     0
102
RTVSPost2010PropOp45
 70
     1
102
RTVSPost2010Prop46
 90
       50
102
RTVSPost2010PropOp46
 70
     0
102
RTVSPost2010Prop47
 90
       50
102
RTVSPost2010PropOp47
 70
     0
102
RTVSPost2010Prop48
 90
       50
102
RTVSPost2010PropOp48
 70
     0
102
RTVSPost2010Prop49
280
     0
102
RTVSPost2010PropOp49
 70
     1
102
RTVSPost2010Prop50
 90
       50
102
RTVSPost2010PropOp50
 70
     0
102
RTVSPost2010Prop51ColorIndex
 90
      256
102
RTVSPost2010Prop51ColorRGB
 90
-16777216
102
RTVSPost2010PropOp51
 70
     0
102
RTVSPost2010Prop52
140
1.0
102
RTVSPost2010PropOp52
 70
     0
102
RTVSPost2010Prop53
 90
        2
102
RTVSPost2010PropOp53
 70
     0
102
RTVSPost2010Prop54
  1
strokes_ogs.tif
102
RTVSPost2010PropOp54
 70
     0
102
RTVSPost2010Prop55
280
     0
102
RTVSPost2010PropOp55
 70
     1
102
RTVSPost2010Prop56
140
1.0
102
RTVSPost2010PropOp56
 70
     0
102
RTVSPost2010Prop57
140
1.0
102
RTVSPost2010PropOp57
 70
     0
102
RTVSPropertyOp0
 70
     0
102
RTVSPropertyOp1
 70
     0
102
RTVSPropertyOp2
 70
     0
102
RTVSPropertyOp3
 70
     0
102
RTVSPropertyOp4
 70
     0
102
RTVSPropertyOp5
 70
     0
102
RTVSPropertyOp6
 70
     0
102
RTVSPropertyOp7
 70
     0
102
RTVSPropertyOp8
 70
     0
102
RTVSPropertyOp9
 70
     0
102
RTVSPropertyOp10
 70
     0
102
RTVSPropertyOp11
 70
     0
102
RTVSPropertyOp12
 70
     0
102
RTVSPropertyOp13
 70
     0
102
RTVSPropertyOp14
 70
     2
102
RTVSPropertyOp15
 70
     0
102
RTVSPropertyOp16
 70
     0
102
RTVSPropertyOp17
 70
     0
102
RTVSPropertyOp18
 70
     0
102
RTVSPropertyOp19
 70
     0
102
RTVSPropertyOp20
 70
     0
102
RTVSPropertyOp21
 70
     0
102
RTVSPropertyOp22
 70
     0
102
RTVSPropertyOp23
 70
     0
102
RTVSPropertyOp24
 70
     0
102
RTVSPropertyOp25
 70
     0
102
RTVSPropertyOp26
 70
     0
102
RTVSPropertyOp27
 70
     0
102
RTVSPropertyOp28
 70
     1
102
RTVSPropertyOp29
 70
     1
102
RTVSPropertyOp30
 70
     1
102
RTVSPropertyOp31
 70
     1
102
RTVSPropertyOp32
 70
     1
102
RTVSPropertyOp33
 70
     1
102
RTVSPropertyOp34
 70
     1
102
RTVSPropertyOp35
 70
     1
102
RTVSPropertyOp36
 70
     1
102
RTVSPropertyOp37
 70
     0
102
RTVSPropertyOp38
 70
     0
102
RTVSPropertyOp39
 70
     0
102
RTVSPropertyOp40
 70
     0
102
RTVSPropertyOp41
 70
     0
102
RTVSPropertyOp42
 70
     0
102
RTVSPropertyOp43
 70
     0
102
RTVSPropertyOp44
 70
     0
102
RTVSPropertyOp45
 70
     1
102
RTVSPropertyOp46
 70
     0
102
RTVSPropertyOp47
 70
     0
102
RTVSPropertyOp48
 70
     0
102
RTVSPropertyOp49
 70
     1
102
RTVSPropertyOp50
 70
     0
102
RTVSPropertyOp51
 70
     0
102
RTVSPropertyOp52
 70
     0
102
RTVSPropertyOp53
 70
     0
102
RTVSPropertyOp54
 70
     0
102
RTVSPropertyOp55
 70
     1
102
RTVSPropertyOp56
 70
     0
102
RTVSPropertyOp57
 70
     0
102
RTVSPropertyOp58
 70
     0
102
RTVSPropertyOp59
 70
     0
102
RTVSPropertyOp60
 70
     0
102
RTVSPropertyOp61
 70
     0
102
RTVSPropertyOp62
 70
     0
  0
XRECORD
  5
1C83
102
{ACAD_REACTORS
330
1C82
102
}
330
1C82
100
AcDbXrecord
280
     1
102
RTVSPost2010Prop28
280
     0
102
RTVSPost2010PropOp28
 70
     1
102
RTVSPost2010Prop29
280
     1
102
RTVSPost2010PropOp29
 70
     1
102
RTVSPost2010Prop30
280
     1
102
RTVSPost2010PropOp30
 70
     1
102
RTVSPost2010Prop31
280
     0
102
RTVSPost2010PropOp31
 70
     1
102
RTVSPost2010Prop32
280
     0
102
RTVSPost2010PropOp32
 70
     1
102
RTVSPost2010Prop33
280
     0
102
RTVSPost2010PropOp33
 70
     1
102
RTVSPost2010Prop34
280
     0
102
RTVSPost2010PropOp34
 70
     1
102
RTVSPost2010Prop35
280
     0
102
RTVSPost2010PropOp35
 70
     1
102
RTVSPost2010Prop36
280
     0
102
RTVSPost2010PropOp36
 70
     1
102
RTVSPost2010Prop37
 90
       50
102
RTVSPost2010PropOp37
 70
     1
102
RTVSPost2010Prop38
140
0.0
102
RTVSPost2010PropOp38
 70
     1
102
RTVSPost2010Prop39
140
1.0
102
RTVSPost2010PropOp39
 70
     1
102
RTVSPost2010Prop40
 90
        0
102
RTVSPost2010PropOp40
 70
     1
102
RTVSPost2010Prop41ColorIndex
 90
       18
102
RTVSPost2010Prop41ColorRGB
 90
        0
102
RTVSPost2010PropOp41
 70
     1
102
RTVSPost2010Prop42
 90
       50
102
RTVSPost2010PropOp42
 70
     1
102
RTVSPost2010Prop43
 90
        3
102
RTVSPost2010PropOp43
 70
     1
102
RTVSPost2010Prop44ColorIndex
 90
        5
102
RTVSPost2010Prop44ColorRGB
 90
      255
102
RTVSPost2010PropOp44
 70
     1
102
RTVSPost2010Prop45
280
     0
102
RTVSPost2010PropOp45
 70
     1
102
RTVSPost2010Prop46
 90
       50
102
RTVSPost2010PropOp46
 70
     1
102
RTVSPost2010Prop47
 90
       50
102
RTVSPost2010PropOp47
 70
     1
102
RTVSPost2010Prop48
 90
       50
102
RTVSPost2010PropOp48
 70
     1
102
RTVSPost2010Prop49
280
     0
102
RTVSPost2010PropOp49
 70
     1
102
RTVSPost2010Prop50
 90
       50
102
RTVSPost2010PropOp50
 70
     1
102
RTVSPost2010Prop51ColorIndex
 90
      256
102
RTVSPost2010Prop51ColorRGB
 90
-16777216
102
RTVSPost2010PropOp51
 70
     0
102
RTVSPost2010Prop52
140
1.0
102
RTVSPost2010PropOp52
 70
     0
102
RTVSPost2010Prop53
 90
        2
102
RTVSPost2010PropOp53
 70
     1
102
RTVSPost2010Prop54
  1
strokes_ogs.tif
102
RTVSPost2010PropOp54
 70
     1
102
RTVSPost2010Prop55
280
     0
102
RTVSPost2010PropOp55
 70
     1
102
RTVSPost2010Prop56
140
1.0
102
RTVSPost2010PropOp56
 70
     1
102
RTVSPost2010Prop57
140
1.0
102
RTVSPost2010PropOp57
 70
     1
102
RTVSPropertyOp0
 70
     1
102
RTVSPropertyOp1
 70
     1
102
RTVSPropertyOp2
 70
     1
102
RTVSPropertyOp3
 70
     1
102
RTVSPropertyOp4
 70
     1
102
RTVSPropertyOp5
 70
     1
102
RTVSPropertyOp6
 70
     1
102
RTVSPropertyOp7
 70
     1
102
RTVSPropertyOp8
 70
     1
102
RTVSPropertyOp9
 70
     1
102
RTVSPropertyOp10
 70
     1
102
RTVSPropertyOp11
 70
     1
102
RTVSPropertyOp12
 70
     1
102
RTVSPropertyOp13
 70
     1
102
RTVSPropertyOp14
 70
     1
102
RTVSPropertyOp15
 70
     1
102
RTVSPropertyOp16
 70
     1
102
RTVSPropertyOp17
 70
     1
102
RTVSPropertyOp18
 70
     1
102
RTVSPropertyOp19
 70
     1
102
RTVSPropertyOp20
 70
     1
102
RTVSPropertyOp21
 70
     1
102
RTVSPropertyOp22
 70
     1
102
RTVSPropertyOp23
 70
     1
102
RTVSPropertyOp24
 70
     1
102
RTVSPropertyOp25
 70
     1
102
RTVSPropertyOp26
 70
     1
102
RTVSPropertyOp27
 70
     1
102
RTVSPropertyOp28
 70
     1
102
RTVSPropertyOp29
 70
     1
102
RTVSPropertyOp30
 70
     1
102
RTVSPropertyOp31
 70
     1
102
RTVSPropertyOp32
 70
     1
102
RTVSPropertyOp33
 70
     1
102
RTVSPropertyOp34
 70
     1
102
RTVSPropertyOp35
 70
     1
102
RTVSPropertyOp36
 70
     1
102
RTVSPropertyOp37
 70
     1
102
RTVSPropertyOp38
 70
     1
102
RTVSPropertyOp39
 70
     1
102
RTVSPropertyOp40
 70
     1
102
RTVSPropertyOp41
 70
     1
102
RTVSPropertyOp42
 70
     1
102
RTVSPropertyOp43
 70
     1
102
RTVSPropertyOp44
 70
     1
102
RTVSPropertyOp45
 70
     1
102
RTVSPropertyOp46
 70
     1
102
RTVSPropertyOp47
 70
     1
102
RTVSPropertyOp48
 70
     1
102
RTVSPropertyOp49
 70
     1
102
RTVSPropertyOp50
 70
     1
102
RTVSPropertyOp51
 70
     0
102
RTVSPropertyOp52
 70
     0
102
RTVSPropertyOp53
 70
     1
102
RTVSPropertyOp54
 70
     1
102
RTVSPropertyOp55
 70
     1
102
RTVSPropertyOp56
 70
     1
102
RTVSPropertyOp57
 70
     1
102
RTVSPropertyOp58
 70
     1
102
RTVSPropertyOp59
 70
     1
102
RTVSPropertyOp60
 70
     1
102
RTVSPropertyOp61
 70
     1
102
RTVSPropertyOp62
 70
     1
  0
XRECORD
  5
1C95
102
{ACAD_REACTORS
330
1C94
102
}
330
1C94
100
AcDbXrecord
280
     1
102
RTVSPost2010Prop28
280
     0
102
RTVSPost2010PropOp28
 70
     1
102
RTVSPost2010Prop29
280
     1
102
RTVSPost2010PropOp29
 70
     1
102
RTVSPost2010Prop30
280
     1
102
RTVSPost2010PropOp30
 70
     1
102
RTVSPost2010Prop31
280
     0
102
RTVSPost2010PropOp31
 70
     1
102
RTVSPost2010Prop32
280
     0
102
RTVSPost2010PropOp32
 70
     1
102
RTVSPost2010Prop33
280
     0
102
RTVSPost2010PropOp33
 70
     1
102
RTVSPost2010Prop34
280
     0
102
RTVSPost2010PropOp34
 70
     1
102
RTVSPost2010Prop35
280
     0
102
RTVSPost2010PropOp35
 70
     1
102
RTVSPost2010Prop36
280
     0
102
RTVSPost2010PropOp36
 70
     1
102
RTVSPost2010Prop37
 90
       50
102
RTVSPost2010PropOp37
 70
     0
102
RTVSPost2010Prop38
140
0.0
102
RTVSPost2010PropOp38
 70
     0
102
RTVSPost2010Prop39
140
1.0
102
RTVSPost2010PropOp39
 70
     0
102
RTVSPost2010Prop40
 90
        0
102
RTVSPost2010PropOp40
 70
     0
102
RTVSPost2010Prop41ColorIndex
 90
       18
102
RTVSPost2010Prop41ColorRGB
 90
        0
102
RTVSPost2010PropOp41
 70
     0
102
RTVSPost2010Prop42
 90
       50
102
RTVSPost2010PropOp42
 70
     0
102
RTVSPost2010Prop43
 90
        3
102
RTVSPost2010PropOp43
 70
     0
102
RTVSPost2010Prop44ColorIndex
 90
        5
102
RTVSPost2010Prop44ColorRGB
 90
      255
102
RTVSPost2010PropOp44
 70
     0
102
RTVSPost2010Prop45
280
     0
102
RTVSPost2010PropOp45
 70
     1
102
RTVSPost2010Prop46
 90
       50
102
RTVSPost2010PropOp46
 70
     0
102
RTVSPost2010Prop47
 90
       50
102
RTVSPost2010PropOp47
 70
     0
102
RTVSPost2010Prop48
 90
       50
102
RTVSPost2010PropOp48
 70
     0
102
RTVSPost2010Prop49
280
     0
102
RTVSPost2010PropOp49
 70
     1
102
RTVSPost2010Prop50
 90
       50
102
RTVSPost2010PropOp50
 70
     0
102
RTVSPost2010Prop51ColorIndex
 90
      256
102
RTVSPost2010Prop51ColorRGB
 90
-16777216
102
RTVSPost2010PropOp51
 70
     0
102
RTVSPost2010Prop52
140
1.0
102
RTVSPost2010PropOp52
 70
     0
102
RTVSPost2010Prop53
 90
        2
102
RTVSPost2010PropOp53
 70
     0
102
RTVSPost2010Prop54
  1
strokes_ogs.tif
102
RTVSPost2010PropOp54
 70
     0
102
RTVSPost2010Prop55
280
     0
102
RTVSPost2010PropOp55
 70
     1
102
RTVSPost2010Prop56
140
1.0
102
RTVSPost2010PropOp56
 70
     0
102
RTVSPost2010Prop57
140
1.0
102
RTVSPost2010PropOp57
 70
     0
102
RTVSPropertyOp0
 70
     0
102
RTVSPropertyOp1
 70
     0
102
RTVSPropertyOp2
 70
     0
102
RTVSPropertyOp3
 70
     0
102
RTVSPropertyOp4
 70
     0
102
RTVSPropertyOp5
 70
     0
102
RTVSPropertyOp6
 70
     0
102
RTVSPropertyOp7
 70
     0
102
RTVSPropertyOp8
 70
     0
102
RTVSPropertyOp9
 70
     0
102
RTVSPropertyOp10
 70
     0
102
RTVSPropertyOp11
 70
     0
102
RTVSPropertyOp12
 70
     0
102
RTVSPropertyOp13
 70
     0
102
RTVSPropertyOp14
 70
     2
102
RTVSPropertyOp15
 70
     0
102
RTVSPropertyOp16
 70
     0
102
RTVSPropertyOp17
 70
     0
102
RTVSPropertyOp18
 70
     0
102
RTVSPropertyOp19
 70
     0
102
RTVSPropertyOp20
 70
     0
102
RTVSPropertyOp21
 70
     0
102
RTVSPropertyOp22
 70
     0
102
RTVSPropertyOp23
 70
     0
102
RTVSPropertyOp24
 70
     0
102
RTVSPropertyOp25
 70
     0
102
RTVSPropertyOp26
 70
     0
102
RTVSPropertyOp27
 70
     0
102
RTVSPropertyOp28
 70
     1
102
RTVSPropertyOp29
 70
     1
102
RTVSPropertyOp30
 70
     1
102
RTVSPropertyOp31
 70
     1
102
RTVSPropertyOp32
 70
     1
102
RTVSPropertyOp33
 70
     1
102
RTVSPropertyOp34
 70
     1
102
RTVSPropertyOp35
 70
     1
102
RTVSPropertyOp36
 70
     1
102
RTVSPropertyOp37
 70
     0
102
RTVSPropertyOp38
 70
     0
102
RTVSPropertyOp39
 70
     0
102
RTVSPropertyOp40
 70
     0
102
RTVSPropertyOp41
 70
     0
102
RTVSPropertyOp42
 70
     0
102
RTVSPropertyOp43
 70
     0
102
RTVSPropertyOp44
 70
     0
102
RTVSPropertyOp45
 70
     1
102
RTVSPropertyOp46
 70
     0
102
RTVSPropertyOp47
 70
     0
102
RTVSPropertyOp48
 70
     0
102
RTVSPropertyOp49
 70
     1
102
RTVSPropertyOp50
 70
     0
102
RTVSPropertyOp51
 70
     0
102
RTVSPropertyOp52
 70
     0
102
RTVSPropertyOp53
 70
     0
102
RTVSPropertyOp54
 70
     0
102
RTVSPropertyOp55
 70
     1
102
RTVSPropertyOp56
 70
     0
102
RTVSPropertyOp57
 70
     0
102
RTVSPropertyOp58
 70
     0
102
RTVSPropertyOp59
 70
     0
102
RTVSPropertyOp60
 70
     0
102
RTVSPropertyOp61
 70
     0
102
RTVSPropertyOp62
 70
     0
  0
XRECORD
  5
1C7B
102
{ACAD_REACTORS
330
1C7A
102
}
330
1C7A
100
AcDbXrecord
280
     1
102
RTVSPost2010Prop28
280
     0
102
RTVSPost2010PropOp28
 70
     1
102
RTVSPost2010Prop29
280
     1
102
RTVSPost2010PropOp29
 70
     1
102
RTVSPost2010Prop30
280
     1
102
RTVSPost2010PropOp30
 70
     1
102
RTVSPost2010Prop31
280
     0
102
RTVSPost2010PropOp31
 70
     1
102
RTVSPost2010Prop32
280
     0
102
RTVSPost2010PropOp32
 70
     1
102
RTVSPost2010Prop33
280
     0
102
RTVSPost2010PropOp33
 70
     1
102
RTVSPost2010Prop34
280
     0
102
RTVSPost2010PropOp34
 70
     1
102
RTVSPost2010Prop35
280
     0
102
RTVSPost2010PropOp35
 70
     1
102
RTVSPost2010Prop36
280
     0
102
RTVSPost2010PropOp36
 70
     1
102
RTVSPost2010Prop37
 90
       50
102
RTVSPost2010PropOp37
 70
     1
102
RTVSPost2010Prop38
140
0.0
102
RTVSPost2010PropOp38
 70
     1
102
RTVSPost2010Prop39
140
1.0
102
RTVSPost2010PropOp39
 70
     1
102
RTVSPost2010Prop40
 90
        0
102
RTVSPost2010PropOp40
 70
     1
102
RTVSPost2010Prop41ColorIndex
 90
       18
102
RTVSPost2010Prop41ColorRGB
 90
        0
102
RTVSPost2010PropOp41
 70
     1
102
RTVSPost2010Prop42
 90
       50
102
RTVSPost2010PropOp42
 70
     1
102
RTVSPost2010Prop43
 90
        3
102
RTVSPost2010PropOp43
 70
     1
102
RTVSPost2010Prop44ColorIndex
 90
        5
102
RTVSPost2010Prop44ColorRGB
 90
      255
102
RTVSPost2010PropOp44
 70
     1
102
RTVSPost2010Prop45
280
     0
102
RTVSPost2010PropOp45
 70
     1
102
RTVSPost2010Prop46
 90
       50
102
RTVSPost2010PropOp46
 70
     1
102
RTVSPost2010Prop47
 90
       50
102
RTVSPost2010PropOp47
 70
     1
102
RTVSPost2010Prop48
 90
       50
102
RTVSPost2010PropOp48
 70
     1
102
RTVSPost2010Prop49
280
     0
102
RTVSPost2010PropOp49
 70
     1
102
RTVSPost2010Prop50
 90
       50
102
RTVSPost2010PropOp50
 70
     1
102
RTVSPost2010Prop51ColorIndex
 90
      256
102
RTVSPost2010Prop51ColorRGB
 90
-16777216
102
RTVSPost2010PropOp51
 70
     0
102
RTVSPost2010Prop52
140
1.0
102
RTVSPost2010PropOp52
 70
     0
102
RTVSPost2010Prop53
 90
        2
102
RTVSPost2010PropOp53
 70
     1
102
RTVSPost2010Prop54
  1
strokes_ogs.tif
102
RTVSPost2010PropOp54
 70
     1
102
RTVSPost2010Prop55
280
     0
102
RTVSPost2010PropOp55
 70
     1
102
RTVSPost2010Prop56
140
1.0
102
RTVSPost2010PropOp56
 70
     1
102
RTVSPost2010Prop57
140
1.0
102
RTVSPost2010PropOp57
 70
     1
102
RTVSPropertyOp0
 70
     1
102
RTVSPropertyOp1
 70
     1
102
RTVSPropertyOp2
 70
     1
102
RTVSPropertyOp3
 70
     1
102
RTVSPropertyOp4
 70
     1
102
RTVSPropertyOp5
 70
     1
102
RTVSPropertyOp6
 70
     1
102
RTVSPropertyOp7
 70
     1
102
RTVSPropertyOp8
 70
     1
102
RTVSPropertyOp9
 70
     1
102
RTVSPropertyOp10
 70
     1
102
RTVSPropertyOp11
 70
     1
102
RTVSPropertyOp12
 70
     1
102
RTVSPropertyOp13
 70
     1
102
RTVSPropertyOp14
 70
     1
102
RTVSPropertyOp15
 70
     1
102
RTVSPropertyOp16
 70
     1
102
RTVSPropertyOp17
 70
     1
102
RTVSPropertyOp18
 70
     1
102
RTVSPropertyOp19
 70
     1
102
RTVSPropertyOp20
 70
     1
102
RTVSPropertyOp21
 70
     1
102
RTVSPropertyOp22
 70
     1
102
RTVSPropertyOp23
 70
     1
102
RTVSPropertyOp24
 70
     1
102
RTVSPropertyOp25
 70
     1
102
RTVSPropertyOp26
 70
     1
102
RTVSPropertyOp27
 70
     1
102
RTVSPropertyOp28
 70
     1
102
RTVSPropertyOp29
 70
     1
102
RTVSPropertyOp30
 70
     1
102
RTVSPropertyOp31
 70
     1
102
RTVSPropertyOp32
 70
     1
102
RTVSPropertyOp33
 70
     1
102
RTVSPropertyOp34
 70
     1
102
RTVSPropertyOp35
 70
     1
102
RTVSPropertyOp36
 70
     1
102
RTVSPropertyOp37
 70
     1
102
RTVSPropertyOp38
 70
     1
102
RTVSPropertyOp39
 70
     1
102
RTVSPropertyOp40
 70
     1
102
RTVSPropertyOp41
 70
     1
102
RTVSPropertyOp42
 70
     1
102
RTVSPropertyOp43
 70
     1
102
RTVSPropertyOp44
 70
     1
102
RTVSPropertyOp45
 70
     1
102
RTVSPropertyOp46
 70
     1
102
RTVSPropertyOp47
 70
     1
102
RTVSPropertyOp48
 70
     1
102
RTVSPropertyOp49
 70
     1
102
RTVSPropertyOp50
 70
     1
102
RTVSPropertyOp51
 70
     0
102
RTVSPropertyOp52
 70
     0
102
RTVSPropertyOp53
 70
     1
102
RTVSPropertyOp54
 70
     1
102
RTVSPropertyOp55
 70
     1
102
RTVSPropertyOp56
 70
     1
102
RTVSPropertyOp57
 70
     1
102
RTVSPropertyOp58
 70
     1
102
RTVSPropertyOp59
 70
     1
102
RTVSPropertyOp60
 70
     1
102
RTVSPropertyOp61
 70
     1
102
RTVSPropertyOp62
 70
     1
  0
XRECORD
  5
1C91
102
{ACAD_REACTORS
330
1C90
102
}
330
1C90
100
AcDbXrecord
280
     1
102
RTVSPost2010Prop28
280
     0
102
RTVSPost2010PropOp28
 70
     1
102
RTVSPost2010Prop29
280
     1
102
RTVSPost2010PropOp29
 70
     1
102
RTVSPost2010Prop30
280
     1
102
RTVSPost2010PropOp30
 70
     1
102
RTVSPost2010Prop31
280
     0
102
RTVSPost2010PropOp31
 70
     1
102
RTVSPost2010Prop32
280
     0
102
RTVSPost2010PropOp32
 70
     1
102
RTVSPost2010Prop33
280
     0
102
RTVSPost2010PropOp33
 70
     1
102
RTVSPost2010Prop34
280
     0
102
RTVSPost2010PropOp34
 70
     1
102
RTVSPost2010Prop35
280
     0
102
RTVSPost2010PropOp35
 70
     1
102
RTVSPost2010Prop36
280
     0
102
RTVSPost2010PropOp36
 70
     1
102
RTVSPost2010Prop37
 90
       50
102
RTVSPost2010PropOp37
 70
     1
102
RTVSPost2010Prop38
140
0.0
102
RTVSPost2010PropOp38
 70
     1
102
RTVSPost2010Prop39
140
1.0
102
RTVSPost2010PropOp39
 70
     1
102
RTVSPost2010Prop40
 90
        0
102
RTVSPost2010PropOp40
 70
     1
102
RTVSPost2010Prop41ColorIndex
 90
       18
102
RTVSPost2010Prop41ColorRGB
 90
        0
102
RTVSPost2010PropOp41
 70
     1
102
RTVSPost2010Prop42
 90
       50
102
RTVSPost2010PropOp42
 70
     1
102
RTVSPost2010Prop43
 90
        3
102
RTVSPost2010PropOp43
 70
     1
102
RTVSPost2010Prop44ColorIndex
 90
        5
102
RTVSPost2010Prop44ColorRGB
 90
      255
102
RTVSPost2010PropOp44
 70
     1
102
RTVSPost2010Prop45
280
     0
102
RTVSPost2010PropOp45
 70
     1
102
RTVSPost2010Prop46
 90
       50
102
RTVSPost2010PropOp46
 70
     1
102
RTVSPost2010Prop47
 90
       50
102
RTVSPost2010PropOp47
 70
     1
102
RTVSPost2010Prop48
 90
       50
102
RTVSPost2010PropOp48
 70
     1
102
RTVSPost2010Prop49
280
     0
102
RTVSPost2010PropOp49
 70
     1
102
RTVSPost2010Prop50
 90
       50
102
RTVSPost2010PropOp50
 70
     1
102
RTVSPost2010Prop51ColorIndex
 90
      256
102
RTVSPost2010Prop51ColorRGB
 90
-16777216
102
RTVSPost2010PropOp51
 70
     0
102
RTVSPost2010Prop52
140
1.0
102
RTVSPost2010PropOp52
 70
     0
102
RTVSPost2010Prop53
 90
        2
102
RTVSPost2010PropOp53
 70
     1
102
RTVSPost2010Prop54
  1
strokes_ogs.tif
102
RTVSPost2010PropOp54
 70
     1
102
RTVSPost2010Prop55
280
     0
102
RTVSPost2010PropOp55
 70
     1
102
RTVSPost2010Prop56
140
1.0
102
RTVSPost2010PropOp56
 70
     1
102
RTVSPost2010Prop57
140
1.0
102
RTVSPost2010PropOp57
 70
     1
102
RTVSPropertyOp0
 70
     1
102
RTVSPropertyOp1
 70
     1
102
RTVSPropertyOp2
 70
     1
102
RTVSPropertyOp3
 70
     1
102
RTVSPropertyOp4
 70
     1
102
RTVSPropertyOp5
 70
     1
102
RTVSPropertyOp6
 70
     1
102
RTVSPropertyOp7
 70
     1
102
RTVSPropertyOp8
 70
     1
102
RTVSPropertyOp9
 70
     1
102
RTVSPropertyOp10
 70
     1
102
RTVSPropertyOp11
 70
     1
102
RTVSPropertyOp12
 70
     1
102
RTVSPropertyOp13
 70
     1
102
RTVSPropertyOp14
 70
     1
102
RTVSPropertyOp15
 70
     1
102
RTVSPropertyOp16
 70
     1
102
RTVSPropertyOp17
 70
     1
102
RTVSPropertyOp18
 70
     1
102
RTVSPropertyOp19
 70
     1
102
RTVSPropertyOp20
 70
     1
102
RTVSPropertyOp21
 70
     1
102
RTVSPropertyOp22
 70
     1
102
RTVSPropertyOp23
 70
     1
102
RTVSPropertyOp24
 70
     1
102
RTVSPropertyOp25
 70
     1
102
RTVSPropertyOp26
 70
     1
102
RTVSPropertyOp27
 70
     1
102
RTVSPropertyOp28
 70
     1
102
RTVSPropertyOp29
 70
     1
102
RTVSPropertyOp30
 70
     1
102
RTVSPropertyOp31
 70
     1
102
RTVSPropertyOp32
 70
     1
102
RTVSPropertyOp33
 70
     1
102
RTVSPropertyOp34
 70
     1
102
RTVSPropertyOp35
 70
     1
102
RTVSPropertyOp36
 70
     1
102
RTVSPropertyOp37
 70
     1
102
RTVSPropertyOp38
 70
     1
102
RTVSPropertyOp39
 70
     1
102
RTVSPropertyOp40
 70
     1
102
RTVSPropertyOp41
 70
     1
102
RTVSPropertyOp42
 70
     1
102
RTVSPropertyOp43
 70
     1
102
RTVSPropertyOp44
 70
     1
102
RTVSPropertyOp45
 70
     1
102
RTVSPropertyOp46
 70
     1
102
RTVSPropertyOp47
 70
     1
102
RTVSPropertyOp48
 70
     1
102
RTVSPropertyOp49
 70
     1
102
RTVSPropertyOp50
 70
     1
102
RTVSPropertyOp51
 70
     0
102
RTVSPropertyOp52
 70
     0
102
RTVSPropertyOp53
 70
     1
102
RTVSPropertyOp54
 70
     1
102
RTVSPropertyOp55
 70
     1
102
RTVSPropertyOp56
 70
     1
102
RTVSPropertyOp57
 70
     1
102
RTVSPropertyOp58
 70
     1
102
RTVSPropertyOp59
 70
     1
102
RTVSPropertyOp60
 70
     1
102
RTVSPropertyOp61
 70
     1
102
RTVSPropertyOp62
 70
     1
  0
XRECORD
  5
1C8F
102
{ACAD_REACTORS
330
1C8E
102
}
330
1C8E
100
AcDbXrecord
280
     1
102
RTVSPost2010Prop28
280
     0
102
RTVSPost2010PropOp28
 70
     1
102
RTVSPost2010Prop29
280
     1
102
RTVSPost2010PropOp29
 70
     1
102
RTVSPost2010Prop30
280
     1
102
RTVSPost2010PropOp30
 70
     1
102
RTVSPost2010Prop31
280
     0
102
RTVSPost2010PropOp31
 70
     1
102
RTVSPost2010Prop32
280
     0
102
RTVSPost2010PropOp32
 70
     1
102
RTVSPost2010Prop33
280
     0
102
RTVSPost2010PropOp33
 70
     1
102
RTVSPost2010Prop34
280
     0
102
RTVSPost2010PropOp34
 70
     1
102
RTVSPost2010Prop35
280
     0
102
RTVSPost2010PropOp35
 70
     1
102
RTVSPost2010Prop36
280
     0
102
RTVSPost2010PropOp36
 70
     1
102
RTVSPost2010Prop37
 90
       50
102
RTVSPost2010PropOp37
 70
     1
102
RTVSPost2010Prop38
140
0.0
102
RTVSPost2010PropOp38
 70
     1
102
RTVSPost2010Prop39
140
1.0
102
RTVSPost2010PropOp39
 70
     1
102
RTVSPost2010Prop40
 90
        0
102
RTVSPost2010PropOp40
 70
     1
102
RTVSPost2010Prop41ColorIndex
 90
       18
102
RTVSPost2010Prop41ColorRGB
 90
        0
102
RTVSPost2010PropOp41
 70
     1
102
RTVSPost2010Prop42
 90
       50
102
RTVSPost2010PropOp42
 70
     1
102
RTVSPost2010Prop43
 90
        3
102
RTVSPost2010PropOp43
 70
     1
102
RTVSPost2010Prop44ColorIndex
 90
        5
102
RTVSPost2010Prop44ColorRGB
 90
      255
102
RTVSPost2010PropOp44
 70
     1
102
RTVSPost2010Prop45
280
     0
102
RTVSPost2010PropOp45
 70
     1
102
RTVSPost2010Prop46
 90
       50
102
RTVSPost2010PropOp46
 70
     1
102
RTVSPost2010Prop47
 90
       50
102
RTVSPost2010PropOp47
 70
     1
102
RTVSPost2010Prop48
 90
       50
102
RTVSPost2010PropOp48
 70
     1
102
RTVSPost2010Prop49
280
     0
102
RTVSPost2010PropOp49
 70
     1
102
RTVSPost2010Prop50
 90
       50
102
RTVSPost2010PropOp50
 70
     1
102
RTVSPost2010Prop51ColorIndex
 90
      256
102
RTVSPost2010Prop51ColorRGB
 90
-16777216
102
RTVSPost2010PropOp51
 70
     0
102
RTVSPost2010Prop52
140
1.0
102
RTVSPost2010PropOp52
 70
     0
102
RTVSPost2010Prop53
 90
        2
102
RTVSPost2010PropOp53
 70
     1
102
RTVSPost2010Prop54
  1
strokes_ogs.tif
102
RTVSPost2010PropOp54
 70
     1
102
RTVSPost2010Prop55
280
     0
102
RTVSPost2010PropOp55
 70
     1
102
RTVSPost2010Prop56
140
1.0
102
RTVSPost2010PropOp56
 70
     1
102
RTVSPost2010Prop57
140
1.0
102
RTVSPost2010PropOp57
 70
     1
102
RTVSPropertyOp0
 70
     1
102
RTVSPropertyOp1
 70
     1
102
RTVSPropertyOp2
 70
     1
102
RTVSPropertyOp3
 70
     1
102
RTVSPropertyOp4
 70
     1
102
RTVSPropertyOp5
 70
     1
102
RTVSPropertyOp6
 70
     1
102
RTVSPropertyOp7
 70
     1
102
RTVSPropertyOp8
 70
     1
102
RTVSPropertyOp9
 70
     1
102
RTVSPropertyOp10
 70
     1
102
RTVSPropertyOp11
 70
     1
102
RTVSPropertyOp12
 70
     1
102
RTVSPropertyOp13
 70
     1
102
RTVSPropertyOp14
 70
     1
102
RTVSPropertyOp15
 70
     1
102
RTVSPropertyOp16
 70
     1
102
RTVSPropertyOp17
 70
     1
102
RTVSPropertyOp18
 70
     1
102
RTVSPropertyOp19
 70
     1
102
RTVSPropertyOp20
 70
     1
102
RTVSPropertyOp21
 70
     1
102
RTVSPropertyOp22
 70
     1
102
RTVSPropertyOp23
 70
     1
102
RTVSPropertyOp24
 70
     1
102
RTVSPropertyOp25
 70
     1
102
RTVSPropertyOp26
 70
     1
102
RTVSPropertyOp27
 70
     1
102
RTVSPropertyOp28
 70
     1
102
RTVSPropertyOp29
 70
     1
102
RTVSPropertyOp30
 70
     1
102
RTVSPropertyOp31
 70
     1
102
RTVSPropertyOp32
 70
     1
102
RTVSPropertyOp33
 70
     1
102
RTVSPropertyOp34
 70
     1
102
RTVSPropertyOp35
 70
     1
102
RTVSPropertyOp36
 70
     1
102
RTVSPropertyOp37
 70
     1
102
RTVSPropertyOp38
 70
     1
102
RTVSPropertyOp39
 70
     1
102
RTVSPropertyOp40
 70
     1
102
RTVSPropertyOp41
 70
     1
102
RTVSPropertyOp42
 70
     1
102
RTVSPropertyOp43
 70
     1
102
RTVSPropertyOp44
 70
     1
102
RTVSPropertyOp45
 70
     1
102
RTVSPropertyOp46
 70
     1
102
RTVSPropertyOp47
 70
     1
102
RTVSPropertyOp48
 70
     1
102
RTVSPropertyOp49
 70
     1
102
RTVSPropertyOp50
 70
     1
102
RTVSPropertyOp51
 70
     0
102
RTVSPropertyOp52
 70
     0
102
RTVSPropertyOp53
 70
     1
102
RTVSPropertyOp54
 70
     1
102
RTVSPropertyOp55
 70
     1
102
RTVSPropertyOp56
 70
     1
102
RTVSPropertyOp57
 70
     1
102
RTVSPropertyOp58
 70
     1
102
RTVSPropertyOp59
 70
     1
102
RTVSPropertyOp60
 70
     1
102
RTVSPropertyOp61
 70
     1
102
RTVSPropertyOp62
 70
     1
  0
XRECORD
  5
1C89
102
{ACAD_REACTORS
330
1C88
102
}
330
1C88
100
AcDbXrecord
280
     1
102
RTVSPost2010Prop28
280
     0
102
RTVSPost2010PropOp28
 70
     1
102
RTVSPost2010Prop29
280
     1
102
RTVSPost2010PropOp29
 70
     1
102
RTVSPost2010Prop30
280
     1
102
RTVSPost2010PropOp30
 70
     1
102
RTVSPost2010Prop31
280
     0
102
RTVSPost2010PropOp31
 70
     1
102
RTVSPost2010Prop32
280
     0
102
RTVSPost2010PropOp32
 70
     1
102
RTVSPost2010Prop33
280
     0
102
RTVSPost2010PropOp33
 70
     1
102
RTVSPost2010Prop34
280
     0
102
RTVSPost2010PropOp34
 70
     1
102
RTVSPost2010Prop35
280
     0
102
RTVSPost2010PropOp35
 70
     1
102
RTVSPost2010Prop36
280
     0
102
RTVSPost2010PropOp36
 70
     1
102
RTVSPost2010Prop37
 90
       50
102
RTVSPost2010PropOp37
 70
     1
102
RTVSPost2010Prop38
140
0.0
102
RTVSPost2010PropOp38
 70
     1
102
RTVSPost2010Prop39
140
1.0
102
RTVSPost2010PropOp39
 70
     1
102
RTVSPost2010Prop40
 90
        0
102
RTVSPost2010PropOp40
 70
     1
102
RTVSPost2010Prop41ColorIndex
 90
       18
102
RTVSPost2010Prop41ColorRGB
 90
        0
102
RTVSPost2010PropOp41
 70
     1
102
RTVSPost2010Prop42
 90
       50
102
RTVSPost2010PropOp42
 70
     1
102
RTVSPost2010Prop43
 90
        3
102
RTVSPost2010PropOp43
 70
     1
102
RTVSPost2010Prop44ColorIndex
 90
        5
102
RTVSPost2010Prop44ColorRGB
 90
      255
102
RTVSPost2010PropOp44
 70
     1
102
RTVSPost2010Prop45
280
     0
102
RTVSPost2010PropOp45
 70
     1
102
RTVSPost2010Prop46
 90
       50
102
RTVSPost2010PropOp46
 70
     1
102
RTVSPost2010Prop47
 90
       50
102
RTVSPost2010PropOp47
 70
     1
102
RTVSPost2010Prop48
 90
       50
102
RTVSPost2010PropOp48
 70
     1
102
RTVSPost2010Prop49
280
     0
102
RTVSPost2010PropOp49
 70
     1
102
RTVSPost2010Prop50
 90
       50
102
RTVSPost2010PropOp50
 70
     1
102
RTVSPost2010Prop51ColorIndex
 90
      256
102
RTVSPost2010Prop51ColorRGB
 90
-16777216
102
RTVSPost2010PropOp51
 70
     0
102
RTVSPost2010Prop52
140
1.0
102
RTVSPost2010PropOp52
 70
     0
102
RTVSPost2010Prop53
 90
        2
102
RTVSPost2010PropOp53
 70
     1
102
RTVSPost2010Prop54
  1
strokes_ogs.tif
102
RTVSPost2010PropOp54
 70
     1
102
RTVSPost2010Prop55
280
     0
102
RTVSPost2010PropOp55
 70
     1
102
RTVSPost2010Prop56
140
1.0
102
RTVSPost2010PropOp56
 70
     1
102
RTVSPost2010Prop57
140
1.0
102
RTVSPost2010PropOp57
 70
     1
102
RTVSPropertyOp0
 70
     1
102
RTVSPropertyOp1
 70
     1
102
RTVSPropertyOp2
 70
     1
102
RTVSPropertyOp3
 70
     1
102
RTVSPropertyOp4
 70
     1
102
RTVSPropertyOp5
 70
     1
102
RTVSPropertyOp6
 70
     1
102
RTVSPropertyOp7
 70
     1
102
RTVSPropertyOp8
 70
     1
102
RTVSPropertyOp9
 70
     1
102
RTVSPropertyOp10
 70
     1
102
RTVSPropertyOp11
 70
     1
102
RTVSPropertyOp12
 70
     1
102
RTVSPropertyOp13
 70
     1
102
RTVSPropertyOp14
 70
     1
102
RTVSPropertyOp15
 70
     1
102
RTVSPropertyOp16
 70
     1
102
RTVSPropertyOp17
 70
     1
102
RTVSPropertyOp18
 70
     1
102
RTVSPropertyOp19
 70
     1
102
RTVSPropertyOp20
 70
     1
102
RTVSPropertyOp21
 70
     1
102
RTVSPropertyOp22
 70
     1
102
RTVSPropertyOp23
 70
     1
102
RTVSPropertyOp24
 70
     1
102
RTVSPropertyOp25
 70
     1
102
RTVSPropertyOp26
 70
     1
102
RTVSPropertyOp27
 70
     1
102
RTVSPropertyOp28
 70
     1
102
RTVSPropertyOp29
 70
     1
102
RTVSPropertyOp30
 70
     1
102
RTVSPropertyOp31
 70
     1
102
RTVSPropertyOp32
 70
     1
102
RTVSPropertyOp33
 70
     1
102
RTVSPropertyOp34
 70
     1
102
RTVSPropertyOp35
 70
     1
102
RTVSPropertyOp36
 70
     1
102
RTVSPropertyOp37
 70
     1
102
RTVSPropertyOp38
 70
     1
102
RTVSPropertyOp39
 70
     1
102
RTVSPropertyOp40
 70
     1
102
RTVSPropertyOp41
 70
     1
102
RTVSPropertyOp42
 70
     1
102
RTVSPropertyOp43
 70
     1
102
RTVSPropertyOp44
 70
     1
102
RTVSPropertyOp45
 70
     1
102
RTVSPropertyOp46
 70
     1
102
RTVSPropertyOp47
 70
     1
102
RTVSPropertyOp48
 70
     1
102
RTVSPropertyOp49
 70
     1
102
RTVSPropertyOp50
 70
     1
102
RTVSPropertyOp51
 70
     0
102
RTVSPropertyOp52
 70
     0
102
RTVSPropertyOp53
 70
     1
102
RTVSPropertyOp54
 70
     1
102
RTVSPropertyOp55
 70
     1
102
RTVSPropertyOp56
 70
     1
102
RTVSPropertyOp57
 70
     1
102
RTVSPropertyOp58
 70
     1
102
RTVSPropertyOp59
 70
     1
102
RTVSPropertyOp60
 70
     1
102
RTVSPropertyOp61
 70
     1
102
RTVSPropertyOp62
 70
     1
  0
XRECORD
  5
1C8B
102
{ACAD_REACTORS
330
1C8A
102
}
330
1C8A
100
AcDbXrecord
280
     1
102
RTVSPost2010Prop28
280
     0
102
RTVSPost2010PropOp28
 70
     1
102
RTVSPost2010Prop29
280
     1
102
RTVSPost2010PropOp29
 70
     1
102
RTVSPost2010Prop30
280
     1
102
RTVSPost2010PropOp30
 70
     1
102
RTVSPost2010Prop31
280
     0
102
RTVSPost2010PropOp31
 70
     1
102
RTVSPost2010Prop32
280
     0
102
RTVSPost2010PropOp32
 70
     1
102
RTVSPost2010Prop33
280
     0
102
RTVSPost2010PropOp33
 70
     1
102
RTVSPost2010Prop34
280
     0
102
RTVSPost2010PropOp34
 70
     1
102
RTVSPost2010Prop35
280
     0
102
RTVSPost2010PropOp35
 70
     1
102
RTVSPost2010Prop36
280
     0
102
RTVSPost2010PropOp36
 70
     1
102
RTVSPost2010Prop37
 90
       50
102
RTVSPost2010PropOp37
 70
     1
102
RTVSPost2010Prop38
140
0.0
102
RTVSPost2010PropOp38
 70
     1
102
RTVSPost2010Prop39
140
1.0
102
RTVSPost2010PropOp39
 70
     1
102
RTVSPost2010Prop40
 90
        0
102
RTVSPost2010PropOp40
 70
     1
102
RTVSPost2010Prop41ColorIndex
 90
       18
102
RTVSPost2010Prop41ColorRGB
 90
        0
102
RTVSPost2010PropOp41
 70
     1
102
RTVSPost2010Prop42
 90
       50
102
RTVSPost2010PropOp42
 70
     1
102
RTVSPost2010Prop43
 90
        3
102
RTVSPost2010PropOp43
 70
     1
102
RTVSPost2010Prop44ColorIndex
 90
        5
102
RTVSPost2010Prop44ColorRGB
 90
      255
102
RTVSPost2010PropOp44
 70
     1
102
RTVSPost2010Prop45
280
     0
102
RTVSPost2010PropOp45
 70
     1
102
RTVSPost2010Prop46
 90
       50
102
RTVSPost2010PropOp46
 70
     1
102
RTVSPost2010Prop47
 90
       50
102
RTVSPost2010PropOp47
 70
     1
102
RTVSPost2010Prop48
 90
       50
102
RTVSPost2010PropOp48
 70
     1
102
RTVSPost2010Prop49
280
     0
102
RTVSPost2010PropOp49
 70
     1
102
RTVSPost2010Prop50
 90
       50
102
RTVSPost2010PropOp50
 70
     1
102
RTVSPost2010Prop51ColorIndex
 90
      256
102
RTVSPost2010Prop51ColorRGB
 90
-16777216
102
RTVSPost2010PropOp51
 70
     0
102
RTVSPost2010Prop52
140
1.0
102
RTVSPost2010PropOp52
 70
     0
102
RTVSPost2010Prop53
 90
        2
102
RTVSPost2010PropOp53
 70
     1
102
RTVSPost2010Prop54
  1
strokes_ogs.tif
102
RTVSPost2010PropOp54
 70
     1
102
RTVSPost2010Prop55
280
     0
102
RTVSPost2010PropOp55
 70
     1
102
RTVSPost2010Prop56
140
1.0
102
RTVSPost2010PropOp56
 70
     1
102
RTVSPost2010Prop57
140
1.0
102
RTVSPost2010PropOp57
 70
     1
102
RTVSPropertyOp0
 70
     1
102
RTVSPropertyOp1
 70
     1
102
RTVSPropertyOp2
 70
     1
102
RTVSPropertyOp3
 70
     1
102
RTVSPropertyOp4
 70
     1
102
RTVSPropertyOp5
 70
     1
102
RTVSPropertyOp6
 70
     1
102
RTVSPropertyOp7
 70
     1
102
RTVSPropertyOp8
 70
     1
102
RTVSPropertyOp9
 70
     1
102
RTVSPropertyOp10
 70
     1
102
RTVSPropertyOp11
 70
     1
102
RTVSPropertyOp12
 70
     1
102
RTVSPropertyOp13
 70
     1
102
RTVSPropertyOp14
 70
     1
102
RTVSPropertyOp15
 70
     1
102
RTVSPropertyOp16
 70
     1
102
RTVSPropertyOp17
 70
     1
102
RTVSPropertyOp18
 70
     1
102
RTVSPropertyOp19
 70
     1
102
RTVSPropertyOp20
 70
     1
102
RTVSPropertyOp21
 70
     1
102
RTVSPropertyOp22
 70
     1
102
RTVSPropertyOp23
 70
     1
102
RTVSPropertyOp24
 70
     1
102
RTVSPropertyOp25
 70
     1
102
RTVSPropertyOp26
 70
     1
102
RTVSPropertyOp27
 70
     1
102
RTVSPropertyOp28
 70
     1
102
RTVSPropertyOp29
 70
     1
102
RTVSPropertyOp30
 70
     1
102
RTVSPropertyOp31
 70
     1
102
RTVSPropertyOp32
 70
     1
102
RTVSPropertyOp33
 70
     1
102
RTVSPropertyOp34
 70
     1
102
RTVSPropertyOp35
 70
     1
102
RTVSPropertyOp36
 70
     1
102
RTVSPropertyOp37
 70
     1
102
RTVSPropertyOp38
 70
     1
102
RTVSPropertyOp39
 70
     1
102
RTVSPropertyOp40
 70
     1
102
RTVSPropertyOp41
 70
     1
102
RTVSPropertyOp42
 70
     1
102
RTVSPropertyOp43
 70
     1
102
RTVSPropertyOp44
 70
     1
102
RTVSPropertyOp45
 70
     1
102
RTVSPropertyOp46
 70
     1
102
RTVSPropertyOp47
 70
     1
102
RTVSPropertyOp48
 70
     1
102
RTVSPropertyOp49
 70
     1
102
RTVSPropertyOp50
 70
     1
102
RTVSPropertyOp51
 70
     0
102
RTVSPropertyOp52
 70
     0
102
RTVSPropertyOp53
 70
     1
102
RTVSPropertyOp54
 70
     1
102
RTVSPropertyOp55
 70
     1
102
RTVSPropertyOp56
 70
     1
102
RTVSPropertyOp57
 70
     1
102
RTVSPropertyOp58
 70
     1
102
RTVSPropertyOp59
 70
     1
102
RTVSPropertyOp60
 70
     1
102
RTVSPropertyOp61
 70
     1
102
RTVSPropertyOp62
 70
     1
  0
XRECORD
  5
1C81
102
{ACAD_REACTORS
330
1C80
102
}
330
1C80
100
AcDbXrecord
280
     1
102
RTVSPost2010Prop28
280
     0
102
RTVSPost2010PropOp28
 70
     1
102
RTVSPost2010Prop29
280
     1
102
RTVSPost2010PropOp29
 70
     1
102
RTVSPost2010Prop30
280
     1
102
RTVSPost2010PropOp30
 70
     1
102
RTVSPost2010Prop31
280
     0
102
RTVSPost2010PropOp31
 70
     1
102
RTVSPost2010Prop32
280
     0
102
RTVSPost2010PropOp32
 70
     1
102
RTVSPost2010Prop33
280
     0
102
RTVSPost2010PropOp33
 70
     1
102
RTVSPost2010Prop34
280
     0
102
RTVSPost2010PropOp34
 70
     1
102
RTVSPost2010Prop35
280
     0
102
RTVSPost2010PropOp35
 70
     1
102
RTVSPost2010Prop36
280
     0
102
RTVSPost2010PropOp36
 70
     1
102
RTVSPost2010Prop37
 90
       50
102
RTVSPost2010PropOp37
 70
     1
102
RTVSPost2010Prop38
140
0.0
102
RTVSPost2010PropOp38
 70
     1
102
RTVSPost2010Prop39
140
1.0
102
RTVSPost2010PropOp39
 70
     1
102
RTVSPost2010Prop40
 90
        0
102
RTVSPost2010PropOp40
 70
     1
102
RTVSPost2010Prop41ColorIndex
 90
       18
102
RTVSPost2010Prop41ColorRGB
 90
        0
102
RTVSPost2010PropOp41
 70
     1
102
RTVSPost2010Prop42
 90
       50
102
RTVSPost2010PropOp42
 70
     1
102
RTVSPost2010Prop43
 90
        3
102
RTVSPost2010PropOp43
 70
     1
102
RTVSPost2010Prop44ColorIndex
 90
        5
102
RTVSPost2010Prop44ColorRGB
 90
      255
102
RTVSPost2010PropOp44
 70
     1
102
RTVSPost2010Prop45
280
     0
102
RTVSPost2010PropOp45
 70
     1
102
RTVSPost2010Prop46
 90
       50
102
RTVSPost2010PropOp46
 70
     1
102
RTVSPost2010Prop47
 90
       50
102
RTVSPost2010PropOp47
 70
     1
102
RTVSPost2010Prop48
 90
       50
102
RTVSPost2010PropOp48
 70
     1
102
RTVSPost2010Prop49
280
     0
102
RTVSPost2010PropOp49
 70
     1
102
RTVSPost2010Prop50
 90
       50
102
RTVSPost2010PropOp50
 70
     1
102
RTVSPost2010Prop51ColorIndex
 90
      256
102
RTVSPost2010Prop51ColorRGB
 90
-16777216
102
RTVSPost2010PropOp51
 70
     0
102
RTVSPost2010Prop52
140
1.0
102
RTVSPost2010PropOp52
 70
     0
102
RTVSPost2010Prop53
 90
        2
102
RTVSPost2010PropOp53
 70
     1
102
RTVSPost2010Prop54
  1
strokes_ogs.tif
102
RTVSPost2010PropOp54
 70
     1
102
RTVSPost2010Prop55
280
     0
102
RTVSPost2010PropOp55
 70
     1
102
RTVSPost2010Prop56
140
1.0
102
RTVSPost2010PropOp56
 70
     1
102
RTVSPost2010Prop57
140
1.0
102
RTVSPost2010PropOp57
 70
     1
102
RTVSPropertyOp0
 70
     1
102
RTVSPropertyOp1
 70
     1
102
RTVSPropertyOp2
 70
     1
102
RTVSPropertyOp3
 70
     1
102
RTVSPropertyOp4
 70
     1
102
RTVSPropertyOp5
 70
     1
102
RTVSPropertyOp6
 70
     1
102
RTVSPropertyOp7
 70
     1
102
RTVSPropertyOp8
 70
     1
102
RTVSPropertyOp9
 70
     1
102
RTVSPropertyOp10
 70
     1
102
RTVSPropertyOp11
 70
     1
102
RTVSPropertyOp12
 70
     1
102
RTVSPropertyOp13
 70
     1
102
RTVSPropertyOp14
 70
     1
102
RTVSPropertyOp15
 70
     1
102
RTVSPropertyOp16
 70
     1
102
RTVSPropertyOp17
 70
     1
102
RTVSPropertyOp18
 70
     1
102
RTVSPropertyOp19
 70
     1
102
RTVSPropertyOp20
 70
     1
102
RTVSPropertyOp21
 70
     1
102
RTVSPropertyOp22
 70
     1
102
RTVSPropertyOp23
 70
     1
102
RTVSPropertyOp24
 70
     1
102
RTVSPropertyOp25
 70
     1
102
RTVSPropertyOp26
 70
     1
102
RTVSPropertyOp27
 70
     1
102
RTVSPropertyOp28
 70
     1
102
RTVSPropertyOp29
 70
     1
102
RTVSPropertyOp30
 70
     1
102
RTVSPropertyOp31
 70
     1
102
RTVSPropertyOp32
 70
     1
102
RTVSPropertyOp33
 70
     1
102
RTVSPropertyOp34
 70
     1
102
RTVSPropertyOp35
 70
     1
102
RTVSPropertyOp36
 70
     1
102
RTVSPropertyOp37
 70
     1
102
RTVSPropertyOp38
 70
     1
102
RTVSPropertyOp39
 70
     1
102
RTVSPropertyOp40
 70
     1
102
RTVSPropertyOp41
 70
     1
102
RTVSPropertyOp42
 70
     1
102
RTVSPropertyOp43
 70
     1
102
RTVSPropertyOp44
 70
     1
102
RTVSPropertyOp45
 70
     1
102
RTVSPropertyOp46
 70
     1
102
RTVSPropertyOp47
 70
     1
102
RTVSPropertyOp48
 70
     1
102
RTVSPropertyOp49
 70
     1
102
RTVSPropertyOp50
 70
     1
102
RTVSPropertyOp51
 70
     0
102
RTVSPropertyOp52
 70
     0
102
RTVSPropertyOp53
 70
     1
102
RTVSPropertyOp54
 70
     1
102
RTVSPropertyOp55
 70
     1
102
RTVSPropertyOp56
 70
     1
102
RTVSPropertyOp57
 70
     1
102
RTVSPropertyOp58
 70
     1
102
RTVSPropertyOp59
 70
     1
102
RTVSPropertyOp60
 70
     1
102
RTVSPropertyOp61
 70
     1
102
RTVSPropertyOp62
 70
     1
  0
XRECORD
  5
1C75
102
{ACAD_REACTORS
330
1C74
102
}
330
1C74
100
AcDbXrecord
280
     1
102
RTVSPost2010Prop28
280
     0
102
RTVSPost2010PropOp28
 70
     1
102
RTVSPost2010Prop29
280
     1
102
RTVSPost2010PropOp29
 70
     1
102
RTVSPost2010Prop30
280
     1
102
RTVSPost2010PropOp30
 70
     1
102
RTVSPost2010Prop31
280
     0
102
RTVSPost2010PropOp31
 70
     1
102
RTVSPost2010Prop32
280
     0
102
RTVSPost2010PropOp32
 70
     1
102
RTVSPost2010Prop33
280
     0
102
RTVSPost2010PropOp33
 70
     1
102
RTVSPost2010Prop34
280
     0
102
RTVSPost2010PropOp34
 70
     1
102
RTVSPost2010Prop35
280
     0
102
RTVSPost2010PropOp35
 70
     1
102
RTVSPost2010Prop36
280
     0
102
RTVSPost2010PropOp36
 70
     1
102
RTVSPost2010Prop37
 90
       50
102
RTVSPost2010PropOp37
 70
     1
102
RTVSPost2010Prop38
140
0.0
102
RTVSPost2010PropOp38
 70
     1
102
RTVSPost2010Prop39
140
1.0
102
RTVSPost2010PropOp39
 70
     1
102
RTVSPost2010Prop40
 90
        0
102
RTVSPost2010PropOp40
 70
     1
102
RTVSPost2010Prop41ColorIndex
 90
       18
102
RTVSPost2010Prop41ColorRGB
 90
        0
102
RTVSPost2010PropOp41
 70
     1
102
RTVSPost2010Prop42
 90
       50
102
RTVSPost2010PropOp42
 70
     1
102
RTVSPost2010Prop43
 90
        3
102
RTVSPost2010PropOp43
 70
     1
102
RTVSPost2010Prop44ColorIndex
 90
        5
102
RTVSPost2010Prop44ColorRGB
 90
      255
102
RTVSPost2010PropOp44
 70
     1
102
RTVSPost2010Prop45
280
     0
102
RTVSPost2010PropOp45
 70
     1
102
RTVSPost2010Prop46
 90
       50
102
RTVSPost2010PropOp46
 70
     1
102
RTVSPost2010Prop47
 90
       50
102
RTVSPost2010PropOp47
 70
     1
102
RTVSPost2010Prop48
 90
       50
102
RTVSPost2010PropOp48
 70
     1
102
RTVSPost2010Prop49
280
     0
102
RTVSPost2010PropOp49
 70
     1
102
RTVSPost2010Prop50
 90
       50
102
RTVSPost2010PropOp50
 70
     1
102
RTVSPost2010Prop51ColorIndex
 90
      256
102
RTVSPost2010Prop51ColorRGB
 90
-16777216
102
RTVSPost2010PropOp51
 70
     0
102
RTVSPost2010Prop52
140
1.0
102
RTVSPost2010PropOp52
 70
     0
102
RTVSPost2010Prop53
 90
        2
102
RTVSPost2010PropOp53
 70
     1
102
RTVSPost2010Prop54
  1
strokes_ogs.tif
102
RTVSPost2010PropOp54
 70
     1
102
RTVSPost2010Prop55
280
     0
102
RTVSPost2010PropOp55
 70
     1
102
RTVSPost2010Prop56
140
1.0
102
RTVSPost2010PropOp56
 70
     1
102
RTVSPost2010Prop57
140
1.0
102
RTVSPost2010PropOp57
 70
     1
102
RTVSPropertyOp0
 70
     1
102
RTVSPropertyOp1
 70
     1
102
RTVSPropertyOp2
 70
     1
102
RTVSPropertyOp3
 70
     1
102
RTVSPropertyOp4
 70
     1
102
RTVSPropertyOp5
 70
     1
102
RTVSPropertyOp6
 70
     1
102
RTVSPropertyOp7
 70
     1
102
RTVSPropertyOp8
 70
     1
102
RTVSPropertyOp9
 70
     1
102
RTVSPropertyOp10
 70
     1
102
RTVSPropertyOp11
 70
     1
102
RTVSPropertyOp12
 70
     1
102
RTVSPropertyOp13
 70
     1
102
RTVSPropertyOp14
 70
     1
102
RTVSPropertyOp15
 70
     1
102
RTVSPropertyOp16
 70
     1
102
RTVSPropertyOp17
 70
     1
102
RTVSPropertyOp18
 70
     1
102
RTVSPropertyOp19
 70
     1
102
RTVSPropertyOp20
 70
     1
102
RTVSPropertyOp21
 70
     1
102
RTVSPropertyOp22
 70
     1
102
RTVSPropertyOp23
 70
     1
102
RTVSPropertyOp24
 70
     1
102
RTVSPropertyOp25
 70
     1
102
RTVSPropertyOp26
 70
     1
102
RTVSPropertyOp27
 70
     1
102
RTVSPropertyOp28
 70
     1
102
RTVSPropertyOp29
 70
     1
102
RTVSPropertyOp30
 70
     1
102
RTVSPropertyOp31
 70
     1
102
RTVSPropertyOp32
 70
     1
102
RTVSPropertyOp33
 70
     1
102
RTVSPropertyOp34
 70
     1
102
RTVSPropertyOp35
 70
     1
102
RTVSPropertyOp36
 70
     1
102
RTVSPropertyOp37
 70
     1
102
RTVSPropertyOp38
 70
     1
102
RTVSPropertyOp39
 70
     1
102
RTVSPropertyOp40
 70
     1
102
RTVSPropertyOp41
 70
     1
102
RTVSPropertyOp42
 70
     1
102
RTVSPropertyOp43
 70
     1
102
RTVSPropertyOp44
 70
     1
102
RTVSPropertyOp45
 70
     1
102
RTVSPropertyOp46
 70
     1
102
RTVSPropertyOp47
 70
     1
102
RTVSPropertyOp48
 70
     1
102
RTVSPropertyOp49
 70
     1
102
RTVSPropertyOp50
 70
     1
102
RTVSPropertyOp51
 70
     0
102
RTVSPropertyOp52
 70
     0
102
RTVSPropertyOp53
 70
     1
102
RTVSPropertyOp54
 70
     1
102
RTVSPropertyOp55
 70
     1
102
RTVSPropertyOp56
 70
     1
102
RTVSPropertyOp57
 70
     1
102
RTVSPropertyOp58
 70
     1
102
RTVSPropertyOp59
 70
     1
102
RTVSPropertyOp60
 70
     1
102
RTVSPropertyOp61
 70
     1
102
RTVSPropertyOp62
 70
     1
  0
XRECORD
  5
1C8D
102
{ACAD_REACTORS
330
1C8C
102
}
330
1C8C
100
AcDbXrecord
280
     1
102
RTVSPost2010Prop28
280
     0
102
RTVSPost2010PropOp28
 70
     1
102
RTVSPost2010Prop29
280
     1
102
RTVSPost2010PropOp29
 70
     1
102
RTVSPost2010Prop30
280
     1
102
RTVSPost2010PropOp30
 70
     1
102
RTVSPost2010Prop31
280
     0
102
RTVSPost2010PropOp31
 70
     1
102
RTVSPost2010Prop32
280
     0
102
RTVSPost2010PropOp32
 70
     1
102
RTVSPost2010Prop33
280
     0
102
RTVSPost2010PropOp33
 70
     1
102
RTVSPost2010Prop34
280
     0
102
RTVSPost2010PropOp34
 70
     1
102
RTVSPost2010Prop35
280
     0
102
RTVSPost2010PropOp35
 70
     1
102
RTVSPost2010Prop36
280
     0
102
RTVSPost2010PropOp36
 70
     1
102
RTVSPost2010Prop37
 90
       50
102
RTVSPost2010PropOp37
 70
     1
102
RTVSPost2010Prop38
140
0.0
102
RTVSPost2010PropOp38
 70
     1
102
RTVSPost2010Prop39
140
1.0
102
RTVSPost2010PropOp39
 70
     1
102
RTVSPost2010Prop40
 90
        0
102
RTVSPost2010PropOp40
 70
     1
102
RTVSPost2010Prop41ColorIndex
 90
       18
102
RTVSPost2010Prop41ColorRGB
 90
        0
102
RTVSPost2010PropOp41
 70
     1
102
RTVSPost2010Prop42
 90
       50
102
RTVSPost2010PropOp42
 70
     1
102
RTVSPost2010Prop43
 90
        3
102
RTVSPost2010PropOp43
 70
     1
102
RTVSPost2010Prop44ColorIndex
 90
        5
102
RTVSPost2010Prop44ColorRGB
 90
      255
102
RTVSPost2010PropOp44
 70
     1
102
RTVSPost2010Prop45
280
     0
102
RTVSPost2010PropOp45
 70
     1
102
RTVSPost2010Prop46
 90
       50
102
RTVSPost2010PropOp46
 70
     1
102
RTVSPost2010Prop47
 90
       50
102
RTVSPost2010PropOp47
 70
     1
102
RTVSPost2010Prop48
 90
       50
102
RTVSPost2010PropOp48
 70
     1
102
RTVSPost2010Prop49
280
     0
102
RTVSPost2010PropOp49
 70
     1
102
RTVSPost2010Prop50
 90
       50
102
RTVSPost2010PropOp50
 70
     1
102
RTVSPost2010Prop51ColorIndex
 90
      256
102
RTVSPost2010Prop51ColorRGB
 90
-16777216
102
RTVSPost2010PropOp51
 70
     0
102
RTVSPost2010Prop52
140
1.0
102
RTVSPost2010PropOp52
 70
     0
102
RTVSPost2010Prop53
 90
        2
102
RTVSPost2010PropOp53
 70
     1
102
RTVSPost2010Prop54
  1
strokes_ogs.tif
102
RTVSPost2010PropOp54
 70
     1
102
RTVSPost2010Prop55
280
     0
102
RTVSPost2010PropOp55
 70
     1
102
RTVSPost2010Prop56
140
1.0
102
RTVSPost2010PropOp56
 70
     1
102
RTVSPost2010Prop57
140
1.0
102
RTVSPost2010PropOp57
 70
     1
102
RTVSPropertyOp0
 70
     1
102
RTVSPropertyOp1
 70
     1
102
RTVSPropertyOp2
 70
     1
102
RTVSPropertyOp3
 70
     1
102
RTVSPropertyOp4
 70
     1
102
RTVSPropertyOp5
 70
     1
102
RTVSPropertyOp6
 70
     1
102
RTVSPropertyOp7
 70
     1
102
RTVSPropertyOp8
 70
     1
102
RTVSPropertyOp9
 70
     1
102
RTVSPropertyOp10
 70
     1
102
RTVSPropertyOp11
 70
     1
102
RTVSPropertyOp12
 70
     1
102
RTVSPropertyOp13
 70
     1
102
RTVSPropertyOp14
 70
     1
102
RTVSPropertyOp15
 70
     1
102
RTVSPropertyOp16
 70
     1
102
RTVSPropertyOp17
 70
     1
102
RTVSPropertyOp18
 70
     1
102
RTVSPropertyOp19
 70
     1
102
RTVSPropertyOp20
 70
     1
102
RTVSPropertyOp21
 70
     1
102
RTVSPropertyOp22
 70
     1
102
RTVSPropertyOp23
 70
     1
102
RTVSPropertyOp24
 70
     1
102
RTVSPropertyOp25
 70
     1
102
RTVSPropertyOp26
 70
     1
102
RTVSPropertyOp27
 70
     1
102
RTVSPropertyOp28
 70
     1
102
RTVSPropertyOp29
 70
     1
102
RTVSPropertyOp30
 70
     1
102
RTVSPropertyOp31
 70
     1
102
RTVSPropertyOp32
 70
     1
102
RTVSPropertyOp33
 70
     1
102
RTVSPropertyOp34
 70
     1
102
RTVSPropertyOp35
 70
     1
102
RTVSPropertyOp36
 70
     1
102
RTVSPropertyOp37
 70
     1
102
RTVSPropertyOp38
 70
     1
102
RTVSPropertyOp39
 70
     1
102
RTVSPropertyOp40
 70
     1
102
RTVSPropertyOp41
 70
     1
102
RTVSPropertyOp42
 70
     1
102
RTVSPropertyOp43
 70
     1
102
RTVSPropertyOp44
 70
     1
102
RTVSPropertyOp45
 70
     1
102
RTVSPropertyOp46
 70
     1
102
RTVSPropertyOp47
 70
     1
102
RTVSPropertyOp48
 70
     1
102
RTVSPropertyOp49
 70
     1
102
RTVSPropertyOp50
 70
     1
102
RTVSPropertyOp51
 70
     0
102
RTVSPropertyOp52
 70
     0
102
RTVSPropertyOp53
 70
     1
102
RTVSPropertyOp54
 70
     1
102
RTVSPropertyOp55
 70
     1
102
RTVSPropertyOp56
 70
     1
102
RTVSPropertyOp57
 70
     1
102
RTVSPropertyOp58
 70
     1
102
RTVSPropertyOp59
 70
     1
102
RTVSPropertyOp60
 70
     1
102
RTVSPropertyOp61
 70
     1
102
RTVSPropertyOp62
 70
     1
  0
ENDSEC
  0
EOF
