  0
SECTION
  2
HEADER
  9
$ACADVER
  1
AC1015
  9
$ACADMAINTVER
 70
    20
  9
$DWGCODEPAGE
  3
ANSI_932
  9
$INSBASE
 10
0.0
 20
0.0
 30
0.0
  9
$EXTMIN
 10
9.9999975266385
 20
10.0
 30
0.0
  9
$EXTMAX
 10
484.0415906063006
 20
318.438618878842
 30
0.0
  9
$LIMMIN
 10
0.0000015376081137
 20
-0.0000001931532552
  9
$LIMMAX
 10
495.0000015376081
 20
341.2499998068465
  9
$ORTHOMODE
 70
     1
  9
$REGENMODE
 70
     1
  9
$FILLMODE
 70
     1
  9
$QTEXTMODE
 70
     0
  9
$MIRRTEXT
 70
     1
  9
$LTSCALE
 40
1.0
  9
$ATTMODE
 70
     1
  9
$TEXTSIZE
 40
2.5
  9
$TRACEWID
 40
1.0
  9
$TEXTSTYLE
  7
STANDARD
  9
$CLAYER
  8
0
  9
$CELTYPE
  6
BYLAYER
  9
$CECOLOR
 62
   256
  9
$CELTSCALE
 40
1.0
  9
$DISPSILH
 70
     0
  9
$DIMSCALE
 40
1.0
  9
$DIMASZ
 40
3.0
  9
$DIMEXO
 40
1.0
  9
$DIMDLI
 40
10.0
  9
$DIMRND
 40
0.0
  9
$DIMDLE
 40
0.0
  9
$DIMEXE
 40
1.0
  9
$DIMTP
 40
0.0
  9
$DIMTM
 40
0.0
  9
$DIMTXT
 40
3.2
  9
$DIMCEN
 40
0.0
  9
$DIMTSZ
 40
0.0
  9
$DIMTOL
 70
     0
  9
$DIMLIM
 70
     0
  9
$DIMTIH
 70
     0
  9
$DIMTOH
 70
     0
  9
$DIMSE1
 70
     0
  9
$DIMSE2
 70
     0
  9
$DIMTAD
 70
     3
  9
$DIMZIN
 70
     8
  9
$DIMBLK
  1

  9
$DIMASO
 70
     1
  9
$DIMSHO
 70
     1
  9
$DIMPOST
  1

  9
$DIMAPOST
  1

  9
$DIMALT
 70
     0
  9
$DIMALTD
 70
     2
  9
$DIMALTF
 40
25.4
  9
$DIMLFAC
 40
1.0
  9
$DIMTOFL
 70
     1
  9
$DIMTVP
 40
0.0
  9
$DIMTIX
 70
     0
  9
$DIMSOXD
 70
     0
  9
$DIMSAH
 70
     1
  9
$DIMBLK1
  1
OPEN
  9
$DIMBLK2
  1
OPEN
  9
$DIMSTYLE
  2
STANDARD
  9
$DIMCLRD
 70
     0
  9
$DIMCLRE
 70
     0
  9
$DIMCLRT
 70
     0
  9
$DIMTFAC
 40
1.0
  9
$DIMGAP
 40
1.0
  9
$DIMJUST
 70
     0
  9
$DIMSD1
 70
     0
  9
$DIMSD2
 70
     0
  9
$DIMTOLJ
 70
     1
  9
$DIMTZIN
 70
     0
  9
$DIMALTZ
 70
     0
  9
$DIMALTTZ
 70
     0
  9
$DIMUPT
 70
     0
  9
$DIMDEC
 70
     4
  9
$DIMTDEC
 70
     4
  9
$DIMALTU
 70
     2
  9
$DIMALTTD
 70
     2
  9
$DIMTXSTY
  7
STANDARD
  9
$DIMAUNIT
 70
     0
  9
$DIMADEC
 70
     0
  9
$DIMALTRND
 40
0.0
  9
$DIMAZIN
 70
     0
  9
$DIMDSEP
 70
    46
  9
$DIMATFIT
 70
     3
  9
$DIMFRAC
 70
     0
  9
$DIMLDRBLK
  1
OPEN
  9
$DIMLUNIT
 70
     2
  9
$DIMLWD
 70
    -2
  9
$DIMLWE
 70
    -2
  9
$DIMTMOVE
 70
     0
  9
$LUNITS
 70
     2
  9
$LUPREC
 70
     4
  9
$SKETCHINC
 40
1.0
  9
$FILLETRAD
 40
0.0
  9
$AUNITS
 70
     0
  9
$AUPREC
 70
     0
  9
$MENU
  1
.
  9
$ELEVATION
 40
0.0
  9
$PELEVATION
 40
0.0
  9
$THICKNESS
 40
0.0
  9
$LIMCHECK
 70
     0
  9
$CHAMFERA
 40
10.0
  9
$CHAMFERB
 40
10.0
  9
$CHAMFERC
 40
20.0
  9
$CHAMFERD
 40
0.0
  9
$SKPOLY
 70
     0
  9
$TDCREATE
 40
2453811.402924803
  9
$TDUCREATE
 40
2453811.027924803
  9
$TDUPDATE
 40
2457192.691324271
  9
$TDUUPDATE
 40
2457192.316324271
  9
$TDINDWG
 40
0.0862825926
  9
$TDUSRTIMER
 40
0.0862825231
  9
$USRTIMER
 70
     1
  9
$ANGBASE
 50
0.0
  9
$ANGDIR
 70
     0
  9
$PDMODE
 70
     0
  9
$PDSIZE
 40
0.0
  9
$PLINEWID
 40
0.0
  9
$SPLFRAME
 70
     0
  9
$SPLINETYPE
 70
     6
  9
$SPLINESEGS
 70
     8
  9
$HANDSEED
  5
2763
  9
$SURFTAB1
 70
     6
  9
$SURFTAB2
 70
     6
  9
$SURFTYPE
 70
     6
  9
$SURFU
 70
     6
  9
$SURFV
 70
     6
  9
$UCSBASE
  2

  9
$UCSNAME
  2

  9
$UCSORG
 10
0.0
 20
0.0
 30
0.0
  9
$UCSXDIR
 10
1.0
 20
0.0
 30
0.0
  9
$UCSYDIR
 10
0.0
 20
1.0
 30
0.0
  9
$UCSORTHOREF
  2

  9
$UCSORTHOVIEW
 70
     0
  9
$UCSORGTOP
 10
0.0
 20
0.0
 30
0.0
  9
$UCSORGBOTTOM
 10
0.0
 20
0.0
 30
0.0
  9
$UCSORGLEFT
 10
0.0
 20
0.0
 30
0.0
  9
$UCSORGRIGHT
 10
0.0
 20
0.0
 30
0.0
  9
$UCSORGFRONT
 10
0.0
 20
0.0
 30
0.0
  9
$UCSORGBACK
 10
0.0
 20
0.0
 30
0.0
  9
$PUCSBASE
  2

  9
$PUCSNAME
  2

  9
$PUCSORG
 10
0.0
 20
0.0
 30
0.0
  9
$PUCSXDIR
 10
1.0
 20
0.0
 30
0.0
  9
$PUCSYDIR
 10
0.0
 20
1.0
 30
0.0
  9
$PUCSORTHOREF
  2

  9
$PUCSORTHOVIEW
 70
     0
  9
$PUCSORGTOP
 10
0.0
 20
0.0
 30
0.0
  9
$PUCSORGBOTTOM
 10
0.0
 20
0.0
 30
0.0
  9
$PUCSORGLEFT
 10
0.0
 20
0.0
 30
0.0
  9
$PUCSORGRIGHT
 10
0.0
 20
0.0
 30
0.0
  9
$PUCSORGFRONT
 10
0.0
 20
0.0
 30
0.0
  9
$PUCSORGBACK
 10
0.0
 20
0.0
 30
0.0
  9
$USERI1
 70
     0
  9
$USERI2
 70
     0
  9
$USERI3
 70
     0
  9
$USERI4
 70
     0
  9
$USERI5
 70
     0
  9
$USERR1
 40
0.0
  9
$USERR2
 40
0.0
  9
$USERR3
 40
0.0
  9
$USERR4
 40
0.0
  9
$USERR5
 40
0.0
  9
$WORLDVIEW
 70
     1
  9
$SHADEDGE
 70
     3
  9
$SHADEDIF
 70
    70
  9
$TILEMODE
 70
     1
  9
$MAXACTVP
 70
    48
  9
$PINSBASE
 10
0.0
 20
0.0
 30
0.0
  9
$PLIMCHECK
 70
     0
  9
$PEXTMIN
 10
1.000000000000000E+20
 20
1.000000000000000E+20
 30
1.000000000000000E+20
  9
$PEXTMAX
 10
-1.000000000000000E+20
 20
-1.000000000000000E+20
 30
-1.000000000000000E+20
  9
$PLIMMIN
 10
0.0
 20
0.0
  9
$PLIMMAX
 10
420.0
 20
297.0
  9
$UNITMODE
 70
     0
  9
$VISRETAIN
 70
     1
  9
$PLINEGEN
 70
     0
  9
$PSLTSCALE
 70
     1
  9
$TREEDEPTH
 70
  3020
  9
$CMLSTYLE
  2
STANDARD
  9
$CMLJUST
 70
     0
  9
$CMLSCALE
 40
20.0
  9
$PROXYGRAPHICS
 70
     1
  9
$MEASUREMENT
 70
     0
  9
$CELWEIGHT
370
    -1
  9
$ENDCAPS
280
     0
  9
$JOINSTYLE
280
     0
  9
$LWDISPLAY
290
     0
  9
$INSUNITS
 70
     0
  9
$HYPERLINKBASE
  1

  9
$STYLESHEET
  1

  9
$XEDIT
290
     1
  9
$CEPSNTYPE
380
     0
  9
$PSTYLEMODE
290
     1
  9
$FINGERPRINTGUID
  2
{D40220DF-A793-4A4F-8278-D8F10F7A7290}
  9
$VERSIONGUID
  2
{CF393495-D129-4C02-B1E9-B6046EB8D3C6}
  9
$EXTNAMES
290
     1
  9
$PSVPSCALE
 40
0.0
  9
$OLESTARTUP
290
     0
  0
ENDSEC
  0
SECTION
  2
CLASSES
  0
CLASS
  1
ACDBDICTIONARYWDFLT
  2
AcDbDictionaryWithDefault
  3
ObjectDBX Classes
 90
        0
280
     0
281
     0
  0
CLASS
  1
ACDBPLACEHOLDER
  2
AcDbPlaceHolder
  3
ObjectDBX Classes
 90
        0
280
     0
281
     0
  0
CLASS
  1
LAYOUT
  2
AcDbLayout
  3
ObjectDBX Classes
 90
        0
280
     0
281
     0
  0
CLASS
  1
DICTIONARYVAR
  2
AcDbDictionaryVar
  3
ObjectDBX Classes
 90
        0
280
     0
281
     0
  0
CLASS
  1
MATERIAL
  2
AcDbMaterial
  3
ObjectDBX Classes
 90
     1153
280
     0
281
     0
  0
CLASS
  1
VISUALSTYLE
  2
AcDbVisualStyle
  3
ObjectDBX Classes
 90
     4095
280
     0
281
     0
  0
CLASS
  1
TABLESTYLE
  2
AcDbTableStyle
  3
ObjectDBX Classes
 90
     4095
280
     0
281
     0
  0
CLASS
  1
SCALE
  2
AcDbScale
  3
ObjectDBX Classes
 90
     1153
280
     0
281
     0
  0
CLASS
  1
MLEADERSTYLE
  2
AcDbMLeaderStyle
  3
ACDB_MLEADERSTYLE_CLASS
 90
     4095
280
     0
281
     0
  0
CLASS
  1
ACDBSECTIONVIEWSTYLE
  2
AcDbSectionViewStyle
  3
ObjectDBX Classes
 90
     1025
280
     0
281
     0
  0
CLASS
  1
ACDBDETAILVIEWSTYLE
  2
AcDbDetailViewStyle
  3
ObjectDBX Classes
 90
     1025
280
     0
281
     0
  0
CLASS
  1
CELLSTYLEMAP
  2
AcDbCellStyleMap
  3
ObjectDBX Classes
 90
     1152
280
     0
281
     0
  0
ENDSEC
  0
SECTION
  2
TABLES
  0
TABLE
  2
VPORT
  5
8
330
0
100
AcDbSymbolTable
 70
     1
  0
VPORT
  5
266B
330
8
100
AcDbSymbolTableRecord
100
AcDbViewportTableRecord
  2
*ACTIVE
 70
     0
 10
0.0
 20
0.0
 11
1.0
 21
1.0
 12
271.1150866945729
 22
170.6249998068466
 13
0.0
 23
0.0
 14
10.0
 24
10.0
 15
10.0
 25
10.0
 16
0.0
 26
0.0
 36
1.0
 17
0.0
 27
0.0
 37
0.0
 40
343.7934782608694
 41
2.35006605019815
 42
50.0
 43
0.0
 44
0.0
 50
0.0
 51
0.0
 71
     0
 72
   100
 73
     1
 74
     0
 75
     0
 76
     0
 77
     0
 78
     0
281
     0
 65
     1
110
0.0
120
0.0
130
0.0
111
1.0
121
0.0
131
0.0
112
0.0
122
1.0
132
0.0
 79
     0
146
0.0
1001
ACAD_NAV_VCDISPLAY
1070
     3
  0
ENDTAB
  0
TABLE
  2
LTYPE
  5
5
330
0
100
AcDbSymbolTable
 70
     4
  0
LTYPE
  5
12
330
5
100
AcDbSymbolTableRecord
100
AcDbLinetypeTableRecord
  2
BYBLOCK
 70
     0
  3

 72
    65
 73
     0
 40
0.0
  0
LTYPE
  5
13
330
5
100
AcDbSymbolTableRecord
100
AcDbLinetypeTableRecord
  2
BYLAYER
 70
     0
  3

 72
    65
 73
     0
 40
0.0
  0
LTYPE
  5
14
330
5
100
AcDbSymbolTableRecord
100
AcDbLinetypeTableRecord
  2
CONTINUOUS
 70
     0
  3
Solid line
 72
    65
 73
     0
 40
0.0
  0
LTYPE
  5
4B
330
5
100
AcDbSymbolTableRecord
100
AcDbLinetypeTableRecord
  2
DASHED
 70
     0
  3
Dashed __ __ __ __ __ __ __ __ __ __ __ __ __ _
 72
    65
 73
     2
 40
19.04999999999999
 49
12.7
 74
     0
 49
-6.349999999999997
 74
     0
  0
LTYPE
  5
4C
330
5
100
AcDbSymbolTableRecord
100
AcDbLinetypeTableRecord
  2
CENTER
 70
     0
  3
Center ____ _ ____ _ ____ _ ____ _ ____ _ ____
 72
    65
 73
     4
 40
50.8
 49
31.75
 74
     0
 49
-6.349999999999997
 74
     0
 49
6.349999999999997
 74
     0
 49
-6.349999999999997
 74
     0
  0
LTYPE
  5
4D
330
5
100
AcDbSymbolTableRecord
100
AcDbLinetypeTableRecord
  2
PHANTOM
 70
     0
  3
Phantom ______  __  __  ______  __  __  ______
 72
    65
 73
     6
 40
63.5
 49
31.75
 74
     0
 49
-6.349999999999997
 74
     0
 49
6.349999999999997
 74
     0
 49
-6.349999999999997
 74
     0
 49
6.349999999999997
 74
     0
 49
-6.349999999999997
 74
     0
  0
ENDTAB
  0
TABLE
  2
LAYER
  5
2
330
0
100
AcDbSymbolTable
 70
     8
  0
LAYER
  5
E
102
{ACAD_XDICTIONARY
360
26C7
102
}
330
2
100
AcDbSymbolTableRecord
100
AcDbLayerTableRecord
  2
0
 70
     0
 62
     7
  6
CONTINUOUS
370
    -3
390
2674
  0
LAYER
  5
4E
102
{ACAD_XDICTIONARY
360
26C9
102
}
330
2
100
AcDbSymbolTableRecord
100
AcDbLayerTableRecord
  2
4
 70
     0
 62
     1
  6
CENTER
370
    -3
390
2674
  0
LAYER
  5
4F
102
{ACAD_XDICTIONARY
360
26CB
102
}
330
2
100
AcDbSymbolTableRecord
100
AcDbLayerTableRecord
  2
5
 70
     0
 62
     6
  6
PHANTOM
370
    -3
390
2674
  0
LAYER
  5
50
102
{ACAD_XDICTIONARY
360
26CD
102
}
330
2
100
AcDbSymbolTableRecord
100
AcDbLayerTableRecord
  2
1
 70
     0
 62
     7
  6
CONTINUOUS
370
    -3
390
2674
  0
LAYER
  5
51
102
{ACAD_XDICTIONARY
360
26CF
102
}
330
2
100
AcDbSymbolTableRecord
100
AcDbLayerTableRecord
  2
2
 70
     0
 62
     4
  6
CONTINUOUS
370
    -3
390
2674
  0
LAYER
  5
52
102
{ACAD_XDICTIONARY
360
26D1
102
}
330
2
100
AcDbSymbolTableRecord
100
AcDbLayerTableRecord
  2
3
 70
     0
 62
     2
  6
DASHED
370
    -3
390
2674
  0
LAYER
  5
53
102
{ACAD_XDICTIONARY
360
26D3
102
}
330
2
100
AcDbSymbolTableRecord
100
AcDbLayerTableRecord
  2
6
 70
     0
 62
     5
  6
CONTINUOUS
370
    -3
390
2674
  0
LAYER
  5
54
102
{ACAD_XDICTIONARY
360
26D5
102
}
330
2
100
AcDbSymbolTableRecord
100
AcDbLayerTableRecord
  2
7
 70
     0
 62
     3
  6
CONTINUOUS
370
    -3
390
2674
  0
ENDTAB
  0
TABLE
  2
STYLE
  5
3
330
0
100
AcDbSymbolTable
 70
     1
  0
STYLE
  5
F
330
3
100
AcDbSymbolTableRecord
100
AcDbTextStyleTableRecord
  2
STANDARD
 70
     0
 40
0.0
 41
1.0
 50
0.0
 71
     0
 42
2.5
  3
simplex.shx
  4

  0
ENDTAB
  0
TABLE
  2
VIEW
  5
6
330
0
100
AcDbSymbolTable
 70
     0
  0
ENDTAB
  0
TABLE
  2
UCS
  5
7
330
0
100
AcDbSymbolTable
 70
     0
  0
ENDTAB
  0
TABLE
  2
APPID
  5
9
330
0
100
AcDbSymbolTable
 70
     6
  0
APPID
  5
10
330
9
100
AcDbSymbolTableRecord
100
AcDbRegAppTableRecord
  2
ACAD
 70
     0
  0
APPID
  5
3E
330
9
100
AcDbSymbolTableRecord
100
AcDbRegAppTableRecord
  2
CONTENTTABDATA
 70
     0
  0
APPID
  5
3F
330
9
100
AcDbSymbolTableRecord
100
AcDbRegAppTableRecord
  2
CONTENTCURRENTTAB
 70
     0
  0
APPID
  5
26C5
330
9
100
AcDbSymbolTableRecord
100
AcDbRegAppTableRecord
  2
ACAD_EXEMPT_FROM_CAD_STANDARDS
 70
     0
  0
APPID
  5
26E1
330
9
100
AcDbSymbolTableRecord
100
AcDbRegAppTableRecord
  2
ACAD_NAV_VCDISPLAY
 70
     0
  0
APPID
  5
271A
330
9
100
AcDbSymbolTableRecord
100
AcDbRegAppTableRecord
  2
ACAD_MLEADERVER
 70
     0
  0
ENDTAB
  0
TABLE
  2
DIMSTYLE
  5
A
330
0
100
AcDbSymbolTable
 70
     1
100
AcDbDimStyleTable
 71
     0
  0
DIMSTYLE
105
1D
330
A
100
AcDbSymbolTableRecord
100
AcDbDimStyleTableRecord
  2
STANDARD
 70
     0
 41
3.0
 42
1.0
 43
10.0
 44
1.0
 73
     0
 74
     0
 77
     3
 78
     8
140
3.2
141
0.0
147
1.0
172
     1
173
     1
340
F
341
2E
343
2E
344
2E
  0
ENDTAB
  0
TABLE
  2
BLOCK_RECORD
  5
1
330
0
100
AcDbSymbolTable
 70
     1
  0
BLOCK_RECORD
  5
18
102
{ACAD_XDICTIONARY
360
266E
102
}
330
1
100
AcDbSymbolTableRecord
100
AcDbBlockTableRecord
  2
*MODEL_SPACE
340
26C2
  0
BLOCK_RECORD
  5
15
102
{ACAD_XDICTIONARY
360
266C
102
}
330
1
100
AcDbSymbolTableRecord
100
AcDbBlockTableRecord
  2
*PAPER_SPACE
340
26C3
  0
BLOCK_RECORD
  5
2E
330
1
100
AcDbSymbolTableRecord
100
AcDbBlockTableRecord
  2
_OPEN
340
0
  0
ENDTAB
  0
ENDSEC
  0
SECTION
  2
BLOCKS
  0
BLOCK
  5
19
330
18
100
AcDbEntity
  8
0
100
AcDbBlockBegin
  2
*MODEL_SPACE
 70
     0
 10
0.0
 20
0.0
 30
0.0
  3
*MODEL_SPACE
  1

  0
ENDBLK
  5
1A
330
18
100
AcDbEntity
  8
0
100
AcDbBlockEnd
  0
BLOCK
  5
16
330
15
100
AcDbEntity
 67
     1
  8
0
100
AcDbBlockBegin
  2
*PAPER_SPACE
 70
     0
 10
0.0
 20
0.0
 30
0.0
  3
*PAPER_SPACE
  1

  0
ENDBLK
  5
17
330
15
100
AcDbEntity
 67
     1
  8
0
100
AcDbBlockEnd
  0
BLOCK
  5
2F
330
2E
100
AcDbEntity
  8
0
100
AcDbBlockBegin
  2
_OPEN
 70
     0
 10
0.0
 20
0.0
 30
0.0
  3
_OPEN
  1

  0
LINE
  5
30
330
2E
100
AcDbEntity
  8
0
  6
ByBlock
 62
     0
100
AcDbLine
 10
-1.0
 20
0.1666666666666666
 30
0.0
 11
0.0
 21
0.0
 31
0.0
  0
LINE
  5
31
330
2E
100
AcDbEntity
  8
0
  6
ByBlock
 62
     0
100
AcDbLine
 10
0.0
 20
0.0
 30
0.0
 11
-1.0
 21
-0.1666666666666666
 31
0.0
  0
LINE
  5
32
330
2E
100
AcDbEntity
  8
0
  6
ByBlock
 62
     0
100
AcDbLine
 10
0.0
 20
0.0
 30
0.0
 11
-1.0
 21
0.0
 31
0.0
  0
ENDBLK
  5
33
330
2E
100
AcDbEntity
  8
0
100
AcDbBlockEnd
  0
ENDSEC
  0
SECTION
  2
ENTITIES
  0
TEXT
  5
63
330
18
100
AcDbEntity
  8
4
  6
CENTER
 48
0.25
100
AcDbText
 10
23.97950852663849
 20
10.0
 30
0.0
 40
1.399999999999999
  1
4
100
AcDbText
  0
TEXT
  5
64
330
18
100
AcDbEntity
  8
7
  6
Continuous
 48
0.25
100
AcDbText
 10
9.999997526638502
 20
26.0000007607689
 30
0.0
 40
3.0
  1
CODE No.9988
100
AcDbText
  0
TEXT
  5
65
330
18
100
AcDbEntity
  8
7
  6
Continuous
 48
0.25
100
AcDbText
 10
9.999997526638502
 20
18.00000076076889
 30
0.0
 40
3.0
  1
TYPE No.TCA-e50N8S (e50N8S)
100
AcDbText
  0
TEXT
  5
66
330
18
100
AcDbEntity
  8
1
  6
Continuous
 48
0.25
100
AcDbText
 10
9.999997526638502
 20
10.00000076076889
 30
0.0
 40
1.399999999999999
  1
LAYER
100
AcDbText
  0
TEXT
  5
67
330
18
100
AcDbEntity
  8
2
  6
Continuous
 48
0.25
100
AcDbText
 10
19.9795085266385
 20
10.0
 30
0.0
 40
1.399999999999999
  1
2
100
AcDbText
  0
TEXT
  5
68
330
18
100
AcDbEntity
  8
3
  6
DASHED
 48
0.25
100
AcDbText
 10
21.9795085266385
 20
10.0
 30
0.0
 40
1.399999999999999
  1
3
100
AcDbText
  0
TEXT
  5
69
330
18
100
AcDbEntity
  8
1
  6
Continuous
 48
0.25
100
AcDbText
 10
17.9795085266385
 20
10.0
 30
0.0
 40
1.399999999999999
  1
1
100
AcDbText
  0
TEXT
  5
6A
330
18
100
AcDbEntity
  8
5
  6
PHANTOM
 48
0.25
100
AcDbText
 10
25.9795085266385
 20
10.0
 30
0.0
 40
1.399999999999999
  1
5
100
AcDbText
  0
TEXT
  5
6B
330
18
100
AcDbEntity
  8
6
  6
Continuous
 48
0.25
100
AcDbText
 10
27.9795085266385
 20
10.0
 30
0.0
 40
1.399999999999999
  1
6
100
AcDbText
  0
TEXT
  5
6C
330
18
100
AcDbEntity
  8
7
  6
Continuous
 48
0.25
100
AcDbText
 10
29.9795085266385
 20
10.0
 30
0.0
 40
1.399999999999999
  1
7
100
AcDbText
  0
LINE
  5
435
330
18
100
AcDbEntity
  8
4
  6
CENTER
 48
0.3
100
AcDbLine
 10
179.3557026921179
 20
277.007457878842
 30
0.0
 11
179.3557026921179
 21
301.007457878842
 31
0.0
  0
LINE
  5
436
330
18
100
AcDbEntity
  8
4
  6
CENTER
 48
0.3
100
AcDbLine
 10
162.3557026921179
 20
318.438618878842
 30
0.0
 11
162.3557026921179
 21
259.576295878842
 31
0.0
  0
ARC
  5
438
330
18
100
AcDbEntity
  8
1
  6
Continuous
100
AcDbCircle
 10
162.3557026921179
 20
324.576295878842
 30
0.0
 40
60.0
100
AcDbArc
 50
247.9756870000563
 51
253.8727050000539
  0
LINE
  5
439
330
18
100
AcDbEntity
  8
1
  6
Continuous
100
AcDbLine
 10
186.8557026921179
 20
278.507457878842
 30
0.0
 11
137.8557026921179
 21
278.507457878842
 31
0.0
  0
LINE
  5
43A
330
18
100
AcDbEntity
  8
1
  6
Continuous
100
AcDbLine
 10
147.515155692118
 20
280.007457878842
 30
0.0
 11
185.8557026921179
 21
280.0074578788419
 31
0.0
  0
LINE
  5
43B
330
18
100
AcDbEntity
  8
4
  6
CENTER
 48
0.3
100
AcDbLine
 10
125.9205326501794
 20
289.007457878842
 30
0.0
 11
194.8557026921179
 21
289.007457878842
 31
0.0
  0
ARC
  5
441
330
18
100
AcDbEntity
  8
1
  6
Continuous
100
AcDbCircle
 10
162.3557026921179
 20
324.576295878842
 30
0.0
 40
60.0
100
AcDbArc
 50
253.8727050000539
 51
292.0243128370421
  0
LINE
  5
443
330
18
100
AcDbEntity
  8
1
  6
Continuous
100
AcDbLine
 10
147.2557026921179
 20
266.507457878842
 30
0.0
 11
177.4557044580039
 21
266.507457878842
 31
0.0
  0
ARC
  5
445
330
18
100
AcDbEntity
  8
1
  6
Continuous
100
AcDbCircle
 10
155.3557026921179
 20
278.507457878842
 30
0.0
 40
1.0
100
AcDbArc
 50
90.0000000000179
 51
180.0
  0
LINE
  5
446
330
18
100
AcDbEntity
  8
1
  6
Continuous
100
AcDbLine
 10
154.3557026921179
 20
279.507457878842
 30
0.0
 11
170.3557026921179
 21
279.507457878842
 31
0.0
  0
LINE
  5
447
330
18
100
AcDbEntity
  8
1
  6
Continuous
100
AcDbLine
 10
154.3557026921179
 20
280.007457878842
 30
0.0
 11
154.3557026921179
 21
279.507457878842
 31
0.0
  0
LINE
  5
448
330
18
100
AcDbEntity
  8
1
  6
Continuous
100
AcDbLine
 10
137.3557026921179
 20
278.007457878842
 30
0.0
 11
137.3557026921179
 21
272.662906878842
 31
0.0
  0
ARC
  5
449
330
18
100
AcDbEntity
  8
1
  6
Continuous
100
AcDbCircle
 10
141.3557026921179
 20
272.662906878842
 30
0.0
 40
4.0
100
AcDbArc
 50
180.0000000000692
 51
247.9756870000563
  0
ARC
  5
44A
330
18
100
AcDbEntity
  8
1
  6
Continuous
100
AcDbCircle
 10
137.8557026921179
 20
278.007457878842
 30
0.0
 40
0.5
100
AcDbArc
 50
90.00000000001628
 51
180.0
  0
ARC
  5
44B
330
18
100
AcDbEntity
  8
1
  6
Continuous
100
AcDbCircle
 10
162.3557026921179
 20
253.438618878842
 30
0.0
 40
60.0
100
AcDbArc
 50
106.1272950000138
 51
112.0243130000124
  0
LINE
  5
44C
330
18
100
AcDbEntity
  8
1
  6
Continuous
100
AcDbLine
 10
186.8557026921179
 20
299.507457878842
 30
0.0
 11
137.8557026921179
 21
299.507457878842
 31
0.0
  0
LINE
  5
44D
330
18
100
AcDbEntity
  8
1
  6
Continuous
100
AcDbLine
 10
147.515155692118
 20
298.007457878842
 30
0.0
 11
185.8557026921179
 21
298.007457878842
 31
0.0
  0
ARC
  5
452
330
18
100
AcDbEntity
  8
1
  6
Continuous
100
AcDbCircle
 10
162.3557026921179
 20
253.438618878842
 30
0.0
 40
60.0
100
AcDbArc
 50
67.97361919577402
 51
106.1272950000138
  0
LINE
  5
454
330
18
100
AcDbEntity
  8
1
  6
Continuous
100
AcDbLine
 10
147.2557026921179
 20
311.5074578788419
 30
0.0
 11
177.4557006123854
 21
311.5074578788419
 31
0.0
  0
ARC
  5
457
330
18
100
AcDbEntity
  8
1
  6
Continuous
100
AcDbCircle
 10
155.3557026921179
 20
299.507457878842
 30
0.0
 40
1.0
100
AcDbArc
 50
180.0000000000692
 51
270.0000000000521
  0
LINE
  5
458
330
18
100
AcDbEntity
  8
1
  6
Continuous
100
AcDbLine
 10
154.3557026921179
 20
298.507457878842
 30
0.0
 11
170.3557026921179
 21
298.507457878842
 31
0.0
  0
LINE
  5
459
330
18
100
AcDbEntity
  8
1
  6
Continuous
100
AcDbLine
 10
154.3557026921179
 20
298.507457878842
 30
0.0
 11
154.3557026921179
 21
298.007457878842
 31
0.0
  0
LINE
  5
45A
330
18
100
AcDbEntity
  8
1
  6
Continuous
100
AcDbLine
 10
137.3557026921179
 20
300.0074578788419
 30
0.0
 11
137.3557026921179
 21
305.352008878842
 31
0.0
  0
ARC
  5
45B
330
18
100
AcDbEntity
  8
1
  6
Continuous
100
AcDbCircle
 10
137.8557026921179
 20
300.0074578788419
 30
0.0
 40
0.5
100
AcDbArc
 50
180.0000000000692
 51
270.0000000000504
  0
ARC
  5
45C
330
18
100
AcDbEntity
  8
1
  6
Continuous
100
AcDbCircle
 10
141.3557026921179
 20
305.352008878842
 30
0.0
 40
4.0
100
AcDbArc
 50
112.0243130000124
 51
180.0
  0
LINE
  5
463
330
18
100
AcDbEntity
  8
4
  6
CENTER
 48
0.3
100
AcDbLine
 10
179.355702692118
 20
152.4288336908001
 30
0.0
 11
179.3557026921179
 21
219.4288336908
 31
0.0
  0
CIRCLE
  5
46B
330
18
100
AcDbEntity
  8
1
  6
Continuous
100
AcDbCircle
 10
162.3557026921179
 20
167.9288336908001
 30
0.0
 40
25.0
  0
LINE
  5
46E
330
18
100
AcDbEntity
  8
4
  6
CENTER
 48
0.3
100
AcDbLine
 10
192.3557026921179
 20
167.9288336908001
 30
0.0
 11
132.3557026921179
 21
167.9288336908001
 31
0.0
  0
CIRCLE
  5
46F
330
18
100
AcDbEntity
  8
1
  6
Continuous
100
AcDbCircle
 10
162.3557026921179
 20
167.9288336908001
 30
0.0
 40
15.09999999999999
  0
LINE
  5
470
330
18
100
AcDbEntity
  8
4
  6
CENTER
 48
0.3
100
AcDbLine
 10
162.3557026921179
 20
137.9288336908001
 30
0.0
 11
162.3557026921179
 21
197.9288336908001
 31
0.0
  0
LINE
  5
475
330
18
100
AcDbEntity
  8
1
  6
Continuous
100
AcDbLine
 10
159.3557026921179
 20
155.5288336908001
 30
0.0
 11
159.3557026921179
 21
153.1298472234093
 31
0.0
  0
LINE
  5
476
330
18
100
AcDbEntity
  8
1
  6
Continuous
100
AcDbLine
 10
165.3557026921179
 20
155.5288336908001
 30
0.0
 11
165.3557026921179
 21
153.1298472234093
 31
0.0
  0
LINE
  5
477
330
18
100
AcDbEntity
  8
1
  6
Continuous
100
AcDbLine
 10
165.3557026921179
 20
155.5288336908001
 30
0.0
 11
159.3557026921179
 21
155.5288336908001
 31
0.0
  0
LINE
  5
479
330
18
100
AcDbEntity
  8
1
  6
Continuous
100
AcDbLine
 10
188.3557030031824
 20
194.4288336908001
 30
0.0
 11
170.3557033810532
 21
194.4288336908001
 31
0.0
  0
LINE
  5
47B
330
18
100
AcDbEntity
  8
1
  6
Continuous
100
AcDbLine
 10
187.9110726921179
 20
193.4875556908001
 30
0.0
 11
189.7622866921179
 21
162.0169166908001
 31
0.0
  0
ARC
  5
47C
330
18
100
AcDbEntity
  8
1
  6
Continuous
100
AcDbCircle
 10
188.2648746921179
 20
161.9288336908001
 30
0.0
 40
1.5
100
AcDbArc
 50
270.0000000000521
 51
3.366461000034222
  0
LINE
  5
47D
330
18
100
AcDbEntity
  8
1
  6
Continuous
100
AcDbLine
 10
188.2648746921179
 20
160.4288336908001
 30
0.0
 11
186.2041826921179
 21
160.4288336908001
 31
0.0
  0
ARC
  5
482
330
18
100
AcDbEntity
  8
1
  6
Continuous
100
AcDbCircle
 10
186.9127976921179
 20
193.4288336908001
 30
0.0
 40
1.0
100
AcDbArc
 50
3.366461000033411
 51
90.0000000000179
  0
ARC
  5
489
330
18
100
AcDbEntity
  8
1
  6
Continuous
100
AcDbCircle
 10
167.8557026921179
 20
193.8517966908001
 30
0.0
 40
3.0
100
AcDbArc
 50
315.1705810000433
 51
351.9749000000361
  0
ARC
  5
48A
330
18
100
AcDbEntity
  8
1
  6
Continuous
100
AcDbCircle
 10
171.8557026921179
 20
193.4288336908001
 30
0.0
 40
1.0
100
AcDbArc
 50
90.0000000000179
 51
180.0
  0
LINE
  5
499
330
18
100
AcDbEntity
  8
4
  6
CENTER
 48
0.3
100
AcDbLine
 10
51.23034375599582
 20
219.4288336908
 30
0.0
 11
51.23034375599582
 21
147.4288336908001
 31
0.0
  0
LINE
  5
49A
330
18
100
AcDbEntity
  8
4
  6
CENTER
 48
0.3
100
AcDbLine
 10
21.79918275599584
 20
167.9288336908001
 30
0.0
 11
80.66150575599584
 21
167.9288336908001
 31
0.0
  0
ARC
  5
49B
330
18
100
AcDbEntity
  8
1
  6
Continuous
100
AcDbCircle
 10
15.66150575599584
 20
167.9288336908001
 30
0.0
 40
60.0
100
AcDbArc
 50
345.4238410000373
 51
16.12729500003166
  0
LINE
  5
49C
330
18
100
AcDbEntity
  8
1
  6
Continuous
100
AcDbLine
 10
73.73034375599582
 20
183.0288336908001
 30
0.0
 11
73.73034375599582
 21
152.8288336908001
 31
0.0
  0
ARC
  5
49E
330
18
100
AcDbEntity
  8
1
  6
Continuous
100
AcDbCircle
 10
86.79918275599584
 20
167.9288336908001
 30
0.0
 40
60.0
100
AcDbArc
 50
165.4238410000713
 51
196.1272950000654
  0
LINE
  5
49F
330
18
100
AcDbEntity
  8
1
  6
Continuous
100
AcDbLine
 10
28.73034375599582
 20
152.8288336908001
 30
0.0
 11
28.73034375599582
 21
183.0288336908001
 31
0.0
  0
ARC
  5
4A5
330
18
100
AcDbEntity
  8
1
  6
Continuous
100
AcDbCircle
 10
15.66150575599584
 20
167.9288336908001
 30
0.0
 40
60.0
100
AcDbArc
 50
337.975687000039
 51
343.872705000038
  0
LINE
  5
4A6
330
18
100
AcDbEntity
  8
1
  6
Continuous
100
AcDbLine
 10
62.23034375599581
 20
142.9288336908001
 30
0.0
 11
67.57489475599584
 21
142.9288336908001
 31
0.0
  0
ARC
  5
4A7
330
18
100
AcDbEntity
  8
1
  6
Continuous
100
AcDbCircle
 10
67.57489475599584
 20
146.9288336908001
 30
0.0
 40
4.0
100
AcDbArc
 50
270.0000000000521
 51
337.975687000039
  0
ARC
  5
4A8
330
18
100
AcDbEntity
  8
1
  6
Continuous
100
AcDbCircle
 10
62.23034375599581
 20
143.4288336908001
 30
0.0
 40
0.5
100
AcDbArc
 50
180.0000000000008
 51
269.9999999999837
  0
ARC
  5
4A9
330
18
100
AcDbEntity
  8
1
  6
Continuous
100
AcDbCircle
 10
15.66150575599584
 20
167.9288336908001
 30
0.0
 40
60.0
100
AcDbArc
 50
343.872705000038
 51
345.4238410000373
  0
LINE
  5
4AC
330
18
100
AcDbEntity
  8
1
  6
Continuous
100
AcDbLine
 10
40.23034375599581
 20
142.9288336908001
 30
0.0
 11
34.88579375599584
 21
142.9288336908001
 31
0.0
  0
ARC
  5
4AD
330
18
100
AcDbEntity
  8
1
  6
Continuous
100
AcDbCircle
 10
40.23034375599581
 20
143.4288336908001
 30
0.0
 40
0.5
100
AcDbArc
 50
270.0000000000521
 51
0.0000000000342043
  0
ARC
  5
4AE
330
18
100
AcDbEntity
  8
1
  6
Continuous
100
AcDbCircle
 10
86.79918275599584
 20
167.9288336908001
 30
0.0
 40
60.0
100
AcDbArc
 50
196.1272950000654
 51
202.0243130000647
  0
ARC
  5
4AF
330
18
100
AcDbEntity
  8
1
  6
Continuous
100
AcDbCircle
 10
34.88579375599584
 20
146.9288336908001
 30
0.0
 40
4.0
100
AcDbArc
 50
202.0243130000647
 51
270.0000000000521
  0
LINE
  5
4B1
330
18
100
AcDbEntity
  8
1
  6
Continuous
100
AcDbLine
 10
59.23034375599582
 20
194.4288336908001
 30
0.0
 11
43.23034375599582
 21
194.4288336908001
 31
0.0
  0
ARC
  5
4B3
330
18
100
AcDbEntity
  8
1
  6
Continuous
100
AcDbCircle
 10
51.23034375599582
 20
91.83465669080007
 30
0.0
 40
100.0
100
AcDbArc
 50
84.83639300001808
 51
95.16360700001623
  0
LINE
  5
4B4
330
18
100
AcDbEntity
  8
1
  6
Continuous
100
AcDbLine
 10
41.73034375599582
 20
160.4288336908001
 30
0.0
 11
60.73034375599582
 21
160.4288336908001
 31
0.0
  0
LINE
  5
4B5
330
18
100
AcDbEntity
  8
1
  6
Continuous
100
AcDbLine
 10
61.73034375599582
 20
143.4288336908001
 30
0.0
 11
61.73034375599582
 21
192.4288336908001
 31
0.0
  0
LINE
  5
4B8
330
18
100
AcDbEntity
  8
1
  6
Continuous
100
AcDbLine
 10
60.73034375599582
 20
160.4288336908001
 30
0.0
 11
60.73034375599582
 21
175.9288336908001
 31
0.0
  0
ARC
  5
4B9
330
18
100
AcDbEntity
  8
1
  6
Continuous
100
AcDbCircle
 10
61.73034375599582
 20
160.9288336908001
 30
0.0
 40
1.0
100
AcDbArc
 50
180.0000000000008
 51
269.9999999999837
  0
ARC
  5
4BA
330
18
100
AcDbEntity
  8
1
  6
Continuous
100
AcDbCircle
 10
61.73034375599582
 20
174.9288336908001
 30
0.0
 40
1.0
100
AcDbArc
 50
90.0000000000179
 51
180.0
  0
LINE
  5
4BB
330
18
100
AcDbEntity
  8
1
  6
Continuous
100
AcDbLine
 10
60.73034375599582
 20
175.9288336908001
 30
0.0
 11
60.23034375599582
 21
175.9288336908001
 31
0.0
  0
LINE
  5
4BE
330
18
100
AcDbEntity
  8
1
  6
Continuous
100
AcDbLine
 10
62.23034375599581
 20
192.9288336908001
 30
0.0
 11
67.57489475599584
 21
192.9288336908001
 31
0.0
  0
ARC
  5
4BF
330
18
100
AcDbEntity
  8
1
  6
Continuous
100
AcDbCircle
 10
15.66150575599584
 20
167.9288336908001
 30
0.0
 40
60.0
100
AcDbArc
 50
16.12729500003166
 51
22.02431300002976
  0
ARC
  5
4C0
330
18
100
AcDbEntity
  8
1
  6
Continuous
100
AcDbCircle
 10
67.57489475599584
 20
188.9288336908001
 30
0.0
 40
4.0
100
AcDbArc
 50
22.02431300002976
 51
90.0000000000179
  0
ARC
  5
4C1
330
18
100
AcDbEntity
  8
1
  6
Continuous
100
AcDbCircle
 10
62.23034375599581
 20
192.4288336908001
 30
0.0
 40
0.5
100
AcDbArc
 50
90.0000000000179
 51
180.0
  0
ARC
  5
4C3
330
18
100
AcDbEntity
  8
1
  6
Continuous
100
AcDbCircle
 10
59.23034375599582
 20
193.4288336908001
 30
0.0
 40
1.0
100
AcDbArc
 50
0.0000000000342043
 51
90.0000000000179
  0
ARC
  5
4C8
330
18
100
AcDbEntity
  8
1
  6
Continuous
100
AcDbCircle
 10
86.79918275599584
 20
167.9288336908001
 30
0.0
 40
60.0
100
AcDbArc
 50
163.8727050000031
 51
165.423841000003
  0
LINE
  5
4C9
330
18
100
AcDbEntity
  8
1
  6
Continuous
100
AcDbLine
 10
40.73034375599582
 20
143.4288336908001
 30
0.0
 11
40.73034375599582
 21
192.4288336908001
 31
0.0
  0
LINE
  5
4CC
330
18
100
AcDbEntity
  8
1
  6
Continuous
100
AcDbLine
 10
41.73034375599582
 20
175.9288336908001
 30
0.0
 11
41.73034375599582
 21
160.4288336908001
 31
0.0
  0
ARC
  5
4CD
330
18
100
AcDbEntity
  8
1
  6
Continuous
100
AcDbCircle
 10
40.73034375599582
 20
160.9288336908001
 30
0.0
 40
1.0
100
AcDbArc
 50
270.0000000000521
 51
0.0000000000342043
  0
ARC
  5
4CE
330
18
100
AcDbEntity
  8
1
  6
Continuous
100
AcDbCircle
 10
40.73034375599582
 20
174.9288336908001
 30
0.0
 40
1.0
100
AcDbArc
 50
0.0000000000342043
 51
90.0000000000179
  0
LINE
  5
4CF
330
18
100
AcDbEntity
  8
1
  6
Continuous
100
AcDbLine
 10
42.2303437559958
 20
175.9288336908001
 30
0.0
 11
41.73034375599582
 21
175.9288336908001
 31
0.0
  0
LINE
  5
4D1
330
18
100
AcDbEntity
  8
1
  6
Continuous
100
AcDbLine
 10
40.23034375599581
 20
192.9288336908001
 30
0.0
 11
34.88579375599584
 21
192.9288336908001
 31
0.0
  0
ARC
  5
4D4
330
18
100
AcDbEntity
  8
1
  6
Continuous
100
AcDbCircle
 10
40.23034375599581
 20
192.4288336908001
 30
0.0
 40
0.5
100
AcDbArc
 50
0.0000000000342043
 51
90.0000000000179
  0
ARC
  5
4D5
330
18
100
AcDbEntity
  8
1
  6
Continuous
100
AcDbCircle
 10
43.23034375599582
 20
193.4288336908001
 30
0.0
 40
1.0
100
AcDbArc
 50
90.0000000000179
 51
180.0
  0
ARC
  5
4D8
330
18
100
AcDbEntity
  8
1
  6
Continuous
100
AcDbCircle
 10
86.79918275599584
 20
167.9288336908001
 30
0.0
 40
60.0
100
AcDbArc
 50
157.9756870000046
 51
163.8727050000031
  0
ARC
  5
4D9
330
18
100
AcDbEntity
  8
1
  6
Continuous
100
AcDbCircle
 10
34.88579375599584
 20
188.9288336908001
 30
0.0
 40
4.0
100
AcDbArc
 50
90.0000000000179
 51
157.9756870000046
  0
LINE
  5
67F
330
18
100
AcDbEntity
  8
1
  6
Continuous
100
AcDbLine
 10
316.98106162824
 20
160.4288336908001
 30
0.0
 11
297.9810616282398
 21
160.4288336908001
 31
0.0
  0
LINE
  5
681
330
18
100
AcDbEntity
  8
1
  6
Continuous
100
AcDbLine
 10
299.48106162824
 20
194.4288336908001
 30
0.0
 11
315.48106162824
 21
194.4288336908001
 31
0.0
  0
LINE
  5
683
330
18
100
AcDbEntity
  8
4
  6
CENTER
 48
0.3
100
AcDbLine
 10
336.9122226282399
 20
167.9288336908001
 30
0.0
 11
278.0498996282399
 21
167.9288336908001
 31
0.0
  0
LINE
  5
684
330
18
100
AcDbEntity
  8
1
  6
Continuous
100
AcDbLine
 10
317.98106162824
 20
143.4288336908001
 30
0.0
 11
317.98106162824
 21
192.4288336908001
 31
0.0
  0
LINE
  5
685
330
18
100
AcDbEntity
  8
1
  6
Continuous
100
AcDbLine
 10
316.98106162824
 20
175.9288336908001
 30
0.0
 11
316.98106162824
 21
160.4288336908001
 31
0.0
  0
LINE
  5
686
330
18
100
AcDbEntity
  8
1
  6
Continuous
100
AcDbLine
 10
316.4810616282399
 20
160.4288336908001
 30
0.0
 11
316.4810616282399
 21
193.4288336908001
 31
0.0
  0
LINE
  5
687
330
18
100
AcDbEntity
  8
1
  6
Continuous
100
AcDbLine
 10
329.98106162824
 20
152.8288336908001
 30
0.0
 11
329.98106162824
 21
183.0288336908001
 31
0.0
  0
ARC
  5
688
330
18
100
AcDbEntity
  8
1
  6
Continuous
100
AcDbCircle
 10
271.9122226282399
 20
167.9288336908001
 30
0.0
 40
60.0
100
AcDbArc
 50
343.8727049999345
 51
14.57615899992862
  0
ARC
  5
68A
330
18
100
AcDbEntity
  8
1
  6
Continuous
100
AcDbCircle
 10
323.8256116282399
 20
146.9288336908001
 30
0.0
 40
4.0
100
AcDbArc
 50
269.9999999999478
 51
337.9756869999352
  0
ARC
  5
68B
330
18
100
AcDbEntity
  8
1
  6
Continuous
100
AcDbCircle
 10
271.9122226282399
 20
167.9288336908001
 30
0.0
 40
60.0
100
AcDbArc
 50
337.9756869999352
 51
343.8727049999345
  0
ARC
  5
68C
330
18
100
AcDbEntity
  8
1
  6
Continuous
100
AcDbCircle
 10
318.4810616282399
 20
143.4288336908001
 30
0.0
 40
0.5
100
AcDbArc
 50
179.9999999999658
 51
269.9999999999478
  0
LINE
  5
68D
330
18
100
AcDbEntity
  8
1
  6
Continuous
100
AcDbLine
 10
318.4810616282399
 20
142.9288336908001
 30
0.0
 11
323.8256116282399
 21
142.9288336908001
 31
0.0
  0
ARC
  5
68E
330
18
100
AcDbEntity
  8
1
  6
Continuous
100
AcDbCircle
 10
317.98106162824
 20
160.9288336908001
 30
0.0
 40
1.0
100
AcDbArc
 50
179.9999999999658
 51
269.9999999999478
  0
ARC
  5
68F
330
18
100
AcDbEntity
  8
1
  6
Continuous
100
AcDbCircle
 10
315.48106162824
 20
193.4288336908001
 30
0.0
 40
1.0
100
AcDbArc
 50
0.000000000000007
 51
89.99999999998211
  0
ARC
  5
690
330
18
100
AcDbEntity
  8
1
  6
Continuous
100
AcDbCircle
 10
323.8256116282399
 20
188.9288336908001
 30
0.0
 40
4.0
100
AcDbArc
 50
22.02431299999533
 51
89.99999999998211
  0
ARC
  5
691
330
18
100
AcDbEntity
  8
1
  6
Continuous
100
AcDbCircle
 10
271.9122226282399
 20
167.9288336908001
 30
0.0
 40
60.0
100
AcDbArc
 50
14.57615899999693
 51
16.12729499999688
  0
ARC
  5
692
330
18
100
AcDbEntity
  8
1
  6
Continuous
100
AcDbCircle
 10
271.9122226282399
 20
167.9288336908001
 30
0.0
 40
60.0
100
AcDbArc
 50
16.12729499999688
 51
22.02431299999533
  0
LINE
  5
693
330
18
100
AcDbEntity
  8
1
  6
Continuous
100
AcDbLine
 10
316.4810616282399
 20
175.9288336908001
 30
0.0
 11
316.98106162824
 21
175.9288336908001
 31
0.0
  0
ARC
  5
694
330
18
100
AcDbEntity
  8
1
  6
Continuous
100
AcDbCircle
 10
317.98106162824
 20
174.9288336908001
 30
0.0
 40
1.0
100
AcDbArc
 50
89.99999999998211
 51
179.9999999999658
  0
ARC
  5
695
330
18
100
AcDbEntity
  8
1
  6
Continuous
100
AcDbCircle
 10
318.4810616282399
 20
192.4288336908001
 30
0.0
 40
0.5
100
AcDbArc
 50
89.99999999998211
 51
179.9999999999658
  0
LINE
  5
696
330
18
100
AcDbEntity
  8
1
  6
Continuous
100
AcDbLine
 10
318.4810616282399
 20
192.9288336908001
 30
0.0
 11
323.8256116282399
 21
192.9288336908001
 31
0.0
  0
LINE
  5
6A1
330
18
100
AcDbEntity
  8
1
  6
Continuous
100
AcDbLine
 10
296.98106162824
 20
143.4288336908001
 30
0.0
 11
296.98106162824
 21
192.4288336908001
 31
0.0
  0
LINE
  5
6A2
330
18
100
AcDbEntity
  8
1
  6
Continuous
100
AcDbLine
 10
297.9810616282398
 20
160.4288336908001
 30
0.0
 11
297.9810616282398
 21
175.9288336908001
 31
0.0
  0
LINE
  5
6A3
330
18
100
AcDbEntity
  8
1
  6
Continuous
100
AcDbLine
 10
298.48106162824
 20
160.4288336908001
 30
0.0
 11
298.48106162824
 21
193.4288336908001
 31
0.0
  0
LINE
  5
6A4
330
18
100
AcDbEntity
  8
1
  6
Continuous
100
AcDbLine
 10
284.9810616282399
 20
183.0288336908001
 30
0.0
 11
284.9810616282399
 21
152.8288336908001
 31
0.0
  0
ARC
  5
6A5
330
18
100
AcDbEntity
  8
1
  6
Continuous
100
AcDbCircle
 10
343.0498996282399
 20
167.9288336908001
 30
0.0
 40
60.0
100
AcDbArc
 50
163.8727049999683
 51
194.5761589999626
  0
LINE
  5
6A6
330
18
100
AcDbEntity
  8
4
  6
CENTER
 48
0.3
100
AcDbLine
 10
307.48106162824
 20
219.4288336908
 30
0.0
 11
307.48106162824
 21
147.4288336908001
 31
0.0
  0
ARC
  5
6A7
330
18
100
AcDbEntity
  8
1
  6
Continuous
100
AcDbCircle
 10
343.0498996282399
 20
167.9288336908001
 30
0.0
 40
60.0
100
AcDbArc
 50
194.5761589999626
 51
196.1272949999619
  0
LINE
  5
6A8
330
18
100
AcDbEntity
  8
1
  6
Continuous
100
AcDbLine
 10
296.48106162824
 20
142.9288336908001
 30
0.0
 11
291.1365106282399
 21
142.9288336908001
 31
0.0
  0
ARC
  5
6A9
330
18
100
AcDbEntity
  8
1
  6
Continuous
100
AcDbCircle
 10
296.48106162824
 20
143.4288336908001
 30
0.0
 40
0.5
100
AcDbArc
 50
270.0000000000162
 51
359.9999999999992
  0
ARC
  5
6AA
330
18
100
AcDbEntity
  8
1
  6
Continuous
100
AcDbCircle
 10
343.0498996282399
 20
167.9288336908001
 30
0.0
 40
60.0
100
AcDbArc
 50
196.1272949999619
 51
202.0243129999609
  0
ARC
  5
6AB
330
18
100
AcDbEntity
  8
1
  6
Continuous
100
AcDbCircle
 10
291.1365106282399
 20
146.9288336908001
 30
0.0
 40
4.0
100
AcDbArc
 50
202.0243129999609
 51
269.9999999999478
  0
ARC
  5
6AC
330
18
100
AcDbEntity
  8
1
  6
Continuous
100
AcDbCircle
 10
296.98106162824
 20
160.9288336908001
 30
0.0
 40
1.0
100
AcDbArc
 50
270.0000000000162
 51
359.9999999999992
  0
ARC
  5
6AE
330
18
100
AcDbEntity
  8
1
  6
Continuous
100
AcDbCircle
 10
299.48106162824
 20
193.4288336908001
 30
0.0
 40
1.0
100
AcDbArc
 50
89.99999999998211
 51
179.9999999999658
  0
LINE
  5
6AF
330
18
100
AcDbEntity
  8
1
  6
Continuous
100
AcDbLine
 10
296.48106162824
 20
192.9288336908001
 30
0.0
 11
291.1365106282399
 21
192.9288336908001
 31
0.0
  0
LINE
  5
6B0
330
18
100
AcDbEntity
  8
1
  6
Continuous
100
AcDbLine
 10
297.9810616282398
 20
175.9288336908001
 30
0.0
 11
298.48106162824
 21
175.9288336908001
 31
0.0
  0
ARC
  5
6B1
330
18
100
AcDbEntity
  8
1
  6
Continuous
100
AcDbCircle
 10
296.98106162824
 20
174.9288336908001
 30
0.0
 40
1.0
100
AcDbArc
 50
0.000000000000007
 51
89.99999999998211
  0
ARC
  5
6B2
330
18
100
AcDbEntity
  8
1
  6
Continuous
100
AcDbCircle
 10
296.48106162824
 20
192.4288336908001
 30
0.0
 40
0.5
100
AcDbArc
 50
0.000000000000007
 51
89.99999999998211
  0
ARC
  5
6B3
330
18
100
AcDbEntity
  8
1
  6
Continuous
100
AcDbCircle
 10
343.0498996282399
 20
167.9288336908001
 30
0.0
 40
60.0
100
AcDbArc
 50
157.9756869999702
 51
163.8727049999683
  0
ARC
  5
6B4
330
18
100
AcDbEntity
  8
1
  6
Continuous
100
AcDbCircle
 10
291.1365106282399
 20
188.9288336908001
 30
0.0
 40
4.0
100
AcDbArc
 50
89.99999999998211
 51
157.9756869999702
  0
ARC
  5
D85
330
18
100
AcDbEntity
  8
1
  6
Continuous
100
AcDbCircle
 10
314.3200145513022
 20
161.4288336908001
 30
0.0
 40
1.0
100
AcDbArc
 50
270.0
 51
20.56686370568233
  0
ARC
  5
D8A
330
18
100
AcDbEntity
  8
1
  6
Continuous
100
AcDbCircle
 10
331.6433984030924
 20
167.9288338498457
 30
0.0
 40
17.50269251066058
100
AcDbArc
 50
180.0000005206421
 51
200.5668637056818
  0
ARC
  5
D8B
330
18
100
AcDbEntity
  8
1
  6
Continuous
100
AcDbCircle
 10
387.0948370518518
 20
167.9288344095669
 30
0.0
 40
72.95413115942
100
AcDbArc
 50
165.4480390713341
 51
180.0000005644958
  0
ARC
  5
D8F
330
18
100
AcDbEntity
  8
1
  6
Continuous
100
AcDbCircle
 10
300.6421087051777
 20
161.4288336908001
 30
0.0
 40
1.0
100
AcDbArc
 50
159.4331362943176
 51
270.0
  0
ARC
  5
D90
330
18
100
AcDbEntity
  8
1
  6
Continuous
100
AcDbCircle
 10
283.3187248533877
 20
167.9288338498457
 30
0.0
 40
17.50269251066058
100
AcDbArc
 50
339.4331362943181
 51
359.9999994793579
  0
ARC
  5
D91
330
18
100
AcDbEntity
  8
1
  6
Continuous
100
AcDbCircle
 10
227.8672862046282
 20
167.9288344095669
 30
0.0
 40
72.95413115942
100
AcDbArc
 50
359.9999994355041
 51
14.55196092866587
  0
ARC
  5
1207
330
18
100
AcDbEntity
  8
1
  6
Continuous
100
AcDbCircle
 10
179.3557026921179
 20
289.007457878842
 30
0.0
 40
10.0
100
AcDbArc
 50
121.7883310000812
 51
238.2116690000589
  0
ARC
  5
1208
330
18
100
AcDbEntity
  8
1
  6
Continuous
100
AcDbCircle
 10
179.3557026921179
 20
289.007457878842
 30
0.0
 40
9.0
100
AcDbArc
 50
109.1881360000836
 51
250.8118640000574
  0
LINE
  5
120E
330
18
100
AcDbEntity
  8
1
  6
Continuous
100
AcDbLine
 10
185.8557026921179
 20
280.007457878842
 30
0.0
 11
185.8557026921179
 21
281.408115878842
 31
0.0
  0
ARC
  5
1210
330
18
100
AcDbEntity
  8
1
  6
Continuous
100
AcDbCircle
 10
179.3557026921179
 20
289.007457878842
 30
0.0
 40
10.0
100
AcDbArc
 50
301.7883310000432
 51
58.21166900002542
  0
ARC
  5
1211
330
18
100
AcDbEntity
  8
1
  6
Continuous
100
AcDbCircle
 10
179.3557026921179
 20
289.007457878842
 30
0.0
 40
9.0
100
AcDbArc
 50
289.1881360000486
 51
70.81186400002239
  0
LINE
  5
1214
330
18
100
AcDbEntity
  8
1
  6
Continuous
100
AcDbLine
 10
184.6235296921178
 20
280.507457878842
 30
0.0
 11
174.0878766921179
 21
280.507457878842
 31
0.0
  0
ARC
  5
1218
330
18
100
AcDbEntity
  8
1
  6
Continuous
100
AcDbCircle
 10
181.3557026921179
 20
289.007457878842
 30
0.0
 40
8.5
100
AcDbArc
 50
314.3091370000449
 51
45.69086300002417
  0
CIRCLE
  5
1219
330
18
100
AcDbEntity
  8
1
  6
Continuous
100
AcDbCircle
 10
179.3557026921179
 20
289.007457878842
 30
0.0
 40
4.0
  0
CIRCLE
  5
121A
330
18
100
AcDbEntity
  8
2
  6
Continuous
100
AcDbCircle
 10
179.3557026921179
 20
289.007457878842
 30
0.0
 40
3.323499999999965
  0
LINE
  5
121B
330
18
100
AcDbEntity
  8
1
  6
Continuous
100
AcDbLine
 10
184.6235296921178
 20
297.507457878842
 30
0.0
 11
174.0878766921179
 21
297.507457878842
 31
0.0
  0
LINE
  5
121D
330
18
100
AcDbEntity
  8
1
  6
Continuous
100
AcDbLine
 10
185.8557026921179
 20
296.606799878842
 30
0.0
 11
185.8557026921179
 21
298.007457878842
 31
0.0
  0
LINE
  5
1259
330
18
100
AcDbEntity
  8
1
  6
Continuous
100
AcDbLine
 10
59.23034375599582
 20
200.4288336908001
 30
0.0
 11
43.23034375599582
 21
200.4288336908001
 31
0.0
  0
LINE
  5
125B
330
18
100
AcDbEntity
  8
1
  6
Continuous
100
AcDbLine
 10
59.73034375599581
 20
194.9288336908001
 30
0.0
 11
59.73034375599581
 21
199.9288336908001
 31
0.0
  0
ARC
  5
125F
330
18
100
AcDbEntity
  8
1
  6
Continuous
100
AcDbCircle
 10
59.23034375599582
 20
194.9288336908001
 30
0.0
 40
0.5
100
AcDbArc
 50
270.0000000000521
 51
0.0000000000358328
  0
ARC
  5
1260
330
18
100
AcDbEntity
  8
1
  6
Continuous
100
AcDbCircle
 10
59.23034375599582
 20
199.9288336908001
 30
0.0
 40
0.5
100
AcDbArc
 50
0.0000000000358328
 51
90.00000000001952
  0
LINE
  5
1261
330
18
100
AcDbEntity
  8
1
  6
Continuous
100
AcDbLine
 10
42.73034375599581
 20
194.9288336908001
 30
0.0
 11
42.73034375599581
 21
199.9288336908001
 31
0.0
  0
ARC
  5
1264
330
18
100
AcDbEntity
  8
1
  6
Continuous
100
AcDbCircle
 10
43.23034375599582
 20
194.9288336908001
 30
0.0
 40
0.5
100
AcDbArc
 50
180.0000000000684
 51
270.0000000000521
  0
ARC
  5
1265
330
18
100
AcDbEntity
  8
1
  6
Continuous
100
AcDbCircle
 10
43.23034375599582
 20
199.9288336908001
 30
0.0
 40
0.5
100
AcDbArc
 50
90.00000000001952
 51
180.0
  0
LINE
  5
1271
330
18
100
AcDbEntity
  8
1
  6
Continuous
100
AcDbLine
 10
55.23034375599582
 20
201.4288336908
 30
0.0
 11
47.23034375599581
 21
201.4288336908
 31
0.0
  0
LINE
  5
1272
330
18
100
AcDbEntity
  8
2
  6
Continuous
100
AcDbLine
 10
47.90684375599577
 20
201.4288336908
 30
0.0
 11
47.90684375599577
 21
214.1053336908
 31
0.0
  0
LINE
  5
1274
330
18
100
AcDbEntity
  8
1
  6
Continuous
100
AcDbLine
 10
55.23034375599582
 20
213.4288336908
 30
0.0
 11
47.23034375599581
 21
213.4288336908
 31
0.0
  0
LINE
  5
1275
330
18
100
AcDbEntity
  8
1
  6
Continuous
100
AcDbLine
 10
47.23034375599581
 20
213.4288336908
 30
0.0
 11
47.23034375599581
 21
200.4288336908
 31
0.0
  0
LINE
  5
1276
330
18
100
AcDbEntity
  8
1
  6
Continuous
100
AcDbLine
 10
48.23034375599582
 20
214.4288336908001
 30
0.0
 11
47.23034375599581
 21
213.4288336908
 31
0.0
  0
LINE
  5
1277
330
18
100
AcDbEntity
  8
1
  6
Continuous
100
AcDbLine
 10
54.23034375599582
 20
214.4288336908001
 30
0.0
 11
48.23034375599582
 21
214.4288336908001
 31
0.0
  0
LINE
  5
1278
330
18
100
AcDbEntity
  8
1
  6
Continuous
100
AcDbLine
 10
55.23034375599582
 20
213.4288336908
 30
0.0
 11
54.23034375599582
 21
214.4288336908001
 31
0.0
  0
LINE
  5
1279
330
18
100
AcDbEntity
  8
1
  6
Continuous
100
AcDbLine
 10
55.23034375599582
 20
200.4288336908
 30
0.0
 11
55.23034375599582
 21
213.4288336908
 31
0.0
  0
LINE
  5
127A
330
18
100
AcDbEntity
  8
2
  6
Continuous
100
AcDbLine
 10
54.55384375599578
 20
201.4288336908
 30
0.0
 11
54.55384375599578
 21
214.1053336908
 31
0.0
  0
LINE
  5
12BF
330
18
100
AcDbEntity
  8
1
  6
Continuous
100
AcDbLine
 10
188.3557026921179
 20
200.4288336908001
 30
0.0
 11
170.3557026921179
 21
200.4288336908001
 31
0.0
  0
ARC
  5
12C1
330
18
100
AcDbEntity
  8
1
  6
Continuous
100
AcDbCircle
 10
184.3557014556071
 20
197.4288336907993
 30
0.0
 40
5.000001236510831
100
AcDbArc
 50
323.1301129089438
 51
36.86988709112315
  0
LINE
  5
12C5
330
18
100
AcDbEntity
  8
2
  6
Continuous
100
AcDbLine
 10
182.6792026921179
 20
201.4288336908
 30
0.0
 11
182.6792026921179
 21
214.1053336908
 31
0.0
  0
LINE
  5
12C6
330
18
100
AcDbEntity
  8
2
  6
Continuous
100
AcDbLine
 10
176.0322026921179
 20
201.4288336908
 30
0.0
 11
176.0322026921179
 21
214.1053336908
 31
0.0
  0
LINE
  5
12C7
330
18
100
AcDbEntity
  8
1
  6
Continuous
100
AcDbLine
 10
183.3557026921179
 20
200.4288336908
 30
0.0
 11
183.3557026921179
 21
213.4288336908
 31
0.0
  0
LINE
  5
12C8
330
18
100
AcDbEntity
  8
1
  6
Continuous
100
AcDbLine
 10
175.3557026921179
 20
213.4288336908
 30
0.0
 11
175.3557026921179
 21
200.4288336908
 31
0.0
  0
LINE
  5
12C9
330
18
100
AcDbEntity
  8
1
  6
Continuous
100
AcDbLine
 10
183.3557026921179
 20
201.4288336908
 30
0.0
 11
175.3557026921179
 21
201.4288336908
 31
0.0
  0
LINE
  5
12CA
330
18
100
AcDbEntity
  8
1
  6
Continuous
100
AcDbLine
 10
176.3557026921179
 20
214.4288336908001
 30
0.0
 11
175.3557026921179
 21
213.4288336908
 31
0.0
  0
LINE
  5
12CB
330
18
100
AcDbEntity
  8
1
  6
Continuous
100
AcDbLine
 10
183.3557026921179
 20
213.4288336908
 30
0.0
 11
175.3557026921179
 21
213.4288336908
 31
0.0
  0
LINE
  5
12CC
330
18
100
AcDbEntity
  8
1
  6
Continuous
100
AcDbLine
 10
183.3557026921179
 20
213.4288336908
 30
0.0
 11
182.3557026921179
 21
214.4288336908001
 31
0.0
  0
LINE
  5
12CD
330
18
100
AcDbEntity
  8
1
  6
Continuous
100
AcDbLine
 10
182.3557026921179
 20
214.4288336908001
 30
0.0
 11
176.3557026921179
 21
214.4288336908001
 31
0.0
  0
ARC
  5
12E3
330
18
100
AcDbEntity
  8
1
  6
Continuous
100
AcDbCircle
 10
186.8557026921179
 20
278.007457878842
 30
0.0
 40
0.5
100
AcDbArc
 50
0.000000000000007
 51
89.99999999998371
  0
LINE
  5
12E4
330
18
100
AcDbEntity
  8
1
  6
Continuous
100
AcDbLine
 10
187.3557026921179
 20
278.007457878842
 30
0.0
 11
187.3557026921179
 21
272.6629064691723
 31
0.0
  0
LINE
  5
12E5
330
18
100
AcDbEntity
  8
1
  6
Continuous
100
AcDbLine
 10
187.3557026921179
 20
300.0074578788419
 30
0.0
 11
187.3557026921179
 21
305.352008878842
 31
0.0
  0
ARC
  5
12E6
330
18
100
AcDbEntity
  8
1
  6
Continuous
100
AcDbCircle
 10
186.8557026921179
 20
300.0074578788419
 30
0.0
 40
0.5
100
AcDbArc
 50
269.9999999999495
 51
359.9999999999307
  0
ARC
  5
12E8
330
18
100
AcDbEntity
  8
1
  6
Continuous
100
AcDbCircle
 10
183.3557026921179
 20
305.352008878842
 30
0.0
 40
4.0
100
AcDbArc
 50
0.000000000000007
 51
67.97568699998762
  0
LINE
  5
12E9
330
18
100
AcDbEntity
  8
1
  6
Continuous
100
AcDbLine
 10
170.3557026921179
 20
280.007457878842
 30
0.0
 11
170.3557026921179
 21
279.507457878842
 31
0.0
  0
ARC
  5
12EA
330
18
100
AcDbEntity
  8
1
  6
Continuous
100
AcDbCircle
 10
169.3557026921179
 20
278.507457878842
 30
0.0
 40
1.0
100
AcDbArc
 50
0.000000000000007
 51
89.99999999998211
  0
LINE
  5
12EB
330
18
100
AcDbEntity
  8
1
  6
Continuous
100
AcDbLine
 10
170.3557026921179
 20
298.507457878842
 30
0.0
 11
170.3557026921179
 21
298.007457878842
 31
0.0
  0
ARC
  5
12EC
330
18
100
AcDbEntity
  8
1
  6
Continuous
100
AcDbCircle
 10
169.3557026921179
 20
299.507457878842
 30
0.0
 40
1.0
100
AcDbArc
 50
269.9999999999478
 51
359.9999999999307
  0
ARC
  5
12ED
330
18
100
AcDbEntity
  8
1
  6
Continuous
100
AcDbCircle
 10
183.3557026921179
 20
272.6629064691723
 30
0.0
 40
4.0
100
AcDbArc
 50
292.0243128370419
 51
0.0
  0
ARC
  5
131F
330
18
100
AcDbEntity
  8
1
  6
Continuous
100
AcDbCircle
 10
179.623528455607
 20
197.4288336857523
 30
0.0
 40
5.000001236510831
100
AcDbArc
 50
323.1301129089438
 51
36.86988709112315
  0
ARC
  5
1320
330
18
100
AcDbEntity
  8
1
  6
Continuous
100
AcDbCircle
 10
179.0878769286288
 20
197.4288336857523
 30
0.0
 40
5.000001236510831
100
AcDbArc
 50
143.1301129088768
 51
216.8698870910561
  0
ARC
  5
1321
330
18
100
AcDbEntity
  8
1
  6
Continuous
100
AcDbCircle
 10
174.3557039286286
 20
197.4288336907993
 30
0.0
 40
5.000001236510831
100
AcDbArc
 50
143.1301129088768
 51
216.8698870910561
  0
LINE
  5
140F
330
18
100
AcDbEntity
  8
1
  6
Continuous
100
AcDbLine
 10
315.48106162824
 20
200.4288336908001
 30
0.0
 11
299.48106162824
 21
200.4288336908001
 31
0.0
  0
LINE
  5
1410
330
18
100
AcDbEntity
  8
2
  6
Continuous
100
AcDbLine
 10
304.15756162824
 20
201.4288336908
 30
0.0
 11
304.15756162824
 21
214.1053336908
 31
0.0
  0
LINE
  5
1411
330
18
100
AcDbEntity
  8
1
  6
Continuous
100
AcDbLine
 10
303.48106162824
 20
213.4288336908
 30
0.0
 11
303.48106162824
 21
200.4288336908
 31
0.0
  0
LINE
  5
1412
330
18
100
AcDbEntity
  8
1
  6
Continuous
100
AcDbLine
 10
311.48106162824
 20
201.4288336908
 30
0.0
 11
303.48106162824
 21
201.4288336908
 31
0.0
  0
ARC
  5
1413
330
18
100
AcDbEntity
  8
1
  6
Continuous
100
AcDbCircle
 10
299.48106162824
 20
199.9288336908001
 30
0.0
 40
0.5
100
AcDbArc
 50
90.00000000001952
 51
180.0
  0
LINE
  5
1414
330
18
100
AcDbEntity
  8
1
  6
Continuous
100
AcDbLine
 10
298.9810616282398
 20
194.9288336908001
 30
0.0
 11
298.9810616282398
 21
199.9288336908001
 31
0.0
  0
ARC
  5
1415
330
18
100
AcDbEntity
  8
1
  6
Continuous
100
AcDbCircle
 10
315.48106162824
 20
199.9288336908001
 30
0.0
 40
0.5
100
AcDbArc
 50
0.0000000000358328
 51
90.00000000001952
  0
LINE
  5
1416
330
18
100
AcDbEntity
  8
1
  6
Continuous
100
AcDbLine
 10
315.98106162824
 20
194.9288336908001
 30
0.0
 11
315.98106162824
 21
199.9288336908001
 31
0.0
  0
ARC
  5
1417
330
18
100
AcDbEntity
  8
1
  6
Continuous
100
AcDbCircle
 10
315.48106162824
 20
194.9288336908001
 30
0.0
 40
0.5
100
AcDbArc
 50
270.0000000000521
 51
0.0000000000358328
  0
ARC
  5
1418
330
18
100
AcDbEntity
  8
1
  6
Continuous
100
AcDbCircle
 10
299.48106162824
 20
194.9288336908001
 30
0.0
 40
0.5
100
AcDbArc
 50
180.0000000000684
 51
270.0000000000521
  0
LINE
  5
1419
330
18
100
AcDbEntity
  8
2
  6
Continuous
100
AcDbLine
 10
310.8045616282399
 20
201.4288336908
 30
0.0
 11
310.8045616282399
 21
214.1053336908
 31
0.0
  0
LINE
  5
141A
330
18
100
AcDbEntity
  8
1
  6
Continuous
100
AcDbLine
 10
311.48106162824
 20
200.4288336908
 30
0.0
 11
311.48106162824
 21
213.4288336908
 31
0.0
  0
LINE
  5
141B
330
18
100
AcDbEntity
  8
1
  6
Continuous
100
AcDbLine
 10
304.48106162824
 20
214.4288336908001
 30
0.0
 11
303.48106162824
 21
213.4288336908
 31
0.0
  0
LINE
  5
141C
330
18
100
AcDbEntity
  8
1
  6
Continuous
100
AcDbLine
 10
311.48106162824
 20
213.4288336908
 30
0.0
 11
303.48106162824
 21
213.4288336908
 31
0.0
  0
LINE
  5
141D
330
18
100
AcDbEntity
  8
1
  6
Continuous
100
AcDbLine
 10
311.48106162824
 20
213.4288336908
 30
0.0
 11
310.48106162824
 21
214.4288336908001
 31
0.0
  0
LINE
  5
141E
330
18
100
AcDbEntity
  8
1
  6
Continuous
100
AcDbLine
 10
310.48106162824
 20
214.4288336908001
 30
0.0
 11
304.48106162824
 21
214.4288336908001
 31
0.0
  0
LINE
  5
14E0
330
18
100
AcDbEntity
  8
1
  6
Continuous
100
AcDbLine
 10
57.43034375599581
 20
158.2288336908002
 30
0.0
 11
45.03034375599577
 21
158.2288336908002
 31
0.0
  0
LINE
  5
14E1
330
18
100
AcDbEntity
  8
1
  6
Continuous
100
AcDbLine
 10
57.43034375599581
 20
156.7288336908002
 30
0.0
 11
45.03034375599577
 21
156.7288336908002
 31
0.0
  0
LINE
  5
14E3
330
18
100
AcDbEntity
  8
1
  6
Continuous
100
AcDbLine
 10
55.23034375599582
 20
156.7288336908002
 30
0.0
 11
55.23034375599582
 21
152.4288336908003
 31
0.0
  0
LINE
  5
14E4
330
18
100
AcDbEntity
  8
1
  6
Continuous
100
AcDbLine
 10
51.23034375599582
 20
156.7288336908002
 30
0.0
 11
51.23034375599582
 21
153.2288336908002
 31
0.0
  0
LINE
  5
14E5
330
18
100
AcDbEntity
  8
1
  6
Continuous
100
AcDbLine
 10
47.23034375599581
 20
156.7288336908002
 30
0.0
 11
47.23034375599581
 21
152.4288336908003
 31
0.0
  0
LINE
  5
14E6
330
18
100
AcDbEntity
  8
1
  6
Continuous
100
AcDbLine
 10
55.23034375599582
 20
152.4288336908003
 30
0.0
 11
47.23034375599581
 21
152.4288336908003
 31
0.0
  0
ARC
  5
14E7
330
18
100
AcDbEntity
  8
1
  6
Continuous
100
AcDbCircle
 10
53.23034375599582
 20
155.3288336908003
 30
0.0
 40
2.9
100
AcDbArc
 50
226.3971810000001
 51
313.6028189999998
  0
ARC
  5
14E8
330
18
100
AcDbEntity
  8
1
  6
Continuous
100
AcDbCircle
 10
49.23034375599582
 20
155.3288336908003
 30
0.0
 40
2.9
100
AcDbArc
 50
226.3971810000001
 51
313.6028189999998
  0
LINE
  5
14EA
330
18
100
AcDbEntity
  8
1
  6
Continuous
100
AcDbLine
 10
45.03034375599577
 20
158.2288336908002
 30
0.0
 11
45.03034375599577
 21
156.7288336908002
 31
0.0
  0
LINE
  5
14EB
330
18
100
AcDbEntity
  8
1
  6
Continuous
100
AcDbLine
 10
48.23034375599582
 20
160.4288336908001
 30
0.0
 11
48.23034375599582
 21
158.2288336908002
 31
0.0
  0
LINE
  5
14EC
330
18
100
AcDbEntity
  8
1
  6
Continuous
100
AcDbLine
 10
54.23034375599582
 20
160.4288336908001
 30
0.0
 11
54.23034375599582
 21
158.2288336908002
 31
0.0
  0
LINE
  5
14EE
330
18
100
AcDbEntity
  8
1
  6
Continuous
100
AcDbLine
 10
57.43034375599581
 20
158.2288336908002
 30
0.0
 11
57.43034375599581
 21
156.7288336908002
 31
0.0
  0
ARC
  5
14EF
330
18
100
AcDbEntity
  8
1
  6
Continuous
100
AcDbCircle
 10
179.3557026921179
 20
66.85020950275822
 30
0.0
 40
6.0
100
AcDbArc
 50
15.82661999999996
 51
344.17338
  0
CIRCLE
  5
14F0
330
18
100
AcDbEntity
  8
1
  6
Continuous
100
AcDbCircle
 10
179.3557026921179
 20
66.85020950275822
 30
0.0
 40
4.0
  0
LINE
  5
14F2
330
18
100
AcDbEntity
  8
1
  6
Continuous
100
AcDbLine
 10
177.0463016921179
 20
62.8502095027582
 30
0.0
 11
174.736900692118
 21
66.85020950275822
 31
0.0
  0
LINE
  5
14F3
330
18
100
AcDbEntity
  8
1
  6
Continuous
100
AcDbLine
 10
183.974505692118
 20
66.85020950275822
 30
0.0
 11
181.6651036921178
 21
62.8502095027582
 31
0.0
  0
LINE
  5
14F5
330
18
100
AcDbEntity
  8
1
  6
Continuous
100
AcDbLine
 10
181.6651036921178
 20
62.8502095027582
 30
0.0
 11
177.0463016921179
 21
62.8502095027582
 31
0.0
  0
LINE
  5
14F7
330
18
100
AcDbEntity
  8
1
  6
Continuous
100
AcDbLine
 10
183.3971546921179
 20
65.8502095027582
 30
0.0
 11
184.6472046921178
 21
65.8502095027582
 31
0.0
  0
LINE
  5
14F8
330
18
100
AcDbEntity
  8
1
  6
Continuous
100
AcDbLine
 10
183.3971546921179
 20
67.8502095027582
 30
0.0
 11
184.6472046921178
 21
67.8502095027582
 31
0.0
  0
LINE
  5
14F9
330
18
100
AcDbEntity
  8
1
  6
Continuous
100
AcDbLine
 10
181.6651036921178
 20
70.8502095027582
 30
0.0
 11
183.974505692118
 21
66.85020950275822
 31
0.0
  0
LINE
  5
14FA
330
18
100
AcDbEntity
  8
1
  6
Continuous
100
AcDbLine
 10
177.0463016921179
 20
70.8502095027582
 30
0.0
 11
181.6651036921178
 21
70.8502095027582
 31
0.0
  0
LINE
  5
14FB
330
18
100
AcDbEntity
  8
1
  6
Continuous
100
AcDbLine
 10
174.736900692118
 20
66.85020950275822
 30
0.0
 11
177.0463016921179
 21
70.8502095027582
 31
0.0
  0
ARC
  5
14FC
330
18
100
AcDbEntity
  8
1
  6
Continuous
100
AcDbCircle
 10
184.6472046921178
 20
65.3502095027582
 30
0.0
 40
0.5
100
AcDbArc
 50
344.17338
 51
90.0
  0
ARC
  5
14FD
330
18
100
AcDbEntity
  8
1
  6
Continuous
100
AcDbCircle
 10
184.6472046921178
 20
68.3502095027582
 30
0.0
 40
0.5
100
AcDbArc
 50
270.0
 51
15.82661999999996
  0
LINE
  5
14FE
330
18
100
AcDbEntity
  8
1
  6
Continuous
100
AcDbLine
 10
307.48106162824
 20
156.7288336908002
 30
0.0
 11
307.48106162824
 21
153.2288336908002
 31
0.0
  0
LINE
  5
14FF
330
18
100
AcDbEntity
  8
1
  6
Continuous
100
AcDbLine
 10
303.48106162824
 20
156.7288336908002
 30
0.0
 11
303.48106162824
 21
152.4288336908003
 31
0.0
  0
LINE
  5
1500
330
18
100
AcDbEntity
  8
1
  6
Continuous
100
AcDbLine
 10
311.48106162824
 20
156.7288336908002
 30
0.0
 11
311.48106162824
 21
152.4288336908003
 31
0.0
  0
ARC
  5
1501
330
18
100
AcDbEntity
  8
1
  6
Continuous
100
AcDbCircle
 10
305.48106162824
 20
155.3288336908003
 30
0.0
 40
2.9
100
AcDbArc
 50
226.3971810000001
 51
313.6028189999998
  0
LINE
  5
1502
330
18
100
AcDbEntity
  8
1
  6
Continuous
100
AcDbLine
 10
303.48106162824
 20
152.4288336908003
 30
0.0
 11
311.48106162824
 21
152.4288336908003
 31
0.0
  0
ARC
  5
1503
330
18
100
AcDbEntity
  8
1
  6
Continuous
100
AcDbCircle
 10
309.48106162824
 20
155.3288336908003
 30
0.0
 40
2.9
100
AcDbArc
 50
226.3971810000001
 51
313.6028189999998
  0
LINE
  5
1504
330
18
100
AcDbEntity
  8
1
  6
Continuous
100
AcDbLine
 10
301.2810616282398
 20
158.2288336908002
 30
0.0
 11
306.48106162824
 21
158.2288336908002
 31
0.0
  0
LINE
  5
1505
330
18
100
AcDbEntity
  8
1
  6
Continuous
100
AcDbLine
 10
301.2810616282398
 20
156.7288336908002
 30
0.0
 11
313.6810616282398
 21
156.7288336908002
 31
0.0
  0
LINE
  5
1509
330
18
100
AcDbEntity
  8
1
  6
Continuous
100
AcDbLine
 10
301.2810616282398
 20
158.2288336908002
 30
0.0
 11
301.2810616282398
 21
156.7288336908002
 31
0.0
  0
LINE
  5
150A
330
18
100
AcDbEntity
  8
1
  6
Continuous
100
AcDbLine
 10
308.48106162824
 20
158.2288336908002
 30
0.0
 11
313.6810616282398
 21
158.2288336908002
 31
0.0
  0
LINE
  5
150B
330
18
100
AcDbEntity
  8
1
  6
Continuous
100
AcDbLine
 10
304.48106162824
 20
160.4288336908001
 30
0.0
 11
304.48106162824
 21
158.2288336908002
 31
0.0
  0
LINE
  5
150C
330
18
100
AcDbEntity
  8
1
  6
Continuous
100
AcDbLine
 10
306.48106162824
 20
158.2288336908002
 30
0.0
 11
306.48106162824
 21
156.7288336908002
 31
0.0
  0
LINE
  5
150D
330
18
100
AcDbEntity
  8
1
  6
Continuous
100
AcDbLine
 10
308.48106162824
 20
158.2288336908002
 30
0.0
 11
308.48106162824
 21
156.7288336908002
 31
0.0
  0
LINE
  5
150E
330
18
100
AcDbEntity
  8
1
  6
Continuous
100
AcDbLine
 10
310.48106162824
 20
160.4288336908001
 30
0.0
 11
310.48106162824
 21
158.2288336908002
 31
0.0
  0
LINE
  5
1510
330
18
100
AcDbEntity
  8
1
  6
Continuous
100
AcDbLine
 10
313.6810616282398
 20
158.2288336908002
 30
0.0
 11
313.6810616282398
 21
156.7288336908002
 31
0.0
  0
LINE
  5
1515
330
18
100
AcDbEntity
  8
4
  6
CENTER
 48
0.3
100
AcDbLine
 10
162.3557026921179
 20
37.41904850275825
 30
0.0
 11
162.3557026921179
 21
96.28137150275827
 31
0.0
  0
LINE
  5
1517
330
18
100
AcDbEntity
  8
1
  6
Continuous
100
AcDbLine
 10
147.2557026921179
 20
89.35020950275822
 30
0.0
 11
177.4557044580039
 21
89.35020950275822
 31
0.0
  0
ARC
  5
1518
330
18
100
AcDbEntity
  8
1
  6
Continuous
100
AcDbCircle
 10
162.3557026921179
 20
31.28137150275824
 30
0.0
 40
60.0
100
AcDbArc
 50
67.97568716295785
 51
106.127294999946
  0
LINE
  5
151A
330
18
100
AcDbEntity
  8
4
  6
CENTER
 48
0.3
100
AcDbLine
 10
125.9205326501792
 20
66.85020950275822
 30
0.0
 11
194.8557026921179
 21
66.85020950275822
 31
0.0
  0
LINE
  5
151B
330
18
100
AcDbEntity
  8
1
  6
Continuous
100
AcDbLine
 10
139.1017866921179
 20
57.8502095027582
 30
0.0
 11
185.8557026921179
 21
57.8502095027582
 31
0.0
  0
LINE
  5
151C
330
18
100
AcDbEntity
  8
1
  6
Continuous
100
AcDbLine
 10
139.1017866921179
 20
75.85020950275822
 30
0.0
 11
185.8557026921179
 21
75.85020950275826
 31
0.0
  0
LINE
  5
151D
330
18
100
AcDbEntity
  8
1
  6
Continuous
100
AcDbLine
 10
147.2557026921179
 20
44.35020950275827
 30
0.0
 11
177.4557006123854
 21
44.35020950275827
 31
0.0
  0
ARC
  5
151E
330
18
100
AcDbEntity
  8
1
  6
Continuous
100
AcDbCircle
 10
162.3557026921179
 20
102.4190485027582
 30
0.0
 40
60.0
100
AcDbArc
 50
253.8727049999861
 51
292.026380804226
  0
LINE
  5
151F
330
18
100
AcDbEntity
  8
1
  6
Continuous
100
AcDbLine
 10
186.8557026921179
 20
56.35020950275827
 30
0.0
 11
137.8557026921179
 21
56.35020950275827
 31
0.0
  0
LINE
  5
1520
330
18
100
AcDbEntity
  8
1
  6
Continuous
100
AcDbLine
 10
186.8557026921179
 20
77.35020950275822
 30
0.0
 11
137.8557026921179
 21
77.35020950275822
 31
0.0
  0
ARC
  5
1522
330
18
100
AcDbEntity
  8
1
  6
Continuous
100
AcDbCircle
 10
141.3557026921179
 20
50.50565850275824
 30
0.0
 40
4.0
100
AcDbArc
 50
180.0
 51
247.9756869999876
  0
ARC
  5
1524
330
18
100
AcDbEntity
  8
1
  6
Continuous
100
AcDbCircle
 10
238.6959626921179
 20
66.85020950275822
 30
0.0
 40
100.0
100
AcDbArc
 50
174.8363929999321
 51
185.1636069999304
  0
LINE
  5
1525
330
18
100
AcDbEntity
  8
1
  6
Continuous
100
AcDbLine
 10
137.3557026921179
 20
77.8502095027582
 30
0.0
 11
137.3557026921179
 21
83.19476050275824
 31
0.0
  0
ARC
  5
1526
330
18
100
AcDbEntity
  8
1
  6
Continuous
100
AcDbCircle
 10
162.3557026921179
 20
31.28137150275824
 30
0.0
 40
60.0
100
AcDbArc
 50
106.127294999946
 51
112.0243129999437
  0
ARC
  5
1527
330
18
100
AcDbEntity
  8
1
  6
Continuous
100
AcDbCircle
 10
141.3557026921179
 20
83.19476050275824
 30
0.0
 40
4.0
100
AcDbArc
 50
112.0243129999437
 51
179.9999999999307
  0
ARC
  5
1528
330
18
100
AcDbEntity
  8
1
  6
Continuous
100
AcDbCircle
 10
137.8557026921179
 20
77.8502095027582
 30
0.0
 40
0.5
100
AcDbArc
 50
180.0
 51
269.9999999999837
  0
ARC
  5
1529
330
18
100
AcDbEntity
  8
1
  6
Continuous
100
AcDbCircle
 10
137.8557026921179
 20
55.85020950275827
 30
0.0
 40
0.5
100
AcDbArc
 50
89.99999999994953
 51
179.9999999999307
  0
LINE
  5
152A
330
18
100
AcDbEntity
  8
1
  6
Continuous
100
AcDbLine
 10
137.3557026921179
 20
55.85020950275827
 30
0.0
 11
137.3557026921179
 21
50.50565850275824
 31
0.0
  0
ARC
  5
152B
330
18
100
AcDbEntity
  8
1
  6
Continuous
100
AcDbCircle
 10
162.3557026921179
 20
102.4190485027582
 30
0.0
 40
60.0
100
AcDbArc
 50
247.9756869999876
 51
253.8727049999861
  0
ARC
  5
152D
330
18
100
AcDbEntity
  8
1
  6
Continuous
100
AcDbCircle
 10
183.3557026921179
 20
50.50565850275824
 30
0.0
 40
4.0
100
AcDbArc
 50
292.0243130000123
 51
0.0
  0
LINE
  5
1533
330
18
100
AcDbEntity
  8
4
  6
CENTER
 48
0.3
100
AcDbLine
 10
179.3557026921179
 20
78.85020950275826
 30
0.0
 11
179.3557026921179
 21
54.85020950275822
 31
0.0
  0
LINE
  5
1536
330
18
100
AcDbEntity
  8
1
  6
Continuous
100
AcDbLine
 10
154.3557026921179
 20
76.35020950275822
 30
0.0
 11
170.3557026921179
 21
76.35020950275822
 31
0.0
  0
LINE
  5
1537
330
18
100
AcDbEntity
  8
1
  6
Continuous
100
AcDbLine
 10
154.3557026921179
 20
75.85020950275822
 30
0.0
 11
154.3557026921179
 21
76.35020950275822
 31
0.0
  0
ARC
  5
1538
330
18
100
AcDbEntity
  8
1
  6
Continuous
100
AcDbCircle
 10
155.3557026921179
 20
77.35020950275822
 30
0.0
 40
1.0
100
AcDbArc
 50
180.0
 51
269.9999999999821
  0
ARC
  5
1539
330
18
100
AcDbEntity
  8
1
  6
Continuous
100
AcDbCircle
 10
169.3557026921179
 20
77.35020950275822
 30
0.0
 40
1.0
100
AcDbArc
 50
270.0000000000179
 51
0.0
  0
LINE
  5
153A
330
18
100
AcDbEntity
  8
1
  6
Continuous
100
AcDbLine
 10
170.3557026921179
 20
75.85020950275822
 30
0.0
 11
170.3557026921179
 21
76.35020950275822
 31
0.0
  0
LINE
  5
153B
330
18
100
AcDbEntity
  8
1
  6
Continuous
100
AcDbLine
 10
154.3557026921179
 20
57.35020950275822
 30
0.0
 11
170.3557026921179
 21
57.35020950275822
 31
0.0
  0
LINE
  5
153C
330
18
100
AcDbEntity
  8
1
  6
Continuous
100
AcDbLine
 10
154.3557026921179
 20
57.35020950275822
 30
0.0
 11
154.3557026921179
 21
57.8502095027582
 31
0.0
  0
ARC
  5
153D
330
18
100
AcDbEntity
  8
1
  6
Continuous
100
AcDbCircle
 10
155.3557026921179
 20
56.35020950275827
 30
0.0
 40
1.0
100
AcDbArc
 50
89.99999999994789
 51
179.9999999999307
  0
ARC
  5
153E
330
18
100
AcDbEntity
  8
1
  6
Continuous
100
AcDbCircle
 10
169.3557026921179
 20
56.35020950275827
 30
0.0
 40
1.0
100
AcDbArc
 50
0.0000000000692229
 51
90.00000000005213
  0
LINE
  5
153F
330
18
100
AcDbEntity
  8
1
  6
Continuous
100
AcDbLine
 10
170.3557026921179
 20
57.35020950275822
 30
0.0
 11
170.3557026921179
 21
57.8502095027582
 31
0.0
  0
ARC
  5
1540
330
18
100
AcDbEntity
  8
1
  6
Continuous
100
AcDbCircle
 10
181.3557026921179
 20
66.85020950275822
 30
0.0
 40
8.5
100
AcDbArc
 50
301.9657187507969
 51
58.03428124920303
  0
LINE
  5
1543
330
18
100
AcDbEntity
  8
1
  6
Continuous
100
AcDbLine
 10
187.3557026921179
 20
77.8502095027582
 30
0.0
 11
187.3557026921179
 21
83.19476091242789
 31
0.0
  0
ARC
  5
1544
330
18
100
AcDbEntity
  8
1
  6
Continuous
100
AcDbCircle
 10
183.3557026921179
 20
83.19476091242789
 30
0.0
 40
4.0
100
AcDbArc
 50
0.0
 51
67.97568716295801
  0
ARC
  5
1545
330
18
100
AcDbEntity
  8
1
  6
Continuous
100
AcDbCircle
 10
186.8557026921179
 20
77.8502095027582
 30
0.0
 40
0.5
100
AcDbArc
 50
270.0000000000162
 51
0.0
  0
LINE
  5
1546
330
18
100
AcDbEntity
  8
1
  6
Continuous
100
AcDbLine
 10
185.8557026921179
 20
75.85020950275822
 30
0.0
 11
185.8557026921179
 21
74.0613120536862
 31
0.0
  0
ARC
  5
1547
330
18
100
AcDbEntity
  8
1
  6
Continuous
100
AcDbCircle
 10
186.8557026921179
 20
55.85020950275827
 30
0.0
 40
0.5
100
AcDbArc
 50
0.0000000000692229
 51
90.0000000000505
  0
LINE
  5
1548
330
18
100
AcDbEntity
  8
1
  6
Continuous
100
AcDbLine
 10
185.8557026921179
 20
59.63910695183024
 30
0.0
 11
185.8557026921179
 21
57.8502095027582
 31
0.0
  0
LINE
  5
1549
330
18
100
AcDbEntity
  8
1
  6
Continuous
100
AcDbLine
 10
187.3557026921179
 20
55.85020950275827
 30
0.0
 11
187.3557026921179
 21
50.50565850275824
 31
0.0
  0
CIRCLE
  5
1657
330
18
100
AcDbEntity
  8
1
  6
Continuous
100
AcDbCircle
 10
452.606420564362
 20
167.9288336908001
 30
0.0
 40
15.09999999999999
  0
LINE
  5
1658
330
18
100
AcDbEntity
  8
4
  6
CENTER
 48
0.3
100
AcDbLine
 10
422.606420564362
 20
167.9288336908001
 30
0.0
 11
482.606420564362
 21
167.9288336908001
 31
0.0
  0
CIRCLE
  5
1659
330
18
100
AcDbEntity
  8
1
  6
Continuous
100
AcDbCircle
 10
452.606420564362
 20
167.9288336908001
 30
0.0
 40
25.0
  0
LINE
  5
165B
330
18
100
AcDbEntity
  8
4
  6
CENTER
 48
0.3
100
AcDbLine
 10
435.606420564362
 20
152.4288336908001
 30
0.0
 11
435.6064205643621
 21
219.4288336908
 31
0.0
  0
LINE
  5
165C
330
18
100
AcDbEntity
  8
1
  6
Continuous
100
AcDbLine
 10
427.0510505643621
 20
193.4875556908001
 30
0.0
 11
425.199836564362
 21
162.0169166908001
 31
0.0
  0
LINE
  5
165D
330
18
100
AcDbEntity
  8
4
  6
CENTER
 48
0.3
100
AcDbLine
 10
452.606420564362
 20
137.9288336908001
 30
0.0
 11
452.606420564362
 21
197.9288336908001
 31
0.0
  0
LINE
  5
165F
330
18
100
AcDbEntity
  8
1
  6
Continuous
100
AcDbLine
 10
449.606420564362
 20
155.5288336908001
 30
0.0
 11
455.606420564362
 21
155.5288336908001
 31
0.0
  0
LINE
  5
1660
330
18
100
AcDbEntity
  8
1
  6
Continuous
100
AcDbLine
 10
455.606420564362
 20
155.5288336908001
 30
0.0
 11
455.606420564362
 21
153.1298472234093
 31
0.0
  0
LINE
  5
1661
330
18
100
AcDbEntity
  8
1
  6
Continuous
100
AcDbLine
 10
449.606420564362
 20
155.5288336908001
 30
0.0
 11
449.606420564362
 21
153.1298472234093
 31
0.0
  0
ARC
  5
1662
330
18
100
AcDbEntity
  8
1
  6
Continuous
100
AcDbCircle
 10
426.6972485643621
 20
161.9288336908001
 30
0.0
 40
1.5
100
AcDbArc
 50
176.6335389999657
 51
269.9999999999478
  0
LINE
  5
1663
330
18
100
AcDbEntity
  8
1
  6
Continuous
100
AcDbLine
 10
426.6972485643621
 20
160.4288336908001
 30
0.0
 11
428.757940564362
 21
160.4288336908001
 31
0.0
  0
LINE
  5
1668
330
18
100
AcDbEntity
  8
1
  6
Continuous
100
AcDbLine
 10
432.606420564362
 20
214.4288336908001
 30
0.0
 11
438.606420564362
 21
214.4288336908001
 31
0.0
  0
LINE
  5
1669
330
18
100
AcDbEntity
  8
1
  6
Continuous
100
AcDbLine
 10
431.606420564362
 20
213.4288336908
 30
0.0
 11
439.606420564362
 21
213.4288336908
 31
0.0
  0
LINE
  5
166A
330
18
100
AcDbEntity
  8
1
  6
Continuous
100
AcDbLine
 10
431.606420564362
 20
201.4288336908
 30
0.0
 11
439.606420564362
 21
201.4288336908
 31
0.0
  0
LINE
  5
166B
330
18
100
AcDbEntity
  8
1
  6
Continuous
100
AcDbLine
 10
426.6064202532975
 20
194.4288336908001
 30
0.0
 11
444.6064198754267
 21
194.4288336908001
 31
0.0
  0
LINE
  5
166C
330
18
100
AcDbEntity
  8
1
  6
Continuous
100
AcDbLine
 10
426.6064205643621
 20
200.4288336908001
 30
0.0
 11
444.6064205643621
 21
200.4288336908001
 31
0.0
  0
LINE
  5
166D
330
18
100
AcDbEntity
  8
1
  6
Continuous
100
AcDbLine
 10
439.606420564362
 20
213.4288336908
 30
0.0
 11
439.606420564362
 21
200.4288336908
 31
0.0
  0
LINE
  5
166E
330
18
100
AcDbEntity
  8
2
  6
Continuous
100
AcDbLine
 10
438.929920564362
 20
201.4288336908
 30
0.0
 11
438.929920564362
 21
214.1053336908
 31
0.0
  0
ARC
  5
166F
330
18
100
AcDbEntity
  8
1
  6
Continuous
100
AcDbCircle
 10
447.106420564362
 20
193.8517966908001
 30
0.0
 40
3.0
100
AcDbArc
 50
188.0250999999639
 51
224.8294189999566
  0
ARC
  5
1670
330
18
100
AcDbEntity
  8
1
  6
Continuous
100
AcDbCircle
 10
443.106420564362
 20
193.4288336908001
 30
0.0
 40
1.0
100
AcDbArc
 50
0.000000000000007
 51
89.99999999998211
  0
ARC
  5
1671
330
18
100
AcDbEntity
  8
1
  6
Continuous
100
AcDbCircle
 10
440.6064193278512
 20
197.4288336907993
 30
0.0
 40
5.000001236510831
100
AcDbArc
 50
323.1301129089438
 51
36.86988709112315
  0
ARC
  5
1672
330
18
100
AcDbEntity
  8
1
  6
Continuous
100
AcDbCircle
 10
435.8742463278511
 20
197.4288336857523
 30
0.0
 40
5.000001236510831
100
AcDbArc
 50
323.1301129089438
 51
36.86988709112315
  0
LINE
  5
1673
330
18
100
AcDbEntity
  8
1
  6
Continuous
100
AcDbLine
 10
438.606420564362
 20
214.4288336908001
 30
0.0
 11
439.606420564362
 21
213.4288336908
 31
0.0
  0
LINE
  5
1674
330
18
100
AcDbEntity
  8
1
  6
Continuous
100
AcDbLine
 10
431.606420564362
 20
200.4288336908
 30
0.0
 11
431.606420564362
 21
213.4288336908
 31
0.0
  0
LINE
  5
1675
330
18
100
AcDbEntity
  8
2
  6
Continuous
100
AcDbLine
 10
432.282920564362
 20
201.4288336908
 30
0.0
 11
432.282920564362
 21
214.1053336908
 31
0.0
  0
ARC
  5
1676
330
18
100
AcDbEntity
  8
1
  6
Continuous
100
AcDbCircle
 10
428.049325564362
 20
193.4288336908001
 30
0.0
 40
1.0
100
AcDbArc
 50
89.99999999998211
 51
176.6335389999665
  0
ARC
  5
1677
330
18
100
AcDbEntity
  8
1
  6
Continuous
100
AcDbCircle
 10
435.338594800873
 20
197.4288336857523
 30
0.0
 40
5.000001236510831
100
AcDbArc
 50
143.1301129088768
 51
216.8698870910561
  0
ARC
  5
1678
330
18
100
AcDbEntity
  8
1
  6
Continuous
100
AcDbCircle
 10
430.6064218008727
 20
197.4288336907993
 30
0.0
 40
5.000001236510831
100
AcDbArc
 50
143.1301129088768
 51
216.8698870910561
  0
LINE
  5
1679
330
18
100
AcDbEntity
  8
1
  6
Continuous
100
AcDbLine
 10
431.606420564362
 20
213.4288336908
 30
0.0
 11
432.606420564362
 21
214.4288336908001
 31
0.0
  0
ARC
  5
1D4F
330
18
100
AcDbEntity
  8
1
  6
Continuous
100
AcDbCircle
 10
135.074463692118
 20
211.9702306908
 30
0.0
 40
26.0
100
AcDbArc
 50
261.6038820000543
 51
302.0679830000457
  0
LINE
  5
1D6E
330
18
100
AcDbEntity
  8
1
  6
Continuous
100
AcDbLine
 10
130.9205326501791
 20
60.41428950275824
 30
0.0
 11
130.9205326501791
 21
73.28613050275817
 31
0.0
  0
ARC
  5
1D71
330
18
100
AcDbEntity
  8
1
  6
Continuous
100
AcDbCircle
 10
136.2567236501793
 20
68.57290750275821
 30
0.0
 40
10.23935099999998
100
AcDbArc
 50
242.0099849999981
 51
266.7318009999977
  0
ARC
  5
1D72
330
18
100
AcDbEntity
  8
1
  6
Continuous
100
AcDbCircle
 10
131.9205326501792
 20
60.41428950275824
 30
0.0
 40
1.0
100
AcDbArc
 50
180.0
 51
242.0099849999981
  0
LINE
  5
1D76
330
18
100
AcDbEntity
  8
1
  6
Continuous
100
AcDbLine
 10
139.057867567813
 20
58.35020950275816
 30
0.0
 11
135.672981839105
 21
58.35020950275816
 31
0.0
  0
LINE
  5
1D78
330
18
100
AcDbEntity
  8
1
  6
Continuous
100
AcDbLine
 10
146.2590046921178
 20
56.35020950275805
 30
0.0
 11
146.2590046921178
 21
57.85020950275811
 31
0.0
  0
LINE
  5
1D79
330
18
100
AcDbEntity
  8
1
  6
Continuous
100
AcDbLine
 10
148.3639576921178
 20
57.85020950275804
 30
0.0
 11
148.3639576921178
 21
56.35020950275805
 31
0.0
  0
LINE
  5
1D7A
330
18
100
AcDbEntity
  8
1
  6
Continuous
100
AcDbLine
 10
144.2778726921176
 20
56.35020950275805
 30
0.0
 11
144.2778726921176
 21
57.85020950275811
 31
0.0
  0
ARC
  5
1D7C
330
18
100
AcDbEntity
  8
1
  6
Continuous
100
AcDbCircle
 10
136.2567236501793
 20
65.12729150275834
 30
0.0
 40
10.23935099999998
100
AcDbArc
 50
93.24654099999891
 51
118.1054609999985
  0
ARC
  5
1D7D
330
18
100
AcDbEntity
  8
1
  6
Continuous
100
AcDbCircle
 10
131.9205326501792
 20
73.28613050275817
 30
0.0
 40
1.0
100
AcDbArc
 50
119.1781050000001
 51
180.0
  0
LINE
  5
1D7E
330
18
100
AcDbEntity
  8
1
  6
Continuous
100
AcDbLine
 10
139.057867567813
 20
75.35020950275833
 30
0.0
 11
135.6768473991763
 21
75.35020950275833
 31
0.0
  0
LINE
  5
1D81
330
18
100
AcDbEntity
  8
1
  6
Continuous
100
AcDbLine
 10
148.3639576921178
 20
77.35020950275799
 30
0.0
 11
148.3639576921178
 21
75.85020950275804
 31
0.0
  0
LINE
  5
1D82
330
18
100
AcDbEntity
  8
1
  6
Continuous
100
AcDbLine
 10
146.2590046921178
 20
77.35020950275799
 30
0.0
 11
146.2590046921178
 21
75.85020950275811
 31
0.0
  0
LINE
  5
1D83
330
18
100
AcDbEntity
  8
1
  6
Continuous
100
AcDbLine
 10
144.2778726921176
 20
77.35020950275799
 30
0.0
 11
144.2778726921176
 21
75.85020950275811
 31
0.0
  0
LINE
  5
1D87
330
18
100
AcDbEntity
  8
1
  6
Continuous
100
AcDbLine
 10
42.2303437559958
 20
181.2744276908
 30
0.0
 11
42.2303437559958
 21
193.4288336908001
 31
0.0
  0
LINE
  5
1D88
330
18
100
AcDbEntity
  8
1
  6
Continuous
100
AcDbLine
 10
60.23034375599582
 20
181.2744276908
 30
0.0
 11
60.23034375599582
 21
193.4288336908001
 31
0.0
  0
LINE
  5
1D89
330
18
100
AcDbEntity
  8
1
  6
Continuous
100
AcDbLine
 10
42.73034375599581
 20
175.2905306908
 30
0.0
 11
42.73034375599581
 21
188.4829136908003
 31
0.0
  0
LINE
  5
1D8A
330
18
100
AcDbEntity
  8
1
  6
Continuous
100
AcDbLine
 10
59.73034375599581
 20
175.2905306908
 30
0.0
 11
59.73034375599581
 21
188.4829136908003
 31
0.0
  0
LINE
  5
1D8B
330
18
100
AcDbEntity
  8
1
  6
Continuous
100
AcDbLine
 10
56.88034375599579
 20
175.2675016908002
 30
0.0
 11
56.88034375599579
 21
184.1812846380981
 31
0.0
  0
LINE
  5
1D8C
330
18
100
AcDbEntity
  8
1
  6
Continuous
100
AcDbLine
 10
45.58034375599585
 20
184.1812846380981
 30
0.0
 11
45.58034375599585
 21
175.2675016908002
 31
0.0
  0
ARC
  5
1D8D
330
18
100
AcDbEntity
  8
1
  6
Continuous
100
AcDbCircle
 10
143.2678806921177
 20
180.6770246908
 30
0.0
 40
5.0
100
AcDbArc
 50
156.2191590000046
 51
217.6815799999926
  0
ARC
  5
1D8E
330
18
100
AcDbEntity
  8
5
  6
PHANTOM
 48
0.2
100
AcDbCircle
 10
109.5227646921179
 20
174.0882786907999
 30
0.0
 40
26.0
100
AcDbArc
 50
347.6038820000362
 51
28.06798300002888
  0
ARC
  5
1D8F
330
18
100
AcDbEntity
  8
5
  6
PHANTOM
 48
0.2
100
AcDbCircle
 10
109.5227646921179
 20
174.0882786907999
 30
0.0
 40
28.0
100
AcDbArc
 50
349.1940280000351
 51
26.69406400003092
  0
LINE
  5
1D9B
330
18
100
AcDbEntity
  8
1
  6
Continuous
100
AcDbLine
 10
45.58034375599585
 20
177.9675016908004
 30
0.0
 11
56.88034375599579
 21
177.9675016908004
 31
0.0
  0
LINE
  5
1DA0
330
18
100
AcDbEntity
  8
1
  6
Continuous
100
AcDbLine
 10
42.2303437559958
 20
160.4288336908001
 30
0.0
 11
42.2303437559958
 21
178.5503716908001
 31
0.0
  0
LINE
  5
1DAF
330
18
100
AcDbEntity
  8
1
  6
Continuous
100
AcDbLine
 10
42.73034375599581
 20
177.4675016908001
 30
0.0
 11
45.58034375599585
 21
177.4675016908001
 31
0.0
  0
LINE
  5
1DB0
330
18
100
AcDbEntity
  8
1
  6
Continuous
100
AcDbLine
 10
42.2303437559958
 20
175.2675016908002
 30
0.0
 11
45.58034375599585
 21
175.2675016908002
 31
0.0
  0
LINE
  5
1DB1
330
18
100
AcDbEntity
  8
1
  6
Continuous
100
AcDbLine
 10
40.73034375599582
 20
178.9218336908
 30
0.0
 11
42.73034375599581
 21
178.9218336908
 31
0.0
  0
LINE
  5
1DB2
330
18
100
AcDbEntity
  8
1
  6
Continuous
100
AcDbLine
 10
40.73034375599582
 20
178.5503716908001
 30
0.0
 11
42.73034375599581
 21
178.5503716908001
 31
0.0
  0
LINE
  5
1DB3
330
18
100
AcDbEntity
  8
1
  6
Continuous
100
AcDbLine
 10
40.73034375599582
 20
181.2744276908
 30
0.0
 11
42.73034375599581
 21
181.2744276908
 31
0.0
  0
LINE
  5
1DB7
330
18
100
AcDbEntity
  8
1
  6
Continuous
100
AcDbLine
 10
60.23034375599582
 20
160.4288336908001
 30
0.0
 11
60.23034375599582
 21
178.5503716908001
 31
0.0
  0
LINE
  5
1DBF
330
18
100
AcDbEntity
  8
1
  6
Continuous
100
AcDbLine
 10
56.88034375599579
 20
177.4675016908001
 30
0.0
 11
59.73034375599581
 21
177.4675016908001
 31
0.0
  0
LINE
  5
1DC0
330
18
100
AcDbEntity
  8
1
  6
Continuous
100
AcDbLine
 10
56.88034375599579
 20
175.2675016908002
 30
0.0
 11
60.23034375599582
 21
175.2675016908002
 31
0.0
  0
LINE
  5
1DC1
330
18
100
AcDbEntity
  8
1
  6
Continuous
100
AcDbLine
 10
61.73034375599582
 20
178.9218336908
 30
0.0
 11
59.73034375599581
 21
178.9218336908
 31
0.0
  0
LINE
  5
1DC2
330
18
100
AcDbEntity
  8
1
  6
Continuous
100
AcDbLine
 10
61.73034375599582
 20
178.5503716908001
 30
0.0
 11
59.73034375599581
 21
178.5503716908001
 31
0.0
  0
LINE
  5
1DC3
330
18
100
AcDbEntity
  8
1
  6
Continuous
100
AcDbLine
 10
61.73034375599582
 20
181.2744276908
 30
0.0
 11
59.73034375599581
 21
181.2744276908
 31
0.0
  0
ARC
  5
1DC6
330
18
100
AcDbEntity
  8
5
  6
PHANTOM
 48
0.2
100
AcDbCircle
 10
135.5422016921178
 20
170.1096316908
 30
0.0
 40
2.0
100
AcDbArc
 50
258.7183920000545
 51
314.3976990000438
  0
ARC
  5
1DC7
330
18
100
AcDbEntity
  8
5
  6
PHANTOM
 48
0.2
100
AcDbCircle
 10
135.2096276921178
 20
168.4424806908
 30
0.0
 40
0.3
100
AcDbArc
 50
167.6038820000701
 51
258.7183920000545
  0
ARC
  5
1DC8
330
18
100
AcDbEntity
  8
5
  6
PHANTOM
 48
0.2
100
AcDbCircle
 10
136.7315796921179
 20
168.8949806908
 30
0.0
 40
0.3
100
AcDbArc
 50
314.3976990000438
 51
349.1940280000389
  0
ARC
  5
1DC9
330
18
100
AcDbEntity
  8
5
  6
PHANTOM
 48
0.2
100
AcDbCircle
 10
138.5147406921177
 20
174.7704126908
 30
0.0
 40
1.0
100
AcDbArc
 50
84.20794500008847
 51
181.3478260000707
  0
LINE
  5
1DCB
330
18
100
AcDbEntity
  8
1
  6
Continuous
100
AcDbLine
 10
44.73034375599581
 20
184.1812846380981
 30
0.0
 11
57.73034375599582
 21
184.1812846380981
 31
0.0
  0
LINE
  5
1DCC
330
18
100
AcDbEntity
  8
1
  6
Continuous
100
AcDbLine
 10
57.73034375599582
 20
186.2521086380979
 30
0.0
 11
44.73034375599581
 21
186.2521086380979
 31
0.0
  0
LINE
  5
1DCD
330
18
100
AcDbEntity
  8
1
  6
Continuous
100
AcDbLine
 10
44.23034375599582
 20
189.9829136908003
 30
0.0
 11
58.23034375599582
 21
189.9829136908003
 31
0.0
  0
ARC
  5
1DDA
330
18
100
AcDbEntity
  8
1
  6
Continuous
100
AcDbCircle
 10
44.23034375599582
 20
188.4829136908003
 30
0.0
 40
1.5
100
AcDbArc
 50
90.0
 51
180.0
  0
ARC
  5
1DDB
330
18
100
AcDbEntity
  8
1
  6
Continuous
100
AcDbCircle
 10
45.42015175599579
 20
187.100901638098
 30
0.0
 40
3.0
100
AcDbArc
 50
206.2849609999999
 51
251.4687099999978
  0
ARC
  5
1DDC
330
18
100
AcDbEntity
  8
1
  6
Continuous
100
AcDbCircle
 10
44.73034375599581
 20
185.752108638098
 30
0.0
 40
0.5
100
AcDbArc
 50
90.0
 51
180.0
  0
LINE
  5
1DDD
330
18
100
AcDbEntity
  8
1
  6
Continuous
100
AcDbLine
 10
44.23034375599582
 20
185.752108638098
 30
0.0
 11
44.23034375599582
 21
184.6812846380981
 31
0.0
  0
ARC
  5
1DDE
330
18
100
AcDbEntity
  8
1
  6
Continuous
100
AcDbCircle
 10
44.73034375599581
 20
184.6812846380981
 30
0.0
 40
0.5
100
AcDbArc
 50
180.0
 51
270.0
  0
ARC
  5
1DDF
330
18
100
AcDbEntity
  8
1
  6
Continuous
100
AcDbCircle
 10
45.42015175599579
 20
189.171725638098
 30
0.0
 40
3.0
100
AcDbArc
 50
206.2849609999999
 51
256.7066939999987
  0
LINE
  5
1DE0
330
18
100
AcDbEntity
  8
1
  6
Continuous
100
AcDbLine
 10
42.73034375599581
 20
187.1629776908
 30
0.0
 11
42.2303437559958
 21
187.1629776908
 31
0.0
  0
ARC
  5
1DEC
330
18
100
AcDbEntity
  8
1
  6
Continuous
100
AcDbCircle
 10
58.23034375599582
 20
188.4829136908003
 30
0.0
 40
1.5
100
AcDbArc
 50
0.0
 51
90.0
  0
LINE
  5
1DED
330
18
100
AcDbEntity
  8
1
  6
Continuous
100
AcDbLine
 10
58.23034375599582
 20
185.752108638098
 30
0.0
 11
58.23034375599582
 21
184.6812846380981
 31
0.0
  0
ARC
  5
1DEE
330
18
100
AcDbEntity
  8
1
  6
Continuous
100
AcDbCircle
 10
57.04053575599584
 20
187.100901638098
 30
0.0
 40
3.0
100
AcDbArc
 50
288.5312900000021
 51
333.715039
  0
ARC
  5
1DEF
330
18
100
AcDbEntity
  8
1
  6
Continuous
100
AcDbCircle
 10
57.73034375599582
 20
185.752108638098
 30
0.0
 40
0.5
100
AcDbArc
 50
0.0
 51
90.0
  0
ARC
  5
1DF0
330
18
100
AcDbEntity
  8
1
  6
Continuous
100
AcDbCircle
 10
57.73034375599582
 20
184.6812846380981
 30
0.0
 40
0.5
100
AcDbArc
 50
270.0
 51
0.0
  0
ARC
  5
1DF1
330
18
100
AcDbEntity
  8
1
  6
Continuous
100
AcDbCircle
 10
57.04053575599584
 20
189.171725638098
 30
0.0
 40
3.0
100
AcDbArc
 50
283.2933060000012
 51
333.715039
  0
LINE
  5
1DF2
330
18
100
AcDbEntity
  8
1
  6
Continuous
100
AcDbLine
 10
59.73034375599581
 20
187.1629776908
 30
0.0
 11
60.23034375599582
 21
187.1629776908
 31
0.0
  0
ARC
  5
1DFC
330
18
100
AcDbEntity
  8
1
  6
Continuous
100
AcDbCircle
 10
135.074463692118
 20
211.9702306908
 30
0.0
 40
28.0
100
AcDbArc
 50
263.1940280000514
 51
290.2749473191459
  0
ARC
  5
1DFD
330
18
100
AcDbEntity
  8
5
  6
PHANTOM
 48
0.2
100
AcDbCircle
 10
133.5677346921178
 20
184.9838836908
 30
0.0
 40
2.0
100
AcDbArc
 50
65.58410600002305
 51
119.5385240000113
  0
ARC
  5
1DFE
330
18
100
AcDbEntity
  8
1
  6
Continuous
100
AcDbCircle
 10
132.9205326501793
 20
185.7366393466064
 30
0.0
 40
2.0
100
AcDbArc
 50
172.718392000072
 51
228.3976990000601
  0
ARC
  5
1DFF
330
18
100
AcDbEntity
  8
1
  6
Continuous
100
AcDbCircle
 10
131.2342435567256
 20
185.952108638098
 30
0.0
 40
0.3
100
AcDbArc
 50
81.603882000087
 51
172.718392000072
  0
ARC
  5
1E00
330
18
100
AcDbEntity
  8
1
  6
Continuous
100
AcDbCircle
 10
131.7918072941965
 20
184.4654288410463
 30
0.0
 40
0.3
100
AcDbArc
 50
228.3976990000601
 51
263.1940280000546
  0
ARC
  5
1E01
330
18
100
AcDbEntity
  8
5
  6
PHANTOM
 48
0.2
100
AcDbCircle
 10
132.7296196921178
 20
186.4629256908001
 30
0.0
 40
0.3
100
AcDbArc
 50
119.5385240000828
 51
208.0679830000624
  0
ARC
  5
1E02
330
18
100
AcDbEntity
  8
5
  6
PHANTOM
 48
0.2
100
AcDbCircle
 10
142.2442986921179
 20
180.6948586907999
 30
0.0
 40
6.5
100
AcDbArc
 50
73.94827400002046
 51
150.1139660000045
  0
ARC
  5
1E03
330
18
100
AcDbEntity
  8
1
  6
Continuous
100
AcDbCircle
 10
137.7773136921179
 20
183.0964606908
 30
0.0
 40
1.0
100
AcDbArc
 50
336.2191590000397
 51
95.34782600001866
  0
ARC
  5
1E04
330
18
100
AcDbEntity
  8
5
  6
PHANTOM
 48
0.2
100
AcDbCircle
 10
136.1751706921178
 20
184.1827936908
 30
0.0
 40
0.5
100
AcDbArc
 50
200.7440240000634
 51
330.1139660000396
  0
ARC
  5
1E05
330
18
100
AcDbEntity
  8
5
  6
PHANTOM
 48
0.2
100
AcDbCircle
 10
134.2704416921177
 20
186.5318516908
 30
0.0
 40
0.3
100
AcDbArc
 50
26.69406400003092
 51
65.58410600002305
  0
LINE
  5
1E06
330
18
100
AcDbEntity
  8
5
  6
PHANTOM
 48
0.2
100
AcDbLine
 10
144.0415816921178
 20
186.9414396907999
 30
0.0
 11
145.1918016921178
 21
186.1057556908001
 31
0.0
  0
ARC
  5
1E50
330
18
100
AcDbEntity
  8
1
  6
Continuous
100
AcDbCircle
 10
149.0377950454716
 20
189.6831181617601
 30
0.0
 40
0.3
100
AcDbArc
 50
33.53852400009888
 51
122.0679830000809
  0
ARC
  5
1E51
330
18
100
AcDbEntity
  8
1
  6
Continuous
100
AcDbCircle
 10
147.6208198644396
 20
188.7438720133366
 30
0.0
 40
2.0
100
AcDbArc
 50
18.55415851762724
 51
33.53852400002841
  0
LINE
  5
1E83
330
18
100
AcDbEntity
  8
1
  6
Continuous
100
AcDbLine
 10
296.98106162824
 20
178.5503716908001
 30
0.0
 11
298.48106162824
 21
178.5503716908001
 31
0.0
  0
LINE
  5
1E84
330
18
100
AcDbEntity
  8
1
  6
Continuous
100
AcDbLine
 10
296.98106162824
 20
181.2744276908
 30
0.0
 11
298.48106162824
 21
181.2744276908
 31
0.0
  0
LINE
  5
1E85
330
18
100
AcDbEntity
  8
1
  6
Continuous
100
AcDbLine
 10
296.98106162824
 20
180.9029656908001
 30
0.0
 11
298.48106162824
 21
180.9029656908001
 31
0.0
  0
LINE
  5
1E9C
330
18
100
AcDbEntity
  8
1
  6
Continuous
100
AcDbLine
 10
317.98106162824
 20
178.5503716908001
 30
0.0
 11
316.4810616282399
 21
178.5503716908001
 31
0.0
  0
LINE
  5
1E9D
330
18
100
AcDbEntity
  8
1
  6
Continuous
100
AcDbLine
 10
317.98106162824
 20
181.2744276908
 30
0.0
 11
316.4810616282399
 21
181.2744276908
 31
0.0
  0
LINE
  5
1E9E
330
18
100
AcDbEntity
  8
1
  6
Continuous
100
AcDbLine
 10
317.98106162824
 20
180.9029656908001
 30
0.0
 11
316.4810616282399
 21
180.9029656908001
 31
0.0
  0
ARC
  5
1EC2
330
18
100
AcDbEntity
  8
1
  6
Continuous
100
AcDbCircle
 10
146.7877816921179
 20
295.0074578788421
 30
0.0
 40
2.5
100
AcDbArc
 50
0.0
 51
90.0
  0
ARC
  5
1EC3
330
18
100
AcDbEntity
  8
1
  6
Continuous
100
AcDbCircle
 10
147.1140266921179
 20
295.0074578788421
 30
0.0
 40
2.5
100
AcDbArc
 50
0.0
 51
90.0
  0
ARC
  5
1EC4
330
18
100
AcDbEntity
  8
1
  6
Continuous
100
AcDbCircle
 10
146.7877816921179
 20
283.0074578788419
 30
0.0
 40
2.5
100
AcDbArc
 50
270.0
 51
0.0
  0
ARC
  5
1EC5
330
18
100
AcDbEntity
  8
1
  6
Continuous
100
AcDbCircle
 10
147.1140266921179
 20
283.0074578788419
 30
0.0
 40
2.5
100
AcDbArc
 50
270.0
 51
0.0
  0
LINE
  5
1ECF
330
18
100
AcDbEntity
  8
1
  6
Continuous
100
AcDbLine
 10
130.9205326501794
 20
282.5715378788422
 30
0.0
 11
130.9205326501794
 21
295.443378878842
 31
0.0
  0
ARC
  5
1ED0
330
18
100
AcDbEntity
  8
1
  6
Continuous
100
AcDbCircle
 10
136.2567236501795
 20
290.730155878842
 30
0.0
 40
10.23935099999998
100
AcDbArc
 50
242.0099849999981
 51
266.7318009999977
  0
ARC
  5
1ED1
330
18
100
AcDbEntity
  8
1
  6
Continuous
100
AcDbCircle
 10
131.9205326501794
 20
282.5715378788422
 30
0.0
 40
1.0
100
AcDbArc
 50
180.0
 51
242.0099849999981
  0
LINE
  5
1ED2
330
18
100
AcDbEntity
  8
1
  6
Continuous
100
AcDbLine
 10
147.1140266921179
 20
280.507457878842
 30
0.0
 11
135.6729818391052
 21
280.507457878842
 31
0.0
  0
LINE
  5
1ED3
330
18
100
AcDbEntity
  8
1
  6
Continuous
100
AcDbLine
 10
139.1017866921179
 20
280.0074578788419
 30
0.0
 11
144.2778726921178
 21
280.0074578788419
 31
0.0
  0
ARC
  5
1ED4
330
18
100
AcDbEntity
  8
1
  6
Continuous
100
AcDbCircle
 10
238.6959626921179
 20
289.0074578788419
 30
0.0
 40
100.0
100
AcDbArc
 50
184.8760248696117
 51
185.1636070000686
  0
LINE
  5
1ED7
330
18
100
AcDbEntity
  8
1
  6
Continuous
100
AcDbLine
 10
147.515155692118
 20
280.007457878842
 30
0.0
 11
147.515155692118
 21
280.5398488788421
 31
0.0
  0
LINE
  5
1ED8
330
18
100
AcDbEntity
  8
1
  6
Continuous
100
AcDbLine
 10
144.2778726921178
 20
278.5074578788419
 30
0.0
 11
144.2778726921178
 21
280.5074578788419
 31
0.0
  0
LINE
  5
1ED9
330
18
100
AcDbEntity
  8
1
  6
Continuous
100
AcDbLine
 10
148.3639576921179
 20
280.0074578788419
 30
0.0
 11
148.3639576921179
 21
278.5074578788419
 31
0.0
  0
LINE
  5
1EDA
330
18
100
AcDbEntity
  8
1
  6
Continuous
100
AcDbLine
 10
146.2590046921179
 20
278.5074578788419
 30
0.0
 11
146.2590046921179
 21
280.5074578788419
 31
0.0
  0
ARC
  5
1EDB
330
18
100
AcDbEntity
  8
1
  6
Continuous
100
AcDbCircle
 10
136.2567236501795
 20
287.2845398788422
 30
0.0
 40
10.23935099999998
100
AcDbArc
 50
93.24654099999891
 51
118.1054609999985
  0
ARC
  5
1EDC
330
18
100
AcDbEntity
  8
1
  6
Continuous
100
AcDbCircle
 10
131.9205326501794
 20
295.443378878842
 30
0.0
 40
1.0
100
AcDbArc
 50
119.1781050000001
 51
180.0
  0
LINE
  5
1EDE
330
18
100
AcDbEntity
  8
1
  6
Continuous
100
AcDbLine
 10
147.1140266921179
 20
297.5074578788421
 30
0.0
 11
135.6768473991764
 21
297.5074578788422
 31
0.0
  0
LINE
  5
1EDF
330
18
100
AcDbEntity
  8
1
  6
Continuous
100
AcDbLine
 10
139.1017866921179
 20
298.0074578788419
 30
0.0
 11
144.2778726921178
 21
298.0074578788419
 31
0.0
  0
ARC
  5
1EE1
330
18
100
AcDbEntity
  8
1
  6
Continuous
100
AcDbCircle
 10
238.6959626921179
 20
289.0074578788419
 30
0.0
 40
100.0
100
AcDbArc
 50
174.8363930000687
 51
175.1239751303882
  0
LINE
  5
1EE2
330
18
100
AcDbEntity
  8
1
  6
Continuous
100
AcDbLine
 10
147.515155692118
 20
297.475066878842
 30
0.0
 11
147.515155692118
 21
298.0074578788421
 31
0.0
  0
LINE
  5
1EE3
330
18
100
AcDbEntity
  8
1
  6
Continuous
100
AcDbLine
 10
144.2778726921178
 20
299.5074578788418
 30
0.0
 11
144.2778726921178
 21
297.5074578788419
 31
0.0
  0
LINE
  5
1EE4
330
18
100
AcDbEntity
  8
1
  6
Continuous
100
AcDbLine
 10
146.2590046921179
 20
299.5074578788418
 30
0.0
 11
146.2590046921179
 21
297.5074578788419
 31
0.0
  0
LINE
  5
1EE5
330
18
100
AcDbEntity
  8
1
  6
Continuous
100
AcDbLine
 10
148.3639576921179
 20
299.5074578788418
 30
0.0
 11
148.3639576921179
 21
298.0074578788419
 31
0.0
  0
LINE
  5
1EEE
330
18
100
AcDbEntity
  8
1
  6
Continuous
100
AcDbLine
 10
149.6140266921179
 20
283.0074578788419
 30
0.0
 11
149.6140266921179
 21
295.0074578788421
 31
0.0
  0
LINE
  5
1EEF
330
18
100
AcDbEntity
  8
1
  6
Continuous
100
AcDbLine
 10
149.2877816921177
 20
295.0074578788421
 30
0.0
 11
149.2877816921177
 21
283.0074578788419
 31
0.0
  0
ARC
  5
1EFC
330
18
100
AcDbEntity
  8
1
  6
Continuous
100
AcDbCircle
 10
471.6942425643622
 20
180.6770246908
 30
0.0
 40
5.0
100
AcDbArc
 50
322.3184200000073
 51
23.78084099999537
  0
ARC
  5
1F22
330
18
100
AcDbEntity
  8
1
  6
Continuous
100
AcDbCircle
 10
479.8876595643617
 20
211.9702306908001
 30
0.0
 40
28.0
100
AcDbArc
 50
249.7250526808541
 51
276.8059719999485
  0
ARC
  5
1F23
330
18
100
AcDbEntity
  8
1
  6
Continuous
100
AcDbCircle
 10
479.8876595643617
 20
211.9702306908001
 30
0.0
 40
26.0
100
AcDbArc
 50
237.9320169999541
 51
278.3961179999457
  0
ARC
  5
1F24
330
18
100
AcDbEntity
  8
1
  6
Continuous
100
AcDbCircle
 10
467.3413033920404
 20
188.7438720133368
 30
0.0
 40
2.0
100
AcDbArc
 50
146.4614759999715
 51
161.4458414823727
  0
ARC
  5
1F25
330
18
100
AcDbEntity
  8
1
  6
Continuous
100
AcDbCircle
 10
465.9243282110081
 20
189.6831181617601
 30
0.0
 40
0.3
100
AcDbArc
 50
57.93201699991907
 51
146.4614759999011
  0
ARC
  5
1F26
330
18
100
AcDbEntity
  8
1
  6
Continuous
100
AcDbCircle
 10
477.184809564362
 20
183.0964606908001
 30
0.0
 40
1.0
100
AcDbArc
 50
84.65217399998135
 51
203.7808409999603
  0
ARC
  5
1F27
330
18
100
AcDbEntity
  8
1
  6
Continuous
100
AcDbCircle
 10
482.0415906063006
 20
185.7366393466064
 30
0.0
 40
2.0
100
AcDbArc
 50
311.6023009999399
 51
7.281607999927932
  0
ARC
  5
1F28
330
18
100
AcDbEntity
  8
1
  6
Continuous
100
AcDbCircle
 10
483.1703159622835
 20
184.4654288410464
 30
0.0
 40
0.3
100
AcDbArc
 50
276.8059719999452
 51
311.6023009999399
  0
ARC
  5
1F29
330
18
100
AcDbEntity
  8
1
  6
Continuous
100
AcDbCircle
 10
483.7278796997543
 20
185.9521086380981
 30
0.0
 40
0.3
100
AcDbArc
 50
7.281607999927932
 51
98.39611799991301
  0
ENDSEC
  0
SECTION
  2
OBJECTS
  0
DICTIONARY
  5
C
330
0
100
AcDbDictionary
281
     1
  3
ACAD_CIP_PREVIOUS_PRODUCT_INFO
350
26C4
  3
ACAD_COLOR
350
26A7
  3
ACAD_DETAILVIEWSTYLE
350
26C0
  3
ACAD_GROUP
350
D
  3
ACAD_LAYOUT
350
94
  3
ACAD_MATERIAL
350
2675
  3
ACAD_MLEADERSTYLE
350
26BC
  3
ACAD_MLINESTYLE
350
1B
  3
ACAD_PLOTSETTINGS
350
95
  3
ACAD_PLOTSTYLENAME
350
2673
  3
ACAD_SCALELIST
350
26AA
  3
ACAD_SECTIONVIEWSTYLE
350
26BE
  3
ACAD_TABLESTYLE
350
26A8
  3
ACAD_VISUALSTYLE
350
268E
  3
ACDB_RECOMPOSE_DATA
350
2728
  3
AcDbVariableDictionary
350
26D7
  3
CONTENTDICTIONARY
350
3D
  3
DWGPROPS
350
2729
  0
DICTIONARY
  5
26C7
330
E
100
AcDbDictionary
280
     1
281
     1
  3
ADSK_XREC_LAYER_RECONCILED
360
26C8
  0
DICTIONARY
  5
26C9
330
4E
100
AcDbDictionary
280
     1
281
     1
  3
ADSK_XREC_LAYER_RECONCILED
360
26CA
  0
DICTIONARY
  5
26CB
330
4F
100
AcDbDictionary
280
     1
281
     1
  3
ADSK_XREC_LAYER_RECONCILED
360
26CC
  0
DICTIONARY
  5
26CD
330
50
100
AcDbDictionary
280
     1
281
     1
  3
ADSK_XREC_LAYER_RECONCILED
360
26CE
  0
DICTIONARY
  5
26CF
330
51
100
AcDbDictionary
280
     1
281
     1
  3
ADSK_XREC_LAYER_RECONCILED
360
26D0
  0
DICTIONARY
  5
26D1
330
52
100
AcDbDictionary
280
     1
281
     1
  3
ADSK_XREC_LAYER_RECONCILED
360
26D2
  0
DICTIONARY
  5
26D3
330
53
100
AcDbDictionary
280
     1
281
     1
  3
ADSK_XREC_LAYER_RECONCILED
360
26D4
  0
DICTIONARY
  5
26D5
330
54
100
AcDbDictionary
280
     1
281
     1
  3
ADSK_XREC_LAYER_RECONCILED
360
26D6
  0
DICTIONARY
  5
266E
330
18
100
AcDbDictionary
281
     1
  3
ACAD_LAYOUTSELFREF
350
266F
  0
DICTIONARY
  5
266C
330
15
100
AcDbDictionary
281
     1
  3
ACAD_LAYOUTSELFREF
350
266D
  0
XRECORD
  5
26C4
102
{ACAD_REACTORS
330
C
102
}
330
C
100
AcDbXrecord
280
     1
300
ACDLT
300
2014
300
ACDLT_F_S
  0
DICTIONARY
  5
26A7
102
{ACAD_REACTORS
330
C
102
}
330
C
100
AcDbDictionary
281
     1
  0
DICTIONARY
  5
26C0
102
{ACAD_REACTORS
330
C
102
}
330
C
100
AcDbDictionary
281
     1
  3
Imperial24
350
26C1
  0
DICTIONARY
  5
D
102
{ACAD_REACTORS
330
C
102
}
330
C
100
AcDbDictionary
281
     1
  0
DICTIONARY
  5
94
102
{ACAD_REACTORS
330
C
102
}
330
C
100
AcDbDictionary
281
     1
  3
Model
350
26C2
  3
レイアウト1
350
26C3
  0
DICTIONARY
  5
2675
102
{ACAD_REACTORS
330
C
102
}
330
C
100
AcDbDictionary
281
     1
  3
ByBlock
350
267E
  3
ByLayer
350
2676
  3
Global
350
2686
  0
DICTIONARY
  5
26BC
102
{ACAD_REACTORS
330
C
102
}
330
C
100
AcDbDictionary
281
     1
  3
Standard
350
26BD
  0
DICTIONARY
  5
1B
102
{ACAD_REACTORS
330
C
102
}
330
C
100
AcDbDictionary
281
     1
  3
STANDARD
350
1C
  0
DICTIONARY
  5
95
102
{ACAD_REACTORS
330
C
102
}
330
C
100
AcDbDictionary
281
     1
  0
ACDBDICTIONARYWDFLT
  5
2673
102
{ACAD_REACTORS
330
C
102
}
330
C
100
AcDbDictionary
281
     1
  3
Normal
350
2674
100
AcDbDictionaryWithDefault
340
2674
  0
DICTIONARY
  5
26AA
102
{ACAD_REACTORS
330
C
102
}
330
C
100
AcDbDictionary
281
     1
  3
A0
350
26AB
  3
A1
350
26AC
  3
A2
350
26AD
  3
A3
350
26AE
  3
A4
350
26AF
  3
A5
350
26B0
  3
A6
350
26B1
  3
A7
350
26B2
  3
A8
350
26B3
  3
A9
350
26B4
  3
B0
350
26B5
  3
B1
350
26B6
  3
B2
350
26B7
  3
B3
350
26B8
  3
B4
350
26B9
  3
B5
350
26BA
  3
B6
350
26BB
  0
DICTIONARY
  5
26BE
102
{ACAD_REACTORS
330
C
102
}
330
C
100
AcDbDictionary
281
     1
  3
Imperial24
350
26BF
  0
DICTIONARY
  5
26A8
102
{ACAD_REACTORS
330
C
102
}
330
C
100
AcDbDictionary
281
     1
  3
Standard
350
26A9
  0
DICTIONARY
  5
268E
102
{ACAD_REACTORS
330
C
102
}
330
C
100
AcDbDictionary
281
     1
  3
2dWireframe
350
2694
  3
Basic
350
2693
  3
Brighten
350
269A
  3
ColorChange
350
269E
  3
Conceptual
350
2697
  3
Dim
350
2699
  3
EdgeColorOff
350
26A6
  3
Facepattern
350
269D
  3
Flat
350
268F
  3
FlatWithEdges
350
2690
  3
Gouraud
350
2691
  3
GouraudWithEdges
350
2692
  3
Hidden
350
2696
  3
JitterOff
350
26A4
  3
Linepattern
350
269C
  3
OverhangOff
350
26A5
  3
Realistic
350
2698
  3
Shaded
350
26A3
  3
Shaded with edges
350
26A2
  3
Shades of Gray
350
269F
  3
Sketchy
350
26A0
  3
Thicken
350
269B
  3
Wireframe
350
2695
  3
X-Ray
350
26A1
  0
XRECORD
  5
2728
102
{ACAD_REACTORS
330
C
102
}
330
C
100
AcDbXrecord
280
     1
 90
        1
330
26A9
  0
DICTIONARY
  5
26D7
102
{ACAD_REACTORS
330
C
102
}
330
C
100
AcDbDictionary
281
     1
  3
CANNOSCALE
350
26DC
  3
CMLEADERSTYLE
350
26D9
  3
CTABLESTYLE
350
26D8
  3
CVIEWDETAILSTYLE
350
26DA
  3
CVIEWSECTIONSTYLE
350
26DB
  3
DIMASSOC
350
26DF
  3
INDEXCTL
350
26DE
  3
SORTENTS
350
26DD
  3
XCLIPFRAME
350
2726
  0
DICTIONARY
  5
3D
102
{ACAD_REACTORS
330
C
102
}
330
C
100
AcDbDictionary
281
     1
  0
XRECORD
  5
2729
102
{ACAD_REACTORS
330
C
102
}
330
C
100
AcDbXrecord
280
     1
  1
DWGPROPS COOKIE
  2

  3

  4

  6

  7

  8
Yoshitsune
  9

300
=
301
=
302
=
303
=
304
=
305
=
306
=
307
=
308
=
309
=
 40
0.0862819328703704
 41
2453811.402924803
 42
2457192.691324271
  1

 90
        0
  0
XRECORD
  5
26C8
102
{ACAD_REACTORS
330
26C7
102
}
330
26C7
100
AcDbXrecord
280
     1
290
     1
  0
XRECORD
  5
26CA
102
{ACAD_REACTORS
330
26C9
102
}
330
26C9
100
AcDbXrecord
280
     1
290
     1
  0
XRECORD
  5
26CC
102
{ACAD_REACTORS
330
26CB
102
}
330
26CB
100
AcDbXrecord
280
     1
290
     1
  0
XRECORD
  5
26CE
102
{ACAD_REACTORS
330
26CD
102
}
330
26CD
100
AcDbXrecord
280
     1
290
     1
  0
XRECORD
  5
26D0
102
{ACAD_REACTORS
330
26CF
102
}
330
26CF
100
AcDbXrecord
280
     1
290
     1
  0
XRECORD
  5
26D2
102
{ACAD_REACTORS
330
26D1
102
}
330
26D1
100
AcDbXrecord
280
     1
290
     1
  0
XRECORD
  5
26D4
102
{ACAD_REACTORS
330
26D3
102
}
330
26D3
100
AcDbXrecord
280
     1
290
     1
  0
XRECORD
  5
26D6
102
{ACAD_REACTORS
330
26D5
102
}
330
26D5
100
AcDbXrecord
280
     1
290
     1
  0
XRECORD
  5
266F
102
{ACAD_REACTORS
330
266E
102
}
330
266E
100
AcDbXrecord
280
     1
340
18
  0
XRECORD
  5
266D
102
{ACAD_REACTORS
330
266C
102
}
330
266C
100
AcDbXrecord
280
     1
340
15
  0
ACDBDETAILVIEWSTYLE
  5
26C1
102
{ACAD_XDICTIONARY
360
275D
102
}
102
{ACAD_REACTORS
330
26C0
102
}
330
26C0
100
AcDbModelDocViewStyle
 70
     0
  3
Imperial24
290
     0
100
AcDbDetailViewStyle
 70
     0
 71
     0
 90
        3
 71
     1
340
F
 40
0.24
340
0
 40
0.24
300

 40
0.36
280
     3
 71
     2
340
14
 90
       25
 71
     3
340
F
 40
0.24
 90
        1
 40
0.75
 90
        1
300
%<\AcVar ViewType \f "%tc1">% %<\AcVar ViewDetailId>%\PSCALE %<\AcVar ViewScale \f "%sn">%
 71
     4
340
14
 90
       25
340
14
 90
       25
280
     0
  0
LAYOUT
  5
26C2
102
{ACAD_XDICTIONARY
360
275F
102
}
102
{ACAD_REACTORS
330
94
102
}
330
94
100
AcDbPlotSettings
  1

  2
Canon LBP9100C
  4

  6

 40
0.0
 41
0.0
 42
0.0
 43
0.0
 44
0.0
 45
0.0
 46
0.0
 47
0.0
 48
0.0
 49
0.0
140
0.0
141
0.0
142
1.0
143
1.0
 70
  1712
 72
     0
 73
     0
 74
     0
  7

 75
     0
147
1.0
148
0.0
149
0.0
100
AcDbLayout
  1
Model
 70
     1
 71
     0
 10
0.0
 20
0.0
 11
12.0
 21
9.0
 12
0.0
 22
0.0
 32
0.0
 14
0.0
 24
0.0
 34
0.0
 15
0.0
 25
0.0
 35
0.0
146
0.0
 13
0.0
 23
0.0
 33
0.0
 16
1.0
 26
0.0
 36
0.0
 17
0.0
 27
1.0
 37
0.0
 76
     0
330
18
331
266B
  0
LAYOUT
  5
26C3
102
{ACAD_XDICTIONARY
360
2761
102
}
102
{ACAD_REACTORS
330
94
102
}
330
94
100
AcDbPlotSettings
  1

  2
Canon LBP9100C
  4

  6

 40
0.0
 41
0.0
 42
0.0
 43
0.0
 44
0.0
 45
0.0
 46
0.0
 47
0.0
 48
0.0
 49
0.0
140
0.0
141
0.0
142
1.0
143
1.0
 70
   688
 72
     0
 73
     0
 74
     5
  7

 75
    16
147
1.0
148
0.0
149
0.0
100
AcDbLayout
  1
レイアウト1
 70
     1
 71
     1
 10
0.0
 20
0.0
 11
420.0
 21
297.0
 12
0.0
 22
0.0
 32
0.0
 14
1.000000000000000E+20
 24
1.000000000000000E+20
 34
1.000000000000000E+20
 15
-1.000000000000000E+20
 25
-1.000000000000000E+20
 35
-1.000000000000000E+20
146
0.0
 13
0.0
 23
0.0
 33
0.0
 16
1.0
 26
0.0
 36
0.0
 17
0.0
 27
1.0
 37
0.0
 76
     0
330
15
  0
MATERIAL
  5
267E
102
{ACAD_XDICTIONARY
360
267F
102
}
102
{ACAD_REACTORS
330
2675
102
}
330
2675
100
AcDbMaterial
  1
ByBlock
 72
     0
 43
0.0208333333333333
 43
0.0
 43
0.0
 43
0.0
 43
0.0
 43
0.0208333333333333
 43
0.0
 43
0.0
 43
0.0
 43
0.0
 43
1.0
 43
0.0
 43
0.0
 43
0.0
 43
0.0
 43
1.0
 77
     0
 47
0.0208333333333333
 47
0.0
 47
0.0
 47
0.0
 47
0.0
 47
0.0208333333333333
 47
0.0
 47
0.0
 47
0.0
 47
0.0
 47
1.0
 47
0.0
 47
0.0
 47
0.0
 47
0.0
 47
1.0
171
     0
 49
0.0208333333333333
 49
0.0
 49
0.0
 49
0.0
 49
0.0
 49
0.0208333333333333
 49
0.0
 49
0.0
 49
0.0
 49
0.0
 49
1.0
 49
0.0
 49
0.0
 49
0.0
 49
0.0
 49
1.0
175
     0
142
0.0208333333333333
142
0.0
142
0.0
142
0.0
142
0.0
142
0.0208333333333333
142
0.0
142
0.0
142
0.0
142
0.0
142
1.0
142
0.0
142
0.0
142
0.0
142
0.0
142
1.0
179
     0
144
0.0208333333333333
144
0.0
144
0.0
144
0.0
144
0.0
144
0.0208333333333333
144
0.0
144
0.0
144
0.0
144
0.0
144
1.0
144
0.0
144
0.0
144
0.0
144
0.0
144
1.0
147
0.0208333333333333
147
0.0
147
0.0
147
0.0
147
0.0
147
0.0208333333333333
147
0.0
147
0.0
147
0.0
147
0.0
147
1.0
147
0.0
147
0.0
147
0.0
147
0.0
147
1.0
  0
MATERIAL
  5
2676
102
{ACAD_XDICTIONARY
360
2677
102
}
102
{ACAD_REACTORS
330
2675
102
}
330
2675
100
AcDbMaterial
  1
ByLayer
 72
     0
 43
0.0208333333333333
 43
0.0
 43
0.0
 43
0.0
 43
0.0
 43
0.0208333333333333
 43
0.0
 43
0.0
 43
0.0
 43
0.0
 43
1.0
 43
0.0
 43
0.0
 43
0.0
 43
0.0
 43
1.0
 77
     0
 47
0.0208333333333333
 47
0.0
 47
0.0
 47
0.0
 47
0.0
 47
0.0208333333333333
 47
0.0
 47
0.0
 47
0.0
 47
0.0
 47
1.0
 47
0.0
 47
0.0
 47
0.0
 47
0.0
 47
1.0
171
     0
 49
0.0208333333333333
 49
0.0
 49
0.0
 49
0.0
 49
0.0
 49
0.0208333333333333
 49
0.0
 49
0.0
 49
0.0
 49
0.0
 49
1.0
 49
0.0
 49
0.0
 49
0.0
 49
0.0
 49
1.0
175
     0
142
0.0208333333333333
142
0.0
142
0.0
142
0.0
142
0.0
142
0.0208333333333333
142
0.0
142
0.0
142
0.0
142
0.0
142
1.0
142
0.0
142
0.0
142
0.0
142
0.0
142
1.0
179
     0
144
0.0208333333333333
144
0.0
144
0.0
144
0.0
144
0.0
144
0.0208333333333333
144
0.0
144
0.0
144
0.0
144
0.0
144
1.0
144
0.0
144
0.0
144
0.0
144
0.0
144
1.0
147
0.0208333333333333
147
0.0
147
0.0
147
0.0
147
0.0
147
0.0208333333333333
147
0.0
147
0.0
147
0.0
147
0.0
147
1.0
147
0.0
147
0.0
147
0.0
147
0.0
147
1.0
  0
MATERIAL
  5
2686
102
{ACAD_XDICTIONARY
360
2687
102
}
102
{ACAD_REACTORS
330
2675
102
}
330
2675
100
AcDbMaterial
  1
Global
 72
     0
 43
0.0208333333333333
 43
0.0
 43
0.0
 43
0.0
 43
0.0
 43
0.0208333333333333
 43
0.0
 43
0.0
 43
0.0
 43
0.0
 43
1.0
 43
0.0
 43
0.0
 43
0.0
 43
0.0
 43
1.0
 77
     0
 47
0.0208333333333333
 47
0.0
 47
0.0
 47
0.0
 47
0.0
 47
0.0208333333333333
 47
0.0
 47
0.0
 47
0.0
 47
0.0
 47
1.0
 47
0.0
 47
0.0
 47
0.0
 47
0.0
 47
1.0
171
     0
 49
0.0208333333333333
 49
0.0
 49
0.0
 49
0.0
 49
0.0
 49
0.0208333333333333
 49
0.0
 49
0.0
 49
0.0
 49
0.0
 49
1.0
 49
0.0
 49
0.0
 49
0.0
 49
0.0
 49
1.0
175
     0
142
0.0208333333333333
142
0.0
142
0.0
142
0.0
142
0.0
142
0.0208333333333333
142
0.0
142
0.0
142
0.0
142
0.0
142
1.0
142
0.0
142
0.0
142
0.0
142
0.0
142
1.0
179
     0
144
0.0208333333333333
144
0.0
144
0.0
144
0.0
144
0.0
144
0.0208333333333333
144
0.0
144
0.0
144
0.0
144
0.0
144
1.0
144
0.0
144
0.0
144
0.0
144
0.0
144
1.0
147
0.0208333333333333
147
0.0
147
0.0
147
0.0
147
0.0
147
0.0208333333333333
147
0.0
147
0.0
147
0.0
147
0.0
147
1.0
147
0.0
147
0.0
147
0.0
147
0.0
147
1.0
  0
MLEADERSTYLE
  5
26BD
102
{ACAD_REACTORS
330
26BC
102
}
330
26BC
100
AcDbMLeaderStyle
170
     2
171
     1
172
     0
 90
        2
 40
0.0
 41
0.0
173
     1
 91
-1056964608
340
12
 92
       -2
290
     1
 42
0.09
291
     1
 43
0.36
  3
Standard
 44
0.18
300

342
F
174
     1
178
     6
175
     1
176
     0
 93
-1056964608
 45
0.18
292
     0
297
     0
 46
0.18
 94
-1056964608
 47
1.0
 49
1.0
140
1.0
293
     1
141
0.0
294
     1
177
     0
142
1.0
295
     0
296
     0
143
0.125
1001
ACAD_MLEADERVER
1070
     2
  0
MLINESTYLE
  5
1C
102
{ACAD_REACTORS
330
1B
102
}
330
1B
100
AcDbMlineStyle
  2
STANDARD
 70
     0
  3

 62
   256
 51
90.0
 52
90.0
 71
     2
 49
0.5
 62
   256
  6
BYLAYER
 49
-0.5
 62
   256
  6
BYLAYER
  0
ACDBPLACEHOLDER
  5
2674
102
{ACAD_REACTORS
330
2673
102
}
330
2673
  0
SCALE
  5
26AB
102
{ACAD_REACTORS
330
26AA
102
}
330
26AA
100
AcDbScale
 70
     0
300
1:1
140
1.0
141
1.0
290
     1
  0
SCALE
  5
26AC
102
{ACAD_REACTORS
330
26AA
102
}
330
26AA
100
AcDbScale
 70
     0
300
1/128" = 1'-0"
140
0.0078125
141
12.0
290
     0
  0
SCALE
  5
26AD
102
{ACAD_REACTORS
330
26AA
102
}
330
26AA
100
AcDbScale
 70
     0
300
1/64" = 1'-0"
140
0.015625
141
12.0
290
     0
  0
SCALE
  5
26AE
102
{ACAD_REACTORS
330
26AA
102
}
330
26AA
100
AcDbScale
 70
     0
300
1/32" = 1'-0"
140
0.03125
141
12.0
290
     0
  0
SCALE
  5
26AF
102
{ACAD_REACTORS
330
26AA
102
}
330
26AA
100
AcDbScale
 70
     0
300
1/16" = 1'-0"
140
0.0625
141
12.0
290
     0
  0
SCALE
  5
26B0
102
{ACAD_REACTORS
330
26AA
102
}
330
26AA
100
AcDbScale
 70
     0
300
3/32" = 1'-0"
140
0.09375
141
12.0
290
     0
  0
SCALE
  5
26B1
102
{ACAD_REACTORS
330
26AA
102
}
330
26AA
100
AcDbScale
 70
     0
300
1/8" = 1'-0"
140
0.125
141
12.0
290
     0
  0
SCALE
  5
26B2
102
{ACAD_REACTORS
330
26AA
102
}
330
26AA
100
AcDbScale
 70
     0
300
3/16" = 1'-0"
140
0.1875
141
12.0
290
     0
  0
SCALE
  5
26B3
102
{ACAD_REACTORS
330
26AA
102
}
330
26AA
100
AcDbScale
 70
     0
300
1/4" = 1'-0"
140
0.25
141
12.0
290
     0
  0
SCALE
  5
26B4
102
{ACAD_REACTORS
330
26AA
102
}
330
26AA
100
AcDbScale
 70
     0
300
3/8" = 1'-0"
140
0.375
141
12.0
290
     0
  0
SCALE
  5
26B5
102
{ACAD_REACTORS
330
26AA
102
}
330
26AA
100
AcDbScale
 70
     0
300
1/2" = 1'-0"
140
0.5
141
12.0
290
     0
  0
SCALE
  5
26B6
102
{ACAD_REACTORS
330
26AA
102
}
330
26AA
100
AcDbScale
 70
     0
300
3/4" = 1'-0"
140
0.75
141
12.0
290
     0
  0
SCALE
  5
26B7
102
{ACAD_REACTORS
330
26AA
102
}
330
26AA
100
AcDbScale
 70
     0
300
1" = 1'-0"
140
1.0
141
12.0
290
     0
  0
SCALE
  5
26B8
102
{ACAD_REACTORS
330
26AA
102
}
330
26AA
100
AcDbScale
 70
     0
300
1-1/2" = 1'-0"
140
1.5
141
12.0
290
     0
  0
SCALE
  5
26B9
102
{ACAD_REACTORS
330
26AA
102
}
330
26AA
100
AcDbScale
 70
     0
300
3" = 1'-0"
140
3.0
141
12.0
290
     0
  0
SCALE
  5
26BA
102
{ACAD_REACTORS
330
26AA
102
}
330
26AA
100
AcDbScale
 70
     0
300
6" = 1'-0"
140
6.0
141
12.0
290
     0
  0
SCALE
  5
26BB
102
{ACAD_REACTORS
330
26AA
102
}
330
26AA
100
AcDbScale
 70
     0
300
1'-0" = 1'-0"
140
12.0
141
12.0
290
     0
  0
ACDBSECTIONVIEWSTYLE
  5
26BF
102
{ACAD_XDICTIONARY
360
275B
102
}
102
{ACAD_REACTORS
330
26BE
102
}
330
26BE
100
AcDbModelDocViewStyle
 70
     0
  3
Imperial24
290
     0
100
AcDbSectionViewStyle
 70
     0
 71
     0
 90
       78
 71
     1
340
F
 40
0.24
340
0
340
0
 40
0.24
300
I, O, Q, S, X, Z
 40
0.48
 90
        3
 40
0.18
 90
        1
 71
     2
340
14
 90
       25
340
14
 90
       50
 40
0.24
 40
0.0
 40
0.24
 71
     3
340
F
 40
0.24
 90
        1
 40
0.75
 90
        1
300
%<\AcVar ViewType \f "%tc1">% %<\AcVar ViewSectionStartId>%-%<\AcVar ViewSectionEndId>%\PSCALE %<\AcVar ViewScale \f "%sn">%
 71
     4
300
ANSI31
 40
1.0
 90
        0
290
     0
290
     0
 90
        6
 40
0.0
 40
1.570796326794896
 40
0.2617993877991494
 40
1.308996938995747
 40
-0.2617993877991494
 40
1.832595714594045
  0
TABLESTYLE
  5
26A9
102
{ACAD_XDICTIONARY
360
26E2
102
}
102
{ACAD_REACTORS
330
26A8
102
}
330
26A8
100
AcDbTableStyle
  3
Standard
 70
     0
 71
     0
 40
0.06
 41
0.06
280
     0
281
     0
  7
STANDARD
140
0.18
170
     2
 62
     0
 63
     7
283
     0
274
    -2
284
     1
 64
     0
275
    -2
285
     1
 65
     0
276
    -2
286
     1
 66
     0
277
    -2
287
     1
 67
     0
278
    -2
288
     1
 68
     0
279
    -2
289
     1
 69
     0
  7
STANDARD
140
0.25
170
     5
 62
     0
 63
     7
283
     0
274
    -2
284
     1
 64
     0
275
    -2
285
     1
 65
     0
276
    -2
286
     1
 66
     0
277
    -2
287
     1
 67
     0
278
    -2
288
     1
 68
     0
279
    -2
289
     1
 69
     0
  7
STANDARD
140
0.18
170
     5
 62
     0
 63
     7
283
     0
274
    -2
284
     1
 64
     0
275
    -2
285
     1
 65
     0
276
    -2
286
     1
 66
     0
277
    -2
287
     1
 67
     0
278
    -2
288
     1
 68
     0
279
    -2
289
     1
 69
     0
  0
VISUALSTYLE
  5
2694
102
{ACAD_XDICTIONARY
360
2734
102
}
102
{ACAD_REACTORS
330
268E
102
}
330
268E
100
AcDbVisualStyle
  2

 70
     4
 71
     0
 72
     2
 73
     0
 90
        0
 40
-0.6
 41
-30.0
 62
     5
 63
     7
 74
     1
 91
        4
 64
     7
 65
   257
 75
     1
175
     1
 42
1.0
 92
        0
 66
   257
 43
1.0
 76
     1
 77
     6
 78
     2
 67
     7
 79
     5
170
     0
171
     0
290
     0
174
     0
 93
        1
 44
0.0
173
     0
291
     0
 45
0.0
1001
ACAD
1000
AcDbSavedByObjectVersion
1070
     0
  0
VISUALSTYLE
  5
2693
102
{ACAD_XDICTIONARY
360
2732
102
}
102
{ACAD_REACTORS
330
268E
102
}
330
268E
100
AcDbVisualStyle
  2

 70
     7
 71
     1
 72
     0
 73
     1
 90
        0
 40
-0.6
 41
-30.0
 62
     5
 63
     7
 74
     0
 91
        4
 64
     7
 65
   257
 75
     1
175
     1
 42
1.0
 92
        8
 66
     7
 43
1.0
 76
     1
 77
     6
 78
     2
 67
     7
 79
     5
170
     0
171
     0
290
     0
174
     0
 93
        1
 44
0.0
173
     0
291
     1
 45
0.0
1001
ACAD
1000
AcDbSavedByObjectVersion
1070
     0
  0
VISUALSTYLE
  5
269A
102
{ACAD_XDICTIONARY
360
2740
102
}
102
{ACAD_REACTORS
330
268E
102
}
330
268E
100
AcDbVisualStyle
  2

 70
    12
 71
     2
 72
     2
 73
     0
 90
        0
 40
-0.6
 41
-30.0
 62
     5
 63
     7
 74
     1
 91
        4
 64
     7
 65
   257
 75
     1
175
     1
 42
1.0
 92
        8
 66
     7
 43
1.0
 76
     1
 77
     6
 78
     2
 67
     7
 79
     5
170
     0
171
     0
290
     0
174
     0
 93
        1
 44
50.0
173
     0
291
     1
 45
0.0
1001
ACAD
1000
AcDbSavedByObjectVersion
1070
     0
  0
VISUALSTYLE
  5
269E
102
{ACAD_XDICTIONARY
360
2748
102
}
102
{ACAD_REACTORS
330
268E
102
}
330
268E
100
AcDbVisualStyle
  2

 70
    16
 71
     2
 72
     2
 73
     3
 90
        0
 40
-0.6
 41
-30.0
 62
     5
 63
     8
 74
     1
 91
        4
 64
     7
 65
   257
 75
     1
175
     1
 42
1.0
 92
        8
 66
     8
 43
1.0
 76
     1
 77
     6
 78
     2
 67
     7
 79
     5
170
     0
171
     0
290
     0
174
     0
 93
        1
 44
0.0
173
     0
291
     1
 45
0.0
1001
ACAD
1000
AcDbSavedByObjectVersion
1070
     0
  0
VISUALSTYLE
  5
2697
102
{ACAD_XDICTIONARY
360
273A
102
}
102
{ACAD_REACTORS
330
268E
102
}
330
268E
100
AcDbVisualStyle
  2

 70
     9
 71
     3
 72
     2
 73
     0
 90
        0
 40
-0.6
 41
-30.0
 62
     5
 63
     7
 74
     2
 91
        2
 64
     7
 65
   257
 75
     1
175
     1
 42
179.0
 92
        8
 66
     7
 43
1.0
 76
     1
 77
     6
 78
     2
 67
     7
 79
     3
170
     0
171
     0
290
     0
174
     0
 93
        1
 44
0.0
173
     0
291
     0
 45
0.0
1001
ACAD
1000
AcDbSavedByObjectVersion
1070
     0
  0
VISUALSTYLE
  5
2699
102
{ACAD_XDICTIONARY
360
273E
102
}
102
{ACAD_REACTORS
330
268E
102
}
330
268E
100
AcDbVisualStyle
  2

 70
    11
 71
     2
 72
     2
 73
     0
 90
        0
 40
-0.6
 41
-30.0
 62
     5
 63
     7
 74
     1
 91
        4
 64
     7
 65
   257
 75
     1
175
     1
 42
1.0
 92
        8
 66
     7
 43
1.0
 76
     1
 77
     6
 78
     2
 67
     7
 79
     5
170
     0
171
     0
290
     0
174
     0
 93
        1
 44
-50.0
173
     0
291
     1
 45
0.0
1001
ACAD
1000
AcDbSavedByObjectVersion
1070
     0
  0
VISUALSTYLE
  5
26A6
102
{ACAD_XDICTIONARY
360
2758
102
}
102
{ACAD_REACTORS
330
268E
102
}
330
268E
100
AcDbVisualStyle
  2

 70
    22
 71
     2
 72
     2
 73
     0
 90
        0
 40
-0.6
 41
-30.0
 62
     5
 63
     7
 74
     1
 91
        4
 64
     7
 65
   257
 75
     1
175
     1
 42
1.0
 92
        8
 66
     7
 43
1.0
 76
     1
 77
     6
 78
     2
 67
     7
 79
     5
170
     0
171
     0
290
     0
174
     0
 93
        1
 44
0.0
173
     0
291
     1
 45
0.0
1001
ACAD
1000
AcDbSavedByObjectVersion
1070
     0
  0
VISUALSTYLE
  5
269D
102
{ACAD_XDICTIONARY
360
2746
102
}
102
{ACAD_REACTORS
330
268E
102
}
330
268E
100
AcDbVisualStyle
  2

 70
    15
 71
     2
 72
     2
 73
     0
 90
        0
 40
-0.6
 41
-30.0
 62
     5
 63
     7
 74
     1
 91
        4
 64
     7
 65
   257
 75
     1
175
     1
 42
1.0
 92
        8
 66
     7
 43
1.0
 76
     1
 77
     6
 78
     2
 67
     7
 79
     5
170
     0
171
     0
290
     0
174
     0
 93
        1
 44
0.0
173
     0
291
     1
 45
0.0
1001
ACAD
1000
AcDbSavedByObjectVersion
1070
     0
  0
VISUALSTYLE
  5
268F
102
{ACAD_XDICTIONARY
360
272A
102
}
102
{ACAD_REACTORS
330
268E
102
}
330
268E
100
AcDbVisualStyle
  2

 70
     0
 71
     2
 72
     1
 73
     1
 90
        2
 40
-0.6
 41
30.0
 62
     5
 63
     7
 74
     0
 91
        0
 64
     7
 65
   257
 75
     1
175
     1
 42
1.0
 92
        8
 66
     7
 43
1.0
 76
     1
 77
     6
 78
     2
 67
     7
 79
     5
170
     0
171
     0
290
     0
174
     0
 93
       13
 44
0.0
173
     0
291
     1
 45
0.0
1001
ACAD
1000
AcDbSavedByObjectVersion
1070
     0
  0
VISUALSTYLE
  5
2690
102
{ACAD_XDICTIONARY
360
272C
102
}
102
{ACAD_REACTORS
330
268E
102
}
330
268E
100
AcDbVisualStyle
  2

 70
     1
 71
     2
 72
     1
 73
     1
 90
        2
 40
-0.6
 41
30.0
 62
     5
 63
     7
 74
     1
 91
        0
 64
     7
 65
   257
 75
     1
175
     1
 42
1.0
 92
        0
 66
   257
 43
1.0
 76
     1
 77
     6
 78
     2
 67
     7
 79
     5
170
     0
171
     0
290
     0
174
     0
 93
       13
 44
0.0
173
     0
291
     1
 45
0.0
1001
ACAD
1000
AcDbSavedByObjectVersion
1070
     0
  0
VISUALSTYLE
  5
2691
102
{ACAD_XDICTIONARY
360
272E
102
}
102
{ACAD_REACTORS
330
268E
102
}
330
268E
100
AcDbVisualStyle
  2

 70
     2
 71
     2
 72
     2
 73
     1
 90
        2
 40
-0.6
 41
30.0
 62
     5
 63
     7
 74
     0
 91
        0
 64
     7
 65
   257
 75
     1
175
     1
 42
1.0
 92
        0
 66
     7
 43
1.0
 76
     1
 77
     6
 78
     2
 67
     7
 79
     5
170
     0
171
     0
290
     0
174
     0
 93
       13
 44
0.0
173
     0
291
     1
 45
0.0
1001
ACAD
1000
AcDbSavedByObjectVersion
1070
     0
  0
VISUALSTYLE
  5
2692
102
{ACAD_XDICTIONARY
360
2730
102
}
102
{ACAD_REACTORS
330
268E
102
}
330
268E
100
AcDbVisualStyle
  2

 70
     3
 71
     2
 72
     2
 73
     1
 90
        2
 40
-0.6
 41
30.0
 62
     5
 63
     7
 74
     1
 91
        0
 64
     7
 65
   257
 75
     1
175
     1
 42
1.0
 92
        0
 66
   257
 43
1.0
 76
     1
 77
     6
 78
     2
 67
     7
 79
     5
170
     0
171
     0
290
     0
174
     0
 93
       13
 44
0.0
173
     0
291
     1
 45
0.0
1001
ACAD
1000
AcDbSavedByObjectVersion
1070
     0
  0
VISUALSTYLE
  5
2696
102
{ACAD_XDICTIONARY
360
2738
102
}
102
{ACAD_REACTORS
330
268E
102
}
330
268E
100
AcDbVisualStyle
  2

 70
     6
 71
     1
 72
     2
 73
     2
 90
        0
 40
-0.6
 41
-30.0
 62
     5
 63
     7
 74
     2
 91
        2
 64
     7
 65
   257
 75
     2
175
     1
 42
40.0
 92
        0
 66
   257
 43
1.0
 76
     1
 77
     6
 78
     2
 67
     7
 79
     3
170
     0
171
     0
290
     0
174
     0
 93
        1
 44
0.0
173
     0
291
     0
 45
0.0
1001
ACAD
1000
AcDbSavedByObjectVersion
1070
     0
  0
VISUALSTYLE
  5
26A4
102
{ACAD_XDICTIONARY
360
2754
102
}
102
{ACAD_REACTORS
330
268E
102
}
330
268E
100
AcDbVisualStyle
  2

 70
    20
 71
     2
 72
     2
 73
     0
 90
        0
 40
-0.6
 41
-30.0
 62
     5
 63
     7
 74
     1
 91
        4
 64
     7
 65
   257
 75
     1
175
     1
 42
1.0
 92
       10
 66
     7
 43
1.0
 76
     1
 77
     6
 78
     2
 67
     7
 79
     5
170
     0
171
     0
290
     0
174
     0
 93
        1
 44
0.0
173
     0
291
     1
 45
0.0
1001
ACAD
1000
AcDbSavedByObjectVersion
1070
     0
  0
VISUALSTYLE
  5
269C
102
{ACAD_XDICTIONARY
360
2744
102
}
102
{ACAD_REACTORS
330
268E
102
}
330
268E
100
AcDbVisualStyle
  2

 70
    14
 71
     2
 72
     2
 73
     0
 90
        0
 40
-0.6
 41
-30.0
 62
     5
 63
     7
 74
     1
 91
        4
 64
     7
 65
   257
 75
     7
175
     7
 42
1.0
 92
        8
 66
     7
 43
1.0
 76
     1
 77
     6
 78
     2
 67
     7
 79
     5
170
     0
171
     0
290
     0
174
     0
 93
        1
 44
0.0
173
     0
291
     1
 45
0.0
1001
ACAD
1000
AcDbSavedByObjectVersion
1070
     0
  0
VISUALSTYLE
  5
26A5
102
{ACAD_XDICTIONARY
360
2756
102
}
102
{ACAD_REACTORS
330
268E
102
}
330
268E
100
AcDbVisualStyle
  2

 70
    21
 71
     2
 72
     2
 73
     0
 90
        0
 40
-0.6
 41
-30.0
 62
     5
 63
     7
 74
     1
 91
        4
 64
     7
 65
   257
 75
     1
175
     1
 42
1.0
 92
        9
 66
     7
 43
1.0
 76
     1
 77
     6
 78
     2
 67
     7
 79
     5
170
     0
171
     0
290
     0
174
     0
 93
        1
 44
0.0
173
     0
291
     1
 45
0.0
1001
ACAD
1000
AcDbSavedByObjectVersion
1070
     0
  0
VISUALSTYLE
  5
2698
102
{ACAD_XDICTIONARY
360
273C
102
}
102
{ACAD_REACTORS
330
268E
102
}
330
268E
100
AcDbVisualStyle
  2

 70
     8
 71
     2
 72
     3
 73
     0
 90
        2
 40
-0.6
 41
30.0
 62
     5
 63
     7
 74
     0
 91
        0
 64
     7
 65
   257
 75
     1
175
     1
 42
1.0
 92
        8
 66
   257
 43
1.0
 76
     1
 77
     6
 78
     2
 67
     7
 79
     3
170
     0
171
     0
290
     0
174
     0
 93
       13
 44
0.0
173
     0
291
     0
 45
0.0
1001
ACAD
1000
AcDbSavedByObjectVersion
1070
     0
  0
VISUALSTYLE
  5
26A3
102
{ACAD_XDICTIONARY
360
2752
102
}
102
{ACAD_REACTORS
330
268E
102
}
330
268E
100
AcDbVisualStyle
  2

 70
    27
 71
     2
 72
     2
 73
     1
 90
        2
 40
-0.6
 41
30.0
 62
     5
 63
     7
 74
     0
 91
        4
 64
     7
 65
   257
 75
     1
175
     1
 42
1.0
 92
        8
 66
   257
 43
1.0
 76
     1
 77
     6
 78
     2
 67
     8
 79
     3
170
     0
171
     0
290
     0
174
     0
 93
        5
 44
0.0
173
     0
291
     0
 45
0.0
1001
ACAD
1000
AcDbSavedByObjectVersion
1070
     0
  0
VISUALSTYLE
  5
26A2
102
{ACAD_XDICTIONARY
360
2750
102
}
102
{ACAD_REACTORS
330
268E
102
}
330
268E
100
AcDbVisualStyle
  2

 70
    26
 71
     2
 72
     2
 73
     1
 90
        2
 40
-0.6
 41
30.0
 62
     5
 63
     7
 74
     1
 91
       10
 64
     7
 65
   257
 75
     2
175
     1
 42
1.0
 92
        8
 66
   257
 43
1.0
 76
     1
 77
     6
 78
     2
 67
     7
 79
     3
170
     0
171
     0
290
     0
174
     0
 93
        5
 44
0.0
173
     0
291
     0
 45
0.0
1001
ACAD
1000
AcDbSavedByObjectVersion
1070
     0
  0
VISUALSTYLE
  5
269F
102
{ACAD_XDICTIONARY
360
274A
102
}
102
{ACAD_REACTORS
330
268E
102
}
330
268E
100
AcDbVisualStyle
  2

 70
    23
 71
     2
 72
     2
 73
     3
 90
        0
 40
-0.6
 41
-30.0
 62
     5
 63
     7
 74
     2
 91
        2
 64
     7
 65
     7
 75
     1
175
     1
 42
40.0
 92
        8
 66
     7
 43
1.0
 76
     1
 77
     6
 78
     2
 67
     7
 79
     3
170
     0
171
     0
290
     0
174
     0
 93
        1
 44
0.0
173
     0
291
     0
 45
0.0
1001
ACAD
1000
AcDbSavedByObjectVersion
1070
     0
  0
VISUALSTYLE
  5
26A0
102
{ACAD_XDICTIONARY
360
274C
102
}
102
{ACAD_REACTORS
330
268E
102
}
330
268E
100
AcDbVisualStyle
  2

 70
    24
 71
     1
 72
     2
 73
     2
 90
        0
 40
-0.6
 41
-30.0
 62
     5
 63
     7
 74
     2
 91
        2
 64
     7
 65
     7
 75
     1
175
     1
 42
40.0
 92
       11
 66
     7
 43
1.0
 76
     1
 77
     6
 78
     2
 67
     7
 79
     6
170
     0
171
     0
290
     0
174
     0
 93
        1
 44
0.0
173
     0
291
     0
 45
0.0
1001
ACAD
1000
AcDbSavedByObjectVersion
1070
     0
  0
VISUALSTYLE
  5
269B
102
{ACAD_XDICTIONARY
360
2742
102
}
102
{ACAD_REACTORS
330
268E
102
}
330
268E
100
AcDbVisualStyle
  2

 70
    13
 71
     2
 72
     2
 73
     0
 90
        0
 40
-0.6
 41
-30.0
 62
     5
 63
     7
 74
     1
 91
        4
 64
     7
 65
   257
 75
     1
175
     1
 42
1.0
 92
       12
 66
     7
 43
1.0
 76
     1
 77
     6
 78
     2
 67
     7
 79
     5
170
     0
171
     0
290
     0
174
     0
 93
        1
 44
0.0
173
     0
291
     1
 45
0.0
1001
ACAD
1000
AcDbSavedByObjectVersion
1070
     0
  0
VISUALSTYLE
  5
2695
102
{ACAD_XDICTIONARY
360
2736
102
}
102
{ACAD_REACTORS
330
268E
102
}
330
268E
100
AcDbVisualStyle
  2

 70
     5
 71
     0
 72
     2
 73
     0
 90
        0
 40
-0.6
 41
-30.0
 62
     5
 63
     7
 74
     1
 91
        4
 64
     7
 65
   257
 75
     1
175
     1
 42
1.0
 92
        0
 66
   257
 43
1.0
 76
     1
 77
     6
 78
     2
 67
     7
 79
     3
170
     0
171
     0
290
     0
174
     0
 93
        1
 44
0.0
173
     0
291
     0
 45
0.0
1001
ACAD
1000
AcDbSavedByObjectVersion
1070
     0
  0
VISUALSTYLE
  5
26A1
102
{ACAD_XDICTIONARY
360
274E
102
}
102
{ACAD_REACTORS
330
268E
102
}
330
268E
100
AcDbVisualStyle
  2

 70
    25
 71
     2
 72
     2
 73
     1
 90
        1
 40
0.5
 41
-30.0
 62
     5
 63
     7
 74
     1
 91
        0
 64
     7
 65
   257
 75
     1
175
     1
 42
1.0
 92
        8
 66
     7
 43
1.0
 76
     1
 77
     6
 78
     2
 67
     7
 79
     3
170
     0
171
     0
290
     0
174
     0
 93
       13
 44
0.0
173
     0
291
     0
 45
0.0
1001
ACAD
1000
AcDbSavedByObjectVersion
1070
     0
  0
DICTIONARYVAR
  5
26DC
102
{ACAD_REACTORS
330
26D7
102
}
330
26D7
100
DictionaryVariables
280
     0
  1
1:1
  0
DICTIONARYVAR
  5
26D9
102
{ACAD_REACTORS
330
26D7
102
}
330
26D7
100
DictionaryVariables
280
     0
  1
STANDARD
  0
DICTIONARYVAR
  5
26D8
102
{ACAD_REACTORS
330
26D7
102
}
330
26D7
100
DictionaryVariables
280
     0
  1
STANDARD
  0
DICTIONARYVAR
  5
26DA
102
{ACAD_REACTORS
330
26D7
102
}
330
26D7
100
DictionaryVariables
280
     0
  1
Imperial24
  0
DICTIONARYVAR
  5
26DB
102
{ACAD_REACTORS
330
26D7
102
}
330
26D7
100
DictionaryVariables
280
     0
  1
Imperial24
  0
DICTIONARYVAR
  5
26DF
102
{ACAD_REACTORS
330
26D7
102
}
330
26D7
100
DictionaryVariables
280
     0
  1
1
  0
DICTIONARYVAR
  5
26DE
102
{ACAD_REACTORS
330
26D7
102
}
330
26D7
100
DictionaryVariables
280
     0
  1
0
  0
DICTIONARYVAR
  5
26DD
102
{ACAD_REACTORS
330
26D7
102
}
330
26D7
100
DictionaryVariables
280
     0
  1
127
  0
DICTIONARYVAR
  5
2726
102
{ACAD_REACTORS
330
26D7
102
}
330
26D7
100
DictionaryVariables
280
     0
  1
2
  0
DICTIONARY
  5
275D
330
26C1
100
AcDbDictionary
280
     1
281
     1
  3
ACAD_XREC_ROUNDTRIP
360
275E
  0
DICTIONARY
  5
275F
330
26C2
100
AcDbDictionary
280
     1
281
     1
  3
ACAD_XREC_ROUNDTRIP
360
2760
  0
DICTIONARY
  5
2761
330
26C3
100
AcDbDictionary
280
     1
281
     1
  3
ACAD_XREC_ROUNDTRIP
360
2762
  0
DICTIONARY
  5
267F
330
267E
100
AcDbDictionary
280
     1
281
     1
  3
ACAD_XREC_ROUNDTRIP
360
26E7
  3
BUMPTILE
360
2681
  3
DIFFUSETILE
360
2680
  3
OPACITYTILE
360
2684
  3
REFLECTIONTILE
360
2683
  3
REFRACTIONTILE
360
2685
  3
SPECULARTILE
360
2682
  0
DICTIONARY
  5
2677
330
2676
100
AcDbDictionary
280
     1
281
     1
  3
ACAD_XREC_ROUNDTRIP
360
26E6
  3
BUMPTILE
360
2679
  3
DIFFUSETILE
360
2678
  3
OPACITYTILE
360
267C
  3
REFLECTIONTILE
360
267B
  3
REFRACTIONTILE
360
267D
  3
SPECULARTILE
360
267A
  0
DICTIONARY
  5
2687
330
2686
100
AcDbDictionary
280
     1
281
     1
  3
ACAD_XREC_ROUNDTRIP
360
26E8
  3
BUMPTILE
360
2689
  3
DIFFUSETILE
360
2688
  3
OPACITYTILE
360
268C
  3
REFLECTIONTILE
360
268B
  3
REFRACTIONTILE
360
268D
  3
SPECULARTILE
360
268A
  0
DICTIONARY
  5
275B
330
26BF
100
AcDbDictionary
280
     1
281
     1
  3
ACAD_XREC_ROUNDTRIP
360
275C
  0
DICTIONARY
  5
26E2
330
26A9
100
AcDbDictionary
280
     1
281
     1
  3
ACAD_ROUNDTRIP_2008_TABLESTYLE_CELLSTYLEMAP
360
2727
  3
ACAD_XREC_ROUNDTRIP
360
275A
  0
DICTIONARY
  5
2734
330
2694
100
AcDbDictionary
280
     1
281
     1
  3
ACAD_XREC_ROUNDTRIP
360
2735
  0
DICTIONARY
  5
2732
330
2693
100
AcDbDictionary
280
     1
281
     1
  3
ACAD_XREC_ROUNDTRIP
360
2733
  0
DICTIONARY
  5
2740
330
269A
100
AcDbDictionary
280
     1
281
     1
  3
ACAD_XREC_ROUNDTRIP
360
2741
  0
DICTIONARY
  5
2748
330
269E
100
AcDbDictionary
280
     1
281
     1
  3
ACAD_XREC_ROUNDTRIP
360
2749
  0
DICTIONARY
  5
273A
330
2697
100
AcDbDictionary
280
     1
281
     1
  3
ACAD_XREC_ROUNDTRIP
360
273B
  0
DICTIONARY
  5
273E
330
2699
100
AcDbDictionary
280
     1
281
     1
  3
ACAD_XREC_ROUNDTRIP
360
273F
  0
DICTIONARY
  5
2758
330
26A6
100
AcDbDictionary
280
     1
281
     1
  3
ACAD_XREC_ROUNDTRIP
360
2759
  0
DICTIONARY
  5
2746
330
269D
100
AcDbDictionary
280
     1
281
     1
  3
ACAD_XREC_ROUNDTRIP
360
2747
  0
DICTIONARY
  5
272A
330
268F
100
AcDbDictionary
280
     1
281
     1
  3
ACAD_XREC_ROUNDTRIP
360
272B
  0
DICTIONARY
  5
272C
330
2690
100
AcDbDictionary
280
     1
281
     1
  3
ACAD_XREC_ROUNDTRIP
360
272D
  0
DICTIONARY
  5
272E
330
2691
100
AcDbDictionary
280
     1
281
     1
  3
ACAD_XREC_ROUNDTRIP
360
272F
  0
DICTIONARY
  5
2730
330
2692
100
AcDbDictionary
280
     1
281
     1
  3
ACAD_XREC_ROUNDTRIP
360
2731
  0
DICTIONARY
  5
2738
330
2696
100
AcDbDictionary
280
     1
281
     1
  3
ACAD_XREC_ROUNDTRIP
360
2739
  0
DICTIONARY
  5
2754
330
26A4
100
AcDbDictionary
280
     1
281
     1
  3
ACAD_XREC_ROUNDTRIP
360
2755
  0
DICTIONARY
  5
2744
330
269C
100
AcDbDictionary
280
     1
281
     1
  3
ACAD_XREC_ROUNDTRIP
360
2745
  0
DICTIONARY
  5
2756
330
26A5
100
AcDbDictionary
280
     1
281
     1
  3
ACAD_XREC_ROUNDTRIP
360
2757
  0
DICTIONARY
  5
273C
330
2698
100
AcDbDictionary
280
     1
281
     1
  3
ACAD_XREC_ROUNDTRIP
360
273D
  0
DICTIONARY
  5
2752
330
26A3
100
AcDbDictionary
280
     1
281
     1
  3
ACAD_XREC_ROUNDTRIP
360
2753
  0
DICTIONARY
  5
2750
330
26A2
100
AcDbDictionary
280
     1
281
     1
  3
ACAD_XREC_ROUNDTRIP
360
2751
  0
DICTIONARY
  5
274A
330
269F
100
AcDbDictionary
280
     1
281
     1
  3
ACAD_XREC_ROUNDTRIP
360
274B
  0
DICTIONARY
  5
274C
330
26A0
100
AcDbDictionary
280
     1
281
     1
  3
ACAD_XREC_ROUNDTRIP
360
274D
  0
DICTIONARY
  5
2742
330
269B
100
AcDbDictionary
280
     1
281
     1
  3
ACAD_XREC_ROUNDTRIP
360
2743
  0
DICTIONARY
  5
2736
330
2695
100
AcDbDictionary
280
     1
281
     1
  3
ACAD_XREC_ROUNDTRIP
360
2737
  0
DICTIONARY
  5
274E
330
26A1
100
AcDbDictionary
280
     1
281
     1
  3
ACAD_XREC_ROUNDTRIP
360
274F
  0
XRECORD
  5
275E
102
{ACAD_REACTORS
330
275D
102
}
330
275D
100
AcDbXrecord
280
     1
102
DISPLAYNAME
  1
Imperial24
102
FLAGS
 90
        0
  0
XRECORD
  5
2760
102
{ACAD_REACTORS
330
275F
102
}
330
275F
100
AcDbXrecord
280
     1
102
SHADEPLOT
 70
     0
102
SHADEPLOTRESLEVEL
 70
     2
102
SHADEPLOTCUSTOMDPI
 70
   300
  0
XRECORD
  5
2762
102
{ACAD_REACTORS
330
2761
102
}
330
2761
100
AcDbXrecord
280
     1
102
SHADEPLOT
 70
     0
102
SHADEPLOTRESLEVEL
 70
     2
102
SHADEPLOTCUSTOMDPI
 70
   300
  0
XRECORD
  5
26E7
102
{ACAD_REACTORS
330
267F
102
}
330
267F
100
AcDbXrecord
280
     1
102
MATERIAL
148
0.0
149
0.0
149
0.0
 93
        0
 94
      127
282
     0
 72
     0
 77
     0
171
     0
175
     0
179
     0
273
     0
  0
XRECORD
  5
2681
102
{ACAD_REACTORS
330
267F
102
}
330
267F
100
AcDbXrecord
280
     1
270
     1
271
     1
  0
XRECORD
  5
2680
102
{ACAD_REACTORS
330
267F
102
}
330
267F
100
AcDbXrecord
280
     1
270
     1
271
     1
  0
XRECORD
  5
2684
102
{ACAD_REACTORS
330
267F
102
}
330
267F
100
AcDbXrecord
280
     1
270
     1
271
     1
  0
XRECORD
  5
2683
102
{ACAD_REACTORS
330
267F
102
}
330
267F
100
AcDbXrecord
280
     1
270
     1
271
     1
  0
XRECORD
  5
2685
102
{ACAD_REACTORS
330
267F
102
}
330
267F
100
AcDbXrecord
280
     1
270
     1
271
     1
  0
XRECORD
  5
2682
102
{ACAD_REACTORS
330
267F
102
}
330
267F
100
AcDbXrecord
280
     1
270
     1
271
     1
  0
XRECORD
  5
26E6
102
{ACAD_REACTORS
330
2677
102
}
330
2677
100
AcDbXrecord
280
     1
102
MATERIAL
148
0.0
149
0.0
149
0.0
 93
        0
 94
      127
282
     0
 72
     0
 77
     0
171
     0
175
     0
179
     0
273
     0
  0
XRECORD
  5
2679
102
{ACAD_REACTORS
330
2677
102
}
330
2677
100
AcDbXrecord
280
     1
270
     1
271
     1
  0
XRECORD
  5
2678
102
{ACAD_REACTORS
330
2677
102
}
330
2677
100
AcDbXrecord
280
     1
270
     1
271
     1
  0
XRECORD
  5
267C
102
{ACAD_REACTORS
330
2677
102
}
330
2677
100
AcDbXrecord
280
     1
270
     1
271
     1
  0
XRECORD
  5
267B
102
{ACAD_REACTORS
330
2677
102
}
330
2677
100
AcDbXrecord
280
     1
270
     1
271
     1
  0
XRECORD
  5
267D
102
{ACAD_REACTORS
330
2677
102
}
330
2677
100
AcDbXrecord
280
     1
270
     1
271
     1
  0
XRECORD
  5
267A
102
{ACAD_REACTORS
330
2677
102
}
330
2677
100
AcDbXrecord
280
     1
270
     1
271
     1
  0
XRECORD
  5
26E8
102
{ACAD_REACTORS
330
2687
102
}
330
2687
100
AcDbXrecord
280
     1
102
MATERIAL
148
0.0
149
0.0
149
0.0
 93
        0
 94
      127
282
     0
 72
     0
 77
     0
171
     0
175
     0
179
     0
273
     0
  0
XRECORD
  5
2689
102
{ACAD_REACTORS
330
2687
102
}
330
2687
100
AcDbXrecord
280
     1
270
     1
271
     1
  0
XRECORD
  5
2688
102
{ACAD_REACTORS
330
2687
102
}
330
2687
100
AcDbXrecord
280
     1
270
     1
271
     1
  0
XRECORD
  5
268C
102
{ACAD_REACTORS
330
2687
102
}
330
2687
100
AcDbXrecord
280
     1
270
     1
271
     1
  0
XRECORD
  5
268B
102
{ACAD_REACTORS
330
2687
102
}
330
2687
100
AcDbXrecord
280
     1
270
     1
271
     1
  0
XRECORD
  5
268D
102
{ACAD_REACTORS
330
2687
102
}
330
2687
100
AcDbXrecord
280
     1
270
     1
271
     1
  0
XRECORD
  5
268A
102
{ACAD_REACTORS
330
2687
102
}
330
2687
100
AcDbXrecord
280
     1
270
     1
271
     1
  0
XRECORD
  5
275C
102
{ACAD_REACTORS
330
275B
102
}
330
275B
100
AcDbXrecord
280
     1
102
DISPLAYNAME
  1
Imperial24
102
FLAGS
 90
        0
  0
CELLSTYLEMAP
  5
2727
102
{ACAD_REACTORS
330
26E2
102
}
330
26E2
100
AcDbCellStyleMap
 90
        3
300
CELLSTYLE
  1
TABLEFORMAT_BEGIN
 90
        5
170
     1
 91
        0
 92
    32768
 62
   257
 93
        1
300
CONTENTFORMAT
  1
CONTENTFORMAT_BEGIN
 90
        0
 91
        0
 92
      512
 93
        0
300

 40
0.0
140
1.0
 94
        5
 62
     0
340
F
144
0.25
309
CONTENTFORMAT_END
171
     1
301
MARGIN
  1
CELLMARGIN_BEGIN
 40
0.06
 40
0.06
 40
0.06
 40
0.06
 40
0.18
 40
0.18
309
CELLMARGIN_END
 94
        6
 95
        1
302
GRIDFORMAT
  1
GRIDFORMAT_BEGIN
 90
        0
 91
        1
 62
     0
 92
       -2
340
0
 93
        0
 40
0.045
309
GRIDFORMAT_END
 95
        2
302
GRIDFORMAT
  1
GRIDFORMAT_BEGIN
 90
        0
 91
        1
 62
     0
 92
       -2
340
0
 93
        0
 40
0.045
309
GRIDFORMAT_END
 95
        4
302
GRIDFORMAT
  1
GRIDFORMAT_BEGIN
 90
        0
 91
        1
 62
     0
 92
       -2
340
0
 93
        0
 40
0.045
309
GRIDFORMAT_END
 95
        8
302
GRIDFORMAT
  1
GRIDFORMAT_BEGIN
 90
        0
 91
        1
 62
     0
 92
       -2
340
0
 93
        0
 40
0.045
309
GRIDFORMAT_END
 95
       16
302
GRIDFORMAT
  1
GRIDFORMAT_BEGIN
 90
        0
 91
        1
 62
     0
 92
       -2
340
0
 93
        0
 40
0.045
309
GRIDFORMAT_END
 95
       32
302
GRIDFORMAT
  1
GRIDFORMAT_BEGIN
 90
        0
 91
        1
 62
     0
 92
       -2
340
0
 93
        0
 40
0.045
309
GRIDFORMAT_END
309
TABLEFORMAT_END
  1
CELLSTYLE_BEGIN
 90
        1
 91
        1
300
_TITLE
309
CELLSTYLE_END
300
CELLSTYLE
  1
TABLEFORMAT_BEGIN
 90
        5
170
     1
 91
        0
 92
        0
 62
   257
 93
        1
300
CONTENTFORMAT
  1
CONTENTFORMAT_BEGIN
 90
        0
 91
        0
 92
      512
 93
        0
300

 40
0.0
140
1.0
 94
        5
 62
     0
340
F
144
0.18
309
CONTENTFORMAT_END
171
     1
301
MARGIN
  1
CELLMARGIN_BEGIN
 40
0.06
 40
0.06
 40
0.06
 40
0.06
 40
0.18
 40
0.18
309
CELLMARGIN_END
 94
        6
 95
        1
302
GRIDFORMAT
  1
GRIDFORMAT_BEGIN
 90
        0
 91
        1
 62
     0
 92
       -2
340
0
 93
        0
 40
0.045
309
GRIDFORMAT_END
 95
        2
302
GRIDFORMAT
  1
GRIDFORMAT_BEGIN
 90
        0
 91
        1
 62
     0
 92
       -2
340
0
 93
        0
 40
0.045
309
GRIDFORMAT_END
 95
        4
302
GRIDFORMAT
  1
GRIDFORMAT_BEGIN
 90
        0
 91
        1
 62
     0
 92
       -2
340
0
 93
        0
 40
0.045
309
GRIDFORMAT_END
 95
        8
302
GRIDFORMAT
  1
GRIDFORMAT_BEGIN
 90
        0
 91
        1
 62
     0
 92
       -2
340
0
 93
        0
 40
0.045
309
GRIDFORMAT_END
 95
       16
302
GRIDFORMAT
  1
GRIDFORMAT_BEGIN
 90
        0
 91
        1
 62
     0
 92
       -2
340
0
 93
        0
 40
0.045
309
GRIDFORMAT_END
 95
       32
302
GRIDFORMAT
  1
GRIDFORMAT_BEGIN
 90
        0
 91
        1
 62
     0
 92
       -2
340
0
 93
        0
 40
0.045
309
GRIDFORMAT_END
309
TABLEFORMAT_END
  1
CELLSTYLE_BEGIN
 90
        2
 91
        1
300
_HEADER
309
CELLSTYLE_END
300
CELLSTYLE
  1
TABLEFORMAT_BEGIN
 90
        5
170
     1
 91
        0
 92
        0
 62
   257
 93
        1
300
CONTENTFORMAT
  1
CONTENTFORMAT_BEGIN
 90
        0
 91
        0
 92
      512
 93
        0
300

 40
0.0
140
1.0
 94
        2
 62
     0
340
F
144
0.18
309
CONTENTFORMAT_END
171
     1
301
MARGIN
  1
CELLMARGIN_BEGIN
 40
0.06
 40
0.06
 40
0.06
 40
0.06
 40
0.18
 40
0.18
309
CELLMARGIN_END
 94
        6
 95
        1
302
GRIDFORMAT
  1
GRIDFORMAT_BEGIN
 90
        0
 91
        1
 62
     0
 92
       -2
340
0
 93
        0
 40
0.045
309
GRIDFORMAT_END
 95
        2
302
GRIDFORMAT
  1
GRIDFORMAT_BEGIN
 90
        0
 91
        1
 62
     0
 92
       -2
340
0
 93
        0
 40
0.045
309
GRIDFORMAT_END
 95
        4
302
GRIDFORMAT
  1
GRIDFORMAT_BEGIN
 90
        0
 91
        1
 62
     0
 92
       -2
340
0
 93
        0
 40
0.045
309
GRIDFORMAT_END
 95
        8
302
GRIDFORMAT
  1
GRIDFORMAT_BEGIN
 90
        0
 91
        1
 62
     0
 92
       -2
340
0
 93
        0
 40
0.045
309
GRIDFORMAT_END
 95
       16
302
GRIDFORMAT
  1
GRIDFORMAT_BEGIN
 90
        0
 91
        1
 62
     0
 92
       -2
340
0
 93
        0
 40
0.045
309
GRIDFORMAT_END
 95
       32
302
GRIDFORMAT
  1
GRIDFORMAT_BEGIN
 90
        0
 91
        1
 62
     0
 92
       -2
340
0
 93
        0
 40
0.045
309
GRIDFORMAT_END
309
TABLEFORMAT_END
  1
CELLSTYLE_BEGIN
 90
        3
 91
        2
300
_DATA
309
CELLSTYLE_END
  0
XRECORD
  5
275A
102
{ACAD_REACTORS
330
26E2
102
}
330
26E2
100
AcDbXrecord
280
     1
102
ACAD_ROUNDTRIP_PRE2007_TABLESTYLE
 90
      512
 91
        0
  1

 92
      512
 93
        0
  2

 94
      512
 95
        0
  3

  0
XRECORD
  5
2735
102
{ACAD_REACTORS
330
2734
102
}
330
2734
100
AcDbXrecord
280
     1
102
RTVSPost2010Prop28
280
     1
102
RTVSPost2010PropOp28
 70
     1
102
RTVSPost2010Prop29
280
     1
102
RTVSPost2010PropOp29
 70
     1
102
RTVSPost2010Prop30
280
     0
102
RTVSPost2010PropOp30
 70
     1
102
RTVSPost2010Prop31
280
     0
102
RTVSPost2010PropOp31
 70
     1
102
RTVSPost2010Prop32
280
     0
102
RTVSPost2010PropOp32
 70
     1
102
RTVSPost2010Prop33
280
     0
102
RTVSPost2010PropOp33
 70
     1
102
RTVSPost2010Prop34
280
     0
102
RTVSPost2010PropOp34
 70
     1
102
RTVSPost2010Prop35
280
     0
102
RTVSPost2010PropOp35
 70
     1
102
RTVSPost2010Prop36
280
     0
102
RTVSPost2010PropOp36
 70
     1
102
RTVSPost2010Prop37
 90
       50
102
RTVSPost2010PropOp37
 70
     1
102
RTVSPost2010Prop38
140
0.0
102
RTVSPost2010PropOp38
 70
     1
102
RTVSPost2010Prop39
140
1.0
102
RTVSPost2010PropOp39
 70
     1
102
RTVSPost2010Prop40
 90
        0
102
RTVSPost2010PropOp40
 70
     1
102
RTVSPost2010Prop41ColorIndex
 90
       18
102
RTVSPost2010Prop41ColorRGB
 90
        0
102
RTVSPost2010PropOp41
 70
     1
102
RTVSPost2010Prop42
 90
       50
102
RTVSPost2010PropOp42
 70
     1
102
RTVSPost2010Prop43
 90
        3
102
RTVSPost2010PropOp43
 70
     1
102
RTVSPost2010Prop44ColorIndex
 90
        5
102
RTVSPost2010Prop44ColorRGB
 90
      255
102
RTVSPost2010PropOp44
 70
     1
102
RTVSPost2010Prop45
280
     0
102
RTVSPost2010PropOp45
 70
     1
102
RTVSPost2010Prop46
 90
       50
102
RTVSPost2010PropOp46
 70
     1
102
RTVSPost2010Prop47
 90
       50
102
RTVSPost2010PropOp47
 70
     1
102
RTVSPost2010Prop48
 90
       50
102
RTVSPost2010PropOp48
 70
     1
102
RTVSPost2010Prop49
280
     0
102
RTVSPost2010PropOp49
 70
     1
102
RTVSPost2010Prop50
 90
       50
102
RTVSPost2010PropOp50
 70
     1
102
RTVSPost2010Prop51ColorIndex
 90
      256
102
RTVSPost2010Prop51ColorRGB
 90
-16777216
102
RTVSPost2010PropOp51
 70
     0
102
RTVSPost2010Prop52
140
1.0
102
RTVSPost2010PropOp52
 70
     0
102
RTVSPost2010Prop53
 90
        2
102
RTVSPost2010PropOp53
 70
     1
102
RTVSPost2010Prop54
  1
strokes_ogs.tif
102
RTVSPost2010PropOp54
 70
     1
102
RTVSPost2010Prop55
280
     0
102
RTVSPost2010PropOp55
 70
     1
102
RTVSPost2010Prop56
140
1.0
102
RTVSPost2010PropOp56
 70
     1
102
RTVSPost2010Prop57
140
1.0
102
RTVSPost2010PropOp57
 70
     1
102
RTVSPropertyOp0
 70
     1
102
RTVSPropertyOp1
 70
     1
102
RTVSPropertyOp2
 70
     1
102
RTVSPropertyOp3
 70
     1
102
RTVSPropertyOp4
 70
     1
102
RTVSPropertyOp5
 70
     1
102
RTVSPropertyOp6
 70
     1
102
RTVSPropertyOp7
 70
     1
102
RTVSPropertyOp8
 70
     1
102
RTVSPropertyOp9
 70
     1
102
RTVSPropertyOp10
 70
     1
102
RTVSPropertyOp11
 70
     1
102
RTVSPropertyOp12
 70
     1
102
RTVSPropertyOp13
 70
     1
102
RTVSPropertyOp14
 70
     1
102
RTVSPropertyOp15
 70
     1
102
RTVSPropertyOp16
 70
     1
102
RTVSPropertyOp17
 70
     1
102
RTVSPropertyOp18
 70
     1
102
RTVSPropertyOp19
 70
     1
102
RTVSPropertyOp20
 70
     1
102
RTVSPropertyOp21
 70
     1
102
RTVSPropertyOp22
 70
     1
102
RTVSPropertyOp23
 70
     1
102
RTVSPropertyOp24
 70
     1
102
RTVSPropertyOp25
 70
     1
102
RTVSPropertyOp26
 70
     1
102
RTVSPropertyOp27
 70
     1
102
RTVSPropertyOp28
 70
     1
102
RTVSPropertyOp29
 70
     1
102
RTVSPropertyOp30
 70
     1
102
RTVSPropertyOp31
 70
     1
102
RTVSPropertyOp32
 70
     1
102
RTVSPropertyOp33
 70
     1
102
RTVSPropertyOp34
 70
     1
102
RTVSPropertyOp35
 70
     1
102
RTVSPropertyOp36
 70
     1
102
RTVSPropertyOp37
 70
     1
102
RTVSPropertyOp38
 70
     1
102
RTVSPropertyOp39
 70
     1
102
RTVSPropertyOp40
 70
     1
102
RTVSPropertyOp41
 70
     1
102
RTVSPropertyOp42
 70
     1
102
RTVSPropertyOp43
 70
     1
102
RTVSPropertyOp44
 70
     1
102
RTVSPropertyOp45
 70
     1
102
RTVSPropertyOp46
 70
     1
102
RTVSPropertyOp47
 70
     1
102
RTVSPropertyOp48
 70
     1
102
RTVSPropertyOp49
 70
     1
102
RTVSPropertyOp50
 70
     1
102
RTVSPropertyOp51
 70
     0
102
RTVSPropertyOp52
 70
     0
102
RTVSPropertyOp53
 70
     1
102
RTVSPropertyOp54
 70
     1
102
RTVSPropertyOp55
 70
     1
102
RTVSPropertyOp56
 70
     1
102
RTVSPropertyOp57
 70
     1
102
RTVSPropertyOp58
 70
     1
102
RTVSPropertyOp59
 70
     1
102
RTVSPropertyOp60
 70
     1
102
RTVSPropertyOp61
 70
     1
102
RTVSPropertyOp62
 70
     1
  0
XRECORD
  5
2733
102
{ACAD_REACTORS
330
2732
102
}
330
2732
100
AcDbXrecord
280
     1
102
RTVSPost2010Prop28
280
     0
102
RTVSPost2010PropOp28
 70
     1
102
RTVSPost2010Prop29
280
     1
102
RTVSPost2010PropOp29
 70
     1
102
RTVSPost2010Prop30
280
     1
102
RTVSPost2010PropOp30
 70
     1
102
RTVSPost2010Prop31
280
     0
102
RTVSPost2010PropOp31
 70
     1
102
RTVSPost2010Prop32
280
     0
102
RTVSPost2010PropOp32
 70
     1
102
RTVSPost2010Prop33
280
     0
102
RTVSPost2010PropOp33
 70
     1
102
RTVSPost2010Prop34
280
     0
102
RTVSPost2010PropOp34
 70
     1
102
RTVSPost2010Prop35
280
     0
102
RTVSPost2010PropOp35
 70
     1
102
RTVSPost2010Prop36
280
     0
102
RTVSPost2010PropOp36
 70
     1
102
RTVSPost2010Prop37
 90
       50
102
RTVSPost2010PropOp37
 70
     1
102
RTVSPost2010Prop38
140
0.0
102
RTVSPost2010PropOp38
 70
     1
102
RTVSPost2010Prop39
140
1.0
102
RTVSPost2010PropOp39
 70
     1
102
RTVSPost2010Prop40
 90
        0
102
RTVSPost2010PropOp40
 70
     1
102
RTVSPost2010Prop41ColorIndex
 90
       18
102
RTVSPost2010Prop41ColorRGB
 90
        0
102
RTVSPost2010PropOp41
 70
     1
102
RTVSPost2010Prop42
 90
       50
102
RTVSPost2010PropOp42
 70
     1
102
RTVSPost2010Prop43
 90
        3
102
RTVSPost2010PropOp43
 70
     1
102
RTVSPost2010Prop44ColorIndex
 90
        5
102
RTVSPost2010Prop44ColorRGB
 90
      255
102
RTVSPost2010PropOp44
 70
     1
102
RTVSPost2010Prop45
280
     0
102
RTVSPost2010PropOp45
 70
     1
102
RTVSPost2010Prop46
 90
       50
102
RTVSPost2010PropOp46
 70
     1
102
RTVSPost2010Prop47
 90
       50
102
RTVSPost2010PropOp47
 70
     1
102
RTVSPost2010Prop48
 90
       50
102
RTVSPost2010PropOp48
 70
     1
102
RTVSPost2010Prop49
280
     0
102
RTVSPost2010PropOp49
 70
     1
102
RTVSPost2010Prop50
 90
       50
102
RTVSPost2010PropOp50
 70
     1
102
RTVSPost2010Prop51ColorIndex
 90
      256
102
RTVSPost2010Prop51ColorRGB
 90
-16777216
102
RTVSPost2010PropOp51
 70
     0
102
RTVSPost2010Prop52
140
1.0
102
RTVSPost2010PropOp52
 70
     0
102
RTVSPost2010Prop53
 90
        2
102
RTVSPost2010PropOp53
 70
     1
102
RTVSPost2010Prop54
  1
strokes_ogs.tif
102
RTVSPost2010PropOp54
 70
     1
102
RTVSPost2010Prop55
280
     0
102
RTVSPost2010PropOp55
 70
     1
102
RTVSPost2010Prop56
140
1.0
102
RTVSPost2010PropOp56
 70
     1
102
RTVSPost2010Prop57
140
1.0
102
RTVSPost2010PropOp57
 70
     1
102
RTVSPropertyOp0
 70
     1
102
RTVSPropertyOp1
 70
     1
102
RTVSPropertyOp2
 70
     1
102
RTVSPropertyOp3
 70
     1
102
RTVSPropertyOp4
 70
     1
102
RTVSPropertyOp5
 70
     1
102
RTVSPropertyOp6
 70
     1
102
RTVSPropertyOp7
 70
     1
102
RTVSPropertyOp8
 70
     1
102
RTVSPropertyOp9
 70
     1
102
RTVSPropertyOp10
 70
     1
102
RTVSPropertyOp11
 70
     1
102
RTVSPropertyOp12
 70
     1
102
RTVSPropertyOp13
 70
     1
102
RTVSPropertyOp14
 70
     1
102
RTVSPropertyOp15
 70
     1
102
RTVSPropertyOp16
 70
     1
102
RTVSPropertyOp17
 70
     1
102
RTVSPropertyOp18
 70
     1
102
RTVSPropertyOp19
 70
     1
102
RTVSPropertyOp20
 70
     1
102
RTVSPropertyOp21
 70
     1
102
RTVSPropertyOp22
 70
     1
102
RTVSPropertyOp23
 70
     1
102
RTVSPropertyOp24
 70
     1
102
RTVSPropertyOp25
 70
     1
102
RTVSPropertyOp26
 70
     1
102
RTVSPropertyOp27
 70
     1
102
RTVSPropertyOp28
 70
     1
102
RTVSPropertyOp29
 70
     1
102
RTVSPropertyOp30
 70
     1
102
RTVSPropertyOp31
 70
     1
102
RTVSPropertyOp32
 70
     1
102
RTVSPropertyOp33
 70
     1
102
RTVSPropertyOp34
 70
     1
102
RTVSPropertyOp35
 70
     1
102
RTVSPropertyOp36
 70
     1
102
RTVSPropertyOp37
 70
     1
102
RTVSPropertyOp38
 70
     1
102
RTVSPropertyOp39
 70
     1
102
RTVSPropertyOp40
 70
     1
102
RTVSPropertyOp41
 70
     1
102
RTVSPropertyOp42
 70
     1
102
RTVSPropertyOp43
 70
     1
102
RTVSPropertyOp44
 70
     1
102
RTVSPropertyOp45
 70
     1
102
RTVSPropertyOp46
 70
     1
102
RTVSPropertyOp47
 70
     1
102
RTVSPropertyOp48
 70
     1
102
RTVSPropertyOp49
 70
     1
102
RTVSPropertyOp50
 70
     1
102
RTVSPropertyOp51
 70
     0
102
RTVSPropertyOp52
 70
     0
102
RTVSPropertyOp53
 70
     1
102
RTVSPropertyOp54
 70
     1
102
RTVSPropertyOp55
 70
     1
102
RTVSPropertyOp56
 70
     1
102
RTVSPropertyOp57
 70
     1
102
RTVSPropertyOp58
 70
     1
102
RTVSPropertyOp59
 70
     1
102
RTVSPropertyOp60
 70
     1
102
RTVSPropertyOp61
 70
     1
102
RTVSPropertyOp62
 70
     1
  0
XRECORD
  5
2741
102
{ACAD_REACTORS
330
2740
102
}
330
2740
100
AcDbXrecord
280
     1
102
RTVSPost2010Prop28
280
     0
102
RTVSPost2010PropOp28
 70
     1
102
RTVSPost2010Prop29
280
     1
102
RTVSPost2010PropOp29
 70
     1
102
RTVSPost2010Prop30
280
     1
102
RTVSPost2010PropOp30
 70
     1
102
RTVSPost2010Prop31
280
     0
102
RTVSPost2010PropOp31
 70
     1
102
RTVSPost2010Prop32
280
     0
102
RTVSPost2010PropOp32
 70
     1
102
RTVSPost2010Prop33
280
     0
102
RTVSPost2010PropOp33
 70
     1
102
RTVSPost2010Prop34
280
     0
102
RTVSPost2010PropOp34
 70
     1
102
RTVSPost2010Prop35
280
     0
102
RTVSPost2010PropOp35
 70
     1
102
RTVSPost2010Prop36
280
     0
102
RTVSPost2010PropOp36
 70
     1
102
RTVSPost2010Prop37
 90
       50
102
RTVSPost2010PropOp37
 70
     1
102
RTVSPost2010Prop38
140
0.0
102
RTVSPost2010PropOp38
 70
     1
102
RTVSPost2010Prop39
140
1.0
102
RTVSPost2010PropOp39
 70
     1
102
RTVSPost2010Prop40
 90
        0
102
RTVSPost2010PropOp40
 70
     1
102
RTVSPost2010Prop41ColorIndex
 90
       18
102
RTVSPost2010Prop41ColorRGB
 90
        0
102
RTVSPost2010PropOp41
 70
     1
102
RTVSPost2010Prop42
 90
       50
102
RTVSPost2010PropOp42
 70
     1
102
RTVSPost2010Prop43
 90
        3
102
RTVSPost2010PropOp43
 70
     1
102
RTVSPost2010Prop44ColorIndex
 90
        5
102
RTVSPost2010Prop44ColorRGB
 90
      255
102
RTVSPost2010PropOp44
 70
     1
102
RTVSPost2010Prop45
280
     0
102
RTVSPost2010PropOp45
 70
     1
102
RTVSPost2010Prop46
 90
       50
102
RTVSPost2010PropOp46
 70
     1
102
RTVSPost2010Prop47
 90
       50
102
RTVSPost2010PropOp47
 70
     1
102
RTVSPost2010Prop48
 90
       50
102
RTVSPost2010PropOp48
 70
     1
102
RTVSPost2010Prop49
280
     0
102
RTVSPost2010PropOp49
 70
     1
102
RTVSPost2010Prop50
 90
       50
102
RTVSPost2010PropOp50
 70
     1
102
RTVSPost2010Prop51ColorIndex
 90
      256
102
RTVSPost2010Prop51ColorRGB
 90
-16777216
102
RTVSPost2010PropOp51
 70
     0
102
RTVSPost2010Prop52
140
1.0
102
RTVSPost2010PropOp52
 70
     0
102
RTVSPost2010Prop53
 90
        2
102
RTVSPost2010PropOp53
 70
     1
102
RTVSPost2010Prop54
  1
strokes_ogs.tif
102
RTVSPost2010PropOp54
 70
     1
102
RTVSPost2010Prop55
280
     0
102
RTVSPost2010PropOp55
 70
     1
102
RTVSPost2010Prop56
140
1.0
102
RTVSPost2010PropOp56
 70
     1
102
RTVSPost2010Prop57
140
1.0
102
RTVSPost2010PropOp57
 70
     1
102
RTVSPropertyOp0
 70
     1
102
RTVSPropertyOp1
 70
     1
102
RTVSPropertyOp2
 70
     1
102
RTVSPropertyOp3
 70
     1
102
RTVSPropertyOp4
 70
     1
102
RTVSPropertyOp5
 70
     1
102
RTVSPropertyOp6
 70
     1
102
RTVSPropertyOp7
 70
     1
102
RTVSPropertyOp8
 70
     1
102
RTVSPropertyOp9
 70
     1
102
RTVSPropertyOp10
 70
     1
102
RTVSPropertyOp11
 70
     1
102
RTVSPropertyOp12
 70
     1
102
RTVSPropertyOp13
 70
     1
102
RTVSPropertyOp14
 70
     1
102
RTVSPropertyOp15
 70
     1
102
RTVSPropertyOp16
 70
     1
102
RTVSPropertyOp17
 70
     1
102
RTVSPropertyOp18
 70
     1
102
RTVSPropertyOp19
 70
     1
102
RTVSPropertyOp20
 70
     1
102
RTVSPropertyOp21
 70
     1
102
RTVSPropertyOp22
 70
     1
102
RTVSPropertyOp23
 70
     1
102
RTVSPropertyOp24
 70
     1
102
RTVSPropertyOp25
 70
     1
102
RTVSPropertyOp26
 70
     1
102
RTVSPropertyOp27
 70
     1
102
RTVSPropertyOp28
 70
     1
102
RTVSPropertyOp29
 70
     1
102
RTVSPropertyOp30
 70
     1
102
RTVSPropertyOp31
 70
     1
102
RTVSPropertyOp32
 70
     1
102
RTVSPropertyOp33
 70
     1
102
RTVSPropertyOp34
 70
     1
102
RTVSPropertyOp35
 70
     1
102
RTVSPropertyOp36
 70
     1
102
RTVSPropertyOp37
 70
     1
102
RTVSPropertyOp38
 70
     1
102
RTVSPropertyOp39
 70
     1
102
RTVSPropertyOp40
 70
     1
102
RTVSPropertyOp41
 70
     1
102
RTVSPropertyOp42
 70
     1
102
RTVSPropertyOp43
 70
     1
102
RTVSPropertyOp44
 70
     1
102
RTVSPropertyOp45
 70
     1
102
RTVSPropertyOp46
 70
     1
102
RTVSPropertyOp47
 70
     1
102
RTVSPropertyOp48
 70
     1
102
RTVSPropertyOp49
 70
     1
102
RTVSPropertyOp50
 70
     1
102
RTVSPropertyOp51
 70
     0
102
RTVSPropertyOp52
 70
     0
102
RTVSPropertyOp53
 70
     1
102
RTVSPropertyOp54
 70
     1
102
RTVSPropertyOp55
 70
     1
102
RTVSPropertyOp56
 70
     1
102
RTVSPropertyOp57
 70
     1
102
RTVSPropertyOp58
 70
     1
102
RTVSPropertyOp59
 70
     1
102
RTVSPropertyOp60
 70
     1
102
RTVSPropertyOp61
 70
     1
102
RTVSPropertyOp62
 70
     1
  0
XRECORD
  5
2749
102
{ACAD_REACTORS
330
2748
102
}
330
2748
100
AcDbXrecord
280
     1
102
RTVSPost2010Prop28
280
     0
102
RTVSPost2010PropOp28
 70
     1
102
RTVSPost2010Prop29
280
     1
102
RTVSPost2010PropOp29
 70
     1
102
RTVSPost2010Prop30
280
     1
102
RTVSPost2010PropOp30
 70
     1
102
RTVSPost2010Prop31
280
     0
102
RTVSPost2010PropOp31
 70
     1
102
RTVSPost2010Prop32
280
     0
102
RTVSPost2010PropOp32
 70
     1
102
RTVSPost2010Prop33
280
     0
102
RTVSPost2010PropOp33
 70
     1
102
RTVSPost2010Prop34
280
     0
102
RTVSPost2010PropOp34
 70
     1
102
RTVSPost2010Prop35
280
     0
102
RTVSPost2010PropOp35
 70
     1
102
RTVSPost2010Prop36
280
     0
102
RTVSPost2010PropOp36
 70
     1
102
RTVSPost2010Prop37
 90
       50
102
RTVSPost2010PropOp37
 70
     1
102
RTVSPost2010Prop38
140
0.0
102
RTVSPost2010PropOp38
 70
     1
102
RTVSPost2010Prop39
140
1.0
102
RTVSPost2010PropOp39
 70
     1
102
RTVSPost2010Prop40
 90
        0
102
RTVSPost2010PropOp40
 70
     1
102
RTVSPost2010Prop41ColorIndex
 90
       18
102
RTVSPost2010Prop41ColorRGB
 90
        0
102
RTVSPost2010PropOp41
 70
     1
102
RTVSPost2010Prop42
 90
       50
102
RTVSPost2010PropOp42
 70
     1
102
RTVSPost2010Prop43
 90
        3
102
RTVSPost2010PropOp43
 70
     1
102
RTVSPost2010Prop44ColorIndex
 90
        5
102
RTVSPost2010Prop44ColorRGB
 90
      255
102
RTVSPost2010PropOp44
 70
     1
102
RTVSPost2010Prop45
280
     0
102
RTVSPost2010PropOp45
 70
     1
102
RTVSPost2010Prop46
 90
       50
102
RTVSPost2010PropOp46
 70
     1
102
RTVSPost2010Prop47
 90
       50
102
RTVSPost2010PropOp47
 70
     1
102
RTVSPost2010Prop48
 90
       50
102
RTVSPost2010PropOp48
 70
     1
102
RTVSPost2010Prop49
280
     0
102
RTVSPost2010PropOp49
 70
     1
102
RTVSPost2010Prop50
 90
       50
102
RTVSPost2010PropOp50
 70
     1
102
RTVSPost2010Prop51ColorIndex
 90
      256
102
RTVSPost2010Prop51ColorRGB
 90
-16777216
102
RTVSPost2010PropOp51
 70
     0
102
RTVSPost2010Prop52
140
1.0
102
RTVSPost2010PropOp52
 70
     0
102
RTVSPost2010Prop53
 90
        2
102
RTVSPost2010PropOp53
 70
     1
102
RTVSPost2010Prop54
  1
strokes_ogs.tif
102
RTVSPost2010PropOp54
 70
     1
102
RTVSPost2010Prop55
280
     0
102
RTVSPost2010PropOp55
 70
     1
102
RTVSPost2010Prop56
140
1.0
102
RTVSPost2010PropOp56
 70
     1
102
RTVSPost2010Prop57
140
1.0
102
RTVSPost2010PropOp57
 70
     1
102
RTVSPropertyOp0
 70
     1
102
RTVSPropertyOp1
 70
     1
102
RTVSPropertyOp2
 70
     1
102
RTVSPropertyOp3
 70
     1
102
RTVSPropertyOp4
 70
     1
102
RTVSPropertyOp5
 70
     1
102
RTVSPropertyOp6
 70
     1
102
RTVSPropertyOp7
 70
     1
102
RTVSPropertyOp8
 70
     1
102
RTVSPropertyOp9
 70
     1
102
RTVSPropertyOp10
 70
     1
102
RTVSPropertyOp11
 70
     1
102
RTVSPropertyOp12
 70
     1
102
RTVSPropertyOp13
 70
     1
102
RTVSPropertyOp14
 70
     1
102
RTVSPropertyOp15
 70
     1
102
RTVSPropertyOp16
 70
     1
102
RTVSPropertyOp17
 70
     1
102
RTVSPropertyOp18
 70
     1
102
RTVSPropertyOp19
 70
     1
102
RTVSPropertyOp20
 70
     1
102
RTVSPropertyOp21
 70
     1
102
RTVSPropertyOp22
 70
     1
102
RTVSPropertyOp23
 70
     1
102
RTVSPropertyOp24
 70
     1
102
RTVSPropertyOp25
 70
     1
102
RTVSPropertyOp26
 70
     1
102
RTVSPropertyOp27
 70
     1
102
RTVSPropertyOp28
 70
     1
102
RTVSPropertyOp29
 70
     1
102
RTVSPropertyOp30
 70
     1
102
RTVSPropertyOp31
 70
     1
102
RTVSPropertyOp32
 70
     1
102
RTVSPropertyOp33
 70
     1
102
RTVSPropertyOp34
 70
     1
102
RTVSPropertyOp35
 70
     1
102
RTVSPropertyOp36
 70
     1
102
RTVSPropertyOp37
 70
     1
102
RTVSPropertyOp38
 70
     1
102
RTVSPropertyOp39
 70
     1
102
RTVSPropertyOp40
 70
     1
102
RTVSPropertyOp41
 70
     1
102
RTVSPropertyOp42
 70
     1
102
RTVSPropertyOp43
 70
     1
102
RTVSPropertyOp44
 70
     1
102
RTVSPropertyOp45
 70
     1
102
RTVSPropertyOp46
 70
     1
102
RTVSPropertyOp47
 70
     1
102
RTVSPropertyOp48
 70
     1
102
RTVSPropertyOp49
 70
     1
102
RTVSPropertyOp50
 70
     1
102
RTVSPropertyOp51
 70
     0
102
RTVSPropertyOp52
 70
     0
102
RTVSPropertyOp53
 70
     1
102
RTVSPropertyOp54
 70
     1
102
RTVSPropertyOp55
 70
     1
102
RTVSPropertyOp56
 70
     1
102
RTVSPropertyOp57
 70
     1
102
RTVSPropertyOp58
 70
     1
102
RTVSPropertyOp59
 70
     1
102
RTVSPropertyOp60
 70
     1
102
RTVSPropertyOp61
 70
     1
102
RTVSPropertyOp62
 70
     1
  0
XRECORD
  5
273B
102
{ACAD_REACTORS
330
273A
102
}
330
273A
100
AcDbXrecord
280
     1
102
RTVSPost2010Prop28
280
     0
102
RTVSPost2010PropOp28
 70
     1
102
RTVSPost2010Prop29
280
     1
102
RTVSPost2010PropOp29
 70
     1
102
RTVSPost2010Prop30
280
     1
102
RTVSPost2010PropOp30
 70
     1
102
RTVSPost2010Prop31
280
     0
102
RTVSPost2010PropOp31
 70
     1
102
RTVSPost2010Prop32
280
     0
102
RTVSPost2010PropOp32
 70
     1
102
RTVSPost2010Prop33
280
     0
102
RTVSPost2010PropOp33
 70
     1
102
RTVSPost2010Prop34
280
     0
102
RTVSPost2010PropOp34
 70
     1
102
RTVSPost2010Prop35
280
     0
102
RTVSPost2010PropOp35
 70
     1
102
RTVSPost2010Prop36
280
     0
102
RTVSPost2010PropOp36
 70
     1
102
RTVSPost2010Prop37
 90
       50
102
RTVSPost2010PropOp37
 70
     1
102
RTVSPost2010Prop38
140
0.0
102
RTVSPost2010PropOp38
 70
     1
102
RTVSPost2010Prop39
140
1.0
102
RTVSPost2010PropOp39
 70
     1
102
RTVSPost2010Prop40
 90
        0
102
RTVSPost2010PropOp40
 70
     1
102
RTVSPost2010Prop41ColorIndex
 90
       18
102
RTVSPost2010Prop41ColorRGB
 90
        0
102
RTVSPost2010PropOp41
 70
     1
102
RTVSPost2010Prop42
 90
       50
102
RTVSPost2010PropOp42
 70
     1
102
RTVSPost2010Prop43
 90
        3
102
RTVSPost2010PropOp43
 70
     1
102
RTVSPost2010Prop44ColorIndex
 90
        5
102
RTVSPost2010Prop44ColorRGB
 90
      255
102
RTVSPost2010PropOp44
 70
     1
102
RTVSPost2010Prop45
280
     0
102
RTVSPost2010PropOp45
 70
     1
102
RTVSPost2010Prop46
 90
       50
102
RTVSPost2010PropOp46
 70
     1
102
RTVSPost2010Prop47
 90
       50
102
RTVSPost2010PropOp47
 70
     1
102
RTVSPost2010Prop48
 90
       50
102
RTVSPost2010PropOp48
 70
     1
102
RTVSPost2010Prop49
280
     0
102
RTVSPost2010PropOp49
 70
     1
102
RTVSPost2010Prop50
 90
       50
102
RTVSPost2010PropOp50
 70
     1
102
RTVSPost2010Prop51ColorIndex
 90
      256
102
RTVSPost2010Prop51ColorRGB
 90
-16777216
102
RTVSPost2010PropOp51
 70
     0
102
RTVSPost2010Prop52
140
1.0
102
RTVSPost2010PropOp52
 70
     0
102
RTVSPost2010Prop53
 90
        2
102
RTVSPost2010PropOp53
 70
     1
102
RTVSPost2010Prop54
  1
strokes_ogs.tif
102
RTVSPost2010PropOp54
 70
     1
102
RTVSPost2010Prop55
280
     0
102
RTVSPost2010PropOp55
 70
     1
102
RTVSPost2010Prop56
140
1.0
102
RTVSPost2010PropOp56
 70
     1
102
RTVSPost2010Prop57
140
1.0
102
RTVSPost2010PropOp57
 70
     1
102
RTVSPropertyOp0
 70
     1
102
RTVSPropertyOp1
 70
     1
102
RTVSPropertyOp2
 70
     1
102
RTVSPropertyOp3
 70
     1
102
RTVSPropertyOp4
 70
     1
102
RTVSPropertyOp5
 70
     1
102
RTVSPropertyOp6
 70
     1
102
RTVSPropertyOp7
 70
     1
102
RTVSPropertyOp8
 70
     1
102
RTVSPropertyOp9
 70
     1
102
RTVSPropertyOp10
 70
     1
102
RTVSPropertyOp11
 70
     1
102
RTVSPropertyOp12
 70
     1
102
RTVSPropertyOp13
 70
     1
102
RTVSPropertyOp14
 70
     1
102
RTVSPropertyOp15
 70
     1
102
RTVSPropertyOp16
 70
     1
102
RTVSPropertyOp17
 70
     1
102
RTVSPropertyOp18
 70
     1
102
RTVSPropertyOp19
 70
     1
102
RTVSPropertyOp20
 70
     1
102
RTVSPropertyOp21
 70
     1
102
RTVSPropertyOp22
 70
     1
102
RTVSPropertyOp23
 70
     1
102
RTVSPropertyOp24
 70
     1
102
RTVSPropertyOp25
 70
     1
102
RTVSPropertyOp26
 70
     1
102
RTVSPropertyOp27
 70
     1
102
RTVSPropertyOp28
 70
     1
102
RTVSPropertyOp29
 70
     1
102
RTVSPropertyOp30
 70
     1
102
RTVSPropertyOp31
 70
     1
102
RTVSPropertyOp32
 70
     1
102
RTVSPropertyOp33
 70
     1
102
RTVSPropertyOp34
 70
     1
102
RTVSPropertyOp35
 70
     1
102
RTVSPropertyOp36
 70
     1
102
RTVSPropertyOp37
 70
     1
102
RTVSPropertyOp38
 70
     1
102
RTVSPropertyOp39
 70
     1
102
RTVSPropertyOp40
 70
     1
102
RTVSPropertyOp41
 70
     1
102
RTVSPropertyOp42
 70
     1
102
RTVSPropertyOp43
 70
     1
102
RTVSPropertyOp44
 70
     1
102
RTVSPropertyOp45
 70
     1
102
RTVSPropertyOp46
 70
     1
102
RTVSPropertyOp47
 70
     1
102
RTVSPropertyOp48
 70
     1
102
RTVSPropertyOp49
 70
     1
102
RTVSPropertyOp50
 70
     1
102
RTVSPropertyOp51
 70
     0
102
RTVSPropertyOp52
 70
     0
102
RTVSPropertyOp53
 70
     1
102
RTVSPropertyOp54
 70
     1
102
RTVSPropertyOp55
 70
     1
102
RTVSPropertyOp56
 70
     1
102
RTVSPropertyOp57
 70
     1
102
RTVSPropertyOp58
 70
     1
102
RTVSPropertyOp59
 70
     1
102
RTVSPropertyOp60
 70
     1
102
RTVSPropertyOp61
 70
     1
102
RTVSPropertyOp62
 70
     1
  0
XRECORD
  5
273F
102
{ACAD_REACTORS
330
273E
102
}
330
273E
100
AcDbXrecord
280
     1
102
RTVSPost2010Prop28
280
     0
102
RTVSPost2010PropOp28
 70
     1
102
RTVSPost2010Prop29
280
     1
102
RTVSPost2010PropOp29
 70
     1
102
RTVSPost2010Prop30
280
     1
102
RTVSPost2010PropOp30
 70
     1
102
RTVSPost2010Prop31
280
     0
102
RTVSPost2010PropOp31
 70
     1
102
RTVSPost2010Prop32
280
     0
102
RTVSPost2010PropOp32
 70
     1
102
RTVSPost2010Prop33
280
     0
102
RTVSPost2010PropOp33
 70
     1
102
RTVSPost2010Prop34
280
     0
102
RTVSPost2010PropOp34
 70
     1
102
RTVSPost2010Prop35
280
     0
102
RTVSPost2010PropOp35
 70
     1
102
RTVSPost2010Prop36
280
     0
102
RTVSPost2010PropOp36
 70
     1
102
RTVSPost2010Prop37
 90
       50
102
RTVSPost2010PropOp37
 70
     1
102
RTVSPost2010Prop38
140
0.0
102
RTVSPost2010PropOp38
 70
     1
102
RTVSPost2010Prop39
140
1.0
102
RTVSPost2010PropOp39
 70
     1
102
RTVSPost2010Prop40
 90
        0
102
RTVSPost2010PropOp40
 70
     1
102
RTVSPost2010Prop41ColorIndex
 90
       18
102
RTVSPost2010Prop41ColorRGB
 90
        0
102
RTVSPost2010PropOp41
 70
     1
102
RTVSPost2010Prop42
 90
       50
102
RTVSPost2010PropOp42
 70
     1
102
RTVSPost2010Prop43
 90
        3
102
RTVSPost2010PropOp43
 70
     1
102
RTVSPost2010Prop44ColorIndex
 90
        5
102
RTVSPost2010Prop44ColorRGB
 90
      255
102
RTVSPost2010PropOp44
 70
     1
102
RTVSPost2010Prop45
280
     0
102
RTVSPost2010PropOp45
 70
     1
102
RTVSPost2010Prop46
 90
       50
102
RTVSPost2010PropOp46
 70
     1
102
RTVSPost2010Prop47
 90
       50
102
RTVSPost2010PropOp47
 70
     1
102
RTVSPost2010Prop48
 90
       50
102
RTVSPost2010PropOp48
 70
     1
102
RTVSPost2010Prop49
280
     0
102
RTVSPost2010PropOp49
 70
     1
102
RTVSPost2010Prop50
 90
       50
102
RTVSPost2010PropOp50
 70
     1
102
RTVSPost2010Prop51ColorIndex
 90
      256
102
RTVSPost2010Prop51ColorRGB
 90
-16777216
102
RTVSPost2010PropOp51
 70
     0
102
RTVSPost2010Prop52
140
1.0
102
RTVSPost2010PropOp52
 70
     0
102
RTVSPost2010Prop53
 90
        2
102
RTVSPost2010PropOp53
 70
     1
102
RTVSPost2010Prop54
  1
strokes_ogs.tif
102
RTVSPost2010PropOp54
 70
     1
102
RTVSPost2010Prop55
280
     0
102
RTVSPost2010PropOp55
 70
     1
102
RTVSPost2010Prop56
140
1.0
102
RTVSPost2010PropOp56
 70
     1
102
RTVSPost2010Prop57
140
1.0
102
RTVSPost2010PropOp57
 70
     1
102
RTVSPropertyOp0
 70
     1
102
RTVSPropertyOp1
 70
     1
102
RTVSPropertyOp2
 70
     1
102
RTVSPropertyOp3
 70
     1
102
RTVSPropertyOp4
 70
     1
102
RTVSPropertyOp5
 70
     1
102
RTVSPropertyOp6
 70
     1
102
RTVSPropertyOp7
 70
     1
102
RTVSPropertyOp8
 70
     1
102
RTVSPropertyOp9
 70
     1
102
RTVSPropertyOp10
 70
     1
102
RTVSPropertyOp11
 70
     1
102
RTVSPropertyOp12
 70
     1
102
RTVSPropertyOp13
 70
     1
102
RTVSPropertyOp14
 70
     1
102
RTVSPropertyOp15
 70
     1
102
RTVSPropertyOp16
 70
     1
102
RTVSPropertyOp17
 70
     1
102
RTVSPropertyOp18
 70
     1
102
RTVSPropertyOp19
 70
     1
102
RTVSPropertyOp20
 70
     1
102
RTVSPropertyOp21
 70
     1
102
RTVSPropertyOp22
 70
     1
102
RTVSPropertyOp23
 70
     1
102
RTVSPropertyOp24
 70
     1
102
RTVSPropertyOp25
 70
     1
102
RTVSPropertyOp26
 70
     1
102
RTVSPropertyOp27
 70
     1
102
RTVSPropertyOp28
 70
     1
102
RTVSPropertyOp29
 70
     1
102
RTVSPropertyOp30
 70
     1
102
RTVSPropertyOp31
 70
     1
102
RTVSPropertyOp32
 70
     1
102
RTVSPropertyOp33
 70
     1
102
RTVSPropertyOp34
 70
     1
102
RTVSPropertyOp35
 70
     1
102
RTVSPropertyOp36
 70
     1
102
RTVSPropertyOp37
 70
     1
102
RTVSPropertyOp38
 70
     1
102
RTVSPropertyOp39
 70
     1
102
RTVSPropertyOp40
 70
     1
102
RTVSPropertyOp41
 70
     1
102
RTVSPropertyOp42
 70
     1
102
RTVSPropertyOp43
 70
     1
102
RTVSPropertyOp44
 70
     1
102
RTVSPropertyOp45
 70
     1
102
RTVSPropertyOp46
 70
     1
102
RTVSPropertyOp47
 70
     1
102
RTVSPropertyOp48
 70
     1
102
RTVSPropertyOp49
 70
     1
102
RTVSPropertyOp50
 70
     1
102
RTVSPropertyOp51
 70
     0
102
RTVSPropertyOp52
 70
     0
102
RTVSPropertyOp53
 70
     1
102
RTVSPropertyOp54
 70
     1
102
RTVSPropertyOp55
 70
     1
102
RTVSPropertyOp56
 70
     1
102
RTVSPropertyOp57
 70
     1
102
RTVSPropertyOp58
 70
     1
102
RTVSPropertyOp59
 70
     1
102
RTVSPropertyOp60
 70
     1
102
RTVSPropertyOp61
 70
     1
102
RTVSPropertyOp62
 70
     1
  0
XRECORD
  5
2759
102
{ACAD_REACTORS
330
2758
102
}
330
2758
100
AcDbXrecord
280
     1
102
RTVSPost2010Prop28
280
     0
102
RTVSPost2010PropOp28
 70
     1
102
RTVSPost2010Prop29
280
     1
102
RTVSPost2010PropOp29
 70
     1
102
RTVSPost2010Prop30
280
     1
102
RTVSPost2010PropOp30
 70
     1
102
RTVSPost2010Prop31
280
     0
102
RTVSPost2010PropOp31
 70
     1
102
RTVSPost2010Prop32
280
     0
102
RTVSPost2010PropOp32
 70
     1
102
RTVSPost2010Prop33
280
     0
102
RTVSPost2010PropOp33
 70
     1
102
RTVSPost2010Prop34
280
     0
102
RTVSPost2010PropOp34
 70
     1
102
RTVSPost2010Prop35
280
     0
102
RTVSPost2010PropOp35
 70
     1
102
RTVSPost2010Prop36
280
     0
102
RTVSPost2010PropOp36
 70
     1
102
RTVSPost2010Prop37
 90
       50
102
RTVSPost2010PropOp37
 70
     0
102
RTVSPost2010Prop38
140
0.0
102
RTVSPost2010PropOp38
 70
     0
102
RTVSPost2010Prop39
140
1.0
102
RTVSPost2010PropOp39
 70
     0
102
RTVSPost2010Prop40
 90
        0
102
RTVSPost2010PropOp40
 70
     0
102
RTVSPost2010Prop41ColorIndex
 90
       18
102
RTVSPost2010Prop41ColorRGB
 90
        0
102
RTVSPost2010PropOp41
 70
     0
102
RTVSPost2010Prop42
 90
       50
102
RTVSPost2010PropOp42
 70
     0
102
RTVSPost2010Prop43
 90
        3
102
RTVSPost2010PropOp43
 70
     0
102
RTVSPost2010Prop44ColorIndex
 90
        5
102
RTVSPost2010Prop44ColorRGB
 90
      255
102
RTVSPost2010PropOp44
 70
     0
102
RTVSPost2010Prop45
280
     0
102
RTVSPost2010PropOp45
 70
     1
102
RTVSPost2010Prop46
 90
       50
102
RTVSPost2010PropOp46
 70
     0
102
RTVSPost2010Prop47
 90
       50
102
RTVSPost2010PropOp47
 70
     0
102
RTVSPost2010Prop48
 90
       50
102
RTVSPost2010PropOp48
 70
     0
102
RTVSPost2010Prop49
280
     0
102
RTVSPost2010PropOp49
 70
     1
102
RTVSPost2010Prop50
 90
       50
102
RTVSPost2010PropOp50
 70
     0
102
RTVSPost2010Prop51ColorIndex
 90
      256
102
RTVSPost2010Prop51ColorRGB
 90
-16777216
102
RTVSPost2010PropOp51
 70
     0
102
RTVSPost2010Prop52
140
1.0
102
RTVSPost2010PropOp52
 70
     0
102
RTVSPost2010Prop53
 90
        2
102
RTVSPost2010PropOp53
 70
     0
102
RTVSPost2010Prop54
  1
strokes_ogs.tif
102
RTVSPost2010PropOp54
 70
     0
102
RTVSPost2010Prop55
280
     0
102
RTVSPost2010PropOp55
 70
     1
102
RTVSPost2010Prop56
140
1.0
102
RTVSPost2010PropOp56
 70
     0
102
RTVSPost2010Prop57
140
1.0
102
RTVSPost2010PropOp57
 70
     0
102
RTVSPropertyOp0
 70
     0
102
RTVSPropertyOp1
 70
     0
102
RTVSPropertyOp2
 70
     0
102
RTVSPropertyOp3
 70
     0
102
RTVSPropertyOp4
 70
     0
102
RTVSPropertyOp5
 70
     0
102
RTVSPropertyOp6
 70
     0
102
RTVSPropertyOp7
 70
     0
102
RTVSPropertyOp8
 70
     0
102
RTVSPropertyOp9
 70
     0
102
RTVSPropertyOp10
 70
     0
102
RTVSPropertyOp11
 70
     0
102
RTVSPropertyOp12
 70
     0
102
RTVSPropertyOp13
 70
     0
102
RTVSPropertyOp14
 70
     2
102
RTVSPropertyOp15
 70
     0
102
RTVSPropertyOp16
 70
     0
102
RTVSPropertyOp17
 70
     0
102
RTVSPropertyOp18
 70
     0
102
RTVSPropertyOp19
 70
     0
102
RTVSPropertyOp20
 70
     0
102
RTVSPropertyOp21
 70
     0
102
RTVSPropertyOp22
 70
     0
102
RTVSPropertyOp23
 70
     0
102
RTVSPropertyOp24
 70
     0
102
RTVSPropertyOp25
 70
     0
102
RTVSPropertyOp26
 70
     0
102
RTVSPropertyOp27
 70
     0
102
RTVSPropertyOp28
 70
     1
102
RTVSPropertyOp29
 70
     1
102
RTVSPropertyOp30
 70
     1
102
RTVSPropertyOp31
 70
     1
102
RTVSPropertyOp32
 70
     1
102
RTVSPropertyOp33
 70
     1
102
RTVSPropertyOp34
 70
     1
102
RTVSPropertyOp35
 70
     1
102
RTVSPropertyOp36
 70
     1
102
RTVSPropertyOp37
 70
     0
102
RTVSPropertyOp38
 70
     0
102
RTVSPropertyOp39
 70
     0
102
RTVSPropertyOp40
 70
     0
102
RTVSPropertyOp41
 70
     0
102
RTVSPropertyOp42
 70
     0
102
RTVSPropertyOp43
 70
     0
102
RTVSPropertyOp44
 70
     0
102
RTVSPropertyOp45
 70
     1
102
RTVSPropertyOp46
 70
     0
102
RTVSPropertyOp47
 70
     0
102
RTVSPropertyOp48
 70
     0
102
RTVSPropertyOp49
 70
     1
102
RTVSPropertyOp50
 70
     0
102
RTVSPropertyOp51
 70
     0
102
RTVSPropertyOp52
 70
     0
102
RTVSPropertyOp53
 70
     0
102
RTVSPropertyOp54
 70
     0
102
RTVSPropertyOp55
 70
     1
102
RTVSPropertyOp56
 70
     0
102
RTVSPropertyOp57
 70
     0
102
RTVSPropertyOp58
 70
     0
102
RTVSPropertyOp59
 70
     0
102
RTVSPropertyOp60
 70
     0
102
RTVSPropertyOp61
 70
     0
102
RTVSPropertyOp62
 70
     0
  0
XRECORD
  5
2747
102
{ACAD_REACTORS
330
2746
102
}
330
2746
100
AcDbXrecord
280
     1
102
RTVSPost2010Prop28
280
     0
102
RTVSPost2010PropOp28
 70
     1
102
RTVSPost2010Prop29
280
     1
102
RTVSPost2010PropOp29
 70
     1
102
RTVSPost2010Prop30
280
     1
102
RTVSPost2010PropOp30
 70
     1
102
RTVSPost2010Prop31
280
     0
102
RTVSPost2010PropOp31
 70
     1
102
RTVSPost2010Prop32
280
     0
102
RTVSPost2010PropOp32
 70
     1
102
RTVSPost2010Prop33
280
     0
102
RTVSPost2010PropOp33
 70
     1
102
RTVSPost2010Prop34
280
     0
102
RTVSPost2010PropOp34
 70
     1
102
RTVSPost2010Prop35
280
     0
102
RTVSPost2010PropOp35
 70
     1
102
RTVSPost2010Prop36
280
     0
102
RTVSPost2010PropOp36
 70
     1
102
RTVSPost2010Prop37
 90
       50
102
RTVSPost2010PropOp37
 70
     1
102
RTVSPost2010Prop38
140
0.0
102
RTVSPost2010PropOp38
 70
     1
102
RTVSPost2010Prop39
140
1.0
102
RTVSPost2010PropOp39
 70
     1
102
RTVSPost2010Prop40
 90
        0
102
RTVSPost2010PropOp40
 70
     1
102
RTVSPost2010Prop41ColorIndex
 90
       18
102
RTVSPost2010Prop41ColorRGB
 90
        0
102
RTVSPost2010PropOp41
 70
     1
102
RTVSPost2010Prop42
 90
       50
102
RTVSPost2010PropOp42
 70
     1
102
RTVSPost2010Prop43
 90
        3
102
RTVSPost2010PropOp43
 70
     1
102
RTVSPost2010Prop44ColorIndex
 90
        5
102
RTVSPost2010Prop44ColorRGB
 90
      255
102
RTVSPost2010PropOp44
 70
     1
102
RTVSPost2010Prop45
280
     0
102
RTVSPost2010PropOp45
 70
     1
102
RTVSPost2010Prop46
 90
       50
102
RTVSPost2010PropOp46
 70
     1
102
RTVSPost2010Prop47
 90
       50
102
RTVSPost2010PropOp47
 70
     1
102
RTVSPost2010Prop48
 90
       50
102
RTVSPost2010PropOp48
 70
     1
102
RTVSPost2010Prop49
280
     0
102
RTVSPost2010PropOp49
 70
     1
102
RTVSPost2010Prop50
 90
       50
102
RTVSPost2010PropOp50
 70
     1
102
RTVSPost2010Prop51ColorIndex
 90
      256
102
RTVSPost2010Prop51ColorRGB
 90
-16777216
102
RTVSPost2010PropOp51
 70
     0
102
RTVSPost2010Prop52
140
1.0
102
RTVSPost2010PropOp52
 70
     0
102
RTVSPost2010Prop53
 90
        2
102
RTVSPost2010PropOp53
 70
     1
102
RTVSPost2010Prop54
  1
strokes_ogs.tif
102
RTVSPost2010PropOp54
 70
     1
102
RTVSPost2010Prop55
280
     0
102
RTVSPost2010PropOp55
 70
     1
102
RTVSPost2010Prop56
140
1.0
102
RTVSPost2010PropOp56
 70
     1
102
RTVSPost2010Prop57
140
1.0
102
RTVSPost2010PropOp57
 70
     1
102
RTVSPropertyOp0
 70
     1
102
RTVSPropertyOp1
 70
     1
102
RTVSPropertyOp2
 70
     1
102
RTVSPropertyOp3
 70
     1
102
RTVSPropertyOp4
 70
     1
102
RTVSPropertyOp5
 70
     1
102
RTVSPropertyOp6
 70
     1
102
RTVSPropertyOp7
 70
     1
102
RTVSPropertyOp8
 70
     1
102
RTVSPropertyOp9
 70
     1
102
RTVSPropertyOp10
 70
     1
102
RTVSPropertyOp11
 70
     1
102
RTVSPropertyOp12
 70
     1
102
RTVSPropertyOp13
 70
     1
102
RTVSPropertyOp14
 70
     1
102
RTVSPropertyOp15
 70
     1
102
RTVSPropertyOp16
 70
     1
102
RTVSPropertyOp17
 70
     1
102
RTVSPropertyOp18
 70
     1
102
RTVSPropertyOp19
 70
     1
102
RTVSPropertyOp20
 70
     1
102
RTVSPropertyOp21
 70
     1
102
RTVSPropertyOp22
 70
     1
102
RTVSPropertyOp23
 70
     1
102
RTVSPropertyOp24
 70
     1
102
RTVSPropertyOp25
 70
     1
102
RTVSPropertyOp26
 70
     1
102
RTVSPropertyOp27
 70
     1
102
RTVSPropertyOp28
 70
     1
102
RTVSPropertyOp29
 70
     1
102
RTVSPropertyOp30
 70
     1
102
RTVSPropertyOp31
 70
     1
102
RTVSPropertyOp32
 70
     1
102
RTVSPropertyOp33
 70
     1
102
RTVSPropertyOp34
 70
     1
102
RTVSPropertyOp35
 70
     1
102
RTVSPropertyOp36
 70
     1
102
RTVSPropertyOp37
 70
     1
102
RTVSPropertyOp38
 70
     1
102
RTVSPropertyOp39
 70
     1
102
RTVSPropertyOp40
 70
     1
102
RTVSPropertyOp41
 70
     1
102
RTVSPropertyOp42
 70
     1
102
RTVSPropertyOp43
 70
     1
102
RTVSPropertyOp44
 70
     1
102
RTVSPropertyOp45
 70
     1
102
RTVSPropertyOp46
 70
     1
102
RTVSPropertyOp47
 70
     1
102
RTVSPropertyOp48
 70
     1
102
RTVSPropertyOp49
 70
     1
102
RTVSPropertyOp50
 70
     1
102
RTVSPropertyOp51
 70
     0
102
RTVSPropertyOp52
 70
     0
102
RTVSPropertyOp53
 70
     1
102
RTVSPropertyOp54
 70
     1
102
RTVSPropertyOp55
 70
     1
102
RTVSPropertyOp56
 70
     1
102
RTVSPropertyOp57
 70
     1
102
RTVSPropertyOp58
 70
     1
102
RTVSPropertyOp59
 70
     1
102
RTVSPropertyOp60
 70
     1
102
RTVSPropertyOp61
 70
     1
102
RTVSPropertyOp62
 70
     1
  0
XRECORD
  5
272B
102
{ACAD_REACTORS
330
272A
102
}
330
272A
100
AcDbXrecord
280
     1
102
RTVSPost2010Prop28
280
     0
102
RTVSPost2010PropOp28
 70
     1
102
RTVSPost2010Prop29
280
     1
102
RTVSPost2010PropOp29
 70
     1
102
RTVSPost2010Prop30
280
     1
102
RTVSPost2010PropOp30
 70
     1
102
RTVSPost2010Prop31
280
     0
102
RTVSPost2010PropOp31
 70
     1
102
RTVSPost2010Prop32
280
     0
102
RTVSPost2010PropOp32
 70
     1
102
RTVSPost2010Prop33
280
     0
102
RTVSPost2010PropOp33
 70
     1
102
RTVSPost2010Prop34
280
     0
102
RTVSPost2010PropOp34
 70
     1
102
RTVSPost2010Prop35
280
     0
102
RTVSPost2010PropOp35
 70
     1
102
RTVSPost2010Prop36
280
     0
102
RTVSPost2010PropOp36
 70
     1
102
RTVSPost2010Prop37
 90
       50
102
RTVSPost2010PropOp37
 70
     1
102
RTVSPost2010Prop38
140
0.0
102
RTVSPost2010PropOp38
 70
     1
102
RTVSPost2010Prop39
140
1.0
102
RTVSPost2010PropOp39
 70
     1
102
RTVSPost2010Prop40
 90
        0
102
RTVSPost2010PropOp40
 70
     1
102
RTVSPost2010Prop41ColorIndex
 90
       18
102
RTVSPost2010Prop41ColorRGB
 90
        0
102
RTVSPost2010PropOp41
 70
     1
102
RTVSPost2010Prop42
 90
       50
102
RTVSPost2010PropOp42
 70
     1
102
RTVSPost2010Prop43
 90
        3
102
RTVSPost2010PropOp43
 70
     1
102
RTVSPost2010Prop44ColorIndex
 90
        5
102
RTVSPost2010Prop44ColorRGB
 90
      255
102
RTVSPost2010PropOp44
 70
     1
102
RTVSPost2010Prop45
280
     0
102
RTVSPost2010PropOp45
 70
     1
102
RTVSPost2010Prop46
 90
       50
102
RTVSPost2010PropOp46
 70
     1
102
RTVSPost2010Prop47
 90
       50
102
RTVSPost2010PropOp47
 70
     1
102
RTVSPost2010Prop48
 90
       50
102
RTVSPost2010PropOp48
 70
     1
102
RTVSPost2010Prop49
280
     0
102
RTVSPost2010PropOp49
 70
     1
102
RTVSPost2010Prop50
 90
       50
102
RTVSPost2010PropOp50
 70
     1
102
RTVSPost2010Prop51ColorIndex
 90
      256
102
RTVSPost2010Prop51ColorRGB
 90
-16777216
102
RTVSPost2010PropOp51
 70
     0
102
RTVSPost2010Prop52
140
1.0
102
RTVSPost2010PropOp52
 70
     0
102
RTVSPost2010Prop53
 90
        2
102
RTVSPost2010PropOp53
 70
     1
102
RTVSPost2010Prop54
  1
strokes_ogs.tif
102
RTVSPost2010PropOp54
 70
     1
102
RTVSPost2010Prop55
280
     0
102
RTVSPost2010PropOp55
 70
     1
102
RTVSPost2010Prop56
140
1.0
102
RTVSPost2010PropOp56
 70
     1
102
RTVSPost2010Prop57
140
1.0
102
RTVSPost2010PropOp57
 70
     1
102
RTVSPropertyOp0
 70
     1
102
RTVSPropertyOp1
 70
     1
102
RTVSPropertyOp2
 70
     1
102
RTVSPropertyOp3
 70
     1
102
RTVSPropertyOp4
 70
     1
102
RTVSPropertyOp5
 70
     1
102
RTVSPropertyOp6
 70
     1
102
RTVSPropertyOp7
 70
     1
102
RTVSPropertyOp8
 70
     1
102
RTVSPropertyOp9
 70
     1
102
RTVSPropertyOp10
 70
     1
102
RTVSPropertyOp11
 70
     1
102
RTVSPropertyOp12
 70
     1
102
RTVSPropertyOp13
 70
     1
102
RTVSPropertyOp14
 70
     1
102
RTVSPropertyOp15
 70
     1
102
RTVSPropertyOp16
 70
     1
102
RTVSPropertyOp17
 70
     1
102
RTVSPropertyOp18
 70
     1
102
RTVSPropertyOp19
 70
     1
102
RTVSPropertyOp20
 70
     1
102
RTVSPropertyOp21
 70
     1
102
RTVSPropertyOp22
 70
     1
102
RTVSPropertyOp23
 70
     1
102
RTVSPropertyOp24
 70
     1
102
RTVSPropertyOp25
 70
     1
102
RTVSPropertyOp26
 70
     1
102
RTVSPropertyOp27
 70
     1
102
RTVSPropertyOp28
 70
     1
102
RTVSPropertyOp29
 70
     1
102
RTVSPropertyOp30
 70
     1
102
RTVSPropertyOp31
 70
     1
102
RTVSPropertyOp32
 70
     1
102
RTVSPropertyOp33
 70
     1
102
RTVSPropertyOp34
 70
     1
102
RTVSPropertyOp35
 70
     1
102
RTVSPropertyOp36
 70
     1
102
RTVSPropertyOp37
 70
     1
102
RTVSPropertyOp38
 70
     1
102
RTVSPropertyOp39
 70
     1
102
RTVSPropertyOp40
 70
     1
102
RTVSPropertyOp41
 70
     1
102
RTVSPropertyOp42
 70
     1
102
RTVSPropertyOp43
 70
     1
102
RTVSPropertyOp44
 70
     1
102
RTVSPropertyOp45
 70
     1
102
RTVSPropertyOp46
 70
     1
102
RTVSPropertyOp47
 70
     1
102
RTVSPropertyOp48
 70
     1
102
RTVSPropertyOp49
 70
     1
102
RTVSPropertyOp50
 70
     1
102
RTVSPropertyOp51
 70
     0
102
RTVSPropertyOp52
 70
     0
102
RTVSPropertyOp53
 70
     1
102
RTVSPropertyOp54
 70
     1
102
RTVSPropertyOp55
 70
     1
102
RTVSPropertyOp56
 70
     1
102
RTVSPropertyOp57
 70
     1
102
RTVSPropertyOp58
 70
     1
102
RTVSPropertyOp59
 70
     1
102
RTVSPropertyOp60
 70
     1
102
RTVSPropertyOp61
 70
     1
102
RTVSPropertyOp62
 70
     1
  0
XRECORD
  5
272D
102
{ACAD_REACTORS
330
272C
102
}
330
272C
100
AcDbXrecord
280
     1
102
RTVSPost2010Prop28
280
     0
102
RTVSPost2010PropOp28
 70
     1
102
RTVSPost2010Prop29
280
     1
102
RTVSPost2010PropOp29
 70
     1
102
RTVSPost2010Prop30
280
     1
102
RTVSPost2010PropOp30
 70
     1
102
RTVSPost2010Prop31
280
     0
102
RTVSPost2010PropOp31
 70
     1
102
RTVSPost2010Prop32
280
     0
102
RTVSPost2010PropOp32
 70
     1
102
RTVSPost2010Prop33
280
     0
102
RTVSPost2010PropOp33
 70
     1
102
RTVSPost2010Prop34
280
     0
102
RTVSPost2010PropOp34
 70
     1
102
RTVSPost2010Prop35
280
     0
102
RTVSPost2010PropOp35
 70
     1
102
RTVSPost2010Prop36
280
     0
102
RTVSPost2010PropOp36
 70
     1
102
RTVSPost2010Prop37
 90
       50
102
RTVSPost2010PropOp37
 70
     1
102
RTVSPost2010Prop38
140
0.0
102
RTVSPost2010PropOp38
 70
     1
102
RTVSPost2010Prop39
140
1.0
102
RTVSPost2010PropOp39
 70
     1
102
RTVSPost2010Prop40
 90
        0
102
RTVSPost2010PropOp40
 70
     1
102
RTVSPost2010Prop41ColorIndex
 90
       18
102
RTVSPost2010Prop41ColorRGB
 90
        0
102
RTVSPost2010PropOp41
 70
     1
102
RTVSPost2010Prop42
 90
       50
102
RTVSPost2010PropOp42
 70
     1
102
RTVSPost2010Prop43
 90
        3
102
RTVSPost2010PropOp43
 70
     1
102
RTVSPost2010Prop44ColorIndex
 90
        5
102
RTVSPost2010Prop44ColorRGB
 90
      255
102
RTVSPost2010PropOp44
 70
     1
102
RTVSPost2010Prop45
280
     0
102
RTVSPost2010PropOp45
 70
     1
102
RTVSPost2010Prop46
 90
       50
102
RTVSPost2010PropOp46
 70
     1
102
RTVSPost2010Prop47
 90
       50
102
RTVSPost2010PropOp47
 70
     1
102
RTVSPost2010Prop48
 90
       50
102
RTVSPost2010PropOp48
 70
     1
102
RTVSPost2010Prop49
280
     0
102
RTVSPost2010PropOp49
 70
     1
102
RTVSPost2010Prop50
 90
       50
102
RTVSPost2010PropOp50
 70
     1
102
RTVSPost2010Prop51ColorIndex
 90
      256
102
RTVSPost2010Prop51ColorRGB
 90
-16777216
102
RTVSPost2010PropOp51
 70
     0
102
RTVSPost2010Prop52
140
1.0
102
RTVSPost2010PropOp52
 70
     0
102
RTVSPost2010Prop53
 90
        2
102
RTVSPost2010PropOp53
 70
     1
102
RTVSPost2010Prop54
  1
strokes_ogs.tif
102
RTVSPost2010PropOp54
 70
     1
102
RTVSPost2010Prop55
280
     0
102
RTVSPost2010PropOp55
 70
     1
102
RTVSPost2010Prop56
140
1.0
102
RTVSPost2010PropOp56
 70
     1
102
RTVSPost2010Prop57
140
1.0
102
RTVSPost2010PropOp57
 70
     1
102
RTVSPropertyOp0
 70
     1
102
RTVSPropertyOp1
 70
     1
102
RTVSPropertyOp2
 70
     1
102
RTVSPropertyOp3
 70
     1
102
RTVSPropertyOp4
 70
     1
102
RTVSPropertyOp5
 70
     1
102
RTVSPropertyOp6
 70
     1
102
RTVSPropertyOp7
 70
     1
102
RTVSPropertyOp8
 70
     1
102
RTVSPropertyOp9
 70
     1
102
RTVSPropertyOp10
 70
     1
102
RTVSPropertyOp11
 70
     1
102
RTVSPropertyOp12
 70
     1
102
RTVSPropertyOp13
 70
     1
102
RTVSPropertyOp14
 70
     1
102
RTVSPropertyOp15
 70
     1
102
RTVSPropertyOp16
 70
     1
102
RTVSPropertyOp17
 70
     1
102
RTVSPropertyOp18
 70
     1
102
RTVSPropertyOp19
 70
     1
102
RTVSPropertyOp20
 70
     1
102
RTVSPropertyOp21
 70
     1
102
RTVSPropertyOp22
 70
     1
102
RTVSPropertyOp23
 70
     1
102
RTVSPropertyOp24
 70
     1
102
RTVSPropertyOp25
 70
     1
102
RTVSPropertyOp26
 70
     1
102
RTVSPropertyOp27
 70
     1
102
RTVSPropertyOp28
 70
     1
102
RTVSPropertyOp29
 70
     1
102
RTVSPropertyOp30
 70
     1
102
RTVSPropertyOp31
 70
     1
102
RTVSPropertyOp32
 70
     1
102
RTVSPropertyOp33
 70
     1
102
RTVSPropertyOp34
 70
     1
102
RTVSPropertyOp35
 70
     1
102
RTVSPropertyOp36
 70
     1
102
RTVSPropertyOp37
 70
     1
102
RTVSPropertyOp38
 70
     1
102
RTVSPropertyOp39
 70
     1
102
RTVSPropertyOp40
 70
     1
102
RTVSPropertyOp41
 70
     1
102
RTVSPropertyOp42
 70
     1
102
RTVSPropertyOp43
 70
     1
102
RTVSPropertyOp44
 70
     1
102
RTVSPropertyOp45
 70
     1
102
RTVSPropertyOp46
 70
     1
102
RTVSPropertyOp47
 70
     1
102
RTVSPropertyOp48
 70
     1
102
RTVSPropertyOp49
 70
     1
102
RTVSPropertyOp50
 70
     1
102
RTVSPropertyOp51
 70
     0
102
RTVSPropertyOp52
 70
     0
102
RTVSPropertyOp53
 70
     1
102
RTVSPropertyOp54
 70
     1
102
RTVSPropertyOp55
 70
     1
102
RTVSPropertyOp56
 70
     1
102
RTVSPropertyOp57
 70
     1
102
RTVSPropertyOp58
 70
     1
102
RTVSPropertyOp59
 70
     1
102
RTVSPropertyOp60
 70
     1
102
RTVSPropertyOp61
 70
     1
102
RTVSPropertyOp62
 70
     1
  0
XRECORD
  5
272F
102
{ACAD_REACTORS
330
272E
102
}
330
272E
100
AcDbXrecord
280
     1
102
RTVSPost2010Prop28
280
     0
102
RTVSPost2010PropOp28
 70
     1
102
RTVSPost2010Prop29
280
     1
102
RTVSPost2010PropOp29
 70
     1
102
RTVSPost2010Prop30
280
     1
102
RTVSPost2010PropOp30
 70
     1
102
RTVSPost2010Prop31
280
     0
102
RTVSPost2010PropOp31
 70
     1
102
RTVSPost2010Prop32
280
     0
102
RTVSPost2010PropOp32
 70
     1
102
RTVSPost2010Prop33
280
     0
102
RTVSPost2010PropOp33
 70
     1
102
RTVSPost2010Prop34
280
     0
102
RTVSPost2010PropOp34
 70
     1
102
RTVSPost2010Prop35
280
     0
102
RTVSPost2010PropOp35
 70
     1
102
RTVSPost2010Prop36
280
     0
102
RTVSPost2010PropOp36
 70
     1
102
RTVSPost2010Prop37
 90
       50
102
RTVSPost2010PropOp37
 70
     1
102
RTVSPost2010Prop38
140
0.0
102
RTVSPost2010PropOp38
 70
     1
102
RTVSPost2010Prop39
140
1.0
102
RTVSPost2010PropOp39
 70
     1
102
RTVSPost2010Prop40
 90
        0
102
RTVSPost2010PropOp40
 70
     1
102
RTVSPost2010Prop41ColorIndex
 90
       18
102
RTVSPost2010Prop41ColorRGB
 90
        0
102
RTVSPost2010PropOp41
 70
     1
102
RTVSPost2010Prop42
 90
       50
102
RTVSPost2010PropOp42
 70
     1
102
RTVSPost2010Prop43
 90
        3
102
RTVSPost2010PropOp43
 70
     1
102
RTVSPost2010Prop44ColorIndex
 90
        5
102
RTVSPost2010Prop44ColorRGB
 90
      255
102
RTVSPost2010PropOp44
 70
     1
102
RTVSPost2010Prop45
280
     0
102
RTVSPost2010PropOp45
 70
     1
102
RTVSPost2010Prop46
 90
       50
102
RTVSPost2010PropOp46
 70
     1
102
RTVSPost2010Prop47
 90
       50
102
RTVSPost2010PropOp47
 70
     1
102
RTVSPost2010Prop48
 90
       50
102
RTVSPost2010PropOp48
 70
     1
102
RTVSPost2010Prop49
280
     0
102
RTVSPost2010PropOp49
 70
     1
102
RTVSPost2010Prop50
 90
       50
102
RTVSPost2010PropOp50
 70
     1
102
RTVSPost2010Prop51ColorIndex
 90
      256
102
RTVSPost2010Prop51ColorRGB
 90
-16777216
102
RTVSPost2010PropOp51
 70
     0
102
RTVSPost2010Prop52
140
1.0
102
RTVSPost2010PropOp52
 70
     0
102
RTVSPost2010Prop53
 90
        2
102
RTVSPost2010PropOp53
 70
     1
102
RTVSPost2010Prop54
  1
strokes_ogs.tif
102
RTVSPost2010PropOp54
 70
     1
102
RTVSPost2010Prop55
280
     0
102
RTVSPost2010PropOp55
 70
     1
102
RTVSPost2010Prop56
140
1.0
102
RTVSPost2010PropOp56
 70
     1
102
RTVSPost2010Prop57
140
1.0
102
RTVSPost2010PropOp57
 70
     1
102
RTVSPropertyOp0
 70
     1
102
RTVSPropertyOp1
 70
     1
102
RTVSPropertyOp2
 70
     1
102
RTVSPropertyOp3
 70
     1
102
RTVSPropertyOp4
 70
     1
102
RTVSPropertyOp5
 70
     1
102
RTVSPropertyOp6
 70
     1
102
RTVSPropertyOp7
 70
     1
102
RTVSPropertyOp8
 70
     1
102
RTVSPropertyOp9
 70
     1
102
RTVSPropertyOp10
 70
     1
102
RTVSPropertyOp11
 70
     1
102
RTVSPropertyOp12
 70
     1
102
RTVSPropertyOp13
 70
     1
102
RTVSPropertyOp14
 70
     1
102
RTVSPropertyOp15
 70
     1
102
RTVSPropertyOp16
 70
     1
102
RTVSPropertyOp17
 70
     1
102
RTVSPropertyOp18
 70
     1
102
RTVSPropertyOp19
 70
     1
102
RTVSPropertyOp20
 70
     1
102
RTVSPropertyOp21
 70
     1
102
RTVSPropertyOp22
 70
     1
102
RTVSPropertyOp23
 70
     1
102
RTVSPropertyOp24
 70
     1
102
RTVSPropertyOp25
 70
     1
102
RTVSPropertyOp26
 70
     1
102
RTVSPropertyOp27
 70
     1
102
RTVSPropertyOp28
 70
     1
102
RTVSPropertyOp29
 70
     1
102
RTVSPropertyOp30
 70
     1
102
RTVSPropertyOp31
 70
     1
102
RTVSPropertyOp32
 70
     1
102
RTVSPropertyOp33
 70
     1
102
RTVSPropertyOp34
 70
     1
102
RTVSPropertyOp35
 70
     1
102
RTVSPropertyOp36
 70
     1
102
RTVSPropertyOp37
 70
     1
102
RTVSPropertyOp38
 70
     1
102
RTVSPropertyOp39
 70
     1
102
RTVSPropertyOp40
 70
     1
102
RTVSPropertyOp41
 70
     1
102
RTVSPropertyOp42
 70
     1
102
RTVSPropertyOp43
 70
     1
102
RTVSPropertyOp44
 70
     1
102
RTVSPropertyOp45
 70
     1
102
RTVSPropertyOp46
 70
     1
102
RTVSPropertyOp47
 70
     1
102
RTVSPropertyOp48
 70
     1
102
RTVSPropertyOp49
 70
     1
102
RTVSPropertyOp50
 70
     1
102
RTVSPropertyOp51
 70
     0
102
RTVSPropertyOp52
 70
     0
102
RTVSPropertyOp53
 70
     1
102
RTVSPropertyOp54
 70
     1
102
RTVSPropertyOp55
 70
     1
102
RTVSPropertyOp56
 70
     1
102
RTVSPropertyOp57
 70
     1
102
RTVSPropertyOp58
 70
     1
102
RTVSPropertyOp59
 70
     1
102
RTVSPropertyOp60
 70
     1
102
RTVSPropertyOp61
 70
     1
102
RTVSPropertyOp62
 70
     1
  0
XRECORD
  5
2731
102
{ACAD_REACTORS
330
2730
102
}
330
2730
100
AcDbXrecord
280
     1
102
RTVSPost2010Prop28
280
     0
102
RTVSPost2010PropOp28
 70
     1
102
RTVSPost2010Prop29
280
     1
102
RTVSPost2010PropOp29
 70
     1
102
RTVSPost2010Prop30
280
     1
102
RTVSPost2010PropOp30
 70
     1
102
RTVSPost2010Prop31
280
     0
102
RTVSPost2010PropOp31
 70
     1
102
RTVSPost2010Prop32
280
     0
102
RTVSPost2010PropOp32
 70
     1
102
RTVSPost2010Prop33
280
     0
102
RTVSPost2010PropOp33
 70
     1
102
RTVSPost2010Prop34
280
     0
102
RTVSPost2010PropOp34
 70
     1
102
RTVSPost2010Prop35
280
     0
102
RTVSPost2010PropOp35
 70
     1
102
RTVSPost2010Prop36
280
     0
102
RTVSPost2010PropOp36
 70
     1
102
RTVSPost2010Prop37
 90
       50
102
RTVSPost2010PropOp37
 70
     1
102
RTVSPost2010Prop38
140
0.0
102
RTVSPost2010PropOp38
 70
     1
102
RTVSPost2010Prop39
140
1.0
102
RTVSPost2010PropOp39
 70
     1
102
RTVSPost2010Prop40
 90
        0
102
RTVSPost2010PropOp40
 70
     1
102
RTVSPost2010Prop41ColorIndex
 90
       18
102
RTVSPost2010Prop41ColorRGB
 90
        0
102
RTVSPost2010PropOp41
 70
     1
102
RTVSPost2010Prop42
 90
       50
102
RTVSPost2010PropOp42
 70
     1
102
RTVSPost2010Prop43
 90
        3
102
RTVSPost2010PropOp43
 70
     1
102
RTVSPost2010Prop44ColorIndex
 90
        5
102
RTVSPost2010Prop44ColorRGB
 90
      255
102
RTVSPost2010PropOp44
 70
     1
102
RTVSPost2010Prop45
280
     0
102
RTVSPost2010PropOp45
 70
     1
102
RTVSPost2010Prop46
 90
       50
102
RTVSPost2010PropOp46
 70
     1
102
RTVSPost2010Prop47
 90
       50
102
RTVSPost2010PropOp47
 70
     1
102
RTVSPost2010Prop48
 90
       50
102
RTVSPost2010PropOp48
 70
     1
102
RTVSPost2010Prop49
280
     0
102
RTVSPost2010PropOp49
 70
     1
102
RTVSPost2010Prop50
 90
       50
102
RTVSPost2010PropOp50
 70
     1
102
RTVSPost2010Prop51ColorIndex
 90
      256
102
RTVSPost2010Prop51ColorRGB
 90
-16777216
102
RTVSPost2010PropOp51
 70
     0
102
RTVSPost2010Prop52
140
1.0
102
RTVSPost2010PropOp52
 70
     0
102
RTVSPost2010Prop53
 90
        2
102
RTVSPost2010PropOp53
 70
     1
102
RTVSPost2010Prop54
  1
strokes_ogs.tif
102
RTVSPost2010PropOp54
 70
     1
102
RTVSPost2010Prop55
280
     0
102
RTVSPost2010PropOp55
 70
     1
102
RTVSPost2010Prop56
140
1.0
102
RTVSPost2010PropOp56
 70
     1
102
RTVSPost2010Prop57
140
1.0
102
RTVSPost2010PropOp57
 70
     1
102
RTVSPropertyOp0
 70
     1
102
RTVSPropertyOp1
 70
     1
102
RTVSPropertyOp2
 70
     1
102
RTVSPropertyOp3
 70
     1
102
RTVSPropertyOp4
 70
     1
102
RTVSPropertyOp5
 70
     1
102
RTVSPropertyOp6
 70
     1
102
RTVSPropertyOp7
 70
     1
102
RTVSPropertyOp8
 70
     1
102
RTVSPropertyOp9
 70
     1
102
RTVSPropertyOp10
 70
     1
102
RTVSPropertyOp11
 70
     1
102
RTVSPropertyOp12
 70
     1
102
RTVSPropertyOp13
 70
     1
102
RTVSPropertyOp14
 70
     1
102
RTVSPropertyOp15
 70
     1
102
RTVSPropertyOp16
 70
     1
102
RTVSPropertyOp17
 70
     1
102
RTVSPropertyOp18
 70
     1
102
RTVSPropertyOp19
 70
     1
102
RTVSPropertyOp20
 70
     1
102
RTVSPropertyOp21
 70
     1
102
RTVSPropertyOp22
 70
     1
102
RTVSPropertyOp23
 70
     1
102
RTVSPropertyOp24
 70
     1
102
RTVSPropertyOp25
 70
     1
102
RTVSPropertyOp26
 70
     1
102
RTVSPropertyOp27
 70
     1
102
RTVSPropertyOp28
 70
     1
102
RTVSPropertyOp29
 70
     1
102
RTVSPropertyOp30
 70
     1
102
RTVSPropertyOp31
 70
     1
102
RTVSPropertyOp32
 70
     1
102
RTVSPropertyOp33
 70
     1
102
RTVSPropertyOp34
 70
     1
102
RTVSPropertyOp35
 70
     1
102
RTVSPropertyOp36
 70
     1
102
RTVSPropertyOp37
 70
     1
102
RTVSPropertyOp38
 70
     1
102
RTVSPropertyOp39
 70
     1
102
RTVSPropertyOp40
 70
     1
102
RTVSPropertyOp41
 70
     1
102
RTVSPropertyOp42
 70
     1
102
RTVSPropertyOp43
 70
     1
102
RTVSPropertyOp44
 70
     1
102
RTVSPropertyOp45
 70
     1
102
RTVSPropertyOp46
 70
     1
102
RTVSPropertyOp47
 70
     1
102
RTVSPropertyOp48
 70
     1
102
RTVSPropertyOp49
 70
     1
102
RTVSPropertyOp50
 70
     1
102
RTVSPropertyOp51
 70
     0
102
RTVSPropertyOp52
 70
     0
102
RTVSPropertyOp53
 70
     1
102
RTVSPropertyOp54
 70
     1
102
RTVSPropertyOp55
 70
     1
102
RTVSPropertyOp56
 70
     1
102
RTVSPropertyOp57
 70
     1
102
RTVSPropertyOp58
 70
     1
102
RTVSPropertyOp59
 70
     1
102
RTVSPropertyOp60
 70
     1
102
RTVSPropertyOp61
 70
     1
102
RTVSPropertyOp62
 70
     1
  0
XRECORD
  5
2739
102
{ACAD_REACTORS
330
2738
102
}
330
2738
100
AcDbXrecord
280
     1
102
RTVSPost2010Prop28
280
     0
102
RTVSPost2010PropOp28
 70
     1
102
RTVSPost2010Prop29
280
     1
102
RTVSPost2010PropOp29
 70
     1
102
RTVSPost2010Prop30
280
     1
102
RTVSPost2010PropOp30
 70
     1
102
RTVSPost2010Prop31
280
     0
102
RTVSPost2010PropOp31
 70
     1
102
RTVSPost2010Prop32
280
     0
102
RTVSPost2010PropOp32
 70
     1
102
RTVSPost2010Prop33
280
     0
102
RTVSPost2010PropOp33
 70
     1
102
RTVSPost2010Prop34
280
     0
102
RTVSPost2010PropOp34
 70
     1
102
RTVSPost2010Prop35
280
     0
102
RTVSPost2010PropOp35
 70
     1
102
RTVSPost2010Prop36
280
     0
102
RTVSPost2010PropOp36
 70
     1
102
RTVSPost2010Prop37
 90
       50
102
RTVSPost2010PropOp37
 70
     1
102
RTVSPost2010Prop38
140
0.0
102
RTVSPost2010PropOp38
 70
     1
102
RTVSPost2010Prop39
140
1.0
102
RTVSPost2010PropOp39
 70
     1
102
RTVSPost2010Prop40
 90
        0
102
RTVSPost2010PropOp40
 70
     1
102
RTVSPost2010Prop41ColorIndex
 90
       18
102
RTVSPost2010Prop41ColorRGB
 90
        0
102
RTVSPost2010PropOp41
 70
     1
102
RTVSPost2010Prop42
 90
       50
102
RTVSPost2010PropOp42
 70
     1
102
RTVSPost2010Prop43
 90
        3
102
RTVSPost2010PropOp43
 70
     1
102
RTVSPost2010Prop44ColorIndex
 90
        5
102
RTVSPost2010Prop44ColorRGB
 90
      255
102
RTVSPost2010PropOp44
 70
     1
102
RTVSPost2010Prop45
280
     0
102
RTVSPost2010PropOp45
 70
     1
102
RTVSPost2010Prop46
 90
       50
102
RTVSPost2010PropOp46
 70
     1
102
RTVSPost2010Prop47
 90
       50
102
RTVSPost2010PropOp47
 70
     1
102
RTVSPost2010Prop48
 90
       50
102
RTVSPost2010PropOp48
 70
     1
102
RTVSPost2010Prop49
280
     0
102
RTVSPost2010PropOp49
 70
     1
102
RTVSPost2010Prop50
 90
       50
102
RTVSPost2010PropOp50
 70
     1
102
RTVSPost2010Prop51ColorIndex
 90
      256
102
RTVSPost2010Prop51ColorRGB
 90
-16777216
102
RTVSPost2010PropOp51
 70
     0
102
RTVSPost2010Prop52
140
1.0
102
RTVSPost2010PropOp52
 70
     0
102
RTVSPost2010Prop53
 90
        2
102
RTVSPost2010PropOp53
 70
     1
102
RTVSPost2010Prop54
  1
strokes_ogs.tif
102
RTVSPost2010PropOp54
 70
     1
102
RTVSPost2010Prop55
280
     0
102
RTVSPost2010PropOp55
 70
     1
102
RTVSPost2010Prop56
140
1.0
102
RTVSPost2010PropOp56
 70
     1
102
RTVSPost2010Prop57
140
1.0
102
RTVSPost2010PropOp57
 70
     1
102
RTVSPropertyOp0
 70
     1
102
RTVSPropertyOp1
 70
     1
102
RTVSPropertyOp2
 70
     1
102
RTVSPropertyOp3
 70
     1
102
RTVSPropertyOp4
 70
     1
102
RTVSPropertyOp5
 70
     1
102
RTVSPropertyOp6
 70
     1
102
RTVSPropertyOp7
 70
     1
102
RTVSPropertyOp8
 70
     1
102
RTVSPropertyOp9
 70
     1
102
RTVSPropertyOp10
 70
     1
102
RTVSPropertyOp11
 70
     1
102
RTVSPropertyOp12
 70
     1
102
RTVSPropertyOp13
 70
     1
102
RTVSPropertyOp14
 70
     1
102
RTVSPropertyOp15
 70
     1
102
RTVSPropertyOp16
 70
     1
102
RTVSPropertyOp17
 70
     1
102
RTVSPropertyOp18
 70
     1
102
RTVSPropertyOp19
 70
     1
102
RTVSPropertyOp20
 70
     1
102
RTVSPropertyOp21
 70
     1
102
RTVSPropertyOp22
 70
     1
102
RTVSPropertyOp23
 70
     1
102
RTVSPropertyOp24
 70
     1
102
RTVSPropertyOp25
 70
     1
102
RTVSPropertyOp26
 70
     1
102
RTVSPropertyOp27
 70
     1
102
RTVSPropertyOp28
 70
     1
102
RTVSPropertyOp29
 70
     1
102
RTVSPropertyOp30
 70
     1
102
RTVSPropertyOp31
 70
     1
102
RTVSPropertyOp32
 70
     1
102
RTVSPropertyOp33
 70
     1
102
RTVSPropertyOp34
 70
     1
102
RTVSPropertyOp35
 70
     1
102
RTVSPropertyOp36
 70
     1
102
RTVSPropertyOp37
 70
     1
102
RTVSPropertyOp38
 70
     1
102
RTVSPropertyOp39
 70
     1
102
RTVSPropertyOp40
 70
     1
102
RTVSPropertyOp41
 70
     1
102
RTVSPropertyOp42
 70
     1
102
RTVSPropertyOp43
 70
     1
102
RTVSPropertyOp44
 70
     1
102
RTVSPropertyOp45
 70
     1
102
RTVSPropertyOp46
 70
     1
102
RTVSPropertyOp47
 70
     1
102
RTVSPropertyOp48
 70
     1
102
RTVSPropertyOp49
 70
     1
102
RTVSPropertyOp50
 70
     1
102
RTVSPropertyOp51
 70
     0
102
RTVSPropertyOp52
 70
     0
102
RTVSPropertyOp53
 70
     1
102
RTVSPropertyOp54
 70
     1
102
RTVSPropertyOp55
 70
     1
102
RTVSPropertyOp56
 70
     1
102
RTVSPropertyOp57
 70
     1
102
RTVSPropertyOp58
 70
     1
102
RTVSPropertyOp59
 70
     1
102
RTVSPropertyOp60
 70
     1
102
RTVSPropertyOp61
 70
     1
102
RTVSPropertyOp62
 70
     1
  0
XRECORD
  5
2755
102
{ACAD_REACTORS
330
2754
102
}
330
2754
100
AcDbXrecord
280
     1
102
RTVSPost2010Prop28
280
     0
102
RTVSPost2010PropOp28
 70
     1
102
RTVSPost2010Prop29
280
     1
102
RTVSPost2010PropOp29
 70
     1
102
RTVSPost2010Prop30
280
     1
102
RTVSPost2010PropOp30
 70
     1
102
RTVSPost2010Prop31
280
     0
102
RTVSPost2010PropOp31
 70
     1
102
RTVSPost2010Prop32
280
     0
102
RTVSPost2010PropOp32
 70
     1
102
RTVSPost2010Prop33
280
     0
102
RTVSPost2010PropOp33
 70
     1
102
RTVSPost2010Prop34
280
     0
102
RTVSPost2010PropOp34
 70
     1
102
RTVSPost2010Prop35
280
     0
102
RTVSPost2010PropOp35
 70
     1
102
RTVSPost2010Prop36
280
     0
102
RTVSPost2010PropOp36
 70
     1
102
RTVSPost2010Prop37
 90
       50
102
RTVSPost2010PropOp37
 70
     0
102
RTVSPost2010Prop38
140
0.0
102
RTVSPost2010PropOp38
 70
     0
102
RTVSPost2010Prop39
140
1.0
102
RTVSPost2010PropOp39
 70
     0
102
RTVSPost2010Prop40
 90
        0
102
RTVSPost2010PropOp40
 70
     0
102
RTVSPost2010Prop41ColorIndex
 90
       18
102
RTVSPost2010Prop41ColorRGB
 90
        0
102
RTVSPost2010PropOp41
 70
     0
102
RTVSPost2010Prop42
 90
       50
102
RTVSPost2010PropOp42
 70
     0
102
RTVSPost2010Prop43
 90
        3
102
RTVSPost2010PropOp43
 70
     0
102
RTVSPost2010Prop44ColorIndex
 90
        5
102
RTVSPost2010Prop44ColorRGB
 90
      255
102
RTVSPost2010PropOp44
 70
     0
102
RTVSPost2010Prop45
280
     0
102
RTVSPost2010PropOp45
 70
     1
102
RTVSPost2010Prop46
 90
       50
102
RTVSPost2010PropOp46
 70
     0
102
RTVSPost2010Prop47
 90
       50
102
RTVSPost2010PropOp47
 70
     0
102
RTVSPost2010Prop48
 90
       50
102
RTVSPost2010PropOp48
 70
     0
102
RTVSPost2010Prop49
280
     0
102
RTVSPost2010PropOp49
 70
     1
102
RTVSPost2010Prop50
 90
       50
102
RTVSPost2010PropOp50
 70
     0
102
RTVSPost2010Prop51ColorIndex
 90
      256
102
RTVSPost2010Prop51ColorRGB
 90
-16777216
102
RTVSPost2010PropOp51
 70
     0
102
RTVSPost2010Prop52
140
1.0
102
RTVSPost2010PropOp52
 70
     0
102
RTVSPost2010Prop53
 90
        2
102
RTVSPost2010PropOp53
 70
     0
102
RTVSPost2010Prop54
  1
strokes_ogs.tif
102
RTVSPost2010PropOp54
 70
     0
102
RTVSPost2010Prop55
280
     0
102
RTVSPost2010PropOp55
 70
     1
102
RTVSPost2010Prop56
140
1.0
102
RTVSPost2010PropOp56
 70
     0
102
RTVSPost2010Prop57
140
1.0
102
RTVSPost2010PropOp57
 70
     0
102
RTVSPropertyOp0
 70
     0
102
RTVSPropertyOp1
 70
     0
102
RTVSPropertyOp2
 70
     0
102
RTVSPropertyOp3
 70
     0
102
RTVSPropertyOp4
 70
     0
102
RTVSPropertyOp5
 70
     0
102
RTVSPropertyOp6
 70
     0
102
RTVSPropertyOp7
 70
     0
102
RTVSPropertyOp8
 70
     0
102
RTVSPropertyOp9
 70
     0
102
RTVSPropertyOp10
 70
     0
102
RTVSPropertyOp11
 70
     0
102
RTVSPropertyOp12
 70
     0
102
RTVSPropertyOp13
 70
     0
102
RTVSPropertyOp14
 70
     2
102
RTVSPropertyOp15
 70
     0
102
RTVSPropertyOp16
 70
     0
102
RTVSPropertyOp17
 70
     0
102
RTVSPropertyOp18
 70
     0
102
RTVSPropertyOp19
 70
     0
102
RTVSPropertyOp20
 70
     0
102
RTVSPropertyOp21
 70
     0
102
RTVSPropertyOp22
 70
     0
102
RTVSPropertyOp23
 70
     0
102
RTVSPropertyOp24
 70
     0
102
RTVSPropertyOp25
 70
     0
102
RTVSPropertyOp26
 70
     0
102
RTVSPropertyOp27
 70
     0
102
RTVSPropertyOp28
 70
     1
102
RTVSPropertyOp29
 70
     1
102
RTVSPropertyOp30
 70
     1
102
RTVSPropertyOp31
 70
     1
102
RTVSPropertyOp32
 70
     1
102
RTVSPropertyOp33
 70
     1
102
RTVSPropertyOp34
 70
     1
102
RTVSPropertyOp35
 70
     1
102
RTVSPropertyOp36
 70
     1
102
RTVSPropertyOp37
 70
     0
102
RTVSPropertyOp38
 70
     0
102
RTVSPropertyOp39
 70
     0
102
RTVSPropertyOp40
 70
     0
102
RTVSPropertyOp41
 70
     0
102
RTVSPropertyOp42
 70
     0
102
RTVSPropertyOp43
 70
     0
102
RTVSPropertyOp44
 70
     0
102
RTVSPropertyOp45
 70
     1
102
RTVSPropertyOp46
 70
     0
102
RTVSPropertyOp47
 70
     0
102
RTVSPropertyOp48
 70
     0
102
RTVSPropertyOp49
 70
     1
102
RTVSPropertyOp50
 70
     0
102
RTVSPropertyOp51
 70
     0
102
RTVSPropertyOp52
 70
     0
102
RTVSPropertyOp53
 70
     0
102
RTVSPropertyOp54
 70
     0
102
RTVSPropertyOp55
 70
     1
102
RTVSPropertyOp56
 70
     0
102
RTVSPropertyOp57
 70
     0
102
RTVSPropertyOp58
 70
     0
102
RTVSPropertyOp59
 70
     0
102
RTVSPropertyOp60
 70
     0
102
RTVSPropertyOp61
 70
     0
102
RTVSPropertyOp62
 70
     0
  0
XRECORD
  5
2745
102
{ACAD_REACTORS
330
2744
102
}
330
2744
100
AcDbXrecord
280
     1
102
RTVSPost2010Prop28
280
     0
102
RTVSPost2010PropOp28
 70
     1
102
RTVSPost2010Prop29
280
     1
102
RTVSPost2010PropOp29
 70
     1
102
RTVSPost2010Prop30
280
     1
102
RTVSPost2010PropOp30
 70
     1
102
RTVSPost2010Prop31
280
     0
102
RTVSPost2010PropOp31
 70
     1
102
RTVSPost2010Prop32
280
     0
102
RTVSPost2010PropOp32
 70
     1
102
RTVSPost2010Prop33
280
     0
102
RTVSPost2010PropOp33
 70
     1
102
RTVSPost2010Prop34
280
     0
102
RTVSPost2010PropOp34
 70
     1
102
RTVSPost2010Prop35
280
     0
102
RTVSPost2010PropOp35
 70
     1
102
RTVSPost2010Prop36
280
     0
102
RTVSPost2010PropOp36
 70
     1
102
RTVSPost2010Prop37
 90
       50
102
RTVSPost2010PropOp37
 70
     1
102
RTVSPost2010Prop38
140
0.0
102
RTVSPost2010PropOp38
 70
     1
102
RTVSPost2010Prop39
140
1.0
102
RTVSPost2010PropOp39
 70
     1
102
RTVSPost2010Prop40
 90
        0
102
RTVSPost2010PropOp40
 70
     1
102
RTVSPost2010Prop41ColorIndex
 90
       18
102
RTVSPost2010Prop41ColorRGB
 90
        0
102
RTVSPost2010PropOp41
 70
     1
102
RTVSPost2010Prop42
 90
       50
102
RTVSPost2010PropOp42
 70
     1
102
RTVSPost2010Prop43
 90
        3
102
RTVSPost2010PropOp43
 70
     1
102
RTVSPost2010Prop44ColorIndex
 90
        5
102
RTVSPost2010Prop44ColorRGB
 90
      255
102
RTVSPost2010PropOp44
 70
     1
102
RTVSPost2010Prop45
280
     0
102
RTVSPost2010PropOp45
 70
     1
102
RTVSPost2010Prop46
 90
       50
102
RTVSPost2010PropOp46
 70
     1
102
RTVSPost2010Prop47
 90
       50
102
RTVSPost2010PropOp47
 70
     1
102
RTVSPost2010Prop48
 90
       50
102
RTVSPost2010PropOp48
 70
     1
102
RTVSPost2010Prop49
280
     0
102
RTVSPost2010PropOp49
 70
     1
102
RTVSPost2010Prop50
 90
       50
102
RTVSPost2010PropOp50
 70
     1
102
RTVSPost2010Prop51ColorIndex
 90
      256
102
RTVSPost2010Prop51ColorRGB
 90
-16777216
102
RTVSPost2010PropOp51
 70
     0
102
RTVSPost2010Prop52
140
1.0
102
RTVSPost2010PropOp52
 70
     0
102
RTVSPost2010Prop53
 90
        2
102
RTVSPost2010PropOp53
 70
     1
102
RTVSPost2010Prop54
  1
strokes_ogs.tif
102
RTVSPost2010PropOp54
 70
     1
102
RTVSPost2010Prop55
280
     0
102
RTVSPost2010PropOp55
 70
     1
102
RTVSPost2010Prop56
140
1.0
102
RTVSPost2010PropOp56
 70
     1
102
RTVSPost2010Prop57
140
1.0
102
RTVSPost2010PropOp57
 70
     1
102
RTVSPropertyOp0
 70
     1
102
RTVSPropertyOp1
 70
     1
102
RTVSPropertyOp2
 70
     1
102
RTVSPropertyOp3
 70
     1
102
RTVSPropertyOp4
 70
     1
102
RTVSPropertyOp5
 70
     1
102
RTVSPropertyOp6
 70
     1
102
RTVSPropertyOp7
 70
     1
102
RTVSPropertyOp8
 70
     1
102
RTVSPropertyOp9
 70
     1
102
RTVSPropertyOp10
 70
     1
102
RTVSPropertyOp11
 70
     1
102
RTVSPropertyOp12
 70
     1
102
RTVSPropertyOp13
 70
     1
102
RTVSPropertyOp14
 70
     1
102
RTVSPropertyOp15
 70
     1
102
RTVSPropertyOp16
 70
     1
102
RTVSPropertyOp17
 70
     1
102
RTVSPropertyOp18
 70
     1
102
RTVSPropertyOp19
 70
     1
102
RTVSPropertyOp20
 70
     1
102
RTVSPropertyOp21
 70
     1
102
RTVSPropertyOp22
 70
     1
102
RTVSPropertyOp23
 70
     1
102
RTVSPropertyOp24
 70
     1
102
RTVSPropertyOp25
 70
     1
102
RTVSPropertyOp26
 70
     1
102
RTVSPropertyOp27
 70
     1
102
RTVSPropertyOp28
 70
     1
102
RTVSPropertyOp29
 70
     1
102
RTVSPropertyOp30
 70
     1
102
RTVSPropertyOp31
 70
     1
102
RTVSPropertyOp32
 70
     1
102
RTVSPropertyOp33
 70
     1
102
RTVSPropertyOp34
 70
     1
102
RTVSPropertyOp35
 70
     1
102
RTVSPropertyOp36
 70
     1
102
RTVSPropertyOp37
 70
     1
102
RTVSPropertyOp38
 70
     1
102
RTVSPropertyOp39
 70
     1
102
RTVSPropertyOp40
 70
     1
102
RTVSPropertyOp41
 70
     1
102
RTVSPropertyOp42
 70
     1
102
RTVSPropertyOp43
 70
     1
102
RTVSPropertyOp44
 70
     1
102
RTVSPropertyOp45
 70
     1
102
RTVSPropertyOp46
 70
     1
102
RTVSPropertyOp47
 70
     1
102
RTVSPropertyOp48
 70
     1
102
RTVSPropertyOp49
 70
     1
102
RTVSPropertyOp50
 70
     1
102
RTVSPropertyOp51
 70
     0
102
RTVSPropertyOp52
 70
     0
102
RTVSPropertyOp53
 70
     1
102
RTVSPropertyOp54
 70
     1
102
RTVSPropertyOp55
 70
     1
102
RTVSPropertyOp56
 70
     1
102
RTVSPropertyOp57
 70
     1
102
RTVSPropertyOp58
 70
     1
102
RTVSPropertyOp59
 70
     1
102
RTVSPropertyOp60
 70
     1
102
RTVSPropertyOp61
 70
     1
102
RTVSPropertyOp62
 70
     1
  0
XRECORD
  5
2757
102
{ACAD_REACTORS
330
2756
102
}
330
2756
100
AcDbXrecord
280
     1
102
RTVSPost2010Prop28
280
     0
102
RTVSPost2010PropOp28
 70
     1
102
RTVSPost2010Prop29
280
     1
102
RTVSPost2010PropOp29
 70
     1
102
RTVSPost2010Prop30
280
     1
102
RTVSPost2010PropOp30
 70
     1
102
RTVSPost2010Prop31
280
     0
102
RTVSPost2010PropOp31
 70
     1
102
RTVSPost2010Prop32
280
     0
102
RTVSPost2010PropOp32
 70
     1
102
RTVSPost2010Prop33
280
     0
102
RTVSPost2010PropOp33
 70
     1
102
RTVSPost2010Prop34
280
     0
102
RTVSPost2010PropOp34
 70
     1
102
RTVSPost2010Prop35
280
     0
102
RTVSPost2010PropOp35
 70
     1
102
RTVSPost2010Prop36
280
     0
102
RTVSPost2010PropOp36
 70
     1
102
RTVSPost2010Prop37
 90
       50
102
RTVSPost2010PropOp37
 70
     0
102
RTVSPost2010Prop38
140
0.0
102
RTVSPost2010PropOp38
 70
     0
102
RTVSPost2010Prop39
140
1.0
102
RTVSPost2010PropOp39
 70
     0
102
RTVSPost2010Prop40
 90
        0
102
RTVSPost2010PropOp40
 70
     0
102
RTVSPost2010Prop41ColorIndex
 90
       18
102
RTVSPost2010Prop41ColorRGB
 90
        0
102
RTVSPost2010PropOp41
 70
     0
102
RTVSPost2010Prop42
 90
       50
102
RTVSPost2010PropOp42
 70
     0
102
RTVSPost2010Prop43
 90
        3
102
RTVSPost2010PropOp43
 70
     0
102
RTVSPost2010Prop44ColorIndex
 90
        5
102
RTVSPost2010Prop44ColorRGB
 90
      255
102
RTVSPost2010PropOp44
 70
     0
102
RTVSPost2010Prop45
280
     0
102
RTVSPost2010PropOp45
 70
     1
102
RTVSPost2010Prop46
 90
       50
102
RTVSPost2010PropOp46
 70
     0
102
RTVSPost2010Prop47
 90
       50
102
RTVSPost2010PropOp47
 70
     0
102
RTVSPost2010Prop48
 90
       50
102
RTVSPost2010PropOp48
 70
     0
102
RTVSPost2010Prop49
280
     0
102
RTVSPost2010PropOp49
 70
     1
102
RTVSPost2010Prop50
 90
       50
102
RTVSPost2010PropOp50
 70
     0
102
RTVSPost2010Prop51ColorIndex
 90
      256
102
RTVSPost2010Prop51ColorRGB
 90
-16777216
102
RTVSPost2010PropOp51
 70
     0
102
RTVSPost2010Prop52
140
1.0
102
RTVSPost2010PropOp52
 70
     0
102
RTVSPost2010Prop53
 90
        2
102
RTVSPost2010PropOp53
 70
     0
102
RTVSPost2010Prop54
  1
strokes_ogs.tif
102
RTVSPost2010PropOp54
 70
     0
102
RTVSPost2010Prop55
280
     0
102
RTVSPost2010PropOp55
 70
     1
102
RTVSPost2010Prop56
140
1.0
102
RTVSPost2010PropOp56
 70
     0
102
RTVSPost2010Prop57
140
1.0
102
RTVSPost2010PropOp57
 70
     0
102
RTVSPropertyOp0
 70
     0
102
RTVSPropertyOp1
 70
     0
102
RTVSPropertyOp2
 70
     0
102
RTVSPropertyOp3
 70
     0
102
RTVSPropertyOp4
 70
     0
102
RTVSPropertyOp5
 70
     0
102
RTVSPropertyOp6
 70
     0
102
RTVSPropertyOp7
 70
     0
102
RTVSPropertyOp8
 70
     0
102
RTVSPropertyOp9
 70
     0
102
RTVSPropertyOp10
 70
     0
102
RTVSPropertyOp11
 70
     0
102
RTVSPropertyOp12
 70
     0
102
RTVSPropertyOp13
 70
     0
102
RTVSPropertyOp14
 70
     2
102
RTVSPropertyOp15
 70
     0
102
RTVSPropertyOp16
 70
     0
102
RTVSPropertyOp17
 70
     0
102
RTVSPropertyOp18
 70
     0
102
RTVSPropertyOp19
 70
     0
102
RTVSPropertyOp20
 70
     0
102
RTVSPropertyOp21
 70
     0
102
RTVSPropertyOp22
 70
     0
102
RTVSPropertyOp23
 70
     0
102
RTVSPropertyOp24
 70
     0
102
RTVSPropertyOp25
 70
     0
102
RTVSPropertyOp26
 70
     0
102
RTVSPropertyOp27
 70
     0
102
RTVSPropertyOp28
 70
     1
102
RTVSPropertyOp29
 70
     1
102
RTVSPropertyOp30
 70
     1
102
RTVSPropertyOp31
 70
     1
102
RTVSPropertyOp32
 70
     1
102
RTVSPropertyOp33
 70
     1
102
RTVSPropertyOp34
 70
     1
102
RTVSPropertyOp35
 70
     1
102
RTVSPropertyOp36
 70
     1
102
RTVSPropertyOp37
 70
     0
102
RTVSPropertyOp38
 70
     0
102
RTVSPropertyOp39
 70
     0
102
RTVSPropertyOp40
 70
     0
102
RTVSPropertyOp41
 70
     0
102
RTVSPropertyOp42
 70
     0
102
RTVSPropertyOp43
 70
     0
102
RTVSPropertyOp44
 70
     0
102
RTVSPropertyOp45
 70
     1
102
RTVSPropertyOp46
 70
     0
102
RTVSPropertyOp47
 70
     0
102
RTVSPropertyOp48
 70
     0
102
RTVSPropertyOp49
 70
     1
102
RTVSPropertyOp50
 70
     0
102
RTVSPropertyOp51
 70
     0
102
RTVSPropertyOp52
 70
     0
102
RTVSPropertyOp53
 70
     0
102
RTVSPropertyOp54
 70
     0
102
RTVSPropertyOp55
 70
     1
102
RTVSPropertyOp56
 70
     0
102
RTVSPropertyOp57
 70
     0
102
RTVSPropertyOp58
 70
     0
102
RTVSPropertyOp59
 70
     0
102
RTVSPropertyOp60
 70
     0
102
RTVSPropertyOp61
 70
     0
102
RTVSPropertyOp62
 70
     0
  0
XRECORD
  5
273D
102
{ACAD_REACTORS
330
273C
102
}
330
273C
100
AcDbXrecord
280
     1
102
RTVSPost2010Prop28
280
     0
102
RTVSPost2010PropOp28
 70
     1
102
RTVSPost2010Prop29
280
     1
102
RTVSPost2010PropOp29
 70
     1
102
RTVSPost2010Prop30
280
     1
102
RTVSPost2010PropOp30
 70
     1
102
RTVSPost2010Prop31
280
     0
102
RTVSPost2010PropOp31
 70
     1
102
RTVSPost2010Prop32
280
     0
102
RTVSPost2010PropOp32
 70
     1
102
RTVSPost2010Prop33
280
     0
102
RTVSPost2010PropOp33
 70
     1
102
RTVSPost2010Prop34
280
     0
102
RTVSPost2010PropOp34
 70
     1
102
RTVSPost2010Prop35
280
     0
102
RTVSPost2010PropOp35
 70
     1
102
RTVSPost2010Prop36
280
     0
102
RTVSPost2010PropOp36
 70
     1
102
RTVSPost2010Prop37
 90
       50
102
RTVSPost2010PropOp37
 70
     1
102
RTVSPost2010Prop38
140
0.0
102
RTVSPost2010PropOp38
 70
     1
102
RTVSPost2010Prop39
140
1.0
102
RTVSPost2010PropOp39
 70
     1
102
RTVSPost2010Prop40
 90
        0
102
RTVSPost2010PropOp40
 70
     1
102
RTVSPost2010Prop41ColorIndex
 90
       18
102
RTVSPost2010Prop41ColorRGB
 90
        0
102
RTVSPost2010PropOp41
 70
     1
102
RTVSPost2010Prop42
 90
       50
102
RTVSPost2010PropOp42
 70
     1
102
RTVSPost2010Prop43
 90
        3
102
RTVSPost2010PropOp43
 70
     1
102
RTVSPost2010Prop44ColorIndex
 90
        5
102
RTVSPost2010Prop44ColorRGB
 90
      255
102
RTVSPost2010PropOp44
 70
     1
102
RTVSPost2010Prop45
280
     0
102
RTVSPost2010PropOp45
 70
     1
102
RTVSPost2010Prop46
 90
       50
102
RTVSPost2010PropOp46
 70
     1
102
RTVSPost2010Prop47
 90
       50
102
RTVSPost2010PropOp47
 70
     1
102
RTVSPost2010Prop48
 90
       50
102
RTVSPost2010PropOp48
 70
     1
102
RTVSPost2010Prop49
280
     0
102
RTVSPost2010PropOp49
 70
     1
102
RTVSPost2010Prop50
 90
       50
102
RTVSPost2010PropOp50
 70
     1
102
RTVSPost2010Prop51ColorIndex
 90
      256
102
RTVSPost2010Prop51ColorRGB
 90
-16777216
102
RTVSPost2010PropOp51
 70
     0
102
RTVSPost2010Prop52
140
1.0
102
RTVSPost2010PropOp52
 70
     0
102
RTVSPost2010Prop53
 90
        2
102
RTVSPost2010PropOp53
 70
     1
102
RTVSPost2010Prop54
  1
strokes_ogs.tif
102
RTVSPost2010PropOp54
 70
     1
102
RTVSPost2010Prop55
280
     0
102
RTVSPost2010PropOp55
 70
     1
102
RTVSPost2010Prop56
140
1.0
102
RTVSPost2010PropOp56
 70
     1
102
RTVSPost2010Prop57
140
1.0
102
RTVSPost2010PropOp57
 70
     1
102
RTVSPropertyOp0
 70
     1
102
RTVSPropertyOp1
 70
     1
102
RTVSPropertyOp2
 70
     1
102
RTVSPropertyOp3
 70
     1
102
RTVSPropertyOp4
 70
     1
102
RTVSPropertyOp5
 70
     1
102
RTVSPropertyOp6
 70
     1
102
RTVSPropertyOp7
 70
     1
102
RTVSPropertyOp8
 70
     1
102
RTVSPropertyOp9
 70
     1
102
RTVSPropertyOp10
 70
     1
102
RTVSPropertyOp11
 70
     1
102
RTVSPropertyOp12
 70
     1
102
RTVSPropertyOp13
 70
     1
102
RTVSPropertyOp14
 70
     1
102
RTVSPropertyOp15
 70
     1
102
RTVSPropertyOp16
 70
     1
102
RTVSPropertyOp17
 70
     1
102
RTVSPropertyOp18
 70
     1
102
RTVSPropertyOp19
 70
     1
102
RTVSPropertyOp20
 70
     1
102
RTVSPropertyOp21
 70
     1
102
RTVSPropertyOp22
 70
     1
102
RTVSPropertyOp23
 70
     1
102
RTVSPropertyOp24
 70
     1
102
RTVSPropertyOp25
 70
     1
102
RTVSPropertyOp26
 70
     1
102
RTVSPropertyOp27
 70
     1
102
RTVSPropertyOp28
 70
     1
102
RTVSPropertyOp29
 70
     1
102
RTVSPropertyOp30
 70
     1
102
RTVSPropertyOp31
 70
     1
102
RTVSPropertyOp32
 70
     1
102
RTVSPropertyOp33
 70
     1
102
RTVSPropertyOp34
 70
     1
102
RTVSPropertyOp35
 70
     1
102
RTVSPropertyOp36
 70
     1
102
RTVSPropertyOp37
 70
     1
102
RTVSPropertyOp38
 70
     1
102
RTVSPropertyOp39
 70
     1
102
RTVSPropertyOp40
 70
     1
102
RTVSPropertyOp41
 70
     1
102
RTVSPropertyOp42
 70
     1
102
RTVSPropertyOp43
 70
     1
102
RTVSPropertyOp44
 70
     1
102
RTVSPropertyOp45
 70
     1
102
RTVSPropertyOp46
 70
     1
102
RTVSPropertyOp47
 70
     1
102
RTVSPropertyOp48
 70
     1
102
RTVSPropertyOp49
 70
     1
102
RTVSPropertyOp50
 70
     1
102
RTVSPropertyOp51
 70
     0
102
RTVSPropertyOp52
 70
     0
102
RTVSPropertyOp53
 70
     1
102
RTVSPropertyOp54
 70
     1
102
RTVSPropertyOp55
 70
     1
102
RTVSPropertyOp56
 70
     1
102
RTVSPropertyOp57
 70
     1
102
RTVSPropertyOp58
 70
     1
102
RTVSPropertyOp59
 70
     1
102
RTVSPropertyOp60
 70
     1
102
RTVSPropertyOp61
 70
     1
102
RTVSPropertyOp62
 70
     1
  0
XRECORD
  5
2753
102
{ACAD_REACTORS
330
2752
102
}
330
2752
100
AcDbXrecord
280
     1
102
RTVSPost2010Prop28
280
     0
102
RTVSPost2010PropOp28
 70
     1
102
RTVSPost2010Prop29
280
     1
102
RTVSPost2010PropOp29
 70
     1
102
RTVSPost2010Prop30
280
     1
102
RTVSPost2010PropOp30
 70
     1
102
RTVSPost2010Prop31
280
     0
102
RTVSPost2010PropOp31
 70
     1
102
RTVSPost2010Prop32
280
     0
102
RTVSPost2010PropOp32
 70
     1
102
RTVSPost2010Prop33
280
     0
102
RTVSPost2010PropOp33
 70
     1
102
RTVSPost2010Prop34
280
     0
102
RTVSPost2010PropOp34
 70
     1
102
RTVSPost2010Prop35
280
     0
102
RTVSPost2010PropOp35
 70
     1
102
RTVSPost2010Prop36
280
     0
102
RTVSPost2010PropOp36
 70
     1
102
RTVSPost2010Prop37
 90
       50
102
RTVSPost2010PropOp37
 70
     1
102
RTVSPost2010Prop38
140
0.0
102
RTVSPost2010PropOp38
 70
     1
102
RTVSPost2010Prop39
140
1.0
102
RTVSPost2010PropOp39
 70
     1
102
RTVSPost2010Prop40
 90
        0
102
RTVSPost2010PropOp40
 70
     1
102
RTVSPost2010Prop41ColorIndex
 90
       18
102
RTVSPost2010Prop41ColorRGB
 90
        0
102
RTVSPost2010PropOp41
 70
     1
102
RTVSPost2010Prop42
 90
       50
102
RTVSPost2010PropOp42
 70
     1
102
RTVSPost2010Prop43
 90
        3
102
RTVSPost2010PropOp43
 70
     1
102
RTVSPost2010Prop44ColorIndex
 90
        5
102
RTVSPost2010Prop44ColorRGB
 90
      255
102
RTVSPost2010PropOp44
 70
     1
102
RTVSPost2010Prop45
280
     0
102
RTVSPost2010PropOp45
 70
     1
102
RTVSPost2010Prop46
 90
       50
102
RTVSPost2010PropOp46
 70
     1
102
RTVSPost2010Prop47
 90
       50
102
RTVSPost2010PropOp47
 70
     1
102
RTVSPost2010Prop48
 90
       50
102
RTVSPost2010PropOp48
 70
     1
102
RTVSPost2010Prop49
280
     0
102
RTVSPost2010PropOp49
 70
     1
102
RTVSPost2010Prop50
 90
       50
102
RTVSPost2010PropOp50
 70
     1
102
RTVSPost2010Prop51ColorIndex
 90
      256
102
RTVSPost2010Prop51ColorRGB
 90
-16777216
102
RTVSPost2010PropOp51
 70
     0
102
RTVSPost2010Prop52
140
1.0
102
RTVSPost2010PropOp52
 70
     0
102
RTVSPost2010Prop53
 90
        2
102
RTVSPost2010PropOp53
 70
     1
102
RTVSPost2010Prop54
  1
strokes_ogs.tif
102
RTVSPost2010PropOp54
 70
     1
102
RTVSPost2010Prop55
280
     0
102
RTVSPost2010PropOp55
 70
     1
102
RTVSPost2010Prop56
140
1.0
102
RTVSPost2010PropOp56
 70
     1
102
RTVSPost2010Prop57
140
1.0
102
RTVSPost2010PropOp57
 70
     1
102
RTVSPropertyOp0
 70
     1
102
RTVSPropertyOp1
 70
     1
102
RTVSPropertyOp2
 70
     1
102
RTVSPropertyOp3
 70
     1
102
RTVSPropertyOp4
 70
     1
102
RTVSPropertyOp5
 70
     1
102
RTVSPropertyOp6
 70
     1
102
RTVSPropertyOp7
 70
     1
102
RTVSPropertyOp8
 70
     1
102
RTVSPropertyOp9
 70
     1
102
RTVSPropertyOp10
 70
     1
102
RTVSPropertyOp11
 70
     1
102
RTVSPropertyOp12
 70
     1
102
RTVSPropertyOp13
 70
     1
102
RTVSPropertyOp14
 70
     1
102
RTVSPropertyOp15
 70
     1
102
RTVSPropertyOp16
 70
     1
102
RTVSPropertyOp17
 70
     1
102
RTVSPropertyOp18
 70
     1
102
RTVSPropertyOp19
 70
     1
102
RTVSPropertyOp20
 70
     1
102
RTVSPropertyOp21
 70
     1
102
RTVSPropertyOp22
 70
     1
102
RTVSPropertyOp23
 70
     1
102
RTVSPropertyOp24
 70
     1
102
RTVSPropertyOp25
 70
     1
102
RTVSPropertyOp26
 70
     1
102
RTVSPropertyOp27
 70
     1
102
RTVSPropertyOp28
 70
     1
102
RTVSPropertyOp29
 70
     1
102
RTVSPropertyOp30
 70
     1
102
RTVSPropertyOp31
 70
     1
102
RTVSPropertyOp32
 70
     1
102
RTVSPropertyOp33
 70
     1
102
RTVSPropertyOp34
 70
     1
102
RTVSPropertyOp35
 70
     1
102
RTVSPropertyOp36
 70
     1
102
RTVSPropertyOp37
 70
     1
102
RTVSPropertyOp38
 70
     1
102
RTVSPropertyOp39
 70
     1
102
RTVSPropertyOp40
 70
     1
102
RTVSPropertyOp41
 70
     1
102
RTVSPropertyOp42
 70
     1
102
RTVSPropertyOp43
 70
     1
102
RTVSPropertyOp44
 70
     1
102
RTVSPropertyOp45
 70
     1
102
RTVSPropertyOp46
 70
     1
102
RTVSPropertyOp47
 70
     1
102
RTVSPropertyOp48
 70
     1
102
RTVSPropertyOp49
 70
     1
102
RTVSPropertyOp50
 70
     1
102
RTVSPropertyOp51
 70
     0
102
RTVSPropertyOp52
 70
     0
102
RTVSPropertyOp53
 70
     1
102
RTVSPropertyOp54
 70
     1
102
RTVSPropertyOp55
 70
     1
102
RTVSPropertyOp56
 70
     1
102
RTVSPropertyOp57
 70
     1
102
RTVSPropertyOp58
 70
     1
102
RTVSPropertyOp59
 70
     1
102
RTVSPropertyOp60
 70
     1
102
RTVSPropertyOp61
 70
     1
102
RTVSPropertyOp62
 70
     1
  0
XRECORD
  5
2751
102
{ACAD_REACTORS
330
2750
102
}
330
2750
100
AcDbXrecord
280
     1
102
RTVSPost2010Prop28
280
     0
102
RTVSPost2010PropOp28
 70
     1
102
RTVSPost2010Prop29
280
     1
102
RTVSPost2010PropOp29
 70
     1
102
RTVSPost2010Prop30
280
     1
102
RTVSPost2010PropOp30
 70
     1
102
RTVSPost2010Prop31
280
     0
102
RTVSPost2010PropOp31
 70
     1
102
RTVSPost2010Prop32
280
     0
102
RTVSPost2010PropOp32
 70
     1
102
RTVSPost2010Prop33
280
     0
102
RTVSPost2010PropOp33
 70
     1
102
RTVSPost2010Prop34
280
     0
102
RTVSPost2010PropOp34
 70
     1
102
RTVSPost2010Prop35
280
     0
102
RTVSPost2010PropOp35
 70
     1
102
RTVSPost2010Prop36
280
     0
102
RTVSPost2010PropOp36
 70
     1
102
RTVSPost2010Prop37
 90
       50
102
RTVSPost2010PropOp37
 70
     1
102
RTVSPost2010Prop38
140
0.0
102
RTVSPost2010PropOp38
 70
     1
102
RTVSPost2010Prop39
140
1.0
102
RTVSPost2010PropOp39
 70
     1
102
RTVSPost2010Prop40
 90
        0
102
RTVSPost2010PropOp40
 70
     1
102
RTVSPost2010Prop41ColorIndex
 90
       18
102
RTVSPost2010Prop41ColorRGB
 90
        0
102
RTVSPost2010PropOp41
 70
     1
102
RTVSPost2010Prop42
 90
       50
102
RTVSPost2010PropOp42
 70
     1
102
RTVSPost2010Prop43
 90
        3
102
RTVSPost2010PropOp43
 70
     1
102
RTVSPost2010Prop44ColorIndex
 90
        5
102
RTVSPost2010Prop44ColorRGB
 90
      255
102
RTVSPost2010PropOp44
 70
     1
102
RTVSPost2010Prop45
280
     0
102
RTVSPost2010PropOp45
 70
     1
102
RTVSPost2010Prop46
 90
       50
102
RTVSPost2010PropOp46
 70
     1
102
RTVSPost2010Prop47
 90
       50
102
RTVSPost2010PropOp47
 70
     1
102
RTVSPost2010Prop48
 90
       50
102
RTVSPost2010PropOp48
 70
     1
102
RTVSPost2010Prop49
280
     0
102
RTVSPost2010PropOp49
 70
     1
102
RTVSPost2010Prop50
 90
       50
102
RTVSPost2010PropOp50
 70
     1
102
RTVSPost2010Prop51ColorIndex
 90
      256
102
RTVSPost2010Prop51ColorRGB
 90
-16777216
102
RTVSPost2010PropOp51
 70
     0
102
RTVSPost2010Prop52
140
1.0
102
RTVSPost2010PropOp52
 70
     0
102
RTVSPost2010Prop53
 90
        2
102
RTVSPost2010PropOp53
 70
     1
102
RTVSPost2010Prop54
  1
strokes_ogs.tif
102
RTVSPost2010PropOp54
 70
     1
102
RTVSPost2010Prop55
280
     0
102
RTVSPost2010PropOp55
 70
     1
102
RTVSPost2010Prop56
140
1.0
102
RTVSPost2010PropOp56
 70
     1
102
RTVSPost2010Prop57
140
1.0
102
RTVSPost2010PropOp57
 70
     1
102
RTVSPropertyOp0
 70
     1
102
RTVSPropertyOp1
 70
     1
102
RTVSPropertyOp2
 70
     1
102
RTVSPropertyOp3
 70
     1
102
RTVSPropertyOp4
 70
     1
102
RTVSPropertyOp5
 70
     1
102
RTVSPropertyOp6
 70
     1
102
RTVSPropertyOp7
 70
     1
102
RTVSPropertyOp8
 70
     1
102
RTVSPropertyOp9
 70
     1
102
RTVSPropertyOp10
 70
     1
102
RTVSPropertyOp11
 70
     1
102
RTVSPropertyOp12
 70
     1
102
RTVSPropertyOp13
 70
     1
102
RTVSPropertyOp14
 70
     1
102
RTVSPropertyOp15
 70
     1
102
RTVSPropertyOp16
 70
     1
102
RTVSPropertyOp17
 70
     1
102
RTVSPropertyOp18
 70
     1
102
RTVSPropertyOp19
 70
     1
102
RTVSPropertyOp20
 70
     1
102
RTVSPropertyOp21
 70
     1
102
RTVSPropertyOp22
 70
     1
102
RTVSPropertyOp23
 70
     1
102
RTVSPropertyOp24
 70
     1
102
RTVSPropertyOp25
 70
     1
102
RTVSPropertyOp26
 70
     1
102
RTVSPropertyOp27
 70
     1
102
RTVSPropertyOp28
 70
     1
102
RTVSPropertyOp29
 70
     1
102
RTVSPropertyOp30
 70
     1
102
RTVSPropertyOp31
 70
     1
102
RTVSPropertyOp32
 70
     1
102
RTVSPropertyOp33
 70
     1
102
RTVSPropertyOp34
 70
     1
102
RTVSPropertyOp35
 70
     1
102
RTVSPropertyOp36
 70
     1
102
RTVSPropertyOp37
 70
     1
102
RTVSPropertyOp38
 70
     1
102
RTVSPropertyOp39
 70
     1
102
RTVSPropertyOp40
 70
     1
102
RTVSPropertyOp41
 70
     1
102
RTVSPropertyOp42
 70
     1
102
RTVSPropertyOp43
 70
     1
102
RTVSPropertyOp44
 70
     1
102
RTVSPropertyOp45
 70
     1
102
RTVSPropertyOp46
 70
     1
102
RTVSPropertyOp47
 70
     1
102
RTVSPropertyOp48
 70
     1
102
RTVSPropertyOp49
 70
     1
102
RTVSPropertyOp50
 70
     1
102
RTVSPropertyOp51
 70
     0
102
RTVSPropertyOp52
 70
     0
102
RTVSPropertyOp53
 70
     1
102
RTVSPropertyOp54
 70
     1
102
RTVSPropertyOp55
 70
     1
102
RTVSPropertyOp56
 70
     1
102
RTVSPropertyOp57
 70
     1
102
RTVSPropertyOp58
 70
     1
102
RTVSPropertyOp59
 70
     1
102
RTVSPropertyOp60
 70
     1
102
RTVSPropertyOp61
 70
     1
102
RTVSPropertyOp62
 70
     1
  0
XRECORD
  5
274B
102
{ACAD_REACTORS
330
274A
102
}
330
274A
100
AcDbXrecord
280
     1
102
RTVSPost2010Prop28
280
     0
102
RTVSPost2010PropOp28
 70
     1
102
RTVSPost2010Prop29
280
     1
102
RTVSPost2010PropOp29
 70
     1
102
RTVSPost2010Prop30
280
     1
102
RTVSPost2010PropOp30
 70
     1
102
RTVSPost2010Prop31
280
     0
102
RTVSPost2010PropOp31
 70
     1
102
RTVSPost2010Prop32
280
     0
102
RTVSPost2010PropOp32
 70
     1
102
RTVSPost2010Prop33
280
     0
102
RTVSPost2010PropOp33
 70
     1
102
RTVSPost2010Prop34
280
     0
102
RTVSPost2010PropOp34
 70
     1
102
RTVSPost2010Prop35
280
     0
102
RTVSPost2010PropOp35
 70
     1
102
RTVSPost2010Prop36
280
     0
102
RTVSPost2010PropOp36
 70
     1
102
RTVSPost2010Prop37
 90
       50
102
RTVSPost2010PropOp37
 70
     1
102
RTVSPost2010Prop38
140
0.0
102
RTVSPost2010PropOp38
 70
     1
102
RTVSPost2010Prop39
140
1.0
102
RTVSPost2010PropOp39
 70
     1
102
RTVSPost2010Prop40
 90
        0
102
RTVSPost2010PropOp40
 70
     1
102
RTVSPost2010Prop41ColorIndex
 90
       18
102
RTVSPost2010Prop41ColorRGB
 90
        0
102
RTVSPost2010PropOp41
 70
     1
102
RTVSPost2010Prop42
 90
       50
102
RTVSPost2010PropOp42
 70
     1
102
RTVSPost2010Prop43
 90
        3
102
RTVSPost2010PropOp43
 70
     1
102
RTVSPost2010Prop44ColorIndex
 90
        5
102
RTVSPost2010Prop44ColorRGB
 90
      255
102
RTVSPost2010PropOp44
 70
     1
102
RTVSPost2010Prop45
280
     0
102
RTVSPost2010PropOp45
 70
     1
102
RTVSPost2010Prop46
 90
       50
102
RTVSPost2010PropOp46
 70
     1
102
RTVSPost2010Prop47
 90
       50
102
RTVSPost2010PropOp47
 70
     1
102
RTVSPost2010Prop48
 90
       50
102
RTVSPost2010PropOp48
 70
     1
102
RTVSPost2010Prop49
280
     0
102
RTVSPost2010PropOp49
 70
     1
102
RTVSPost2010Prop50
 90
       50
102
RTVSPost2010PropOp50
 70
     1
102
RTVSPost2010Prop51ColorIndex
 90
      256
102
RTVSPost2010Prop51ColorRGB
 90
-16777216
102
RTVSPost2010PropOp51
 70
     0
102
RTVSPost2010Prop52
140
1.0
102
RTVSPost2010PropOp52
 70
     0
102
RTVSPost2010Prop53
 90
        2
102
RTVSPost2010PropOp53
 70
     1
102
RTVSPost2010Prop54
  1
strokes_ogs.tif
102
RTVSPost2010PropOp54
 70
     1
102
RTVSPost2010Prop55
280
     0
102
RTVSPost2010PropOp55
 70
     1
102
RTVSPost2010Prop56
140
1.0
102
RTVSPost2010PropOp56
 70
     1
102
RTVSPost2010Prop57
140
1.0
102
RTVSPost2010PropOp57
 70
     1
102
RTVSPropertyOp0
 70
     1
102
RTVSPropertyOp1
 70
     1
102
RTVSPropertyOp2
 70
     1
102
RTVSPropertyOp3
 70
     1
102
RTVSPropertyOp4
 70
     1
102
RTVSPropertyOp5
 70
     1
102
RTVSPropertyOp6
 70
     1
102
RTVSPropertyOp7
 70
     1
102
RTVSPropertyOp8
 70
     1
102
RTVSPropertyOp9
 70
     1
102
RTVSPropertyOp10
 70
     1
102
RTVSPropertyOp11
 70
     1
102
RTVSPropertyOp12
 70
     1
102
RTVSPropertyOp13
 70
     1
102
RTVSPropertyOp14
 70
     1
102
RTVSPropertyOp15
 70
     1
102
RTVSPropertyOp16
 70
     1
102
RTVSPropertyOp17
 70
     1
102
RTVSPropertyOp18
 70
     1
102
RTVSPropertyOp19
 70
     1
102
RTVSPropertyOp20
 70
     1
102
RTVSPropertyOp21
 70
     1
102
RTVSPropertyOp22
 70
     1
102
RTVSPropertyOp23
 70
     1
102
RTVSPropertyOp24
 70
     1
102
RTVSPropertyOp25
 70
     1
102
RTVSPropertyOp26
 70
     1
102
RTVSPropertyOp27
 70
     1
102
RTVSPropertyOp28
 70
     1
102
RTVSPropertyOp29
 70
     1
102
RTVSPropertyOp30
 70
     1
102
RTVSPropertyOp31
 70
     1
102
RTVSPropertyOp32
 70
     1
102
RTVSPropertyOp33
 70
     1
102
RTVSPropertyOp34
 70
     1
102
RTVSPropertyOp35
 70
     1
102
RTVSPropertyOp36
 70
     1
102
RTVSPropertyOp37
 70
     1
102
RTVSPropertyOp38
 70
     1
102
RTVSPropertyOp39
 70
     1
102
RTVSPropertyOp40
 70
     1
102
RTVSPropertyOp41
 70
     1
102
RTVSPropertyOp42
 70
     1
102
RTVSPropertyOp43
 70
     1
102
RTVSPropertyOp44
 70
     1
102
RTVSPropertyOp45
 70
     1
102
RTVSPropertyOp46
 70
     1
102
RTVSPropertyOp47
 70
     1
102
RTVSPropertyOp48
 70
     1
102
RTVSPropertyOp49
 70
     1
102
RTVSPropertyOp50
 70
     1
102
RTVSPropertyOp51
 70
     0
102
RTVSPropertyOp52
 70
     0
102
RTVSPropertyOp53
 70
     1
102
RTVSPropertyOp54
 70
     1
102
RTVSPropertyOp55
 70
     1
102
RTVSPropertyOp56
 70
     1
102
RTVSPropertyOp57
 70
     1
102
RTVSPropertyOp58
 70
     1
102
RTVSPropertyOp59
 70
     1
102
RTVSPropertyOp60
 70
     1
102
RTVSPropertyOp61
 70
     1
102
RTVSPropertyOp62
 70
     1
  0
XRECORD
  5
274D
102
{ACAD_REACTORS
330
274C
102
}
330
274C
100
AcDbXrecord
280
     1
102
RTVSPost2010Prop28
280
     0
102
RTVSPost2010PropOp28
 70
     1
102
RTVSPost2010Prop29
280
     1
102
RTVSPost2010PropOp29
 70
     1
102
RTVSPost2010Prop30
280
     1
102
RTVSPost2010PropOp30
 70
     1
102
RTVSPost2010Prop31
280
     0
102
RTVSPost2010PropOp31
 70
     1
102
RTVSPost2010Prop32
280
     0
102
RTVSPost2010PropOp32
 70
     1
102
RTVSPost2010Prop33
280
     0
102
RTVSPost2010PropOp33
 70
     1
102
RTVSPost2010Prop34
280
     0
102
RTVSPost2010PropOp34
 70
     1
102
RTVSPost2010Prop35
280
     0
102
RTVSPost2010PropOp35
 70
     1
102
RTVSPost2010Prop36
280
     0
102
RTVSPost2010PropOp36
 70
     1
102
RTVSPost2010Prop37
 90
       50
102
RTVSPost2010PropOp37
 70
     1
102
RTVSPost2010Prop38
140
0.0
102
RTVSPost2010PropOp38
 70
     1
102
RTVSPost2010Prop39
140
1.0
102
RTVSPost2010PropOp39
 70
     1
102
RTVSPost2010Prop40
 90
        0
102
RTVSPost2010PropOp40
 70
     1
102
RTVSPost2010Prop41ColorIndex
 90
       18
102
RTVSPost2010Prop41ColorRGB
 90
        0
102
RTVSPost2010PropOp41
 70
     1
102
RTVSPost2010Prop42
 90
       50
102
RTVSPost2010PropOp42
 70
     1
102
RTVSPost2010Prop43
 90
        3
102
RTVSPost2010PropOp43
 70
     1
102
RTVSPost2010Prop44ColorIndex
 90
        5
102
RTVSPost2010Prop44ColorRGB
 90
      255
102
RTVSPost2010PropOp44
 70
     1
102
RTVSPost2010Prop45
280
     0
102
RTVSPost2010PropOp45
 70
     1
102
RTVSPost2010Prop46
 90
       50
102
RTVSPost2010PropOp46
 70
     1
102
RTVSPost2010Prop47
 90
       50
102
RTVSPost2010PropOp47
 70
     1
102
RTVSPost2010Prop48
 90
       50
102
RTVSPost2010PropOp48
 70
     1
102
RTVSPost2010Prop49
280
     0
102
RTVSPost2010PropOp49
 70
     1
102
RTVSPost2010Prop50
 90
       50
102
RTVSPost2010PropOp50
 70
     1
102
RTVSPost2010Prop51ColorIndex
 90
      256
102
RTVSPost2010Prop51ColorRGB
 90
-16777216
102
RTVSPost2010PropOp51
 70
     0
102
RTVSPost2010Prop52
140
1.0
102
RTVSPost2010PropOp52
 70
     0
102
RTVSPost2010Prop53
 90
        2
102
RTVSPost2010PropOp53
 70
     1
102
RTVSPost2010Prop54
  1
strokes_ogs.tif
102
RTVSPost2010PropOp54
 70
     1
102
RTVSPost2010Prop55
280
     0
102
RTVSPost2010PropOp55
 70
     1
102
RTVSPost2010Prop56
140
1.0
102
RTVSPost2010PropOp56
 70
     1
102
RTVSPost2010Prop57
140
1.0
102
RTVSPost2010PropOp57
 70
     1
102
RTVSPropertyOp0
 70
     1
102
RTVSPropertyOp1
 70
     1
102
RTVSPropertyOp2
 70
     1
102
RTVSPropertyOp3
 70
     1
102
RTVSPropertyOp4
 70
     1
102
RTVSPropertyOp5
 70
     1
102
RTVSPropertyOp6
 70
     1
102
RTVSPropertyOp7
 70
     1
102
RTVSPropertyOp8
 70
     1
102
RTVSPropertyOp9
 70
     1
102
RTVSPropertyOp10
 70
     1
102
RTVSPropertyOp11
 70
     1
102
RTVSPropertyOp12
 70
     1
102
RTVSPropertyOp13
 70
     1
102
RTVSPropertyOp14
 70
     1
102
RTVSPropertyOp15
 70
     1
102
RTVSPropertyOp16
 70
     1
102
RTVSPropertyOp17
 70
     1
102
RTVSPropertyOp18
 70
     1
102
RTVSPropertyOp19
 70
     1
102
RTVSPropertyOp20
 70
     1
102
RTVSPropertyOp21
 70
     1
102
RTVSPropertyOp22
 70
     1
102
RTVSPropertyOp23
 70
     1
102
RTVSPropertyOp24
 70
     1
102
RTVSPropertyOp25
 70
     1
102
RTVSPropertyOp26
 70
     1
102
RTVSPropertyOp27
 70
     1
102
RTVSPropertyOp28
 70
     1
102
RTVSPropertyOp29
 70
     1
102
RTVSPropertyOp30
 70
     1
102
RTVSPropertyOp31
 70
     1
102
RTVSPropertyOp32
 70
     1
102
RTVSPropertyOp33
 70
     1
102
RTVSPropertyOp34
 70
     1
102
RTVSPropertyOp35
 70
     1
102
RTVSPropertyOp36
 70
     1
102
RTVSPropertyOp37
 70
     1
102
RTVSPropertyOp38
 70
     1
102
RTVSPropertyOp39
 70
     1
102
RTVSPropertyOp40
 70
     1
102
RTVSPropertyOp41
 70
     1
102
RTVSPropertyOp42
 70
     1
102
RTVSPropertyOp43
 70
     1
102
RTVSPropertyOp44
 70
     1
102
RTVSPropertyOp45
 70
     1
102
RTVSPropertyOp46
 70
     1
102
RTVSPropertyOp47
 70
     1
102
RTVSPropertyOp48
 70
     1
102
RTVSPropertyOp49
 70
     1
102
RTVSPropertyOp50
 70
     1
102
RTVSPropertyOp51
 70
     0
102
RTVSPropertyOp52
 70
     0
102
RTVSPropertyOp53
 70
     1
102
RTVSPropertyOp54
 70
     1
102
RTVSPropertyOp55
 70
     1
102
RTVSPropertyOp56
 70
     1
102
RTVSPropertyOp57
 70
     1
102
RTVSPropertyOp58
 70
     1
102
RTVSPropertyOp59
 70
     1
102
RTVSPropertyOp60
 70
     1
102
RTVSPropertyOp61
 70
     1
102
RTVSPropertyOp62
 70
     1
  0
XRECORD
  5
2743
102
{ACAD_REACTORS
330
2742
102
}
330
2742
100
AcDbXrecord
280
     1
102
RTVSPost2010Prop28
280
     0
102
RTVSPost2010PropOp28
 70
     1
102
RTVSPost2010Prop29
280
     1
102
RTVSPost2010PropOp29
 70
     1
102
RTVSPost2010Prop30
280
     1
102
RTVSPost2010PropOp30
 70
     1
102
RTVSPost2010Prop31
280
     0
102
RTVSPost2010PropOp31
 70
     1
102
RTVSPost2010Prop32
280
     0
102
RTVSPost2010PropOp32
 70
     1
102
RTVSPost2010Prop33
280
     0
102
RTVSPost2010PropOp33
 70
     1
102
RTVSPost2010Prop34
280
     0
102
RTVSPost2010PropOp34
 70
     1
102
RTVSPost2010Prop35
280
     0
102
RTVSPost2010PropOp35
 70
     1
102
RTVSPost2010Prop36
280
     0
102
RTVSPost2010PropOp36
 70
     1
102
RTVSPost2010Prop37
 90
       50
102
RTVSPost2010PropOp37
 70
     1
102
RTVSPost2010Prop38
140
0.0
102
RTVSPost2010PropOp38
 70
     1
102
RTVSPost2010Prop39
140
1.0
102
RTVSPost2010PropOp39
 70
     1
102
RTVSPost2010Prop40
 90
        0
102
RTVSPost2010PropOp40
 70
     1
102
RTVSPost2010Prop41ColorIndex
 90
       18
102
RTVSPost2010Prop41ColorRGB
 90
        0
102
RTVSPost2010PropOp41
 70
     1
102
RTVSPost2010Prop42
 90
       50
102
RTVSPost2010PropOp42
 70
     1
102
RTVSPost2010Prop43
 90
        3
102
RTVSPost2010PropOp43
 70
     1
102
RTVSPost2010Prop44ColorIndex
 90
        5
102
RTVSPost2010Prop44ColorRGB
 90
      255
102
RTVSPost2010PropOp44
 70
     1
102
RTVSPost2010Prop45
280
     0
102
RTVSPost2010PropOp45
 70
     1
102
RTVSPost2010Prop46
 90
       50
102
RTVSPost2010PropOp46
 70
     1
102
RTVSPost2010Prop47
 90
       50
102
RTVSPost2010PropOp47
 70
     1
102
RTVSPost2010Prop48
 90
       50
102
RTVSPost2010PropOp48
 70
     1
102
RTVSPost2010Prop49
280
     0
102
RTVSPost2010PropOp49
 70
     1
102
RTVSPost2010Prop50
 90
       50
102
RTVSPost2010PropOp50
 70
     1
102
RTVSPost2010Prop51ColorIndex
 90
      256
102
RTVSPost2010Prop51ColorRGB
 90
-16777216
102
RTVSPost2010PropOp51
 70
     0
102
RTVSPost2010Prop52
140
1.0
102
RTVSPost2010PropOp52
 70
     0
102
RTVSPost2010Prop53
 90
        2
102
RTVSPost2010PropOp53
 70
     1
102
RTVSPost2010Prop54
  1
strokes_ogs.tif
102
RTVSPost2010PropOp54
 70
     1
102
RTVSPost2010Prop55
280
     0
102
RTVSPost2010PropOp55
 70
     1
102
RTVSPost2010Prop56
140
1.0
102
RTVSPost2010PropOp56
 70
     1
102
RTVSPost2010Prop57
140
1.0
102
RTVSPost2010PropOp57
 70
     1
102
RTVSPropertyOp0
 70
     1
102
RTVSPropertyOp1
 70
     1
102
RTVSPropertyOp2
 70
     1
102
RTVSPropertyOp3
 70
     1
102
RTVSPropertyOp4
 70
     1
102
RTVSPropertyOp5
 70
     1
102
RTVSPropertyOp6
 70
     1
102
RTVSPropertyOp7
 70
     1
102
RTVSPropertyOp8
 70
     1
102
RTVSPropertyOp9
 70
     1
102
RTVSPropertyOp10
 70
     1
102
RTVSPropertyOp11
 70
     1
102
RTVSPropertyOp12
 70
     1
102
RTVSPropertyOp13
 70
     1
102
RTVSPropertyOp14
 70
     1
102
RTVSPropertyOp15
 70
     1
102
RTVSPropertyOp16
 70
     1
102
RTVSPropertyOp17
 70
     1
102
RTVSPropertyOp18
 70
     1
102
RTVSPropertyOp19
 70
     1
102
RTVSPropertyOp20
 70
     1
102
RTVSPropertyOp21
 70
     1
102
RTVSPropertyOp22
 70
     1
102
RTVSPropertyOp23
 70
     1
102
RTVSPropertyOp24
 70
     1
102
RTVSPropertyOp25
 70
     1
102
RTVSPropertyOp26
 70
     1
102
RTVSPropertyOp27
 70
     1
102
RTVSPropertyOp28
 70
     1
102
RTVSPropertyOp29
 70
     1
102
RTVSPropertyOp30
 70
     1
102
RTVSPropertyOp31
 70
     1
102
RTVSPropertyOp32
 70
     1
102
RTVSPropertyOp33
 70
     1
102
RTVSPropertyOp34
 70
     1
102
RTVSPropertyOp35
 70
     1
102
RTVSPropertyOp36
 70
     1
102
RTVSPropertyOp37
 70
     1
102
RTVSPropertyOp38
 70
     1
102
RTVSPropertyOp39
 70
     1
102
RTVSPropertyOp40
 70
     1
102
RTVSPropertyOp41
 70
     1
102
RTVSPropertyOp42
 70
     1
102
RTVSPropertyOp43
 70
     1
102
RTVSPropertyOp44
 70
     1
102
RTVSPropertyOp45
 70
     1
102
RTVSPropertyOp46
 70
     1
102
RTVSPropertyOp47
 70
     1
102
RTVSPropertyOp48
 70
     1
102
RTVSPropertyOp49
 70
     1
102
RTVSPropertyOp50
 70
     1
102
RTVSPropertyOp51
 70
     0
102
RTVSPropertyOp52
 70
     0
102
RTVSPropertyOp53
 70
     1
102
RTVSPropertyOp54
 70
     1
102
RTVSPropertyOp55
 70
     1
102
RTVSPropertyOp56
 70
     1
102
RTVSPropertyOp57
 70
     1
102
RTVSPropertyOp58
 70
     1
102
RTVSPropertyOp59
 70
     1
102
RTVSPropertyOp60
 70
     1
102
RTVSPropertyOp61
 70
     1
102
RTVSPropertyOp62
 70
     1
  0
XRECORD
  5
2737
102
{ACAD_REACTORS
330
2736
102
}
330
2736
100
AcDbXrecord
280
     1
102
RTVSPost2010Prop28
280
     0
102
RTVSPost2010PropOp28
 70
     1
102
RTVSPost2010Prop29
280
     1
102
RTVSPost2010PropOp29
 70
     1
102
RTVSPost2010Prop30
280
     1
102
RTVSPost2010PropOp30
 70
     1
102
RTVSPost2010Prop31
280
     0
102
RTVSPost2010PropOp31
 70
     1
102
RTVSPost2010Prop32
280
     0
102
RTVSPost2010PropOp32
 70
     1
102
RTVSPost2010Prop33
280
     0
102
RTVSPost2010PropOp33
 70
     1
102
RTVSPost2010Prop34
280
     0
102
RTVSPost2010PropOp34
 70
     1
102
RTVSPost2010Prop35
280
     0
102
RTVSPost2010PropOp35
 70
     1
102
RTVSPost2010Prop36
280
     0
102
RTVSPost2010PropOp36
 70
     1
102
RTVSPost2010Prop37
 90
       50
102
RTVSPost2010PropOp37
 70
     1
102
RTVSPost2010Prop38
140
0.0
102
RTVSPost2010PropOp38
 70
     1
102
RTVSPost2010Prop39
140
1.0
102
RTVSPost2010PropOp39
 70
     1
102
RTVSPost2010Prop40
 90
        0
102
RTVSPost2010PropOp40
 70
     1
102
RTVSPost2010Prop41ColorIndex
 90
       18
102
RTVSPost2010Prop41ColorRGB
 90
        0
102
RTVSPost2010PropOp41
 70
     1
102
RTVSPost2010Prop42
 90
       50
102
RTVSPost2010PropOp42
 70
     1
102
RTVSPost2010Prop43
 90
        3
102
RTVSPost2010PropOp43
 70
     1
102
RTVSPost2010Prop44ColorIndex
 90
        5
102
RTVSPost2010Prop44ColorRGB
 90
      255
102
RTVSPost2010PropOp44
 70
     1
102
RTVSPost2010Prop45
280
     0
102
RTVSPost2010PropOp45
 70
     1
102
RTVSPost2010Prop46
 90
       50
102
RTVSPost2010PropOp46
 70
     1
102
RTVSPost2010Prop47
 90
       50
102
RTVSPost2010PropOp47
 70
     1
102
RTVSPost2010Prop48
 90
       50
102
RTVSPost2010PropOp48
 70
     1
102
RTVSPost2010Prop49
280
     0
102
RTVSPost2010PropOp49
 70
     1
102
RTVSPost2010Prop50
 90
       50
102
RTVSPost2010PropOp50
 70
     1
102
RTVSPost2010Prop51ColorIndex
 90
      256
102
RTVSPost2010Prop51ColorRGB
 90
-16777216
102
RTVSPost2010PropOp51
 70
     0
102
RTVSPost2010Prop52
140
1.0
102
RTVSPost2010PropOp52
 70
     0
102
RTVSPost2010Prop53
 90
        2
102
RTVSPost2010PropOp53
 70
     1
102
RTVSPost2010Prop54
  1
strokes_ogs.tif
102
RTVSPost2010PropOp54
 70
     1
102
RTVSPost2010Prop55
280
     0
102
RTVSPost2010PropOp55
 70
     1
102
RTVSPost2010Prop56
140
1.0
102
RTVSPost2010PropOp56
 70
     1
102
RTVSPost2010Prop57
140
1.0
102
RTVSPost2010PropOp57
 70
     1
102
RTVSPropertyOp0
 70
     1
102
RTVSPropertyOp1
 70
     1
102
RTVSPropertyOp2
 70
     1
102
RTVSPropertyOp3
 70
     1
102
RTVSPropertyOp4
 70
     1
102
RTVSPropertyOp5
 70
     1
102
RTVSPropertyOp6
 70
     1
102
RTVSPropertyOp7
 70
     1
102
RTVSPropertyOp8
 70
     1
102
RTVSPropertyOp9
 70
     1
102
RTVSPropertyOp10
 70
     1
102
RTVSPropertyOp11
 70
     1
102
RTVSPropertyOp12
 70
     1
102
RTVSPropertyOp13
 70
     1
102
RTVSPropertyOp14
 70
     1
102
RTVSPropertyOp15
 70
     1
102
RTVSPropertyOp16
 70
     1
102
RTVSPropertyOp17
 70
     1
102
RTVSPropertyOp18
 70
     1
102
RTVSPropertyOp19
 70
     1
102
RTVSPropertyOp20
 70
     1
102
RTVSPropertyOp21
 70
     1
102
RTVSPropertyOp22
 70
     1
102
RTVSPropertyOp23
 70
     1
102
RTVSPropertyOp24
 70
     1
102
RTVSPropertyOp25
 70
     1
102
RTVSPropertyOp26
 70
     1
102
RTVSPropertyOp27
 70
     1
102
RTVSPropertyOp28
 70
     1
102
RTVSPropertyOp29
 70
     1
102
RTVSPropertyOp30
 70
     1
102
RTVSPropertyOp31
 70
     1
102
RTVSPropertyOp32
 70
     1
102
RTVSPropertyOp33
 70
     1
102
RTVSPropertyOp34
 70
     1
102
RTVSPropertyOp35
 70
     1
102
RTVSPropertyOp36
 70
     1
102
RTVSPropertyOp37
 70
     1
102
RTVSPropertyOp38
 70
     1
102
RTVSPropertyOp39
 70
     1
102
RTVSPropertyOp40
 70
     1
102
RTVSPropertyOp41
 70
     1
102
RTVSPropertyOp42
 70
     1
102
RTVSPropertyOp43
 70
     1
102
RTVSPropertyOp44
 70
     1
102
RTVSPropertyOp45
 70
     1
102
RTVSPropertyOp46
 70
     1
102
RTVSPropertyOp47
 70
     1
102
RTVSPropertyOp48
 70
     1
102
RTVSPropertyOp49
 70
     1
102
RTVSPropertyOp50
 70
     1
102
RTVSPropertyOp51
 70
     0
102
RTVSPropertyOp52
 70
     0
102
RTVSPropertyOp53
 70
     1
102
RTVSPropertyOp54
 70
     1
102
RTVSPropertyOp55
 70
     1
102
RTVSPropertyOp56
 70
     1
102
RTVSPropertyOp57
 70
     1
102
RTVSPropertyOp58
 70
     1
102
RTVSPropertyOp59
 70
     1
102
RTVSPropertyOp60
 70
     1
102
RTVSPropertyOp61
 70
     1
102
RTVSPropertyOp62
 70
     1
  0
XRECORD
  5
274F
102
{ACAD_REACTORS
330
274E
102
}
330
274E
100
AcDbXrecord
280
     1
102
RTVSPost2010Prop28
280
     0
102
RTVSPost2010PropOp28
 70
     1
102
RTVSPost2010Prop29
280
     1
102
RTVSPost2010PropOp29
 70
     1
102
RTVSPost2010Prop30
280
     1
102
RTVSPost2010PropOp30
 70
     1
102
RTVSPost2010Prop31
280
     0
102
RTVSPost2010PropOp31
 70
     1
102
RTVSPost2010Prop32
280
     0
102
RTVSPost2010PropOp32
 70
     1
102
RTVSPost2010Prop33
280
     0
102
RTVSPost2010PropOp33
 70
     1
102
RTVSPost2010Prop34
280
     0
102
RTVSPost2010PropOp34
 70
     1
102
RTVSPost2010Prop35
280
     0
102
RTVSPost2010PropOp35
 70
     1
102
RTVSPost2010Prop36
280
     0
102
RTVSPost2010PropOp36
 70
     1
102
RTVSPost2010Prop37
 90
       50
102
RTVSPost2010PropOp37
 70
     1
102
RTVSPost2010Prop38
140
0.0
102
RTVSPost2010PropOp38
 70
     1
102
RTVSPost2010Prop39
140
1.0
102
RTVSPost2010PropOp39
 70
     1
102
RTVSPost2010Prop40
 90
        0
102
RTVSPost2010PropOp40
 70
     1
102
RTVSPost2010Prop41ColorIndex
 90
       18
102
RTVSPost2010Prop41ColorRGB
 90
        0
102
RTVSPost2010PropOp41
 70
     1
102
RTVSPost2010Prop42
 90
       50
102
RTVSPost2010PropOp42
 70
     1
102
RTVSPost2010Prop43
 90
        3
102
RTVSPost2010PropOp43
 70
     1
102
RTVSPost2010Prop44ColorIndex
 90
        5
102
RTVSPost2010Prop44ColorRGB
 90
      255
102
RTVSPost2010PropOp44
 70
     1
102
RTVSPost2010Prop45
280
     0
102
RTVSPost2010PropOp45
 70
     1
102
RTVSPost2010Prop46
 90
       50
102
RTVSPost2010PropOp46
 70
     1
102
RTVSPost2010Prop47
 90
       50
102
RTVSPost2010PropOp47
 70
     1
102
RTVSPost2010Prop48
 90
       50
102
RTVSPost2010PropOp48
 70
     1
102
RTVSPost2010Prop49
280
     0
102
RTVSPost2010PropOp49
 70
     1
102
RTVSPost2010Prop50
 90
       50
102
RTVSPost2010PropOp50
 70
     1
102
RTVSPost2010Prop51ColorIndex
 90
      256
102
RTVSPost2010Prop51ColorRGB
 90
-16777216
102
RTVSPost2010PropOp51
 70
     0
102
RTVSPost2010Prop52
140
1.0
102
RTVSPost2010PropOp52
 70
     0
102
RTVSPost2010Prop53
 90
        2
102
RTVSPost2010PropOp53
 70
     1
102
RTVSPost2010Prop54
  1
strokes_ogs.tif
102
RTVSPost2010PropOp54
 70
     1
102
RTVSPost2010Prop55
280
     0
102
RTVSPost2010PropOp55
 70
     1
102
RTVSPost2010Prop56
140
1.0
102
RTVSPost2010PropOp56
 70
     1
102
RTVSPost2010Prop57
140
1.0
102
RTVSPost2010PropOp57
 70
     1
102
RTVSPropertyOp0
 70
     1
102
RTVSPropertyOp1
 70
     1
102
RTVSPropertyOp2
 70
     1
102
RTVSPropertyOp3
 70
     1
102
RTVSPropertyOp4
 70
     1
102
RTVSPropertyOp5
 70
     1
102
RTVSPropertyOp6
 70
     1
102
RTVSPropertyOp7
 70
     1
102
RTVSPropertyOp8
 70
     1
102
RTVSPropertyOp9
 70
     1
102
RTVSPropertyOp10
 70
     1
102
RTVSPropertyOp11
 70
     1
102
RTVSPropertyOp12
 70
     1
102
RTVSPropertyOp13
 70
     1
102
RTVSPropertyOp14
 70
     1
102
RTVSPropertyOp15
 70
     1
102
RTVSPropertyOp16
 70
     1
102
RTVSPropertyOp17
 70
     1
102
RTVSPropertyOp18
 70
     1
102
RTVSPropertyOp19
 70
     1
102
RTVSPropertyOp20
 70
     1
102
RTVSPropertyOp21
 70
     1
102
RTVSPropertyOp22
 70
     1
102
RTVSPropertyOp23
 70
     1
102
RTVSPropertyOp24
 70
     1
102
RTVSPropertyOp25
 70
     1
102
RTVSPropertyOp26
 70
     1
102
RTVSPropertyOp27
 70
     1
102
RTVSPropertyOp28
 70
     1
102
RTVSPropertyOp29
 70
     1
102
RTVSPropertyOp30
 70
     1
102
RTVSPropertyOp31
 70
     1
102
RTVSPropertyOp32
 70
     1
102
RTVSPropertyOp33
 70
     1
102
RTVSPropertyOp34
 70
     1
102
RTVSPropertyOp35
 70
     1
102
RTVSPropertyOp36
 70
     1
102
RTVSPropertyOp37
 70
     1
102
RTVSPropertyOp38
 70
     1
102
RTVSPropertyOp39
 70
     1
102
RTVSPropertyOp40
 70
     1
102
RTVSPropertyOp41
 70
     1
102
RTVSPropertyOp42
 70
     1
102
RTVSPropertyOp43
 70
     1
102
RTVSPropertyOp44
 70
     1
102
RTVSPropertyOp45
 70
     1
102
RTVSPropertyOp46
 70
     1
102
RTVSPropertyOp47
 70
     1
102
RTVSPropertyOp48
 70
     1
102
RTVSPropertyOp49
 70
     1
102
RTVSPropertyOp50
 70
     1
102
RTVSPropertyOp51
 70
     0
102
RTVSPropertyOp52
 70
     0
102
RTVSPropertyOp53
 70
     1
102
RTVSPropertyOp54
 70
     1
102
RTVSPropertyOp55
 70
     1
102
RTVSPropertyOp56
 70
     1
102
RTVSPropertyOp57
 70
     1
102
RTVSPropertyOp58
 70
     1
102
RTVSPropertyOp59
 70
     1
102
RTVSPropertyOp60
 70
     1
102
RTVSPropertyOp61
 70
     1
102
RTVSPropertyOp62
 70
     1
  0
ENDSEC
  0
EOF
