  0
SECTION
  2
HEADER
  9
$ACADVER
  1
AC1015
  9
$ACADMAINTVER
 70
    20
  9
$DWGCODEPAGE
  3
ANSI_932
  9
$INSBASE
 10
0.0
 20
0.0
 30
0.0
  9
$EXTMIN
 10
9.9999975266385
 20
10.0
 30
0.0
  9
$EXTMAX
 10
213.742669592576
 20
175.3801338271156
 30
0.0
  9
$LIMMIN
 10
0.0000015376081137
 20
-0.0000001931533977
  9
$LIMMAX
 10
276.0000015376081
 20
190.2727270795738
  9
$ORTHOMODE
 70
     1
  9
$REGENMODE
 70
     1
  9
$FILLMODE
 70
     1
  9
$QTEXTMODE
 70
     0
  9
$MIRRTEXT
 70
     1
  9
$LTSCALE
 40
1.0
  9
$ATTMODE
 70
     1
  9
$TEXTSIZE
 40
2.5
  9
$TRACEWID
 40
1.0
  9
$TEXTSTYLE
  7
STANDARD
  9
$CLAYER
  8
0
  9
$CELTYPE
  6
BYLAYER
  9
$CECOLOR
 62
   256
  9
$CELTSCALE
 40
1.0
  9
$DISPSILH
 70
     0
  9
$DIMSCALE
 40
1.0
  9
$DIMASZ
 40
3.0
  9
$DIMEXO
 40
1.0
  9
$DIMDLI
 40
10.0
  9
$DIMRND
 40
0.0
  9
$DIMDLE
 40
0.0
  9
$DIMEXE
 40
1.0
  9
$DIMTP
 40
0.0
  9
$DIMTM
 40
0.0
  9
$DIMTXT
 40
3.2
  9
$DIMCEN
 40
0.0
  9
$DIMTSZ
 40
0.0
  9
$DIMTOL
 70
     0
  9
$DIMLIM
 70
     0
  9
$DIMTIH
 70
     0
  9
$DIMTOH
 70
     0
  9
$DIMSE1
 70
     0
  9
$DIMSE2
 70
     0
  9
$DIMTAD
 70
     3
  9
$DIMZIN
 70
     8
  9
$DIMBLK
  1

  9
$DIMASO
 70
     1
  9
$DIMSHO
 70
     1
  9
$DIMPOST
  1

  9
$DIMAPOST
  1

  9
$DIMALT
 70
     0
  9
$DIMALTD
 70
     2
  9
$DIMALTF
 40
25.4
  9
$DIMLFAC
 40
1.0
  9
$DIMTOFL
 70
     1
  9
$DIMTVP
 40
0.0
  9
$DIMTIX
 70
     0
  9
$DIMSOXD
 70
     0
  9
$DIMSAH
 70
     1
  9
$DIMBLK1
  1
OPEN
  9
$DIMBLK2
  1
OPEN
  9
$DIMSTYLE
  2
STANDARD
  9
$DIMCLRD
 70
     0
  9
$DIMCLRE
 70
     0
  9
$DIMCLRT
 70
     0
  9
$DIMTFAC
 40
1.0
  9
$DIMGAP
 40
1.0
  9
$DIMJUST
 70
     0
  9
$DIMSD1
 70
     0
  9
$DIMSD2
 70
     0
  9
$DIMTOLJ
 70
     1
  9
$DIMTZIN
 70
     0
  9
$DIMALTZ
 70
     0
  9
$DIMALTTZ
 70
     0
  9
$DIMUPT
 70
     0
  9
$DIMDEC
 70
     4
  9
$DIMTDEC
 70
     4
  9
$DIMALTU
 70
     2
  9
$DIMALTTD
 70
     2
  9
$DIMTXSTY
  7
STANDARD
  9
$DIMAUNIT
 70
     0
  9
$DIMADEC
 70
     0
  9
$DIMALTRND
 40
0.0
  9
$DIMAZIN
 70
     0
  9
$DIMDSEP
 70
    46
  9
$DIMATFIT
 70
     3
  9
$DIMFRAC
 70
     0
  9
$DIMLDRBLK
  1
OPEN
  9
$DIMLUNIT
 70
     2
  9
$DIMLWD
 70
    -2
  9
$DIMLWE
 70
    -2
  9
$DIMTMOVE
 70
     0
  9
$LUNITS
 70
     2
  9
$LUPREC
 70
     4
  9
$SKETCHINC
 40
1.0
  9
$FILLETRAD
 40
0.0
  9
$AUNITS
 70
     0
  9
$AUPREC
 70
     0
  9
$MENU
  1
.
  9
$ELEVATION
 40
0.0
  9
$PELEVATION
 40
0.0
  9
$THICKNESS
 40
0.0
  9
$LIMCHECK
 70
     0
  9
$CHAMFERA
 40
10.0
  9
$CHAMFERB
 40
10.0
  9
$CHAMFERC
 40
20.0
  9
$CHAMFERD
 40
0.0
  9
$SKPOLY
 70
     0
  9
$TDCREATE
 40
2453720.891197187
  9
$TDUCREATE
 40
2453720.516197187
  9
$TDUPDATE
 40
2457192.700152824
  9
$TDUUPDATE
 40
2457192.325152824
  9
$TDINDWG
 40
0.0778705440
  9
$TDUSRTIMER
 40
0.0778705440
  9
$USRTIMER
 70
     1
  9
$ANGBASE
 50
0.0
  9
$ANGDIR
 70
     0
  9
$PDMODE
 70
     0
  9
$PDSIZE
 40
0.0
  9
$PLINEWID
 40
0.0
  9
$SPLFRAME
 70
     0
  9
$SPLINETYPE
 70
     6
  9
$SPLINESEGS
 70
     8
  9
$HANDSEED
  5
1901
  9
$SURFTAB1
 70
     6
  9
$SURFTAB2
 70
     6
  9
$SURFTYPE
 70
     6
  9
$SURFU
 70
     6
  9
$SURFV
 70
     6
  9
$UCSBASE
  2

  9
$UCSNAME
  2

  9
$UCSORG
 10
0.0
 20
0.0
 30
0.0
  9
$UCSXDIR
 10
1.0
 20
0.0
 30
0.0
  9
$UCSYDIR
 10
0.0
 20
1.0
 30
0.0
  9
$UCSORTHOREF
  2

  9
$UCSORTHOVIEW
 70
     0
  9
$UCSORGTOP
 10
0.0
 20
0.0
 30
0.0
  9
$UCSORGBOTTOM
 10
0.0
 20
0.0
 30
0.0
  9
$UCSORGLEFT
 10
0.0
 20
0.0
 30
0.0
  9
$UCSORGRIGHT
 10
0.0
 20
0.0
 30
0.0
  9
$UCSORGFRONT
 10
0.0
 20
0.0
 30
0.0
  9
$UCSORGBACK
 10
0.0
 20
0.0
 30
0.0
  9
$PUCSBASE
  2

  9
$PUCSNAME
  2

  9
$PUCSORG
 10
0.0
 20
0.0
 30
0.0
  9
$PUCSXDIR
 10
1.0
 20
0.0
 30
0.0
  9
$PUCSYDIR
 10
0.0
 20
1.0
 30
0.0
  9
$PUCSORTHOREF
  2

  9
$PUCSORTHOVIEW
 70
     0
  9
$PUCSORGTOP
 10
0.0
 20
0.0
 30
0.0
  9
$PUCSORGBOTTOM
 10
0.0
 20
0.0
 30
0.0
  9
$PUCSORGLEFT
 10
0.0
 20
0.0
 30
0.0
  9
$PUCSORGRIGHT
 10
0.0
 20
0.0
 30
0.0
  9
$PUCSORGFRONT
 10
0.0
 20
0.0
 30
0.0
  9
$PUCSORGBACK
 10
0.0
 20
0.0
 30
0.0
  9
$USERI1
 70
     0
  9
$USERI2
 70
     0
  9
$USERI3
 70
     0
  9
$USERI4
 70
     0
  9
$USERI5
 70
     0
  9
$USERR1
 40
0.0
  9
$USERR2
 40
0.0
  9
$USERR3
 40
0.0
  9
$USERR4
 40
0.0
  9
$USERR5
 40
0.0
  9
$WORLDVIEW
 70
     1
  9
$SHADEDGE
 70
     3
  9
$SHADEDIF
 70
    70
  9
$TILEMODE
 70
     1
  9
$MAXACTVP
 70
    48
  9
$PINSBASE
 10
0.0
 20
0.0
 30
0.0
  9
$PLIMCHECK
 70
     0
  9
$PEXTMIN
 10
1.000000000000000E+20
 20
1.000000000000000E+20
 30
1.000000000000000E+20
  9
$PEXTMAX
 10
-1.000000000000000E+20
 20
-1.000000000000000E+20
 30
-1.000000000000000E+20
  9
$PLIMMIN
 10
0.0
 20
0.0
  9
$PLIMMAX
 10
420.0
 20
297.0
  9
$UNITMODE
 70
     0
  9
$VISRETAIN
 70
     1
  9
$PLINEGEN
 70
     0
  9
$PSLTSCALE
 70
     1
  9
$TREEDEPTH
 70
  3020
  9
$CMLSTYLE
  2
STANDARD
  9
$CMLJUST
 70
     0
  9
$CMLSCALE
 40
20.0
  9
$PROXYGRAPHICS
 70
     1
  9
$MEASUREMENT
 70
     0
  9
$CELWEIGHT
370
    -1
  9
$ENDCAPS
280
     0
  9
$JOINSTYLE
280
     0
  9
$LWDISPLAY
290
     0
  9
$INSUNITS
 70
     0
  9
$HYPERLINKBASE
  1

  9
$STYLESHEET
  1

  9
$XEDIT
290
     1
  9
$CEPSNTYPE
380
     0
  9
$PSTYLEMODE
290
     1
  9
$FINGERPRINTGUID
  2
{ED5C1748-0740-4E8B-B897-C5FD9FA95292}
  9
$VERSIONGUID
  2
{9AFEEFD1-097B-4F6A-BC8E-FE43ED61F76E}
  9
$EXTNAMES
290
     1
  9
$PSVPSCALE
 40
0.0
  9
$OLESTARTUP
290
     0
  0
ENDSEC
  0
SECTION
  2
CLASSES
  0
CLASS
  1
ACDBDICTIONARYWDFLT
  2
AcDbDictionaryWithDefault
  3
ObjectDBX Classes
 90
        0
280
     0
281
     0
  0
CLASS
  1
ACDBPLACEHOLDER
  2
AcDbPlaceHolder
  3
ObjectDBX Classes
 90
        0
280
     0
281
     0
  0
CLASS
  1
LAYOUT
  2
AcDbLayout
  3
ObjectDBX Classes
 90
        0
280
     0
281
     0
  0
CLASS
  1
DICTIONARYVAR
  2
AcDbDictionaryVar
  3
ObjectDBX Classes
 90
        0
280
     0
281
     0
  0
CLASS
  1
MATERIAL
  2
AcDbMaterial
  3
ObjectDBX Classes
 90
     1153
280
     0
281
     0
  0
CLASS
  1
VISUALSTYLE
  2
AcDbVisualStyle
  3
ObjectDBX Classes
 90
     4095
280
     0
281
     0
  0
CLASS
  1
TABLESTYLE
  2
AcDbTableStyle
  3
ObjectDBX Classes
 90
     4095
280
     0
281
     0
  0
CLASS
  1
SCALE
  2
AcDbScale
  3
ObjectDBX Classes
 90
     1153
280
     0
281
     0
  0
CLASS
  1
MLEADERSTYLE
  2
AcDbMLeaderStyle
  3
ACDB_MLEADERSTYLE_CLASS
 90
     4095
280
     0
281
     0
  0
CLASS
  1
ACDBSECTIONVIEWSTYLE
  2
AcDbSectionViewStyle
  3
ObjectDBX Classes
 90
     1025
280
     0
281
     0
  0
CLASS
  1
ACDBDETAILVIEWSTYLE
  2
AcDbDetailViewStyle
  3
ObjectDBX Classes
 90
     1025
280
     0
281
     0
  0
CLASS
  1
CELLSTYLEMAP
  2
AcDbCellStyleMap
  3
ObjectDBX Classes
 90
     1152
280
     0
281
     0
  0
ENDSEC
  0
SECTION
  2
TABLES
  0
TABLE
  2
VPORT
  5
8
330
0
100
AcDbSymbolTable
 70
     1
  0
VPORT
  5
184B
330
8
100
AcDbSymbolTableRecord
100
AcDbViewportTableRecord
  2
*ACTIVE
 70
     0
 10
0.0
 20
0.0
 11
1.0
 21
1.0
 12
165.0314157594381
 22
92.69030717061838
 13
0.0
 23
0.0
 14
10.0
 24
10.0
 15
10.0
 25
10.0
 16
0.0
 26
0.0
 36
1.0
 17
0.0
 27
0.0
 37
0.0
 40
166.9659043223747
 41
2.35006605019815
 42
50.0
 43
0.0
 44
0.0
 50
0.0
 51
0.0
 71
     0
 72
   100
 73
     1
 74
     0
 75
     0
 76
     0
 77
     0
 78
     0
281
     0
 65
     1
110
0.0
120
0.0
130
0.0
111
1.0
121
0.0
131
0.0
112
0.0
122
1.0
132
0.0
 79
     0
146
0.0
1001
ACAD_NAV_VCDISPLAY
1070
     3
  0
ENDTAB
  0
TABLE
  2
LTYPE
  5
5
330
0
100
AcDbSymbolTable
 70
     4
  0
LTYPE
  5
12
330
5
100
AcDbSymbolTableRecord
100
AcDbLinetypeTableRecord
  2
BYBLOCK
 70
     0
  3

 72
    65
 73
     0
 40
0.0
  0
LTYPE
  5
13
330
5
100
AcDbSymbolTableRecord
100
AcDbLinetypeTableRecord
  2
BYLAYER
 70
     0
  3

 72
    65
 73
     0
 40
0.0
  0
LTYPE
  5
14
330
5
100
AcDbSymbolTableRecord
100
AcDbLinetypeTableRecord
  2
CONTINUOUS
 70
     0
  3
Solid line
 72
    65
 73
     0
 40
0.0
  0
LTYPE
  5
4B
330
5
100
AcDbSymbolTableRecord
100
AcDbLinetypeTableRecord
  2
DASHED
 70
     0
  3
Dashed __ __ __ __ __ __ __ __ __ __ __ __ __ _
 72
    65
 73
     2
 40
19.04999999999999
 49
12.7
 74
     0
 49
-6.349999999999998
 74
     0
  0
LTYPE
  5
4C
330
5
100
AcDbSymbolTableRecord
100
AcDbLinetypeTableRecord
  2
CENTER
 70
     0
  3
Center ____ _ ____ _ ____ _ ____ _ ____ _ ____
 72
    65
 73
     4
 40
50.8
 49
31.75
 74
     0
 49
-6.349999999999998
 74
     0
 49
6.349999999999998
 74
     0
 49
-6.349999999999998
 74
     0
  0
LTYPE
  5
4D
330
5
100
AcDbSymbolTableRecord
100
AcDbLinetypeTableRecord
  2
PHANTOM
 70
     0
  3
Phantom ______  __  __  ______  __  __  ______
 72
    65
 73
     6
 40
63.5
 49
31.75
 74
     0
 49
-6.349999999999998
 74
     0
 49
6.349999999999998
 74
     0
 49
-6.349999999999998
 74
     0
 49
6.349999999999998
 74
     0
 49
-6.349999999999998
 74
     0
  0
ENDTAB
  0
TABLE
  2
LAYER
  5
2
330
0
100
AcDbSymbolTable
 70
     8
  0
LAYER
  5
E
102
{ACAD_XDICTIONARY
360
18A5
102
}
330
2
100
AcDbSymbolTableRecord
100
AcDbLayerTableRecord
  2
0
 70
     0
 62
     7
  6
CONTINUOUS
370
    -3
390
1854
  0
LAYER
  5
4E
102
{ACAD_XDICTIONARY
360
18A7
102
}
330
2
100
AcDbSymbolTableRecord
100
AcDbLayerTableRecord
  2
4
 70
     0
 62
     1
  6
CENTER
370
    -3
390
1854
  0
LAYER
  5
4F
102
{ACAD_XDICTIONARY
360
18A9
102
}
330
2
100
AcDbSymbolTableRecord
100
AcDbLayerTableRecord
  2
5
 70
     0
 62
     6
  6
PHANTOM
370
    -3
390
1854
  0
LAYER
  5
50
102
{ACAD_XDICTIONARY
360
18AB
102
}
330
2
100
AcDbSymbolTableRecord
100
AcDbLayerTableRecord
  2
1
 70
     0
 62
     7
  6
CONTINUOUS
370
    -3
390
1854
  0
LAYER
  5
51
102
{ACAD_XDICTIONARY
360
18AD
102
}
330
2
100
AcDbSymbolTableRecord
100
AcDbLayerTableRecord
  2
2
 70
     0
 62
     4
  6
CONTINUOUS
370
    -3
390
1854
  0
LAYER
  5
52
102
{ACAD_XDICTIONARY
360
18AF
102
}
330
2
100
AcDbSymbolTableRecord
100
AcDbLayerTableRecord
  2
3
 70
     0
 62
     2
  6
DASHED
370
    -3
390
1854
  0
LAYER
  5
53
102
{ACAD_XDICTIONARY
360
18B1
102
}
330
2
100
AcDbSymbolTableRecord
100
AcDbLayerTableRecord
  2
6
 70
     0
 62
     5
  6
CONTINUOUS
370
    -3
390
1854
  0
LAYER
  5
54
102
{ACAD_XDICTIONARY
360
18B3
102
}
330
2
100
AcDbSymbolTableRecord
100
AcDbLayerTableRecord
  2
7
 70
     0
 62
     3
  6
CONTINUOUS
370
    -3
390
1854
  0
ENDTAB
  0
TABLE
  2
STYLE
  5
3
330
0
100
AcDbSymbolTable
 70
     1
  0
STYLE
  5
F
330
3
100
AcDbSymbolTableRecord
100
AcDbTextStyleTableRecord
  2
STANDARD
 70
     0
 40
0.0
 41
1.0
 50
0.0
 71
     0
 42
2.5
  3
simplex.shx
  4

  0
ENDTAB
  0
TABLE
  2
VIEW
  5
6
330
0
100
AcDbSymbolTable
 70
     0
  0
ENDTAB
  0
TABLE
  2
UCS
  5
7
330
0
100
AcDbSymbolTable
 70
     0
  0
ENDTAB
  0
TABLE
  2
APPID
  5
9
330
0
100
AcDbSymbolTable
 70
     5
  0
APPID
  5
10
330
9
100
AcDbSymbolTableRecord
100
AcDbRegAppTableRecord
  2
ACAD
 70
     0
  0
APPID
  5
3E
330
9
100
AcDbSymbolTableRecord
100
AcDbRegAppTableRecord
  2
CONTENTTABDATA
 70
     0
  0
APPID
  5
3F
330
9
100
AcDbSymbolTableRecord
100
AcDbRegAppTableRecord
  2
CONTENTCURRENTTAB
 70
     0
  0
APPID
  5
18BF
330
9
100
AcDbSymbolTableRecord
100
AcDbRegAppTableRecord
  2
ACAD_NAV_VCDISPLAY
 70
     0
  0
APPID
  5
18F8
330
9
100
AcDbSymbolTableRecord
100
AcDbRegAppTableRecord
  2
ACAD_MLEADERVER
 70
     0
  0
ENDTAB
  0
TABLE
  2
DIMSTYLE
  5
A
330
0
100
AcDbSymbolTable
 70
     1
100
AcDbDimStyleTable
 71
     0
  0
DIMSTYLE
105
1D
330
A
100
AcDbSymbolTableRecord
100
AcDbDimStyleTableRecord
  2
STANDARD
 70
     0
 41
3.0
 42
1.0
 43
10.0
 44
1.0
 73
     0
 74
     0
 77
     3
 78
     8
140
3.2
141
0.0
147
1.0
172
     1
173
     1
340
F
341
2E
343
2E
344
2E
  0
ENDTAB
  0
TABLE
  2
BLOCK_RECORD
  5
1
330
0
100
AcDbSymbolTable
 70
     1
  0
BLOCK_RECORD
  5
18
102
{ACAD_XDICTIONARY
360
184E
102
}
330
1
100
AcDbSymbolTableRecord
100
AcDbBlockTableRecord
  2
*MODEL_SPACE
340
18A2
  0
BLOCK_RECORD
  5
15
102
{ACAD_XDICTIONARY
360
184C
102
}
330
1
100
AcDbSymbolTableRecord
100
AcDbBlockTableRecord
  2
*PAPER_SPACE
340
18A3
  0
BLOCK_RECORD
  5
2E
330
1
100
AcDbSymbolTableRecord
100
AcDbBlockTableRecord
  2
_OPEN
340
0
  0
ENDTAB
  0
ENDSEC
  0
SECTION
  2
BLOCKS
  0
BLOCK
  5
19
330
18
100
AcDbEntity
  8
0
100
AcDbBlockBegin
  2
*MODEL_SPACE
 70
     0
 10
0.0
 20
0.0
 30
0.0
  3
*MODEL_SPACE
  1

  0
ENDBLK
  5
1A
330
18
100
AcDbEntity
  8
0
100
AcDbBlockEnd
  0
BLOCK
  5
16
330
15
100
AcDbEntity
 67
     1
  8
0
100
AcDbBlockBegin
  2
*PAPER_SPACE
 70
     0
 10
0.0
 20
0.0
 30
0.0
  3
*PAPER_SPACE
  1

  0
ENDBLK
  5
17
330
15
100
AcDbEntity
 67
     1
  8
0
100
AcDbBlockEnd
  0
BLOCK
  5
2F
330
2E
100
AcDbEntity
  8
0
100
AcDbBlockBegin
  2
_OPEN
 70
     0
 10
0.0
 20
0.0
 30
0.0
  3
_OPEN
  1

  0
LINE
  5
30
330
2E
100
AcDbEntity
  8
0
  6
ByBlock
 62
     0
100
AcDbLine
 10
-1.0
 20
0.1666666666666666
 30
0.0
 11
0.0
 21
0.0
 31
0.0
  0
LINE
  5
31
330
2E
100
AcDbEntity
  8
0
  6
ByBlock
 62
     0
100
AcDbLine
 10
0.0
 20
0.0
 30
0.0
 11
-1.0
 21
-0.1666666666666666
 31
0.0
  0
LINE
  5
32
330
2E
100
AcDbEntity
  8
0
  6
ByBlock
 62
     0
100
AcDbLine
 10
0.0
 20
0.0
 30
0.0
 11
-1.0
 21
0.0
 31
0.0
  0
ENDBLK
  5
33
330
2E
100
AcDbEntity
  8
0
100
AcDbBlockEnd
  0
ENDSEC
  0
SECTION
  2
ENTITIES
  0
TEXT
  5
63
330
18
100
AcDbEntity
  8
4
  6
CENTER
 48
0.25
100
AcDbText
 10
23.97950852663849
 20
10.0
 30
0.0
 40
1.399999999999999
  1
4
100
AcDbText
  0
TEXT
  5
64
330
18
100
AcDbEntity
  8
7
  6
Continuous
 48
0.25
100
AcDbText
 10
9.999997526638502
 20
26.0000007607689
 30
0.0
 40
3.0
  1
CODE No.13306
100
AcDbText
  0
TEXT
  5
65
330
18
100
AcDbEntity
  8
7
  6
Continuous
 48
0.25
100
AcDbText
 10
9.999997526638502
 20
18.00000076076889
 30
0.0
 40
3.0
  1
TYPE No.TEA-1000-U1
100
AcDbText
  0
TEXT
  5
66
330
18
100
AcDbEntity
  8
1
  6
Continuous
 48
0.25
100
AcDbText
 10
9.999997526638502
 20
10.00000076076889
 30
0.0
 40
1.399999999999999
  1
LAYER
100
AcDbText
  0
TEXT
  5
67
330
18
100
AcDbEntity
  8
2
  6
Continuous
 48
0.25
100
AcDbText
 10
19.9795085266385
 20
10.0
 30
0.0
 40
1.399999999999999
  1
2
100
AcDbText
  0
TEXT
  5
68
330
18
100
AcDbEntity
  8
3
  6
DASHED
 48
0.25
100
AcDbText
 10
21.9795085266385
 20
10.0
 30
0.0
 40
1.399999999999999
  1
3
100
AcDbText
  0
TEXT
  5
69
330
18
100
AcDbEntity
  8
1
  6
Continuous
 48
0.25
100
AcDbText
 10
17.9795085266385
 20
10.0
 30
0.0
 40
1.399999999999999
  1
1
100
AcDbText
  0
TEXT
  5
6A
330
18
100
AcDbEntity
  8
5
  6
PHANTOM
 48
0.25
100
AcDbText
 10
25.9795085266385
 20
10.0
 30
0.0
 40
1.399999999999999
  1
5
100
AcDbText
  0
TEXT
  5
6B
330
18
100
AcDbEntity
  8
6
  6
Continuous
 48
0.25
100
AcDbText
 10
27.9795085266385
 20
10.0
 30
0.0
 40
1.399999999999999
  1
6
100
AcDbText
  0
TEXT
  5
6C
330
18
100
AcDbEntity
  8
7
  6
Continuous
 48
0.25
100
AcDbText
 10
29.9795085266385
 20
10.0
 30
0.0
 40
1.399999999999999
  1
7
100
AcDbText
  0
LINE
  5
144D
330
18
100
AcDbEntity
  8
1
  6
Continuous
100
AcDbLine
 10
205.5051693438085
 20
99.75904538270128
 30
0.0
 11
208.2676694750202
 21
104.5438359658754
 31
0.0
  0
LINE
  5
144E
330
18
100
AcDbEntity
  8
1
  6
Continuous
100
AcDbLine
 10
197.2176689501729
 20
104.5438359658755
 30
0.0
 11
199.9801690813846
 21
99.75904538270128
 31
0.0
  0
ARC
  5
1455
330
18
100
AcDbEntity
  8
1
  6
Continuous
100
AcDbCircle
 10
204.6926693052165
 20
104.3438359563761
 30
0.0
 40
0.3000000142492358
100
AcDbArc
 50
270.0000000000012
 51
359.9999999972582
  0
ARC
  5
1456
330
18
100
AcDbEntity
  8
1
  6
Continuous
100
AcDbCircle
 10
203.9926692719682
 20
103.5438359183781
 30
0.0
 40
0.5000000237487266
100
AcDbArc
 50
90.00000000000083
 51
180.0
  0
ARC
  5
1457
330
18
100
AcDbEntity
  8
1
  6
Continuous
100
AcDbCircle
 10
201.4926691532246
 20
103.5438359183781
 30
0.0
 40
0.5000000237487252
100
AcDbArc
 50
0.0
 51
89.99999999999836
  0
ARC
  5
1458
330
18
100
AcDbEntity
  8
1
  6
Continuous
100
AcDbCircle
 10
200.7926691199764
 20
104.3438359563761
 30
0.0
 40
0.3000000142492405
100
AcDbArc
 50
180.0000000000004
 51
269.9999999962725
  0
ARC
  5
1459
330
18
100
AcDbEntity
  8
1
  6
Continuous
100
AcDbCircle
 10
201.9426691745985
 20
103.7438359278776
 30
0.0
 40
0.3000000142492361
100
AcDbArc
 50
0.0
 51
90.0
  0
ARC
  5
145A
330
18
100
AcDbEntity
  8
1
  6
Continuous
100
AcDbCircle
 10
203.5426692505944
 20
103.7438359278776
 30
0.0
 40
0.3000000142492361
100
AcDbArc
 50
90.0
 51
180.0
  0
LINE
  5
1462
330
18
100
AcDbEntity
  8
1
  6
Continuous
100
AcDbLine
 10
18.44970414994099
 20
110.6813366074737
 30
0.0
 11
18.44970414994099
 21
98.40633602444249
 31
0.0
  0
LINE
  5
1463
330
18
100
AcDbEntity
  8
1
  6
Continuous
100
AcDbLine
 10
18.94970417368972
 20
111.2938366365658
 30
0.0
 11
18.94970417368982
 21
97.7938359953503
 31
0.0
  0
LINE
  5
1464
330
18
100
AcDbEntity
  8
1
  6
Continuous
100
AcDbLine
 10
19.94970422113323
 20
110.9938366223166
 30
0.0
 11
19.94970422113323
 21
98.09383600959955
 31
0.0
  0
LINE
  5
1465
330
18
100
AcDbEntity
  8
1
  6
Continuous
100
AcDbLine
 10
20.09970422831179
 20
110.9692923128948
 30
0.0
 11
20.09970422831179
 21
105.579112545541
 31
0.0
  0
LINE
  5
146A
330
18
100
AcDbEntity
  8
1
  6
Continuous
100
AcDbLine
 10
38.39970528825007
 20
112.5438366959377
 30
0.0
 11
38.39970528825007
 21
96.54383593597849
 31
0.0
  0
LINE
  5
146B
330
18
100
AcDbEntity
  8
1
  6
Continuous
100
AcDbLine
 10
33.99970507926127
 20
112.5438366959377
 30
0.0
 11
33.99970507926127
 21
96.54383593597849
 31
0.0
  0
LINE
  5
146D
330
18
100
AcDbEntity
  8
1
  6
Continuous
100
AcDbLine
 10
24.0997046090365
 20
101.6279315150952
 30
0.0
 11
24.0997046090365
 21
107.4597411168208
 31
0.0
  0
LINE
  5
146E
330
18
100
AcDbEntity
  8
1
  6
Continuous
100
AcDbLine
 10
20.39970443329593
 20
108.5438365059478
 30
0.0
 11
20.39970443329593
 21
100.5438361259683
 31
0.0
  0
LINE
  5
146F
330
18
100
AcDbEntity
  8
1
  6
Continuous
100
AcDbLine
 10
45.39970562073222
 20
108.0438364821991
 30
0.0
 11
45.39970562073222
 21
101.043836149717
 31
0.0
  0
LINE
  5
1471
330
18
100
AcDbEntity
  8
1
  6
Continuous
100
AcDbLine
 10
157.646184306528
 20
98.40633586725836
 30
0.0
 11
157.646184306528
 21
110.6813364502896
 31
0.0
  0
LINE
  5
1472
330
18
100
AcDbEntity
  8
1
  6
Continuous
100
AcDbLine
 10
157.1461842827793
 20
97.79383583816622
 30
0.0
 11
157.1461842827793
 21
111.2938364793817
 31
0.0
  0
LINE
  5
1474
330
18
100
AcDbEntity
  8
1
  6
Continuous
100
AcDbLine
 10
155.9961842281572
 20
103.9816816010574
 30
0.0
 11
155.9961842281572
 21
105.1059907164905
 31
0.0
  0
LINE
  5
1479
330
18
100
AcDbEntity
  8
1
  6
Continuous
100
AcDbLine
 10
142.0961833772078
 20
96.54383577879441
 30
0.0
 11
142.0961833772078
 21
112.5438365387536
 31
0.0
  0
LINE
  5
147A
330
18
100
AcDbEntity
  8
1
  6
Continuous
100
AcDbLine
 10
137.696183168219
 20
96.54383577879441
 30
0.0
 11
137.696183168219
 21
112.5438365387536
 31
0.0
  0
LINE
  5
147C
330
18
100
AcDbEntity
  8
1
  6
Continuous
100
AcDbLine
 10
151.9961838474327
 20
107.4597409596367
 30
0.0
 11
151.9961838474327
 21
101.6279313579111
 31
0.0
  0
LINE
  5
147E
330
18
100
AcDbEntity
  8
1
  6
Continuous
100
AcDbLine
 10
130.6961828357369
 20
101.0438359925329
 30
0.0
 11
130.6961828357369
 21
108.043836325015
 31
0.0
  0
LINE
  5
147F
330
18
100
AcDbEntity
  8
1
  6
Continuous
100
AcDbLine
 10
130.4961828262374
 20
103.0438360875279
 30
0.0
 11
130.4961828262374
 21
106.0438362300201
 31
0.0
  0
LINE
  5
1480
330
18
100
AcDbEntity
  8
1
  6
Continuous
100
AcDbLine
 10
87.79514442979005
 20
103.0438360875279
 30
0.0
 11
87.79514442979005
 21
106.0438362300201
 31
0.0
  0
LINE
  5
1481
330
18
100
AcDbEntity
  8
1
  6
Continuous
100
AcDbLine
 10
82.79514462731548
 20
104.5438360282701
 30
0.0
 11
87.79514442979005
 21
103.0438360875278
 31
0.0
  0
LINE
  5
1482
330
18
100
AcDbEntity
  8
1
  6
Continuous
100
AcDbLine
 10
88.79514447728752
 20
101.0438359925329
 30
0.0
 11
88.79514447728752
 21
108.043836325015
 31
0.0
  0
LINE
  5
1483
330
18
100
AcDbEntity
  8
1
  6
Continuous
100
AcDbLine
 10
81.79514414480534
 20
108.043836325015
 30
0.0
 11
81.79514414480534
 21
101.0438359925329
 31
0.0
  0
CIRCLE
  5
1484
330
18
100
AcDbEntity
  8
1
  6
Continuous
100
AcDbCircle
 10
85.29514431104644
 20
104.543836158774
 30
0.0
 40
8.00000037997961
  0
LINE
  5
1510
330
18
100
AcDbEntity
  8
1
  6
Continuous
100
AcDbLine
 10
24.09970460903622
 20
99.59383608084571
 30
0.0
 11
30.16120390908693
 21
99.59383608084571
 31
0.0
  0
LINE
  5
1515
330
18
100
AcDbEntity
  8
1
  6
Continuous
100
AcDbLine
 10
18.44970414994099
 20
98.40633602444249
 30
0.0
 11
18.94970417368978
 21
97.7938359953503
 31
0.0
  0
LINE
  5
1517
330
18
100
AcDbEntity
  8
1
  6
Continuous
100
AcDbLine
 10
18.94970417368982
 20
97.7938359953503
 30
0.0
 11
19.64970420693794
 21
97.7938359953503
 31
0.0
  0
LINE
  5
151A
330
18
100
AcDbEntity
  8
1
  6
Continuous
100
AcDbLine
 10
19.94970422116244
 20
98.69815091285401
 30
0.0
 11
20.09970422831179
 21
98.69815091285401
 31
0.0
  0
LINE
  5
151C
330
18
100
AcDbEntity
  8
1
  6
Continuous
100
AcDbLine
 10
19.94970422116244
 20
98.31361454805142
 30
0.0
 11
20.09970422831179
 21
98.31361454805142
 31
0.0
  0
LINE
  5
151E
330
18
100
AcDbEntity
  8
1
  6
Continuous
100
AcDbLine
 10
19.94970422118706
 20
98.11838031902176
 30
0.0
 11
20.09970422831179
 21
98.11838031902176
 31
0.0
  0
ARC
  5
151F
330
18
100
AcDbEntity
  8
1
  6
Continuous
100
AcDbCircle
 10
19.64970420693794
 20
98.09383600959955
 30
0.0
 40
0.3000000142492368
100
AcDbArc
 50
270.0000000000029
 51
0.0
  0
LINE
  5
1520
330
18
100
AcDbEntity
  8
1
  6
Continuous
100
AcDbLine
 10
20.39970443329593
 20
100.5438361259683
 30
0.0
 11
24.09970460903633
 21
100.5438361259683
 31
0.0
  0
LINE
  5
1521
330
18
100
AcDbEntity
  8
1
  6
Continuous
100
AcDbLine
 10
20.39970443329593
 20
101.6279315150952
 30
0.0
 11
24.0997046090365
 21
101.6279315150952
 31
0.0
  0
LINE
  5
1525
330
18
100
AcDbEntity
  8
1
  6
Continuous
100
AcDbLine
 10
14.94970398369992
 20
99.75904573278379
 30
0.0
 11
18.44970414994099
 21
99.75904573278377
 31
0.0
  0
LINE
  5
152E
330
18
100
AcDbEntity
  8
1
  6
Continuous
100
AcDbLine
 10
19.94970422116057
 20
101.8179484453254
 30
0.0
 11
20.09970422831179
 21
101.8179484453254
 31
0.0
  0
LINE
  5
1530
330
18
100
AcDbEntity
  8
1
  6
Continuous
100
AcDbLine
 10
19.94970422116057
 20
100.8442681736843
 30
0.0
 11
20.09970422831179
 21
100.8442681736843
 31
0.0
  0
LINE
  5
1532
330
18
100
AcDbEntity
  8
1
  6
Continuous
100
AcDbLine
 10
19.94970422116085
 20
99.98299743942856
 30
0.0
 11
20.09970422831179
 21
99.98299743942856
 31
0.0
  0
LINE
  5
1533
330
18
100
AcDbEntity
  8
1
  6
Continuous
100
AcDbLine
 10
19.94970422116085
 20
99.26030547057051
 30
0.0
 11
20.09970422831179
 21
99.26030547057051
 31
0.0
  0
LINE
  5
1535
330
18
100
AcDbEntity
  8
1
  6
Continuous
100
AcDbLine
 10
20.09970422831179
 20
101.7938361853401
 30
0.0
 11
20.39970443329565
 21
101.7938361853401
 31
0.0
  0
LINE
  5
1537
330
18
100
AcDbEntity
  8
1
  6
Continuous
100
AcDbLine
 10
14.4497042660077
 20
104.5438363516724
 30
0.0
 11
18.44970414994099
 21
104.5438360659581
 31
0.0
  0
LINE
  5
153C
330
18
100
AcDbEntity
  8
1
  6
Continuous
100
AcDbLine
 10
19.9497042211625
 20
103.9816817582415
 30
0.0
 11
20.09970422831179
 21
103.9816817582415
 31
0.0
  0
LINE
  5
153D
330
18
100
AcDbEntity
  8
1
  6
Continuous
100
AcDbLine
 10
19.94970422116023
 20
105.1059908736746
 30
0.0
 11
20.09970422831179
 21
105.1059908736746
 31
0.0
  0
LINE
  5
153E
330
18
100
AcDbEntity
  8
1
  6
Continuous
100
AcDbLine
 10
20.09970422831179
 20
105.1059908736746
 30
0.0
 11
20.09970422831179
 21
103.9816817582415
 31
0.0
  0
LINE
  5
153F
330
18
100
AcDbEntity
  8
1
  6
Continuous
100
AcDbLine
 10
19.94970422118717
 20
105.5791125455411
 30
0.0
 11
20.09970422831179
 21
105.5791125455411
 31
0.0
  0
LINE
  5
1540
330
18
100
AcDbEntity
  8
1
  6
Continuous
100
AcDbLine
 10
19.94970422118717
 20
103.508560086375
 30
0.0
 11
20.09970422831179
 21
103.508560086375
 31
0.0
  0
LINE
  5
1541
330
18
100
AcDbEntity
  8
1
  6
Continuous
100
AcDbLine
 10
20.09970422831179
 20
103.5085600863751
 30
0.0
 11
20.09970422831179
 21
98.11838031902176
 31
0.0
  0
LINE
  5
1542
330
18
100
AcDbEntity
  8
1
  6
Continuous
100
AcDbLine
 10
19.9497042211625
 20
102.8744534245807
 30
0.0
 11
20.09970422831179
 21
102.8744534245807
 31
0.0
  0
LINE
  5
1543
330
18
100
AcDbEntity
  8
1
  6
Continuous
100
AcDbLine
 10
24.09970460903622
 20
99.59383608084571
 30
0.0
 11
24.09970460903622
 21
100.5438361259683
 31
0.0
  0
LINE
  5
1546
330
18
100
AcDbEntity
  8
1
  6
Continuous
100
AcDbLine
 10
33.99970507926127
 20
96.54383593597843
 30
0.0
 11
38.39970528825007
 21
96.54383593597843
 31
0.0
  0
LINE
  5
154B
330
18
100
AcDbEntity
  8
1
  6
Continuous
100
AcDbLine
 10
31.69970478878172
 20
98.14383601197441
 30
0.0
 11
33.99970507926127
 21
98.14383601197441
 31
0.0
  0
LINE
  5
154D
330
18
100
AcDbEntity
  8
1
  6
Continuous
100
AcDbLine
 10
38.39970528825007
 20
101.043836149717
 30
0.0
 11
45.39970562073222
 21
101.043836149717
 31
0.0
  0
LINE
  5
154E
330
18
100
AcDbEntity
  8
1
  6
Continuous
100
AcDbLine
 10
45.39970562073222
 20
104.5438363159583
 30
0.0
 11
45.59970563023171
 21
104.5438363159583
 31
0.0
  0
LINE
  5
154F
330
18
100
AcDbEntity
  8
1
  6
Continuous
100
AcDbLine
 10
45.39970562073222
 20
103.0438362447122
 30
0.0
 11
45.59970563023171
 21
103.0438362447122
 31
0.0
  0
LINE
  5
1550
330
18
100
AcDbEntity
  8
1
  6
Continuous
100
AcDbLine
 10
45.59970563023171
 20
106.0438363872042
 30
0.0
 11
45.59970563023171
 21
103.0438362447119
 31
0.0
  0
LINE
  5
1551
330
18
100
AcDbEntity
  8
1
  6
Continuous
100
AcDbLine
 10
81.79514414480534
 20
101.0438359925329
 30
0.0
 11
88.79514447728752
 21
101.0438359925329
 31
0.0
  0
LINE
  5
1552
330
18
100
AcDbEntity
  8
1
  6
Continuous
100
AcDbLine
 10
156.4461842495311
 20
97.7938358381662
 30
0.0
 11
157.1461842827793
 21
97.7938358381662
 31
0.0
  0
LINE
  5
1553
330
18
100
AcDbEntity
  8
1
  6
Continuous
100
AcDbLine
 10
137.696183168219
 20
96.54383577879436
 30
0.0
 11
142.0961833772078
 21
96.54383577879436
 31
0.0
  0
LINE
  5
1554
330
18
100
AcDbEntity
  8
1
  6
Continuous
100
AcDbLine
 10
137.696183168219
 20
101.0438359925329
 30
0.0
 11
130.6961828357369
 21
101.0438359925329
 31
0.0
  0
LINE
  5
1555
330
18
100
AcDbEntity
  8
1
  6
Continuous
100
AcDbLine
 10
130.6961828357369
 20
103.0438360875281
 30
0.0
 11
130.4961828262374
 21
103.0438360875281
 31
0.0
  0
LINE
  5
1556
330
18
100
AcDbEntity
  8
1
  6
Continuous
100
AcDbLine
 10
144.3961836676874
 20
112.1438365197546
 30
0.0
 11
144.3961836676874
 21
96.94383579779335
 31
0.0
  0
LINE
  5
1558
330
18
100
AcDbEntity
  8
1
  6
Continuous
100
AcDbLine
 10
144.3961836676874
 20
96.94383579779335
 30
0.0
 11
144.9962931694802
 21
96.94383579779335
 31
0.0
  0
LINE
  5
155A
330
18
100
AcDbEntity
  8
1
  6
Continuous
100
AcDbLine
 10
145.9346845473822
 20
99.59383592366163
 30
0.0
 11
151.9961838474329
 21
99.5938359236616
 31
0.0
  0
LINE
  5
155B
330
18
100
AcDbEntity
  8
1
  6
Continuous
100
AcDbLine
 10
142.0961833772078
 20
98.14383585479031
 30
0.0
 11
144.3961836676874
 21
98.14383585479028
 31
0.0
  0
LINE
  5
155F
330
18
100
AcDbEntity
  8
1
  6
Continuous
100
AcDbLine
 10
155.6961840231731
 20
100.5438359687842
 30
0.0
 11
151.9961838474327
 21
100.5438359687842
 31
0.0
  0
LINE
  5
1560
330
18
100
AcDbEntity
  8
1
  6
Continuous
100
AcDbLine
 10
151.9961838474329
 20
100.5438359687842
 30
0.0
 11
151.9961838474329
 21
99.5938359236616
 31
0.0
  0
LINE
  5
1566
330
18
100
AcDbEntity
  8
1
  6
Continuous
100
AcDbLine
 10
156.1461842353065
 20
99.9829972822448
 30
0.0
 11
155.9961842281572
 21
99.9829972822448
 31
0.0
  0
LINE
  5
1568
330
18
100
AcDbEntity
  8
1
  6
Continuous
100
AcDbLine
 10
156.1461842353065
 20
100.84426803247
 30
0.0
 11
155.9961842281572
 21
100.84426803247
 31
0.0
  0
LINE
  5
1569
330
18
100
AcDbEntity
  8
1
  6
Continuous
100
AcDbLine
 10
156.1461842353065
 20
99.26030531338639
 30
0.0
 11
155.9961842281572
 21
99.26030531338639
 31
0.0
  0
LINE
  5
156B
330
18
100
AcDbEntity
  8
1
  6
Continuous
100
AcDbLine
 10
156.1461842353071
 20
98.6981507304352
 30
0.0
 11
155.9961842281572
 21
98.6981507304352
 31
0.0
  0
LINE
  5
156D
330
18
100
AcDbEntity
  8
1
  6
Continuous
100
AcDbLine
 10
156.1461842353071
 20
98.313614390867
 30
0.0
 11
155.9961842281572
 21
98.313614390867
 31
0.0
  0
LINE
  5
156E
330
18
100
AcDbEntity
  8
1
  6
Continuous
100
AcDbLine
 10
156.1461842353358
 20
98.11838013410023
 30
0.0
 11
155.9961842281572
 21
98.11838013410023
 31
0.0
  0
ARC
  5
1571
330
18
100
AcDbEntity
  8
1
  6
Continuous
100
AcDbCircle
 10
156.4461842495311
 20
98.09383585241542
 30
0.0
 40
0.3000000142492368
100
AcDbArc
 50
180.0000318642392
 51
269.9999999999971
  0
LINE
  5
1572
330
18
100
AcDbEntity
  8
1
  6
Continuous
100
AcDbLine
 10
155.6961840231732
 20
101.6279313579111
 30
0.0
 11
151.9961838474327
 21
101.6279313579111
 31
0.0
  0
LINE
  5
1574
330
18
100
AcDbEntity
  8
1
  6
Continuous
100
AcDbLine
 10
156.1461842353358
 20
98.11838013410023
 30
0.0
 11
156.1461842353358
 21
110.9938364651325
 31
0.0
  0
LINE
  5
1575
330
18
100
AcDbEntity
  8
1
  6
Continuous
100
AcDbLine
 10
156.1461842353089
 20
103.9816816010574
 30
0.0
 11
155.9961842281572
 21
103.9816816010574
 31
0.0
  0
LINE
  5
1576
330
18
100
AcDbEntity
  8
1
  6
Continuous
100
AcDbLine
 10
156.1461842353089
 20
102.8744532673963
 30
0.0
 11
155.9961842281572
 21
102.8744532673963
 31
0.0
  0
LINE
  5
1577
330
18
100
AcDbEntity
  8
1
  6
Continuous
100
AcDbLine
 10
155.9961842281572
 20
103.508559929191
 30
0.0
 11
155.9961842281572
 21
98.11838013410023
 31
0.0
  0
LINE
  5
1578
330
18
100
AcDbEntity
  8
1
  6
Continuous
100
AcDbLine
 10
156.1461842352819
 20
103.508559929191
 30
0.0
 11
155.9961842281572
 21
103.508559929191
 31
0.0
  0
LINE
  5
1579
330
18
100
AcDbEntity
  8
1
  6
Continuous
100
AcDbLine
 10
156.1461842353065
 20
101.8179482881412
 30
0.0
 11
155.9961842281572
 21
101.8179482881412
 31
0.0
  0
LINE
  5
157B
330
18
100
AcDbEntity
  8
1
  6
Continuous
100
AcDbLine
 10
155.6961840231734
 20
101.793836028156
 30
0.0
 11
155.9961842281572
 21
101.793836028156
 31
0.0
  0
LINE
  5
157D
330
18
100
AcDbEntity
  8
1
  6
Continuous
100
AcDbLine
 10
161.146184472769
 20
99.75904557559966
 30
0.0
 11
157.646184306528
 21
99.75904557559966
 31
0.0
  0
LINE
  5
157E
330
18
100
AcDbEntity
  8
1
  6
Continuous
100
AcDbLine
 10
157.1461842827793
 20
97.79383583816622
 30
0.0
 11
157.6462843065281
 21
98.4064583672584
 31
0.0
  0
ARC
  5
1580
330
18
100
AcDbEntity
  8
1
  6
Continuous
100
AcDbCircle
 10
161.146184472769
 20
100.2590455993483
 30
0.0
 40
0.5000000237487319
100
AcDbArc
 50
270.0000000000008
 51
0.0
  0
ARC
  5
1583
330
18
100
AcDbEntity
  8
1
  6
Continuous
100
AcDbCircle
 10
202.7426692125964
 20
104.5438359658756
 30
0.0
 40
4.000000189989809
100
AcDbArc
 50
284.1337367207054
 51
75.86626327929646
  0
ARC
  5
1588
330
18
100
AcDbEntity
  8
1
  6
Continuous
100
AcDbCircle
 10
202.7426692125964
 20
104.5438359658756
 30
0.0
 40
4.000000189989809
100
AcDbArc
 50
104.133736720704
 51
255.8662632792945
  0
ARC
  5
158A
330
18
100
AcDbEntity
  8
1
  6
Continuous
100
AcDbCircle
 10
201.6926691627241
 20
100.3740036369052
 30
0.0
 40
0.3000000142492341
100
AcDbArc
 50
3.698437847371685
 51
75.86626327932049
  0
ARC
  5
158B
330
18
100
AcDbEntity
  8
1
  6
Continuous
100
AcDbCircle
 10
201.6926691627241
 20
100.0590453969504
 30
0.0
 40
0.3000000142492345
100
AcDbArc
 50
269.9999999999963
 51
0.0
  0
LINE
  5
158C
330
18
100
AcDbEntity
  8
1
  6
Continuous
100
AcDbLine
 10
199.9801690813847
 20
99.75904538270128
 30
0.0
 11
205.5051693438085
 21
99.75904538270128
 31
0.0
  0
ARC
  5
1597
330
18
100
AcDbEntity
  8
1
  6
Continuous
100
AcDbCircle
 10
203.7926692624687
 20
100.3740036369052
 30
0.0
 40
0.3000000142492326
100
AcDbArc
 50
104.133736720679
 51
176.324247150129
  0
ARC
  5
1598
330
18
100
AcDbEntity
  8
1
  6
Continuous
100
AcDbCircle
 10
203.7926692624687
 20
100.0590453969505
 30
0.0
 40
0.3000000142492399
100
AcDbArc
 50
179.9999708160127
 51
269.9999999999992
  0
LINE
  5
159A
330
18
100
AcDbEntity
  8
1
  6
Continuous
100
AcDbLine
 10
200.7926691199764
 20
104.0438359421269
 30
0.0
 11
201.9426691745985
 21
104.0438359421269
 31
0.0
  0
LINE
  5
15A1
330
18
100
AcDbEntity
  8
1
  6
Continuous
100
AcDbLine
 10
204.6926693052165
 20
104.0438359421269
 30
0.0
 11
203.5426692505944
 21
104.0438359421269
 31
0.0
  0
LINE
  5
15A2
330
18
100
AcDbEntity
  8
1
  6
Continuous
100
AcDbLine
 10
202.2426691888477
 20
103.7438359278776
 30
0.0
 11
202.2426691888477
 21
102.5938358732556
 31
0.0
  0
LINE
  5
15A3
330
18
100
AcDbEntity
  8
1
  6
Continuous
100
AcDbLine
 10
202.5426692030969
 20
102.2938358590063
 30
0.0
 11
202.9426692220959
 21
102.2938358590063
 31
0.0
  0
LINE
  5
15A4
330
18
100
AcDbEntity
  8
1
  6
Continuous
100
AcDbLine
 10
203.2426692363451
 20
102.5938358732555
 30
0.0
 11
203.2426692363451
 21
103.7438359278776
 31
0.0
  0
ARC
  5
15A6
330
18
100
AcDbEntity
  8
1
  6
Continuous
100
AcDbCircle
 10
202.5426692030969
 20
102.5938358732556
 30
0.0
 40
0.3000000142492393
100
AcDbArc
 50
180.0
 51
269.9999999999987
  0
ARC
  5
15A7
330
18
100
AcDbEntity
  8
1
  6
Continuous
100
AcDbCircle
 10
202.9426692220959
 20
102.5938358732555
 30
0.0
 40
0.3000000142492357
100
AcDbArc
 50
270.0000000000004
 51
359.9999999999996
  0
LINE
  5
15AD
330
18
100
AcDbEntity
  8
1
  6
Continuous
100
AcDbLine
 10
81.79514396321744
 20
148.503225974782
 30
0.0
 11
81.79514396321744
 21
141.5032256422999
 31
0.0
  0
LINE
  5
15AE
330
18
100
AcDbEntity
  8
1
  6
Continuous
100
AcDbLine
 10
88.7951442956996
 20
148.503225974782
 30
0.0
 11
88.7951442956996
 21
141.5032256422999
 31
0.0
  0
LINE
  5
15AF
330
18
100
AcDbEntity
  8
1
  6
Continuous
100
AcDbLine
 10
30.16120390908629
 20
109.4938365510704
 30
0.0
 11
24.09970460903622
 21
109.4938365510704
 31
0.0
  0
LINE
  5
15B0
330
18
100
AcDbEntity
  8
1
  6
Continuous
100
AcDbLine
 10
20.39970443329593
 20
108.5438365059478
 30
0.0
 11
24.09970460903633
 21
108.5438365059478
 31
0.0
  0
LINE
  5
15B1
330
18
100
AcDbEntity
  8
1
  6
Continuous
100
AcDbLine
 10
20.39970443329593
 20
107.4597411168209
 30
0.0
 11
24.09970460903639
 21
107.4597411168209
 31
0.0
  0
ARC
  5
15B4
330
18
100
AcDbEntity
  8
1
  6
Continuous
100
AcDbCircle
 10
14.94970398369992
 20
108.8286268753836
 30
0.0
 40
0.5000000237487347
100
AcDbArc
 50
90.00000000000122
 51
179.9999999999991
  0
LINE
  5
15B5
330
18
100
AcDbEntity
  8
1
  6
Continuous
100
AcDbLine
 10
14.44970395995119
 20
100.2590458279611
 30
0.0
 11
14.44970395995119
 21
108.8286268753837
 31
0.0
  0
LINE
  5
15BA
330
18
100
AcDbEntity
  8
1
  6
Continuous
100
AcDbLine
 10
19.94970422116023
 20
106.2132192073357
 30
0.0
 11
20.09970422831179
 21
106.2132192073357
 31
0.0
  0
LINE
  5
15BB
330
18
100
AcDbEntity
  8
1
  6
Continuous
100
AcDbLine
 10
19.9497042211625
 20
107.2697241865904
 30
0.0
 11
20.09970422831179
 21
107.2697241865904
 31
0.0
  0
LINE
  5
15BD
330
18
100
AcDbEntity
  8
1
  6
Continuous
100
AcDbLine
 10
19.9497042211625
 20
108.2434044422622
 30
0.0
 11
20.09970422831179
 21
108.2434044422622
 31
0.0
  0
LINE
  5
15BF
330
18
100
AcDbEntity
  8
1
  6
Continuous
100
AcDbLine
 10
20.39970443329565
 20
107.2938364465761
 30
0.0
 11
20.09970422831179
 21
107.2938364465761
 31
0.0
  0
LINE
  5
15C1
330
18
100
AcDbEntity
  8
1
  6
Continuous
100
AcDbLine
 10
14.94970398369992
 20
109.3286268991324
 30
0.0
 11
18.44970414994099
 21
109.3286268991324
 31
0.0
  0
LINE
  5
15C2
330
18
100
AcDbEntity
  8
1
  6
Continuous
100
AcDbLine
 10
18.94970417368972
 20
111.2938366365658
 30
0.0
 11
18.44960414994102
 21
110.6812141074737
 31
0.0
  0
LINE
  5
15C3
330
18
100
AcDbEntity
  8
1
  6
Continuous
100
AcDbLine
 10
19.64970420693794
 20
111.2938366365658
 30
0.0
 11
18.94970417368972
 21
111.2938366365658
 31
0.0
  0
LINE
  5
15C9
330
18
100
AcDbEntity
  8
1
  6
Continuous
100
AcDbLine
 10
19.94970422116262
 20
109.1046751924872
 30
0.0
 11
20.09970422831179
 21
109.1046751924872
 31
0.0
  0
LINE
  5
15CA
330
18
100
AcDbEntity
  8
1
  6
Continuous
100
AcDbLine
 10
19.94970422116114
 20
110.3895217190622
 30
0.0
 11
20.09970422831179
 21
110.3895217190622
 31
0.0
  0
LINE
  5
15CC
330
18
100
AcDbEntity
  8
1
  6
Continuous
100
AcDbLine
 10
19.94970422116256
 20
109.8273671613456
 30
0.0
 11
20.09970422831179
 21
109.8273671613456
 31
0.0
  0
LINE
  5
15CE
330
18
100
AcDbEntity
  8
1
  6
Continuous
100
AcDbLine
 10
19.94970422116114
 20
110.774058083865
 30
0.0
 11
20.09970422831179
 21
110.774058083865
 31
0.0
  0
LINE
  5
15D0
330
18
100
AcDbEntity
  8
1
  6
Continuous
100
AcDbLine
 10
19.94970422118711
 20
110.9692923128948
 30
0.0
 11
20.09970422831179
 21
110.9692923128948
 31
0.0
  0
ARC
  5
15D2
330
18
100
AcDbEntity
  8
1
  6
Continuous
100
AcDbCircle
 10
19.64970420693794
 20
110.9938366223166
 30
0.0
 40
0.3000000142492368
100
AcDbArc
 50
0.0
 51
89.99999999999714
  0
LINE
  5
15D3
330
18
100
AcDbEntity
  8
1
  6
Continuous
100
AcDbLine
 10
24.09970460903622
 20
108.5438365059478
 30
0.0
 11
24.09970460903622
 21
109.4938365510704
 31
0.0
  0
LINE
  5
15D8
330
18
100
AcDbEntity
  8
1
  6
Continuous
100
AcDbLine
 10
33.99970507926127
 20
110.9438366199417
 30
0.0
 11
31.69970478878172
 21
110.9438366199417
 31
0.0
  0
LINE
  5
15D9
330
18
100
AcDbEntity
  8
1
  6
Continuous
100
AcDbLine
 10
38.39970528825007
 20
108.0438364821991
 30
0.0
 11
45.39970562073222
 21
108.0438364821991
 31
0.0
  0
LINE
  5
15DA
330
18
100
AcDbEntity
  8
1
  6
Continuous
100
AcDbLine
 10
45.39970562073222
 20
106.0438363872042
 30
0.0
 11
45.59970563023171
 21
106.0438363872042
 31
0.0
  0
LINE
  5
15DB
330
18
100
AcDbEntity
  8
1
  6
Continuous
100
AcDbLine
 10
38.39970528825007
 20
112.5438366959377
 30
0.0
 11
33.99970507926127
 21
112.5438366959377
 31
0.0
  0
LINE
  5
15DC
330
18
100
AcDbEntity
  8
1
  6
Continuous
100
AcDbLine
 10
88.79514447728752
 20
108.043836325015
 30
0.0
 11
81.79514414480534
 21
108.043836325015
 31
0.0
  0
LINE
  5
15DD
330
18
100
AcDbEntity
  8
1
  6
Continuous
100
AcDbLine
 10
87.79514442979005
 20
106.0438362300201
 30
0.0
 11
82.79514455547859
 21
104.5438362677267
 31
0.0
  0
LINE
  5
15DE
330
18
100
AcDbEntity
  8
1
  6
Continuous
100
AcDbLine
 10
88.7951442956996
 20
141.5032256422999
 30
0.0
 11
81.79514396321744
 21
141.5032256422999
 31
0.0
  0
LINE
  5
15DF
330
18
100
AcDbEntity
  8
1
  6
Continuous
100
AcDbLine
 10
87.79514424820215
 20
141.3032256328004
 30
0.0
 11
82.79514437389073
 21
141.3032256328004
 31
0.0
  0
LINE
  5
15E0
330
18
100
AcDbEntity
  8
1
  6
Continuous
100
AcDbLine
 10
82.79514401071486
 20
141.5032256422999
 30
0.0
 11
82.79514401071486
 21
141.3032256328004
 31
0.0
  0
LINE
  5
15E1
330
18
100
AcDbEntity
  8
1
  6
Continuous
100
AcDbLine
 10
87.79514424820215
 20
141.5032256422999
 30
0.0
 11
87.79514424820215
 21
141.3032256328004
 31
0.0
  0
LINE
  5
15E2
330
18
100
AcDbEntity
  8
1
  6
Continuous
100
AcDbLine
 10
92.04514445006632
 20
167.9532270893423
 30
0.0
 11
78.54514380885072
 21
167.9532270893423
 31
0.0
  0
LINE
  5
15E3
330
18
100
AcDbEntity
  8
1
  6
Continuous
100
AcDbLine
 10
91.43264442097418
 20
168.4532271130911
 30
0.0
 11
79.15764383794289
 21
168.4532271130911
 31
0.0
  0
ARC
  5
15E7
330
18
100
AcDbEntity
  8
1
  6
Continuous
100
AcDbCircle
 10
85.2951441294585
 20
174.6532388921536
 30
0.0
 40
18.85001141378072
100
AcDbArc
 50
246.2226980067345
 51
293.7773019932654
  0
ARC
  5
15E8
330
18
100
AcDbEntity
  8
1
  6
Continuous
100
AcDbCircle
 10
85.2951441294585
 20
174.6532343088053
 30
0.0
 40
19.45000728514348
100
AcDbArc
 50
246.9991133333056
 51
293.0008866666943
  0
LINE
  5
15E9
330
18
100
AcDbEntity
  8
1
  6
Continuous
100
AcDbLine
 10
93.29514450943813
 20
152.9032261837708
 30
0.0
 11
77.29514374947889
 21
152.9032261837708
 31
0.0
  0
LINE
  5
15EA
330
18
100
AcDbEntity
  8
1
  6
Continuous
100
AcDbLine
 10
93.29514450943813
 20
148.503225974782
 30
0.0
 11
77.29514374947889
 21
148.503225974782
 31
0.0
  0
LINE
  5
15EB
330
18
100
AcDbEntity
  8
1
  6
Continuous
100
AcDbLine
 10
78.89514382547481
 20
155.203226293015
 30
0.0
 11
91.69514443344221
 21
155.203226293015
 31
0.0
  0
LINE
  5
15EC
330
18
100
AcDbEntity
  8
1
  6
Continuous
100
AcDbLine
 10
80.34514389434614
 20
162.8032266539955
 30
0.0
 11
80.34514389434614
 21
156.4647692486665
 31
0.0
  0
LINE
  5
15ED
330
18
100
AcDbEntity
  8
1
  6
Continuous
100
AcDbLine
 10
90.24514436457087
 20
156.4647692486665
 30
0.0
 11
90.2451443645709
 21
162.8032266539957
 31
0.0
  0
LINE
  5
15EE
330
18
100
AcDbEntity
  8
1
  6
Continuous
100
AcDbLine
 10
78.89514382547481
 20
155.203226293015
 30
0.0
 11
78.89514382547481
 21
152.9032261837708
 31
0.0
  0
LINE
  5
15F0
330
18
100
AcDbEntity
  8
1
  6
Continuous
100
AcDbLine
 10
77.29514374947889
 20
152.9032261837708
 30
0.0
 11
77.29514374947889
 21
148.503225974782
 31
0.0
  0
LINE
  5
15F2
330
18
100
AcDbEntity
  8
1
  6
Continuous
100
AcDbLine
 10
80.34514389434612
 20
155.8436548062081
 30
0.0
 11
80.34514389434614
 21
155.2032262930149
 31
0.0
  0
LINE
  5
15F3
330
18
100
AcDbEntity
  8
1
  6
Continuous
100
AcDbLine
 10
77.69514376847789
 20
157.4033265787447
 30
0.0
 11
77.69514376847789
 21
156.7495258129313
 31
0.0
  0
LINE
  5
15F4
330
18
100
AcDbEntity
  8
1
  6
Continuous
100
AcDbLine
 10
90.2451443645709
 20
155.2032262930149
 30
0.0
 11
90.24514436457092
 21
155.8436548062081
 31
0.0
  0
LINE
  5
15F5
330
18
100
AcDbEntity
  8
1
  6
Continuous
100
AcDbLine
 10
82.37923932859567
 20
166.5032268297362
 30
0.0
 11
82.37923932859567
 21
162.8032266539957
 31
0.0
  0
LINE
  5
15F6
330
18
100
AcDbEntity
  8
1
  6
Continuous
100
AcDbLine
 10
88.21104893032137
 20
166.5032268297362
 30
0.0
 11
88.21104893032137
 21
162.8032266539957
 31
0.0
  0
LINE
  5
15F7
330
18
100
AcDbEntity
  8
1
  6
Continuous
100
AcDbLine
 10
89.29514431944831
 20
166.5032268297362
 30
0.0
 11
89.29514431944831
 21
162.8032266539956
 31
0.0
  0
LINE
  5
15F8
330
18
100
AcDbEntity
  8
1
  6
Continuous
100
AcDbLine
 10
81.29514393946875
 20
166.5032268297362
 30
0.0
 11
81.29514393946875
 21
162.8032266539957
 31
0.0
  0
LINE
  5
15F9
330
18
100
AcDbEntity
  8
1
  6
Continuous
100
AcDbLine
 10
82.37923932859567
 20
162.8032266539959
 30
0.0
 11
88.21104893032131
 21
162.8032266539959
 31
0.0
  0
LINE
  5
15FA
330
18
100
AcDbEntity
  8
1
  6
Continuous
100
AcDbLine
 10
80.34514389434614
 20
162.8032266539955
 30
0.0
 11
81.29514393946875
 21
162.8032266539955
 31
0.0
  0
LINE
  5
15FB
330
18
100
AcDbEntity
  8
1
  6
Continuous
100
AcDbLine
 10
89.29514431944825
 20
162.8032266539957
 30
0.0
 11
90.2451443645709
 21
162.8032266539957
 31
0.0
  0
LINE
  5
1602
330
18
100
AcDbEntity
  8
1
  6
Continuous
100
AcDbLine
 10
79.77014386703505
 20
171.9532272824612
 30
0.0
 11
79.77014401137265
 21
168.4532271130911
 31
0.0
  0
LINE
  5
1603
330
18
100
AcDbEntity
  8
1
  6
Continuous
100
AcDbLine
 10
79.15764383794289
 20
168.4532271130911
 30
0.0
 11
78.54514380885072
 21
167.9532270893423
 31
0.0
  0
LINE
  5
1606
330
18
100
AcDbEntity
  8
1
  6
Continuous
100
AcDbLine
 10
78.54514380885072
 20
167.9532270893423
 30
0.0
 11
78.54514380885072
 21
167.2532270560941
 31
0.0
  0
LINE
  5
160D
330
18
100
AcDbEntity
  8
1
  6
Continuous
100
AcDbLine
 10
81.59557600315455
 20
166.9532270418695
 30
0.0
 11
81.59557600315455
 21
166.8032270347203
 31
0.0
  0
LINE
  5
160E
330
18
100
AcDbEntity
  8
1
  6
Continuous
100
AcDbLine
 10
80.73430525292932
 20
166.9532270418695
 30
0.0
 11
80.73430525292932
 21
166.8032270347203
 31
0.0
  0
LINE
  5
1610
330
18
100
AcDbEntity
  8
1
  6
Continuous
100
AcDbLine
 10
80.01161328407105
 20
166.9532270418696
 30
0.0
 11
80.01161328407105
 21
166.8032270347203
 31
0.0
  0
LINE
  5
1612
330
18
100
AcDbEntity
  8
1
  6
Continuous
100
AcDbLine
 10
79.06492236155148
 20
166.9532270418719
 30
0.0
 11
79.06492236155148
 21
166.8032270347203
 31
0.0
  0
LINE
  5
1613
330
18
100
AcDbEntity
  8
1
  6
Continuous
100
AcDbLine
 10
79.44945872635419
 20
166.9532270418696
 30
0.0
 11
79.44945872635419
 21
166.8032270347203
 31
0.0
  0
LINE
  5
1619
330
18
100
AcDbEntity
  8
1
  6
Continuous
100
AcDbLine
 10
78.84514393447195
 20
166.9532270418449
 30
0.0
 11
78.84514393447196
 21
166.8032270347203
 31
0.0
  0
ARC
  5
161B
330
18
100
AcDbEntity
  8
1
  6
Continuous
100
AcDbCircle
 10
78.84514382309996
 20
167.2532270560941
 30
0.0
 40
0.3000000142492368
100
AcDbArc
 50
180.0000000000028
 51
270.0
  0
LINE
  5
161D
330
18
100
AcDbEntity
  8
1
  6
Continuous
100
AcDbLine
 10
80.27014386703504
 20
172.4532273030809
 30
0.0
 11
84.2451440795862
 21
172.4532273030809
 31
0.0
  0
LINE
  5
1620
330
18
100
AcDbEntity
  8
1
  6
Continuous
100
AcDbLine
 10
88.05764426067019
 20
171.9532272793322
 30
0.0
 11
88.05764426067019
 21
168.4532271130911
 31
0.0
  0
LINE
  5
1621
330
18
100
AcDbEntity
  8
1
  6
Continuous
100
AcDbLine
 10
82.53264399824681
 20
171.9532272793322
 30
0.0
 11
82.53264399824681
 21
168.4532271130911
 31
0.0
  0
LINE
  5
1627
330
18
100
AcDbEntity
  8
1
  6
Continuous
100
AcDbLine
 10
85.85729868717505
 20
166.953227041845
 30
0.0
 11
85.85729868717505
 21
166.8032270347203
 31
0.0
  0
LINE
  5
1629
330
18
100
AcDbEntity
  8
1
  6
Continuous
100
AcDbLine
 10
85.64376711700779
 20
166.9532270418449
 30
0.0
 11
85.64376711700779
 21
166.8032270347203
 31
0.0
  0
LINE
  5
162A
330
18
100
AcDbEntity
  8
1
  6
Continuous
100
AcDbLine
 10
84.94652114190925
 20
166.9532270418449
 30
0.0
 11
84.94652114190925
 21
166.8032270347203
 31
0.0
  0
LINE
  5
162B
330
18
100
AcDbEntity
  8
1
  6
Continuous
100
AcDbLine
 10
78.84514393447196
 20
166.8032270347203
 30
0.0
 11
84.94652114190925
 21
166.8032270347203
 31
0.0
  0
LINE
  5
162C
330
18
100
AcDbEntity
  8
1
  6
Continuous
100
AcDbLine
 10
84.73298957174192
 20
166.953227041845
 30
0.0
 11
84.73298957174192
 21
166.8032270347203
 31
0.0
  0
LINE
  5
162E
330
18
100
AcDbEntity
  8
1
  6
Continuous
100
AcDbLine
 10
83.62576123808088
 20
166.953227041871
 30
0.0
 11
83.62576123808088
 21
166.8032270347203
 31
0.0
  0
LINE
  5
1631
330
18
100
AcDbEntity
  8
1
  6
Continuous
100
AcDbLine
 10
82.56925625882578
 20
166.953227041871
 30
0.0
 11
82.56925625882578
 21
166.8032270347203
 31
0.0
  0
LINE
  5
1632
330
18
100
AcDbEntity
  8
1
  6
Continuous
100
AcDbLine
 10
82.54514399884049
 20
166.8032270347203
 30
0.0
 11
82.54514399884049
 21
166.5032268297364
 31
0.0
  0
LINE
  5
1637
330
18
100
AcDbEntity
  8
1
  6
Continuous
100
AcDbLine
 10
86.96452702083595
 20
166.9532270418698
 30
0.0
 11
86.96452702083595
 21
166.8032270347203
 31
0.0
  0
LINE
  5
1638
330
18
100
AcDbEntity
  8
1
  6
Continuous
100
AcDbLine
 10
88.99471225576261
 20
166.9532270418697
 30
0.0
 11
88.99471225576261
 21
166.8032270347203
 31
0.0
  0
LINE
  5
163A
330
18
100
AcDbEntity
  8
1
  6
Continuous
100
AcDbLine
 10
88.02103200009119
 20
166.9532270418698
 30
0.0
 11
88.02103200009119
 21
166.8032270347203
 31
0.0
  0
LINE
  5
163D
330
18
100
AcDbEntity
  8
1
  6
Continuous
100
AcDbLine
 10
89.85598300598807
 20
166.9532270418697
 30
0.0
 11
89.85598300598807
 21
166.8032270347203
 31
0.0
  0
LINE
  5
163F
330
18
100
AcDbEntity
  8
1
  6
Continuous
100
AcDbLine
 10
90.57867497484577
 20
166.9532270418701
 30
0.0
 11
90.57867497484577
 21
166.8032270347203
 31
0.0
  0
LINE
  5
1641
330
18
100
AcDbEntity
  8
1
  6
Continuous
100
AcDbLine
 10
88.04514426007644
 20
166.5032268297364
 30
0.0
 11
88.04514426007644
 21
166.8032270347203
 31
0.0
  0
LINE
  5
1642
330
18
100
AcDbEntity
  8
1
  6
Continuous
100
AcDbLine
 10
81.29514393946875
 20
166.5032268297362
 30
0.0
 11
89.29514431944825
 21
166.5032268297362
 31
0.0
  0
LINE
  5
1644
330
18
100
AcDbEntity
  8
1
  6
Continuous
100
AcDbLine
 10
86.04514416508161
 20
172.1532272888316
 30
0.0
 11
86.04514416508161
 21
169.9532271843373
 31
0.0
  0
LINE
  5
1645
330
18
100
AcDbEntity
  8
1
  6
Continuous
100
AcDbLine
 10
86.04514416508161
 20
169.9532271843373
 30
0.0
 11
84.54514409383545
 21
169.9532271843373
 31
0.0
  0
LINE
  5
1646
330
18
100
AcDbEntity
  8
1
  6
Continuous
100
AcDbLine
 10
84.54514409383545
 20
169.9532271843373
 30
0.0
 11
84.54514409383545
 21
172.1532272888316
 31
0.0
  0
ARC
  5
164A
330
18
100
AcDbEntity
  8
1
  6
Continuous
100
AcDbCircle
 10
86.34514417933084
 20
172.1532272888316
 30
0.0
 40
0.3000000142492389
100
AcDbArc
 50
90.00000000000083
 51
180.0
  0
ARC
  5
164B
330
18
100
AcDbEntity
  8
1
  6
Continuous
100
AcDbCircle
 10
84.2451440795862
 20
172.1532272888316
 30
0.0
 40
0.3000000142492318
100
AcDbArc
 50
0.0
 51
90.00000000000204
  0
LINE
  5
164F
330
18
100
AcDbEntity
  8
1
  6
Continuous
100
AcDbLine
 10
86.34514417933084
 20
172.4532273030809
 30
0.0
 11
90.320144391882
 21
172.4532273030809
 31
0.0
  0
LINE
  5
1654
330
18
100
AcDbEntity
  8
1
  6
Continuous
100
AcDbLine
 10
91.69514443344221
 20
152.9032261837708
 30
0.0
 11
91.69514443344221
 21
155.203226293015
 31
0.0
  0
LINE
  5
1655
330
18
100
AcDbEntity
  8
1
  6
Continuous
100
AcDbLine
 10
93.29514450943813
 20
148.503225974782
 30
0.0
 11
93.29514450943813
 21
152.9032261837708
 31
0.0
  0
LINE
  5
1656
330
18
100
AcDbEntity
  8
1
  6
Continuous
100
AcDbLine
 10
92.89514449043915
 20
156.7495258129313
 30
0.0
 11
92.89514449043915
 21
157.4033265787447
 31
0.0
  0
LINE
  5
1657
330
18
100
AcDbEntity
  8
1
  6
Continuous
100
AcDbLine
 10
90.82014439188199
 20
171.9532272824612
 30
0.0
 11
90.82014424754438
 21
168.4532271130911
 31
0.0
  0
LINE
  5
1658
330
18
100
AcDbEntity
  8
1
  6
Continuous
100
AcDbLine
 10
92.04514445006626
 20
167.9532270893423
 30
0.0
 11
91.43252192097415
 21
168.4533271130911
 31
0.0
  0
LINE
  5
1659
330
18
100
AcDbEntity
  8
1
  6
Continuous
100
AcDbLine
 10
92.04514445006632
 20
167.2532270560941
 30
0.0
 11
92.04514445006632
 21
167.9532270893423
 31
0.0
  0
LINE
  5
165C
330
18
100
AcDbEntity
  8
1
  6
Continuous
100
AcDbLine
 10
91.74514443581712
 20
166.9532270418449
 30
0.0
 11
78.84514382309996
 21
166.9532270418449
 31
0.0
  0
LINE
  5
165D
330
18
100
AcDbEntity
  8
1
  6
Continuous
100
AcDbLine
 10
91.14082953256261
 20
166.9532270418701
 30
0.0
 11
91.14082953256261
 21
166.8032270347203
 31
0.0
  0
LINE
  5
165E
330
18
100
AcDbEntity
  8
1
  6
Continuous
100
AcDbLine
 10
91.52536589736515
 20
166.9532270418695
 30
0.0
 11
91.52536589736515
 21
166.8032270347203
 31
0.0
  0
LINE
  5
165F
330
18
100
AcDbEntity
  8
1
  6
Continuous
100
AcDbLine
 10
91.74514432444508
 20
166.8032270347203
 30
0.0
 11
85.64376711700779
 21
166.8032270347203
 31
0.0
  0
LINE
  5
1662
330
18
100
AcDbEntity
  8
1
  6
Continuous
100
AcDbLine
 10
91.74514432444508
 20
166.8032270347203
 30
0.0
 11
91.74514432444508
 21
166.9532270418449
 31
0.0
  0
ARC
  5
1665
330
18
100
AcDbEntity
  8
1
  6
Continuous
100
AcDbCircle
 10
91.74514443581712
 20
167.2532270560941
 30
0.0
 40
0.3000000142492368
100
AcDbArc
 50
270.0
 51
359.9999999999971
  0
LINE
  5
1666
330
18
100
AcDbEntity
  8
1
  6
Continuous
100
AcDbLine
 10
199.9801690813844
 20
109.3286265490501
 30
0.0
 11
197.2176689501725
 21
104.5438359658758
 31
0.0
  0
LINE
  5
1669
330
18
100
AcDbEntity
  8
1
  6
Continuous
100
AcDbLine
 10
157.1461842827793
 20
111.2938364793817
 30
0.0
 11
156.4461842495311
 21
111.2938364793817
 31
0.0
  0
LINE
  5
166A
330
18
100
AcDbEntity
  8
1
  6
Continuous
100
AcDbLine
 10
142.0961833772078
 20
112.5438365387535
 30
0.0
 11
137.696183168219
 21
112.5438365387535
 31
0.0
  0
LINE
  5
166B
330
18
100
AcDbEntity
  8
1
  6
Continuous
100
AcDbLine
 10
137.696183168219
 20
108.043836325015
 30
0.0
 11
130.6961828357369
 21
108.043836325015
 31
0.0
  0
LINE
  5
166C
330
18
100
AcDbEntity
  8
1
  6
Continuous
100
AcDbLine
 10
130.6961828357369
 20
106.0438362300201
 30
0.0
 11
130.4961828262374
 21
106.0438362300201
 31
0.0
  0
LINE
  5
1671
330
18
100
AcDbEntity
  8
1
  6
Continuous
100
AcDbLine
 10
151.9961838474329
 20
109.4938363938863
 30
0.0
 11
145.9346845473828
 21
109.4938363938863
 31
0.0
  0
LINE
  5
1675
330
18
100
AcDbEntity
  8
1
  6
Continuous
100
AcDbLine
 10
155.6961840231732
 20
108.5438363487637
 30
0.0
 11
155.6961840231731
 21
100.5438359687842
 31
0.0
  0
LINE
  5
1676
330
18
100
AcDbEntity
  8
1
  6
Continuous
100
AcDbLine
 10
155.6961840231732
 20
107.4597409596368
 30
0.0
 11
151.9961838474325
 21
107.4597409596368
 31
0.0
  0
LINE
  5
1679
330
18
100
AcDbEntity
  8
1
  6
Continuous
100
AcDbLine
 10
156.1461842353065
 20
105.1059907164905
 30
0.0
 11
155.9961842281572
 21
105.1059907164905
 31
0.0
  0
LINE
  5
167A
330
18
100
AcDbEntity
  8
1
  6
Continuous
100
AcDbLine
 10
156.1461842352819
 20
105.579112388357
 30
0.0
 11
155.9961842281572
 21
105.579112388357
 31
0.0
  0
LINE
  5
167B
330
18
100
AcDbEntity
  8
1
  6
Continuous
100
AcDbLine
 10
155.9961842281572
 20
110.9692921557103
 30
0.0
 11
155.9961842281572
 21
105.5791123883571
 31
0.0
  0
LINE
  5
167C
330
18
100
AcDbEntity
  8
1
  6
Continuous
100
AcDbLine
 10
156.1461842353065
 20
106.2132190501514
 30
0.0
 11
155.9961842281572
 21
106.2132190501514
 31
0.0
  0
LINE
  5
167E
330
18
100
AcDbEntity
  8
1
  6
Continuous
100
AcDbLine
 10
156.146184235307
 20
107.2697240294066
 30
0.0
 11
155.9961842281572
 21
107.2697240294066
 31
0.0
  0
LINE
  5
167F
330
18
100
AcDbEntity
  8
1
  6
Continuous
100
AcDbLine
 10
155.9961842281572
 20
107.2938362893919
 30
0.0
 11
155.6961840231734
 21
107.2938362893919
 31
0.0
  0
LINE
  5
1680
330
18
100
AcDbEntity
  8
1
  6
Continuous
100
AcDbLine
 10
155.6961840231732
 20
108.5438363487637
 30
0.0
 11
151.9961838474327
 21
108.5438363487637
 31
0.0
  0
LINE
  5
1681
330
18
100
AcDbEntity
  8
1
  6
Continuous
100
AcDbLine
 10
151.9961838474329
 20
109.4938363938863
 30
0.0
 11
151.9961838474329
 21
108.5438363487637
 31
0.0
  0
LINE
  5
1686
330
18
100
AcDbEntity
  8
1
  6
Continuous
100
AcDbLine
 10
156.146184235307
 20
108.243404285078
 30
0.0
 11
155.9961842281572
 21
108.243404285078
 31
0.0
  0
LINE
  5
1688
330
18
100
AcDbEntity
  8
1
  6
Continuous
100
AcDbLine
 10
156.1461842353065
 20
109.1046750353035
 30
0.0
 11
155.9961842281572
 21
109.1046750353035
 31
0.0
  0
LINE
  5
1689
330
18
100
AcDbEntity
  8
1
  6
Continuous
100
AcDbLine
 10
156.1461842353065
 20
109.8273670041612
 30
0.0
 11
155.9961842281572
 21
109.8273670041612
 31
0.0
  0
LINE
  5
168B
330
18
100
AcDbEntity
  8
1
  6
Continuous
100
AcDbLine
 10
156.1461842353068
 20
110.389521561878
 30
0.0
 11
155.9961842281572
 21
110.389521561878
 31
0.0
  0
LINE
  5
168E
330
18
100
AcDbEntity
  8
1
  6
Continuous
100
AcDbLine
 10
156.1461842353068
 20
110.7740579266806
 30
0.0
 11
155.9961842281572
 21
110.7740579266806
 31
0.0
  0
LINE
  5
168F
330
18
100
AcDbEntity
  8
1
  6
Continuous
100
AcDbLine
 10
144.3961836676874
 20
110.9438364627576
 30
0.0
 11
142.0961833772078
 21
110.9438364627576
 31
0.0
  0
LINE
  5
1690
330
18
100
AcDbEntity
  8
1
  6
Continuous
100
AcDbLine
 10
144.9962931694812
 20
112.1438365197546
 30
0.0
 11
144.3961836676874
 21
112.1438365197546
 31
0.0
  0
LINE
  5
1694
330
18
100
AcDbEntity
  8
1
  6
Continuous
100
AcDbLine
 10
156.1461842353312
 20
110.9692921557103
 30
0.0
 11
155.9961842281572
 21
110.9692921557103
 31
0.0
  0
ARC
  5
1695
330
18
100
AcDbEntity
  8
1
  6
Continuous
100
AcDbCircle
 10
156.4461842495311
 20
110.9938364651325
 30
0.0
 40
0.3000000142492368
100
AcDbArc
 50
90.00000000000284
 51
180.0
  0
LINE
  5
1696
330
18
100
AcDbEntity
  8
1
  6
Continuous
100
AcDbLine
 10
157.646184306528
 20
110.6813364502896
 30
0.0
 11
157.1461842827793
 21
111.2938364793817
 31
0.0
  0
LINE
  5
1698
330
18
100
AcDbEntity
  8
1
  6
Continuous
100
AcDbLine
 10
161.6461844965179
 20
108.8286267419483
 30
0.0
 11
161.6461844965177
 21
100.2590455993483
 31
0.0
  0
LINE
  5
16A0
330
18
100
AcDbEntity
  8
1
  6
Continuous
100
AcDbLine
 10
161.1461844965179
 20
109.3286267419483
 30
0.0
 11
157.646184306528
 21
109.3286267419483
 31
0.0
  0
LINE
  5
16A5
330
18
100
AcDbEntity
  8
1
  6
Continuous
100
AcDbLine
 10
208.26766947502
 20
104.5438359658757
 30
0.0
 11
205.5051693438083
 21
109.3286265490499
 31
0.0
  0
ARC
  5
16AD
330
18
100
AcDbEntity
  8
1
  6
Continuous
100
AcDbCircle
 10
201.4926691532246
 20
105.543836013373
 30
0.0
 40
0.5000000237487252
100
AcDbArc
 50
269.9999999668839
 51
0.0
  0
LINE
  5
16B2
330
18
100
AcDbEntity
  8
1
  6
Continuous
100
AcDbLine
 10
200.7926691199764
 20
105.0438359896243
 30
0.0
 11
201.9426691745985
 21
105.0438359896243
 31
0.0
  0
LINE
  5
16B3
330
18
100
AcDbEntity
  8
1
  6
Continuous
100
AcDbLine
 10
200.4926691057272
 20
104.3438359563761
 30
0.0
 11
200.4926691057272
 21
104.7438359754083
 31
0.0
  0
ARC
  5
16B4
330
18
100
AcDbEntity
  8
1
  6
Continuous
100
AcDbCircle
 10
200.7926691199764
 20
104.7438359753751
 30
0.0
 40
0.3000000142492357
100
AcDbArc
 50
90.0000000000004
 51
179.9999999936425
  0
LINE
  5
16B6
330
18
100
AcDbEntity
  8
1
  6
Continuous
100
AcDbLine
 10
203.5426692505944
 20
105.0438359896243
 30
0.0
 11
204.6926693052308
 21
105.0438359896243
 31
0.0
  0
LINE
  5
16B7
330
18
100
AcDbEntity
  8
1
  6
Continuous
100
AcDbLine
 10
204.9926693194657
 20
104.7438359753751
 30
0.0
 11
204.9926693194657
 21
104.3438359563617
 31
0.0
  0
LINE
  5
16B8
330
18
100
AcDbEntity
  8
1
  6
Continuous
100
AcDbLine
 10
203.2426692363451
 20
105.3438360038736
 30
0.0
 11
203.2426692363451
 21
106.4938360584956
 31
0.0
  0
LINE
  5
16B9
330
18
100
AcDbEntity
  8
1
  6
Continuous
100
AcDbLine
 10
202.9426692220959
 20
106.7938360727449
 30
0.0
 11
202.5426692030969
 21
106.7938360727449
 31
0.0
  0
LINE
  5
16BA
330
18
100
AcDbEntity
  8
1
  6
Continuous
100
AcDbLine
 10
202.2426691888477
 20
106.4938360584956
 30
0.0
 11
202.2426691888477
 21
105.3438360038736
 31
0.0
  0
ARC
  5
16BD
330
18
100
AcDbEntity
  8
1
  6
Continuous
100
AcDbCircle
 10
204.6926693052165
 20
104.7438359753751
 30
0.0
 40
0.3000000142492343
100
AcDbArc
 50
0.0
 51
89.99999999726339
  0
ARC
  5
16BE
330
18
100
AcDbEntity
  8
1
  6
Continuous
100
AcDbCircle
 10
203.9926692719682
 20
105.543836013373
 30
0.0
 40
0.5000000237487267
100
AcDbArc
 50
180.0
 51
269.9999999999983
  0
ARC
  5
16BF
330
18
100
AcDbEntity
  8
1
  6
Continuous
100
AcDbCircle
 10
203.5426692505944
 20
105.3438360038736
 30
0.0
 40
0.3000000142492361
100
AcDbArc
 50
180.0
 51
270.0
  0
ARC
  5
16C0
330
18
100
AcDbEntity
  8
1
  6
Continuous
100
AcDbCircle
 10
202.9426692220959
 20
106.4938360584956
 30
0.0
 40
0.3000000142492393
100
AcDbArc
 50
0.0000000000004071
 51
89.99999999999877
  0
ARC
  5
16C1
330
18
100
AcDbEntity
  8
1
  6
Continuous
100
AcDbCircle
 10
202.5426692030969
 20
106.4938360584956
 30
0.0
 40
0.3000000142492357
100
AcDbArc
 50
90.0000000000004
 51
179.9999999999996
  0
ARC
  5
16C2
330
18
100
AcDbEntity
  8
1
  6
Continuous
100
AcDbCircle
 10
201.9426691745985
 20
105.3438360038736
 30
0.0
 40
0.3000000142492361
100
AcDbArc
 50
270.0
 51
0.0
  0
ARC
  5
16C4
330
18
100
AcDbEntity
  8
1
  6
Continuous
100
AcDbCircle
 10
201.6926691627241
 20
108.713668294846
 30
0.0
 40
0.3000000142492326
100
AcDbArc
 50
284.1337367207017
 51
356.3242459362284
  0
ARC
  5
16C5
330
18
100
AcDbEntity
  8
1
  6
Continuous
100
AcDbCircle
 10
201.6926691627241
 20
109.0286265348007
 30
0.0
 40
0.3000000142492345
100
AcDbArc
 50
359.9999999999992
 51
90.0000000000004
  0
LINE
  5
16C6
330
18
100
AcDbEntity
  8
1
  6
Continuous
100
AcDbLine
 10
205.5051693438083
 20
109.3286265490499
 30
0.0
 11
199.9801690813847
 21
109.3286265490499
 31
0.0
  0
ARC
  5
16D0
330
18
100
AcDbEntity
  8
1
  6
Continuous
100
AcDbCircle
 10
203.7926692624687
 20
108.713668294846
 30
0.0
 40
0.3000000142492341
100
AcDbArc
 50
183.6984732087899
 51
255.8662632792982
  0
ARC
  5
16D2
330
18
100
AcDbEntity
  8
1
  6
Continuous
100
AcDbCircle
 10
203.7926692624687
 20
109.0286265348007
 30
0.0
 40
0.3000000142492354
100
AcDbArc
 50
90.00000000000284
 51
180.0000291839844
  0
ARC
  5
16E0
330
18
100
AcDbEntity
  8
1
  6
Continuous
100
AcDbCircle
 10
14.94970337158696
 20
100.2590457565325
 30
0.0
 40
0.5000000237487347
100
AcDbArc
 50
179.9999918148889
 51
269.9999918148868
  0
LINE
  5
16E1
330
18
100
AcDbEntity
  8
4
  6
CENTER
 48
0.2
100
AcDbLine
 10
11.4497042660077
 20
104.5438363676805
 30
0.0
 11
48.59970563023171
 21
104.5438361694461
 31
0.0
  0
LINE
  5
16E2
330
18
100
AcDbEntity
  8
4
  6
CENTER
 48
0.2
100
AcDbLine
 10
85.29514431104644
 20
93.5438357787944
 30
0.0
 11
85.29514431104644
 21
115.5438365387535
 31
0.0
  0
LINE
  5
16E3
330
18
100
AcDbEntity
  8
4
  6
CENTER
 48
0.2
100
AcDbLine
 10
74.29514393106683
 20
104.543836158774
 30
0.0
 11
96.29514469102606
 21
104.543836158774
 31
0.0
  0
LINE
  5
16E4
330
18
100
AcDbEntity
  8
4
  6
CENTER
 48
0.2
100
AcDbLine
 10
127.4961831322939
 20
104.5438361747822
 30
0.0
 11
164.6461844965179
 21
104.5438359765477
 31
0.0
  0
ARC
  5
16E5
330
18
100
AcDbEntity
  8
1
  6
Continuous
100
AcDbCircle
 10
161.1461844965179
 20
108.8286267419483
 30
0.0
 40
0.5
100
AcDbArc
 50
0.0
 51
90.0
  0
ARC
  5
16E7
330
18
100
AcDbEntity
  8
1
  6
Continuous
100
AcDbCircle
 10
125.8263769898499
 20
104.5438358334754
 30
0.0
 40
19.25035013837722
100
AcDbArc
 50
344.719623278403
 51
15.28037672159708
  0
ARC
  5
16E8
330
18
100
AcDbEntity
  8
1
  6
Continuous
100
AcDbCircle
 10
126.4924830162443
 20
104.5438363096396
 30
0.0
 40
19.44999999012394
100
AcDbArc
 50
336.9991174482521
 51
23.00089518095496
  0
ARC
  5
16E9
330
18
100
AcDbEntity
  8
1
  6
Continuous
100
AcDbCircle
 10
127.7450025333887
 20
104.5438361587751
 30
0.0
 40
18.85118123879303
100
AcDbArc
 50
336.2242644928621
 51
23.7757355071302
  0
LINE
  5
16EE
330
18
100
AcDbEntity
  8
1
  6
Continuous
100
AcDbLine
 10
157.646184306528
 20
104.5438364087739
 30
0.0
 11
161.6461844965178
 21
104.5438359925559
 31
0.0
  0
ARC
  5
16F2
330
18
100
AcDbEntity
  8
1
  6
Continuous
100
AcDbCircle
 10
80.27014386703504
 20
171.9532273030809
 30
0.0
 40
0.5
100
AcDbArc
 50
90.0
 51
180.0000023628386
  0
ARC
  5
16F3
330
18
100
AcDbEntity
  8
1
  6
Continuous
100
AcDbCircle
 10
90.320144391882
 20
171.9532273030809
 30
0.0
 40
0.5
100
AcDbArc
 50
359.9999976371614
 51
90.0
  0
ARC
  5
16F4
330
18
100
AcDbEntity
  8
1
  6
Continuous
100
AcDbCircle
 10
83.05571713386282
 20
171.984564212844
 30
0.0
 40
0.5240109813784049
100
AcDbArc
 50
116.5715490530836
 51
183.4284509503754
  0
LINE
  5
16F9
330
18
100
AcDbEntity
  8
4
  6
CENTER
 48
0.2
100
AcDbLine
 10
85.29514431104644
 20
138.3032256328004
 30
0.0
 11
85.29514431104644
 21
175.3801338271156
 31
0.0
  0
ARC
  5
16FA
330
18
100
AcDbEntity
  8
1
  6
Continuous
100
AcDbCircle
 10
87.53457148823008
 20
171.984564212844
 30
0.0
 40
0.5240109813784049
100
AcDbArc
 50
356.5715490496245
 51
63.42845094691639
  0
LINE
  5
1706
330
18
100
AcDbEntity
  8
4
  6
CENTER
 48
0.2
100
AcDbLine
 10
191.7426688326168
 20
104.5438359658756
 30
0.0
 11
213.742669592576
 21
104.5438359658756
 31
0.0
  0
LINE
  5
1707
330
18
100
AcDbEntity
  8
4
  6
CENTER
 48
0.2
100
AcDbLine
 10
202.7426692125964
 20
93.54383558589605
 30
0.0
 11
202.7426692125964
 21
115.5438363458552
 31
0.0
  0
CIRCLE
  5
1714
330
18
100
AcDbEntity
  8
1
  6
Continuous
100
AcDbCircle
 10
202.7426692125964
 20
104.5438359658756
 30
0.0
 40
8.000000379979637
  0
CIRCLE
  5
1733
330
18
100
AcDbEntity
  8
1
  6
Continuous
100
AcDbCircle
 10
202.7426692125973
 20
104.5438359658756
 30
0.0
 40
7.599999999999998
  0
CIRCLE
  5
1734
330
18
100
AcDbEntity
  8
1
  6
Continuous
100
AcDbCircle
 10
202.7426692125965
 20
104.5438359658759
 30
0.0
 40
6.75
  0
CIRCLE
  5
1735
330
18
100
AcDbEntity
  8
1
  6
Continuous
100
AcDbCircle
 10
202.7426692125973
 20
104.5438359658756
 30
0.0
 40
6.1375
  0
LINE
  5
1799
330
18
100
AcDbEntity
  8
1
  6
Continuous
100
AcDbLine
 10
91.74514443581712
 20
42.13444527570305
 30
0.0
 11
78.84514382309996
 21
42.13444527570305
 31
0.0
  0
LINE
  5
179A
330
18
100
AcDbEntity
  8
1
  6
Continuous
100
AcDbLine
 10
91.74514432444508
 20
42.2844452828277
 30
0.0
 11
85.64376711700779
 21
42.2844452828277
 31
0.0
  0
LINE
  5
179B
330
18
100
AcDbEntity
  8
1
  6
Continuous
100
AcDbLine
 10
89.29514431944831
 20
42.58444548781177
 30
0.0
 11
81.29514393946875
 21
42.58444548781182
 31
0.0
  0
LINE
  5
179C
330
18
100
AcDbEntity
  8
1
  6
Continuous
100
AcDbLine
 10
82.37923932859567
 20
46.2844456635521
 30
0.0
 11
88.21104893032131
 21
46.2844456635521
 31
0.0
  0
LINE
  5
179D
330
18
100
AcDbEntity
  8
1
  6
Continuous
100
AcDbLine
 10
93.29514450943813
 20
60.58444634276594
 30
0.0
 11
77.29514374947889
 21
60.58444634276597
 31
0.0
  0
ARC
  5
179F
330
18
100
AcDbEntity
  8
1
  6
Continuous
100
AcDbCircle
 10
85.2951441294585
 20
34.4344380087427
 30
0.0
 40
19.45000728514348
100
AcDbArc
 50
66.99911333330565
 51
113.0008866666943
  0
ARC
  5
17A0
330
18
100
AcDbEntity
  8
1
  6
Continuous
100
AcDbCircle
 10
85.2951441294585
 20
34.43443342539434
 30
0.0
 40
18.85001141378072
100
AcDbArc
 50
66.22269800673457
 51
113.7773019932654
  0
LINE
  5
17A1
330
18
100
AcDbEntity
  8
1
  6
Continuous
100
AcDbLine
 10
91.43264442097418
 20
40.63444520445691
 30
0.0
 11
79.15764383794289
 21
40.63444520445691
 31
0.0
  0
LINE
  5
17A2
330
18
100
AcDbEntity
  8
1
  6
Continuous
100
AcDbLine
 10
92.04514445006632
 20
41.13444522820565
 30
0.0
 11
78.5451438088507
 21
41.13444522820565
 31
0.0
  0
LINE
  5
17A3
330
18
100
AcDbEntity
  8
1
  6
Continuous
100
AcDbLine
 10
87.79514424820215
 20
67.78444668474759
 30
0.0
 11
82.79514437389073
 21
67.78444668474759
 31
0.0
  0
LINE
  5
17A4
330
18
100
AcDbEntity
  8
1
  6
Continuous
100
AcDbLine
 10
88.7951442956996
 20
67.5844466752481
 30
0.0
 11
81.79514396321744
 21
67.5844466752481
 31
0.0
  0
LINE
  5
17A5
330
18
100
AcDbEntity
  8
1
  6
Continuous
100
AcDbLine
 10
86.34514417933084
 20
36.6344450144671
 30
0.0
 11
90.320144391882
 21
36.6344450144671
 31
0.0
  0
LINE
  5
17A6
330
18
100
AcDbEntity
  8
4
  6
CENTER
 48
0.2
100
AcDbLine
 10
85.29514431104644
 20
70.78444668474759
 30
0.0
 11
85.29514431104644
 21
33.70753849043222
 31
0.0
  0
LINE
  5
17A7
330
18
100
AcDbEntity
  8
1
  6
Continuous
100
AcDbLine
 10
81.79514396321744
 20
60.58444634276594
 30
0.0
 11
81.79514396321744
 21
67.5844466752481
 31
0.0
  0
LINE
  5
17A8
330
18
100
AcDbEntity
  8
1
  6
Continuous
100
AcDbLine
 10
82.79514401071486
 20
67.5844466752481
 30
0.0
 11
82.79514401071486
 21
67.78444668474759
 31
0.0
  0
LINE
  5
17A9
330
18
100
AcDbEntity
  8
1
  6
Continuous
100
AcDbLine
 10
81.29514393946875
 20
42.58444548781182
 30
0.0
 11
81.29514393946875
 21
46.28444566355227
 31
0.0
  0
LINE
  5
17AA
330
18
100
AcDbEntity
  8
1
  6
Continuous
100
AcDbLine
 10
82.37923932859567
 20
42.58444548781182
 30
0.0
 11
82.37923932859567
 21
46.28444566355224
 31
0.0
  0
LINE
  5
17AB
330
18
100
AcDbEntity
  8
1
  6
Continuous
100
AcDbLine
 10
93.29514450943813
 20
56.18444613377715
 30
0.0
 11
77.29514374947889
 21
56.18444613377715
 31
0.0
  0
LINE
  5
17AC
330
18
100
AcDbEntity
  8
1
  6
Continuous
100
AcDbLine
 10
77.29514374947889
 20
56.18444613377715
 30
0.0
 11
77.29514374947889
 21
60.58444634276597
 31
0.0
  0
LINE
  5
17AD
330
18
100
AcDbEntity
  8
1
  6
Continuous
100
AcDbLine
 10
80.34514389434612
 20
53.24401751133983
 30
0.0
 11
80.34514389434614
 21
53.88444602453304
 31
0.0
  0
LINE
  5
17AF
330
18
100
AcDbEntity
  8
1
  6
Continuous
100
AcDbLine
 10
78.89514382547481
 20
53.88444602453295
 30
0.0
 11
78.89514382547481
 21
56.18444613377715
 31
0.0
  0
LINE
  5
17B0
330
18
100
AcDbEntity
  8
1
  6
Continuous
100
AcDbLine
 10
77.69514376847789
 20
51.68434573880322
 30
0.0
 11
77.69514376847789
 21
52.33814650461663
 31
0.0
  0
LINE
  5
17B1
330
18
100
AcDbEntity
  8
1
  6
Continuous
100
AcDbLine
 10
80.34514389434614
 20
46.28444566355244
 30
0.0
 11
81.29514393946875
 21
46.28444566355244
 31
0.0
  0
LINE
  5
17B2
330
18
100
AcDbEntity
  8
1
  6
Continuous
100
AcDbLine
 10
80.34514389434614
 20
46.28444566355244
 30
0.0
 11
80.34514389434614
 21
52.62290306888143
 31
0.0
  0
LINE
  5
17B3
330
18
100
AcDbEntity
  8
1
  6
Continuous
100
AcDbLine
 10
78.84514393447196
 20
42.2844452828277
 30
0.0
 11
84.94652114190925
 21
42.2844452828277
 31
0.0
  0
LINE
  5
17B4
330
18
100
AcDbEntity
  8
1
  6
Continuous
100
AcDbLine
 10
79.15776633794289
 20
40.6343452044569
 30
0.0
 11
78.54514380885072
 21
41.13444522820565
 31
0.0
  0
ARC
  5
17B6
330
18
100
AcDbEntity
  8
1
  6
Continuous
100
AcDbCircle
 10
78.84514382309996
 20
41.83444526145385
 30
0.0
 40
0.3000000142492368
100
AcDbArc
 50
90.00000000000005
 51
179.9999999999971
  0
LINE
  5
17B7
330
18
100
AcDbEntity
  8
1
  6
Continuous
100
AcDbLine
 10
78.84514393447195
 20
42.13444527570305
 30
0.0
 11
78.84514393447196
 21
42.2844452828277
 31
0.0
  0
LINE
  5
17B8
330
18
100
AcDbEntity
  8
1
  6
Continuous
100
AcDbLine
 10
78.54514380885072
 20
41.13444522820565
 30
0.0
 11
78.54514380885072
 21
41.83444526145385
 31
0.0
  0
LINE
  5
17BC
330
18
100
AcDbEntity
  8
1
  6
Continuous
100
AcDbLine
 10
85.64376711700779
 20
42.13444527570309
 30
0.0
 11
85.64376711700779
 21
42.2844452828277
 31
0.0
  0
LINE
  5
17BD
330
18
100
AcDbEntity
  8
1
  6
Continuous
100
AcDbLine
 10
80.73430525292932
 20
42.1344452756785
 30
0.0
 11
80.73430525292932
 21
42.2844452828277
 31
0.0
  0
LINE
  5
17BE
330
18
100
AcDbEntity
  8
1
  6
Continuous
100
AcDbLine
 10
81.59557600315455
 20
42.13444527567847
 30
0.0
 11
81.59557600315455
 21
42.2844452828277
 31
0.0
  0
LINE
  5
17BF
330
18
100
AcDbEntity
  8
1
  6
Continuous
100
AcDbLine
 10
79.77014386703505
 20
37.13444503508678
 30
0.0
 11
79.77014401137265
 21
40.63444520445691
 31
0.0
  0
ARC
  5
17C1
330
18
100
AcDbEntity
  8
1
  6
Continuous
100
AcDbCircle
 10
83.05571713386282
 20
37.10310810470398
 30
0.0
 40
0.5240109813784049
100
AcDbArc
 50
176.5715490496245
 51
243.4284509469163
  0
ARC
  5
17C2
330
18
100
AcDbEntity
  8
1
  6
Continuous
100
AcDbCircle
 10
80.27014386703504
 20
37.13444501446711
 30
0.0
 40
0.5
100
AcDbArc
 50
179.9999976371613
 51
270.0
  0
ARC
  5
17C3
330
18
100
AcDbEntity
  8
1
  6
Continuous
100
AcDbCircle
 10
84.2451440795862
 20
36.93444502871635
 30
0.0
 40
0.3000000142492318
100
AcDbArc
 50
269.9999999999979
 51
0.0
  0
ARC
  5
17C4
330
18
100
AcDbEntity
  8
1
  6
Continuous
100
AcDbCircle
 10
86.34514417933084
 20
36.93444502871635
 30
0.0
 40
0.3000000142492389
100
AcDbArc
 50
180.0
 51
269.9999999999992
  0
LINE
  5
17C7
330
18
100
AcDbEntity
  8
1
  6
Continuous
100
AcDbLine
 10
84.54514409383545
 20
39.13444513321073
 30
0.0
 11
84.54514409383545
 21
36.93444502871635
 31
0.0
  0
LINE
  5
17C8
330
18
100
AcDbEntity
  8
1
  6
Continuous
100
AcDbLine
 10
86.04514416508161
 20
39.13444513321073
 30
0.0
 11
84.54514409383545
 21
39.13444513321073
 31
0.0
  0
LINE
  5
17C9
330
18
100
AcDbEntity
  8
1
  6
Continuous
100
AcDbLine
 10
86.04514416508161
 20
36.93444502871635
 30
0.0
 11
86.04514416508161
 21
39.13444513321073
 31
0.0
  0
LINE
  5
17CA
330
18
100
AcDbEntity
  8
1
  6
Continuous
100
AcDbLine
 10
82.54514399884049
 20
42.2844452828277
 30
0.0
 11
82.54514399884049
 21
42.58444548781152
 31
0.0
  0
LINE
  5
17CB
330
18
100
AcDbEntity
  8
1
  6
Continuous
100
AcDbLine
 10
82.56925625882578
 20
42.13444527567702
 30
0.0
 11
82.56925625882578
 21
42.2844452828277
 31
0.0
  0
LINE
  5
17CD
330
18
100
AcDbEntity
  8
1
  6
Continuous
100
AcDbLine
 10
83.62576123808088
 20
42.13444527567702
 30
0.0
 11
83.62576123808088
 21
42.2844452828277
 31
0.0
  0
LINE
  5
17CE
330
18
100
AcDbEntity
  8
1
  6
Continuous
100
AcDbLine
 10
84.73298957174192
 20
42.134445275703
 30
0.0
 11
84.73298957174192
 21
42.2844452828277
 31
0.0
  0
LINE
  5
17CF
330
18
100
AcDbEntity
  8
1
  6
Continuous
100
AcDbLine
 10
84.94652114190925
 20
42.13444527570309
 30
0.0
 11
84.94652114190925
 21
42.2844452828277
 31
0.0
  0
LINE
  5
17D0
330
18
100
AcDbEntity
  8
1
  6
Continuous
100
AcDbLine
 10
85.85729868717505
 20
42.13444527570287
 30
0.0
 11
85.85729868717505
 21
42.2844452828277
 31
0.0
  0
LINE
  5
17D1
330
18
100
AcDbEntity
  8
1
  6
Continuous
100
AcDbLine
 10
82.53264399824681
 20
37.13444503821583
 30
0.0
 11
82.53264399824681
 21
40.63444520445691
 31
0.0
  0
LINE
  5
17D2
330
18
100
AcDbEntity
  8
1
  6
Continuous
100
AcDbLine
 10
80.27014386703504
 20
36.6344450144671
 30
0.0
 11
84.2451440795862
 21
36.6344450144671
 31
0.0
  0
LINE
  5
17D4
330
18
100
AcDbEntity
  8
1
  6
Continuous
100
AcDbLine
 10
79.44945872635419
 20
42.13444527567839
 30
0.0
 11
79.44945872635419
 21
42.2844452828277
 31
0.0
  0
LINE
  5
17D5
330
18
100
AcDbEntity
  8
1
  6
Continuous
100
AcDbLine
 10
79.06492236155148
 20
42.1344452756761
 30
0.0
 11
79.06492236155148
 21
42.2844452828277
 31
0.0
  0
LINE
  5
17D6
330
18
100
AcDbEntity
  8
1
  6
Continuous
100
AcDbLine
 10
80.01161328407105
 20
42.13444527567839
 30
0.0
 11
80.01161328407105
 21
42.2844452828277
 31
0.0
  0
LINE
  5
17D7
330
18
100
AcDbEntity
  8
1
  6
Continuous
100
AcDbLine
 10
88.7951442956996
 20
60.58444634276594
 30
0.0
 11
88.7951442956996
 21
67.5844466752481
 31
0.0
  0
LINE
  5
17D8
330
18
100
AcDbEntity
  8
1
  6
Continuous
100
AcDbLine
 10
87.79514424820215
 20
67.5844466752481
 30
0.0
 11
87.79514424820215
 21
67.78444668474759
 31
0.0
  0
LINE
  5
17D9
330
18
100
AcDbEntity
  8
1
  6
Continuous
100
AcDbLine
 10
89.29514431944831
 20
42.58444548781179
 30
0.0
 11
89.29514431944831
 21
46.28444566355239
 31
0.0
  0
LINE
  5
17DA
330
18
100
AcDbEntity
  8
1
  6
Continuous
100
AcDbLine
 10
88.21104893032137
 20
42.58444548781179
 30
0.0
 11
88.21104893032137
 21
46.28444566355224
 31
0.0
  0
LINE
  5
17DB
330
18
100
AcDbEntity
  8
1
  6
Continuous
100
AcDbLine
 10
90.2451443645709
 20
53.88444602453304
 30
0.0
 11
90.24514436457092
 21
53.24401751133983
 31
0.0
  0
LINE
  5
17DC
330
18
100
AcDbEntity
  8
1
  6
Continuous
100
AcDbLine
 10
78.89514382547481
 20
53.88444602453297
 30
0.0
 11
91.69514443344221
 21
53.88444602453295
 31
0.0
  0
LINE
  5
17DD
330
18
100
AcDbEntity
  8
1
  6
Continuous
100
AcDbLine
 10
93.29514450943813
 20
60.58444634276594
 30
0.0
 11
93.29514450943813
 21
56.18444613377715
 31
0.0
  0
LINE
  5
17DE
330
18
100
AcDbEntity
  8
1
  6
Continuous
100
AcDbLine
 10
91.69514443344221
 20
56.18444613377715
 30
0.0
 11
91.69514443344221
 21
53.88444602453295
 31
0.0
  0
LINE
  5
17DF
330
18
100
AcDbEntity
  8
1
  6
Continuous
100
AcDbLine
 10
89.29514431944825
 20
46.28444566355227
 30
0.0
 11
90.2451443645709
 21
46.28444566355227
 31
0.0
  0
LINE
  5
17E0
330
18
100
AcDbEntity
  8
1
  6
Continuous
100
AcDbLine
 10
90.24514436457087
 20
52.62290306888143
 30
0.0
 11
90.2451443645709
 21
46.28444566355227
 31
0.0
  0
LINE
  5
17E1
330
18
100
AcDbEntity
  8
1
  6
Continuous
100
AcDbLine
 10
92.89514449043915
 20
52.33814650461663
 30
0.0
 11
92.89514449043915
 21
51.68434573880322
 31
0.0
  0
ARC
  5
17E2
330
18
100
AcDbEntity
  8
1
  6
Continuous
100
AcDbCircle
 10
91.74514443581712
 20
41.83444526145385
 30
0.0
 40
0.3000000142492368
100
AcDbArc
 50
0.0000000000028638
 51
90.00000000000005
  0
LINE
  5
17E3
330
18
100
AcDbEntity
  8
1
  6
Continuous
100
AcDbLine
 10
91.74514432444508
 20
42.2844452828277
 30
0.0
 11
91.74514432444508
 21
42.13444527570305
 31
0.0
  0
ARC
  5
17E4
330
18
100
AcDbEntity
  8
1
  6
Continuous
100
AcDbCircle
 10
87.53457148823008
 20
37.10310810470398
 30
0.0
 40
0.5240109813784049
100
AcDbArc
 50
296.5715490530835
 51
3.428450950375418
  0
ARC
  5
17E5
330
18
100
AcDbEntity
  8
1
  6
Continuous
100
AcDbCircle
 10
90.320144391882
 20
37.13444501446711
 30
0.0
 40
0.5
100
AcDbArc
 50
270.0
 51
0.0000023628386669
  0
LINE
  5
17E7
330
18
100
AcDbEntity
  8
1
  6
Continuous
100
AcDbLine
 10
91.52536589736515
 20
42.13444527567843
 30
0.0
 11
91.52536589736515
 21
42.2844452828277
 31
0.0
  0
LINE
  5
17E8
330
18
100
AcDbEntity
  8
1
  6
Continuous
100
AcDbLine
 10
91.14082953256261
 20
42.13444527567792
 30
0.0
 11
91.14082953256261
 21
42.2844452828277
 31
0.0
  0
LINE
  5
17E9
330
18
100
AcDbEntity
  8
1
  6
Continuous
100
AcDbLine
 10
92.04514445006632
 20
41.83444526145385
 30
0.0
 11
92.04514445006632
 21
41.13444522820565
 31
0.0
  0
LINE
  5
17EA
330
18
100
AcDbEntity
  8
1
  6
Continuous
100
AcDbLine
 10
92.04514445006626
 20
41.13444522820565
 30
0.0
 11
91.43252192097415
 21
40.6343452044569
 31
0.0
  0
LINE
  5
17EB
330
18
100
AcDbEntity
  8
1
  6
Continuous
100
AcDbLine
 10
90.82014439188199
 20
37.13444503508678
 30
0.0
 11
90.82014424754438
 21
40.63444520445691
 31
0.0
  0
LINE
  5
17EE
330
18
100
AcDbEntity
  8
1
  6
Continuous
100
AcDbLine
 10
88.04514426007644
 20
42.58444548781156
 30
0.0
 11
88.04514426007644
 21
42.2844452828277
 31
0.0
  0
LINE
  5
17EF
330
18
100
AcDbEntity
  8
1
  6
Continuous
100
AcDbLine
 10
90.57867497484577
 20
42.13444527567792
 30
0.0
 11
90.57867497484577
 21
42.2844452828277
 31
0.0
  0
LINE
  5
17F0
330
18
100
AcDbEntity
  8
1
  6
Continuous
100
AcDbLine
 10
89.85598300598807
 20
42.13444527567829
 30
0.0
 11
89.85598300598807
 21
42.2844452828277
 31
0.0
  0
LINE
  5
17F2
330
18
100
AcDbEntity
  8
1
  6
Continuous
100
AcDbLine
 10
88.02103200009119
 20
42.13444527567818
 30
0.0
 11
88.02103200009119
 21
42.2844452828277
 31
0.0
  0
LINE
  5
17F3
330
18
100
AcDbEntity
  8
1
  6
Continuous
100
AcDbLine
 10
88.99471225576261
 20
42.13444527567829
 30
0.0
 11
88.99471225576261
 21
42.2844452828277
 31
0.0
  0
LINE
  5
17F4
330
18
100
AcDbEntity
  8
1
  6
Continuous
100
AcDbLine
 10
86.96452702083595
 20
42.13444527567822
 30
0.0
 11
86.96452702083595
 21
42.2844452828277
 31
0.0
  0
LINE
  5
17F5
330
18
100
AcDbEntity
  8
1
  6
Continuous
100
AcDbLine
 10
88.05764426067019
 20
37.13444503821583
 30
0.0
 11
88.05764426067019
 21
40.63444520445691
 31
0.0
  0
LINE
  5
180A
330
18
100
AcDbEntity
  8
1
  6
Continuous
100
AcDbLine
 10
31.69970478878173
 20
112.1438366769387
 30
0.0
 11
31.69970478878173
 21
96.94383595497749
 31
0.0
  0
ARC
  5
180B
330
18
100
AcDbEntity
  8
1
  6
Continuous
100
AcDbCircle
 10
50.26951146661915
 20
104.5438359906595
 30
0.0
 40
19.25035013837722
100
AcDbArc
 50
164.7196232784029
 51
195.280376721597
  0
ARC
  5
180C
330
18
100
AcDbEntity
  8
1
  6
Continuous
100
AcDbCircle
 10
49.60340544022476
 20
104.5438364668237
 30
0.0
 40
19.44999999012394
100
AcDbArc
 50
156.999104819045
 51
203.0008825517478
  0
ARC
  5
180D
330
18
100
AcDbEntity
  8
1
  6
Continuous
100
AcDbCircle
 10
48.35088592308043
 20
104.5438363159592
 30
0.0
 40
18.85118123879303
100
AcDbArc
 50
156.2242644928697
 51
203.7757355071379
  0
LINE
  5
1810
330
18
100
AcDbEntity
  8
1
  6
Continuous
100
AcDbLine
 10
31.69970478878173
 20
96.94383595497749
 30
0.0
 11
31.09959528698891
 21
96.94383595497749
 31
0.0
  0
LINE
  5
1814
330
18
100
AcDbEntity
  8
1
  6
Continuous
100
AcDbLine
 10
31.09959528698789
 20
112.1438366769387
 30
0.0
 11
31.69970478878173
 21
112.1438366769387
 31
0.0
  0
LINE
  5
1841
330
18
100
AcDbEntity
  8
1
  6
Continuous
100
AcDbLine
 10
201.9926691769733
 20
109.0286265348007
 30
0.0
 11
201.9926691769733
 21
105.543836013373
 31
0.0
  0
LINE
  5
1842
330
18
100
AcDbEntity
  8
1
  6
Continuous
100
AcDbLine
 10
203.4926692482196
 20
109.0286263819937
 30
0.0
 11
203.4926692482196
 21
105.543835860566
 31
0.0
  0
LINE
  5
1843
330
18
100
AcDbEntity
  8
1
  6
Continuous
100
AcDbLine
 10
203.4926692482196
 20
103.5438357655711
 30
0.0
 11
203.4926692482196
 21
100.0590452441435
 31
0.0
  0
LINE
  5
1844
330
18
100
AcDbEntity
  8
1
  6
Continuous
100
AcDbLine
 10
201.9926691769733
 20
103.5438359183781
 30
0.0
 11
201.9926691769733
 21
100.0590453969504
 31
0.0
  0
ENDSEC
  0
SECTION
  2
OBJECTS
  0
DICTIONARY
  5
C
330
0
100
AcDbDictionary
281
     1
  3
ACAD_CIP_PREVIOUS_PRODUCT_INFO
350
18A4
  3
ACAD_COLOR
350
1887
  3
ACAD_DETAILVIEWSTYLE
350
18A0
  3
ACAD_GROUP
350
D
  3
ACAD_LAYOUT
350
94
  3
ACAD_MATERIAL
350
1855
  3
ACAD_MLEADERSTYLE
350
189C
  3
ACAD_MLINESTYLE
350
1B
  3
ACAD_PLOTSETTINGS
350
95
  3
ACAD_PLOTSTYLENAME
350
1853
  3
ACAD_SCALELIST
350
188A
  3
ACAD_SECTIONVIEWSTYLE
350
189E
  3
ACAD_TABLESTYLE
350
1888
  3
ACAD_VISUALSTYLE
350
186E
  3
ACDB_RECOMPOSE_DATA
350
18C2
  3
AcDbVariableDictionary
350
18B5
  3
CONTENTDICTIONARY
350
3D
  3
DWGPROPS
350
18C3
  0
DICTIONARY
  5
18A5
330
E
100
AcDbDictionary
280
     1
281
     1
  3
ADSK_XREC_LAYER_RECONCILED
360
18A6
  0
DICTIONARY
  5
18A7
330
4E
100
AcDbDictionary
280
     1
281
     1
  3
ADSK_XREC_LAYER_RECONCILED
360
18A8
  0
DICTIONARY
  5
18A9
330
4F
100
AcDbDictionary
280
     1
281
     1
  3
ADSK_XREC_LAYER_RECONCILED
360
18AA
  0
DICTIONARY
  5
18AB
330
50
100
AcDbDictionary
280
     1
281
     1
  3
ADSK_XREC_LAYER_RECONCILED
360
18AC
  0
DICTIONARY
  5
18AD
330
51
100
AcDbDictionary
280
     1
281
     1
  3
ADSK_XREC_LAYER_RECONCILED
360
18AE
  0
DICTIONARY
  5
18AF
330
52
100
AcDbDictionary
280
     1
281
     1
  3
ADSK_XREC_LAYER_RECONCILED
360
18B0
  0
DICTIONARY
  5
18B1
330
53
100
AcDbDictionary
280
     1
281
     1
  3
ADSK_XREC_LAYER_RECONCILED
360
18B2
  0
DICTIONARY
  5
18B3
330
54
100
AcDbDictionary
280
     1
281
     1
  3
ADSK_XREC_LAYER_RECONCILED
360
18B4
  0
DICTIONARY
  5
184E
330
18
100
AcDbDictionary
281
     1
  3
ACAD_LAYOUTSELFREF
350
184F
  0
DICTIONARY
  5
184C
330
15
100
AcDbDictionary
281
     1
  3
ACAD_LAYOUTSELFREF
350
184D
  0
XRECORD
  5
18A4
102
{ACAD_REACTORS
330
C
102
}
330
C
100
AcDbXrecord
280
     1
300
ACDLT
300
2014
300
ACDLT_F_S
  0
DICTIONARY
  5
1887
102
{ACAD_REACTORS
330
C
102
}
330
C
100
AcDbDictionary
281
     1
  0
DICTIONARY
  5
18A0
102
{ACAD_REACTORS
330
C
102
}
330
C
100
AcDbDictionary
281
     1
  3
Imperial24
350
18A1
  0
DICTIONARY
  5
D
102
{ACAD_REACTORS
330
C
102
}
330
C
100
AcDbDictionary
281
     1
  0
DICTIONARY
  5
94
102
{ACAD_REACTORS
330
C
102
}
330
C
100
AcDbDictionary
281
     1
  3
Model
350
18A2
  3
レイアウト1
350
18A3
  0
DICTIONARY
  5
1855
102
{ACAD_REACTORS
330
C
102
}
330
C
100
AcDbDictionary
281
     1
  3
ByBlock
350
185E
  3
ByLayer
350
1856
  3
Global
350
1866
  0
DICTIONARY
  5
189C
102
{ACAD_REACTORS
330
C
102
}
330
C
100
AcDbDictionary
281
     1
  3
Standard
350
189D
  0
DICTIONARY
  5
1B
102
{ACAD_REACTORS
330
C
102
}
330
C
100
AcDbDictionary
281
     1
  3
STANDARD
350
1C
  0
DICTIONARY
  5
95
102
{ACAD_REACTORS
330
C
102
}
330
C
100
AcDbDictionary
281
     1
  0
ACDBDICTIONARYWDFLT
  5
1853
102
{ACAD_REACTORS
330
C
102
}
330
C
100
AcDbDictionary
281
     1
  3
Normal
350
1854
100
AcDbDictionaryWithDefault
340
1854
  0
DICTIONARY
  5
188A
102
{ACAD_REACTORS
330
C
102
}
330
C
100
AcDbDictionary
281
     1
  3
A0
350
188B
  3
A1
350
188C
  3
A2
350
188D
  3
A3
350
188E
  3
A4
350
188F
  3
A5
350
1890
  3
A6
350
1891
  3
A7
350
1892
  3
A8
350
1893
  3
A9
350
1894
  3
B0
350
1895
  3
B1
350
1896
  3
B2
350
1897
  3
B3
350
1898
  3
B4
350
1899
  3
B5
350
189A
  3
B6
350
189B
  0
DICTIONARY
  5
189E
102
{ACAD_REACTORS
330
C
102
}
330
C
100
AcDbDictionary
281
     1
  3
Imperial24
350
189F
  0
DICTIONARY
  5
1888
102
{ACAD_REACTORS
330
C
102
}
330
C
100
AcDbDictionary
281
     1
  3
Standard
350
1889
  0
DICTIONARY
  5
186E
102
{ACAD_REACTORS
330
C
102
}
330
C
100
AcDbDictionary
281
     1
  3
2dWireframe
350
1874
  3
Basic
350
1873
  3
Brighten
350
187A
  3
ColorChange
350
187E
  3
Conceptual
350
1877
  3
Dim
350
1879
  3
EdgeColorOff
350
1886
  3
Facepattern
350
187D
  3
Flat
350
186F
  3
FlatWithEdges
350
1870
  3
Gouraud
350
1871
  3
GouraudWithEdges
350
1872
  3
Hidden
350
1876
  3
JitterOff
350
1884
  3
Linepattern
350
187C
  3
OverhangOff
350
1885
  3
Realistic
350
1878
  3
Shaded
350
1883
  3
Shaded with edges
350
1882
  3
Shades of Gray
350
187F
  3
Sketchy
350
1880
  3
Thicken
350
187B
  3
Wireframe
350
1875
  3
X-Ray
350
1881
  0
XRECORD
  5
18C2
102
{ACAD_REACTORS
330
C
102
}
330
C
100
AcDbXrecord
280
     1
 90
        1
330
1889
  0
DICTIONARY
  5
18B5
102
{ACAD_REACTORS
330
C
102
}
330
C
100
AcDbDictionary
281
     1
  3
CANNOSCALE
350
18BA
  3
CMLEADERSTYLE
350
18B7
  3
CTABLESTYLE
350
18B6
  3
CVIEWDETAILSTYLE
350
18B8
  3
CVIEWSECTIONSTYLE
350
18B9
  3
DIMASSOC
350
18BD
  3
INDEXCTL
350
18BC
  3
SORTENTS
350
18BB
  3
XCLIPFRAME
350
18BE
  0
DICTIONARY
  5
3D
102
{ACAD_REACTORS
330
C
102
}
330
C
100
AcDbDictionary
281
     1
  0
XRECORD
  5
18C3
102
{ACAD_REACTORS
330
C
102
}
330
C
100
AcDbXrecord
280
     1
  1
DWGPROPS COOKIE
  2

  3

  4

  6

  7

  8
Yoshitsune
  9

300
=
301
=
302
=
303
=
304
=
305
=
306
=
307
=
308
=
309
=
 40
0.0778698842592593
 41
2453720.891197187
 42
2457192.700152824
  1

 90
        0
  0
XRECORD
  5
18A6
102
{ACAD_REACTORS
330
18A5
102
}
330
18A5
100
AcDbXrecord
280
     1
290
     1
  0
XRECORD
  5
18A8
102
{ACAD_REACTORS
330
18A7
102
}
330
18A7
100
AcDbXrecord
280
     1
290
     1
  0
XRECORD
  5
18AA
102
{ACAD_REACTORS
330
18A9
102
}
330
18A9
100
AcDbXrecord
280
     1
290
     1
  0
XRECORD
  5
18AC
102
{ACAD_REACTORS
330
18AB
102
}
330
18AB
100
AcDbXrecord
280
     1
290
     1
  0
XRECORD
  5
18AE
102
{ACAD_REACTORS
330
18AD
102
}
330
18AD
100
AcDbXrecord
280
     1
290
     1
  0
XRECORD
  5
18B0
102
{ACAD_REACTORS
330
18AF
102
}
330
18AF
100
AcDbXrecord
280
     1
290
     1
  0
XRECORD
  5
18B2
102
{ACAD_REACTORS
330
18B1
102
}
330
18B1
100
AcDbXrecord
280
     1
290
     1
  0
XRECORD
  5
18B4
102
{ACAD_REACTORS
330
18B3
102
}
330
18B3
100
AcDbXrecord
280
     1
290
     1
  0
XRECORD
  5
184F
102
{ACAD_REACTORS
330
184E
102
}
330
184E
100
AcDbXrecord
280
     1
340
18
  0
XRECORD
  5
184D
102
{ACAD_REACTORS
330
184C
102
}
330
184C
100
AcDbXrecord
280
     1
340
15
  0
ACDBDETAILVIEWSTYLE
  5
18A1
102
{ACAD_XDICTIONARY
360
18FB
102
}
102
{ACAD_REACTORS
330
18A0
102
}
330
18A0
100
AcDbModelDocViewStyle
 70
     0
  3
Imperial24
290
     0
100
AcDbDetailViewStyle
 70
     0
 71
     0
 90
        3
 71
     1
340
F
 40
0.24
340
0
 40
0.24
300

 40
0.36
280
     3
 71
     2
340
14
 90
       25
 71
     3
340
F
 40
0.24
 90
        1
 40
0.75
 90
        1
300
%<\AcVar ViewType \f "%tc1">% %<\AcVar ViewDetailId>%\PSCALE %<\AcVar ViewScale \f "%sn">%
 71
     4
340
14
 90
       25
340
14
 90
       25
280
     0
  0
LAYOUT
  5
18A2
102
{ACAD_XDICTIONARY
360
18FD
102
}
102
{ACAD_REACTORS
330
94
102
}
330
94
100
AcDbPlotSettings
  1

  2
Canon LBP9100C
  4

  6

 40
0.0
 41
0.0
 42
0.0
 43
0.0
 44
0.0
 45
0.0
 46
0.0
 47
0.0
 48
0.0
 49
0.0
140
0.0
141
0.0
142
1.0
143
1.0
 70
  1712
 72
     0
 73
     0
 74
     0
  7

 75
     0
147
1.0
148
0.0
149
0.0
100
AcDbLayout
  1
Model
 70
     1
 71
     0
 10
0.0
 20
0.0
 11
12.0
 21
9.0
 12
0.0
 22
0.0
 32
0.0
 14
0.0
 24
0.0
 34
0.0
 15
0.0
 25
0.0
 35
0.0
146
0.0
 13
0.0
 23
0.0
 33
0.0
 16
1.0
 26
0.0
 36
0.0
 17
0.0
 27
1.0
 37
0.0
 76
     0
330
18
331
184B
  0
LAYOUT
  5
18A3
102
{ACAD_XDICTIONARY
360
18FF
102
}
102
{ACAD_REACTORS
330
94
102
}
330
94
100
AcDbPlotSettings
  1

  2
Canon LBP9100C
  4

  6

 40
0.0
 41
0.0
 42
0.0
 43
0.0
 44
0.0
 45
0.0
 46
0.0
 47
0.0
 48
0.0
 49
0.0
140
0.0
141
0.0
142
1.0
143
1.0
 70
   688
 72
     0
 73
     0
 74
     5
  7

 75
    16
147
1.0
148
0.0
149
0.0
100
AcDbLayout
  1
レイアウト1
 70
     1
 71
     1
 10
0.0
 20
0.0
 11
420.0
 21
297.0
 12
0.0
 22
0.0
 32
0.0
 14
1.000000000000000E+20
 24
1.000000000000000E+20
 34
1.000000000000000E+20
 15
-1.000000000000000E+20
 25
-1.000000000000000E+20
 35
-1.000000000000000E+20
146
0.0
 13
0.0
 23
0.0
 33
0.0
 16
1.0
 26
0.0
 36
0.0
 17
0.0
 27
1.0
 37
0.0
 76
     0
330
15
  0
MATERIAL
  5
185E
102
{ACAD_XDICTIONARY
360
185F
102
}
102
{ACAD_REACTORS
330
1855
102
}
330
1855
100
AcDbMaterial
  1
ByBlock
 72
     0
 43
0.0208333333333333
 43
0.0
 43
0.0
 43
0.0
 43
0.0
 43
0.0208333333333333
 43
0.0
 43
0.0
 43
0.0
 43
0.0
 43
1.0
 43
0.0
 43
0.0
 43
0.0
 43
0.0
 43
1.0
 77
     0
 47
0.0208333333333333
 47
0.0
 47
0.0
 47
0.0
 47
0.0
 47
0.0208333333333333
 47
0.0
 47
0.0
 47
0.0
 47
0.0
 47
1.0
 47
0.0
 47
0.0
 47
0.0
 47
0.0
 47
1.0
171
     0
 49
0.0208333333333333
 49
0.0
 49
0.0
 49
0.0
 49
0.0
 49
0.0208333333333333
 49
0.0
 49
0.0
 49
0.0
 49
0.0
 49
1.0
 49
0.0
 49
0.0
 49
0.0
 49
0.0
 49
1.0
175
     0
142
0.0208333333333333
142
0.0
142
0.0
142
0.0
142
0.0
142
0.0208333333333333
142
0.0
142
0.0
142
0.0
142
0.0
142
1.0
142
0.0
142
0.0
142
0.0
142
0.0
142
1.0
179
     0
144
0.0208333333333333
144
0.0
144
0.0
144
0.0
144
0.0
144
0.0208333333333333
144
0.0
144
0.0
144
0.0
144
0.0
144
1.0
144
0.0
144
0.0
144
0.0
144
0.0
144
1.0
147
0.0208333333333333
147
0.0
147
0.0
147
0.0
147
0.0
147
0.0208333333333333
147
0.0
147
0.0
147
0.0
147
0.0
147
1.0
147
0.0
147
0.0
147
0.0
147
0.0
147
1.0
  0
MATERIAL
  5
1856
102
{ACAD_XDICTIONARY
360
1857
102
}
102
{ACAD_REACTORS
330
1855
102
}
330
1855
100
AcDbMaterial
  1
ByLayer
 72
     0
 43
0.0208333333333333
 43
0.0
 43
0.0
 43
0.0
 43
0.0
 43
0.0208333333333333
 43
0.0
 43
0.0
 43
0.0
 43
0.0
 43
1.0
 43
0.0
 43
0.0
 43
0.0
 43
0.0
 43
1.0
 77
     0
 47
0.0208333333333333
 47
0.0
 47
0.0
 47
0.0
 47
0.0
 47
0.0208333333333333
 47
0.0
 47
0.0
 47
0.0
 47
0.0
 47
1.0
 47
0.0
 47
0.0
 47
0.0
 47
0.0
 47
1.0
171
     0
 49
0.0208333333333333
 49
0.0
 49
0.0
 49
0.0
 49
0.0
 49
0.0208333333333333
 49
0.0
 49
0.0
 49
0.0
 49
0.0
 49
1.0
 49
0.0
 49
0.0
 49
0.0
 49
0.0
 49
1.0
175
     0
142
0.0208333333333333
142
0.0
142
0.0
142
0.0
142
0.0
142
0.0208333333333333
142
0.0
142
0.0
142
0.0
142
0.0
142
1.0
142
0.0
142
0.0
142
0.0
142
0.0
142
1.0
179
     0
144
0.0208333333333333
144
0.0
144
0.0
144
0.0
144
0.0
144
0.0208333333333333
144
0.0
144
0.0
144
0.0
144
0.0
144
1.0
144
0.0
144
0.0
144
0.0
144
0.0
144
1.0
147
0.0208333333333333
147
0.0
147
0.0
147
0.0
147
0.0
147
0.0208333333333333
147
0.0
147
0.0
147
0.0
147
0.0
147
1.0
147
0.0
147
0.0
147
0.0
147
0.0
147
1.0
  0
MATERIAL
  5
1866
102
{ACAD_XDICTIONARY
360
1867
102
}
102
{ACAD_REACTORS
330
1855
102
}
330
1855
100
AcDbMaterial
  1
Global
 72
     0
 43
0.0208333333333333
 43
0.0
 43
0.0
 43
0.0
 43
0.0
 43
0.0208333333333333
 43
0.0
 43
0.0
 43
0.0
 43
0.0
 43
1.0
 43
0.0
 43
0.0
 43
0.0
 43
0.0
 43
1.0
 77
     0
 47
0.0208333333333333
 47
0.0
 47
0.0
 47
0.0
 47
0.0
 47
0.0208333333333333
 47
0.0
 47
0.0
 47
0.0
 47
0.0
 47
1.0
 47
0.0
 47
0.0
 47
0.0
 47
0.0
 47
1.0
171
     0
 49
0.0208333333333333
 49
0.0
 49
0.0
 49
0.0
 49
0.0
 49
0.0208333333333333
 49
0.0
 49
0.0
 49
0.0
 49
0.0
 49
1.0
 49
0.0
 49
0.0
 49
0.0
 49
0.0
 49
1.0
175
     0
142
0.0208333333333333
142
0.0
142
0.0
142
0.0
142
0.0
142
0.0208333333333333
142
0.0
142
0.0
142
0.0
142
0.0
142
1.0
142
0.0
142
0.0
142
0.0
142
0.0
142
1.0
179
     0
144
0.0208333333333333
144
0.0
144
0.0
144
0.0
144
0.0
144
0.0208333333333333
144
0.0
144
0.0
144
0.0
144
0.0
144
1.0
144
0.0
144
0.0
144
0.0
144
0.0
144
1.0
147
0.0208333333333333
147
0.0
147
0.0
147
0.0
147
0.0
147
0.0208333333333333
147
0.0
147
0.0
147
0.0
147
0.0
147
1.0
147
0.0
147
0.0
147
0.0
147
0.0
147
1.0
  0
MLEADERSTYLE
  5
189D
102
{ACAD_REACTORS
330
189C
102
}
330
189C
100
AcDbMLeaderStyle
170
     2
171
     1
172
     0
 90
        2
 40
0.0
 41
0.0
173
     1
 91
-1056964608
340
12
 92
       -2
290
     1
 42
0.09
291
     1
 43
0.36
  3
Standard
 44
0.18
300

342
F
174
     1
178
     6
175
     1
176
     0
 93
-1056964608
 45
0.18
292
     0
297
     0
 46
0.18
 94
-1056964608
 47
1.0
 49
1.0
140
1.0
293
     1
141
0.0
294
     1
177
     0
142
1.0
295
     0
296
     0
143
0.125
1001
ACAD_MLEADERVER
1070
     2
  0
MLINESTYLE
  5
1C
102
{ACAD_REACTORS
330
1B
102
}
330
1B
100
AcDbMlineStyle
  2
STANDARD
 70
     0
  3

 62
   256
 51
90.0
 52
90.0
 71
     2
 49
0.5
 62
   256
  6
BYLAYER
 49
-0.5
 62
   256
  6
BYLAYER
  0
ACDBPLACEHOLDER
  5
1854
102
{ACAD_REACTORS
330
1853
102
}
330
1853
  0
SCALE
  5
188B
102
{ACAD_REACTORS
330
188A
102
}
330
188A
100
AcDbScale
 70
     0
300
1:1
140
1.0
141
1.0
290
     1
  0
SCALE
  5
188C
102
{ACAD_REACTORS
330
188A
102
}
330
188A
100
AcDbScale
 70
     0
300
1/128" = 1'-0"
140
0.0078125
141
12.0
290
     0
  0
SCALE
  5
188D
102
{ACAD_REACTORS
330
188A
102
}
330
188A
100
AcDbScale
 70
     0
300
1/64" = 1'-0"
140
0.015625
141
12.0
290
     0
  0
SCALE
  5
188E
102
{ACAD_REACTORS
330
188A
102
}
330
188A
100
AcDbScale
 70
     0
300
1/32" = 1'-0"
140
0.03125
141
12.0
290
     0
  0
SCALE
  5
188F
102
{ACAD_REACTORS
330
188A
102
}
330
188A
100
AcDbScale
 70
     0
300
1/16" = 1'-0"
140
0.0625
141
12.0
290
     0
  0
SCALE
  5
1890
102
{ACAD_REACTORS
330
188A
102
}
330
188A
100
AcDbScale
 70
     0
300
3/32" = 1'-0"
140
0.09375
141
12.0
290
     0
  0
SCALE
  5
1891
102
{ACAD_REACTORS
330
188A
102
}
330
188A
100
AcDbScale
 70
     0
300
1/8" = 1'-0"
140
0.125
141
12.0
290
     0
  0
SCALE
  5
1892
102
{ACAD_REACTORS
330
188A
102
}
330
188A
100
AcDbScale
 70
     0
300
3/16" = 1'-0"
140
0.1875
141
12.0
290
     0
  0
SCALE
  5
1893
102
{ACAD_REACTORS
330
188A
102
}
330
188A
100
AcDbScale
 70
     0
300
1/4" = 1'-0"
140
0.25
141
12.0
290
     0
  0
SCALE
  5
1894
102
{ACAD_REACTORS
330
188A
102
}
330
188A
100
AcDbScale
 70
     0
300
3/8" = 1'-0"
140
0.375
141
12.0
290
     0
  0
SCALE
  5
1895
102
{ACAD_REACTORS
330
188A
102
}
330
188A
100
AcDbScale
 70
     0
300
1/2" = 1'-0"
140
0.5
141
12.0
290
     0
  0
SCALE
  5
1896
102
{ACAD_REACTORS
330
188A
102
}
330
188A
100
AcDbScale
 70
     0
300
3/4" = 1'-0"
140
0.75
141
12.0
290
     0
  0
SCALE
  5
1897
102
{ACAD_REACTORS
330
188A
102
}
330
188A
100
AcDbScale
 70
     0
300
1" = 1'-0"
140
1.0
141
12.0
290
     0
  0
SCALE
  5
1898
102
{ACAD_REACTORS
330
188A
102
}
330
188A
100
AcDbScale
 70
     0
300
1-1/2" = 1'-0"
140
1.5
141
12.0
290
     0
  0
SCALE
  5
1899
102
{ACAD_REACTORS
330
188A
102
}
330
188A
100
AcDbScale
 70
     0
300
3" = 1'-0"
140
3.0
141
12.0
290
     0
  0
SCALE
  5
189A
102
{ACAD_REACTORS
330
188A
102
}
330
188A
100
AcDbScale
 70
     0
300
6" = 1'-0"
140
6.0
141
12.0
290
     0
  0
SCALE
  5
189B
102
{ACAD_REACTORS
330
188A
102
}
330
188A
100
AcDbScale
 70
     0
300
1'-0" = 1'-0"
140
12.0
141
12.0
290
     0
  0
ACDBSECTIONVIEWSTYLE
  5
189F
102
{ACAD_XDICTIONARY
360
18F9
102
}
102
{ACAD_REACTORS
330
189E
102
}
330
189E
100
AcDbModelDocViewStyle
 70
     0
  3
Imperial24
290
     0
100
AcDbSectionViewStyle
 70
     0
 71
     0
 90
       78
 71
     1
340
F
 40
0.24
340
0
340
0
 40
0.24
300
I, O, Q, S, X, Z
 40
0.48
 90
        3
 40
0.18
 90
        1
 71
     2
340
14
 90
       25
340
14
 90
       50
 40
0.24
 40
0.0
 40
0.24
 71
     3
340
F
 40
0.24
 90
        1
 40
0.75
 90
        1
300
%<\AcVar ViewType \f "%tc1">% %<\AcVar ViewSectionStartId>%-%<\AcVar ViewSectionEndId>%\PSCALE %<\AcVar ViewScale \f "%sn">%
 71
     4
300
ANSI31
 40
1.0
 90
        0
290
     0
290
     0
 90
        6
 40
0.0
 40
1.570796326794896
 40
0.2617993877991494
 40
1.308996938995747
 40
-0.2617993877991494
 40
1.832595714594046
  0
TABLESTYLE
  5
1889
102
{ACAD_XDICTIONARY
360
18C0
102
}
102
{ACAD_REACTORS
330
1888
102
}
330
1888
100
AcDbTableStyle
  3
Standard
 70
     0
 71
     0
 40
0.06
 41
0.06
280
     0
281
     0
  7
STANDARD
140
0.18
170
     2
 62
     0
 63
     7
283
     0
274
    -2
284
     1
 64
     0
275
    -2
285
     1
 65
     0
276
    -2
286
     1
 66
     0
277
    -2
287
     1
 67
     0
278
    -2
288
     1
 68
     0
279
    -2
289
     1
 69
     0
  7
STANDARD
140
0.25
170
     5
 62
     0
 63
     7
283
     0
274
    -2
284
     1
 64
     0
275
    -2
285
     1
 65
     0
276
    -2
286
     1
 66
     0
277
    -2
287
     1
 67
     0
278
    -2
288
     1
 68
     0
279
    -2
289
     1
 69
     0
  7
STANDARD
140
0.18
170
     5
 62
     0
 63
     7
283
     0
274
    -2
284
     1
 64
     0
275
    -2
285
     1
 65
     0
276
    -2
286
     1
 66
     0
277
    -2
287
     1
 67
     0
278
    -2
288
     1
 68
     0
279
    -2
289
     1
 69
     0
  0
VISUALSTYLE
  5
1874
102
{ACAD_XDICTIONARY
360
18D1
102
}
102
{ACAD_REACTORS
330
186E
102
}
330
186E
100
AcDbVisualStyle
  2
2dWireframe
 70
     4
 71
     0
 72
     2
 73
     0
 90
        0
 40
-0.6
 41
-30.0
 62
     5
 63
     7
 74
     1
 91
        4
 64
     7
 65
   257
 75
     1
175
     1
 42
1.0
 92
        0
 66
   257
 43
1.0
 76
     1
 77
     6
 78
     2
 67
     7
 79
     5
170
     0
171
     0
290
     0
174
     0
 93
        1
 44
0.0
173
     0
291
     0
 45
0.0
1001
ACAD
1000
AcDbSavedByObjectVersion
1070
     0
  0
VISUALSTYLE
  5
1873
102
{ACAD_XDICTIONARY
360
18CF
102
}
102
{ACAD_REACTORS
330
186E
102
}
330
186E
100
AcDbVisualStyle
  2
Basic
 70
     7
 71
     1
 72
     0
 73
     1
 90
        0
 40
-0.6
 41
-30.0
 62
     5
 63
     7
 74
     0
 91
        4
 64
     7
 65
   257
 75
     1
175
     1
 42
1.0
 92
        8
 66
     7
 43
1.0
 76
     1
 77
     6
 78
     2
 67
     7
 79
     5
170
     0
171
     0
290
     0
174
     0
 93
        1
 44
0.0
173
     0
291
     1
 45
0.0
1001
ACAD
1000
AcDbSavedByObjectVersion
1070
     0
  0
VISUALSTYLE
  5
187A
102
{ACAD_XDICTIONARY
360
18DD
102
}
102
{ACAD_REACTORS
330
186E
102
}
330
186E
100
AcDbVisualStyle
  2
Brighten
 70
    12
 71
     2
 72
     2
 73
     0
 90
        0
 40
-0.6
 41
-30.0
 62
     5
 63
     7
 74
     1
 91
        4
 64
     7
 65
   257
 75
     1
175
     1
 42
1.0
 92
        8
 66
     7
 43
1.0
 76
     1
 77
     6
 78
     2
 67
     7
 79
     5
170
     0
171
     0
290
     0
174
     0
 93
        1
 44
50.0
173
     0
291
     1
 45
0.0
1001
ACAD
1000
AcDbSavedByObjectVersion
1070
     0
  0
VISUALSTYLE
  5
187E
102
{ACAD_XDICTIONARY
360
18E5
102
}
102
{ACAD_REACTORS
330
186E
102
}
330
186E
100
AcDbVisualStyle
  2
ColorChange
 70
    16
 71
     2
 72
     2
 73
     3
 90
        0
 40
-0.6
 41
-30.0
 62
     5
 63
     8
 74
     1
 91
        4
 64
     7
 65
   257
 75
     1
175
     1
 42
1.0
 92
        8
 66
     8
 43
1.0
 76
     1
 77
     6
 78
     2
 67
     7
 79
     5
170
     0
171
     0
290
     0
174
     0
 93
        1
 44
0.0
173
     0
291
     1
 45
0.0
1001
ACAD
1000
AcDbSavedByObjectVersion
1070
     0
  0
VISUALSTYLE
  5
1877
102
{ACAD_XDICTIONARY
360
18D7
102
}
102
{ACAD_REACTORS
330
186E
102
}
330
186E
100
AcDbVisualStyle
  2
Conceptual
 70
     9
 71
     3
 72
     2
 73
     0
 90
        0
 40
-0.6
 41
-30.0
 62
     5
 63
     7
 74
     2
 91
        2
 64
     7
 65
   257
 75
     1
175
     1
 42
179.0
 92
        8
 66
     7
 43
1.0
 76
     1
 77
     6
 78
     2
 67
     7
 79
     3
170
     0
171
     0
290
     0
174
     0
 93
        1
 44
0.0
173
     0
291
     0
 45
0.0
1001
ACAD
1000
AcDbSavedByObjectVersion
1070
     0
  0
VISUALSTYLE
  5
1879
102
{ACAD_XDICTIONARY
360
18DB
102
}
102
{ACAD_REACTORS
330
186E
102
}
330
186E
100
AcDbVisualStyle
  2
Dim
 70
    11
 71
     2
 72
     2
 73
     0
 90
        0
 40
-0.6
 41
-30.0
 62
     5
 63
     7
 74
     1
 91
        4
 64
     7
 65
   257
 75
     1
175
     1
 42
1.0
 92
        8
 66
     7
 43
1.0
 76
     1
 77
     6
 78
     2
 67
     7
 79
     5
170
     0
171
     0
290
     0
174
     0
 93
        1
 44
-50.0
173
     0
291
     1
 45
0.0
1001
ACAD
1000
AcDbSavedByObjectVersion
1070
     0
  0
VISUALSTYLE
  5
1886
102
{ACAD_XDICTIONARY
360
18F5
102
}
102
{ACAD_REACTORS
330
186E
102
}
330
186E
100
AcDbVisualStyle
  2
EdgeColorOff
 70
    22
 71
     2
 72
     2
 73
     0
 90
        0
 40
-0.6
 41
-30.0
 62
     5
 63
     7
 74
     1
 91
        4
 64
     7
 65
   257
 75
     1
175
     1
 42
1.0
 92
        8
 66
     7
 43
1.0
 76
     1
 77
     6
 78
     2
 67
     7
 79
     5
170
     0
171
     0
290
     0
174
     0
 93
        1
 44
0.0
173
     0
291
     1
 45
0.0
1001
ACAD
1000
AcDbSavedByObjectVersion
1070
     0
  0
VISUALSTYLE
  5
187D
102
{ACAD_XDICTIONARY
360
18E3
102
}
102
{ACAD_REACTORS
330
186E
102
}
330
186E
100
AcDbVisualStyle
  2
Facepattern
 70
    15
 71
     2
 72
     2
 73
     0
 90
        0
 40
-0.6
 41
-30.0
 62
     5
 63
     7
 74
     1
 91
        4
 64
     7
 65
   257
 75
     1
175
     1
 42
1.0
 92
        8
 66
     7
 43
1.0
 76
     1
 77
     6
 78
     2
 67
     7
 79
     5
170
     0
171
     0
290
     0
174
     0
 93
        1
 44
0.0
173
     0
291
     1
 45
0.0
1001
ACAD
1000
AcDbSavedByObjectVersion
1070
     0
  0
VISUALSTYLE
  5
186F
102
{ACAD_XDICTIONARY
360
18C7
102
}
102
{ACAD_REACTORS
330
186E
102
}
330
186E
100
AcDbVisualStyle
  2
Flat
 70
     0
 71
     2
 72
     1
 73
     1
 90
        2
 40
-0.6
 41
30.0
 62
     5
 63
     7
 74
     0
 91
        0
 64
     7
 65
   257
 75
     1
175
     1
 42
1.0
 92
        8
 66
     7
 43
1.0
 76
     1
 77
     6
 78
     2
 67
     7
 79
     5
170
     0
171
     0
290
     0
174
     0
 93
       13
 44
0.0
173
     0
291
     1
 45
0.0
1001
ACAD
1000
AcDbSavedByObjectVersion
1070
     0
  0
VISUALSTYLE
  5
1870
102
{ACAD_XDICTIONARY
360
18C9
102
}
102
{ACAD_REACTORS
330
186E
102
}
330
186E
100
AcDbVisualStyle
  2
FlatWithEdges
 70
     1
 71
     2
 72
     1
 73
     1
 90
        2
 40
-0.6
 41
30.0
 62
     5
 63
     7
 74
     1
 91
        0
 64
     7
 65
   257
 75
     1
175
     1
 42
1.0
 92
        0
 66
   257
 43
1.0
 76
     1
 77
     6
 78
     2
 67
     7
 79
     5
170
     0
171
     0
290
     0
174
     0
 93
       13
 44
0.0
173
     0
291
     1
 45
0.0
1001
ACAD
1000
AcDbSavedByObjectVersion
1070
     0
  0
VISUALSTYLE
  5
1871
102
{ACAD_XDICTIONARY
360
18CB
102
}
102
{ACAD_REACTORS
330
186E
102
}
330
186E
100
AcDbVisualStyle
  2
Gouraud
 70
     2
 71
     2
 72
     2
 73
     1
 90
        2
 40
-0.6
 41
30.0
 62
     5
 63
     7
 74
     0
 91
        0
 64
     7
 65
   257
 75
     1
175
     1
 42
1.0
 92
        0
 66
     7
 43
1.0
 76
     1
 77
     6
 78
     2
 67
     7
 79
     5
170
     0
171
     0
290
     0
174
     0
 93
       13
 44
0.0
173
     0
291
     1
 45
0.0
1001
ACAD
1000
AcDbSavedByObjectVersion
1070
     0
  0
VISUALSTYLE
  5
1872
102
{ACAD_XDICTIONARY
360
18CD
102
}
102
{ACAD_REACTORS
330
186E
102
}
330
186E
100
AcDbVisualStyle
  2
GouraudWithEdges
 70
     3
 71
     2
 72
     2
 73
     1
 90
        2
 40
-0.6
 41
30.0
 62
     5
 63
     7
 74
     1
 91
        0
 64
     7
 65
   257
 75
     1
175
     1
 42
1.0
 92
        0
 66
   257
 43
1.0
 76
     1
 77
     6
 78
     2
 67
     7
 79
     5
170
     0
171
     0
290
     0
174
     0
 93
       13
 44
0.0
173
     0
291
     1
 45
0.0
1001
ACAD
1000
AcDbSavedByObjectVersion
1070
     0
  0
VISUALSTYLE
  5
1876
102
{ACAD_XDICTIONARY
360
18D5
102
}
102
{ACAD_REACTORS
330
186E
102
}
330
186E
100
AcDbVisualStyle
  2
Hidden
 70
     6
 71
     1
 72
     2
 73
     2
 90
        0
 40
-0.6
 41
-30.0
 62
     5
 63
     7
 74
     2
 91
        2
 64
     7
 65
   257
 75
     2
175
     1
 42
40.0
 92
        0
 66
   257
 43
1.0
 76
     1
 77
     6
 78
     2
 67
     7
 79
     3
170
     0
171
     0
290
     0
174
     0
 93
        1
 44
0.0
173
     0
291
     0
 45
0.0
1001
ACAD
1000
AcDbSavedByObjectVersion
1070
     0
  0
VISUALSTYLE
  5
1884
102
{ACAD_XDICTIONARY
360
18F1
102
}
102
{ACAD_REACTORS
330
186E
102
}
330
186E
100
AcDbVisualStyle
  2
JitterOff
 70
    20
 71
     2
 72
     2
 73
     0
 90
        0
 40
-0.6
 41
-30.0
 62
     5
 63
     7
 74
     1
 91
        4
 64
     7
 65
   257
 75
     1
175
     1
 42
1.0
 92
       10
 66
     7
 43
1.0
 76
     1
 77
     6
 78
     2
 67
     7
 79
     5
170
     0
171
     0
290
     0
174
     0
 93
        1
 44
0.0
173
     0
291
     1
 45
0.0
1001
ACAD
1000
AcDbSavedByObjectVersion
1070
     0
  0
VISUALSTYLE
  5
187C
102
{ACAD_XDICTIONARY
360
18E1
102
}
102
{ACAD_REACTORS
330
186E
102
}
330
186E
100
AcDbVisualStyle
  2
Linepattern
 70
    14
 71
     2
 72
     2
 73
     0
 90
        0
 40
-0.6
 41
-30.0
 62
     5
 63
     7
 74
     1
 91
        4
 64
     7
 65
   257
 75
     7
175
     7
 42
1.0
 92
        8
 66
     7
 43
1.0
 76
     1
 77
     6
 78
     2
 67
     7
 79
     5
170
     0
171
     0
290
     0
174
     0
 93
        1
 44
0.0
173
     0
291
     1
 45
0.0
1001
ACAD
1000
AcDbSavedByObjectVersion
1070
     0
  0
VISUALSTYLE
  5
1885
102
{ACAD_XDICTIONARY
360
18F3
102
}
102
{ACAD_REACTORS
330
186E
102
}
330
186E
100
AcDbVisualStyle
  2
OverhangOff
 70
    21
 71
     2
 72
     2
 73
     0
 90
        0
 40
-0.6
 41
-30.0
 62
     5
 63
     7
 74
     1
 91
        4
 64
     7
 65
   257
 75
     1
175
     1
 42
1.0
 92
        9
 66
     7
 43
1.0
 76
     1
 77
     6
 78
     2
 67
     7
 79
     5
170
     0
171
     0
290
     0
174
     0
 93
        1
 44
0.0
173
     0
291
     1
 45
0.0
1001
ACAD
1000
AcDbSavedByObjectVersion
1070
     0
  0
VISUALSTYLE
  5
1878
102
{ACAD_XDICTIONARY
360
18D9
102
}
102
{ACAD_REACTORS
330
186E
102
}
330
186E
100
AcDbVisualStyle
  2
Realistic
 70
     8
 71
     2
 72
     3
 73
     0
 90
        2
 40
-0.6
 41
30.0
 62
     5
 63
     7
 74
     0
 91
        0
 64
     7
 65
   257
 75
     1
175
     1
 42
1.0
 92
        8
 66
   257
 43
1.0
 76
     1
 77
     6
 78
     2
 67
     7
 79
     3
170
     0
171
     0
290
     0
174
     0
 93
       13
 44
0.0
173
     0
291
     0
 45
0.0
1001
ACAD
1000
AcDbSavedByObjectVersion
1070
     0
  0
VISUALSTYLE
  5
1883
102
{ACAD_XDICTIONARY
360
18EF
102
}
102
{ACAD_REACTORS
330
186E
102
}
330
186E
100
AcDbVisualStyle
  2
Shaded
 70
    27
 71
     2
 72
     2
 73
     1
 90
        2
 40
-0.6
 41
30.0
 62
     5
 63
     7
 74
     0
 91
        4
 64
     7
 65
   257
 75
     1
175
     1
 42
1.0
 92
        8
 66
   257
 43
1.0
 76
     1
 77
     6
 78
     2
 67
     8
 79
     3
170
     0
171
     0
290
     0
174
     0
 93
        5
 44
0.0
173
     0
291
     0
 45
0.0
1001
ACAD
1000
AcDbSavedByObjectVersion
1070
     0
  0
VISUALSTYLE
  5
1882
102
{ACAD_XDICTIONARY
360
18ED
102
}
102
{ACAD_REACTORS
330
186E
102
}
330
186E
100
AcDbVisualStyle
  2
Shaded with edges
 70
    26
 71
     2
 72
     2
 73
     1
 90
        2
 40
-0.6
 41
30.0
 62
     5
 63
     7
 74
     1
 91
       10
 64
     7
 65
   257
 75
     2
175
     1
 42
1.0
 92
        8
 66
   257
 43
1.0
 76
     1
 77
     6
 78
     2
 67
     7
 79
     3
170
     0
171
     0
290
     0
174
     0
 93
        5
 44
0.0
173
     0
291
     0
 45
0.0
1001
ACAD
1000
AcDbSavedByObjectVersion
1070
     0
  0
VISUALSTYLE
  5
187F
102
{ACAD_XDICTIONARY
360
18E7
102
}
102
{ACAD_REACTORS
330
186E
102
}
330
186E
100
AcDbVisualStyle
  2
Shades of Gray
 70
    23
 71
     2
 72
     2
 73
     3
 90
        0
 40
-0.6
 41
-30.0
 62
     5
 63
     7
 74
     2
 91
        2
 64
     7
 65
     7
 75
     1
175
     1
 42
40.0
 92
        8
 66
     7
 43
1.0
 76
     1
 77
     6
 78
     2
 67
     7
 79
     3
170
     0
171
     0
290
     0
174
     0
 93
        1
 44
0.0
173
     0
291
     0
 45
0.0
1001
ACAD
1000
AcDbSavedByObjectVersion
1070
     0
  0
VISUALSTYLE
  5
1880
102
{ACAD_XDICTIONARY
360
18E9
102
}
102
{ACAD_REACTORS
330
186E
102
}
330
186E
100
AcDbVisualStyle
  2
Sketchy
 70
    24
 71
     1
 72
     2
 73
     2
 90
        0
 40
-0.6
 41
-30.0
 62
     5
 63
     7
 74
     2
 91
        2
 64
     7
 65
     7
 75
     1
175
     1
 42
40.0
 92
       11
 66
     7
 43
1.0
 76
     1
 77
     6
 78
     2
 67
     7
 79
     6
170
     0
171
     0
290
     0
174
     0
 93
        1
 44
0.0
173
     0
291
     0
 45
0.0
1001
ACAD
1000
AcDbSavedByObjectVersion
1070
     0
  0
VISUALSTYLE
  5
187B
102
{ACAD_XDICTIONARY
360
18DF
102
}
102
{ACAD_REACTORS
330
186E
102
}
330
186E
100
AcDbVisualStyle
  2
Thicken
 70
    13
 71
     2
 72
     2
 73
     0
 90
        0
 40
-0.6
 41
-30.0
 62
     5
 63
     7
 74
     1
 91
        4
 64
     7
 65
   257
 75
     1
175
     1
 42
1.0
 92
       12
 66
     7
 43
1.0
 76
     1
 77
     6
 78
     2
 67
     7
 79
     5
170
     0
171
     0
290
     0
174
     0
 93
        1
 44
0.0
173
     0
291
     1
 45
0.0
1001
ACAD
1000
AcDbSavedByObjectVersion
1070
     0
  0
VISUALSTYLE
  5
1875
102
{ACAD_XDICTIONARY
360
18D3
102
}
102
{ACAD_REACTORS
330
186E
102
}
330
186E
100
AcDbVisualStyle
  2
Wireframe
 70
     5
 71
     0
 72
     2
 73
     0
 90
        0
 40
-0.6
 41
-30.0
 62
     5
 63
     7
 74
     1
 91
        4
 64
     7
 65
   257
 75
     1
175
     1
 42
1.0
 92
        0
 66
   257
 43
1.0
 76
     1
 77
     6
 78
     2
 67
     7
 79
     3
170
     0
171
     0
290
     0
174
     0
 93
        1
 44
0.0
173
     0
291
     0
 45
0.0
1001
ACAD
1000
AcDbSavedByObjectVersion
1070
     0
  0
VISUALSTYLE
  5
1881
102
{ACAD_XDICTIONARY
360
18EB
102
}
102
{ACAD_REACTORS
330
186E
102
}
330
186E
100
AcDbVisualStyle
  2
X-Ray
 70
    25
 71
     2
 72
     2
 73
     1
 90
        1
 40
0.5
 41
-30.0
 62
     5
 63
     7
 74
     1
 91
        0
 64
     7
 65
   257
 75
     1
175
     1
 42
1.0
 92
        8
 66
     7
 43
1.0
 76
     1
 77
     6
 78
     2
 67
     7
 79
     3
170
     0
171
     0
290
     0
174
     0
 93
       13
 44
0.0
173
     0
291
     0
 45
0.0
1001
ACAD
1000
AcDbSavedByObjectVersion
1070
     0
  0
DICTIONARYVAR
  5
18BA
102
{ACAD_REACTORS
330
18B5
102
}
330
18B5
100
DictionaryVariables
280
     0
  1
1:1
  0
DICTIONARYVAR
  5
18B7
102
{ACAD_REACTORS
330
18B5
102
}
330
18B5
100
DictionaryVariables
280
     0
  1
STANDARD
  0
DICTIONARYVAR
  5
18B6
102
{ACAD_REACTORS
330
18B5
102
}
330
18B5
100
DictionaryVariables
280
     0
  1
STANDARD
  0
DICTIONARYVAR
  5
18B8
102
{ACAD_REACTORS
330
18B5
102
}
330
18B5
100
DictionaryVariables
280
     0
  1
Imperial24
  0
DICTIONARYVAR
  5
18B9
102
{ACAD_REACTORS
330
18B5
102
}
330
18B5
100
DictionaryVariables
280
     0
  1
Imperial24
  0
DICTIONARYVAR
  5
18BD
102
{ACAD_REACTORS
330
18B5
102
}
330
18B5
100
DictionaryVariables
280
     0
  1
1
  0
DICTIONARYVAR
  5
18BC
102
{ACAD_REACTORS
330
18B5
102
}
330
18B5
100
DictionaryVariables
280
     0
  1
0
  0
DICTIONARYVAR
  5
18BB
102
{ACAD_REACTORS
330
18B5
102
}
330
18B5
100
DictionaryVariables
280
     0
  1
127
  0
DICTIONARYVAR
  5
18BE
102
{ACAD_REACTORS
330
18B5
102
}
330
18B5
100
DictionaryVariables
280
     0
  1
2
  0
DICTIONARY
  5
18FB
330
18A1
100
AcDbDictionary
280
     1
281
     1
  3
ACAD_XREC_ROUNDTRIP
360
18FC
  0
DICTIONARY
  5
18FD
330
18A2
100
AcDbDictionary
280
     1
281
     1
  3
ACAD_XREC_ROUNDTRIP
360
18FE
  0
DICTIONARY
  5
18FF
330
18A3
100
AcDbDictionary
280
     1
281
     1
  3
ACAD_XREC_ROUNDTRIP
360
1900
  0
DICTIONARY
  5
185F
330
185E
100
AcDbDictionary
280
     1
281
     1
  3
ACAD_XREC_ROUNDTRIP
360
18C5
  3
BUMPTILE
360
1861
  3
DIFFUSETILE
360
1860
  3
OPACITYTILE
360
1864
  3
REFLECTIONTILE
360
1863
  3
REFRACTIONTILE
360
1865
  3
SPECULARTILE
360
1862
  0
DICTIONARY
  5
1857
330
1856
100
AcDbDictionary
280
     1
281
     1
  3
ACAD_XREC_ROUNDTRIP
360
18C4
  3
BUMPTILE
360
1859
  3
DIFFUSETILE
360
1858
  3
OPACITYTILE
360
185C
  3
REFLECTIONTILE
360
185B
  3
REFRACTIONTILE
360
185D
  3
SPECULARTILE
360
185A
  0
DICTIONARY
  5
1867
330
1866
100
AcDbDictionary
280
     1
281
     1
  3
ACAD_XREC_ROUNDTRIP
360
18C6
  3
BUMPTILE
360
1869
  3
DIFFUSETILE
360
1868
  3
OPACITYTILE
360
186C
  3
REFLECTIONTILE
360
186B
  3
REFRACTIONTILE
360
186D
  3
SPECULARTILE
360
186A
  0
DICTIONARY
  5
18F9
330
189F
100
AcDbDictionary
280
     1
281
     1
  3
ACAD_XREC_ROUNDTRIP
360
18FA
  0
DICTIONARY
  5
18C0
330
1889
100
AcDbDictionary
280
     1
281
     1
  3
ACAD_ROUNDTRIP_2008_TABLESTYLE_CELLSTYLEMAP
360
18C1
  3
ACAD_XREC_ROUNDTRIP
360
18F7
  0
DICTIONARY
  5
18D1
330
1874
100
AcDbDictionary
280
     1
281
     1
  3
ACAD_XREC_ROUNDTRIP
360
18D2
  0
DICTIONARY
  5
18CF
330
1873
100
AcDbDictionary
280
     1
281
     1
  3
ACAD_XREC_ROUNDTRIP
360
18D0
  0
DICTIONARY
  5
18DD
330
187A
100
AcDbDictionary
280
     1
281
     1
  3
ACAD_XREC_ROUNDTRIP
360
18DE
  0
DICTIONARY
  5
18E5
330
187E
100
AcDbDictionary
280
     1
281
     1
  3
ACAD_XREC_ROUNDTRIP
360
18E6
  0
DICTIONARY
  5
18D7
330
1877
100
AcDbDictionary
280
     1
281
     1
  3
ACAD_XREC_ROUNDTRIP
360
18D8
  0
DICTIONARY
  5
18DB
330
1879
100
AcDbDictionary
280
     1
281
     1
  3
ACAD_XREC_ROUNDTRIP
360
18DC
  0
DICTIONARY
  5
18F5
330
1886
100
AcDbDictionary
280
     1
281
     1
  3
ACAD_XREC_ROUNDTRIP
360
18F6
  0
DICTIONARY
  5
18E3
330
187D
100
AcDbDictionary
280
     1
281
     1
  3
ACAD_XREC_ROUNDTRIP
360
18E4
  0
DICTIONARY
  5
18C7
330
186F
100
AcDbDictionary
280
     1
281
     1
  3
ACAD_XREC_ROUNDTRIP
360
18C8
  0
DICTIONARY
  5
18C9
330
1870
100
AcDbDictionary
280
     1
281
     1
  3
ACAD_XREC_ROUNDTRIP
360
18CA
  0
DICTIONARY
  5
18CB
330
1871
100
AcDbDictionary
280
     1
281
     1
  3
ACAD_XREC_ROUNDTRIP
360
18CC
  0
DICTIONARY
  5
18CD
330
1872
100
AcDbDictionary
280
     1
281
     1
  3
ACAD_XREC_ROUNDTRIP
360
18CE
  0
DICTIONARY
  5
18D5
330
1876
100
AcDbDictionary
280
     1
281
     1
  3
ACAD_XREC_ROUNDTRIP
360
18D6
  0
DICTIONARY
  5
18F1
330
1884
100
AcDbDictionary
280
     1
281
     1
  3
ACAD_XREC_ROUNDTRIP
360
18F2
  0
DICTIONARY
  5
18E1
330
187C
100
AcDbDictionary
280
     1
281
     1
  3
ACAD_XREC_ROUNDTRIP
360
18E2
  0
DICTIONARY
  5
18F3
330
1885
100
AcDbDictionary
280
     1
281
     1
  3
ACAD_XREC_ROUNDTRIP
360
18F4
  0
DICTIONARY
  5
18D9
330
1878
100
AcDbDictionary
280
     1
281
     1
  3
ACAD_XREC_ROUNDTRIP
360
18DA
  0
DICTIONARY
  5
18EF
330
1883
100
AcDbDictionary
280
     1
281
     1
  3
ACAD_XREC_ROUNDTRIP
360
18F0
  0
DICTIONARY
  5
18ED
330
1882
100
AcDbDictionary
280
     1
281
     1
  3
ACAD_XREC_ROUNDTRIP
360
18EE
  0
DICTIONARY
  5
18E7
330
187F
100
AcDbDictionary
280
     1
281
     1
  3
ACAD_XREC_ROUNDTRIP
360
18E8
  0
DICTIONARY
  5
18E9
330
1880
100
AcDbDictionary
280
     1
281
     1
  3
ACAD_XREC_ROUNDTRIP
360
18EA
  0
DICTIONARY
  5
18DF
330
187B
100
AcDbDictionary
280
     1
281
     1
  3
ACAD_XREC_ROUNDTRIP
360
18E0
  0
DICTIONARY
  5
18D3
330
1875
100
AcDbDictionary
280
     1
281
     1
  3
ACAD_XREC_ROUNDTRIP
360
18D4
  0
DICTIONARY
  5
18EB
330
1881
100
AcDbDictionary
280
     1
281
     1
  3
ACAD_XREC_ROUNDTRIP
360
18EC
  0
XRECORD
  5
18FC
102
{ACAD_REACTORS
330
18FB
102
}
330
18FB
100
AcDbXrecord
280
     1
102
DISPLAYNAME
  1
Imperial24
102
FLAGS
 90
        0
  0
XRECORD
  5
18FE
102
{ACAD_REACTORS
330
18FD
102
}
330
18FD
100
AcDbXrecord
280
     1
102
SHADEPLOT
 70
     0
102
SHADEPLOTRESLEVEL
 70
     2
102
SHADEPLOTCUSTOMDPI
 70
   300
  0
XRECORD
  5
1900
102
{ACAD_REACTORS
330
18FF
102
}
330
18FF
100
AcDbXrecord
280
     1
102
SHADEPLOT
 70
     0
102
SHADEPLOTRESLEVEL
 70
     2
102
SHADEPLOTCUSTOMDPI
 70
   300
  0
XRECORD
  5
18C5
102
{ACAD_REACTORS
330
185F
102
}
330
185F
100
AcDbXrecord
280
     1
102
MATERIAL
148
0.0
149
0.0
149
0.0
 93
        0
 94
      127
282
     0
 72
     0
 77
     0
171
     0
175
     0
179
     0
273
     0
  0
XRECORD
  5
1861
102
{ACAD_REACTORS
330
185F
102
}
330
185F
100
AcDbXrecord
280
     1
270
     1
271
     1
  0
XRECORD
  5
1860
102
{ACAD_REACTORS
330
185F
102
}
330
185F
100
AcDbXrecord
280
     1
270
     1
271
     1
  0
XRECORD
  5
1864
102
{ACAD_REACTORS
330
185F
102
}
330
185F
100
AcDbXrecord
280
     1
270
     1
271
     1
  0
XRECORD
  5
1863
102
{ACAD_REACTORS
330
185F
102
}
330
185F
100
AcDbXrecord
280
     1
270
     1
271
     1
  0
XRECORD
  5
1865
102
{ACAD_REACTORS
330
185F
102
}
330
185F
100
AcDbXrecord
280
     1
270
     1
271
     1
  0
XRECORD
  5
1862
102
{ACAD_REACTORS
330
185F
102
}
330
185F
100
AcDbXrecord
280
     1
270
     1
271
     1
  0
XRECORD
  5
18C4
102
{ACAD_REACTORS
330
1857
102
}
330
1857
100
AcDbXrecord
280
     1
102
MATERIAL
148
0.0
149
0.0
149
0.0
 93
        0
 94
      127
282
     0
 72
     0
 77
     0
171
     0
175
     0
179
     0
273
     0
  0
XRECORD
  5
1859
102
{ACAD_REACTORS
330
1857
102
}
330
1857
100
AcDbXrecord
280
     1
270
     1
271
     1
  0
XRECORD
  5
1858
102
{ACAD_REACTORS
330
1857
102
}
330
1857
100
AcDbXrecord
280
     1
270
     1
271
     1
  0
XRECORD
  5
185C
102
{ACAD_REACTORS
330
1857
102
}
330
1857
100
AcDbXrecord
280
     1
270
     1
271
     1
  0
XRECORD
  5
185B
102
{ACAD_REACTORS
330
1857
102
}
330
1857
100
AcDbXrecord
280
     1
270
     1
271
     1
  0
XRECORD
  5
185D
102
{ACAD_REACTORS
330
1857
102
}
330
1857
100
AcDbXrecord
280
     1
270
     1
271
     1
  0
XRECORD
  5
185A
102
{ACAD_REACTORS
330
1857
102
}
330
1857
100
AcDbXrecord
280
     1
270
     1
271
     1
  0
XRECORD
  5
18C6
102
{ACAD_REACTORS
330
1867
102
}
330
1867
100
AcDbXrecord
280
     1
102
MATERIAL
148
0.0
149
0.0
149
0.0
 93
        0
 94
      127
282
     0
 72
     0
 77
     0
171
     0
175
     0
179
     0
273
     0
  0
XRECORD
  5
1869
102
{ACAD_REACTORS
330
1867
102
}
330
1867
100
AcDbXrecord
280
     1
270
     1
271
     1
  0
XRECORD
  5
1868
102
{ACAD_REACTORS
330
1867
102
}
330
1867
100
AcDbXrecord
280
     1
270
     1
271
     1
  0
XRECORD
  5
186C
102
{ACAD_REACTORS
330
1867
102
}
330
1867
100
AcDbXrecord
280
     1
270
     1
271
     1
  0
XRECORD
  5
186B
102
{ACAD_REACTORS
330
1867
102
}
330
1867
100
AcDbXrecord
280
     1
270
     1
271
     1
  0
XRECORD
  5
186D
102
{ACAD_REACTORS
330
1867
102
}
330
1867
100
AcDbXrecord
280
     1
270
     1
271
     1
  0
XRECORD
  5
186A
102
{ACAD_REACTORS
330
1867
102
}
330
1867
100
AcDbXrecord
280
     1
270
     1
271
     1
  0
XRECORD
  5
18FA
102
{ACAD_REACTORS
330
18F9
102
}
330
18F9
100
AcDbXrecord
280
     1
102
DISPLAYNAME
  1
Imperial24
102
FLAGS
 90
        0
  0
CELLSTYLEMAP
  5
18C1
102
{ACAD_REACTORS
330
18C0
102
}
330
18C0
100
AcDbCellStyleMap
 90
        3
300
CELLSTYLE
  1
TABLEFORMAT_BEGIN
 90
        5
170
     1
 91
        0
 92
    32768
 62
   257
 93
        1
300
CONTENTFORMAT
  1
CONTENTFORMAT_BEGIN
 90
        0
 91
        0
 92
      512
 93
        0
300

 40
0.0
140
1.0
 94
        5
 62
     0
340
F
144
0.25
309
CONTENTFORMAT_END
171
     0
 94
        0
309
TABLEFORMAT_END
  1
CELLSTYLE_BEGIN
 90
        1
 91
        1
300
_TITLE
309
CELLSTYLE_END
300
CELLSTYLE
  1
TABLEFORMAT_BEGIN
 90
        5
170
     1
 91
        0
 92
        0
 62
   257
 93
        1
300
CONTENTFORMAT
  1
CONTENTFORMAT_BEGIN
 90
        0
 91
        0
 92
      512
 93
        0
300

 40
0.0
140
1.0
 94
        5
 62
     0
340
F
144
0.18
309
CONTENTFORMAT_END
171
     0
 94
        0
309
TABLEFORMAT_END
  1
CELLSTYLE_BEGIN
 90
        2
 91
        1
300
_HEADER
309
CELLSTYLE_END
300
CELLSTYLE
  1
TABLEFORMAT_BEGIN
 90
        5
170
     1
 91
        0
 92
        0
 62
   257
 93
        1
300
CONTENTFORMAT
  1
CONTENTFORMAT_BEGIN
 90
        0
 91
        0
 92
      512
 93
        0
300

 40
0.0
140
1.0
 94
        2
 62
     0
340
F
144
0.18
309
CONTENTFORMAT_END
171
     0
 94
        0
309
TABLEFORMAT_END
  1
CELLSTYLE_BEGIN
 90
        3
 91
        2
300
_DATA
309
CELLSTYLE_END
  0
XRECORD
  5
18F7
102
{ACAD_REACTORS
330
18C0
102
}
330
18C0
100
AcDbXrecord
280
     1
102
ACAD_ROUNDTRIP_PRE2007_TABLESTYLE
 90
      512
 91
        0
  1

 92
      512
 93
        0
  2

 94
      512
 95
        0
  3

  0
XRECORD
  5
18D2
102
{ACAD_REACTORS
330
18D1
102
}
330
18D1
100
AcDbXrecord
280
     1
102
RTVSPost2010Prop28
280
     1
102
RTVSPost2010PropOp28
 70
     1
102
RTVSPost2010Prop29
280
     1
102
RTVSPost2010PropOp29
 70
     1
102
RTVSPost2010Prop30
280
     0
102
RTVSPost2010PropOp30
 70
     1
102
RTVSPost2010Prop31
280
     0
102
RTVSPost2010PropOp31
 70
     1
102
RTVSPost2010Prop32
280
     0
102
RTVSPost2010PropOp32
 70
     1
102
RTVSPost2010Prop33
280
     0
102
RTVSPost2010PropOp33
 70
     1
102
RTVSPost2010Prop34
280
     0
102
RTVSPost2010PropOp34
 70
     1
102
RTVSPost2010Prop35
280
     0
102
RTVSPost2010PropOp35
 70
     1
102
RTVSPost2010Prop36
280
     0
102
RTVSPost2010PropOp36
 70
     1
102
RTVSPost2010Prop37
 90
       50
102
RTVSPost2010PropOp37
 70
     1
102
RTVSPost2010Prop38
140
0.0
102
RTVSPost2010PropOp38
 70
     1
102
RTVSPost2010Prop39
140
1.0
102
RTVSPost2010PropOp39
 70
     1
102
RTVSPost2010Prop40
 90
        0
102
RTVSPost2010PropOp40
 70
     1
102
RTVSPost2010Prop41ColorIndex
 90
       18
102
RTVSPost2010Prop41ColorRGB
 90
        0
102
RTVSPost2010PropOp41
 70
     1
102
RTVSPost2010Prop42
 90
       50
102
RTVSPost2010PropOp42
 70
     1
102
RTVSPost2010Prop43
 90
        3
102
RTVSPost2010PropOp43
 70
     1
102
RTVSPost2010Prop44ColorIndex
 90
        5
102
RTVSPost2010Prop44ColorRGB
 90
      255
102
RTVSPost2010PropOp44
 70
     1
102
RTVSPost2010Prop45
280
     0
102
RTVSPost2010PropOp45
 70
     1
102
RTVSPost2010Prop46
 90
       50
102
RTVSPost2010PropOp46
 70
     1
102
RTVSPost2010Prop47
 90
       50
102
RTVSPost2010PropOp47
 70
     1
102
RTVSPost2010Prop48
 90
       50
102
RTVSPost2010PropOp48
 70
     1
102
RTVSPost2010Prop49
280
     0
102
RTVSPost2010PropOp49
 70
     1
102
RTVSPost2010Prop50
 90
       50
102
RTVSPost2010PropOp50
 70
     1
102
RTVSPost2010Prop51ColorIndex
 90
      256
102
RTVSPost2010Prop51ColorRGB
 90
-16777216
102
RTVSPost2010PropOp51
 70
     0
102
RTVSPost2010Prop52
140
1.0
102
RTVSPost2010PropOp52
 70
     0
102
RTVSPost2010Prop53
 90
        2
102
RTVSPost2010PropOp53
 70
     1
102
RTVSPost2010Prop54
  1
strokes_ogs.tif
102
RTVSPost2010PropOp54
 70
     1
102
RTVSPost2010Prop55
280
     0
102
RTVSPost2010PropOp55
 70
     1
102
RTVSPost2010Prop56
140
1.0
102
RTVSPost2010PropOp56
 70
     1
102
RTVSPost2010Prop57
140
1.0
102
RTVSPost2010PropOp57
 70
     1
102
RTVSPropertyOp0
 70
     1
102
RTVSPropertyOp1
 70
     1
102
RTVSPropertyOp2
 70
     1
102
RTVSPropertyOp3
 70
     1
102
RTVSPropertyOp4
 70
     1
102
RTVSPropertyOp5
 70
     1
102
RTVSPropertyOp6
 70
     1
102
RTVSPropertyOp7
 70
     1
102
RTVSPropertyOp8
 70
     1
102
RTVSPropertyOp9
 70
     1
102
RTVSPropertyOp10
 70
     1
102
RTVSPropertyOp11
 70
     1
102
RTVSPropertyOp12
 70
     1
102
RTVSPropertyOp13
 70
     1
102
RTVSPropertyOp14
 70
     1
102
RTVSPropertyOp15
 70
     1
102
RTVSPropertyOp16
 70
     1
102
RTVSPropertyOp17
 70
     1
102
RTVSPropertyOp18
 70
     1
102
RTVSPropertyOp19
 70
     1
102
RTVSPropertyOp20
 70
     1
102
RTVSPropertyOp21
 70
     1
102
RTVSPropertyOp22
 70
     1
102
RTVSPropertyOp23
 70
     1
102
RTVSPropertyOp24
 70
     1
102
RTVSPropertyOp25
 70
     1
102
RTVSPropertyOp26
 70
     1
102
RTVSPropertyOp27
 70
     1
102
RTVSPropertyOp28
 70
     1
102
RTVSPropertyOp29
 70
     1
102
RTVSPropertyOp30
 70
     1
102
RTVSPropertyOp31
 70
     1
102
RTVSPropertyOp32
 70
     1
102
RTVSPropertyOp33
 70
     1
102
RTVSPropertyOp34
 70
     1
102
RTVSPropertyOp35
 70
     1
102
RTVSPropertyOp36
 70
     1
102
RTVSPropertyOp37
 70
     1
102
RTVSPropertyOp38
 70
     1
102
RTVSPropertyOp39
 70
     1
102
RTVSPropertyOp40
 70
     1
102
RTVSPropertyOp41
 70
     1
102
RTVSPropertyOp42
 70
     1
102
RTVSPropertyOp43
 70
     1
102
RTVSPropertyOp44
 70
     1
102
RTVSPropertyOp45
 70
     1
102
RTVSPropertyOp46
 70
     1
102
RTVSPropertyOp47
 70
     1
102
RTVSPropertyOp48
 70
     1
102
RTVSPropertyOp49
 70
     1
102
RTVSPropertyOp50
 70
     1
102
RTVSPropertyOp51
 70
     0
102
RTVSPropertyOp52
 70
     0
102
RTVSPropertyOp53
 70
     1
102
RTVSPropertyOp54
 70
     1
102
RTVSPropertyOp55
 70
     1
102
RTVSPropertyOp56
 70
     1
102
RTVSPropertyOp57
 70
     1
102
RTVSPropertyOp58
 70
     1
102
RTVSPropertyOp59
 70
     1
102
RTVSPropertyOp60
 70
     1
102
RTVSPropertyOp61
 70
     1
102
RTVSPropertyOp62
 70
     1
  0
XRECORD
  5
18D0
102
{ACAD_REACTORS
330
18CF
102
}
330
18CF
100
AcDbXrecord
280
     1
102
RTVSPost2010Prop28
280
     0
102
RTVSPost2010PropOp28
 70
     1
102
RTVSPost2010Prop29
280
     1
102
RTVSPost2010PropOp29
 70
     1
102
RTVSPost2010Prop30
280
     1
102
RTVSPost2010PropOp30
 70
     1
102
RTVSPost2010Prop31
280
     0
102
RTVSPost2010PropOp31
 70
     1
102
RTVSPost2010Prop32
280
     0
102
RTVSPost2010PropOp32
 70
     1
102
RTVSPost2010Prop33
280
     0
102
RTVSPost2010PropOp33
 70
     1
102
RTVSPost2010Prop34
280
     0
102
RTVSPost2010PropOp34
 70
     1
102
RTVSPost2010Prop35
280
     0
102
RTVSPost2010PropOp35
 70
     1
102
RTVSPost2010Prop36
280
     0
102
RTVSPost2010PropOp36
 70
     1
102
RTVSPost2010Prop37
 90
       50
102
RTVSPost2010PropOp37
 70
     1
102
RTVSPost2010Prop38
140
0.0
102
RTVSPost2010PropOp38
 70
     1
102
RTVSPost2010Prop39
140
1.0
102
RTVSPost2010PropOp39
 70
     1
102
RTVSPost2010Prop40
 90
        0
102
RTVSPost2010PropOp40
 70
     1
102
RTVSPost2010Prop41ColorIndex
 90
       18
102
RTVSPost2010Prop41ColorRGB
 90
        0
102
RTVSPost2010PropOp41
 70
     1
102
RTVSPost2010Prop42
 90
       50
102
RTVSPost2010PropOp42
 70
     1
102
RTVSPost2010Prop43
 90
        3
102
RTVSPost2010PropOp43
 70
     1
102
RTVSPost2010Prop44ColorIndex
 90
        5
102
RTVSPost2010Prop44ColorRGB
 90
      255
102
RTVSPost2010PropOp44
 70
     1
102
RTVSPost2010Prop45
280
     0
102
RTVSPost2010PropOp45
 70
     1
102
RTVSPost2010Prop46
 90
       50
102
RTVSPost2010PropOp46
 70
     1
102
RTVSPost2010Prop47
 90
       50
102
RTVSPost2010PropOp47
 70
     1
102
RTVSPost2010Prop48
 90
       50
102
RTVSPost2010PropOp48
 70
     1
102
RTVSPost2010Prop49
280
     0
102
RTVSPost2010PropOp49
 70
     1
102
RTVSPost2010Prop50
 90
       50
102
RTVSPost2010PropOp50
 70
     1
102
RTVSPost2010Prop51ColorIndex
 90
      256
102
RTVSPost2010Prop51ColorRGB
 90
-16777216
102
RTVSPost2010PropOp51
 70
     0
102
RTVSPost2010Prop52
140
1.0
102
RTVSPost2010PropOp52
 70
     0
102
RTVSPost2010Prop53
 90
        2
102
RTVSPost2010PropOp53
 70
     1
102
RTVSPost2010Prop54
  1
strokes_ogs.tif
102
RTVSPost2010PropOp54
 70
     1
102
RTVSPost2010Prop55
280
     0
102
RTVSPost2010PropOp55
 70
     1
102
RTVSPost2010Prop56
140
1.0
102
RTVSPost2010PropOp56
 70
     1
102
RTVSPost2010Prop57
140
1.0
102
RTVSPost2010PropOp57
 70
     1
102
RTVSPropertyOp0
 70
     1
102
RTVSPropertyOp1
 70
     1
102
RTVSPropertyOp2
 70
     1
102
RTVSPropertyOp3
 70
     1
102
RTVSPropertyOp4
 70
     1
102
RTVSPropertyOp5
 70
     1
102
RTVSPropertyOp6
 70
     1
102
RTVSPropertyOp7
 70
     1
102
RTVSPropertyOp8
 70
     1
102
RTVSPropertyOp9
 70
     1
102
RTVSPropertyOp10
 70
     1
102
RTVSPropertyOp11
 70
     1
102
RTVSPropertyOp12
 70
     1
102
RTVSPropertyOp13
 70
     1
102
RTVSPropertyOp14
 70
     1
102
RTVSPropertyOp15
 70
     1
102
RTVSPropertyOp16
 70
     1
102
RTVSPropertyOp17
 70
     1
102
RTVSPropertyOp18
 70
     1
102
RTVSPropertyOp19
 70
     1
102
RTVSPropertyOp20
 70
     1
102
RTVSPropertyOp21
 70
     1
102
RTVSPropertyOp22
 70
     1
102
RTVSPropertyOp23
 70
     1
102
RTVSPropertyOp24
 70
     1
102
RTVSPropertyOp25
 70
     1
102
RTVSPropertyOp26
 70
     1
102
RTVSPropertyOp27
 70
     1
102
RTVSPropertyOp28
 70
     1
102
RTVSPropertyOp29
 70
     1
102
RTVSPropertyOp30
 70
     1
102
RTVSPropertyOp31
 70
     1
102
RTVSPropertyOp32
 70
     1
102
RTVSPropertyOp33
 70
     1
102
RTVSPropertyOp34
 70
     1
102
RTVSPropertyOp35
 70
     1
102
RTVSPropertyOp36
 70
     1
102
RTVSPropertyOp37
 70
     1
102
RTVSPropertyOp38
 70
     1
102
RTVSPropertyOp39
 70
     1
102
RTVSPropertyOp40
 70
     1
102
RTVSPropertyOp41
 70
     1
102
RTVSPropertyOp42
 70
     1
102
RTVSPropertyOp43
 70
     1
102
RTVSPropertyOp44
 70
     1
102
RTVSPropertyOp45
 70
     1
102
RTVSPropertyOp46
 70
     1
102
RTVSPropertyOp47
 70
     1
102
RTVSPropertyOp48
 70
     1
102
RTVSPropertyOp49
 70
     1
102
RTVSPropertyOp50
 70
     1
102
RTVSPropertyOp51
 70
     0
102
RTVSPropertyOp52
 70
     0
102
RTVSPropertyOp53
 70
     1
102
RTVSPropertyOp54
 70
     1
102
RTVSPropertyOp55
 70
     1
102
RTVSPropertyOp56
 70
     1
102
RTVSPropertyOp57
 70
     1
102
RTVSPropertyOp58
 70
     1
102
RTVSPropertyOp59
 70
     1
102
RTVSPropertyOp60
 70
     1
102
RTVSPropertyOp61
 70
     1
102
RTVSPropertyOp62
 70
     1
  0
XRECORD
  5
18DE
102
{ACAD_REACTORS
330
18DD
102
}
330
18DD
100
AcDbXrecord
280
     1
102
RTVSPost2010Prop28
280
     0
102
RTVSPost2010PropOp28
 70
     1
102
RTVSPost2010Prop29
280
     1
102
RTVSPost2010PropOp29
 70
     1
102
RTVSPost2010Prop30
280
     1
102
RTVSPost2010PropOp30
 70
     1
102
RTVSPost2010Prop31
280
     0
102
RTVSPost2010PropOp31
 70
     1
102
RTVSPost2010Prop32
280
     0
102
RTVSPost2010PropOp32
 70
     1
102
RTVSPost2010Prop33
280
     0
102
RTVSPost2010PropOp33
 70
     1
102
RTVSPost2010Prop34
280
     0
102
RTVSPost2010PropOp34
 70
     1
102
RTVSPost2010Prop35
280
     0
102
RTVSPost2010PropOp35
 70
     1
102
RTVSPost2010Prop36
280
     0
102
RTVSPost2010PropOp36
 70
     1
102
RTVSPost2010Prop37
 90
       50
102
RTVSPost2010PropOp37
 70
     1
102
RTVSPost2010Prop38
140
0.0
102
RTVSPost2010PropOp38
 70
     1
102
RTVSPost2010Prop39
140
1.0
102
RTVSPost2010PropOp39
 70
     1
102
RTVSPost2010Prop40
 90
        0
102
RTVSPost2010PropOp40
 70
     1
102
RTVSPost2010Prop41ColorIndex
 90
       18
102
RTVSPost2010Prop41ColorRGB
 90
        0
102
RTVSPost2010PropOp41
 70
     1
102
RTVSPost2010Prop42
 90
       50
102
RTVSPost2010PropOp42
 70
     1
102
RTVSPost2010Prop43
 90
        3
102
RTVSPost2010PropOp43
 70
     1
102
RTVSPost2010Prop44ColorIndex
 90
        5
102
RTVSPost2010Prop44ColorRGB
 90
      255
102
RTVSPost2010PropOp44
 70
     1
102
RTVSPost2010Prop45
280
     0
102
RTVSPost2010PropOp45
 70
     1
102
RTVSPost2010Prop46
 90
       50
102
RTVSPost2010PropOp46
 70
     1
102
RTVSPost2010Prop47
 90
       50
102
RTVSPost2010PropOp47
 70
     1
102
RTVSPost2010Prop48
 90
       50
102
RTVSPost2010PropOp48
 70
     1
102
RTVSPost2010Prop49
280
     0
102
RTVSPost2010PropOp49
 70
     1
102
RTVSPost2010Prop50
 90
       50
102
RTVSPost2010PropOp50
 70
     1
102
RTVSPost2010Prop51ColorIndex
 90
      256
102
RTVSPost2010Prop51ColorRGB
 90
-16777216
102
RTVSPost2010PropOp51
 70
     0
102
RTVSPost2010Prop52
140
1.0
102
RTVSPost2010PropOp52
 70
     0
102
RTVSPost2010Prop53
 90
        2
102
RTVSPost2010PropOp53
 70
     1
102
RTVSPost2010Prop54
  1
strokes_ogs.tif
102
RTVSPost2010PropOp54
 70
     1
102
RTVSPost2010Prop55
280
     0
102
RTVSPost2010PropOp55
 70
     1
102
RTVSPost2010Prop56
140
1.0
102
RTVSPost2010PropOp56
 70
     1
102
RTVSPost2010Prop57
140
1.0
102
RTVSPost2010PropOp57
 70
     1
102
RTVSPropertyOp0
 70
     1
102
RTVSPropertyOp1
 70
     1
102
RTVSPropertyOp2
 70
     1
102
RTVSPropertyOp3
 70
     1
102
RTVSPropertyOp4
 70
     1
102
RTVSPropertyOp5
 70
     1
102
RTVSPropertyOp6
 70
     1
102
RTVSPropertyOp7
 70
     1
102
RTVSPropertyOp8
 70
     1
102
RTVSPropertyOp9
 70
     1
102
RTVSPropertyOp10
 70
     1
102
RTVSPropertyOp11
 70
     1
102
RTVSPropertyOp12
 70
     1
102
RTVSPropertyOp13
 70
     1
102
RTVSPropertyOp14
 70
     1
102
RTVSPropertyOp15
 70
     1
102
RTVSPropertyOp16
 70
     1
102
RTVSPropertyOp17
 70
     1
102
RTVSPropertyOp18
 70
     1
102
RTVSPropertyOp19
 70
     1
102
RTVSPropertyOp20
 70
     1
102
RTVSPropertyOp21
 70
     1
102
RTVSPropertyOp22
 70
     1
102
RTVSPropertyOp23
 70
     1
102
RTVSPropertyOp24
 70
     1
102
RTVSPropertyOp25
 70
     1
102
RTVSPropertyOp26
 70
     1
102
RTVSPropertyOp27
 70
     1
102
RTVSPropertyOp28
 70
     1
102
RTVSPropertyOp29
 70
     1
102
RTVSPropertyOp30
 70
     1
102
RTVSPropertyOp31
 70
     1
102
RTVSPropertyOp32
 70
     1
102
RTVSPropertyOp33
 70
     1
102
RTVSPropertyOp34
 70
     1
102
RTVSPropertyOp35
 70
     1
102
RTVSPropertyOp36
 70
     1
102
RTVSPropertyOp37
 70
     1
102
RTVSPropertyOp38
 70
     1
102
RTVSPropertyOp39
 70
     1
102
RTVSPropertyOp40
 70
     1
102
RTVSPropertyOp41
 70
     1
102
RTVSPropertyOp42
 70
     1
102
RTVSPropertyOp43
 70
     1
102
RTVSPropertyOp44
 70
     1
102
RTVSPropertyOp45
 70
     1
102
RTVSPropertyOp46
 70
     1
102
RTVSPropertyOp47
 70
     1
102
RTVSPropertyOp48
 70
     1
102
RTVSPropertyOp49
 70
     1
102
RTVSPropertyOp50
 70
     1
102
RTVSPropertyOp51
 70
     0
102
RTVSPropertyOp52
 70
     0
102
RTVSPropertyOp53
 70
     1
102
RTVSPropertyOp54
 70
     1
102
RTVSPropertyOp55
 70
     1
102
RTVSPropertyOp56
 70
     1
102
RTVSPropertyOp57
 70
     1
102
RTVSPropertyOp58
 70
     1
102
RTVSPropertyOp59
 70
     1
102
RTVSPropertyOp60
 70
     1
102
RTVSPropertyOp61
 70
     1
102
RTVSPropertyOp62
 70
     1
  0
XRECORD
  5
18E6
102
{ACAD_REACTORS
330
18E5
102
}
330
18E5
100
AcDbXrecord
280
     1
102
RTVSPost2010Prop28
280
     0
102
RTVSPost2010PropOp28
 70
     1
102
RTVSPost2010Prop29
280
     1
102
RTVSPost2010PropOp29
 70
     1
102
RTVSPost2010Prop30
280
     1
102
RTVSPost2010PropOp30
 70
     1
102
RTVSPost2010Prop31
280
     0
102
RTVSPost2010PropOp31
 70
     1
102
RTVSPost2010Prop32
280
     0
102
RTVSPost2010PropOp32
 70
     1
102
RTVSPost2010Prop33
280
     0
102
RTVSPost2010PropOp33
 70
     1
102
RTVSPost2010Prop34
280
     0
102
RTVSPost2010PropOp34
 70
     1
102
RTVSPost2010Prop35
280
     0
102
RTVSPost2010PropOp35
 70
     1
102
RTVSPost2010Prop36
280
     0
102
RTVSPost2010PropOp36
 70
     1
102
RTVSPost2010Prop37
 90
       50
102
RTVSPost2010PropOp37
 70
     1
102
RTVSPost2010Prop38
140
0.0
102
RTVSPost2010PropOp38
 70
     1
102
RTVSPost2010Prop39
140
1.0
102
RTVSPost2010PropOp39
 70
     1
102
RTVSPost2010Prop40
 90
        0
102
RTVSPost2010PropOp40
 70
     1
102
RTVSPost2010Prop41ColorIndex
 90
       18
102
RTVSPost2010Prop41ColorRGB
 90
        0
102
RTVSPost2010PropOp41
 70
     1
102
RTVSPost2010Prop42
 90
       50
102
RTVSPost2010PropOp42
 70
     1
102
RTVSPost2010Prop43
 90
        3
102
RTVSPost2010PropOp43
 70
     1
102
RTVSPost2010Prop44ColorIndex
 90
        5
102
RTVSPost2010Prop44ColorRGB
 90
      255
102
RTVSPost2010PropOp44
 70
     1
102
RTVSPost2010Prop45
280
     0
102
RTVSPost2010PropOp45
 70
     1
102
RTVSPost2010Prop46
 90
       50
102
RTVSPost2010PropOp46
 70
     1
102
RTVSPost2010Prop47
 90
       50
102
RTVSPost2010PropOp47
 70
     1
102
RTVSPost2010Prop48
 90
       50
102
RTVSPost2010PropOp48
 70
     1
102
RTVSPost2010Prop49
280
     0
102
RTVSPost2010PropOp49
 70
     1
102
RTVSPost2010Prop50
 90
       50
102
RTVSPost2010PropOp50
 70
     1
102
RTVSPost2010Prop51ColorIndex
 90
      256
102
RTVSPost2010Prop51ColorRGB
 90
-16777216
102
RTVSPost2010PropOp51
 70
     0
102
RTVSPost2010Prop52
140
1.0
102
RTVSPost2010PropOp52
 70
     0
102
RTVSPost2010Prop53
 90
        2
102
RTVSPost2010PropOp53
 70
     1
102
RTVSPost2010Prop54
  1
strokes_ogs.tif
102
RTVSPost2010PropOp54
 70
     1
102
RTVSPost2010Prop55
280
     0
102
RTVSPost2010PropOp55
 70
     1
102
RTVSPost2010Prop56
140
1.0
102
RTVSPost2010PropOp56
 70
     1
102
RTVSPost2010Prop57
140
1.0
102
RTVSPost2010PropOp57
 70
     1
102
RTVSPropertyOp0
 70
     1
102
RTVSPropertyOp1
 70
     1
102
RTVSPropertyOp2
 70
     1
102
RTVSPropertyOp3
 70
     1
102
RTVSPropertyOp4
 70
     1
102
RTVSPropertyOp5
 70
     1
102
RTVSPropertyOp6
 70
     1
102
RTVSPropertyOp7
 70
     1
102
RTVSPropertyOp8
 70
     1
102
RTVSPropertyOp9
 70
     1
102
RTVSPropertyOp10
 70
     1
102
RTVSPropertyOp11
 70
     1
102
RTVSPropertyOp12
 70
     1
102
RTVSPropertyOp13
 70
     1
102
RTVSPropertyOp14
 70
     1
102
RTVSPropertyOp15
 70
     1
102
RTVSPropertyOp16
 70
     1
102
RTVSPropertyOp17
 70
     1
102
RTVSPropertyOp18
 70
     1
102
RTVSPropertyOp19
 70
     1
102
RTVSPropertyOp20
 70
     1
102
RTVSPropertyOp21
 70
     1
102
RTVSPropertyOp22
 70
     1
102
RTVSPropertyOp23
 70
     1
102
RTVSPropertyOp24
 70
     1
102
RTVSPropertyOp25
 70
     1
102
RTVSPropertyOp26
 70
     1
102
RTVSPropertyOp27
 70
     1
102
RTVSPropertyOp28
 70
     1
102
RTVSPropertyOp29
 70
     1
102
RTVSPropertyOp30
 70
     1
102
RTVSPropertyOp31
 70
     1
102
RTVSPropertyOp32
 70
     1
102
RTVSPropertyOp33
 70
     1
102
RTVSPropertyOp34
 70
     1
102
RTVSPropertyOp35
 70
     1
102
RTVSPropertyOp36
 70
     1
102
RTVSPropertyOp37
 70
     1
102
RTVSPropertyOp38
 70
     1
102
RTVSPropertyOp39
 70
     1
102
RTVSPropertyOp40
 70
     1
102
RTVSPropertyOp41
 70
     1
102
RTVSPropertyOp42
 70
     1
102
RTVSPropertyOp43
 70
     1
102
RTVSPropertyOp44
 70
     1
102
RTVSPropertyOp45
 70
     1
102
RTVSPropertyOp46
 70
     1
102
RTVSPropertyOp47
 70
     1
102
RTVSPropertyOp48
 70
     1
102
RTVSPropertyOp49
 70
     1
102
RTVSPropertyOp50
 70
     1
102
RTVSPropertyOp51
 70
     0
102
RTVSPropertyOp52
 70
     0
102
RTVSPropertyOp53
 70
     1
102
RTVSPropertyOp54
 70
     1
102
RTVSPropertyOp55
 70
     1
102
RTVSPropertyOp56
 70
     1
102
RTVSPropertyOp57
 70
     1
102
RTVSPropertyOp58
 70
     1
102
RTVSPropertyOp59
 70
     1
102
RTVSPropertyOp60
 70
     1
102
RTVSPropertyOp61
 70
     1
102
RTVSPropertyOp62
 70
     1
  0
XRECORD
  5
18D8
102
{ACAD_REACTORS
330
18D7
102
}
330
18D7
100
AcDbXrecord
280
     1
102
RTVSPost2010Prop28
280
     0
102
RTVSPost2010PropOp28
 70
     1
102
RTVSPost2010Prop29
280
     1
102
RTVSPost2010PropOp29
 70
     1
102
RTVSPost2010Prop30
280
     1
102
RTVSPost2010PropOp30
 70
     1
102
RTVSPost2010Prop31
280
     0
102
RTVSPost2010PropOp31
 70
     1
102
RTVSPost2010Prop32
280
     0
102
RTVSPost2010PropOp32
 70
     1
102
RTVSPost2010Prop33
280
     0
102
RTVSPost2010PropOp33
 70
     1
102
RTVSPost2010Prop34
280
     0
102
RTVSPost2010PropOp34
 70
     1
102
RTVSPost2010Prop35
280
     0
102
RTVSPost2010PropOp35
 70
     1
102
RTVSPost2010Prop36
280
     0
102
RTVSPost2010PropOp36
 70
     1
102
RTVSPost2010Prop37
 90
       50
102
RTVSPost2010PropOp37
 70
     1
102
RTVSPost2010Prop38
140
0.0
102
RTVSPost2010PropOp38
 70
     1
102
RTVSPost2010Prop39
140
1.0
102
RTVSPost2010PropOp39
 70
     1
102
RTVSPost2010Prop40
 90
        0
102
RTVSPost2010PropOp40
 70
     1
102
RTVSPost2010Prop41ColorIndex
 90
       18
102
RTVSPost2010Prop41ColorRGB
 90
        0
102
RTVSPost2010PropOp41
 70
     1
102
RTVSPost2010Prop42
 90
       50
102
RTVSPost2010PropOp42
 70
     1
102
RTVSPost2010Prop43
 90
        3
102
RTVSPost2010PropOp43
 70
     1
102
RTVSPost2010Prop44ColorIndex
 90
        5
102
RTVSPost2010Prop44ColorRGB
 90
      255
102
RTVSPost2010PropOp44
 70
     1
102
RTVSPost2010Prop45
280
     0
102
RTVSPost2010PropOp45
 70
     1
102
RTVSPost2010Prop46
 90
       50
102
RTVSPost2010PropOp46
 70
     1
102
RTVSPost2010Prop47
 90
       50
102
RTVSPost2010PropOp47
 70
     1
102
RTVSPost2010Prop48
 90
       50
102
RTVSPost2010PropOp48
 70
     1
102
RTVSPost2010Prop49
280
     0
102
RTVSPost2010PropOp49
 70
     1
102
RTVSPost2010Prop50
 90
       50
102
RTVSPost2010PropOp50
 70
     1
102
RTVSPost2010Prop51ColorIndex
 90
      256
102
RTVSPost2010Prop51ColorRGB
 90
-16777216
102
RTVSPost2010PropOp51
 70
     0
102
RTVSPost2010Prop52
140
1.0
102
RTVSPost2010PropOp52
 70
     0
102
RTVSPost2010Prop53
 90
        2
102
RTVSPost2010PropOp53
 70
     1
102
RTVSPost2010Prop54
  1
strokes_ogs.tif
102
RTVSPost2010PropOp54
 70
     1
102
RTVSPost2010Prop55
280
     0
102
RTVSPost2010PropOp55
 70
     1
102
RTVSPost2010Prop56
140
1.0
102
RTVSPost2010PropOp56
 70
     1
102
RTVSPost2010Prop57
140
1.0
102
RTVSPost2010PropOp57
 70
     1
102
RTVSPropertyOp0
 70
     1
102
RTVSPropertyOp1
 70
     1
102
RTVSPropertyOp2
 70
     1
102
RTVSPropertyOp3
 70
     1
102
RTVSPropertyOp4
 70
     1
102
RTVSPropertyOp5
 70
     1
102
RTVSPropertyOp6
 70
     1
102
RTVSPropertyOp7
 70
     1
102
RTVSPropertyOp8
 70
     1
102
RTVSPropertyOp9
 70
     1
102
RTVSPropertyOp10
 70
     1
102
RTVSPropertyOp11
 70
     1
102
RTVSPropertyOp12
 70
     1
102
RTVSPropertyOp13
 70
     1
102
RTVSPropertyOp14
 70
     1
102
RTVSPropertyOp15
 70
     1
102
RTVSPropertyOp16
 70
     1
102
RTVSPropertyOp17
 70
     1
102
RTVSPropertyOp18
 70
     1
102
RTVSPropertyOp19
 70
     1
102
RTVSPropertyOp20
 70
     1
102
RTVSPropertyOp21
 70
     1
102
RTVSPropertyOp22
 70
     1
102
RTVSPropertyOp23
 70
     1
102
RTVSPropertyOp24
 70
     1
102
RTVSPropertyOp25
 70
     1
102
RTVSPropertyOp26
 70
     1
102
RTVSPropertyOp27
 70
     1
102
RTVSPropertyOp28
 70
     1
102
RTVSPropertyOp29
 70
     1
102
RTVSPropertyOp30
 70
     1
102
RTVSPropertyOp31
 70
     1
102
RTVSPropertyOp32
 70
     1
102
RTVSPropertyOp33
 70
     1
102
RTVSPropertyOp34
 70
     1
102
RTVSPropertyOp35
 70
     1
102
RTVSPropertyOp36
 70
     1
102
RTVSPropertyOp37
 70
     1
102
RTVSPropertyOp38
 70
     1
102
RTVSPropertyOp39
 70
     1
102
RTVSPropertyOp40
 70
     1
102
RTVSPropertyOp41
 70
     1
102
RTVSPropertyOp42
 70
     1
102
RTVSPropertyOp43
 70
     1
102
RTVSPropertyOp44
 70
     1
102
RTVSPropertyOp45
 70
     1
102
RTVSPropertyOp46
 70
     1
102
RTVSPropertyOp47
 70
     1
102
RTVSPropertyOp48
 70
     1
102
RTVSPropertyOp49
 70
     1
102
RTVSPropertyOp50
 70
     1
102
RTVSPropertyOp51
 70
     0
102
RTVSPropertyOp52
 70
     0
102
RTVSPropertyOp53
 70
     1
102
RTVSPropertyOp54
 70
     1
102
RTVSPropertyOp55
 70
     1
102
RTVSPropertyOp56
 70
     1
102
RTVSPropertyOp57
 70
     1
102
RTVSPropertyOp58
 70
     1
102
RTVSPropertyOp59
 70
     1
102
RTVSPropertyOp60
 70
     1
102
RTVSPropertyOp61
 70
     1
102
RTVSPropertyOp62
 70
     1
  0
XRECORD
  5
18DC
102
{ACAD_REACTORS
330
18DB
102
}
330
18DB
100
AcDbXrecord
280
     1
102
RTVSPost2010Prop28
280
     0
102
RTVSPost2010PropOp28
 70
     1
102
RTVSPost2010Prop29
280
     1
102
RTVSPost2010PropOp29
 70
     1
102
RTVSPost2010Prop30
280
     1
102
RTVSPost2010PropOp30
 70
     1
102
RTVSPost2010Prop31
280
     0
102
RTVSPost2010PropOp31
 70
     1
102
RTVSPost2010Prop32
280
     0
102
RTVSPost2010PropOp32
 70
     1
102
RTVSPost2010Prop33
280
     0
102
RTVSPost2010PropOp33
 70
     1
102
RTVSPost2010Prop34
280
     0
102
RTVSPost2010PropOp34
 70
     1
102
RTVSPost2010Prop35
280
     0
102
RTVSPost2010PropOp35
 70
     1
102
RTVSPost2010Prop36
280
     0
102
RTVSPost2010PropOp36
 70
     1
102
RTVSPost2010Prop37
 90
       50
102
RTVSPost2010PropOp37
 70
     1
102
RTVSPost2010Prop38
140
0.0
102
RTVSPost2010PropOp38
 70
     1
102
RTVSPost2010Prop39
140
1.0
102
RTVSPost2010PropOp39
 70
     1
102
RTVSPost2010Prop40
 90
        0
102
RTVSPost2010PropOp40
 70
     1
102
RTVSPost2010Prop41ColorIndex
 90
       18
102
RTVSPost2010Prop41ColorRGB
 90
        0
102
RTVSPost2010PropOp41
 70
     1
102
RTVSPost2010Prop42
 90
       50
102
RTVSPost2010PropOp42
 70
     1
102
RTVSPost2010Prop43
 90
        3
102
RTVSPost2010PropOp43
 70
     1
102
RTVSPost2010Prop44ColorIndex
 90
        5
102
RTVSPost2010Prop44ColorRGB
 90
      255
102
RTVSPost2010PropOp44
 70
     1
102
RTVSPost2010Prop45
280
     0
102
RTVSPost2010PropOp45
 70
     1
102
RTVSPost2010Prop46
 90
       50
102
RTVSPost2010PropOp46
 70
     1
102
RTVSPost2010Prop47
 90
       50
102
RTVSPost2010PropOp47
 70
     1
102
RTVSPost2010Prop48
 90
       50
102
RTVSPost2010PropOp48
 70
     1
102
RTVSPost2010Prop49
280
     0
102
RTVSPost2010PropOp49
 70
     1
102
RTVSPost2010Prop50
 90
       50
102
RTVSPost2010PropOp50
 70
     1
102
RTVSPost2010Prop51ColorIndex
 90
      256
102
RTVSPost2010Prop51ColorRGB
 90
-16777216
102
RTVSPost2010PropOp51
 70
     0
102
RTVSPost2010Prop52
140
1.0
102
RTVSPost2010PropOp52
 70
     0
102
RTVSPost2010Prop53
 90
        2
102
RTVSPost2010PropOp53
 70
     1
102
RTVSPost2010Prop54
  1
strokes_ogs.tif
102
RTVSPost2010PropOp54
 70
     1
102
RTVSPost2010Prop55
280
     0
102
RTVSPost2010PropOp55
 70
     1
102
RTVSPost2010Prop56
140
1.0
102
RTVSPost2010PropOp56
 70
     1
102
RTVSPost2010Prop57
140
1.0
102
RTVSPost2010PropOp57
 70
     1
102
RTVSPropertyOp0
 70
     1
102
RTVSPropertyOp1
 70
     1
102
RTVSPropertyOp2
 70
     1
102
RTVSPropertyOp3
 70
     1
102
RTVSPropertyOp4
 70
     1
102
RTVSPropertyOp5
 70
     1
102
RTVSPropertyOp6
 70
     1
102
RTVSPropertyOp7
 70
     1
102
RTVSPropertyOp8
 70
     1
102
RTVSPropertyOp9
 70
     1
102
RTVSPropertyOp10
 70
     1
102
RTVSPropertyOp11
 70
     1
102
RTVSPropertyOp12
 70
     1
102
RTVSPropertyOp13
 70
     1
102
RTVSPropertyOp14
 70
     1
102
RTVSPropertyOp15
 70
     1
102
RTVSPropertyOp16
 70
     1
102
RTVSPropertyOp17
 70
     1
102
RTVSPropertyOp18
 70
     1
102
RTVSPropertyOp19
 70
     1
102
RTVSPropertyOp20
 70
     1
102
RTVSPropertyOp21
 70
     1
102
RTVSPropertyOp22
 70
     1
102
RTVSPropertyOp23
 70
     1
102
RTVSPropertyOp24
 70
     1
102
RTVSPropertyOp25
 70
     1
102
RTVSPropertyOp26
 70
     1
102
RTVSPropertyOp27
 70
     1
102
RTVSPropertyOp28
 70
     1
102
RTVSPropertyOp29
 70
     1
102
RTVSPropertyOp30
 70
     1
102
RTVSPropertyOp31
 70
     1
102
RTVSPropertyOp32
 70
     1
102
RTVSPropertyOp33
 70
     1
102
RTVSPropertyOp34
 70
     1
102
RTVSPropertyOp35
 70
     1
102
RTVSPropertyOp36
 70
     1
102
RTVSPropertyOp37
 70
     1
102
RTVSPropertyOp38
 70
     1
102
RTVSPropertyOp39
 70
     1
102
RTVSPropertyOp40
 70
     1
102
RTVSPropertyOp41
 70
     1
102
RTVSPropertyOp42
 70
     1
102
RTVSPropertyOp43
 70
     1
102
RTVSPropertyOp44
 70
     1
102
RTVSPropertyOp45
 70
     1
102
RTVSPropertyOp46
 70
     1
102
RTVSPropertyOp47
 70
     1
102
RTVSPropertyOp48
 70
     1
102
RTVSPropertyOp49
 70
     1
102
RTVSPropertyOp50
 70
     1
102
RTVSPropertyOp51
 70
     0
102
RTVSPropertyOp52
 70
     0
102
RTVSPropertyOp53
 70
     1
102
RTVSPropertyOp54
 70
     1
102
RTVSPropertyOp55
 70
     1
102
RTVSPropertyOp56
 70
     1
102
RTVSPropertyOp57
 70
     1
102
RTVSPropertyOp58
 70
     1
102
RTVSPropertyOp59
 70
     1
102
RTVSPropertyOp60
 70
     1
102
RTVSPropertyOp61
 70
     1
102
RTVSPropertyOp62
 70
     1
  0
XRECORD
  5
18F6
102
{ACAD_REACTORS
330
18F5
102
}
330
18F5
100
AcDbXrecord
280
     1
102
RTVSPost2010Prop28
280
     0
102
RTVSPost2010PropOp28
 70
     1
102
RTVSPost2010Prop29
280
     1
102
RTVSPost2010PropOp29
 70
     1
102
RTVSPost2010Prop30
280
     1
102
RTVSPost2010PropOp30
 70
     1
102
RTVSPost2010Prop31
280
     0
102
RTVSPost2010PropOp31
 70
     1
102
RTVSPost2010Prop32
280
     0
102
RTVSPost2010PropOp32
 70
     1
102
RTVSPost2010Prop33
280
     0
102
RTVSPost2010PropOp33
 70
     1
102
RTVSPost2010Prop34
280
     0
102
RTVSPost2010PropOp34
 70
     1
102
RTVSPost2010Prop35
280
     0
102
RTVSPost2010PropOp35
 70
     1
102
RTVSPost2010Prop36
280
     0
102
RTVSPost2010PropOp36
 70
     1
102
RTVSPost2010Prop37
 90
       50
102
RTVSPost2010PropOp37
 70
     0
102
RTVSPost2010Prop38
140
0.0
102
RTVSPost2010PropOp38
 70
     0
102
RTVSPost2010Prop39
140
1.0
102
RTVSPost2010PropOp39
 70
     0
102
RTVSPost2010Prop40
 90
        0
102
RTVSPost2010PropOp40
 70
     0
102
RTVSPost2010Prop41ColorIndex
 90
       18
102
RTVSPost2010Prop41ColorRGB
 90
        0
102
RTVSPost2010PropOp41
 70
     0
102
RTVSPost2010Prop42
 90
       50
102
RTVSPost2010PropOp42
 70
     0
102
RTVSPost2010Prop43
 90
        3
102
RTVSPost2010PropOp43
 70
     0
102
RTVSPost2010Prop44ColorIndex
 90
        5
102
RTVSPost2010Prop44ColorRGB
 90
      255
102
RTVSPost2010PropOp44
 70
     0
102
RTVSPost2010Prop45
280
     0
102
RTVSPost2010PropOp45
 70
     1
102
RTVSPost2010Prop46
 90
       50
102
RTVSPost2010PropOp46
 70
     0
102
RTVSPost2010Prop47
 90
       50
102
RTVSPost2010PropOp47
 70
     0
102
RTVSPost2010Prop48
 90
       50
102
RTVSPost2010PropOp48
 70
     0
102
RTVSPost2010Prop49
280
     0
102
RTVSPost2010PropOp49
 70
     1
102
RTVSPost2010Prop50
 90
       50
102
RTVSPost2010PropOp50
 70
     0
102
RTVSPost2010Prop51ColorIndex
 90
      256
102
RTVSPost2010Prop51ColorRGB
 90
-16777216
102
RTVSPost2010PropOp51
 70
     0
102
RTVSPost2010Prop52
140
1.0
102
RTVSPost2010PropOp52
 70
     0
102
RTVSPost2010Prop53
 90
        2
102
RTVSPost2010PropOp53
 70
     0
102
RTVSPost2010Prop54
  1
strokes_ogs.tif
102
RTVSPost2010PropOp54
 70
     0
102
RTVSPost2010Prop55
280
     0
102
RTVSPost2010PropOp55
 70
     1
102
RTVSPost2010Prop56
140
1.0
102
RTVSPost2010PropOp56
 70
     0
102
RTVSPost2010Prop57
140
1.0
102
RTVSPost2010PropOp57
 70
     0
102
RTVSPropertyOp0
 70
     0
102
RTVSPropertyOp1
 70
     0
102
RTVSPropertyOp2
 70
     0
102
RTVSPropertyOp3
 70
     0
102
RTVSPropertyOp4
 70
     0
102
RTVSPropertyOp5
 70
     0
102
RTVSPropertyOp6
 70
     0
102
RTVSPropertyOp7
 70
     0
102
RTVSPropertyOp8
 70
     0
102
RTVSPropertyOp9
 70
     0
102
RTVSPropertyOp10
 70
     0
102
RTVSPropertyOp11
 70
     0
102
RTVSPropertyOp12
 70
     0
102
RTVSPropertyOp13
 70
     0
102
RTVSPropertyOp14
 70
     2
102
RTVSPropertyOp15
 70
     0
102
RTVSPropertyOp16
 70
     0
102
RTVSPropertyOp17
 70
     0
102
RTVSPropertyOp18
 70
     0
102
RTVSPropertyOp19
 70
     0
102
RTVSPropertyOp20
 70
     0
102
RTVSPropertyOp21
 70
     0
102
RTVSPropertyOp22
 70
     0
102
RTVSPropertyOp23
 70
     0
102
RTVSPropertyOp24
 70
     0
102
RTVSPropertyOp25
 70
     0
102
RTVSPropertyOp26
 70
     0
102
RTVSPropertyOp27
 70
     0
102
RTVSPropertyOp28
 70
     1
102
RTVSPropertyOp29
 70
     1
102
RTVSPropertyOp30
 70
     1
102
RTVSPropertyOp31
 70
     1
102
RTVSPropertyOp32
 70
     1
102
RTVSPropertyOp33
 70
     1
102
RTVSPropertyOp34
 70
     1
102
RTVSPropertyOp35
 70
     1
102
RTVSPropertyOp36
 70
     1
102
RTVSPropertyOp37
 70
     0
102
RTVSPropertyOp38
 70
     0
102
RTVSPropertyOp39
 70
     0
102
RTVSPropertyOp40
 70
     0
102
RTVSPropertyOp41
 70
     0
102
RTVSPropertyOp42
 70
     0
102
RTVSPropertyOp43
 70
     0
102
RTVSPropertyOp44
 70
     0
102
RTVSPropertyOp45
 70
     1
102
RTVSPropertyOp46
 70
     0
102
RTVSPropertyOp47
 70
     0
102
RTVSPropertyOp48
 70
     0
102
RTVSPropertyOp49
 70
     1
102
RTVSPropertyOp50
 70
     0
102
RTVSPropertyOp51
 70
     0
102
RTVSPropertyOp52
 70
     0
102
RTVSPropertyOp53
 70
     0
102
RTVSPropertyOp54
 70
     0
102
RTVSPropertyOp55
 70
     1
102
RTVSPropertyOp56
 70
     0
102
RTVSPropertyOp57
 70
     0
102
RTVSPropertyOp58
 70
     0
102
RTVSPropertyOp59
 70
     0
102
RTVSPropertyOp60
 70
     0
102
RTVSPropertyOp61
 70
     0
102
RTVSPropertyOp62
 70
     0
  0
XRECORD
  5
18E4
102
{ACAD_REACTORS
330
18E3
102
}
330
18E3
100
AcDbXrecord
280
     1
102
RTVSPost2010Prop28
280
     0
102
RTVSPost2010PropOp28
 70
     1
102
RTVSPost2010Prop29
280
     1
102
RTVSPost2010PropOp29
 70
     1
102
RTVSPost2010Prop30
280
     1
102
RTVSPost2010PropOp30
 70
     1
102
RTVSPost2010Prop31
280
     0
102
RTVSPost2010PropOp31
 70
     1
102
RTVSPost2010Prop32
280
     0
102
RTVSPost2010PropOp32
 70
     1
102
RTVSPost2010Prop33
280
     0
102
RTVSPost2010PropOp33
 70
     1
102
RTVSPost2010Prop34
280
     0
102
RTVSPost2010PropOp34
 70
     1
102
RTVSPost2010Prop35
280
     0
102
RTVSPost2010PropOp35
 70
     1
102
RTVSPost2010Prop36
280
     0
102
RTVSPost2010PropOp36
 70
     1
102
RTVSPost2010Prop37
 90
       50
102
RTVSPost2010PropOp37
 70
     1
102
RTVSPost2010Prop38
140
0.0
102
RTVSPost2010PropOp38
 70
     1
102
RTVSPost2010Prop39
140
1.0
102
RTVSPost2010PropOp39
 70
     1
102
RTVSPost2010Prop40
 90
        0
102
RTVSPost2010PropOp40
 70
     1
102
RTVSPost2010Prop41ColorIndex
 90
       18
102
RTVSPost2010Prop41ColorRGB
 90
        0
102
RTVSPost2010PropOp41
 70
     1
102
RTVSPost2010Prop42
 90
       50
102
RTVSPost2010PropOp42
 70
     1
102
RTVSPost2010Prop43
 90
        3
102
RTVSPost2010PropOp43
 70
     1
102
RTVSPost2010Prop44ColorIndex
 90
        5
102
RTVSPost2010Prop44ColorRGB
 90
      255
102
RTVSPost2010PropOp44
 70
     1
102
RTVSPost2010Prop45
280
     0
102
RTVSPost2010PropOp45
 70
     1
102
RTVSPost2010Prop46
 90
       50
102
RTVSPost2010PropOp46
 70
     1
102
RTVSPost2010Prop47
 90
       50
102
RTVSPost2010PropOp47
 70
     1
102
RTVSPost2010Prop48
 90
       50
102
RTVSPost2010PropOp48
 70
     1
102
RTVSPost2010Prop49
280
     0
102
RTVSPost2010PropOp49
 70
     1
102
RTVSPost2010Prop50
 90
       50
102
RTVSPost2010PropOp50
 70
     1
102
RTVSPost2010Prop51ColorIndex
 90
      256
102
RTVSPost2010Prop51ColorRGB
 90
-16777216
102
RTVSPost2010PropOp51
 70
     0
102
RTVSPost2010Prop52
140
1.0
102
RTVSPost2010PropOp52
 70
     0
102
RTVSPost2010Prop53
 90
        2
102
RTVSPost2010PropOp53
 70
     1
102
RTVSPost2010Prop54
  1
strokes_ogs.tif
102
RTVSPost2010PropOp54
 70
     1
102
RTVSPost2010Prop55
280
     0
102
RTVSPost2010PropOp55
 70
     1
102
RTVSPost2010Prop56
140
1.0
102
RTVSPost2010PropOp56
 70
     1
102
RTVSPost2010Prop57
140
1.0
102
RTVSPost2010PropOp57
 70
     1
102
RTVSPropertyOp0
 70
     1
102
RTVSPropertyOp1
 70
     1
102
RTVSPropertyOp2
 70
     1
102
RTVSPropertyOp3
 70
     1
102
RTVSPropertyOp4
 70
     1
102
RTVSPropertyOp5
 70
     1
102
RTVSPropertyOp6
 70
     1
102
RTVSPropertyOp7
 70
     1
102
RTVSPropertyOp8
 70
     1
102
RTVSPropertyOp9
 70
     1
102
RTVSPropertyOp10
 70
     1
102
RTVSPropertyOp11
 70
     1
102
RTVSPropertyOp12
 70
     1
102
RTVSPropertyOp13
 70
     1
102
RTVSPropertyOp14
 70
     1
102
RTVSPropertyOp15
 70
     1
102
RTVSPropertyOp16
 70
     1
102
RTVSPropertyOp17
 70
     1
102
RTVSPropertyOp18
 70
     1
102
RTVSPropertyOp19
 70
     1
102
RTVSPropertyOp20
 70
     1
102
RTVSPropertyOp21
 70
     1
102
RTVSPropertyOp22
 70
     1
102
RTVSPropertyOp23
 70
     1
102
RTVSPropertyOp24
 70
     1
102
RTVSPropertyOp25
 70
     1
102
RTVSPropertyOp26
 70
     1
102
RTVSPropertyOp27
 70
     1
102
RTVSPropertyOp28
 70
     1
102
RTVSPropertyOp29
 70
     1
102
RTVSPropertyOp30
 70
     1
102
RTVSPropertyOp31
 70
     1
102
RTVSPropertyOp32
 70
     1
102
RTVSPropertyOp33
 70
     1
102
RTVSPropertyOp34
 70
     1
102
RTVSPropertyOp35
 70
     1
102
RTVSPropertyOp36
 70
     1
102
RTVSPropertyOp37
 70
     1
102
RTVSPropertyOp38
 70
     1
102
RTVSPropertyOp39
 70
     1
102
RTVSPropertyOp40
 70
     1
102
RTVSPropertyOp41
 70
     1
102
RTVSPropertyOp42
 70
     1
102
RTVSPropertyOp43
 70
     1
102
RTVSPropertyOp44
 70
     1
102
RTVSPropertyOp45
 70
     1
102
RTVSPropertyOp46
 70
     1
102
RTVSPropertyOp47
 70
     1
102
RTVSPropertyOp48
 70
     1
102
RTVSPropertyOp49
 70
     1
102
RTVSPropertyOp50
 70
     1
102
RTVSPropertyOp51
 70
     0
102
RTVSPropertyOp52
 70
     0
102
RTVSPropertyOp53
 70
     1
102
RTVSPropertyOp54
 70
     1
102
RTVSPropertyOp55
 70
     1
102
RTVSPropertyOp56
 70
     1
102
RTVSPropertyOp57
 70
     1
102
RTVSPropertyOp58
 70
     1
102
RTVSPropertyOp59
 70
     1
102
RTVSPropertyOp60
 70
     1
102
RTVSPropertyOp61
 70
     1
102
RTVSPropertyOp62
 70
     1
  0
XRECORD
  5
18C8
102
{ACAD_REACTORS
330
18C7
102
}
330
18C7
100
AcDbXrecord
280
     1
102
RTVSPost2010Prop28
280
     0
102
RTVSPost2010PropOp28
 70
     1
102
RTVSPost2010Prop29
280
     1
102
RTVSPost2010PropOp29
 70
     1
102
RTVSPost2010Prop30
280
     1
102
RTVSPost2010PropOp30
 70
     1
102
RTVSPost2010Prop31
280
     0
102
RTVSPost2010PropOp31
 70
     1
102
RTVSPost2010Prop32
280
     0
102
RTVSPost2010PropOp32
 70
     1
102
RTVSPost2010Prop33
280
     0
102
RTVSPost2010PropOp33
 70
     1
102
RTVSPost2010Prop34
280
     0
102
RTVSPost2010PropOp34
 70
     1
102
RTVSPost2010Prop35
280
     0
102
RTVSPost2010PropOp35
 70
     1
102
RTVSPost2010Prop36
280
     0
102
RTVSPost2010PropOp36
 70
     1
102
RTVSPost2010Prop37
 90
       50
102
RTVSPost2010PropOp37
 70
     1
102
RTVSPost2010Prop38
140
0.0
102
RTVSPost2010PropOp38
 70
     1
102
RTVSPost2010Prop39
140
1.0
102
RTVSPost2010PropOp39
 70
     1
102
RTVSPost2010Prop40
 90
        0
102
RTVSPost2010PropOp40
 70
     1
102
RTVSPost2010Prop41ColorIndex
 90
       18
102
RTVSPost2010Prop41ColorRGB
 90
        0
102
RTVSPost2010PropOp41
 70
     1
102
RTVSPost2010Prop42
 90
       50
102
RTVSPost2010PropOp42
 70
     1
102
RTVSPost2010Prop43
 90
        3
102
RTVSPost2010PropOp43
 70
     1
102
RTVSPost2010Prop44ColorIndex
 90
        5
102
RTVSPost2010Prop44ColorRGB
 90
      255
102
RTVSPost2010PropOp44
 70
     1
102
RTVSPost2010Prop45
280
     0
102
RTVSPost2010PropOp45
 70
     1
102
RTVSPost2010Prop46
 90
       50
102
RTVSPost2010PropOp46
 70
     1
102
RTVSPost2010Prop47
 90
       50
102
RTVSPost2010PropOp47
 70
     1
102
RTVSPost2010Prop48
 90
       50
102
RTVSPost2010PropOp48
 70
     1
102
RTVSPost2010Prop49
280
     0
102
RTVSPost2010PropOp49
 70
     1
102
RTVSPost2010Prop50
 90
       50
102
RTVSPost2010PropOp50
 70
     1
102
RTVSPost2010Prop51ColorIndex
 90
      256
102
RTVSPost2010Prop51ColorRGB
 90
-16777216
102
RTVSPost2010PropOp51
 70
     0
102
RTVSPost2010Prop52
140
1.0
102
RTVSPost2010PropOp52
 70
     0
102
RTVSPost2010Prop53
 90
        2
102
RTVSPost2010PropOp53
 70
     1
102
RTVSPost2010Prop54
  1
strokes_ogs.tif
102
RTVSPost2010PropOp54
 70
     1
102
RTVSPost2010Prop55
280
     0
102
RTVSPost2010PropOp55
 70
     1
102
RTVSPost2010Prop56
140
1.0
102
RTVSPost2010PropOp56
 70
     1
102
RTVSPost2010Prop57
140
1.0
102
RTVSPost2010PropOp57
 70
     1
102
RTVSPropertyOp0
 70
     1
102
RTVSPropertyOp1
 70
     1
102
RTVSPropertyOp2
 70
     1
102
RTVSPropertyOp3
 70
     1
102
RTVSPropertyOp4
 70
     1
102
RTVSPropertyOp5
 70
     1
102
RTVSPropertyOp6
 70
     1
102
RTVSPropertyOp7
 70
     1
102
RTVSPropertyOp8
 70
     1
102
RTVSPropertyOp9
 70
     1
102
RTVSPropertyOp10
 70
     1
102
RTVSPropertyOp11
 70
     1
102
RTVSPropertyOp12
 70
     1
102
RTVSPropertyOp13
 70
     1
102
RTVSPropertyOp14
 70
     1
102
RTVSPropertyOp15
 70
     1
102
RTVSPropertyOp16
 70
     1
102
RTVSPropertyOp17
 70
     1
102
RTVSPropertyOp18
 70
     1
102
RTVSPropertyOp19
 70
     1
102
RTVSPropertyOp20
 70
     1
102
RTVSPropertyOp21
 70
     1
102
RTVSPropertyOp22
 70
     1
102
RTVSPropertyOp23
 70
     1
102
RTVSPropertyOp24
 70
     1
102
RTVSPropertyOp25
 70
     1
102
RTVSPropertyOp26
 70
     1
102
RTVSPropertyOp27
 70
     1
102
RTVSPropertyOp28
 70
     1
102
RTVSPropertyOp29
 70
     1
102
RTVSPropertyOp30
 70
     1
102
RTVSPropertyOp31
 70
     1
102
RTVSPropertyOp32
 70
     1
102
RTVSPropertyOp33
 70
     1
102
RTVSPropertyOp34
 70
     1
102
RTVSPropertyOp35
 70
     1
102
RTVSPropertyOp36
 70
     1
102
RTVSPropertyOp37
 70
     1
102
RTVSPropertyOp38
 70
     1
102
RTVSPropertyOp39
 70
     1
102
RTVSPropertyOp40
 70
     1
102
RTVSPropertyOp41
 70
     1
102
RTVSPropertyOp42
 70
     1
102
RTVSPropertyOp43
 70
     1
102
RTVSPropertyOp44
 70
     1
102
RTVSPropertyOp45
 70
     1
102
RTVSPropertyOp46
 70
     1
102
RTVSPropertyOp47
 70
     1
102
RTVSPropertyOp48
 70
     1
102
RTVSPropertyOp49
 70
     1
102
RTVSPropertyOp50
 70
     1
102
RTVSPropertyOp51
 70
     0
102
RTVSPropertyOp52
 70
     0
102
RTVSPropertyOp53
 70
     1
102
RTVSPropertyOp54
 70
     1
102
RTVSPropertyOp55
 70
     1
102
RTVSPropertyOp56
 70
     1
102
RTVSPropertyOp57
 70
     1
102
RTVSPropertyOp58
 70
     1
102
RTVSPropertyOp59
 70
     1
102
RTVSPropertyOp60
 70
     1
102
RTVSPropertyOp61
 70
     1
102
RTVSPropertyOp62
 70
     1
  0
XRECORD
  5
18CA
102
{ACAD_REACTORS
330
18C9
102
}
330
18C9
100
AcDbXrecord
280
     1
102
RTVSPost2010Prop28
280
     0
102
RTVSPost2010PropOp28
 70
     1
102
RTVSPost2010Prop29
280
     1
102
RTVSPost2010PropOp29
 70
     1
102
RTVSPost2010Prop30
280
     1
102
RTVSPost2010PropOp30
 70
     1
102
RTVSPost2010Prop31
280
     0
102
RTVSPost2010PropOp31
 70
     1
102
RTVSPost2010Prop32
280
     0
102
RTVSPost2010PropOp32
 70
     1
102
RTVSPost2010Prop33
280
     0
102
RTVSPost2010PropOp33
 70
     1
102
RTVSPost2010Prop34
280
     0
102
RTVSPost2010PropOp34
 70
     1
102
RTVSPost2010Prop35
280
     0
102
RTVSPost2010PropOp35
 70
     1
102
RTVSPost2010Prop36
280
     0
102
RTVSPost2010PropOp36
 70
     1
102
RTVSPost2010Prop37
 90
       50
102
RTVSPost2010PropOp37
 70
     1
102
RTVSPost2010Prop38
140
0.0
102
RTVSPost2010PropOp38
 70
     1
102
RTVSPost2010Prop39
140
1.0
102
RTVSPost2010PropOp39
 70
     1
102
RTVSPost2010Prop40
 90
        0
102
RTVSPost2010PropOp40
 70
     1
102
RTVSPost2010Prop41ColorIndex
 90
       18
102
RTVSPost2010Prop41ColorRGB
 90
        0
102
RTVSPost2010PropOp41
 70
     1
102
RTVSPost2010Prop42
 90
       50
102
RTVSPost2010PropOp42
 70
     1
102
RTVSPost2010Prop43
 90
        3
102
RTVSPost2010PropOp43
 70
     1
102
RTVSPost2010Prop44ColorIndex
 90
        5
102
RTVSPost2010Prop44ColorRGB
 90
      255
102
RTVSPost2010PropOp44
 70
     1
102
RTVSPost2010Prop45
280
     0
102
RTVSPost2010PropOp45
 70
     1
102
RTVSPost2010Prop46
 90
       50
102
RTVSPost2010PropOp46
 70
     1
102
RTVSPost2010Prop47
 90
       50
102
RTVSPost2010PropOp47
 70
     1
102
RTVSPost2010Prop48
 90
       50
102
RTVSPost2010PropOp48
 70
     1
102
RTVSPost2010Prop49
280
     0
102
RTVSPost2010PropOp49
 70
     1
102
RTVSPost2010Prop50
 90
       50
102
RTVSPost2010PropOp50
 70
     1
102
RTVSPost2010Prop51ColorIndex
 90
      256
102
RTVSPost2010Prop51ColorRGB
 90
-16777216
102
RTVSPost2010PropOp51
 70
     0
102
RTVSPost2010Prop52
140
1.0
102
RTVSPost2010PropOp52
 70
     0
102
RTVSPost2010Prop53
 90
        2
102
RTVSPost2010PropOp53
 70
     1
102
RTVSPost2010Prop54
  1
strokes_ogs.tif
102
RTVSPost2010PropOp54
 70
     1
102
RTVSPost2010Prop55
280
     0
102
RTVSPost2010PropOp55
 70
     1
102
RTVSPost2010Prop56
140
1.0
102
RTVSPost2010PropOp56
 70
     1
102
RTVSPost2010Prop57
140
1.0
102
RTVSPost2010PropOp57
 70
     1
102
RTVSPropertyOp0
 70
     1
102
RTVSPropertyOp1
 70
     1
102
RTVSPropertyOp2
 70
     1
102
RTVSPropertyOp3
 70
     1
102
RTVSPropertyOp4
 70
     1
102
RTVSPropertyOp5
 70
     1
102
RTVSPropertyOp6
 70
     1
102
RTVSPropertyOp7
 70
     1
102
RTVSPropertyOp8
 70
     1
102
RTVSPropertyOp9
 70
     1
102
RTVSPropertyOp10
 70
     1
102
RTVSPropertyOp11
 70
     1
102
RTVSPropertyOp12
 70
     1
102
RTVSPropertyOp13
 70
     1
102
RTVSPropertyOp14
 70
     1
102
RTVSPropertyOp15
 70
     1
102
RTVSPropertyOp16
 70
     1
102
RTVSPropertyOp17
 70
     1
102
RTVSPropertyOp18
 70
     1
102
RTVSPropertyOp19
 70
     1
102
RTVSPropertyOp20
 70
     1
102
RTVSPropertyOp21
 70
     1
102
RTVSPropertyOp22
 70
     1
102
RTVSPropertyOp23
 70
     1
102
RTVSPropertyOp24
 70
     1
102
RTVSPropertyOp25
 70
     1
102
RTVSPropertyOp26
 70
     1
102
RTVSPropertyOp27
 70
     1
102
RTVSPropertyOp28
 70
     1
102
RTVSPropertyOp29
 70
     1
102
RTVSPropertyOp30
 70
     1
102
RTVSPropertyOp31
 70
     1
102
RTVSPropertyOp32
 70
     1
102
RTVSPropertyOp33
 70
     1
102
RTVSPropertyOp34
 70
     1
102
RTVSPropertyOp35
 70
     1
102
RTVSPropertyOp36
 70
     1
102
RTVSPropertyOp37
 70
     1
102
RTVSPropertyOp38
 70
     1
102
RTVSPropertyOp39
 70
     1
102
RTVSPropertyOp40
 70
     1
102
RTVSPropertyOp41
 70
     1
102
RTVSPropertyOp42
 70
     1
102
RTVSPropertyOp43
 70
     1
102
RTVSPropertyOp44
 70
     1
102
RTVSPropertyOp45
 70
     1
102
RTVSPropertyOp46
 70
     1
102
RTVSPropertyOp47
 70
     1
102
RTVSPropertyOp48
 70
     1
102
RTVSPropertyOp49
 70
     1
102
RTVSPropertyOp50
 70
     1
102
RTVSPropertyOp51
 70
     0
102
RTVSPropertyOp52
 70
     0
102
RTVSPropertyOp53
 70
     1
102
RTVSPropertyOp54
 70
     1
102
RTVSPropertyOp55
 70
     1
102
RTVSPropertyOp56
 70
     1
102
RTVSPropertyOp57
 70
     1
102
RTVSPropertyOp58
 70
     1
102
RTVSPropertyOp59
 70
     1
102
RTVSPropertyOp60
 70
     1
102
RTVSPropertyOp61
 70
     1
102
RTVSPropertyOp62
 70
     1
  0
XRECORD
  5
18CC
102
{ACAD_REACTORS
330
18CB
102
}
330
18CB
100
AcDbXrecord
280
     1
102
RTVSPost2010Prop28
280
     0
102
RTVSPost2010PropOp28
 70
     1
102
RTVSPost2010Prop29
280
     1
102
RTVSPost2010PropOp29
 70
     1
102
RTVSPost2010Prop30
280
     1
102
RTVSPost2010PropOp30
 70
     1
102
RTVSPost2010Prop31
280
     0
102
RTVSPost2010PropOp31
 70
     1
102
RTVSPost2010Prop32
280
     0
102
RTVSPost2010PropOp32
 70
     1
102
RTVSPost2010Prop33
280
     0
102
RTVSPost2010PropOp33
 70
     1
102
RTVSPost2010Prop34
280
     0
102
RTVSPost2010PropOp34
 70
     1
102
RTVSPost2010Prop35
280
     0
102
RTVSPost2010PropOp35
 70
     1
102
RTVSPost2010Prop36
280
     0
102
RTVSPost2010PropOp36
 70
     1
102
RTVSPost2010Prop37
 90
       50
102
RTVSPost2010PropOp37
 70
     1
102
RTVSPost2010Prop38
140
0.0
102
RTVSPost2010PropOp38
 70
     1
102
RTVSPost2010Prop39
140
1.0
102
RTVSPost2010PropOp39
 70
     1
102
RTVSPost2010Prop40
 90
        0
102
RTVSPost2010PropOp40
 70
     1
102
RTVSPost2010Prop41ColorIndex
 90
       18
102
RTVSPost2010Prop41ColorRGB
 90
        0
102
RTVSPost2010PropOp41
 70
     1
102
RTVSPost2010Prop42
 90
       50
102
RTVSPost2010PropOp42
 70
     1
102
RTVSPost2010Prop43
 90
        3
102
RTVSPost2010PropOp43
 70
     1
102
RTVSPost2010Prop44ColorIndex
 90
        5
102
RTVSPost2010Prop44ColorRGB
 90
      255
102
RTVSPost2010PropOp44
 70
     1
102
RTVSPost2010Prop45
280
     0
102
RTVSPost2010PropOp45
 70
     1
102
RTVSPost2010Prop46
 90
       50
102
RTVSPost2010PropOp46
 70
     1
102
RTVSPost2010Prop47
 90
       50
102
RTVSPost2010PropOp47
 70
     1
102
RTVSPost2010Prop48
 90
       50
102
RTVSPost2010PropOp48
 70
     1
102
RTVSPost2010Prop49
280
     0
102
RTVSPost2010PropOp49
 70
     1
102
RTVSPost2010Prop50
 90
       50
102
RTVSPost2010PropOp50
 70
     1
102
RTVSPost2010Prop51ColorIndex
 90
      256
102
RTVSPost2010Prop51ColorRGB
 90
-16777216
102
RTVSPost2010PropOp51
 70
     0
102
RTVSPost2010Prop52
140
1.0
102
RTVSPost2010PropOp52
 70
     0
102
RTVSPost2010Prop53
 90
        2
102
RTVSPost2010PropOp53
 70
     1
102
RTVSPost2010Prop54
  1
strokes_ogs.tif
102
RTVSPost2010PropOp54
 70
     1
102
RTVSPost2010Prop55
280
     0
102
RTVSPost2010PropOp55
 70
     1
102
RTVSPost2010Prop56
140
1.0
102
RTVSPost2010PropOp56
 70
     1
102
RTVSPost2010Prop57
140
1.0
102
RTVSPost2010PropOp57
 70
     1
102
RTVSPropertyOp0
 70
     1
102
RTVSPropertyOp1
 70
     1
102
RTVSPropertyOp2
 70
     1
102
RTVSPropertyOp3
 70
     1
102
RTVSPropertyOp4
 70
     1
102
RTVSPropertyOp5
 70
     1
102
RTVSPropertyOp6
 70
     1
102
RTVSPropertyOp7
 70
     1
102
RTVSPropertyOp8
 70
     1
102
RTVSPropertyOp9
 70
     1
102
RTVSPropertyOp10
 70
     1
102
RTVSPropertyOp11
 70
     1
102
RTVSPropertyOp12
 70
     1
102
RTVSPropertyOp13
 70
     1
102
RTVSPropertyOp14
 70
     1
102
RTVSPropertyOp15
 70
     1
102
RTVSPropertyOp16
 70
     1
102
RTVSPropertyOp17
 70
     1
102
RTVSPropertyOp18
 70
     1
102
RTVSPropertyOp19
 70
     1
102
RTVSPropertyOp20
 70
     1
102
RTVSPropertyOp21
 70
     1
102
RTVSPropertyOp22
 70
     1
102
RTVSPropertyOp23
 70
     1
102
RTVSPropertyOp24
 70
     1
102
RTVSPropertyOp25
 70
     1
102
RTVSPropertyOp26
 70
     1
102
RTVSPropertyOp27
 70
     1
102
RTVSPropertyOp28
 70
     1
102
RTVSPropertyOp29
 70
     1
102
RTVSPropertyOp30
 70
     1
102
RTVSPropertyOp31
 70
     1
102
RTVSPropertyOp32
 70
     1
102
RTVSPropertyOp33
 70
     1
102
RTVSPropertyOp34
 70
     1
102
RTVSPropertyOp35
 70
     1
102
RTVSPropertyOp36
 70
     1
102
RTVSPropertyOp37
 70
     1
102
RTVSPropertyOp38
 70
     1
102
RTVSPropertyOp39
 70
     1
102
RTVSPropertyOp40
 70
     1
102
RTVSPropertyOp41
 70
     1
102
RTVSPropertyOp42
 70
     1
102
RTVSPropertyOp43
 70
     1
102
RTVSPropertyOp44
 70
     1
102
RTVSPropertyOp45
 70
     1
102
RTVSPropertyOp46
 70
     1
102
RTVSPropertyOp47
 70
     1
102
RTVSPropertyOp48
 70
     1
102
RTVSPropertyOp49
 70
     1
102
RTVSPropertyOp50
 70
     1
102
RTVSPropertyOp51
 70
     0
102
RTVSPropertyOp52
 70
     0
102
RTVSPropertyOp53
 70
     1
102
RTVSPropertyOp54
 70
     1
102
RTVSPropertyOp55
 70
     1
102
RTVSPropertyOp56
 70
     1
102
RTVSPropertyOp57
 70
     1
102
RTVSPropertyOp58
 70
     1
102
RTVSPropertyOp59
 70
     1
102
RTVSPropertyOp60
 70
     1
102
RTVSPropertyOp61
 70
     1
102
RTVSPropertyOp62
 70
     1
  0
XRECORD
  5
18CE
102
{ACAD_REACTORS
330
18CD
102
}
330
18CD
100
AcDbXrecord
280
     1
102
RTVSPost2010Prop28
280
     0
102
RTVSPost2010PropOp28
 70
     1
102
RTVSPost2010Prop29
280
     1
102
RTVSPost2010PropOp29
 70
     1
102
RTVSPost2010Prop30
280
     1
102
RTVSPost2010PropOp30
 70
     1
102
RTVSPost2010Prop31
280
     0
102
RTVSPost2010PropOp31
 70
     1
102
RTVSPost2010Prop32
280
     0
102
RTVSPost2010PropOp32
 70
     1
102
RTVSPost2010Prop33
280
     0
102
RTVSPost2010PropOp33
 70
     1
102
RTVSPost2010Prop34
280
     0
102
RTVSPost2010PropOp34
 70
     1
102
RTVSPost2010Prop35
280
     0
102
RTVSPost2010PropOp35
 70
     1
102
RTVSPost2010Prop36
280
     0
102
RTVSPost2010PropOp36
 70
     1
102
RTVSPost2010Prop37
 90
       50
102
RTVSPost2010PropOp37
 70
     1
102
RTVSPost2010Prop38
140
0.0
102
RTVSPost2010PropOp38
 70
     1
102
RTVSPost2010Prop39
140
1.0
102
RTVSPost2010PropOp39
 70
     1
102
RTVSPost2010Prop40
 90
        0
102
RTVSPost2010PropOp40
 70
     1
102
RTVSPost2010Prop41ColorIndex
 90
       18
102
RTVSPost2010Prop41ColorRGB
 90
        0
102
RTVSPost2010PropOp41
 70
     1
102
RTVSPost2010Prop42
 90
       50
102
RTVSPost2010PropOp42
 70
     1
102
RTVSPost2010Prop43
 90
        3
102
RTVSPost2010PropOp43
 70
     1
102
RTVSPost2010Prop44ColorIndex
 90
        5
102
RTVSPost2010Prop44ColorRGB
 90
      255
102
RTVSPost2010PropOp44
 70
     1
102
RTVSPost2010Prop45
280
     0
102
RTVSPost2010PropOp45
 70
     1
102
RTVSPost2010Prop46
 90
       50
102
RTVSPost2010PropOp46
 70
     1
102
RTVSPost2010Prop47
 90
       50
102
RTVSPost2010PropOp47
 70
     1
102
RTVSPost2010Prop48
 90
       50
102
RTVSPost2010PropOp48
 70
     1
102
RTVSPost2010Prop49
280
     0
102
RTVSPost2010PropOp49
 70
     1
102
RTVSPost2010Prop50
 90
       50
102
RTVSPost2010PropOp50
 70
     1
102
RTVSPost2010Prop51ColorIndex
 90
      256
102
RTVSPost2010Prop51ColorRGB
 90
-16777216
102
RTVSPost2010PropOp51
 70
     0
102
RTVSPost2010Prop52
140
1.0
102
RTVSPost2010PropOp52
 70
     0
102
RTVSPost2010Prop53
 90
        2
102
RTVSPost2010PropOp53
 70
     1
102
RTVSPost2010Prop54
  1
strokes_ogs.tif
102
RTVSPost2010PropOp54
 70
     1
102
RTVSPost2010Prop55
280
     0
102
RTVSPost2010PropOp55
 70
     1
102
RTVSPost2010Prop56
140
1.0
102
RTVSPost2010PropOp56
 70
     1
102
RTVSPost2010Prop57
140
1.0
102
RTVSPost2010PropOp57
 70
     1
102
RTVSPropertyOp0
 70
     1
102
RTVSPropertyOp1
 70
     1
102
RTVSPropertyOp2
 70
     1
102
RTVSPropertyOp3
 70
     1
102
RTVSPropertyOp4
 70
     1
102
RTVSPropertyOp5
 70
     1
102
RTVSPropertyOp6
 70
     1
102
RTVSPropertyOp7
 70
     1
102
RTVSPropertyOp8
 70
     1
102
RTVSPropertyOp9
 70
     1
102
RTVSPropertyOp10
 70
     1
102
RTVSPropertyOp11
 70
     1
102
RTVSPropertyOp12
 70
     1
102
RTVSPropertyOp13
 70
     1
102
RTVSPropertyOp14
 70
     1
102
RTVSPropertyOp15
 70
     1
102
RTVSPropertyOp16
 70
     1
102
RTVSPropertyOp17
 70
     1
102
RTVSPropertyOp18
 70
     1
102
RTVSPropertyOp19
 70
     1
102
RTVSPropertyOp20
 70
     1
102
RTVSPropertyOp21
 70
     1
102
RTVSPropertyOp22
 70
     1
102
RTVSPropertyOp23
 70
     1
102
RTVSPropertyOp24
 70
     1
102
RTVSPropertyOp25
 70
     1
102
RTVSPropertyOp26
 70
     1
102
RTVSPropertyOp27
 70
     1
102
RTVSPropertyOp28
 70
     1
102
RTVSPropertyOp29
 70
     1
102
RTVSPropertyOp30
 70
     1
102
RTVSPropertyOp31
 70
     1
102
RTVSPropertyOp32
 70
     1
102
RTVSPropertyOp33
 70
     1
102
RTVSPropertyOp34
 70
     1
102
RTVSPropertyOp35
 70
     1
102
RTVSPropertyOp36
 70
     1
102
RTVSPropertyOp37
 70
     1
102
RTVSPropertyOp38
 70
     1
102
RTVSPropertyOp39
 70
     1
102
RTVSPropertyOp40
 70
     1
102
RTVSPropertyOp41
 70
     1
102
RTVSPropertyOp42
 70
     1
102
RTVSPropertyOp43
 70
     1
102
RTVSPropertyOp44
 70
     1
102
RTVSPropertyOp45
 70
     1
102
RTVSPropertyOp46
 70
     1
102
RTVSPropertyOp47
 70
     1
102
RTVSPropertyOp48
 70
     1
102
RTVSPropertyOp49
 70
     1
102
RTVSPropertyOp50
 70
     1
102
RTVSPropertyOp51
 70
     0
102
RTVSPropertyOp52
 70
     0
102
RTVSPropertyOp53
 70
     1
102
RTVSPropertyOp54
 70
     1
102
RTVSPropertyOp55
 70
     1
102
RTVSPropertyOp56
 70
     1
102
RTVSPropertyOp57
 70
     1
102
RTVSPropertyOp58
 70
     1
102
RTVSPropertyOp59
 70
     1
102
RTVSPropertyOp60
 70
     1
102
RTVSPropertyOp61
 70
     1
102
RTVSPropertyOp62
 70
     1
  0
XRECORD
  5
18D6
102
{ACAD_REACTORS
330
18D5
102
}
330
18D5
100
AcDbXrecord
280
     1
102
RTVSPost2010Prop28
280
     0
102
RTVSPost2010PropOp28
 70
     1
102
RTVSPost2010Prop29
280
     1
102
RTVSPost2010PropOp29
 70
     1
102
RTVSPost2010Prop30
280
     1
102
RTVSPost2010PropOp30
 70
     1
102
RTVSPost2010Prop31
280
     0
102
RTVSPost2010PropOp31
 70
     1
102
RTVSPost2010Prop32
280
     0
102
RTVSPost2010PropOp32
 70
     1
102
RTVSPost2010Prop33
280
     0
102
RTVSPost2010PropOp33
 70
     1
102
RTVSPost2010Prop34
280
     0
102
RTVSPost2010PropOp34
 70
     1
102
RTVSPost2010Prop35
280
     0
102
RTVSPost2010PropOp35
 70
     1
102
RTVSPost2010Prop36
280
     0
102
RTVSPost2010PropOp36
 70
     1
102
RTVSPost2010Prop37
 90
       50
102
RTVSPost2010PropOp37
 70
     1
102
RTVSPost2010Prop38
140
0.0
102
RTVSPost2010PropOp38
 70
     1
102
RTVSPost2010Prop39
140
1.0
102
RTVSPost2010PropOp39
 70
     1
102
RTVSPost2010Prop40
 90
        0
102
RTVSPost2010PropOp40
 70
     1
102
RTVSPost2010Prop41ColorIndex
 90
       18
102
RTVSPost2010Prop41ColorRGB
 90
        0
102
RTVSPost2010PropOp41
 70
     1
102
RTVSPost2010Prop42
 90
       50
102
RTVSPost2010PropOp42
 70
     1
102
RTVSPost2010Prop43
 90
        3
102
RTVSPost2010PropOp43
 70
     1
102
RTVSPost2010Prop44ColorIndex
 90
        5
102
RTVSPost2010Prop44ColorRGB
 90
      255
102
RTVSPost2010PropOp44
 70
     1
102
RTVSPost2010Prop45
280
     0
102
RTVSPost2010PropOp45
 70
     1
102
RTVSPost2010Prop46
 90
       50
102
RTVSPost2010PropOp46
 70
     1
102
RTVSPost2010Prop47
 90
       50
102
RTVSPost2010PropOp47
 70
     1
102
RTVSPost2010Prop48
 90
       50
102
RTVSPost2010PropOp48
 70
     1
102
RTVSPost2010Prop49
280
     0
102
RTVSPost2010PropOp49
 70
     1
102
RTVSPost2010Prop50
 90
       50
102
RTVSPost2010PropOp50
 70
     1
102
RTVSPost2010Prop51ColorIndex
 90
      256
102
RTVSPost2010Prop51ColorRGB
 90
-16777216
102
RTVSPost2010PropOp51
 70
     0
102
RTVSPost2010Prop52
140
1.0
102
RTVSPost2010PropOp52
 70
     0
102
RTVSPost2010Prop53
 90
        2
102
RTVSPost2010PropOp53
 70
     1
102
RTVSPost2010Prop54
  1
strokes_ogs.tif
102
RTVSPost2010PropOp54
 70
     1
102
RTVSPost2010Prop55
280
     0
102
RTVSPost2010PropOp55
 70
     1
102
RTVSPost2010Prop56
140
1.0
102
RTVSPost2010PropOp56
 70
     1
102
RTVSPost2010Prop57
140
1.0
102
RTVSPost2010PropOp57
 70
     1
102
RTVSPropertyOp0
 70
     1
102
RTVSPropertyOp1
 70
     1
102
RTVSPropertyOp2
 70
     1
102
RTVSPropertyOp3
 70
     1
102
RTVSPropertyOp4
 70
     1
102
RTVSPropertyOp5
 70
     1
102
RTVSPropertyOp6
 70
     1
102
RTVSPropertyOp7
 70
     1
102
RTVSPropertyOp8
 70
     1
102
RTVSPropertyOp9
 70
     1
102
RTVSPropertyOp10
 70
     1
102
RTVSPropertyOp11
 70
     1
102
RTVSPropertyOp12
 70
     1
102
RTVSPropertyOp13
 70
     1
102
RTVSPropertyOp14
 70
     1
102
RTVSPropertyOp15
 70
     1
102
RTVSPropertyOp16
 70
     1
102
RTVSPropertyOp17
 70
     1
102
RTVSPropertyOp18
 70
     1
102
RTVSPropertyOp19
 70
     1
102
RTVSPropertyOp20
 70
     1
102
RTVSPropertyOp21
 70
     1
102
RTVSPropertyOp22
 70
     1
102
RTVSPropertyOp23
 70
     1
102
RTVSPropertyOp24
 70
     1
102
RTVSPropertyOp25
 70
     1
102
RTVSPropertyOp26
 70
     1
102
RTVSPropertyOp27
 70
     1
102
RTVSPropertyOp28
 70
     1
102
RTVSPropertyOp29
 70
     1
102
RTVSPropertyOp30
 70
     1
102
RTVSPropertyOp31
 70
     1
102
RTVSPropertyOp32
 70
     1
102
RTVSPropertyOp33
 70
     1
102
RTVSPropertyOp34
 70
     1
102
RTVSPropertyOp35
 70
     1
102
RTVSPropertyOp36
 70
     1
102
RTVSPropertyOp37
 70
     1
102
RTVSPropertyOp38
 70
     1
102
RTVSPropertyOp39
 70
     1
102
RTVSPropertyOp40
 70
     1
102
RTVSPropertyOp41
 70
     1
102
RTVSPropertyOp42
 70
     1
102
RTVSPropertyOp43
 70
     1
102
RTVSPropertyOp44
 70
     1
102
RTVSPropertyOp45
 70
     1
102
RTVSPropertyOp46
 70
     1
102
RTVSPropertyOp47
 70
     1
102
RTVSPropertyOp48
 70
     1
102
RTVSPropertyOp49
 70
     1
102
RTVSPropertyOp50
 70
     1
102
RTVSPropertyOp51
 70
     0
102
RTVSPropertyOp52
 70
     0
102
RTVSPropertyOp53
 70
     1
102
RTVSPropertyOp54
 70
     1
102
RTVSPropertyOp55
 70
     1
102
RTVSPropertyOp56
 70
     1
102
RTVSPropertyOp57
 70
     1
102
RTVSPropertyOp58
 70
     1
102
RTVSPropertyOp59
 70
     1
102
RTVSPropertyOp60
 70
     1
102
RTVSPropertyOp61
 70
     1
102
RTVSPropertyOp62
 70
     1
  0
XRECORD
  5
18F2
102
{ACAD_REACTORS
330
18F1
102
}
330
18F1
100
AcDbXrecord
280
     1
102
RTVSPost2010Prop28
280
     0
102
RTVSPost2010PropOp28
 70
     1
102
RTVSPost2010Prop29
280
     1
102
RTVSPost2010PropOp29
 70
     1
102
RTVSPost2010Prop30
280
     1
102
RTVSPost2010PropOp30
 70
     1
102
RTVSPost2010Prop31
280
     0
102
RTVSPost2010PropOp31
 70
     1
102
RTVSPost2010Prop32
280
     0
102
RTVSPost2010PropOp32
 70
     1
102
RTVSPost2010Prop33
280
     0
102
RTVSPost2010PropOp33
 70
     1
102
RTVSPost2010Prop34
280
     0
102
RTVSPost2010PropOp34
 70
     1
102
RTVSPost2010Prop35
280
     0
102
RTVSPost2010PropOp35
 70
     1
102
RTVSPost2010Prop36
280
     0
102
RTVSPost2010PropOp36
 70
     1
102
RTVSPost2010Prop37
 90
       50
102
RTVSPost2010PropOp37
 70
     0
102
RTVSPost2010Prop38
140
0.0
102
RTVSPost2010PropOp38
 70
     0
102
RTVSPost2010Prop39
140
1.0
102
RTVSPost2010PropOp39
 70
     0
102
RTVSPost2010Prop40
 90
        0
102
RTVSPost2010PropOp40
 70
     0
102
RTVSPost2010Prop41ColorIndex
 90
       18
102
RTVSPost2010Prop41ColorRGB
 90
        0
102
RTVSPost2010PropOp41
 70
     0
102
RTVSPost2010Prop42
 90
       50
102
RTVSPost2010PropOp42
 70
     0
102
RTVSPost2010Prop43
 90
        3
102
RTVSPost2010PropOp43
 70
     0
102
RTVSPost2010Prop44ColorIndex
 90
        5
102
RTVSPost2010Prop44ColorRGB
 90
      255
102
RTVSPost2010PropOp44
 70
     0
102
RTVSPost2010Prop45
280
     0
102
RTVSPost2010PropOp45
 70
     1
102
RTVSPost2010Prop46
 90
       50
102
RTVSPost2010PropOp46
 70
     0
102
RTVSPost2010Prop47
 90
       50
102
RTVSPost2010PropOp47
 70
     0
102
RTVSPost2010Prop48
 90
       50
102
RTVSPost2010PropOp48
 70
     0
102
RTVSPost2010Prop49
280
     0
102
RTVSPost2010PropOp49
 70
     1
102
RTVSPost2010Prop50
 90
       50
102
RTVSPost2010PropOp50
 70
     0
102
RTVSPost2010Prop51ColorIndex
 90
      256
102
RTVSPost2010Prop51ColorRGB
 90
-16777216
102
RTVSPost2010PropOp51
 70
     0
102
RTVSPost2010Prop52
140
1.0
102
RTVSPost2010PropOp52
 70
     0
102
RTVSPost2010Prop53
 90
        2
102
RTVSPost2010PropOp53
 70
     0
102
RTVSPost2010Prop54
  1
strokes_ogs.tif
102
RTVSPost2010PropOp54
 70
     0
102
RTVSPost2010Prop55
280
     0
102
RTVSPost2010PropOp55
 70
     1
102
RTVSPost2010Prop56
140
1.0
102
RTVSPost2010PropOp56
 70
     0
102
RTVSPost2010Prop57
140
1.0
102
RTVSPost2010PropOp57
 70
     0
102
RTVSPropertyOp0
 70
     0
102
RTVSPropertyOp1
 70
     0
102
RTVSPropertyOp2
 70
     0
102
RTVSPropertyOp3
 70
     0
102
RTVSPropertyOp4
 70
     0
102
RTVSPropertyOp5
 70
     0
102
RTVSPropertyOp6
 70
     0
102
RTVSPropertyOp7
 70
     0
102
RTVSPropertyOp8
 70
     0
102
RTVSPropertyOp9
 70
     0
102
RTVSPropertyOp10
 70
     0
102
RTVSPropertyOp11
 70
     0
102
RTVSPropertyOp12
 70
     0
102
RTVSPropertyOp13
 70
     0
102
RTVSPropertyOp14
 70
     2
102
RTVSPropertyOp15
 70
     0
102
RTVSPropertyOp16
 70
     0
102
RTVSPropertyOp17
 70
     0
102
RTVSPropertyOp18
 70
     0
102
RTVSPropertyOp19
 70
     0
102
RTVSPropertyOp20
 70
     0
102
RTVSPropertyOp21
 70
     0
102
RTVSPropertyOp22
 70
     0
102
RTVSPropertyOp23
 70
     0
102
RTVSPropertyOp24
 70
     0
102
RTVSPropertyOp25
 70
     0
102
RTVSPropertyOp26
 70
     0
102
RTVSPropertyOp27
 70
     0
102
RTVSPropertyOp28
 70
     1
102
RTVSPropertyOp29
 70
     1
102
RTVSPropertyOp30
 70
     1
102
RTVSPropertyOp31
 70
     1
102
RTVSPropertyOp32
 70
     1
102
RTVSPropertyOp33
 70
     1
102
RTVSPropertyOp34
 70
     1
102
RTVSPropertyOp35
 70
     1
102
RTVSPropertyOp36
 70
     1
102
RTVSPropertyOp37
 70
     0
102
RTVSPropertyOp38
 70
     0
102
RTVSPropertyOp39
 70
     0
102
RTVSPropertyOp40
 70
     0
102
RTVSPropertyOp41
 70
     0
102
RTVSPropertyOp42
 70
     0
102
RTVSPropertyOp43
 70
     0
102
RTVSPropertyOp44
 70
     0
102
RTVSPropertyOp45
 70
     1
102
RTVSPropertyOp46
 70
     0
102
RTVSPropertyOp47
 70
     0
102
RTVSPropertyOp48
 70
     0
102
RTVSPropertyOp49
 70
     1
102
RTVSPropertyOp50
 70
     0
102
RTVSPropertyOp51
 70
     0
102
RTVSPropertyOp52
 70
     0
102
RTVSPropertyOp53
 70
     0
102
RTVSPropertyOp54
 70
     0
102
RTVSPropertyOp55
 70
     1
102
RTVSPropertyOp56
 70
     0
102
RTVSPropertyOp57
 70
     0
102
RTVSPropertyOp58
 70
     0
102
RTVSPropertyOp59
 70
     0
102
RTVSPropertyOp60
 70
     0
102
RTVSPropertyOp61
 70
     0
102
RTVSPropertyOp62
 70
     0
  0
XRECORD
  5
18E2
102
{ACAD_REACTORS
330
18E1
102
}
330
18E1
100
AcDbXrecord
280
     1
102
RTVSPost2010Prop28
280
     0
102
RTVSPost2010PropOp28
 70
     1
102
RTVSPost2010Prop29
280
     1
102
RTVSPost2010PropOp29
 70
     1
102
RTVSPost2010Prop30
280
     1
102
RTVSPost2010PropOp30
 70
     1
102
RTVSPost2010Prop31
280
     0
102
RTVSPost2010PropOp31
 70
     1
102
RTVSPost2010Prop32
280
     0
102
RTVSPost2010PropOp32
 70
     1
102
RTVSPost2010Prop33
280
     0
102
RTVSPost2010PropOp33
 70
     1
102
RTVSPost2010Prop34
280
     0
102
RTVSPost2010PropOp34
 70
     1
102
RTVSPost2010Prop35
280
     0
102
RTVSPost2010PropOp35
 70
     1
102
RTVSPost2010Prop36
280
     0
102
RTVSPost2010PropOp36
 70
     1
102
RTVSPost2010Prop37
 90
       50
102
RTVSPost2010PropOp37
 70
     1
102
RTVSPost2010Prop38
140
0.0
102
RTVSPost2010PropOp38
 70
     1
102
RTVSPost2010Prop39
140
1.0
102
RTVSPost2010PropOp39
 70
     1
102
RTVSPost2010Prop40
 90
        0
102
RTVSPost2010PropOp40
 70
     1
102
RTVSPost2010Prop41ColorIndex
 90
       18
102
RTVSPost2010Prop41ColorRGB
 90
        0
102
RTVSPost2010PropOp41
 70
     1
102
RTVSPost2010Prop42
 90
       50
102
RTVSPost2010PropOp42
 70
     1
102
RTVSPost2010Prop43
 90
        3
102
RTVSPost2010PropOp43
 70
     1
102
RTVSPost2010Prop44ColorIndex
 90
        5
102
RTVSPost2010Prop44ColorRGB
 90
      255
102
RTVSPost2010PropOp44
 70
     1
102
RTVSPost2010Prop45
280
     0
102
RTVSPost2010PropOp45
 70
     1
102
RTVSPost2010Prop46
 90
       50
102
RTVSPost2010PropOp46
 70
     1
102
RTVSPost2010Prop47
 90
       50
102
RTVSPost2010PropOp47
 70
     1
102
RTVSPost2010Prop48
 90
       50
102
RTVSPost2010PropOp48
 70
     1
102
RTVSPost2010Prop49
280
     0
102
RTVSPost2010PropOp49
 70
     1
102
RTVSPost2010Prop50
 90
       50
102
RTVSPost2010PropOp50
 70
     1
102
RTVSPost2010Prop51ColorIndex
 90
      256
102
RTVSPost2010Prop51ColorRGB
 90
-16777216
102
RTVSPost2010PropOp51
 70
     0
102
RTVSPost2010Prop52
140
1.0
102
RTVSPost2010PropOp52
 70
     0
102
RTVSPost2010Prop53
 90
        2
102
RTVSPost2010PropOp53
 70
     1
102
RTVSPost2010Prop54
  1
strokes_ogs.tif
102
RTVSPost2010PropOp54
 70
     1
102
RTVSPost2010Prop55
280
     0
102
RTVSPost2010PropOp55
 70
     1
102
RTVSPost2010Prop56
140
1.0
102
RTVSPost2010PropOp56
 70
     1
102
RTVSPost2010Prop57
140
1.0
102
RTVSPost2010PropOp57
 70
     1
102
RTVSPropertyOp0
 70
     1
102
RTVSPropertyOp1
 70
     1
102
RTVSPropertyOp2
 70
     1
102
RTVSPropertyOp3
 70
     1
102
RTVSPropertyOp4
 70
     1
102
RTVSPropertyOp5
 70
     1
102
RTVSPropertyOp6
 70
     1
102
RTVSPropertyOp7
 70
     1
102
RTVSPropertyOp8
 70
     1
102
RTVSPropertyOp9
 70
     1
102
RTVSPropertyOp10
 70
     1
102
RTVSPropertyOp11
 70
     1
102
RTVSPropertyOp12
 70
     1
102
RTVSPropertyOp13
 70
     1
102
RTVSPropertyOp14
 70
     1
102
RTVSPropertyOp15
 70
     1
102
RTVSPropertyOp16
 70
     1
102
RTVSPropertyOp17
 70
     1
102
RTVSPropertyOp18
 70
     1
102
RTVSPropertyOp19
 70
     1
102
RTVSPropertyOp20
 70
     1
102
RTVSPropertyOp21
 70
     1
102
RTVSPropertyOp22
 70
     1
102
RTVSPropertyOp23
 70
     1
102
RTVSPropertyOp24
 70
     1
102
RTVSPropertyOp25
 70
     1
102
RTVSPropertyOp26
 70
     1
102
RTVSPropertyOp27
 70
     1
102
RTVSPropertyOp28
 70
     1
102
RTVSPropertyOp29
 70
     1
102
RTVSPropertyOp30
 70
     1
102
RTVSPropertyOp31
 70
     1
102
RTVSPropertyOp32
 70
     1
102
RTVSPropertyOp33
 70
     1
102
RTVSPropertyOp34
 70
     1
102
RTVSPropertyOp35
 70
     1
102
RTVSPropertyOp36
 70
     1
102
RTVSPropertyOp37
 70
     1
102
RTVSPropertyOp38
 70
     1
102
RTVSPropertyOp39
 70
     1
102
RTVSPropertyOp40
 70
     1
102
RTVSPropertyOp41
 70
     1
102
RTVSPropertyOp42
 70
     1
102
RTVSPropertyOp43
 70
     1
102
RTVSPropertyOp44
 70
     1
102
RTVSPropertyOp45
 70
     1
102
RTVSPropertyOp46
 70
     1
102
RTVSPropertyOp47
 70
     1
102
RTVSPropertyOp48
 70
     1
102
RTVSPropertyOp49
 70
     1
102
RTVSPropertyOp50
 70
     1
102
RTVSPropertyOp51
 70
     0
102
RTVSPropertyOp52
 70
     0
102
RTVSPropertyOp53
 70
     1
102
RTVSPropertyOp54
 70
     1
102
RTVSPropertyOp55
 70
     1
102
RTVSPropertyOp56
 70
     1
102
RTVSPropertyOp57
 70
     1
102
RTVSPropertyOp58
 70
     1
102
RTVSPropertyOp59
 70
     1
102
RTVSPropertyOp60
 70
     1
102
RTVSPropertyOp61
 70
     1
102
RTVSPropertyOp62
 70
     1
  0
XRECORD
  5
18F4
102
{ACAD_REACTORS
330
18F3
102
}
330
18F3
100
AcDbXrecord
280
     1
102
RTVSPost2010Prop28
280
     0
102
RTVSPost2010PropOp28
 70
     1
102
RTVSPost2010Prop29
280
     1
102
RTVSPost2010PropOp29
 70
     1
102
RTVSPost2010Prop30
280
     1
102
RTVSPost2010PropOp30
 70
     1
102
RTVSPost2010Prop31
280
     0
102
RTVSPost2010PropOp31
 70
     1
102
RTVSPost2010Prop32
280
     0
102
RTVSPost2010PropOp32
 70
     1
102
RTVSPost2010Prop33
280
     0
102
RTVSPost2010PropOp33
 70
     1
102
RTVSPost2010Prop34
280
     0
102
RTVSPost2010PropOp34
 70
     1
102
RTVSPost2010Prop35
280
     0
102
RTVSPost2010PropOp35
 70
     1
102
RTVSPost2010Prop36
280
     0
102
RTVSPost2010PropOp36
 70
     1
102
RTVSPost2010Prop37
 90
       50
102
RTVSPost2010PropOp37
 70
     0
102
RTVSPost2010Prop38
140
0.0
102
RTVSPost2010PropOp38
 70
     0
102
RTVSPost2010Prop39
140
1.0
102
RTVSPost2010PropOp39
 70
     0
102
RTVSPost2010Prop40
 90
        0
102
RTVSPost2010PropOp40
 70
     0
102
RTVSPost2010Prop41ColorIndex
 90
       18
102
RTVSPost2010Prop41ColorRGB
 90
        0
102
RTVSPost2010PropOp41
 70
     0
102
RTVSPost2010Prop42
 90
       50
102
RTVSPost2010PropOp42
 70
     0
102
RTVSPost2010Prop43
 90
        3
102
RTVSPost2010PropOp43
 70
     0
102
RTVSPost2010Prop44ColorIndex
 90
        5
102
RTVSPost2010Prop44ColorRGB
 90
      255
102
RTVSPost2010PropOp44
 70
     0
102
RTVSPost2010Prop45
280
     0
102
RTVSPost2010PropOp45
 70
     1
102
RTVSPost2010Prop46
 90
       50
102
RTVSPost2010PropOp46
 70
     0
102
RTVSPost2010Prop47
 90
       50
102
RTVSPost2010PropOp47
 70
     0
102
RTVSPost2010Prop48
 90
       50
102
RTVSPost2010PropOp48
 70
     0
102
RTVSPost2010Prop49
280
     0
102
RTVSPost2010PropOp49
 70
     1
102
RTVSPost2010Prop50
 90
       50
102
RTVSPost2010PropOp50
 70
     0
102
RTVSPost2010Prop51ColorIndex
 90
      256
102
RTVSPost2010Prop51ColorRGB
 90
-16777216
102
RTVSPost2010PropOp51
 70
     0
102
RTVSPost2010Prop52
140
1.0
102
RTVSPost2010PropOp52
 70
     0
102
RTVSPost2010Prop53
 90
        2
102
RTVSPost2010PropOp53
 70
     0
102
RTVSPost2010Prop54
  1
strokes_ogs.tif
102
RTVSPost2010PropOp54
 70
     0
102
RTVSPost2010Prop55
280
     0
102
RTVSPost2010PropOp55
 70
     1
102
RTVSPost2010Prop56
140
1.0
102
RTVSPost2010PropOp56
 70
     0
102
RTVSPost2010Prop57
140
1.0
102
RTVSPost2010PropOp57
 70
     0
102
RTVSPropertyOp0
 70
     0
102
RTVSPropertyOp1
 70
     0
102
RTVSPropertyOp2
 70
     0
102
RTVSPropertyOp3
 70
     0
102
RTVSPropertyOp4
 70
     0
102
RTVSPropertyOp5
 70
     0
102
RTVSPropertyOp6
 70
     0
102
RTVSPropertyOp7
 70
     0
102
RTVSPropertyOp8
 70
     0
102
RTVSPropertyOp9
 70
     0
102
RTVSPropertyOp10
 70
     0
102
RTVSPropertyOp11
 70
     0
102
RTVSPropertyOp12
 70
     0
102
RTVSPropertyOp13
 70
     0
102
RTVSPropertyOp14
 70
     2
102
RTVSPropertyOp15
 70
     0
102
RTVSPropertyOp16
 70
     0
102
RTVSPropertyOp17
 70
     0
102
RTVSPropertyOp18
 70
     0
102
RTVSPropertyOp19
 70
     0
102
RTVSPropertyOp20
 70
     0
102
RTVSPropertyOp21
 70
     0
102
RTVSPropertyOp22
 70
     0
102
RTVSPropertyOp23
 70
     0
102
RTVSPropertyOp24
 70
     0
102
RTVSPropertyOp25
 70
     0
102
RTVSPropertyOp26
 70
     0
102
RTVSPropertyOp27
 70
     0
102
RTVSPropertyOp28
 70
     1
102
RTVSPropertyOp29
 70
     1
102
RTVSPropertyOp30
 70
     1
102
RTVSPropertyOp31
 70
     1
102
RTVSPropertyOp32
 70
     1
102
RTVSPropertyOp33
 70
     1
102
RTVSPropertyOp34
 70
     1
102
RTVSPropertyOp35
 70
     1
102
RTVSPropertyOp36
 70
     1
102
RTVSPropertyOp37
 70
     0
102
RTVSPropertyOp38
 70
     0
102
RTVSPropertyOp39
 70
     0
102
RTVSPropertyOp40
 70
     0
102
RTVSPropertyOp41
 70
     0
102
RTVSPropertyOp42
 70
     0
102
RTVSPropertyOp43
 70
     0
102
RTVSPropertyOp44
 70
     0
102
RTVSPropertyOp45
 70
     1
102
RTVSPropertyOp46
 70
     0
102
RTVSPropertyOp47
 70
     0
102
RTVSPropertyOp48
 70
     0
102
RTVSPropertyOp49
 70
     1
102
RTVSPropertyOp50
 70
     0
102
RTVSPropertyOp51
 70
     0
102
RTVSPropertyOp52
 70
     0
102
RTVSPropertyOp53
 70
     0
102
RTVSPropertyOp54
 70
     0
102
RTVSPropertyOp55
 70
     1
102
RTVSPropertyOp56
 70
     0
102
RTVSPropertyOp57
 70
     0
102
RTVSPropertyOp58
 70
     0
102
RTVSPropertyOp59
 70
     0
102
RTVSPropertyOp60
 70
     0
102
RTVSPropertyOp61
 70
     0
102
RTVSPropertyOp62
 70
     0
  0
XRECORD
  5
18DA
102
{ACAD_REACTORS
330
18D9
102
}
330
18D9
100
AcDbXrecord
280
     1
102
RTVSPost2010Prop28
280
     0
102
RTVSPost2010PropOp28
 70
     1
102
RTVSPost2010Prop29
280
     1
102
RTVSPost2010PropOp29
 70
     1
102
RTVSPost2010Prop30
280
     1
102
RTVSPost2010PropOp30
 70
     1
102
RTVSPost2010Prop31
280
     0
102
RTVSPost2010PropOp31
 70
     1
102
RTVSPost2010Prop32
280
     0
102
RTVSPost2010PropOp32
 70
     1
102
RTVSPost2010Prop33
280
     0
102
RTVSPost2010PropOp33
 70
     1
102
RTVSPost2010Prop34
280
     0
102
RTVSPost2010PropOp34
 70
     1
102
RTVSPost2010Prop35
280
     0
102
RTVSPost2010PropOp35
 70
     1
102
RTVSPost2010Prop36
280
     0
102
RTVSPost2010PropOp36
 70
     1
102
RTVSPost2010Prop37
 90
       50
102
RTVSPost2010PropOp37
 70
     1
102
RTVSPost2010Prop38
140
0.0
102
RTVSPost2010PropOp38
 70
     1
102
RTVSPost2010Prop39
140
1.0
102
RTVSPost2010PropOp39
 70
     1
102
RTVSPost2010Prop40
 90
        0
102
RTVSPost2010PropOp40
 70
     1
102
RTVSPost2010Prop41ColorIndex
 90
       18
102
RTVSPost2010Prop41ColorRGB
 90
        0
102
RTVSPost2010PropOp41
 70
     1
102
RTVSPost2010Prop42
 90
       50
102
RTVSPost2010PropOp42
 70
     1
102
RTVSPost2010Prop43
 90
        3
102
RTVSPost2010PropOp43
 70
     1
102
RTVSPost2010Prop44ColorIndex
 90
        5
102
RTVSPost2010Prop44ColorRGB
 90
      255
102
RTVSPost2010PropOp44
 70
     1
102
RTVSPost2010Prop45
280
     0
102
RTVSPost2010PropOp45
 70
     1
102
RTVSPost2010Prop46
 90
       50
102
RTVSPost2010PropOp46
 70
     1
102
RTVSPost2010Prop47
 90
       50
102
RTVSPost2010PropOp47
 70
     1
102
RTVSPost2010Prop48
 90
       50
102
RTVSPost2010PropOp48
 70
     1
102
RTVSPost2010Prop49
280
     0
102
RTVSPost2010PropOp49
 70
     1
102
RTVSPost2010Prop50
 90
       50
102
RTVSPost2010PropOp50
 70
     1
102
RTVSPost2010Prop51ColorIndex
 90
      256
102
RTVSPost2010Prop51ColorRGB
 90
-16777216
102
RTVSPost2010PropOp51
 70
     0
102
RTVSPost2010Prop52
140
1.0
102
RTVSPost2010PropOp52
 70
     0
102
RTVSPost2010Prop53
 90
        2
102
RTVSPost2010PropOp53
 70
     1
102
RTVSPost2010Prop54
  1
strokes_ogs.tif
102
RTVSPost2010PropOp54
 70
     1
102
RTVSPost2010Prop55
280
     0
102
RTVSPost2010PropOp55
 70
     1
102
RTVSPost2010Prop56
140
1.0
102
RTVSPost2010PropOp56
 70
     1
102
RTVSPost2010Prop57
140
1.0
102
RTVSPost2010PropOp57
 70
     1
102
RTVSPropertyOp0
 70
     1
102
RTVSPropertyOp1
 70
     1
102
RTVSPropertyOp2
 70
     1
102
RTVSPropertyOp3
 70
     1
102
RTVSPropertyOp4
 70
     1
102
RTVSPropertyOp5
 70
     1
102
RTVSPropertyOp6
 70
     1
102
RTVSPropertyOp7
 70
     1
102
RTVSPropertyOp8
 70
     1
102
RTVSPropertyOp9
 70
     1
102
RTVSPropertyOp10
 70
     1
102
RTVSPropertyOp11
 70
     1
102
RTVSPropertyOp12
 70
     1
102
RTVSPropertyOp13
 70
     1
102
RTVSPropertyOp14
 70
     1
102
RTVSPropertyOp15
 70
     1
102
RTVSPropertyOp16
 70
     1
102
RTVSPropertyOp17
 70
     1
102
RTVSPropertyOp18
 70
     1
102
RTVSPropertyOp19
 70
     1
102
RTVSPropertyOp20
 70
     1
102
RTVSPropertyOp21
 70
     1
102
RTVSPropertyOp22
 70
     1
102
RTVSPropertyOp23
 70
     1
102
RTVSPropertyOp24
 70
     1
102
RTVSPropertyOp25
 70
     1
102
RTVSPropertyOp26
 70
     1
102
RTVSPropertyOp27
 70
     1
102
RTVSPropertyOp28
 70
     1
102
RTVSPropertyOp29
 70
     1
102
RTVSPropertyOp30
 70
     1
102
RTVSPropertyOp31
 70
     1
102
RTVSPropertyOp32
 70
     1
102
RTVSPropertyOp33
 70
     1
102
RTVSPropertyOp34
 70
     1
102
RTVSPropertyOp35
 70
     1
102
RTVSPropertyOp36
 70
     1
102
RTVSPropertyOp37
 70
     1
102
RTVSPropertyOp38
 70
     1
102
RTVSPropertyOp39
 70
     1
102
RTVSPropertyOp40
 70
     1
102
RTVSPropertyOp41
 70
     1
102
RTVSPropertyOp42
 70
     1
102
RTVSPropertyOp43
 70
     1
102
RTVSPropertyOp44
 70
     1
102
RTVSPropertyOp45
 70
     1
102
RTVSPropertyOp46
 70
     1
102
RTVSPropertyOp47
 70
     1
102
RTVSPropertyOp48
 70
     1
102
RTVSPropertyOp49
 70
     1
102
RTVSPropertyOp50
 70
     1
102
RTVSPropertyOp51
 70
     0
102
RTVSPropertyOp52
 70
     0
102
RTVSPropertyOp53
 70
     1
102
RTVSPropertyOp54
 70
     1
102
RTVSPropertyOp55
 70
     1
102
RTVSPropertyOp56
 70
     1
102
RTVSPropertyOp57
 70
     1
102
RTVSPropertyOp58
 70
     1
102
RTVSPropertyOp59
 70
     1
102
RTVSPropertyOp60
 70
     1
102
RTVSPropertyOp61
 70
     1
102
RTVSPropertyOp62
 70
     1
  0
XRECORD
  5
18F0
102
{ACAD_REACTORS
330
18EF
102
}
330
18EF
100
AcDbXrecord
280
     1
102
RTVSPost2010Prop28
280
     0
102
RTVSPost2010PropOp28
 70
     1
102
RTVSPost2010Prop29
280
     1
102
RTVSPost2010PropOp29
 70
     1
102
RTVSPost2010Prop30
280
     1
102
RTVSPost2010PropOp30
 70
     1
102
RTVSPost2010Prop31
280
     0
102
RTVSPost2010PropOp31
 70
     1
102
RTVSPost2010Prop32
280
     0
102
RTVSPost2010PropOp32
 70
     1
102
RTVSPost2010Prop33
280
     0
102
RTVSPost2010PropOp33
 70
     1
102
RTVSPost2010Prop34
280
     0
102
RTVSPost2010PropOp34
 70
     1
102
RTVSPost2010Prop35
280
     0
102
RTVSPost2010PropOp35
 70
     1
102
RTVSPost2010Prop36
280
     0
102
RTVSPost2010PropOp36
 70
     1
102
RTVSPost2010Prop37
 90
       50
102
RTVSPost2010PropOp37
 70
     1
102
RTVSPost2010Prop38
140
0.0
102
RTVSPost2010PropOp38
 70
     1
102
RTVSPost2010Prop39
140
1.0
102
RTVSPost2010PropOp39
 70
     1
102
RTVSPost2010Prop40
 90
        0
102
RTVSPost2010PropOp40
 70
     1
102
RTVSPost2010Prop41ColorIndex
 90
       18
102
RTVSPost2010Prop41ColorRGB
 90
        0
102
RTVSPost2010PropOp41
 70
     1
102
RTVSPost2010Prop42
 90
       50
102
RTVSPost2010PropOp42
 70
     1
102
RTVSPost2010Prop43
 90
        3
102
RTVSPost2010PropOp43
 70
     1
102
RTVSPost2010Prop44ColorIndex
 90
        5
102
RTVSPost2010Prop44ColorRGB
 90
      255
102
RTVSPost2010PropOp44
 70
     1
102
RTVSPost2010Prop45
280
     0
102
RTVSPost2010PropOp45
 70
     1
102
RTVSPost2010Prop46
 90
       50
102
RTVSPost2010PropOp46
 70
     1
102
RTVSPost2010Prop47
 90
       50
102
RTVSPost2010PropOp47
 70
     1
102
RTVSPost2010Prop48
 90
       50
102
RTVSPost2010PropOp48
 70
     1
102
RTVSPost2010Prop49
280
     0
102
RTVSPost2010PropOp49
 70
     1
102
RTVSPost2010Prop50
 90
       50
102
RTVSPost2010PropOp50
 70
     1
102
RTVSPost2010Prop51ColorIndex
 90
      256
102
RTVSPost2010Prop51ColorRGB
 90
-16777216
102
RTVSPost2010PropOp51
 70
     0
102
RTVSPost2010Prop52
140
1.0
102
RTVSPost2010PropOp52
 70
     0
102
RTVSPost2010Prop53
 90
        2
102
RTVSPost2010PropOp53
 70
     1
102
RTVSPost2010Prop54
  1
strokes_ogs.tif
102
RTVSPost2010PropOp54
 70
     1
102
RTVSPost2010Prop55
280
     0
102
RTVSPost2010PropOp55
 70
     1
102
RTVSPost2010Prop56
140
1.0
102
RTVSPost2010PropOp56
 70
     1
102
RTVSPost2010Prop57
140
1.0
102
RTVSPost2010PropOp57
 70
     1
102
RTVSPropertyOp0
 70
     1
102
RTVSPropertyOp1
 70
     1
102
RTVSPropertyOp2
 70
     1
102
RTVSPropertyOp3
 70
     1
102
RTVSPropertyOp4
 70
     1
102
RTVSPropertyOp5
 70
     1
102
RTVSPropertyOp6
 70
     1
102
RTVSPropertyOp7
 70
     1
102
RTVSPropertyOp8
 70
     1
102
RTVSPropertyOp9
 70
     1
102
RTVSPropertyOp10
 70
     1
102
RTVSPropertyOp11
 70
     1
102
RTVSPropertyOp12
 70
     1
102
RTVSPropertyOp13
 70
     1
102
RTVSPropertyOp14
 70
     1
102
RTVSPropertyOp15
 70
     1
102
RTVSPropertyOp16
 70
     1
102
RTVSPropertyOp17
 70
     1
102
RTVSPropertyOp18
 70
     1
102
RTVSPropertyOp19
 70
     1
102
RTVSPropertyOp20
 70
     1
102
RTVSPropertyOp21
 70
     1
102
RTVSPropertyOp22
 70
     1
102
RTVSPropertyOp23
 70
     1
102
RTVSPropertyOp24
 70
     1
102
RTVSPropertyOp25
 70
     1
102
RTVSPropertyOp26
 70
     1
102
RTVSPropertyOp27
 70
     1
102
RTVSPropertyOp28
 70
     1
102
RTVSPropertyOp29
 70
     1
102
RTVSPropertyOp30
 70
     1
102
RTVSPropertyOp31
 70
     1
102
RTVSPropertyOp32
 70
     1
102
RTVSPropertyOp33
 70
     1
102
RTVSPropertyOp34
 70
     1
102
RTVSPropertyOp35
 70
     1
102
RTVSPropertyOp36
 70
     1
102
RTVSPropertyOp37
 70
     1
102
RTVSPropertyOp38
 70
     1
102
RTVSPropertyOp39
 70
     1
102
RTVSPropertyOp40
 70
     1
102
RTVSPropertyOp41
 70
     1
102
RTVSPropertyOp42
 70
     1
102
RTVSPropertyOp43
 70
     1
102
RTVSPropertyOp44
 70
     1
102
RTVSPropertyOp45
 70
     1
102
RTVSPropertyOp46
 70
     1
102
RTVSPropertyOp47
 70
     1
102
RTVSPropertyOp48
 70
     1
102
RTVSPropertyOp49
 70
     1
102
RTVSPropertyOp50
 70
     1
102
RTVSPropertyOp51
 70
     0
102
RTVSPropertyOp52
 70
     0
102
RTVSPropertyOp53
 70
     1
102
RTVSPropertyOp54
 70
     1
102
RTVSPropertyOp55
 70
     1
102
RTVSPropertyOp56
 70
     1
102
RTVSPropertyOp57
 70
     1
102
RTVSPropertyOp58
 70
     1
102
RTVSPropertyOp59
 70
     1
102
RTVSPropertyOp60
 70
     1
102
RTVSPropertyOp61
 70
     1
102
RTVSPropertyOp62
 70
     1
  0
XRECORD
  5
18EE
102
{ACAD_REACTORS
330
18ED
102
}
330
18ED
100
AcDbXrecord
280
     1
102
RTVSPost2010Prop28
280
     0
102
RTVSPost2010PropOp28
 70
     1
102
RTVSPost2010Prop29
280
     1
102
RTVSPost2010PropOp29
 70
     1
102
RTVSPost2010Prop30
280
     1
102
RTVSPost2010PropOp30
 70
     1
102
RTVSPost2010Prop31
280
     0
102
RTVSPost2010PropOp31
 70
     1
102
RTVSPost2010Prop32
280
     0
102
RTVSPost2010PropOp32
 70
     1
102
RTVSPost2010Prop33
280
     0
102
RTVSPost2010PropOp33
 70
     1
102
RTVSPost2010Prop34
280
     0
102
RTVSPost2010PropOp34
 70
     1
102
RTVSPost2010Prop35
280
     0
102
RTVSPost2010PropOp35
 70
     1
102
RTVSPost2010Prop36
280
     0
102
RTVSPost2010PropOp36
 70
     1
102
RTVSPost2010Prop37
 90
       50
102
RTVSPost2010PropOp37
 70
     1
102
RTVSPost2010Prop38
140
0.0
102
RTVSPost2010PropOp38
 70
     1
102
RTVSPost2010Prop39
140
1.0
102
RTVSPost2010PropOp39
 70
     1
102
RTVSPost2010Prop40
 90
        0
102
RTVSPost2010PropOp40
 70
     1
102
RTVSPost2010Prop41ColorIndex
 90
       18
102
RTVSPost2010Prop41ColorRGB
 90
        0
102
RTVSPost2010PropOp41
 70
     1
102
RTVSPost2010Prop42
 90
       50
102
RTVSPost2010PropOp42
 70
     1
102
RTVSPost2010Prop43
 90
        3
102
RTVSPost2010PropOp43
 70
     1
102
RTVSPost2010Prop44ColorIndex
 90
        5
102
RTVSPost2010Prop44ColorRGB
 90
      255
102
RTVSPost2010PropOp44
 70
     1
102
RTVSPost2010Prop45
280
     0
102
RTVSPost2010PropOp45
 70
     1
102
RTVSPost2010Prop46
 90
       50
102
RTVSPost2010PropOp46
 70
     1
102
RTVSPost2010Prop47
 90
       50
102
RTVSPost2010PropOp47
 70
     1
102
RTVSPost2010Prop48
 90
       50
102
RTVSPost2010PropOp48
 70
     1
102
RTVSPost2010Prop49
280
     0
102
RTVSPost2010PropOp49
 70
     1
102
RTVSPost2010Prop50
 90
       50
102
RTVSPost2010PropOp50
 70
     1
102
RTVSPost2010Prop51ColorIndex
 90
      256
102
RTVSPost2010Prop51ColorRGB
 90
-16777216
102
RTVSPost2010PropOp51
 70
     0
102
RTVSPost2010Prop52
140
1.0
102
RTVSPost2010PropOp52
 70
     0
102
RTVSPost2010Prop53
 90
        2
102
RTVSPost2010PropOp53
 70
     1
102
RTVSPost2010Prop54
  1
strokes_ogs.tif
102
RTVSPost2010PropOp54
 70
     1
102
RTVSPost2010Prop55
280
     0
102
RTVSPost2010PropOp55
 70
     1
102
RTVSPost2010Prop56
140
1.0
102
RTVSPost2010PropOp56
 70
     1
102
RTVSPost2010Prop57
140
1.0
102
RTVSPost2010PropOp57
 70
     1
102
RTVSPropertyOp0
 70
     1
102
RTVSPropertyOp1
 70
     1
102
RTVSPropertyOp2
 70
     1
102
RTVSPropertyOp3
 70
     1
102
RTVSPropertyOp4
 70
     1
102
RTVSPropertyOp5
 70
     1
102
RTVSPropertyOp6
 70
     1
102
RTVSPropertyOp7
 70
     1
102
RTVSPropertyOp8
 70
     1
102
RTVSPropertyOp9
 70
     1
102
RTVSPropertyOp10
 70
     1
102
RTVSPropertyOp11
 70
     1
102
RTVSPropertyOp12
 70
     1
102
RTVSPropertyOp13
 70
     1
102
RTVSPropertyOp14
 70
     1
102
RTVSPropertyOp15
 70
     1
102
RTVSPropertyOp16
 70
     1
102
RTVSPropertyOp17
 70
     1
102
RTVSPropertyOp18
 70
     1
102
RTVSPropertyOp19
 70
     1
102
RTVSPropertyOp20
 70
     1
102
RTVSPropertyOp21
 70
     1
102
RTVSPropertyOp22
 70
     1
102
RTVSPropertyOp23
 70
     1
102
RTVSPropertyOp24
 70
     1
102
RTVSPropertyOp25
 70
     1
102
RTVSPropertyOp26
 70
     1
102
RTVSPropertyOp27
 70
     1
102
RTVSPropertyOp28
 70
     1
102
RTVSPropertyOp29
 70
     1
102
RTVSPropertyOp30
 70
     1
102
RTVSPropertyOp31
 70
     1
102
RTVSPropertyOp32
 70
     1
102
RTVSPropertyOp33
 70
     1
102
RTVSPropertyOp34
 70
     1
102
RTVSPropertyOp35
 70
     1
102
RTVSPropertyOp36
 70
     1
102
RTVSPropertyOp37
 70
     1
102
RTVSPropertyOp38
 70
     1
102
RTVSPropertyOp39
 70
     1
102
RTVSPropertyOp40
 70
     1
102
RTVSPropertyOp41
 70
     1
102
RTVSPropertyOp42
 70
     1
102
RTVSPropertyOp43
 70
     1
102
RTVSPropertyOp44
 70
     1
102
RTVSPropertyOp45
 70
     1
102
RTVSPropertyOp46
 70
     1
102
RTVSPropertyOp47
 70
     1
102
RTVSPropertyOp48
 70
     1
102
RTVSPropertyOp49
 70
     1
102
RTVSPropertyOp50
 70
     1
102
RTVSPropertyOp51
 70
     0
102
RTVSPropertyOp52
 70
     0
102
RTVSPropertyOp53
 70
     1
102
RTVSPropertyOp54
 70
     1
102
RTVSPropertyOp55
 70
     1
102
RTVSPropertyOp56
 70
     1
102
RTVSPropertyOp57
 70
     1
102
RTVSPropertyOp58
 70
     1
102
RTVSPropertyOp59
 70
     1
102
RTVSPropertyOp60
 70
     1
102
RTVSPropertyOp61
 70
     1
102
RTVSPropertyOp62
 70
     1
  0
XRECORD
  5
18E8
102
{ACAD_REACTORS
330
18E7
102
}
330
18E7
100
AcDbXrecord
280
     1
102
RTVSPost2010Prop28
280
     0
102
RTVSPost2010PropOp28
 70
     1
102
RTVSPost2010Prop29
280
     1
102
RTVSPost2010PropOp29
 70
     1
102
RTVSPost2010Prop30
280
     1
102
RTVSPost2010PropOp30
 70
     1
102
RTVSPost2010Prop31
280
     0
102
RTVSPost2010PropOp31
 70
     1
102
RTVSPost2010Prop32
280
     0
102
RTVSPost2010PropOp32
 70
     1
102
RTVSPost2010Prop33
280
     0
102
RTVSPost2010PropOp33
 70
     1
102
RTVSPost2010Prop34
280
     0
102
RTVSPost2010PropOp34
 70
     1
102
RTVSPost2010Prop35
280
     0
102
RTVSPost2010PropOp35
 70
     1
102
RTVSPost2010Prop36
280
     0
102
RTVSPost2010PropOp36
 70
     1
102
RTVSPost2010Prop37
 90
       50
102
RTVSPost2010PropOp37
 70
     1
102
RTVSPost2010Prop38
140
0.0
102
RTVSPost2010PropOp38
 70
     1
102
RTVSPost2010Prop39
140
1.0
102
RTVSPost2010PropOp39
 70
     1
102
RTVSPost2010Prop40
 90
        0
102
RTVSPost2010PropOp40
 70
     1
102
RTVSPost2010Prop41ColorIndex
 90
       18
102
RTVSPost2010Prop41ColorRGB
 90
        0
102
RTVSPost2010PropOp41
 70
     1
102
RTVSPost2010Prop42
 90
       50
102
RTVSPost2010PropOp42
 70
     1
102
RTVSPost2010Prop43
 90
        3
102
RTVSPost2010PropOp43
 70
     1
102
RTVSPost2010Prop44ColorIndex
 90
        5
102
RTVSPost2010Prop44ColorRGB
 90
      255
102
RTVSPost2010PropOp44
 70
     1
102
RTVSPost2010Prop45
280
     0
102
RTVSPost2010PropOp45
 70
     1
102
RTVSPost2010Prop46
 90
       50
102
RTVSPost2010PropOp46
 70
     1
102
RTVSPost2010Prop47
 90
       50
102
RTVSPost2010PropOp47
 70
     1
102
RTVSPost2010Prop48
 90
       50
102
RTVSPost2010PropOp48
 70
     1
102
RTVSPost2010Prop49
280
     0
102
RTVSPost2010PropOp49
 70
     1
102
RTVSPost2010Prop50
 90
       50
102
RTVSPost2010PropOp50
 70
     1
102
RTVSPost2010Prop51ColorIndex
 90
      256
102
RTVSPost2010Prop51ColorRGB
 90
-16777216
102
RTVSPost2010PropOp51
 70
     0
102
RTVSPost2010Prop52
140
1.0
102
RTVSPost2010PropOp52
 70
     0
102
RTVSPost2010Prop53
 90
        2
102
RTVSPost2010PropOp53
 70
     1
102
RTVSPost2010Prop54
  1
strokes_ogs.tif
102
RTVSPost2010PropOp54
 70
     1
102
RTVSPost2010Prop55
280
     0
102
RTVSPost2010PropOp55
 70
     1
102
RTVSPost2010Prop56
140
1.0
102
RTVSPost2010PropOp56
 70
     1
102
RTVSPost2010Prop57
140
1.0
102
RTVSPost2010PropOp57
 70
     1
102
RTVSPropertyOp0
 70
     1
102
RTVSPropertyOp1
 70
     1
102
RTVSPropertyOp2
 70
     1
102
RTVSPropertyOp3
 70
     1
102
RTVSPropertyOp4
 70
     1
102
RTVSPropertyOp5
 70
     1
102
RTVSPropertyOp6
 70
     1
102
RTVSPropertyOp7
 70
     1
102
RTVSPropertyOp8
 70
     1
102
RTVSPropertyOp9
 70
     1
102
RTVSPropertyOp10
 70
     1
102
RTVSPropertyOp11
 70
     1
102
RTVSPropertyOp12
 70
     1
102
RTVSPropertyOp13
 70
     1
102
RTVSPropertyOp14
 70
     1
102
RTVSPropertyOp15
 70
     1
102
RTVSPropertyOp16
 70
     1
102
RTVSPropertyOp17
 70
     1
102
RTVSPropertyOp18
 70
     1
102
RTVSPropertyOp19
 70
     1
102
RTVSPropertyOp20
 70
     1
102
RTVSPropertyOp21
 70
     1
102
RTVSPropertyOp22
 70
     1
102
RTVSPropertyOp23
 70
     1
102
RTVSPropertyOp24
 70
     1
102
RTVSPropertyOp25
 70
     1
102
RTVSPropertyOp26
 70
     1
102
RTVSPropertyOp27
 70
     1
102
RTVSPropertyOp28
 70
     1
102
RTVSPropertyOp29
 70
     1
102
RTVSPropertyOp30
 70
     1
102
RTVSPropertyOp31
 70
     1
102
RTVSPropertyOp32
 70
     1
102
RTVSPropertyOp33
 70
     1
102
RTVSPropertyOp34
 70
     1
102
RTVSPropertyOp35
 70
     1
102
RTVSPropertyOp36
 70
     1
102
RTVSPropertyOp37
 70
     1
102
RTVSPropertyOp38
 70
     1
102
RTVSPropertyOp39
 70
     1
102
RTVSPropertyOp40
 70
     1
102
RTVSPropertyOp41
 70
     1
102
RTVSPropertyOp42
 70
     1
102
RTVSPropertyOp43
 70
     1
102
RTVSPropertyOp44
 70
     1
102
RTVSPropertyOp45
 70
     1
102
RTVSPropertyOp46
 70
     1
102
RTVSPropertyOp47
 70
     1
102
RTVSPropertyOp48
 70
     1
102
RTVSPropertyOp49
 70
     1
102
RTVSPropertyOp50
 70
     1
102
RTVSPropertyOp51
 70
     0
102
RTVSPropertyOp52
 70
     0
102
RTVSPropertyOp53
 70
     1
102
RTVSPropertyOp54
 70
     1
102
RTVSPropertyOp55
 70
     1
102
RTVSPropertyOp56
 70
     1
102
RTVSPropertyOp57
 70
     1
102
RTVSPropertyOp58
 70
     1
102
RTVSPropertyOp59
 70
     1
102
RTVSPropertyOp60
 70
     1
102
RTVSPropertyOp61
 70
     1
102
RTVSPropertyOp62
 70
     1
  0
XRECORD
  5
18EA
102
{ACAD_REACTORS
330
18E9
102
}
330
18E9
100
AcDbXrecord
280
     1
102
RTVSPost2010Prop28
280
     0
102
RTVSPost2010PropOp28
 70
     1
102
RTVSPost2010Prop29
280
     1
102
RTVSPost2010PropOp29
 70
     1
102
RTVSPost2010Prop30
280
     1
102
RTVSPost2010PropOp30
 70
     1
102
RTVSPost2010Prop31
280
     0
102
RTVSPost2010PropOp31
 70
     1
102
RTVSPost2010Prop32
280
     0
102
RTVSPost2010PropOp32
 70
     1
102
RTVSPost2010Prop33
280
     0
102
RTVSPost2010PropOp33
 70
     1
102
RTVSPost2010Prop34
280
     0
102
RTVSPost2010PropOp34
 70
     1
102
RTVSPost2010Prop35
280
     0
102
RTVSPost2010PropOp35
 70
     1
102
RTVSPost2010Prop36
280
     0
102
RTVSPost2010PropOp36
 70
     1
102
RTVSPost2010Prop37
 90
       50
102
RTVSPost2010PropOp37
 70
     1
102
RTVSPost2010Prop38
140
0.0
102
RTVSPost2010PropOp38
 70
     1
102
RTVSPost2010Prop39
140
1.0
102
RTVSPost2010PropOp39
 70
     1
102
RTVSPost2010Prop40
 90
        0
102
RTVSPost2010PropOp40
 70
     1
102
RTVSPost2010Prop41ColorIndex
 90
       18
102
RTVSPost2010Prop41ColorRGB
 90
        0
102
RTVSPost2010PropOp41
 70
     1
102
RTVSPost2010Prop42
 90
       50
102
RTVSPost2010PropOp42
 70
     1
102
RTVSPost2010Prop43
 90
        3
102
RTVSPost2010PropOp43
 70
     1
102
RTVSPost2010Prop44ColorIndex
 90
        5
102
RTVSPost2010Prop44ColorRGB
 90
      255
102
RTVSPost2010PropOp44
 70
     1
102
RTVSPost2010Prop45
280
     0
102
RTVSPost2010PropOp45
 70
     1
102
RTVSPost2010Prop46
 90
       50
102
RTVSPost2010PropOp46
 70
     1
102
RTVSPost2010Prop47
 90
       50
102
RTVSPost2010PropOp47
 70
     1
102
RTVSPost2010Prop48
 90
       50
102
RTVSPost2010PropOp48
 70
     1
102
RTVSPost2010Prop49
280
     0
102
RTVSPost2010PropOp49
 70
     1
102
RTVSPost2010Prop50
 90
       50
102
RTVSPost2010PropOp50
 70
     1
102
RTVSPost2010Prop51ColorIndex
 90
      256
102
RTVSPost2010Prop51ColorRGB
 90
-16777216
102
RTVSPost2010PropOp51
 70
     0
102
RTVSPost2010Prop52
140
1.0
102
RTVSPost2010PropOp52
 70
     0
102
RTVSPost2010Prop53
 90
        2
102
RTVSPost2010PropOp53
 70
     1
102
RTVSPost2010Prop54
  1
strokes_ogs.tif
102
RTVSPost2010PropOp54
 70
     1
102
RTVSPost2010Prop55
280
     0
102
RTVSPost2010PropOp55
 70
     1
102
RTVSPost2010Prop56
140
1.0
102
RTVSPost2010PropOp56
 70
     1
102
RTVSPost2010Prop57
140
1.0
102
RTVSPost2010PropOp57
 70
     1
102
RTVSPropertyOp0
 70
     1
102
RTVSPropertyOp1
 70
     1
102
RTVSPropertyOp2
 70
     1
102
RTVSPropertyOp3
 70
     1
102
RTVSPropertyOp4
 70
     1
102
RTVSPropertyOp5
 70
     1
102
RTVSPropertyOp6
 70
     1
102
RTVSPropertyOp7
 70
     1
102
RTVSPropertyOp8
 70
     1
102
RTVSPropertyOp9
 70
     1
102
RTVSPropertyOp10
 70
     1
102
RTVSPropertyOp11
 70
     1
102
RTVSPropertyOp12
 70
     1
102
RTVSPropertyOp13
 70
     1
102
RTVSPropertyOp14
 70
     1
102
RTVSPropertyOp15
 70
     1
102
RTVSPropertyOp16
 70
     1
102
RTVSPropertyOp17
 70
     1
102
RTVSPropertyOp18
 70
     1
102
RTVSPropertyOp19
 70
     1
102
RTVSPropertyOp20
 70
     1
102
RTVSPropertyOp21
 70
     1
102
RTVSPropertyOp22
 70
     1
102
RTVSPropertyOp23
 70
     1
102
RTVSPropertyOp24
 70
     1
102
RTVSPropertyOp25
 70
     1
102
RTVSPropertyOp26
 70
     1
102
RTVSPropertyOp27
 70
     1
102
RTVSPropertyOp28
 70
     1
102
RTVSPropertyOp29
 70
     1
102
RTVSPropertyOp30
 70
     1
102
RTVSPropertyOp31
 70
     1
102
RTVSPropertyOp32
 70
     1
102
RTVSPropertyOp33
 70
     1
102
RTVSPropertyOp34
 70
     1
102
RTVSPropertyOp35
 70
     1
102
RTVSPropertyOp36
 70
     1
102
RTVSPropertyOp37
 70
     1
102
RTVSPropertyOp38
 70
     1
102
RTVSPropertyOp39
 70
     1
102
RTVSPropertyOp40
 70
     1
102
RTVSPropertyOp41
 70
     1
102
RTVSPropertyOp42
 70
     1
102
RTVSPropertyOp43
 70
     1
102
RTVSPropertyOp44
 70
     1
102
RTVSPropertyOp45
 70
     1
102
RTVSPropertyOp46
 70
     1
102
RTVSPropertyOp47
 70
     1
102
RTVSPropertyOp48
 70
     1
102
RTVSPropertyOp49
 70
     1
102
RTVSPropertyOp50
 70
     1
102
RTVSPropertyOp51
 70
     0
102
RTVSPropertyOp52
 70
     0
102
RTVSPropertyOp53
 70
     1
102
RTVSPropertyOp54
 70
     1
102
RTVSPropertyOp55
 70
     1
102
RTVSPropertyOp56
 70
     1
102
RTVSPropertyOp57
 70
     1
102
RTVSPropertyOp58
 70
     1
102
RTVSPropertyOp59
 70
     1
102
RTVSPropertyOp60
 70
     1
102
RTVSPropertyOp61
 70
     1
102
RTVSPropertyOp62
 70
     1
  0
XRECORD
  5
18E0
102
{ACAD_REACTORS
330
18DF
102
}
330
18DF
100
AcDbXrecord
280
     1
102
RTVSPost2010Prop28
280
     0
102
RTVSPost2010PropOp28
 70
     1
102
RTVSPost2010Prop29
280
     1
102
RTVSPost2010PropOp29
 70
     1
102
RTVSPost2010Prop30
280
     1
102
RTVSPost2010PropOp30
 70
     1
102
RTVSPost2010Prop31
280
     0
102
RTVSPost2010PropOp31
 70
     1
102
RTVSPost2010Prop32
280
     0
102
RTVSPost2010PropOp32
 70
     1
102
RTVSPost2010Prop33
280
     0
102
RTVSPost2010PropOp33
 70
     1
102
RTVSPost2010Prop34
280
     0
102
RTVSPost2010PropOp34
 70
     1
102
RTVSPost2010Prop35
280
     0
102
RTVSPost2010PropOp35
 70
     1
102
RTVSPost2010Prop36
280
     0
102
RTVSPost2010PropOp36
 70
     1
102
RTVSPost2010Prop37
 90
       50
102
RTVSPost2010PropOp37
 70
     1
102
RTVSPost2010Prop38
140
0.0
102
RTVSPost2010PropOp38
 70
     1
102
RTVSPost2010Prop39
140
1.0
102
RTVSPost2010PropOp39
 70
     1
102
RTVSPost2010Prop40
 90
        0
102
RTVSPost2010PropOp40
 70
     1
102
RTVSPost2010Prop41ColorIndex
 90
       18
102
RTVSPost2010Prop41ColorRGB
 90
        0
102
RTVSPost2010PropOp41
 70
     1
102
RTVSPost2010Prop42
 90
       50
102
RTVSPost2010PropOp42
 70
     1
102
RTVSPost2010Prop43
 90
        3
102
RTVSPost2010PropOp43
 70
     1
102
RTVSPost2010Prop44ColorIndex
 90
        5
102
RTVSPost2010Prop44ColorRGB
 90
      255
102
RTVSPost2010PropOp44
 70
     1
102
RTVSPost2010Prop45
280
     0
102
RTVSPost2010PropOp45
 70
     1
102
RTVSPost2010Prop46
 90
       50
102
RTVSPost2010PropOp46
 70
     1
102
RTVSPost2010Prop47
 90
       50
102
RTVSPost2010PropOp47
 70
     1
102
RTVSPost2010Prop48
 90
       50
102
RTVSPost2010PropOp48
 70
     1
102
RTVSPost2010Prop49
280
     0
102
RTVSPost2010PropOp49
 70
     1
102
RTVSPost2010Prop50
 90
       50
102
RTVSPost2010PropOp50
 70
     1
102
RTVSPost2010Prop51ColorIndex
 90
      256
102
RTVSPost2010Prop51ColorRGB
 90
-16777216
102
RTVSPost2010PropOp51
 70
     0
102
RTVSPost2010Prop52
140
1.0
102
RTVSPost2010PropOp52
 70
     0
102
RTVSPost2010Prop53
 90
        2
102
RTVSPost2010PropOp53
 70
     1
102
RTVSPost2010Prop54
  1
strokes_ogs.tif
102
RTVSPost2010PropOp54
 70
     1
102
RTVSPost2010Prop55
280
     0
102
RTVSPost2010PropOp55
 70
     1
102
RTVSPost2010Prop56
140
1.0
102
RTVSPost2010PropOp56
 70
     1
102
RTVSPost2010Prop57
140
1.0
102
RTVSPost2010PropOp57
 70
     1
102
RTVSPropertyOp0
 70
     1
102
RTVSPropertyOp1
 70
     1
102
RTVSPropertyOp2
 70
     1
102
RTVSPropertyOp3
 70
     1
102
RTVSPropertyOp4
 70
     1
102
RTVSPropertyOp5
 70
     1
102
RTVSPropertyOp6
 70
     1
102
RTVSPropertyOp7
 70
     1
102
RTVSPropertyOp8
 70
     1
102
RTVSPropertyOp9
 70
     1
102
RTVSPropertyOp10
 70
     1
102
RTVSPropertyOp11
 70
     1
102
RTVSPropertyOp12
 70
     1
102
RTVSPropertyOp13
 70
     1
102
RTVSPropertyOp14
 70
     1
102
RTVSPropertyOp15
 70
     1
102
RTVSPropertyOp16
 70
     1
102
RTVSPropertyOp17
 70
     1
102
RTVSPropertyOp18
 70
     1
102
RTVSPropertyOp19
 70
     1
102
RTVSPropertyOp20
 70
     1
102
RTVSPropertyOp21
 70
     1
102
RTVSPropertyOp22
 70
     1
102
RTVSPropertyOp23
 70
     1
102
RTVSPropertyOp24
 70
     1
102
RTVSPropertyOp25
 70
     1
102
RTVSPropertyOp26
 70
     1
102
RTVSPropertyOp27
 70
     1
102
RTVSPropertyOp28
 70
     1
102
RTVSPropertyOp29
 70
     1
102
RTVSPropertyOp30
 70
     1
102
RTVSPropertyOp31
 70
     1
102
RTVSPropertyOp32
 70
     1
102
RTVSPropertyOp33
 70
     1
102
RTVSPropertyOp34
 70
     1
102
RTVSPropertyOp35
 70
     1
102
RTVSPropertyOp36
 70
     1
102
RTVSPropertyOp37
 70
     1
102
RTVSPropertyOp38
 70
     1
102
RTVSPropertyOp39
 70
     1
102
RTVSPropertyOp40
 70
     1
102
RTVSPropertyOp41
 70
     1
102
RTVSPropertyOp42
 70
     1
102
RTVSPropertyOp43
 70
     1
102
RTVSPropertyOp44
 70
     1
102
RTVSPropertyOp45
 70
     1
102
RTVSPropertyOp46
 70
     1
102
RTVSPropertyOp47
 70
     1
102
RTVSPropertyOp48
 70
     1
102
RTVSPropertyOp49
 70
     1
102
RTVSPropertyOp50
 70
     1
102
RTVSPropertyOp51
 70
     0
102
RTVSPropertyOp52
 70
     0
102
RTVSPropertyOp53
 70
     1
102
RTVSPropertyOp54
 70
     1
102
RTVSPropertyOp55
 70
     1
102
RTVSPropertyOp56
 70
     1
102
RTVSPropertyOp57
 70
     1
102
RTVSPropertyOp58
 70
     1
102
RTVSPropertyOp59
 70
     1
102
RTVSPropertyOp60
 70
     1
102
RTVSPropertyOp61
 70
     1
102
RTVSPropertyOp62
 70
     1
  0
XRECORD
  5
18D4
102
{ACAD_REACTORS
330
18D3
102
}
330
18D3
100
AcDbXrecord
280
     1
102
RTVSPost2010Prop28
280
     0
102
RTVSPost2010PropOp28
 70
     1
102
RTVSPost2010Prop29
280
     1
102
RTVSPost2010PropOp29
 70
     1
102
RTVSPost2010Prop30
280
     1
102
RTVSPost2010PropOp30
 70
     1
102
RTVSPost2010Prop31
280
     0
102
RTVSPost2010PropOp31
 70
     1
102
RTVSPost2010Prop32
280
     0
102
RTVSPost2010PropOp32
 70
     1
102
RTVSPost2010Prop33
280
     0
102
RTVSPost2010PropOp33
 70
     1
102
RTVSPost2010Prop34
280
     0
102
RTVSPost2010PropOp34
 70
     1
102
RTVSPost2010Prop35
280
     0
102
RTVSPost2010PropOp35
 70
     1
102
RTVSPost2010Prop36
280
     0
102
RTVSPost2010PropOp36
 70
     1
102
RTVSPost2010Prop37
 90
       50
102
RTVSPost2010PropOp37
 70
     1
102
RTVSPost2010Prop38
140
0.0
102
RTVSPost2010PropOp38
 70
     1
102
RTVSPost2010Prop39
140
1.0
102
RTVSPost2010PropOp39
 70
     1
102
RTVSPost2010Prop40
 90
        0
102
RTVSPost2010PropOp40
 70
     1
102
RTVSPost2010Prop41ColorIndex
 90
       18
102
RTVSPost2010Prop41ColorRGB
 90
        0
102
RTVSPost2010PropOp41
 70
     1
102
RTVSPost2010Prop42
 90
       50
102
RTVSPost2010PropOp42
 70
     1
102
RTVSPost2010Prop43
 90
        3
102
RTVSPost2010PropOp43
 70
     1
102
RTVSPost2010Prop44ColorIndex
 90
        5
102
RTVSPost2010Prop44ColorRGB
 90
      255
102
RTVSPost2010PropOp44
 70
     1
102
RTVSPost2010Prop45
280
     0
102
RTVSPost2010PropOp45
 70
     1
102
RTVSPost2010Prop46
 90
       50
102
RTVSPost2010PropOp46
 70
     1
102
RTVSPost2010Prop47
 90
       50
102
RTVSPost2010PropOp47
 70
     1
102
RTVSPost2010Prop48
 90
       50
102
RTVSPost2010PropOp48
 70
     1
102
RTVSPost2010Prop49
280
     0
102
RTVSPost2010PropOp49
 70
     1
102
RTVSPost2010Prop50
 90
       50
102
RTVSPost2010PropOp50
 70
     1
102
RTVSPost2010Prop51ColorIndex
 90
      256
102
RTVSPost2010Prop51ColorRGB
 90
-16777216
102
RTVSPost2010PropOp51
 70
     0
102
RTVSPost2010Prop52
140
1.0
102
RTVSPost2010PropOp52
 70
     0
102
RTVSPost2010Prop53
 90
        2
102
RTVSPost2010PropOp53
 70
     1
102
RTVSPost2010Prop54
  1
strokes_ogs.tif
102
RTVSPost2010PropOp54
 70
     1
102
RTVSPost2010Prop55
280
     0
102
RTVSPost2010PropOp55
 70
     1
102
RTVSPost2010Prop56
140
1.0
102
RTVSPost2010PropOp56
 70
     1
102
RTVSPost2010Prop57
140
1.0
102
RTVSPost2010PropOp57
 70
     1
102
RTVSPropertyOp0
 70
     1
102
RTVSPropertyOp1
 70
     1
102
RTVSPropertyOp2
 70
     1
102
RTVSPropertyOp3
 70
     1
102
RTVSPropertyOp4
 70
     1
102
RTVSPropertyOp5
 70
     1
102
RTVSPropertyOp6
 70
     1
102
RTVSPropertyOp7
 70
     1
102
RTVSPropertyOp8
 70
     1
102
RTVSPropertyOp9
 70
     1
102
RTVSPropertyOp10
 70
     1
102
RTVSPropertyOp11
 70
     1
102
RTVSPropertyOp12
 70
     1
102
RTVSPropertyOp13
 70
     1
102
RTVSPropertyOp14
 70
     1
102
RTVSPropertyOp15
 70
     1
102
RTVSPropertyOp16
 70
     1
102
RTVSPropertyOp17
 70
     1
102
RTVSPropertyOp18
 70
     1
102
RTVSPropertyOp19
 70
     1
102
RTVSPropertyOp20
 70
     1
102
RTVSPropertyOp21
 70
     1
102
RTVSPropertyOp22
 70
     1
102
RTVSPropertyOp23
 70
     1
102
RTVSPropertyOp24
 70
     1
102
RTVSPropertyOp25
 70
     1
102
RTVSPropertyOp26
 70
     1
102
RTVSPropertyOp27
 70
     1
102
RTVSPropertyOp28
 70
     1
102
RTVSPropertyOp29
 70
     1
102
RTVSPropertyOp30
 70
     1
102
RTVSPropertyOp31
 70
     1
102
RTVSPropertyOp32
 70
     1
102
RTVSPropertyOp33
 70
     1
102
RTVSPropertyOp34
 70
     1
102
RTVSPropertyOp35
 70
     1
102
RTVSPropertyOp36
 70
     1
102
RTVSPropertyOp37
 70
     1
102
RTVSPropertyOp38
 70
     1
102
RTVSPropertyOp39
 70
     1
102
RTVSPropertyOp40
 70
     1
102
RTVSPropertyOp41
 70
     1
102
RTVSPropertyOp42
 70
     1
102
RTVSPropertyOp43
 70
     1
102
RTVSPropertyOp44
 70
     1
102
RTVSPropertyOp45
 70
     1
102
RTVSPropertyOp46
 70
     1
102
RTVSPropertyOp47
 70
     1
102
RTVSPropertyOp48
 70
     1
102
RTVSPropertyOp49
 70
     1
102
RTVSPropertyOp50
 70
     1
102
RTVSPropertyOp51
 70
     0
102
RTVSPropertyOp52
 70
     0
102
RTVSPropertyOp53
 70
     1
102
RTVSPropertyOp54
 70
     1
102
RTVSPropertyOp55
 70
     1
102
RTVSPropertyOp56
 70
     1
102
RTVSPropertyOp57
 70
     1
102
RTVSPropertyOp58
 70
     1
102
RTVSPropertyOp59
 70
     1
102
RTVSPropertyOp60
 70
     1
102
RTVSPropertyOp61
 70
     1
102
RTVSPropertyOp62
 70
     1
  0
XRECORD
  5
18EC
102
{ACAD_REACTORS
330
18EB
102
}
330
18EB
100
AcDbXrecord
280
     1
102
RTVSPost2010Prop28
280
     0
102
RTVSPost2010PropOp28
 70
     1
102
RTVSPost2010Prop29
280
     1
102
RTVSPost2010PropOp29
 70
     1
102
RTVSPost2010Prop30
280
     1
102
RTVSPost2010PropOp30
 70
     1
102
RTVSPost2010Prop31
280
     0
102
RTVSPost2010PropOp31
 70
     1
102
RTVSPost2010Prop32
280
     0
102
RTVSPost2010PropOp32
 70
     1
102
RTVSPost2010Prop33
280
     0
102
RTVSPost2010PropOp33
 70
     1
102
RTVSPost2010Prop34
280
     0
102
RTVSPost2010PropOp34
 70
     1
102
RTVSPost2010Prop35
280
     0
102
RTVSPost2010PropOp35
 70
     1
102
RTVSPost2010Prop36
280
     0
102
RTVSPost2010PropOp36
 70
     1
102
RTVSPost2010Prop37
 90
       50
102
RTVSPost2010PropOp37
 70
     1
102
RTVSPost2010Prop38
140
0.0
102
RTVSPost2010PropOp38
 70
     1
102
RTVSPost2010Prop39
140
1.0
102
RTVSPost2010PropOp39
 70
     1
102
RTVSPost2010Prop40
 90
        0
102
RTVSPost2010PropOp40
 70
     1
102
RTVSPost2010Prop41ColorIndex
 90
       18
102
RTVSPost2010Prop41ColorRGB
 90
        0
102
RTVSPost2010PropOp41
 70
     1
102
RTVSPost2010Prop42
 90
       50
102
RTVSPost2010PropOp42
 70
     1
102
RTVSPost2010Prop43
 90
        3
102
RTVSPost2010PropOp43
 70
     1
102
RTVSPost2010Prop44ColorIndex
 90
        5
102
RTVSPost2010Prop44ColorRGB
 90
      255
102
RTVSPost2010PropOp44
 70
     1
102
RTVSPost2010Prop45
280
     0
102
RTVSPost2010PropOp45
 70
     1
102
RTVSPost2010Prop46
 90
       50
102
RTVSPost2010PropOp46
 70
     1
102
RTVSPost2010Prop47
 90
       50
102
RTVSPost2010PropOp47
 70
     1
102
RTVSPost2010Prop48
 90
       50
102
RTVSPost2010PropOp48
 70
     1
102
RTVSPost2010Prop49
280
     0
102
RTVSPost2010PropOp49
 70
     1
102
RTVSPost2010Prop50
 90
       50
102
RTVSPost2010PropOp50
 70
     1
102
RTVSPost2010Prop51ColorIndex
 90
      256
102
RTVSPost2010Prop51ColorRGB
 90
-16777216
102
RTVSPost2010PropOp51
 70
     0
102
RTVSPost2010Prop52
140
1.0
102
RTVSPost2010PropOp52
 70
     0
102
RTVSPost2010Prop53
 90
        2
102
RTVSPost2010PropOp53
 70
     1
102
RTVSPost2010Prop54
  1
strokes_ogs.tif
102
RTVSPost2010PropOp54
 70
     1
102
RTVSPost2010Prop55
280
     0
102
RTVSPost2010PropOp55
 70
     1
102
RTVSPost2010Prop56
140
1.0
102
RTVSPost2010PropOp56
 70
     1
102
RTVSPost2010Prop57
140
1.0
102
RTVSPost2010PropOp57
 70
     1
102
RTVSPropertyOp0
 70
     1
102
RTVSPropertyOp1
 70
     1
102
RTVSPropertyOp2
 70
     1
102
RTVSPropertyOp3
 70
     1
102
RTVSPropertyOp4
 70
     1
102
RTVSPropertyOp5
 70
     1
102
RTVSPropertyOp6
 70
     1
102
RTVSPropertyOp7
 70
     1
102
RTVSPropertyOp8
 70
     1
102
RTVSPropertyOp9
 70
     1
102
RTVSPropertyOp10
 70
     1
102
RTVSPropertyOp11
 70
     1
102
RTVSPropertyOp12
 70
     1
102
RTVSPropertyOp13
 70
     1
102
RTVSPropertyOp14
 70
     1
102
RTVSPropertyOp15
 70
     1
102
RTVSPropertyOp16
 70
     1
102
RTVSPropertyOp17
 70
     1
102
RTVSPropertyOp18
 70
     1
102
RTVSPropertyOp19
 70
     1
102
RTVSPropertyOp20
 70
     1
102
RTVSPropertyOp21
 70
     1
102
RTVSPropertyOp22
 70
     1
102
RTVSPropertyOp23
 70
     1
102
RTVSPropertyOp24
 70
     1
102
RTVSPropertyOp25
 70
     1
102
RTVSPropertyOp26
 70
     1
102
RTVSPropertyOp27
 70
     1
102
RTVSPropertyOp28
 70
     1
102
RTVSPropertyOp29
 70
     1
102
RTVSPropertyOp30
 70
     1
102
RTVSPropertyOp31
 70
     1
102
RTVSPropertyOp32
 70
     1
102
RTVSPropertyOp33
 70
     1
102
RTVSPropertyOp34
 70
     1
102
RTVSPropertyOp35
 70
     1
102
RTVSPropertyOp36
 70
     1
102
RTVSPropertyOp37
 70
     1
102
RTVSPropertyOp38
 70
     1
102
RTVSPropertyOp39
 70
     1
102
RTVSPropertyOp40
 70
     1
102
RTVSPropertyOp41
 70
     1
102
RTVSPropertyOp42
 70
     1
102
RTVSPropertyOp43
 70
     1
102
RTVSPropertyOp44
 70
     1
102
RTVSPropertyOp45
 70
     1
102
RTVSPropertyOp46
 70
     1
102
RTVSPropertyOp47
 70
     1
102
RTVSPropertyOp48
 70
     1
102
RTVSPropertyOp49
 70
     1
102
RTVSPropertyOp50
 70
     1
102
RTVSPropertyOp51
 70
     0
102
RTVSPropertyOp52
 70
     0
102
RTVSPropertyOp53
 70
     1
102
RTVSPropertyOp54
 70
     1
102
RTVSPropertyOp55
 70
     1
102
RTVSPropertyOp56
 70
     1
102
RTVSPropertyOp57
 70
     1
102
RTVSPropertyOp58
 70
     1
102
RTVSPropertyOp59
 70
     1
102
RTVSPropertyOp60
 70
     1
102
RTVSPropertyOp61
 70
     1
102
RTVSPropertyOp62
 70
     1
  0
ENDSEC
  0
EOF
