  0
SECTION
  2
HEADER
  9
$ACADVER
  1
AC1015
  9
$ACADMAINTVER
 70
    20
  9
$DWGCODEPAGE
  3
ANSI_932
  9
$INSBASE
 10
0.0
 20
0.0
 30
0.0
  9
$EXTMIN
 10
9.9999975266385
 20
10.0
 30
0.0
  9
$EXTMAX
 10
323.9477170573612
 20
243.0574054088546
 30
0.0
  9
$LIMMIN
 10
0.0000015376081137
 20
-0.0000001931532552
  9
$LIMMAX
 10
396.0000015376081
 20
272.9999998068465
  9
$ORTHOMODE
 70
     1
  9
$REGENMODE
 70
     1
  9
$FILLMODE
 70
     1
  9
$QTEXTMODE
 70
     0
  9
$MIRRTEXT
 70
     1
  9
$LTSCALE
 40
1.0
  9
$ATTMODE
 70
     1
  9
$TEXTSIZE
 40
2.5
  9
$TRACEWID
 40
1.0
  9
$TEXTSTYLE
  7
STANDARD
  9
$CLAYER
  8
0
  9
$CELTYPE
  6
BYLAYER
  9
$CECOLOR
 62
   256
  9
$CELTSCALE
 40
1.0
  9
$DISPSILH
 70
     0
  9
$DIMSCALE
 40
1.0
  9
$DIMASZ
 40
3.0
  9
$DIMEXO
 40
1.0
  9
$DIMDLI
 40
10.0
  9
$DIMRND
 40
0.0
  9
$DIMDLE
 40
0.0
  9
$DIMEXE
 40
1.0
  9
$DIMTP
 40
0.0
  9
$DIMTM
 40
0.0
  9
$DIMTXT
 40
3.2
  9
$DIMCEN
 40
0.0
  9
$DIMTSZ
 40
0.0
  9
$DIMTOL
 70
     0
  9
$DIMLIM
 70
     0
  9
$DIMTIH
 70
     0
  9
$DIMTOH
 70
     0
  9
$DIMSE1
 70
     0
  9
$DIMSE2
 70
     0
  9
$DIMTAD
 70
     3
  9
$DIMZIN
 70
     8
  9
$DIMBLK
  1

  9
$DIMASO
 70
     1
  9
$DIMSHO
 70
     1
  9
$DIMPOST
  1

  9
$DIMAPOST
  1

  9
$DIMALT
 70
     0
  9
$DIMALTD
 70
     2
  9
$DIMALTF
 40
25.4
  9
$DIMLFAC
 40
1.0
  9
$DIMTOFL
 70
     1
  9
$DIMTVP
 40
0.0
  9
$DIMTIX
 70
     0
  9
$DIMSOXD
 70
     0
  9
$DIMSAH
 70
     1
  9
$DIMBLK1
  1
OPEN
  9
$DIMBLK2
  1
OPEN
  9
$DIMSTYLE
  2
STANDARD
  9
$DIMCLRD
 70
     0
  9
$DIMCLRE
 70
     0
  9
$DIMCLRT
 70
     0
  9
$DIMTFAC
 40
1.0
  9
$DIMGAP
 40
1.0
  9
$DIMJUST
 70
     0
  9
$DIMSD1
 70
     0
  9
$DIMSD2
 70
     0
  9
$DIMTOLJ
 70
     1
  9
$DIMTZIN
 70
     0
  9
$DIMALTZ
 70
     0
  9
$DIMALTTZ
 70
     0
  9
$DIMUPT
 70
     0
  9
$DIMDEC
 70
     4
  9
$DIMTDEC
 70
     4
  9
$DIMALTU
 70
     2
  9
$DIMALTTD
 70
     2
  9
$DIMTXSTY
  7
STANDARD
  9
$DIMAUNIT
 70
     0
  9
$DIMADEC
 70
     0
  9
$DIMALTRND
 40
0.0
  9
$DIMAZIN
 70
     0
  9
$DIMDSEP
 70
    46
  9
$DIMATFIT
 70
     3
  9
$DIMFRAC
 70
     0
  9
$DIMLDRBLK
  1
OPEN
  9
$DIMLUNIT
 70
     2
  9
$DIMLWD
 70
    -2
  9
$DIMLWE
 70
    -2
  9
$DIMTMOVE
 70
     0
  9
$LUNITS
 70
     2
  9
$LUPREC
 70
     4
  9
$SKETCHINC
 40
1.0
  9
$FILLETRAD
 40
0.0
  9
$AUNITS
 70
     0
  9
$AUPREC
 70
     0
  9
$MENU
  1
.
  9
$ELEVATION
 40
0.0
  9
$PELEVATION
 40
0.0
  9
$THICKNESS
 40
0.0
  9
$LIMCHECK
 70
     0
  9
$CHAMFERA
 40
10.0
  9
$CHAMFERB
 40
10.0
  9
$CHAMFERC
 40
20.0
  9
$CHAMFERD
 40
0.0
  9
$SKPOLY
 70
     0
  9
$TDCREATE
 40
2453760.404647894
  9
$TDUCREATE
 40
2453760.029647894
  9
$TDUPDATE
 40
2457192.700226690
  9
$TDUUPDATE
 40
2457192.325226690
  9
$TDINDWG
 40
0.1528908565
  9
$TDUSRTIMER
 40
0.1528908449
  9
$USRTIMER
 70
     1
  9
$ANGBASE
 50
0.0
  9
$ANGDIR
 70
     0
  9
$PDMODE
 70
     0
  9
$PDSIZE
 40
0.0
  9
$PLINEWID
 40
0.0
  9
$SPLFRAME
 70
     0
  9
$SPLINETYPE
 70
     6
  9
$SPLINESEGS
 70
     8
  9
$HANDSEED
  5
2CD6
  9
$SURFTAB1
 70
     6
  9
$SURFTAB2
 70
     6
  9
$SURFTYPE
 70
     6
  9
$SURFU
 70
     6
  9
$SURFV
 70
     6
  9
$UCSBASE
  2

  9
$UCSNAME
  2

  9
$UCSORG
 10
0.0
 20
0.0
 30
0.0
  9
$UCSXDIR
 10
1.0
 20
0.0
 30
0.0
  9
$UCSYDIR
 10
0.0
 20
1.0
 30
0.0
  9
$UCSORTHOREF
  2

  9
$UCSORTHOVIEW
 70
     0
  9
$UCSORGTOP
 10
0.0
 20
0.0
 30
0.0
  9
$UCSORGBOTTOM
 10
0.0
 20
0.0
 30
0.0
  9
$UCSORGLEFT
 10
0.0
 20
0.0
 30
0.0
  9
$UCSORGRIGHT
 10
0.0
 20
0.0
 30
0.0
  9
$UCSORGFRONT
 10
0.0
 20
0.0
 30
0.0
  9
$UCSORGBACK
 10
0.0
 20
0.0
 30
0.0
  9
$PUCSBASE
  2

  9
$PUCSNAME
  2

  9
$PUCSORG
 10
0.0
 20
0.0
 30
0.0
  9
$PUCSXDIR
 10
1.0
 20
0.0
 30
0.0
  9
$PUCSYDIR
 10
0.0
 20
1.0
 30
0.0
  9
$PUCSORTHOREF
  2

  9
$PUCSORTHOVIEW
 70
     0
  9
$PUCSORGTOP
 10
0.0
 20
0.0
 30
0.0
  9
$PUCSORGBOTTOM
 10
0.0
 20
0.0
 30
0.0
  9
$PUCSORGLEFT
 10
0.0
 20
0.0
 30
0.0
  9
$PUCSORGRIGHT
 10
0.0
 20
0.0
 30
0.0
  9
$PUCSORGFRONT
 10
0.0
 20
0.0
 30
0.0
  9
$PUCSORGBACK
 10
0.0
 20
0.0
 30
0.0
  9
$USERI1
 70
     0
  9
$USERI2
 70
     0
  9
$USERI3
 70
     0
  9
$USERI4
 70
     0
  9
$USERI5
 70
     0
  9
$USERR1
 40
0.0
  9
$USERR2
 40
0.0
  9
$USERR3
 40
0.0
  9
$USERR4
 40
0.0
  9
$USERR5
 40
0.0
  9
$WORLDVIEW
 70
     1
  9
$SHADEDGE
 70
     3
  9
$SHADEDIF
 70
    70
  9
$TILEMODE
 70
     1
  9
$MAXACTVP
 70
    48
  9
$PINSBASE
 10
0.0
 20
0.0
 30
0.0
  9
$PLIMCHECK
 70
     0
  9
$PEXTMIN
 10
27.8447512626648
 20
20.24591643810271
 30
0.0
  9
$PEXTMAX
 10
250.6027613639831
 20
182.2132479429244
 30
0.0
  9
$PLIMMIN
 10
-3.757080078125
 20
-3.757083177566528
  9
$PLIMMAX
 10
293.2112426757812
 20
206.2162444591522
  9
$UNITMODE
 70
     0
  9
$VISRETAIN
 70
     1
  9
$PLINEGEN
 70
     0
  9
$PSLTSCALE
 70
     1
  9
$TREEDEPTH
 70
  3020
  9
$CMLSTYLE
  2
STANDARD
  9
$CMLJUST
 70
     0
  9
$CMLSCALE
 40
20.0
  9
$PROXYGRAPHICS
 70
     1
  9
$MEASUREMENT
 70
     0
  9
$CELWEIGHT
370
    -1
  9
$ENDCAPS
280
     0
  9
$JOINSTYLE
280
     0
  9
$LWDISPLAY
290
     0
  9
$INSUNITS
 70
     0
  9
$HYPERLINKBASE
  1

  9
$STYLESHEET
  1

  9
$XEDIT
290
     1
  9
$CEPSNTYPE
380
     0
  9
$PSTYLEMODE
290
     1
  9
$FINGERPRINTGUID
  2
{5E104749-5F84-49E3-8BCB-53C940AFC773}
  9
$VERSIONGUID
  2
{91CDE4FD-89C2-4E55-A3D1-8F65B3DCAAE7}
  9
$EXTNAMES
290
     1
  9
$PSVPSCALE
 40
0.0
  9
$OLESTARTUP
290
     0
  0
ENDSEC
  0
SECTION
  2
CLASSES
  0
CLASS
  1
ACDBDICTIONARYWDFLT
  2
AcDbDictionaryWithDefault
  3
ObjectDBX Classes
 90
        0
280
     0
281
     0
  0
CLASS
  1
ACDBPLACEHOLDER
  2
AcDbPlaceHolder
  3
ObjectDBX Classes
 90
        0
280
     0
281
     0
  0
CLASS
  1
LAYOUT
  2
AcDbLayout
  3
ObjectDBX Classes
 90
        0
280
     0
281
     0
  0
CLASS
  1
DICTIONARYVAR
  2
AcDbDictionaryVar
  3
ObjectDBX Classes
 90
        0
280
     0
281
     0
  0
CLASS
  1
MATERIAL
  2
AcDbMaterial
  3
ObjectDBX Classes
 90
     1153
280
     0
281
     0
  0
CLASS
  1
VISUALSTYLE
  2
AcDbVisualStyle
  3
ObjectDBX Classes
 90
     4095
280
     0
281
     0
  0
CLASS
  1
TABLESTYLE
  2
AcDbTableStyle
  3
ObjectDBX Classes
 90
     4095
280
     0
281
     0
  0
CLASS
  1
SCALE
  2
AcDbScale
  3
ObjectDBX Classes
 90
     1153
280
     0
281
     0
  0
CLASS
  1
MLEADERSTYLE
  2
AcDbMLeaderStyle
  3
ACDB_MLEADERSTYLE_CLASS
 90
     4095
280
     0
281
     0
  0
CLASS
  1
ACDBSECTIONVIEWSTYLE
  2
AcDbSectionViewStyle
  3
ObjectDBX Classes
 90
     1025
280
     0
281
     0
  0
CLASS
  1
ACDBDETAILVIEWSTYLE
  2
AcDbDetailViewStyle
  3
ObjectDBX Classes
 90
     1025
280
     0
281
     0
  0
CLASS
  1
CELLSTYLEMAP
  2
AcDbCellStyleMap
  3
ObjectDBX Classes
 90
     1152
280
     0
281
     0
  0
ENDSEC
  0
SECTION
  2
TABLES
  0
TABLE
  2
VPORT
  5
8
330
0
100
AcDbSymbolTable
 70
     1
  0
VPORT
  5
2C20
330
8
100
AcDbSymbolTableRecord
100
AcDbViewportTableRecord
  2
*ACTIVE
 70
     0
 10
0.0
 20
0.0
 11
1.0
 21
1.0
 12
241.8824008888496
 22
126.5336842077274
 13
0.0
 23
0.0
 14
10.0
 24
10.0
 15
10.0
 25
10.0
 16
0.0
 26
0.0
 36
1.0
 17
0.0
 27
0.0
 37
0.0
 40
235.3123365700347
 41
2.35006605019815
 42
50.0
 43
0.0
 44
0.0
 50
0.0
 51
0.0
 71
     0
 72
   100
 73
     1
 74
     0
 75
     0
 76
     0
 77
     0
 78
     0
281
     0
 65
     1
110
0.0
120
0.0
130
0.0
111
1.0
121
0.0
131
0.0
112
0.0
122
1.0
132
0.0
 79
     0
146
0.0
1001
ACAD_NAV_VCDISPLAY
1070
     3
  0
ENDTAB
  0
TABLE
  2
LTYPE
  5
5
330
0
100
AcDbSymbolTable
 70
     4
  0
LTYPE
  5
12
330
5
100
AcDbSymbolTableRecord
100
AcDbLinetypeTableRecord
  2
BYBLOCK
 70
     0
  3

 72
    65
 73
     0
 40
0.0
  0
LTYPE
  5
13
330
5
100
AcDbSymbolTableRecord
100
AcDbLinetypeTableRecord
  2
BYLAYER
 70
     0
  3

 72
    65
 73
     0
 40
0.0
  0
LTYPE
  5
14
330
5
100
AcDbSymbolTableRecord
100
AcDbLinetypeTableRecord
  2
CONTINUOUS
 70
     0
  3
Solid line
 72
    65
 73
     0
 40
0.0
  0
LTYPE
  5
4B
330
5
100
AcDbSymbolTableRecord
100
AcDbLinetypeTableRecord
  2
DASHED
 70
     0
  3
Dashed __ __ __ __ __ __ __ __ __ __ __ __ __ _
 72
    65
 73
     2
 40
19.04999999999999
 49
12.7
 74
     0
 49
-6.349999999999998
 74
     0
  0
LTYPE
  5
4C
330
5
100
AcDbSymbolTableRecord
100
AcDbLinetypeTableRecord
  2
CENTER
 70
     0
  3
Center ____ _ ____ _ ____ _ ____ _ ____ _ ____
 72
    65
 73
     4
 40
50.8
 49
31.75
 74
     0
 49
-6.349999999999998
 74
     0
 49
6.349999999999998
 74
     0
 49
-6.349999999999998
 74
     0
  0
LTYPE
  5
4D
330
5
100
AcDbSymbolTableRecord
100
AcDbLinetypeTableRecord
  2
PHANTOM
 70
     0
  3
Phantom ______  __  __  ______  __  __  ______
 72
    65
 73
     6
 40
63.5
 49
31.75
 74
     0
 49
-6.349999999999998
 74
     0
 49
6.349999999999998
 74
     0
 49
-6.349999999999998
 74
     0
 49
6.349999999999998
 74
     0
 49
-6.349999999999998
 74
     0
  0
ENDTAB
  0
TABLE
  2
LAYER
  5
2
330
0
100
AcDbSymbolTable
 70
     8
  0
LAYER
  5
E
102
{ACAD_XDICTIONARY
360
2C7A
102
}
330
2
100
AcDbSymbolTableRecord
100
AcDbLayerTableRecord
  2
0
 70
     0
 62
     7
  6
CONTINUOUS
370
    -3
390
2C29
  0
LAYER
  5
4E
102
{ACAD_XDICTIONARY
360
2C7C
102
}
330
2
100
AcDbSymbolTableRecord
100
AcDbLayerTableRecord
  2
4
 70
     0
 62
     1
  6
CENTER
370
    -3
390
2C29
  0
LAYER
  5
4F
102
{ACAD_XDICTIONARY
360
2C7E
102
}
330
2
100
AcDbSymbolTableRecord
100
AcDbLayerTableRecord
  2
5
 70
     0
 62
     6
  6
PHANTOM
370
    -3
390
2C29
  0
LAYER
  5
50
102
{ACAD_XDICTIONARY
360
2C80
102
}
330
2
100
AcDbSymbolTableRecord
100
AcDbLayerTableRecord
  2
1
 70
     0
 62
     7
  6
CONTINUOUS
370
    -3
390
2C29
  0
LAYER
  5
51
102
{ACAD_XDICTIONARY
360
2C82
102
}
330
2
100
AcDbSymbolTableRecord
100
AcDbLayerTableRecord
  2
2
 70
     0
 62
     4
  6
CONTINUOUS
370
    -3
390
2C29
  0
LAYER
  5
52
102
{ACAD_XDICTIONARY
360
2C84
102
}
330
2
100
AcDbSymbolTableRecord
100
AcDbLayerTableRecord
  2
3
 70
     0
 62
     2
  6
DASHED
370
    -3
390
2C29
  0
LAYER
  5
53
102
{ACAD_XDICTIONARY
360
2C86
102
}
330
2
100
AcDbSymbolTableRecord
100
AcDbLayerTableRecord
  2
6
 70
     0
 62
     5
  6
CONTINUOUS
370
    -3
390
2C29
  0
LAYER
  5
54
102
{ACAD_XDICTIONARY
360
2C88
102
}
330
2
100
AcDbSymbolTableRecord
100
AcDbLayerTableRecord
  2
7
 70
     0
 62
     3
  6
CONTINUOUS
370
    -3
390
2C29
  0
ENDTAB
  0
TABLE
  2
STYLE
  5
3
330
0
100
AcDbSymbolTable
 70
     1
  0
STYLE
  5
F
330
3
100
AcDbSymbolTableRecord
100
AcDbTextStyleTableRecord
  2
STANDARD
 70
     0
 40
0.0
 41
1.0
 50
0.0
 71
     0
 42
2.5
  3
simplex.shx
  4

  0
ENDTAB
  0
TABLE
  2
VIEW
  5
6
330
0
100
AcDbSymbolTable
 70
     0
  0
ENDTAB
  0
TABLE
  2
UCS
  5
7
330
0
100
AcDbSymbolTable
 70
     0
  0
ENDTAB
  0
TABLE
  2
APPID
  5
9
330
0
100
AcDbSymbolTable
 70
     5
  0
APPID
  5
10
330
9
100
AcDbSymbolTableRecord
100
AcDbRegAppTableRecord
  2
ACAD
 70
     0
  0
APPID
  5
3E
330
9
100
AcDbSymbolTableRecord
100
AcDbRegAppTableRecord
  2
CONTENTTABDATA
 70
     0
  0
APPID
  5
3F
330
9
100
AcDbSymbolTableRecord
100
AcDbRegAppTableRecord
  2
CONTENTCURRENTTAB
 70
     0
  0
APPID
  5
2C94
330
9
100
AcDbSymbolTableRecord
100
AcDbRegAppTableRecord
  2
ACAD_NAV_VCDISPLAY
 70
     0
  0
APPID
  5
2CCD
330
9
100
AcDbSymbolTableRecord
100
AcDbRegAppTableRecord
  2
ACAD_MLEADERVER
 70
     0
  0
ENDTAB
  0
TABLE
  2
DIMSTYLE
  5
A
330
0
100
AcDbSymbolTable
 70
     1
100
AcDbDimStyleTable
 71
     0
  0
DIMSTYLE
105
1D
330
A
100
AcDbSymbolTableRecord
100
AcDbDimStyleTableRecord
  2
STANDARD
 70
     0
 41
3.0
 42
1.0
 43
10.0
 44
1.0
 73
     0
 74
     0
 77
     3
 78
     8
140
3.2
141
0.0
147
1.0
172
     1
173
     1
340
F
341
2E
343
2E
344
2E
  0
ENDTAB
  0
TABLE
  2
BLOCK_RECORD
  5
1
330
0
100
AcDbSymbolTable
 70
     1
  0
BLOCK_RECORD
  5
18
102
{ACAD_XDICTIONARY
360
2C23
102
}
330
1
100
AcDbSymbolTableRecord
100
AcDbBlockTableRecord
  2
*MODEL_SPACE
340
2C77
  0
BLOCK_RECORD
  5
15
102
{ACAD_XDICTIONARY
360
2C21
102
}
330
1
100
AcDbSymbolTableRecord
100
AcDbBlockTableRecord
  2
*PAPER_SPACE
340
2C78
  0
BLOCK_RECORD
  5
2E
330
1
100
AcDbSymbolTableRecord
100
AcDbBlockTableRecord
  2
_OPEN
340
0
  0
ENDTAB
  0
ENDSEC
  0
SECTION
  2
BLOCKS
  0
BLOCK
  5
19
330
18
100
AcDbEntity
  8
0
100
AcDbBlockBegin
  2
*MODEL_SPACE
 70
     0
 10
0.0
 20
0.0
 30
0.0
  3
*MODEL_SPACE
  1

  0
ENDBLK
  5
1A
330
18
100
AcDbEntity
  8
0
100
AcDbBlockEnd
  0
BLOCK
  5
16
330
15
100
AcDbEntity
 67
     1
  8
0
100
AcDbBlockBegin
  2
*PAPER_SPACE
 70
     0
 10
0.0
 20
0.0
 30
0.0
  3
*PAPER_SPACE
  1

  0
ENDBLK
  5
17
330
15
100
AcDbEntity
 67
     1
  8
0
100
AcDbBlockEnd
  0
BLOCK
  5
2F
330
2E
100
AcDbEntity
  8
0
100
AcDbBlockBegin
  2
_OPEN
 70
     0
 10
0.0
 20
0.0
 30
0.0
  3
_OPEN
  1

  0
LINE
  5
30
330
2E
100
AcDbEntity
  8
0
  6
ByBlock
 62
     0
100
AcDbLine
 10
-1.0
 20
0.1666666666666666
 30
0.0
 11
0.0
 21
0.0
 31
0.0
  0
LINE
  5
31
330
2E
100
AcDbEntity
  8
0
  6
ByBlock
 62
     0
100
AcDbLine
 10
0.0
 20
0.0
 30
0.0
 11
-1.0
 21
-0.1666666666666666
 31
0.0
  0
LINE
  5
32
330
2E
100
AcDbEntity
  8
0
  6
ByBlock
 62
     0
100
AcDbLine
 10
0.0
 20
0.0
 30
0.0
 11
-1.0
 21
0.0
 31
0.0
  0
ENDBLK
  5
33
330
2E
100
AcDbEntity
  8
0
100
AcDbBlockEnd
  0
ENDSEC
  0
SECTION
  2
ENTITIES
  0
TEXT
  5
63
330
18
100
AcDbEntity
  8
4
  6
CENTER
 48
0.25
100
AcDbText
 10
23.97950852663849
 20
10.0
 30
0.0
 40
1.399999999999999
  1
4
100
AcDbText
  0
TEXT
  5
64
330
18
100
AcDbEntity
  8
7
  6
Continuous
 48
0.25
100
AcDbText
 10
9.999997526638502
 20
26.0000007607689
 30
0.0
 40
3.0
  1
CODE No.13341
100
AcDbText
  0
TEXT
  5
65
330
18
100
AcDbEntity
  8
7
  6
Continuous
 48
0.25
100
AcDbText
 10
9.999997526638502
 20
18.00000076076889
 30
0.0
 40
3.0
  1
TYPE No.TEA-1000-U237
100
AcDbText
  0
TEXT
  5
66
330
18
100
AcDbEntity
  8
1
  6
Continuous
 48
0.25
100
AcDbText
 10
9.999997526638502
 20
10.00000076076889
 30
0.0
 40
1.399999999999999
  1
LAYER
100
AcDbText
  0
TEXT
  5
67
330
18
100
AcDbEntity
  8
2
  6
Continuous
 48
0.25
100
AcDbText
 10
19.9795085266385
 20
10.0
 30
0.0
 40
1.399999999999999
  1
2
100
AcDbText
  0
TEXT
  5
68
330
18
100
AcDbEntity
  8
3
  6
DASHED
 48
0.25
100
AcDbText
 10
21.9795085266385
 20
10.0
 30
0.0
 40
1.399999999999999
  1
3
100
AcDbText
  0
TEXT
  5
69
330
18
100
AcDbEntity
  8
1
  6
Continuous
 48
0.25
100
AcDbText
 10
17.9795085266385
 20
10.0
 30
0.0
 40
1.399999999999999
  1
1
100
AcDbText
  0
TEXT
  5
6A
330
18
100
AcDbEntity
  8
5
  6
PHANTOM
 48
0.25
100
AcDbText
 10
25.9795085266385
 20
10.0
 30
0.0
 40
1.399999999999999
  1
5
100
AcDbText
  0
TEXT
  5
6B
330
18
100
AcDbEntity
  8
6
  6
Continuous
 48
0.25
100
AcDbText
 10
27.9795085266385
 20
10.0
 30
0.0
 40
1.399999999999999
  1
6
100
AcDbText
  0
TEXT
  5
6C
330
18
100
AcDbEntity
  8
7
  6
Continuous
 48
0.25
100
AcDbText
 10
29.9795085266385
 20
10.0
 30
0.0
 40
1.399999999999999
  1
7
100
AcDbText
  0
LINE
  5
194C
330
18
100
AcDbEntity
  8
1
  6
Continuous
100
AcDbLine
 10
68.78340839362073
 20
226.2753224268103
 30
0.0
 11
49.28340746742023
 21
226.2753224268103
 31
0.0
  0
LINE
  5
19E8
330
18
100
AcDbEntity
  8
1
  6
Continuous
100
AcDbLine
 10
38.50389242111748
 20
234.4753229221087
 30
0.0
 11
30.06292108879947
 21
234.4753229221087
 31
0.0
  0
ARC
  5
1A06
330
18
100
AcDbEntity
  8
1
  6
Continuous
100
AcDbCircle
 10
34.28340675495848
 20
222.9753222700687
 30
0.0
 40
12.25000058184374
100
AcDbArc
 50
110.1530728205446
 51
159.8469276249826
  0
ARC
  5
1A72
330
18
100
AcDbEntity
  8
1
  6
Continuous
100
AcDbCircle
 10
34.2834067549585
 20
222.9753222700687
 30
0.0
 40
12.2500005818438
100
AcDbArc
 50
200.1530723750165
 51
251.1520543246
  0
ARC
  5
1A73
330
18
100
AcDbEntity
  8
1
  6
Continuous
100
AcDbCircle
 10
28.18340646522405
 20
225.1253223721882
 30
0.0
 40
2.500000118743622
100
AcDbArc
 50
0.0
 51
180.0
  0
ARC
  5
1A74
330
18
100
AcDbEntity
  8
1
  6
Continuous
100
AcDbCircle
 10
28.18340646522405
 20
220.8253221679492
 30
0.0
 40
2.500000118743622
100
AcDbArc
 50
180.0
 51
0.0
  0
LINE
  5
1A86
330
18
100
AcDbEntity
  8
1
  6
Continuous
100
AcDbLine
 10
22.78340607010036
 20
218.7548366933329
 30
0.0
 11
22.7834060701004
 21
227.1958078468047
 31
0.0
  0
LINE
  5
1AFE
330
18
100
AcDbEntity
  8
1
  6
Continuous
100
AcDbLine
 10
25.68340157795097
 20
220.8253221679492
 30
0.0
 11
25.68340157795097
 21
225.1253223721882
 31
0.0
  0
LINE
  5
1C34
330
18
100
AcDbEntity
  8
1
  6
Continuous
100
AcDbLine
 10
30.68340658396767
 20
225.1253223721882
 30
0.0
 11
30.68340658396766
 21
220.8253221679492
 31
0.0
  0
ARC
  5
1F23
330
18
100
AcDbEntity
  8
1
  6
Continuous
100
AcDbCircle
 10
34.28340675495848
 20
222.9753222700687
 30
0.0
 40
12.25000058184379
100
AcDbArc
 50
20.15307379455284
 51
69.84692717945555
  0
LINE
  5
1F36
330
18
100
AcDbEntity
  8
1
  6
Continuous
100
AcDbLine
 10
48.70320940517412
 20
227.7810403176911
 30
0.0
 11
45.74453517265367
 21
227.3002557549066
 31
0.0
  0
LINE
  5
1F37
330
18
100
AcDbEntity
  8
1
  6
Continuous
100
AcDbLine
 10
45.74453517265367
 20
218.6503887852308
 30
0.0
 11
48.70320940517412
 21
218.1696042224464
 31
0.0
  0
ARC
  5
1F3B
330
18
100
AcDbEntity
  8
1
  6
Continuous
100
AcDbCircle
 10
34.2834067549585
 20
222.9753222700687
 30
0.0
 40
12.25000058184376
100
AcDbArc
 50
288.8479456754
 51
339.8469262054462
  0
LINE
  5
2088
330
18
100
AcDbEntity
  8
1
  6
Continuous
100
AcDbLine
 10
45.78340733525158
 20
218.7548364084135
 30
0.0
 11
45.78340733525158
 21
227.1958081317237
 31
0.0
  0
ARC
  5
2191
330
18
100
AcDbEntity
  8
1
  6
Continuous
100
AcDbCircle
 10
48.78340744367152
 20
218.6631306131996
 30
0.0
 40
0.5000000237487239
100
AcDbArc
 50
260.7701137562937
 51
0.0
  0
LINE
  5
2193
330
18
100
AcDbEntity
  8
1
  6
Continuous
100
AcDbLine
 10
49.28340746742023
 20
226.2753224268103
 30
0.0
 11
49.28340746742023
 21
227.287513926938
 31
0.0
  0
ARC
  5
2194
330
18
100
AcDbEntity
  8
1
  6
Continuous
100
AcDbCircle
 10
48.78340744367152
 20
227.2875139269379
 30
0.0
 40
0.500000023748725
100
AcDbArc
 50
0.0000000000227818
 51
99.22988624372813
  0
LINE
  5
2195
330
18
100
AcDbEntity
  8
1
  6
Continuous
100
AcDbLine
 10
49.28340746742023
 20
218.6631306131996
 30
0.0
 11
49.28340746742023
 21
219.7753221180769
 31
0.0
  0
LINE
  5
219A
330
18
100
AcDbEntity
  8
1
  6
Continuous
100
AcDbLine
 10
70.40967072536385
 20
224.7312160784332
 30
0.0
 11
68.78340839362056
 21
226.2753224268103
 31
0.0
  0
LINE
  5
219B
330
18
100
AcDbEntity
  8
1
  6
Continuous
100
AcDbLine
 10
66.89279270209112
 20
219.7753221180769
 30
0.0
 11
70.39309361286649
 21
222.9753222700687
 31
0.0
  0
LINE
  5
219C
330
18
100
AcDbEntity
  8
1
  6
Continuous
100
AcDbLine
 10
66.89279270209107
 20
219.7753221180769
 30
0.0
 11
49.28340746742023
 21
219.7753221180769
 31
0.0
  0
ARC
  5
219F
330
18
100
AcDbEntity
  8
1
  6
Continuous
100
AcDbCircle
 10
69.58340843161848
 20
223.8609915334285
 30
0.0
 40
1.200000056996928
100
AcDbArc
 50
312.4337781267603
 51
46.48441343899956
  0
ARC
  5
2321
330
18
100
AcDbEntity
  8
1
  6
Continuous
100
AcDbCircle
 10
127.0957343117678
 20
140.6496324695395
 30
0.0
 40
12.0000005699697
100
AcDbArc
 50
28.28834045274224
 51
151.7116699077317
  0
ARC
  5
2323
330
18
100
AcDbEntity
  8
1
  6
Continuous
100
AcDbCircle
 10
127.0957343117678
 20
140.6496324695394
 30
0.0
 40
16.00000075995917
100
AcDbArc
 50
21.4999281537027
 51
158.4942575905767
  0
ARC
  5
2329
330
18
100
AcDbEntity
  8
1
  6
Continuous
100
AcDbCircle
 10
137.7586450363488
 20
150.3514724671819
 30
0.0
 40
4.016079573138664
100
AcDbArc
 50
222.2967582776226
 51
269.9751964327187
  0
ARC
  5
232A
330
18
100
AcDbEntity
  8
1
  6
Continuous
100
AcDbCircle
 10
116.4328546133978
 20
150.3513987304641
 30
0.0
 40
4.016007001395743
100
AcDbArc
 50
270.0242812385776
 51
317.7036841103916
  0
CIRCLE
  5
232B
330
18
100
AcDbEntity
  8
1
  6
Continuous
100
AcDbCircle
 10
127.0957343117678
 20
140.6496324695395
 30
0.0
 40
8.600000408478088
  0
LINE
  5
235C
330
18
100
AcDbEntity
  8
1
  6
Continuous
100
AcDbLine
 10
102.0957331243315
 20
136.1182113334135
 30
0.0
 11
102.0957331243315
 21
145.1810536056654
 31
0.0
  0
LINE
  5
235D
330
18
100
AcDbEntity
  8
1
  6
Continuous
100
AcDbLine
 10
111.5108049544251
 20
134.6496321845548
 30
0.0
 11
103.7169625361955
 21
134.6496321845548
 31
0.0
  0
LINE
  5
2366
330
18
100
AcDbEntity
  8
1
  6
Continuous
100
AcDbLine
 10
111.5108049544251
 20
146.6496327545242
 30
0.0
 11
103.7169625361955
 21
146.6496327545242
 31
0.0
  0
ARC
  5
2369
330
18
100
AcDbEntity
  8
1
  6
Continuous
100
AcDbCircle
 10
211.4042077903353
 20
2395.899380612015
 30
0.0
 40
2251.573261809184
100
AcDbArc
 50
267.4561615648249
 51
267.579206784526
  0
LINE
  5
236A
330
18
100
AcDbEntity
  8
1
  6
Continuous
100
AcDbLine
 10
111.5108049544267
 20
146.6496327545242
 30
0.0
 11
111.470895013953
 21
146.5449207076658
 31
0.0
  0
LINE
  5
236B
330
18
100
AcDbEntity
  8
1
  6
Continuous
100
AcDbLine
 10
116.434556547149
 20
146.3354966139605
 30
0.0
 11
116.3017098968285
 21
146.3354966139547
 31
0.0
  0
LINE
  5
2376
330
18
100
AcDbEntity
  8
1
  6
Continuous
100
AcDbLine
 10
150.4745060873401
 20
134.6496321845548
 30
0.0
 11
142.6806636691105
 21
134.6496321845548
 31
0.0
  0
LINE
  5
2377
330
18
100
AcDbEntity
  8
1
  6
Continuous
100
AcDbLine
 10
150.47450608734
 20
146.6496327545242
 30
0.0
 11
142.6806636691105
 21
146.6496327545242
 31
0.0
  0
LINE
  5
2383
330
18
100
AcDbEntity
  8
1
  6
Continuous
100
AcDbLine
 10
134.2457346513746
 20
139.3996324101677
 30
0.0
 11
134.2457346513746
 21
141.8996325289113
 31
0.0
  0
LINE
  5
2384
330
18
100
AcDbEntity
  8
1
  6
Continuous
100
AcDbLine
 10
122.4457340909046
 20
141.8996325289113
 30
0.0
 11
122.4457340909046
 21
139.3996324101677
 31
0.0
  0
LINE
  5
2385
330
18
100
AcDbEntity
  8
1
  6
Continuous
100
AcDbLine
 10
122.4457340909046
 20
139.3996324101677
 30
0.0
 11
134.2457346513746
 21
139.3996324101677
 31
0.0
  0
ARC
  5
238A
330
18
100
AcDbEntity
  8
1
  6
Continuous
100
AcDbCircle
 10
127.0957343117678
 20
140.6496324695395
 30
0.0
 40
4.400000208988881
100
AcDbArc
 50
16.50451552136332
 51
163.4954844786366
  0
LINE
  5
2390
330
18
100
AcDbEntity
  8
1
  6
Continuous
100
AcDbLine
 10
134.2457346513746
 20
141.8996325289113
 30
0.0
 11
122.4457340909046
 21
141.8996325289113
 31
0.0
  0
ARC
  5
2394
330
18
100
AcDbEntity
  8
1
  6
Continuous
100
AcDbCircle
 10
42.19418989426634
 20
2409.579830972595
 30
0.0
 40
2265.266553609238
100
AcDbArc
 50
272.4211651131493
 51
272.543466537497
  0
LINE
  5
2395
330
18
100
AcDbEntity
  8
1
  6
Continuous
100
AcDbLine
 10
137.8897587267071
 20
146.3354966139546
 30
0.0
 11
137.7569064598362
 21
146.3354966139602
 31
0.0
  0
LINE
  5
2396
330
18
100
AcDbEntity
  8
1
  6
Continuous
100
AcDbLine
 10
142.7205736095826
 20
146.5449207076658
 30
0.0
 11
142.6806636691089
 21
146.6496327545242
 31
0.0
  0
LINE
  5
2397
330
18
100
AcDbEntity
  8
1
  6
Continuous
100
AcDbLine
 10
152.0957354992044
 20
136.1182113334135
 30
0.0
 11
152.0957354992044
 21
145.1810536056654
 31
0.0
  0
ARC
  5
239B
330
18
100
AcDbEntity
  8
1
  6
Continuous
100
AcDbCircle
 10
127.0957343117678
 20
140.6496324695395
 30
0.0
 40
10.40000049396825
100
AcDbArc
 50
42.2985533772777
 51
137.7014612383536
  0
LINE
  5
23A3
330
18
100
AcDbEntity
  8
1
  6
Continuous
100
AcDbLine
 10
303.7419448741903
 20
127.1496318283239
 30
0.0
 11
288.1534868656586
 21
127.1496318283238
 31
0.0
  0
LINE
  5
23A4
330
18
100
AcDbEntity
  8
1
  6
Continuous
100
AcDbLine
 10
288.1534868656588
 20
154.149633110755
 30
0.0
 11
303.7419448741905
 21
154.1496331107551
 31
0.0
  0
ARC
  5
23A5
330
18
100
AcDbEntity
  8
2
  6
Continuous
100
AcDbCircle
 10
295.9477158699245
 20
140.6496324695395
 30
0.0
 40
11.00000052247196
100
AcDbArc
 50
65.38002267134189
 51
114.6199773286567
  0
ARC
  5
23A6
330
18
100
AcDbEntity
  8
2
  6
Continuous
100
AcDbCircle
 10
295.9477158699245
 20
140.6496324695395
 30
0.0
 40
11.00000052247196
100
AcDbArc
 50
245.3800226713439
 51
294.6199772137553
  0
LINE
  5
23B7
330
18
100
AcDbEntity
  8
1
  6
Continuous
100
AcDbLine
 10
298.074126187498
 20
130.649631994565
 30
0.0
 11
300.5302917582755
 21
130.649631994565
 31
0.0
  0
ARC
  5
23B8
330
18
100
AcDbEntity
  8
1
  6
Continuous
100
AcDbCircle
 10
295.9477158699245
 20
140.6496324695395
 30
0.0
 40
8.900000422727336
100
AcDbArc
 50
180.0
 51
341.6629252192184
  0
ARC
  5
23B9
330
18
100
AcDbEntity
  8
1
  6
Continuous
100
AcDbCircle
 10
295.9477158699245
 20
140.6496324695395
 30
0.0
 40
9.900000470224767
100
AcDbArc
 50
180.0
 51
343.5709217632715
  0
ARC
  5
23BA
330
18
100
AcDbEntity
  8
1
  6
Continuous
100
AcDbCircle
 10
295.9477158699245
 20
140.6496324695394
 30
0.0
 40
9.600058833698003
100
AcDbArc
 50
343.0422366999954
 51
106.9577633000052
  0
ARC
  5
23BB
330
18
100
AcDbEntity
  8
1
  6
Continuous
100
AcDbCircle
 10
295.9477158699245
 20
140.6496324695394
 30
0.0
 40
7.500000356230887
100
AcDbArc
 50
338.0786599384558
 51
111.921340061545
  0
ARC
  5
23BC
330
18
100
AcDbEntity
  8
1
  6
Continuous
100
AcDbCircle
 10
295.9477158699245
 20
140.6496324695395
 30
0.0
 40
9.900000470224773
100
AcDbArc
 50
343.5709217632711
 51
106.4290782367292
  0
CIRCLE
  5
23BD
330
18
100
AcDbEntity
  8
1
  6
Continuous
100
AcDbCircle
 10
295.9477158699245
 20
140.6496324695394
 30
0.0
 40
16.00000075995917
  0
ARC
  5
23BE
330
18
100
AcDbEntity
  8
1
  6
Continuous
100
AcDbCircle
 10
295.9477158699245
 20
140.6496324695395
 30
0.0
 40
7.400000351481138
100
AcDbArc
 50
337.7667282017001
 51
112.2332717983002
  0
LINE
  5
23BF
330
18
100
AcDbEntity
  8
1
  6
Continuous
100
AcDbLine
 10
280.3592578613924
 20
140.6496324695392
 30
0.0
 11
288.1534868656588
 21
154.149633110755
 31
0.0
  0
LINE
  5
23C2
330
18
100
AcDbEntity
  8
1
  6
Continuous
100
AcDbLine
 10
293.1477157369317
 20
150.145421460755
 30
0.0
 11
293.1477157369317
 21
146.7914972990065
 31
0.0
  0
ARC
  5
23C3
330
18
100
AcDbEntity
  8
1
  6
Continuous
100
AcDbCircle
 10
295.9477158699245
 20
140.6496324695395
 30
0.0
 40
8.89999957479446
100
AcDbArc
 50
108.3370756853961
 51
180.0
  0
ARC
  5
23C4
330
18
100
AcDbEntity
  8
1
  6
Continuous
100
AcDbCircle
 10
295.9477158699245
 20
140.6496324695395
 30
0.0
 40
9.900000470224759
100
AcDbArc
 50
106.4290782367292
 51
180.0
  0
ARC
  5
23C5
330
18
100
AcDbEntity
  8
1
  6
Continuous
100
AcDbCircle
 10
295.9477158699245
 20
140.6496324695395
 30
0.0
 40
11.00000052247191
100
AcDbArc
 50
114.6199772712055
 51
155.3800227287939
  0
LINE
  5
23C6
330
18
100
AcDbEntity
  8
1
  6
Continuous
100
AcDbLine
 10
214.0702201386976
 20
127.1496318283239
 30
0.0
 11
214.0702201386976
 21
154.149633110755
 31
0.0
  0
LINE
  5
23C7
330
18
100
AcDbEntity
  8
1
  6
Continuous
100
AcDbLine
 10
210.0702199487078
 20
127.1496318283239
 30
0.0
 11
210.0702199487078
 21
154.1496331107551
 31
0.0
  0
LINE
  5
23C9
330
18
100
AcDbEntity
  8
1
  6
Continuous
100
AcDbLine
 10
231.7202205955578
 20
146.7871327610551
 30
0.0
 11
231.2202205718091
 21
147.3996327901473
 31
0.0
  0
LINE
  5
23CA
330
18
100
AcDbEntity
  8
1
  6
Continuous
100
AcDbLine
 10
231.2202205718091
 20
133.8996321489317
 30
0.0
 11
231.2202205718091
 21
147.3996327901473
 31
0.0
  0
LINE
  5
23D1
330
18
100
AcDbEntity
  8
1
  6
Continuous
100
AcDbLine
 10
226.0702215565999
 20
149.0977086866096
 30
0.0
 11
226.0702215565999
 21
131.7496328947451
 31
0.0
  0
LINE
  5
23D2
330
18
100
AcDbEntity
  8
1
  6
Continuous
100
AcDbLine
 10
225.0702206611696
 20
130.7496319993147
 30
0.0
 11
225.0702206611696
 21
150.1454214607551
 31
0.0
  0
LINE
  5
23D6
330
18
100
AcDbEntity
  8
1
  6
Continuous
100
AcDbLine
 10
235.2202207617989
 20
135.8648418863651
 30
0.0
 11
231.7202205955578
 21
135.8648418863651
 31
0.0
  0
LINE
  5
23D7
330
18
100
AcDbEntity
  8
1
  6
Continuous
100
AcDbLine
 10
235.7202207855476
 20
140.6496324338252
 30
0.0
 11
231.7202205955578
 21
140.6496327195395
 31
0.0
  0
LINE
  5
2404
330
18
100
AcDbEntity
  8
1
  6
Continuous
100
AcDbLine
 10
231.7202205955578
 20
134.5121321780238
 30
0.0
 11
231.7202205955578
 21
146.7871327610551
 31
0.0
  0
LINE
  5
2407
330
18
100
AcDbEntity
  8
1
  6
Continuous
100
AcDbLine
 10
221.0702204711798
 20
138.4747760491462
 30
0.0
 11
221.0702204711794
 21
130.6496319853749
 31
0.0
  0
LINE
  5
240B
330
18
100
AcDbEntity
  8
1
  6
Continuous
100
AcDbLine
 10
214.0702201386976
 20
136.0670566054543
 30
0.0
 11
221.0702204711797
 21
136.0670565811886
 31
0.0
  0
LINE
  5
240C
330
18
100
AcDbEntity
  8
1
  6
Continuous
100
AcDbLine
 10
214.0702201386976
 20
130.6496319761849
 30
0.0
 11
221.0702204711797
 21
130.6496319853749
 31
0.0
  0
LINE
  5
240D
330
18
100
AcDbEntity
  8
1
  6
Continuous
100
AcDbLine
 10
220.8945565136766
 20
130.2996299167178
 30
0.0
 11
218.9702199899653
 21
130.2996318825741
 31
0.0
  0
LINE
  5
240E
330
18
100
AcDbEntity
  8
1
  6
Continuous
100
AcDbLine
 10
219.9702224494857
 20
130.0496318706991
 30
0.0
 11
217.9702175304449
 21
130.0496318706991
 31
0.0
  0
LINE
  5
2410
330
18
100
AcDbEntity
  8
1
  6
Continuous
100
AcDbLine
 10
214.0702201386976
 20
127.1496318283239
 30
0.0
 11
210.0702199487078
 21
127.1496318283239
 31
0.0
  0
LINE
  5
2412
330
18
100
AcDbEntity
  8
1
  6
Continuous
100
AcDbLine
 10
208.8702198917109
 20
130.6496319761849
 30
0.0
 11
210.0702199487078
 21
130.6496319761849
 31
0.0
  0
LINE
  5
2413
330
18
100
AcDbEntity
  8
1
  6
Continuous
100
AcDbLine
 10
216.8438096723917
 20
130.6496319945652
 30
0.0
 11
217.0458834837206
 21
130.2996298864645
 31
0.0
  0
LINE
  5
2414
330
18
100
AcDbEntity
  8
1
  6
Continuous
100
AcDbLine
 10
217.0458834662541
 20
130.2996299167175
 30
0.0
 11
218.9702199899653
 21
130.2996318825741
 31
0.0
  0
LINE
  5
2418
330
18
100
AcDbEntity
  8
1
  6
Continuous
100
AcDbLine
 10
208.8702198917109
 20
136.0670566054543
 30
0.0
 11
210.0702199487078
 21
136.0670566054543
 31
0.0
  0
LINE
  5
241B
330
18
100
AcDbEntity
  8
1
  6
Continuous
100
AcDbLine
 10
225.0702206611683
 20
130.7496319993135
 30
0.0
 11
226.0702215565999
 21
131.7496328947451
 31
0.0
  0
LINE
  5
241C
330
18
100
AcDbEntity
  8
1
  6
Continuous
100
AcDbLine
 10
222.1700330679396
 20
130.7496319993147
 30
0.0
 11
225.0702206611696
 21
130.7496319993147
 31
0.0
  0
LINE
  5
241E
330
18
100
AcDbEntity
  8
1
  6
Continuous
100
AcDbLine
 10
220.8945565311434
 20
130.2996299469709
 30
0.0
 11
221.2731590195148
 21
130.9553886927022
 31
0.0
  0
LINE
  5
2420
330
18
100
AcDbEntity
  8
1
  6
Continuous
100
AcDbLine
 10
231.2202205718091
 20
133.8996321489317
 30
0.0
 11
231.7203205955579
 21
134.5122546780239
 31
0.0
  0
LINE
  5
2421
330
18
100
AcDbEntity
  8
1
  6
Continuous
100
AcDbLine
 10
230.5202205385609
 20
133.8996321489317
 30
0.0
 11
231.2202205718091
 21
133.8996321489317
 31
0.0
  0
LINE
  5
2427
330
18
100
AcDbEntity
  8
1
  6
Continuous
100
AcDbLine
 10
230.2202205243367
 20
135.7086456499096
 30
0.0
 11
230.070220517187
 21
135.7086456499096
 31
0.0
  0
LINE
  5
2428
330
18
100
AcDbEntity
  8
1
  6
Continuous
100
AcDbLine
 10
230.2202205243371
 20
135.063768432537
 30
0.0
 11
230.070220517187
 21
135.063768432537
 31
0.0
  0
LINE
  5
2429
330
18
100
AcDbEntity
  8
1
  6
Continuous
100
AcDbLine
 10
230.070220517187
 20
134.1996322586999
 30
0.0
 11
230.0702205171869
 21
139.9550397258804
 31
0.0
  0
LINE
  5
242A
330
18
100
AcDbEntity
  8
1
  6
Continuous
100
AcDbLine
 10
230.2202205243371
 20
134.5886148673459
 30
0.0
 11
230.070220517187
 21
134.5886148673459
 31
0.0
  0
LINE
  5
242C
330
18
100
AcDbEntity
  8
1
  6
Continuous
100
AcDbLine
 10
230.2202205243369
 20
134.2976222549742
 30
0.0
 11
230.070220517187
 21
134.2976222549742
 31
0.0
  0
LINE
  5
242E
330
18
100
AcDbEntity
  8
1
  6
Continuous
100
AcDbLine
 10
230.2202205243369
 20
134.1996322586999
 30
0.0
 11
230.070220517187
 21
134.1996322586999
 31
0.0
  0
ARC
  5
2430
330
18
100
AcDbEntity
  8
1
  6
Continuous
100
AcDbCircle
 10
230.5202205385609
 20
134.1996321631809
 30
0.0
 40
0.3000000142492439
100
AcDbArc
 50
180.0
 51
269.9999999999967
  0
LINE
  5
2431
330
18
100
AcDbEntity
  8
1
  6
Continuous
100
AcDbLine
 10
214.0702201386976
 20
145.2322083621016
 30
0.0
 11
221.0702204711798
 21
145.2322083721288
 31
0.0
  0
ARC
  5
2432
330
18
100
AcDbEntity
  8
1
  6
Continuous
100
AcDbCircle
 10
219.4702203951838
 20
140.6496324695395
 30
0.0
 40
2.700000128243109
100
AcDbArc
 50
270.0
 51
90.0
  0
ARC
  5
2434
330
18
100
AcDbEntity
  8
1
  6
Continuous
100
AcDbCircle
 10
218.6702203571859
 20
140.6496324695395
 30
0.0
 40
2.700000128243122
100
AcDbArc
 50
90.0
 51
270.0
  0
LINE
  5
2435
330
18
100
AcDbEntity
  8
1
  6
Continuous
100
AcDbLine
 10
214.0702201386976
 20
140.6496324695394
 30
0.0
 11
210.0702199487078
 21
140.6496324695394
 31
0.0
  0
LINE
  5
2436
330
18
100
AcDbEntity
  8
1
  6
Continuous
100
AcDbLine
 10
219.4702203951838
 20
137.9496323412964
 30
0.0
 11
218.6702203571859
 21
137.9496323412964
 31
0.0
  0
LINE
  5
2438
330
18
100
AcDbEntity
  8
1
  6
Continuous
100
AcDbLine
 10
208.8702198917109
 20
145.2322083621016
 30
0.0
 11
210.0702199487078
 21
145.2322083621016
 31
0.0
  0
LINE
  5
243A
330
18
100
AcDbEntity
  8
1
  6
Continuous
100
AcDbLine
 10
218.6702203571859
 20
143.3496325977826
 30
0.0
 11
219.4702203951838
 21
143.3496325977826
 31
0.0
  0
LINE
  5
243D
330
18
100
AcDbEntity
  8
1
  6
Continuous
100
AcDbLine
 10
230.070220517187
 20
140.6496324695395
 30
0.0
 11
230.070220517187
 21
141.769663252103
 31
0.0
  0
LINE
  5
2440
330
18
100
AcDbEntity
  8
1
  6
Continuous
100
AcDbLine
 10
226.0702210901367
 20
138.0299949656274
 30
0.0
 11
229.7702212658773
 21
137.6663455498056
 31
0.0
  0
LINE
  5
2441
330
18
100
AcDbEntity
  8
1
  6
Continuous
100
AcDbLine
 10
229.7702212658773
 20
136.6996322819245
 30
0.0
 11
226.0702210901366
 21
136.4496322700502
 31
0.0
  0
LINE
  5
2446
330
18
100
AcDbEntity
  8
1
  6
Continuous
100
AcDbLine
 10
230.2202205243629
 20
134.1996321631809
 30
0.0
 11
230.2202205243629
 21
147.0996327758981
 31
0.0
  0
LINE
  5
2447
330
18
100
AcDbEntity
  8
1
  6
Continuous
100
AcDbLine
 10
230.2202205243373
 20
140.6496324695395
 30
0.0
 11
230.070220517187
 21
140.6496324695395
 31
0.0
  0
LINE
  5
2448
330
18
100
AcDbEntity
  8
1
  6
Continuous
100
AcDbLine
 10
230.2202205243373
 20
139.5296016869759
 30
0.0
 11
230.070220517187
 21
139.5296016869759
 31
0.0
  0
LINE
  5
244A
330
18
100
AcDbEntity
  8
1
  6
Continuous
100
AcDbLine
 10
230.2202205243117
 20
139.9550397258804
 30
0.0
 11
230.0702205171869
 21
139.9550397258804
 31
0.0
  0
LINE
  5
244B
330
18
100
AcDbEntity
  8
1
  6
Continuous
100
AcDbLine
 10
230.2202205243369
 20
138.4436024729777
 30
0.0
 11
230.070220517187
 21
138.4436024729777
 31
0.0
  0
LINE
  5
244D
330
18
100
AcDbEntity
  8
1
  6
Continuous
100
AcDbLine
 10
230.2202205243367
 20
136.503652251536
 30
0.0
 11
230.070220517187
 21
136.503652251536
 31
0.0
  0
LINE
  5
244F
330
18
100
AcDbEntity
  8
1
  6
Continuous
100
AcDbLine
 10
230.2202205243369
 20
137.4246323641198
 30
0.0
 11
230.070220517187
 21
137.4246323641198
 31
0.0
  0
LINE
  5
2451
330
18
100
AcDbEntity
  8
1
  6
Continuous
100
AcDbLine
 10
229.7702212658773
 20
137.8996323389215
 30
0.0
 11
230.070220517187
 21
137.8996323389215
 31
0.0
  0
LINE
  5
2453
330
18
100
AcDbEntity
  8
1
  6
Continuous
100
AcDbLine
 10
226.0702210901367
 20
144.8496326690288
 30
0.0
 11
229.7702212658773
 21
144.5996326571544
 31
0.0
  0
LINE
  5
2454
330
18
100
AcDbEntity
  8
1
  6
Continuous
100
AcDbLine
 10
229.7702212658773
 20
143.6329193892732
 30
0.0
 11
226.0702210901366
 21
143.2692699734522
 31
0.0
  0
LINE
  5
2455
330
18
100
AcDbEntity
  8
1
  6
Continuous
100
AcDbLine
 10
221.0702204711798
 20
150.649632944514
 30
0.0
 11
221.0702204711798
 21
142.8244888899327
 31
0.0
  0
LINE
  5
245D
330
18
100
AcDbEntity
  8
1
  6
Continuous
100
AcDbLine
 10
230.2202205243365
 20
141.7696632521031
 30
0.0
 11
230.070220517187
 21
141.7696632521031
 31
0.0
  0
LINE
  5
245E
330
18
100
AcDbEntity
  8
1
  6
Continuous
100
AcDbLine
 10
230.2202205243117
 20
142.0177131078227
 30
0.0
 11
230.070220517187
 21
142.0177131078227
 31
0.0
  0
LINE
  5
245F
330
18
100
AcDbEntity
  8
1
  6
Continuous
100
AcDbLine
 10
230.070220517187
 20
147.099632680379
 30
0.0
 11
230.070220517187
 21
142.0177131078222
 31
0.0
  0
LINE
  5
2460
330
18
100
AcDbEntity
  8
1
  6
Continuous
100
AcDbLine
 10
230.2202205243365
 20
142.8556624661013
 30
0.0
 11
230.070220517187
 21
142.8556624661013
 31
0.0
  0
LINE
  5
2462
330
18
100
AcDbEntity
  8
1
  6
Continuous
100
AcDbLine
 10
230.2202205243372
 20
143.8746325749592
 30
0.0
 11
230.070220517187
 21
143.8746325749592
 31
0.0
  0
LINE
  5
2463
330
18
100
AcDbEntity
  8
1
  6
Continuous
100
AcDbLine
 10
230.2202205243372
 20
144.795612687543
 30
0.0
 11
230.070220517187
 21
144.795612687543
 31
0.0
  0
LINE
  5
2465
330
18
100
AcDbEntity
  8
1
  6
Continuous
100
AcDbLine
 10
230.2202205243372
 20
145.5906192891694
 30
0.0
 11
230.070220517187
 21
145.5906192891694
 31
0.0
  0
LINE
  5
2467
330
18
100
AcDbEntity
  8
1
  6
Continuous
100
AcDbLine
 10
230.2202205243372
 20
146.2354965065418
 30
0.0
 11
230.070220517187
 21
146.2354965065418
 31
0.0
  0
LINE
  5
2469
330
18
100
AcDbEntity
  8
1
  6
Continuous
100
AcDbLine
 10
230.2202205243367
 20
146.710650071733
 30
0.0
 11
230.070220517187
 21
146.710650071733
 31
0.0
  0
LINE
  5
246B
330
18
100
AcDbEntity
  8
1
  6
Continuous
100
AcDbLine
 10
230.070220517187
 20
143.3996326001575
 30
0.0
 11
229.7702212658773
 21
143.3996326001575
 31
0.0
  0
LINE
  5
246C
330
18
100
AcDbEntity
  8
1
  6
Continuous
100
AcDbLine
 10
230.2202205243367
 20
147.0016426841048
 30
0.0
 11
230.070220517187
 21
147.0016426841048
 31
0.0
  0
LINE
  5
246E
330
18
100
AcDbEntity
  8
1
  6
Continuous
100
AcDbLine
 10
229.7702212658773
 20
144.5996326571544
 30
0.0
 11
229.7702212658773
 21
136.6996322819245
 31
0.0
  0
LINE
  5
246F
330
18
100
AcDbEntity
  8
1
  6
Continuous
100
AcDbLine
 10
235.7202207855475
 20
144.9336406526779
 30
0.0
 11
235.7202207855476
 21
136.3648419101139
 31
0.0
  0
ARC
  5
2470
330
18
100
AcDbEntity
  8
1
  6
Continuous
100
AcDbCircle
 10
235.2202207617989
 20
136.3648419101139
 30
0.0
 40
0.5000000237487168
100
AcDbArc
 50
269.9999999999967
 51
0.0
  0
LINE
  5
247F
330
18
100
AcDbEntity
  8
1
  6
Continuous
100
AcDbLine
 10
288.1534868656586
 20
127.1496318283238
 30
0.0
 11
280.3592578613924
 21
140.6496324695392
 31
0.0
  0
ARC
  5
2480
330
18
100
AcDbEntity
  8
2
  6
Continuous
100
AcDbCircle
 10
295.9477158699245
 20
140.6496324695395
 30
0.0
 40
11.00000052247196
100
AcDbArc
 50
155.3800227287936
 51
204.6199773286569
  0
LINE
  5
2481
330
18
100
AcDbEntity
  8
1
  6
Continuous
100
AcDbLine
 10
290.4227156075011
 20
140.6496324695395
 30
0.0
 11
293.185215738713
 21
135.8648418863652
 31
0.0
  0
LINE
  5
2486
330
18
100
AcDbEntity
  8
1
  6
Continuous
100
AcDbLine
 10
285.94771539495
 20
145.2322083721289
 30
0.0
 11
285.94771539495
 21
136.067056556923
 31
0.0
  0
LINE
  5
2487
330
18
100
AcDbEntity
  8
1
  6
Continuous
100
AcDbLine
 10
270.9477146824879
 20
136.1182113334135
 30
0.0
 11
270.9477146824879
 21
145.1810536056654
 31
0.0
  0
ARC
  5
2488
330
18
100
AcDbEntity
  8
1
  6
Continuous
100
AcDbCircle
 10
295.9477158699247
 20
140.6496324695395
 30
0.0
 40
16.70000079320754
100
AcDbArc
 50
158.9439268188518
 51
201.0560731811481
  0
ARC
  5
248C
330
18
100
AcDbEntity
  8
1
  6
Continuous
100
AcDbCircle
 10
295.9477158699245
 20
140.6496324695394
 30
0.0
 40
11.00000052247195
100
AcDbArc
 50
204.6199772137545
 51
245.3800227862446
  0
LINE
  5
248D
330
18
100
AcDbEntity
  8
1
  6
Continuous
100
AcDbLine
 10
291.3651399773623
 20
130.6496319853749
 30
0.0
 11
293.8213055522443
 21
130.6496319947498
 31
0.0
  0
LINE
  5
248E
330
18
100
AcDbEntity
  8
1
  6
Continuous
100
AcDbLine
 10
298.1225722903177
 20
130.6496319945649
 30
0.0
 11
298.1225722903177
 21
130.9914748366817
 31
0.0
  0
LINE
  5
248F
330
18
100
AcDbEntity
  8
1
  6
Continuous
100
AcDbLine
 10
293.7728594495315
 20
130.6496319945649
 30
0.0
 11
293.7728594495315
 21
130.9914748366817
 31
0.0
  0
LINE
  5
2492
330
18
100
AcDbEntity
  8
1
  6
Continuous
100
AcDbLine
 10
294.9477158224277
 20
130.049631870699
 30
0.0
 11
296.9477159174214
 21
130.049631870699
 31
0.0
  0
LINE
  5
2493
330
18
100
AcDbEntity
  8
1
  6
Continuous
100
AcDbLine
 10
294.0233782112255
 20
130.299631882574
 30
0.0
 11
295.9477165844692
 21
130.2996299167177
 31
0.0
  0
LINE
  5
2494
330
18
100
AcDbEntity
  8
1
  6
Continuous
100
AcDbLine
 10
295.9477165844693
 20
130.2996299167175
 30
0.0
 11
297.8720535286236
 21
130.299631882574
 31
0.0
  0
LINE
  5
2495
330
18
100
AcDbEntity
  8
1
  6
Continuous
100
AcDbLine
 10
293.7728594495315
 20
130.7335431060774
 30
0.0
 11
294.0233782112255
 21
130.299631882574
 31
0.0
  0
LINE
  5
2496
330
18
100
AcDbEntity
  8
1
  6
Continuous
100
AcDbLine
 10
297.8720535286236
 20
130.299631882574
 30
0.0
 11
298.1225722903177
 21
130.7335431060775
 31
0.0
  0
LINE
  5
249B
330
18
100
AcDbEntity
  8
1
  6
Continuous
100
AcDbLine
 10
293.1852157387128
 20
135.8648418863651
 30
0.0
 11
298.7102160011369
 21
135.8648418863651
 31
0.0
  0
ARC
  5
24A0
330
18
100
AcDbEntity
  8
1
  6
Continuous
100
AcDbCircle
 10
294.8977158200522
 20
136.1648419006143
 30
0.0
 40
0.3000000142492345
100
AcDbArc
 50
269.9999999999934
 51
0.0
  0
LINE
  5
24A3
330
18
100
AcDbEntity
  8
1
  6
Continuous
100
AcDbLine
 10
272.5689440943523
 20
146.6496327545242
 30
0.0
 11
280.3627865125818
 21
146.6496327545242
 31
0.0
  0
ARC
  5
24A6
330
18
100
AcDbEntity
  8
2
  6
Continuous
100
AcDbCircle
 10
295.9477158699227
 20
140.6496324695397
 30
0.0
 40
10.18800048390212
100
AcDbArc
 50
102.3259189464167
 51
167.6740810535732
  0
LINE
  5
24A8
330
18
100
AcDbEntity
  8
1
  6
Continuous
100
AcDbLine
 10
293.1852157387124
 20
145.4344230527141
 30
0.0
 11
290.4227156075005
 21
140.6496324695398
 31
0.0
  0
LINE
  5
24AA
330
18
100
AcDbEntity
  8
1
  6
Continuous
100
AcDbLine
 10
295.1977158343014
 20
145.1344230384646
 30
0.0
 11
295.1977158343014
 21
141.6496325170369
 31
0.0
  0
LINE
  5
24AB
330
18
100
AcDbEntity
  8
1
  6
Continuous
100
AcDbLine
 10
296.4477158936733
 20
141.4496325075374
 30
0.0
 11
296.4477158936733
 21
142.5996325621595
 31
0.0
  0
LINE
  5
24AC
330
18
100
AcDbEntity
  8
1
  6
Continuous
100
AcDbLine
 10
295.4477158461758
 20
142.5996325621595
 30
0.0
 11
295.4477158461758
 21
141.4496325075374
 31
0.0
  0
LINE
  5
24B1
330
18
100
AcDbEntity
  8
1
  6
Continuous
100
AcDbLine
 10
285.94771539495
 20
138.4747760491462
 30
0.0
 11
286.2895582370668
 21
138.4747760491462
 31
0.0
  0
LINE
  5
24B4
330
18
100
AcDbEntity
  8
1
  6
Continuous
100
AcDbLine
 10
295.1977158343014
 20
139.649632422042
 30
0.0
 11
295.1977158343014
 21
136.1648419006143
 31
0.0
  0
LINE
  5
24B6
330
18
100
AcDbEntity
  8
1
  6
Continuous
100
AcDbLine
 10
298.1977159767938
 20
140.8496324790836
 30
0.0
 11
298.1977159767938
 21
140.4496324600294
 31
0.0
  0
LINE
  5
24B7
330
18
100
AcDbEntity
  8
1
  6
Continuous
100
AcDbLine
 10
297.897715962589
 20
140.1496324457907
 30
0.0
 11
296.7477159079225
 21
140.1496324457907
 31
0.0
  0
LINE
  5
24B9
330
18
100
AcDbEntity
  8
1
  6
Continuous
100
AcDbLine
 10
293.9977157773045
 20
141.1496324932882
 30
0.0
 11
295.1477158319266
 21
141.1496324932882
 31
0.0
  0
LINE
  5
24BA
330
18
100
AcDbEntity
  8
1
  6
Continuous
100
AcDbLine
 10
295.1477158319266
 20
140.1496324457907
 30
0.0
 11
293.9977157772754
 21
140.1496324457907
 31
0.0
  0
LINE
  5
24BF
330
18
100
AcDbEntity
  8
1
  6
Continuous
100
AcDbLine
 10
293.6977157630553
 20
140.44963246004
 30
0.0
 11
293.6977157630553
 21
140.8496324790781
 31
0.0
  0
LINE
  5
24C0
330
18
100
AcDbEntity
  8
1
  6
Continuous
100
AcDbLine
 10
296.7477159079225
 20
141.1496324932882
 30
0.0
 11
297.8977159625551
 21
141.1496324932882
 31
0.0
  0
LINE
  5
24C2
330
18
100
AcDbEntity
  8
1
  6
Continuous
100
AcDbLine
 10
295.4477158461758
 20
139.8496324315415
 30
0.0
 11
295.4477158461758
 21
138.6996323769194
 31
0.0
  0
LINE
  5
24C3
330
18
100
AcDbEntity
  8
1
  6
Continuous
100
AcDbLine
 10
295.747715860425
 20
138.3996323626702
 30
0.0
 11
296.147715879424
 21
138.3996323626702
 31
0.0
  0
LINE
  5
24C4
330
18
100
AcDbEntity
  8
1
  6
Continuous
100
AcDbLine
 10
296.4477158936733
 20
138.6996323769194
 30
0.0
 11
296.4477158936733
 21
139.8496324315415
 31
0.0
  0
ARC
  5
24C9
330
18
100
AcDbEntity
  8
1
  6
Continuous
100
AcDbCircle
 10
295.9477158699245
 20
140.6496324695395
 30
0.0
 40
4.000000189989809
100
AcDbArc
 50
104.1337367207031
 51
255.8662632792952
  0
ARC
  5
24CB
330
18
100
AcDbEntity
  8
1
  6
Continuous
100
AcDbCircle
 10
294.8977158200522
 20
136.4798001405691
 30
0.0
 40
0.3000000142492335
100
AcDbArc
 50
3.698327095690813
 51
75.86626327932204
  0
ARC
  5
24CE
330
18
100
AcDbEntity
  8
1
  6
Continuous
100
AcDbCircle
 10
297.8977159625446
 20
140.44963246004
 30
0.0
 40
0.3000000142492365
100
AcDbArc
 50
270.0000000084972
 51
359.9999999979872
  0
ARC
  5
24D1
330
18
100
AcDbEntity
  8
1
  6
Continuous
100
AcDbCircle
 10
293.9977157773045
 20
140.849632479039
 30
0.0
 40
0.3000000142492365
100
AcDbArc
 50
90.0
 51
179.9999999925229
  0
ARC
  5
24D2
330
18
100
AcDbEntity
  8
1
  6
Continuous
100
AcDbCircle
 10
297.8977159625446
 20
140.849632479039
 30
0.0
 40
0.300000014249234
100
AcDbArc
 50
0.0000000085249043
 51
89.99999999797747
  0
ARC
  5
24D3
330
18
100
AcDbEntity
  8
1
  6
Continuous
100
AcDbCircle
 10
293.9977157773045
 20
140.44963246004
 30
0.0
 40
0.3000000142492376
100
AcDbArc
 50
180.0000000000004
 51
269.9999999944437
  0
ARC
  5
24D6
330
18
100
AcDbEntity
  8
1
  6
Continuous
100
AcDbCircle
 10
294.6977158105527
 20
141.6496325170369
 30
0.0
 40
0.5000000237487257
100
AcDbArc
 50
269.9999999240265
 51
0.0
  0
ARC
  5
24D7
330
18
100
AcDbEntity
  8
1
  6
Continuous
100
AcDbCircle
 10
294.6977158105527
 20
139.649632422042
 30
0.0
 40
0.5000000237487252
100
AcDbArc
 50
0.0
 51
90.0
  0
ARC
  5
24D8
330
18
100
AcDbEntity
  8
1
  6
Continuous
100
AcDbCircle
 10
295.1477158319266
 20
139.8496324315415
 30
0.0
 40
0.3000000142492361
100
AcDbArc
 50
0.0
 51
90.0
  0
ARC
  5
24D9
330
18
100
AcDbEntity
  8
1
  6
Continuous
100
AcDbCircle
 10
295.747715860425
 20
138.6996323769194
 30
0.0
 40
0.3000000142492394
100
AcDbArc
 50
180.0
 51
270.0
  0
ARC
  5
24DA
330
18
100
AcDbEntity
  8
1
  6
Continuous
100
AcDbCircle
 10
296.147715879424
 20
138.6996323769194
 30
0.0
 40
0.3000000142492363
100
AcDbArc
 50
270.0
 51
359.9999999999996
  0
ARC
  5
24DB
330
18
100
AcDbEntity
  8
1
  6
Continuous
100
AcDbCircle
 10
296.7477159079225
 20
139.8496324315415
 30
0.0
 40
0.3000000142492361
100
AcDbArc
 50
90.0
 51
180.0
  0
ARC
  5
24DC
330
18
100
AcDbEntity
  8
1
  6
Continuous
100
AcDbCircle
 10
296.7477159079225
 20
141.4496325075374
 30
0.0
 40
0.3000000142492361
100
AcDbArc
 50
180.0
 51
270.0
  0
ARC
  5
24DD
330
18
100
AcDbEntity
  8
1
  6
Continuous
100
AcDbCircle
 10
295.1477158319266
 20
141.4496325075374
 30
0.0
 40
0.3000000142492361
100
AcDbArc
 50
270.0
 51
0.0
  0
LINE
  5
24DF
330
18
100
AcDbEntity
  8
1
  6
Continuous
100
AcDbLine
 10
285.94771539495
 20
142.8244888899325
 30
0.0
 11
286.2895582370669
 21
142.8244888899325
 31
0.0
  0
LINE
  5
24E5
330
18
100
AcDbEntity
  8
1
  6
Continuous
100
AcDbLine
 10
298.7102160011361
 20
145.4344230527138
 30
0.0
 11
293.1852157387128
 21
145.4344230527138
 31
0.0
  0
LINE
  5
24ED
330
18
100
AcDbEntity
  8
1
  6
Continuous
100
AcDbLine
 10
296.147715879424
 20
142.8996325764087
 30
0.0
 11
295.747715860425
 21
142.8996325764087
 31
0.0
  0
ARC
  5
24F3
330
18
100
AcDbEntity
  8
1
  6
Continuous
100
AcDbCircle
 10
294.8977158200522
 20
144.8194647985099
 30
0.0
 40
0.3000000142492326
100
AcDbArc
 50
284.1337367207122
 51
356.3242411529892
  0
ARC
  5
24F5
330
18
100
AcDbEntity
  8
1
  6
Continuous
100
AcDbCircle
 10
294.8977158200522
 20
145.1344230384646
 30
0.0
 40
0.3000000142492345
100
AcDbArc
 50
0.0
 51
90.0
  0
ARC
  5
24F7
330
18
100
AcDbEntity
  8
1
  6
Continuous
100
AcDbCircle
 10
296.147715879424
 20
142.5996325621595
 30
0.0
 40
0.3000000142492394
100
AcDbArc
 50
0.0
 51
90.0
  0
ARC
  5
24F8
330
18
100
AcDbEntity
  8
1
  6
Continuous
100
AcDbCircle
 10
295.747715860425
 20
142.5996325621595
 30
0.0
 40
0.3000000142492363
100
AcDbArc
 50
90.0
 51
179.9999999999996
  0
LINE
  5
2503
330
18
100
AcDbEntity
  8
1
  6
Continuous
100
AcDbLine
 10
214.0702201386976
 20
150.649632944514
 30
0.0
 11
221.0702204711798
 21
150.649632944514
 31
0.0
  0
LINE
  5
2504
330
18
100
AcDbEntity
  8
1
  6
Continuous
100
AcDbLine
 10
208.8702198917109
 20
150.649632944514
 30
0.0
 11
210.0702199487078
 21
150.649632944514
 31
0.0
  0
LINE
  5
2505
330
18
100
AcDbEntity
  8
1
  6
Continuous
100
AcDbLine
 10
214.0702201386976
 20
154.149633110755
 30
0.0
 11
210.0702199487078
 21
154.149633110755
 31
0.0
  0
LINE
  5
2508
330
18
100
AcDbEntity
  8
1
  6
Continuous
100
AcDbLine
 10
225.0702206611695
 20
150.1454214607552
 30
0.0
 11
226.0702215565999
 21
149.0977086866096
 31
0.0
  0
LINE
  5
2509
330
18
100
AcDbEntity
  8
1
  6
Continuous
100
AcDbLine
 10
223.2702205756711
 20
150.5496329397643
 30
0.0
 11
222.1700330636859
 21
150.5496329397643
 31
0.0
  0
LINE
  5
250A
330
18
100
AcDbEntity
  8
1
  6
Continuous
100
AcDbLine
 10
225.0702206611695
 20
150.1454214607551
 30
0.0
 11
223.5702205842434
 21
150.1454214607551
 31
0.0
  0
LINE
  5
250B
330
18
100
AcDbEntity
  8
1
  6
Continuous
100
AcDbLine
 10
223.5702205842434
 20
150.2496913032375
 30
0.0
 11
223.5702205842434
 21
150.1454214607551
 31
0.0
  0
ARC
  5
250C
330
18
100
AcDbEntity
  8
1
  6
Continuous
100
AcDbCircle
 10
223.2702205756741
 20
150.249632925515
 30
0.0
 40
0.3000000142492096
100
AcDbArc
 50
0.0111493122740062
 51
90.00000000057324
  0
LINE
  5
250E
330
18
100
AcDbEntity
  8
1
  6
Continuous
100
AcDbLine
 10
231.2202205718091
 20
147.3996327901473
 30
0.0
 11
231.220138939156
 21
147.3997327901473
 31
0.0
  0
LINE
  5
250F
330
18
100
AcDbEntity
  8
1
  6
Continuous
100
AcDbLine
 10
231.2202205718091
 20
147.3996327901473
 30
0.0
 11
230.5202205385609
 21
147.3996327901473
 31
0.0
  0
LINE
  5
2510
330
18
100
AcDbEntity
  8
1
  6
Continuous
100
AcDbLine
 10
230.2202205243372
 20
147.099632680379
 30
0.0
 11
230.070220517187
 21
147.099632680379
 31
0.0
  0
ARC
  5
2511
330
18
100
AcDbEntity
  8
1
  6
Continuous
100
AcDbCircle
 10
230.5202205385609
 20
147.0996327758981
 30
0.0
 40
0.3000000142492439
100
AcDbArc
 50
90.00000000000325
 51
180.0
  0
LINE
  5
2512
330
18
100
AcDbEntity
  8
1
  6
Continuous
100
AcDbLine
 10
300.5302917825412
 20
150.6496329445139
 30
0.0
 11
291.3651399573081
 21
150.649632944514
 31
0.0
  0
ARC
  5
2513
330
18
100
AcDbEntity
  8
1
  6
Continuous
100
AcDbCircle
 10
295.9477158699245
 20
140.6496324695394
 30
0.0
 40
10.1880004839041
100
AcDbArc
 50
78.97326996035353
 51
101.0011625625582
  0
ARC
  5
2514
330
18
100
AcDbEntity
  8
1
  6
Continuous
100
AcDbCircle
 10
295.9477158699245
 20
140.6496324695394
 30
0.0
 40
10.18800048390404
100
AcDbArc
 50
78.97592404212926
 51
101.024075957874
  0
LINE
  5
2516
330
18
100
AcDbEntity
  8
1
  6
Continuous
100
AcDbLine
 10
293.7728594495315
 20
150.3077901023971
 30
0.0
 11
293.7728594495315
 21
150.6496329445139
 31
0.0
  0
LINE
  5
2517
330
18
100
AcDbEntity
  8
1
  6
Continuous
100
AcDbLine
 10
298.1225722903177
 20
150.307790102397
 30
0.0
 11
298.1225722903177
 21
150.6496329445139
 31
0.0
  0
LINE
  5
2519
330
18
100
AcDbEntity
  8
1
  6
Continuous
100
AcDbLine
 10
303.7419448741905
 20
154.1496331107551
 30
0.0
 11
311.5361738784567
 21
140.6496324695396
 31
0.0
  0
ARC
  5
251A
330
18
100
AcDbEntity
  8
1
  6
Continuous
100
AcDbCircle
 10
295.9477158699245
 20
140.6496324695395
 30
0.0
 40
11.00000052247191
100
AcDbArc
 50
24.61997727120602
 51
65.38002272879449
  0
LINE
  5
251B
330
18
100
AcDbEntity
  8
1
  6
Continuous
100
AcDbLine
 10
311.5361738784567
 20
140.6496324695396
 30
0.0
 11
303.7419448741903
 21
127.1496318283239
 31
0.0
  0
LINE
  5
251D
330
18
100
AcDbEntity
  8
1
  6
Continuous
100
AcDbLine
 10
298.7102160011369
 20
135.8648418863651
 30
0.0
 11
301.4727161323485
 21
140.6496324695391
 31
0.0
  0
LINE
  5
251E
330
18
100
AcDbEntity
  8
1
  6
Continuous
100
AcDbLine
 10
305.947716354089
 20
136.0670565769771
 30
0.0
 11
305.9477163191067
 21
145.2322083721289
 31
0.0
  0
ARC
  5
2522
330
18
100
AcDbEntity
  8
1
  6
Continuous
100
AcDbCircle
 10
295.9477158699245
 20
140.6496324695394
 30
0.0
 40
11.00000052247195
100
AcDbArc
 50
294.6199772137553
 51
335.3800227862454
  0
ARC
  5
2526
330
18
100
AcDbEntity
  8
2
  6
Continuous
100
AcDbCircle
 10
295.9477158699245
 20
140.6496324695395
 30
0.0
 40
11.00000052247196
100
AcDbArc
 50
335.3800227862449
 51
24.61997727120602
  0
LINE
  5
2529
330
18
100
AcDbEntity
  8
1
  6
Continuous
100
AcDbLine
 10
301.472716132348
 20
140.6496324695394
 30
0.0
 11
298.7102160011361
 21
145.4344230527138
 31
0.0
  0
LINE
  5
2531
330
18
100
AcDbEntity
  8
1
  6
Continuous
100
AcDbLine
 10
305.4435048611404
 20
137.8496323365466
 30
0.0
 11
302.0895806993916
 21
137.8496323365465
 31
0.0
  0
LINE
  5
2535
330
18
100
AcDbEntity
  8
1
  6
Continuous
100
AcDbLine
 10
305.6058735027824
 20
138.4747760491462
 30
0.0
 11
305.9477163448992
 21
138.4747760491462
 31
0.0
  0
LINE
  5
2539
330
18
100
AcDbEntity
  8
1
  6
Continuous
100
AcDbLine
 10
305.6058735027822
 20
142.8244888899325
 30
0.0
 11
305.9477163448992
 21
142.8244888899325
 31
0.0
  0
LINE
  5
25F4
330
18
100
AcDbEntity
  8
1
  6
Continuous
100
AcDbLine
 10
124.112447392034
 20
234.9218054794593
 30
0.0
 11
124.4760968078551
 21
231.2218053037187
 31
0.0
  0
LINE
  5
25F5
330
18
100
AcDbEntity
  8
1
  6
Continuous
100
AcDbLine
 10
122.8957341122785
 20
231.2218053037187
 30
0.0
 11
123.1457341241529
 21
234.9218054794593
 31
0.0
  0
LINE
  5
25F6
330
18
100
AcDbEntity
  8
1
  6
Continuous
100
AcDbLine
 10
129.7153718156798
 20
231.2218053037187
 30
0.0
 11
130.0790212315016
 21
234.9218054794593
 31
0.0
  0
LINE
  5
25F7
330
18
100
AcDbEntity
  8
1
  6
Continuous
100
AcDbLine
 10
131.0457344993827
 20
234.9218054794593
 30
0.0
 11
131.2957345112571
 21
231.2218053037186
 31
0.0
  0
LINE
  5
25FC
330
18
100
AcDbEntity
  8
1
  6
Continuous
100
AcDbLine
 10
111.494840970625
 20
211.6218039912989
 30
0.0
 11
142.6966276529106
 21
211.6218039912989
 31
0.0
  0
LINE
  5
25FD
330
18
100
AcDbEntity
  8
1
  6
Continuous
100
AcDbLine
 10
143.0957350717269
 20
213.2218040672948
 30
0.0
 11
111.0957335518086
 21
213.2218040672948
 31
0.0
  0
LINE
  5
25FF
330
18
100
AcDbEntity
  8
1
  6
Continuous
100
AcDbLine
 10
117.4956754780698
 20
228.7218047978254
 30
0.0
 11
129.8957514715964
 21
228.7218047978253
 31
0.0
  0
LINE
  5
2600
330
18
100
AcDbEntity
  8
1
  6
Continuous
100
AcDbLine
 10
119.0457287030726
 20
192.671803466777
 30
0.0
 11
135.1457346941223
 21
192.671803466777
 31
0.0
  0
LINE
  5
2602
330
18
100
AcDbEntity
  8
1
  6
Continuous
100
AcDbLine
 10
119.6957339602866
 20
228.9218051944745
 30
0.0
 11
129.8957344447605
 21
228.9218051944744
 31
0.0
  0
LINE
  5
2604
330
18
100
AcDbEntity
  8
1
  6
Continuous
100
AcDbLine
 10
111.4862685454404
 20
211.1922154983042
 30
0.0
 11
114.3656497245585
 21
208.0248962012738
 31
0.0
  0
LINE
  5
2605
330
18
100
AcDbEntity
  8
1
  6
Continuous
100
AcDbLine
 10
110.2846777637173
 20
195.0430441205154
 30
0.0
 11
102.0957331243315
 21
212.4218044107666
 31
0.0
  0
LINE
  5
2606
330
18
100
AcDbEntity
  8
1
  6
Continuous
100
AcDbLine
 10
111.5108049544267
 20
212.4218044107665
 30
0.0
 11
111.470895013953
 21
210.4218043157718
 31
0.0
  0
ARC
  5
2607
330
18
100
AcDbEntity
  8
1
  6
Continuous
100
AcDbCircle
 10
112.9984896456946
 20
196.3218036460576
 30
0.0
 40
3.000000142492316
100
AcDbArc
 50
205.2300076016611
 51
270.0
  0
LINE
  5
2609
330
18
100
AcDbEntity
  8
1
  6
Continuous
100
AcDbLine
 10
118.7457339151641
 20
193.3218035035653
 30
0.0
 11
118.7457339151641
 21
192.9718034809808
 31
0.0
  0
ARC
  5
260A
330
18
100
AcDbEntity
  8
1
  6
Continuous
100
AcDbCircle
 10
119.0457339294133
 20
192.9718034809807
 30
0.0
 40
0.3000000142492325
100
AcDbArc
 50
179.9999999999914
 51
269.9995009212451
  0
LINE
  5
2613
330
18
100
AcDbEntity
  8
1
  6
Continuous
100
AcDbLine
 10
116.6957338177943
 20
207.2218037823102
 30
0.0
 11
116.6957338177943
 21
206.4218041271269
 31
0.0
  0
LINE
  5
2614
330
18
100
AcDbEntity
  8
1
  6
Continuous
100
AcDbLine
 10
119.4032011435108
 20
206.4218041257819
 30
0.0
 11
116.3017098968261
 21
206.4218041257819
 31
0.0
  0
LINE
  5
2616
330
18
100
AcDbEntity
  8
1
  6
Continuous
100
AcDbLine
 10
117.0957338367933
 20
219.2218043522796
 30
0.0
 11
117.0957338367933
 21
226.2218046847615
 31
0.0
  0
LINE
  5
2617
330
18
100
AcDbEntity
  8
1
  6
Continuous
100
AcDbLine
 10
111.5108049544251
 20
212.4218044107666
 30
0.0
 11
102.0957331243315
 21
212.4218044107666
 31
0.0
  0
LINE
  5
2619
330
18
100
AcDbEntity
  8
1
  6
Continuous
100
AcDbLine
 10
119.3015053075018
 20
219.2218043522796
 30
0.0
 11
119.3015053075018
 21
215.2218041622897
 31
0.0
  0
LINE
  5
261A
330
18
100
AcDbEntity
  8
1
  6
Continuous
100
AcDbLine
 10
111.5072763032355
 20
219.2218043522796
 30
0.0
 11
111.5072763032355
 21
215.2218041622897
 31
0.0
  0
LINE
  5
261B
330
18
100
AcDbEntity
  8
1
  6
Continuous
100
AcDbLine
 10
142.6841923203
 20
215.2218041622897
 30
0.0
 11
111.5072763032358
 21
215.2218041622897
 31
0.0
  0
LINE
  5
261C
330
18
100
AcDbEntity
  8
1
  6
Continuous
100
AcDbLine
 10
111.0957335518086
 20
213.2218040672948
 30
0.0
 11
111.0957335518086
 21
212.4218044107666
 31
0.0
  0
LINE
  5
261D
330
18
100
AcDbEntity
  8
1
  6
Continuous
100
AcDbLine
 10
120.911075579586
 20
213.2218040672948
 30
0.0
 11
120.9110755795859
 21
214.0218041052929
 31
0.0
  0
LINE
  5
261E
330
18
100
AcDbEntity
  8
1
  6
Continuous
100
AcDbLine
 10
115.0957337417984
 20
213.2218040672948
 30
0.0
 11
115.0957337417984
 21
214.0218041052929
 31
0.0
  0
LINE
  5
261F
330
18
100
AcDbEntity
  8
1
  6
Continuous
100
AcDbLine
 10
115.0957337417983
 20
214.0218041052929
 30
0.0
 11
139.0957348817373
 21
214.0218041052929
 31
0.0
  0
LINE
  5
2620
330
18
100
AcDbEntity
  8
1
  6
Continuous
100
AcDbLine
 10
117.0957338367933
 20
214.0218041052929
 30
0.0
 11
117.0957338367933
 21
215.2218041622897
 31
0.0
  0
LINE
  5
2621
330
18
100
AcDbEntity
  8
1
  6
Continuous
100
AcDbLine
 10
142.6841923203
 20
219.2218043522796
 30
0.0
 11
111.5072763032355
 21
219.2218043522796
 31
0.0
  0
LINE
  5
2623
330
18
100
AcDbEntity
  8
1
  6
Continuous
100
AcDbLine
 10
117.195733841543
 20
228.4218047892531
 30
0.0
 11
117.195733841543
 21
227.3218047370089
 31
0.0
  0
LINE
  5
2624
330
18
100
AcDbEntity
  8
1
  6
Continuous
100
AcDbLine
 10
117.5999453205522
 20
228.7218047978254
 30
0.0
 11
117.5999453205522
 21
230.2218048747509
 31
0.0
  0
LINE
  5
2625
330
18
100
AcDbEntity
  8
1
  6
Continuous
100
AcDbLine
 10
117.5999453205522
 20
230.2218048747514
 30
0.0
 11
118.6476580946978
 21
231.2218057701818
 31
0.0
  0
LINE
  5
2626
330
18
100
AcDbEntity
  8
1
  6
Continuous
100
AcDbLine
 10
120.1380044665734
 20
228.9218051944745
 30
0.0
 11
120.1380044665736
 21
229.2218048272542
 31
0.0
  0
LINE
  5
2628
330
18
100
AcDbEntity
  8
1
  6
Continuous
100
AcDbLine
 10
120.1380044665736
 20
229.2218048272542
 30
0.0
 11
121.1957340315328
 21
229.2218048272541
 31
0.0
  0
ARC
  5
262A
330
18
100
AcDbEntity
  8
1
  6
Continuous
100
AcDbCircle
 10
117.4957338557923
 20
228.4218047892561
 30
0.0
 40
0.3000000142492096
100
AcDbArc
 50
90.01114932163956
 51
180.0000000005751
  0
LINE
  5
262B
330
18
100
AcDbEntity
  8
1
  6
Continuous
100
AcDbLine
 10
119.6957339602866
 20
228.9218051944745
 30
0.0
 11
119.6957339602866
 21
228.7218048035054
 31
0.0
  0
LINE
  5
262C
330
18
100
AcDbEntity
  8
1
  6
Continuous
100
AcDbLine
 10
121.1957340315328
 20
231.2218053037186
 30
0.0
 11
121.1957340315328
 21
228.9218051944745
 31
0.0
  0
LINE
  5
262F
330
18
100
AcDbEntity
  8
1
  6
Continuous
100
AcDbLine
 10
152.0957354992044
 20
212.4218044107666
 30
0.0
 11
143.9067908598201
 21
195.0430441205183
 31
0.0
  0
ARC
  5
2630
330
18
100
AcDbEntity
  8
1
  6
Continuous
100
AcDbCircle
 10
135.1457346941223
 20
192.9718034809807
 30
0.0
 40
0.3000000142492325
100
AcDbArc
 50
270.0
 51
0.0000000000085493
  0
ARC
  5
2634
330
18
100
AcDbEntity
  8
1
  6
Continuous
100
AcDbCircle
 10
141.1929789778409
 20
196.3218036460576
 30
0.0
 40
3.000000142492317
100
AcDbArc
 50
269.9999975549987
 51
334.769991647448
  0
LINE
  5
2635
330
18
100
AcDbEntity
  8
1
  6
Continuous
100
AcDbLine
 10
135.4457347083715
 20
192.9718034809808
 30
0.0
 11
135.4457347083715
 21
193.3218035035653
 31
0.0
  0
LINE
  5
2637
330
18
100
AcDbEntity
  8
1
  6
Continuous
100
AcDbLine
 10
141.1929789778309
 20
193.3218035035653
 30
0.0
 11
112.9984896456946
 21
193.3218035035653
 31
0.0
  0
LINE
  5
2638
330
18
100
AcDbEntity
  8
1
  6
Continuous
100
AcDbLine
 10
138.8559212425817
 20
207.2218037823101
 30
0.0
 11
115.3355473809539
 21
207.2218037823102
 31
0.0
  0
LINE
  5
263E
330
18
100
AcDbEntity
  8
1
  6
Continuous
100
AcDbLine
 10
152.0957354992044
 20
212.4218044107666
 30
0.0
 11
142.6806636691105
 21
212.4218044107666
 31
0.0
  0
LINE
  5
263F
330
18
100
AcDbEntity
  8
1
  6
Continuous
100
AcDbLine
 10
131.6783102001185
 20
219.2218043522796
 30
0.0
 11
131.6783102122514
 21
226.2218046847617
 31
0.0
  0
LINE
  5
2640
330
18
100
AcDbEntity
  8
1
  6
Continuous
100
AcDbLine
 10
122.5131584192057
 20
219.2218043522796
 30
0.0
 11
122.5131584091785
 21
226.2218046847617
 31
0.0
  0
LINE
  5
2641
330
18
100
AcDbEntity
  8
1
  6
Continuous
100
AcDbLine
 10
137.0957347959324
 20
219.2218043522796
 30
0.0
 11
137.0957347913374
 21
226.2218046847618
 31
0.0
  0
ARC
  5
2642
330
18
100
AcDbEntity
  8
1
  6
Continuous
100
AcDbCircle
 10
127.0957343117678
 20
223.8218045707678
 30
0.0
 40
2.700000128243116
100
AcDbArc
 50
180.0
 51
0.0
  0
LINE
  5
2649
330
18
100
AcDbEntity
  8
1
  6
Continuous
100
AcDbLine
 10
134.8899633160335
 20
219.2218043522796
 30
0.0
 11
134.8899633160335
 21
215.2218041622897
 31
0.0
  0
LINE
  5
264A
330
18
100
AcDbEntity
  8
1
  6
Continuous
100
AcDbLine
 10
122.5131584192057
 20
214.0218041052929
 30
0.0
 11
122.5131584192057
 21
215.2218041622897
 31
0.0
  0
LINE
  5
264B
330
18
100
AcDbEntity
  8
1
  6
Continuous
100
AcDbLine
 10
133.2803930439495
 20
213.2218040672948
 30
0.0
 11
133.2803930439496
 21
214.0218041052929
 31
0.0
  0
LINE
  5
264C
330
18
100
AcDbEntity
  8
1
  6
Continuous
100
AcDbLine
 10
131.6783102001185
 20
214.0218041052929
 30
0.0
 11
131.6783102001185
 21
215.2218041622897
 31
0.0
  0
LINE
  5
264D
330
18
100
AcDbEntity
  8
1
  6
Continuous
100
AcDbLine
 10
142.6841923203
 20
219.2218043522796
 30
0.0
 11
142.6841923203
 21
215.2218041622897
 31
0.0
  0
LINE
  5
264E
330
18
100
AcDbEntity
  8
1
  6
Continuous
100
AcDbLine
 10
139.0957348817373
 20
213.2218040672948
 30
0.0
 11
139.0957348817373
 21
214.0218041052929
 31
0.0
  0
LINE
  5
264F
330
18
100
AcDbEntity
  8
1
  6
Continuous
100
AcDbLine
 10
137.0957347959324
 20
214.0218041052929
 30
0.0
 11
137.0957347959324
 21
215.2218041622897
 31
0.0
  0
LINE
  5
2650
330
18
100
AcDbEntity
  8
1
  6
Continuous
100
AcDbLine
 10
143.095735071727
 20
212.4218044107665
 30
0.0
 11
143.095735071727
 21
213.2218040672948
 31
0.0
  0
LINE
  5
2652
330
18
100
AcDbEntity
  8
1
  6
Continuous
100
AcDbLine
 10
136.9957347819926
 20
230.2218048747515
 30
0.0
 11
129.8957344447605
 21
230.2218048747515
 31
0.0
  0
LINE
  5
2653
330
18
100
AcDbEntity
  8
1
  6
Continuous
100
AcDbLine
 10
118.6476580946978
 20
231.2218057701818
 30
0.0
 11
135.9957338865622
 21
231.2218057701818
 31
0.0
  0
LINE
  5
2658
330
18
100
AcDbEntity
  8
1
  6
Continuous
100
AcDbLine
 10
117.0957338367933
 20
226.2218046847615
 30
0.0
 11
124.9208778913746
 21
226.2218046847618
 31
0.0
  0
LINE
  5
2659
330
18
100
AcDbEntity
  8
1
  6
Continuous
100
AcDbLine
 10
124.3957341835247
 20
224.6218046087658
 30
0.0
 11
124.3957341835247
 21
223.8218045707678
 31
0.0
  0
ARC
  5
265A
330
18
100
AcDbEntity
  8
1
  6
Continuous
100
AcDbCircle
 10
127.0957343117678
 20
224.6218046087658
 30
0.0
 40
2.700000128243122
100
AcDbArc
 50
0.0
 51
180.0
  0
ARC
  5
265C
330
18
100
AcDbEntity
  8
1
  6
Continuous
100
AcDbCircle
 10
127.0957367237885
 20
224.1218042035473
 30
0.0
 40
1.000000047499685
100
AcDbArc
 50
269.9998618013999
 51
90.00013819860003
  0
ARC
  5
265D
330
18
100
AcDbEntity
  8
1
  6
Continuous
100
AcDbCircle
 10
127.095731899747
 20
224.1218042035473
 30
0.0
 40
1.00000004749967
100
AcDbArc
 50
89.9998618013967
 51
270.0001381986
  0
LINE
  5
265E
330
18
100
AcDbEntity
  8
1
  6
Continuous
100
AcDbLine
 10
129.7957344400109
 20
223.8218045707678
 30
0.0
 11
129.7957344400109
 21
224.6218046087658
 31
0.0
  0
LINE
  5
265F
330
18
100
AcDbEntity
  8
1
  6
Continuous
100
AcDbLine
 10
129.2705907321611
 20
226.2218046847617
 30
0.0
 11
137.0957347913374
 21
226.2218046847618
 31
0.0
  0
LINE
  5
2663
330
18
100
AcDbEntity
  8
1
  6
Continuous
100
AcDbLine
 10
129.8957344447607
 20
228.7218047978253
 30
0.0
 11
129.8957344447607
 21
231.2218049222491
 31
0.0
  0
LINE
  5
2665
330
18
100
AcDbEntity
  8
1
  6
Continuous
100
AcDbLine
 10
136.9957347819926
 20
227.3218047370089
 30
0.0
 11
136.9957347819926
 21
230.2218048747515
 31
0.0
  0
LINE
  5
2667
330
18
100
AcDbEntity
  8
1
  6
Continuous
100
AcDbLine
 10
136.9957347819938
 20
230.2218048747503
 30
0.0
 11
135.9957338865622
 21
231.2218057701818
 31
0.0
  0
LINE
  5
266D
330
18
100
AcDbEntity
  8
1
  6
Continuous
100
AcDbLine
 10
120.9582340202522
 20
236.8718048091398
 30
0.0
 11
120.34573399116
 21
236.3718047853911
 31
0.0
  0
LINE
  5
2670
330
18
100
AcDbEntity
  8
1
  6
Continuous
100
AcDbLine
 10
120.34573399116
 20
236.3718047853911
 30
0.0
 11
120.34573399116
 21
235.6718047521429
 31
0.0
  0
LINE
  5
2673
330
18
100
AcDbEntity
  8
1
  6
Continuous
100
AcDbLine
 10
121.0347167095741
 20
235.3718047379189
 30
0.0
 11
121.0347167095741
 21
235.221804730769
 31
0.0
  0
LINE
  5
2674
330
18
100
AcDbEntity
  8
1
  6
Continuous
100
AcDbLine
 10
120.7437240972026
 20
235.3718047379187
 30
0.0
 11
120.7437240972026
 21
235.221804730769
 31
0.0
  0
LINE
  5
2677
330
18
100
AcDbEntity
  8
1
  6
Continuous
100
AcDbLine
 10
120.6457340830182
 20
235.3718047379187
 30
0.0
 11
120.6457340830182
 21
235.221804730769
 31
0.0
  0
ARC
  5
2678
330
18
100
AcDbEntity
  8
1
  6
Continuous
100
AcDbCircle
 10
120.6457340054092
 20
235.6718047521429
 30
0.0
 40
0.3000000142492439
100
AcDbArc
 50
180.0000000000028
 51
270.0
  0
LINE
  5
267B
330
18
100
AcDbEntity
  8
1
  6
Continuous
100
AcDbLine
 10
132.6207345741913
 20
240.3718049753809
 30
0.0
 11
132.6207344298536
 21
236.8718048091398
 31
0.0
  0
LINE
  5
267C
330
18
100
AcDbEntity
  8
1
  6
Continuous
100
AcDbLine
 10
129.8582344429794
 20
240.3718049753809
 30
0.0
 11
129.8582344429794
 21
236.8718048091398
 31
0.0
  0
LINE
  5
267D
330
18
100
AcDbEntity
  8
1
  6
Continuous
100
AcDbLine
 10
133.8457346323756
 20
236.3718047853911
 30
0.0
 11
120.34573399116
 21
236.3718047853911
 31
0.0
  0
LINE
  5
267E
330
18
100
AcDbEntity
  8
1
  6
Continuous
100
AcDbLine
 10
133.2332346032833
 20
236.8718048091398
 30
0.0
 11
120.9582340202522
 21
236.8718048091398
 31
0.0
  0
LINE
  5
2686
330
18
100
AcDbEntity
  8
1
  6
Continuous
100
AcDbLine
 10
133.5457346181263
 20
235.3718047378936
 30
0.0
 11
120.6457340054092
 21
235.3718047378936
 31
0.0
  0
LINE
  5
2688
330
18
100
AcDbEntity
  8
1
  6
Continuous
100
AcDbLine
 10
128.2157650943314
 20
235.3718047379186
 30
0.0
 11
128.2157650943314
 21
235.221804730769
 31
0.0
  0
LINE
  5
2689
330
18
100
AcDbEntity
  8
1
  6
Continuous
100
AcDbLine
 10
128.2157650943313
 20
235.221804730769
 30
0.0
 11
127.0957343117678
 21
235.221804730769
 31
0.0
  0
LINE
  5
268A
330
18
100
AcDbEntity
  8
1
  6
Continuous
100
AcDbLine
 10
127.0957343117678
 20
235.3718047379192
 30
0.0
 11
127.0957343117678
 21
235.221804730769
 31
0.0
  0
LINE
  5
268B
330
18
100
AcDbEntity
  8
1
  6
Continuous
100
AcDbLine
 10
125.9757035292042
 20
235.3718047379192
 30
0.0
 11
125.9757035292042
 21
235.221804730769
 31
0.0
  0
LINE
  5
268D
330
18
100
AcDbEntity
  8
1
  6
Continuous
100
AcDbLine
 10
124.889704315206
 20
235.3718047379183
 30
0.0
 11
124.889704315206
 21
235.221804730769
 31
0.0
  0
LINE
  5
268E
330
18
100
AcDbEntity
  8
1
  6
Continuous
100
AcDbLine
 10
126.4011415681087
 20
235.3718047378936
 30
0.0
 11
126.4011415681087
 21
235.221804730769
 31
0.0
  0
LINE
  5
268F
330
18
100
AcDbEntity
  8
1
  6
Continuous
100
AcDbLine
 10
120.6457340830182
 20
235.221804730769
 30
0.0
 11
126.4011415681086
 21
235.221804730769
 31
0.0
  0
LINE
  5
2690
330
18
100
AcDbEntity
  8
1
  6
Continuous
100
AcDbLine
 10
123.8707342063475
 20
235.3718047379183
 30
0.0
 11
123.8707342063475
 21
235.221804730769
 31
0.0
  0
LINE
  5
2692
330
18
100
AcDbEntity
  8
1
  6
Continuous
100
AcDbLine
 10
122.9497540937646
 20
235.3718047379188
 30
0.0
 11
122.9497540937646
 21
235.221804730769
 31
0.0
  0
LINE
  5
2695
330
18
100
AcDbEntity
  8
1
  6
Continuous
100
AcDbLine
 10
122.1547474921374
 20
235.3718047379188
 30
0.0
 11
122.1547474921374
 21
235.221804730769
 31
0.0
  0
LINE
  5
2696
330
18
100
AcDbEntity
  8
1
  6
Continuous
100
AcDbLine
 10
121.5098702747657
 20
235.3718047379189
 30
0.0
 11
121.5098702747657
 21
235.221804730769
 31
0.0
  0
LINE
  5
2698
330
18
100
AcDbEntity
  8
1
  6
Continuous
100
AcDbLine
 10
124.3457341811498
 20
235.221804730769
 30
0.0
 11
124.3457341811498
 21
234.9218054794593
 31
0.0
  0
LINE
  5
2699
330
18
100
AcDbEntity
  8
1
  6
Continuous
100
AcDbLine
 10
123.1457341241527
 20
234.9218054794593
 30
0.0
 11
131.0457344993827
 21
234.9218054794593
 31
0.0
  0
LINE
  5
269A
330
18
100
AcDbEntity
  8
1
  6
Continuous
100
AcDbLine
 10
133.8457346323755
 20
236.3718047853911
 30
0.0
 11
133.2331121032834
 21
236.8719048091398
 31
0.0
  0
LINE
  5
269B
330
18
100
AcDbEntity
  8
1
  6
Continuous
100
AcDbLine
 10
133.8457346323756
 20
235.6718047521429
 30
0.0
 11
133.8457346323756
 21
236.3718047853911
 31
0.0
  0
LINE
  5
26A3
330
18
100
AcDbEntity
  8
1
  6
Continuous
100
AcDbLine
 10
129.3017643083295
 20
235.3718047379186
 30
0.0
 11
129.3017643083295
 21
235.221804730769
 31
0.0
  0
LINE
  5
26A5
330
18
100
AcDbEntity
  8
1
  6
Continuous
100
AcDbLine
 10
128.4638149500511
 20
235.3718047378936
 30
0.0
 11
128.4638149500511
 21
235.221804730769
 31
0.0
  0
LINE
  5
26A6
330
18
100
AcDbEntity
  8
1
  6
Continuous
100
AcDbLine
 10
130.320734417188
 20
235.3718047379192
 30
0.0
 11
130.320734417188
 21
235.221804730769
 31
0.0
  0
LINE
  5
26A8
330
18
100
AcDbEntity
  8
1
  6
Continuous
100
AcDbLine
 10
131.241714529771
 20
235.3718047379192
 30
0.0
 11
131.241714529771
 21
235.221804730769
 31
0.0
  0
LINE
  5
26AA
330
18
100
AcDbEntity
  8
1
  6
Continuous
100
AcDbLine
 10
132.036721131398
 20
235.3718047379192
 30
0.0
 11
132.036721131398
 21
235.221804730769
 31
0.0
  0
LINE
  5
26AC
330
18
100
AcDbEntity
  8
1
  6
Continuous
100
AcDbLine
 10
133.1567519139616
 20
235.3718047379185
 30
0.0
 11
133.1567519139616
 21
235.221804730769
 31
0.0
  0
LINE
  5
26AE
330
18
100
AcDbEntity
  8
1
  6
Continuous
100
AcDbLine
 10
132.6815983487699
 20
235.3718047379192
 30
0.0
 11
132.6815983487699
 21
235.221804730769
 31
0.0
  0
LINE
  5
26B0
330
18
100
AcDbEntity
  8
1
  6
Continuous
100
AcDbLine
 10
129.8457344423858
 20
234.9218054794592
 30
0.0
 11
129.8457344423858
 21
235.221804730769
 31
0.0
  0
LINE
  5
26B1
330
18
100
AcDbEntity
  8
1
  6
Continuous
100
AcDbLine
 10
133.5457345226074
 20
235.3718047379193
 30
0.0
 11
133.5457345226074
 21
235.221804730769
 31
0.0
  0
LINE
  5
26B2
330
18
100
AcDbEntity
  8
1
  6
Continuous
100
AcDbLine
 10
133.5457345226074
 20
235.221804730769
 30
0.0
 11
128.4638149500511
 21
235.221804730769
 31
0.0
  0
LINE
  5
26B3
330
18
100
AcDbEntity
  8
1
  6
Continuous
100
AcDbLine
 10
133.447744526333
 20
235.3718047379185
 30
0.0
 11
133.447744526333
 21
235.221804730769
 31
0.0
  0
ARC
  5
26B5
330
18
100
AcDbEntity
  8
1
  6
Continuous
100
AcDbCircle
 10
133.5457346181263
 20
235.6718047521429
 30
0.0
 40
0.3000000142492439
100
AcDbArc
 50
270.0
 51
359.9999999999971
  0
LINE
  5
26B7
330
18
100
AcDbEntity
  8
1
  6
Continuous
100
AcDbLine
 10
128.14573436164
 20
240.8718049991296
 30
0.0
 11
132.0433842775105
 21
240.8718049991296
 31
0.0
  0
LINE
  5
26BE
330
18
100
AcDbEntity
  8
1
  6
Continuous
100
AcDbLine
 10
127.8457343473909
 20
240.5718049848804
 30
0.0
 11
127.8457343473909
 21
238.371804880386
 31
0.0
  0
LINE
  5
26C0
330
18
100
AcDbEntity
  8
1
  6
Continuous
100
AcDbLine
 10
127.8457343473909
 20
238.371804880386
 30
0.0
 11
126.3457342761447
 21
238.371804880386
 31
0.0
  0
ARC
  5
26C5
330
18
100
AcDbEntity
  8
1
  6
Continuous
100
AcDbCircle
 10
128.14573436164
 20
240.5718049848804
 30
0.0
 40
0.3000000142492283
100
AcDbArc
 50
90.0
 51
180.0
  0
LINE
  5
26DB
330
18
100
AcDbEntity
  8
4
  6
CENTER
 48
0.2
100
AcDbLine
 10
19.78340607010037
 20
222.9287493926026
 30
0.0
 11
73.39309361286649
 21
222.9287493926026
 31
0.0
  0
LINE
  5
26DC
330
18
100
AcDbEntity
  8
1
  6
Continuous
100
AcDbLine
 10
38.24086435317494
 20
211.3821758630966
 30
0.0
 11
30.32594915674204
 21
211.3821758630966
 31
0.0
  0
LINE
  5
26DD
330
18
100
AcDbEntity
  8
1
  6
Continuous
100
AcDbLine
 10
44.78340733525155
 20
218.9364485526409
 30
0.0
 11
44.78340733525155
 21
227.0141959874965
 31
0.0
  0
ARC
  5
26DE
330
18
100
AcDbEntity
  8
1
  6
Continuous
100
AcDbCircle
 10
34.2834067549585
 20
222.9753222700687
 30
0.0
 40
11.25000058184376
100
AcDbArc
 50
289.6757786254897
 51
338.9605307469572
  0
LINE
  5
26DF
330
18
100
AcDbEntity
  8
1
  6
Continuous
100
AcDbLine
 10
38.07125077127409
 20
212.3821758630966
 30
0.0
 11
30.49556273864288
 21
212.3821758630966
 31
0.0
  0
ARC
  5
26E0
330
18
100
AcDbEntity
  8
1
  6
Continuous
100
AcDbCircle
 10
34.2834067549585
 20
222.9753222700687
 30
0.0
 40
11.2500005818438
100
AcDbArc
 50
201.0394677696749
 51
250.3242213745101
  0
LINE
  5
26E1
330
18
100
AcDbEntity
  8
1
  6
Continuous
100
AcDbLine
 10
23.78340607010037
 20
218.9364488244823
 30
0.0
 11
23.78340607010039
 21
227.0141957156554
 31
0.0
  0
ARC
  5
26E2
330
18
100
AcDbEntity
  8
1
  6
Continuous
100
AcDbCircle
 10
34.28340675495848
 20
222.9753222700687
 30
0.0
 40
11.25000058184374
100
AcDbArc
 50
111.0394682352365
 51
158.960532230324
  0
LINE
  5
26E3
330
18
100
AcDbEntity
  8
1
  6
Continuous
100
AcDbLine
 10
38.32228028586357
 20
233.4753229221087
 30
0.0
 11
30.24453322405338
 21
233.4753229221087
 31
0.0
  0
ARC
  5
26E4
330
18
100
AcDbEntity
  8
1
  6
Continuous
100
AcDbCircle
 10
34.28340675495848
 20
222.9753222700687
 30
0.0
 40
11.25000058184379
100
AcDbArc
 50
21.0394692530426
 51
68.96053176476349
  0
ARC
  5
26E5
330
18
100
AcDbEntity
  8
1
  6
Continuous
100
AcDbCircle
 10
150.5513869451853
 20
145.1053419650268
 30
0.0
 40
1.546203320662985
100
AcDbArc
 50
2.806676711184126
 51
92.85005581805824
  0
ARC
  5
26E6
330
18
100
AcDbEntity
  8
1
  6
Continuous
100
AcDbCircle
 10
150.5513871023118
 20
136.1939228005972
 30
0.0
 40
1.54620315523522
100
AcDbArc
 50
267.1499380471073
 51
357.193329423518
  0
ARC
  5
26E7
330
18
100
AcDbEntity
  8
1
  6
Continuous
100
AcDbCircle
 10
103.640081467485
 20
145.1053421978109
 30
0.0
 40
1.546203098651735
100
AcDbArc
 50
87.14993594892133
 51
177.1933315218556
  0
ARC
  5
26E8
330
18
100
AcDbEntity
  8
1
  6
Continuous
100
AcDbCircle
 10
103.6400814308276
 20
136.1939227008008
 30
0.0
 40
1.546203060056777
100
AcDbArc
 50
182.8066670469096
 51
272.8500654823299
  0
CIRCLE
  5
26EA
330
18
100
AcDbEntity
  8
1
  6
Continuous
100
AcDbCircle
 10
127.0957343117678
 20
140.6496324695395
 30
0.0
 40
8.350000396603718
  0
LINE
  5
26EB
330
18
100
AcDbEntity
  8
4
  6
CENTER
 48
0.2
100
AcDbLine
 10
99.09573312433158
 20
140.6496324695395
 30
0.0
 11
155.0957354992044
 21
140.6496324695395
 31
0.0
  0
ARC
  5
26EC
330
18
100
AcDbEntity
  8
1
  6
Continuous
100
AcDbCircle
 10
127.0957343117678
 20
140.6496324695395
 30
0.0
 40
16.00000075995917
100
AcDbArc
 50
201.5057424094233
 51
338.5000718462972
  0
ARC
  5
26EE
330
18
100
AcDbEntity
  8
1
  6
Continuous
100
AcDbCircle
 10
127.0957343117678
 20
140.6496324695395
 30
0.0
 40
12.0000005699697
100
AcDbArc
 50
208.2882911939903
 51
331.7116595472577
  0
ARC
  5
26F0
330
18
100
AcDbEntity
  8
1
  6
Continuous
100
AcDbCircle
 10
127.0957343117678
 20
140.6496324695395
 30
0.0
 40
10.40000049396825
100
AcDbArc
 50
222.2985387616463
 51
317.7014466227223
  0
ARC
  5
26F3
330
18
100
AcDbEntity
  8
1
  6
Continuous
100
AcDbCircle
 10
211.4042077903353
 20
-2114.600115672935
 30
0.0
 40
2251.573261809184
100
AcDbArc
 50
92.42079321547397
 51
92.54383843517514
  0
LINE
  5
26F4
330
18
100
AcDbEntity
  8
1
  6
Continuous
100
AcDbLine
 10
111.5108049544267
 20
134.6496321845548
 30
0.0
 11
111.470895013953
 21
134.7543442314131
 31
0.0
  0
ARC
  5
26F5
330
18
100
AcDbEntity
  8
1
  6
Continuous
100
AcDbCircle
 10
116.4328546133978
 20
130.9478662086148
 30
0.0
 40
4.016007001395743
100
AcDbArc
 50
42.29631588960845
 51
89.97571876142236
  0
LINE
  5
26F6
330
18
100
AcDbEntity
  8
1
  6
Continuous
100
AcDbLine
 10
116.434556547149
 20
134.9637683251185
 30
0.0
 11
116.3017098968285
 21
134.9637683251242
 31
0.0
  0
ARC
  5
26F9
330
18
100
AcDbEntity
  8
1
  6
Continuous
100
AcDbCircle
 10
137.7586450363488
 20
130.947792471897
 30
0.0
 40
4.016079573138664
100
AcDbArc
 50
90.02480356728131
 51
137.7032417223773
  0
LINE
  5
26FA
330
18
100
AcDbEntity
  8
1
  6
Continuous
100
AcDbLine
 10
142.7205736095826
 20
134.7543442314131
 30
0.0
 11
142.6806636691089
 21
134.6496321845548
 31
0.0
  0
LINE
  5
26FB
330
18
100
AcDbEntity
  8
1
  6
Continuous
100
AcDbLine
 10
137.8897587267071
 20
134.9637683251243
 30
0.0
 11
137.7569064598362
 21
134.9637683251188
 31
0.0
  0
ARC
  5
26FC
330
18
100
AcDbEntity
  8
1
  6
Continuous
100
AcDbCircle
 10
42.19418989426634
 20
-2128.280566033515
 30
0.0
 40
2265.266553609238
100
AcDbArc
 50
87.45653346250296
 51
87.57883488685063
  0
LINE
  5
26FD
330
18
100
AcDbEntity
  8
4
  6
CENTER
 48
0.2
100
AcDbLine
 10
127.0957343117678
 20
121.6496317095803
 30
0.0
 11
127.0957343117678
 21
159.6496332294986
 31
0.0
  0
ARC
  5
26FE
330
18
100
AcDbEntity
  8
1
  6
Continuous
100
AcDbCircle
 10
132.0764031832497
 20
240.3265985862442
 30
0.0
 40
0.5462053467178583
100
AcDbArc
 50
4.747484667486867
 51
93.46572604142336
  0
ARC
  5
2702
330
18
100
AcDbEntity
  8
1
  6
Continuous
100
AcDbCircle
 10
129.5364685121579
 20
240.6091904867279
 30
0.0
 40
0.2646911067857573
100
AcDbArc
 50
22.66678711531513
 51
82.81828552455163
  0
ARC
  5
2703
330
18
100
AcDbEntity
  8
1
  6
Continuous
100
AcDbCircle
 10
129.1302945710828
 20
240.3840860532674
 30
0.0
 40
0.7280434615948062
100
AcDbArc
 50
359.0334542607282
 51
26.69867911178249
  0
LINE
  5
2704
330
18
100
AcDbEntity
  8
4
  6
CENTER
 48
0.2
100
AcDbLine
 10
127.0957343117678
 20
189.6705009480058
 30
0.0
 11
127.0957343117678
 21
243.0574054088546
 31
0.0
  0
LINE
  5
2705
330
18
100
AcDbEntity
  8
1
  6
Continuous
100
AcDbLine
 10
126.3457342761447
 20
240.5718049848804
 30
0.0
 11
126.3457342761447
 21
238.371804880386
 31
0.0
  0
ARC
  5
2706
330
18
100
AcDbEntity
  8
1
  6
Continuous
100
AcDbCircle
 10
126.0457342618955
 20
240.5718049848804
 30
0.0
 40
0.3000000142492283
100
AcDbArc
 50
0.000000000000007
 51
90.0
  0
ARC
  5
2707
330
18
100
AcDbEntity
  8
1
  6
Continuous
100
AcDbCircle
 10
122.1150654402859
 20
240.3265985862442
 30
0.0
 40
0.5462053467178583
100
AcDbArc
 50
86.53427395857667
 51
175.252515332513
  0
LINE
  5
2708
330
18
100
AcDbEntity
  8
1
  6
Continuous
100
AcDbLine
 10
126.0457342618955
 20
240.8718049991296
 30
0.0
 11
122.1480843460251
 21
240.8718049991296
 31
0.0
  0
ARC
  5
2709
330
18
100
AcDbEntity
  8
1
  6
Continuous
100
AcDbCircle
 10
125.0611740524528
 20
240.3840860532674
 30
0.0
 40
0.7280434615948062
100
AcDbArc
 50
153.3013208882175
 51
180.9665457392717
  0
ARC
  5
270A
330
18
100
AcDbEntity
  8
1
  6
Continuous
100
AcDbCircle
 10
124.6550001113777
 20
240.6091904867279
 30
0.0
 40
0.2646911067857573
100
AcDbArc
 50
97.18171447544836
 51
157.3332128846848
  0
LINE
  5
270F
330
18
100
AcDbEntity
  8
1
  6
Continuous
100
AcDbLine
 10
124.3332341805562
 20
240.3718049753809
 30
0.0
 11
124.3332341805562
 21
236.8718048091398
 31
0.0
  0
LINE
  5
2710
330
18
100
AcDbEntity
  8
1
  6
Continuous
100
AcDbLine
 10
121.5707340493443
 20
240.3718049753809
 30
0.0
 11
121.570734193682
 21
236.8718048091398
 31
0.0
  0
ARC
  5
2711
330
18
100
AcDbEntity
  8
1
  6
Continuous
100
AcDbCircle
 10
106.5572430994338
 20
224.4062714001787
 30
0.0
 40
11.03076696826251
100
AcDbArc
 50
9.473308823672823
 51
15.32591017474309
  0
ARC
  5
2712
330
18
100
AcDbEntity
  8
1
  6
Continuous
100
AcDbCircle
 10
147.6342218277676
 20
224.4062722128437
 30
0.0
 40
11.03076318858256
100
AcDbArc
 50
164.6740888216885
 51
170.5266921798921
  0
CIRCLE
  5
2713
330
18
100
AcDbEntity
  8
1
  6
Continuous
100
AcDbCircle
 10
127.0957367237885
 20
224.1218042035473
 30
0.0
 40
2.500000118744791
  0
LINE
  5
2715
330
18
100
AcDbEntity
  8
1
  6
Continuous
100
AcDbLine
 10
111.4708950139559
 20
210.4218043157693
 30
0.0
 11
116.3017098968261
 21
206.4218041257819
 31
0.0
  0
LINE
  5
2719
330
18
100
AcDbEntity
  8
1
  6
Continuous
100
AcDbLine
 10
116.4345565471526
 20
206.421804127078
 30
0.0
 11
115.909588265358
 21
194.7433782543721
 31
0.0
  0
LINE
  5
271A
330
18
100
AcDbEntity
  8
1
  6
Continuous
100
AcDbLine
 10
137.756912076383
 20
206.421804127078
 30
0.0
 11
138.2818803581775
 21
194.7433782543721
 31
0.0
  0
LINE
  5
271F
330
18
100
AcDbEntity
  8
4
  6
CENTER
 48
0.2
100
AcDbLine
 10
127.0957343117678
 20
91.62876399107318
 30
0.0
 11
127.0957343117678
 21
38.2418595302244
 31
0.0
  0
LINE
  5
2728
330
18
100
AcDbEntity
  8
1
  6
Continuous
100
AcDbLine
 10
121.5707340493443
 20
40.92745996369807
 30
0.0
 11
121.570734193682
 21
44.42746012993915
 31
0.0
  0
LINE
  5
2729
330
18
100
AcDbEntity
  8
1
  6
Continuous
100
AcDbLine
 10
124.3332341805562
 20
40.92745996369807
 30
0.0
 11
124.3332341805562
 21
44.42746012993915
 31
0.0
  0
LINE
  5
272A
330
18
100
AcDbEntity
  8
1
  6
Continuous
100
AcDbLine
 10
126.3457342761447
 20
40.72745995419859
 30
0.0
 11
126.3457342761447
 21
42.92746005869297
 31
0.0
  0
LINE
  5
272B
330
18
100
AcDbEntity
  8
1
  6
Continuous
100
AcDbLine
 10
127.8457343473909
 20
40.72745995419859
 30
0.0
 11
127.8457343473909
 21
42.92746005869297
 31
0.0
  0
LINE
  5
272C
330
18
100
AcDbEntity
  8
1
  6
Continuous
100
AcDbLine
 10
129.8582344429794
 20
40.92745996369807
 30
0.0
 11
129.8582344429794
 21
44.42746012993915
 31
0.0
  0
LINE
  5
272D
330
18
100
AcDbEntity
  8
1
  6
Continuous
100
AcDbLine
 10
132.6207345741913
 20
40.92745996369807
 30
0.0
 11
132.6207344298536
 21
44.42746012993915
 31
0.0
  0
LINE
  5
272F
330
18
100
AcDbEntity
  8
1
  6
Continuous
100
AcDbLine
 10
142.6841923203
 20
62.07746058679939
 30
0.0
 11
142.6841923203
 21
66.07746077678922
 31
0.0
  0
LINE
  5
2730
330
18
100
AcDbEntity
  8
1
  6
Continuous
100
AcDbLine
 10
134.8899633160335
 20
62.07746058679942
 30
0.0
 11
134.8899633160335
 21
66.07746077678922
 31
0.0
  0
LINE
  5
2731
330
18
100
AcDbEntity
  8
1
  6
Continuous
100
AcDbLine
 10
111.5072763032355
 20
62.07746058679942
 30
0.0
 11
111.5072763032355
 21
66.07746077678922
 31
0.0
  0
LINE
  5
2732
330
18
100
AcDbEntity
  8
1
  6
Continuous
100
AcDbLine
 10
119.3015053075018
 20
62.07746058679942
 30
0.0
 11
119.3015053075018
 21
66.07746077678922
 31
0.0
  0
LINE
  5
2736
330
18
100
AcDbEntity
  8
1
  6
Continuous
100
AcDbLine
 10
142.6841923203
 20
66.07746077678922
 30
0.0
 11
111.5072763032358
 21
66.07746077678922
 31
0.0
  0
LINE
  5
2743
330
18
100
AcDbEntity
  8
1
  6
Continuous
100
AcDbLine
 10
122.5131584192057
 20
67.27746083378615
 30
0.0
 11
122.5131584192057
 21
66.07746077678922
 31
0.0
  0
LINE
  5
2744
330
18
100
AcDbEntity
  8
1
  6
Continuous
100
AcDbLine
 10
117.0957338367933
 20
67.27746083378615
 30
0.0
 11
117.0957338367933
 21
66.07746077678922
 31
0.0
  0
LINE
  5
274D
330
18
100
AcDbEntity
  8
1
  6
Continuous
100
AcDbLine
 10
131.6783102001185
 20
67.27746083378615
 30
0.0
 11
131.6783102001185
 21
66.07746077678922
 31
0.0
  0
LINE
  5
2751
330
18
100
AcDbEntity
  8
1
  6
Continuous
100
AcDbLine
 10
137.0957347959324
 20
67.27746083378615
 30
0.0
 11
137.0957347959324
 21
66.07746077678922
 31
0.0
  0
LINE
  5
2753
330
18
100
AcDbEntity
  8
1
  6
Continuous
100
AcDbLine
 10
117.0957338367933
 20
55.07746025431742
 30
0.0
 11
124.9208778913746
 21
55.07746025431718
 31
0.0
  0
LINE
  5
2754
330
18
100
AcDbEntity
  8
1
  6
Continuous
100
AcDbLine
 10
142.6841923203
 20
62.07746058679939
 30
0.0
 11
111.5072763032355
 21
62.07746058679942
 31
0.0
  0
LINE
  5
2756
330
18
100
AcDbEntity
  8
1
  6
Continuous
100
AcDbLine
 10
118.6476580946978
 20
50.07745916889715
 30
0.0
 11
135.9957338865622
 21
50.07745916889717
 31
0.0
  0
LINE
  5
2757
330
18
100
AcDbEntity
  8
1
  6
Continuous
100
AcDbLine
 10
123.1457341241527
 20
46.37745945961967
 30
0.0
 11
131.0457344993827
 21
46.37745945961967
 31
0.0
  0
LINE
  5
2758
330
18
100
AcDbEntity
  8
1
  6
Continuous
100
AcDbLine
 10
133.8457346323756
 20
44.92746015368789
 30
0.0
 11
120.34573399116
 21
44.92746015368789
 31
0.0
  0
LINE
  5
2759
330
18
100
AcDbEntity
  8
1
  6
Continuous
100
AcDbLine
 10
133.2332346032833
 20
44.42746012993915
 30
0.0
 11
120.9582340202522
 21
44.42746012993915
 31
0.0
  0
LINE
  5
275A
330
18
100
AcDbEntity
  8
1
  6
Continuous
100
AcDbLine
 10
133.5457346181263
 20
45.92746020118531
 30
0.0
 11
120.6457340054092
 21
45.92746020118531
 31
0.0
  0
LINE
  5
275B
330
18
100
AcDbEntity
  8
1
  6
Continuous
100
AcDbLine
 10
120.6457340830182
 20
46.07746020830997
 30
0.0
 11
126.4011415681086
 21
46.07746020830997
 31
0.0
  0
LINE
  5
275D
330
18
100
AcDbEntity
  8
1
  6
Continuous
100
AcDbLine
 10
117.4956754780698
 20
52.57746014125356
 30
0.0
 11
117.5999453205522
 21
52.57746014125356
 31
0.0
  0
LINE
  5
275E
330
18
100
AcDbEntity
  8
1
  6
Continuous
100
AcDbLine
 10
124.112447392034
 20
46.37745945961968
 30
0.0
 11
124.4760968078551
 21
50.07745963536033
 31
0.0
  0
LINE
  5
2760
330
18
100
AcDbEntity
  8
1
  6
Continuous
100
AcDbLine
 10
117.5999453205522
 20
52.57746014125356
 30
0.0
 11
117.5999453205522
 21
51.07746006432744
 31
0.0
  0
LINE
  5
2761
330
18
100
AcDbEntity
  8
1
  6
Continuous
100
AcDbLine
 10
117.0957338367933
 20
62.07746058679942
 30
0.0
 11
117.0957338367933
 21
55.07746025431742
 31
0.0
  0
ARC
  5
2762
330
18
100
AcDbEntity
  8
1
  6
Continuous
100
AcDbCircle
 10
106.5572430994338
 20
56.89299353890027
 30
0.0
 40
11.03076696826251
100
AcDbArc
 50
344.6740898252568
 51
350.5266911763271
  0
LINE
  5
2763
330
18
100
AcDbEntity
  8
1
  6
Continuous
100
AcDbLine
 10
122.5131584192057
 20
62.07746058679942
 30
0.0
 11
122.5131584091785
 21
55.07746025431725
 31
0.0
  0
ARC
  5
2765
330
18
100
AcDbEntity
  8
1
  6
Continuous
100
AcDbCircle
 10
117.4957338557923
 20
52.87746014982285
 30
0.0
 40
0.3000000142492096
100
AcDbArc
 50
179.9999999994247
 51
269.9888506783604
  0
LINE
  5
2768
330
18
100
AcDbEntity
  8
1
  6
Continuous
100
AcDbLine
 10
117.195733841543
 20
52.87746014982587
 30
0.0
 11
117.195733841543
 21
53.97746020207006
 31
0.0
  0
LINE
  5
2769
330
18
100
AcDbEntity
  8
1
  6
Continuous
100
AcDbLine
 10
117.5999453205522
 20
51.07746006432759
 30
0.0
 11
118.6476580946978
 21
50.07745916889715
 31
0.0
  0
LINE
  5
276A
330
18
100
AcDbEntity
  8
1
  6
Continuous
100
AcDbLine
 10
120.34573399116
 20
44.92746015368789
 30
0.0
 11
120.34573399116
 21
45.6274601869361
 31
0.0
  0
LINE
  5
276B
330
18
100
AcDbEntity
  8
1
  6
Continuous
100
AcDbLine
 10
120.9582340202522
 20
44.42746012993915
 30
0.0
 11
120.34573399116
 21
44.92746015368789
 31
0.0
  0
LINE
  5
276C
330
18
100
AcDbEntity
  8
1
  6
Continuous
100
AcDbLine
 10
120.6457340830182
 20
45.92746020116023
 30
0.0
 11
120.6457340830182
 21
46.07746020830997
 31
0.0
  0
ARC
  5
276D
330
18
100
AcDbEntity
  8
1
  6
Continuous
100
AcDbCircle
 10
120.6457340054092
 20
45.62746018693608
 30
0.0
 40
0.3000000142492439
100
AcDbArc
 50
90.00000000000005
 51
179.9999999999971
  0
LINE
  5
276E
330
18
100
AcDbEntity
  8
1
  6
Continuous
100
AcDbLine
 10
121.5098702747657
 20
45.92746020116009
 30
0.0
 11
121.5098702747657
 21
46.07746020830997
 31
0.0
  0
LINE
  5
276F
330
18
100
AcDbEntity
  8
1
  6
Continuous
100
AcDbLine
 10
122.1547474921374
 20
45.92746020116011
 30
0.0
 11
122.1547474921374
 21
46.07746020830997
 31
0.0
  0
LINE
  5
2770
330
18
100
AcDbEntity
  8
1
  6
Continuous
100
AcDbLine
 10
122.9497540937646
 20
45.92746020116011
 30
0.0
 11
122.9497540937646
 21
46.07746020830997
 31
0.0
  0
LINE
  5
2771
330
18
100
AcDbEntity
  8
1
  6
Continuous
100
AcDbLine
 10
123.8707342063475
 20
45.92746020116064
 30
0.0
 11
123.8707342063475
 21
46.07746020830997
 31
0.0
  0
LINE
  5
2772
330
18
100
AcDbEntity
  8
1
  6
Continuous
100
AcDbLine
 10
120.7437240972026
 20
45.92746020116023
 30
0.0
 11
120.7437240972026
 21
46.07746020830997
 31
0.0
  0
LINE
  5
2773
330
18
100
AcDbEntity
  8
1
  6
Continuous
100
AcDbLine
 10
121.0347167095741
 20
45.92746020116009
 30
0.0
 11
121.0347167095741
 21
46.07746020830997
 31
0.0
  0
LINE
  5
2776
330
18
100
AcDbEntity
  8
1
  6
Continuous
100
AcDbLine
 10
122.8957341122785
 20
50.07745963536027
 30
0.0
 11
123.1457341241529
 21
46.37745945961968
 31
0.0
  0
LINE
  5
2778
330
18
100
AcDbEntity
  8
1
  6
Continuous
100
AcDbLine
 10
136.9957347819926
 20
53.97746020207006
 30
0.0
 11
136.9957347819926
 21
51.07746006432744
 31
0.0
  0
LINE
  5
2779
330
18
100
AcDbEntity
  8
1
  6
Continuous
100
AcDbLine
 10
129.2705907321611
 20
55.07746025431728
 30
0.0
 11
137.0957347913374
 21
55.07746025431718
 31
0.0
  0
CIRCLE
  5
277A
330
18
100
AcDbEntity
  8
1
  6
Continuous
100
AcDbCircle
 10
127.0957367237885
 20
57.17746073553167
 30
0.0
 40
2.500000118744791
  0
ARC
  5
277B
330
18
100
AcDbEntity
  8
1
  6
Continuous
100
AcDbCircle
 10
127.0957343117678
 20
56.67746033031317
 30
0.0
 40
2.700000128243122
100
AcDbArc
 50
180.0
 51
0.0
  0
LINE
  5
277C
330
18
100
AcDbEntity
  8
1
  6
Continuous
100
AcDbLine
 10
129.7957344400109
 20
57.47746036831113
 30
0.0
 11
129.7957344400109
 21
56.67746033031317
 31
0.0
  0
ARC
  5
277D
330
18
100
AcDbEntity
  8
1
  6
Continuous
100
AcDbCircle
 10
127.095731899747
 20
57.17746073553168
 30
0.0
 40
1.00000004749967
100
AcDbArc
 50
89.99986180139998
 51
270.0001381986032
  0
ARC
  5
277E
330
18
100
AcDbEntity
  8
1
  6
Continuous
100
AcDbCircle
 10
127.0957367237885
 20
57.17746073553167
 30
0.0
 40
1.000000047499685
100
AcDbArc
 50
269.9998618013999
 51
90.00013819860004
  0
LINE
  5
277F
330
18
100
AcDbEntity
  8
1
  6
Continuous
100
AcDbLine
 10
124.3957341835247
 20
56.67746033031317
 30
0.0
 11
124.3957341835247
 21
57.47746036831113
 31
0.0
  0
ARC
  5
2780
330
18
100
AcDbEntity
  8
1
  6
Continuous
100
AcDbCircle
 10
127.0957343117678
 20
57.47746036831113
 30
0.0
 40
2.700000128243116
100
AcDbArc
 50
0.0
 51
180.0
  0
LINE
  5
2781
330
18
100
AcDbEntity
  8
1
  6
Continuous
100
AcDbLine
 10
131.6783102001185
 20
62.07746058679942
 30
0.0
 11
131.6783102122514
 21
55.07746025431725
 31
0.0
  0
LINE
  5
2782
330
18
100
AcDbEntity
  8
1
  6
Continuous
100
AcDbLine
 10
137.0957347959324
 20
62.07746058679942
 30
0.0
 11
137.0957347913374
 21
55.07746025431718
 31
0.0
  0
ARC
  5
2783
330
18
100
AcDbEntity
  8
1
  6
Continuous
100
AcDbCircle
 10
147.6342218277676
 20
56.89299272623522
 30
0.0
 40
11.03076318858256
100
AcDbArc
 50
189.4733078201078
 51
195.3259111783113
  0
LINE
  5
2784
330
18
100
AcDbEntity
  8
1
  6
Continuous
100
AcDbLine
 10
136.9957347819926
 20
51.07746006432744
 30
0.0
 11
117.5999453205522
 21
51.07746006432744
 31
0.0
  0
LINE
  5
2785
330
18
100
AcDbEntity
  8
1
  6
Continuous
100
AcDbLine
 10
131.0457344993827
 20
46.37745945961967
 30
0.0
 11
131.2957345112571
 21
50.07745963536035
 31
0.0
  0
ARC
  5
2786
330
18
100
AcDbEntity
  8
1
  6
Continuous
100
AcDbCircle
 10
133.5457346181263
 20
45.62746018693608
 30
0.0
 40
0.3000000142492439
100
AcDbArc
 50
0.0000000000028638
 51
90.00000000000005
  0
LINE
  5
2787
330
18
100
AcDbEntity
  8
1
  6
Continuous
100
AcDbLine
 10
133.5457345226074
 20
46.07746020830997
 30
0.0
 11
128.4638149500511
 21
46.07746020830997
 31
0.0
  0
LINE
  5
2788
330
18
100
AcDbEntity
  8
1
  6
Continuous
100
AcDbLine
 10
128.4638149500511
 20
45.92746020118534
 30
0.0
 11
128.4638149500511
 21
46.07746020830997
 31
0.0
  0
LINE
  5
2789
330
18
100
AcDbEntity
  8
1
  6
Continuous
100
AcDbLine
 10
127.8457343473909
 20
42.92746005869297
 30
0.0
 11
126.3457342761447
 21
42.92746005869297
 31
0.0
  0
LINE
  5
278A
330
18
100
AcDbEntity
  8
1
  6
Continuous
100
AcDbLine
 10
133.447744526333
 20
45.9274602011605
 30
0.0
 11
133.447744526333
 21
46.07746020830997
 31
0.0
  0
LINE
  5
278B
330
18
100
AcDbEntity
  8
1
  6
Continuous
100
AcDbLine
 10
133.5457345226074
 20
45.92746020115966
 30
0.0
 11
133.5457345226074
 21
46.07746020830997
 31
0.0
  0
LINE
  5
278C
330
18
100
AcDbEntity
  8
1
  6
Continuous
100
AcDbLine
 10
129.8457344423858
 20
46.37745945961972
 30
0.0
 11
129.8457344423858
 21
46.07746020830997
 31
0.0
  0
LINE
  5
278D
330
18
100
AcDbEntity
  8
1
  6
Continuous
100
AcDbLine
 10
132.6815983487699
 20
45.92746020115975
 30
0.0
 11
132.6815983487699
 21
46.07746020830997
 31
0.0
  0
LINE
  5
278E
330
18
100
AcDbEntity
  8
1
  6
Continuous
100
AcDbLine
 10
133.1567519139616
 20
45.9274602011605
 30
0.0
 11
133.1567519139616
 21
46.07746020830997
 31
0.0
  0
LINE
  5
278F
330
18
100
AcDbEntity
  8
1
  6
Continuous
100
AcDbLine
 10
132.036721131398
 20
45.92746020115975
 30
0.0
 11
132.036721131398
 21
46.07746020830997
 31
0.0
  0
LINE
  5
2790
330
18
100
AcDbEntity
  8
1
  6
Continuous
100
AcDbLine
 10
131.241714529771
 20
45.92746020115979
 30
0.0
 11
131.241714529771
 21
46.07746020830997
 31
0.0
  0
LINE
  5
2791
330
18
100
AcDbEntity
  8
1
  6
Continuous
100
AcDbLine
 10
130.320734417188
 20
45.92746020115979
 30
0.0
 11
130.320734417188
 21
46.07746020830997
 31
0.0
  0
LINE
  5
2792
330
18
100
AcDbEntity
  8
1
  6
Continuous
100
AcDbLine
 10
129.3017643083295
 20
45.92746020116033
 30
0.0
 11
129.3017643083295
 21
46.07746020830997
 31
0.0
  0
LINE
  5
2793
330
18
100
AcDbEntity
  8
1
  6
Continuous
100
AcDbLine
 10
133.8457346323756
 20
45.6274601869361
 30
0.0
 11
133.8457346323756
 21
44.92746015368789
 31
0.0
  0
LINE
  5
2794
330
18
100
AcDbEntity
  8
1
  6
Continuous
100
AcDbLine
 10
133.8457346323755
 20
44.92746015368789
 30
0.0
 11
133.2331121032834
 21
44.42736012993914
 31
0.0
  0
LINE
  5
2795
330
18
100
AcDbEntity
  8
1
  6
Continuous
100
AcDbLine
 10
124.3457341811498
 20
46.07746020830993
 30
0.0
 11
124.3457341811498
 21
46.37745945961967
 31
0.0
  0
LINE
  5
2796
330
18
100
AcDbEntity
  8
1
  6
Continuous
100
AcDbLine
 10
126.4011415681087
 20
45.92746020118534
 30
0.0
 11
126.4011415681087
 21
46.07746020830997
 31
0.0
  0
LINE
  5
2797
330
18
100
AcDbEntity
  8
1
  6
Continuous
100
AcDbLine
 10
124.889704315206
 20
45.92746020116067
 30
0.0
 11
124.889704315206
 21
46.07746020830997
 31
0.0
  0
LINE
  5
2798
330
18
100
AcDbEntity
  8
1
  6
Continuous
100
AcDbLine
 10
125.9757035292042
 20
45.92746020115975
 30
0.0
 11
125.9757035292042
 21
46.07746020830997
 31
0.0
  0
LINE
  5
2799
330
18
100
AcDbEntity
  8
1
  6
Continuous
100
AcDbLine
 10
127.0957343117678
 20
45.92746020115975
 30
0.0
 11
127.0957343117678
 21
46.07746020830997
 31
0.0
  0
LINE
  5
279A
330
18
100
AcDbEntity
  8
1
  6
Continuous
100
AcDbLine
 10
128.2157650943313
 20
46.07746020830997
 30
0.0
 11
127.0957343117678
 21
46.07746020830997
 31
0.0
  0
LINE
  5
279B
330
18
100
AcDbEntity
  8
1
  6
Continuous
100
AcDbLine
 10
128.2157650943314
 20
45.92746020116033
 30
0.0
 11
128.2157650943314
 21
46.07746020830997
 31
0.0
  0
LINE
  5
279C
330
18
100
AcDbEntity
  8
1
  6
Continuous
100
AcDbLine
 10
129.7153718156798
 20
50.07745963536027
 30
0.0
 11
130.0790212315016
 21
46.37745945961968
 31
0.0
  0
LINE
  5
279D
330
18
100
AcDbEntity
  8
1
  6
Continuous
100
AcDbLine
 10
136.9957347819938
 20
51.07746006432869
 30
0.0
 11
135.9957338865622
 21
50.07745916889717
 31
0.0
  0
LINE
  5
279F
330
18
100
AcDbEntity
  8
1
  6
Continuous
100
AcDbLine
 10
126.0457342618955
 20
40.42745993994936
 30
0.0
 11
122.1480843460251
 21
40.42745993994936
 31
0.0
  0
ARC
  5
27A0
330
18
100
AcDbEntity
  8
1
  6
Continuous
100
AcDbCircle
 10
122.1150654402859
 20
40.97266635283483
 30
0.0
 40
0.5462053467178583
100
AcDbArc
 50
184.7474846674868
 51
273.4657260414233
  0
ARC
  5
27A3
330
18
100
AcDbEntity
  8
1
  6
Continuous
100
AcDbCircle
 10
124.6550001113777
 20
40.69007445235111
 30
0.0
 40
0.2646911067857573
100
AcDbArc
 50
202.6667871153151
 51
262.8182855245516
  0
ARC
  5
27A4
330
18
100
AcDbEntity
  8
1
  6
Continuous
100
AcDbCircle
 10
125.0611740524528
 20
40.91517888581161
 30
0.0
 40
0.7280434615948062
100
AcDbArc
 50
179.0334542607282
 51
206.6986791117825
  0
ARC
  5
27A5
330
18
100
AcDbEntity
  8
1
  6
Continuous
100
AcDbCircle
 10
126.0457342618955
 20
40.72745995419859
 30
0.0
 40
0.3000000142492283
100
AcDbArc
 50
270.0
 51
0.0
  0
ARC
  5
27A6
330
18
100
AcDbEntity
  8
1
  6
Continuous
100
AcDbCircle
 10
128.14573436164
 20
40.72745995419859
 30
0.0
 40
0.3000000142492283
100
AcDbArc
 50
180.0
 51
270.0
  0
ARC
  5
27A7
330
18
100
AcDbEntity
  8
1
  6
Continuous
100
AcDbCircle
 10
132.0764031832497
 20
40.97266635283483
 30
0.0
 40
0.5462053467178583
100
AcDbArc
 50
266.5342739585766
 51
355.2525153325131
  0
LINE
  5
27A8
330
18
100
AcDbEntity
  8
1
  6
Continuous
100
AcDbLine
 10
128.14573436164
 20
40.42745993994936
 30
0.0
 11
132.0433842775105
 21
40.42745993994936
 31
0.0
  0
ARC
  5
27A9
330
18
100
AcDbEntity
  8
1
  6
Continuous
100
AcDbCircle
 10
129.1302945710828
 20
40.91517888581161
 30
0.0
 40
0.7280434615948062
100
AcDbArc
 50
333.3013208882175
 51
0.966545739271751
  0
ARC
  5
27AA
330
18
100
AcDbEntity
  8
1
  6
Continuous
100
AcDbCircle
 10
129.5364685121579
 20
40.69007445235111
 30
0.0
 40
0.2646911067857573
100
AcDbArc
 50
277.1817144754483
 51
337.3332128846848
  0
CIRCLE
  5
27AE
330
18
100
AcDbEntity
  8
1
  6
Continuous
100
AcDbCircle
 10
127.0957367237885
 20
57.17746555957294
 30
0.0
 40
1.924337658700613
  0
ARC
  5
27B9
330
18
100
AcDbEntity
  8
1
  6
Continuous
100
AcDbCircle
 10
219.2582879966486
 20
161.1694886714662
 30
0.0
 40
11.01179345509075
100
AcDbArc
 50
279.4707873765216
 51
285.3325277929656
  0
ARC
  5
27BA
330
18
100
AcDbEntity
  8
1
  6
Continuous
100
AcDbCircle
 10
219.1788068007088
 20
119.7660062216811
 30
0.0
 40
11.38369848947221
100
AcDbArc
 50
74.76489989248111
 51
80.43589108498789
  0
ARC
  5
27BB
330
18
100
AcDbEntity
  8
1
  6
Continuous
100
AcDbCircle
 10
218.4781319418197
 20
137.4002346245516
 30
0.0
 40
7.500512977657701
100
AcDbArc
 50
281.474500249222
 51
288.7941281359799
  0
ARC
  5
27BC
330
18
100
AcDbEntity
  8
1
  6
Continuous
100
AcDbCircle
 10
219.4623080381099
 20
137.4002346245482
 30
0.0
 40
7.500512977654116
100
AcDbArc
 50
251.205871864019
 51
258.5254997507846
  0
ARC
  5
27BD
330
18
100
AcDbEntity
  8
1
  6
Continuous
100
AcDbCircle
 10
235.2202213739118
 20
144.934423028965
 30
0.0
 40
0.5000000237487168
100
AcDbArc
 50
359.9103462491981
 51
89.99999181489128
  0
LINE
  5
27BE
330
18
100
AcDbEntity
  8
1
  6
Continuous
100
AcDbLine
 10
235.2202214453404
 20
145.4344230527136
 30
0.0
 11
231.7202212790994
 21
145.4344235527138
 31
0.0
  0
LINE
  5
27BF
330
18
100
AcDbEntity
  8
4
  6
CENTER
 48
0.2
100
AcDbLine
 10
184.5202192587263
 20
140.6496324695395
 30
0.0
 11
238.7202207855476
 21
140.6496324695395
 31
0.0
  0
LINE
  5
27C1
330
18
100
AcDbEntity
  8
4
  6
CENTER
 48
0.2
100
AcDbLine
 10
69.67124936480937
 20
140.6496324695395
 30
0.0
 11
15.47124783798807
 21
140.6496324695395
 31
0.0
  0
LINE
  5
27C2
330
18
100
AcDbEntity
  8
1
  6
Continuous
100
AcDbLine
 10
64.55117535519113
 20
135.5726650080546
 30
0.0
 11
46.92124842635122
 21
134.6496321845549
 31
0.0
  0
LINE
  5
27C3
330
18
100
AcDbEntity
  8
1
  6
Continuous
100
AcDbLine
 10
52.16124588045882
 20
151.049632963513
 30
0.0
 11
64.52125323266591
 21
151.049632963513
 31
0.0
  0
LINE
  5
27C4
330
18
100
AcDbEntity
  8
1
  6
Continuous
100
AcDbLine
 10
46.9212484263512
 20
146.6496327545241
 30
0.0
 11
64.55117535518238
 21
145.7265999310249
 31
0.0
  0
LINE
  5
27C5
330
18
100
AcDbEntity
  8
1
  6
Continuous
100
AcDbLine
 10
64.52125241274882
 20
130.249631975566
 30
0.0
 11
52.16124588045902
 21
130.249631975566
 31
0.0
  0
LINE
  5
27C6
330
18
100
AcDbEntity
  8
1
  6
Continuous
100
AcDbLine
 10
66.02124933355232
 20
131.7493869993981
 30
0.0
 11
66.02124933355232
 21
149.5496328922668
 31
0.0
  0
ARC
  5
27C8
330
18
100
AcDbEntity
  8
1
  6
Continuous
100
AcDbCircle
 10
66.3712493561369
 20
132.599632087185
 30
0.0
 40
0.3000000142492325
100
AcDbArc
 50
269.9999999999902
 51
359.9889524168474
  0
LINE
  5
27C9
330
18
100
AcDbEntity
  8
1
  6
Continuous
100
AcDbLine
 10
66.37124935613678
 20
132.2996320729358
 30
0.0
 11
66.02124931353626
 21
132.2996320729358
 31
0.0
  0
ARC
  5
27CA
330
18
100
AcDbEntity
  8
1
  6
Continuous
100
AcDbCircle
 10
64.52124926230614
 20
131.7496320468122
 30
0.0
 40
1.500000071246175
100
AcDbArc
 50
270.0001203380379
 51
359.9906398786666
  0
ARC
  5
27CB
330
18
100
AcDbEntity
  8
1
  6
Continuous
100
AcDbCircle
 10
64.51487744341388
 20
144.2281746837053
 30
0.0
 40
1.498864823859708
100
AcDbArc
 50
359.9297939411385
 51
88.61233618369594
  0
LINE
  5
27CD
330
18
100
AcDbEntity
  8
1
  6
Continuous
100
AcDbLine
 10
66.67124936480934
 20
148.699690696916
 30
0.0
 11
66.67124936480934
 21
132.5995742419241
 31
0.0
  0
ARC
  5
27CE
330
18
100
AcDbEntity
  8
1
  6
Continuous
100
AcDbCircle
 10
64.51487744341398
 20
137.0710902553739
 30
0.0
 40
1.498864823859708
100
AcDbArc
 50
271.3876638166344
 51
0.07020605886319
  0
LINE
  5
27CF
330
18
100
AcDbEntity
  8
1
  6
Continuous
100
AcDbLine
 10
66.01374114205654
 20
137.0729268542755
 30
0.0
 11
66.02124933355239
 21
137.0731527253643
 31
0.0
  0
LINE
  5
27D0
330
18
100
AcDbEntity
  8
1
  6
Continuous
100
AcDbLine
 10
66.01374114205646
 20
144.2263380848038
 30
0.0
 11
66.02124933355232
 21
144.2261122137151
 31
0.0
  0
ARC
  5
27D1
330
18
100
AcDbEntity
  8
1
  6
Continuous
100
AcDbCircle
 10
64.52124926230614
 20
149.5496328922668
 30
0.0
 40
1.500000071246184
100
AcDbArc
 50
0.0
 51
89.9998483434372
  0
ARC
  5
27D2
330
18
100
AcDbEntity
  8
1
  6
Continuous
100
AcDbCircle
 10
66.3712493561369
 20
148.699632851894
 30
0.0
 40
0.3000000142492325
100
AcDbArc
 50
0.0004990787569159
 51
90.00000000000978
  0
LINE
  5
27D3
330
18
100
AcDbEntity
  8
1
  6
Continuous
100
AcDbLine
 10
66.02124933007269
 20
148.9996328661432
 30
0.0
 11
66.37124935613678
 21
148.9996328661432
 31
0.0
  0
LINE
  5
27D4
330
18
100
AcDbEntity
  8
1
  6
Continuous
100
AcDbLine
 10
46.1212487698227
 20
124.64963170958
 30
0.0
 11
46.12124876982273
 21
156.6496332294986
 31
0.0
  0
LINE
  5
27D5
330
18
100
AcDbEntity
  8
1
  6
Continuous
100
AcDbLine
 10
47.72124884581865
 20
156.6496332294986
 30
0.0
 11
47.72124884581865
 21
146.6077479158085
 31
0.0
  0
LINE
  5
27D6
330
18
100
AcDbEntity
  8
1
  6
Continuous
100
AcDbLine
 10
47.72124884581865
 20
156.6496332294985
 30
0.0
 11
52.12134905480752
 21
152.6495421304182
 31
0.0
  0
LINE
  5
27D7
330
18
100
AcDbEntity
  8
1
  6
Continuous
100
AcDbLine
 10
28.12124706693579
 20
149.0977086866096
 30
0.0
 11
28.12124706693579
 21
131.7496328947451
 31
0.0
  0
LINE
  5
27D8
330
18
100
AcDbEntity
  8
1
  6
Continuous
100
AcDbLine
 10
29.12124796236605
 20
130.7496319993147
 30
0.0
 11
29.12124796236605
 21
137.8496323365466
 31
0.0
  0
LINE
  5
27D9
330
18
100
AcDbEntity
  8
1
  6
Continuous
100
AcDbLine
 10
33.12124815235586
 20
138.4747760491462
 30
0.0
 11
33.12124815235623
 21
130.6496319853749
 31
0.0
  0
LINE
  5
27DA
330
18
100
AcDbEntity
  8
1
  6
Continuous
100
AcDbLine
 10
40.12124848483802
 20
127.1496318283239
 30
0.0
 11
40.12124848483802
 21
154.149633110755
 31
0.0
  0
LINE
  5
27DB
330
18
100
AcDbEntity
  8
1
  6
Continuous
100
AcDbLine
 10
44.1212486748278
 20
127.1496318283239
 30
0.0
 11
44.12124867482782
 21
154.1496331107551
 31
0.0
  0
LINE
  5
27DC
330
18
100
AcDbEntity
  8
1
  6
Continuous
100
AcDbLine
 10
45.32124873182477
 20
152.6496330395089
 30
0.0
 11
45.32124873182478
 21
128.64963189957
 31
0.0
  0
LINE
  5
27DD
330
18
100
AcDbEntity
  8
1
  6
Continuous
100
AcDbLine
 10
52.12124905480743
 20
134.9178537992809
 30
0.0
 11
52.12124905480743
 21
128.6496318995696
 31
0.0
  0
LINE
  5
27DE
330
18
100
AcDbEntity
  8
1
  6
Continuous
100
AcDbLine
 10
47.72124884581865
 20
124.6496317095801
 30
0.0
 11
47.72124884581865
 21
134.6915170232702
 31
0.0
  0
ARC
  5
27DF
330
18
100
AcDbEntity
  8
1
  6
Continuous
100
AcDbCircle
 10
34.72916058542571
 20
137.4002346245482
 30
0.0
 40
7.500512977654116
100
AcDbArc
 50
281.4745002492152
 51
288.7941281359809
  0
LINE
  5
27E0
330
18
100
AcDbEntity
  8
1
  6
Continuous
100
AcDbLine
 10
37.14558515728151
 20
130.2996299167175
 30
0.0
 11
35.22124863357032
 21
130.2996318825741
 31
0.0
  0
LINE
  5
27E1
330
18
100
AcDbEntity
  8
1
  6
Continuous
100
AcDbLine
 10
40.12124848483802
 20
130.6496319761849
 30
0.0
 11
33.12124815235597
 21
130.6496319853749
 31
0.0
  0
LINE
  5
27E2
330
18
100
AcDbEntity
  8
1
  6
Continuous
100
AcDbLine
 10
47.72124884581865
 20
124.6496317095802
 30
0.0
 11
52.12134905480752
 21
128.6497228086605
 31
0.0
  0
LINE
  5
27E5
330
18
100
AcDbEntity
  8
1
  6
Continuous
100
AcDbLine
 10
40.12124848483802
 20
127.1496318283239
 30
0.0
 11
44.1212486748278
 21
127.1496318283239
 31
0.0
  0
LINE
  5
27E6
330
18
100
AcDbEntity
  8
1
  6
Continuous
100
AcDbLine
 10
46.12124876982273
 20
128.64963189957
 30
0.0
 11
45.32124873182478
 21
128.64963189957
 31
0.0
  0
LINE
  5
27E7
330
18
100
AcDbEntity
  8
1
  6
Continuous
100
AcDbLine
 10
46.1212487698227
 20
124.64963170958
 30
0.0
 11
47.72124884581865
 21
124.64963170958
 31
0.0
  0
LINE
  5
27E8
330
18
100
AcDbEntity
  8
1
  6
Continuous
100
AcDbLine
 10
37.3476589511439
 20
130.6496319945652
 30
0.0
 11
37.14558513981501
 21
130.2996298864645
 31
0.0
  0
LINE
  5
27E9
330
18
100
AcDbEntity
  8
1
  6
Continuous
100
AcDbLine
 10
45.32124873182477
 20
130.6496319761849
 30
0.0
 11
44.12124867482782
 21
130.6496319761849
 31
0.0
  0
LINE
  5
27EA
330
18
100
AcDbEntity
  8
1
  6
Continuous
100
AcDbLine
 10
29.1212479623673
 20
130.7496319993135
 30
0.0
 11
28.12124706693579
 21
131.7496328947451
 31
0.0
  0
LINE
  5
27EB
330
18
100
AcDbEntity
  8
1
  6
Continuous
100
AcDbLine
 10
32.02143555559598
 20
130.7496319993147
 30
0.0
 11
29.12124796236605
 21
130.7496319993147
 31
0.0
  0
ARC
  5
27EC
330
18
100
AcDbEntity
  8
1
  6
Continuous
100
AcDbCircle
 10
35.71333668171595
 20
137.4002346245516
 30
0.0
 40
7.500512977657701
100
AcDbArc
 50
251.2058718640201
 51
258.5254997507778
  0
ARC
  5
27ED
330
18
100
AcDbEntity
  8
1
  6
Continuous
100
AcDbCircle
 10
35.0126618228268
 20
119.7660062216811
 30
0.0
 40
11.38369848947221
100
AcDbArc
 50
99.56410891501214
 51
105.2351001075188
  0
LINE
  5
27EE
330
18
100
AcDbEntity
  8
1
  6
Continuous
100
AcDbLine
 10
33.29691209239217
 20
130.2996299469709
 30
0.0
 11
32.9183096040208
 21
130.9553886927022
 31
0.0
  0
LINE
  5
27EF
330
18
100
AcDbEntity
  8
1
  6
Continuous
100
AcDbLine
 10
34.22124617404939
 20
130.0496318706991
 30
0.0
 11
36.2212510930907
 21
130.0496318706991
 31
0.0
  0
LINE
  5
27F1
330
18
100
AcDbEntity
  8
1
  6
Continuous
100
AcDbLine
 10
33.29691210985902
 20
130.2996299167178
 30
0.0
 11
35.22124863357032
 21
130.2996318825741
 31
0.0
  0
LINE
  5
27F2
330
18
100
AcDbEntity
  8
1
  6
Continuous
100
AcDbLine
 10
40.12124848483802
 20
150.649632944514
 30
0.0
 11
33.12124815235586
 21
150.649632944514
 31
0.0
  0
ARC
  5
27F3
330
18
100
AcDbEntity
  8
1
  6
Continuous
100
AcDbCircle
 10
35.52124826634974
 20
140.6496324695395
 30
0.0
 40
2.700000128243122
100
AcDbArc
 50
270.0
 51
90.0
  0
LINE
  5
27F4
330
18
100
AcDbEntity
  8
1
  6
Continuous
100
AcDbLine
 10
40.12124848483802
 20
145.2322083621016
 30
0.0
 11
33.12124815235586
 21
145.2322083721288
 31
0.0
  0
LINE
  5
27F5
330
18
100
AcDbEntity
  8
1
  6
Continuous
100
AcDbLine
 10
40.12124848483802
 20
136.0670566054543
 30
0.0
 11
33.12124815235597
 21
136.0670565811886
 31
0.0
  0
LINE
  5
27F6
330
18
100
AcDbEntity
  8
1
  6
Continuous
100
AcDbLine
 10
46.92124842635122
 20
134.6496321845549
 30
0.0
 11
46.9212484263512
 21
146.6496327545241
 31
0.0
  0
LINE
  5
27F7
330
18
100
AcDbEntity
  8
1
  6
Continuous
100
AcDbLine
 10
40.12124848483802
 20
140.6496324695394
 30
0.0
 11
44.12124867482782
 21
140.6496324695394
 31
0.0
  0
LINE
  5
27F9
330
18
100
AcDbEntity
  8
1
  6
Continuous
100
AcDbLine
 10
45.32124873182477
 20
136.0670566054543
 30
0.0
 11
44.12124867482782
 21
136.0670566054543
 31
0.0
  0
LINE
  5
27FA
330
18
100
AcDbEntity
  8
1
  6
Continuous
100
AcDbLine
 10
46.12124876982273
 20
134.4649737373577
 30
0.0
 11
45.32124873182477
 21
134.4649737373577
 31
0.0
  0
LINE
  5
27FB
330
18
100
AcDbEntity
  8
1
  6
Continuous
100
AcDbLine
 10
52.16124588045882
 20
151.049632963513
 30
0.0
 11
52.12124905480743
 21
151.0658382285749
 31
0.0
  0
LINE
  5
27FC
330
18
100
AcDbEntity
  8
1
  6
Continuous
100
AcDbLine
 10
52.12124905480743
 20
146.3814111397978
 30
0.0
 11
52.12124905480743
 21
152.6496330395091
 31
0.0
  0
LINE
  5
27FD
330
18
100
AcDbEntity
  8
1
  6
Continuous
100
AcDbLine
 10
52.16112779849345
 20
151.049632963513
 30
0.0
 11
52.16114624231966
 21
151.049632963513
 31
0.0
  0
LINE
  5
27FF
330
18
100
AcDbEntity
  8
1
  6
Continuous
100
AcDbLine
 10
45.32124873182477
 20
145.2322083621016
 30
0.0
 11
44.12124867482782
 21
145.2322083621016
 31
0.0
  0
LINE
  5
2800
330
18
100
AcDbEntity
  8
1
  6
Continuous
100
AcDbLine
 10
46.12124876982273
 20
146.8342912017213
 30
0.0
 11
45.32124873182477
 21
146.8342912017213
 31
0.0
  0
LINE
  5
2801
330
18
100
AcDbEntity
  8
1
  6
Continuous
100
AcDbLine
 10
46.12124876982273
 20
152.6496330395089
 30
0.0
 11
45.32124873182477
 21
152.6496330395089
 31
0.0
  0
LINE
  5
2802
330
18
100
AcDbEntity
  8
1
  6
Continuous
100
AcDbLine
 10
40.12124848483802
 20
154.149633110755
 30
0.0
 11
44.12124867482782
 21
154.149633110755
 31
0.0
  0
LINE
  5
2803
330
18
100
AcDbEntity
  8
1
  6
Continuous
100
AcDbLine
 10
45.32124873182477
 20
150.649632944514
 30
0.0
 11
44.12124867482782
 21
150.649632944514
 31
0.0
  0
LINE
  5
2804
330
18
100
AcDbEntity
  8
1
  6
Continuous
100
AcDbLine
 10
33.12124815235586
 20
150.649632944514
 30
0.0
 11
33.12124815235586
 21
142.8244888899327
 31
0.0
  0
LINE
  5
2805
330
18
100
AcDbEntity
  8
1
  6
Continuous
100
AcDbLine
 10
18.4712478379881
 20
144.9336406526779
 30
0.0
 11
18.47124783798801
 21
136.3648419101139
 31
0.0
  0
LINE
  5
2806
330
18
100
AcDbEntity
  8
1
  6
Continuous
100
AcDbLine
 10
22.47124802797782
 20
134.5121321780238
 30
0.0
 11
22.47124802797785
 21
146.7871327610551
 31
0.0
  0
LINE
  5
2807
330
18
100
AcDbEntity
  8
1
  6
Continuous
100
AcDbLine
 10
24.12124810634864
 20
147.099632680379
 30
0.0
 11
24.12124810634861
 21
142.0177131078222
 31
0.0
  0
LINE
  5
2808
330
18
100
AcDbEntity
  8
1
  6
Continuous
100
AcDbLine
 10
23.97124809917272
 20
134.1996321631809
 30
0.0
 11
23.97124809917272
 21
147.0996327758981
 31
0.0
  0
LINE
  5
2809
330
18
100
AcDbEntity
  8
1
  6
Continuous
100
AcDbLine
 10
24.42124735765833
 20
144.5996326571544
 30
0.0
 11
24.42124735765833
 21
136.6996322819245
 31
0.0
  0
LINE
  5
280A
330
18
100
AcDbEntity
  8
1
  6
Continuous
100
AcDbLine
 10
22.97124805172654
 20
133.8996321489317
 30
0.0
 11
22.97124805172654
 21
147.3996327901473
 31
0.0
  0
LINE
  5
280B
330
18
100
AcDbEntity
  8
1
  6
Continuous
100
AcDbLine
 10
24.42124735765833
 20
136.6996322819245
 30
0.0
 11
28.12124753339901
 21
136.4496322700502
 31
0.0
  0
LINE
  5
280C
330
18
100
AcDbEntity
  8
1
  6
Continuous
100
AcDbLine
 10
24.42124735765833
 20
143.6329193892732
 30
0.0
 11
28.12124753339901
 21
143.2692699734522
 31
0.0
  0
LINE
  5
280D
330
18
100
AcDbEntity
  8
1
  6
Continuous
100
AcDbLine
 10
28.1212475333989
 20
138.0299949656274
 30
0.0
 11
24.42124735765833
 21
137.6663455498056
 31
0.0
  0
ARC
  5
280E
330
18
100
AcDbEntity
  8
1
  6
Continuous
100
AcDbCircle
 10
34.72124822835178
 20
140.6496324695395
 30
0.0
 40
2.700000128243109
100
AcDbArc
 50
90.0
 51
270.0
  0
LINE
  5
280F
330
18
100
AcDbEntity
  8
1
  6
Continuous
100
AcDbLine
 10
35.52124826634974
 20
143.3496325977826
 30
0.0
 11
34.72124822835178
 21
143.3496325977826
 31
0.0
  0
LINE
  5
2810
330
18
100
AcDbEntity
  8
1
  6
Continuous
100
AcDbLine
 10
34.72124822835178
 20
137.9496323412964
 30
0.0
 11
35.52124826634974
 21
137.9496323412964
 31
0.0
  0
LINE
  5
2811
330
18
100
AcDbEntity
  8
1
  6
Continuous
100
AcDbLine
 10
18.47124783798804
 20
140.6496324338252
 30
0.0
 11
22.47124802797782
 21
140.6496327195395
 31
0.0
  0
LINE
  5
2812
330
18
100
AcDbEntity
  8
1
  6
Continuous
100
AcDbLine
 10
23.971248099224
 20
139.9550397258804
 30
0.0
 11
24.1212481063487
 21
139.9550397258804
 31
0.0
  0
LINE
  5
2813
330
18
100
AcDbEntity
  8
1
  6
Continuous
100
AcDbLine
 10
24.12124810634859
 20
134.1996322586999
 30
0.0
 11
24.1212481063487
 21
139.9550397258804
 31
0.0
  0
LINE
  5
2814
330
18
100
AcDbEntity
  8
1
  6
Continuous
100
AcDbLine
 10
23.97124809919876
 20
134.1996322586999
 30
0.0
 11
24.12124810634859
 21
134.1996322586999
 31
0.0
  0
ARC
  5
2815
330
18
100
AcDbEntity
  8
1
  6
Continuous
100
AcDbCircle
 10
23.67124808497476
 20
134.1996321631809
 30
0.0
 40
0.3000000142492439
100
AcDbArc
 50
270.0000000000032
 51
0.000000000000007
  0
ARC
  5
2816
330
18
100
AcDbEntity
  8
1
  6
Continuous
100
AcDbCircle
 10
18.97124786173674
 20
136.3648419101139
 30
0.0
 40
0.5000000237487168
100
AcDbArc
 50
180.0
 51
270.0000000000032
  0
LINE
  5
2817
330
18
100
AcDbEntity
  8
1
  6
Continuous
100
AcDbLine
 10
24.12124810634861
 20
143.3996326001575
 30
0.0
 11
24.42124735765833
 21
143.3996326001575
 31
0.0
  0
LINE
  5
2818
330
18
100
AcDbEntity
  8
1
  6
Continuous
100
AcDbLine
 10
23.97124809919843
 20
143.8746325749592
 30
0.0
 11
24.12124810634861
 21
143.8746325749592
 31
0.0
  0
LINE
  5
2819
330
18
100
AcDbEntity
  8
1
  6
Continuous
100
AcDbLine
 10
23.9712480991991
 20
142.8556624661013
 30
0.0
 11
24.12124810634861
 21
142.8556624661013
 31
0.0
  0
LINE
  5
281A
330
18
100
AcDbEntity
  8
1
  6
Continuous
100
AcDbLine
 10
23.971248099224
 20
142.0177131078227
 30
0.0
 11
24.12124810634861
 21
142.0177131078227
 31
0.0
  0
LINE
  5
281B
330
18
100
AcDbEntity
  8
1
  6
Continuous
100
AcDbLine
 10
23.9712480991991
 20
141.7696632521031
 30
0.0
 11
24.12124810634861
 21
141.7696632521031
 31
0.0
  0
LINE
  5
281C
330
18
100
AcDbEntity
  8
1
  6
Continuous
100
AcDbLine
 10
24.42124735765833
 20
137.8996323389215
 30
0.0
 11
24.12124810634861
 21
137.8996323389215
 31
0.0
  0
LINE
  5
281D
330
18
100
AcDbEntity
  8
1
  6
Continuous
100
AcDbLine
 10
23.97124809919876
 20
137.4246323641198
 30
0.0
 11
24.12124810634861
 21
137.4246323641198
 31
0.0
  0
LINE
  5
281E
330
18
100
AcDbEntity
  8
1
  6
Continuous
100
AcDbLine
 10
23.97124809919898
 20
136.503652251536
 30
0.0
 11
24.12124810634861
 21
136.503652251536
 31
0.0
  0
LINE
  5
281F
330
18
100
AcDbEntity
  8
1
  6
Continuous
100
AcDbLine
 10
23.97124809919876
 20
138.4436024729777
 30
0.0
 11
24.12124810634861
 21
138.4436024729777
 31
0.0
  0
LINE
  5
2820
330
18
100
AcDbEntity
  8
1
  6
Continuous
100
AcDbLine
 10
23.9712480991983
 20
139.5296016869759
 30
0.0
 11
24.12124810634861
 21
139.5296016869759
 31
0.0
  0
LINE
  5
2821
330
18
100
AcDbEntity
  8
1
  6
Continuous
100
AcDbLine
 10
23.9712480991983
 20
140.6496324695395
 30
0.0
 11
24.12124810634861
 21
140.6496324695395
 31
0.0
  0
LINE
  5
2822
330
18
100
AcDbEntity
  8
1
  6
Continuous
100
AcDbLine
 10
24.12124810634861
 20
140.6496324695395
 30
0.0
 11
24.12124810634861
 21
141.769663252103
 31
0.0
  0
LINE
  5
2823
330
18
100
AcDbEntity
  8
1
  6
Continuous
100
AcDbLine
 10
23.97124809919876
 20
134.2976222549742
 30
0.0
 11
24.12124810634861
 21
134.2976222549742
 31
0.0
  0
LINE
  5
2824
330
18
100
AcDbEntity
  8
1
  6
Continuous
100
AcDbLine
 10
23.97124809919853
 20
134.5886148673459
 30
0.0
 11
24.12124810634861
 21
134.5886148673459
 31
0.0
  0
LINE
  5
2825
330
18
100
AcDbEntity
  8
1
  6
Continuous
100
AcDbLine
 10
23.97124809919853
 20
135.063768432537
 30
0.0
 11
24.12124810634861
 21
135.063768432537
 31
0.0
  0
LINE
  5
2826
330
18
100
AcDbEntity
  8
1
  6
Continuous
100
AcDbLine
 10
23.97124809919898
 20
135.7086456499096
 30
0.0
 11
24.12124810634861
 21
135.7086456499096
 31
0.0
  0
LINE
  5
2828
330
18
100
AcDbEntity
  8
1
  6
Continuous
100
AcDbLine
 10
23.67124808497476
 20
133.8996321489317
 30
0.0
 11
22.97124805172654
 21
133.8996321489317
 31
0.0
  0
LINE
  5
2829
330
18
100
AcDbEntity
  8
1
  6
Continuous
100
AcDbLine
 10
22.97124805172654
 20
133.8996321489317
 30
0.0
 11
22.47114802797773
 21
134.5122546780239
 31
0.0
  0
LINE
  5
282A
330
18
100
AcDbEntity
  8
1
  6
Continuous
100
AcDbLine
 10
18.97124786173674
 20
135.8648418863651
 30
0.0
 11
22.47124802797782
 21
135.8648418863651
 31
0.0
  0
LINE
  5
282B
330
18
100
AcDbEntity
  8
1
  6
Continuous
100
AcDbLine
 10
28.1212475333989
 20
144.8496326690288
 30
0.0
 11
24.42124735765833
 21
144.5996326571544
 31
0.0
  0
LINE
  5
282C
330
18
100
AcDbEntity
  8
1
  6
Continuous
100
AcDbLine
 10
30.62124803929225
 20
150.2496913032375
 30
0.0
 11
30.62124803928887
 21
137.8496323365466
 31
0.0
  0
LINE
  5
282D
330
18
100
AcDbEntity
  8
1
  6
Continuous
100
AcDbLine
 10
29.12124796236616
 20
150.1454214607551
 30
0.0
 11
30.62124803929223
 21
150.1454214607551
 31
0.0
  0
ARC
  5
282E
330
18
100
AcDbEntity
  8
1
  6
Continuous
100
AcDbCircle
 10
30.92124804786158
 20
150.249632925515
 30
0.0
 40
0.3000000142492096
100
AcDbArc
 50
89.99999999942678
 51
179.9888506877259
  0
ARC
  5
282F
330
18
100
AcDbEntity
  8
1
  6
Continuous
100
AcDbCircle
 10
34.93318062688709
 20
161.1694886714662
 30
0.0
 40
11.01179345509075
100
AcDbArc
 50
254.6674722070343
 51
260.5292126234783
  0
LINE
  5
2830
330
18
100
AcDbEntity
  8
1
  6
Continuous
100
AcDbLine
 10
30.92124804786454
 20
150.5496329397643
 30
0.0
 11
32.0214355598497
 21
150.5496329397643
 31
0.0
  0
LINE
  5
2831
330
18
100
AcDbEntity
  8
1
  6
Continuous
100
AcDbLine
 10
29.12124796236616
 20
150.1454214607552
 30
0.0
 11
28.12124706693579
 21
149.0977086866096
 31
0.0
  0
ARC
  5
2832
330
18
100
AcDbEntity
  8
1
  6
Continuous
100
AcDbCircle
 10
18.97124724962378
 20
144.934423028965
 30
0.0
 40
0.5000000237487168
100
AcDbArc
 50
90.00000818510875
 51
180.0896537508019
  0
LINE
  5
2833
330
18
100
AcDbEntity
  8
1
  6
Continuous
100
AcDbLine
 10
18.9712471781952
 20
145.4344230527136
 30
0.0
 11
22.47124734443622
 21
145.4344235527138
 31
0.0
  0
LINE
  5
2834
330
18
100
AcDbEntity
  8
1
  6
Continuous
100
AcDbLine
 10
22.47124802797785
 20
146.7871327610551
 30
0.0
 11
22.97124805172654
 21
147.3996327901473
 31
0.0
  0
LINE
  5
2835
330
18
100
AcDbEntity
  8
1
  6
Continuous
100
AcDbLine
 10
23.97124809919843
 20
147.099632680379
 30
0.0
 11
24.12124810634864
 21
147.099632680379
 31
0.0
  0
ARC
  5
2836
330
18
100
AcDbEntity
  8
1
  6
Continuous
100
AcDbCircle
 10
23.67124808497476
 20
147.0996327758981
 30
0.0
 40
0.3000000142492439
100
AcDbArc
 50
0.000000000000007
 51
89.99999999999676
  0
LINE
  5
2837
330
18
100
AcDbEntity
  8
1
  6
Continuous
100
AcDbLine
 10
23.97124809919898
 20
147.0016426841048
 30
0.0
 11
24.12124810634861
 21
147.0016426841048
 31
0.0
  0
LINE
  5
2838
330
18
100
AcDbEntity
  8
1
  6
Continuous
100
AcDbLine
 10
23.97124809919898
 20
146.710650071733
 30
0.0
 11
24.12124810634861
 21
146.710650071733
 31
0.0
  0
LINE
  5
2839
330
18
100
AcDbEntity
  8
1
  6
Continuous
100
AcDbLine
 10
23.97124809919843
 20
146.2354965065418
 30
0.0
 11
24.12124810634861
 21
146.2354965065418
 31
0.0
  0
LINE
  5
283A
330
18
100
AcDbEntity
  8
1
  6
Continuous
100
AcDbLine
 10
23.97124809919843
 20
145.5906192891694
 30
0.0
 11
24.12124810634861
 21
145.5906192891694
 31
0.0
  0
LINE
  5
283B
330
18
100
AcDbEntity
  8
1
  6
Continuous
100
AcDbLine
 10
23.97124809919843
 20
144.795612687543
 30
0.0
 11
24.12124810634861
 21
144.795612687543
 31
0.0
  0
LINE
  5
283C
330
18
100
AcDbEntity
  8
1
  6
Continuous
100
AcDbLine
 10
22.97124805172654
 20
147.3996327901473
 30
0.0
 11
23.67124808497476
 21
147.3996327901473
 31
0.0
  0
LINE
  5
283D
330
18
100
AcDbEntity
  8
1
  6
Continuous
100
AcDbLine
 10
22.97124805172654
 20
147.3996327901473
 30
0.0
 11
22.97132968437961
 21
147.3997327901473
 31
0.0
  0
LINE
  5
283E
330
18
100
AcDbEntity
  8
1
  6
Continuous
100
AcDbLine
 10
46.12124876982273
 20
156.6496332294987
 30
0.0
 11
47.72124884581865
 21
156.6496332294987
 31
0.0
  0
ARC
  5
283F
330
18
100
AcDbEntity
  8
1
  6
Continuous
100
AcDbCircle
 10
272.492063236507
 20
145.105341965027
 30
0.0
 40
1.54620332066293
100
AcDbArc
 50
87.14994418194896
 51
177.1933232888232
  0
ARC
  5
2840
330
18
100
AcDbEntity
  8
1
  6
Continuous
100
AcDbCircle
 10
428.8822468376023
 20
3502.037709022591
 30
0.0
 40
3358.77979911264
100
AcDbArc
 50
267.4649714571235
 51
267.4775667986561
  0
LINE
  5
2841
330
18
100
AcDbEntity
  8
4
  6
CENTER
 48
0.2
100
AcDbLine
 10
323.9477170573612
 20
140.6496324695395
 30
0.0
 11
267.9477146824879
 21
140.6496324695395
 31
0.0
  0
LINE
  5
2845
330
18
100
AcDbEntity
  8
1
  6
Continuous
100
AcDbLine
 10
272.5689440943523
 20
134.6496321845548
 30
0.0
 11
280.3627865125818
 21
134.6496321845548
 31
0.0
  0
ARC
  5
2846
330
18
100
AcDbEntity
  8
1
  6
Continuous
100
AcDbCircle
 10
272.492063236507
 20
136.193922974052
 30
0.0
 40
1.54620332066293
100
AcDbArc
 50
182.8066767111767
 51
272.850055818051
  0
ARC
  5
2847
330
18
100
AcDbEntity
  8
1
  6
Continuous
100
AcDbCircle
 10
428.8822468376023
 20
-3220.738444083511
 30
0.0
 40
3358.77979911264
100
AcDbArc
 50
92.52243320134391
 51
92.53502854287651
  0
LINE
  5
2848
330
18
100
AcDbEntity
  8
4
  6
CENTER
 48
0.2
100
AcDbLine
 10
295.9477158699245
 20
121.6496317095802
 30
0.0
 11
295.9477158699245
 21
159.6496332294986
 31
0.0
  0
LINE
  5
2849
330
18
100
AcDbEntity
  8
1
  6
Continuous
100
AcDbLine
 10
319.3264876454969
 20
134.6496321845548
 30
0.0
 11
311.5326452272673
 21
134.6496321845548
 31
0.0
  0
LINE
  5
284A
330
18
100
AcDbEntity
  8
1
  6
Continuous
100
AcDbLine
 10
319.3264876454969
 20
146.6496327545242
 30
0.0
 11
311.5326452272673
 21
146.6496327545242
 31
0.0
  0
LINE
  5
284B
330
18
100
AcDbEntity
  8
1
  6
Continuous
100
AcDbLine
 10
320.9477170573612
 20
136.1182113334135
 30
0.0
 11
320.9477170573612
 21
145.1810536056654
 31
0.0
  0
ARC
  5
284C
330
18
100
AcDbEntity
  8
1
  6
Continuous
100
AcDbCircle
 10
319.4033685033421
 20
136.193922974052
 30
0.0
 40
1.54620332066293
100
AcDbArc
 50
267.1499441819489
 51
357.1933232888232
  0
ARC
  5
284D
330
18
100
AcDbEntity
  8
1
  6
Continuous
100
AcDbCircle
 10
319.4033685033421
 20
145.105341965027
 30
0.0
 40
1.54620332066293
100
AcDbArc
 50
2.80667671117678
 51
92.85005581805105
  0
ARC
  5
284E
330
18
100
AcDbEntity
  8
1
  6
Continuous
100
AcDbCircle
 10
295.9477158699245
 20
140.6496324695395
 30
0.0
 40
16.70000079320754
100
AcDbArc
 50
338.9439268188519
 51
21.05607318114812
  0
ARC
  5
284F
330
18
100
AcDbEntity
  8
1
  6
Continuous
100
AcDbCircle
 10
163.0131849022466
 20
-3220.738444083511
 30
0.0
 40
3358.77979911264
100
AcDbArc
 50
87.46497145712352
 51
87.47756679865609
  0
ARC
  5
2850
330
18
100
AcDbEntity
  8
1
  6
Continuous
100
AcDbCircle
 10
163.0131849022466
 20
3502.037709022591
 30
0.0
 40
3358.77979911264
100
AcDbArc
 50
272.5224332013439
 51
272.5350285428764
  0
ARC
  5
2851
330
18
100
AcDbEntity
  8
1
  6
Continuous
100
AcDbCircle
 10
294.8977158200522
 20
144.8194647985099
 30
0.0
 40
0.3000000142492335
100
AcDbArc
 50
356.3015267926521
 51
0.000000000000007
  0
LINE
  5
2852
330
18
100
AcDbEntity
  8
1
  6
Continuous
100
AcDbLine
 10
296.6977159055476
 20
145.1344230384646
 30
0.0
 11
296.6977159055476
 21
141.6496325170369
 31
0.0
  0
ARC
  5
2853
330
18
100
AcDbEntity
  8
1
  6
Continuous
100
AcDbCircle
 10
295.9477158699245
 20
140.6496324695395
 30
0.0
 40
4.000000189989809
100
AcDbArc
 50
284.1337367207047
 51
75.8662632792969
  0
ARC
  5
2854
330
18
100
AcDbEntity
  8
1
  6
Continuous
100
AcDbCircle
 10
296.9977159197969
 20
144.8194647985099
 30
0.0
 40
0.3000000142492335
100
AcDbArc
 50
180.0
 51
183.6984732073478
  0
ARC
  5
2855
330
18
100
AcDbEntity
  8
1
  6
Continuous
100
AcDbCircle
 10
296.9977159197969
 20
145.1344230384646
 30
0.0
 40
0.3000000142492345
100
AcDbArc
 50
90.0
 51
180.0
  0
ARC
  5
2856
330
18
100
AcDbEntity
  8
1
  6
Continuous
100
AcDbCircle
 10
296.9977159197969
 20
144.8194647985099
 30
0.0
 40
0.3000000142492326
100
AcDbArc
 50
183.6757588470108
 51
255.8662632792877
  0
ARC
  5
2857
330
18
100
AcDbEntity
  8
1
  6
Continuous
100
AcDbCircle
 10
296.9977159197969
 20
136.1648419006143
 30
0.0
 40
0.3000000142492345
100
AcDbArc
 50
180.0
 51
270.0000000000065
  0
ARC
  5
2858
330
18
100
AcDbEntity
  8
1
  6
Continuous
100
AcDbCircle
 10
296.9977159197969
 20
136.4798001405691
 30
0.0
 40
0.3000000142492335
100
AcDbArc
 50
104.1337367206779
 51
176.301672904309
  0
LINE
  5
285B
330
18
100
AcDbEntity
  8
1
  6
Continuous
100
AcDbLine
 10
296.6977159055476
 20
139.649632422042
 30
0.0
 11
296.6977159055476
 21
136.1648419006143
 31
0.0
  0
ARC
  5
285C
330
18
100
AcDbEntity
  8
1
  6
Continuous
100
AcDbCircle
 10
297.1977159292963
 20
139.649632422042
 30
0.0
 40
0.5000000237487252
100
AcDbArc
 50
90.0
 51
180.0
  0
ARC
  5
285D
330
18
100
AcDbEntity
  8
1
  6
Continuous
100
AcDbCircle
 10
297.1977159292963
 20
141.6496325170369
 30
0.0
 40
0.5000000237487257
100
AcDbArc
 50
180.0
 51
270.0000000759734
  0
ARC
  5
285E
330
18
100
AcDbEntity
  8
1
  6
Continuous
100
AcDbCircle
 10
296.4398033654518
 20
137.4002021132814
 30
0.0
 40
7.500480526418672
100
AcDbArc
 50
251.2058294152436
 51
258.5254725398051
  0
ARC
  5
285F
330
18
100
AcDbEntity
  8
1
  6
Continuous
100
AcDbCircle
 10
295.455628374397
 20
137.4002021132811
 30
0.0
 40
7.500480526418455
100
AcDbArc
 50
281.4745274602013
 51
288.7941705847585
  0
ARC
  5
2860
330
18
100
AcDbEntity
  8
1
  6
Continuous
100
AcDbCircle
 10
295.9477158699245
 20
140.6496324695395
 30
0.0
 40
10.18800048390404
100
AcDbArc
 50
348.975924042126
 51
11.02407595787075
  0
ARC
  5
2861
330
18
100
AcDbEntity
  8
2
  6
Continuous
100
AcDbCircle
 10
295.9477158699227
 20
140.6496324695392
 30
0.0
 40
10.18800048390212
100
AcDbArc
 50
192.3259189464273
 51
257.6740810535832
  0
ARC
  5
2862
330
18
100
AcDbEntity
  8
2
  6
Continuous
100
AcDbCircle
 10
295.9477158699264
 20
140.6496324695397
 30
0.0
 40
10.18800048390212
100
AcDbArc
 50
12.32591894642676
 51
77.67408105358325
  0
ARC
  5
2863
330
18
100
AcDbEntity
  8
2
  6
Continuous
100
AcDbCircle
 10
295.9477158699264
 20
140.6496324695392
 30
0.0
 40
10.18800048390212
100
AcDbArc
 50
282.3259189464167
 51
347.6740810535726
  0
ARC
  5
2864
330
18
100
AcDbEntity
  8
1
  6
Continuous
100
AcDbCircle
 10
295.9477158699247
 20
140.6496324695395
 30
0.0
 40
10.18800048390404
100
AcDbArc
 50
168.9759240421292
 51
191.024075957874
  0
CIRCLE
  5
2865
330
18
100
AcDbEntity
  8
1
  6
Continuous
100
AcDbCircle
 10
295.9477158699245
 20
140.6496324695395
 30
0.0
 40
6.137500291515642
  0
CIRCLE
  5
2866
330
18
100
AcDbEntity
  8
1
  6
Continuous
100
AcDbCircle
 10
295.9477158699245
 20
140.6496324695395
 30
0.0
 40
6.750000320607795
  0
LINE
  5
297F
330
18
100
AcDbEntity
  8
1
  6
Continuous
100
AcDbLine
 10
111.3916725411783
 20
145.3354966139504
 30
0.0
 11
111.3916725411783
 21
135.9627258185577
 31
0.0
  0
LINE
  5
2980
330
18
100
AcDbEntity
  8
1
  6
Continuous
100
AcDbLine
 10
142.7997960823572
 20
145.3354966139504
 30
0.0
 11
142.7997960823572
 21
135.9627258185577
 31
0.0
  0
LINE
  5
29AE
330
18
100
AcDbEntity
  8
1
  6
Continuous
100
AcDbLine
 10
142.7205736095797
 20
210.4218043157693
 30
0.0
 11
137.8897587267095
 21
206.4218041257819
 31
0.0
  0
LINE
  5
29AF
330
18
100
AcDbEntity
  8
1
  6
Continuous
100
AcDbLine
 10
142.7052000780951
 20
211.1922154983042
 30
0.0
 11
139.825818898977
 21
208.0248962012738
 31
0.0
  0
LINE
  5
29B0
330
18
100
AcDbEntity
  8
1
  6
Continuous
100
AcDbLine
 10
142.6806636691089
 20
212.4218044107665
 30
0.0
 11
142.7205736095826
 21
210.4218043157718
 31
0.0
  0
LINE
  5
29B1
330
18
100
AcDbEntity
  8
1
  6
Continuous
100
AcDbLine
 10
134.7882674800248
 20
206.4218041257819
 30
0.0
 11
137.8897587267095
 21
206.4218041257819
 31
0.0
  0
LINE
  5
29B2
330
18
100
AcDbEntity
  8
1
  6
Continuous
100
AcDbLine
 10
137.4957348057413
 20
207.2218037823101
 30
0.0
 11
137.4957348057413
 21
206.4218041271269
 31
0.0
  0
LINE
  5
29B3
330
18
100
AcDbEntity
  8
1
  6
Continuous
100
AcDbLine
 10
152.0957354992044
 20
68.87746052831238
 30
0.0
 11
142.6806636691105
 21
68.87746052831236
 31
0.0
  0
LINE
  5
29B4
330
18
100
AcDbEntity
  8
1
  6
Continuous
100
AcDbLine
 10
152.0957354992044
 20
68.87746052831238
 30
0.0
 11
143.9067908598201
 21
86.2562208185607
 31
0.0
  0
LINE
  5
29B5
330
18
100
AcDbEntity
  8
1
  6
Continuous
100
AcDbLine
 10
138.8559212425817
 20
74.07746115676886
 30
0.0
 11
115.3355473809539
 21
74.0774611567688
 31
0.0
  0
LINE
  5
29B6
330
18
100
AcDbEntity
  8
1
  6
Continuous
100
AcDbLine
 10
119.4032011435108
 20
74.87746081329706
 30
0.0
 11
116.3017098968261
 21
74.87746081329706
 31
0.0
  0
LINE
  5
29B7
330
18
100
AcDbEntity
  8
1
  6
Continuous
100
AcDbLine
 10
115.0957337417983
 20
67.27746083378615
 30
0.0
 11
139.0957348817373
 21
67.27746083378615
 31
0.0
  0
LINE
  5
29B8
330
18
100
AcDbEntity
  8
1
  6
Continuous
100
AcDbLine
 10
143.0957350717269
 20
68.07746087178411
 30
0.0
 11
111.0957335518086
 21
68.07746087178411
 31
0.0
  0
LINE
  5
29B9
330
18
100
AcDbEntity
  8
1
  6
Continuous
100
AcDbLine
 10
111.494840970625
 20
69.67746094778004
 30
0.0
 11
142.6966276529106
 21
69.67746094778004
 31
0.0
  0
LINE
  5
29BA
330
18
100
AcDbEntity
  8
1
  6
Continuous
100
AcDbLine
 10
111.4708950139559
 20
70.87746062330964
 30
0.0
 11
116.3017098968261
 21
74.87746081329706
 31
0.0
  0
LINE
  5
29BB
330
18
100
AcDbEntity
  8
1
  6
Continuous
100
AcDbLine
 10
111.4862685454404
 20
70.10704944077478
 30
0.0
 11
114.3656497245585
 21
73.27436873780519
 31
0.0
  0
LINE
  5
29BC
330
18
100
AcDbEntity
  8
1
  6
Continuous
100
AcDbLine
 10
110.2846777637173
 20
86.25622081856361
 30
0.0
 11
102.0957331243315
 21
68.87746052831236
 31
0.0
  0
LINE
  5
29BD
330
18
100
AcDbEntity
  8
1
  6
Continuous
100
AcDbLine
 10
116.4345565471526
 20
74.877460812001
 30
0.0
 11
115.909588265358
 21
86.5558866847069
 31
0.0
  0
LINE
  5
29BE
330
18
100
AcDbEntity
  8
1
  6
Continuous
100
AcDbLine
 10
116.6957338177943
 20
74.07746115676878
 30
0.0
 11
116.6957338177943
 21
74.87746081195206
 31
0.0
  0
LINE
  5
29BF
330
18
100
AcDbEntity
  8
1
  6
Continuous
100
AcDbLine
 10
111.5108049544251
 20
68.87746052831236
 30
0.0
 11
102.0957331243315
 21
68.87746052831236
 31
0.0
  0
LINE
  5
29C0
330
18
100
AcDbEntity
  8
1
  6
Continuous
100
AcDbLine
 10
115.0957337417984
 20
68.07746087178411
 30
0.0
 11
115.0957337417984
 21
67.27746083378615
 31
0.0
  0
LINE
  5
29C1
330
18
100
AcDbEntity
  8
1
  6
Continuous
100
AcDbLine
 10
111.0957335518086
 20
68.07746087178411
 30
0.0
 11
111.0957335518086
 21
68.87746052831241
 31
0.0
  0
LINE
  5
29C2
330
18
100
AcDbEntity
  8
1
  6
Continuous
100
AcDbLine
 10
111.5108049544267
 20
68.87746052831244
 30
0.0
 11
111.470895013953
 21
70.87746062330717
 31
0.0
  0
LINE
  5
29C3
330
18
100
AcDbEntity
  8
1
  6
Continuous
100
AcDbLine
 10
142.7052000780951
 20
70.10704944077478
 30
0.0
 11
139.825818898977
 21
73.27436873780519
 31
0.0
  0
LINE
  5
29C4
330
18
100
AcDbEntity
  8
1
  6
Continuous
100
AcDbLine
 10
142.7205736095797
 20
70.87746062330964
 30
0.0
 11
137.8897587267095
 21
74.87746081329706
 31
0.0
  0
LINE
  5
29C5
330
18
100
AcDbEntity
  8
1
  6
Continuous
100
AcDbLine
 10
137.756912076383
 20
74.877460812001
 30
0.0
 11
138.2818803581775
 21
86.5558866847069
 31
0.0
  0
LINE
  5
29C6
330
18
100
AcDbEntity
  8
1
  6
Continuous
100
AcDbLine
 10
137.4957348057413
 20
74.07746115676883
 30
0.0
 11
137.4957348057413
 21
74.87746081195206
 31
0.0
  0
LINE
  5
29C7
330
18
100
AcDbEntity
  8
1
  6
Continuous
100
AcDbLine
 10
134.7882674800248
 20
74.87746081329706
 30
0.0
 11
137.8897587267095
 21
74.87746081329706
 31
0.0
  0
LINE
  5
29C8
330
18
100
AcDbEntity
  8
1
  6
Continuous
100
AcDbLine
 10
120.911075579586
 20
68.07746087178411
 30
0.0
 11
120.9110755795859
 21
67.27746083378615
 31
0.0
  0
LINE
  5
29C9
330
18
100
AcDbEntity
  8
1
  6
Continuous
100
AcDbLine
 10
139.0957348817373
 20
68.07746087178411
 30
0.0
 11
139.0957348817373
 21
67.27746083378615
 31
0.0
  0
LINE
  5
29CA
330
18
100
AcDbEntity
  8
1
  6
Continuous
100
AcDbLine
 10
133.2803930439495
 20
68.07746087178411
 30
0.0
 11
133.2803930439496
 21
67.27746083378615
 31
0.0
  0
LINE
  5
29CB
330
18
100
AcDbEntity
  8
1
  6
Continuous
100
AcDbLine
 10
142.6806636691089
 20
68.87746052831244
 30
0.0
 11
142.7205736095826
 21
70.87746062330717
 31
0.0
  0
LINE
  5
29CC
330
18
100
AcDbEntity
  8
1
  6
Continuous
100
AcDbLine
 10
143.095735071727
 20
68.87746052831244
 30
0.0
 11
143.095735071727
 21
68.07746087178411
 31
0.0
  0
LINE
  5
29CD
330
18
100
AcDbEntity
  8
1
  6
Continuous
100
AcDbLine
 10
141.1929789778309
 20
87.97746143551369
 30
0.0
 11
112.9984896456946
 21
87.97746143551369
 31
0.0
  0
ARC
  5
29CE
330
18
100
AcDbEntity
  8
1
  6
Continuous
100
AcDbCircle
 10
112.9984896456946
 20
84.97746129302138
 30
0.0
 40
3.000000142492316
100
AcDbArc
 50
90.00000000000005
 51
154.7699923983389
  0
LINE
  5
29CF
330
18
100
AcDbEntity
  8
1
  6
Continuous
100
AcDbLine
 10
119.0457287030726
 20
88.62746147230195
 30
0.0
 11
135.1457346941223
 21
88.62746147230195
 31
0.0
  0
ARC
  5
29D0
330
18
100
AcDbEntity
  8
1
  6
Continuous
100
AcDbCircle
 10
119.0457339294133
 20
88.32746145809824
 30
0.0
 40
0.3000000142492325
100
AcDbArc
 50
90.00049907875489
 51
180.0000000000085
  0
LINE
  5
29D1
330
18
100
AcDbEntity
  8
1
  6
Continuous
100
AcDbLine
 10
118.7457339151641
 20
87.97746143551369
 30
0.0
 11
118.7457339151641
 21
88.32746145809819
 31
0.0
  0
LINE
  5
29D2
330
18
100
AcDbEntity
  8
1
  6
Continuous
100
AcDbLine
 10
135.4457347083715
 20
88.32746145809819
 30
0.0
 11
135.4457347083715
 21
87.97746143551369
 31
0.0
  0
ARC
  5
29D3
330
18
100
AcDbEntity
  8
1
  6
Continuous
100
AcDbCircle
 10
135.1457346941223
 20
88.32746145809824
 30
0.0
 40
0.3000000142492325
100
AcDbArc
 50
359.9999999999913
 51
90.00000000000005
  0
ARC
  5
29D4
330
18
100
AcDbEntity
  8
1
  6
Continuous
100
AcDbCircle
 10
141.1929789778409
 20
84.97746129302134
 30
0.0
 40
3.000000142492317
100
AcDbArc
 50
25.23000835255193
 51
90.00000244500119
  0
LINE
  5
29D6
330
18
100
AcDbEntity
  8
1
  6
Continuous
100
AcDbLine
 10
52.16124588045902
 20
130.249631975566
 30
0.0
 11
52.12124905480743
 21
130.233426710504
 31
0.0
  0
LINE
  5
29D7
330
18
100
AcDbEntity
  8
1
  6
Continuous
100
AcDbLine
 10
207.2702201971844
 20
134.6496321845549
 30
0.0
 11
207.2702201971844
 21
146.6496327545241
 31
0.0
  0
LINE
  5
29D8
330
18
100
AcDbEntity
  8
1
  6
Continuous
100
AcDbLine
 10
208.0702198537129
 20
124.64963170958
 30
0.0
 11
208.0702198537129
 21
156.6496332294986
 31
0.0
  0
LINE
  5
29D9
330
18
100
AcDbEntity
  8
1
  6
Continuous
100
AcDbLine
 10
187.5202192587263
 20
148.699690696916
 30
0.0
 11
187.5202192587263
 21
132.5995742419974
 31
0.0
  0
ARC
  5
29DB
330
18
100
AcDbEntity
  8
1
  6
Continuous
100
AcDbCircle
 10
189.6765911801217
 20
144.2281746837053
 30
0.0
 40
1.498864823859708
100
AcDbArc
 50
91.38766381630407
 51
180.0702060588615
  0
LINE
  5
29DC
330
18
100
AcDbEntity
  8
1
  6
Continuous
100
AcDbLine
 10
189.6402932683445
 20
135.5726650080546
 30
0.0
 11
207.2702201971844
 21
134.6496321845549
 31
0.0
  0
LINE
  5
29DD
330
18
100
AcDbEntity
  8
1
  6
Continuous
100
AcDbLine
 10
189.6702162107868
 20
130.249631975566
 30
0.0
 11
202.0302227430766
 21
130.249631975566
 31
0.0
  0
LINE
  5
29DE
330
18
100
AcDbEntity
  8
1
  6
Continuous
100
AcDbLine
 10
206.470219777717
 20
124.6496317095801
 30
0.0
 11
206.470219777717
 21
134.6915170232702
 31
0.0
  0
LINE
  5
29DF
330
18
100
AcDbEntity
  8
1
  6
Continuous
100
AcDbLine
 10
202.0702195687282
 20
134.9178537992809
 30
0.0
 11
202.0702195687282
 21
128.6496318995696
 31
0.0
  0
LINE
  5
29E0
330
18
100
AcDbEntity
  8
1
  6
Continuous
100
AcDbLine
 10
206.470219777717
 20
124.6496317095802
 30
0.0
 11
202.0701195687281
 21
128.6497228086605
 31
0.0
  0
LINE
  5
29E1
330
18
100
AcDbEntity
  8
1
  6
Continuous
100
AcDbLine
 10
208.0702198537129
 20
124.64963170958
 30
0.0
 11
206.470219777717
 21
124.64963170958
 31
0.0
  0
LINE
  5
29E2
330
18
100
AcDbEntity
  8
1
  6
Continuous
100
AcDbLine
 10
202.0302227430766
 20
130.249631975566
 30
0.0
 11
202.0702195687282
 21
130.233426710504
 31
0.0
  0
LINE
  5
29E4
330
18
100
AcDbEntity
  8
1
  6
Continuous
100
AcDbLine
 10
188.1702192899833
 20
131.7493869993981
 30
0.0
 11
188.1702192899833
 21
149.5496328922668
 31
0.0
  0
ARC
  5
29E5
330
18
100
AcDbEntity
  8
1
  6
Continuous
100
AcDbCircle
 10
189.6702193612295
 20
131.7496320468122
 30
0.0
 40
1.500000071246175
100
AcDbArc
 50
180.0093601213334
 51
269.999879661962
  0
LINE
  5
29E6
330
18
100
AcDbEntity
  8
1
  6
Continuous
100
AcDbLine
 10
187.8202192673987
 20
132.2996320729358
 30
0.0
 11
188.1702193099994
 21
132.2996320729358
 31
0.0
  0
ARC
  5
29E7
330
18
100
AcDbEntity
  8
1
  6
Continuous
100
AcDbCircle
 10
187.8202192673986
 20
132.599632087185
 30
0.0
 40
0.3000000142492325
100
AcDbArc
 50
180.0110475831525
 51
270.0000000000096
  0
LINE
  5
29E8
330
18
100
AcDbEntity
  8
1
  6
Continuous
100
AcDbLine
 10
188.1777274814792
 20
144.2263380848038
 30
0.0
 11
188.1702192899833
 21
144.2261122137151
 31
0.0
  0
LINE
  5
29E9
330
18
100
AcDbEntity
  8
1
  6
Continuous
100
AcDbLine
 10
188.1777274814791
 20
137.0729268542755
 30
0.0
 11
188.1702192899832
 21
137.0731527253643
 31
0.0
  0
ARC
  5
29EA
330
18
100
AcDbEntity
  8
1
  6
Continuous
100
AcDbCircle
 10
189.6765911801217
 20
137.0710902553739
 30
0.0
 40
1.498864823859708
100
AcDbArc
 50
179.9297939411368
 51
268.6123361833655
  0
LINE
  5
29EB
330
18
100
AcDbEntity
  8
1
  6
Continuous
100
AcDbLine
 10
207.2702201971844
 20
146.6496327545241
 30
0.0
 11
189.6402932683533
 21
145.7265999310249
 31
0.0
  0
LINE
  5
29EC
330
18
100
AcDbEntity
  8
1
  6
Continuous
100
AcDbLine
 10
202.0302227430768
 20
151.049632963513
 30
0.0
 11
189.6702153908696
 21
151.049632963513
 31
0.0
  0
LINE
  5
29ED
330
18
100
AcDbEntity
  8
1
  6
Continuous
100
AcDbLine
 10
206.470219777717
 20
156.6496332294985
 30
0.0
 11
202.0701195687281
 21
152.6495421304182
 31
0.0
  0
LINE
  5
29EE
330
18
100
AcDbEntity
  8
1
  6
Continuous
100
AcDbLine
 10
206.470219777717
 20
156.6496332294986
 30
0.0
 11
206.470219777717
 21
146.6077479158085
 31
0.0
  0
LINE
  5
29EF
330
18
100
AcDbEntity
  8
1
  6
Continuous
100
AcDbLine
 10
202.0303408250422
 20
151.049632963513
 30
0.0
 11
202.030322381216
 21
151.049632963513
 31
0.0
  0
LINE
  5
29F0
330
18
100
AcDbEntity
  8
1
  6
Continuous
100
AcDbLine
 10
202.0702195687282
 20
146.3814111397978
 30
0.0
 11
202.0702195687282
 21
152.6496330395091
 31
0.0
  0
LINE
  5
29F1
330
18
100
AcDbEntity
  8
1
  6
Continuous
100
AcDbLine
 10
202.0302227430768
 20
151.049632963513
 30
0.0
 11
202.0702195687282
 21
151.0658382285749
 31
0.0
  0
LINE
  5
29F2
330
18
100
AcDbEntity
  8
1
  6
Continuous
100
AcDbLine
 10
208.0702198537129
 20
156.6496332294987
 30
0.0
 11
206.470219777717
 21
156.6496332294987
 31
0.0
  0
LINE
  5
29F3
330
18
100
AcDbEntity
  8
1
  6
Continuous
100
AcDbLine
 10
188.1702192934629
 20
148.9996328661432
 30
0.0
 11
187.8202192673987
 21
148.9996328661432
 31
0.0
  0
ARC
  5
29F4
330
18
100
AcDbEntity
  8
1
  6
Continuous
100
AcDbCircle
 10
187.8202192673986
 20
148.699632851894
 30
0.0
 40
0.3000000142492325
100
AcDbArc
 50
89.99999999999024
 51
179.9995009212429
  0
ARC
  5
29F5
330
18
100
AcDbEntity
  8
1
  6
Continuous
100
AcDbCircle
 10
189.6702193612295
 20
149.5496328922668
 30
0.0
 40
1.500000071246184
100
AcDbArc
 50
90.00015165656281
 51
180.0
  0
LINE
  5
29F6
330
18
100
AcDbEntity
  8
1
  6
Continuous
100
AcDbLine
 10
208.8702198917109
 20
152.6496330395089
 30
0.0
 11
208.8702198917109
 21
128.64963189957
 31
0.0
  0
LINE
  5
29F7
330
18
100
AcDbEntity
  8
1
  6
Continuous
100
AcDbLine
 10
208.0702198537129
 20
128.64963189957
 30
0.0
 11
208.8702198917109
 21
128.64963189957
 31
0.0
  0
LINE
  5
29F8
330
18
100
AcDbEntity
  8
1
  6
Continuous
100
AcDbLine
 10
208.0702198537129
 20
134.4649737373577
 30
0.0
 11
208.8702198917109
 21
134.4649737373577
 31
0.0
  0
LINE
  5
29F9
330
18
100
AcDbEntity
  8
1
  6
Continuous
100
AcDbLine
 10
208.0702198537129
 20
152.6496330395089
 30
0.0
 11
208.8702198917109
 21
152.6496330395089
 31
0.0
  0
LINE
  5
29FA
330
18
100
AcDbEntity
  8
1
  6
Continuous
100
AcDbLine
 10
208.0702198537129
 20
146.8342912017213
 30
0.0
 11
208.8702198917109
 21
146.8342912017213
 31
0.0
  0
LINE
  5
2A1C
330
18
100
AcDbEntity
  8
2
  6
Continuous
100
AcDbLine
 10
229.7702212658773
 20
138.1701323389215
 30
0.0
 11
230.0702208986568
 21
138.1701323389215
 31
0.0
  0
LINE
  5
2A1D
330
18
100
AcDbEntity
  8
2
  6
Continuous
100
AcDbLine
 10
230.0702208986568
 20
143.1291326001574
 30
0.0
 11
229.7702212658773
 21
143.1291326001574
 31
0.0
  0
LINE
  5
2A1E
330
18
100
AcDbEntity
  8
2
  6
Continuous
100
AcDbLine
 10
24.12124772487885
 20
143.1291326001574
 30
0.0
 11
24.42124735765833
 21
143.1291326001574
 31
0.0
  0
LINE
  5
2A1F
330
18
100
AcDbEntity
  8
2
  6
Continuous
100
AcDbLine
 10
24.42124735765833
 20
138.1701323389215
 30
0.0
 11
24.12124772487885
 21
138.1701323389215
 31
0.0
  0
LINE
  5
2A20
330
18
100
AcDbEntity
  8
2
  6
Continuous
100
AcDbLine
 10
124.6162341811497
 20
235.2218051122388
 30
0.0
 11
124.6162341811497
 21
234.9218054794593
 31
0.0
  0
LINE
  5
2A21
330
18
100
AcDbEntity
  8
2
  6
Continuous
100
AcDbLine
 10
129.5752344423859
 20
235.2218051122388
 30
0.0
 11
129.5752344423859
 21
234.9218054794593
 31
0.0
  0
LINE
  5
2A22
330
18
100
AcDbEntity
  8
2
  6
Continuous
100
AcDbLine
 10
124.6162341811497
 20
46.07745982684019
 30
0.0
 11
124.6162341811497
 21
46.37745945961967
 31
0.0
  0
LINE
  5
2A23
330
18
100
AcDbEntity
  8
2
  6
Continuous
100
AcDbLine
 10
129.5752344423859
 20
46.07745982684019
 30
0.0
 11
129.5752344423859
 21
46.37745945961967
 31
0.0
  0
LINE
  5
2BF2
330
18
100
AcDbEntity
  8
1
  6
Continuous
100
AcDbLine
 10
30.42124764264309
 20
137.8496323365466
 30
0.0
 11
30.42124764264315
 21
148.0496328210206
 31
0.0
  0
LINE
  5
2BF4
330
18
100
AcDbEntity
  8
1
  6
Continuous
100
AcDbLine
 10
30.42124764264315
 20
147.6073623147335
 30
0.0
 11
30.12124800986362
 21
147.6073623147335
 31
0.0
  0
LINE
  5
2BF5
330
18
100
AcDbEntity
  8
1
  6
Continuous
100
AcDbLine
 10
30.12124800986362
 20
147.6073623147335
 30
0.0
 11
30.12124800986351
 21
146.5496327497744
 31
0.0
  0
LINE
  5
2BF6
330
18
100
AcDbEntity
  8
1
  6
Continuous
100
AcDbLine
 10
30.62124803361224
 20
148.0496328210206
 30
0.0
 11
30.42124764264315
 21
148.0496328210206
 31
0.0
  0
LINE
  5
2BF8
330
18
100
AcDbEntity
  8
1
  6
Continuous
100
AcDbLine
 10
30.42124764264309
 20
146.5496327497744
 30
0.0
 11
28.1212475333989
 21
146.5496327497744
 31
0.0
  0
LINE
  5
2BF9
330
18
100
AcDbEntity
  8
1
  6
Continuous
100
AcDbLine
 10
30.62124803928887
 20
137.8496323365466
 30
0.0
 11
28.1212475333989
 21
137.8496323365466
 31
0.0
  0
ENDSEC
  0
SECTION
  2
OBJECTS
  0
DICTIONARY
  5
C
330
0
100
AcDbDictionary
281
     1
  3
ACAD_CIP_PREVIOUS_PRODUCT_INFO
350
2C79
  3
ACAD_COLOR
350
2C5C
  3
ACAD_DETAILVIEWSTYLE
350
2C75
  3
ACAD_GROUP
350
D
  3
ACAD_LAYOUT
350
94
  3
ACAD_MATERIAL
350
2C2A
  3
ACAD_MLEADERSTYLE
350
2C71
  3
ACAD_MLINESTYLE
350
1B
  3
ACAD_PLOTSETTINGS
350
95
  3
ACAD_PLOTSTYLENAME
350
2C28
  3
ACAD_SCALELIST
350
2C5F
  3
ACAD_SECTIONVIEWSTYLE
350
2C73
  3
ACAD_TABLESTYLE
350
2C5D
  3
ACAD_VISUALSTYLE
350
2C43
  3
ACDB_RECOMPOSE_DATA
350
2C97
  3
AcDbVariableDictionary
350
2C8A
  3
CONTENTDICTIONARY
350
3D
  3
DWGPROPS
350
2C98
  0
DICTIONARY
  5
2C7A
330
E
100
AcDbDictionary
280
     1
281
     1
  3
ADSK_XREC_LAYER_RECONCILED
360
2C7B
  0
DICTIONARY
  5
2C7C
330
4E
100
AcDbDictionary
280
     1
281
     1
  3
ADSK_XREC_LAYER_RECONCILED
360
2C7D
  0
DICTIONARY
  5
2C7E
330
4F
100
AcDbDictionary
280
     1
281
     1
  3
ADSK_XREC_LAYER_RECONCILED
360
2C7F
  0
DICTIONARY
  5
2C80
330
50
100
AcDbDictionary
280
     1
281
     1
  3
ADSK_XREC_LAYER_RECONCILED
360
2C81
  0
DICTIONARY
  5
2C82
330
51
100
AcDbDictionary
280
     1
281
     1
  3
ADSK_XREC_LAYER_RECONCILED
360
2C83
  0
DICTIONARY
  5
2C84
330
52
100
AcDbDictionary
280
     1
281
     1
  3
ADSK_XREC_LAYER_RECONCILED
360
2C85
  0
DICTIONARY
  5
2C86
330
53
100
AcDbDictionary
280
     1
281
     1
  3
ADSK_XREC_LAYER_RECONCILED
360
2C87
  0
DICTIONARY
  5
2C88
330
54
100
AcDbDictionary
280
     1
281
     1
  3
ADSK_XREC_LAYER_RECONCILED
360
2C89
  0
DICTIONARY
  5
2C23
330
18
100
AcDbDictionary
281
     1
  3
ACAD_LAYOUTSELFREF
350
2C24
  0
DICTIONARY
  5
2C21
330
15
100
AcDbDictionary
281
     1
  3
ACAD_LAYOUTSELFREF
350
2C22
  0
XRECORD
  5
2C79
102
{ACAD_REACTORS
330
C
102
}
330
C
100
AcDbXrecord
280
     1
300
ACDLT
300
2014
300
ACDLT_F_S
  0
DICTIONARY
  5
2C5C
102
{ACAD_REACTORS
330
C
102
}
330
C
100
AcDbDictionary
281
     1
  0
DICTIONARY
  5
2C75
102
{ACAD_REACTORS
330
C
102
}
330
C
100
AcDbDictionary
281
     1
  3
Imperial24
350
2C76
  0
DICTIONARY
  5
D
102
{ACAD_REACTORS
330
C
102
}
330
C
100
AcDbDictionary
281
     1
  0
DICTIONARY
  5
94
102
{ACAD_REACTORS
330
C
102
}
330
C
100
AcDbDictionary
281
     1
  3
Model
350
2C77
  3
レイアウト1
350
2C78
  0
DICTIONARY
  5
2C2A
102
{ACAD_REACTORS
330
C
102
}
330
C
100
AcDbDictionary
281
     1
  3
ByBlock
350
2C33
  3
ByLayer
350
2C2B
  3
Global
350
2C3B
  0
DICTIONARY
  5
2C71
102
{ACAD_REACTORS
330
C
102
}
330
C
100
AcDbDictionary
281
     1
  3
Standard
350
2C72
  0
DICTIONARY
  5
1B
102
{ACAD_REACTORS
330
C
102
}
330
C
100
AcDbDictionary
281
     1
  3
STANDARD
350
1C
  0
DICTIONARY
  5
95
102
{ACAD_REACTORS
330
C
102
}
330
C
100
AcDbDictionary
281
     1
  0
ACDBDICTIONARYWDFLT
  5
2C28
102
{ACAD_REACTORS
330
C
102
}
330
C
100
AcDbDictionary
281
     1
  3
Normal
350
2C29
100
AcDbDictionaryWithDefault
340
2C29
  0
DICTIONARY
  5
2C5F
102
{ACAD_REACTORS
330
C
102
}
330
C
100
AcDbDictionary
281
     1
  3
A0
350
2C60
  3
A1
350
2C61
  3
A2
350
2C62
  3
A3
350
2C63
  3
A4
350
2C64
  3
A5
350
2C65
  3
A6
350
2C66
  3
A7
350
2C67
  3
A8
350
2C68
  3
A9
350
2C69
  3
B0
350
2C6A
  3
B1
350
2C6B
  3
B2
350
2C6C
  3
B3
350
2C6D
  3
B4
350
2C6E
  3
B5
350
2C6F
  3
B6
350
2C70
  0
DICTIONARY
  5
2C73
102
{ACAD_REACTORS
330
C
102
}
330
C
100
AcDbDictionary
281
     1
  3
Imperial24
350
2C74
  0
DICTIONARY
  5
2C5D
102
{ACAD_REACTORS
330
C
102
}
330
C
100
AcDbDictionary
281
     1
  3
Standard
350
2C5E
  0
DICTIONARY
  5
2C43
102
{ACAD_REACTORS
330
C
102
}
330
C
100
AcDbDictionary
281
     1
  3
2dWireframe
350
2C49
  3
Basic
350
2C48
  3
Brighten
350
2C4F
  3
ColorChange
350
2C53
  3
Conceptual
350
2C4C
  3
Dim
350
2C4E
  3
EdgeColorOff
350
2C5B
  3
Facepattern
350
2C52
  3
Flat
350
2C44
  3
FlatWithEdges
350
2C45
  3
Gouraud
350
2C46
  3
GouraudWithEdges
350
2C47
  3
Hidden
350
2C4B
  3
JitterOff
350
2C59
  3
Linepattern
350
2C51
  3
OverhangOff
350
2C5A
  3
Realistic
350
2C4D
  3
Shaded
350
2C58
  3
Shaded with edges
350
2C57
  3
Shades of Gray
350
2C54
  3
Sketchy
350
2C55
  3
Thicken
350
2C50
  3
Wireframe
350
2C4A
  3
X-Ray
350
2C56
  0
XRECORD
  5
2C97
102
{ACAD_REACTORS
330
C
102
}
330
C
100
AcDbXrecord
280
     1
 90
        1
330
2C5E
  0
DICTIONARY
  5
2C8A
102
{ACAD_REACTORS
330
C
102
}
330
C
100
AcDbDictionary
281
     1
  3
CANNOSCALE
350
2C8F
  3
CMLEADERSTYLE
350
2C8C
  3
CTABLESTYLE
350
2C8B
  3
CVIEWDETAILSTYLE
350
2C8D
  3
CVIEWSECTIONSTYLE
350
2C8E
  3
DIMASSOC
350
2C92
  3
INDEXCTL
350
2C91
  3
SORTENTS
350
2C90
  3
XCLIPFRAME
350
2C93
  0
DICTIONARY
  5
3D
102
{ACAD_REACTORS
330
C
102
}
330
C
100
AcDbDictionary
281
     1
  0
XRECORD
  5
2C98
102
{ACAD_REACTORS
330
C
102
}
330
C
100
AcDbXrecord
280
     1
  1
DWGPROPS COOKIE
  2

  3

  4

  6

  7

  8
Yoshitsune
  9

300
=
301
=
302
=
303
=
304
=
305
=
306
=
307
=
308
=
309
=
 40
0.1528901851851852
 41
2453760.404647894
 42
2457192.70022669
  1

 90
        0
  0
XRECORD
  5
2C7B
102
{ACAD_REACTORS
330
2C7A
102
}
330
2C7A
100
AcDbXrecord
280
     1
290
     1
  0
XRECORD
  5
2C7D
102
{ACAD_REACTORS
330
2C7C
102
}
330
2C7C
100
AcDbXrecord
280
     1
290
     1
  0
XRECORD
  5
2C7F
102
{ACAD_REACTORS
330
2C7E
102
}
330
2C7E
100
AcDbXrecord
280
     1
290
     1
  0
XRECORD
  5
2C81
102
{ACAD_REACTORS
330
2C80
102
}
330
2C80
100
AcDbXrecord
280
     1
290
     1
  0
XRECORD
  5
2C83
102
{ACAD_REACTORS
330
2C82
102
}
330
2C82
100
AcDbXrecord
280
     1
290
     1
  0
XRECORD
  5
2C85
102
{ACAD_REACTORS
330
2C84
102
}
330
2C84
100
AcDbXrecord
280
     1
290
     1
  0
XRECORD
  5
2C87
102
{ACAD_REACTORS
330
2C86
102
}
330
2C86
100
AcDbXrecord
280
     1
290
     1
  0
XRECORD
  5
2C89
102
{ACAD_REACTORS
330
2C88
102
}
330
2C88
100
AcDbXrecord
280
     1
290
     1
  0
XRECORD
  5
2C24
102
{ACAD_REACTORS
330
2C23
102
}
330
2C23
100
AcDbXrecord
280
     1
340
18
  0
XRECORD
  5
2C22
102
{ACAD_REACTORS
330
2C21
102
}
330
2C21
100
AcDbXrecord
280
     1
340
15
  0
ACDBDETAILVIEWSTYLE
  5
2C76
102
{ACAD_XDICTIONARY
360
2CD0
102
}
102
{ACAD_REACTORS
330
2C75
102
}
330
2C75
100
AcDbModelDocViewStyle
 70
     0
  3
Imperial24
290
     0
100
AcDbDetailViewStyle
 70
     0
 71
     0
 90
        3
 71
     1
340
F
 40
0.24
340
0
 40
0.24
300

 40
0.36
280
     3
 71
     2
340
14
 90
       25
 71
     3
340
F
 40
0.24
 90
        1
 40
0.75
 90
        1
300
%<\AcVar ViewType \f "%tc1">% %<\AcVar ViewDetailId>%\PSCALE %<\AcVar ViewScale \f "%sn">%
 71
     4
340
14
 90
       25
340
14
 90
       25
280
     0
  0
LAYOUT
  5
2C77
102
{ACAD_XDICTIONARY
360
2CD2
102
}
102
{ACAD_REACTORS
330
94
102
}
330
94
100
AcDbPlotSettings
  1

  2
Canon LBP9100C
  4

  6

 40
0.0
 41
0.0
 42
0.0
 43
0.0
 44
0.0
 45
0.0
 46
0.0
 47
0.0
 48
0.0
 49
0.0
140
0.0
141
0.0
142
1.0
143
1.0
 70
  1712
 72
     0
 73
     0
 74
     0
  7

 75
     0
147
1.0
148
0.0
149
0.0
100
AcDbLayout
  1
Model
 70
     1
 71
     0
 10
0.0
 20
0.0
 11
12.0
 21
9.0
 12
0.0
 22
0.0
 32
0.0
 14
0.0
 24
0.0
 34
0.0
 15
0.0
 25
0.0
 35
0.0
146
0.0
 13
0.0
 23
0.0
 33
0.0
 16
1.0
 26
0.0
 36
0.0
 17
0.0
 27
1.0
 37
0.0
 76
     0
330
18
331
2C20
  0
LAYOUT
  5
2C78
102
{ACAD_XDICTIONARY
360
2CD4
102
}
102
{ACAD_REACTORS
330
94
102
}
330
94
100
AcDbPlotSettings
  1

  2
Canon LBP9100C
  4

  6

 40
0.0
 41
0.0
 42
0.0
 43
0.0
 44
0.0
 45
0.0
 46
0.0
 47
0.0
 48
0.0
 49
0.0
140
0.0
141
0.0
142
1.0
143
1.0
 70
   688
 72
     0
 73
     0
 74
     5
  7

 75
    16
147
1.0
148
0.0
149
0.0
100
AcDbLayout
  1
レイアウト1
 70
     1
 71
     1
 10
-3.757080078125
 20
-3.757083177566528
 11
293.2112426757812
 21
206.2162444591522
 12
0.0
 22
0.0
 32
0.0
 14
27.8447512626648
 24
20.24591643810271
 34
0.0
 15
250.6027613639831
 25
182.2132479429244
 35
0.0
146
0.0
 13
0.0
 23
0.0
 33
0.0
 16
1.0
 26
0.0
 36
0.0
 17
0.0
 27
1.0
 37
0.0
 76
     0
330
15
  0
MATERIAL
  5
2C33
102
{ACAD_XDICTIONARY
360
2C34
102
}
102
{ACAD_REACTORS
330
2C2A
102
}
330
2C2A
100
AcDbMaterial
  1
ByBlock
 72
     0
 43
0.0208333333333333
 43
0.0
 43
0.0
 43
0.0
 43
0.0
 43
0.0208333333333333
 43
0.0
 43
0.0
 43
0.0
 43
0.0
 43
1.0
 43
0.0
 43
0.0
 43
0.0
 43
0.0
 43
1.0
 77
     0
 47
0.0208333333333333
 47
0.0
 47
0.0
 47
0.0
 47
0.0
 47
0.0208333333333333
 47
0.0
 47
0.0
 47
0.0
 47
0.0
 47
1.0
 47
0.0
 47
0.0
 47
0.0
 47
0.0
 47
1.0
171
     0
 49
0.0208333333333333
 49
0.0
 49
0.0
 49
0.0
 49
0.0
 49
0.0208333333333333
 49
0.0
 49
0.0
 49
0.0
 49
0.0
 49
1.0
 49
0.0
 49
0.0
 49
0.0
 49
0.0
 49
1.0
175
     0
142
0.0208333333333333
142
0.0
142
0.0
142
0.0
142
0.0
142
0.0208333333333333
142
0.0
142
0.0
142
0.0
142
0.0
142
1.0
142
0.0
142
0.0
142
0.0
142
0.0
142
1.0
179
     0
144
0.0208333333333333
144
0.0
144
0.0
144
0.0
144
0.0
144
0.0208333333333333
144
0.0
144
0.0
144
0.0
144
0.0
144
1.0
144
0.0
144
0.0
144
0.0
144
0.0
144
1.0
147
0.0208333333333333
147
0.0
147
0.0
147
0.0
147
0.0
147
0.0208333333333333
147
0.0
147
0.0
147
0.0
147
0.0
147
1.0
147
0.0
147
0.0
147
0.0
147
0.0
147
1.0
  0
MATERIAL
  5
2C2B
102
{ACAD_XDICTIONARY
360
2C2C
102
}
102
{ACAD_REACTORS
330
2C2A
102
}
330
2C2A
100
AcDbMaterial
  1
ByLayer
 72
     0
 43
0.0208333333333333
 43
0.0
 43
0.0
 43
0.0
 43
0.0
 43
0.0208333333333333
 43
0.0
 43
0.0
 43
0.0
 43
0.0
 43
1.0
 43
0.0
 43
0.0
 43
0.0
 43
0.0
 43
1.0
 77
     0
 47
0.0208333333333333
 47
0.0
 47
0.0
 47
0.0
 47
0.0
 47
0.0208333333333333
 47
0.0
 47
0.0
 47
0.0
 47
0.0
 47
1.0
 47
0.0
 47
0.0
 47
0.0
 47
0.0
 47
1.0
171
     0
 49
0.0208333333333333
 49
0.0
 49
0.0
 49
0.0
 49
0.0
 49
0.0208333333333333
 49
0.0
 49
0.0
 49
0.0
 49
0.0
 49
1.0
 49
0.0
 49
0.0
 49
0.0
 49
0.0
 49
1.0
175
     0
142
0.0208333333333333
142
0.0
142
0.0
142
0.0
142
0.0
142
0.0208333333333333
142
0.0
142
0.0
142
0.0
142
0.0
142
1.0
142
0.0
142
0.0
142
0.0
142
0.0
142
1.0
179
     0
144
0.0208333333333333
144
0.0
144
0.0
144
0.0
144
0.0
144
0.0208333333333333
144
0.0
144
0.0
144
0.0
144
0.0
144
1.0
144
0.0
144
0.0
144
0.0
144
0.0
144
1.0
147
0.0208333333333333
147
0.0
147
0.0
147
0.0
147
0.0
147
0.0208333333333333
147
0.0
147
0.0
147
0.0
147
0.0
147
1.0
147
0.0
147
0.0
147
0.0
147
0.0
147
1.0
  0
MATERIAL
  5
2C3B
102
{ACAD_XDICTIONARY
360
2C3C
102
}
102
{ACAD_REACTORS
330
2C2A
102
}
330
2C2A
100
AcDbMaterial
  1
Global
 72
     0
 43
0.0208333333333333
 43
0.0
 43
0.0
 43
0.0
 43
0.0
 43
0.0208333333333333
 43
0.0
 43
0.0
 43
0.0
 43
0.0
 43
1.0
 43
0.0
 43
0.0
 43
0.0
 43
0.0
 43
1.0
 77
     0
 47
0.0208333333333333
 47
0.0
 47
0.0
 47
0.0
 47
0.0
 47
0.0208333333333333
 47
0.0
 47
0.0
 47
0.0
 47
0.0
 47
1.0
 47
0.0
 47
0.0
 47
0.0
 47
0.0
 47
1.0
171
     0
 49
0.0208333333333333
 49
0.0
 49
0.0
 49
0.0
 49
0.0
 49
0.0208333333333333
 49
0.0
 49
0.0
 49
0.0
 49
0.0
 49
1.0
 49
0.0
 49
0.0
 49
0.0
 49
0.0
 49
1.0
175
     0
142
0.0208333333333333
142
0.0
142
0.0
142
0.0
142
0.0
142
0.0208333333333333
142
0.0
142
0.0
142
0.0
142
0.0
142
1.0
142
0.0
142
0.0
142
0.0
142
0.0
142
1.0
179
     0
144
0.0208333333333333
144
0.0
144
0.0
144
0.0
144
0.0
144
0.0208333333333333
144
0.0
144
0.0
144
0.0
144
0.0
144
1.0
144
0.0
144
0.0
144
0.0
144
0.0
144
1.0
147
0.0208333333333333
147
0.0
147
0.0
147
0.0
147
0.0
147
0.0208333333333333
147
0.0
147
0.0
147
0.0
147
0.0
147
1.0
147
0.0
147
0.0
147
0.0
147
0.0
147
1.0
  0
MLEADERSTYLE
  5
2C72
102
{ACAD_REACTORS
330
2C71
102
}
330
2C71
100
AcDbMLeaderStyle
170
     2
171
     1
172
     0
 90
        2
 40
0.0
 41
0.0
173
     1
 91
-1056964608
340
12
 92
       -2
290
     1
 42
0.09
291
     1
 43
0.36
  3
Standard
 44
0.18
300

342
F
174
     1
178
     6
175
     1
176
     0
 93
-1056964608
 45
0.18
292
     0
297
     0
 46
0.18
 94
-1056964608
 47
1.0
 49
1.0
140
1.0
293
     1
141
0.0
294
     1
177
     0
142
1.0
295
     0
296
     0
143
0.125
1001
ACAD_MLEADERVER
1070
     2
  0
MLINESTYLE
  5
1C
102
{ACAD_REACTORS
330
1B
102
}
330
1B
100
AcDbMlineStyle
  2
STANDARD
 70
     0
  3

 62
   256
 51
90.0
 52
90.0
 71
     2
 49
0.5
 62
   256
  6
BYLAYER
 49
-0.5
 62
   256
  6
BYLAYER
  0
ACDBPLACEHOLDER
  5
2C29
102
{ACAD_REACTORS
330
2C28
102
}
330
2C28
  0
SCALE
  5
2C60
102
{ACAD_REACTORS
330
2C5F
102
}
330
2C5F
100
AcDbScale
 70
     0
300
1:1
140
1.0
141
1.0
290
     1
  0
SCALE
  5
2C61
102
{ACAD_REACTORS
330
2C5F
102
}
330
2C5F
100
AcDbScale
 70
     0
300
1/128" = 1'-0"
140
0.0078125
141
12.0
290
     0
  0
SCALE
  5
2C62
102
{ACAD_REACTORS
330
2C5F
102
}
330
2C5F
100
AcDbScale
 70
     0
300
1/64" = 1'-0"
140
0.015625
141
12.0
290
     0
  0
SCALE
  5
2C63
102
{ACAD_REACTORS
330
2C5F
102
}
330
2C5F
100
AcDbScale
 70
     0
300
1/32" = 1'-0"
140
0.03125
141
12.0
290
     0
  0
SCALE
  5
2C64
102
{ACAD_REACTORS
330
2C5F
102
}
330
2C5F
100
AcDbScale
 70
     0
300
1/16" = 1'-0"
140
0.0625
141
12.0
290
     0
  0
SCALE
  5
2C65
102
{ACAD_REACTORS
330
2C5F
102
}
330
2C5F
100
AcDbScale
 70
     0
300
3/32" = 1'-0"
140
0.09375
141
12.0
290
     0
  0
SCALE
  5
2C66
102
{ACAD_REACTORS
330
2C5F
102
}
330
2C5F
100
AcDbScale
 70
     0
300
1/8" = 1'-0"
140
0.125
141
12.0
290
     0
  0
SCALE
  5
2C67
102
{ACAD_REACTORS
330
2C5F
102
}
330
2C5F
100
AcDbScale
 70
     0
300
3/16" = 1'-0"
140
0.1875
141
12.0
290
     0
  0
SCALE
  5
2C68
102
{ACAD_REACTORS
330
2C5F
102
}
330
2C5F
100
AcDbScale
 70
     0
300
1/4" = 1'-0"
140
0.25
141
12.0
290
     0
  0
SCALE
  5
2C69
102
{ACAD_REACTORS
330
2C5F
102
}
330
2C5F
100
AcDbScale
 70
     0
300
3/8" = 1'-0"
140
0.375
141
12.0
290
     0
  0
SCALE
  5
2C6A
102
{ACAD_REACTORS
330
2C5F
102
}
330
2C5F
100
AcDbScale
 70
     0
300
1/2" = 1'-0"
140
0.5
141
12.0
290
     0
  0
SCALE
  5
2C6B
102
{ACAD_REACTORS
330
2C5F
102
}
330
2C5F
100
AcDbScale
 70
     0
300
3/4" = 1'-0"
140
0.75
141
12.0
290
     0
  0
SCALE
  5
2C6C
102
{ACAD_REACTORS
330
2C5F
102
}
330
2C5F
100
AcDbScale
 70
     0
300
1" = 1'-0"
140
1.0
141
12.0
290
     0
  0
SCALE
  5
2C6D
102
{ACAD_REACTORS
330
2C5F
102
}
330
2C5F
100
AcDbScale
 70
     0
300
1-1/2" = 1'-0"
140
1.5
141
12.0
290
     0
  0
SCALE
  5
2C6E
102
{ACAD_REACTORS
330
2C5F
102
}
330
2C5F
100
AcDbScale
 70
     0
300
3" = 1'-0"
140
3.0
141
12.0
290
     0
  0
SCALE
  5
2C6F
102
{ACAD_REACTORS
330
2C5F
102
}
330
2C5F
100
AcDbScale
 70
     0
300
6" = 1'-0"
140
6.0
141
12.0
290
     0
  0
SCALE
  5
2C70
102
{ACAD_REACTORS
330
2C5F
102
}
330
2C5F
100
AcDbScale
 70
     0
300
1'-0" = 1'-0"
140
12.0
141
12.0
290
     0
  0
ACDBSECTIONVIEWSTYLE
  5
2C74
102
{ACAD_XDICTIONARY
360
2CCE
102
}
102
{ACAD_REACTORS
330
2C73
102
}
330
2C73
100
AcDbModelDocViewStyle
 70
     0
  3
Imperial24
290
     0
100
AcDbSectionViewStyle
 70
     0
 71
     0
 90
       78
 71
     1
340
F
 40
0.24
340
0
340
0
 40
0.24
300
I, O, Q, S, X, Z
 40
0.48
 90
        3
 40
0.18
 90
        1
 71
     2
340
14
 90
       25
340
14
 90
       50
 40
0.24
 40
0.0
 40
0.24
 71
     3
340
F
 40
0.24
 90
        1
 40
0.75
 90
        1
300
%<\AcVar ViewType \f "%tc1">% %<\AcVar ViewSectionStartId>%-%<\AcVar ViewSectionEndId>%\PSCALE %<\AcVar ViewScale \f "%sn">%
 71
     4
300
ANSI31
 40
1.0
 90
        0
290
     0
290
     0
 90
        6
 40
0.0
 40
1.570796326794896
 40
0.2617993877991494
 40
1.308996938995747
 40
-0.2617993877991494
 40
1.832595714594046
  0
TABLESTYLE
  5
2C5E
102
{ACAD_XDICTIONARY
360
2C95
102
}
102
{ACAD_REACTORS
330
2C5D
102
}
330
2C5D
100
AcDbTableStyle
  3
Standard
 70
     0
 71
     0
 40
0.06
 41
0.06
280
     0
281
     0
  7
STANDARD
140
0.18
170
     2
 62
     0
 63
     7
283
     0
274
    -2
284
     1
 64
     0
275
    -2
285
     1
 65
     0
276
    -2
286
     1
 66
     0
277
    -2
287
     1
 67
     0
278
    -2
288
     1
 68
     0
279
    -2
289
     1
 69
     0
  7
STANDARD
140
0.25
170
     5
 62
     0
 63
     7
283
     0
274
    -2
284
     1
 64
     0
275
    -2
285
     1
 65
     0
276
    -2
286
     1
 66
     0
277
    -2
287
     1
 67
     0
278
    -2
288
     1
 68
     0
279
    -2
289
     1
 69
     0
  7
STANDARD
140
0.18
170
     5
 62
     0
 63
     7
283
     0
274
    -2
284
     1
 64
     0
275
    -2
285
     1
 65
     0
276
    -2
286
     1
 66
     0
277
    -2
287
     1
 67
     0
278
    -2
288
     1
 68
     0
279
    -2
289
     1
 69
     0
  0
VISUALSTYLE
  5
2C49
102
{ACAD_XDICTIONARY
360
2CA6
102
}
102
{ACAD_REACTORS
330
2C43
102
}
330
2C43
100
AcDbVisualStyle
  2
2dWireframe
 70
     4
 71
     0
 72
     2
 73
     0
 90
        0
 40
-0.6
 41
-30.0
 62
     5
 63
     7
 74
     1
 91
        4
 64
     7
 65
   257
 75
     1
175
     1
 42
1.0
 92
        0
 66
   257
 43
1.0
 76
     1
 77
     6
 78
     2
 67
     7
 79
     5
170
     0
171
     0
290
     0
174
     0
 93
        1
 44
0.0
173
     0
291
     0
 45
0.0
1001
ACAD
1000
AcDbSavedByObjectVersion
1070
     0
  0
VISUALSTYLE
  5
2C48
102
{ACAD_XDICTIONARY
360
2CA4
102
}
102
{ACAD_REACTORS
330
2C43
102
}
330
2C43
100
AcDbVisualStyle
  2
Basic
 70
     7
 71
     1
 72
     0
 73
     1
 90
        0
 40
-0.6
 41
-30.0
 62
     5
 63
     7
 74
     0
 91
        4
 64
     7
 65
   257
 75
     1
175
     1
 42
1.0
 92
        8
 66
     7
 43
1.0
 76
     1
 77
     6
 78
     2
 67
     7
 79
     5
170
     0
171
     0
290
     0
174
     0
 93
        1
 44
0.0
173
     0
291
     1
 45
0.0
1001
ACAD
1000
AcDbSavedByObjectVersion
1070
     0
  0
VISUALSTYLE
  5
2C4F
102
{ACAD_XDICTIONARY
360
2CB2
102
}
102
{ACAD_REACTORS
330
2C43
102
}
330
2C43
100
AcDbVisualStyle
  2
Brighten
 70
    12
 71
     2
 72
     2
 73
     0
 90
        0
 40
-0.6
 41
-30.0
 62
     5
 63
     7
 74
     1
 91
        4
 64
     7
 65
   257
 75
     1
175
     1
 42
1.0
 92
        8
 66
     7
 43
1.0
 76
     1
 77
     6
 78
     2
 67
     7
 79
     5
170
     0
171
     0
290
     0
174
     0
 93
        1
 44
50.0
173
     0
291
     1
 45
0.0
1001
ACAD
1000
AcDbSavedByObjectVersion
1070
     0
  0
VISUALSTYLE
  5
2C53
102
{ACAD_XDICTIONARY
360
2CBA
102
}
102
{ACAD_REACTORS
330
2C43
102
}
330
2C43
100
AcDbVisualStyle
  2
ColorChange
 70
    16
 71
     2
 72
     2
 73
     3
 90
        0
 40
-0.6
 41
-30.0
 62
     5
 63
     8
 74
     1
 91
        4
 64
     7
 65
   257
 75
     1
175
     1
 42
1.0
 92
        8
 66
     8
 43
1.0
 76
     1
 77
     6
 78
     2
 67
     7
 79
     5
170
     0
171
     0
290
     0
174
     0
 93
        1
 44
0.0
173
     0
291
     1
 45
0.0
1001
ACAD
1000
AcDbSavedByObjectVersion
1070
     0
  0
VISUALSTYLE
  5
2C4C
102
{ACAD_XDICTIONARY
360
2CAC
102
}
102
{ACAD_REACTORS
330
2C43
102
}
330
2C43
100
AcDbVisualStyle
  2
Conceptual
 70
     9
 71
     3
 72
     2
 73
     0
 90
        0
 40
-0.6
 41
-30.0
 62
     5
 63
     7
 74
     2
 91
        2
 64
     7
 65
   257
 75
     1
175
     1
 42
179.0
 92
        8
 66
     7
 43
1.0
 76
     1
 77
     6
 78
     2
 67
     7
 79
     3
170
     0
171
     0
290
     0
174
     0
 93
        1
 44
0.0
173
     0
291
     0
 45
0.0
1001
ACAD
1000
AcDbSavedByObjectVersion
1070
     0
  0
VISUALSTYLE
  5
2C4E
102
{ACAD_XDICTIONARY
360
2CB0
102
}
102
{ACAD_REACTORS
330
2C43
102
}
330
2C43
100
AcDbVisualStyle
  2
Dim
 70
    11
 71
     2
 72
     2
 73
     0
 90
        0
 40
-0.6
 41
-30.0
 62
     5
 63
     7
 74
     1
 91
        4
 64
     7
 65
   257
 75
     1
175
     1
 42
1.0
 92
        8
 66
     7
 43
1.0
 76
     1
 77
     6
 78
     2
 67
     7
 79
     5
170
     0
171
     0
290
     0
174
     0
 93
        1
 44
-50.0
173
     0
291
     1
 45
0.0
1001
ACAD
1000
AcDbSavedByObjectVersion
1070
     0
  0
VISUALSTYLE
  5
2C5B
102
{ACAD_XDICTIONARY
360
2CCA
102
}
102
{ACAD_REACTORS
330
2C43
102
}
330
2C43
100
AcDbVisualStyle
  2
EdgeColorOff
 70
    22
 71
     2
 72
     2
 73
     0
 90
        0
 40
-0.6
 41
-30.0
 62
     5
 63
     7
 74
     1
 91
        4
 64
     7
 65
   257
 75
     1
175
     1
 42
1.0
 92
        8
 66
     7
 43
1.0
 76
     1
 77
     6
 78
     2
 67
     7
 79
     5
170
     0
171
     0
290
     0
174
     0
 93
        1
 44
0.0
173
     0
291
     1
 45
0.0
1001
ACAD
1000
AcDbSavedByObjectVersion
1070
     0
  0
VISUALSTYLE
  5
2C52
102
{ACAD_XDICTIONARY
360
2CB8
102
}
102
{ACAD_REACTORS
330
2C43
102
}
330
2C43
100
AcDbVisualStyle
  2
Facepattern
 70
    15
 71
     2
 72
     2
 73
     0
 90
        0
 40
-0.6
 41
-30.0
 62
     5
 63
     7
 74
     1
 91
        4
 64
     7
 65
   257
 75
     1
175
     1
 42
1.0
 92
        8
 66
     7
 43
1.0
 76
     1
 77
     6
 78
     2
 67
     7
 79
     5
170
     0
171
     0
290
     0
174
     0
 93
        1
 44
0.0
173
     0
291
     1
 45
0.0
1001
ACAD
1000
AcDbSavedByObjectVersion
1070
     0
  0
VISUALSTYLE
  5
2C44
102
{ACAD_XDICTIONARY
360
2C9C
102
}
102
{ACAD_REACTORS
330
2C43
102
}
330
2C43
100
AcDbVisualStyle
  2
Flat
 70
     0
 71
     2
 72
     1
 73
     1
 90
        2
 40
-0.6
 41
30.0
 62
     5
 63
     7
 74
     0
 91
        0
 64
     7
 65
   257
 75
     1
175
     1
 42
1.0
 92
        8
 66
     7
 43
1.0
 76
     1
 77
     6
 78
     2
 67
     7
 79
     5
170
     0
171
     0
290
     0
174
     0
 93
       13
 44
0.0
173
     0
291
     1
 45
0.0
1001
ACAD
1000
AcDbSavedByObjectVersion
1070
     0
  0
VISUALSTYLE
  5
2C45
102
{ACAD_XDICTIONARY
360
2C9E
102
}
102
{ACAD_REACTORS
330
2C43
102
}
330
2C43
100
AcDbVisualStyle
  2
FlatWithEdges
 70
     1
 71
     2
 72
     1
 73
     1
 90
        2
 40
-0.6
 41
30.0
 62
     5
 63
     7
 74
     1
 91
        0
 64
     7
 65
   257
 75
     1
175
     1
 42
1.0
 92
        0
 66
   257
 43
1.0
 76
     1
 77
     6
 78
     2
 67
     7
 79
     5
170
     0
171
     0
290
     0
174
     0
 93
       13
 44
0.0
173
     0
291
     1
 45
0.0
1001
ACAD
1000
AcDbSavedByObjectVersion
1070
     0
  0
VISUALSTYLE
  5
2C46
102
{ACAD_XDICTIONARY
360
2CA0
102
}
102
{ACAD_REACTORS
330
2C43
102
}
330
2C43
100
AcDbVisualStyle
  2
Gouraud
 70
     2
 71
     2
 72
     2
 73
     1
 90
        2
 40
-0.6
 41
30.0
 62
     5
 63
     7
 74
     0
 91
        0
 64
     7
 65
   257
 75
     1
175
     1
 42
1.0
 92
        0
 66
     7
 43
1.0
 76
     1
 77
     6
 78
     2
 67
     7
 79
     5
170
     0
171
     0
290
     0
174
     0
 93
       13
 44
0.0
173
     0
291
     1
 45
0.0
1001
ACAD
1000
AcDbSavedByObjectVersion
1070
     0
  0
VISUALSTYLE
  5
2C47
102
{ACAD_XDICTIONARY
360
2CA2
102
}
102
{ACAD_REACTORS
330
2C43
102
}
330
2C43
100
AcDbVisualStyle
  2
GouraudWithEdges
 70
     3
 71
     2
 72
     2
 73
     1
 90
        2
 40
-0.6
 41
30.0
 62
     5
 63
     7
 74
     1
 91
        0
 64
     7
 65
   257
 75
     1
175
     1
 42
1.0
 92
        0
 66
   257
 43
1.0
 76
     1
 77
     6
 78
     2
 67
     7
 79
     5
170
     0
171
     0
290
     0
174
     0
 93
       13
 44
0.0
173
     0
291
     1
 45
0.0
1001
ACAD
1000
AcDbSavedByObjectVersion
1070
     0
  0
VISUALSTYLE
  5
2C4B
102
{ACAD_XDICTIONARY
360
2CAA
102
}
102
{ACAD_REACTORS
330
2C43
102
}
330
2C43
100
AcDbVisualStyle
  2
Hidden
 70
     6
 71
     1
 72
     2
 73
     2
 90
        0
 40
-0.6
 41
-30.0
 62
     5
 63
     7
 74
     2
 91
        2
 64
     7
 65
   257
 75
     2
175
     1
 42
40.0
 92
        0
 66
   257
 43
1.0
 76
     1
 77
     6
 78
     2
 67
     7
 79
     3
170
     0
171
     0
290
     0
174
     0
 93
        1
 44
0.0
173
     0
291
     0
 45
0.0
1001
ACAD
1000
AcDbSavedByObjectVersion
1070
     0
  0
VISUALSTYLE
  5
2C59
102
{ACAD_XDICTIONARY
360
2CC6
102
}
102
{ACAD_REACTORS
330
2C43
102
}
330
2C43
100
AcDbVisualStyle
  2
JitterOff
 70
    20
 71
     2
 72
     2
 73
     0
 90
        0
 40
-0.6
 41
-30.0
 62
     5
 63
     7
 74
     1
 91
        4
 64
     7
 65
   257
 75
     1
175
     1
 42
1.0
 92
       10
 66
     7
 43
1.0
 76
     1
 77
     6
 78
     2
 67
     7
 79
     5
170
     0
171
     0
290
     0
174
     0
 93
        1
 44
0.0
173
     0
291
     1
 45
0.0
1001
ACAD
1000
AcDbSavedByObjectVersion
1070
     0
  0
VISUALSTYLE
  5
2C51
102
{ACAD_XDICTIONARY
360
2CB6
102
}
102
{ACAD_REACTORS
330
2C43
102
}
330
2C43
100
AcDbVisualStyle
  2
Linepattern
 70
    14
 71
     2
 72
     2
 73
     0
 90
        0
 40
-0.6
 41
-30.0
 62
     5
 63
     7
 74
     1
 91
        4
 64
     7
 65
   257
 75
     7
175
     7
 42
1.0
 92
        8
 66
     7
 43
1.0
 76
     1
 77
     6
 78
     2
 67
     7
 79
     5
170
     0
171
     0
290
     0
174
     0
 93
        1
 44
0.0
173
     0
291
     1
 45
0.0
1001
ACAD
1000
AcDbSavedByObjectVersion
1070
     0
  0
VISUALSTYLE
  5
2C5A
102
{ACAD_XDICTIONARY
360
2CC8
102
}
102
{ACAD_REACTORS
330
2C43
102
}
330
2C43
100
AcDbVisualStyle
  2
OverhangOff
 70
    21
 71
     2
 72
     2
 73
     0
 90
        0
 40
-0.6
 41
-30.0
 62
     5
 63
     7
 74
     1
 91
        4
 64
     7
 65
   257
 75
     1
175
     1
 42
1.0
 92
        9
 66
     7
 43
1.0
 76
     1
 77
     6
 78
     2
 67
     7
 79
     5
170
     0
171
     0
290
     0
174
     0
 93
        1
 44
0.0
173
     0
291
     1
 45
0.0
1001
ACAD
1000
AcDbSavedByObjectVersion
1070
     0
  0
VISUALSTYLE
  5
2C4D
102
{ACAD_XDICTIONARY
360
2CAE
102
}
102
{ACAD_REACTORS
330
2C43
102
}
330
2C43
100
AcDbVisualStyle
  2
Realistic
 70
     8
 71
     2
 72
     3
 73
     0
 90
        2
 40
-0.6
 41
30.0
 62
     5
 63
     7
 74
     0
 91
        0
 64
     7
 65
   257
 75
     1
175
     1
 42
1.0
 92
        8
 66
   257
 43
1.0
 76
     1
 77
     6
 78
     2
 67
     7
 79
     3
170
     0
171
     0
290
     0
174
     0
 93
       13
 44
0.0
173
     0
291
     0
 45
0.0
1001
ACAD
1000
AcDbSavedByObjectVersion
1070
     0
  0
VISUALSTYLE
  5
2C58
102
{ACAD_XDICTIONARY
360
2CC4
102
}
102
{ACAD_REACTORS
330
2C43
102
}
330
2C43
100
AcDbVisualStyle
  2
Shaded
 70
    27
 71
     2
 72
     2
 73
     1
 90
        2
 40
-0.6
 41
30.0
 62
     5
 63
     7
 74
     0
 91
        4
 64
     7
 65
   257
 75
     1
175
     1
 42
1.0
 92
        8
 66
   257
 43
1.0
 76
     1
 77
     6
 78
     2
 67
     8
 79
     3
170
     0
171
     0
290
     0
174
     0
 93
        5
 44
0.0
173
     0
291
     0
 45
0.0
1001
ACAD
1000
AcDbSavedByObjectVersion
1070
     0
  0
VISUALSTYLE
  5
2C57
102
{ACAD_XDICTIONARY
360
2CC2
102
}
102
{ACAD_REACTORS
330
2C43
102
}
330
2C43
100
AcDbVisualStyle
  2
Shaded with edges
 70
    26
 71
     2
 72
     2
 73
     1
 90
        2
 40
-0.6
 41
30.0
 62
     5
 63
     7
 74
     1
 91
       10
 64
     7
 65
   257
 75
     2
175
     1
 42
1.0
 92
        8
 66
   257
 43
1.0
 76
     1
 77
     6
 78
     2
 67
     7
 79
     3
170
     0
171
     0
290
     0
174
     0
 93
        5
 44
0.0
173
     0
291
     0
 45
0.0
1001
ACAD
1000
AcDbSavedByObjectVersion
1070
     0
  0
VISUALSTYLE
  5
2C54
102
{ACAD_XDICTIONARY
360
2CBC
102
}
102
{ACAD_REACTORS
330
2C43
102
}
330
2C43
100
AcDbVisualStyle
  2
Shades of Gray
 70
    23
 71
     2
 72
     2
 73
     3
 90
        0
 40
-0.6
 41
-30.0
 62
     5
 63
     7
 74
     2
 91
        2
 64
     7
 65
     7
 75
     1
175
     1
 42
40.0
 92
        8
 66
     7
 43
1.0
 76
     1
 77
     6
 78
     2
 67
     7
 79
     3
170
     0
171
     0
290
     0
174
     0
 93
        1
 44
0.0
173
     0
291
     0
 45
0.0
1001
ACAD
1000
AcDbSavedByObjectVersion
1070
     0
  0
VISUALSTYLE
  5
2C55
102
{ACAD_XDICTIONARY
360
2CBE
102
}
102
{ACAD_REACTORS
330
2C43
102
}
330
2C43
100
AcDbVisualStyle
  2
Sketchy
 70
    24
 71
     1
 72
     2
 73
     2
 90
        0
 40
-0.6
 41
-30.0
 62
     5
 63
     7
 74
     2
 91
        2
 64
     7
 65
     7
 75
     1
175
     1
 42
40.0
 92
       11
 66
     7
 43
1.0
 76
     1
 77
     6
 78
     2
 67
     7
 79
     6
170
     0
171
     0
290
     0
174
     0
 93
        1
 44
0.0
173
     0
291
     0
 45
0.0
1001
ACAD
1000
AcDbSavedByObjectVersion
1070
     0
  0
VISUALSTYLE
  5
2C50
102
{ACAD_XDICTIONARY
360
2CB4
102
}
102
{ACAD_REACTORS
330
2C43
102
}
330
2C43
100
AcDbVisualStyle
  2
Thicken
 70
    13
 71
     2
 72
     2
 73
     0
 90
        0
 40
-0.6
 41
-30.0
 62
     5
 63
     7
 74
     1
 91
        4
 64
     7
 65
   257
 75
     1
175
     1
 42
1.0
 92
       12
 66
     7
 43
1.0
 76
     1
 77
     6
 78
     2
 67
     7
 79
     5
170
     0
171
     0
290
     0
174
     0
 93
        1
 44
0.0
173
     0
291
     1
 45
0.0
1001
ACAD
1000
AcDbSavedByObjectVersion
1070
     0
  0
VISUALSTYLE
  5
2C4A
102
{ACAD_XDICTIONARY
360
2CA8
102
}
102
{ACAD_REACTORS
330
2C43
102
}
330
2C43
100
AcDbVisualStyle
  2
Wireframe
 70
     5
 71
     0
 72
     2
 73
     0
 90
        0
 40
-0.6
 41
-30.0
 62
     5
 63
     7
 74
     1
 91
        4
 64
     7
 65
   257
 75
     1
175
     1
 42
1.0
 92
        0
 66
   257
 43
1.0
 76
     1
 77
     6
 78
     2
 67
     7
 79
     3
170
     0
171
     0
290
     0
174
     0
 93
        1
 44
0.0
173
     0
291
     0
 45
0.0
1001
ACAD
1000
AcDbSavedByObjectVersion
1070
     0
  0
VISUALSTYLE
  5
2C56
102
{ACAD_XDICTIONARY
360
2CC0
102
}
102
{ACAD_REACTORS
330
2C43
102
}
330
2C43
100
AcDbVisualStyle
  2
X-Ray
 70
    25
 71
     2
 72
     2
 73
     1
 90
        1
 40
0.5
 41
-30.0
 62
     5
 63
     7
 74
     1
 91
        0
 64
     7
 65
   257
 75
     1
175
     1
 42
1.0
 92
        8
 66
     7
 43
1.0
 76
     1
 77
     6
 78
     2
 67
     7
 79
     3
170
     0
171
     0
290
     0
174
     0
 93
       13
 44
0.0
173
     0
291
     0
 45
0.0
1001
ACAD
1000
AcDbSavedByObjectVersion
1070
     0
  0
DICTIONARYVAR
  5
2C8F
102
{ACAD_REACTORS
330
2C8A
102
}
330
2C8A
100
DictionaryVariables
280
     0
  1
1:1
  0
DICTIONARYVAR
  5
2C8C
102
{ACAD_REACTORS
330
2C8A
102
}
330
2C8A
100
DictionaryVariables
280
     0
  1
STANDARD
  0
DICTIONARYVAR
  5
2C8B
102
{ACAD_REACTORS
330
2C8A
102
}
330
2C8A
100
DictionaryVariables
280
     0
  1
STANDARD
  0
DICTIONARYVAR
  5
2C8D
102
{ACAD_REACTORS
330
2C8A
102
}
330
2C8A
100
DictionaryVariables
280
     0
  1
Imperial24
  0
DICTIONARYVAR
  5
2C8E
102
{ACAD_REACTORS
330
2C8A
102
}
330
2C8A
100
DictionaryVariables
280
     0
  1
Imperial24
  0
DICTIONARYVAR
  5
2C92
102
{ACAD_REACTORS
330
2C8A
102
}
330
2C8A
100
DictionaryVariables
280
     0
  1
1
  0
DICTIONARYVAR
  5
2C91
102
{ACAD_REACTORS
330
2C8A
102
}
330
2C8A
100
DictionaryVariables
280
     0
  1
0
  0
DICTIONARYVAR
  5
2C90
102
{ACAD_REACTORS
330
2C8A
102
}
330
2C8A
100
DictionaryVariables
280
     0
  1
127
  0
DICTIONARYVAR
  5
2C93
102
{ACAD_REACTORS
330
2C8A
102
}
330
2C8A
100
DictionaryVariables
280
     0
  1
2
  0
DICTIONARY
  5
2CD0
330
2C76
100
AcDbDictionary
280
     1
281
     1
  3
ACAD_XREC_ROUNDTRIP
360
2CD1
  0
DICTIONARY
  5
2CD2
330
2C77
100
AcDbDictionary
280
     1
281
     1
  3
ACAD_XREC_ROUNDTRIP
360
2CD3
  0
DICTIONARY
  5
2CD4
330
2C78
100
AcDbDictionary
280
     1
281
     1
  3
ACAD_XREC_ROUNDTRIP
360
2CD5
  0
DICTIONARY
  5
2C34
330
2C33
100
AcDbDictionary
280
     1
281
     1
  3
ACAD_XREC_ROUNDTRIP
360
2C9A
  3
BUMPTILE
360
2C36
  3
DIFFUSETILE
360
2C35
  3
OPACITYTILE
360
2C39
  3
REFLECTIONTILE
360
2C38
  3
REFRACTIONTILE
360
2C3A
  3
SPECULARTILE
360
2C37
  0
DICTIONARY
  5
2C2C
330
2C2B
100
AcDbDictionary
280
     1
281
     1
  3
ACAD_XREC_ROUNDTRIP
360
2C99
  3
BUMPTILE
360
2C2E
  3
DIFFUSETILE
360
2C2D
  3
OPACITYTILE
360
2C31
  3
REFLECTIONTILE
360
2C30
  3
REFRACTIONTILE
360
2C32
  3
SPECULARTILE
360
2C2F
  0
DICTIONARY
  5
2C3C
330
2C3B
100
AcDbDictionary
280
     1
281
     1
  3
ACAD_XREC_ROUNDTRIP
360
2C9B
  3
BUMPTILE
360
2C3E
  3
DIFFUSETILE
360
2C3D
  3
OPACITYTILE
360
2C41
  3
REFLECTIONTILE
360
2C40
  3
REFRACTIONTILE
360
2C42
  3
SPECULARTILE
360
2C3F
  0
DICTIONARY
  5
2CCE
330
2C74
100
AcDbDictionary
280
     1
281
     1
  3
ACAD_XREC_ROUNDTRIP
360
2CCF
  0
DICTIONARY
  5
2C95
330
2C5E
100
AcDbDictionary
280
     1
281
     1
  3
ACAD_ROUNDTRIP_2008_TABLESTYLE_CELLSTYLEMAP
360
2C96
  3
ACAD_XREC_ROUNDTRIP
360
2CCC
  0
DICTIONARY
  5
2CA6
330
2C49
100
AcDbDictionary
280
     1
281
     1
  3
ACAD_XREC_ROUNDTRIP
360
2CA7
  0
DICTIONARY
  5
2CA4
330
2C48
100
AcDbDictionary
280
     1
281
     1
  3
ACAD_XREC_ROUNDTRIP
360
2CA5
  0
DICTIONARY
  5
2CB2
330
2C4F
100
AcDbDictionary
280
     1
281
     1
  3
ACAD_XREC_ROUNDTRIP
360
2CB3
  0
DICTIONARY
  5
2CBA
330
2C53
100
AcDbDictionary
280
     1
281
     1
  3
ACAD_XREC_ROUNDTRIP
360
2CBB
  0
DICTIONARY
  5
2CAC
330
2C4C
100
AcDbDictionary
280
     1
281
     1
  3
ACAD_XREC_ROUNDTRIP
360
2CAD
  0
DICTIONARY
  5
2CB0
330
2C4E
100
AcDbDictionary
280
     1
281
     1
  3
ACAD_XREC_ROUNDTRIP
360
2CB1
  0
DICTIONARY
  5
2CCA
330
2C5B
100
AcDbDictionary
280
     1
281
     1
  3
ACAD_XREC_ROUNDTRIP
360
2CCB
  0
DICTIONARY
  5
2CB8
330
2C52
100
AcDbDictionary
280
     1
281
     1
  3
ACAD_XREC_ROUNDTRIP
360
2CB9
  0
DICTIONARY
  5
2C9C
330
2C44
100
AcDbDictionary
280
     1
281
     1
  3
ACAD_XREC_ROUNDTRIP
360
2C9D
  0
DICTIONARY
  5
2C9E
330
2C45
100
AcDbDictionary
280
     1
281
     1
  3
ACAD_XREC_ROUNDTRIP
360
2C9F
  0
DICTIONARY
  5
2CA0
330
2C46
100
AcDbDictionary
280
     1
281
     1
  3
ACAD_XREC_ROUNDTRIP
360
2CA1
  0
DICTIONARY
  5
2CA2
330
2C47
100
AcDbDictionary
280
     1
281
     1
  3
ACAD_XREC_ROUNDTRIP
360
2CA3
  0
DICTIONARY
  5
2CAA
330
2C4B
100
AcDbDictionary
280
     1
281
     1
  3
ACAD_XREC_ROUNDTRIP
360
2CAB
  0
DICTIONARY
  5
2CC6
330
2C59
100
AcDbDictionary
280
     1
281
     1
  3
ACAD_XREC_ROUNDTRIP
360
2CC7
  0
DICTIONARY
  5
2CB6
330
2C51
100
AcDbDictionary
280
     1
281
     1
  3
ACAD_XREC_ROUNDTRIP
360
2CB7
  0
DICTIONARY
  5
2CC8
330
2C5A
100
AcDbDictionary
280
     1
281
     1
  3
ACAD_XREC_ROUNDTRIP
360
2CC9
  0
DICTIONARY
  5
2CAE
330
2C4D
100
AcDbDictionary
280
     1
281
     1
  3
ACAD_XREC_ROUNDTRIP
360
2CAF
  0
DICTIONARY
  5
2CC4
330
2C58
100
AcDbDictionary
280
     1
281
     1
  3
ACAD_XREC_ROUNDTRIP
360
2CC5
  0
DICTIONARY
  5
2CC2
330
2C57
100
AcDbDictionary
280
     1
281
     1
  3
ACAD_XREC_ROUNDTRIP
360
2CC3
  0
DICTIONARY
  5
2CBC
330
2C54
100
AcDbDictionary
280
     1
281
     1
  3
ACAD_XREC_ROUNDTRIP
360
2CBD
  0
DICTIONARY
  5
2CBE
330
2C55
100
AcDbDictionary
280
     1
281
     1
  3
ACAD_XREC_ROUNDTRIP
360
2CBF
  0
DICTIONARY
  5
2CB4
330
2C50
100
AcDbDictionary
280
     1
281
     1
  3
ACAD_XREC_ROUNDTRIP
360
2CB5
  0
DICTIONARY
  5
2CA8
330
2C4A
100
AcDbDictionary
280
     1
281
     1
  3
ACAD_XREC_ROUNDTRIP
360
2CA9
  0
DICTIONARY
  5
2CC0
330
2C56
100
AcDbDictionary
280
     1
281
     1
  3
ACAD_XREC_ROUNDTRIP
360
2CC1
  0
XRECORD
  5
2CD1
102
{ACAD_REACTORS
330
2CD0
102
}
330
2CD0
100
AcDbXrecord
280
     1
102
DISPLAYNAME
  1
Imperial24
102
FLAGS
 90
        0
  0
XRECORD
  5
2CD3
102
{ACAD_REACTORS
330
2CD2
102
}
330
2CD2
100
AcDbXrecord
280
     1
102
SHADEPLOT
 70
     0
102
SHADEPLOTRESLEVEL
 70
     2
102
SHADEPLOTCUSTOMDPI
 70
   300
  0
XRECORD
  5
2CD5
102
{ACAD_REACTORS
330
2CD4
102
}
330
2CD4
100
AcDbXrecord
280
     1
102
SHADEPLOT
 70
     0
102
SHADEPLOTRESLEVEL
 70
     2
102
SHADEPLOTCUSTOMDPI
 70
   300
  0
XRECORD
  5
2C9A
102
{ACAD_REACTORS
330
2C34
102
}
330
2C34
100
AcDbXrecord
280
     1
102
MATERIAL
148
0.0
149
0.0
149
0.0
 93
        0
 94
      127
282
     0
 72
     0
 77
     0
171
     0
175
     0
179
     0
273
     0
  0
XRECORD
  5
2C36
102
{ACAD_REACTORS
330
2C34
102
}
330
2C34
100
AcDbXrecord
280
     1
270
     1
271
     1
  0
XRECORD
  5
2C35
102
{ACAD_REACTORS
330
2C34
102
}
330
2C34
100
AcDbXrecord
280
     1
270
     1
271
     1
  0
XRECORD
  5
2C39
102
{ACAD_REACTORS
330
2C34
102
}
330
2C34
100
AcDbXrecord
280
     1
270
     1
271
     1
  0
XRECORD
  5
2C38
102
{ACAD_REACTORS
330
2C34
102
}
330
2C34
100
AcDbXrecord
280
     1
270
     1
271
     1
  0
XRECORD
  5
2C3A
102
{ACAD_REACTORS
330
2C34
102
}
330
2C34
100
AcDbXrecord
280
     1
270
     1
271
     1
  0
XRECORD
  5
2C37
102
{ACAD_REACTORS
330
2C34
102
}
330
2C34
100
AcDbXrecord
280
     1
270
     1
271
     1
  0
XRECORD
  5
2C99
102
{ACAD_REACTORS
330
2C2C
102
}
330
2C2C
100
AcDbXrecord
280
     1
102
MATERIAL
148
0.0
149
0.0
149
0.0
 93
        0
 94
      127
282
     0
 72
     0
 77
     0
171
     0
175
     0
179
     0
273
     0
  0
XRECORD
  5
2C2E
102
{ACAD_REACTORS
330
2C2C
102
}
330
2C2C
100
AcDbXrecord
280
     1
270
     1
271
     1
  0
XRECORD
  5
2C2D
102
{ACAD_REACTORS
330
2C2C
102
}
330
2C2C
100
AcDbXrecord
280
     1
270
     1
271
     1
  0
XRECORD
  5
2C31
102
{ACAD_REACTORS
330
2C2C
102
}
330
2C2C
100
AcDbXrecord
280
     1
270
     1
271
     1
  0
XRECORD
  5
2C30
102
{ACAD_REACTORS
330
2C2C
102
}
330
2C2C
100
AcDbXrecord
280
     1
270
     1
271
     1
  0
XRECORD
  5
2C32
102
{ACAD_REACTORS
330
2C2C
102
}
330
2C2C
100
AcDbXrecord
280
     1
270
     1
271
     1
  0
XRECORD
  5
2C2F
102
{ACAD_REACTORS
330
2C2C
102
}
330
2C2C
100
AcDbXrecord
280
     1
270
     1
271
     1
  0
XRECORD
  5
2C9B
102
{ACAD_REACTORS
330
2C3C
102
}
330
2C3C
100
AcDbXrecord
280
     1
102
MATERIAL
148
0.0
149
0.0
149
0.0
 93
        0
 94
      127
282
     0
 72
     0
 77
     0
171
     0
175
     0
179
     0
273
     0
  0
XRECORD
  5
2C3E
102
{ACAD_REACTORS
330
2C3C
102
}
330
2C3C
100
AcDbXrecord
280
     1
270
     1
271
     1
  0
XRECORD
  5
2C3D
102
{ACAD_REACTORS
330
2C3C
102
}
330
2C3C
100
AcDbXrecord
280
     1
270
     1
271
     1
  0
XRECORD
  5
2C41
102
{ACAD_REACTORS
330
2C3C
102
}
330
2C3C
100
AcDbXrecord
280
     1
270
     1
271
     1
  0
XRECORD
  5
2C40
102
{ACAD_REACTORS
330
2C3C
102
}
330
2C3C
100
AcDbXrecord
280
     1
270
     1
271
     1
  0
XRECORD
  5
2C42
102
{ACAD_REACTORS
330
2C3C
102
}
330
2C3C
100
AcDbXrecord
280
     1
270
     1
271
     1
  0
XRECORD
  5
2C3F
102
{ACAD_REACTORS
330
2C3C
102
}
330
2C3C
100
AcDbXrecord
280
     1
270
     1
271
     1
  0
XRECORD
  5
2CCF
102
{ACAD_REACTORS
330
2CCE
102
}
330
2CCE
100
AcDbXrecord
280
     1
102
DISPLAYNAME
  1
Imperial24
102
FLAGS
 90
        0
  0
CELLSTYLEMAP
  5
2C96
102
{ACAD_REACTORS
330
2C95
102
}
330
2C95
100
AcDbCellStyleMap
 90
        3
300
CELLSTYLE
  1
TABLEFORMAT_BEGIN
 90
        5
170
     1
 91
        0
 92
    32768
 62
   257
 93
        1
300
CONTENTFORMAT
  1
CONTENTFORMAT_BEGIN
 90
        0
 91
        0
 92
      512
 93
        0
300

 40
0.0
140
1.0
 94
        5
 62
     0
340
F
144
0.25
309
CONTENTFORMAT_END
171
     0
 94
        0
309
TABLEFORMAT_END
  1
CELLSTYLE_BEGIN
 90
        1
 91
        1
300
_TITLE
309
CELLSTYLE_END
300
CELLSTYLE
  1
TABLEFORMAT_BEGIN
 90
        5
170
     1
 91
        0
 92
        0
 62
   257
 93
        1
300
CONTENTFORMAT
  1
CONTENTFORMAT_BEGIN
 90
        0
 91
        0
 92
      512
 93
        0
300

 40
0.0
140
1.0
 94
        5
 62
     0
340
F
144
0.18
309
CONTENTFORMAT_END
171
     0
 94
        0
309
TABLEFORMAT_END
  1
CELLSTYLE_BEGIN
 90
        2
 91
        1
300
_HEADER
309
CELLSTYLE_END
300
CELLSTYLE
  1
TABLEFORMAT_BEGIN
 90
        5
170
     1
 91
        0
 92
        0
 62
   257
 93
        1
300
CONTENTFORMAT
  1
CONTENTFORMAT_BEGIN
 90
        0
 91
        0
 92
      512
 93
        0
300

 40
0.0
140
1.0
 94
        2
 62
     0
340
F
144
0.18
309
CONTENTFORMAT_END
171
     0
 94
        0
309
TABLEFORMAT_END
  1
CELLSTYLE_BEGIN
 90
        3
 91
        2
300
_DATA
309
CELLSTYLE_END
  0
XRECORD
  5
2CCC
102
{ACAD_REACTORS
330
2C95
102
}
330
2C95
100
AcDbXrecord
280
     1
102
ACAD_ROUNDTRIP_PRE2007_TABLESTYLE
 90
      512
 91
        0
  1

 92
      512
 93
        0
  2

 94
      512
 95
        0
  3

  0
XRECORD
  5
2CA7
102
{ACAD_REACTORS
330
2CA6
102
}
330
2CA6
100
AcDbXrecord
280
     1
102
RTVSPost2010Prop28
280
     1
102
RTVSPost2010PropOp28
 70
     1
102
RTVSPost2010Prop29
280
     1
102
RTVSPost2010PropOp29
 70
     1
102
RTVSPost2010Prop30
280
     0
102
RTVSPost2010PropOp30
 70
     1
102
RTVSPost2010Prop31
280
     0
102
RTVSPost2010PropOp31
 70
     1
102
RTVSPost2010Prop32
280
     0
102
RTVSPost2010PropOp32
 70
     1
102
RTVSPost2010Prop33
280
     0
102
RTVSPost2010PropOp33
 70
     1
102
RTVSPost2010Prop34
280
     0
102
RTVSPost2010PropOp34
 70
     1
102
RTVSPost2010Prop35
280
     0
102
RTVSPost2010PropOp35
 70
     1
102
RTVSPost2010Prop36
280
     0
102
RTVSPost2010PropOp36
 70
     1
102
RTVSPost2010Prop37
 90
       50
102
RTVSPost2010PropOp37
 70
     1
102
RTVSPost2010Prop38
140
0.0
102
RTVSPost2010PropOp38
 70
     1
102
RTVSPost2010Prop39
140
1.0
102
RTVSPost2010PropOp39
 70
     1
102
RTVSPost2010Prop40
 90
        0
102
RTVSPost2010PropOp40
 70
     1
102
RTVSPost2010Prop41ColorIndex
 90
       18
102
RTVSPost2010Prop41ColorRGB
 90
        0
102
RTVSPost2010PropOp41
 70
     1
102
RTVSPost2010Prop42
 90
       50
102
RTVSPost2010PropOp42
 70
     1
102
RTVSPost2010Prop43
 90
        3
102
RTVSPost2010PropOp43
 70
     1
102
RTVSPost2010Prop44ColorIndex
 90
        5
102
RTVSPost2010Prop44ColorRGB
 90
      255
102
RTVSPost2010PropOp44
 70
     1
102
RTVSPost2010Prop45
280
     0
102
RTVSPost2010PropOp45
 70
     1
102
RTVSPost2010Prop46
 90
       50
102
RTVSPost2010PropOp46
 70
     1
102
RTVSPost2010Prop47
 90
       50
102
RTVSPost2010PropOp47
 70
     1
102
RTVSPost2010Prop48
 90
       50
102
RTVSPost2010PropOp48
 70
     1
102
RTVSPost2010Prop49
280
     0
102
RTVSPost2010PropOp49
 70
     1
102
RTVSPost2010Prop50
 90
       50
102
RTVSPost2010PropOp50
 70
     1
102
RTVSPost2010Prop51ColorIndex
 90
      256
102
RTVSPost2010Prop51ColorRGB
 90
-16777216
102
RTVSPost2010PropOp51
 70
     0
102
RTVSPost2010Prop52
140
1.0
102
RTVSPost2010PropOp52
 70
     0
102
RTVSPost2010Prop53
 90
        2
102
RTVSPost2010PropOp53
 70
     1
102
RTVSPost2010Prop54
  1
strokes_ogs.tif
102
RTVSPost2010PropOp54
 70
     1
102
RTVSPost2010Prop55
280
     0
102
RTVSPost2010PropOp55
 70
     1
102
RTVSPost2010Prop56
140
1.0
102
RTVSPost2010PropOp56
 70
     1
102
RTVSPost2010Prop57
140
1.0
102
RTVSPost2010PropOp57
 70
     1
102
RTVSPropertyOp0
 70
     1
102
RTVSPropertyOp1
 70
     1
102
RTVSPropertyOp2
 70
     1
102
RTVSPropertyOp3
 70
     1
102
RTVSPropertyOp4
 70
     1
102
RTVSPropertyOp5
 70
     1
102
RTVSPropertyOp6
 70
     1
102
RTVSPropertyOp7
 70
     1
102
RTVSPropertyOp8
 70
     1
102
RTVSPropertyOp9
 70
     1
102
RTVSPropertyOp10
 70
     1
102
RTVSPropertyOp11
 70
     1
102
RTVSPropertyOp12
 70
     1
102
RTVSPropertyOp13
 70
     1
102
RTVSPropertyOp14
 70
     1
102
RTVSPropertyOp15
 70
     1
102
RTVSPropertyOp16
 70
     1
102
RTVSPropertyOp17
 70
     1
102
RTVSPropertyOp18
 70
     1
102
RTVSPropertyOp19
 70
     1
102
RTVSPropertyOp20
 70
     1
102
RTVSPropertyOp21
 70
     1
102
RTVSPropertyOp22
 70
     1
102
RTVSPropertyOp23
 70
     1
102
RTVSPropertyOp24
 70
     1
102
RTVSPropertyOp25
 70
     1
102
RTVSPropertyOp26
 70
     1
102
RTVSPropertyOp27
 70
     1
102
RTVSPropertyOp28
 70
     1
102
RTVSPropertyOp29
 70
     1
102
RTVSPropertyOp30
 70
     1
102
RTVSPropertyOp31
 70
     1
102
RTVSPropertyOp32
 70
     1
102
RTVSPropertyOp33
 70
     1
102
RTVSPropertyOp34
 70
     1
102
RTVSPropertyOp35
 70
     1
102
RTVSPropertyOp36
 70
     1
102
RTVSPropertyOp37
 70
     1
102
RTVSPropertyOp38
 70
     1
102
RTVSPropertyOp39
 70
     1
102
RTVSPropertyOp40
 70
     1
102
RTVSPropertyOp41
 70
     1
102
RTVSPropertyOp42
 70
     1
102
RTVSPropertyOp43
 70
     1
102
RTVSPropertyOp44
 70
     1
102
RTVSPropertyOp45
 70
     1
102
RTVSPropertyOp46
 70
     1
102
RTVSPropertyOp47
 70
     1
102
RTVSPropertyOp48
 70
     1
102
RTVSPropertyOp49
 70
     1
102
RTVSPropertyOp50
 70
     1
102
RTVSPropertyOp51
 70
     0
102
RTVSPropertyOp52
 70
     0
102
RTVSPropertyOp53
 70
     1
102
RTVSPropertyOp54
 70
     1
102
RTVSPropertyOp55
 70
     1
102
RTVSPropertyOp56
 70
     1
102
RTVSPropertyOp57
 70
     1
102
RTVSPropertyOp58
 70
     1
102
RTVSPropertyOp59
 70
     1
102
RTVSPropertyOp60
 70
     1
102
RTVSPropertyOp61
 70
     1
102
RTVSPropertyOp62
 70
     1
  0
XRECORD
  5
2CA5
102
{ACAD_REACTORS
330
2CA4
102
}
330
2CA4
100
AcDbXrecord
280
     1
102
RTVSPost2010Prop28
280
     0
102
RTVSPost2010PropOp28
 70
     1
102
RTVSPost2010Prop29
280
     1
102
RTVSPost2010PropOp29
 70
     1
102
RTVSPost2010Prop30
280
     1
102
RTVSPost2010PropOp30
 70
     1
102
RTVSPost2010Prop31
280
     0
102
RTVSPost2010PropOp31
 70
     1
102
RTVSPost2010Prop32
280
     0
102
RTVSPost2010PropOp32
 70
     1
102
RTVSPost2010Prop33
280
     0
102
RTVSPost2010PropOp33
 70
     1
102
RTVSPost2010Prop34
280
     0
102
RTVSPost2010PropOp34
 70
     1
102
RTVSPost2010Prop35
280
     0
102
RTVSPost2010PropOp35
 70
     1
102
RTVSPost2010Prop36
280
     0
102
RTVSPost2010PropOp36
 70
     1
102
RTVSPost2010Prop37
 90
       50
102
RTVSPost2010PropOp37
 70
     1
102
RTVSPost2010Prop38
140
0.0
102
RTVSPost2010PropOp38
 70
     1
102
RTVSPost2010Prop39
140
1.0
102
RTVSPost2010PropOp39
 70
     1
102
RTVSPost2010Prop40
 90
        0
102
RTVSPost2010PropOp40
 70
     1
102
RTVSPost2010Prop41ColorIndex
 90
       18
102
RTVSPost2010Prop41ColorRGB
 90
        0
102
RTVSPost2010PropOp41
 70
     1
102
RTVSPost2010Prop42
 90
       50
102
RTVSPost2010PropOp42
 70
     1
102
RTVSPost2010Prop43
 90
        3
102
RTVSPost2010PropOp43
 70
     1
102
RTVSPost2010Prop44ColorIndex
 90
        5
102
RTVSPost2010Prop44ColorRGB
 90
      255
102
RTVSPost2010PropOp44
 70
     1
102
RTVSPost2010Prop45
280
     0
102
RTVSPost2010PropOp45
 70
     1
102
RTVSPost2010Prop46
 90
       50
102
RTVSPost2010PropOp46
 70
     1
102
RTVSPost2010Prop47
 90
       50
102
RTVSPost2010PropOp47
 70
     1
102
RTVSPost2010Prop48
 90
       50
102
RTVSPost2010PropOp48
 70
     1
102
RTVSPost2010Prop49
280
     0
102
RTVSPost2010PropOp49
 70
     1
102
RTVSPost2010Prop50
 90
       50
102
RTVSPost2010PropOp50
 70
     1
102
RTVSPost2010Prop51ColorIndex
 90
      256
102
RTVSPost2010Prop51ColorRGB
 90
-16777216
102
RTVSPost2010PropOp51
 70
     0
102
RTVSPost2010Prop52
140
1.0
102
RTVSPost2010PropOp52
 70
     0
102
RTVSPost2010Prop53
 90
        2
102
RTVSPost2010PropOp53
 70
     1
102
RTVSPost2010Prop54
  1
strokes_ogs.tif
102
RTVSPost2010PropOp54
 70
     1
102
RTVSPost2010Prop55
280
     0
102
RTVSPost2010PropOp55
 70
     1
102
RTVSPost2010Prop56
140
1.0
102
RTVSPost2010PropOp56
 70
     1
102
RTVSPost2010Prop57
140
1.0
102
RTVSPost2010PropOp57
 70
     1
102
RTVSPropertyOp0
 70
     1
102
RTVSPropertyOp1
 70
     1
102
RTVSPropertyOp2
 70
     1
102
RTVSPropertyOp3
 70
     1
102
RTVSPropertyOp4
 70
     1
102
RTVSPropertyOp5
 70
     1
102
RTVSPropertyOp6
 70
     1
102
RTVSPropertyOp7
 70
     1
102
RTVSPropertyOp8
 70
     1
102
RTVSPropertyOp9
 70
     1
102
RTVSPropertyOp10
 70
     1
102
RTVSPropertyOp11
 70
     1
102
RTVSPropertyOp12
 70
     1
102
RTVSPropertyOp13
 70
     1
102
RTVSPropertyOp14
 70
     1
102
RTVSPropertyOp15
 70
     1
102
RTVSPropertyOp16
 70
     1
102
RTVSPropertyOp17
 70
     1
102
RTVSPropertyOp18
 70
     1
102
RTVSPropertyOp19
 70
     1
102
RTVSPropertyOp20
 70
     1
102
RTVSPropertyOp21
 70
     1
102
RTVSPropertyOp22
 70
     1
102
RTVSPropertyOp23
 70
     1
102
RTVSPropertyOp24
 70
     1
102
RTVSPropertyOp25
 70
     1
102
RTVSPropertyOp26
 70
     1
102
RTVSPropertyOp27
 70
     1
102
RTVSPropertyOp28
 70
     1
102
RTVSPropertyOp29
 70
     1
102
RTVSPropertyOp30
 70
     1
102
RTVSPropertyOp31
 70
     1
102
RTVSPropertyOp32
 70
     1
102
RTVSPropertyOp33
 70
     1
102
RTVSPropertyOp34
 70
     1
102
RTVSPropertyOp35
 70
     1
102
RTVSPropertyOp36
 70
     1
102
RTVSPropertyOp37
 70
     1
102
RTVSPropertyOp38
 70
     1
102
RTVSPropertyOp39
 70
     1
102
RTVSPropertyOp40
 70
     1
102
RTVSPropertyOp41
 70
     1
102
RTVSPropertyOp42
 70
     1
102
RTVSPropertyOp43
 70
     1
102
RTVSPropertyOp44
 70
     1
102
RTVSPropertyOp45
 70
     1
102
RTVSPropertyOp46
 70
     1
102
RTVSPropertyOp47
 70
     1
102
RTVSPropertyOp48
 70
     1
102
RTVSPropertyOp49
 70
     1
102
RTVSPropertyOp50
 70
     1
102
RTVSPropertyOp51
 70
     0
102
RTVSPropertyOp52
 70
     0
102
RTVSPropertyOp53
 70
     1
102
RTVSPropertyOp54
 70
     1
102
RTVSPropertyOp55
 70
     1
102
RTVSPropertyOp56
 70
     1
102
RTVSPropertyOp57
 70
     1
102
RTVSPropertyOp58
 70
     1
102
RTVSPropertyOp59
 70
     1
102
RTVSPropertyOp60
 70
     1
102
RTVSPropertyOp61
 70
     1
102
RTVSPropertyOp62
 70
     1
  0
XRECORD
  5
2CB3
102
{ACAD_REACTORS
330
2CB2
102
}
330
2CB2
100
AcDbXrecord
280
     1
102
RTVSPost2010Prop28
280
     0
102
RTVSPost2010PropOp28
 70
     1
102
RTVSPost2010Prop29
280
     1
102
RTVSPost2010PropOp29
 70
     1
102
RTVSPost2010Prop30
280
     1
102
RTVSPost2010PropOp30
 70
     1
102
RTVSPost2010Prop31
280
     0
102
RTVSPost2010PropOp31
 70
     1
102
RTVSPost2010Prop32
280
     0
102
RTVSPost2010PropOp32
 70
     1
102
RTVSPost2010Prop33
280
     0
102
RTVSPost2010PropOp33
 70
     1
102
RTVSPost2010Prop34
280
     0
102
RTVSPost2010PropOp34
 70
     1
102
RTVSPost2010Prop35
280
     0
102
RTVSPost2010PropOp35
 70
     1
102
RTVSPost2010Prop36
280
     0
102
RTVSPost2010PropOp36
 70
     1
102
RTVSPost2010Prop37
 90
       50
102
RTVSPost2010PropOp37
 70
     1
102
RTVSPost2010Prop38
140
0.0
102
RTVSPost2010PropOp38
 70
     1
102
RTVSPost2010Prop39
140
1.0
102
RTVSPost2010PropOp39
 70
     1
102
RTVSPost2010Prop40
 90
        0
102
RTVSPost2010PropOp40
 70
     1
102
RTVSPost2010Prop41ColorIndex
 90
       18
102
RTVSPost2010Prop41ColorRGB
 90
        0
102
RTVSPost2010PropOp41
 70
     1
102
RTVSPost2010Prop42
 90
       50
102
RTVSPost2010PropOp42
 70
     1
102
RTVSPost2010Prop43
 90
        3
102
RTVSPost2010PropOp43
 70
     1
102
RTVSPost2010Prop44ColorIndex
 90
        5
102
RTVSPost2010Prop44ColorRGB
 90
      255
102
RTVSPost2010PropOp44
 70
     1
102
RTVSPost2010Prop45
280
     0
102
RTVSPost2010PropOp45
 70
     1
102
RTVSPost2010Prop46
 90
       50
102
RTVSPost2010PropOp46
 70
     1
102
RTVSPost2010Prop47
 90
       50
102
RTVSPost2010PropOp47
 70
     1
102
RTVSPost2010Prop48
 90
       50
102
RTVSPost2010PropOp48
 70
     1
102
RTVSPost2010Prop49
280
     0
102
RTVSPost2010PropOp49
 70
     1
102
RTVSPost2010Prop50
 90
       50
102
RTVSPost2010PropOp50
 70
     1
102
RTVSPost2010Prop51ColorIndex
 90
      256
102
RTVSPost2010Prop51ColorRGB
 90
-16777216
102
RTVSPost2010PropOp51
 70
     0
102
RTVSPost2010Prop52
140
1.0
102
RTVSPost2010PropOp52
 70
     0
102
RTVSPost2010Prop53
 90
        2
102
RTVSPost2010PropOp53
 70
     1
102
RTVSPost2010Prop54
  1
strokes_ogs.tif
102
RTVSPost2010PropOp54
 70
     1
102
RTVSPost2010Prop55
280
     0
102
RTVSPost2010PropOp55
 70
     1
102
RTVSPost2010Prop56
140
1.0
102
RTVSPost2010PropOp56
 70
     1
102
RTVSPost2010Prop57
140
1.0
102
RTVSPost2010PropOp57
 70
     1
102
RTVSPropertyOp0
 70
     1
102
RTVSPropertyOp1
 70
     1
102
RTVSPropertyOp2
 70
     1
102
RTVSPropertyOp3
 70
     1
102
RTVSPropertyOp4
 70
     1
102
RTVSPropertyOp5
 70
     1
102
RTVSPropertyOp6
 70
     1
102
RTVSPropertyOp7
 70
     1
102
RTVSPropertyOp8
 70
     1
102
RTVSPropertyOp9
 70
     1
102
RTVSPropertyOp10
 70
     1
102
RTVSPropertyOp11
 70
     1
102
RTVSPropertyOp12
 70
     1
102
RTVSPropertyOp13
 70
     1
102
RTVSPropertyOp14
 70
     1
102
RTVSPropertyOp15
 70
     1
102
RTVSPropertyOp16
 70
     1
102
RTVSPropertyOp17
 70
     1
102
RTVSPropertyOp18
 70
     1
102
RTVSPropertyOp19
 70
     1
102
RTVSPropertyOp20
 70
     1
102
RTVSPropertyOp21
 70
     1
102
RTVSPropertyOp22
 70
     1
102
RTVSPropertyOp23
 70
     1
102
RTVSPropertyOp24
 70
     1
102
RTVSPropertyOp25
 70
     1
102
RTVSPropertyOp26
 70
     1
102
RTVSPropertyOp27
 70
     1
102
RTVSPropertyOp28
 70
     1
102
RTVSPropertyOp29
 70
     1
102
RTVSPropertyOp30
 70
     1
102
RTVSPropertyOp31
 70
     1
102
RTVSPropertyOp32
 70
     1
102
RTVSPropertyOp33
 70
     1
102
RTVSPropertyOp34
 70
     1
102
RTVSPropertyOp35
 70
     1
102
RTVSPropertyOp36
 70
     1
102
RTVSPropertyOp37
 70
     1
102
RTVSPropertyOp38
 70
     1
102
RTVSPropertyOp39
 70
     1
102
RTVSPropertyOp40
 70
     1
102
RTVSPropertyOp41
 70
     1
102
RTVSPropertyOp42
 70
     1
102
RTVSPropertyOp43
 70
     1
102
RTVSPropertyOp44
 70
     1
102
RTVSPropertyOp45
 70
     1
102
RTVSPropertyOp46
 70
     1
102
RTVSPropertyOp47
 70
     1
102
RTVSPropertyOp48
 70
     1
102
RTVSPropertyOp49
 70
     1
102
RTVSPropertyOp50
 70
     1
102
RTVSPropertyOp51
 70
     0
102
RTVSPropertyOp52
 70
     0
102
RTVSPropertyOp53
 70
     1
102
RTVSPropertyOp54
 70
     1
102
RTVSPropertyOp55
 70
     1
102
RTVSPropertyOp56
 70
     1
102
RTVSPropertyOp57
 70
     1
102
RTVSPropertyOp58
 70
     1
102
RTVSPropertyOp59
 70
     1
102
RTVSPropertyOp60
 70
     1
102
RTVSPropertyOp61
 70
     1
102
RTVSPropertyOp62
 70
     1
  0
XRECORD
  5
2CBB
102
{ACAD_REACTORS
330
2CBA
102
}
330
2CBA
100
AcDbXrecord
280
     1
102
RTVSPost2010Prop28
280
     0
102
RTVSPost2010PropOp28
 70
     1
102
RTVSPost2010Prop29
280
     1
102
RTVSPost2010PropOp29
 70
     1
102
RTVSPost2010Prop30
280
     1
102
RTVSPost2010PropOp30
 70
     1
102
RTVSPost2010Prop31
280
     0
102
RTVSPost2010PropOp31
 70
     1
102
RTVSPost2010Prop32
280
     0
102
RTVSPost2010PropOp32
 70
     1
102
RTVSPost2010Prop33
280
     0
102
RTVSPost2010PropOp33
 70
     1
102
RTVSPost2010Prop34
280
     0
102
RTVSPost2010PropOp34
 70
     1
102
RTVSPost2010Prop35
280
     0
102
RTVSPost2010PropOp35
 70
     1
102
RTVSPost2010Prop36
280
     0
102
RTVSPost2010PropOp36
 70
     1
102
RTVSPost2010Prop37
 90
       50
102
RTVSPost2010PropOp37
 70
     1
102
RTVSPost2010Prop38
140
0.0
102
RTVSPost2010PropOp38
 70
     1
102
RTVSPost2010Prop39
140
1.0
102
RTVSPost2010PropOp39
 70
     1
102
RTVSPost2010Prop40
 90
        0
102
RTVSPost2010PropOp40
 70
     1
102
RTVSPost2010Prop41ColorIndex
 90
       18
102
RTVSPost2010Prop41ColorRGB
 90
        0
102
RTVSPost2010PropOp41
 70
     1
102
RTVSPost2010Prop42
 90
       50
102
RTVSPost2010PropOp42
 70
     1
102
RTVSPost2010Prop43
 90
        3
102
RTVSPost2010PropOp43
 70
     1
102
RTVSPost2010Prop44ColorIndex
 90
        5
102
RTVSPost2010Prop44ColorRGB
 90
      255
102
RTVSPost2010PropOp44
 70
     1
102
RTVSPost2010Prop45
280
     0
102
RTVSPost2010PropOp45
 70
     1
102
RTVSPost2010Prop46
 90
       50
102
RTVSPost2010PropOp46
 70
     1
102
RTVSPost2010Prop47
 90
       50
102
RTVSPost2010PropOp47
 70
     1
102
RTVSPost2010Prop48
 90
       50
102
RTVSPost2010PropOp48
 70
     1
102
RTVSPost2010Prop49
280
     0
102
RTVSPost2010PropOp49
 70
     1
102
RTVSPost2010Prop50
 90
       50
102
RTVSPost2010PropOp50
 70
     1
102
RTVSPost2010Prop51ColorIndex
 90
      256
102
RTVSPost2010Prop51ColorRGB
 90
-16777216
102
RTVSPost2010PropOp51
 70
     0
102
RTVSPost2010Prop52
140
1.0
102
RTVSPost2010PropOp52
 70
     0
102
RTVSPost2010Prop53
 90
        2
102
RTVSPost2010PropOp53
 70
     1
102
RTVSPost2010Prop54
  1
strokes_ogs.tif
102
RTVSPost2010PropOp54
 70
     1
102
RTVSPost2010Prop55
280
     0
102
RTVSPost2010PropOp55
 70
     1
102
RTVSPost2010Prop56
140
1.0
102
RTVSPost2010PropOp56
 70
     1
102
RTVSPost2010Prop57
140
1.0
102
RTVSPost2010PropOp57
 70
     1
102
RTVSPropertyOp0
 70
     1
102
RTVSPropertyOp1
 70
     1
102
RTVSPropertyOp2
 70
     1
102
RTVSPropertyOp3
 70
     1
102
RTVSPropertyOp4
 70
     1
102
RTVSPropertyOp5
 70
     1
102
RTVSPropertyOp6
 70
     1
102
RTVSPropertyOp7
 70
     1
102
RTVSPropertyOp8
 70
     1
102
RTVSPropertyOp9
 70
     1
102
RTVSPropertyOp10
 70
     1
102
RTVSPropertyOp11
 70
     1
102
RTVSPropertyOp12
 70
     1
102
RTVSPropertyOp13
 70
     1
102
RTVSPropertyOp14
 70
     1
102
RTVSPropertyOp15
 70
     1
102
RTVSPropertyOp16
 70
     1
102
RTVSPropertyOp17
 70
     1
102
RTVSPropertyOp18
 70
     1
102
RTVSPropertyOp19
 70
     1
102
RTVSPropertyOp20
 70
     1
102
RTVSPropertyOp21
 70
     1
102
RTVSPropertyOp22
 70
     1
102
RTVSPropertyOp23
 70
     1
102
RTVSPropertyOp24
 70
     1
102
RTVSPropertyOp25
 70
     1
102
RTVSPropertyOp26
 70
     1
102
RTVSPropertyOp27
 70
     1
102
RTVSPropertyOp28
 70
     1
102
RTVSPropertyOp29
 70
     1
102
RTVSPropertyOp30
 70
     1
102
RTVSPropertyOp31
 70
     1
102
RTVSPropertyOp32
 70
     1
102
RTVSPropertyOp33
 70
     1
102
RTVSPropertyOp34
 70
     1
102
RTVSPropertyOp35
 70
     1
102
RTVSPropertyOp36
 70
     1
102
RTVSPropertyOp37
 70
     1
102
RTVSPropertyOp38
 70
     1
102
RTVSPropertyOp39
 70
     1
102
RTVSPropertyOp40
 70
     1
102
RTVSPropertyOp41
 70
     1
102
RTVSPropertyOp42
 70
     1
102
RTVSPropertyOp43
 70
     1
102
RTVSPropertyOp44
 70
     1
102
RTVSPropertyOp45
 70
     1
102
RTVSPropertyOp46
 70
     1
102
RTVSPropertyOp47
 70
     1
102
RTVSPropertyOp48
 70
     1
102
RTVSPropertyOp49
 70
     1
102
RTVSPropertyOp50
 70
     1
102
RTVSPropertyOp51
 70
     0
102
RTVSPropertyOp52
 70
     0
102
RTVSPropertyOp53
 70
     1
102
RTVSPropertyOp54
 70
     1
102
RTVSPropertyOp55
 70
     1
102
RTVSPropertyOp56
 70
     1
102
RTVSPropertyOp57
 70
     1
102
RTVSPropertyOp58
 70
     1
102
RTVSPropertyOp59
 70
     1
102
RTVSPropertyOp60
 70
     1
102
RTVSPropertyOp61
 70
     1
102
RTVSPropertyOp62
 70
     1
  0
XRECORD
  5
2CAD
102
{ACAD_REACTORS
330
2CAC
102
}
330
2CAC
100
AcDbXrecord
280
     1
102
RTVSPost2010Prop28
280
     0
102
RTVSPost2010PropOp28
 70
     1
102
RTVSPost2010Prop29
280
     1
102
RTVSPost2010PropOp29
 70
     1
102
RTVSPost2010Prop30
280
     1
102
RTVSPost2010PropOp30
 70
     1
102
RTVSPost2010Prop31
280
     0
102
RTVSPost2010PropOp31
 70
     1
102
RTVSPost2010Prop32
280
     0
102
RTVSPost2010PropOp32
 70
     1
102
RTVSPost2010Prop33
280
     0
102
RTVSPost2010PropOp33
 70
     1
102
RTVSPost2010Prop34
280
     0
102
RTVSPost2010PropOp34
 70
     1
102
RTVSPost2010Prop35
280
     0
102
RTVSPost2010PropOp35
 70
     1
102
RTVSPost2010Prop36
280
     0
102
RTVSPost2010PropOp36
 70
     1
102
RTVSPost2010Prop37
 90
       50
102
RTVSPost2010PropOp37
 70
     1
102
RTVSPost2010Prop38
140
0.0
102
RTVSPost2010PropOp38
 70
     1
102
RTVSPost2010Prop39
140
1.0
102
RTVSPost2010PropOp39
 70
     1
102
RTVSPost2010Prop40
 90
        0
102
RTVSPost2010PropOp40
 70
     1
102
RTVSPost2010Prop41ColorIndex
 90
       18
102
RTVSPost2010Prop41ColorRGB
 90
        0
102
RTVSPost2010PropOp41
 70
     1
102
RTVSPost2010Prop42
 90
       50
102
RTVSPost2010PropOp42
 70
     1
102
RTVSPost2010Prop43
 90
        3
102
RTVSPost2010PropOp43
 70
     1
102
RTVSPost2010Prop44ColorIndex
 90
        5
102
RTVSPost2010Prop44ColorRGB
 90
      255
102
RTVSPost2010PropOp44
 70
     1
102
RTVSPost2010Prop45
280
     0
102
RTVSPost2010PropOp45
 70
     1
102
RTVSPost2010Prop46
 90
       50
102
RTVSPost2010PropOp46
 70
     1
102
RTVSPost2010Prop47
 90
       50
102
RTVSPost2010PropOp47
 70
     1
102
RTVSPost2010Prop48
 90
       50
102
RTVSPost2010PropOp48
 70
     1
102
RTVSPost2010Prop49
280
     0
102
RTVSPost2010PropOp49
 70
     1
102
RTVSPost2010Prop50
 90
       50
102
RTVSPost2010PropOp50
 70
     1
102
RTVSPost2010Prop51ColorIndex
 90
      256
102
RTVSPost2010Prop51ColorRGB
 90
-16777216
102
RTVSPost2010PropOp51
 70
     0
102
RTVSPost2010Prop52
140
1.0
102
RTVSPost2010PropOp52
 70
     0
102
RTVSPost2010Prop53
 90
        2
102
RTVSPost2010PropOp53
 70
     1
102
RTVSPost2010Prop54
  1
strokes_ogs.tif
102
RTVSPost2010PropOp54
 70
     1
102
RTVSPost2010Prop55
280
     0
102
RTVSPost2010PropOp55
 70
     1
102
RTVSPost2010Prop56
140
1.0
102
RTVSPost2010PropOp56
 70
     1
102
RTVSPost2010Prop57
140
1.0
102
RTVSPost2010PropOp57
 70
     1
102
RTVSPropertyOp0
 70
     1
102
RTVSPropertyOp1
 70
     1
102
RTVSPropertyOp2
 70
     1
102
RTVSPropertyOp3
 70
     1
102
RTVSPropertyOp4
 70
     1
102
RTVSPropertyOp5
 70
     1
102
RTVSPropertyOp6
 70
     1
102
RTVSPropertyOp7
 70
     1
102
RTVSPropertyOp8
 70
     1
102
RTVSPropertyOp9
 70
     1
102
RTVSPropertyOp10
 70
     1
102
RTVSPropertyOp11
 70
     1
102
RTVSPropertyOp12
 70
     1
102
RTVSPropertyOp13
 70
     1
102
RTVSPropertyOp14
 70
     1
102
RTVSPropertyOp15
 70
     1
102
RTVSPropertyOp16
 70
     1
102
RTVSPropertyOp17
 70
     1
102
RTVSPropertyOp18
 70
     1
102
RTVSPropertyOp19
 70
     1
102
RTVSPropertyOp20
 70
     1
102
RTVSPropertyOp21
 70
     1
102
RTVSPropertyOp22
 70
     1
102
RTVSPropertyOp23
 70
     1
102
RTVSPropertyOp24
 70
     1
102
RTVSPropertyOp25
 70
     1
102
RTVSPropertyOp26
 70
     1
102
RTVSPropertyOp27
 70
     1
102
RTVSPropertyOp28
 70
     1
102
RTVSPropertyOp29
 70
     1
102
RTVSPropertyOp30
 70
     1
102
RTVSPropertyOp31
 70
     1
102
RTVSPropertyOp32
 70
     1
102
RTVSPropertyOp33
 70
     1
102
RTVSPropertyOp34
 70
     1
102
RTVSPropertyOp35
 70
     1
102
RTVSPropertyOp36
 70
     1
102
RTVSPropertyOp37
 70
     1
102
RTVSPropertyOp38
 70
     1
102
RTVSPropertyOp39
 70
     1
102
RTVSPropertyOp40
 70
     1
102
RTVSPropertyOp41
 70
     1
102
RTVSPropertyOp42
 70
     1
102
RTVSPropertyOp43
 70
     1
102
RTVSPropertyOp44
 70
     1
102
RTVSPropertyOp45
 70
     1
102
RTVSPropertyOp46
 70
     1
102
RTVSPropertyOp47
 70
     1
102
RTVSPropertyOp48
 70
     1
102
RTVSPropertyOp49
 70
     1
102
RTVSPropertyOp50
 70
     1
102
RTVSPropertyOp51
 70
     0
102
RTVSPropertyOp52
 70
     0
102
RTVSPropertyOp53
 70
     1
102
RTVSPropertyOp54
 70
     1
102
RTVSPropertyOp55
 70
     1
102
RTVSPropertyOp56
 70
     1
102
RTVSPropertyOp57
 70
     1
102
RTVSPropertyOp58
 70
     1
102
RTVSPropertyOp59
 70
     1
102
RTVSPropertyOp60
 70
     1
102
RTVSPropertyOp61
 70
     1
102
RTVSPropertyOp62
 70
     1
  0
XRECORD
  5
2CB1
102
{ACAD_REACTORS
330
2CB0
102
}
330
2CB0
100
AcDbXrecord
280
     1
102
RTVSPost2010Prop28
280
     0
102
RTVSPost2010PropOp28
 70
     1
102
RTVSPost2010Prop29
280
     1
102
RTVSPost2010PropOp29
 70
     1
102
RTVSPost2010Prop30
280
     1
102
RTVSPost2010PropOp30
 70
     1
102
RTVSPost2010Prop31
280
     0
102
RTVSPost2010PropOp31
 70
     1
102
RTVSPost2010Prop32
280
     0
102
RTVSPost2010PropOp32
 70
     1
102
RTVSPost2010Prop33
280
     0
102
RTVSPost2010PropOp33
 70
     1
102
RTVSPost2010Prop34
280
     0
102
RTVSPost2010PropOp34
 70
     1
102
RTVSPost2010Prop35
280
     0
102
RTVSPost2010PropOp35
 70
     1
102
RTVSPost2010Prop36
280
     0
102
RTVSPost2010PropOp36
 70
     1
102
RTVSPost2010Prop37
 90
       50
102
RTVSPost2010PropOp37
 70
     1
102
RTVSPost2010Prop38
140
0.0
102
RTVSPost2010PropOp38
 70
     1
102
RTVSPost2010Prop39
140
1.0
102
RTVSPost2010PropOp39
 70
     1
102
RTVSPost2010Prop40
 90
        0
102
RTVSPost2010PropOp40
 70
     1
102
RTVSPost2010Prop41ColorIndex
 90
       18
102
RTVSPost2010Prop41ColorRGB
 90
        0
102
RTVSPost2010PropOp41
 70
     1
102
RTVSPost2010Prop42
 90
       50
102
RTVSPost2010PropOp42
 70
     1
102
RTVSPost2010Prop43
 90
        3
102
RTVSPost2010PropOp43
 70
     1
102
RTVSPost2010Prop44ColorIndex
 90
        5
102
RTVSPost2010Prop44ColorRGB
 90
      255
102
RTVSPost2010PropOp44
 70
     1
102
RTVSPost2010Prop45
280
     0
102
RTVSPost2010PropOp45
 70
     1
102
RTVSPost2010Prop46
 90
       50
102
RTVSPost2010PropOp46
 70
     1
102
RTVSPost2010Prop47
 90
       50
102
RTVSPost2010PropOp47
 70
     1
102
RTVSPost2010Prop48
 90
       50
102
RTVSPost2010PropOp48
 70
     1
102
RTVSPost2010Prop49
280
     0
102
RTVSPost2010PropOp49
 70
     1
102
RTVSPost2010Prop50
 90
       50
102
RTVSPost2010PropOp50
 70
     1
102
RTVSPost2010Prop51ColorIndex
 90
      256
102
RTVSPost2010Prop51ColorRGB
 90
-16777216
102
RTVSPost2010PropOp51
 70
     0
102
RTVSPost2010Prop52
140
1.0
102
RTVSPost2010PropOp52
 70
     0
102
RTVSPost2010Prop53
 90
        2
102
RTVSPost2010PropOp53
 70
     1
102
RTVSPost2010Prop54
  1
strokes_ogs.tif
102
RTVSPost2010PropOp54
 70
     1
102
RTVSPost2010Prop55
280
     0
102
RTVSPost2010PropOp55
 70
     1
102
RTVSPost2010Prop56
140
1.0
102
RTVSPost2010PropOp56
 70
     1
102
RTVSPost2010Prop57
140
1.0
102
RTVSPost2010PropOp57
 70
     1
102
RTVSPropertyOp0
 70
     1
102
RTVSPropertyOp1
 70
     1
102
RTVSPropertyOp2
 70
     1
102
RTVSPropertyOp3
 70
     1
102
RTVSPropertyOp4
 70
     1
102
RTVSPropertyOp5
 70
     1
102
RTVSPropertyOp6
 70
     1
102
RTVSPropertyOp7
 70
     1
102
RTVSPropertyOp8
 70
     1
102
RTVSPropertyOp9
 70
     1
102
RTVSPropertyOp10
 70
     1
102
RTVSPropertyOp11
 70
     1
102
RTVSPropertyOp12
 70
     1
102
RTVSPropertyOp13
 70
     1
102
RTVSPropertyOp14
 70
     1
102
RTVSPropertyOp15
 70
     1
102
RTVSPropertyOp16
 70
     1
102
RTVSPropertyOp17
 70
     1
102
RTVSPropertyOp18
 70
     1
102
RTVSPropertyOp19
 70
     1
102
RTVSPropertyOp20
 70
     1
102
RTVSPropertyOp21
 70
     1
102
RTVSPropertyOp22
 70
     1
102
RTVSPropertyOp23
 70
     1
102
RTVSPropertyOp24
 70
     1
102
RTVSPropertyOp25
 70
     1
102
RTVSPropertyOp26
 70
     1
102
RTVSPropertyOp27
 70
     1
102
RTVSPropertyOp28
 70
     1
102
RTVSPropertyOp29
 70
     1
102
RTVSPropertyOp30
 70
     1
102
RTVSPropertyOp31
 70
     1
102
RTVSPropertyOp32
 70
     1
102
RTVSPropertyOp33
 70
     1
102
RTVSPropertyOp34
 70
     1
102
RTVSPropertyOp35
 70
     1
102
RTVSPropertyOp36
 70
     1
102
RTVSPropertyOp37
 70
     1
102
RTVSPropertyOp38
 70
     1
102
RTVSPropertyOp39
 70
     1
102
RTVSPropertyOp40
 70
     1
102
RTVSPropertyOp41
 70
     1
102
RTVSPropertyOp42
 70
     1
102
RTVSPropertyOp43
 70
     1
102
RTVSPropertyOp44
 70
     1
102
RTVSPropertyOp45
 70
     1
102
RTVSPropertyOp46
 70
     1
102
RTVSPropertyOp47
 70
     1
102
RTVSPropertyOp48
 70
     1
102
RTVSPropertyOp49
 70
     1
102
RTVSPropertyOp50
 70
     1
102
RTVSPropertyOp51
 70
     0
102
RTVSPropertyOp52
 70
     0
102
RTVSPropertyOp53
 70
     1
102
RTVSPropertyOp54
 70
     1
102
RTVSPropertyOp55
 70
     1
102
RTVSPropertyOp56
 70
     1
102
RTVSPropertyOp57
 70
     1
102
RTVSPropertyOp58
 70
     1
102
RTVSPropertyOp59
 70
     1
102
RTVSPropertyOp60
 70
     1
102
RTVSPropertyOp61
 70
     1
102
RTVSPropertyOp62
 70
     1
  0
XRECORD
  5
2CCB
102
{ACAD_REACTORS
330
2CCA
102
}
330
2CCA
100
AcDbXrecord
280
     1
102
RTVSPost2010Prop28
280
     0
102
RTVSPost2010PropOp28
 70
     1
102
RTVSPost2010Prop29
280
     1
102
RTVSPost2010PropOp29
 70
     1
102
RTVSPost2010Prop30
280
     1
102
RTVSPost2010PropOp30
 70
     1
102
RTVSPost2010Prop31
280
     0
102
RTVSPost2010PropOp31
 70
     1
102
RTVSPost2010Prop32
280
     0
102
RTVSPost2010PropOp32
 70
     1
102
RTVSPost2010Prop33
280
     0
102
RTVSPost2010PropOp33
 70
     1
102
RTVSPost2010Prop34
280
     0
102
RTVSPost2010PropOp34
 70
     1
102
RTVSPost2010Prop35
280
     0
102
RTVSPost2010PropOp35
 70
     1
102
RTVSPost2010Prop36
280
     0
102
RTVSPost2010PropOp36
 70
     1
102
RTVSPost2010Prop37
 90
       50
102
RTVSPost2010PropOp37
 70
     0
102
RTVSPost2010Prop38
140
0.0
102
RTVSPost2010PropOp38
 70
     0
102
RTVSPost2010Prop39
140
1.0
102
RTVSPost2010PropOp39
 70
     0
102
RTVSPost2010Prop40
 90
        0
102
RTVSPost2010PropOp40
 70
     0
102
RTVSPost2010Prop41ColorIndex
 90
       18
102
RTVSPost2010Prop41ColorRGB
 90
        0
102
RTVSPost2010PropOp41
 70
     0
102
RTVSPost2010Prop42
 90
       50
102
RTVSPost2010PropOp42
 70
     0
102
RTVSPost2010Prop43
 90
        3
102
RTVSPost2010PropOp43
 70
     0
102
RTVSPost2010Prop44ColorIndex
 90
        5
102
RTVSPost2010Prop44ColorRGB
 90
      255
102
RTVSPost2010PropOp44
 70
     0
102
RTVSPost2010Prop45
280
     0
102
RTVSPost2010PropOp45
 70
     1
102
RTVSPost2010Prop46
 90
       50
102
RTVSPost2010PropOp46
 70
     0
102
RTVSPost2010Prop47
 90
       50
102
RTVSPost2010PropOp47
 70
     0
102
RTVSPost2010Prop48
 90
       50
102
RTVSPost2010PropOp48
 70
     0
102
RTVSPost2010Prop49
280
     0
102
RTVSPost2010PropOp49
 70
     1
102
RTVSPost2010Prop50
 90
       50
102
RTVSPost2010PropOp50
 70
     0
102
RTVSPost2010Prop51ColorIndex
 90
      256
102
RTVSPost2010Prop51ColorRGB
 90
-16777216
102
RTVSPost2010PropOp51
 70
     0
102
RTVSPost2010Prop52
140
1.0
102
RTVSPost2010PropOp52
 70
     0
102
RTVSPost2010Prop53
 90
        2
102
RTVSPost2010PropOp53
 70
     0
102
RTVSPost2010Prop54
  1
strokes_ogs.tif
102
RTVSPost2010PropOp54
 70
     0
102
RTVSPost2010Prop55
280
     0
102
RTVSPost2010PropOp55
 70
     1
102
RTVSPost2010Prop56
140
1.0
102
RTVSPost2010PropOp56
 70
     0
102
RTVSPost2010Prop57
140
1.0
102
RTVSPost2010PropOp57
 70
     0
102
RTVSPropertyOp0
 70
     0
102
RTVSPropertyOp1
 70
     0
102
RTVSPropertyOp2
 70
     0
102
RTVSPropertyOp3
 70
     0
102
RTVSPropertyOp4
 70
     0
102
RTVSPropertyOp5
 70
     0
102
RTVSPropertyOp6
 70
     0
102
RTVSPropertyOp7
 70
     0
102
RTVSPropertyOp8
 70
     0
102
RTVSPropertyOp9
 70
     0
102
RTVSPropertyOp10
 70
     0
102
RTVSPropertyOp11
 70
     0
102
RTVSPropertyOp12
 70
     0
102
RTVSPropertyOp13
 70
     0
102
RTVSPropertyOp14
 70
     2
102
RTVSPropertyOp15
 70
     0
102
RTVSPropertyOp16
 70
     0
102
RTVSPropertyOp17
 70
     0
102
RTVSPropertyOp18
 70
     0
102
RTVSPropertyOp19
 70
     0
102
RTVSPropertyOp20
 70
     0
102
RTVSPropertyOp21
 70
     0
102
RTVSPropertyOp22
 70
     0
102
RTVSPropertyOp23
 70
     0
102
RTVSPropertyOp24
 70
     0
102
RTVSPropertyOp25
 70
     0
102
RTVSPropertyOp26
 70
     0
102
RTVSPropertyOp27
 70
     0
102
RTVSPropertyOp28
 70
     1
102
RTVSPropertyOp29
 70
     1
102
RTVSPropertyOp30
 70
     1
102
RTVSPropertyOp31
 70
     1
102
RTVSPropertyOp32
 70
     1
102
RTVSPropertyOp33
 70
     1
102
RTVSPropertyOp34
 70
     1
102
RTVSPropertyOp35
 70
     1
102
RTVSPropertyOp36
 70
     1
102
RTVSPropertyOp37
 70
     0
102
RTVSPropertyOp38
 70
     0
102
RTVSPropertyOp39
 70
     0
102
RTVSPropertyOp40
 70
     0
102
RTVSPropertyOp41
 70
     0
102
RTVSPropertyOp42
 70
     0
102
RTVSPropertyOp43
 70
     0
102
RTVSPropertyOp44
 70
     0
102
RTVSPropertyOp45
 70
     1
102
RTVSPropertyOp46
 70
     0
102
RTVSPropertyOp47
 70
     0
102
RTVSPropertyOp48
 70
     0
102
RTVSPropertyOp49
 70
     1
102
RTVSPropertyOp50
 70
     0
102
RTVSPropertyOp51
 70
     0
102
RTVSPropertyOp52
 70
     0
102
RTVSPropertyOp53
 70
     0
102
RTVSPropertyOp54
 70
     0
102
RTVSPropertyOp55
 70
     1
102
RTVSPropertyOp56
 70
     0
102
RTVSPropertyOp57
 70
     0
102
RTVSPropertyOp58
 70
     0
102
RTVSPropertyOp59
 70
     0
102
RTVSPropertyOp60
 70
     0
102
RTVSPropertyOp61
 70
     0
102
RTVSPropertyOp62
 70
     0
  0
XRECORD
  5
2CB9
102
{ACAD_REACTORS
330
2CB8
102
}
330
2CB8
100
AcDbXrecord
280
     1
102
RTVSPost2010Prop28
280
     0
102
RTVSPost2010PropOp28
 70
     1
102
RTVSPost2010Prop29
280
     1
102
RTVSPost2010PropOp29
 70
     1
102
RTVSPost2010Prop30
280
     1
102
RTVSPost2010PropOp30
 70
     1
102
RTVSPost2010Prop31
280
     0
102
RTVSPost2010PropOp31
 70
     1
102
RTVSPost2010Prop32
280
     0
102
RTVSPost2010PropOp32
 70
     1
102
RTVSPost2010Prop33
280
     0
102
RTVSPost2010PropOp33
 70
     1
102
RTVSPost2010Prop34
280
     0
102
RTVSPost2010PropOp34
 70
     1
102
RTVSPost2010Prop35
280
     0
102
RTVSPost2010PropOp35
 70
     1
102
RTVSPost2010Prop36
280
     0
102
RTVSPost2010PropOp36
 70
     1
102
RTVSPost2010Prop37
 90
       50
102
RTVSPost2010PropOp37
 70
     1
102
RTVSPost2010Prop38
140
0.0
102
RTVSPost2010PropOp38
 70
     1
102
RTVSPost2010Prop39
140
1.0
102
RTVSPost2010PropOp39
 70
     1
102
RTVSPost2010Prop40
 90
        0
102
RTVSPost2010PropOp40
 70
     1
102
RTVSPost2010Prop41ColorIndex
 90
       18
102
RTVSPost2010Prop41ColorRGB
 90
        0
102
RTVSPost2010PropOp41
 70
     1
102
RTVSPost2010Prop42
 90
       50
102
RTVSPost2010PropOp42
 70
     1
102
RTVSPost2010Prop43
 90
        3
102
RTVSPost2010PropOp43
 70
     1
102
RTVSPost2010Prop44ColorIndex
 90
        5
102
RTVSPost2010Prop44ColorRGB
 90
      255
102
RTVSPost2010PropOp44
 70
     1
102
RTVSPost2010Prop45
280
     0
102
RTVSPost2010PropOp45
 70
     1
102
RTVSPost2010Prop46
 90
       50
102
RTVSPost2010PropOp46
 70
     1
102
RTVSPost2010Prop47
 90
       50
102
RTVSPost2010PropOp47
 70
     1
102
RTVSPost2010Prop48
 90
       50
102
RTVSPost2010PropOp48
 70
     1
102
RTVSPost2010Prop49
280
     0
102
RTVSPost2010PropOp49
 70
     1
102
RTVSPost2010Prop50
 90
       50
102
RTVSPost2010PropOp50
 70
     1
102
RTVSPost2010Prop51ColorIndex
 90
      256
102
RTVSPost2010Prop51ColorRGB
 90
-16777216
102
RTVSPost2010PropOp51
 70
     0
102
RTVSPost2010Prop52
140
1.0
102
RTVSPost2010PropOp52
 70
     0
102
RTVSPost2010Prop53
 90
        2
102
RTVSPost2010PropOp53
 70
     1
102
RTVSPost2010Prop54
  1
strokes_ogs.tif
102
RTVSPost2010PropOp54
 70
     1
102
RTVSPost2010Prop55
280
     0
102
RTVSPost2010PropOp55
 70
     1
102
RTVSPost2010Prop56
140
1.0
102
RTVSPost2010PropOp56
 70
     1
102
RTVSPost2010Prop57
140
1.0
102
RTVSPost2010PropOp57
 70
     1
102
RTVSPropertyOp0
 70
     1
102
RTVSPropertyOp1
 70
     1
102
RTVSPropertyOp2
 70
     1
102
RTVSPropertyOp3
 70
     1
102
RTVSPropertyOp4
 70
     1
102
RTVSPropertyOp5
 70
     1
102
RTVSPropertyOp6
 70
     1
102
RTVSPropertyOp7
 70
     1
102
RTVSPropertyOp8
 70
     1
102
RTVSPropertyOp9
 70
     1
102
RTVSPropertyOp10
 70
     1
102
RTVSPropertyOp11
 70
     1
102
RTVSPropertyOp12
 70
     1
102
RTVSPropertyOp13
 70
     1
102
RTVSPropertyOp14
 70
     1
102
RTVSPropertyOp15
 70
     1
102
RTVSPropertyOp16
 70
     1
102
RTVSPropertyOp17
 70
     1
102
RTVSPropertyOp18
 70
     1
102
RTVSPropertyOp19
 70
     1
102
RTVSPropertyOp20
 70
     1
102
RTVSPropertyOp21
 70
     1
102
RTVSPropertyOp22
 70
     1
102
RTVSPropertyOp23
 70
     1
102
RTVSPropertyOp24
 70
     1
102
RTVSPropertyOp25
 70
     1
102
RTVSPropertyOp26
 70
     1
102
RTVSPropertyOp27
 70
     1
102
RTVSPropertyOp28
 70
     1
102
RTVSPropertyOp29
 70
     1
102
RTVSPropertyOp30
 70
     1
102
RTVSPropertyOp31
 70
     1
102
RTVSPropertyOp32
 70
     1
102
RTVSPropertyOp33
 70
     1
102
RTVSPropertyOp34
 70
     1
102
RTVSPropertyOp35
 70
     1
102
RTVSPropertyOp36
 70
     1
102
RTVSPropertyOp37
 70
     1
102
RTVSPropertyOp38
 70
     1
102
RTVSPropertyOp39
 70
     1
102
RTVSPropertyOp40
 70
     1
102
RTVSPropertyOp41
 70
     1
102
RTVSPropertyOp42
 70
     1
102
RTVSPropertyOp43
 70
     1
102
RTVSPropertyOp44
 70
     1
102
RTVSPropertyOp45
 70
     1
102
RTVSPropertyOp46
 70
     1
102
RTVSPropertyOp47
 70
     1
102
RTVSPropertyOp48
 70
     1
102
RTVSPropertyOp49
 70
     1
102
RTVSPropertyOp50
 70
     1
102
RTVSPropertyOp51
 70
     0
102
RTVSPropertyOp52
 70
     0
102
RTVSPropertyOp53
 70
     1
102
RTVSPropertyOp54
 70
     1
102
RTVSPropertyOp55
 70
     1
102
RTVSPropertyOp56
 70
     1
102
RTVSPropertyOp57
 70
     1
102
RTVSPropertyOp58
 70
     1
102
RTVSPropertyOp59
 70
     1
102
RTVSPropertyOp60
 70
     1
102
RTVSPropertyOp61
 70
     1
102
RTVSPropertyOp62
 70
     1
  0
XRECORD
  5
2C9D
102
{ACAD_REACTORS
330
2C9C
102
}
330
2C9C
100
AcDbXrecord
280
     1
102
RTVSPost2010Prop28
280
     0
102
RTVSPost2010PropOp28
 70
     1
102
RTVSPost2010Prop29
280
     1
102
RTVSPost2010PropOp29
 70
     1
102
RTVSPost2010Prop30
280
     1
102
RTVSPost2010PropOp30
 70
     1
102
RTVSPost2010Prop31
280
     0
102
RTVSPost2010PropOp31
 70
     1
102
RTVSPost2010Prop32
280
     0
102
RTVSPost2010PropOp32
 70
     1
102
RTVSPost2010Prop33
280
     0
102
RTVSPost2010PropOp33
 70
     1
102
RTVSPost2010Prop34
280
     0
102
RTVSPost2010PropOp34
 70
     1
102
RTVSPost2010Prop35
280
     0
102
RTVSPost2010PropOp35
 70
     1
102
RTVSPost2010Prop36
280
     0
102
RTVSPost2010PropOp36
 70
     1
102
RTVSPost2010Prop37
 90
       50
102
RTVSPost2010PropOp37
 70
     1
102
RTVSPost2010Prop38
140
0.0
102
RTVSPost2010PropOp38
 70
     1
102
RTVSPost2010Prop39
140
1.0
102
RTVSPost2010PropOp39
 70
     1
102
RTVSPost2010Prop40
 90
        0
102
RTVSPost2010PropOp40
 70
     1
102
RTVSPost2010Prop41ColorIndex
 90
       18
102
RTVSPost2010Prop41ColorRGB
 90
        0
102
RTVSPost2010PropOp41
 70
     1
102
RTVSPost2010Prop42
 90
       50
102
RTVSPost2010PropOp42
 70
     1
102
RTVSPost2010Prop43
 90
        3
102
RTVSPost2010PropOp43
 70
     1
102
RTVSPost2010Prop44ColorIndex
 90
        5
102
RTVSPost2010Prop44ColorRGB
 90
      255
102
RTVSPost2010PropOp44
 70
     1
102
RTVSPost2010Prop45
280
     0
102
RTVSPost2010PropOp45
 70
     1
102
RTVSPost2010Prop46
 90
       50
102
RTVSPost2010PropOp46
 70
     1
102
RTVSPost2010Prop47
 90
       50
102
RTVSPost2010PropOp47
 70
     1
102
RTVSPost2010Prop48
 90
       50
102
RTVSPost2010PropOp48
 70
     1
102
RTVSPost2010Prop49
280
     0
102
RTVSPost2010PropOp49
 70
     1
102
RTVSPost2010Prop50
 90
       50
102
RTVSPost2010PropOp50
 70
     1
102
RTVSPost2010Prop51ColorIndex
 90
      256
102
RTVSPost2010Prop51ColorRGB
 90
-16777216
102
RTVSPost2010PropOp51
 70
     0
102
RTVSPost2010Prop52
140
1.0
102
RTVSPost2010PropOp52
 70
     0
102
RTVSPost2010Prop53
 90
        2
102
RTVSPost2010PropOp53
 70
     1
102
RTVSPost2010Prop54
  1
strokes_ogs.tif
102
RTVSPost2010PropOp54
 70
     1
102
RTVSPost2010Prop55
280
     0
102
RTVSPost2010PropOp55
 70
     1
102
RTVSPost2010Prop56
140
1.0
102
RTVSPost2010PropOp56
 70
     1
102
RTVSPost2010Prop57
140
1.0
102
RTVSPost2010PropOp57
 70
     1
102
RTVSPropertyOp0
 70
     1
102
RTVSPropertyOp1
 70
     1
102
RTVSPropertyOp2
 70
     1
102
RTVSPropertyOp3
 70
     1
102
RTVSPropertyOp4
 70
     1
102
RTVSPropertyOp5
 70
     1
102
RTVSPropertyOp6
 70
     1
102
RTVSPropertyOp7
 70
     1
102
RTVSPropertyOp8
 70
     1
102
RTVSPropertyOp9
 70
     1
102
RTVSPropertyOp10
 70
     1
102
RTVSPropertyOp11
 70
     1
102
RTVSPropertyOp12
 70
     1
102
RTVSPropertyOp13
 70
     1
102
RTVSPropertyOp14
 70
     1
102
RTVSPropertyOp15
 70
     1
102
RTVSPropertyOp16
 70
     1
102
RTVSPropertyOp17
 70
     1
102
RTVSPropertyOp18
 70
     1
102
RTVSPropertyOp19
 70
     1
102
RTVSPropertyOp20
 70
     1
102
RTVSPropertyOp21
 70
     1
102
RTVSPropertyOp22
 70
     1
102
RTVSPropertyOp23
 70
     1
102
RTVSPropertyOp24
 70
     1
102
RTVSPropertyOp25
 70
     1
102
RTVSPropertyOp26
 70
     1
102
RTVSPropertyOp27
 70
     1
102
RTVSPropertyOp28
 70
     1
102
RTVSPropertyOp29
 70
     1
102
RTVSPropertyOp30
 70
     1
102
RTVSPropertyOp31
 70
     1
102
RTVSPropertyOp32
 70
     1
102
RTVSPropertyOp33
 70
     1
102
RTVSPropertyOp34
 70
     1
102
RTVSPropertyOp35
 70
     1
102
RTVSPropertyOp36
 70
     1
102
RTVSPropertyOp37
 70
     1
102
RTVSPropertyOp38
 70
     1
102
RTVSPropertyOp39
 70
     1
102
RTVSPropertyOp40
 70
     1
102
RTVSPropertyOp41
 70
     1
102
RTVSPropertyOp42
 70
     1
102
RTVSPropertyOp43
 70
     1
102
RTVSPropertyOp44
 70
     1
102
RTVSPropertyOp45
 70
     1
102
RTVSPropertyOp46
 70
     1
102
RTVSPropertyOp47
 70
     1
102
RTVSPropertyOp48
 70
     1
102
RTVSPropertyOp49
 70
     1
102
RTVSPropertyOp50
 70
     1
102
RTVSPropertyOp51
 70
     0
102
RTVSPropertyOp52
 70
     0
102
RTVSPropertyOp53
 70
     1
102
RTVSPropertyOp54
 70
     1
102
RTVSPropertyOp55
 70
     1
102
RTVSPropertyOp56
 70
     1
102
RTVSPropertyOp57
 70
     1
102
RTVSPropertyOp58
 70
     1
102
RTVSPropertyOp59
 70
     1
102
RTVSPropertyOp60
 70
     1
102
RTVSPropertyOp61
 70
     1
102
RTVSPropertyOp62
 70
     1
  0
XRECORD
  5
2C9F
102
{ACAD_REACTORS
330
2C9E
102
}
330
2C9E
100
AcDbXrecord
280
     1
102
RTVSPost2010Prop28
280
     0
102
RTVSPost2010PropOp28
 70
     1
102
RTVSPost2010Prop29
280
     1
102
RTVSPost2010PropOp29
 70
     1
102
RTVSPost2010Prop30
280
     1
102
RTVSPost2010PropOp30
 70
     1
102
RTVSPost2010Prop31
280
     0
102
RTVSPost2010PropOp31
 70
     1
102
RTVSPost2010Prop32
280
     0
102
RTVSPost2010PropOp32
 70
     1
102
RTVSPost2010Prop33
280
     0
102
RTVSPost2010PropOp33
 70
     1
102
RTVSPost2010Prop34
280
     0
102
RTVSPost2010PropOp34
 70
     1
102
RTVSPost2010Prop35
280
     0
102
RTVSPost2010PropOp35
 70
     1
102
RTVSPost2010Prop36
280
     0
102
RTVSPost2010PropOp36
 70
     1
102
RTVSPost2010Prop37
 90
       50
102
RTVSPost2010PropOp37
 70
     1
102
RTVSPost2010Prop38
140
0.0
102
RTVSPost2010PropOp38
 70
     1
102
RTVSPost2010Prop39
140
1.0
102
RTVSPost2010PropOp39
 70
     1
102
RTVSPost2010Prop40
 90
        0
102
RTVSPost2010PropOp40
 70
     1
102
RTVSPost2010Prop41ColorIndex
 90
       18
102
RTVSPost2010Prop41ColorRGB
 90
        0
102
RTVSPost2010PropOp41
 70
     1
102
RTVSPost2010Prop42
 90
       50
102
RTVSPost2010PropOp42
 70
     1
102
RTVSPost2010Prop43
 90
        3
102
RTVSPost2010PropOp43
 70
     1
102
RTVSPost2010Prop44ColorIndex
 90
        5
102
RTVSPost2010Prop44ColorRGB
 90
      255
102
RTVSPost2010PropOp44
 70
     1
102
RTVSPost2010Prop45
280
     0
102
RTVSPost2010PropOp45
 70
     1
102
RTVSPost2010Prop46
 90
       50
102
RTVSPost2010PropOp46
 70
     1
102
RTVSPost2010Prop47
 90
       50
102
RTVSPost2010PropOp47
 70
     1
102
RTVSPost2010Prop48
 90
       50
102
RTVSPost2010PropOp48
 70
     1
102
RTVSPost2010Prop49
280
     0
102
RTVSPost2010PropOp49
 70
     1
102
RTVSPost2010Prop50
 90
       50
102
RTVSPost2010PropOp50
 70
     1
102
RTVSPost2010Prop51ColorIndex
 90
      256
102
RTVSPost2010Prop51ColorRGB
 90
-16777216
102
RTVSPost2010PropOp51
 70
     0
102
RTVSPost2010Prop52
140
1.0
102
RTVSPost2010PropOp52
 70
     0
102
RTVSPost2010Prop53
 90
        2
102
RTVSPost2010PropOp53
 70
     1
102
RTVSPost2010Prop54
  1
strokes_ogs.tif
102
RTVSPost2010PropOp54
 70
     1
102
RTVSPost2010Prop55
280
     0
102
RTVSPost2010PropOp55
 70
     1
102
RTVSPost2010Prop56
140
1.0
102
RTVSPost2010PropOp56
 70
     1
102
RTVSPost2010Prop57
140
1.0
102
RTVSPost2010PropOp57
 70
     1
102
RTVSPropertyOp0
 70
     1
102
RTVSPropertyOp1
 70
     1
102
RTVSPropertyOp2
 70
     1
102
RTVSPropertyOp3
 70
     1
102
RTVSPropertyOp4
 70
     1
102
RTVSPropertyOp5
 70
     1
102
RTVSPropertyOp6
 70
     1
102
RTVSPropertyOp7
 70
     1
102
RTVSPropertyOp8
 70
     1
102
RTVSPropertyOp9
 70
     1
102
RTVSPropertyOp10
 70
     1
102
RTVSPropertyOp11
 70
     1
102
RTVSPropertyOp12
 70
     1
102
RTVSPropertyOp13
 70
     1
102
RTVSPropertyOp14
 70
     1
102
RTVSPropertyOp15
 70
     1
102
RTVSPropertyOp16
 70
     1
102
RTVSPropertyOp17
 70
     1
102
RTVSPropertyOp18
 70
     1
102
RTVSPropertyOp19
 70
     1
102
RTVSPropertyOp20
 70
     1
102
RTVSPropertyOp21
 70
     1
102
RTVSPropertyOp22
 70
     1
102
RTVSPropertyOp23
 70
     1
102
RTVSPropertyOp24
 70
     1
102
RTVSPropertyOp25
 70
     1
102
RTVSPropertyOp26
 70
     1
102
RTVSPropertyOp27
 70
     1
102
RTVSPropertyOp28
 70
     1
102
RTVSPropertyOp29
 70
     1
102
RTVSPropertyOp30
 70
     1
102
RTVSPropertyOp31
 70
     1
102
RTVSPropertyOp32
 70
     1
102
RTVSPropertyOp33
 70
     1
102
RTVSPropertyOp34
 70
     1
102
RTVSPropertyOp35
 70
     1
102
RTVSPropertyOp36
 70
     1
102
RTVSPropertyOp37
 70
     1
102
RTVSPropertyOp38
 70
     1
102
RTVSPropertyOp39
 70
     1
102
RTVSPropertyOp40
 70
     1
102
RTVSPropertyOp41
 70
     1
102
RTVSPropertyOp42
 70
     1
102
RTVSPropertyOp43
 70
     1
102
RTVSPropertyOp44
 70
     1
102
RTVSPropertyOp45
 70
     1
102
RTVSPropertyOp46
 70
     1
102
RTVSPropertyOp47
 70
     1
102
RTVSPropertyOp48
 70
     1
102
RTVSPropertyOp49
 70
     1
102
RTVSPropertyOp50
 70
     1
102
RTVSPropertyOp51
 70
     0
102
RTVSPropertyOp52
 70
     0
102
RTVSPropertyOp53
 70
     1
102
RTVSPropertyOp54
 70
     1
102
RTVSPropertyOp55
 70
     1
102
RTVSPropertyOp56
 70
     1
102
RTVSPropertyOp57
 70
     1
102
RTVSPropertyOp58
 70
     1
102
RTVSPropertyOp59
 70
     1
102
RTVSPropertyOp60
 70
     1
102
RTVSPropertyOp61
 70
     1
102
RTVSPropertyOp62
 70
     1
  0
XRECORD
  5
2CA1
102
{ACAD_REACTORS
330
2CA0
102
}
330
2CA0
100
AcDbXrecord
280
     1
102
RTVSPost2010Prop28
280
     0
102
RTVSPost2010PropOp28
 70
     1
102
RTVSPost2010Prop29
280
     1
102
RTVSPost2010PropOp29
 70
     1
102
RTVSPost2010Prop30
280
     1
102
RTVSPost2010PropOp30
 70
     1
102
RTVSPost2010Prop31
280
     0
102
RTVSPost2010PropOp31
 70
     1
102
RTVSPost2010Prop32
280
     0
102
RTVSPost2010PropOp32
 70
     1
102
RTVSPost2010Prop33
280
     0
102
RTVSPost2010PropOp33
 70
     1
102
RTVSPost2010Prop34
280
     0
102
RTVSPost2010PropOp34
 70
     1
102
RTVSPost2010Prop35
280
     0
102
RTVSPost2010PropOp35
 70
     1
102
RTVSPost2010Prop36
280
     0
102
RTVSPost2010PropOp36
 70
     1
102
RTVSPost2010Prop37
 90
       50
102
RTVSPost2010PropOp37
 70
     1
102
RTVSPost2010Prop38
140
0.0
102
RTVSPost2010PropOp38
 70
     1
102
RTVSPost2010Prop39
140
1.0
102
RTVSPost2010PropOp39
 70
     1
102
RTVSPost2010Prop40
 90
        0
102
RTVSPost2010PropOp40
 70
     1
102
RTVSPost2010Prop41ColorIndex
 90
       18
102
RTVSPost2010Prop41ColorRGB
 90
        0
102
RTVSPost2010PropOp41
 70
     1
102
RTVSPost2010Prop42
 90
       50
102
RTVSPost2010PropOp42
 70
     1
102
RTVSPost2010Prop43
 90
        3
102
RTVSPost2010PropOp43
 70
     1
102
RTVSPost2010Prop44ColorIndex
 90
        5
102
RTVSPost2010Prop44ColorRGB
 90
      255
102
RTVSPost2010PropOp44
 70
     1
102
RTVSPost2010Prop45
280
     0
102
RTVSPost2010PropOp45
 70
     1
102
RTVSPost2010Prop46
 90
       50
102
RTVSPost2010PropOp46
 70
     1
102
RTVSPost2010Prop47
 90
       50
102
RTVSPost2010PropOp47
 70
     1
102
RTVSPost2010Prop48
 90
       50
102
RTVSPost2010PropOp48
 70
     1
102
RTVSPost2010Prop49
280
     0
102
RTVSPost2010PropOp49
 70
     1
102
RTVSPost2010Prop50
 90
       50
102
RTVSPost2010PropOp50
 70
     1
102
RTVSPost2010Prop51ColorIndex
 90
      256
102
RTVSPost2010Prop51ColorRGB
 90
-16777216
102
RTVSPost2010PropOp51
 70
     0
102
RTVSPost2010Prop52
140
1.0
102
RTVSPost2010PropOp52
 70
     0
102
RTVSPost2010Prop53
 90
        2
102
RTVSPost2010PropOp53
 70
     1
102
RTVSPost2010Prop54
  1
strokes_ogs.tif
102
RTVSPost2010PropOp54
 70
     1
102
RTVSPost2010Prop55
280
     0
102
RTVSPost2010PropOp55
 70
     1
102
RTVSPost2010Prop56
140
1.0
102
RTVSPost2010PropOp56
 70
     1
102
RTVSPost2010Prop57
140
1.0
102
RTVSPost2010PropOp57
 70
     1
102
RTVSPropertyOp0
 70
     1
102
RTVSPropertyOp1
 70
     1
102
RTVSPropertyOp2
 70
     1
102
RTVSPropertyOp3
 70
     1
102
RTVSPropertyOp4
 70
     1
102
RTVSPropertyOp5
 70
     1
102
RTVSPropertyOp6
 70
     1
102
RTVSPropertyOp7
 70
     1
102
RTVSPropertyOp8
 70
     1
102
RTVSPropertyOp9
 70
     1
102
RTVSPropertyOp10
 70
     1
102
RTVSPropertyOp11
 70
     1
102
RTVSPropertyOp12
 70
     1
102
RTVSPropertyOp13
 70
     1
102
RTVSPropertyOp14
 70
     1
102
RTVSPropertyOp15
 70
     1
102
RTVSPropertyOp16
 70
     1
102
RTVSPropertyOp17
 70
     1
102
RTVSPropertyOp18
 70
     1
102
RTVSPropertyOp19
 70
     1
102
RTVSPropertyOp20
 70
     1
102
RTVSPropertyOp21
 70
     1
102
RTVSPropertyOp22
 70
     1
102
RTVSPropertyOp23
 70
     1
102
RTVSPropertyOp24
 70
     1
102
RTVSPropertyOp25
 70
     1
102
RTVSPropertyOp26
 70
     1
102
RTVSPropertyOp27
 70
     1
102
RTVSPropertyOp28
 70
     1
102
RTVSPropertyOp29
 70
     1
102
RTVSPropertyOp30
 70
     1
102
RTVSPropertyOp31
 70
     1
102
RTVSPropertyOp32
 70
     1
102
RTVSPropertyOp33
 70
     1
102
RTVSPropertyOp34
 70
     1
102
RTVSPropertyOp35
 70
     1
102
RTVSPropertyOp36
 70
     1
102
RTVSPropertyOp37
 70
     1
102
RTVSPropertyOp38
 70
     1
102
RTVSPropertyOp39
 70
     1
102
RTVSPropertyOp40
 70
     1
102
RTVSPropertyOp41
 70
     1
102
RTVSPropertyOp42
 70
     1
102
RTVSPropertyOp43
 70
     1
102
RTVSPropertyOp44
 70
     1
102
RTVSPropertyOp45
 70
     1
102
RTVSPropertyOp46
 70
     1
102
RTVSPropertyOp47
 70
     1
102
RTVSPropertyOp48
 70
     1
102
RTVSPropertyOp49
 70
     1
102
RTVSPropertyOp50
 70
     1
102
RTVSPropertyOp51
 70
     0
102
RTVSPropertyOp52
 70
     0
102
RTVSPropertyOp53
 70
     1
102
RTVSPropertyOp54
 70
     1
102
RTVSPropertyOp55
 70
     1
102
RTVSPropertyOp56
 70
     1
102
RTVSPropertyOp57
 70
     1
102
RTVSPropertyOp58
 70
     1
102
RTVSPropertyOp59
 70
     1
102
RTVSPropertyOp60
 70
     1
102
RTVSPropertyOp61
 70
     1
102
RTVSPropertyOp62
 70
     1
  0
XRECORD
  5
2CA3
102
{ACAD_REACTORS
330
2CA2
102
}
330
2CA2
100
AcDbXrecord
280
     1
102
RTVSPost2010Prop28
280
     0
102
RTVSPost2010PropOp28
 70
     1
102
RTVSPost2010Prop29
280
     1
102
RTVSPost2010PropOp29
 70
     1
102
RTVSPost2010Prop30
280
     1
102
RTVSPost2010PropOp30
 70
     1
102
RTVSPost2010Prop31
280
     0
102
RTVSPost2010PropOp31
 70
     1
102
RTVSPost2010Prop32
280
     0
102
RTVSPost2010PropOp32
 70
     1
102
RTVSPost2010Prop33
280
     0
102
RTVSPost2010PropOp33
 70
     1
102
RTVSPost2010Prop34
280
     0
102
RTVSPost2010PropOp34
 70
     1
102
RTVSPost2010Prop35
280
     0
102
RTVSPost2010PropOp35
 70
     1
102
RTVSPost2010Prop36
280
     0
102
RTVSPost2010PropOp36
 70
     1
102
RTVSPost2010Prop37
 90
       50
102
RTVSPost2010PropOp37
 70
     1
102
RTVSPost2010Prop38
140
0.0
102
RTVSPost2010PropOp38
 70
     1
102
RTVSPost2010Prop39
140
1.0
102
RTVSPost2010PropOp39
 70
     1
102
RTVSPost2010Prop40
 90
        0
102
RTVSPost2010PropOp40
 70
     1
102
RTVSPost2010Prop41ColorIndex
 90
       18
102
RTVSPost2010Prop41ColorRGB
 90
        0
102
RTVSPost2010PropOp41
 70
     1
102
RTVSPost2010Prop42
 90
       50
102
RTVSPost2010PropOp42
 70
     1
102
RTVSPost2010Prop43
 90
        3
102
RTVSPost2010PropOp43
 70
     1
102
RTVSPost2010Prop44ColorIndex
 90
        5
102
RTVSPost2010Prop44ColorRGB
 90
      255
102
RTVSPost2010PropOp44
 70
     1
102
RTVSPost2010Prop45
280
     0
102
RTVSPost2010PropOp45
 70
     1
102
RTVSPost2010Prop46
 90
       50
102
RTVSPost2010PropOp46
 70
     1
102
RTVSPost2010Prop47
 90
       50
102
RTVSPost2010PropOp47
 70
     1
102
RTVSPost2010Prop48
 90
       50
102
RTVSPost2010PropOp48
 70
     1
102
RTVSPost2010Prop49
280
     0
102
RTVSPost2010PropOp49
 70
     1
102
RTVSPost2010Prop50
 90
       50
102
RTVSPost2010PropOp50
 70
     1
102
RTVSPost2010Prop51ColorIndex
 90
      256
102
RTVSPost2010Prop51ColorRGB
 90
-16777216
102
RTVSPost2010PropOp51
 70
     0
102
RTVSPost2010Prop52
140
1.0
102
RTVSPost2010PropOp52
 70
     0
102
RTVSPost2010Prop53
 90
        2
102
RTVSPost2010PropOp53
 70
     1
102
RTVSPost2010Prop54
  1
strokes_ogs.tif
102
RTVSPost2010PropOp54
 70
     1
102
RTVSPost2010Prop55
280
     0
102
RTVSPost2010PropOp55
 70
     1
102
RTVSPost2010Prop56
140
1.0
102
RTVSPost2010PropOp56
 70
     1
102
RTVSPost2010Prop57
140
1.0
102
RTVSPost2010PropOp57
 70
     1
102
RTVSPropertyOp0
 70
     1
102
RTVSPropertyOp1
 70
     1
102
RTVSPropertyOp2
 70
     1
102
RTVSPropertyOp3
 70
     1
102
RTVSPropertyOp4
 70
     1
102
RTVSPropertyOp5
 70
     1
102
RTVSPropertyOp6
 70
     1
102
RTVSPropertyOp7
 70
     1
102
RTVSPropertyOp8
 70
     1
102
RTVSPropertyOp9
 70
     1
102
RTVSPropertyOp10
 70
     1
102
RTVSPropertyOp11
 70
     1
102
RTVSPropertyOp12
 70
     1
102
RTVSPropertyOp13
 70
     1
102
RTVSPropertyOp14
 70
     1
102
RTVSPropertyOp15
 70
     1
102
RTVSPropertyOp16
 70
     1
102
RTVSPropertyOp17
 70
     1
102
RTVSPropertyOp18
 70
     1
102
RTVSPropertyOp19
 70
     1
102
RTVSPropertyOp20
 70
     1
102
RTVSPropertyOp21
 70
     1
102
RTVSPropertyOp22
 70
     1
102
RTVSPropertyOp23
 70
     1
102
RTVSPropertyOp24
 70
     1
102
RTVSPropertyOp25
 70
     1
102
RTVSPropertyOp26
 70
     1
102
RTVSPropertyOp27
 70
     1
102
RTVSPropertyOp28
 70
     1
102
RTVSPropertyOp29
 70
     1
102
RTVSPropertyOp30
 70
     1
102
RTVSPropertyOp31
 70
     1
102
RTVSPropertyOp32
 70
     1
102
RTVSPropertyOp33
 70
     1
102
RTVSPropertyOp34
 70
     1
102
RTVSPropertyOp35
 70
     1
102
RTVSPropertyOp36
 70
     1
102
RTVSPropertyOp37
 70
     1
102
RTVSPropertyOp38
 70
     1
102
RTVSPropertyOp39
 70
     1
102
RTVSPropertyOp40
 70
     1
102
RTVSPropertyOp41
 70
     1
102
RTVSPropertyOp42
 70
     1
102
RTVSPropertyOp43
 70
     1
102
RTVSPropertyOp44
 70
     1
102
RTVSPropertyOp45
 70
     1
102
RTVSPropertyOp46
 70
     1
102
RTVSPropertyOp47
 70
     1
102
RTVSPropertyOp48
 70
     1
102
RTVSPropertyOp49
 70
     1
102
RTVSPropertyOp50
 70
     1
102
RTVSPropertyOp51
 70
     0
102
RTVSPropertyOp52
 70
     0
102
RTVSPropertyOp53
 70
     1
102
RTVSPropertyOp54
 70
     1
102
RTVSPropertyOp55
 70
     1
102
RTVSPropertyOp56
 70
     1
102
RTVSPropertyOp57
 70
     1
102
RTVSPropertyOp58
 70
     1
102
RTVSPropertyOp59
 70
     1
102
RTVSPropertyOp60
 70
     1
102
RTVSPropertyOp61
 70
     1
102
RTVSPropertyOp62
 70
     1
  0
XRECORD
  5
2CAB
102
{ACAD_REACTORS
330
2CAA
102
}
330
2CAA
100
AcDbXrecord
280
     1
102
RTVSPost2010Prop28
280
     0
102
RTVSPost2010PropOp28
 70
     1
102
RTVSPost2010Prop29
280
     1
102
RTVSPost2010PropOp29
 70
     1
102
RTVSPost2010Prop30
280
     1
102
RTVSPost2010PropOp30
 70
     1
102
RTVSPost2010Prop31
280
     0
102
RTVSPost2010PropOp31
 70
     1
102
RTVSPost2010Prop32
280
     0
102
RTVSPost2010PropOp32
 70
     1
102
RTVSPost2010Prop33
280
     0
102
RTVSPost2010PropOp33
 70
     1
102
RTVSPost2010Prop34
280
     0
102
RTVSPost2010PropOp34
 70
     1
102
RTVSPost2010Prop35
280
     0
102
RTVSPost2010PropOp35
 70
     1
102
RTVSPost2010Prop36
280
     0
102
RTVSPost2010PropOp36
 70
     1
102
RTVSPost2010Prop37
 90
       50
102
RTVSPost2010PropOp37
 70
     1
102
RTVSPost2010Prop38
140
0.0
102
RTVSPost2010PropOp38
 70
     1
102
RTVSPost2010Prop39
140
1.0
102
RTVSPost2010PropOp39
 70
     1
102
RTVSPost2010Prop40
 90
        0
102
RTVSPost2010PropOp40
 70
     1
102
RTVSPost2010Prop41ColorIndex
 90
       18
102
RTVSPost2010Prop41ColorRGB
 90
        0
102
RTVSPost2010PropOp41
 70
     1
102
RTVSPost2010Prop42
 90
       50
102
RTVSPost2010PropOp42
 70
     1
102
RTVSPost2010Prop43
 90
        3
102
RTVSPost2010PropOp43
 70
     1
102
RTVSPost2010Prop44ColorIndex
 90
        5
102
RTVSPost2010Prop44ColorRGB
 90
      255
102
RTVSPost2010PropOp44
 70
     1
102
RTVSPost2010Prop45
280
     0
102
RTVSPost2010PropOp45
 70
     1
102
RTVSPost2010Prop46
 90
       50
102
RTVSPost2010PropOp46
 70
     1
102
RTVSPost2010Prop47
 90
       50
102
RTVSPost2010PropOp47
 70
     1
102
RTVSPost2010Prop48
 90
       50
102
RTVSPost2010PropOp48
 70
     1
102
RTVSPost2010Prop49
280
     0
102
RTVSPost2010PropOp49
 70
     1
102
RTVSPost2010Prop50
 90
       50
102
RTVSPost2010PropOp50
 70
     1
102
RTVSPost2010Prop51ColorIndex
 90
      256
102
RTVSPost2010Prop51ColorRGB
 90
-16777216
102
RTVSPost2010PropOp51
 70
     0
102
RTVSPost2010Prop52
140
1.0
102
RTVSPost2010PropOp52
 70
     0
102
RTVSPost2010Prop53
 90
        2
102
RTVSPost2010PropOp53
 70
     1
102
RTVSPost2010Prop54
  1
strokes_ogs.tif
102
RTVSPost2010PropOp54
 70
     1
102
RTVSPost2010Prop55
280
     0
102
RTVSPost2010PropOp55
 70
     1
102
RTVSPost2010Prop56
140
1.0
102
RTVSPost2010PropOp56
 70
     1
102
RTVSPost2010Prop57
140
1.0
102
RTVSPost2010PropOp57
 70
     1
102
RTVSPropertyOp0
 70
     1
102
RTVSPropertyOp1
 70
     1
102
RTVSPropertyOp2
 70
     1
102
RTVSPropertyOp3
 70
     1
102
RTVSPropertyOp4
 70
     1
102
RTVSPropertyOp5
 70
     1
102
RTVSPropertyOp6
 70
     1
102
RTVSPropertyOp7
 70
     1
102
RTVSPropertyOp8
 70
     1
102
RTVSPropertyOp9
 70
     1
102
RTVSPropertyOp10
 70
     1
102
RTVSPropertyOp11
 70
     1
102
RTVSPropertyOp12
 70
     1
102
RTVSPropertyOp13
 70
     1
102
RTVSPropertyOp14
 70
     1
102
RTVSPropertyOp15
 70
     1
102
RTVSPropertyOp16
 70
     1
102
RTVSPropertyOp17
 70
     1
102
RTVSPropertyOp18
 70
     1
102
RTVSPropertyOp19
 70
     1
102
RTVSPropertyOp20
 70
     1
102
RTVSPropertyOp21
 70
     1
102
RTVSPropertyOp22
 70
     1
102
RTVSPropertyOp23
 70
     1
102
RTVSPropertyOp24
 70
     1
102
RTVSPropertyOp25
 70
     1
102
RTVSPropertyOp26
 70
     1
102
RTVSPropertyOp27
 70
     1
102
RTVSPropertyOp28
 70
     1
102
RTVSPropertyOp29
 70
     1
102
RTVSPropertyOp30
 70
     1
102
RTVSPropertyOp31
 70
     1
102
RTVSPropertyOp32
 70
     1
102
RTVSPropertyOp33
 70
     1
102
RTVSPropertyOp34
 70
     1
102
RTVSPropertyOp35
 70
     1
102
RTVSPropertyOp36
 70
     1
102
RTVSPropertyOp37
 70
     1
102
RTVSPropertyOp38
 70
     1
102
RTVSPropertyOp39
 70
     1
102
RTVSPropertyOp40
 70
     1
102
RTVSPropertyOp41
 70
     1
102
RTVSPropertyOp42
 70
     1
102
RTVSPropertyOp43
 70
     1
102
RTVSPropertyOp44
 70
     1
102
RTVSPropertyOp45
 70
     1
102
RTVSPropertyOp46
 70
     1
102
RTVSPropertyOp47
 70
     1
102
RTVSPropertyOp48
 70
     1
102
RTVSPropertyOp49
 70
     1
102
RTVSPropertyOp50
 70
     1
102
RTVSPropertyOp51
 70
     0
102
RTVSPropertyOp52
 70
     0
102
RTVSPropertyOp53
 70
     1
102
RTVSPropertyOp54
 70
     1
102
RTVSPropertyOp55
 70
     1
102
RTVSPropertyOp56
 70
     1
102
RTVSPropertyOp57
 70
     1
102
RTVSPropertyOp58
 70
     1
102
RTVSPropertyOp59
 70
     1
102
RTVSPropertyOp60
 70
     1
102
RTVSPropertyOp61
 70
     1
102
RTVSPropertyOp62
 70
     1
  0
XRECORD
  5
2CC7
102
{ACAD_REACTORS
330
2CC6
102
}
330
2CC6
100
AcDbXrecord
280
     1
102
RTVSPost2010Prop28
280
     0
102
RTVSPost2010PropOp28
 70
     1
102
RTVSPost2010Prop29
280
     1
102
RTVSPost2010PropOp29
 70
     1
102
RTVSPost2010Prop30
280
     1
102
RTVSPost2010PropOp30
 70
     1
102
RTVSPost2010Prop31
280
     0
102
RTVSPost2010PropOp31
 70
     1
102
RTVSPost2010Prop32
280
     0
102
RTVSPost2010PropOp32
 70
     1
102
RTVSPost2010Prop33
280
     0
102
RTVSPost2010PropOp33
 70
     1
102
RTVSPost2010Prop34
280
     0
102
RTVSPost2010PropOp34
 70
     1
102
RTVSPost2010Prop35
280
     0
102
RTVSPost2010PropOp35
 70
     1
102
RTVSPost2010Prop36
280
     0
102
RTVSPost2010PropOp36
 70
     1
102
RTVSPost2010Prop37
 90
       50
102
RTVSPost2010PropOp37
 70
     0
102
RTVSPost2010Prop38
140
0.0
102
RTVSPost2010PropOp38
 70
     0
102
RTVSPost2010Prop39
140
1.0
102
RTVSPost2010PropOp39
 70
     0
102
RTVSPost2010Prop40
 90
        0
102
RTVSPost2010PropOp40
 70
     0
102
RTVSPost2010Prop41ColorIndex
 90
       18
102
RTVSPost2010Prop41ColorRGB
 90
        0
102
RTVSPost2010PropOp41
 70
     0
102
RTVSPost2010Prop42
 90
       50
102
RTVSPost2010PropOp42
 70
     0
102
RTVSPost2010Prop43
 90
        3
102
RTVSPost2010PropOp43
 70
     0
102
RTVSPost2010Prop44ColorIndex
 90
        5
102
RTVSPost2010Prop44ColorRGB
 90
      255
102
RTVSPost2010PropOp44
 70
     0
102
RTVSPost2010Prop45
280
     0
102
RTVSPost2010PropOp45
 70
     1
102
RTVSPost2010Prop46
 90
       50
102
RTVSPost2010PropOp46
 70
     0
102
RTVSPost2010Prop47
 90
       50
102
RTVSPost2010PropOp47
 70
     0
102
RTVSPost2010Prop48
 90
       50
102
RTVSPost2010PropOp48
 70
     0
102
RTVSPost2010Prop49
280
     0
102
RTVSPost2010PropOp49
 70
     1
102
RTVSPost2010Prop50
 90
       50
102
RTVSPost2010PropOp50
 70
     0
102
RTVSPost2010Prop51ColorIndex
 90
      256
102
RTVSPost2010Prop51ColorRGB
 90
-16777216
102
RTVSPost2010PropOp51
 70
     0
102
RTVSPost2010Prop52
140
1.0
102
RTVSPost2010PropOp52
 70
     0
102
RTVSPost2010Prop53
 90
        2
102
RTVSPost2010PropOp53
 70
     0
102
RTVSPost2010Prop54
  1
strokes_ogs.tif
102
RTVSPost2010PropOp54
 70
     0
102
RTVSPost2010Prop55
280
     0
102
RTVSPost2010PropOp55
 70
     1
102
RTVSPost2010Prop56
140
1.0
102
RTVSPost2010PropOp56
 70
     0
102
RTVSPost2010Prop57
140
1.0
102
RTVSPost2010PropOp57
 70
     0
102
RTVSPropertyOp0
 70
     0
102
RTVSPropertyOp1
 70
     0
102
RTVSPropertyOp2
 70
     0
102
RTVSPropertyOp3
 70
     0
102
RTVSPropertyOp4
 70
     0
102
RTVSPropertyOp5
 70
     0
102
RTVSPropertyOp6
 70
     0
102
RTVSPropertyOp7
 70
     0
102
RTVSPropertyOp8
 70
     0
102
RTVSPropertyOp9
 70
     0
102
RTVSPropertyOp10
 70
     0
102
RTVSPropertyOp11
 70
     0
102
RTVSPropertyOp12
 70
     0
102
RTVSPropertyOp13
 70
     0
102
RTVSPropertyOp14
 70
     2
102
RTVSPropertyOp15
 70
     0
102
RTVSPropertyOp16
 70
     0
102
RTVSPropertyOp17
 70
     0
102
RTVSPropertyOp18
 70
     0
102
RTVSPropertyOp19
 70
     0
102
RTVSPropertyOp20
 70
     0
102
RTVSPropertyOp21
 70
     0
102
RTVSPropertyOp22
 70
     0
102
RTVSPropertyOp23
 70
     0
102
RTVSPropertyOp24
 70
     0
102
RTVSPropertyOp25
 70
     0
102
RTVSPropertyOp26
 70
     0
102
RTVSPropertyOp27
 70
     0
102
RTVSPropertyOp28
 70
     1
102
RTVSPropertyOp29
 70
     1
102
RTVSPropertyOp30
 70
     1
102
RTVSPropertyOp31
 70
     1
102
RTVSPropertyOp32
 70
     1
102
RTVSPropertyOp33
 70
     1
102
RTVSPropertyOp34
 70
     1
102
RTVSPropertyOp35
 70
     1
102
RTVSPropertyOp36
 70
     1
102
RTVSPropertyOp37
 70
     0
102
RTVSPropertyOp38
 70
     0
102
RTVSPropertyOp39
 70
     0
102
RTVSPropertyOp40
 70
     0
102
RTVSPropertyOp41
 70
     0
102
RTVSPropertyOp42
 70
     0
102
RTVSPropertyOp43
 70
     0
102
RTVSPropertyOp44
 70
     0
102
RTVSPropertyOp45
 70
     1
102
RTVSPropertyOp46
 70
     0
102
RTVSPropertyOp47
 70
     0
102
RTVSPropertyOp48
 70
     0
102
RTVSPropertyOp49
 70
     1
102
RTVSPropertyOp50
 70
     0
102
RTVSPropertyOp51
 70
     0
102
RTVSPropertyOp52
 70
     0
102
RTVSPropertyOp53
 70
     0
102
RTVSPropertyOp54
 70
     0
102
RTVSPropertyOp55
 70
     1
102
RTVSPropertyOp56
 70
     0
102
RTVSPropertyOp57
 70
     0
102
RTVSPropertyOp58
 70
     0
102
RTVSPropertyOp59
 70
     0
102
RTVSPropertyOp60
 70
     0
102
RTVSPropertyOp61
 70
     0
102
RTVSPropertyOp62
 70
     0
  0
XRECORD
  5
2CB7
102
{ACAD_REACTORS
330
2CB6
102
}
330
2CB6
100
AcDbXrecord
280
     1
102
RTVSPost2010Prop28
280
     0
102
RTVSPost2010PropOp28
 70
     1
102
RTVSPost2010Prop29
280
     1
102
RTVSPost2010PropOp29
 70
     1
102
RTVSPost2010Prop30
280
     1
102
RTVSPost2010PropOp30
 70
     1
102
RTVSPost2010Prop31
280
     0
102
RTVSPost2010PropOp31
 70
     1
102
RTVSPost2010Prop32
280
     0
102
RTVSPost2010PropOp32
 70
     1
102
RTVSPost2010Prop33
280
     0
102
RTVSPost2010PropOp33
 70
     1
102
RTVSPost2010Prop34
280
     0
102
RTVSPost2010PropOp34
 70
     1
102
RTVSPost2010Prop35
280
     0
102
RTVSPost2010PropOp35
 70
     1
102
RTVSPost2010Prop36
280
     0
102
RTVSPost2010PropOp36
 70
     1
102
RTVSPost2010Prop37
 90
       50
102
RTVSPost2010PropOp37
 70
     1
102
RTVSPost2010Prop38
140
0.0
102
RTVSPost2010PropOp38
 70
     1
102
RTVSPost2010Prop39
140
1.0
102
RTVSPost2010PropOp39
 70
     1
102
RTVSPost2010Prop40
 90
        0
102
RTVSPost2010PropOp40
 70
     1
102
RTVSPost2010Prop41ColorIndex
 90
       18
102
RTVSPost2010Prop41ColorRGB
 90
        0
102
RTVSPost2010PropOp41
 70
     1
102
RTVSPost2010Prop42
 90
       50
102
RTVSPost2010PropOp42
 70
     1
102
RTVSPost2010Prop43
 90
        3
102
RTVSPost2010PropOp43
 70
     1
102
RTVSPost2010Prop44ColorIndex
 90
        5
102
RTVSPost2010Prop44ColorRGB
 90
      255
102
RTVSPost2010PropOp44
 70
     1
102
RTVSPost2010Prop45
280
     0
102
RTVSPost2010PropOp45
 70
     1
102
RTVSPost2010Prop46
 90
       50
102
RTVSPost2010PropOp46
 70
     1
102
RTVSPost2010Prop47
 90
       50
102
RTVSPost2010PropOp47
 70
     1
102
RTVSPost2010Prop48
 90
       50
102
RTVSPost2010PropOp48
 70
     1
102
RTVSPost2010Prop49
280
     0
102
RTVSPost2010PropOp49
 70
     1
102
RTVSPost2010Prop50
 90
       50
102
RTVSPost2010PropOp50
 70
     1
102
RTVSPost2010Prop51ColorIndex
 90
      256
102
RTVSPost2010Prop51ColorRGB
 90
-16777216
102
RTVSPost2010PropOp51
 70
     0
102
RTVSPost2010Prop52
140
1.0
102
RTVSPost2010PropOp52
 70
     0
102
RTVSPost2010Prop53
 90
        2
102
RTVSPost2010PropOp53
 70
     1
102
RTVSPost2010Prop54
  1
strokes_ogs.tif
102
RTVSPost2010PropOp54
 70
     1
102
RTVSPost2010Prop55
280
     0
102
RTVSPost2010PropOp55
 70
     1
102
RTVSPost2010Prop56
140
1.0
102
RTVSPost2010PropOp56
 70
     1
102
RTVSPost2010Prop57
140
1.0
102
RTVSPost2010PropOp57
 70
     1
102
RTVSPropertyOp0
 70
     1
102
RTVSPropertyOp1
 70
     1
102
RTVSPropertyOp2
 70
     1
102
RTVSPropertyOp3
 70
     1
102
RTVSPropertyOp4
 70
     1
102
RTVSPropertyOp5
 70
     1
102
RTVSPropertyOp6
 70
     1
102
RTVSPropertyOp7
 70
     1
102
RTVSPropertyOp8
 70
     1
102
RTVSPropertyOp9
 70
     1
102
RTVSPropertyOp10
 70
     1
102
RTVSPropertyOp11
 70
     1
102
RTVSPropertyOp12
 70
     1
102
RTVSPropertyOp13
 70
     1
102
RTVSPropertyOp14
 70
     1
102
RTVSPropertyOp15
 70
     1
102
RTVSPropertyOp16
 70
     1
102
RTVSPropertyOp17
 70
     1
102
RTVSPropertyOp18
 70
     1
102
RTVSPropertyOp19
 70
     1
102
RTVSPropertyOp20
 70
     1
102
RTVSPropertyOp21
 70
     1
102
RTVSPropertyOp22
 70
     1
102
RTVSPropertyOp23
 70
     1
102
RTVSPropertyOp24
 70
     1
102
RTVSPropertyOp25
 70
     1
102
RTVSPropertyOp26
 70
     1
102
RTVSPropertyOp27
 70
     1
102
RTVSPropertyOp28
 70
     1
102
RTVSPropertyOp29
 70
     1
102
RTVSPropertyOp30
 70
     1
102
RTVSPropertyOp31
 70
     1
102
RTVSPropertyOp32
 70
     1
102
RTVSPropertyOp33
 70
     1
102
RTVSPropertyOp34
 70
     1
102
RTVSPropertyOp35
 70
     1
102
RTVSPropertyOp36
 70
     1
102
RTVSPropertyOp37
 70
     1
102
RTVSPropertyOp38
 70
     1
102
RTVSPropertyOp39
 70
     1
102
RTVSPropertyOp40
 70
     1
102
RTVSPropertyOp41
 70
     1
102
RTVSPropertyOp42
 70
     1
102
RTVSPropertyOp43
 70
     1
102
RTVSPropertyOp44
 70
     1
102
RTVSPropertyOp45
 70
     1
102
RTVSPropertyOp46
 70
     1
102
RTVSPropertyOp47
 70
     1
102
RTVSPropertyOp48
 70
     1
102
RTVSPropertyOp49
 70
     1
102
RTVSPropertyOp50
 70
     1
102
RTVSPropertyOp51
 70
     0
102
RTVSPropertyOp52
 70
     0
102
RTVSPropertyOp53
 70
     1
102
RTVSPropertyOp54
 70
     1
102
RTVSPropertyOp55
 70
     1
102
RTVSPropertyOp56
 70
     1
102
RTVSPropertyOp57
 70
     1
102
RTVSPropertyOp58
 70
     1
102
RTVSPropertyOp59
 70
     1
102
RTVSPropertyOp60
 70
     1
102
RTVSPropertyOp61
 70
     1
102
RTVSPropertyOp62
 70
     1
  0
XRECORD
  5
2CC9
102
{ACAD_REACTORS
330
2CC8
102
}
330
2CC8
100
AcDbXrecord
280
     1
102
RTVSPost2010Prop28
280
     0
102
RTVSPost2010PropOp28
 70
     1
102
RTVSPost2010Prop29
280
     1
102
RTVSPost2010PropOp29
 70
     1
102
RTVSPost2010Prop30
280
     1
102
RTVSPost2010PropOp30
 70
     1
102
RTVSPost2010Prop31
280
     0
102
RTVSPost2010PropOp31
 70
     1
102
RTVSPost2010Prop32
280
     0
102
RTVSPost2010PropOp32
 70
     1
102
RTVSPost2010Prop33
280
     0
102
RTVSPost2010PropOp33
 70
     1
102
RTVSPost2010Prop34
280
     0
102
RTVSPost2010PropOp34
 70
     1
102
RTVSPost2010Prop35
280
     0
102
RTVSPost2010PropOp35
 70
     1
102
RTVSPost2010Prop36
280
     0
102
RTVSPost2010PropOp36
 70
     1
102
RTVSPost2010Prop37
 90
       50
102
RTVSPost2010PropOp37
 70
     0
102
RTVSPost2010Prop38
140
0.0
102
RTVSPost2010PropOp38
 70
     0
102
RTVSPost2010Prop39
140
1.0
102
RTVSPost2010PropOp39
 70
     0
102
RTVSPost2010Prop40
 90
        0
102
RTVSPost2010PropOp40
 70
     0
102
RTVSPost2010Prop41ColorIndex
 90
       18
102
RTVSPost2010Prop41ColorRGB
 90
        0
102
RTVSPost2010PropOp41
 70
     0
102
RTVSPost2010Prop42
 90
       50
102
RTVSPost2010PropOp42
 70
     0
102
RTVSPost2010Prop43
 90
        3
102
RTVSPost2010PropOp43
 70
     0
102
RTVSPost2010Prop44ColorIndex
 90
        5
102
RTVSPost2010Prop44ColorRGB
 90
      255
102
RTVSPost2010PropOp44
 70
     0
102
RTVSPost2010Prop45
280
     0
102
RTVSPost2010PropOp45
 70
     1
102
RTVSPost2010Prop46
 90
       50
102
RTVSPost2010PropOp46
 70
     0
102
RTVSPost2010Prop47
 90
       50
102
RTVSPost2010PropOp47
 70
     0
102
RTVSPost2010Prop48
 90
       50
102
RTVSPost2010PropOp48
 70
     0
102
RTVSPost2010Prop49
280
     0
102
RTVSPost2010PropOp49
 70
     1
102
RTVSPost2010Prop50
 90
       50
102
RTVSPost2010PropOp50
 70
     0
102
RTVSPost2010Prop51ColorIndex
 90
      256
102
RTVSPost2010Prop51ColorRGB
 90
-16777216
102
RTVSPost2010PropOp51
 70
     0
102
RTVSPost2010Prop52
140
1.0
102
RTVSPost2010PropOp52
 70
     0
102
RTVSPost2010Prop53
 90
        2
102
RTVSPost2010PropOp53
 70
     0
102
RTVSPost2010Prop54
  1
strokes_ogs.tif
102
RTVSPost2010PropOp54
 70
     0
102
RTVSPost2010Prop55
280
     0
102
RTVSPost2010PropOp55
 70
     1
102
RTVSPost2010Prop56
140
1.0
102
RTVSPost2010PropOp56
 70
     0
102
RTVSPost2010Prop57
140
1.0
102
RTVSPost2010PropOp57
 70
     0
102
RTVSPropertyOp0
 70
     0
102
RTVSPropertyOp1
 70
     0
102
RTVSPropertyOp2
 70
     0
102
RTVSPropertyOp3
 70
     0
102
RTVSPropertyOp4
 70
     0
102
RTVSPropertyOp5
 70
     0
102
RTVSPropertyOp6
 70
     0
102
RTVSPropertyOp7
 70
     0
102
RTVSPropertyOp8
 70
     0
102
RTVSPropertyOp9
 70
     0
102
RTVSPropertyOp10
 70
     0
102
RTVSPropertyOp11
 70
     0
102
RTVSPropertyOp12
 70
     0
102
RTVSPropertyOp13
 70
     0
102
RTVSPropertyOp14
 70
     2
102
RTVSPropertyOp15
 70
     0
102
RTVSPropertyOp16
 70
     0
102
RTVSPropertyOp17
 70
     0
102
RTVSPropertyOp18
 70
     0
102
RTVSPropertyOp19
 70
     0
102
RTVSPropertyOp20
 70
     0
102
RTVSPropertyOp21
 70
     0
102
RTVSPropertyOp22
 70
     0
102
RTVSPropertyOp23
 70
     0
102
RTVSPropertyOp24
 70
     0
102
RTVSPropertyOp25
 70
     0
102
RTVSPropertyOp26
 70
     0
102
RTVSPropertyOp27
 70
     0
102
RTVSPropertyOp28
 70
     1
102
RTVSPropertyOp29
 70
     1
102
RTVSPropertyOp30
 70
     1
102
RTVSPropertyOp31
 70
     1
102
RTVSPropertyOp32
 70
     1
102
RTVSPropertyOp33
 70
     1
102
RTVSPropertyOp34
 70
     1
102
RTVSPropertyOp35
 70
     1
102
RTVSPropertyOp36
 70
     1
102
RTVSPropertyOp37
 70
     0
102
RTVSPropertyOp38
 70
     0
102
RTVSPropertyOp39
 70
     0
102
RTVSPropertyOp40
 70
     0
102
RTVSPropertyOp41
 70
     0
102
RTVSPropertyOp42
 70
     0
102
RTVSPropertyOp43
 70
     0
102
RTVSPropertyOp44
 70
     0
102
RTVSPropertyOp45
 70
     1
102
RTVSPropertyOp46
 70
     0
102
RTVSPropertyOp47
 70
     0
102
RTVSPropertyOp48
 70
     0
102
RTVSPropertyOp49
 70
     1
102
RTVSPropertyOp50
 70
     0
102
RTVSPropertyOp51
 70
     0
102
RTVSPropertyOp52
 70
     0
102
RTVSPropertyOp53
 70
     0
102
RTVSPropertyOp54
 70
     0
102
RTVSPropertyOp55
 70
     1
102
RTVSPropertyOp56
 70
     0
102
RTVSPropertyOp57
 70
     0
102
RTVSPropertyOp58
 70
     0
102
RTVSPropertyOp59
 70
     0
102
RTVSPropertyOp60
 70
     0
102
RTVSPropertyOp61
 70
     0
102
RTVSPropertyOp62
 70
     0
  0
XRECORD
  5
2CAF
102
{ACAD_REACTORS
330
2CAE
102
}
330
2CAE
100
AcDbXrecord
280
     1
102
RTVSPost2010Prop28
280
     0
102
RTVSPost2010PropOp28
 70
     1
102
RTVSPost2010Prop29
280
     1
102
RTVSPost2010PropOp29
 70
     1
102
RTVSPost2010Prop30
280
     1
102
RTVSPost2010PropOp30
 70
     1
102
RTVSPost2010Prop31
280
     0
102
RTVSPost2010PropOp31
 70
     1
102
RTVSPost2010Prop32
280
     0
102
RTVSPost2010PropOp32
 70
     1
102
RTVSPost2010Prop33
280
     0
102
RTVSPost2010PropOp33
 70
     1
102
RTVSPost2010Prop34
280
     0
102
RTVSPost2010PropOp34
 70
     1
102
RTVSPost2010Prop35
280
     0
102
RTVSPost2010PropOp35
 70
     1
102
RTVSPost2010Prop36
280
     0
102
RTVSPost2010PropOp36
 70
     1
102
RTVSPost2010Prop37
 90
       50
102
RTVSPost2010PropOp37
 70
     1
102
RTVSPost2010Prop38
140
0.0
102
RTVSPost2010PropOp38
 70
     1
102
RTVSPost2010Prop39
140
1.0
102
RTVSPost2010PropOp39
 70
     1
102
RTVSPost2010Prop40
 90
        0
102
RTVSPost2010PropOp40
 70
     1
102
RTVSPost2010Prop41ColorIndex
 90
       18
102
RTVSPost2010Prop41ColorRGB
 90
        0
102
RTVSPost2010PropOp41
 70
     1
102
RTVSPost2010Prop42
 90
       50
102
RTVSPost2010PropOp42
 70
     1
102
RTVSPost2010Prop43
 90
        3
102
RTVSPost2010PropOp43
 70
     1
102
RTVSPost2010Prop44ColorIndex
 90
        5
102
RTVSPost2010Prop44ColorRGB
 90
      255
102
RTVSPost2010PropOp44
 70
     1
102
RTVSPost2010Prop45
280
     0
102
RTVSPost2010PropOp45
 70
     1
102
RTVSPost2010Prop46
 90
       50
102
RTVSPost2010PropOp46
 70
     1
102
RTVSPost2010Prop47
 90
       50
102
RTVSPost2010PropOp47
 70
     1
102
RTVSPost2010Prop48
 90
       50
102
RTVSPost2010PropOp48
 70
     1
102
RTVSPost2010Prop49
280
     0
102
RTVSPost2010PropOp49
 70
     1
102
RTVSPost2010Prop50
 90
       50
102
RTVSPost2010PropOp50
 70
     1
102
RTVSPost2010Prop51ColorIndex
 90
      256
102
RTVSPost2010Prop51ColorRGB
 90
-16777216
102
RTVSPost2010PropOp51
 70
     0
102
RTVSPost2010Prop52
140
1.0
102
RTVSPost2010PropOp52
 70
     0
102
RTVSPost2010Prop53
 90
        2
102
RTVSPost2010PropOp53
 70
     1
102
RTVSPost2010Prop54
  1
strokes_ogs.tif
102
RTVSPost2010PropOp54
 70
     1
102
RTVSPost2010Prop55
280
     0
102
RTVSPost2010PropOp55
 70
     1
102
RTVSPost2010Prop56
140
1.0
102
RTVSPost2010PropOp56
 70
     1
102
RTVSPost2010Prop57
140
1.0
102
RTVSPost2010PropOp57
 70
     1
102
RTVSPropertyOp0
 70
     1
102
RTVSPropertyOp1
 70
     1
102
RTVSPropertyOp2
 70
     1
102
RTVSPropertyOp3
 70
     1
102
RTVSPropertyOp4
 70
     1
102
RTVSPropertyOp5
 70
     1
102
RTVSPropertyOp6
 70
     1
102
RTVSPropertyOp7
 70
     1
102
RTVSPropertyOp8
 70
     1
102
RTVSPropertyOp9
 70
     1
102
RTVSPropertyOp10
 70
     1
102
RTVSPropertyOp11
 70
     1
102
RTVSPropertyOp12
 70
     1
102
RTVSPropertyOp13
 70
     1
102
RTVSPropertyOp14
 70
     1
102
RTVSPropertyOp15
 70
     1
102
RTVSPropertyOp16
 70
     1
102
RTVSPropertyOp17
 70
     1
102
RTVSPropertyOp18
 70
     1
102
RTVSPropertyOp19
 70
     1
102
RTVSPropertyOp20
 70
     1
102
RTVSPropertyOp21
 70
     1
102
RTVSPropertyOp22
 70
     1
102
RTVSPropertyOp23
 70
     1
102
RTVSPropertyOp24
 70
     1
102
RTVSPropertyOp25
 70
     1
102
RTVSPropertyOp26
 70
     1
102
RTVSPropertyOp27
 70
     1
102
RTVSPropertyOp28
 70
     1
102
RTVSPropertyOp29
 70
     1
102
RTVSPropertyOp30
 70
     1
102
RTVSPropertyOp31
 70
     1
102
RTVSPropertyOp32
 70
     1
102
RTVSPropertyOp33
 70
     1
102
RTVSPropertyOp34
 70
     1
102
RTVSPropertyOp35
 70
     1
102
RTVSPropertyOp36
 70
     1
102
RTVSPropertyOp37
 70
     1
102
RTVSPropertyOp38
 70
     1
102
RTVSPropertyOp39
 70
     1
102
RTVSPropertyOp40
 70
     1
102
RTVSPropertyOp41
 70
     1
102
RTVSPropertyOp42
 70
     1
102
RTVSPropertyOp43
 70
     1
102
RTVSPropertyOp44
 70
     1
102
RTVSPropertyOp45
 70
     1
102
RTVSPropertyOp46
 70
     1
102
RTVSPropertyOp47
 70
     1
102
RTVSPropertyOp48
 70
     1
102
RTVSPropertyOp49
 70
     1
102
RTVSPropertyOp50
 70
     1
102
RTVSPropertyOp51
 70
     0
102
RTVSPropertyOp52
 70
     0
102
RTVSPropertyOp53
 70
     1
102
RTVSPropertyOp54
 70
     1
102
RTVSPropertyOp55
 70
     1
102
RTVSPropertyOp56
 70
     1
102
RTVSPropertyOp57
 70
     1
102
RTVSPropertyOp58
 70
     1
102
RTVSPropertyOp59
 70
     1
102
RTVSPropertyOp60
 70
     1
102
RTVSPropertyOp61
 70
     1
102
RTVSPropertyOp62
 70
     1
  0
XRECORD
  5
2CC5
102
{ACAD_REACTORS
330
2CC4
102
}
330
2CC4
100
AcDbXrecord
280
     1
102
RTVSPost2010Prop28
280
     0
102
RTVSPost2010PropOp28
 70
     1
102
RTVSPost2010Prop29
280
     1
102
RTVSPost2010PropOp29
 70
     1
102
RTVSPost2010Prop30
280
     1
102
RTVSPost2010PropOp30
 70
     1
102
RTVSPost2010Prop31
280
     0
102
RTVSPost2010PropOp31
 70
     1
102
RTVSPost2010Prop32
280
     0
102
RTVSPost2010PropOp32
 70
     1
102
RTVSPost2010Prop33
280
     0
102
RTVSPost2010PropOp33
 70
     1
102
RTVSPost2010Prop34
280
     0
102
RTVSPost2010PropOp34
 70
     1
102
RTVSPost2010Prop35
280
     0
102
RTVSPost2010PropOp35
 70
     1
102
RTVSPost2010Prop36
280
     0
102
RTVSPost2010PropOp36
 70
     1
102
RTVSPost2010Prop37
 90
       50
102
RTVSPost2010PropOp37
 70
     1
102
RTVSPost2010Prop38
140
0.0
102
RTVSPost2010PropOp38
 70
     1
102
RTVSPost2010Prop39
140
1.0
102
RTVSPost2010PropOp39
 70
     1
102
RTVSPost2010Prop40
 90
        0
102
RTVSPost2010PropOp40
 70
     1
102
RTVSPost2010Prop41ColorIndex
 90
       18
102
RTVSPost2010Prop41ColorRGB
 90
        0
102
RTVSPost2010PropOp41
 70
     1
102
RTVSPost2010Prop42
 90
       50
102
RTVSPost2010PropOp42
 70
     1
102
RTVSPost2010Prop43
 90
        3
102
RTVSPost2010PropOp43
 70
     1
102
RTVSPost2010Prop44ColorIndex
 90
        5
102
RTVSPost2010Prop44ColorRGB
 90
      255
102
RTVSPost2010PropOp44
 70
     1
102
RTVSPost2010Prop45
280
     0
102
RTVSPost2010PropOp45
 70
     1
102
RTVSPost2010Prop46
 90
       50
102
RTVSPost2010PropOp46
 70
     1
102
RTVSPost2010Prop47
 90
       50
102
RTVSPost2010PropOp47
 70
     1
102
RTVSPost2010Prop48
 90
       50
102
RTVSPost2010PropOp48
 70
     1
102
RTVSPost2010Prop49
280
     0
102
RTVSPost2010PropOp49
 70
     1
102
RTVSPost2010Prop50
 90
       50
102
RTVSPost2010PropOp50
 70
     1
102
RTVSPost2010Prop51ColorIndex
 90
      256
102
RTVSPost2010Prop51ColorRGB
 90
-16777216
102
RTVSPost2010PropOp51
 70
     0
102
RTVSPost2010Prop52
140
1.0
102
RTVSPost2010PropOp52
 70
     0
102
RTVSPost2010Prop53
 90
        2
102
RTVSPost2010PropOp53
 70
     1
102
RTVSPost2010Prop54
  1
strokes_ogs.tif
102
RTVSPost2010PropOp54
 70
     1
102
RTVSPost2010Prop55
280
     0
102
RTVSPost2010PropOp55
 70
     1
102
RTVSPost2010Prop56
140
1.0
102
RTVSPost2010PropOp56
 70
     1
102
RTVSPost2010Prop57
140
1.0
102
RTVSPost2010PropOp57
 70
     1
102
RTVSPropertyOp0
 70
     1
102
RTVSPropertyOp1
 70
     1
102
RTVSPropertyOp2
 70
     1
102
RTVSPropertyOp3
 70
     1
102
RTVSPropertyOp4
 70
     1
102
RTVSPropertyOp5
 70
     1
102
RTVSPropertyOp6
 70
     1
102
RTVSPropertyOp7
 70
     1
102
RTVSPropertyOp8
 70
     1
102
RTVSPropertyOp9
 70
     1
102
RTVSPropertyOp10
 70
     1
102
RTVSPropertyOp11
 70
     1
102
RTVSPropertyOp12
 70
     1
102
RTVSPropertyOp13
 70
     1
102
RTVSPropertyOp14
 70
     1
102
RTVSPropertyOp15
 70
     1
102
RTVSPropertyOp16
 70
     1
102
RTVSPropertyOp17
 70
     1
102
RTVSPropertyOp18
 70
     1
102
RTVSPropertyOp19
 70
     1
102
RTVSPropertyOp20
 70
     1
102
RTVSPropertyOp21
 70
     1
102
RTVSPropertyOp22
 70
     1
102
RTVSPropertyOp23
 70
     1
102
RTVSPropertyOp24
 70
     1
102
RTVSPropertyOp25
 70
     1
102
RTVSPropertyOp26
 70
     1
102
RTVSPropertyOp27
 70
     1
102
RTVSPropertyOp28
 70
     1
102
RTVSPropertyOp29
 70
     1
102
RTVSPropertyOp30
 70
     1
102
RTVSPropertyOp31
 70
     1
102
RTVSPropertyOp32
 70
     1
102
RTVSPropertyOp33
 70
     1
102
RTVSPropertyOp34
 70
     1
102
RTVSPropertyOp35
 70
     1
102
RTVSPropertyOp36
 70
     1
102
RTVSPropertyOp37
 70
     1
102
RTVSPropertyOp38
 70
     1
102
RTVSPropertyOp39
 70
     1
102
RTVSPropertyOp40
 70
     1
102
RTVSPropertyOp41
 70
     1
102
RTVSPropertyOp42
 70
     1
102
RTVSPropertyOp43
 70
     1
102
RTVSPropertyOp44
 70
     1
102
RTVSPropertyOp45
 70
     1
102
RTVSPropertyOp46
 70
     1
102
RTVSPropertyOp47
 70
     1
102
RTVSPropertyOp48
 70
     1
102
RTVSPropertyOp49
 70
     1
102
RTVSPropertyOp50
 70
     1
102
RTVSPropertyOp51
 70
     0
102
RTVSPropertyOp52
 70
     0
102
RTVSPropertyOp53
 70
     1
102
RTVSPropertyOp54
 70
     1
102
RTVSPropertyOp55
 70
     1
102
RTVSPropertyOp56
 70
     1
102
RTVSPropertyOp57
 70
     1
102
RTVSPropertyOp58
 70
     1
102
RTVSPropertyOp59
 70
     1
102
RTVSPropertyOp60
 70
     1
102
RTVSPropertyOp61
 70
     1
102
RTVSPropertyOp62
 70
     1
  0
XRECORD
  5
2CC3
102
{ACAD_REACTORS
330
2CC2
102
}
330
2CC2
100
AcDbXrecord
280
     1
102
RTVSPost2010Prop28
280
     0
102
RTVSPost2010PropOp28
 70
     1
102
RTVSPost2010Prop29
280
     1
102
RTVSPost2010PropOp29
 70
     1
102
RTVSPost2010Prop30
280
     1
102
RTVSPost2010PropOp30
 70
     1
102
RTVSPost2010Prop31
280
     0
102
RTVSPost2010PropOp31
 70
     1
102
RTVSPost2010Prop32
280
     0
102
RTVSPost2010PropOp32
 70
     1
102
RTVSPost2010Prop33
280
     0
102
RTVSPost2010PropOp33
 70
     1
102
RTVSPost2010Prop34
280
     0
102
RTVSPost2010PropOp34
 70
     1
102
RTVSPost2010Prop35
280
     0
102
RTVSPost2010PropOp35
 70
     1
102
RTVSPost2010Prop36
280
     0
102
RTVSPost2010PropOp36
 70
     1
102
RTVSPost2010Prop37
 90
       50
102
RTVSPost2010PropOp37
 70
     1
102
RTVSPost2010Prop38
140
0.0
102
RTVSPost2010PropOp38
 70
     1
102
RTVSPost2010Prop39
140
1.0
102
RTVSPost2010PropOp39
 70
     1
102
RTVSPost2010Prop40
 90
        0
102
RTVSPost2010PropOp40
 70
     1
102
RTVSPost2010Prop41ColorIndex
 90
       18
102
RTVSPost2010Prop41ColorRGB
 90
        0
102
RTVSPost2010PropOp41
 70
     1
102
RTVSPost2010Prop42
 90
       50
102
RTVSPost2010PropOp42
 70
     1
102
RTVSPost2010Prop43
 90
        3
102
RTVSPost2010PropOp43
 70
     1
102
RTVSPost2010Prop44ColorIndex
 90
        5
102
RTVSPost2010Prop44ColorRGB
 90
      255
102
RTVSPost2010PropOp44
 70
     1
102
RTVSPost2010Prop45
280
     0
102
RTVSPost2010PropOp45
 70
     1
102
RTVSPost2010Prop46
 90
       50
102
RTVSPost2010PropOp46
 70
     1
102
RTVSPost2010Prop47
 90
       50
102
RTVSPost2010PropOp47
 70
     1
102
RTVSPost2010Prop48
 90
       50
102
RTVSPost2010PropOp48
 70
     1
102
RTVSPost2010Prop49
280
     0
102
RTVSPost2010PropOp49
 70
     1
102
RTVSPost2010Prop50
 90
       50
102
RTVSPost2010PropOp50
 70
     1
102
RTVSPost2010Prop51ColorIndex
 90
      256
102
RTVSPost2010Prop51ColorRGB
 90
-16777216
102
RTVSPost2010PropOp51
 70
     0
102
RTVSPost2010Prop52
140
1.0
102
RTVSPost2010PropOp52
 70
     0
102
RTVSPost2010Prop53
 90
        2
102
RTVSPost2010PropOp53
 70
     1
102
RTVSPost2010Prop54
  1
strokes_ogs.tif
102
RTVSPost2010PropOp54
 70
     1
102
RTVSPost2010Prop55
280
     0
102
RTVSPost2010PropOp55
 70
     1
102
RTVSPost2010Prop56
140
1.0
102
RTVSPost2010PropOp56
 70
     1
102
RTVSPost2010Prop57
140
1.0
102
RTVSPost2010PropOp57
 70
     1
102
RTVSPropertyOp0
 70
     1
102
RTVSPropertyOp1
 70
     1
102
RTVSPropertyOp2
 70
     1
102
RTVSPropertyOp3
 70
     1
102
RTVSPropertyOp4
 70
     1
102
RTVSPropertyOp5
 70
     1
102
RTVSPropertyOp6
 70
     1
102
RTVSPropertyOp7
 70
     1
102
RTVSPropertyOp8
 70
     1
102
RTVSPropertyOp9
 70
     1
102
RTVSPropertyOp10
 70
     1
102
RTVSPropertyOp11
 70
     1
102
RTVSPropertyOp12
 70
     1
102
RTVSPropertyOp13
 70
     1
102
RTVSPropertyOp14
 70
     1
102
RTVSPropertyOp15
 70
     1
102
RTVSPropertyOp16
 70
     1
102
RTVSPropertyOp17
 70
     1
102
RTVSPropertyOp18
 70
     1
102
RTVSPropertyOp19
 70
     1
102
RTVSPropertyOp20
 70
     1
102
RTVSPropertyOp21
 70
     1
102
RTVSPropertyOp22
 70
     1
102
RTVSPropertyOp23
 70
     1
102
RTVSPropertyOp24
 70
     1
102
RTVSPropertyOp25
 70
     1
102
RTVSPropertyOp26
 70
     1
102
RTVSPropertyOp27
 70
     1
102
RTVSPropertyOp28
 70
     1
102
RTVSPropertyOp29
 70
     1
102
RTVSPropertyOp30
 70
     1
102
RTVSPropertyOp31
 70
     1
102
RTVSPropertyOp32
 70
     1
102
RTVSPropertyOp33
 70
     1
102
RTVSPropertyOp34
 70
     1
102
RTVSPropertyOp35
 70
     1
102
RTVSPropertyOp36
 70
     1
102
RTVSPropertyOp37
 70
     1
102
RTVSPropertyOp38
 70
     1
102
RTVSPropertyOp39
 70
     1
102
RTVSPropertyOp40
 70
     1
102
RTVSPropertyOp41
 70
     1
102
RTVSPropertyOp42
 70
     1
102
RTVSPropertyOp43
 70
     1
102
RTVSPropertyOp44
 70
     1
102
RTVSPropertyOp45
 70
     1
102
RTVSPropertyOp46
 70
     1
102
RTVSPropertyOp47
 70
     1
102
RTVSPropertyOp48
 70
     1
102
RTVSPropertyOp49
 70
     1
102
RTVSPropertyOp50
 70
     1
102
RTVSPropertyOp51
 70
     0
102
RTVSPropertyOp52
 70
     0
102
RTVSPropertyOp53
 70
     1
102
RTVSPropertyOp54
 70
     1
102
RTVSPropertyOp55
 70
     1
102
RTVSPropertyOp56
 70
     1
102
RTVSPropertyOp57
 70
     1
102
RTVSPropertyOp58
 70
     1
102
RTVSPropertyOp59
 70
     1
102
RTVSPropertyOp60
 70
     1
102
RTVSPropertyOp61
 70
     1
102
RTVSPropertyOp62
 70
     1
  0
XRECORD
  5
2CBD
102
{ACAD_REACTORS
330
2CBC
102
}
330
2CBC
100
AcDbXrecord
280
     1
102
RTVSPost2010Prop28
280
     0
102
RTVSPost2010PropOp28
 70
     1
102
RTVSPost2010Prop29
280
     1
102
RTVSPost2010PropOp29
 70
     1
102
RTVSPost2010Prop30
280
     1
102
RTVSPost2010PropOp30
 70
     1
102
RTVSPost2010Prop31
280
     0
102
RTVSPost2010PropOp31
 70
     1
102
RTVSPost2010Prop32
280
     0
102
RTVSPost2010PropOp32
 70
     1
102
RTVSPost2010Prop33
280
     0
102
RTVSPost2010PropOp33
 70
     1
102
RTVSPost2010Prop34
280
     0
102
RTVSPost2010PropOp34
 70
     1
102
RTVSPost2010Prop35
280
     0
102
RTVSPost2010PropOp35
 70
     1
102
RTVSPost2010Prop36
280
     0
102
RTVSPost2010PropOp36
 70
     1
102
RTVSPost2010Prop37
 90
       50
102
RTVSPost2010PropOp37
 70
     1
102
RTVSPost2010Prop38
140
0.0
102
RTVSPost2010PropOp38
 70
     1
102
RTVSPost2010Prop39
140
1.0
102
RTVSPost2010PropOp39
 70
     1
102
RTVSPost2010Prop40
 90
        0
102
RTVSPost2010PropOp40
 70
     1
102
RTVSPost2010Prop41ColorIndex
 90
       18
102
RTVSPost2010Prop41ColorRGB
 90
        0
102
RTVSPost2010PropOp41
 70
     1
102
RTVSPost2010Prop42
 90
       50
102
RTVSPost2010PropOp42
 70
     1
102
RTVSPost2010Prop43
 90
        3
102
RTVSPost2010PropOp43
 70
     1
102
RTVSPost2010Prop44ColorIndex
 90
        5
102
RTVSPost2010Prop44ColorRGB
 90
      255
102
RTVSPost2010PropOp44
 70
     1
102
RTVSPost2010Prop45
280
     0
102
RTVSPost2010PropOp45
 70
     1
102
RTVSPost2010Prop46
 90
       50
102
RTVSPost2010PropOp46
 70
     1
102
RTVSPost2010Prop47
 90
       50
102
RTVSPost2010PropOp47
 70
     1
102
RTVSPost2010Prop48
 90
       50
102
RTVSPost2010PropOp48
 70
     1
102
RTVSPost2010Prop49
280
     0
102
RTVSPost2010PropOp49
 70
     1
102
RTVSPost2010Prop50
 90
       50
102
RTVSPost2010PropOp50
 70
     1
102
RTVSPost2010Prop51ColorIndex
 90
      256
102
RTVSPost2010Prop51ColorRGB
 90
-16777216
102
RTVSPost2010PropOp51
 70
     0
102
RTVSPost2010Prop52
140
1.0
102
RTVSPost2010PropOp52
 70
     0
102
RTVSPost2010Prop53
 90
        2
102
RTVSPost2010PropOp53
 70
     1
102
RTVSPost2010Prop54
  1
strokes_ogs.tif
102
RTVSPost2010PropOp54
 70
     1
102
RTVSPost2010Prop55
280
     0
102
RTVSPost2010PropOp55
 70
     1
102
RTVSPost2010Prop56
140
1.0
102
RTVSPost2010PropOp56
 70
     1
102
RTVSPost2010Prop57
140
1.0
102
RTVSPost2010PropOp57
 70
     1
102
RTVSPropertyOp0
 70
     1
102
RTVSPropertyOp1
 70
     1
102
RTVSPropertyOp2
 70
     1
102
RTVSPropertyOp3
 70
     1
102
RTVSPropertyOp4
 70
     1
102
RTVSPropertyOp5
 70
     1
102
RTVSPropertyOp6
 70
     1
102
RTVSPropertyOp7
 70
     1
102
RTVSPropertyOp8
 70
     1
102
RTVSPropertyOp9
 70
     1
102
RTVSPropertyOp10
 70
     1
102
RTVSPropertyOp11
 70
     1
102
RTVSPropertyOp12
 70
     1
102
RTVSPropertyOp13
 70
     1
102
RTVSPropertyOp14
 70
     1
102
RTVSPropertyOp15
 70
     1
102
RTVSPropertyOp16
 70
     1
102
RTVSPropertyOp17
 70
     1
102
RTVSPropertyOp18
 70
     1
102
RTVSPropertyOp19
 70
     1
102
RTVSPropertyOp20
 70
     1
102
RTVSPropertyOp21
 70
     1
102
RTVSPropertyOp22
 70
     1
102
RTVSPropertyOp23
 70
     1
102
RTVSPropertyOp24
 70
     1
102
RTVSPropertyOp25
 70
     1
102
RTVSPropertyOp26
 70
     1
102
RTVSPropertyOp27
 70
     1
102
RTVSPropertyOp28
 70
     1
102
RTVSPropertyOp29
 70
     1
102
RTVSPropertyOp30
 70
     1
102
RTVSPropertyOp31
 70
     1
102
RTVSPropertyOp32
 70
     1
102
RTVSPropertyOp33
 70
     1
102
RTVSPropertyOp34
 70
     1
102
RTVSPropertyOp35
 70
     1
102
RTVSPropertyOp36
 70
     1
102
RTVSPropertyOp37
 70
     1
102
RTVSPropertyOp38
 70
     1
102
RTVSPropertyOp39
 70
     1
102
RTVSPropertyOp40
 70
     1
102
RTVSPropertyOp41
 70
     1
102
RTVSPropertyOp42
 70
     1
102
RTVSPropertyOp43
 70
     1
102
RTVSPropertyOp44
 70
     1
102
RTVSPropertyOp45
 70
     1
102
RTVSPropertyOp46
 70
     1
102
RTVSPropertyOp47
 70
     1
102
RTVSPropertyOp48
 70
     1
102
RTVSPropertyOp49
 70
     1
102
RTVSPropertyOp50
 70
     1
102
RTVSPropertyOp51
 70
     0
102
RTVSPropertyOp52
 70
     0
102
RTVSPropertyOp53
 70
     1
102
RTVSPropertyOp54
 70
     1
102
RTVSPropertyOp55
 70
     1
102
RTVSPropertyOp56
 70
     1
102
RTVSPropertyOp57
 70
     1
102
RTVSPropertyOp58
 70
     1
102
RTVSPropertyOp59
 70
     1
102
RTVSPropertyOp60
 70
     1
102
RTVSPropertyOp61
 70
     1
102
RTVSPropertyOp62
 70
     1
  0
XRECORD
  5
2CBF
102
{ACAD_REACTORS
330
2CBE
102
}
330
2CBE
100
AcDbXrecord
280
     1
102
RTVSPost2010Prop28
280
     0
102
RTVSPost2010PropOp28
 70
     1
102
RTVSPost2010Prop29
280
     1
102
RTVSPost2010PropOp29
 70
     1
102
RTVSPost2010Prop30
280
     1
102
RTVSPost2010PropOp30
 70
     1
102
RTVSPost2010Prop31
280
     0
102
RTVSPost2010PropOp31
 70
     1
102
RTVSPost2010Prop32
280
     0
102
RTVSPost2010PropOp32
 70
     1
102
RTVSPost2010Prop33
280
     0
102
RTVSPost2010PropOp33
 70
     1
102
RTVSPost2010Prop34
280
     0
102
RTVSPost2010PropOp34
 70
     1
102
RTVSPost2010Prop35
280
     0
102
RTVSPost2010PropOp35
 70
     1
102
RTVSPost2010Prop36
280
     0
102
RTVSPost2010PropOp36
 70
     1
102
RTVSPost2010Prop37
 90
       50
102
RTVSPost2010PropOp37
 70
     1
102
RTVSPost2010Prop38
140
0.0
102
RTVSPost2010PropOp38
 70
     1
102
RTVSPost2010Prop39
140
1.0
102
RTVSPost2010PropOp39
 70
     1
102
RTVSPost2010Prop40
 90
        0
102
RTVSPost2010PropOp40
 70
     1
102
RTVSPost2010Prop41ColorIndex
 90
       18
102
RTVSPost2010Prop41ColorRGB
 90
        0
102
RTVSPost2010PropOp41
 70
     1
102
RTVSPost2010Prop42
 90
       50
102
RTVSPost2010PropOp42
 70
     1
102
RTVSPost2010Prop43
 90
        3
102
RTVSPost2010PropOp43
 70
     1
102
RTVSPost2010Prop44ColorIndex
 90
        5
102
RTVSPost2010Prop44ColorRGB
 90
      255
102
RTVSPost2010PropOp44
 70
     1
102
RTVSPost2010Prop45
280
     0
102
RTVSPost2010PropOp45
 70
     1
102
RTVSPost2010Prop46
 90
       50
102
RTVSPost2010PropOp46
 70
     1
102
RTVSPost2010Prop47
 90
       50
102
RTVSPost2010PropOp47
 70
     1
102
RTVSPost2010Prop48
 90
       50
102
RTVSPost2010PropOp48
 70
     1
102
RTVSPost2010Prop49
280
     0
102
RTVSPost2010PropOp49
 70
     1
102
RTVSPost2010Prop50
 90
       50
102
RTVSPost2010PropOp50
 70
     1
102
RTVSPost2010Prop51ColorIndex
 90
      256
102
RTVSPost2010Prop51ColorRGB
 90
-16777216
102
RTVSPost2010PropOp51
 70
     0
102
RTVSPost2010Prop52
140
1.0
102
RTVSPost2010PropOp52
 70
     0
102
RTVSPost2010Prop53
 90
        2
102
RTVSPost2010PropOp53
 70
     1
102
RTVSPost2010Prop54
  1
strokes_ogs.tif
102
RTVSPost2010PropOp54
 70
     1
102
RTVSPost2010Prop55
280
     0
102
RTVSPost2010PropOp55
 70
     1
102
RTVSPost2010Prop56
140
1.0
102
RTVSPost2010PropOp56
 70
     1
102
RTVSPost2010Prop57
140
1.0
102
RTVSPost2010PropOp57
 70
     1
102
RTVSPropertyOp0
 70
     1
102
RTVSPropertyOp1
 70
     1
102
RTVSPropertyOp2
 70
     1
102
RTVSPropertyOp3
 70
     1
102
RTVSPropertyOp4
 70
     1
102
RTVSPropertyOp5
 70
     1
102
RTVSPropertyOp6
 70
     1
102
RTVSPropertyOp7
 70
     1
102
RTVSPropertyOp8
 70
     1
102
RTVSPropertyOp9
 70
     1
102
RTVSPropertyOp10
 70
     1
102
RTVSPropertyOp11
 70
     1
102
RTVSPropertyOp12
 70
     1
102
RTVSPropertyOp13
 70
     1
102
RTVSPropertyOp14
 70
     1
102
RTVSPropertyOp15
 70
     1
102
RTVSPropertyOp16
 70
     1
102
RTVSPropertyOp17
 70
     1
102
RTVSPropertyOp18
 70
     1
102
RTVSPropertyOp19
 70
     1
102
RTVSPropertyOp20
 70
     1
102
RTVSPropertyOp21
 70
     1
102
RTVSPropertyOp22
 70
     1
102
RTVSPropertyOp23
 70
     1
102
RTVSPropertyOp24
 70
     1
102
RTVSPropertyOp25
 70
     1
102
RTVSPropertyOp26
 70
     1
102
RTVSPropertyOp27
 70
     1
102
RTVSPropertyOp28
 70
     1
102
RTVSPropertyOp29
 70
     1
102
RTVSPropertyOp30
 70
     1
102
RTVSPropertyOp31
 70
     1
102
RTVSPropertyOp32
 70
     1
102
RTVSPropertyOp33
 70
     1
102
RTVSPropertyOp34
 70
     1
102
RTVSPropertyOp35
 70
     1
102
RTVSPropertyOp36
 70
     1
102
RTVSPropertyOp37
 70
     1
102
RTVSPropertyOp38
 70
     1
102
RTVSPropertyOp39
 70
     1
102
RTVSPropertyOp40
 70
     1
102
RTVSPropertyOp41
 70
     1
102
RTVSPropertyOp42
 70
     1
102
RTVSPropertyOp43
 70
     1
102
RTVSPropertyOp44
 70
     1
102
RTVSPropertyOp45
 70
     1
102
RTVSPropertyOp46
 70
     1
102
RTVSPropertyOp47
 70
     1
102
RTVSPropertyOp48
 70
     1
102
RTVSPropertyOp49
 70
     1
102
RTVSPropertyOp50
 70
     1
102
RTVSPropertyOp51
 70
     0
102
RTVSPropertyOp52
 70
     0
102
RTVSPropertyOp53
 70
     1
102
RTVSPropertyOp54
 70
     1
102
RTVSPropertyOp55
 70
     1
102
RTVSPropertyOp56
 70
     1
102
RTVSPropertyOp57
 70
     1
102
RTVSPropertyOp58
 70
     1
102
RTVSPropertyOp59
 70
     1
102
RTVSPropertyOp60
 70
     1
102
RTVSPropertyOp61
 70
     1
102
RTVSPropertyOp62
 70
     1
  0
XRECORD
  5
2CB5
102
{ACAD_REACTORS
330
2CB4
102
}
330
2CB4
100
AcDbXrecord
280
     1
102
RTVSPost2010Prop28
280
     0
102
RTVSPost2010PropOp28
 70
     1
102
RTVSPost2010Prop29
280
     1
102
RTVSPost2010PropOp29
 70
     1
102
RTVSPost2010Prop30
280
     1
102
RTVSPost2010PropOp30
 70
     1
102
RTVSPost2010Prop31
280
     0
102
RTVSPost2010PropOp31
 70
     1
102
RTVSPost2010Prop32
280
     0
102
RTVSPost2010PropOp32
 70
     1
102
RTVSPost2010Prop33
280
     0
102
RTVSPost2010PropOp33
 70
     1
102
RTVSPost2010Prop34
280
     0
102
RTVSPost2010PropOp34
 70
     1
102
RTVSPost2010Prop35
280
     0
102
RTVSPost2010PropOp35
 70
     1
102
RTVSPost2010Prop36
280
     0
102
RTVSPost2010PropOp36
 70
     1
102
RTVSPost2010Prop37
 90
       50
102
RTVSPost2010PropOp37
 70
     1
102
RTVSPost2010Prop38
140
0.0
102
RTVSPost2010PropOp38
 70
     1
102
RTVSPost2010Prop39
140
1.0
102
RTVSPost2010PropOp39
 70
     1
102
RTVSPost2010Prop40
 90
        0
102
RTVSPost2010PropOp40
 70
     1
102
RTVSPost2010Prop41ColorIndex
 90
       18
102
RTVSPost2010Prop41ColorRGB
 90
        0
102
RTVSPost2010PropOp41
 70
     1
102
RTVSPost2010Prop42
 90
       50
102
RTVSPost2010PropOp42
 70
     1
102
RTVSPost2010Prop43
 90
        3
102
RTVSPost2010PropOp43
 70
     1
102
RTVSPost2010Prop44ColorIndex
 90
        5
102
RTVSPost2010Prop44ColorRGB
 90
      255
102
RTVSPost2010PropOp44
 70
     1
102
RTVSPost2010Prop45
280
     0
102
RTVSPost2010PropOp45
 70
     1
102
RTVSPost2010Prop46
 90
       50
102
RTVSPost2010PropOp46
 70
     1
102
RTVSPost2010Prop47
 90
       50
102
RTVSPost2010PropOp47
 70
     1
102
RTVSPost2010Prop48
 90
       50
102
RTVSPost2010PropOp48
 70
     1
102
RTVSPost2010Prop49
280
     0
102
RTVSPost2010PropOp49
 70
     1
102
RTVSPost2010Prop50
 90
       50
102
RTVSPost2010PropOp50
 70
     1
102
RTVSPost2010Prop51ColorIndex
 90
      256
102
RTVSPost2010Prop51ColorRGB
 90
-16777216
102
RTVSPost2010PropOp51
 70
     0
102
RTVSPost2010Prop52
140
1.0
102
RTVSPost2010PropOp52
 70
     0
102
RTVSPost2010Prop53
 90
        2
102
RTVSPost2010PropOp53
 70
     1
102
RTVSPost2010Prop54
  1
strokes_ogs.tif
102
RTVSPost2010PropOp54
 70
     1
102
RTVSPost2010Prop55
280
     0
102
RTVSPost2010PropOp55
 70
     1
102
RTVSPost2010Prop56
140
1.0
102
RTVSPost2010PropOp56
 70
     1
102
RTVSPost2010Prop57
140
1.0
102
RTVSPost2010PropOp57
 70
     1
102
RTVSPropertyOp0
 70
     1
102
RTVSPropertyOp1
 70
     1
102
RTVSPropertyOp2
 70
     1
102
RTVSPropertyOp3
 70
     1
102
RTVSPropertyOp4
 70
     1
102
RTVSPropertyOp5
 70
     1
102
RTVSPropertyOp6
 70
     1
102
RTVSPropertyOp7
 70
     1
102
RTVSPropertyOp8
 70
     1
102
RTVSPropertyOp9
 70
     1
102
RTVSPropertyOp10
 70
     1
102
RTVSPropertyOp11
 70
     1
102
RTVSPropertyOp12
 70
     1
102
RTVSPropertyOp13
 70
     1
102
RTVSPropertyOp14
 70
     1
102
RTVSPropertyOp15
 70
     1
102
RTVSPropertyOp16
 70
     1
102
RTVSPropertyOp17
 70
     1
102
RTVSPropertyOp18
 70
     1
102
RTVSPropertyOp19
 70
     1
102
RTVSPropertyOp20
 70
     1
102
RTVSPropertyOp21
 70
     1
102
RTVSPropertyOp22
 70
     1
102
RTVSPropertyOp23
 70
     1
102
RTVSPropertyOp24
 70
     1
102
RTVSPropertyOp25
 70
     1
102
RTVSPropertyOp26
 70
     1
102
RTVSPropertyOp27
 70
     1
102
RTVSPropertyOp28
 70
     1
102
RTVSPropertyOp29
 70
     1
102
RTVSPropertyOp30
 70
     1
102
RTVSPropertyOp31
 70
     1
102
RTVSPropertyOp32
 70
     1
102
RTVSPropertyOp33
 70
     1
102
RTVSPropertyOp34
 70
     1
102
RTVSPropertyOp35
 70
     1
102
RTVSPropertyOp36
 70
     1
102
RTVSPropertyOp37
 70
     1
102
RTVSPropertyOp38
 70
     1
102
RTVSPropertyOp39
 70
     1
102
RTVSPropertyOp40
 70
     1
102
RTVSPropertyOp41
 70
     1
102
RTVSPropertyOp42
 70
     1
102
RTVSPropertyOp43
 70
     1
102
RTVSPropertyOp44
 70
     1
102
RTVSPropertyOp45
 70
     1
102
RTVSPropertyOp46
 70
     1
102
RTVSPropertyOp47
 70
     1
102
RTVSPropertyOp48
 70
     1
102
RTVSPropertyOp49
 70
     1
102
RTVSPropertyOp50
 70
     1
102
RTVSPropertyOp51
 70
     0
102
RTVSPropertyOp52
 70
     0
102
RTVSPropertyOp53
 70
     1
102
RTVSPropertyOp54
 70
     1
102
RTVSPropertyOp55
 70
     1
102
RTVSPropertyOp56
 70
     1
102
RTVSPropertyOp57
 70
     1
102
RTVSPropertyOp58
 70
     1
102
RTVSPropertyOp59
 70
     1
102
RTVSPropertyOp60
 70
     1
102
RTVSPropertyOp61
 70
     1
102
RTVSPropertyOp62
 70
     1
  0
XRECORD
  5
2CA9
102
{ACAD_REACTORS
330
2CA8
102
}
330
2CA8
100
AcDbXrecord
280
     1
102
RTVSPost2010Prop28
280
     0
102
RTVSPost2010PropOp28
 70
     1
102
RTVSPost2010Prop29
280
     1
102
RTVSPost2010PropOp29
 70
     1
102
RTVSPost2010Prop30
280
     1
102
RTVSPost2010PropOp30
 70
     1
102
RTVSPost2010Prop31
280
     0
102
RTVSPost2010PropOp31
 70
     1
102
RTVSPost2010Prop32
280
     0
102
RTVSPost2010PropOp32
 70
     1
102
RTVSPost2010Prop33
280
     0
102
RTVSPost2010PropOp33
 70
     1
102
RTVSPost2010Prop34
280
     0
102
RTVSPost2010PropOp34
 70
     1
102
RTVSPost2010Prop35
280
     0
102
RTVSPost2010PropOp35
 70
     1
102
RTVSPost2010Prop36
280
     0
102
RTVSPost2010PropOp36
 70
     1
102
RTVSPost2010Prop37
 90
       50
102
RTVSPost2010PropOp37
 70
     1
102
RTVSPost2010Prop38
140
0.0
102
RTVSPost2010PropOp38
 70
     1
102
RTVSPost2010Prop39
140
1.0
102
RTVSPost2010PropOp39
 70
     1
102
RTVSPost2010Prop40
 90
        0
102
RTVSPost2010PropOp40
 70
     1
102
RTVSPost2010Prop41ColorIndex
 90
       18
102
RTVSPost2010Prop41ColorRGB
 90
        0
102
RTVSPost2010PropOp41
 70
     1
102
RTVSPost2010Prop42
 90
       50
102
RTVSPost2010PropOp42
 70
     1
102
RTVSPost2010Prop43
 90
        3
102
RTVSPost2010PropOp43
 70
     1
102
RTVSPost2010Prop44ColorIndex
 90
        5
102
RTVSPost2010Prop44ColorRGB
 90
      255
102
RTVSPost2010PropOp44
 70
     1
102
RTVSPost2010Prop45
280
     0
102
RTVSPost2010PropOp45
 70
     1
102
RTVSPost2010Prop46
 90
       50
102
RTVSPost2010PropOp46
 70
     1
102
RTVSPost2010Prop47
 90
       50
102
RTVSPost2010PropOp47
 70
     1
102
RTVSPost2010Prop48
 90
       50
102
RTVSPost2010PropOp48
 70
     1
102
RTVSPost2010Prop49
280
     0
102
RTVSPost2010PropOp49
 70
     1
102
RTVSPost2010Prop50
 90
       50
102
RTVSPost2010PropOp50
 70
     1
102
RTVSPost2010Prop51ColorIndex
 90
      256
102
RTVSPost2010Prop51ColorRGB
 90
-16777216
102
RTVSPost2010PropOp51
 70
     0
102
RTVSPost2010Prop52
140
1.0
102
RTVSPost2010PropOp52
 70
     0
102
RTVSPost2010Prop53
 90
        2
102
RTVSPost2010PropOp53
 70
     1
102
RTVSPost2010Prop54
  1
strokes_ogs.tif
102
RTVSPost2010PropOp54
 70
     1
102
RTVSPost2010Prop55
280
     0
102
RTVSPost2010PropOp55
 70
     1
102
RTVSPost2010Prop56
140
1.0
102
RTVSPost2010PropOp56
 70
     1
102
RTVSPost2010Prop57
140
1.0
102
RTVSPost2010PropOp57
 70
     1
102
RTVSPropertyOp0
 70
     1
102
RTVSPropertyOp1
 70
     1
102
RTVSPropertyOp2
 70
     1
102
RTVSPropertyOp3
 70
     1
102
RTVSPropertyOp4
 70
     1
102
RTVSPropertyOp5
 70
     1
102
RTVSPropertyOp6
 70
     1
102
RTVSPropertyOp7
 70
     1
102
RTVSPropertyOp8
 70
     1
102
RTVSPropertyOp9
 70
     1
102
RTVSPropertyOp10
 70
     1
102
RTVSPropertyOp11
 70
     1
102
RTVSPropertyOp12
 70
     1
102
RTVSPropertyOp13
 70
     1
102
RTVSPropertyOp14
 70
     1
102
RTVSPropertyOp15
 70
     1
102
RTVSPropertyOp16
 70
     1
102
RTVSPropertyOp17
 70
     1
102
RTVSPropertyOp18
 70
     1
102
RTVSPropertyOp19
 70
     1
102
RTVSPropertyOp20
 70
     1
102
RTVSPropertyOp21
 70
     1
102
RTVSPropertyOp22
 70
     1
102
RTVSPropertyOp23
 70
     1
102
RTVSPropertyOp24
 70
     1
102
RTVSPropertyOp25
 70
     1
102
RTVSPropertyOp26
 70
     1
102
RTVSPropertyOp27
 70
     1
102
RTVSPropertyOp28
 70
     1
102
RTVSPropertyOp29
 70
     1
102
RTVSPropertyOp30
 70
     1
102
RTVSPropertyOp31
 70
     1
102
RTVSPropertyOp32
 70
     1
102
RTVSPropertyOp33
 70
     1
102
RTVSPropertyOp34
 70
     1
102
RTVSPropertyOp35
 70
     1
102
RTVSPropertyOp36
 70
     1
102
RTVSPropertyOp37
 70
     1
102
RTVSPropertyOp38
 70
     1
102
RTVSPropertyOp39
 70
     1
102
RTVSPropertyOp40
 70
     1
102
RTVSPropertyOp41
 70
     1
102
RTVSPropertyOp42
 70
     1
102
RTVSPropertyOp43
 70
     1
102
RTVSPropertyOp44
 70
     1
102
RTVSPropertyOp45
 70
     1
102
RTVSPropertyOp46
 70
     1
102
RTVSPropertyOp47
 70
     1
102
RTVSPropertyOp48
 70
     1
102
RTVSPropertyOp49
 70
     1
102
RTVSPropertyOp50
 70
     1
102
RTVSPropertyOp51
 70
     0
102
RTVSPropertyOp52
 70
     0
102
RTVSPropertyOp53
 70
     1
102
RTVSPropertyOp54
 70
     1
102
RTVSPropertyOp55
 70
     1
102
RTVSPropertyOp56
 70
     1
102
RTVSPropertyOp57
 70
     1
102
RTVSPropertyOp58
 70
     1
102
RTVSPropertyOp59
 70
     1
102
RTVSPropertyOp60
 70
     1
102
RTVSPropertyOp61
 70
     1
102
RTVSPropertyOp62
 70
     1
  0
XRECORD
  5
2CC1
102
{ACAD_REACTORS
330
2CC0
102
}
330
2CC0
100
AcDbXrecord
280
     1
102
RTVSPost2010Prop28
280
     0
102
RTVSPost2010PropOp28
 70
     1
102
RTVSPost2010Prop29
280
     1
102
RTVSPost2010PropOp29
 70
     1
102
RTVSPost2010Prop30
280
     1
102
RTVSPost2010PropOp30
 70
     1
102
RTVSPost2010Prop31
280
     0
102
RTVSPost2010PropOp31
 70
     1
102
RTVSPost2010Prop32
280
     0
102
RTVSPost2010PropOp32
 70
     1
102
RTVSPost2010Prop33
280
     0
102
RTVSPost2010PropOp33
 70
     1
102
RTVSPost2010Prop34
280
     0
102
RTVSPost2010PropOp34
 70
     1
102
RTVSPost2010Prop35
280
     0
102
RTVSPost2010PropOp35
 70
     1
102
RTVSPost2010Prop36
280
     0
102
RTVSPost2010PropOp36
 70
     1
102
RTVSPost2010Prop37
 90
       50
102
RTVSPost2010PropOp37
 70
     1
102
RTVSPost2010Prop38
140
0.0
102
RTVSPost2010PropOp38
 70
     1
102
RTVSPost2010Prop39
140
1.0
102
RTVSPost2010PropOp39
 70
     1
102
RTVSPost2010Prop40
 90
        0
102
RTVSPost2010PropOp40
 70
     1
102
RTVSPost2010Prop41ColorIndex
 90
       18
102
RTVSPost2010Prop41ColorRGB
 90
        0
102
RTVSPost2010PropOp41
 70
     1
102
RTVSPost2010Prop42
 90
       50
102
RTVSPost2010PropOp42
 70
     1
102
RTVSPost2010Prop43
 90
        3
102
RTVSPost2010PropOp43
 70
     1
102
RTVSPost2010Prop44ColorIndex
 90
        5
102
RTVSPost2010Prop44ColorRGB
 90
      255
102
RTVSPost2010PropOp44
 70
     1
102
RTVSPost2010Prop45
280
     0
102
RTVSPost2010PropOp45
 70
     1
102
RTVSPost2010Prop46
 90
       50
102
RTVSPost2010PropOp46
 70
     1
102
RTVSPost2010Prop47
 90
       50
102
RTVSPost2010PropOp47
 70
     1
102
RTVSPost2010Prop48
 90
       50
102
RTVSPost2010PropOp48
 70
     1
102
RTVSPost2010Prop49
280
     0
102
RTVSPost2010PropOp49
 70
     1
102
RTVSPost2010Prop50
 90
       50
102
RTVSPost2010PropOp50
 70
     1
102
RTVSPost2010Prop51ColorIndex
 90
      256
102
RTVSPost2010Prop51ColorRGB
 90
-16777216
102
RTVSPost2010PropOp51
 70
     0
102
RTVSPost2010Prop52
140
1.0
102
RTVSPost2010PropOp52
 70
     0
102
RTVSPost2010Prop53
 90
        2
102
RTVSPost2010PropOp53
 70
     1
102
RTVSPost2010Prop54
  1
strokes_ogs.tif
102
RTVSPost2010PropOp54
 70
     1
102
RTVSPost2010Prop55
280
     0
102
RTVSPost2010PropOp55
 70
     1
102
RTVSPost2010Prop56
140
1.0
102
RTVSPost2010PropOp56
 70
     1
102
RTVSPost2010Prop57
140
1.0
102
RTVSPost2010PropOp57
 70
     1
102
RTVSPropertyOp0
 70
     1
102
RTVSPropertyOp1
 70
     1
102
RTVSPropertyOp2
 70
     1
102
RTVSPropertyOp3
 70
     1
102
RTVSPropertyOp4
 70
     1
102
RTVSPropertyOp5
 70
     1
102
RTVSPropertyOp6
 70
     1
102
RTVSPropertyOp7
 70
     1
102
RTVSPropertyOp8
 70
     1
102
RTVSPropertyOp9
 70
     1
102
RTVSPropertyOp10
 70
     1
102
RTVSPropertyOp11
 70
     1
102
RTVSPropertyOp12
 70
     1
102
RTVSPropertyOp13
 70
     1
102
RTVSPropertyOp14
 70
     1
102
RTVSPropertyOp15
 70
     1
102
RTVSPropertyOp16
 70
     1
102
RTVSPropertyOp17
 70
     1
102
RTVSPropertyOp18
 70
     1
102
RTVSPropertyOp19
 70
     1
102
RTVSPropertyOp20
 70
     1
102
RTVSPropertyOp21
 70
     1
102
RTVSPropertyOp22
 70
     1
102
RTVSPropertyOp23
 70
     1
102
RTVSPropertyOp24
 70
     1
102
RTVSPropertyOp25
 70
     1
102
RTVSPropertyOp26
 70
     1
102
RTVSPropertyOp27
 70
     1
102
RTVSPropertyOp28
 70
     1
102
RTVSPropertyOp29
 70
     1
102
RTVSPropertyOp30
 70
     1
102
RTVSPropertyOp31
 70
     1
102
RTVSPropertyOp32
 70
     1
102
RTVSPropertyOp33
 70
     1
102
RTVSPropertyOp34
 70
     1
102
RTVSPropertyOp35
 70
     1
102
RTVSPropertyOp36
 70
     1
102
RTVSPropertyOp37
 70
     1
102
RTVSPropertyOp38
 70
     1
102
RTVSPropertyOp39
 70
     1
102
RTVSPropertyOp40
 70
     1
102
RTVSPropertyOp41
 70
     1
102
RTVSPropertyOp42
 70
     1
102
RTVSPropertyOp43
 70
     1
102
RTVSPropertyOp44
 70
     1
102
RTVSPropertyOp45
 70
     1
102
RTVSPropertyOp46
 70
     1
102
RTVSPropertyOp47
 70
     1
102
RTVSPropertyOp48
 70
     1
102
RTVSPropertyOp49
 70
     1
102
RTVSPropertyOp50
 70
     1
102
RTVSPropertyOp51
 70
     0
102
RTVSPropertyOp52
 70
     0
102
RTVSPropertyOp53
 70
     1
102
RTVSPropertyOp54
 70
     1
102
RTVSPropertyOp55
 70
     1
102
RTVSPropertyOp56
 70
     1
102
RTVSPropertyOp57
 70
     1
102
RTVSPropertyOp58
 70
     1
102
RTVSPropertyOp59
 70
     1
102
RTVSPropertyOp60
 70
     1
102
RTVSPropertyOp61
 70
     1
102
RTVSPropertyOp62
 70
     1
  0
ENDSEC
  0
EOF
