  0
SECTION
  2
HEADER
  9
$ACADVER
  1
AC1015
  9
$ACADMAINTVER
 70
    20
  9
$DWGCODEPAGE
  3
ANSI_932
  9
$INSBASE
 10
0.0
 20
0.0
 30
0.0
  9
$EXTMIN
 10
9.9999975266385
 20
10.0
 30
0.0
  9
$EXTMAX
 10
271.3345882893322
 20
221.8928819544256
 30
0.0
  9
$LIMMIN
 10
0.0000015376081137
 20
-0.0000001931533977
  9
$LIMMAX
 10
346.0000015376081
 20
238.5303028371496
  9
$ORTHOMODE
 70
     1
  9
$REGENMODE
 70
     1
  9
$FILLMODE
 70
     1
  9
$QTEXTMODE
 70
     0
  9
$MIRRTEXT
 70
     1
  9
$LTSCALE
 40
1.0
  9
$ATTMODE
 70
     1
  9
$TEXTSIZE
 40
2.5
  9
$TRACEWID
 40
1.0
  9
$TEXTSTYLE
  7
STANDARD
  9
$CLAYER
  8
0
  9
$CELTYPE
  6
BYLAYER
  9
$CECOLOR
 62
   256
  9
$CELTSCALE
 40
1.0
  9
$DISPSILH
 70
     0
  9
$DIMSCALE
 40
1.0
  9
$DIMASZ
 40
3.0
  9
$DIMEXO
 40
1.0
  9
$DIMDLI
 40
10.0
  9
$DIMRND
 40
0.0
  9
$DIMDLE
 40
0.0
  9
$DIMEXE
 40
1.0
  9
$DIMTP
 40
0.0
  9
$DIMTM
 40
0.0
  9
$DIMTXT
 40
3.2
  9
$DIMCEN
 40
0.0
  9
$DIMTSZ
 40
0.0
  9
$DIMTOL
 70
     0
  9
$DIMLIM
 70
     0
  9
$DIMTIH
 70
     0
  9
$DIMTOH
 70
     0
  9
$DIMSE1
 70
     0
  9
$DIMSE2
 70
     0
  9
$DIMTAD
 70
     3
  9
$DIMZIN
 70
     8
  9
$DIMBLK
  1

  9
$DIMASO
 70
     1
  9
$DIMSHO
 70
     1
  9
$DIMPOST
  1

  9
$DIMAPOST
  1

  9
$DIMALT
 70
     0
  9
$DIMALTD
 70
     2
  9
$DIMALTF
 40
25.4
  9
$DIMLFAC
 40
1.0
  9
$DIMTOFL
 70
     1
  9
$DIMTVP
 40
0.0
  9
$DIMTIX
 70
     0
  9
$DIMSOXD
 70
     0
  9
$DIMSAH
 70
     1
  9
$DIMBLK1
  1
OPEN
  9
$DIMBLK2
  1
OPEN
  9
$DIMSTYLE
  2
STANDARD
  9
$DIMCLRD
 70
     0
  9
$DIMCLRE
 70
     0
  9
$DIMCLRT
 70
     0
  9
$DIMTFAC
 40
1.0
  9
$DIMGAP
 40
1.0
  9
$DIMJUST
 70
     0
  9
$DIMSD1
 70
     0
  9
$DIMSD2
 70
     0
  9
$DIMTOLJ
 70
     1
  9
$DIMTZIN
 70
     0
  9
$DIMALTZ
 70
     0
  9
$DIMALTTZ
 70
     0
  9
$DIMUPT
 70
     0
  9
$DIMDEC
 70
     4
  9
$DIMTDEC
 70
     4
  9
$DIMALTU
 70
     2
  9
$DIMALTTD
 70
     2
  9
$DIMTXSTY
  7
STANDARD
  9
$DIMAUNIT
 70
     0
  9
$DIMADEC
 70
     0
  9
$DIMALTRND
 40
0.0
  9
$DIMAZIN
 70
     0
  9
$DIMDSEP
 70
    46
  9
$DIMATFIT
 70
     3
  9
$DIMFRAC
 70
     0
  9
$DIMLDRBLK
  1
OPEN
  9
$DIMLUNIT
 70
     2
  9
$DIMLWD
 70
    -2
  9
$DIMLWE
 70
    -2
  9
$DIMTMOVE
 70
     0
  9
$LUNITS
 70
     2
  9
$LUPREC
 70
     4
  9
$SKETCHINC
 40
1.0
  9
$FILLETRAD
 40
0.0
  9
$AUNITS
 70
     0
  9
$AUPREC
 70
     0
  9
$MENU
  1
.
  9
$ELEVATION
 40
0.0
  9
$PELEVATION
 40
0.0
  9
$THICKNESS
 40
0.0
  9
$LIMCHECK
 70
     0
  9
$CHAMFERA
 40
10.0
  9
$CHAMFERB
 40
10.0
  9
$CHAMFERC
 40
20.0
  9
$CHAMFERD
 40
0.0
  9
$SKPOLY
 70
     0
  9
$TDCREATE
 40
2453733.604438831
  9
$TDUCREATE
 40
2453733.229438831
  9
$TDUPDATE
 40
2457192.700480556
  9
$TDUUPDATE
 40
2457192.325480556
  9
$TDINDWG
 40
0.1633795370
  9
$TDUSRTIMER
 40
0.1633795255
  9
$USRTIMER
 70
     1
  9
$ANGBASE
 50
0.0
  9
$ANGDIR
 70
     0
  9
$PDMODE
 70
     0
  9
$PDSIZE
 40
0.0
  9
$PLINEWID
 40
0.0
  9
$SPLFRAME
 70
     0
  9
$SPLINETYPE
 70
     6
  9
$SPLINESEGS
 70
     8
  9
$HANDSEED
  5
135D
  9
$SURFTAB1
 70
     6
  9
$SURFTAB2
 70
     6
  9
$SURFTYPE
 70
     6
  9
$SURFU
 70
     6
  9
$SURFV
 70
     6
  9
$UCSBASE
  2

  9
$UCSNAME
  2

  9
$UCSORG
 10
0.0
 20
0.0
 30
0.0
  9
$UCSXDIR
 10
1.0
 20
0.0
 30
0.0
  9
$UCSYDIR
 10
0.0
 20
1.0
 30
0.0
  9
$UCSORTHOREF
  2

  9
$UCSORTHOVIEW
 70
     0
  9
$UCSORGTOP
 10
0.0
 20
0.0
 30
0.0
  9
$UCSORGBOTTOM
 10
0.0
 20
0.0
 30
0.0
  9
$UCSORGLEFT
 10
0.0
 20
0.0
 30
0.0
  9
$UCSORGRIGHT
 10
0.0
 20
0.0
 30
0.0
  9
$UCSORGFRONT
 10
0.0
 20
0.0
 30
0.0
  9
$UCSORGBACK
 10
0.0
 20
0.0
 30
0.0
  9
$PUCSBASE
  2

  9
$PUCSNAME
  2

  9
$PUCSORG
 10
0.0
 20
0.0
 30
0.0
  9
$PUCSXDIR
 10
1.0
 20
0.0
 30
0.0
  9
$PUCSYDIR
 10
0.0
 20
1.0
 30
0.0
  9
$PUCSORTHOREF
  2

  9
$PUCSORTHOVIEW
 70
     0
  9
$PUCSORGTOP
 10
0.0
 20
0.0
 30
0.0
  9
$PUCSORGBOTTOM
 10
0.0
 20
0.0
 30
0.0
  9
$PUCSORGLEFT
 10
0.0
 20
0.0
 30
0.0
  9
$PUCSORGRIGHT
 10
0.0
 20
0.0
 30
0.0
  9
$PUCSORGFRONT
 10
0.0
 20
0.0
 30
0.0
  9
$PUCSORGBACK
 10
0.0
 20
0.0
 30
0.0
  9
$USERI1
 70
     0
  9
$USERI2
 70
     0
  9
$USERI3
 70
     0
  9
$USERI4
 70
     0
  9
$USERI5
 70
     0
  9
$USERR1
 40
0.0
  9
$USERR2
 40
0.0
  9
$USERR3
 40
0.0
  9
$USERR4
 40
0.0
  9
$USERR5
 40
0.0
  9
$WORLDVIEW
 70
     1
  9
$SHADEDGE
 70
     3
  9
$SHADEDIF
 70
    70
  9
$TILEMODE
 70
     1
  9
$MAXACTVP
 70
    48
  9
$PINSBASE
 10
0.0
 20
0.0
 30
0.0
  9
$PLIMCHECK
 70
     0
  9
$PEXTMIN
 10
27.8447512626648
 20
20.24591643810271
 30
0.0
  9
$PEXTMAX
 10
250.6027613639831
 20
182.2132479429244
 30
0.0
  9
$PLIMMIN
 10
-3.757080078125
 20
-3.757083177566528
  9
$PLIMMAX
 10
293.2112426757812
 20
206.2162444591522
  9
$UNITMODE
 70
     0
  9
$VISRETAIN
 70
     1
  9
$PLINEGEN
 70
     0
  9
$PSLTSCALE
 70
     1
  9
$TREEDEPTH
 70
  3020
  9
$CMLSTYLE
  2
STANDARD
  9
$CMLJUST
 70
     0
  9
$CMLSCALE
 40
20.0
  9
$PROXYGRAPHICS
 70
     1
  9
$MEASUREMENT
 70
     0
  9
$CELWEIGHT
370
    -1
  9
$ENDCAPS
280
     0
  9
$JOINSTYLE
280
     0
  9
$LWDISPLAY
290
     0
  9
$INSUNITS
 70
     0
  9
$HYPERLINKBASE
  1

  9
$STYLESHEET
  1

  9
$XEDIT
290
     1
  9
$CEPSNTYPE
380
     0
  9
$PSTYLEMODE
290
     1
  9
$FINGERPRINTGUID
  2
{A3FF2616-82D5-4E92-AF35-F8F381F9DCF6}
  9
$VERSIONGUID
  2
{3B8AF106-4C74-420D-97BE-E3D1827F4C2E}
  9
$EXTNAMES
290
     1
  9
$PSVPSCALE
 40
0.0
  9
$OLESTARTUP
290
     0
  0
ENDSEC
  0
SECTION
  2
CLASSES
  0
CLASS
  1
ACDBDICTIONARYWDFLT
  2
AcDbDictionaryWithDefault
  3
ObjectDBX Classes
 90
        0
280
     0
281
     0
  0
CLASS
  1
ACDBPLACEHOLDER
  2
AcDbPlaceHolder
  3
ObjectDBX Classes
 90
        0
280
     0
281
     0
  0
CLASS
  1
LAYOUT
  2
AcDbLayout
  3
ObjectDBX Classes
 90
        0
280
     0
281
     0
  0
CLASS
  1
DICTIONARYVAR
  2
AcDbDictionaryVar
  3
ObjectDBX Classes
 90
        0
280
     0
281
     0
  0
CLASS
  1
MATERIAL
  2
AcDbMaterial
  3
ObjectDBX Classes
 90
     1153
280
     0
281
     0
  0
CLASS
  1
VISUALSTYLE
  2
AcDbVisualStyle
  3
ObjectDBX Classes
 90
     4095
280
     0
281
     0
  0
CLASS
  1
TABLESTYLE
  2
AcDbTableStyle
  3
ObjectDBX Classes
 90
     4095
280
     0
281
     0
  0
CLASS
  1
SCALE
  2
AcDbScale
  3
ObjectDBX Classes
 90
     1153
280
     0
281
     0
  0
CLASS
  1
MLEADERSTYLE
  2
AcDbMLeaderStyle
  3
ACDB_MLEADERSTYLE_CLASS
 90
     4095
280
     0
281
     0
  0
CLASS
  1
ACDBSECTIONVIEWSTYLE
  2
AcDbSectionViewStyle
  3
ObjectDBX Classes
 90
     1025
280
     0
281
     0
  0
CLASS
  1
ACDBDETAILVIEWSTYLE
  2
AcDbDetailViewStyle
  3
ObjectDBX Classes
 90
     1025
280
     0
281
     0
  0
CLASS
  1
CELLSTYLEMAP
  2
AcDbCellStyleMap
  3
ObjectDBX Classes
 90
     1152
280
     0
281
     0
  0
ENDSEC
  0
SECTION
  2
TABLES
  0
TABLE
  2
VPORT
  5
8
330
0
100
AcDbSymbolTable
 70
     1
  0
VPORT
  5
12A7
330
8
100
AcDbSymbolTableRecord
100
AcDbViewportTableRecord
  2
*ACTIVE
 70
     0
 10
0.0
 20
0.0
 11
1.0
 21
1.0
 12
208.7834298857606
 22
115.9439406077082
 13
0.0
 23
0.0
 14
10.0
 24
10.0
 15
10.0
 25
10.0
 16
0.0
 26
0.0
 36
1.0
 17
0.0
 27
0.0
 37
0.0
 40
213.9420762870161
 41
2.35006605019815
 42
50.0
 43
0.0
 44
0.0
 50
0.0
 51
0.0
 71
     0
 72
   100
 73
     1
 74
     0
 75
     0
 76
     0
 77
     0
 78
     0
281
     0
 65
     1
110
0.0
120
0.0
130
0.0
111
1.0
121
0.0
131
0.0
112
0.0
122
1.0
132
0.0
 79
     0
146
0.0
1001
ACAD_NAV_VCDISPLAY
1070
     3
  0
ENDTAB
  0
TABLE
  2
LTYPE
  5
5
330
0
100
AcDbSymbolTable
 70
     4
  0
LTYPE
  5
12
330
5
100
AcDbSymbolTableRecord
100
AcDbLinetypeTableRecord
  2
BYBLOCK
 70
     0
  3

 72
    65
 73
     0
 40
0.0
  0
LTYPE
  5
13
330
5
100
AcDbSymbolTableRecord
100
AcDbLinetypeTableRecord
  2
BYLAYER
 70
     0
  3

 72
    65
 73
     0
 40
0.0
  0
LTYPE
  5
14
330
5
100
AcDbSymbolTableRecord
100
AcDbLinetypeTableRecord
  2
CONTINUOUS
 70
     0
  3
Solid line
 72
    65
 73
     0
 40
0.0
  0
LTYPE
  5
4B
330
5
100
AcDbSymbolTableRecord
100
AcDbLinetypeTableRecord
  2
DASHED
 70
     0
  3
Dashed __ __ __ __ __ __ __ __ __ __ __ __ __ _
 72
    65
 73
     2
 40
19.04999999999999
 49
12.7
 74
     0
 49
-6.349999999999998
 74
     0
  0
LTYPE
  5
4C
330
5
100
AcDbSymbolTableRecord
100
AcDbLinetypeTableRecord
  2
CENTER
 70
     0
  3
Center ____ _ ____ _ ____ _ ____ _ ____ _ ____
 72
    65
 73
     4
 40
50.8
 49
31.75
 74
     0
 49
-6.349999999999998
 74
     0
 49
6.349999999999998
 74
     0
 49
-6.349999999999998
 74
     0
  0
LTYPE
  5
4D
330
5
100
AcDbSymbolTableRecord
100
AcDbLinetypeTableRecord
  2
PHANTOM
 70
     0
  3
Phantom ______  __  __  ______  __  __  ______
 72
    65
 73
     6
 40
63.5
 49
31.75
 74
     0
 49
-6.349999999999998
 74
     0
 49
6.349999999999998
 74
     0
 49
-6.349999999999998
 74
     0
 49
6.349999999999998
 74
     0
 49
-6.349999999999998
 74
     0
  0
ENDTAB
  0
TABLE
  2
LAYER
  5
2
330
0
100
AcDbSymbolTable
 70
     8
  0
LAYER
  5
E
102
{ACAD_XDICTIONARY
360
1301
102
}
330
2
100
AcDbSymbolTableRecord
100
AcDbLayerTableRecord
  2
0
 70
     0
 62
     7
  6
CONTINUOUS
370
    -3
390
12B0
  0
LAYER
  5
4E
102
{ACAD_XDICTIONARY
360
1303
102
}
330
2
100
AcDbSymbolTableRecord
100
AcDbLayerTableRecord
  2
4
 70
     0
 62
     1
  6
CENTER
370
    -3
390
12B0
  0
LAYER
  5
4F
102
{ACAD_XDICTIONARY
360
1305
102
}
330
2
100
AcDbSymbolTableRecord
100
AcDbLayerTableRecord
  2
5
 70
     0
 62
     6
  6
PHANTOM
370
    -3
390
12B0
  0
LAYER
  5
50
102
{ACAD_XDICTIONARY
360
1307
102
}
330
2
100
AcDbSymbolTableRecord
100
AcDbLayerTableRecord
  2
1
 70
     0
 62
     7
  6
CONTINUOUS
370
    -3
390
12B0
  0
LAYER
  5
51
102
{ACAD_XDICTIONARY
360
1309
102
}
330
2
100
AcDbSymbolTableRecord
100
AcDbLayerTableRecord
  2
2
 70
     0
 62
     4
  6
CONTINUOUS
370
    -3
390
12B0
  0
LAYER
  5
52
102
{ACAD_XDICTIONARY
360
130B
102
}
330
2
100
AcDbSymbolTableRecord
100
AcDbLayerTableRecord
  2
3
 70
     0
 62
     2
  6
DASHED
370
    -3
390
12B0
  0
LAYER
  5
53
102
{ACAD_XDICTIONARY
360
130D
102
}
330
2
100
AcDbSymbolTableRecord
100
AcDbLayerTableRecord
  2
6
 70
     0
 62
     5
  6
CONTINUOUS
370
    -3
390
12B0
  0
LAYER
  5
54
102
{ACAD_XDICTIONARY
360
130F
102
}
330
2
100
AcDbSymbolTableRecord
100
AcDbLayerTableRecord
  2
7
 70
     0
 62
     3
  6
CONTINUOUS
370
    -3
390
12B0
  0
ENDTAB
  0
TABLE
  2
STYLE
  5
3
330
0
100
AcDbSymbolTable
 70
     1
  0
STYLE
  5
F
330
3
100
AcDbSymbolTableRecord
100
AcDbTextStyleTableRecord
  2
STANDARD
 70
     0
 40
0.0
 41
1.0
 50
0.0
 71
     0
 42
2.5
  3
simplex.shx
  4

  0
ENDTAB
  0
TABLE
  2
VIEW
  5
6
330
0
100
AcDbSymbolTable
 70
     0
  0
ENDTAB
  0
TABLE
  2
UCS
  5
7
330
0
100
AcDbSymbolTable
 70
     0
  0
ENDTAB
  0
TABLE
  2
APPID
  5
9
330
0
100
AcDbSymbolTable
 70
     5
  0
APPID
  5
10
330
9
100
AcDbSymbolTableRecord
100
AcDbRegAppTableRecord
  2
ACAD
 70
     0
  0
APPID
  5
3E
330
9
100
AcDbSymbolTableRecord
100
AcDbRegAppTableRecord
  2
CONTENTTABDATA
 70
     0
  0
APPID
  5
3F
330
9
100
AcDbSymbolTableRecord
100
AcDbRegAppTableRecord
  2
CONTENTCURRENTTAB
 70
     0
  0
APPID
  5
131B
330
9
100
AcDbSymbolTableRecord
100
AcDbRegAppTableRecord
  2
ACAD_NAV_VCDISPLAY
 70
     0
  0
APPID
  5
1354
330
9
100
AcDbSymbolTableRecord
100
AcDbRegAppTableRecord
  2
ACAD_MLEADERVER
 70
     0
  0
ENDTAB
  0
TABLE
  2
DIMSTYLE
  5
A
330
0
100
AcDbSymbolTable
 70
     1
100
AcDbDimStyleTable
 71
     0
  0
DIMSTYLE
105
1D
330
A
100
AcDbSymbolTableRecord
100
AcDbDimStyleTableRecord
  2
STANDARD
 70
     0
 41
3.0
 42
1.0
 43
10.0
 44
1.0
 73
     0
 74
     0
 77
     3
 78
     8
140
3.2
141
0.0
147
1.0
172
     1
173
     1
340
F
341
2E
343
2E
344
2E
  0
ENDTAB
  0
TABLE
  2
BLOCK_RECORD
  5
1
330
0
100
AcDbSymbolTable
 70
     1
  0
BLOCK_RECORD
  5
18
102
{ACAD_XDICTIONARY
360
12AA
102
}
330
1
100
AcDbSymbolTableRecord
100
AcDbBlockTableRecord
  2
*MODEL_SPACE
340
12FE
  0
BLOCK_RECORD
  5
15
102
{ACAD_XDICTIONARY
360
12A8
102
}
330
1
100
AcDbSymbolTableRecord
100
AcDbBlockTableRecord
  2
*PAPER_SPACE
340
12FF
  0
BLOCK_RECORD
  5
2E
330
1
100
AcDbSymbolTableRecord
100
AcDbBlockTableRecord
  2
_OPEN
340
0
  0
ENDTAB
  0
ENDSEC
  0
SECTION
  2
BLOCKS
  0
BLOCK
  5
19
330
18
100
AcDbEntity
  8
0
100
AcDbBlockBegin
  2
*MODEL_SPACE
 70
     0
 10
0.0
 20
0.0
 30
0.0
  3
*MODEL_SPACE
  1

  0
ENDBLK
  5
1A
330
18
100
AcDbEntity
  8
0
100
AcDbBlockEnd
  0
BLOCK
  5
16
330
15
100
AcDbEntity
 67
     1
  8
0
100
AcDbBlockBegin
  2
*PAPER_SPACE
 70
     0
 10
0.0
 20
0.0
 30
0.0
  3
*PAPER_SPACE
  1

  0
ENDBLK
  5
17
330
15
100
AcDbEntity
 67
     1
  8
0
100
AcDbBlockEnd
  0
BLOCK
  5
2F
330
2E
100
AcDbEntity
  8
0
100
AcDbBlockBegin
  2
_OPEN
 70
     0
 10
0.0
 20
0.0
 30
0.0
  3
_OPEN
  1

  0
LINE
  5
30
330
2E
100
AcDbEntity
  8
0
  6
ByBlock
 62
     0
100
AcDbLine
 10
-1.0
 20
0.1666666666666666
 30
0.0
 11
0.0
 21
0.0
 31
0.0
  0
LINE
  5
31
330
2E
100
AcDbEntity
  8
0
  6
ByBlock
 62
     0
100
AcDbLine
 10
0.0
 20
0.0
 30
0.0
 11
-1.0
 21
-0.1666666666666666
 31
0.0
  0
LINE
  5
32
330
2E
100
AcDbEntity
  8
0
  6
ByBlock
 62
     0
100
AcDbLine
 10
0.0
 20
0.0
 30
0.0
 11
-1.0
 21
0.0
 31
0.0
  0
ENDBLK
  5
33
330
2E
100
AcDbEntity
  8
0
100
AcDbBlockEnd
  0
ENDSEC
  0
SECTION
  2
ENTITIES
  0
TEXT
  5
63
330
18
100
AcDbEntity
  8
4
  6
CENTER
 48
0.25
100
AcDbText
 10
23.97950852663849
 20
10.0
 30
0.0
 40
1.399999999999999
  1
4
100
AcDbText
  0
TEXT
  5
64
330
18
100
AcDbEntity
  8
7
  6
Continuous
 48
0.25
100
AcDbText
 10
9.999997526638502
 20
26.0000007607689
 30
0.0
 40
3.0
  1
CODE No.13319
100
AcDbText
  0
TEXT
  5
65
330
18
100
AcDbEntity
  8
7
  6
Continuous
 48
0.25
100
AcDbText
 10
9.999997526638502
 20
18.00000076076889
 30
0.0
 40
3.0
  1
TYPE No.TEA-1000-U78
100
AcDbText
  0
TEXT
  5
66
330
18
100
AcDbEntity
  8
1
  6
Continuous
 48
0.25
100
AcDbText
 10
9.999997526638502
 20
10.00000076076889
 30
0.0
 40
1.399999999999999
  1
LAYER
100
AcDbText
  0
TEXT
  5
67
330
18
100
AcDbEntity
  8
2
  6
Continuous
 48
0.25
100
AcDbText
 10
19.9795085266385
 20
10.0
 30
0.0
 40
1.399999999999999
  1
2
100
AcDbText
  0
TEXT
  5
68
330
18
100
AcDbEntity
  8
3
  6
DASHED
 48
0.25
100
AcDbText
 10
21.9795085266385
 20
10.0
 30
0.0
 40
1.399999999999999
  1
3
100
AcDbText
  0
TEXT
  5
69
330
18
100
AcDbEntity
  8
1
  6
Continuous
 48
0.25
100
AcDbText
 10
17.9795085266385
 20
10.0
 30
0.0
 40
1.399999999999999
  1
1
100
AcDbText
  0
TEXT
  5
6A
330
18
100
AcDbEntity
  8
5
  6
PHANTOM
 48
0.25
100
AcDbText
 10
25.9795085266385
 20
10.0
 30
0.0
 40
1.399999999999999
  1
5
100
AcDbText
  0
TEXT
  5
6B
330
18
100
AcDbEntity
  8
6
  6
Continuous
 48
0.25
100
AcDbText
 10
27.9795085266385
 20
10.0
 30
0.0
 40
1.399999999999999
  1
6
100
AcDbText
  0
TEXT
  5
6C
330
18
100
AcDbEntity
  8
7
  6
Continuous
 48
0.25
100
AcDbText
 10
29.9795085266385
 20
10.0
 30
0.0
 40
1.399999999999999
  1
7
100
AcDbText
  0
LINE
  5
C9A
330
18
100
AcDbEntity
  8
1
  6
Continuous
100
AcDbLine
 10
109.9300536431914
 20
51.96341904108193
 30
0.0
 11
109.9300536431913
 21
45.62496143076895
 31
0.0
  0
LINE
  5
C9B
330
18
100
AcDbEntity
  8
1
  6
Continuous
100
AcDbLine
 10
119.8300541134161
 20
45.62496143076895
 30
0.0
 11
119.8300541134161
 21
51.96341904108193
 31
0.0
  0
ARC
  5
C9C
330
18
100
AcDbEntity
  8
1
  6
Continuous
100
AcDbCircle
 10
113.8300538284314
 20
36.27496174960731
 30
0.0
 40
0.3000000142492496
100
AcDbArc
 50
270.0
 51
359.9999999999959
  0
LINE
  5
CA4
330
18
100
AcDbEntity
  8
1
  6
Continuous
100
AcDbLine
 10
113.8300538284314
 20
35.97496173535802
 30
0.0
 11
109.932403912493
 21
35.97496173535802
 31
0.0
  0
LINE
  5
CAB
330
18
100
AcDbEntity
  8
1
  6
Continuous
100
AcDbLine
 10
117.4996913822158
 20
45.62496143076892
 30
0.0
 11
117.8633407980375
 21
41.92496125502839
 31
0.0
  0
LINE
  5
CAC
330
18
100
AcDbEntity
  8
1
  6
Continuous
100
AcDbLine
 10
111.89676695857
 20
41.92496125502839
 30
0.0
 11
112.2604163743917
 21
45.62496143076892
 31
0.0
  0
LINE
  5
CAD
330
18
100
AcDbEntity
  8
1
  6
Continuous
100
AcDbLine
 10
110.6800536788144
 20
45.62496143076892
 30
0.0
 11
110.9300536906888
 21
41.92496125502839
 31
0.0
  0
LINE
  5
CAE
330
18
100
AcDbEntity
  8
1
  6
Continuous
100
AcDbLine
 10
118.8300540659187
 20
41.92496125502839
 30
0.0
 11
119.080054077793
 21
45.62496143076895
 31
0.0
  0
LINE
  5
CAF
330
18
100
AcDbEntity
  8
1
  6
Continuous
100
AcDbLine
 10
108.1300535576959
 20
40.47496194909649
 30
0.0
 11
121.6300541989115
 21
40.47496194909649
 31
0.0
  0
LINE
  5
CB1
330
18
100
AcDbEntity
  8
1
  6
Continuous
100
AcDbLine
 10
108.7425535867881
 20
39.97496192534782
 30
0.0
 11
121.0175541698193
 21
39.97496192534782
 31
0.0
  0
LINE
  5
CB4
330
18
100
AcDbEntity
  8
1
  6
Continuous
100
AcDbLine
 10
109.3550536158803
 20
36.47496175910674
 30
0.0
 11
109.3550537602179
 21
39.97496192534782
 31
0.0
  0
LINE
  5
CB5
330
18
100
AcDbEntity
  8
1
  6
Continuous
100
AcDbLine
 10
112.1175537470921
 20
36.47496175910674
 30
0.0
 11
112.1175537470921
 21
39.97496192534782
 31
0.0
  0
LINE
  5
CB7
330
18
100
AcDbEntity
  8
1
  6
Continuous
100
AcDbLine
 10
114.1300538426806
 20
38.47496185410165
 30
0.0
 11
115.6300539139268
 21
38.47496185410165
 31
0.0
  0
LINE
  5
CB8
330
18
100
AcDbEntity
  8
1
  6
Continuous
100
AcDbLine
 10
114.1300538426806
 20
36.27496174960729
 30
0.0
 11
114.1300538426806
 21
38.47496185410165
 31
0.0
  0
LINE
  5
CC7
330
18
100
AcDbEntity
  8
1
  6
Continuous
100
AcDbLine
 10
108.1300535576959
 20
41.17496198234475
 30
0.0
 11
108.1300535576959
 21
40.47496194909649
 31
0.0
  0
LINE
  5
CC9
330
18
100
AcDbEntity
  8
1
  6
Continuous
100
AcDbLine
 10
108.1299535576959
 20
40.47504358174967
 30
0.0
 11
108.1300535576959
 21
40.47496194909661
 31
0.0
  0
LINE
  5
CCA
330
18
100
AcDbEntity
  8
1
  6
Continuous
100
AcDbLine
 10
108.1300535576959
 20
40.47496194909661
 30
0.0
 11
108.7425535867881
 21
39.97496192534782
 31
0.0
  0
LINE
  5
CCB
330
18
100
AcDbEntity
  8
1
  6
Continuous
100
AcDbLine
 10
111.1804857520002
 20
41.47496199656807
 30
0.0
 11
111.1804857520002
 21
41.62496200371862
 31
0.0
  0
LINE
  5
CCC
330
18
100
AcDbEntity
  8
1
  6
Continuous
100
AcDbLine
 10
110.3192150017742
 20
41.47496199656807
 30
0.0
 11
110.3192150017742
 21
41.62496200371862
 31
0.0
  0
LINE
  5
CCE
330
18
100
AcDbEntity
  8
1
  6
Continuous
100
AcDbLine
 10
109.5965230101083
 20
41.47496199656711
 30
0.0
 11
109.5965230101083
 21
41.62496200371862
 31
0.0
  0
LINE
  5
CD0
330
18
100
AcDbEntity
  8
1
  6
Continuous
100
AcDbLine
 10
109.0343684751996
 20
41.47496199656711
 30
0.0
 11
109.0343684751996
 21
41.62496200371862
 31
0.0
  0
LINE
  5
CD2
330
18
100
AcDbEntity
  8
1
  6
Continuous
100
AcDbLine
 10
108.649832110397
 20
41.47496199656893
 30
0.0
 11
108.649832110397
 21
41.62496200371862
 31
0.0
  0
LINE
  5
CD7
330
18
100
AcDbEntity
  8
1
  6
Continuous
100
AcDbLine
 10
108.4300536833172
 20
41.62496200371862
 30
0.0
 11
108.4300536833172
 21
41.47496199659395
 31
0.0
  0
ARC
  5
CD9
330
18
100
AcDbEntity
  8
1
  6
Continuous
100
AcDbCircle
 10
108.4300535719452
 20
41.17496198234475
 30
0.0
 40
0.300000014249242
100
AcDbArc
 50
90.0
 51
179.9999999999959
  0
LINE
  5
CDA
330
18
100
AcDbEntity
  8
1
  6
Continuous
100
AcDbLine
 10
118.8300540659187
 20
41.92496125502839
 30
0.0
 11
110.9300536906888
 21
41.92496125502839
 31
0.0
  0
LINE
  5
CDC
330
18
100
AcDbEntity
  8
1
  6
Continuous
100
AcDbLine
 10
108.4300535719452
 20
41.47496199656802
 30
0.0
 11
121.330053369615
 21
41.47496199656802
 31
0.0
  0
LINE
  5
CE0
330
18
100
AcDbEntity
  8
1
  6
Continuous
100
AcDbLine
 10
115.228676865853
 20
41.47496199659399
 30
0.0
 11
115.228676865853
 21
41.62496200371862
 31
0.0
  0
LINE
  5
CE2
330
18
100
AcDbEntity
  8
1
  6
Continuous
100
AcDbLine
 10
115.442208438447
 20
41.47496199659399
 30
0.0
 11
115.4422084372337
 21
41.62496200371862
 31
0.0
  0
LINE
  5
CE3
330
18
100
AcDbEntity
  8
1
  6
Continuous
100
AcDbLine
 10
116.5494367696814
 20
41.47496199659399
 30
0.0
 11
116.5494367696813
 21
41.62496200371862
 31
0.0
  0
LINE
  5
CE4
330
18
100
AcDbEntity
  8
1
  6
Continuous
100
AcDbLine
 10
115.228676865853
 20
41.62496200371862
 30
0.0
 11
116.5494367696813
 21
41.62496200371862
 31
0.0
  0
LINE
  5
CE5
330
18
100
AcDbEntity
  8
1
  6
Continuous
100
AcDbLine
 10
113.2106709869264
 20
41.47496199656802
 30
0.0
 11
113.2106709869264
 21
41.62496200371862
 31
0.0
  0
LINE
  5
CE7
330
18
100
AcDbEntity
  8
1
  6
Continuous
100
AcDbLine
 10
114.3178993205872
 20
41.47496199659382
 30
0.0
 11
114.3178993205872
 21
41.62496200371862
 31
0.0
  0
LINE
  5
CE8
330
18
100
AcDbEntity
  8
1
  6
Continuous
100
AcDbLine
 10
113.2106709869264
 20
41.62496200371862
 30
0.0
 11
114.5314308907545
 21
41.62496200371862
 31
0.0
  0
LINE
  5
CE9
330
18
100
AcDbEntity
  8
1
  6
Continuous
100
AcDbLine
 10
114.5314308907545
 20
41.47496199659399
 30
0.0
 11
114.5314308907545
 21
41.62496200371862
 31
0.0
  0
LINE
  5
CEA
330
18
100
AcDbEntity
  8
1
  6
Continuous
100
AcDbLine
 10
116.5705270055597
 20
41.47496199659399
 30
0.0
 11
116.5705270055597
 21
41.62496200371862
 31
0.0
  0
LINE
  5
CEB
330
18
100
AcDbEntity
  8
1
  6
Continuous
100
AcDbLine
 10
112.1541660076711
 20
41.47496199656802
 30
0.0
 11
112.1541660076711
 21
41.62496200371862
 31
0.0
  0
LINE
  5
CEC
330
18
100
AcDbEntity
  8
1
  6
Continuous
100
AcDbLine
 10
108.4300536833172
 20
41.62496200371862
 30
0.0
 11
113.1895807510476
 21
41.62496200371862
 31
0.0
  0
LINE
  5
CED
330
18
100
AcDbEntity
  8
1
  6
Continuous
100
AcDbLine
 10
113.1895807510472
 20
41.47496199659399
 30
0.0
 11
113.1895807510472
 21
41.62496200371862
 31
0.0
  0
LINE
  5
CEE
330
18
100
AcDbEntity
  8
1
  6
Continuous
100
AcDbLine
 10
112.1300537476857
 20
41.92496125502839
 30
0.0
 11
112.1300537476857
 21
41.62496200371862
 31
0.0
  0
LINE
  5
CF1
330
18
100
AcDbEntity
  8
1
  6
Continuous
100
AcDbLine
 10
121.6300541989115
 20
40.47496194909649
 30
0.0
 11
121.6300541989115
 21
41.17496197655282
 31
0.0
  0
LINE
  5
CF9
330
18
100
AcDbEntity
  8
1
  6
Continuous
100
AcDbLine
 10
121.0174316698194
 20
39.97486192534779
 30
0.0
 11
121.6300541989114
 21
40.47496194909649
 31
0.0
  0
LINE
  5
CFA
330
18
100
AcDbEntity
  8
1
  6
Continuous
100
AcDbLine
 10
118.5796220046077
 20
41.47496199659399
 30
0.0
 11
118.5796220046078
 21
41.62496200371862
 31
0.0
  0
LINE
  5
CFB
330
18
100
AcDbEntity
  8
1
  6
Continuous
100
AcDbLine
 10
117.6059417607032
 20
41.47496199659399
 30
0.0
 11
117.6059417548198
 21
41.62496200371862
 31
0.0
  0
LINE
  5
CFD
330
18
100
AcDbEntity
  8
1
  6
Continuous
100
AcDbLine
 10
119.4408927548329
 20
41.47496199659399
 30
0.0
 11
119.4408927548331
 21
41.62496200371862
 31
0.0
  0
LINE
  5
CFF
330
18
100
AcDbEntity
  8
1
  6
Continuous
100
AcDbLine
 10
120.1635847236913
 20
41.47496199659399
 30
0.0
 11
120.1635847236913
 21
41.62496200371862
 31
0.0
  0
LINE
  5
D02
330
18
100
AcDbEntity
  8
1
  6
Continuous
100
AcDbLine
 10
120.7257392814079
 20
41.47496199659399
 30
0.0
 11
120.7257392814079
 21
41.62496200371862
 31
0.0
  0
LINE
  5
D04
330
18
100
AcDbEntity
  8
1
  6
Continuous
100
AcDbLine
 10
121.1102756462107
 20
41.47496199659399
 30
0.0
 11
121.1102756462105
 21
41.62496200371862
 31
0.0
  0
LINE
  5
D05
330
18
100
AcDbEntity
  8
1
  6
Continuous
100
AcDbLine
 10
117.6300540089217
 20
41.62496200371862
 30
0.0
 11
117.6300540089217
 21
41.92496125502839
 31
0.0
  0
LINE
  5
D06
330
18
100
AcDbEntity
  8
1
  6
Continuous
100
AcDbLine
 10
121.3300540732903
 20
41.62496200371862
 30
0.0
 11
116.5705270055597
 21
41.62496200371862
 31
0.0
  0
LINE
  5
D09
330
18
100
AcDbEntity
  8
1
  6
Continuous
100
AcDbLine
 10
121.3300540732903
 20
41.47496121178295
 30
0.0
 11
121.3300540732903
 21
41.62496200371862
 31
0.0
  0
ARC
  5
D0A
330
18
100
AcDbEntity
  8
1
  6
Continuous
100
AcDbCircle
 10
121.3300135446576
 20
41.1749212318881
 30
0.0
 40
0.3000399824478698
100
AcDbArc
 50
0.0077793141897763
 51
89.9923950069474
  0
LINE
  5
D0C
330
18
100
AcDbEntity
  8
1
  6
Continuous
100
AcDbLine
 10
117.4996913822158
 20
45.62496143076869
 30
0.0
 11
112.2604163743917
 21
45.62496143076869
 31
0.0
  0
LINE
  5
D0D
330
18
100
AcDbEntity
  8
1
  6
Continuous
100
AcDbLine
 10
109.9300536431913
 20
45.62496143076895
 30
0.0
 11
110.6800536788144
 21
45.62496143076895
 31
0.0
  0
LINE
  5
D0E
330
18
100
AcDbEntity
  8
1
  6
Continuous
100
AcDbLine
 10
119.080054077793
 20
45.62496143076895
 30
0.0
 11
119.8300541134161
 21
45.62496143076895
 31
0.0
  0
LINE
  5
D10
330
18
100
AcDbEntity
  8
1
  6
Continuous
100
AcDbLine
 10
134.8800548282528
 20
81.72496271117646
 30
0.0
 11
134.8800548282528
 21
71.22562836418886
 31
0.0
  0
LINE
  5
D11
330
18
100
AcDbEntity
  8
1
  6
Continuous
100
AcDbLine
 10
94.88005292835476
 20
71.22562836418886
 30
0.0
 11
94.88005292835476
 21
81.72496271117646
 31
0.0
  0
ARC
  5
D12
330
18
100
AcDbEntity
  8
1
  6
Continuous
100
AcDbCircle
 10
114.880053878304
 20
-8.774375435607794
 30
0.0
 40
80.00000379979466
100
AcDbArc
 50
77.31961650817855
 51
102.6803834918199
  0
ARC
  5
D15
330
18
100
AcDbEntity
  8
1
  6
Continuous
100
AcDbCircle
 10
114.8800538783037
 20
33.774949397591
 30
0.0
 40
18.85001141378444
100
AcDbArc
 50
66.22269800673835
 51
113.7773019932616
  0
ARC
  5
D16
330
18
100
AcDbEntity
  8
1
  6
Continuous
100
AcDbCircle
 10
114.8800538783037
 20
33.77495398093896
 30
0.0
 40
19.45000728514757
100
AcDbArc
 50
66.99911333331053
 51
113.0008866666894
  0
LINE
  5
D17
330
18
100
AcDbEntity
  8
1
  6
Continuous
100
AcDbLine
 10
122.8800542582833
 20
55.52496190099373
 30
0.0
 11
106.8800534983241
 21
55.52496190099373
 31
0.0
  0
LINE
  5
D18
330
18
100
AcDbEntity
  8
1
  6
Continuous
100
AcDbLine
 10
108.48005357432
 20
55.52496190099373
 30
0.0
 11
108.48005357432
 21
53.22496179174915
 31
0.0
  0
LINE
  5
D19
330
18
100
AcDbEntity
  8
1
  6
Continuous
100
AcDbLine
 10
107.2800535173231
 20
51.67866247681735
 30
0.0
 11
107.2800535173231
 21
51.02486171100392
 31
0.0
  0
LINE
  5
D1A
330
18
100
AcDbEntity
  8
1
  6
Continuous
100
AcDbLine
 10
108.48005357432
 20
53.22496179174915
 30
0.0
 11
121.2800541822874
 21
53.22496179174915
 31
0.0
  0
LINE
  5
D1B
330
18
100
AcDbEntity
  8
1
  6
Continuous
100
AcDbLine
 10
109.9300536431913
 20
53.22496179174959
 30
0.0
 11
109.9300536431913
 21
52.58453348354031
 31
0.0
  0
LINE
  5
D1C
330
18
100
AcDbEntity
  8
1
  6
Continuous
100
AcDbLine
 10
121.2800541822874
 20
53.22496179174915
 30
0.0
 11
121.2800541822874
 21
55.52496190099373
 31
0.0
  0
LINE
  5
D1D
330
18
100
AcDbEntity
  8
1
  6
Continuous
100
AcDbLine
 10
122.4800542392844
 20
51.02486171100392
 30
0.0
 11
122.4800542392844
 21
51.67866247681735
 31
0.0
  0
LINE
  5
D1F
330
18
100
AcDbEntity
  8
1
  6
Continuous
100
AcDbLine
 10
119.8300541134161
 20
52.58453348354031
 30
0.0
 11
119.8300541134161
 21
53.22496179174956
 31
0.0
  0
ARC
  5
D21
330
18
100
AcDbEntity
  8
1
  6
Continuous
100
AcDbCircle
 10
96.88005302334964
 20
71.22562836418893
 30
0.0
 40
2.000000094994905
100
AcDbArc
 50
180.0000000000057
 51
282.6803834917079
  0
LINE
  5
D26
330
18
100
AcDbEntity
  8
1
  6
Continuous
100
AcDbLine
 10
122.8800542582833
 20
66.22496197496918
 30
0.0
 11
106.8800534983241
 21
66.22496197496918
 31
0.0
  0
LINE
  5
D28
330
18
100
AcDbEntity
  8
1
  6
Continuous
100
AcDbLine
 10
106.8800534983241
 20
70.82512170058302
 30
0.0
 11
106.8800534983241
 21
55.52496190099373
 31
0.0
  0
LINE
  5
D2A
330
18
100
AcDbEntity
  8
1
  6
Continuous
100
AcDbLine
 10
122.8800542582833
 20
55.52496190099373
 30
0.0
 11
122.8800542582833
 21
70.82462331366976
 31
0.0
  0
ARC
  5
D2C
330
18
100
AcDbEntity
  8
1
  6
Continuous
100
AcDbCircle
 10
132.8800547332579
 20
71.2256283641889
 30
0.0
 40
2.000000094994935
100
AcDbArc
 50
257.3196165082352
 51
359.9999999999992
  0
ARC
  5
D2F
330
18
100
AcDbEntity
  8
1
  6
Continuous
100
AcDbCircle
 10
96.88005302334964
 20
81.72496271117642
 30
0.0
 40
2.000000094994908
100
AcDbArc
 50
77.31961650823525
 51
179.9999999999991
  0
ARC
  5
D30
330
18
100
AcDbEntity
  8
1
  6
Continuous
100
AcDbCircle
 10
114.8800538783037
 20
161.724966510974
 30
0.0
 40
80.00000379979564
100
AcDbArc
 50
257.3196165081784
 51
282.6803834918195
  0
ARC
  5
D35
330
18
100
AcDbEntity
  8
1
  6
Continuous
100
AcDbCircle
 10
132.8800547332578
 20
81.72496271117642
 30
0.0
 40
2.000000094994941
100
AcDbArc
 50
0.0
 51
102.6803834917046
  0
LINE
  5
D36
330
18
100
AcDbEntity
  8
1
  6
Continuous
100
AcDbLine
 10
160.233784423646
 20
132.433922082379
 30
0.0
 11
171.7327807078601
 21
132.433922082379
 31
0.0
  0
LINE
  5
D38
330
18
100
AcDbEntity
  8
1
  6
Continuous
100
AcDbLine
 10
169.7329074731967
 20
137.4339223198663
 30
0.0
 11
162.2335719153533
 21
137.4339223198663
 31
0.0
  0
LINE
  5
DD2
330
18
100
AcDbEntity
  8
1
  6
Continuous
100
AcDbLine
 10
125.6038602964489
 20
122.4339216074117
 30
0.0
 11
133.3800547570066
 21
122.4339216074117
 31
0.0
  0
LINE
  5
DD3
330
18
100
AcDbEntity
  8
1
  6
Continuous
100
AcDbLine
 10
125.603860296449
 20
132.4339220823717
 30
0.0
 11
133.3800547570051
 21
132.4339220823716
 31
0.0
  0
ARC
  5
DD4
330
18
100
AcDbEntity
  8
1
  6
Continuous
100
AcDbCircle
 10
96.38005299960092
 20
130.9339220111328
 30
0.0
 40
1.500000071246178
100
AcDbArc
 50
90.0
 51
180.0
  0
LINE
  5
DD6
330
18
100
AcDbEntity
  8
1
  6
Continuous
100
AcDbLine
 10
94.88005292835476
 20
123.9339216786507
 30
0.0
 11
94.88005292835476
 21
130.9339220111328
 31
0.0
  0
ARC
  5
DD7
330
18
100
AcDbEntity
  8
1
  6
Continuous
100
AcDbCircle
 10
96.38005299960092
 20
123.9339216786507
 30
0.0
 40
1.500000071246175
100
AcDbArc
 50
180.0
 51
270.0
  0
LINE
  5
DD8
330
18
100
AcDbEntity
  8
1
  6
Continuous
100
AcDbLine
 10
96.38005299960092
 20
122.4339216074115
 30
0.0
 11
104.1562474758583
 21
122.4339216074115
 31
0.0
  0
ARC
  5
DDB
330
18
100
AcDbEntity
  8
1
  6
Continuous
100
AcDbCircle
 10
114.8800538783037
 20
127.4339218448917
 30
0.0
 40
10.00000047497447
100
AcDbArc
 50
245.1536862038532
 51
294.9603091582727
  0
ARC
  5
DDC
330
18
100
AcDbEntity
  8
1
  6
Continuous
100
AcDbCircle
 10
114.8800538783038
 20
127.4339218448918
 30
0.0
 40
10.00000047497459
100
AcDbArc
 50
220.0052010845982
 51
242.0685172264384
  0
ARC
  5
DDD
330
18
100
AcDbEntity
  8
1
  6
Continuous
100
AcDbCircle
 10
114.8800538783037
 20
127.4339218448918
 30
0.0
 40
10.00000047497453
100
AcDbArc
 50
242.0685172264386
 51
245.1536862038532
  0
ARC
  5
DE0
330
18
100
AcDbEntity
  8
1
  6
Continuous
100
AcDbCircle
 10
114.8800538783038
 20
127.4339218448917
 30
0.0
 40
10.00000047497439
100
AcDbArc
 50
297.9603431336381
 51
319.9947989154017
  0
ARC
  5
DE1
330
18
100
AcDbEntity
  8
1
  6
Continuous
100
AcDbCircle
 10
114.8800538783017
 20
127.4339218448959
 30
0.0
 40
10.0000004749791
100
AcDbArc
 50
294.9603091582727
 51
297.9603431336381
  0
ARC
  5
DE2
330
18
100
AcDbEntity
  8
1
  6
Continuous
100
AcDbCircle
 10
125.6038596824172
 20
118.4339214174147
 30
0.0
 40
4.000000189989833
100
AcDbArc
 50
90.0
 51
139.9948085308483
  0
ARC
  5
DE3
330
18
100
AcDbEntity
  8
1
  6
Continuous
100
AcDbCircle
 10
104.1562480741903
 20
136.4339222723688
 30
0.0
 40
4.000000189989833
100
AcDbArc
 50
270.0000240787884
 51
319.9948085308482
  0
LINE
  5
DE4
330
18
100
AcDbEntity
  8
1
  6
Continuous
100
AcDbLine
 10
96.38005299960092
 20
132.4339220823723
 30
0.0
 11
104.1562474758583
 21
132.4339220823722
 31
0.0
  0
ARC
  5
DE6
330
18
100
AcDbEntity
  8
1
  6
Continuous
100
AcDbCircle
 10
114.8800538783037
 20
127.4339218448918
 30
0.0
 40
10.00000047497451
100
AcDbArc
 50
65.15369048363464
 51
114.9603121761236
  0
ARC
  5
DE7
330
18
100
AcDbEntity
  8
1
  6
Continuous
100
AcDbCircle
 10
114.8800538783037
 20
127.4339218448918
 30
0.0
 40
10.00000047497448
100
AcDbArc
 50
117.9603487971685
 51
139.9947990696372
  0
ARC
  5
DE8
330
18
100
AcDbEntity
  8
1
  6
Continuous
100
AcDbCircle
 10
114.8800538783021
 20
127.4339218448951
 30
0.0
 40
10.00000047497077
100
AcDbArc
 50
114.9603121761236
 51
117.9603487971685
  0
ARC
  5
DE9
330
18
100
AcDbEntity
  8
1
  6
Continuous
100
AcDbCircle
 10
114.8800538783037
 20
127.4339218448918
 30
0.0
 40
10.00000047497448
100
AcDbArc
 50
40.0052009303627
 51
62.06852130077614
  0
ARC
  5
DEE
330
18
100
AcDbEntity
  8
1
  6
Continuous
100
AcDbCircle
 10
114.8800538783024
 20
127.433921844889
 30
0.0
 40
10.00000047497756
100
AcDbArc
 50
62.0685213007792
 51
65.15369048363449
  0
ARC
  5
DEF
330
18
100
AcDbEntity
  8
1
  6
Continuous
100
AcDbCircle
 10
160.2336652814715
 20
130.9338287122708
 30
0.0
 40
1.500093374838514
100
AcDbArc
 50
89.99544938743204
 51
179.9964364678733
  0
ARC
  5
DF0
330
18
100
AcDbEntity
  8
1
  6
Continuous
100
AcDbCircle
 10
133.3800547570051
 20
130.9339220111256
 30
0.0
 40
1.500000071251656
100
AcDbArc
 50
0.0000000001384177
 51
89.99999999999944
  0
LINE
  5
DF1
330
18
100
AcDbEntity
  8
1
  6
Continuous
100
AcDbLine
 10
134.8800548282528
 20
123.9339216786507
 30
0.0
 11
134.8800548282538
 21
130.9339220111293
 31
0.0
  0
ARC
  5
DF3
330
18
100
AcDbEntity
  8
1
  6
Continuous
100
AcDbCircle
 10
133.3800547570066
 20
123.9339216786507
 30
0.0
 40
1.500000071246175
100
AcDbArc
 50
270.0
 51
0.0
  0
LINE
  5
DF4
330
18
100
AcDbEntity
  8
1
  6
Continuous
100
AcDbLine
 10
158.73357190347
 20
130.9339220111328
 30
0.0
 11
158.73357190347
 21
123.9339216786507
 31
0.0
  0
ARC
  5
DF8
330
18
100
AcDbEntity
  8
1
  6
Continuous
100
AcDbCircle
 10
160.2336228822706
 20
123.9339725828772
 30
0.0
 40
1.50005097733428
100
AcDbArc
 50
180.0019443321489
 51
269.9969329956291
  0
ARC
  5
E00
330
18
100
AcDbEntity
  8
1
  6
Continuous
100
AcDbCircle
 10
162.2335720697092
 20
135.9339222486208
 30
0.0
 40
1.500000071244586
100
AcDbArc
 50
89.99999999994136
 51
174.9197426767741
  0
CIRCLE
  5
EA6
330
18
100
AcDbEntity
  8
1
  6
Continuous
100
AcDbCircle
 10
248.3345873393832
 20
127.4339218448918
 30
0.0
 40
8.000000379979617
  0
ARC
  5
EA7
330
18
100
AcDbEntity
  8
1
  6
Continuous
100
AcDbCircle
 10
248.3345873393831
 20
127.4339218448919
 30
0.0
 40
10.00000047497447
100
AcDbArc
 50
62.06852024908851
 51
117.9603454954075
  0
LINE
  5
EA9
330
18
100
AcDbEntity
  8
1
  6
Continuous
100
AcDbLine
 10
201.9835727605449
 20
120.683921524284
 30
0.0
 11
201.9835727605449
 21
134.1839221654996
 31
0.0
  0
LINE
  5
EB0
330
18
100
AcDbEntity
  8
1
  6
Continuous
100
AcDbLine
 10
176.2335723004248
 20
135.4339222248714
 30
0.0
 11
176.2335723004249
 21
119.4339214649122
 31
0.0
  0
LINE
  5
EB1
330
18
100
AcDbEntity
  8
1
  6
Continuous
100
AcDbLine
 10
186.9335728086475
 20
135.4339222248714
 30
0.0
 11
186.9335728086475
 21
119.4339214649122
 31
0.0
  0
LINE
  5
EB3
330
18
100
AcDbEntity
  8
1
  6
Continuous
100
AcDbLine
 10
196.8335732788727
 20
132.3839220800042
 30
0.0
 11
196.8335732788727
 21
131.633922044381
 31
0.0
  0
ARC
  5
EB5
330
18
100
AcDbEntity
  8
1
  6
Continuous
100
AcDbCircle
 10
171.7328554616468
 20
130.9338711069064
 30
0.0
 40
1.500050977334238
100
AcDbArc
 50
0.0019443321473293
 51
90.00285528728459
  0
LINE
  5
EB6
330
18
100
AcDbEntity
  8
1
  6
Continuous
100
AcDbLine
 10
189.2335728941429
 20
119.8339214839111
 30
0.0
 11
189.833682395936
 21
119.8339214839111
 31
0.0
  0
LINE
  5
EB8
330
18
100
AcDbEntity
  8
1
  6
Continuous
100
AcDbLine
 10
173.2329064404473
 20
123.9339216786507
 30
0.0
 11
173.2329064404473
 21
130.9339220111329
 31
0.0
  0
LINE
  5
EBA
330
18
100
AcDbEntity
  8
1
  6
Continuous
100
AcDbLine
 10
171.290555772227
 20
119.4339214649122
 30
0.0
 11
186.9335728086475
 21
119.4339214649122
 31
0.0
  0
ARC
  5
EBE
330
18
100
AcDbEntity
  8
1
  6
Continuous
100
AcDbCircle
 10
171.7328130624459
 20
123.9340149775127
 30
0.0
 40
1.500093374838514
100
AcDbArc
 50
270.0046863470565
 51
359.9964364678049
  0
LINE
  5
EC5
330
18
100
AcDbEntity
  8
1
  6
Continuous
100
AcDbLine
 10
186.9335728086477
 20
121.0339215409081
 30
0.0
 11
189.2335728941429
 21
121.0339215409081
 31
0.0
  0
LINE
  5
EC7
330
18
100
AcDbEntity
  8
1
  6
Continuous
100
AcDbLine
 10
202.4835727842936
 20
121.2964215533761
 30
0.0
 11
202.4835727842936
 21
133.5714221364074
 31
0.0
  0
LINE
  5
EC8
330
18
100
AcDbEntity
  8
1
  6
Continuous
100
AcDbLine
 10
206.4835729742834
 20
131.7179300280482
 30
0.0
 11
206.4835729742834
 21
123.1491312854661
 31
0.0
  0
LINE
  5
ECC
330
18
100
AcDbEntity
  8
1
  6
Continuous
100
AcDbLine
 10
200.5335734546129
 20
131.3839220325067
 30
0.0
 11
200.533573454613
 21
123.4839216572768
 31
0.0
  0
LINE
  5
ECD
330
18
100
AcDbEntity
  8
1
  6
Continuous
100
AcDbLine
 10
196.8335732788725
 20
123.2339216454025
 30
0.0
 11
200.533573454613
 21
123.4839216572768
 31
0.0
  0
LINE
  5
ECE
330
18
100
AcDbEntity
  8
1
  6
Continuous
100
AcDbLine
 10
190.7720184900885
 20
122.4839216097794
 30
0.0
 11
196.8335732788727
 21
122.4839216097794
 31
0.0
  0
LINE
  5
ECF
330
18
100
AcDbEntity
  8
1
  6
Continuous
100
AcDbLine
 10
196.8335732788727
 20
123.2339216454025
 30
0.0
 11
196.8335732788727
 21
122.4839216097794
 31
0.0
  0
ARC
  5
ED0
330
18
100
AcDbEntity
  8
1
  6
Continuous
100
AcDbCircle
 10
201.2835727272967
 20
120.9839215385332
 30
0.0
 40
0.3000000142492496
100
AcDbArc
 50
180.0
 51
270.0000000325623
  0
LINE
  5
ED1
330
18
100
AcDbEntity
  8
1
  6
Continuous
100
AcDbLine
 10
205.9835729505346
 20
122.6491312617174
 30
0.0
 11
202.4835727842936
 21
122.6491312617174
 31
0.0
  0
LINE
  5
ED2
330
18
100
AcDbEntity
  8
1
  6
Continuous
100
AcDbLine
 10
201.283572739931
 20
120.683921524284
 30
0.0
 11
201.9835727605447
 21
120.683921524284
 31
0.0
  0
LINE
  5
EDA
330
18
100
AcDbEntity
  8
1
  6
Continuous
100
AcDbLine
 10
201.9835727605449
 20
120.6839215242841
 30
0.0
 11
202.4836727842936
 21
121.2965440533761
 31
0.0
  0
LINE
  5
EDB
330
18
100
AcDbEntity
  8
1
  6
Continuous
100
AcDbLine
 10
200.9835727130474
 20
123.7343537185878
 30
0.0
 11
200.8335727059228
 21
123.734353718588
 31
0.0
  0
LINE
  5
EDC
330
18
100
AcDbEntity
  8
1
  6
Continuous
100
AcDbLine
 10
200.9835727130474
 20
122.8730829683626
 30
0.0
 11
200.8335727059228
 21
122.8730829683624
 31
0.0
  0
LINE
  5
EDE
330
18
100
AcDbEntity
  8
1
  6
Continuous
100
AcDbLine
 10
200.9835727130474
 20
122.1503909995041
 30
0.0
 11
200.8335727059228
 21
122.1503909995043
 31
0.0
  0
LINE
  5
EE0
330
18
100
AcDbEntity
  8
1
  6
Continuous
100
AcDbLine
 10
200.9835727130474
 20
121.588236416553
 30
0.0
 11
200.8335727059228
 21
121.5882364291703
 31
0.0
  0
LINE
  5
EE2
330
18
100
AcDbEntity
  8
1
  6
Continuous
100
AcDbLine
 10
200.9835727130474
 20
121.2037000769848
 30
0.0
 11
200.8335727059228
 21
121.2037000769849
 31
0.0
  0
LINE
  5
EE4
330
18
100
AcDbEntity
  8
1
  6
Continuous
100
AcDbLine
 10
200.9835727130474
 20
121.008465820218
 30
0.0
 11
200.8335727059228
 21
121.0084658340867
 31
0.0
  0
LINE
  5
EE5
330
18
100
AcDbEntity
  8
1
  6
Continuous
100
AcDbLine
 10
200.8335727059228
 20
121.0084658479554
 30
0.0
 11
200.8335727059228
 21
126.3986456153088
 31
0.0
  0
ARC
  5
EE6
330
18
100
AcDbEntity
  8
1
  6
Continuous
100
AcDbCircle
 10
205.9835729505346
 20
123.1491312854662
 30
0.0
 40
0.5000000237487452
100
AcDbArc
 50
270.0
 51
359.9999999999975
  0
LINE
  5
EE7
330
18
100
AcDbEntity
  8
1
  6
Continuous
100
AcDbLine
 10
200.533573454613
 20
131.3839220325067
 30
0.0
 11
196.8335732788725
 21
131.633922044381
 31
0.0
  0
LINE
  5
EE8
330
18
100
AcDbEntity
  8
1
  6
Continuous
100
AcDbLine
 10
196.8335732788724
 20
130.0535593488038
 30
0.0
 11
200.533573454613
 21
130.4172087646255
 31
0.0
  0
LINE
  5
EE9
330
18
100
AcDbEntity
  8
1
  6
Continuous
100
AcDbLine
 10
200.533573454613
 20
124.450634925158
 30
0.0
 11
196.8335732788724
 21
124.8142843409797
 31
0.0
  0
LINE
  5
EEB
330
18
100
AcDbEntity
  8
1
  6
Continuous
100
AcDbLine
 10
196.8335732788724
 20
124.8142843409797
 30
0.0
 11
196.8335732788725
 21
130.0535593488038
 31
0.0
  0
LINE
  5
EEE
330
18
100
AcDbEntity
  8
1
  6
Continuous
100
AcDbLine
 10
200.8335727059228
 20
126.8717672871752
 30
0.0
 11
200.8335727059228
 21
127.9960764026083
 31
0.0
  0
LINE
  5
EF1
330
18
100
AcDbEntity
  8
1
  6
Continuous
100
AcDbLine
 10
206.4835729742834
 20
127.4339218091774
 30
0.0
 11
202.4835727842936
 21
127.4339220948918
 31
0.0
  0
LINE
  5
EF3
330
18
100
AcDbEntity
  8
1
  6
Continuous
100
AcDbLine
 10
200.9835727130474
 20
120.9839215385332
 30
0.0
 11
200.9835727130474
 21
133.8839221512503
 31
0.0
  0
LINE
  5
EF4
330
18
100
AcDbEntity
  8
1
  6
Continuous
100
AcDbLine
 10
200.9835727130474
 20
126.8717672871751
 30
0.0
 11
200.8335727059228
 21
126.8717672871752
 31
0.0
  0
LINE
  5
EF5
330
18
100
AcDbEntity
  8
1
  6
Continuous
100
AcDbLine
 10
200.9835727130474
 20
125.7645389535141
 30
0.0
 11
200.8335727059228
 21
125.7645389535143
 31
0.0
  0
LINE
  5
EF7
330
18
100
AcDbEntity
  8
1
  6
Continuous
100
AcDbLine
 10
200.9835727130474
 20
126.3986456153088
 30
0.0
 11
200.8335727059228
 21
126.3986456153088
 31
0.0
  0
LINE
  5
EF8
330
18
100
AcDbEntity
  8
1
  6
Continuous
100
AcDbLine
 10
200.9835727130474
 20
124.708033974259
 30
0.0
 11
200.8335727059228
 21
124.7080339742591
 31
0.0
  0
LINE
  5
EFA
330
18
100
AcDbEntity
  8
1
  6
Continuous
100
AcDbLine
 10
200.533573454613
 20
124.6839217142738
 30
0.0
 11
200.8335727059228
 21
124.6839217142738
 31
0.0
  0
LINE
  5
F02
330
18
100
AcDbEntity
  8
1
  6
Continuous
100
AcDbLine
 10
200.9835727130474
 20
127.9960764026083
 30
0.0
 11
200.8335727059228
 21
127.9960764026083
 31
0.0
  0
LINE
  5
F03
330
18
100
AcDbEntity
  8
1
  6
Continuous
100
AcDbLine
 10
200.9835727130474
 20
129.1033047362692
 30
0.0
 11
200.8335727059228
 21
129.1033047362693
 31
0.0
  0
LINE
  5
F05
330
18
100
AcDbEntity
  8
1
  6
Continuous
100
AcDbLine
 10
200.9835727130474
 20
130.1598097155244
 30
0.0
 11
200.8335727059228
 21
130.1598097155243
 31
0.0
  0
LINE
  5
F06
330
18
100
AcDbEntity
  8
1
  6
Continuous
100
AcDbLine
 10
200.9835727130474
 20
128.4691980744748
 30
0.0
 11
200.8335727059228
 21
128.4691980744748
 31
0.0
  0
LINE
  5
F07
330
18
100
AcDbEntity
  8
1
  6
Continuous
100
AcDbLine
 10
200.8335727059227
 20
133.8593778418283
 30
0.0
 11
200.8335727059228
 21
128.4691980744749
 31
0.0
  0
LINE
  5
F08
330
18
100
AcDbEntity
  8
1
  6
Continuous
100
AcDbLine
 10
200.9835727130474
 20
131.1334899711958
 30
0.0
 11
200.8335727059228
 21
131.1334899711959
 31
0.0
  0
LINE
  5
F0A
330
18
100
AcDbEntity
  8
1
  6
Continuous
100
AcDbLine
 10
200.8335727059228
 20
130.1839219755098
 30
0.0
 11
200.533573454613
 21
130.1839219755098
 31
0.0
  0
LINE
  5
F10
330
18
100
AcDbEntity
  8
1
  6
Continuous
100
AcDbLine
 10
189.8336823959368
 20
135.0339222058724
 30
0.0
 11
189.2335728941431
 21
135.0339222058724
 31
0.0
  0
LINE
  5
F11
330
18
100
AcDbEntity
  8
1
  6
Continuous
100
AcDbLine
 10
186.9335728086475
 20
135.4339222248714
 30
0.0
 11
171.290555772227
 21
135.4339222248714
 31
0.0
  0
ARC
  5
F14
330
18
100
AcDbEntity
  8
1
  6
Continuous
100
AcDbCircle
 10
188.2508685338906
 20
134.1032080584528
 30
0.0
 40
16.79803446892612
100
AcDbArc
 50
183.314807617965
 51
185.70311724729
  0
ARC
  5
F17
330
18
100
AcDbEntity
  8
1
  6
Continuous
100
AcDbCircle
 10
169.7329062742066
 20
135.9339222486185
 30
0.0
 40
1.500000071246343
100
AcDbArc
 50
5.082872948496896
 51
90.00000000000325
  0
LINE
  5
F1A
330
18
100
AcDbEntity
  8
1
  6
Continuous
100
AcDbLine
 10
189.2335728941431
 20
135.0339222058724
 30
0.0
 11
189.2335728941429
 21
119.8339214839111
 31
0.0
  0
LINE
  5
F1B
330
18
100
AcDbEntity
  8
1
  6
Continuous
100
AcDbLine
 10
189.2335728941431
 20
133.8339221488755
 30
0.0
 11
186.9335728086477
 21
133.8339221488755
 31
0.0
  0
LINE
  5
F1C
330
18
100
AcDbEntity
  8
1
  6
Continuous
100
AcDbLine
 10
196.8335732788727
 20
132.3839220800042
 30
0.0
 11
190.7720861230843
 21
132.3839220800042
 31
0.0
  0
LINE
  5
F1E
330
18
100
AcDbEntity
  8
1
  6
Continuous
100
AcDbLine
 10
201.9835727605449
 20
134.1839221654996
 30
0.0
 11
201.2835727272966
 21
134.1839221654996
 31
0.0
  0
LINE
  5
F24
330
18
100
AcDbEntity
  8
1
  6
Continuous
100
AcDbLine
 10
202.4835727842936
 20
133.5714221364074
 30
0.0
 11
201.9835727605448
 21
134.1839221654996
 31
0.0
  0
LINE
  5
F26
330
18
100
AcDbEntity
  8
1
  6
Continuous
100
AcDbLine
 10
200.9835727130474
 20
131.9947607214213
 30
0.0
 11
200.8335727059228
 21
131.9947607214212
 31
0.0
  0
LINE
  5
F28
330
18
100
AcDbEntity
  8
1
  6
Continuous
100
AcDbLine
 10
200.9835727130474
 20
132.717452690279
 30
0.0
 11
200.8335727059228
 21
132.7174526902791
 31
0.0
  0
LINE
  5
F2A
330
18
100
AcDbEntity
  8
1
  6
Continuous
100
AcDbLine
 10
200.9835727130474
 20
133.2796072479959
 30
0.0
 11
200.8335727059228
 21
133.2796072479959
 31
0.0
  0
LINE
  5
F2B
330
18
100
AcDbEntity
  8
1
  6
Continuous
100
AcDbLine
 10
200.9835727130474
 20
133.6641436127984
 30
0.0
 11
200.8335727059228
 21
133.6641436127986
 31
0.0
  0
LINE
  5
F2D
330
18
100
AcDbEntity
  8
1
  6
Continuous
100
AcDbLine
 10
200.9835727130474
 20
133.8593778418281
 30
0.0
 11
200.8335727059227
 21
133.8593778418283
 31
0.0
  0
ARC
  5
F2F
330
18
100
AcDbEntity
  8
1
  6
Continuous
100
AcDbCircle
 10
201.2835727272967
 20
133.8839221512503
 30
0.0
 40
0.3000000142492531
100
AcDbArc
 50
89.99999997848499
 51
180.0
  0
ARC
  5
F3A
330
18
100
AcDbEntity
  8
1
  6
Continuous
100
AcDbCircle
 10
229.8345864606803
 20
130.9339220111328
 30
0.0
 40
1.500000071246178
100
AcDbArc
 50
90.0
 51
180.0
  0
LINE
  5
F3C
330
18
100
AcDbEntity
  8
1
  6
Continuous
100
AcDbLine
 10
228.3345863894342
 20
123.9339216786507
 30
0.0
 11
228.3345863894342
 21
130.9339220111328
 31
0.0
  0
LINE
  5
F3D
330
18
100
AcDbEntity
  8
1
  6
Continuous
100
AcDbLine
 10
229.8345570700047
 20
122.4339216074045
 30
0.0
 11
237.6107815352697
 21
122.4339216074045
 31
0.0
  0
ARC
  5
F3E
330
18
100
AcDbEntity
  8
1
  6
Continuous
100
AcDbCircle
 10
229.8345864606803
 20
123.9339216786507
 30
0.0
 40
1.500000071246175
100
AcDbArc
 50
180.0
 51
270.0
  0
LINE
  5
F5C
330
18
100
AcDbEntity
  8
1
  6
Continuous
100
AcDbLine
 10
231.0845865200524
 20
125.4339217498969
 30
0.0
 11
231.0845865200523
 21
129.4339219398867
 31
0.0
  0
LINE
  5
F5D
330
18
100
AcDbEntity
  8
1
  6
Continuous
100
AcDbLine
 10
237.5845868287856
 20
125.4339217498969
 30
0.0
 11
237.5845868287856
 21
129.4339219398867
 31
0.0
  0
LINE
  5
F5E
330
18
100
AcDbEntity
  8
1
  6
Continuous
100
AcDbLine
 10
231.0845865200524
 20
125.4339217498969
 30
0.0
 11
237.5845868287857
 21
125.4339217498969
 31
0.0
  0
LINE
  5
F5F
330
18
100
AcDbEntity
  8
1
  6
Continuous
100
AcDbLine
 10
231.0845865200523
 20
129.4339219398866
 30
0.0
 11
237.5845868287857
 21
129.4339219398866
 31
0.0
  0
LINE
  5
F90
330
18
100
AcDbEntity
  8
1
  6
Continuous
100
AcDbLine
 10
229.8345864606803
 20
132.4339220823699
 30
0.0
 11
237.6107815352697
 21
132.4339220823699
 31
0.0
  0
ARC
  5
F92
330
18
100
AcDbEntity
  8
1
  6
Continuous
100
AcDbCircle
 10
248.3345873393832
 20
127.4339218448918
 30
0.0
 40
10.00000047497453
100
AcDbArc
 50
117.9603454954077
 51
139.9947991151301
  0
ARC
  5
F93
330
18
100
AcDbEntity
  8
1
  6
Continuous
100
AcDbCircle
 10
237.6107815352697
 20
136.4339222723689
 30
0.0
 40
4.000000189989841
100
AcDbArc
 50
270.0
 51
319.9947991151305
  0
ARC
  5
FA4
330
18
100
AcDbEntity
  8
1
  6
Continuous
100
AcDbCircle
 10
266.834588218086
 20
130.9339220111328
 30
0.0
 40
1.500000071246178
100
AcDbArc
 50
0.0000000000016284
 51
90.0
  0
LINE
  5
FA5
330
18
100
AcDbEntity
  8
1
  6
Continuous
100
AcDbLine
 10
268.3345882893322
 20
123.9339216786507
 30
0.0
 11
268.3345882893322
 21
130.9339220111329
 31
0.0
  0
ARC
  5
FAA
330
18
100
AcDbEntity
  8
1
  6
Continuous
100
AcDbCircle
 10
266.834588218086
 20
123.9339216786507
 30
0.0
 40
1.500000071246175
100
AcDbArc
 50
270.0
 51
0.0
  0
LINE
  5
FAB
330
18
100
AcDbEntity
  8
1
  6
Continuous
100
AcDbLine
 10
259.0583931434967
 20
122.4339216074045
 30
0.0
 11
266.8346176087617
 21
122.4339216074045
 31
0.0
  0
LINE
  5
FAC
330
18
100
AcDbEntity
  8
1
  6
Continuous
100
AcDbLine
 10
259.0845878499807
 20
125.4339217498969
 30
0.0
 11
265.584588158714
 21
125.4339217498969
 31
0.0
  0
LINE
  5
FAD
330
18
100
AcDbEntity
  8
1
  6
Continuous
100
AcDbLine
 10
259.0845878499807
 20
129.4339219398866
 30
0.0
 11
265.5845881587141
 21
129.4339219398866
 31
0.0
  0
LINE
  5
FB0
330
18
100
AcDbEntity
  8
1
  6
Continuous
100
AcDbLine
 10
259.0845878499807
 20
125.4339217498969
 30
0.0
 11
259.0845878499807
 21
129.4339219398867
 31
0.0
  0
LINE
  5
FBC
330
18
100
AcDbEntity
  8
1
  6
Continuous
100
AcDbLine
 10
265.5845881587142
 20
125.4339217498969
 30
0.0
 11
265.5845881587142
 21
129.4339219398867
 31
0.0
  0
LINE
  5
FBD
330
18
100
AcDbEntity
  8
1
  6
Continuous
100
AcDbLine
 10
259.0583931434967
 20
132.4339220823699
 30
0.0
 11
266.834588218086
 21
132.4339220823699
 31
0.0
  0
ARC
  5
FBE
330
18
100
AcDbEntity
  8
1
  6
Continuous
100
AcDbCircle
 10
248.3345873393832
 20
127.4339218448918
 30
0.0
 40
10.00000047497452
100
AcDbArc
 50
40.00520088486971
 51
62.06852024908896
  0
ARC
  5
FE6
330
18
100
AcDbEntity
  8
1
  6
Continuous
100
AcDbCircle
 10
109.8993856340878
 20
36.52016887254814
 30
0.0
 40
0.5462060317790895
100
AcDbArc
 50
184.7475549389346
 51
273.4656557628706
  0
ARC
  5
FE9
330
18
100
AcDbEntity
  8
1
  6
Continuous
100
AcDbCircle
 10
112.797512563798
 20
36.45520916444258
 30
0.0
 40
0.6802456596054851
100
AcDbArc
 50
178.3360431702179
 51
215.4541408396255
  0
ARC
  5
FEA
330
18
100
AcDbEntity
  8
1
  6
Continuous
100
AcDbCircle
 10
112.4159851811242
 20
36.19108437494492
 30
0.0
 40
0.2163427383879078
100
AcDbArc
 50
217.084337013559
 51
267.4152881510735
  0
LINE
  5
FEB
330
18
100
AcDbEntity
  8
4
  6
CENTER
 48
0.3
100
AcDbLine
 10
114.8800538783037
 20
32.97496173535802
 30
0.0
 11
114.8800538783037
 21
84.98064936115822
 31
0.0
  0
ARC
  5
FEC
330
18
100
AcDbEntity
  8
1
  6
Continuous
100
AcDbCircle
 10
116.9625951928094
 20
36.45520916444258
 30
0.0
 40
0.6802456596054851
100
AcDbArc
 50
324.5458591603744
 51
1.66395682978206
  0
LINE
  5
FEE
330
18
100
AcDbEntity
  8
1
  6
Continuous
100
AcDbLine
 10
115.9300539281761
 20
35.97496173535802
 30
0.0
 11
119.8277038441145
 21
35.97496173535802
 31
0.0
  0
ARC
  5
FEF
330
18
100
AcDbEntity
  8
1
  6
Continuous
100
AcDbCircle
 10
119.8607221225197
 20
36.52016887254814
 30
0.0
 40
0.5462060317790895
100
AcDbArc
 50
266.5343442371294
 51
355.2524450610653
  0
LINE
  5
FF0
330
18
100
AcDbEntity
  8
1
  6
Continuous
100
AcDbLine
 10
117.6425540095154
 20
36.47496175910674
 30
0.0
 11
117.6425540095154
 21
39.97496192534782
 31
0.0
  0
LINE
  5
FF1
330
18
100
AcDbEntity
  8
1
  6
Continuous
100
AcDbLine
 10
120.4050541407272
 20
36.47496175910674
 30
0.0
 11
120.4050539963896
 21
39.97496192534782
 31
0.0
  0
ARC
  5
FF3
330
18
100
AcDbEntity
  8
1
  6
Continuous
100
AcDbCircle
 10
117.3441225754833
 20
36.19108437494492
 30
0.0
 40
0.2163427383879078
100
AcDbArc
 50
272.5847118489264
 51
322.9156629864409
  0
ARC
  5
FF5
330
18
100
AcDbEntity
  8
1
  6
Continuous
100
AcDbCircle
 10
115.9300539281761
 20
36.27496174960731
 30
0.0
 40
0.3000000142492496
100
AcDbArc
 50
180.000000000004
 51
270.0
  0
LINE
  5
FF6
330
18
100
AcDbEntity
  8
1
  6
Continuous
100
AcDbLine
 10
115.6300539139268
 20
36.27495581086839
 30
0.0
 11
115.6300539139268
 21
38.47496185410165
 31
0.0
  0
LINE
  5
FF8
330
18
100
AcDbEntity
  8
4
  6
CENTER
 48
0.3
100
AcDbLine
 10
114.8800538783037
 20
114.4339213699173
 30
0.0
 11
114.8800538783037
 21
140.4339223198663
 31
0.0
  0
LINE
  5
FF9
330
18
100
AcDbEntity
  8
4
  6
CENTER
 48
0.3
100
AcDbLine
 10
91.88005292835475
 20
127.4339218448918
 30
0.0
 11
137.8800548282528
 21
127.4339218448918
 31
0.0
  0
LINE
  5
FFA
330
18
100
AcDbEntity
  8
4
  6
CENTER
 48
0.3
100
AcDbLine
 10
114.8800538783037
 20
221.8928819544256
 30
0.0
 11
114.8800538783037
 21
169.8871943286254
 31
0.0
  0
ARC
  5
FFB
330
18
100
AcDbEntity
  8
1
  6
Continuous
100
AcDbCircle
 10
114.8800538783037
 20
93.14287717880956
 30
0.0
 40
80.00000379979564
100
AcDbArc
 50
77.31961650818046
 51
102.6803834918215
  0
ARC
  5
FFC
330
18
100
AcDbEntity
  8
1
  6
Continuous
100
AcDbCircle
 10
114.8800538783037
 20
263.6422191253926
 30
0.0
 40
80.0000037997959
100
AcDbArc
 50
257.3196165081784
 51
282.6803834918195
  0
LINE
  5
FFD
330
18
100
AcDbEntity
  8
1
  6
Continuous
100
AcDbLine
 10
94.88005292835476
 20
183.6422153255946
 30
0.0
 11
94.88005292835476
 21
173.1428809786071
 31
0.0
  0
ARC
  5
FFE
330
18
100
AcDbEntity
  8
1
  6
Continuous
100
AcDbCircle
 10
96.88005302334964
 20
183.6422153255946
 30
0.0
 40
2.000000094994905
100
AcDbArc
 50
77.31961650829212
 51
179.9999999999942
  0
ARC
  5
FFF
330
18
100
AcDbEntity
  8
1
  6
Continuous
100
AcDbCircle
 10
96.88005302334964
 20
173.1428809786071
 30
0.0
 40
2.000000094994908
100
AcDbArc
 50
180.0000000000007
 51
282.6803834917647
  0
LINE
  5
1000
330
18
100
AcDbEntity
  8
1
  6
Continuous
100
AcDbLine
 10
117.4996913822158
 20
209.2428822590147
 30
0.0
 11
117.8633407980375
 21
212.9428824347552
 31
0.0
  0
LINE
  5
1001
330
18
100
AcDbEntity
  8
1
  6
Continuous
100
AcDbLine
 10
111.89676695857
 20
212.9428824347552
 30
0.0
 11
112.2604163743917
 21
209.2428822590147
 31
0.0
  0
LINE
  5
1002
330
18
100
AcDbEntity
  8
1
  6
Continuous
100
AcDbLine
 10
110.6800536788144
 20
209.2428822590147
 30
0.0
 11
110.9300536906888
 21
212.9428824347552
 31
0.0
  0
LINE
  5
1003
330
18
100
AcDbEntity
  8
1
  6
Continuous
100
AcDbLine
 10
118.8300540659187
 20
212.9428824347552
 30
0.0
 11
119.080054077793
 21
209.2428822590146
 31
0.0
  0
LINE
  5
1004
330
18
100
AcDbEntity
  8
1
  6
Continuous
100
AcDbLine
 10
121.0174316698194
 20
214.8929817644357
 30
0.0
 11
121.6300541989114
 21
214.3928817406871
 31
0.0
  0
ARC
  5
1005
330
18
100
AcDbEntity
  8
1
  6
Continuous
100
AcDbCircle
 10
121.3300135446576
 20
213.6929224578955
 30
0.0
 40
0.3000399824478698
100
AcDbArc
 50
270.0076049930526
 51
359.9922206858102
  0
LINE
  5
1006
330
18
100
AcDbEntity
  8
1
  6
Continuous
100
AcDbLine
 10
108.1300535576959
 20
214.3928817406871
 30
0.0
 11
121.6300541989115
 21
214.3928817406871
 31
0.0
  0
LINE
  5
1007
330
18
100
AcDbEntity
  8
1
  6
Continuous
100
AcDbLine
 10
108.4300536833172
 20
213.242881686065
 30
0.0
 11
113.1895807510476
 21
213.242881686065
 31
0.0
  0
LINE
  5
1008
330
18
100
AcDbEntity
  8
1
  6
Continuous
100
AcDbLine
 10
108.4300535719452
 20
213.3928816932155
 30
0.0
 11
121.330053369615
 21
213.3928816932155
 31
0.0
  0
LINE
  5
1009
330
18
100
AcDbEntity
  8
1
  6
Continuous
100
AcDbLine
 10
113.8300538284314
 20
218.8928819544256
 30
0.0
 11
109.932403912493
 21
218.8928819544256
 31
0.0
  0
LINE
  5
100A
330
18
100
AcDbEntity
  8
1
  6
Continuous
100
AcDbLine
 10
108.7425535867881
 20
214.8928817644358
 30
0.0
 11
121.0175541698193
 21
214.8928817644358
 31
0.0
  0
LINE
  5
100B
330
18
100
AcDbEntity
  8
1
  6
Continuous
100
AcDbLine
 10
109.3550536158803
 20
218.3928819306768
 30
0.0
 11
109.3550537602179
 21
214.8928817644358
 31
0.0
  0
LINE
  5
100E
330
18
100
AcDbEntity
  8
1
  6
Continuous
100
AcDbLine
 10
110.3192150017742
 20
213.3928816932155
 30
0.0
 11
110.3192150017742
 21
213.242881686065
 31
0.0
  0
LINE
  5
100F
330
18
100
AcDbEntity
  8
1
  6
Continuous
100
AcDbLine
 10
109.5965230101083
 20
213.3928816932165
 30
0.0
 11
109.5965230101083
 21
213.242881686065
 31
0.0
  0
LINE
  5
1010
330
18
100
AcDbEntity
  8
1
  6
Continuous
100
AcDbLine
 10
109.0343684751996
 20
213.3928816932165
 30
0.0
 11
109.0343684751996
 21
213.242881686065
 31
0.0
  0
LINE
  5
1011
330
18
100
AcDbEntity
  8
1
  6
Continuous
100
AcDbLine
 10
108.649832110397
 20
213.3928816932146
 30
0.0
 11
108.649832110397
 21
213.242881686065
 31
0.0
  0
LINE
  5
1012
330
18
100
AcDbEntity
  8
1
  6
Continuous
100
AcDbLine
 10
108.4300536833172
 20
213.242881686065
 30
0.0
 11
108.4300536833172
 21
213.3928816931896
 31
0.0
  0
ARC
  5
1013
330
18
100
AcDbEntity
  8
1
  6
Continuous
100
AcDbCircle
 10
108.4300535719452
 20
213.6928817074388
 30
0.0
 40
0.300000014249242
100
AcDbArc
 50
180.000000000004
 51
270.0
  0
ARC
  5
1014
330
18
100
AcDbEntity
  8
1
  6
Continuous
100
AcDbCircle
 10
109.8993856340878
 20
218.3476748172354
 30
0.0
 40
0.5462060317790895
100
AcDbArc
 50
86.53434423712942
 51
175.2524450610653
  0
LINE
  5
1015
330
18
100
AcDbEntity
  8
1
  6
Continuous
100
AcDbLine
 10
108.1300535576959
 20
213.6928817074388
 30
0.0
 11
108.1300535576959
 21
214.3928817406871
 31
0.0
  0
LINE
  5
1016
330
18
100
AcDbEntity
  8
1
  6
Continuous
100
AcDbLine
 10
108.1300535576959
 20
214.392881740687
 30
0.0
 11
108.7425535867881
 21
214.8928817644358
 31
0.0
  0
LINE
  5
1017
330
18
100
AcDbEntity
  8
1
  6
Continuous
100
AcDbLine
 10
114.1300538426806
 20
216.3928818356819
 30
0.0
 11
115.6300539139268
 21
216.3928818356819
 31
0.0
  0
LINE
  5
1018
330
18
100
AcDbEntity
  8
1
  6
Continuous
100
AcDbLine
 10
114.1300538426806
 20
218.5928819401763
 30
0.0
 11
114.1300538426806
 21
216.3928818356819
 31
0.0
  0
LINE
  5
101A
330
18
100
AcDbEntity
  8
1
  6
Continuous
100
AcDbLine
 10
115.442208438447
 20
213.3928816931896
 30
0.0
 11
115.4422084372337
 21
213.242881686065
 31
0.0
  0
LINE
  5
101B
330
18
100
AcDbEntity
  8
1
  6
Continuous
100
AcDbLine
 10
116.5494367696814
 20
213.3928816931896
 30
0.0
 11
116.5494367696813
 21
213.242881686065
 31
0.0
  0
LINE
  5
101C
330
18
100
AcDbEntity
  8
1
  6
Continuous
100
AcDbLine
 10
114.3178993205872
 20
213.3928816931898
 30
0.0
 11
114.3178993205872
 21
213.242881686065
 31
0.0
  0
LINE
  5
101D
330
18
100
AcDbEntity
  8
1
  6
Continuous
100
AcDbLine
 10
114.5314308907545
 20
213.3928816931896
 30
0.0
 11
114.5314308907545
 21
213.242881686065
 31
0.0
  0
LINE
  5
101E
330
18
100
AcDbEntity
  8
1
  6
Continuous
100
AcDbLine
 10
113.1895807510472
 20
213.3928816931896
 30
0.0
 11
113.1895807510472
 21
213.242881686065
 31
0.0
  0
LINE
  5
101F
330
18
100
AcDbEntity
  8
1
  6
Continuous
100
AcDbLine
 10
118.5796220046077
 20
213.3928816931896
 30
0.0
 11
118.5796220046078
 21
213.242881686065
 31
0.0
  0
LINE
  5
1020
330
18
100
AcDbEntity
  8
1
  6
Continuous
100
AcDbLine
 10
117.6059417607032
 20
213.3928816931896
 30
0.0
 11
117.6059417548198
 21
213.242881686065
 31
0.0
  0
LINE
  5
1021
330
18
100
AcDbEntity
  8
1
  6
Continuous
100
AcDbLine
 10
119.4408927548329
 20
213.3928816931896
 30
0.0
 11
119.4408927548331
 21
213.242881686065
 31
0.0
  0
LINE
  5
1022
330
18
100
AcDbEntity
  8
1
  6
Continuous
100
AcDbLine
 10
120.1635847236913
 20
213.3928816931896
 30
0.0
 11
120.1635847236913
 21
213.242881686065
 31
0.0
  0
LINE
  5
1023
330
18
100
AcDbEntity
  8
1
  6
Continuous
100
AcDbLine
 10
120.7257392814079
 20
213.3928816931896
 30
0.0
 11
120.7257392814079
 21
213.242881686065
 31
0.0
  0
LINE
  5
1024
330
18
100
AcDbEntity
  8
1
  6
Continuous
100
AcDbLine
 10
121.1102756462107
 20
213.3928816931896
 30
0.0
 11
121.1102756462105
 21
213.242881686065
 31
0.0
  0
LINE
  5
1025
330
18
100
AcDbEntity
  8
1
  6
Continuous
100
AcDbLine
 10
117.6300540089217
 20
213.242881686065
 30
0.0
 11
117.6300540089217
 21
212.9428824347552
 31
0.0
  0
LINE
  5
1026
330
18
100
AcDbEntity
  8
1
  6
Continuous
100
AcDbLine
 10
113.2106709869264
 20
213.3928816932155
 30
0.0
 11
113.2106709869264
 21
213.242881686065
 31
0.0
  0
LINE
  5
1027
330
18
100
AcDbEntity
  8
1
  6
Continuous
100
AcDbLine
 10
113.2106709869264
 20
213.242881686065
 30
0.0
 11
114.5314308907545
 21
213.242881686065
 31
0.0
  0
LINE
  5
1028
330
18
100
AcDbEntity
  8
1
  6
Continuous
100
AcDbLine
 10
115.228676865853
 20
213.3928816931896
 30
0.0
 11
115.228676865853
 21
213.242881686065
 31
0.0
  0
LINE
  5
1029
330
18
100
AcDbEntity
  8
1
  6
Continuous
100
AcDbLine
 10
115.228676865853
 20
213.242881686065
 30
0.0
 11
116.5494367696813
 21
213.242881686065
 31
0.0
  0
LINE
  5
102A
330
18
100
AcDbEntity
  8
1
  6
Continuous
100
AcDbLine
 10
121.3300540732903
 20
213.3928824780006
 30
0.0
 11
121.3300540732903
 21
213.242881686065
 31
0.0
  0
LINE
  5
102B
330
18
100
AcDbEntity
  8
1
  6
Continuous
100
AcDbLine
 10
116.5705270055597
 20
213.3928816931896
 30
0.0
 11
116.5705270055597
 21
213.242881686065
 31
0.0
  0
LINE
  5
102C
330
18
100
AcDbEntity
  8
1
  6
Continuous
100
AcDbLine
 10
121.3300540732903
 20
213.242881686065
 30
0.0
 11
116.5705270055597
 21
213.242881686065
 31
0.0
  0
ARC
  5
102D
330
18
100
AcDbEntity
  8
1
  6
Continuous
100
AcDbCircle
 10
113.8300538284314
 20
218.5928819401763
 30
0.0
 40
0.3000000142492496
100
AcDbArc
 50
0.0000000000040851
 51
90.00000000000005
  0
ARC
  5
102E
330
18
100
AcDbEntity
  8
1
  6
Continuous
100
AcDbCircle
 10
112.4159851811242
 20
218.6767593148386
 30
0.0
 40
0.2163427383879078
100
AcDbArc
 50
92.58471184892641
 51
142.9156629864409
  0
ARC
  5
102F
330
18
100
AcDbEntity
  8
1
  6
Continuous
100
AcDbCircle
 10
116.9625951928094
 20
218.412634525341
 30
0.0
 40
0.6802456596054851
100
AcDbArc
 50
358.3360431702179
 51
35.45414083962555
  0
LINE
  5
1030
330
18
100
AcDbEntity
  8
1
  6
Continuous
100
AcDbLine
 10
115.9300539281761
 20
218.8928819544256
 30
0.0
 11
119.8277038441145
 21
218.8928819544256
 31
0.0
  0
ARC
  5
1031
330
18
100
AcDbEntity
  8
1
  6
Continuous
100
AcDbCircle
 10
119.8607221225197
 20
218.3476748172354
 30
0.0
 40
0.5462060317790895
100
AcDbArc
 50
4.747554938934672
 51
93.46565576287058
  0
LINE
  5
1032
330
18
100
AcDbEntity
  8
1
  6
Continuous
100
AcDbLine
 10
117.6425540095154
 20
218.3928819306768
 30
0.0
 11
117.6425540095154
 21
214.8928817644358
 31
0.0
  0
LINE
  5
1033
330
18
100
AcDbEntity
  8
1
  6
Continuous
100
AcDbLine
 10
120.4050541407272
 20
218.3928819306768
 30
0.0
 11
120.4050539963896
 21
214.8928817644358
 31
0.0
  0
ARC
  5
1034
330
18
100
AcDbEntity
  8
1
  6
Continuous
100
AcDbCircle
 10
117.3441225754833
 20
218.6767593148386
 30
0.0
 40
0.2163427383879078
100
AcDbArc
 50
37.08433701355906
 51
87.41528815107361
  0
ARC
  5
1035
330
18
100
AcDbEntity
  8
1
  6
Continuous
100
AcDbCircle
 10
115.9300539281761
 20
218.5928819401763
 30
0.0
 40
0.3000000142492496
100
AcDbArc
 50
90.00000000000005
 51
179.9999999999959
  0
LINE
  5
1036
330
18
100
AcDbEntity
  8
1
  6
Continuous
100
AcDbLine
 10
115.6300539139268
 20
218.5928878789152
 30
0.0
 11
115.6300539139268
 21
216.3928818356819
 31
0.0
  0
LINE
  5
1038
330
18
100
AcDbEntity
  8
1
  6
Continuous
100
AcDbLine
 10
112.1175537470921
 20
218.3928819306768
 30
0.0
 11
112.1175537470921
 21
214.8928817644358
 31
0.0
  0
LINE
  5
1039
330
18
100
AcDbEntity
  8
1
  6
Continuous
100
AcDbLine
 10
111.1804857520002
 20
213.3928816932155
 30
0.0
 11
111.1804857520002
 21
213.242881686065
 31
0.0
  0
LINE
  5
103A
330
18
100
AcDbEntity
  8
1
  6
Continuous
100
AcDbLine
 10
112.1541660076711
 20
213.3928816932155
 30
0.0
 11
112.1541660076711
 21
213.242881686065
 31
0.0
  0
LINE
  5
103B
330
18
100
AcDbEntity
  8
1
  6
Continuous
100
AcDbLine
 10
112.1300537476857
 20
212.9428824347552
 30
0.0
 11
112.1300537476857
 21
213.242881686065
 31
0.0
  0
LINE
  5
103C
330
18
100
AcDbEntity
  8
1
  6
Continuous
100
AcDbLine
 10
118.8300540659187
 20
212.9428824347552
 30
0.0
 11
110.9300536906888
 21
212.9428824347552
 31
0.0
  0
ARC
  5
103D
330
18
100
AcDbEntity
  8
1
  6
Continuous
100
AcDbCircle
 10
112.797512563798
 20
218.412634525341
 30
0.0
 40
0.6802456596054851
100
AcDbArc
 50
144.5458591603744
 51
181.663956829782
  0
LINE
  5
103E
330
18
100
AcDbEntity
  8
1
  6
Continuous
100
AcDbLine
 10
121.6300541989115
 20
214.3928817406871
 30
0.0
 11
121.6300541989115
 21
213.6928817132307
 31
0.0
  0
LINE
  5
103F
330
18
100
AcDbEntity
  8
1
  6
Continuous
100
AcDbLine
 10
106.8800534983241
 20
184.0427219892005
 30
0.0
 11
106.8800534983241
 21
199.3428817887899
 31
0.0
  0
LINE
  5
1040
330
18
100
AcDbEntity
  8
1
  6
Continuous
100
AcDbLine
 10
122.8800542582833
 20
199.3428817887899
 30
0.0
 11
122.8800542582833
 21
184.0432203761138
 31
0.0
  0
ARC
  5
1041
330
18
100
AcDbEntity
  8
1
  6
Continuous
100
AcDbCircle
 10
114.8800538783037
 20
221.0928942921926
 30
0.0
 40
18.85001141378444
100
AcDbArc
 50
246.2226980067383
 51
293.7773019932616
  0
ARC
  5
1042
330
18
100
AcDbEntity
  8
1
  6
Continuous
100
AcDbCircle
 10
114.8800538783037
 20
221.0928897088446
 30
0.0
 40
19.45000728514757
100
AcDbArc
 50
246.9991133333105
 51
293.0008866666894
  0
LINE
  5
1043
330
18
100
AcDbEntity
  8
1
  6
Continuous
100
AcDbLine
 10
122.8800542582833
 20
199.3428817887899
 30
0.0
 11
106.8800534983241
 21
199.3428817887899
 31
0.0
  0
LINE
  5
1044
330
18
100
AcDbEntity
  8
1
  6
Continuous
100
AcDbLine
 10
109.9300536431913
 20
209.2428822590146
 30
0.0
 11
110.6800536788144
 21
209.2428822590146
 31
0.0
  0
LINE
  5
1045
330
18
100
AcDbEntity
  8
1
  6
Continuous
100
AcDbLine
 10
107.2800535173231
 20
203.1891812129662
 30
0.0
 11
107.2800535173231
 21
203.8429819787797
 31
0.0
  0
LINE
  5
1046
330
18
100
AcDbEntity
  8
1
  6
Continuous
100
AcDbLine
 10
109.9300536431914
 20
202.9044246487016
 30
0.0
 11
109.9300536431913
 21
209.2428822590146
 31
0.0
  0
LINE
  5
1047
330
18
100
AcDbEntity
  8
1
  6
Continuous
100
AcDbLine
 10
117.4996913822158
 20
209.2428822590149
 30
0.0
 11
112.2604163743917
 21
209.2428822590149
 31
0.0
  0
LINE
  5
1048
330
18
100
AcDbEntity
  8
1
  6
Continuous
100
AcDbLine
 10
119.080054077793
 20
209.2428822590146
 30
0.0
 11
119.8300541134161
 21
209.2428822590146
 31
0.0
  0
LINE
  5
1049
330
18
100
AcDbEntity
  8
1
  6
Continuous
100
AcDbLine
 10
119.8300541134161
 20
209.2428822590146
 30
0.0
 11
119.8300541134161
 21
202.9044246487017
 31
0.0
  0
LINE
  5
104A
330
18
100
AcDbEntity
  8
1
  6
Continuous
100
AcDbLine
 10
108.48005357432
 20
199.3428817887899
 30
0.0
 11
108.48005357432
 21
201.6428818980344
 31
0.0
  0
LINE
  5
104B
330
18
100
AcDbEntity
  8
1
  6
Continuous
100
AcDbLine
 10
109.9300536431913
 20
201.642881898034
 30
0.0
 11
109.9300536431913
 21
202.2833102062433
 31
0.0
  0
LINE
  5
104D
330
18
100
AcDbEntity
  8
1
  6
Continuous
100
AcDbLine
 10
121.2800541822874
 20
201.6428818980344
 30
0.0
 11
121.2800541822874
 21
199.3428817887899
 31
0.0
  0
LINE
  5
104E
330
18
100
AcDbEntity
  8
1
  6
Continuous
100
AcDbLine
 10
119.8300541134161
 20
202.2833102062433
 30
0.0
 11
119.8300541134161
 21
201.642881898034
 31
0.0
  0
LINE
  5
104F
330
18
100
AcDbEntity
  8
1
  6
Continuous
100
AcDbLine
 10
108.48005357432
 20
201.6428818980344
 30
0.0
 11
121.2800541822874
 21
201.6428818980344
 31
0.0
  0
LINE
  5
1050
330
18
100
AcDbEntity
  8
1
  6
Continuous
100
AcDbLine
 10
122.4800542392844
 20
203.8429819787797
 30
0.0
 11
122.4800542392844
 21
203.1891812129662
 31
0.0
  0
LINE
  5
1053
330
18
100
AcDbEntity
  8
1
  6
Continuous
100
AcDbLine
 10
122.8800542582833
 20
188.6428817148144
 30
0.0
 11
106.8800534983241
 21
188.6428817148144
 31
0.0
  0
LINE
  5
1059
330
18
100
AcDbEntity
  8
1
  6
Continuous
100
AcDbLine
 10
134.8800548282528
 20
173.1428809786071
 30
0.0
 11
134.8800548282528
 21
183.6422153255946
 31
0.0
  0
ARC
  5
105B
330
18
100
AcDbEntity
  8
1
  6
Continuous
100
AcDbCircle
 10
132.8800547332579
 20
183.6422153255946
 30
0.0
 40
2.000000094994935
100
AcDbArc
 50
0.0000000000008283
 51
102.6803834917647
  0
ARC
  5
105F
330
18
100
AcDbEntity
  8
1
  6
Continuous
100
AcDbCircle
 10
132.8800547332578
 20
173.1428809786071
 30
0.0
 40
2.000000094994941
100
AcDbArc
 50
257.3196165082953
 51
0.0
  0
ARC
  5
1064
330
18
100
AcDbEntity
  8
1
  6
Continuous
100
AcDbCircle
 10
87.78508303773383
 20
127.3688990204029
 30
0.0
 40
83.89403182527233
100
AcDbArc
 50
3.938975490392765
 51
5.95097330737521
  0
ARC
  5
1066
330
18
100
AcDbEntity
  8
1
  6
Continuous
100
AcDbCircle
 10
244.1813963508162
 20
127.3688990204029
 30
0.0
 40
83.89403182527233
100
AcDbArc
 50
174.0490735278001
 51
176.0610245096072
  0
ARC
  5
1067
330
18
100
AcDbEntity
  8
1
  6
Continuous
100
AcDbCircle
 10
143.7156108546594
 20
134.1032080584528
 30
0.0
 40
16.79803446892612
100
AcDbArc
 50
354.2968827527099
 51
356.6851923820349
  0
LINE
  5
1068
330
18
100
AcDbEntity
  8
4
  6
CENTER
 48
0.2
100
AcDbLine
 10
209.4835729742834
 20
127.4339218448918
 30
0.0
 11
155.73357190347
 21
127.4339218448918
 31
0.0
  0
LINE
  5
1069
330
18
100
AcDbEntity
  8
1
  6
Continuous
100
AcDbLine
 10
169.7329074731967
 20
117.4339213699173
 30
0.0
 11
162.2335719153533
 21
117.4339213699173
 31
0.0
  0
ARC
  5
106A
330
18
100
AcDbEntity
  8
1
  6
Continuous
100
AcDbCircle
 10
244.1813963508162
 20
127.4989446693806
 30
0.0
 40
83.89403182527233
100
AcDbArc
 50
183.9389754903926
 51
185.9509264721997
  0
ARC
  5
106B
330
18
100
AcDbEntity
  8
1
  6
Continuous
100
AcDbCircle
 10
162.2335720697092
 20
118.9339214411627
 30
0.0
 40
1.500000071244586
100
AcDbArc
 50
185.0802573232258
 51
270.0000000000585
  0
ARC
  5
106C
330
18
100
AcDbEntity
  8
1
  6
Continuous
100
AcDbCircle
 10
87.78508303773383
 20
127.4989446693806
 30
0.0
 40
83.89403182527233
100
AcDbArc
 50
354.0490266926248
 51
356.0610245096071
  0
ARC
  5
106D
330
18
100
AcDbEntity
  8
1
  6
Continuous
100
AcDbCircle
 10
169.7329062742066
 20
118.933921441165
 30
0.0
 40
1.500000071246343
100
AcDbArc
 50
269.9999999999967
 51
354.9171270515032
  0
LINE
  5
106E
330
18
100
AcDbEntity
  8
1
  6
Continuous
100
AcDbLine
 10
160.233784423646
 20
122.4339216074045
 30
0.0
 11
171.7327807078601
 21
122.4339216074045
 31
0.0
  0
ARC
  5
106F
330
18
100
AcDbEntity
  8
1
  6
Continuous
100
AcDbCircle
 10
143.7156108546594
 20
120.7646356313307
 30
0.0
 40
16.79803446892612
100
AcDbArc
 50
3.314807617965095
 51
5.703117247290058
  0
ARC
  5
1070
330
18
100
AcDbEntity
  8
1
  6
Continuous
100
AcDbCircle
 10
188.2508685338906
 20
120.7646356313307
 30
0.0
 40
16.79803446892612
100
AcDbArc
 50
174.2968827527099
 51
176.6851923820349
  0
ARC
  5
1071
330
18
100
AcDbEntity
  8
1
  6
Continuous
100
AcDbCircle
 10
171.3298714050999
 20
127.4339218253389
 30
0.0
 40
19.45000082772411
100
AcDbArc
 50
336.9991053210631
 51
23.00089467893644
  0
ARC
  5
1072
330
18
100
AcDbEntity
  8
1
  6
Continuous
100
AcDbCircle
 10
172.5829820387069
 20
127.4340461056245
 30
0.0
 40
18.85059096034012
100
AcDbArc
 50
336.223061374579
 51
23.77611319372348
  0
ARC
  5
1073
330
18
100
AcDbEntity
  8
1
  6
Continuous
100
AcDbCircle
 10
170.9647715007747
 20
127.4339217181546
 30
0.0
 40
18.94934485391067
100
AcDbArc
 50
344.5980087835131
 51
15.40199121648631
  0
LINE
  5
1074
330
18
100
AcDbEntity
  8
1
  6
Continuous
100
AcDbLine
 10
205.9835736340763
 20
132.2187124280659
 30
0.0
 11
202.4835734678352
 21
132.2187129280661
 31
0.0
  0
ARC
  5
1075
330
18
100
AcDbEntity
  8
1
  6
Continuous
100
AcDbCircle
 10
205.9835735626477
 20
131.7187124043172
 30
0.0
 40
0.5000000237487452
100
AcDbArc
 50
359.9103462512597
 51
89.99999181488719
  0
LINE
  5
1076
330
18
100
AcDbEntity
  8
4
  6
CENTER
 48
0.2
100
AcDbLine
 10
20.27653478232412
 20
127.4339218448918
 30
0.0
 11
74.02653585313749
 21
127.4339218448918
 31
0.0
  0
LINE
  5
1077
330
18
100
AcDbEntity
  8
1
  6
Continuous
100
AcDbLine
 10
58.46955198438046
 20
119.4339214649122
 30
0.0
 11
42.82653494795988
 21
119.4339214649122
 31
0.0
  0
LINE
  5
1078
330
18
100
AcDbEntity
  8
1
  6
Continuous
100
AcDbLine
 10
42.82653494795988
 20
135.4339222248714
 30
0.0
 11
58.46955198438046
 21
135.4339222248714
 31
0.0
  0
LINE
  5
1079
330
18
100
AcDbEntity
  8
1
  6
Continuous
100
AcDbLine
 10
56.52720131616014
 20
123.9339216786507
 30
0.0
 11
56.52720131616014
 21
130.9339220111329
 31
0.0
  0
LINE
  5
107A
330
18
100
AcDbEntity
  8
1
  6
Continuous
100
AcDbLine
 10
53.52653545618267
 20
135.4339222248714
 30
0.0
 11
53.52653545618261
 21
119.4339214649122
 31
0.0
  0
LINE
  5
107B
330
18
100
AcDbEntity
  8
1
  6
Continuous
100
AcDbLine
 10
71.02653585313749
 20
130.9339220111328
 30
0.0
 11
71.02653585313749
 21
123.9339216786507
 31
0.0
  0
LINE
  5
107C
330
18
100
AcDbEntity
  8
1
  6
Continuous
100
AcDbLine
 10
69.52632333296151
 20
122.4339216074045
 30
0.0
 11
58.02732704874745
 21
122.4339216074045
 31
0.0
  0
LINE
  5
107D
330
18
100
AcDbEntity
  8
1
  6
Continuous
100
AcDbLine
 10
60.02720028341081
 20
117.4339213699173
 30
0.0
 11
67.5265358412542
 21
117.4339213699173
 31
0.0
  0
ARC
  5
107E
330
18
100
AcDbEntity
  8
1
  6
Continuous
100
AcDbCircle
 10
86.0444969019481
 20
120.7646356313307
 30
0.0
 40
16.79803446892612
100
AcDbArc
 50
174.2968827527099
 51
176.6851923820349
  0
ARC
  5
107F
330
18
100
AcDbEntity
  8
1
  6
Continuous
100
AcDbCircle
 10
67.52653568689834
 20
118.9339214411627
 30
0.0
 40
1.500000071244586
100
AcDbArc
 50
269.9999999999413
 51
354.9197426767741
  0
ARC
  5
1080
330
18
100
AcDbEntity
  8
1
  6
Continuous
100
AcDbCircle
 10
-14.4212885942087
 20
127.4989446693806
 30
0.0
 40
83.89403182527233
100
AcDbArc
 50
354.0490735278002
 51
356.0610245096071
  0
ARC
  5
1081
330
18
100
AcDbEntity
  8
1
  6
Continuous
100
AcDbCircle
 10
69.52648487433686
 20
123.9339725828772
 30
0.0
 40
1.50005097733428
100
AcDbArc
 50
270.0030670043708
 51
359.998055667851
  0
ARC
  5
1082
330
18
100
AcDbEntity
  8
1
  6
Continuous
100
AcDbCircle
 10
58.02729469416163
 20
123.9340149775127
 30
0.0
 40
1.500093374838514
100
AcDbArc
 50
180.003563532195
 51
269.9953136529434
  0
ARC
  5
1083
330
18
100
AcDbEntity
  8
1
  6
Continuous
100
AcDbCircle
 10
41.50923922271693
 20
120.7646356313307
 30
0.0
 40
16.79803446892612
100
AcDbArc
 50
3.314807617965086
 51
5.703117247290077
  0
ARC
  5
1084
330
18
100
AcDbEntity
  8
1
  6
Continuous
100
AcDbCircle
 10
60.02720148240094
 20
118.933921441165
 30
0.0
 40
1.500000071246343
100
AcDbArc
 50
185.0828729484969
 51
270.0000000000032
  0
ARC
  5
1085
330
18
100
AcDbEntity
  8
1
  6
Continuous
100
AcDbCircle
 10
141.9750247188737
 20
127.4989446693806
 30
0.0
 40
83.89403182527233
100
AcDbArc
 50
183.9389754903928
 51
185.9509733073752
  0
LINE
  5
1086
330
18
100
AcDbEntity
  8
1
  6
Continuous
100
AcDbLine
 10
69.52632333296151
 20
132.433922082379
 30
0.0
 11
58.02732704874745
 21
132.433922082379
 31
0.0
  0
LINE
  5
1087
330
18
100
AcDbEntity
  8
1
  6
Continuous
100
AcDbLine
 10
60.02720028341081
 20
137.4339223198663
 30
0.0
 11
67.5265358412542
 21
137.4339223198663
 31
0.0
  0
ARC
  5
1088
330
18
100
AcDbEntity
  8
1
  6
Continuous
100
AcDbCircle
 10
86.0444969019481
 20
134.1032080584528
 30
0.0
 40
16.79803446892612
100
AcDbArc
 50
183.314807617965
 51
185.70311724729
  0
ARC
  5
1089
330
18
100
AcDbEntity
  8
1
  6
Continuous
100
AcDbCircle
 10
-14.4212885942087
 20
127.3688990204029
 30
0.0
 40
83.89403182527233
100
AcDbArc
 50
3.938975490392763
 51
5.950926472199769
  0
ARC
  5
108A
330
18
100
AcDbEntity
  8
1
  6
Continuous
100
AcDbCircle
 10
67.52653568689834
 20
135.9339222486208
 30
0.0
 40
1.500000071244586
100
AcDbArc
 50
5.080257323225898
 51
90.00000000005863
  0
ARC
  5
108B
330
18
100
AcDbEntity
  8
1
  6
Continuous
100
AcDbCircle
 10
69.52644247513598
 20
130.9338287122708
 30
0.0
 40
1.500093374838514
100
AcDbArc
 50
0.0035635321266692
 51
90.00455061256795
  0
ARC
  5
108C
330
18
100
AcDbEntity
  8
1
  6
Continuous
100
AcDbCircle
 10
58.02725229496076
 20
130.9338711069064
 30
0.0
 40
1.500050977334238
100
AcDbArc
 50
89.99714471271543
 51
179.9980556678526
  0
ARC
  5
108D
330
18
100
AcDbEntity
  8
1
  6
Continuous
100
AcDbCircle
 10
41.50923922271693
 20
134.1032080584528
 30
0.0
 40
16.79803446892612
100
AcDbArc
 50
354.2968827527099
 51
356.6851923820349
  0
ARC
  5
108E
330
18
100
AcDbEntity
  8
1
  6
Continuous
100
AcDbCircle
 10
141.9750247188737
 20
127.3688990204029
 30
0.0
 40
83.89403182527233
100
AcDbArc
 50
174.0490266926247
 51
176.0610245096072
  0
ARC
  5
108F
330
18
100
AcDbEntity
  8
1
  6
Continuous
100
AcDbCircle
 10
60.02720148240094
 20
135.9339222486185
 30
0.0
 40
1.500000071246343
100
AcDbArc
 50
89.99999999999676
 51
174.9171270515031
  0
LINE
  5
1091
330
18
100
AcDbEntity
  8
1
  6
Continuous
100
AcDbLine
 10
28.77653504356016
 20
120.9839215385332
 30
0.0
 11
28.77653504356016
 21
133.8839221512503
 31
0.0
  0
LINE
  5
1092
330
18
100
AcDbEntity
  8
1
  6
Continuous
100
AcDbLine
 10
27.27653497231398
 20
121.2964215533761
 30
0.0
 11
27.27653497231393
 21
133.5714221364074
 31
0.0
  0
LINE
  5
1093
330
18
100
AcDbEntity
  8
1
  6
Continuous
100
AcDbLine
 10
23.27653478232412
 20
131.7179300280482
 30
0.0
 11
23.27653478232417
 21
123.1491312854661
 31
0.0
  0
ARC
  5
1094
330
18
100
AcDbEntity
  8
1
  6
Continuous
100
AcDbCircle
 10
58.79533625583281
 20
127.4339217181546
 30
0.0
 40
18.94934485391067
100
AcDbArc
 50
164.5980087835119
 51
195.4019912164881
  0
ARC
  5
1095
330
18
100
AcDbEntity
  8
1
  6
Continuous
100
AcDbCircle
 10
57.17712571790065
 20
127.4340461056245
 30
0.0
 40
18.85059096034012
100
AcDbArc
 50
156.2238868062765
 51
203.776938625421
  0
ARC
  5
1096
330
18
100
AcDbEntity
  8
1
  6
Continuous
100
AcDbCircle
 10
58.43023635150764
 20
127.4339218253389
 30
0.0
 40
19.45000082772411
100
AcDbArc
 50
156.9991053210635
 51
203.0008946789368
  0
LINE
  5
1098
330
18
100
AcDbEntity
  8
1
  6
Continuous
100
AcDbLine
 10
28.92653505068477
 20
126.8717672871752
 30
0.0
 11
28.92653505068477
 21
127.9960764026083
 31
0.0
  0
LINE
  5
1099
330
18
100
AcDbEntity
  8
1
  6
Continuous
100
AcDbLine
 10
32.92653447773512
 20
124.8142843409797
 30
0.0
 11
32.92653447773505
 21
130.0535593488038
 31
0.0
  0
LINE
  5
109A
330
18
100
AcDbEntity
  8
1
  6
Continuous
100
AcDbLine
 10
42.82653494795988
 20
135.4339222248714
 30
0.0
 11
42.82653494795988
 21
119.4339214649122
 31
0.0
  0
LINE
  5
109B
330
18
100
AcDbEntity
  8
1
  6
Continuous
100
AcDbLine
 10
27.77653499606265
 20
120.683921524284
 30
0.0
 11
27.77653499606265
 21
134.1839221654996
 31
0.0
  0
LINE
  5
109C
330
18
100
AcDbEntity
  8
1
  6
Continuous
100
AcDbLine
 10
23.27653478232412
 20
127.4339218091774
 30
0.0
 11
27.27653497231398
 21
127.4339220948918
 31
0.0
  0
LINE
  5
109D
330
18
100
AcDbEntity
  8
1
  6
Continuous
100
AcDbLine
 10
23.7765348060729
 20
122.6491312617174
 30
0.0
 11
27.27653497231398
 21
122.6491312617174
 31
0.0
  0
LINE
  5
109E
330
18
100
AcDbEntity
  8
1
  6
Continuous
100
AcDbLine
 10
38.98808926651897
 20
122.4839216097794
 30
0.0
 11
32.92653447773483
 21
122.4839216097794
 31
0.0
  0
LINE
  5
109F
330
18
100
AcDbEntity
  8
1
  6
Continuous
100
AcDbLine
 10
42.82653494795982
 20
121.0339215409081
 30
0.0
 11
40.52653486246447
 21
121.0339215409081
 31
0.0
  0
LINE
  5
10A0
330
18
100
AcDbEntity
  8
1
  6
Continuous
100
AcDbLine
 10
40.52653486246447
 20
135.0339222058724
 30
0.0
 11
40.52653486246447
 21
119.8339214839111
 31
0.0
  0
LINE
  5
10A1
330
18
100
AcDbEntity
  8
1
  6
Continuous
100
AcDbLine
 10
40.52653486246447
 20
119.8339214839111
 30
0.0
 11
39.92642536067154
 21
119.8339214839111
 31
0.0
  0
ARC
  5
10A2
330
18
100
AcDbEntity
  8
1
  6
Continuous
100
AcDbCircle
 10
28.47653502931086
 20
120.9839215385332
 30
0.0
 40
0.3000000142492496
100
AcDbArc
 50
269.9999999674376
 51
0.000000000000007
  0
LINE
  5
10A3
330
18
100
AcDbEntity
  8
1
  6
Continuous
100
AcDbLine
 10
28.77653504356016
 20
126.3986456153088
 30
0.0
 11
28.92653505068471
 21
126.3986456153088
 31
0.0
  0
LINE
  5
10A4
330
18
100
AcDbEntity
  8
1
  6
Continuous
100
AcDbLine
 10
28.92653505068477
 20
121.0084658479554
 30
0.0
 11
28.92653505068471
 21
126.3986456153088
 31
0.0
  0
LINE
  5
10A5
330
18
100
AcDbEntity
  8
1
  6
Continuous
100
AcDbLine
 10
29.22653430199455
 20
124.6839217142738
 30
0.0
 11
28.92653505068477
 21
124.6839217142738
 31
0.0
  0
LINE
  5
10A6
330
18
100
AcDbEntity
  8
1
  6
Continuous
100
AcDbLine
 10
28.7765350435601
 20
124.708033974259
 30
0.0
 11
28.92653505068477
 21
124.7080339742591
 31
0.0
  0
LINE
  5
10A7
330
18
100
AcDbEntity
  8
1
  6
Continuous
100
AcDbLine
 10
28.77653504356016
 20
125.7645389535141
 30
0.0
 11
28.92653505068477
 21
125.7645389535143
 31
0.0
  0
LINE
  5
10A8
330
18
100
AcDbEntity
  8
1
  6
Continuous
100
AcDbLine
 10
28.7765350435601
 20
126.8717672871751
 30
0.0
 11
28.92653505068477
 21
126.8717672871752
 31
0.0
  0
LINE
  5
10A9
330
18
100
AcDbEntity
  8
1
  6
Continuous
100
AcDbLine
 10
29.22653430199455
 20
124.450634925158
 30
0.0
 11
32.92653447773512
 21
124.8142843409797
 31
0.0
  0
LINE
  5
10AA
330
18
100
AcDbEntity
  8
1
  6
Continuous
100
AcDbLine
 10
28.77653504356016
 20
121.008465820218
 30
0.0
 11
28.92653505068477
 21
121.0084658340867
 31
0.0
  0
LINE
  5
10AB
330
18
100
AcDbEntity
  8
1
  6
Continuous
100
AcDbLine
 10
28.77653504356016
 20
121.2037000769848
 30
0.0
 11
28.92653505068477
 21
121.2037000769849
 31
0.0
  0
LINE
  5
10AC
330
18
100
AcDbEntity
  8
1
  6
Continuous
100
AcDbLine
 10
28.77653504356016
 20
121.588236416553
 30
0.0
 11
28.92653505068477
 21
121.5882364291703
 31
0.0
  0
LINE
  5
10AD
330
18
100
AcDbEntity
  8
1
  6
Continuous
100
AcDbLine
 10
28.77653504356016
 20
122.1503909995041
 30
0.0
 11
28.92653505068477
 21
122.1503909995043
 31
0.0
  0
LINE
  5
10AE
330
18
100
AcDbEntity
  8
1
  6
Continuous
100
AcDbLine
 10
28.7765350435601
 20
122.8730829683626
 30
0.0
 11
28.92653505068477
 21
122.8730829683624
 31
0.0
  0
LINE
  5
10AF
330
18
100
AcDbEntity
  8
1
  6
Continuous
100
AcDbLine
 10
28.77653504356016
 20
123.7343537185878
 30
0.0
 11
28.92653505068477
 21
123.734353718588
 31
0.0
  0
LINE
  5
10B0
330
18
100
AcDbEntity
  8
1
  6
Continuous
100
AcDbLine
 10
27.77653499606265
 20
120.6839215242841
 30
0.0
 11
27.27643497231395
 21
121.2965440533761
 31
0.0
  0
LINE
  5
10B2
330
18
100
AcDbEntity
  8
1
  6
Continuous
100
AcDbLine
 10
28.47653501667656
 20
120.683921524284
 30
0.0
 11
27.77653499606276
 21
120.683921524284
 31
0.0
  0
LINE
  5
10B3
330
18
100
AcDbEntity
  8
1
  6
Continuous
100
AcDbLine
 10
32.92653447773483
 20
123.2339216454025
 30
0.0
 11
32.92653447773483
 21
122.4839216097794
 31
0.0
  0
LINE
  5
10B4
330
18
100
AcDbEntity
  8
1
  6
Continuous
100
AcDbLine
 10
32.92653447773505
 20
123.2339216454025
 30
0.0
 11
29.22653430199455
 21
123.4839216572768
 31
0.0
  0
LINE
  5
10B5
330
18
100
AcDbEntity
  8
1
  6
Continuous
100
AcDbLine
 10
29.22653430199455
 20
131.3839220325067
 30
0.0
 11
29.22653430199455
 21
123.4839216572768
 31
0.0
  0
ARC
  5
10B6
330
18
100
AcDbEntity
  8
1
  6
Continuous
100
AcDbCircle
 10
23.7765348060729
 20
123.1491312854662
 30
0.0
 40
0.5000000237487452
100
AcDbArc
 50
180.0000000000024
 51
270.0
  0
LINE
  5
10B7
330
18
100
AcDbEntity
  8
1
  6
Continuous
100
AcDbLine
 10
23.7765341225313
 20
132.2187124280659
 30
0.0
 11
27.27653428877227
 21
132.2187129280661
 31
0.0
  0
LINE
  5
10B8
330
18
100
AcDbEntity
  8
1
  6
Continuous
100
AcDbLine
 10
32.92653447773483
 20
132.3839220800042
 30
0.0
 11
38.98802163352321
 21
132.3839220800042
 31
0.0
  0
LINE
  5
10B9
330
18
100
AcDbEntity
  8
1
  6
Continuous
100
AcDbLine
 10
40.52653486246447
 20
133.8339221488755
 30
0.0
 11
42.82653494795982
 21
133.8339221488755
 31
0.0
  0
LINE
  5
10BB
330
18
100
AcDbEntity
  8
1
  6
Continuous
100
AcDbLine
 10
39.92642536067057
 20
135.0339222058724
 30
0.0
 11
40.52653486246447
 21
135.0339222058724
 31
0.0
  0
LINE
  5
10BC
330
18
100
AcDbEntity
  8
1
  6
Continuous
100
AcDbLine
 10
28.77653504356016
 20
133.8593778418281
 30
0.0
 11
28.92653505068483
 21
133.8593778418283
 31
0.0
  0
LINE
  5
10BD
330
18
100
AcDbEntity
  8
1
  6
Continuous
100
AcDbLine
 10
28.92653505068483
 20
133.8593778418283
 30
0.0
 11
28.92653505068477
 21
128.4691980744749
 31
0.0
  0
ARC
  5
10BE
330
18
100
AcDbEntity
  8
1
  6
Continuous
100
AcDbCircle
 10
28.47653502931086
 20
133.8839221512503
 30
0.0
 40
0.3000000142492531
100
AcDbArc
 50
0.000000000000007
 51
90.000000021515
  0
LINE
  5
10BF
330
18
100
AcDbEntity
  8
1
  6
Continuous
100
AcDbLine
 10
27.27653497231393
 20
133.5714221364074
 30
0.0
 11
27.7765349960627
 21
134.1839221654996
 31
0.0
  0
LINE
  5
10C0
330
18
100
AcDbEntity
  8
1
  6
Continuous
100
AcDbLine
 10
28.7765350435601
 20
133.6641436127984
 30
0.0
 11
28.92653505068477
 21
133.6641436127986
 31
0.0
  0
LINE
  5
10C1
330
18
100
AcDbEntity
  8
1
  6
Continuous
100
AcDbLine
 10
28.77653504356016
 20
133.2796072479959
 30
0.0
 11
28.92653505068477
 21
133.2796072479959
 31
0.0
  0
LINE
  5
10C2
330
18
100
AcDbEntity
  8
1
  6
Continuous
100
AcDbLine
 10
28.7765350435601
 20
132.717452690279
 30
0.0
 11
28.92653505068477
 21
132.7174526902791
 31
0.0
  0
LINE
  5
10C3
330
18
100
AcDbEntity
  8
1
  6
Continuous
100
AcDbLine
 10
28.77653504356016
 20
131.9947607214213
 30
0.0
 11
28.92653505068477
 21
131.9947607214212
 31
0.0
  0
LINE
  5
10C5
330
18
100
AcDbEntity
  8
1
  6
Continuous
100
AcDbLine
 10
27.77653499606265
 20
134.1839221654996
 30
0.0
 11
28.47653502931093
 21
134.1839221654996
 31
0.0
  0
LINE
  5
10C7
330
18
100
AcDbEntity
  8
1
  6
Continuous
100
AcDbLine
 10
28.92653505068477
 20
130.1839219755098
 30
0.0
 11
29.22653430199455
 21
130.1839219755098
 31
0.0
  0
LINE
  5
10C8
330
18
100
AcDbEntity
  8
1
  6
Continuous
100
AcDbLine
 10
28.7765350435601
 20
131.1334899711958
 30
0.0
 11
28.92653505068477
 21
131.1334899711959
 31
0.0
  0
LINE
  5
10C9
330
18
100
AcDbEntity
  8
1
  6
Continuous
100
AcDbLine
 10
28.77653504356016
 20
128.4691980744748
 30
0.0
 11
28.92653505068477
 21
128.4691980744748
 31
0.0
  0
LINE
  5
10CA
330
18
100
AcDbEntity
  8
1
  6
Continuous
100
AcDbLine
 10
28.77653504356016
 20
130.1598097155244
 30
0.0
 11
28.92653505068477
 21
130.1598097155243
 31
0.0
  0
LINE
  5
10CB
330
18
100
AcDbEntity
  8
1
  6
Continuous
100
AcDbLine
 10
28.7765350435601
 20
129.1033047362692
 30
0.0
 11
28.92653505068477
 21
129.1033047362693
 31
0.0
  0
LINE
  5
10CC
330
18
100
AcDbEntity
  8
1
  6
Continuous
100
AcDbLine
 10
28.77653504356016
 20
127.9960764026083
 30
0.0
 11
28.92653505068477
 21
127.9960764026083
 31
0.0
  0
LINE
  5
10CD
330
18
100
AcDbEntity
  8
1
  6
Continuous
100
AcDbLine
 10
32.92653447773512
 20
130.0535593488038
 30
0.0
 11
29.22653430199455
 21
130.4172087646255
 31
0.0
  0
LINE
  5
10CE
330
18
100
AcDbEntity
  8
1
  6
Continuous
100
AcDbLine
 10
29.22653430199455
 20
131.3839220325067
 30
0.0
 11
32.92653447773505
 21
131.633922044381
 31
0.0
  0
LINE
  5
10CF
330
18
100
AcDbEntity
  8
1
  6
Continuous
100
AcDbLine
 10
32.92653447773483
 20
132.3839220800042
 30
0.0
 11
32.92653447773483
 21
131.633922044381
 31
0.0
  0
ARC
  5
10D0
330
18
100
AcDbEntity
  8
1
  6
Continuous
100
AcDbCircle
 10
23.77653419395983
 20
131.7187124043172
 30
0.0
 40
0.5000000237487452
100
AcDbArc
 50
90.0000081851128
 51
180.0896537487403
  0
ARC
  5
10D5
330
18
100
AcDbEntity
  8
1
  6
Continuous
100
AcDbCircle
 10
104.1562480741903
 20
118.4339214174147
 30
0.0
 40
4.000000189989833
100
AcDbArc
 50
40.00519146915173
 51
89.99997592121152
  0
ARC
  5
10D6
330
18
100
AcDbEntity
  8
1
  6
Continuous
100
AcDbCircle
 10
125.6038596824172
 20
136.4339222723688
 30
0.0
 40
4.000000189989833
100
AcDbArc
 50
220.0051914691516
 51
270.0
  0
LINE
  5
10DB
330
18
100
AcDbEntity
  8
1
  6
Continuous
100
AcDbLine
 10
105.6882203319195
 20
182.171745148892
 30
0.0
 11
105.6882203319195
 21
174.613065325201
 31
0.0
  0
LINE
  5
10DC
330
18
100
AcDbEntity
  8
1
  6
Continuous
100
AcDbLine
 10
124.071887424688
 20
182.1720309790007
 30
0.0
 11
124.071887424688
 21
174.615420433734
 31
0.0
  0
LINE
  5
10DF
330
18
100
AcDbEntity
  8
1
  6
Continuous
100
AcDbLine
 10
124.071887424688
 20
72.69581271078289
 30
0.0
 11
124.071887424688
 21
80.25242325604954
 31
0.0
  0
LINE
  5
10E0
330
18
100
AcDbEntity
  8
1
  6
Continuous
100
AcDbLine
 10
105.6882203319195
 20
72.69609854089155
 30
0.0
 11
105.6882203319195
 21
80.25477836458255
 31
0.0
  0
CIRCLE
  5
10E1
330
18
100
AcDbEntity
  8
1
  6
Continuous
100
AcDbCircle
 10
248.3345873393832
 20
127.4339218448918
 30
0.0
 40
7.600000360980629
  0
CIRCLE
  5
10E2
330
18
100
AcDbEntity
  8
1
  6
Continuous
100
AcDbCircle
 10
248.3345873393832
 20
127.4339218448918
 30
0.0
 40
6.137500291515634
  0
CIRCLE
  5
10E3
330
18
100
AcDbEntity
  8
1
  6
Continuous
100
AcDbCircle
 10
248.3345873393832
 20
127.4339218448918
 30
0.0
 40
6.750000320607795
  0
ARC
  5
10E6
330
18
100
AcDbEntity
  8
1
  6
Continuous
100
AcDbCircle
 10
259.0583931434967
 20
136.4339222723689
 30
0.0
 40
4.000000189989841
100
AcDbArc
 50
220.00520088487
 51
270.0
  0
ARC
  5
10E7
330
18
100
AcDbEntity
  8
1
  6
Continuous
100
AcDbCircle
 10
248.3345873393832
 20
127.4339218448918
 30
0.0
 40
10.00000047497453
100
AcDbArc
 50
220.0052008848698
 51
242.0396545045921
  0
ARC
  5
10E8
330
18
100
AcDbEntity
  8
1
  6
Continuous
100
AcDbCircle
 10
248.3345873393831
 20
127.4339218448917
 30
0.0
 40
10.00000047497447
100
AcDbArc
 50
242.0396545045924
 51
297.9314797509114
  0
ARC
  5
10EA
330
18
100
AcDbEntity
  8
1
  6
Continuous
100
AcDbCircle
 10
237.6107815352697
 20
118.4339214174147
 30
0.0
 40
4.000000189989841
100
AcDbArc
 50
40.00520088486947
 51
90.00000000000005
  0
ARC
  5
10EB
330
18
100
AcDbEntity
  8
1
  6
Continuous
100
AcDbCircle
 10
259.0583931434967
 20
118.4339214174147
 30
0.0
 40
4.000000189989841
100
AcDbArc
 50
90.00000000000005
 51
139.9947991151299
  0
ARC
  5
10ED
330
18
100
AcDbEntity
  8
1
  6
Continuous
100
AcDbCircle
 10
248.3345873393832
 20
127.4339218448918
 30
0.0
 40
10.00000047497452
100
AcDbArc
 50
297.931479750911
 51
319.9947991151302
  0
LINE
  5
117A
330
18
100
AcDbEntity
  8
2
  6
Continuous
100
AcDbLine
 10
200.8335724240687
 20
129.913422212749
 30
0.0
 11
200.5335734186282
 21
129.9134222341775
 31
0.0
  0
LINE
  5
117B
330
18
100
AcDbEntity
  8
2
  6
Continuous
100
AcDbLine
 10
200.8335724240687
 20
124.9544214770345
 30
0.0
 11
200.5335734186282
 21
124.9544214556061
 31
0.0
  0
LINE
  5
11A1
330
18
100
AcDbEntity
  8
2
  6
Continuous
100
AcDbLine
 10
28.92653533253889
 20
129.913422212749
 30
0.0
 11
29.22653433797936
 21
129.9134222341775
 31
0.0
  0
LINE
  5
11A2
330
18
100
AcDbEntity
  8
2
  6
Continuous
100
AcDbLine
 10
28.92653533253889
 20
124.9544214770345
 30
0.0
 11
29.22653433797936
 21
124.9544214556061
 31
0.0
  0
LINE
  5
11A3
330
18
100
AcDbEntity
  8
2
  6
Continuous
100
AcDbLine
 10
117.359554246161
 20
213.2428814042111
 30
0.0
 11
117.3595542675894
 21
212.9428823987706
 31
0.0
  0
LINE
  5
11A4
330
18
100
AcDbEntity
  8
2
  6
Continuous
100
AcDbLine
 10
112.4005535104465
 20
213.2428814042111
 30
0.0
 11
112.400553489018
 21
212.9428823987706
 31
0.0
  0
LINE
  5
11A5
330
18
100
AcDbEntity
  8
2
  6
Continuous
100
AcDbLine
 10
117.3595540247325
 20
41.92496114999271
 30
0.0
 11
117.359554046161
 21
41.62496206007767
 31
0.0
  0
LINE
  5
11A6
330
18
100
AcDbEntity
  8
2
  6
Continuous
100
AcDbLine
 10
112.400553731875
 20
41.92496114999271
 30
0.0
 11
112.4005537104465
 21
41.62496198611949
 31
0.0
  0
ARC
  5
1248
330
18
100
AcDbEntity
  8
1
  6
Continuous
100
AcDbCircle
 10
248.3345873393832
 20
127.4339218448918
 30
0.0
 40
4.000000189989809
100
AcDbArc
 50
284.1337367207046
 51
75.86626327929541
  0
LINE
  5
1249
330
18
100
AcDbEntity
  8
1
  6
Continuous
100
AcDbLine
 10
249.0845873750063
 20
128.4339218923892
 30
0.0
 11
249.0845873750063
 21
131.9187124138169
 31
0.0
  0
LINE
  5
124A
330
18
100
AcDbEntity
  8
1
  6
Continuous
100
AcDbLine
 10
247.5845873037601
 20
131.9187124138169
 30
0.0
 11
247.5845873037601
 21
128.4339218923892
 31
0.0
  0
LINE
  5
124B
330
18
100
AcDbEntity
  8
1
  6
Continuous
100
AcDbLine
 10
248.8345873631319
 20
128.2339218828897
 30
0.0
 11
248.8345873631319
 21
129.3839219375118
 31
0.0
  0
LINE
  5
124C
330
18
100
AcDbEntity
  8
1
  6
Continuous
100
AcDbLine
 10
247.8345873156345
 20
129.3839219375118
 30
0.0
 11
247.8345873156345
 21
128.2339218828897
 31
0.0
  0
LINE
  5
124D
330
18
100
AcDbEntity
  8
1
  6
Continuous
100
AcDbLine
 10
253.8595876018067
 20
127.4339218448919
 30
0.0
 11
251.0970874705949
 21
132.2187124280661
 31
0.0
  0
LINE
  5
124E
330
18
100
AcDbEntity
  8
1
  6
Continuous
100
AcDbLine
 10
245.5720872081712
 20
132.2187124280663
 30
0.0
 11
242.8095870769593
 21
127.433921844892
 31
0.0
  0
ARC
  5
124F
330
18
100
AcDbEntity
  8
1
  6
Continuous
100
AcDbCircle
 10
248.3345873393832
 20
127.4339218448918
 30
0.0
 40
4.000000189989809
100
AcDbArc
 50
104.1337367207046
 51
255.8662632792922
  0
LINE
  5
1250
330
18
100
AcDbEntity
  8
1
  6
Continuous
100
AcDbLine
 10
242.8095870769597
 20
127.4339218448917
 30
0.0
 11
245.5720872081714
 21
122.6491312617174
 31
0.0
  0
LINE
  5
1251
330
18
100
AcDbEntity
  8
1
  6
Continuous
100
AcDbLine
 10
251.0970874705951
 20
122.6491312617173
 30
0.0
 11
253.859587601807
 21
127.4339218448915
 31
0.0
  0
LINE
  5
1252
330
18
100
AcDbEntity
  8
1
  6
Continuous
100
AcDbLine
 10
247.8345873156345
 20
126.6339218068938
 30
0.0
 11
247.8345873156345
 21
125.4839217522717
 31
0.0
  0
LINE
  5
1253
330
18
100
AcDbEntity
  8
1
  6
Continuous
100
AcDbLine
 10
248.8345873631319
 20
125.4839217522717
 30
0.0
 11
248.8345873631319
 21
126.6339218068938
 31
0.0
  0
LINE
  5
1254
330
18
100
AcDbEntity
  8
1
  6
Continuous
100
AcDbLine
 10
248.1345873298837
 20
125.1839217380225
 30
0.0
 11
248.5345873488827
 21
125.1839217380225
 31
0.0
  0
ARC
  5
1255
330
18
100
AcDbEntity
  8
1
  6
Continuous
100
AcDbCircle
 10
248.1345873298837
 20
125.4839217522717
 30
0.0
 40
0.3000000142492396
100
AcDbArc
 50
180.0
 51
269.9999999999967
  0
ARC
  5
1256
330
18
100
AcDbEntity
  8
1
  6
Continuous
100
AcDbCircle
 10
248.5345873488827
 20
125.4839217522717
 30
0.0
 40
0.3000000142492363
100
AcDbArc
 50
270.0
 51
0.0
  0
ARC
  5
1257
330
18
100
AcDbEntity
  8
1
  6
Continuous
100
AcDbCircle
 10
249.584587398755
 20
126.4339217973943
 30
0.0
 40
0.5000000237487253
100
AcDbArc
 50
90.0
 51
180.0
  0
ARC
  5
1258
330
18
100
AcDbEntity
  8
1
  6
Continuous
100
AcDbCircle
 10
249.584587398755
 20
128.4339218923892
 30
0.0
 40
0.5000000237487276
100
AcDbArc
 50
180.0000000000016
 51
269.9999999999967
  0
ARC
  5
1259
330
18
100
AcDbEntity
  8
1
  6
Continuous
100
AcDbCircle
 10
249.1345873773811
 20
126.6339218068938
 30
0.0
 40
0.3000000142492361
100
AcDbArc
 50
90.0
 51
180.0
  0
ARC
  5
125A
330
18
100
AcDbEntity
  8
1
  6
Continuous
100
AcDbCircle
 10
249.1345873773811
 20
128.2339218828897
 30
0.0
 40
0.3000000142492361
100
AcDbArc
 50
180.0
 51
270.0
  0
LINE
  5
125B
330
18
100
AcDbEntity
  8
1
  6
Continuous
100
AcDbLine
 10
246.0845872325139
 20
127.2339218353923
 30
0.0
 11
246.0845872325139
 21
127.6339218544245
 31
0.0
  0
LINE
  5
125C
330
18
100
AcDbEntity
  8
1
  6
Continuous
100
AcDbLine
 10
246.3845872467631
 20
126.933921821143
 30
0.0
 11
247.5345873013852
 21
126.933921821143
 31
0.0
  0
LINE
  5
125D
330
18
100
AcDbEntity
  8
1
  6
Continuous
100
AcDbLine
 10
247.5345873013852
 20
127.9339218686405
 30
0.0
 11
246.3845872467631
 21
127.9339218686405
 31
0.0
  0
ARC
  5
125E
330
18
100
AcDbEntity
  8
1
  6
Continuous
100
AcDbCircle
 10
246.3845872467631
 20
127.6339218543913
 30
0.0
 40
0.3000000142492355
100
AcDbArc
 50
90.0
 51
179.9999999936409
  0
ARC
  5
125F
330
18
100
AcDbEntity
  8
1
  6
Continuous
100
AcDbCircle
 10
246.3845872467631
 20
127.2339218353923
 30
0.0
 40
0.3000000142492411
100
AcDbArc
 50
180.0
 51
270.0
  0
ARC
  5
1260
330
18
100
AcDbEntity
  8
1
  6
Continuous
100
AcDbCircle
 10
247.0845872800114
 20
128.4339218923892
 30
0.0
 40
0.5000000237487257
100
AcDbArc
 50
269.9999999668839
 51
359.9999999999983
  0
ARC
  5
1261
330
18
100
AcDbEntity
  8
1
  6
Continuous
100
AcDbCircle
 10
247.0845872800114
 20
126.4339217973943
 30
0.0
 40
0.5000000237487221
100
AcDbArc
 50
0.0
 51
89.99999999999673
  0
ARC
  5
1262
330
18
100
AcDbEntity
  8
1
  6
Continuous
100
AcDbCircle
 10
247.5345873013852
 20
126.6339218068938
 30
0.0
 40
0.3000000142492361
100
AcDbArc
 50
0.0
 51
90.0
  0
ARC
  5
1263
330
18
100
AcDbEntity
  8
1
  6
Continuous
100
AcDbCircle
 10
247.5345873013852
 20
128.2339218828897
 30
0.0
 40
0.3000000142492361
100
AcDbArc
 50
270.0
 51
0.0
  0
LINE
  5
1264
330
18
100
AcDbEntity
  8
1
  6
Continuous
100
AcDbLine
 10
250.5845874462524
 20
127.6339218543913
 30
0.0
 11
250.5845874462524
 21
127.2339218353779
 31
0.0
  0
LINE
  5
1265
330
18
100
AcDbEntity
  8
1
  6
Continuous
100
AcDbLine
 10
249.1345873773811
 20
126.933921821143
 30
0.0
 11
250.2845874320032
 21
126.933921821143
 31
0.0
  0
LINE
  5
1266
330
18
100
AcDbEntity
  8
1
  6
Continuous
100
AcDbLine
 10
250.2845874320032
 20
127.9339218686405
 30
0.0
 11
249.1345873773811
 21
127.9339218686405
 31
0.0
  0
ARC
  5
1267
330
18
100
AcDbEntity
  8
1
  6
Continuous
100
AcDbCircle
 10
250.2845874320032
 20
127.6339218543913
 30
0.0
 40
0.3000000142492345
100
AcDbArc
 50
359.9999999999983
 51
90.0
  0
ARC
  5
1268
330
18
100
AcDbEntity
  8
1
  6
Continuous
100
AcDbCircle
 10
250.2845874320032
 20
127.2339218353923
 30
0.0
 40
0.300000014249235
100
AcDbArc
 50
270.0
 51
359.999999997256
  0
ARC
  5
1269
330
18
100
AcDbEntity
  8
1
  6
Continuous
100
AcDbCircle
 10
249.3855012103853
 20
123.2626370259147
 30
0.0
 40
0.3016321456708661
100
AcDbArc
 50
104.2346928237735
 51
176.0450491852101
  0
ARC
  5
126A
330
18
100
AcDbEntity
  8
1
  6
Continuous
100
AcDbCircle
 10
247.2836850574077
 20
123.2626557616373
 30
0.0
 40
0.3016111355945477
100
AcDbArc
 50
3.929056151774443
 51
75.76656592642402
  0
LINE
  5
126B
330
18
100
AcDbEntity
  8
1
  6
Continuous
100
AcDbLine
 10
249.3845873892555
 20
122.6491312617174
 30
0.0
 11
247.2845872895109
 21
122.6491312617174
 31
0.0
  0
ARC
  5
126C
330
18
100
AcDbEntity
  8
1
  6
Continuous
100
AcDbCircle
 10
249.3845873892555
 20
122.9491312759667
 30
0.0
 40
0.3000000142492399
100
AcDbArc
 50
180.0
 51
269.9999999999967
  0
ARC
  5
126D
330
18
100
AcDbEntity
  8
1
  6
Continuous
100
AcDbCircle
 10
247.2845872895109
 20
122.9491312759666
 30
0.0
 40
0.3000000142492372
100
AcDbArc
 50
269.9999999999967
 51
0.0
  0
LINE
  5
126E
330
18
100
AcDbEntity
  8
1
  6
Continuous
100
AcDbLine
 10
249.3845873892555
 20
122.6491312617174
 30
0.0
 11
251.0970874705949
 21
122.6491312617174
 31
0.0
  0
LINE
  5
126F
330
18
100
AcDbEntity
  8
1
  6
Continuous
100
AcDbLine
 10
247.5845873037601
 20
126.4339217973943
 30
0.0
 11
247.5845873037601
 21
122.9491312759666
 31
0.0
  0
LINE
  5
1270
330
18
100
AcDbEntity
  8
1
  6
Continuous
100
AcDbLine
 10
249.0845873750063
 20
122.9491312759667
 30
0.0
 11
249.0845873750063
 21
126.4339217973943
 31
0.0
  0
LINE
  5
1271
330
18
100
AcDbEntity
  8
1
  6
Continuous
100
AcDbLine
 10
245.5720872081715
 20
122.6491312617174
 30
0.0
 11
247.2845872895109
 21
122.6491312617174
 31
0.0
  0
LINE
  5
1272
330
18
100
AcDbEntity
  8
1
  6
Continuous
100
AcDbLine
 10
248.5345873488827
 20
129.683921951761
 30
0.0
 11
248.1345873298837
 21
129.683921951761
 31
0.0
  0
ARC
  5
1273
330
18
100
AcDbEntity
  8
1
  6
Continuous
100
AcDbCircle
 10
248.5345873488827
 20
129.3839219375118
 30
0.0
 40
0.3000000142492396
100
AcDbArc
 50
0.0
 51
89.99999999999673
  0
ARC
  5
1274
330
18
100
AcDbEntity
  8
1
  6
Continuous
100
AcDbCircle
 10
248.1345873298837
 20
129.3839219375118
 30
0.0
 40
0.3000000142492363
100
AcDbArc
 50
90.0
 51
179.9999999999983
  0
LINE
  5
1275
330
18
100
AcDbEntity
  8
1
  6
Continuous
100
AcDbLine
 10
247.2845872895109
 20
132.2187124280661
 30
0.0
 11
249.3845873892555
 21
132.2187124280661
 31
0.0
  0
ARC
  5
1276
330
18
100
AcDbEntity
  8
1
  6
Continuous
100
AcDbCircle
 10
249.3845873892555
 20
131.9187124138169
 30
0.0
 40
0.3000000142492354
100
AcDbArc
 50
90.00000000000325
 51
180.0
  0
ARC
  5
1277
330
18
100
AcDbEntity
  8
1
  6
Continuous
100
AcDbCircle
 10
247.2845872895109
 20
131.9187124138169
 30
0.0
 40
0.3000000142492349
100
AcDbArc
 50
0.0
 51
90.0
  0
LINE
  5
1278
330
18
100
AcDbEntity
  8
1
  6
Continuous
100
AcDbLine
 10
251.0970874705949
 20
132.2187124280661
 30
0.0
 11
249.3845873892555
 21
132.2187124280661
 31
0.0
  0
ARC
  5
1279
330
18
100
AcDbEntity
  8
1
  6
Continuous
100
AcDbCircle
 10
247.2836850574076
 20
131.6051879281462
 30
0.0
 40
0.3016111355945477
100
AcDbArc
 50
284.2334340735758
 51
356.0709438482255
  0
ARC
  5
127A
330
18
100
AcDbEntity
  8
1
  6
Continuous
100
AcDbCircle
 10
249.3855012103852
 20
131.6052066638689
 30
0.0
 40
0.3016321456708661
100
AcDbArc
 50
183.9549508147898
 51
255.7653071762267
  0
LINE
  5
127B
330
18
100
AcDbEntity
  8
1
  6
Continuous
100
AcDbLine
 10
247.2845872895109
 20
132.2187124280661
 30
0.0
 11
245.5720872081715
 21
132.2187124280661
 31
0.0
  0
LINE
  5
127C
330
18
100
AcDbEntity
  8
4
  6
CENTER
 48
0.2
100
AcDbLine
 10
248.3345873393832
 20
114.4339214649122
 30
0.0
 11
248.3345873393832
 21
140.4339222248714
 31
0.0
  0
LINE
  5
127D
330
18
100
AcDbEntity
  8
4
  6
CENTER
 48
0.2
100
AcDbLine
 10
225.3345863894342
 20
127.4339218448918
 30
0.0
 11
271.3345882893322
 21
127.4339218448918
 31
0.0
  0
ENDSEC
  0
SECTION
  2
OBJECTS
  0
DICTIONARY
  5
C
330
0
100
AcDbDictionary
281
     1
  3
ACAD_CIP_PREVIOUS_PRODUCT_INFO
350
1300
  3
ACAD_COLOR
350
12E3
  3
ACAD_DETAILVIEWSTYLE
350
12FC
  3
ACAD_GROUP
350
D
  3
ACAD_LAYOUT
350
94
  3
ACAD_MATERIAL
350
12B1
  3
ACAD_MLEADERSTYLE
350
12F8
  3
ACAD_MLINESTYLE
350
1B
  3
ACAD_PLOTSETTINGS
350
95
  3
ACAD_PLOTSTYLENAME
350
12AF
  3
ACAD_SCALELIST
350
12E6
  3
ACAD_SECTIONVIEWSTYLE
350
12FA
  3
ACAD_TABLESTYLE
350
12E4
  3
ACAD_VISUALSTYLE
350
12CA
  3
ACDB_RECOMPOSE_DATA
350
131E
  3
AcDbVariableDictionary
350
1311
  3
CONTENTDICTIONARY
350
3D
  3
DWGPROPS
350
131F
  0
DICTIONARY
  5
1301
330
E
100
AcDbDictionary
280
     1
281
     1
  3
ADSK_XREC_LAYER_RECONCILED
360
1302
  0
DICTIONARY
  5
1303
330
4E
100
AcDbDictionary
280
     1
281
     1
  3
ADSK_XREC_LAYER_RECONCILED
360
1304
  0
DICTIONARY
  5
1305
330
4F
100
AcDbDictionary
280
     1
281
     1
  3
ADSK_XREC_LAYER_RECONCILED
360
1306
  0
DICTIONARY
  5
1307
330
50
100
AcDbDictionary
280
     1
281
     1
  3
ADSK_XREC_LAYER_RECONCILED
360
1308
  0
DICTIONARY
  5
1309
330
51
100
AcDbDictionary
280
     1
281
     1
  3
ADSK_XREC_LAYER_RECONCILED
360
130A
  0
DICTIONARY
  5
130B
330
52
100
AcDbDictionary
280
     1
281
     1
  3
ADSK_XREC_LAYER_RECONCILED
360
130C
  0
DICTIONARY
  5
130D
330
53
100
AcDbDictionary
280
     1
281
     1
  3
ADSK_XREC_LAYER_RECONCILED
360
130E
  0
DICTIONARY
  5
130F
330
54
100
AcDbDictionary
280
     1
281
     1
  3
ADSK_XREC_LAYER_RECONCILED
360
1310
  0
DICTIONARY
  5
12AA
330
18
100
AcDbDictionary
281
     1
  3
ACAD_LAYOUTSELFREF
350
12AB
  0
DICTIONARY
  5
12A8
330
15
100
AcDbDictionary
281
     1
  3
ACAD_LAYOUTSELFREF
350
12A9
  0
XRECORD
  5
1300
102
{ACAD_REACTORS
330
C
102
}
330
C
100
AcDbXrecord
280
     1
300
ACDLT
300
2014
300
ACDLT_F_S
  0
DICTIONARY
  5
12E3
102
{ACAD_REACTORS
330
C
102
}
330
C
100
AcDbDictionary
281
     1
  0
DICTIONARY
  5
12FC
102
{ACAD_REACTORS
330
C
102
}
330
C
100
AcDbDictionary
281
     1
  3
Imperial24
350
12FD
  0
DICTIONARY
  5
D
102
{ACAD_REACTORS
330
C
102
}
330
C
100
AcDbDictionary
281
     1
  0
DICTIONARY
  5
94
102
{ACAD_REACTORS
330
C
102
}
330
C
100
AcDbDictionary
281
     1
  3
Model
350
12FE
  3
レイアウト1
350
12FF
  0
DICTIONARY
  5
12B1
102
{ACAD_REACTORS
330
C
102
}
330
C
100
AcDbDictionary
281
     1
  3
ByBlock
350
12BA
  3
ByLayer
350
12B2
  3
Global
350
12C2
  0
DICTIONARY
  5
12F8
102
{ACAD_REACTORS
330
C
102
}
330
C
100
AcDbDictionary
281
     1
  3
Standard
350
12F9
  0
DICTIONARY
  5
1B
102
{ACAD_REACTORS
330
C
102
}
330
C
100
AcDbDictionary
281
     1
  3
STANDARD
350
1C
  0
DICTIONARY
  5
95
102
{ACAD_REACTORS
330
C
102
}
330
C
100
AcDbDictionary
281
     1
  0
ACDBDICTIONARYWDFLT
  5
12AF
102
{ACAD_REACTORS
330
C
102
}
330
C
100
AcDbDictionary
281
     1
  3
Normal
350
12B0
100
AcDbDictionaryWithDefault
340
12B0
  0
DICTIONARY
  5
12E6
102
{ACAD_REACTORS
330
C
102
}
330
C
100
AcDbDictionary
281
     1
  3
A0
350
12E7
  3
A1
350
12E8
  3
A2
350
12E9
  3
A3
350
12EA
  3
A4
350
12EB
  3
A5
350
12EC
  3
A6
350
12ED
  3
A7
350
12EE
  3
A8
350
12EF
  3
A9
350
12F0
  3
B0
350
12F1
  3
B1
350
12F2
  3
B2
350
12F3
  3
B3
350
12F4
  3
B4
350
12F5
  3
B5
350
12F6
  3
B6
350
12F7
  0
DICTIONARY
  5
12FA
102
{ACAD_REACTORS
330
C
102
}
330
C
100
AcDbDictionary
281
     1
  3
Imperial24
350
12FB
  0
DICTIONARY
  5
12E4
102
{ACAD_REACTORS
330
C
102
}
330
C
100
AcDbDictionary
281
     1
  3
Standard
350
12E5
  0
DICTIONARY
  5
12CA
102
{ACAD_REACTORS
330
C
102
}
330
C
100
AcDbDictionary
281
     1
  3
2dWireframe
350
12D0
  3
Basic
350
12CF
  3
Brighten
350
12D6
  3
ColorChange
350
12DA
  3
Conceptual
350
12D3
  3
Dim
350
12D5
  3
EdgeColorOff
350
12E2
  3
Facepattern
350
12D9
  3
Flat
350
12CB
  3
FlatWithEdges
350
12CC
  3
Gouraud
350
12CD
  3
GouraudWithEdges
350
12CE
  3
Hidden
350
12D2
  3
JitterOff
350
12E0
  3
Linepattern
350
12D8
  3
OverhangOff
350
12E1
  3
Realistic
350
12D4
  3
Shaded
350
12DF
  3
Shaded with edges
350
12DE
  3
Shades of Gray
350
12DB
  3
Sketchy
350
12DC
  3
Thicken
350
12D7
  3
Wireframe
350
12D1
  3
X-Ray
350
12DD
  0
XRECORD
  5
131E
102
{ACAD_REACTORS
330
C
102
}
330
C
100
AcDbXrecord
280
     1
 90
        1
330
12E5
  0
DICTIONARY
  5
1311
102
{ACAD_REACTORS
330
C
102
}
330
C
100
AcDbDictionary
281
     1
  3
CANNOSCALE
350
1316
  3
CMLEADERSTYLE
350
1313
  3
CTABLESTYLE
350
1312
  3
CVIEWDETAILSTYLE
350
1314
  3
CVIEWSECTIONSTYLE
350
1315
  3
DIMASSOC
350
1319
  3
INDEXCTL
350
1318
  3
SORTENTS
350
1317
  3
XCLIPFRAME
350
131A
  0
DICTIONARY
  5
3D
102
{ACAD_REACTORS
330
C
102
}
330
C
100
AcDbDictionary
281
     1
  0
XRECORD
  5
131F
102
{ACAD_REACTORS
330
C
102
}
330
C
100
AcDbXrecord
280
     1
  1
DWGPROPS COOKIE
  2

  3

  4

  6

  7

  8
Yoshitsune
  9

300
=
301
=
302
=
303
=
304
=
305
=
306
=
307
=
308
=
309
=
 40
0.1633788657407407
 41
2453733.604438831
 42
2457192.700480556
  1

 90
        0
  0
XRECORD
  5
1302
102
{ACAD_REACTORS
330
1301
102
}
330
1301
100
AcDbXrecord
280
     1
290
     1
  0
XRECORD
  5
1304
102
{ACAD_REACTORS
330
1303
102
}
330
1303
100
AcDbXrecord
280
     1
290
     1
  0
XRECORD
  5
1306
102
{ACAD_REACTORS
330
1305
102
}
330
1305
100
AcDbXrecord
280
     1
290
     1
  0
XRECORD
  5
1308
102
{ACAD_REACTORS
330
1307
102
}
330
1307
100
AcDbXrecord
280
     1
290
     1
  0
XRECORD
  5
130A
102
{ACAD_REACTORS
330
1309
102
}
330
1309
100
AcDbXrecord
280
     1
290
     1
  0
XRECORD
  5
130C
102
{ACAD_REACTORS
330
130B
102
}
330
130B
100
AcDbXrecord
280
     1
290
     1
  0
XRECORD
  5
130E
102
{ACAD_REACTORS
330
130D
102
}
330
130D
100
AcDbXrecord
280
     1
290
     1
  0
XRECORD
  5
1310
102
{ACAD_REACTORS
330
130F
102
}
330
130F
100
AcDbXrecord
280
     1
290
     1
  0
XRECORD
  5
12AB
102
{ACAD_REACTORS
330
12AA
102
}
330
12AA
100
AcDbXrecord
280
     1
340
18
  0
XRECORD
  5
12A9
102
{ACAD_REACTORS
330
12A8
102
}
330
12A8
100
AcDbXrecord
280
     1
340
15
  0
ACDBDETAILVIEWSTYLE
  5
12FD
102
{ACAD_XDICTIONARY
360
1357
102
}
102
{ACAD_REACTORS
330
12FC
102
}
330
12FC
100
AcDbModelDocViewStyle
 70
     0
  3
Imperial24
290
     0
100
AcDbDetailViewStyle
 70
     0
 71
     0
 90
        3
 71
     1
340
F
 40
0.24
340
0
 40
0.24
300

 40
0.36
280
     3
 71
     2
340
14
 90
       25
 71
     3
340
F
 40
0.24
 90
        1
 40
0.75
 90
        1
300
%<\AcVar ViewType \f "%tc1">% %<\AcVar ViewDetailId>%\PSCALE %<\AcVar ViewScale \f "%sn">%
 71
     4
340
14
 90
       25
340
14
 90
       25
280
     0
  0
LAYOUT
  5
12FE
102
{ACAD_XDICTIONARY
360
1359
102
}
102
{ACAD_REACTORS
330
94
102
}
330
94
100
AcDbPlotSettings
  1

  2
Canon LBP9100C
  4

  6

 40
0.0
 41
0.0
 42
0.0
 43
0.0
 44
0.0
 45
0.0
 46
0.0
 47
0.0
 48
0.0
 49
0.0
140
0.0
141
0.0
142
1.0
143
1.0
 70
  1712
 72
     0
 73
     0
 74
     0
  7

 75
     0
147
1.0
148
0.0
149
0.0
100
AcDbLayout
  1
Model
 70
     1
 71
     0
 10
0.0
 20
0.0
 11
12.0
 21
9.0
 12
0.0
 22
0.0
 32
0.0
 14
0.0
 24
0.0
 34
0.0
 15
0.0
 25
0.0
 35
0.0
146
0.0
 13
0.0
 23
0.0
 33
0.0
 16
1.0
 26
0.0
 36
0.0
 17
0.0
 27
1.0
 37
0.0
 76
     0
330
18
331
12A7
  0
LAYOUT
  5
12FF
102
{ACAD_XDICTIONARY
360
135B
102
}
102
{ACAD_REACTORS
330
94
102
}
330
94
100
AcDbPlotSettings
  1

  2
Canon LBP9100C
  4

  6

 40
0.0
 41
0.0
 42
0.0
 43
0.0
 44
0.0
 45
0.0
 46
0.0
 47
0.0
 48
0.0
 49
0.0
140
0.0
141
0.0
142
1.0
143
1.0
 70
   688
 72
     0
 73
     0
 74
     5
  7

 75
    16
147
1.0
148
0.0
149
0.0
100
AcDbLayout
  1
レイアウト1
 70
     1
 71
     1
 10
-3.757080078125
 20
-3.757083177566528
 11
293.2112426757812
 21
206.2162444591522
 12
0.0
 22
0.0
 32
0.0
 14
27.8447512626648
 24
20.24591643810271
 34
0.0
 15
250.6027613639831
 25
182.2132479429244
 35
0.0
146
0.0
 13
0.0
 23
0.0
 33
0.0
 16
1.0
 26
0.0
 36
0.0
 17
0.0
 27
1.0
 37
0.0
 76
     0
330
15
  0
MATERIAL
  5
12BA
102
{ACAD_XDICTIONARY
360
12BB
102
}
102
{ACAD_REACTORS
330
12B1
102
}
330
12B1
100
AcDbMaterial
  1
ByBlock
 72
     0
 43
0.0208333333333333
 43
0.0
 43
0.0
 43
0.0
 43
0.0
 43
0.0208333333333333
 43
0.0
 43
0.0
 43
0.0
 43
0.0
 43
1.0
 43
0.0
 43
0.0
 43
0.0
 43
0.0
 43
1.0
 77
     0
 47
0.0208333333333333
 47
0.0
 47
0.0
 47
0.0
 47
0.0
 47
0.0208333333333333
 47
0.0
 47
0.0
 47
0.0
 47
0.0
 47
1.0
 47
0.0
 47
0.0
 47
0.0
 47
0.0
 47
1.0
171
     0
 49
0.0208333333333333
 49
0.0
 49
0.0
 49
0.0
 49
0.0
 49
0.0208333333333333
 49
0.0
 49
0.0
 49
0.0
 49
0.0
 49
1.0
 49
0.0
 49
0.0
 49
0.0
 49
0.0
 49
1.0
175
     0
142
0.0208333333333333
142
0.0
142
0.0
142
0.0
142
0.0
142
0.0208333333333333
142
0.0
142
0.0
142
0.0
142
0.0
142
1.0
142
0.0
142
0.0
142
0.0
142
0.0
142
1.0
179
     0
144
0.0208333333333333
144
0.0
144
0.0
144
0.0
144
0.0
144
0.0208333333333333
144
0.0
144
0.0
144
0.0
144
0.0
144
1.0
144
0.0
144
0.0
144
0.0
144
0.0
144
1.0
147
0.0208333333333333
147
0.0
147
0.0
147
0.0
147
0.0
147
0.0208333333333333
147
0.0
147
0.0
147
0.0
147
0.0
147
1.0
147
0.0
147
0.0
147
0.0
147
0.0
147
1.0
  0
MATERIAL
  5
12B2
102
{ACAD_XDICTIONARY
360
12B3
102
}
102
{ACAD_REACTORS
330
12B1
102
}
330
12B1
100
AcDbMaterial
  1
ByLayer
 72
     0
 43
0.0208333333333333
 43
0.0
 43
0.0
 43
0.0
 43
0.0
 43
0.0208333333333333
 43
0.0
 43
0.0
 43
0.0
 43
0.0
 43
1.0
 43
0.0
 43
0.0
 43
0.0
 43
0.0
 43
1.0
 77
     0
 47
0.0208333333333333
 47
0.0
 47
0.0
 47
0.0
 47
0.0
 47
0.0208333333333333
 47
0.0
 47
0.0
 47
0.0
 47
0.0
 47
1.0
 47
0.0
 47
0.0
 47
0.0
 47
0.0
 47
1.0
171
     0
 49
0.0208333333333333
 49
0.0
 49
0.0
 49
0.0
 49
0.0
 49
0.0208333333333333
 49
0.0
 49
0.0
 49
0.0
 49
0.0
 49
1.0
 49
0.0
 49
0.0
 49
0.0
 49
0.0
 49
1.0
175
     0
142
0.0208333333333333
142
0.0
142
0.0
142
0.0
142
0.0
142
0.0208333333333333
142
0.0
142
0.0
142
0.0
142
0.0
142
1.0
142
0.0
142
0.0
142
0.0
142
0.0
142
1.0
179
     0
144
0.0208333333333333
144
0.0
144
0.0
144
0.0
144
0.0
144
0.0208333333333333
144
0.0
144
0.0
144
0.0
144
0.0
144
1.0
144
0.0
144
0.0
144
0.0
144
0.0
144
1.0
147
0.0208333333333333
147
0.0
147
0.0
147
0.0
147
0.0
147
0.0208333333333333
147
0.0
147
0.0
147
0.0
147
0.0
147
1.0
147
0.0
147
0.0
147
0.0
147
0.0
147
1.0
  0
MATERIAL
  5
12C2
102
{ACAD_XDICTIONARY
360
12C3
102
}
102
{ACAD_REACTORS
330
12B1
102
}
330
12B1
100
AcDbMaterial
  1
Global
 72
     0
 43
0.0208333333333333
 43
0.0
 43
0.0
 43
0.0
 43
0.0
 43
0.0208333333333333
 43
0.0
 43
0.0
 43
0.0
 43
0.0
 43
1.0
 43
0.0
 43
0.0
 43
0.0
 43
0.0
 43
1.0
 77
     0
 47
0.0208333333333333
 47
0.0
 47
0.0
 47
0.0
 47
0.0
 47
0.0208333333333333
 47
0.0
 47
0.0
 47
0.0
 47
0.0
 47
1.0
 47
0.0
 47
0.0
 47
0.0
 47
0.0
 47
1.0
171
     0
 49
0.0208333333333333
 49
0.0
 49
0.0
 49
0.0
 49
0.0
 49
0.0208333333333333
 49
0.0
 49
0.0
 49
0.0
 49
0.0
 49
1.0
 49
0.0
 49
0.0
 49
0.0
 49
0.0
 49
1.0
175
     0
142
0.0208333333333333
142
0.0
142
0.0
142
0.0
142
0.0
142
0.0208333333333333
142
0.0
142
0.0
142
0.0
142
0.0
142
1.0
142
0.0
142
0.0
142
0.0
142
0.0
142
1.0
179
     0
144
0.0208333333333333
144
0.0
144
0.0
144
0.0
144
0.0
144
0.0208333333333333
144
0.0
144
0.0
144
0.0
144
0.0
144
1.0
144
0.0
144
0.0
144
0.0
144
0.0
144
1.0
147
0.0208333333333333
147
0.0
147
0.0
147
0.0
147
0.0
147
0.0208333333333333
147
0.0
147
0.0
147
0.0
147
0.0
147
1.0
147
0.0
147
0.0
147
0.0
147
0.0
147
1.0
  0
MLEADERSTYLE
  5
12F9
102
{ACAD_REACTORS
330
12F8
102
}
330
12F8
100
AcDbMLeaderStyle
170
     2
171
     1
172
     0
 90
        2
 40
0.0
 41
0.0
173
     1
 91
-1056964608
340
12
 92
       -2
290
     1
 42
0.09
291
     1
 43
0.36
  3
Standard
 44
0.18
300

342
F
174
     1
178
     6
175
     1
176
     0
 93
-1056964608
 45
0.18
292
     0
297
     0
 46
0.18
 94
-1056964608
 47
1.0
 49
1.0
140
1.0
293
     1
141
0.0
294
     1
177
     0
142
1.0
295
     0
296
     0
143
0.125
1001
ACAD_MLEADERVER
1070
     2
  0
MLINESTYLE
  5
1C
102
{ACAD_REACTORS
330
1B
102
}
330
1B
100
AcDbMlineStyle
  2
STANDARD
 70
     0
  3

 62
   256
 51
90.0
 52
90.0
 71
     2
 49
0.5
 62
   256
  6
BYLAYER
 49
-0.5
 62
   256
  6
BYLAYER
  0
ACDBPLACEHOLDER
  5
12B0
102
{ACAD_REACTORS
330
12AF
102
}
330
12AF
  0
SCALE
  5
12E7
102
{ACAD_REACTORS
330
12E6
102
}
330
12E6
100
AcDbScale
 70
     0
300
1:1
140
1.0
141
1.0
290
     1
  0
SCALE
  5
12E8
102
{ACAD_REACTORS
330
12E6
102
}
330
12E6
100
AcDbScale
 70
     0
300
1/128" = 1'-0"
140
0.0078125
141
12.0
290
     0
  0
SCALE
  5
12E9
102
{ACAD_REACTORS
330
12E6
102
}
330
12E6
100
AcDbScale
 70
     0
300
1/64" = 1'-0"
140
0.015625
141
12.0
290
     0
  0
SCALE
  5
12EA
102
{ACAD_REACTORS
330
12E6
102
}
330
12E6
100
AcDbScale
 70
     0
300
1/32" = 1'-0"
140
0.03125
141
12.0
290
     0
  0
SCALE
  5
12EB
102
{ACAD_REACTORS
330
12E6
102
}
330
12E6
100
AcDbScale
 70
     0
300
1/16" = 1'-0"
140
0.0625
141
12.0
290
     0
  0
SCALE
  5
12EC
102
{ACAD_REACTORS
330
12E6
102
}
330
12E6
100
AcDbScale
 70
     0
300
3/32" = 1'-0"
140
0.09375
141
12.0
290
     0
  0
SCALE
  5
12ED
102
{ACAD_REACTORS
330
12E6
102
}
330
12E6
100
AcDbScale
 70
     0
300
1/8" = 1'-0"
140
0.125
141
12.0
290
     0
  0
SCALE
  5
12EE
102
{ACAD_REACTORS
330
12E6
102
}
330
12E6
100
AcDbScale
 70
     0
300
3/16" = 1'-0"
140
0.1875
141
12.0
290
     0
  0
SCALE
  5
12EF
102
{ACAD_REACTORS
330
12E6
102
}
330
12E6
100
AcDbScale
 70
     0
300
1/4" = 1'-0"
140
0.25
141
12.0
290
     0
  0
SCALE
  5
12F0
102
{ACAD_REACTORS
330
12E6
102
}
330
12E6
100
AcDbScale
 70
     0
300
3/8" = 1'-0"
140
0.375
141
12.0
290
     0
  0
SCALE
  5
12F1
102
{ACAD_REACTORS
330
12E6
102
}
330
12E6
100
AcDbScale
 70
     0
300
1/2" = 1'-0"
140
0.5
141
12.0
290
     0
  0
SCALE
  5
12F2
102
{ACAD_REACTORS
330
12E6
102
}
330
12E6
100
AcDbScale
 70
     0
300
3/4" = 1'-0"
140
0.75
141
12.0
290
     0
  0
SCALE
  5
12F3
102
{ACAD_REACTORS
330
12E6
102
}
330
12E6
100
AcDbScale
 70
     0
300
1" = 1'-0"
140
1.0
141
12.0
290
     0
  0
SCALE
  5
12F4
102
{ACAD_REACTORS
330
12E6
102
}
330
12E6
100
AcDbScale
 70
     0
300
1-1/2" = 1'-0"
140
1.5
141
12.0
290
     0
  0
SCALE
  5
12F5
102
{ACAD_REACTORS
330
12E6
102
}
330
12E6
100
AcDbScale
 70
     0
300
3" = 1'-0"
140
3.0
141
12.0
290
     0
  0
SCALE
  5
12F6
102
{ACAD_REACTORS
330
12E6
102
}
330
12E6
100
AcDbScale
 70
     0
300
6" = 1'-0"
140
6.0
141
12.0
290
     0
  0
SCALE
  5
12F7
102
{ACAD_REACTORS
330
12E6
102
}
330
12E6
100
AcDbScale
 70
     0
300
1'-0" = 1'-0"
140
12.0
141
12.0
290
     0
  0
ACDBSECTIONVIEWSTYLE
  5
12FB
102
{ACAD_XDICTIONARY
360
1355
102
}
102
{ACAD_REACTORS
330
12FA
102
}
330
12FA
100
AcDbModelDocViewStyle
 70
     0
  3
Imperial24
290
     0
100
AcDbSectionViewStyle
 70
     0
 71
     0
 90
       78
 71
     1
340
F
 40
0.24
340
0
340
0
 40
0.24
300
I, O, Q, S, X, Z
 40
0.48
 90
        3
 40
0.18
 90
        1
 71
     2
340
14
 90
       25
340
14
 90
       50
 40
0.24
 40
0.0
 40
0.24
 71
     3
340
F
 40
0.24
 90
        1
 40
0.75
 90
        1
300
%<\AcVar ViewType \f "%tc1">% %<\AcVar ViewSectionStartId>%-%<\AcVar ViewSectionEndId>%\PSCALE %<\AcVar ViewScale \f "%sn">%
 71
     4
300
ANSI31
 40
1.0
 90
        0
290
     0
290
     0
 90
        6
 40
0.0
 40
1.570796326794896
 40
0.2617993877991494
 40
1.308996938995747
 40
-0.2617993877991494
 40
1.832595714594046
  0
TABLESTYLE
  5
12E5
102
{ACAD_XDICTIONARY
360
131C
102
}
102
{ACAD_REACTORS
330
12E4
102
}
330
12E4
100
AcDbTableStyle
  3
Standard
 70
     0
 71
     0
 40
0.06
 41
0.06
280
     0
281
     0
  7
STANDARD
140
0.18
170
     2
 62
     0
 63
     7
283
     0
274
    -2
284
     1
 64
     0
275
    -2
285
     1
 65
     0
276
    -2
286
     1
 66
     0
277
    -2
287
     1
 67
     0
278
    -2
288
     1
 68
     0
279
    -2
289
     1
 69
     0
  7
STANDARD
140
0.25
170
     5
 62
     0
 63
     7
283
     0
274
    -2
284
     1
 64
     0
275
    -2
285
     1
 65
     0
276
    -2
286
     1
 66
     0
277
    -2
287
     1
 67
     0
278
    -2
288
     1
 68
     0
279
    -2
289
     1
 69
     0
  7
STANDARD
140
0.18
170
     5
 62
     0
 63
     7
283
     0
274
    -2
284
     1
 64
     0
275
    -2
285
     1
 65
     0
276
    -2
286
     1
 66
     0
277
    -2
287
     1
 67
     0
278
    -2
288
     1
 68
     0
279
    -2
289
     1
 69
     0
  0
VISUALSTYLE
  5
12D0
102
{ACAD_XDICTIONARY
360
132D
102
}
102
{ACAD_REACTORS
330
12CA
102
}
330
12CA
100
AcDbVisualStyle
  2
2dWireframe
 70
     4
 71
     0
 72
     2
 73
     0
 90
        0
 40
-0.6
 41
-30.0
 62
     5
 63
     7
 74
     1
 91
        4
 64
     7
 65
   257
 75
     1
175
     1
 42
1.0
 92
        0
 66
   257
 43
1.0
 76
     1
 77
     6
 78
     2
 67
     7
 79
     5
170
     0
171
     0
290
     0
174
     0
 93
        1
 44
0.0
173
     0
291
     0
 45
0.0
1001
ACAD
1000
AcDbSavedByObjectVersion
1070
     0
  0
VISUALSTYLE
  5
12CF
102
{ACAD_XDICTIONARY
360
132B
102
}
102
{ACAD_REACTORS
330
12CA
102
}
330
12CA
100
AcDbVisualStyle
  2
Basic
 70
     7
 71
     1
 72
     0
 73
     1
 90
        0
 40
-0.6
 41
-30.0
 62
     5
 63
     7
 74
     0
 91
        4
 64
     7
 65
   257
 75
     1
175
     1
 42
1.0
 92
        8
 66
     7
 43
1.0
 76
     1
 77
     6
 78
     2
 67
     7
 79
     5
170
     0
171
     0
290
     0
174
     0
 93
        1
 44
0.0
173
     0
291
     1
 45
0.0
1001
ACAD
1000
AcDbSavedByObjectVersion
1070
     0
  0
VISUALSTYLE
  5
12D6
102
{ACAD_XDICTIONARY
360
1339
102
}
102
{ACAD_REACTORS
330
12CA
102
}
330
12CA
100
AcDbVisualStyle
  2
Brighten
 70
    12
 71
     2
 72
     2
 73
     0
 90
        0
 40
-0.6
 41
-30.0
 62
     5
 63
     7
 74
     1
 91
        4
 64
     7
 65
   257
 75
     1
175
     1
 42
1.0
 92
        8
 66
     7
 43
1.0
 76
     1
 77
     6
 78
     2
 67
     7
 79
     5
170
     0
171
     0
290
     0
174
     0
 93
        1
 44
50.0
173
     0
291
     1
 45
0.0
1001
ACAD
1000
AcDbSavedByObjectVersion
1070
     0
  0
VISUALSTYLE
  5
12DA
102
{ACAD_XDICTIONARY
360
1341
102
}
102
{ACAD_REACTORS
330
12CA
102
}
330
12CA
100
AcDbVisualStyle
  2
ColorChange
 70
    16
 71
     2
 72
     2
 73
     3
 90
        0
 40
-0.6
 41
-30.0
 62
     5
 63
     8
 74
     1
 91
        4
 64
     7
 65
   257
 75
     1
175
     1
 42
1.0
 92
        8
 66
     8
 43
1.0
 76
     1
 77
     6
 78
     2
 67
     7
 79
     5
170
     0
171
     0
290
     0
174
     0
 93
        1
 44
0.0
173
     0
291
     1
 45
0.0
1001
ACAD
1000
AcDbSavedByObjectVersion
1070
     0
  0
VISUALSTYLE
  5
12D3
102
{ACAD_XDICTIONARY
360
1333
102
}
102
{ACAD_REACTORS
330
12CA
102
}
330
12CA
100
AcDbVisualStyle
  2
Conceptual
 70
     9
 71
     3
 72
     2
 73
     0
 90
        0
 40
-0.6
 41
-30.0
 62
     5
 63
     7
 74
     2
 91
        2
 64
     7
 65
   257
 75
     1
175
     1
 42
179.0
 92
        8
 66
     7
 43
1.0
 76
     1
 77
     6
 78
     2
 67
     7
 79
     3
170
     0
171
     0
290
     0
174
     0
 93
        1
 44
0.0
173
     0
291
     0
 45
0.0
1001
ACAD
1000
AcDbSavedByObjectVersion
1070
     0
  0
VISUALSTYLE
  5
12D5
102
{ACAD_XDICTIONARY
360
1337
102
}
102
{ACAD_REACTORS
330
12CA
102
}
330
12CA
100
AcDbVisualStyle
  2
Dim
 70
    11
 71
     2
 72
     2
 73
     0
 90
        0
 40
-0.6
 41
-30.0
 62
     5
 63
     7
 74
     1
 91
        4
 64
     7
 65
   257
 75
     1
175
     1
 42
1.0
 92
        8
 66
     7
 43
1.0
 76
     1
 77
     6
 78
     2
 67
     7
 79
     5
170
     0
171
     0
290
     0
174
     0
 93
        1
 44
-50.0
173
     0
291
     1
 45
0.0
1001
ACAD
1000
AcDbSavedByObjectVersion
1070
     0
  0
VISUALSTYLE
  5
12E2
102
{ACAD_XDICTIONARY
360
1351
102
}
102
{ACAD_REACTORS
330
12CA
102
}
330
12CA
100
AcDbVisualStyle
  2
EdgeColorOff
 70
    22
 71
     2
 72
     2
 73
     0
 90
        0
 40
-0.6
 41
-30.0
 62
     5
 63
     7
 74
     1
 91
        4
 64
     7
 65
   257
 75
     1
175
     1
 42
1.0
 92
        8
 66
     7
 43
1.0
 76
     1
 77
     6
 78
     2
 67
     7
 79
     5
170
     0
171
     0
290
     0
174
     0
 93
        1
 44
0.0
173
     0
291
     1
 45
0.0
1001
ACAD
1000
AcDbSavedByObjectVersion
1070
     0
  0
VISUALSTYLE
  5
12D9
102
{ACAD_XDICTIONARY
360
133F
102
}
102
{ACAD_REACTORS
330
12CA
102
}
330
12CA
100
AcDbVisualStyle
  2
Facepattern
 70
    15
 71
     2
 72
     2
 73
     0
 90
        0
 40
-0.6
 41
-30.0
 62
     5
 63
     7
 74
     1
 91
        4
 64
     7
 65
   257
 75
     1
175
     1
 42
1.0
 92
        8
 66
     7
 43
1.0
 76
     1
 77
     6
 78
     2
 67
     7
 79
     5
170
     0
171
     0
290
     0
174
     0
 93
        1
 44
0.0
173
     0
291
     1
 45
0.0
1001
ACAD
1000
AcDbSavedByObjectVersion
1070
     0
  0
VISUALSTYLE
  5
12CB
102
{ACAD_XDICTIONARY
360
1323
102
}
102
{ACAD_REACTORS
330
12CA
102
}
330
12CA
100
AcDbVisualStyle
  2
Flat
 70
     0
 71
     2
 72
     1
 73
     1
 90
        2
 40
-0.6
 41
30.0
 62
     5
 63
     7
 74
     0
 91
        0
 64
     7
 65
   257
 75
     1
175
     1
 42
1.0
 92
        8
 66
     7
 43
1.0
 76
     1
 77
     6
 78
     2
 67
     7
 79
     5
170
     0
171
     0
290
     0
174
     0
 93
       13
 44
0.0
173
     0
291
     1
 45
0.0
1001
ACAD
1000
AcDbSavedByObjectVersion
1070
     0
  0
VISUALSTYLE
  5
12CC
102
{ACAD_XDICTIONARY
360
1325
102
}
102
{ACAD_REACTORS
330
12CA
102
}
330
12CA
100
AcDbVisualStyle
  2
FlatWithEdges
 70
     1
 71
     2
 72
     1
 73
     1
 90
        2
 40
-0.6
 41
30.0
 62
     5
 63
     7
 74
     1
 91
        0
 64
     7
 65
   257
 75
     1
175
     1
 42
1.0
 92
        0
 66
   257
 43
1.0
 76
     1
 77
     6
 78
     2
 67
     7
 79
     5
170
     0
171
     0
290
     0
174
     0
 93
       13
 44
0.0
173
     0
291
     1
 45
0.0
1001
ACAD
1000
AcDbSavedByObjectVersion
1070
     0
  0
VISUALSTYLE
  5
12CD
102
{ACAD_XDICTIONARY
360
1327
102
}
102
{ACAD_REACTORS
330
12CA
102
}
330
12CA
100
AcDbVisualStyle
  2
Gouraud
 70
     2
 71
     2
 72
     2
 73
     1
 90
        2
 40
-0.6
 41
30.0
 62
     5
 63
     7
 74
     0
 91
        0
 64
     7
 65
   257
 75
     1
175
     1
 42
1.0
 92
        0
 66
     7
 43
1.0
 76
     1
 77
     6
 78
     2
 67
     7
 79
     5
170
     0
171
     0
290
     0
174
     0
 93
       13
 44
0.0
173
     0
291
     1
 45
0.0
1001
ACAD
1000
AcDbSavedByObjectVersion
1070
     0
  0
VISUALSTYLE
  5
12CE
102
{ACAD_XDICTIONARY
360
1329
102
}
102
{ACAD_REACTORS
330
12CA
102
}
330
12CA
100
AcDbVisualStyle
  2
GouraudWithEdges
 70
     3
 71
     2
 72
     2
 73
     1
 90
        2
 40
-0.6
 41
30.0
 62
     5
 63
     7
 74
     1
 91
        0
 64
     7
 65
   257
 75
     1
175
     1
 42
1.0
 92
        0
 66
   257
 43
1.0
 76
     1
 77
     6
 78
     2
 67
     7
 79
     5
170
     0
171
     0
290
     0
174
     0
 93
       13
 44
0.0
173
     0
291
     1
 45
0.0
1001
ACAD
1000
AcDbSavedByObjectVersion
1070
     0
  0
VISUALSTYLE
  5
12D2
102
{ACAD_XDICTIONARY
360
1331
102
}
102
{ACAD_REACTORS
330
12CA
102
}
330
12CA
100
AcDbVisualStyle
  2
Hidden
 70
     6
 71
     1
 72
     2
 73
     2
 90
        0
 40
-0.6
 41
-30.0
 62
     5
 63
     7
 74
     2
 91
        2
 64
     7
 65
   257
 75
     2
175
     1
 42
40.0
 92
        0
 66
   257
 43
1.0
 76
     1
 77
     6
 78
     2
 67
     7
 79
     3
170
     0
171
     0
290
     0
174
     0
 93
        1
 44
0.0
173
     0
291
     0
 45
0.0
1001
ACAD
1000
AcDbSavedByObjectVersion
1070
     0
  0
VISUALSTYLE
  5
12E0
102
{ACAD_XDICTIONARY
360
134D
102
}
102
{ACAD_REACTORS
330
12CA
102
}
330
12CA
100
AcDbVisualStyle
  2
JitterOff
 70
    20
 71
     2
 72
     2
 73
     0
 90
        0
 40
-0.6
 41
-30.0
 62
     5
 63
     7
 74
     1
 91
        4
 64
     7
 65
   257
 75
     1
175
     1
 42
1.0
 92
       10
 66
     7
 43
1.0
 76
     1
 77
     6
 78
     2
 67
     7
 79
     5
170
     0
171
     0
290
     0
174
     0
 93
        1
 44
0.0
173
     0
291
     1
 45
0.0
1001
ACAD
1000
AcDbSavedByObjectVersion
1070
     0
  0
VISUALSTYLE
  5
12D8
102
{ACAD_XDICTIONARY
360
133D
102
}
102
{ACAD_REACTORS
330
12CA
102
}
330
12CA
100
AcDbVisualStyle
  2
Linepattern
 70
    14
 71
     2
 72
     2
 73
     0
 90
        0
 40
-0.6
 41
-30.0
 62
     5
 63
     7
 74
     1
 91
        4
 64
     7
 65
   257
 75
     7
175
     7
 42
1.0
 92
        8
 66
     7
 43
1.0
 76
     1
 77
     6
 78
     2
 67
     7
 79
     5
170
     0
171
     0
290
     0
174
     0
 93
        1
 44
0.0
173
     0
291
     1
 45
0.0
1001
ACAD
1000
AcDbSavedByObjectVersion
1070
     0
  0
VISUALSTYLE
  5
12E1
102
{ACAD_XDICTIONARY
360
134F
102
}
102
{ACAD_REACTORS
330
12CA
102
}
330
12CA
100
AcDbVisualStyle
  2
OverhangOff
 70
    21
 71
     2
 72
     2
 73
     0
 90
        0
 40
-0.6
 41
-30.0
 62
     5
 63
     7
 74
     1
 91
        4
 64
     7
 65
   257
 75
     1
175
     1
 42
1.0
 92
        9
 66
     7
 43
1.0
 76
     1
 77
     6
 78
     2
 67
     7
 79
     5
170
     0
171
     0
290
     0
174
     0
 93
        1
 44
0.0
173
     0
291
     1
 45
0.0
1001
ACAD
1000
AcDbSavedByObjectVersion
1070
     0
  0
VISUALSTYLE
  5
12D4
102
{ACAD_XDICTIONARY
360
1335
102
}
102
{ACAD_REACTORS
330
12CA
102
}
330
12CA
100
AcDbVisualStyle
  2
Realistic
 70
     8
 71
     2
 72
     3
 73
     0
 90
        2
 40
-0.6
 41
30.0
 62
     5
 63
     7
 74
     0
 91
        0
 64
     7
 65
   257
 75
     1
175
     1
 42
1.0
 92
        8
 66
   257
 43
1.0
 76
     1
 77
     6
 78
     2
 67
     7
 79
     3
170
     0
171
     0
290
     0
174
     0
 93
       13
 44
0.0
173
     0
291
     0
 45
0.0
1001
ACAD
1000
AcDbSavedByObjectVersion
1070
     0
  0
VISUALSTYLE
  5
12DF
102
{ACAD_XDICTIONARY
360
134B
102
}
102
{ACAD_REACTORS
330
12CA
102
}
330
12CA
100
AcDbVisualStyle
  2
Shaded
 70
    27
 71
     2
 72
     2
 73
     1
 90
        2
 40
-0.6
 41
30.0
 62
     5
 63
     7
 74
     0
 91
        4
 64
     7
 65
   257
 75
     1
175
     1
 42
1.0
 92
        8
 66
   257
 43
1.0
 76
     1
 77
     6
 78
     2
 67
     8
 79
     3
170
     0
171
     0
290
     0
174
     0
 93
        5
 44
0.0
173
     0
291
     0
 45
0.0
1001
ACAD
1000
AcDbSavedByObjectVersion
1070
     0
  0
VISUALSTYLE
  5
12DE
102
{ACAD_XDICTIONARY
360
1349
102
}
102
{ACAD_REACTORS
330
12CA
102
}
330
12CA
100
AcDbVisualStyle
  2
Shaded with edges
 70
    26
 71
     2
 72
     2
 73
     1
 90
        2
 40
-0.6
 41
30.0
 62
     5
 63
     7
 74
     1
 91
       10
 64
     7
 65
   257
 75
     2
175
     1
 42
1.0
 92
        8
 66
   257
 43
1.0
 76
     1
 77
     6
 78
     2
 67
     7
 79
     3
170
     0
171
     0
290
     0
174
     0
 93
        5
 44
0.0
173
     0
291
     0
 45
0.0
1001
ACAD
1000
AcDbSavedByObjectVersion
1070
     0
  0
VISUALSTYLE
  5
12DB
102
{ACAD_XDICTIONARY
360
1343
102
}
102
{ACAD_REACTORS
330
12CA
102
}
330
12CA
100
AcDbVisualStyle
  2
Shades of Gray
 70
    23
 71
     2
 72
     2
 73
     3
 90
        0
 40
-0.6
 41
-30.0
 62
     5
 63
     7
 74
     2
 91
        2
 64
     7
 65
     7
 75
     1
175
     1
 42
40.0
 92
        8
 66
     7
 43
1.0
 76
     1
 77
     6
 78
     2
 67
     7
 79
     3
170
     0
171
     0
290
     0
174
     0
 93
        1
 44
0.0
173
     0
291
     0
 45
0.0
1001
ACAD
1000
AcDbSavedByObjectVersion
1070
     0
  0
VISUALSTYLE
  5
12DC
102
{ACAD_XDICTIONARY
360
1345
102
}
102
{ACAD_REACTORS
330
12CA
102
}
330
12CA
100
AcDbVisualStyle
  2
Sketchy
 70
    24
 71
     1
 72
     2
 73
     2
 90
        0
 40
-0.6
 41
-30.0
 62
     5
 63
     7
 74
     2
 91
        2
 64
     7
 65
     7
 75
     1
175
     1
 42
40.0
 92
       11
 66
     7
 43
1.0
 76
     1
 77
     6
 78
     2
 67
     7
 79
     6
170
     0
171
     0
290
     0
174
     0
 93
        1
 44
0.0
173
     0
291
     0
 45
0.0
1001
ACAD
1000
AcDbSavedByObjectVersion
1070
     0
  0
VISUALSTYLE
  5
12D7
102
{ACAD_XDICTIONARY
360
133B
102
}
102
{ACAD_REACTORS
330
12CA
102
}
330
12CA
100
AcDbVisualStyle
  2
Thicken
 70
    13
 71
     2
 72
     2
 73
     0
 90
        0
 40
-0.6
 41
-30.0
 62
     5
 63
     7
 74
     1
 91
        4
 64
     7
 65
   257
 75
     1
175
     1
 42
1.0
 92
       12
 66
     7
 43
1.0
 76
     1
 77
     6
 78
     2
 67
     7
 79
     5
170
     0
171
     0
290
     0
174
     0
 93
        1
 44
0.0
173
     0
291
     1
 45
0.0
1001
ACAD
1000
AcDbSavedByObjectVersion
1070
     0
  0
VISUALSTYLE
  5
12D1
102
{ACAD_XDICTIONARY
360
132F
102
}
102
{ACAD_REACTORS
330
12CA
102
}
330
12CA
100
AcDbVisualStyle
  2
Wireframe
 70
     5
 71
     0
 72
     2
 73
     0
 90
        0
 40
-0.6
 41
-30.0
 62
     5
 63
     7
 74
     1
 91
        4
 64
     7
 65
   257
 75
     1
175
     1
 42
1.0
 92
        0
 66
   257
 43
1.0
 76
     1
 77
     6
 78
     2
 67
     7
 79
     3
170
     0
171
     0
290
     0
174
     0
 93
        1
 44
0.0
173
     0
291
     0
 45
0.0
1001
ACAD
1000
AcDbSavedByObjectVersion
1070
     0
  0
VISUALSTYLE
  5
12DD
102
{ACAD_XDICTIONARY
360
1347
102
}
102
{ACAD_REACTORS
330
12CA
102
}
330
12CA
100
AcDbVisualStyle
  2
X-Ray
 70
    25
 71
     2
 72
     2
 73
     1
 90
        1
 40
0.5
 41
-30.0
 62
     5
 63
     7
 74
     1
 91
        0
 64
     7
 65
   257
 75
     1
175
     1
 42
1.0
 92
        8
 66
     7
 43
1.0
 76
     1
 77
     6
 78
     2
 67
     7
 79
     3
170
     0
171
     0
290
     0
174
     0
 93
       13
 44
0.0
173
     0
291
     0
 45
0.0
1001
ACAD
1000
AcDbSavedByObjectVersion
1070
     0
  0
DICTIONARYVAR
  5
1316
102
{ACAD_REACTORS
330
1311
102
}
330
1311
100
DictionaryVariables
280
     0
  1
1:1
  0
DICTIONARYVAR
  5
1313
102
{ACAD_REACTORS
330
1311
102
}
330
1311
100
DictionaryVariables
280
     0
  1
STANDARD
  0
DICTIONARYVAR
  5
1312
102
{ACAD_REACTORS
330
1311
102
}
330
1311
100
DictionaryVariables
280
     0
  1
STANDARD
  0
DICTIONARYVAR
  5
1314
102
{ACAD_REACTORS
330
1311
102
}
330
1311
100
DictionaryVariables
280
     0
  1
Imperial24
  0
DICTIONARYVAR
  5
1315
102
{ACAD_REACTORS
330
1311
102
}
330
1311
100
DictionaryVariables
280
     0
  1
Imperial24
  0
DICTIONARYVAR
  5
1319
102
{ACAD_REACTORS
330
1311
102
}
330
1311
100
DictionaryVariables
280
     0
  1
1
  0
DICTIONARYVAR
  5
1318
102
{ACAD_REACTORS
330
1311
102
}
330
1311
100
DictionaryVariables
280
     0
  1
0
  0
DICTIONARYVAR
  5
1317
102
{ACAD_REACTORS
330
1311
102
}
330
1311
100
DictionaryVariables
280
     0
  1
127
  0
DICTIONARYVAR
  5
131A
102
{ACAD_REACTORS
330
1311
102
}
330
1311
100
DictionaryVariables
280
     0
  1
2
  0
DICTIONARY
  5
1357
330
12FD
100
AcDbDictionary
280
     1
281
     1
  3
ACAD_XREC_ROUNDTRIP
360
1358
  0
DICTIONARY
  5
1359
330
12FE
100
AcDbDictionary
280
     1
281
     1
  3
ACAD_XREC_ROUNDTRIP
360
135A
  0
DICTIONARY
  5
135B
330
12FF
100
AcDbDictionary
280
     1
281
     1
  3
ACAD_XREC_ROUNDTRIP
360
135C
  0
DICTIONARY
  5
12BB
330
12BA
100
AcDbDictionary
280
     1
281
     1
  3
ACAD_XREC_ROUNDTRIP
360
1321
  3
BUMPTILE
360
12BD
  3
DIFFUSETILE
360
12BC
  3
OPACITYTILE
360
12C0
  3
REFLECTIONTILE
360
12BF
  3
REFRACTIONTILE
360
12C1
  3
SPECULARTILE
360
12BE
  0
DICTIONARY
  5
12B3
330
12B2
100
AcDbDictionary
280
     1
281
     1
  3
ACAD_XREC_ROUNDTRIP
360
1320
  3
BUMPTILE
360
12B5
  3
DIFFUSETILE
360
12B4
  3
OPACITYTILE
360
12B8
  3
REFLECTIONTILE
360
12B7
  3
REFRACTIONTILE
360
12B9
  3
SPECULARTILE
360
12B6
  0
DICTIONARY
  5
12C3
330
12C2
100
AcDbDictionary
280
     1
281
     1
  3
ACAD_XREC_ROUNDTRIP
360
1322
  3
BUMPTILE
360
12C5
  3
DIFFUSETILE
360
12C4
  3
OPACITYTILE
360
12C8
  3
REFLECTIONTILE
360
12C7
  3
REFRACTIONTILE
360
12C9
  3
SPECULARTILE
360
12C6
  0
DICTIONARY
  5
1355
330
12FB
100
AcDbDictionary
280
     1
281
     1
  3
ACAD_XREC_ROUNDTRIP
360
1356
  0
DICTIONARY
  5
131C
330
12E5
100
AcDbDictionary
280
     1
281
     1
  3
ACAD_ROUNDTRIP_2008_TABLESTYLE_CELLSTYLEMAP
360
131D
  3
ACAD_XREC_ROUNDTRIP
360
1353
  0
DICTIONARY
  5
132D
330
12D0
100
AcDbDictionary
280
     1
281
     1
  3
ACAD_XREC_ROUNDTRIP
360
132E
  0
DICTIONARY
  5
132B
330
12CF
100
AcDbDictionary
280
     1
281
     1
  3
ACAD_XREC_ROUNDTRIP
360
132C
  0
DICTIONARY
  5
1339
330
12D6
100
AcDbDictionary
280
     1
281
     1
  3
ACAD_XREC_ROUNDTRIP
360
133A
  0
DICTIONARY
  5
1341
330
12DA
100
AcDbDictionary
280
     1
281
     1
  3
ACAD_XREC_ROUNDTRIP
360
1342
  0
DICTIONARY
  5
1333
330
12D3
100
AcDbDictionary
280
     1
281
     1
  3
ACAD_XREC_ROUNDTRIP
360
1334
  0
DICTIONARY
  5
1337
330
12D5
100
AcDbDictionary
280
     1
281
     1
  3
ACAD_XREC_ROUNDTRIP
360
1338
  0
DICTIONARY
  5
1351
330
12E2
100
AcDbDictionary
280
     1
281
     1
  3
ACAD_XREC_ROUNDTRIP
360
1352
  0
DICTIONARY
  5
133F
330
12D9
100
AcDbDictionary
280
     1
281
     1
  3
ACAD_XREC_ROUNDTRIP
360
1340
  0
DICTIONARY
  5
1323
330
12CB
100
AcDbDictionary
280
     1
281
     1
  3
ACAD_XREC_ROUNDTRIP
360
1324
  0
DICTIONARY
  5
1325
330
12CC
100
AcDbDictionary
280
     1
281
     1
  3
ACAD_XREC_ROUNDTRIP
360
1326
  0
DICTIONARY
  5
1327
330
12CD
100
AcDbDictionary
280
     1
281
     1
  3
ACAD_XREC_ROUNDTRIP
360
1328
  0
DICTIONARY
  5
1329
330
12CE
100
AcDbDictionary
280
     1
281
     1
  3
ACAD_XREC_ROUNDTRIP
360
132A
  0
DICTIONARY
  5
1331
330
12D2
100
AcDbDictionary
280
     1
281
     1
  3
ACAD_XREC_ROUNDTRIP
360
1332
  0
DICTIONARY
  5
134D
330
12E0
100
AcDbDictionary
280
     1
281
     1
  3
ACAD_XREC_ROUNDTRIP
360
134E
  0
DICTIONARY
  5
133D
330
12D8
100
AcDbDictionary
280
     1
281
     1
  3
ACAD_XREC_ROUNDTRIP
360
133E
  0
DICTIONARY
  5
134F
330
12E1
100
AcDbDictionary
280
     1
281
     1
  3
ACAD_XREC_ROUNDTRIP
360
1350
  0
DICTIONARY
  5
1335
330
12D4
100
AcDbDictionary
280
     1
281
     1
  3
ACAD_XREC_ROUNDTRIP
360
1336
  0
DICTIONARY
  5
134B
330
12DF
100
AcDbDictionary
280
     1
281
     1
  3
ACAD_XREC_ROUNDTRIP
360
134C
  0
DICTIONARY
  5
1349
330
12DE
100
AcDbDictionary
280
     1
281
     1
  3
ACAD_XREC_ROUNDTRIP
360
134A
  0
DICTIONARY
  5
1343
330
12DB
100
AcDbDictionary
280
     1
281
     1
  3
ACAD_XREC_ROUNDTRIP
360
1344
  0
DICTIONARY
  5
1345
330
12DC
100
AcDbDictionary
280
     1
281
     1
  3
ACAD_XREC_ROUNDTRIP
360
1346
  0
DICTIONARY
  5
133B
330
12D7
100
AcDbDictionary
280
     1
281
     1
  3
ACAD_XREC_ROUNDTRIP
360
133C
  0
DICTIONARY
  5
132F
330
12D1
100
AcDbDictionary
280
     1
281
     1
  3
ACAD_XREC_ROUNDTRIP
360
1330
  0
DICTIONARY
  5
1347
330
12DD
100
AcDbDictionary
280
     1
281
     1
  3
ACAD_XREC_ROUNDTRIP
360
1348
  0
XRECORD
  5
1358
102
{ACAD_REACTORS
330
1357
102
}
330
1357
100
AcDbXrecord
280
     1
102
DISPLAYNAME
  1
Imperial24
102
FLAGS
 90
        0
  0
XRECORD
  5
135A
102
{ACAD_REACTORS
330
1359
102
}
330
1359
100
AcDbXrecord
280
     1
102
SHADEPLOT
 70
     0
102
SHADEPLOTRESLEVEL
 70
     2
102
SHADEPLOTCUSTOMDPI
 70
   300
  0
XRECORD
  5
135C
102
{ACAD_REACTORS
330
135B
102
}
330
135B
100
AcDbXrecord
280
     1
102
SHADEPLOT
 70
     0
102
SHADEPLOTRESLEVEL
 70
     2
102
SHADEPLOTCUSTOMDPI
 70
   300
  0
XRECORD
  5
1321
102
{ACAD_REACTORS
330
12BB
102
}
330
12BB
100
AcDbXrecord
280
     1
102
MATERIAL
148
0.0
149
0.0
149
0.0
 93
        0
 94
      127
282
     0
 72
     0
 77
     0
171
     0
175
     0
179
     0
273
     0
  0
XRECORD
  5
12BD
102
{ACAD_REACTORS
330
12BB
102
}
330
12BB
100
AcDbXrecord
280
     1
270
     1
271
     1
  0
XRECORD
  5
12BC
102
{ACAD_REACTORS
330
12BB
102
}
330
12BB
100
AcDbXrecord
280
     1
270
     1
271
     1
  0
XRECORD
  5
12C0
102
{ACAD_REACTORS
330
12BB
102
}
330
12BB
100
AcDbXrecord
280
     1
270
     1
271
     1
  0
XRECORD
  5
12BF
102
{ACAD_REACTORS
330
12BB
102
}
330
12BB
100
AcDbXrecord
280
     1
270
     1
271
     1
  0
XRECORD
  5
12C1
102
{ACAD_REACTORS
330
12BB
102
}
330
12BB
100
AcDbXrecord
280
     1
270
     1
271
     1
  0
XRECORD
  5
12BE
102
{ACAD_REACTORS
330
12BB
102
}
330
12BB
100
AcDbXrecord
280
     1
270
     1
271
     1
  0
XRECORD
  5
1320
102
{ACAD_REACTORS
330
12B3
102
}
330
12B3
100
AcDbXrecord
280
     1
102
MATERIAL
148
0.0
149
0.0
149
0.0
 93
        0
 94
      127
282
     0
 72
     0
 77
     0
171
     0
175
     0
179
     0
273
     0
  0
XRECORD
  5
12B5
102
{ACAD_REACTORS
330
12B3
102
}
330
12B3
100
AcDbXrecord
280
     1
270
     1
271
     1
  0
XRECORD
  5
12B4
102
{ACAD_REACTORS
330
12B3
102
}
330
12B3
100
AcDbXrecord
280
     1
270
     1
271
     1
  0
XRECORD
  5
12B8
102
{ACAD_REACTORS
330
12B3
102
}
330
12B3
100
AcDbXrecord
280
     1
270
     1
271
     1
  0
XRECORD
  5
12B7
102
{ACAD_REACTORS
330
12B3
102
}
330
12B3
100
AcDbXrecord
280
     1
270
     1
271
     1
  0
XRECORD
  5
12B9
102
{ACAD_REACTORS
330
12B3
102
}
330
12B3
100
AcDbXrecord
280
     1
270
     1
271
     1
  0
XRECORD
  5
12B6
102
{ACAD_REACTORS
330
12B3
102
}
330
12B3
100
AcDbXrecord
280
     1
270
     1
271
     1
  0
XRECORD
  5
1322
102
{ACAD_REACTORS
330
12C3
102
}
330
12C3
100
AcDbXrecord
280
     1
102
MATERIAL
148
0.0
149
0.0
149
0.0
 93
        0
 94
      127
282
     0
 72
     0
 77
     0
171
     0
175
     0
179
     0
273
     0
  0
XRECORD
  5
12C5
102
{ACAD_REACTORS
330
12C3
102
}
330
12C3
100
AcDbXrecord
280
     1
270
     1
271
     1
  0
XRECORD
  5
12C4
102
{ACAD_REACTORS
330
12C3
102
}
330
12C3
100
AcDbXrecord
280
     1
270
     1
271
     1
  0
XRECORD
  5
12C8
102
{ACAD_REACTORS
330
12C3
102
}
330
12C3
100
AcDbXrecord
280
     1
270
     1
271
     1
  0
XRECORD
  5
12C7
102
{ACAD_REACTORS
330
12C3
102
}
330
12C3
100
AcDbXrecord
280
     1
270
     1
271
     1
  0
XRECORD
  5
12C9
102
{ACAD_REACTORS
330
12C3
102
}
330
12C3
100
AcDbXrecord
280
     1
270
     1
271
     1
  0
XRECORD
  5
12C6
102
{ACAD_REACTORS
330
12C3
102
}
330
12C3
100
AcDbXrecord
280
     1
270
     1
271
     1
  0
XRECORD
  5
1356
102
{ACAD_REACTORS
330
1355
102
}
330
1355
100
AcDbXrecord
280
     1
102
DISPLAYNAME
  1
Imperial24
102
FLAGS
 90
        0
  0
CELLSTYLEMAP
  5
131D
102
{ACAD_REACTORS
330
131C
102
}
330
131C
100
AcDbCellStyleMap
 90
        3
300
CELLSTYLE
  1
TABLEFORMAT_BEGIN
 90
        5
170
     1
 91
        0
 92
    32768
 62
   257
 93
        1
300
CONTENTFORMAT
  1
CONTENTFORMAT_BEGIN
 90
        0
 91
        0
 92
      512
 93
        0
300

 40
0.0
140
1.0
 94
        5
 62
     0
340
F
144
0.25
309
CONTENTFORMAT_END
171
     0
 94
        0
309
TABLEFORMAT_END
  1
CELLSTYLE_BEGIN
 90
        1
 91
        1
300
_TITLE
309
CELLSTYLE_END
300
CELLSTYLE
  1
TABLEFORMAT_BEGIN
 90
        5
170
     1
 91
        0
 92
        0
 62
   257
 93
        1
300
CONTENTFORMAT
  1
CONTENTFORMAT_BEGIN
 90
        0
 91
        0
 92
      512
 93
        0
300

 40
0.0
140
1.0
 94
        5
 62
     0
340
F
144
0.18
309
CONTENTFORMAT_END
171
     0
 94
        0
309
TABLEFORMAT_END
  1
CELLSTYLE_BEGIN
 90
        2
 91
        1
300
_HEADER
309
CELLSTYLE_END
300
CELLSTYLE
  1
TABLEFORMAT_BEGIN
 90
        5
170
     1
 91
        0
 92
        0
 62
   257
 93
        1
300
CONTENTFORMAT
  1
CONTENTFORMAT_BEGIN
 90
        0
 91
        0
 92
      512
 93
        0
300

 40
0.0
140
1.0
 94
        2
 62
     0
340
F
144
0.18
309
CONTENTFORMAT_END
171
     0
 94
        0
309
TABLEFORMAT_END
  1
CELLSTYLE_BEGIN
 90
        3
 91
        2
300
_DATA
309
CELLSTYLE_END
  0
XRECORD
  5
1353
102
{ACAD_REACTORS
330
131C
102
}
330
131C
100
AcDbXrecord
280
     1
102
ACAD_ROUNDTRIP_PRE2007_TABLESTYLE
 90
      512
 91
        0
  1

 92
      512
 93
        0
  2

 94
      512
 95
        0
  3

  0
XRECORD
  5
132E
102
{ACAD_REACTORS
330
132D
102
}
330
132D
100
AcDbXrecord
280
     1
102
RTVSPost2010Prop28
280
     1
102
RTVSPost2010PropOp28
 70
     1
102
RTVSPost2010Prop29
280
     1
102
RTVSPost2010PropOp29
 70
     1
102
RTVSPost2010Prop30
280
     0
102
RTVSPost2010PropOp30
 70
     1
102
RTVSPost2010Prop31
280
     0
102
RTVSPost2010PropOp31
 70
     1
102
RTVSPost2010Prop32
280
     0
102
RTVSPost2010PropOp32
 70
     1
102
RTVSPost2010Prop33
280
     0
102
RTVSPost2010PropOp33
 70
     1
102
RTVSPost2010Prop34
280
     0
102
RTVSPost2010PropOp34
 70
     1
102
RTVSPost2010Prop35
280
     0
102
RTVSPost2010PropOp35
 70
     1
102
RTVSPost2010Prop36
280
     0
102
RTVSPost2010PropOp36
 70
     1
102
RTVSPost2010Prop37
 90
       50
102
RTVSPost2010PropOp37
 70
     1
102
RTVSPost2010Prop38
140
0.0
102
RTVSPost2010PropOp38
 70
     1
102
RTVSPost2010Prop39
140
1.0
102
RTVSPost2010PropOp39
 70
     1
102
RTVSPost2010Prop40
 90
        0
102
RTVSPost2010PropOp40
 70
     1
102
RTVSPost2010Prop41ColorIndex
 90
       18
102
RTVSPost2010Prop41ColorRGB
 90
        0
102
RTVSPost2010PropOp41
 70
     1
102
RTVSPost2010Prop42
 90
       50
102
RTVSPost2010PropOp42
 70
     1
102
RTVSPost2010Prop43
 90
        3
102
RTVSPost2010PropOp43
 70
     1
102
RTVSPost2010Prop44ColorIndex
 90
        5
102
RTVSPost2010Prop44ColorRGB
 90
      255
102
RTVSPost2010PropOp44
 70
     1
102
RTVSPost2010Prop45
280
     0
102
RTVSPost2010PropOp45
 70
     1
102
RTVSPost2010Prop46
 90
       50
102
RTVSPost2010PropOp46
 70
     1
102
RTVSPost2010Prop47
 90
       50
102
RTVSPost2010PropOp47
 70
     1
102
RTVSPost2010Prop48
 90
       50
102
RTVSPost2010PropOp48
 70
     1
102
RTVSPost2010Prop49
280
     0
102
RTVSPost2010PropOp49
 70
     1
102
RTVSPost2010Prop50
 90
       50
102
RTVSPost2010PropOp50
 70
     1
102
RTVSPost2010Prop51ColorIndex
 90
      256
102
RTVSPost2010Prop51ColorRGB
 90
-16777216
102
RTVSPost2010PropOp51
 70
     0
102
RTVSPost2010Prop52
140
1.0
102
RTVSPost2010PropOp52
 70
     0
102
RTVSPost2010Prop53
 90
        2
102
RTVSPost2010PropOp53
 70
     1
102
RTVSPost2010Prop54
  1
strokes_ogs.tif
102
RTVSPost2010PropOp54
 70
     1
102
RTVSPost2010Prop55
280
     0
102
RTVSPost2010PropOp55
 70
     1
102
RTVSPost2010Prop56
140
1.0
102
RTVSPost2010PropOp56
 70
     1
102
RTVSPost2010Prop57
140
1.0
102
RTVSPost2010PropOp57
 70
     1
102
RTVSPropertyOp0
 70
     1
102
RTVSPropertyOp1
 70
     1
102
RTVSPropertyOp2
 70
     1
102
RTVSPropertyOp3
 70
     1
102
RTVSPropertyOp4
 70
     1
102
RTVSPropertyOp5
 70
     1
102
RTVSPropertyOp6
 70
     1
102
RTVSPropertyOp7
 70
     1
102
RTVSPropertyOp8
 70
     1
102
RTVSPropertyOp9
 70
     1
102
RTVSPropertyOp10
 70
     1
102
RTVSPropertyOp11
 70
     1
102
RTVSPropertyOp12
 70
     1
102
RTVSPropertyOp13
 70
     1
102
RTVSPropertyOp14
 70
     1
102
RTVSPropertyOp15
 70
     1
102
RTVSPropertyOp16
 70
     1
102
RTVSPropertyOp17
 70
     1
102
RTVSPropertyOp18
 70
     1
102
RTVSPropertyOp19
 70
     1
102
RTVSPropertyOp20
 70
     1
102
RTVSPropertyOp21
 70
     1
102
RTVSPropertyOp22
 70
     1
102
RTVSPropertyOp23
 70
     1
102
RTVSPropertyOp24
 70
     1
102
RTVSPropertyOp25
 70
     1
102
RTVSPropertyOp26
 70
     1
102
RTVSPropertyOp27
 70
     1
102
RTVSPropertyOp28
 70
     1
102
RTVSPropertyOp29
 70
     1
102
RTVSPropertyOp30
 70
     1
102
RTVSPropertyOp31
 70
     1
102
RTVSPropertyOp32
 70
     1
102
RTVSPropertyOp33
 70
     1
102
RTVSPropertyOp34
 70
     1
102
RTVSPropertyOp35
 70
     1
102
RTVSPropertyOp36
 70
     1
102
RTVSPropertyOp37
 70
     1
102
RTVSPropertyOp38
 70
     1
102
RTVSPropertyOp39
 70
     1
102
RTVSPropertyOp40
 70
     1
102
RTVSPropertyOp41
 70
     1
102
RTVSPropertyOp42
 70
     1
102
RTVSPropertyOp43
 70
     1
102
RTVSPropertyOp44
 70
     1
102
RTVSPropertyOp45
 70
     1
102
RTVSPropertyOp46
 70
     1
102
RTVSPropertyOp47
 70
     1
102
RTVSPropertyOp48
 70
     1
102
RTVSPropertyOp49
 70
     1
102
RTVSPropertyOp50
 70
     1
102
RTVSPropertyOp51
 70
     0
102
RTVSPropertyOp52
 70
     0
102
RTVSPropertyOp53
 70
     1
102
RTVSPropertyOp54
 70
     1
102
RTVSPropertyOp55
 70
     1
102
RTVSPropertyOp56
 70
     1
102
RTVSPropertyOp57
 70
     1
102
RTVSPropertyOp58
 70
     1
102
RTVSPropertyOp59
 70
     1
102
RTVSPropertyOp60
 70
     1
102
RTVSPropertyOp61
 70
     1
102
RTVSPropertyOp62
 70
     1
  0
XRECORD
  5
132C
102
{ACAD_REACTORS
330
132B
102
}
330
132B
100
AcDbXrecord
280
     1
102
RTVSPost2010Prop28
280
     0
102
RTVSPost2010PropOp28
 70
     1
102
RTVSPost2010Prop29
280
     1
102
RTVSPost2010PropOp29
 70
     1
102
RTVSPost2010Prop30
280
     1
102
RTVSPost2010PropOp30
 70
     1
102
RTVSPost2010Prop31
280
     0
102
RTVSPost2010PropOp31
 70
     1
102
RTVSPost2010Prop32
280
     0
102
RTVSPost2010PropOp32
 70
     1
102
RTVSPost2010Prop33
280
     0
102
RTVSPost2010PropOp33
 70
     1
102
RTVSPost2010Prop34
280
     0
102
RTVSPost2010PropOp34
 70
     1
102
RTVSPost2010Prop35
280
     0
102
RTVSPost2010PropOp35
 70
     1
102
RTVSPost2010Prop36
280
     0
102
RTVSPost2010PropOp36
 70
     1
102
RTVSPost2010Prop37
 90
       50
102
RTVSPost2010PropOp37
 70
     1
102
RTVSPost2010Prop38
140
0.0
102
RTVSPost2010PropOp38
 70
     1
102
RTVSPost2010Prop39
140
1.0
102
RTVSPost2010PropOp39
 70
     1
102
RTVSPost2010Prop40
 90
        0
102
RTVSPost2010PropOp40
 70
     1
102
RTVSPost2010Prop41ColorIndex
 90
       18
102
RTVSPost2010Prop41ColorRGB
 90
        0
102
RTVSPost2010PropOp41
 70
     1
102
RTVSPost2010Prop42
 90
       50
102
RTVSPost2010PropOp42
 70
     1
102
RTVSPost2010Prop43
 90
        3
102
RTVSPost2010PropOp43
 70
     1
102
RTVSPost2010Prop44ColorIndex
 90
        5
102
RTVSPost2010Prop44ColorRGB
 90
      255
102
RTVSPost2010PropOp44
 70
     1
102
RTVSPost2010Prop45
280
     0
102
RTVSPost2010PropOp45
 70
     1
102
RTVSPost2010Prop46
 90
       50
102
RTVSPost2010PropOp46
 70
     1
102
RTVSPost2010Prop47
 90
       50
102
RTVSPost2010PropOp47
 70
     1
102
RTVSPost2010Prop48
 90
       50
102
RTVSPost2010PropOp48
 70
     1
102
RTVSPost2010Prop49
280
     0
102
RTVSPost2010PropOp49
 70
     1
102
RTVSPost2010Prop50
 90
       50
102
RTVSPost2010PropOp50
 70
     1
102
RTVSPost2010Prop51ColorIndex
 90
      256
102
RTVSPost2010Prop51ColorRGB
 90
-16777216
102
RTVSPost2010PropOp51
 70
     0
102
RTVSPost2010Prop52
140
1.0
102
RTVSPost2010PropOp52
 70
     0
102
RTVSPost2010Prop53
 90
        2
102
RTVSPost2010PropOp53
 70
     1
102
RTVSPost2010Prop54
  1
strokes_ogs.tif
102
RTVSPost2010PropOp54
 70
     1
102
RTVSPost2010Prop55
280
     0
102
RTVSPost2010PropOp55
 70
     1
102
RTVSPost2010Prop56
140
1.0
102
RTVSPost2010PropOp56
 70
     1
102
RTVSPost2010Prop57
140
1.0
102
RTVSPost2010PropOp57
 70
     1
102
RTVSPropertyOp0
 70
     1
102
RTVSPropertyOp1
 70
     1
102
RTVSPropertyOp2
 70
     1
102
RTVSPropertyOp3
 70
     1
102
RTVSPropertyOp4
 70
     1
102
RTVSPropertyOp5
 70
     1
102
RTVSPropertyOp6
 70
     1
102
RTVSPropertyOp7
 70
     1
102
RTVSPropertyOp8
 70
     1
102
RTVSPropertyOp9
 70
     1
102
RTVSPropertyOp10
 70
     1
102
RTVSPropertyOp11
 70
     1
102
RTVSPropertyOp12
 70
     1
102
RTVSPropertyOp13
 70
     1
102
RTVSPropertyOp14
 70
     1
102
RTVSPropertyOp15
 70
     1
102
RTVSPropertyOp16
 70
     1
102
RTVSPropertyOp17
 70
     1
102
RTVSPropertyOp18
 70
     1
102
RTVSPropertyOp19
 70
     1
102
RTVSPropertyOp20
 70
     1
102
RTVSPropertyOp21
 70
     1
102
RTVSPropertyOp22
 70
     1
102
RTVSPropertyOp23
 70
     1
102
RTVSPropertyOp24
 70
     1
102
RTVSPropertyOp25
 70
     1
102
RTVSPropertyOp26
 70
     1
102
RTVSPropertyOp27
 70
     1
102
RTVSPropertyOp28
 70
     1
102
RTVSPropertyOp29
 70
     1
102
RTVSPropertyOp30
 70
     1
102
RTVSPropertyOp31
 70
     1
102
RTVSPropertyOp32
 70
     1
102
RTVSPropertyOp33
 70
     1
102
RTVSPropertyOp34
 70
     1
102
RTVSPropertyOp35
 70
     1
102
RTVSPropertyOp36
 70
     1
102
RTVSPropertyOp37
 70
     1
102
RTVSPropertyOp38
 70
     1
102
RTVSPropertyOp39
 70
     1
102
RTVSPropertyOp40
 70
     1
102
RTVSPropertyOp41
 70
     1
102
RTVSPropertyOp42
 70
     1
102
RTVSPropertyOp43
 70
     1
102
RTVSPropertyOp44
 70
     1
102
RTVSPropertyOp45
 70
     1
102
RTVSPropertyOp46
 70
     1
102
RTVSPropertyOp47
 70
     1
102
RTVSPropertyOp48
 70
     1
102
RTVSPropertyOp49
 70
     1
102
RTVSPropertyOp50
 70
     1
102
RTVSPropertyOp51
 70
     0
102
RTVSPropertyOp52
 70
     0
102
RTVSPropertyOp53
 70
     1
102
RTVSPropertyOp54
 70
     1
102
RTVSPropertyOp55
 70
     1
102
RTVSPropertyOp56
 70
     1
102
RTVSPropertyOp57
 70
     1
102
RTVSPropertyOp58
 70
     1
102
RTVSPropertyOp59
 70
     1
102
RTVSPropertyOp60
 70
     1
102
RTVSPropertyOp61
 70
     1
102
RTVSPropertyOp62
 70
     1
  0
XRECORD
  5
133A
102
{ACAD_REACTORS
330
1339
102
}
330
1339
100
AcDbXrecord
280
     1
102
RTVSPost2010Prop28
280
     0
102
RTVSPost2010PropOp28
 70
     1
102
RTVSPost2010Prop29
280
     1
102
RTVSPost2010PropOp29
 70
     1
102
RTVSPost2010Prop30
280
     1
102
RTVSPost2010PropOp30
 70
     1
102
RTVSPost2010Prop31
280
     0
102
RTVSPost2010PropOp31
 70
     1
102
RTVSPost2010Prop32
280
     0
102
RTVSPost2010PropOp32
 70
     1
102
RTVSPost2010Prop33
280
     0
102
RTVSPost2010PropOp33
 70
     1
102
RTVSPost2010Prop34
280
     0
102
RTVSPost2010PropOp34
 70
     1
102
RTVSPost2010Prop35
280
     0
102
RTVSPost2010PropOp35
 70
     1
102
RTVSPost2010Prop36
280
     0
102
RTVSPost2010PropOp36
 70
     1
102
RTVSPost2010Prop37
 90
       50
102
RTVSPost2010PropOp37
 70
     1
102
RTVSPost2010Prop38
140
0.0
102
RTVSPost2010PropOp38
 70
     1
102
RTVSPost2010Prop39
140
1.0
102
RTVSPost2010PropOp39
 70
     1
102
RTVSPost2010Prop40
 90
        0
102
RTVSPost2010PropOp40
 70
     1
102
RTVSPost2010Prop41ColorIndex
 90
       18
102
RTVSPost2010Prop41ColorRGB
 90
        0
102
RTVSPost2010PropOp41
 70
     1
102
RTVSPost2010Prop42
 90
       50
102
RTVSPost2010PropOp42
 70
     1
102
RTVSPost2010Prop43
 90
        3
102
RTVSPost2010PropOp43
 70
     1
102
RTVSPost2010Prop44ColorIndex
 90
        5
102
RTVSPost2010Prop44ColorRGB
 90
      255
102
RTVSPost2010PropOp44
 70
     1
102
RTVSPost2010Prop45
280
     0
102
RTVSPost2010PropOp45
 70
     1
102
RTVSPost2010Prop46
 90
       50
102
RTVSPost2010PropOp46
 70
     1
102
RTVSPost2010Prop47
 90
       50
102
RTVSPost2010PropOp47
 70
     1
102
RTVSPost2010Prop48
 90
       50
102
RTVSPost2010PropOp48
 70
     1
102
RTVSPost2010Prop49
280
     0
102
RTVSPost2010PropOp49
 70
     1
102
RTVSPost2010Prop50
 90
       50
102
RTVSPost2010PropOp50
 70
     1
102
RTVSPost2010Prop51ColorIndex
 90
      256
102
RTVSPost2010Prop51ColorRGB
 90
-16777216
102
RTVSPost2010PropOp51
 70
     0
102
RTVSPost2010Prop52
140
1.0
102
RTVSPost2010PropOp52
 70
     0
102
RTVSPost2010Prop53
 90
        2
102
RTVSPost2010PropOp53
 70
     1
102
RTVSPost2010Prop54
  1
strokes_ogs.tif
102
RTVSPost2010PropOp54
 70
     1
102
RTVSPost2010Prop55
280
     0
102
RTVSPost2010PropOp55
 70
     1
102
RTVSPost2010Prop56
140
1.0
102
RTVSPost2010PropOp56
 70
     1
102
RTVSPost2010Prop57
140
1.0
102
RTVSPost2010PropOp57
 70
     1
102
RTVSPropertyOp0
 70
     1
102
RTVSPropertyOp1
 70
     1
102
RTVSPropertyOp2
 70
     1
102
RTVSPropertyOp3
 70
     1
102
RTVSPropertyOp4
 70
     1
102
RTVSPropertyOp5
 70
     1
102
RTVSPropertyOp6
 70
     1
102
RTVSPropertyOp7
 70
     1
102
RTVSPropertyOp8
 70
     1
102
RTVSPropertyOp9
 70
     1
102
RTVSPropertyOp10
 70
     1
102
RTVSPropertyOp11
 70
     1
102
RTVSPropertyOp12
 70
     1
102
RTVSPropertyOp13
 70
     1
102
RTVSPropertyOp14
 70
     1
102
RTVSPropertyOp15
 70
     1
102
RTVSPropertyOp16
 70
     1
102
RTVSPropertyOp17
 70
     1
102
RTVSPropertyOp18
 70
     1
102
RTVSPropertyOp19
 70
     1
102
RTVSPropertyOp20
 70
     1
102
RTVSPropertyOp21
 70
     1
102
RTVSPropertyOp22
 70
     1
102
RTVSPropertyOp23
 70
     1
102
RTVSPropertyOp24
 70
     1
102
RTVSPropertyOp25
 70
     1
102
RTVSPropertyOp26
 70
     1
102
RTVSPropertyOp27
 70
     1
102
RTVSPropertyOp28
 70
     1
102
RTVSPropertyOp29
 70
     1
102
RTVSPropertyOp30
 70
     1
102
RTVSPropertyOp31
 70
     1
102
RTVSPropertyOp32
 70
     1
102
RTVSPropertyOp33
 70
     1
102
RTVSPropertyOp34
 70
     1
102
RTVSPropertyOp35
 70
     1
102
RTVSPropertyOp36
 70
     1
102
RTVSPropertyOp37
 70
     1
102
RTVSPropertyOp38
 70
     1
102
RTVSPropertyOp39
 70
     1
102
RTVSPropertyOp40
 70
     1
102
RTVSPropertyOp41
 70
     1
102
RTVSPropertyOp42
 70
     1
102
RTVSPropertyOp43
 70
     1
102
RTVSPropertyOp44
 70
     1
102
RTVSPropertyOp45
 70
     1
102
RTVSPropertyOp46
 70
     1
102
RTVSPropertyOp47
 70
     1
102
RTVSPropertyOp48
 70
     1
102
RTVSPropertyOp49
 70
     1
102
RTVSPropertyOp50
 70
     1
102
RTVSPropertyOp51
 70
     0
102
RTVSPropertyOp52
 70
     0
102
RTVSPropertyOp53
 70
     1
102
RTVSPropertyOp54
 70
     1
102
RTVSPropertyOp55
 70
     1
102
RTVSPropertyOp56
 70
     1
102
RTVSPropertyOp57
 70
     1
102
RTVSPropertyOp58
 70
     1
102
RTVSPropertyOp59
 70
     1
102
RTVSPropertyOp60
 70
     1
102
RTVSPropertyOp61
 70
     1
102
RTVSPropertyOp62
 70
     1
  0
XRECORD
  5
1342
102
{ACAD_REACTORS
330
1341
102
}
330
1341
100
AcDbXrecord
280
     1
102
RTVSPost2010Prop28
280
     0
102
RTVSPost2010PropOp28
 70
     1
102
RTVSPost2010Prop29
280
     1
102
RTVSPost2010PropOp29
 70
     1
102
RTVSPost2010Prop30
280
     1
102
RTVSPost2010PropOp30
 70
     1
102
RTVSPost2010Prop31
280
     0
102
RTVSPost2010PropOp31
 70
     1
102
RTVSPost2010Prop32
280
     0
102
RTVSPost2010PropOp32
 70
     1
102
RTVSPost2010Prop33
280
     0
102
RTVSPost2010PropOp33
 70
     1
102
RTVSPost2010Prop34
280
     0
102
RTVSPost2010PropOp34
 70
     1
102
RTVSPost2010Prop35
280
     0
102
RTVSPost2010PropOp35
 70
     1
102
RTVSPost2010Prop36
280
     0
102
RTVSPost2010PropOp36
 70
     1
102
RTVSPost2010Prop37
 90
       50
102
RTVSPost2010PropOp37
 70
     1
102
RTVSPost2010Prop38
140
0.0
102
RTVSPost2010PropOp38
 70
     1
102
RTVSPost2010Prop39
140
1.0
102
RTVSPost2010PropOp39
 70
     1
102
RTVSPost2010Prop40
 90
        0
102
RTVSPost2010PropOp40
 70
     1
102
RTVSPost2010Prop41ColorIndex
 90
       18
102
RTVSPost2010Prop41ColorRGB
 90
        0
102
RTVSPost2010PropOp41
 70
     1
102
RTVSPost2010Prop42
 90
       50
102
RTVSPost2010PropOp42
 70
     1
102
RTVSPost2010Prop43
 90
        3
102
RTVSPost2010PropOp43
 70
     1
102
RTVSPost2010Prop44ColorIndex
 90
        5
102
RTVSPost2010Prop44ColorRGB
 90
      255
102
RTVSPost2010PropOp44
 70
     1
102
RTVSPost2010Prop45
280
     0
102
RTVSPost2010PropOp45
 70
     1
102
RTVSPost2010Prop46
 90
       50
102
RTVSPost2010PropOp46
 70
     1
102
RTVSPost2010Prop47
 90
       50
102
RTVSPost2010PropOp47
 70
     1
102
RTVSPost2010Prop48
 90
       50
102
RTVSPost2010PropOp48
 70
     1
102
RTVSPost2010Prop49
280
     0
102
RTVSPost2010PropOp49
 70
     1
102
RTVSPost2010Prop50
 90
       50
102
RTVSPost2010PropOp50
 70
     1
102
RTVSPost2010Prop51ColorIndex
 90
      256
102
RTVSPost2010Prop51ColorRGB
 90
-16777216
102
RTVSPost2010PropOp51
 70
     0
102
RTVSPost2010Prop52
140
1.0
102
RTVSPost2010PropOp52
 70
     0
102
RTVSPost2010Prop53
 90
        2
102
RTVSPost2010PropOp53
 70
     1
102
RTVSPost2010Prop54
  1
strokes_ogs.tif
102
RTVSPost2010PropOp54
 70
     1
102
RTVSPost2010Prop55
280
     0
102
RTVSPost2010PropOp55
 70
     1
102
RTVSPost2010Prop56
140
1.0
102
RTVSPost2010PropOp56
 70
     1
102
RTVSPost2010Prop57
140
1.0
102
RTVSPost2010PropOp57
 70
     1
102
RTVSPropertyOp0
 70
     1
102
RTVSPropertyOp1
 70
     1
102
RTVSPropertyOp2
 70
     1
102
RTVSPropertyOp3
 70
     1
102
RTVSPropertyOp4
 70
     1
102
RTVSPropertyOp5
 70
     1
102
RTVSPropertyOp6
 70
     1
102
RTVSPropertyOp7
 70
     1
102
RTVSPropertyOp8
 70
     1
102
RTVSPropertyOp9
 70
     1
102
RTVSPropertyOp10
 70
     1
102
RTVSPropertyOp11
 70
     1
102
RTVSPropertyOp12
 70
     1
102
RTVSPropertyOp13
 70
     1
102
RTVSPropertyOp14
 70
     1
102
RTVSPropertyOp15
 70
     1
102
RTVSPropertyOp16
 70
     1
102
RTVSPropertyOp17
 70
     1
102
RTVSPropertyOp18
 70
     1
102
RTVSPropertyOp19
 70
     1
102
RTVSPropertyOp20
 70
     1
102
RTVSPropertyOp21
 70
     1
102
RTVSPropertyOp22
 70
     1
102
RTVSPropertyOp23
 70
     1
102
RTVSPropertyOp24
 70
     1
102
RTVSPropertyOp25
 70
     1
102
RTVSPropertyOp26
 70
     1
102
RTVSPropertyOp27
 70
     1
102
RTVSPropertyOp28
 70
     1
102
RTVSPropertyOp29
 70
     1
102
RTVSPropertyOp30
 70
     1
102
RTVSPropertyOp31
 70
     1
102
RTVSPropertyOp32
 70
     1
102
RTVSPropertyOp33
 70
     1
102
RTVSPropertyOp34
 70
     1
102
RTVSPropertyOp35
 70
     1
102
RTVSPropertyOp36
 70
     1
102
RTVSPropertyOp37
 70
     1
102
RTVSPropertyOp38
 70
     1
102
RTVSPropertyOp39
 70
     1
102
RTVSPropertyOp40
 70
     1
102
RTVSPropertyOp41
 70
     1
102
RTVSPropertyOp42
 70
     1
102
RTVSPropertyOp43
 70
     1
102
RTVSPropertyOp44
 70
     1
102
RTVSPropertyOp45
 70
     1
102
RTVSPropertyOp46
 70
     1
102
RTVSPropertyOp47
 70
     1
102
RTVSPropertyOp48
 70
     1
102
RTVSPropertyOp49
 70
     1
102
RTVSPropertyOp50
 70
     1
102
RTVSPropertyOp51
 70
     0
102
RTVSPropertyOp52
 70
     0
102
RTVSPropertyOp53
 70
     1
102
RTVSPropertyOp54
 70
     1
102
RTVSPropertyOp55
 70
     1
102
RTVSPropertyOp56
 70
     1
102
RTVSPropertyOp57
 70
     1
102
RTVSPropertyOp58
 70
     1
102
RTVSPropertyOp59
 70
     1
102
RTVSPropertyOp60
 70
     1
102
RTVSPropertyOp61
 70
     1
102
RTVSPropertyOp62
 70
     1
  0
XRECORD
  5
1334
102
{ACAD_REACTORS
330
1333
102
}
330
1333
100
AcDbXrecord
280
     1
102
RTVSPost2010Prop28
280
     0
102
RTVSPost2010PropOp28
 70
     1
102
RTVSPost2010Prop29
280
     1
102
RTVSPost2010PropOp29
 70
     1
102
RTVSPost2010Prop30
280
     1
102
RTVSPost2010PropOp30
 70
     1
102
RTVSPost2010Prop31
280
     0
102
RTVSPost2010PropOp31
 70
     1
102
RTVSPost2010Prop32
280
     0
102
RTVSPost2010PropOp32
 70
     1
102
RTVSPost2010Prop33
280
     0
102
RTVSPost2010PropOp33
 70
     1
102
RTVSPost2010Prop34
280
     0
102
RTVSPost2010PropOp34
 70
     1
102
RTVSPost2010Prop35
280
     0
102
RTVSPost2010PropOp35
 70
     1
102
RTVSPost2010Prop36
280
     0
102
RTVSPost2010PropOp36
 70
     1
102
RTVSPost2010Prop37
 90
       50
102
RTVSPost2010PropOp37
 70
     1
102
RTVSPost2010Prop38
140
0.0
102
RTVSPost2010PropOp38
 70
     1
102
RTVSPost2010Prop39
140
1.0
102
RTVSPost2010PropOp39
 70
     1
102
RTVSPost2010Prop40
 90
        0
102
RTVSPost2010PropOp40
 70
     1
102
RTVSPost2010Prop41ColorIndex
 90
       18
102
RTVSPost2010Prop41ColorRGB
 90
        0
102
RTVSPost2010PropOp41
 70
     1
102
RTVSPost2010Prop42
 90
       50
102
RTVSPost2010PropOp42
 70
     1
102
RTVSPost2010Prop43
 90
        3
102
RTVSPost2010PropOp43
 70
     1
102
RTVSPost2010Prop44ColorIndex
 90
        5
102
RTVSPost2010Prop44ColorRGB
 90
      255
102
RTVSPost2010PropOp44
 70
     1
102
RTVSPost2010Prop45
280
     0
102
RTVSPost2010PropOp45
 70
     1
102
RTVSPost2010Prop46
 90
       50
102
RTVSPost2010PropOp46
 70
     1
102
RTVSPost2010Prop47
 90
       50
102
RTVSPost2010PropOp47
 70
     1
102
RTVSPost2010Prop48
 90
       50
102
RTVSPost2010PropOp48
 70
     1
102
RTVSPost2010Prop49
280
     0
102
RTVSPost2010PropOp49
 70
     1
102
RTVSPost2010Prop50
 90
       50
102
RTVSPost2010PropOp50
 70
     1
102
RTVSPost2010Prop51ColorIndex
 90
      256
102
RTVSPost2010Prop51ColorRGB
 90
-16777216
102
RTVSPost2010PropOp51
 70
     0
102
RTVSPost2010Prop52
140
1.0
102
RTVSPost2010PropOp52
 70
     0
102
RTVSPost2010Prop53
 90
        2
102
RTVSPost2010PropOp53
 70
     1
102
RTVSPost2010Prop54
  1
strokes_ogs.tif
102
RTVSPost2010PropOp54
 70
     1
102
RTVSPost2010Prop55
280
     0
102
RTVSPost2010PropOp55
 70
     1
102
RTVSPost2010Prop56
140
1.0
102
RTVSPost2010PropOp56
 70
     1
102
RTVSPost2010Prop57
140
1.0
102
RTVSPost2010PropOp57
 70
     1
102
RTVSPropertyOp0
 70
     1
102
RTVSPropertyOp1
 70
     1
102
RTVSPropertyOp2
 70
     1
102
RTVSPropertyOp3
 70
     1
102
RTVSPropertyOp4
 70
     1
102
RTVSPropertyOp5
 70
     1
102
RTVSPropertyOp6
 70
     1
102
RTVSPropertyOp7
 70
     1
102
RTVSPropertyOp8
 70
     1
102
RTVSPropertyOp9
 70
     1
102
RTVSPropertyOp10
 70
     1
102
RTVSPropertyOp11
 70
     1
102
RTVSPropertyOp12
 70
     1
102
RTVSPropertyOp13
 70
     1
102
RTVSPropertyOp14
 70
     1
102
RTVSPropertyOp15
 70
     1
102
RTVSPropertyOp16
 70
     1
102
RTVSPropertyOp17
 70
     1
102
RTVSPropertyOp18
 70
     1
102
RTVSPropertyOp19
 70
     1
102
RTVSPropertyOp20
 70
     1
102
RTVSPropertyOp21
 70
     1
102
RTVSPropertyOp22
 70
     1
102
RTVSPropertyOp23
 70
     1
102
RTVSPropertyOp24
 70
     1
102
RTVSPropertyOp25
 70
     1
102
RTVSPropertyOp26
 70
     1
102
RTVSPropertyOp27
 70
     1
102
RTVSPropertyOp28
 70
     1
102
RTVSPropertyOp29
 70
     1
102
RTVSPropertyOp30
 70
     1
102
RTVSPropertyOp31
 70
     1
102
RTVSPropertyOp32
 70
     1
102
RTVSPropertyOp33
 70
     1
102
RTVSPropertyOp34
 70
     1
102
RTVSPropertyOp35
 70
     1
102
RTVSPropertyOp36
 70
     1
102
RTVSPropertyOp37
 70
     1
102
RTVSPropertyOp38
 70
     1
102
RTVSPropertyOp39
 70
     1
102
RTVSPropertyOp40
 70
     1
102
RTVSPropertyOp41
 70
     1
102
RTVSPropertyOp42
 70
     1
102
RTVSPropertyOp43
 70
     1
102
RTVSPropertyOp44
 70
     1
102
RTVSPropertyOp45
 70
     1
102
RTVSPropertyOp46
 70
     1
102
RTVSPropertyOp47
 70
     1
102
RTVSPropertyOp48
 70
     1
102
RTVSPropertyOp49
 70
     1
102
RTVSPropertyOp50
 70
     1
102
RTVSPropertyOp51
 70
     0
102
RTVSPropertyOp52
 70
     0
102
RTVSPropertyOp53
 70
     1
102
RTVSPropertyOp54
 70
     1
102
RTVSPropertyOp55
 70
     1
102
RTVSPropertyOp56
 70
     1
102
RTVSPropertyOp57
 70
     1
102
RTVSPropertyOp58
 70
     1
102
RTVSPropertyOp59
 70
     1
102
RTVSPropertyOp60
 70
     1
102
RTVSPropertyOp61
 70
     1
102
RTVSPropertyOp62
 70
     1
  0
XRECORD
  5
1338
102
{ACAD_REACTORS
330
1337
102
}
330
1337
100
AcDbXrecord
280
     1
102
RTVSPost2010Prop28
280
     0
102
RTVSPost2010PropOp28
 70
     1
102
RTVSPost2010Prop29
280
     1
102
RTVSPost2010PropOp29
 70
     1
102
RTVSPost2010Prop30
280
     1
102
RTVSPost2010PropOp30
 70
     1
102
RTVSPost2010Prop31
280
     0
102
RTVSPost2010PropOp31
 70
     1
102
RTVSPost2010Prop32
280
     0
102
RTVSPost2010PropOp32
 70
     1
102
RTVSPost2010Prop33
280
     0
102
RTVSPost2010PropOp33
 70
     1
102
RTVSPost2010Prop34
280
     0
102
RTVSPost2010PropOp34
 70
     1
102
RTVSPost2010Prop35
280
     0
102
RTVSPost2010PropOp35
 70
     1
102
RTVSPost2010Prop36
280
     0
102
RTVSPost2010PropOp36
 70
     1
102
RTVSPost2010Prop37
 90
       50
102
RTVSPost2010PropOp37
 70
     1
102
RTVSPost2010Prop38
140
0.0
102
RTVSPost2010PropOp38
 70
     1
102
RTVSPost2010Prop39
140
1.0
102
RTVSPost2010PropOp39
 70
     1
102
RTVSPost2010Prop40
 90
        0
102
RTVSPost2010PropOp40
 70
     1
102
RTVSPost2010Prop41ColorIndex
 90
       18
102
RTVSPost2010Prop41ColorRGB
 90
        0
102
RTVSPost2010PropOp41
 70
     1
102
RTVSPost2010Prop42
 90
       50
102
RTVSPost2010PropOp42
 70
     1
102
RTVSPost2010Prop43
 90
        3
102
RTVSPost2010PropOp43
 70
     1
102
RTVSPost2010Prop44ColorIndex
 90
        5
102
RTVSPost2010Prop44ColorRGB
 90
      255
102
RTVSPost2010PropOp44
 70
     1
102
RTVSPost2010Prop45
280
     0
102
RTVSPost2010PropOp45
 70
     1
102
RTVSPost2010Prop46
 90
       50
102
RTVSPost2010PropOp46
 70
     1
102
RTVSPost2010Prop47
 90
       50
102
RTVSPost2010PropOp47
 70
     1
102
RTVSPost2010Prop48
 90
       50
102
RTVSPost2010PropOp48
 70
     1
102
RTVSPost2010Prop49
280
     0
102
RTVSPost2010PropOp49
 70
     1
102
RTVSPost2010Prop50
 90
       50
102
RTVSPost2010PropOp50
 70
     1
102
RTVSPost2010Prop51ColorIndex
 90
      256
102
RTVSPost2010Prop51ColorRGB
 90
-16777216
102
RTVSPost2010PropOp51
 70
     0
102
RTVSPost2010Prop52
140
1.0
102
RTVSPost2010PropOp52
 70
     0
102
RTVSPost2010Prop53
 90
        2
102
RTVSPost2010PropOp53
 70
     1
102
RTVSPost2010Prop54
  1
strokes_ogs.tif
102
RTVSPost2010PropOp54
 70
     1
102
RTVSPost2010Prop55
280
     0
102
RTVSPost2010PropOp55
 70
     1
102
RTVSPost2010Prop56
140
1.0
102
RTVSPost2010PropOp56
 70
     1
102
RTVSPost2010Prop57
140
1.0
102
RTVSPost2010PropOp57
 70
     1
102
RTVSPropertyOp0
 70
     1
102
RTVSPropertyOp1
 70
     1
102
RTVSPropertyOp2
 70
     1
102
RTVSPropertyOp3
 70
     1
102
RTVSPropertyOp4
 70
     1
102
RTVSPropertyOp5
 70
     1
102
RTVSPropertyOp6
 70
     1
102
RTVSPropertyOp7
 70
     1
102
RTVSPropertyOp8
 70
     1
102
RTVSPropertyOp9
 70
     1
102
RTVSPropertyOp10
 70
     1
102
RTVSPropertyOp11
 70
     1
102
RTVSPropertyOp12
 70
     1
102
RTVSPropertyOp13
 70
     1
102
RTVSPropertyOp14
 70
     1
102
RTVSPropertyOp15
 70
     1
102
RTVSPropertyOp16
 70
     1
102
RTVSPropertyOp17
 70
     1
102
RTVSPropertyOp18
 70
     1
102
RTVSPropertyOp19
 70
     1
102
RTVSPropertyOp20
 70
     1
102
RTVSPropertyOp21
 70
     1
102
RTVSPropertyOp22
 70
     1
102
RTVSPropertyOp23
 70
     1
102
RTVSPropertyOp24
 70
     1
102
RTVSPropertyOp25
 70
     1
102
RTVSPropertyOp26
 70
     1
102
RTVSPropertyOp27
 70
     1
102
RTVSPropertyOp28
 70
     1
102
RTVSPropertyOp29
 70
     1
102
RTVSPropertyOp30
 70
     1
102
RTVSPropertyOp31
 70
     1
102
RTVSPropertyOp32
 70
     1
102
RTVSPropertyOp33
 70
     1
102
RTVSPropertyOp34
 70
     1
102
RTVSPropertyOp35
 70
     1
102
RTVSPropertyOp36
 70
     1
102
RTVSPropertyOp37
 70
     1
102
RTVSPropertyOp38
 70
     1
102
RTVSPropertyOp39
 70
     1
102
RTVSPropertyOp40
 70
     1
102
RTVSPropertyOp41
 70
     1
102
RTVSPropertyOp42
 70
     1
102
RTVSPropertyOp43
 70
     1
102
RTVSPropertyOp44
 70
     1
102
RTVSPropertyOp45
 70
     1
102
RTVSPropertyOp46
 70
     1
102
RTVSPropertyOp47
 70
     1
102
RTVSPropertyOp48
 70
     1
102
RTVSPropertyOp49
 70
     1
102
RTVSPropertyOp50
 70
     1
102
RTVSPropertyOp51
 70
     0
102
RTVSPropertyOp52
 70
     0
102
RTVSPropertyOp53
 70
     1
102
RTVSPropertyOp54
 70
     1
102
RTVSPropertyOp55
 70
     1
102
RTVSPropertyOp56
 70
     1
102
RTVSPropertyOp57
 70
     1
102
RTVSPropertyOp58
 70
     1
102
RTVSPropertyOp59
 70
     1
102
RTVSPropertyOp60
 70
     1
102
RTVSPropertyOp61
 70
     1
102
RTVSPropertyOp62
 70
     1
  0
XRECORD
  5
1352
102
{ACAD_REACTORS
330
1351
102
}
330
1351
100
AcDbXrecord
280
     1
102
RTVSPost2010Prop28
280
     0
102
RTVSPost2010PropOp28
 70
     1
102
RTVSPost2010Prop29
280
     1
102
RTVSPost2010PropOp29
 70
     1
102
RTVSPost2010Prop30
280
     1
102
RTVSPost2010PropOp30
 70
     1
102
RTVSPost2010Prop31
280
     0
102
RTVSPost2010PropOp31
 70
     1
102
RTVSPost2010Prop32
280
     0
102
RTVSPost2010PropOp32
 70
     1
102
RTVSPost2010Prop33
280
     0
102
RTVSPost2010PropOp33
 70
     1
102
RTVSPost2010Prop34
280
     0
102
RTVSPost2010PropOp34
 70
     1
102
RTVSPost2010Prop35
280
     0
102
RTVSPost2010PropOp35
 70
     1
102
RTVSPost2010Prop36
280
     0
102
RTVSPost2010PropOp36
 70
     1
102
RTVSPost2010Prop37
 90
       50
102
RTVSPost2010PropOp37
 70
     0
102
RTVSPost2010Prop38
140
0.0
102
RTVSPost2010PropOp38
 70
     0
102
RTVSPost2010Prop39
140
1.0
102
RTVSPost2010PropOp39
 70
     0
102
RTVSPost2010Prop40
 90
        0
102
RTVSPost2010PropOp40
 70
     0
102
RTVSPost2010Prop41ColorIndex
 90
       18
102
RTVSPost2010Prop41ColorRGB
 90
        0
102
RTVSPost2010PropOp41
 70
     0
102
RTVSPost2010Prop42
 90
       50
102
RTVSPost2010PropOp42
 70
     0
102
RTVSPost2010Prop43
 90
        3
102
RTVSPost2010PropOp43
 70
     0
102
RTVSPost2010Prop44ColorIndex
 90
        5
102
RTVSPost2010Prop44ColorRGB
 90
      255
102
RTVSPost2010PropOp44
 70
     0
102
RTVSPost2010Prop45
280
     0
102
RTVSPost2010PropOp45
 70
     1
102
RTVSPost2010Prop46
 90
       50
102
RTVSPost2010PropOp46
 70
     0
102
RTVSPost2010Prop47
 90
       50
102
RTVSPost2010PropOp47
 70
     0
102
RTVSPost2010Prop48
 90
       50
102
RTVSPost2010PropOp48
 70
     0
102
RTVSPost2010Prop49
280
     0
102
RTVSPost2010PropOp49
 70
     1
102
RTVSPost2010Prop50
 90
       50
102
RTVSPost2010PropOp50
 70
     0
102
RTVSPost2010Prop51ColorIndex
 90
      256
102
RTVSPost2010Prop51ColorRGB
 90
-16777216
102
RTVSPost2010PropOp51
 70
     0
102
RTVSPost2010Prop52
140
1.0
102
RTVSPost2010PropOp52
 70
     0
102
RTVSPost2010Prop53
 90
        2
102
RTVSPost2010PropOp53
 70
     0
102
RTVSPost2010Prop54
  1
strokes_ogs.tif
102
RTVSPost2010PropOp54
 70
     0
102
RTVSPost2010Prop55
280
     0
102
RTVSPost2010PropOp55
 70
     1
102
RTVSPost2010Prop56
140
1.0
102
RTVSPost2010PropOp56
 70
     0
102
RTVSPost2010Prop57
140
1.0
102
RTVSPost2010PropOp57
 70
     0
102
RTVSPropertyOp0
 70
     0
102
RTVSPropertyOp1
 70
     0
102
RTVSPropertyOp2
 70
     0
102
RTVSPropertyOp3
 70
     0
102
RTVSPropertyOp4
 70
     0
102
RTVSPropertyOp5
 70
     0
102
RTVSPropertyOp6
 70
     0
102
RTVSPropertyOp7
 70
     0
102
RTVSPropertyOp8
 70
     0
102
RTVSPropertyOp9
 70
     0
102
RTVSPropertyOp10
 70
     0
102
RTVSPropertyOp11
 70
     0
102
RTVSPropertyOp12
 70
     0
102
RTVSPropertyOp13
 70
     0
102
RTVSPropertyOp14
 70
     2
102
RTVSPropertyOp15
 70
     0
102
RTVSPropertyOp16
 70
     0
102
RTVSPropertyOp17
 70
     0
102
RTVSPropertyOp18
 70
     0
102
RTVSPropertyOp19
 70
     0
102
RTVSPropertyOp20
 70
     0
102
RTVSPropertyOp21
 70
     0
102
RTVSPropertyOp22
 70
     0
102
RTVSPropertyOp23
 70
     0
102
RTVSPropertyOp24
 70
     0
102
RTVSPropertyOp25
 70
     0
102
RTVSPropertyOp26
 70
     0
102
RTVSPropertyOp27
 70
     0
102
RTVSPropertyOp28
 70
     1
102
RTVSPropertyOp29
 70
     1
102
RTVSPropertyOp30
 70
     1
102
RTVSPropertyOp31
 70
     1
102
RTVSPropertyOp32
 70
     1
102
RTVSPropertyOp33
 70
     1
102
RTVSPropertyOp34
 70
     1
102
RTVSPropertyOp35
 70
     1
102
RTVSPropertyOp36
 70
     1
102
RTVSPropertyOp37
 70
     0
102
RTVSPropertyOp38
 70
     0
102
RTVSPropertyOp39
 70
     0
102
RTVSPropertyOp40
 70
     0
102
RTVSPropertyOp41
 70
     0
102
RTVSPropertyOp42
 70
     0
102
RTVSPropertyOp43
 70
     0
102
RTVSPropertyOp44
 70
     0
102
RTVSPropertyOp45
 70
     1
102
RTVSPropertyOp46
 70
     0
102
RTVSPropertyOp47
 70
     0
102
RTVSPropertyOp48
 70
     0
102
RTVSPropertyOp49
 70
     1
102
RTVSPropertyOp50
 70
     0
102
RTVSPropertyOp51
 70
     0
102
RTVSPropertyOp52
 70
     0
102
RTVSPropertyOp53
 70
     0
102
RTVSPropertyOp54
 70
     0
102
RTVSPropertyOp55
 70
     1
102
RTVSPropertyOp56
 70
     0
102
RTVSPropertyOp57
 70
     0
102
RTVSPropertyOp58
 70
     0
102
RTVSPropertyOp59
 70
     0
102
RTVSPropertyOp60
 70
     0
102
RTVSPropertyOp61
 70
     0
102
RTVSPropertyOp62
 70
     0
  0
XRECORD
  5
1340
102
{ACAD_REACTORS
330
133F
102
}
330
133F
100
AcDbXrecord
280
     1
102
RTVSPost2010Prop28
280
     0
102
RTVSPost2010PropOp28
 70
     1
102
RTVSPost2010Prop29
280
     1
102
RTVSPost2010PropOp29
 70
     1
102
RTVSPost2010Prop30
280
     1
102
RTVSPost2010PropOp30
 70
     1
102
RTVSPost2010Prop31
280
     0
102
RTVSPost2010PropOp31
 70
     1
102
RTVSPost2010Prop32
280
     0
102
RTVSPost2010PropOp32
 70
     1
102
RTVSPost2010Prop33
280
     0
102
RTVSPost2010PropOp33
 70
     1
102
RTVSPost2010Prop34
280
     0
102
RTVSPost2010PropOp34
 70
     1
102
RTVSPost2010Prop35
280
     0
102
RTVSPost2010PropOp35
 70
     1
102
RTVSPost2010Prop36
280
     0
102
RTVSPost2010PropOp36
 70
     1
102
RTVSPost2010Prop37
 90
       50
102
RTVSPost2010PropOp37
 70
     1
102
RTVSPost2010Prop38
140
0.0
102
RTVSPost2010PropOp38
 70
     1
102
RTVSPost2010Prop39
140
1.0
102
RTVSPost2010PropOp39
 70
     1
102
RTVSPost2010Prop40
 90
        0
102
RTVSPost2010PropOp40
 70
     1
102
RTVSPost2010Prop41ColorIndex
 90
       18
102
RTVSPost2010Prop41ColorRGB
 90
        0
102
RTVSPost2010PropOp41
 70
     1
102
RTVSPost2010Prop42
 90
       50
102
RTVSPost2010PropOp42
 70
     1
102
RTVSPost2010Prop43
 90
        3
102
RTVSPost2010PropOp43
 70
     1
102
RTVSPost2010Prop44ColorIndex
 90
        5
102
RTVSPost2010Prop44ColorRGB
 90
      255
102
RTVSPost2010PropOp44
 70
     1
102
RTVSPost2010Prop45
280
     0
102
RTVSPost2010PropOp45
 70
     1
102
RTVSPost2010Prop46
 90
       50
102
RTVSPost2010PropOp46
 70
     1
102
RTVSPost2010Prop47
 90
       50
102
RTVSPost2010PropOp47
 70
     1
102
RTVSPost2010Prop48
 90
       50
102
RTVSPost2010PropOp48
 70
     1
102
RTVSPost2010Prop49
280
     0
102
RTVSPost2010PropOp49
 70
     1
102
RTVSPost2010Prop50
 90
       50
102
RTVSPost2010PropOp50
 70
     1
102
RTVSPost2010Prop51ColorIndex
 90
      256
102
RTVSPost2010Prop51ColorRGB
 90
-16777216
102
RTVSPost2010PropOp51
 70
     0
102
RTVSPost2010Prop52
140
1.0
102
RTVSPost2010PropOp52
 70
     0
102
RTVSPost2010Prop53
 90
        2
102
RTVSPost2010PropOp53
 70
     1
102
RTVSPost2010Prop54
  1
strokes_ogs.tif
102
RTVSPost2010PropOp54
 70
     1
102
RTVSPost2010Prop55
280
     0
102
RTVSPost2010PropOp55
 70
     1
102
RTVSPost2010Prop56
140
1.0
102
RTVSPost2010PropOp56
 70
     1
102
RTVSPost2010Prop57
140
1.0
102
RTVSPost2010PropOp57
 70
     1
102
RTVSPropertyOp0
 70
     1
102
RTVSPropertyOp1
 70
     1
102
RTVSPropertyOp2
 70
     1
102
RTVSPropertyOp3
 70
     1
102
RTVSPropertyOp4
 70
     1
102
RTVSPropertyOp5
 70
     1
102
RTVSPropertyOp6
 70
     1
102
RTVSPropertyOp7
 70
     1
102
RTVSPropertyOp8
 70
     1
102
RTVSPropertyOp9
 70
     1
102
RTVSPropertyOp10
 70
     1
102
RTVSPropertyOp11
 70
     1
102
RTVSPropertyOp12
 70
     1
102
RTVSPropertyOp13
 70
     1
102
RTVSPropertyOp14
 70
     1
102
RTVSPropertyOp15
 70
     1
102
RTVSPropertyOp16
 70
     1
102
RTVSPropertyOp17
 70
     1
102
RTVSPropertyOp18
 70
     1
102
RTVSPropertyOp19
 70
     1
102
RTVSPropertyOp20
 70
     1
102
RTVSPropertyOp21
 70
     1
102
RTVSPropertyOp22
 70
     1
102
RTVSPropertyOp23
 70
     1
102
RTVSPropertyOp24
 70
     1
102
RTVSPropertyOp25
 70
     1
102
RTVSPropertyOp26
 70
     1
102
RTVSPropertyOp27
 70
     1
102
RTVSPropertyOp28
 70
     1
102
RTVSPropertyOp29
 70
     1
102
RTVSPropertyOp30
 70
     1
102
RTVSPropertyOp31
 70
     1
102
RTVSPropertyOp32
 70
     1
102
RTVSPropertyOp33
 70
     1
102
RTVSPropertyOp34
 70
     1
102
RTVSPropertyOp35
 70
     1
102
RTVSPropertyOp36
 70
     1
102
RTVSPropertyOp37
 70
     1
102
RTVSPropertyOp38
 70
     1
102
RTVSPropertyOp39
 70
     1
102
RTVSPropertyOp40
 70
     1
102
RTVSPropertyOp41
 70
     1
102
RTVSPropertyOp42
 70
     1
102
RTVSPropertyOp43
 70
     1
102
RTVSPropertyOp44
 70
     1
102
RTVSPropertyOp45
 70
     1
102
RTVSPropertyOp46
 70
     1
102
RTVSPropertyOp47
 70
     1
102
RTVSPropertyOp48
 70
     1
102
RTVSPropertyOp49
 70
     1
102
RTVSPropertyOp50
 70
     1
102
RTVSPropertyOp51
 70
     0
102
RTVSPropertyOp52
 70
     0
102
RTVSPropertyOp53
 70
     1
102
RTVSPropertyOp54
 70
     1
102
RTVSPropertyOp55
 70
     1
102
RTVSPropertyOp56
 70
     1
102
RTVSPropertyOp57
 70
     1
102
RTVSPropertyOp58
 70
     1
102
RTVSPropertyOp59
 70
     1
102
RTVSPropertyOp60
 70
     1
102
RTVSPropertyOp61
 70
     1
102
RTVSPropertyOp62
 70
     1
  0
XRECORD
  5
1324
102
{ACAD_REACTORS
330
1323
102
}
330
1323
100
AcDbXrecord
280
     1
102
RTVSPost2010Prop28
280
     0
102
RTVSPost2010PropOp28
 70
     1
102
RTVSPost2010Prop29
280
     1
102
RTVSPost2010PropOp29
 70
     1
102
RTVSPost2010Prop30
280
     1
102
RTVSPost2010PropOp30
 70
     1
102
RTVSPost2010Prop31
280
     0
102
RTVSPost2010PropOp31
 70
     1
102
RTVSPost2010Prop32
280
     0
102
RTVSPost2010PropOp32
 70
     1
102
RTVSPost2010Prop33
280
     0
102
RTVSPost2010PropOp33
 70
     1
102
RTVSPost2010Prop34
280
     0
102
RTVSPost2010PropOp34
 70
     1
102
RTVSPost2010Prop35
280
     0
102
RTVSPost2010PropOp35
 70
     1
102
RTVSPost2010Prop36
280
     0
102
RTVSPost2010PropOp36
 70
     1
102
RTVSPost2010Prop37
 90
       50
102
RTVSPost2010PropOp37
 70
     1
102
RTVSPost2010Prop38
140
0.0
102
RTVSPost2010PropOp38
 70
     1
102
RTVSPost2010Prop39
140
1.0
102
RTVSPost2010PropOp39
 70
     1
102
RTVSPost2010Prop40
 90
        0
102
RTVSPost2010PropOp40
 70
     1
102
RTVSPost2010Prop41ColorIndex
 90
       18
102
RTVSPost2010Prop41ColorRGB
 90
        0
102
RTVSPost2010PropOp41
 70
     1
102
RTVSPost2010Prop42
 90
       50
102
RTVSPost2010PropOp42
 70
     1
102
RTVSPost2010Prop43
 90
        3
102
RTVSPost2010PropOp43
 70
     1
102
RTVSPost2010Prop44ColorIndex
 90
        5
102
RTVSPost2010Prop44ColorRGB
 90
      255
102
RTVSPost2010PropOp44
 70
     1
102
RTVSPost2010Prop45
280
     0
102
RTVSPost2010PropOp45
 70
     1
102
RTVSPost2010Prop46
 90
       50
102
RTVSPost2010PropOp46
 70
     1
102
RTVSPost2010Prop47
 90
       50
102
RTVSPost2010PropOp47
 70
     1
102
RTVSPost2010Prop48
 90
       50
102
RTVSPost2010PropOp48
 70
     1
102
RTVSPost2010Prop49
280
     0
102
RTVSPost2010PropOp49
 70
     1
102
RTVSPost2010Prop50
 90
       50
102
RTVSPost2010PropOp50
 70
     1
102
RTVSPost2010Prop51ColorIndex
 90
      256
102
RTVSPost2010Prop51ColorRGB
 90
-16777216
102
RTVSPost2010PropOp51
 70
     0
102
RTVSPost2010Prop52
140
1.0
102
RTVSPost2010PropOp52
 70
     0
102
RTVSPost2010Prop53
 90
        2
102
RTVSPost2010PropOp53
 70
     1
102
RTVSPost2010Prop54
  1
strokes_ogs.tif
102
RTVSPost2010PropOp54
 70
     1
102
RTVSPost2010Prop55
280
     0
102
RTVSPost2010PropOp55
 70
     1
102
RTVSPost2010Prop56
140
1.0
102
RTVSPost2010PropOp56
 70
     1
102
RTVSPost2010Prop57
140
1.0
102
RTVSPost2010PropOp57
 70
     1
102
RTVSPropertyOp0
 70
     1
102
RTVSPropertyOp1
 70
     1
102
RTVSPropertyOp2
 70
     1
102
RTVSPropertyOp3
 70
     1
102
RTVSPropertyOp4
 70
     1
102
RTVSPropertyOp5
 70
     1
102
RTVSPropertyOp6
 70
     1
102
RTVSPropertyOp7
 70
     1
102
RTVSPropertyOp8
 70
     1
102
RTVSPropertyOp9
 70
     1
102
RTVSPropertyOp10
 70
     1
102
RTVSPropertyOp11
 70
     1
102
RTVSPropertyOp12
 70
     1
102
RTVSPropertyOp13
 70
     1
102
RTVSPropertyOp14
 70
     1
102
RTVSPropertyOp15
 70
     1
102
RTVSPropertyOp16
 70
     1
102
RTVSPropertyOp17
 70
     1
102
RTVSPropertyOp18
 70
     1
102
RTVSPropertyOp19
 70
     1
102
RTVSPropertyOp20
 70
     1
102
RTVSPropertyOp21
 70
     1
102
RTVSPropertyOp22
 70
     1
102
RTVSPropertyOp23
 70
     1
102
RTVSPropertyOp24
 70
     1
102
RTVSPropertyOp25
 70
     1
102
RTVSPropertyOp26
 70
     1
102
RTVSPropertyOp27
 70
     1
102
RTVSPropertyOp28
 70
     1
102
RTVSPropertyOp29
 70
     1
102
RTVSPropertyOp30
 70
     1
102
RTVSPropertyOp31
 70
     1
102
RTVSPropertyOp32
 70
     1
102
RTVSPropertyOp33
 70
     1
102
RTVSPropertyOp34
 70
     1
102
RTVSPropertyOp35
 70
     1
102
RTVSPropertyOp36
 70
     1
102
RTVSPropertyOp37
 70
     1
102
RTVSPropertyOp38
 70
     1
102
RTVSPropertyOp39
 70
     1
102
RTVSPropertyOp40
 70
     1
102
RTVSPropertyOp41
 70
     1
102
RTVSPropertyOp42
 70
     1
102
RTVSPropertyOp43
 70
     1
102
RTVSPropertyOp44
 70
     1
102
RTVSPropertyOp45
 70
     1
102
RTVSPropertyOp46
 70
     1
102
RTVSPropertyOp47
 70
     1
102
RTVSPropertyOp48
 70
     1
102
RTVSPropertyOp49
 70
     1
102
RTVSPropertyOp50
 70
     1
102
RTVSPropertyOp51
 70
     0
102
RTVSPropertyOp52
 70
     0
102
RTVSPropertyOp53
 70
     1
102
RTVSPropertyOp54
 70
     1
102
RTVSPropertyOp55
 70
     1
102
RTVSPropertyOp56
 70
     1
102
RTVSPropertyOp57
 70
     1
102
RTVSPropertyOp58
 70
     1
102
RTVSPropertyOp59
 70
     1
102
RTVSPropertyOp60
 70
     1
102
RTVSPropertyOp61
 70
     1
102
RTVSPropertyOp62
 70
     1
  0
XRECORD
  5
1326
102
{ACAD_REACTORS
330
1325
102
}
330
1325
100
AcDbXrecord
280
     1
102
RTVSPost2010Prop28
280
     0
102
RTVSPost2010PropOp28
 70
     1
102
RTVSPost2010Prop29
280
     1
102
RTVSPost2010PropOp29
 70
     1
102
RTVSPost2010Prop30
280
     1
102
RTVSPost2010PropOp30
 70
     1
102
RTVSPost2010Prop31
280
     0
102
RTVSPost2010PropOp31
 70
     1
102
RTVSPost2010Prop32
280
     0
102
RTVSPost2010PropOp32
 70
     1
102
RTVSPost2010Prop33
280
     0
102
RTVSPost2010PropOp33
 70
     1
102
RTVSPost2010Prop34
280
     0
102
RTVSPost2010PropOp34
 70
     1
102
RTVSPost2010Prop35
280
     0
102
RTVSPost2010PropOp35
 70
     1
102
RTVSPost2010Prop36
280
     0
102
RTVSPost2010PropOp36
 70
     1
102
RTVSPost2010Prop37
 90
       50
102
RTVSPost2010PropOp37
 70
     1
102
RTVSPost2010Prop38
140
0.0
102
RTVSPost2010PropOp38
 70
     1
102
RTVSPost2010Prop39
140
1.0
102
RTVSPost2010PropOp39
 70
     1
102
RTVSPost2010Prop40
 90
        0
102
RTVSPost2010PropOp40
 70
     1
102
RTVSPost2010Prop41ColorIndex
 90
       18
102
RTVSPost2010Prop41ColorRGB
 90
        0
102
RTVSPost2010PropOp41
 70
     1
102
RTVSPost2010Prop42
 90
       50
102
RTVSPost2010PropOp42
 70
     1
102
RTVSPost2010Prop43
 90
        3
102
RTVSPost2010PropOp43
 70
     1
102
RTVSPost2010Prop44ColorIndex
 90
        5
102
RTVSPost2010Prop44ColorRGB
 90
      255
102
RTVSPost2010PropOp44
 70
     1
102
RTVSPost2010Prop45
280
     0
102
RTVSPost2010PropOp45
 70
     1
102
RTVSPost2010Prop46
 90
       50
102
RTVSPost2010PropOp46
 70
     1
102
RTVSPost2010Prop47
 90
       50
102
RTVSPost2010PropOp47
 70
     1
102
RTVSPost2010Prop48
 90
       50
102
RTVSPost2010PropOp48
 70
     1
102
RTVSPost2010Prop49
280
     0
102
RTVSPost2010PropOp49
 70
     1
102
RTVSPost2010Prop50
 90
       50
102
RTVSPost2010PropOp50
 70
     1
102
RTVSPost2010Prop51ColorIndex
 90
      256
102
RTVSPost2010Prop51ColorRGB
 90
-16777216
102
RTVSPost2010PropOp51
 70
     0
102
RTVSPost2010Prop52
140
1.0
102
RTVSPost2010PropOp52
 70
     0
102
RTVSPost2010Prop53
 90
        2
102
RTVSPost2010PropOp53
 70
     1
102
RTVSPost2010Prop54
  1
strokes_ogs.tif
102
RTVSPost2010PropOp54
 70
     1
102
RTVSPost2010Prop55
280
     0
102
RTVSPost2010PropOp55
 70
     1
102
RTVSPost2010Prop56
140
1.0
102
RTVSPost2010PropOp56
 70
     1
102
RTVSPost2010Prop57
140
1.0
102
RTVSPost2010PropOp57
 70
     1
102
RTVSPropertyOp0
 70
     1
102
RTVSPropertyOp1
 70
     1
102
RTVSPropertyOp2
 70
     1
102
RTVSPropertyOp3
 70
     1
102
RTVSPropertyOp4
 70
     1
102
RTVSPropertyOp5
 70
     1
102
RTVSPropertyOp6
 70
     1
102
RTVSPropertyOp7
 70
     1
102
RTVSPropertyOp8
 70
     1
102
RTVSPropertyOp9
 70
     1
102
RTVSPropertyOp10
 70
     1
102
RTVSPropertyOp11
 70
     1
102
RTVSPropertyOp12
 70
     1
102
RTVSPropertyOp13
 70
     1
102
RTVSPropertyOp14
 70
     1
102
RTVSPropertyOp15
 70
     1
102
RTVSPropertyOp16
 70
     1
102
RTVSPropertyOp17
 70
     1
102
RTVSPropertyOp18
 70
     1
102
RTVSPropertyOp19
 70
     1
102
RTVSPropertyOp20
 70
     1
102
RTVSPropertyOp21
 70
     1
102
RTVSPropertyOp22
 70
     1
102
RTVSPropertyOp23
 70
     1
102
RTVSPropertyOp24
 70
     1
102
RTVSPropertyOp25
 70
     1
102
RTVSPropertyOp26
 70
     1
102
RTVSPropertyOp27
 70
     1
102
RTVSPropertyOp28
 70
     1
102
RTVSPropertyOp29
 70
     1
102
RTVSPropertyOp30
 70
     1
102
RTVSPropertyOp31
 70
     1
102
RTVSPropertyOp32
 70
     1
102
RTVSPropertyOp33
 70
     1
102
RTVSPropertyOp34
 70
     1
102
RTVSPropertyOp35
 70
     1
102
RTVSPropertyOp36
 70
     1
102
RTVSPropertyOp37
 70
     1
102
RTVSPropertyOp38
 70
     1
102
RTVSPropertyOp39
 70
     1
102
RTVSPropertyOp40
 70
     1
102
RTVSPropertyOp41
 70
     1
102
RTVSPropertyOp42
 70
     1
102
RTVSPropertyOp43
 70
     1
102
RTVSPropertyOp44
 70
     1
102
RTVSPropertyOp45
 70
     1
102
RTVSPropertyOp46
 70
     1
102
RTVSPropertyOp47
 70
     1
102
RTVSPropertyOp48
 70
     1
102
RTVSPropertyOp49
 70
     1
102
RTVSPropertyOp50
 70
     1
102
RTVSPropertyOp51
 70
     0
102
RTVSPropertyOp52
 70
     0
102
RTVSPropertyOp53
 70
     1
102
RTVSPropertyOp54
 70
     1
102
RTVSPropertyOp55
 70
     1
102
RTVSPropertyOp56
 70
     1
102
RTVSPropertyOp57
 70
     1
102
RTVSPropertyOp58
 70
     1
102
RTVSPropertyOp59
 70
     1
102
RTVSPropertyOp60
 70
     1
102
RTVSPropertyOp61
 70
     1
102
RTVSPropertyOp62
 70
     1
  0
XRECORD
  5
1328
102
{ACAD_REACTORS
330
1327
102
}
330
1327
100
AcDbXrecord
280
     1
102
RTVSPost2010Prop28
280
     0
102
RTVSPost2010PropOp28
 70
     1
102
RTVSPost2010Prop29
280
     1
102
RTVSPost2010PropOp29
 70
     1
102
RTVSPost2010Prop30
280
     1
102
RTVSPost2010PropOp30
 70
     1
102
RTVSPost2010Prop31
280
     0
102
RTVSPost2010PropOp31
 70
     1
102
RTVSPost2010Prop32
280
     0
102
RTVSPost2010PropOp32
 70
     1
102
RTVSPost2010Prop33
280
     0
102
RTVSPost2010PropOp33
 70
     1
102
RTVSPost2010Prop34
280
     0
102
RTVSPost2010PropOp34
 70
     1
102
RTVSPost2010Prop35
280
     0
102
RTVSPost2010PropOp35
 70
     1
102
RTVSPost2010Prop36
280
     0
102
RTVSPost2010PropOp36
 70
     1
102
RTVSPost2010Prop37
 90
       50
102
RTVSPost2010PropOp37
 70
     1
102
RTVSPost2010Prop38
140
0.0
102
RTVSPost2010PropOp38
 70
     1
102
RTVSPost2010Prop39
140
1.0
102
RTVSPost2010PropOp39
 70
     1
102
RTVSPost2010Prop40
 90
        0
102
RTVSPost2010PropOp40
 70
     1
102
RTVSPost2010Prop41ColorIndex
 90
       18
102
RTVSPost2010Prop41ColorRGB
 90
        0
102
RTVSPost2010PropOp41
 70
     1
102
RTVSPost2010Prop42
 90
       50
102
RTVSPost2010PropOp42
 70
     1
102
RTVSPost2010Prop43
 90
        3
102
RTVSPost2010PropOp43
 70
     1
102
RTVSPost2010Prop44ColorIndex
 90
        5
102
RTVSPost2010Prop44ColorRGB
 90
      255
102
RTVSPost2010PropOp44
 70
     1
102
RTVSPost2010Prop45
280
     0
102
RTVSPost2010PropOp45
 70
     1
102
RTVSPost2010Prop46
 90
       50
102
RTVSPost2010PropOp46
 70
     1
102
RTVSPost2010Prop47
 90
       50
102
RTVSPost2010PropOp47
 70
     1
102
RTVSPost2010Prop48
 90
       50
102
RTVSPost2010PropOp48
 70
     1
102
RTVSPost2010Prop49
280
     0
102
RTVSPost2010PropOp49
 70
     1
102
RTVSPost2010Prop50
 90
       50
102
RTVSPost2010PropOp50
 70
     1
102
RTVSPost2010Prop51ColorIndex
 90
      256
102
RTVSPost2010Prop51ColorRGB
 90
-16777216
102
RTVSPost2010PropOp51
 70
     0
102
RTVSPost2010Prop52
140
1.0
102
RTVSPost2010PropOp52
 70
     0
102
RTVSPost2010Prop53
 90
        2
102
RTVSPost2010PropOp53
 70
     1
102
RTVSPost2010Prop54
  1
strokes_ogs.tif
102
RTVSPost2010PropOp54
 70
     1
102
RTVSPost2010Prop55
280
     0
102
RTVSPost2010PropOp55
 70
     1
102
RTVSPost2010Prop56
140
1.0
102
RTVSPost2010PropOp56
 70
     1
102
RTVSPost2010Prop57
140
1.0
102
RTVSPost2010PropOp57
 70
     1
102
RTVSPropertyOp0
 70
     1
102
RTVSPropertyOp1
 70
     1
102
RTVSPropertyOp2
 70
     1
102
RTVSPropertyOp3
 70
     1
102
RTVSPropertyOp4
 70
     1
102
RTVSPropertyOp5
 70
     1
102
RTVSPropertyOp6
 70
     1
102
RTVSPropertyOp7
 70
     1
102
RTVSPropertyOp8
 70
     1
102
RTVSPropertyOp9
 70
     1
102
RTVSPropertyOp10
 70
     1
102
RTVSPropertyOp11
 70
     1
102
RTVSPropertyOp12
 70
     1
102
RTVSPropertyOp13
 70
     1
102
RTVSPropertyOp14
 70
     1
102
RTVSPropertyOp15
 70
     1
102
RTVSPropertyOp16
 70
     1
102
RTVSPropertyOp17
 70
     1
102
RTVSPropertyOp18
 70
     1
102
RTVSPropertyOp19
 70
     1
102
RTVSPropertyOp20
 70
     1
102
RTVSPropertyOp21
 70
     1
102
RTVSPropertyOp22
 70
     1
102
RTVSPropertyOp23
 70
     1
102
RTVSPropertyOp24
 70
     1
102
RTVSPropertyOp25
 70
     1
102
RTVSPropertyOp26
 70
     1
102
RTVSPropertyOp27
 70
     1
102
RTVSPropertyOp28
 70
     1
102
RTVSPropertyOp29
 70
     1
102
RTVSPropertyOp30
 70
     1
102
RTVSPropertyOp31
 70
     1
102
RTVSPropertyOp32
 70
     1
102
RTVSPropertyOp33
 70
     1
102
RTVSPropertyOp34
 70
     1
102
RTVSPropertyOp35
 70
     1
102
RTVSPropertyOp36
 70
     1
102
RTVSPropertyOp37
 70
     1
102
RTVSPropertyOp38
 70
     1
102
RTVSPropertyOp39
 70
     1
102
RTVSPropertyOp40
 70
     1
102
RTVSPropertyOp41
 70
     1
102
RTVSPropertyOp42
 70
     1
102
RTVSPropertyOp43
 70
     1
102
RTVSPropertyOp44
 70
     1
102
RTVSPropertyOp45
 70
     1
102
RTVSPropertyOp46
 70
     1
102
RTVSPropertyOp47
 70
     1
102
RTVSPropertyOp48
 70
     1
102
RTVSPropertyOp49
 70
     1
102
RTVSPropertyOp50
 70
     1
102
RTVSPropertyOp51
 70
     0
102
RTVSPropertyOp52
 70
     0
102
RTVSPropertyOp53
 70
     1
102
RTVSPropertyOp54
 70
     1
102
RTVSPropertyOp55
 70
     1
102
RTVSPropertyOp56
 70
     1
102
RTVSPropertyOp57
 70
     1
102
RTVSPropertyOp58
 70
     1
102
RTVSPropertyOp59
 70
     1
102
RTVSPropertyOp60
 70
     1
102
RTVSPropertyOp61
 70
     1
102
RTVSPropertyOp62
 70
     1
  0
XRECORD
  5
132A
102
{ACAD_REACTORS
330
1329
102
}
330
1329
100
AcDbXrecord
280
     1
102
RTVSPost2010Prop28
280
     0
102
RTVSPost2010PropOp28
 70
     1
102
RTVSPost2010Prop29
280
     1
102
RTVSPost2010PropOp29
 70
     1
102
RTVSPost2010Prop30
280
     1
102
RTVSPost2010PropOp30
 70
     1
102
RTVSPost2010Prop31
280
     0
102
RTVSPost2010PropOp31
 70
     1
102
RTVSPost2010Prop32
280
     0
102
RTVSPost2010PropOp32
 70
     1
102
RTVSPost2010Prop33
280
     0
102
RTVSPost2010PropOp33
 70
     1
102
RTVSPost2010Prop34
280
     0
102
RTVSPost2010PropOp34
 70
     1
102
RTVSPost2010Prop35
280
     0
102
RTVSPost2010PropOp35
 70
     1
102
RTVSPost2010Prop36
280
     0
102
RTVSPost2010PropOp36
 70
     1
102
RTVSPost2010Prop37
 90
       50
102
RTVSPost2010PropOp37
 70
     1
102
RTVSPost2010Prop38
140
0.0
102
RTVSPost2010PropOp38
 70
     1
102
RTVSPost2010Prop39
140
1.0
102
RTVSPost2010PropOp39
 70
     1
102
RTVSPost2010Prop40
 90
        0
102
RTVSPost2010PropOp40
 70
     1
102
RTVSPost2010Prop41ColorIndex
 90
       18
102
RTVSPost2010Prop41ColorRGB
 90
        0
102
RTVSPost2010PropOp41
 70
     1
102
RTVSPost2010Prop42
 90
       50
102
RTVSPost2010PropOp42
 70
     1
102
RTVSPost2010Prop43
 90
        3
102
RTVSPost2010PropOp43
 70
     1
102
RTVSPost2010Prop44ColorIndex
 90
        5
102
RTVSPost2010Prop44ColorRGB
 90
      255
102
RTVSPost2010PropOp44
 70
     1
102
RTVSPost2010Prop45
280
     0
102
RTVSPost2010PropOp45
 70
     1
102
RTVSPost2010Prop46
 90
       50
102
RTVSPost2010PropOp46
 70
     1
102
RTVSPost2010Prop47
 90
       50
102
RTVSPost2010PropOp47
 70
     1
102
RTVSPost2010Prop48
 90
       50
102
RTVSPost2010PropOp48
 70
     1
102
RTVSPost2010Prop49
280
     0
102
RTVSPost2010PropOp49
 70
     1
102
RTVSPost2010Prop50
 90
       50
102
RTVSPost2010PropOp50
 70
     1
102
RTVSPost2010Prop51ColorIndex
 90
      256
102
RTVSPost2010Prop51ColorRGB
 90
-16777216
102
RTVSPost2010PropOp51
 70
     0
102
RTVSPost2010Prop52
140
1.0
102
RTVSPost2010PropOp52
 70
     0
102
RTVSPost2010Prop53
 90
        2
102
RTVSPost2010PropOp53
 70
     1
102
RTVSPost2010Prop54
  1
strokes_ogs.tif
102
RTVSPost2010PropOp54
 70
     1
102
RTVSPost2010Prop55
280
     0
102
RTVSPost2010PropOp55
 70
     1
102
RTVSPost2010Prop56
140
1.0
102
RTVSPost2010PropOp56
 70
     1
102
RTVSPost2010Prop57
140
1.0
102
RTVSPost2010PropOp57
 70
     1
102
RTVSPropertyOp0
 70
     1
102
RTVSPropertyOp1
 70
     1
102
RTVSPropertyOp2
 70
     1
102
RTVSPropertyOp3
 70
     1
102
RTVSPropertyOp4
 70
     1
102
RTVSPropertyOp5
 70
     1
102
RTVSPropertyOp6
 70
     1
102
RTVSPropertyOp7
 70
     1
102
RTVSPropertyOp8
 70
     1
102
RTVSPropertyOp9
 70
     1
102
RTVSPropertyOp10
 70
     1
102
RTVSPropertyOp11
 70
     1
102
RTVSPropertyOp12
 70
     1
102
RTVSPropertyOp13
 70
     1
102
RTVSPropertyOp14
 70
     1
102
RTVSPropertyOp15
 70
     1
102
RTVSPropertyOp16
 70
     1
102
RTVSPropertyOp17
 70
     1
102
RTVSPropertyOp18
 70
     1
102
RTVSPropertyOp19
 70
     1
102
RTVSPropertyOp20
 70
     1
102
RTVSPropertyOp21
 70
     1
102
RTVSPropertyOp22
 70
     1
102
RTVSPropertyOp23
 70
     1
102
RTVSPropertyOp24
 70
     1
102
RTVSPropertyOp25
 70
     1
102
RTVSPropertyOp26
 70
     1
102
RTVSPropertyOp27
 70
     1
102
RTVSPropertyOp28
 70
     1
102
RTVSPropertyOp29
 70
     1
102
RTVSPropertyOp30
 70
     1
102
RTVSPropertyOp31
 70
     1
102
RTVSPropertyOp32
 70
     1
102
RTVSPropertyOp33
 70
     1
102
RTVSPropertyOp34
 70
     1
102
RTVSPropertyOp35
 70
     1
102
RTVSPropertyOp36
 70
     1
102
RTVSPropertyOp37
 70
     1
102
RTVSPropertyOp38
 70
     1
102
RTVSPropertyOp39
 70
     1
102
RTVSPropertyOp40
 70
     1
102
RTVSPropertyOp41
 70
     1
102
RTVSPropertyOp42
 70
     1
102
RTVSPropertyOp43
 70
     1
102
RTVSPropertyOp44
 70
     1
102
RTVSPropertyOp45
 70
     1
102
RTVSPropertyOp46
 70
     1
102
RTVSPropertyOp47
 70
     1
102
RTVSPropertyOp48
 70
     1
102
RTVSPropertyOp49
 70
     1
102
RTVSPropertyOp50
 70
     1
102
RTVSPropertyOp51
 70
     0
102
RTVSPropertyOp52
 70
     0
102
RTVSPropertyOp53
 70
     1
102
RTVSPropertyOp54
 70
     1
102
RTVSPropertyOp55
 70
     1
102
RTVSPropertyOp56
 70
     1
102
RTVSPropertyOp57
 70
     1
102
RTVSPropertyOp58
 70
     1
102
RTVSPropertyOp59
 70
     1
102
RTVSPropertyOp60
 70
     1
102
RTVSPropertyOp61
 70
     1
102
RTVSPropertyOp62
 70
     1
  0
XRECORD
  5
1332
102
{ACAD_REACTORS
330
1331
102
}
330
1331
100
AcDbXrecord
280
     1
102
RTVSPost2010Prop28
280
     0
102
RTVSPost2010PropOp28
 70
     1
102
RTVSPost2010Prop29
280
     1
102
RTVSPost2010PropOp29
 70
     1
102
RTVSPost2010Prop30
280
     1
102
RTVSPost2010PropOp30
 70
     1
102
RTVSPost2010Prop31
280
     0
102
RTVSPost2010PropOp31
 70
     1
102
RTVSPost2010Prop32
280
     0
102
RTVSPost2010PropOp32
 70
     1
102
RTVSPost2010Prop33
280
     0
102
RTVSPost2010PropOp33
 70
     1
102
RTVSPost2010Prop34
280
     0
102
RTVSPost2010PropOp34
 70
     1
102
RTVSPost2010Prop35
280
     0
102
RTVSPost2010PropOp35
 70
     1
102
RTVSPost2010Prop36
280
     0
102
RTVSPost2010PropOp36
 70
     1
102
RTVSPost2010Prop37
 90
       50
102
RTVSPost2010PropOp37
 70
     1
102
RTVSPost2010Prop38
140
0.0
102
RTVSPost2010PropOp38
 70
     1
102
RTVSPost2010Prop39
140
1.0
102
RTVSPost2010PropOp39
 70
     1
102
RTVSPost2010Prop40
 90
        0
102
RTVSPost2010PropOp40
 70
     1
102
RTVSPost2010Prop41ColorIndex
 90
       18
102
RTVSPost2010Prop41ColorRGB
 90
        0
102
RTVSPost2010PropOp41
 70
     1
102
RTVSPost2010Prop42
 90
       50
102
RTVSPost2010PropOp42
 70
     1
102
RTVSPost2010Prop43
 90
        3
102
RTVSPost2010PropOp43
 70
     1
102
RTVSPost2010Prop44ColorIndex
 90
        5
102
RTVSPost2010Prop44ColorRGB
 90
      255
102
RTVSPost2010PropOp44
 70
     1
102
RTVSPost2010Prop45
280
     0
102
RTVSPost2010PropOp45
 70
     1
102
RTVSPost2010Prop46
 90
       50
102
RTVSPost2010PropOp46
 70
     1
102
RTVSPost2010Prop47
 90
       50
102
RTVSPost2010PropOp47
 70
     1
102
RTVSPost2010Prop48
 90
       50
102
RTVSPost2010PropOp48
 70
     1
102
RTVSPost2010Prop49
280
     0
102
RTVSPost2010PropOp49
 70
     1
102
RTVSPost2010Prop50
 90
       50
102
RTVSPost2010PropOp50
 70
     1
102
RTVSPost2010Prop51ColorIndex
 90
      256
102
RTVSPost2010Prop51ColorRGB
 90
-16777216
102
RTVSPost2010PropOp51
 70
     0
102
RTVSPost2010Prop52
140
1.0
102
RTVSPost2010PropOp52
 70
     0
102
RTVSPost2010Prop53
 90
        2
102
RTVSPost2010PropOp53
 70
     1
102
RTVSPost2010Prop54
  1
strokes_ogs.tif
102
RTVSPost2010PropOp54
 70
     1
102
RTVSPost2010Prop55
280
     0
102
RTVSPost2010PropOp55
 70
     1
102
RTVSPost2010Prop56
140
1.0
102
RTVSPost2010PropOp56
 70
     1
102
RTVSPost2010Prop57
140
1.0
102
RTVSPost2010PropOp57
 70
     1
102
RTVSPropertyOp0
 70
     1
102
RTVSPropertyOp1
 70
     1
102
RTVSPropertyOp2
 70
     1
102
RTVSPropertyOp3
 70
     1
102
RTVSPropertyOp4
 70
     1
102
RTVSPropertyOp5
 70
     1
102
RTVSPropertyOp6
 70
     1
102
RTVSPropertyOp7
 70
     1
102
RTVSPropertyOp8
 70
     1
102
RTVSPropertyOp9
 70
     1
102
RTVSPropertyOp10
 70
     1
102
RTVSPropertyOp11
 70
     1
102
RTVSPropertyOp12
 70
     1
102
RTVSPropertyOp13
 70
     1
102
RTVSPropertyOp14
 70
     1
102
RTVSPropertyOp15
 70
     1
102
RTVSPropertyOp16
 70
     1
102
RTVSPropertyOp17
 70
     1
102
RTVSPropertyOp18
 70
     1
102
RTVSPropertyOp19
 70
     1
102
RTVSPropertyOp20
 70
     1
102
RTVSPropertyOp21
 70
     1
102
RTVSPropertyOp22
 70
     1
102
RTVSPropertyOp23
 70
     1
102
RTVSPropertyOp24
 70
     1
102
RTVSPropertyOp25
 70
     1
102
RTVSPropertyOp26
 70
     1
102
RTVSPropertyOp27
 70
     1
102
RTVSPropertyOp28
 70
     1
102
RTVSPropertyOp29
 70
     1
102
RTVSPropertyOp30
 70
     1
102
RTVSPropertyOp31
 70
     1
102
RTVSPropertyOp32
 70
     1
102
RTVSPropertyOp33
 70
     1
102
RTVSPropertyOp34
 70
     1
102
RTVSPropertyOp35
 70
     1
102
RTVSPropertyOp36
 70
     1
102
RTVSPropertyOp37
 70
     1
102
RTVSPropertyOp38
 70
     1
102
RTVSPropertyOp39
 70
     1
102
RTVSPropertyOp40
 70
     1
102
RTVSPropertyOp41
 70
     1
102
RTVSPropertyOp42
 70
     1
102
RTVSPropertyOp43
 70
     1
102
RTVSPropertyOp44
 70
     1
102
RTVSPropertyOp45
 70
     1
102
RTVSPropertyOp46
 70
     1
102
RTVSPropertyOp47
 70
     1
102
RTVSPropertyOp48
 70
     1
102
RTVSPropertyOp49
 70
     1
102
RTVSPropertyOp50
 70
     1
102
RTVSPropertyOp51
 70
     0
102
RTVSPropertyOp52
 70
     0
102
RTVSPropertyOp53
 70
     1
102
RTVSPropertyOp54
 70
     1
102
RTVSPropertyOp55
 70
     1
102
RTVSPropertyOp56
 70
     1
102
RTVSPropertyOp57
 70
     1
102
RTVSPropertyOp58
 70
     1
102
RTVSPropertyOp59
 70
     1
102
RTVSPropertyOp60
 70
     1
102
RTVSPropertyOp61
 70
     1
102
RTVSPropertyOp62
 70
     1
  0
XRECORD
  5
134E
102
{ACAD_REACTORS
330
134D
102
}
330
134D
100
AcDbXrecord
280
     1
102
RTVSPost2010Prop28
280
     0
102
RTVSPost2010PropOp28
 70
     1
102
RTVSPost2010Prop29
280
     1
102
RTVSPost2010PropOp29
 70
     1
102
RTVSPost2010Prop30
280
     1
102
RTVSPost2010PropOp30
 70
     1
102
RTVSPost2010Prop31
280
     0
102
RTVSPost2010PropOp31
 70
     1
102
RTVSPost2010Prop32
280
     0
102
RTVSPost2010PropOp32
 70
     1
102
RTVSPost2010Prop33
280
     0
102
RTVSPost2010PropOp33
 70
     1
102
RTVSPost2010Prop34
280
     0
102
RTVSPost2010PropOp34
 70
     1
102
RTVSPost2010Prop35
280
     0
102
RTVSPost2010PropOp35
 70
     1
102
RTVSPost2010Prop36
280
     0
102
RTVSPost2010PropOp36
 70
     1
102
RTVSPost2010Prop37
 90
       50
102
RTVSPost2010PropOp37
 70
     0
102
RTVSPost2010Prop38
140
0.0
102
RTVSPost2010PropOp38
 70
     0
102
RTVSPost2010Prop39
140
1.0
102
RTVSPost2010PropOp39
 70
     0
102
RTVSPost2010Prop40
 90
        0
102
RTVSPost2010PropOp40
 70
     0
102
RTVSPost2010Prop41ColorIndex
 90
       18
102
RTVSPost2010Prop41ColorRGB
 90
        0
102
RTVSPost2010PropOp41
 70
     0
102
RTVSPost2010Prop42
 90
       50
102
RTVSPost2010PropOp42
 70
     0
102
RTVSPost2010Prop43
 90
        3
102
RTVSPost2010PropOp43
 70
     0
102
RTVSPost2010Prop44ColorIndex
 90
        5
102
RTVSPost2010Prop44ColorRGB
 90
      255
102
RTVSPost2010PropOp44
 70
     0
102
RTVSPost2010Prop45
280
     0
102
RTVSPost2010PropOp45
 70
     1
102
RTVSPost2010Prop46
 90
       50
102
RTVSPost2010PropOp46
 70
     0
102
RTVSPost2010Prop47
 90
       50
102
RTVSPost2010PropOp47
 70
     0
102
RTVSPost2010Prop48
 90
       50
102
RTVSPost2010PropOp48
 70
     0
102
RTVSPost2010Prop49
280
     0
102
RTVSPost2010PropOp49
 70
     1
102
RTVSPost2010Prop50
 90
       50
102
RTVSPost2010PropOp50
 70
     0
102
RTVSPost2010Prop51ColorIndex
 90
      256
102
RTVSPost2010Prop51ColorRGB
 90
-16777216
102
RTVSPost2010PropOp51
 70
     0
102
RTVSPost2010Prop52
140
1.0
102
RTVSPost2010PropOp52
 70
     0
102
RTVSPost2010Prop53
 90
        2
102
RTVSPost2010PropOp53
 70
     0
102
RTVSPost2010Prop54
  1
strokes_ogs.tif
102
RTVSPost2010PropOp54
 70
     0
102
RTVSPost2010Prop55
280
     0
102
RTVSPost2010PropOp55
 70
     1
102
RTVSPost2010Prop56
140
1.0
102
RTVSPost2010PropOp56
 70
     0
102
RTVSPost2010Prop57
140
1.0
102
RTVSPost2010PropOp57
 70
     0
102
RTVSPropertyOp0
 70
     0
102
RTVSPropertyOp1
 70
     0
102
RTVSPropertyOp2
 70
     0
102
RTVSPropertyOp3
 70
     0
102
RTVSPropertyOp4
 70
     0
102
RTVSPropertyOp5
 70
     0
102
RTVSPropertyOp6
 70
     0
102
RTVSPropertyOp7
 70
     0
102
RTVSPropertyOp8
 70
     0
102
RTVSPropertyOp9
 70
     0
102
RTVSPropertyOp10
 70
     0
102
RTVSPropertyOp11
 70
     0
102
RTVSPropertyOp12
 70
     0
102
RTVSPropertyOp13
 70
     0
102
RTVSPropertyOp14
 70
     2
102
RTVSPropertyOp15
 70
     0
102
RTVSPropertyOp16
 70
     0
102
RTVSPropertyOp17
 70
     0
102
RTVSPropertyOp18
 70
     0
102
RTVSPropertyOp19
 70
     0
102
RTVSPropertyOp20
 70
     0
102
RTVSPropertyOp21
 70
     0
102
RTVSPropertyOp22
 70
     0
102
RTVSPropertyOp23
 70
     0
102
RTVSPropertyOp24
 70
     0
102
RTVSPropertyOp25
 70
     0
102
RTVSPropertyOp26
 70
     0
102
RTVSPropertyOp27
 70
     0
102
RTVSPropertyOp28
 70
     1
102
RTVSPropertyOp29
 70
     1
102
RTVSPropertyOp30
 70
     1
102
RTVSPropertyOp31
 70
     1
102
RTVSPropertyOp32
 70
     1
102
RTVSPropertyOp33
 70
     1
102
RTVSPropertyOp34
 70
     1
102
RTVSPropertyOp35
 70
     1
102
RTVSPropertyOp36
 70
     1
102
RTVSPropertyOp37
 70
     0
102
RTVSPropertyOp38
 70
     0
102
RTVSPropertyOp39
 70
     0
102
RTVSPropertyOp40
 70
     0
102
RTVSPropertyOp41
 70
     0
102
RTVSPropertyOp42
 70
     0
102
RTVSPropertyOp43
 70
     0
102
RTVSPropertyOp44
 70
     0
102
RTVSPropertyOp45
 70
     1
102
RTVSPropertyOp46
 70
     0
102
RTVSPropertyOp47
 70
     0
102
RTVSPropertyOp48
 70
     0
102
RTVSPropertyOp49
 70
     1
102
RTVSPropertyOp50
 70
     0
102
RTVSPropertyOp51
 70
     0
102
RTVSPropertyOp52
 70
     0
102
RTVSPropertyOp53
 70
     0
102
RTVSPropertyOp54
 70
     0
102
RTVSPropertyOp55
 70
     1
102
RTVSPropertyOp56
 70
     0
102
RTVSPropertyOp57
 70
     0
102
RTVSPropertyOp58
 70
     0
102
RTVSPropertyOp59
 70
     0
102
RTVSPropertyOp60
 70
     0
102
RTVSPropertyOp61
 70
     0
102
RTVSPropertyOp62
 70
     0
  0
XRECORD
  5
133E
102
{ACAD_REACTORS
330
133D
102
}
330
133D
100
AcDbXrecord
280
     1
102
RTVSPost2010Prop28
280
     0
102
RTVSPost2010PropOp28
 70
     1
102
RTVSPost2010Prop29
280
     1
102
RTVSPost2010PropOp29
 70
     1
102
RTVSPost2010Prop30
280
     1
102
RTVSPost2010PropOp30
 70
     1
102
RTVSPost2010Prop31
280
     0
102
RTVSPost2010PropOp31
 70
     1
102
RTVSPost2010Prop32
280
     0
102
RTVSPost2010PropOp32
 70
     1
102
RTVSPost2010Prop33
280
     0
102
RTVSPost2010PropOp33
 70
     1
102
RTVSPost2010Prop34
280
     0
102
RTVSPost2010PropOp34
 70
     1
102
RTVSPost2010Prop35
280
     0
102
RTVSPost2010PropOp35
 70
     1
102
RTVSPost2010Prop36
280
     0
102
RTVSPost2010PropOp36
 70
     1
102
RTVSPost2010Prop37
 90
       50
102
RTVSPost2010PropOp37
 70
     1
102
RTVSPost2010Prop38
140
0.0
102
RTVSPost2010PropOp38
 70
     1
102
RTVSPost2010Prop39
140
1.0
102
RTVSPost2010PropOp39
 70
     1
102
RTVSPost2010Prop40
 90
        0
102
RTVSPost2010PropOp40
 70
     1
102
RTVSPost2010Prop41ColorIndex
 90
       18
102
RTVSPost2010Prop41ColorRGB
 90
        0
102
RTVSPost2010PropOp41
 70
     1
102
RTVSPost2010Prop42
 90
       50
102
RTVSPost2010PropOp42
 70
     1
102
RTVSPost2010Prop43
 90
        3
102
RTVSPost2010PropOp43
 70
     1
102
RTVSPost2010Prop44ColorIndex
 90
        5
102
RTVSPost2010Prop44ColorRGB
 90
      255
102
RTVSPost2010PropOp44
 70
     1
102
RTVSPost2010Prop45
280
     0
102
RTVSPost2010PropOp45
 70
     1
102
RTVSPost2010Prop46
 90
       50
102
RTVSPost2010PropOp46
 70
     1
102
RTVSPost2010Prop47
 90
       50
102
RTVSPost2010PropOp47
 70
     1
102
RTVSPost2010Prop48
 90
       50
102
RTVSPost2010PropOp48
 70
     1
102
RTVSPost2010Prop49
280
     0
102
RTVSPost2010PropOp49
 70
     1
102
RTVSPost2010Prop50
 90
       50
102
RTVSPost2010PropOp50
 70
     1
102
RTVSPost2010Prop51ColorIndex
 90
      256
102
RTVSPost2010Prop51ColorRGB
 90
-16777216
102
RTVSPost2010PropOp51
 70
     0
102
RTVSPost2010Prop52
140
1.0
102
RTVSPost2010PropOp52
 70
     0
102
RTVSPost2010Prop53
 90
        2
102
RTVSPost2010PropOp53
 70
     1
102
RTVSPost2010Prop54
  1
strokes_ogs.tif
102
RTVSPost2010PropOp54
 70
     1
102
RTVSPost2010Prop55
280
     0
102
RTVSPost2010PropOp55
 70
     1
102
RTVSPost2010Prop56
140
1.0
102
RTVSPost2010PropOp56
 70
     1
102
RTVSPost2010Prop57
140
1.0
102
RTVSPost2010PropOp57
 70
     1
102
RTVSPropertyOp0
 70
     1
102
RTVSPropertyOp1
 70
     1
102
RTVSPropertyOp2
 70
     1
102
RTVSPropertyOp3
 70
     1
102
RTVSPropertyOp4
 70
     1
102
RTVSPropertyOp5
 70
     1
102
RTVSPropertyOp6
 70
     1
102
RTVSPropertyOp7
 70
     1
102
RTVSPropertyOp8
 70
     1
102
RTVSPropertyOp9
 70
     1
102
RTVSPropertyOp10
 70
     1
102
RTVSPropertyOp11
 70
     1
102
RTVSPropertyOp12
 70
     1
102
RTVSPropertyOp13
 70
     1
102
RTVSPropertyOp14
 70
     1
102
RTVSPropertyOp15
 70
     1
102
RTVSPropertyOp16
 70
     1
102
RTVSPropertyOp17
 70
     1
102
RTVSPropertyOp18
 70
     1
102
RTVSPropertyOp19
 70
     1
102
RTVSPropertyOp20
 70
     1
102
RTVSPropertyOp21
 70
     1
102
RTVSPropertyOp22
 70
     1
102
RTVSPropertyOp23
 70
     1
102
RTVSPropertyOp24
 70
     1
102
RTVSPropertyOp25
 70
     1
102
RTVSPropertyOp26
 70
     1
102
RTVSPropertyOp27
 70
     1
102
RTVSPropertyOp28
 70
     1
102
RTVSPropertyOp29
 70
     1
102
RTVSPropertyOp30
 70
     1
102
RTVSPropertyOp31
 70
     1
102
RTVSPropertyOp32
 70
     1
102
RTVSPropertyOp33
 70
     1
102
RTVSPropertyOp34
 70
     1
102
RTVSPropertyOp35
 70
     1
102
RTVSPropertyOp36
 70
     1
102
RTVSPropertyOp37
 70
     1
102
RTVSPropertyOp38
 70
     1
102
RTVSPropertyOp39
 70
     1
102
RTVSPropertyOp40
 70
     1
102
RTVSPropertyOp41
 70
     1
102
RTVSPropertyOp42
 70
     1
102
RTVSPropertyOp43
 70
     1
102
RTVSPropertyOp44
 70
     1
102
RTVSPropertyOp45
 70
     1
102
RTVSPropertyOp46
 70
     1
102
RTVSPropertyOp47
 70
     1
102
RTVSPropertyOp48
 70
     1
102
RTVSPropertyOp49
 70
     1
102
RTVSPropertyOp50
 70
     1
102
RTVSPropertyOp51
 70
     0
102
RTVSPropertyOp52
 70
     0
102
RTVSPropertyOp53
 70
     1
102
RTVSPropertyOp54
 70
     1
102
RTVSPropertyOp55
 70
     1
102
RTVSPropertyOp56
 70
     1
102
RTVSPropertyOp57
 70
     1
102
RTVSPropertyOp58
 70
     1
102
RTVSPropertyOp59
 70
     1
102
RTVSPropertyOp60
 70
     1
102
RTVSPropertyOp61
 70
     1
102
RTVSPropertyOp62
 70
     1
  0
XRECORD
  5
1350
102
{ACAD_REACTORS
330
134F
102
}
330
134F
100
AcDbXrecord
280
     1
102
RTVSPost2010Prop28
280
     0
102
RTVSPost2010PropOp28
 70
     1
102
RTVSPost2010Prop29
280
     1
102
RTVSPost2010PropOp29
 70
     1
102
RTVSPost2010Prop30
280
     1
102
RTVSPost2010PropOp30
 70
     1
102
RTVSPost2010Prop31
280
     0
102
RTVSPost2010PropOp31
 70
     1
102
RTVSPost2010Prop32
280
     0
102
RTVSPost2010PropOp32
 70
     1
102
RTVSPost2010Prop33
280
     0
102
RTVSPost2010PropOp33
 70
     1
102
RTVSPost2010Prop34
280
     0
102
RTVSPost2010PropOp34
 70
     1
102
RTVSPost2010Prop35
280
     0
102
RTVSPost2010PropOp35
 70
     1
102
RTVSPost2010Prop36
280
     0
102
RTVSPost2010PropOp36
 70
     1
102
RTVSPost2010Prop37
 90
       50
102
RTVSPost2010PropOp37
 70
     0
102
RTVSPost2010Prop38
140
0.0
102
RTVSPost2010PropOp38
 70
     0
102
RTVSPost2010Prop39
140
1.0
102
RTVSPost2010PropOp39
 70
     0
102
RTVSPost2010Prop40
 90
        0
102
RTVSPost2010PropOp40
 70
     0
102
RTVSPost2010Prop41ColorIndex
 90
       18
102
RTVSPost2010Prop41ColorRGB
 90
        0
102
RTVSPost2010PropOp41
 70
     0
102
RTVSPost2010Prop42
 90
       50
102
RTVSPost2010PropOp42
 70
     0
102
RTVSPost2010Prop43
 90
        3
102
RTVSPost2010PropOp43
 70
     0
102
RTVSPost2010Prop44ColorIndex
 90
        5
102
RTVSPost2010Prop44ColorRGB
 90
      255
102
RTVSPost2010PropOp44
 70
     0
102
RTVSPost2010Prop45
280
     0
102
RTVSPost2010PropOp45
 70
     1
102
RTVSPost2010Prop46
 90
       50
102
RTVSPost2010PropOp46
 70
     0
102
RTVSPost2010Prop47
 90
       50
102
RTVSPost2010PropOp47
 70
     0
102
RTVSPost2010Prop48
 90
       50
102
RTVSPost2010PropOp48
 70
     0
102
RTVSPost2010Prop49
280
     0
102
RTVSPost2010PropOp49
 70
     1
102
RTVSPost2010Prop50
 90
       50
102
RTVSPost2010PropOp50
 70
     0
102
RTVSPost2010Prop51ColorIndex
 90
      256
102
RTVSPost2010Prop51ColorRGB
 90
-16777216
102
RTVSPost2010PropOp51
 70
     0
102
RTVSPost2010Prop52
140
1.0
102
RTVSPost2010PropOp52
 70
     0
102
RTVSPost2010Prop53
 90
        2
102
RTVSPost2010PropOp53
 70
     0
102
RTVSPost2010Prop54
  1
strokes_ogs.tif
102
RTVSPost2010PropOp54
 70
     0
102
RTVSPost2010Prop55
280
     0
102
RTVSPost2010PropOp55
 70
     1
102
RTVSPost2010Prop56
140
1.0
102
RTVSPost2010PropOp56
 70
     0
102
RTVSPost2010Prop57
140
1.0
102
RTVSPost2010PropOp57
 70
     0
102
RTVSPropertyOp0
 70
     0
102
RTVSPropertyOp1
 70
     0
102
RTVSPropertyOp2
 70
     0
102
RTVSPropertyOp3
 70
     0
102
RTVSPropertyOp4
 70
     0
102
RTVSPropertyOp5
 70
     0
102
RTVSPropertyOp6
 70
     0
102
RTVSPropertyOp7
 70
     0
102
RTVSPropertyOp8
 70
     0
102
RTVSPropertyOp9
 70
     0
102
RTVSPropertyOp10
 70
     0
102
RTVSPropertyOp11
 70
     0
102
RTVSPropertyOp12
 70
     0
102
RTVSPropertyOp13
 70
     0
102
RTVSPropertyOp14
 70
     2
102
RTVSPropertyOp15
 70
     0
102
RTVSPropertyOp16
 70
     0
102
RTVSPropertyOp17
 70
     0
102
RTVSPropertyOp18
 70
     0
102
RTVSPropertyOp19
 70
     0
102
RTVSPropertyOp20
 70
     0
102
RTVSPropertyOp21
 70
     0
102
RTVSPropertyOp22
 70
     0
102
RTVSPropertyOp23
 70
     0
102
RTVSPropertyOp24
 70
     0
102
RTVSPropertyOp25
 70
     0
102
RTVSPropertyOp26
 70
     0
102
RTVSPropertyOp27
 70
     0
102
RTVSPropertyOp28
 70
     1
102
RTVSPropertyOp29
 70
     1
102
RTVSPropertyOp30
 70
     1
102
RTVSPropertyOp31
 70
     1
102
RTVSPropertyOp32
 70
     1
102
RTVSPropertyOp33
 70
     1
102
RTVSPropertyOp34
 70
     1
102
RTVSPropertyOp35
 70
     1
102
RTVSPropertyOp36
 70
     1
102
RTVSPropertyOp37
 70
     0
102
RTVSPropertyOp38
 70
     0
102
RTVSPropertyOp39
 70
     0
102
RTVSPropertyOp40
 70
     0
102
RTVSPropertyOp41
 70
     0
102
RTVSPropertyOp42
 70
     0
102
RTVSPropertyOp43
 70
     0
102
RTVSPropertyOp44
 70
     0
102
RTVSPropertyOp45
 70
     1
102
RTVSPropertyOp46
 70
     0
102
RTVSPropertyOp47
 70
     0
102
RTVSPropertyOp48
 70
     0
102
RTVSPropertyOp49
 70
     1
102
RTVSPropertyOp50
 70
     0
102
RTVSPropertyOp51
 70
     0
102
RTVSPropertyOp52
 70
     0
102
RTVSPropertyOp53
 70
     0
102
RTVSPropertyOp54
 70
     0
102
RTVSPropertyOp55
 70
     1
102
RTVSPropertyOp56
 70
     0
102
RTVSPropertyOp57
 70
     0
102
RTVSPropertyOp58
 70
     0
102
RTVSPropertyOp59
 70
     0
102
RTVSPropertyOp60
 70
     0
102
RTVSPropertyOp61
 70
     0
102
RTVSPropertyOp62
 70
     0
  0
XRECORD
  5
1336
102
{ACAD_REACTORS
330
1335
102
}
330
1335
100
AcDbXrecord
280
     1
102
RTVSPost2010Prop28
280
     0
102
RTVSPost2010PropOp28
 70
     1
102
RTVSPost2010Prop29
280
     1
102
RTVSPost2010PropOp29
 70
     1
102
RTVSPost2010Prop30
280
     1
102
RTVSPost2010PropOp30
 70
     1
102
RTVSPost2010Prop31
280
     0
102
RTVSPost2010PropOp31
 70
     1
102
RTVSPost2010Prop32
280
     0
102
RTVSPost2010PropOp32
 70
     1
102
RTVSPost2010Prop33
280
     0
102
RTVSPost2010PropOp33
 70
     1
102
RTVSPost2010Prop34
280
     0
102
RTVSPost2010PropOp34
 70
     1
102
RTVSPost2010Prop35
280
     0
102
RTVSPost2010PropOp35
 70
     1
102
RTVSPost2010Prop36
280
     0
102
RTVSPost2010PropOp36
 70
     1
102
RTVSPost2010Prop37
 90
       50
102
RTVSPost2010PropOp37
 70
     1
102
RTVSPost2010Prop38
140
0.0
102
RTVSPost2010PropOp38
 70
     1
102
RTVSPost2010Prop39
140
1.0
102
RTVSPost2010PropOp39
 70
     1
102
RTVSPost2010Prop40
 90
        0
102
RTVSPost2010PropOp40
 70
     1
102
RTVSPost2010Prop41ColorIndex
 90
       18
102
RTVSPost2010Prop41ColorRGB
 90
        0
102
RTVSPost2010PropOp41
 70
     1
102
RTVSPost2010Prop42
 90
       50
102
RTVSPost2010PropOp42
 70
     1
102
RTVSPost2010Prop43
 90
        3
102
RTVSPost2010PropOp43
 70
     1
102
RTVSPost2010Prop44ColorIndex
 90
        5
102
RTVSPost2010Prop44ColorRGB
 90
      255
102
RTVSPost2010PropOp44
 70
     1
102
RTVSPost2010Prop45
280
     0
102
RTVSPost2010PropOp45
 70
     1
102
RTVSPost2010Prop46
 90
       50
102
RTVSPost2010PropOp46
 70
     1
102
RTVSPost2010Prop47
 90
       50
102
RTVSPost2010PropOp47
 70
     1
102
RTVSPost2010Prop48
 90
       50
102
RTVSPost2010PropOp48
 70
     1
102
RTVSPost2010Prop49
280
     0
102
RTVSPost2010PropOp49
 70
     1
102
RTVSPost2010Prop50
 90
       50
102
RTVSPost2010PropOp50
 70
     1
102
RTVSPost2010Prop51ColorIndex
 90
      256
102
RTVSPost2010Prop51ColorRGB
 90
-16777216
102
RTVSPost2010PropOp51
 70
     0
102
RTVSPost2010Prop52
140
1.0
102
RTVSPost2010PropOp52
 70
     0
102
RTVSPost2010Prop53
 90
        2
102
RTVSPost2010PropOp53
 70
     1
102
RTVSPost2010Prop54
  1
strokes_ogs.tif
102
RTVSPost2010PropOp54
 70
     1
102
RTVSPost2010Prop55
280
     0
102
RTVSPost2010PropOp55
 70
     1
102
RTVSPost2010Prop56
140
1.0
102
RTVSPost2010PropOp56
 70
     1
102
RTVSPost2010Prop57
140
1.0
102
RTVSPost2010PropOp57
 70
     1
102
RTVSPropertyOp0
 70
     1
102
RTVSPropertyOp1
 70
     1
102
RTVSPropertyOp2
 70
     1
102
RTVSPropertyOp3
 70
     1
102
RTVSPropertyOp4
 70
     1
102
RTVSPropertyOp5
 70
     1
102
RTVSPropertyOp6
 70
     1
102
RTVSPropertyOp7
 70
     1
102
RTVSPropertyOp8
 70
     1
102
RTVSPropertyOp9
 70
     1
102
RTVSPropertyOp10
 70
     1
102
RTVSPropertyOp11
 70
     1
102
RTVSPropertyOp12
 70
     1
102
RTVSPropertyOp13
 70
     1
102
RTVSPropertyOp14
 70
     1
102
RTVSPropertyOp15
 70
     1
102
RTVSPropertyOp16
 70
     1
102
RTVSPropertyOp17
 70
     1
102
RTVSPropertyOp18
 70
     1
102
RTVSPropertyOp19
 70
     1
102
RTVSPropertyOp20
 70
     1
102
RTVSPropertyOp21
 70
     1
102
RTVSPropertyOp22
 70
     1
102
RTVSPropertyOp23
 70
     1
102
RTVSPropertyOp24
 70
     1
102
RTVSPropertyOp25
 70
     1
102
RTVSPropertyOp26
 70
     1
102
RTVSPropertyOp27
 70
     1
102
RTVSPropertyOp28
 70
     1
102
RTVSPropertyOp29
 70
     1
102
RTVSPropertyOp30
 70
     1
102
RTVSPropertyOp31
 70
     1
102
RTVSPropertyOp32
 70
     1
102
RTVSPropertyOp33
 70
     1
102
RTVSPropertyOp34
 70
     1
102
RTVSPropertyOp35
 70
     1
102
RTVSPropertyOp36
 70
     1
102
RTVSPropertyOp37
 70
     1
102
RTVSPropertyOp38
 70
     1
102
RTVSPropertyOp39
 70
     1
102
RTVSPropertyOp40
 70
     1
102
RTVSPropertyOp41
 70
     1
102
RTVSPropertyOp42
 70
     1
102
RTVSPropertyOp43
 70
     1
102
RTVSPropertyOp44
 70
     1
102
RTVSPropertyOp45
 70
     1
102
RTVSPropertyOp46
 70
     1
102
RTVSPropertyOp47
 70
     1
102
RTVSPropertyOp48
 70
     1
102
RTVSPropertyOp49
 70
     1
102
RTVSPropertyOp50
 70
     1
102
RTVSPropertyOp51
 70
     0
102
RTVSPropertyOp52
 70
     0
102
RTVSPropertyOp53
 70
     1
102
RTVSPropertyOp54
 70
     1
102
RTVSPropertyOp55
 70
     1
102
RTVSPropertyOp56
 70
     1
102
RTVSPropertyOp57
 70
     1
102
RTVSPropertyOp58
 70
     1
102
RTVSPropertyOp59
 70
     1
102
RTVSPropertyOp60
 70
     1
102
RTVSPropertyOp61
 70
     1
102
RTVSPropertyOp62
 70
     1
  0
XRECORD
  5
134C
102
{ACAD_REACTORS
330
134B
102
}
330
134B
100
AcDbXrecord
280
     1
102
RTVSPost2010Prop28
280
     0
102
RTVSPost2010PropOp28
 70
     1
102
RTVSPost2010Prop29
280
     1
102
RTVSPost2010PropOp29
 70
     1
102
RTVSPost2010Prop30
280
     1
102
RTVSPost2010PropOp30
 70
     1
102
RTVSPost2010Prop31
280
     0
102
RTVSPost2010PropOp31
 70
     1
102
RTVSPost2010Prop32
280
     0
102
RTVSPost2010PropOp32
 70
     1
102
RTVSPost2010Prop33
280
     0
102
RTVSPost2010PropOp33
 70
     1
102
RTVSPost2010Prop34
280
     0
102
RTVSPost2010PropOp34
 70
     1
102
RTVSPost2010Prop35
280
     0
102
RTVSPost2010PropOp35
 70
     1
102
RTVSPost2010Prop36
280
     0
102
RTVSPost2010PropOp36
 70
     1
102
RTVSPost2010Prop37
 90
       50
102
RTVSPost2010PropOp37
 70
     1
102
RTVSPost2010Prop38
140
0.0
102
RTVSPost2010PropOp38
 70
     1
102
RTVSPost2010Prop39
140
1.0
102
RTVSPost2010PropOp39
 70
     1
102
RTVSPost2010Prop40
 90
        0
102
RTVSPost2010PropOp40
 70
     1
102
RTVSPost2010Prop41ColorIndex
 90
       18
102
RTVSPost2010Prop41ColorRGB
 90
        0
102
RTVSPost2010PropOp41
 70
     1
102
RTVSPost2010Prop42
 90
       50
102
RTVSPost2010PropOp42
 70
     1
102
RTVSPost2010Prop43
 90
        3
102
RTVSPost2010PropOp43
 70
     1
102
RTVSPost2010Prop44ColorIndex
 90
        5
102
RTVSPost2010Prop44ColorRGB
 90
      255
102
RTVSPost2010PropOp44
 70
     1
102
RTVSPost2010Prop45
280
     0
102
RTVSPost2010PropOp45
 70
     1
102
RTVSPost2010Prop46
 90
       50
102
RTVSPost2010PropOp46
 70
     1
102
RTVSPost2010Prop47
 90
       50
102
RTVSPost2010PropOp47
 70
     1
102
RTVSPost2010Prop48
 90
       50
102
RTVSPost2010PropOp48
 70
     1
102
RTVSPost2010Prop49
280
     0
102
RTVSPost2010PropOp49
 70
     1
102
RTVSPost2010Prop50
 90
       50
102
RTVSPost2010PropOp50
 70
     1
102
RTVSPost2010Prop51ColorIndex
 90
      256
102
RTVSPost2010Prop51ColorRGB
 90
-16777216
102
RTVSPost2010PropOp51
 70
     0
102
RTVSPost2010Prop52
140
1.0
102
RTVSPost2010PropOp52
 70
     0
102
RTVSPost2010Prop53
 90
        2
102
RTVSPost2010PropOp53
 70
     1
102
RTVSPost2010Prop54
  1
strokes_ogs.tif
102
RTVSPost2010PropOp54
 70
     1
102
RTVSPost2010Prop55
280
     0
102
RTVSPost2010PropOp55
 70
     1
102
RTVSPost2010Prop56
140
1.0
102
RTVSPost2010PropOp56
 70
     1
102
RTVSPost2010Prop57
140
1.0
102
RTVSPost2010PropOp57
 70
     1
102
RTVSPropertyOp0
 70
     1
102
RTVSPropertyOp1
 70
     1
102
RTVSPropertyOp2
 70
     1
102
RTVSPropertyOp3
 70
     1
102
RTVSPropertyOp4
 70
     1
102
RTVSPropertyOp5
 70
     1
102
RTVSPropertyOp6
 70
     1
102
RTVSPropertyOp7
 70
     1
102
RTVSPropertyOp8
 70
     1
102
RTVSPropertyOp9
 70
     1
102
RTVSPropertyOp10
 70
     1
102
RTVSPropertyOp11
 70
     1
102
RTVSPropertyOp12
 70
     1
102
RTVSPropertyOp13
 70
     1
102
RTVSPropertyOp14
 70
     1
102
RTVSPropertyOp15
 70
     1
102
RTVSPropertyOp16
 70
     1
102
RTVSPropertyOp17
 70
     1
102
RTVSPropertyOp18
 70
     1
102
RTVSPropertyOp19
 70
     1
102
RTVSPropertyOp20
 70
     1
102
RTVSPropertyOp21
 70
     1
102
RTVSPropertyOp22
 70
     1
102
RTVSPropertyOp23
 70
     1
102
RTVSPropertyOp24
 70
     1
102
RTVSPropertyOp25
 70
     1
102
RTVSPropertyOp26
 70
     1
102
RTVSPropertyOp27
 70
     1
102
RTVSPropertyOp28
 70
     1
102
RTVSPropertyOp29
 70
     1
102
RTVSPropertyOp30
 70
     1
102
RTVSPropertyOp31
 70
     1
102
RTVSPropertyOp32
 70
     1
102
RTVSPropertyOp33
 70
     1
102
RTVSPropertyOp34
 70
     1
102
RTVSPropertyOp35
 70
     1
102
RTVSPropertyOp36
 70
     1
102
RTVSPropertyOp37
 70
     1
102
RTVSPropertyOp38
 70
     1
102
RTVSPropertyOp39
 70
     1
102
RTVSPropertyOp40
 70
     1
102
RTVSPropertyOp41
 70
     1
102
RTVSPropertyOp42
 70
     1
102
RTVSPropertyOp43
 70
     1
102
RTVSPropertyOp44
 70
     1
102
RTVSPropertyOp45
 70
     1
102
RTVSPropertyOp46
 70
     1
102
RTVSPropertyOp47
 70
     1
102
RTVSPropertyOp48
 70
     1
102
RTVSPropertyOp49
 70
     1
102
RTVSPropertyOp50
 70
     1
102
RTVSPropertyOp51
 70
     0
102
RTVSPropertyOp52
 70
     0
102
RTVSPropertyOp53
 70
     1
102
RTVSPropertyOp54
 70
     1
102
RTVSPropertyOp55
 70
     1
102
RTVSPropertyOp56
 70
     1
102
RTVSPropertyOp57
 70
     1
102
RTVSPropertyOp58
 70
     1
102
RTVSPropertyOp59
 70
     1
102
RTVSPropertyOp60
 70
     1
102
RTVSPropertyOp61
 70
     1
102
RTVSPropertyOp62
 70
     1
  0
XRECORD
  5
134A
102
{ACAD_REACTORS
330
1349
102
}
330
1349
100
AcDbXrecord
280
     1
102
RTVSPost2010Prop28
280
     0
102
RTVSPost2010PropOp28
 70
     1
102
RTVSPost2010Prop29
280
     1
102
RTVSPost2010PropOp29
 70
     1
102
RTVSPost2010Prop30
280
     1
102
RTVSPost2010PropOp30
 70
     1
102
RTVSPost2010Prop31
280
     0
102
RTVSPost2010PropOp31
 70
     1
102
RTVSPost2010Prop32
280
     0
102
RTVSPost2010PropOp32
 70
     1
102
RTVSPost2010Prop33
280
     0
102
RTVSPost2010PropOp33
 70
     1
102
RTVSPost2010Prop34
280
     0
102
RTVSPost2010PropOp34
 70
     1
102
RTVSPost2010Prop35
280
     0
102
RTVSPost2010PropOp35
 70
     1
102
RTVSPost2010Prop36
280
     0
102
RTVSPost2010PropOp36
 70
     1
102
RTVSPost2010Prop37
 90
       50
102
RTVSPost2010PropOp37
 70
     1
102
RTVSPost2010Prop38
140
0.0
102
RTVSPost2010PropOp38
 70
     1
102
RTVSPost2010Prop39
140
1.0
102
RTVSPost2010PropOp39
 70
     1
102
RTVSPost2010Prop40
 90
        0
102
RTVSPost2010PropOp40
 70
     1
102
RTVSPost2010Prop41ColorIndex
 90
       18
102
RTVSPost2010Prop41ColorRGB
 90
        0
102
RTVSPost2010PropOp41
 70
     1
102
RTVSPost2010Prop42
 90
       50
102
RTVSPost2010PropOp42
 70
     1
102
RTVSPost2010Prop43
 90
        3
102
RTVSPost2010PropOp43
 70
     1
102
RTVSPost2010Prop44ColorIndex
 90
        5
102
RTVSPost2010Prop44ColorRGB
 90
      255
102
RTVSPost2010PropOp44
 70
     1
102
RTVSPost2010Prop45
280
     0
102
RTVSPost2010PropOp45
 70
     1
102
RTVSPost2010Prop46
 90
       50
102
RTVSPost2010PropOp46
 70
     1
102
RTVSPost2010Prop47
 90
       50
102
RTVSPost2010PropOp47
 70
     1
102
RTVSPost2010Prop48
 90
       50
102
RTVSPost2010PropOp48
 70
     1
102
RTVSPost2010Prop49
280
     0
102
RTVSPost2010PropOp49
 70
     1
102
RTVSPost2010Prop50
 90
       50
102
RTVSPost2010PropOp50
 70
     1
102
RTVSPost2010Prop51ColorIndex
 90
      256
102
RTVSPost2010Prop51ColorRGB
 90
-16777216
102
RTVSPost2010PropOp51
 70
     0
102
RTVSPost2010Prop52
140
1.0
102
RTVSPost2010PropOp52
 70
     0
102
RTVSPost2010Prop53
 90
        2
102
RTVSPost2010PropOp53
 70
     1
102
RTVSPost2010Prop54
  1
strokes_ogs.tif
102
RTVSPost2010PropOp54
 70
     1
102
RTVSPost2010Prop55
280
     0
102
RTVSPost2010PropOp55
 70
     1
102
RTVSPost2010Prop56
140
1.0
102
RTVSPost2010PropOp56
 70
     1
102
RTVSPost2010Prop57
140
1.0
102
RTVSPost2010PropOp57
 70
     1
102
RTVSPropertyOp0
 70
     1
102
RTVSPropertyOp1
 70
     1
102
RTVSPropertyOp2
 70
     1
102
RTVSPropertyOp3
 70
     1
102
RTVSPropertyOp4
 70
     1
102
RTVSPropertyOp5
 70
     1
102
RTVSPropertyOp6
 70
     1
102
RTVSPropertyOp7
 70
     1
102
RTVSPropertyOp8
 70
     1
102
RTVSPropertyOp9
 70
     1
102
RTVSPropertyOp10
 70
     1
102
RTVSPropertyOp11
 70
     1
102
RTVSPropertyOp12
 70
     1
102
RTVSPropertyOp13
 70
     1
102
RTVSPropertyOp14
 70
     1
102
RTVSPropertyOp15
 70
     1
102
RTVSPropertyOp16
 70
     1
102
RTVSPropertyOp17
 70
     1
102
RTVSPropertyOp18
 70
     1
102
RTVSPropertyOp19
 70
     1
102
RTVSPropertyOp20
 70
     1
102
RTVSPropertyOp21
 70
     1
102
RTVSPropertyOp22
 70
     1
102
RTVSPropertyOp23
 70
     1
102
RTVSPropertyOp24
 70
     1
102
RTVSPropertyOp25
 70
     1
102
RTVSPropertyOp26
 70
     1
102
RTVSPropertyOp27
 70
     1
102
RTVSPropertyOp28
 70
     1
102
RTVSPropertyOp29
 70
     1
102
RTVSPropertyOp30
 70
     1
102
RTVSPropertyOp31
 70
     1
102
RTVSPropertyOp32
 70
     1
102
RTVSPropertyOp33
 70
     1
102
RTVSPropertyOp34
 70
     1
102
RTVSPropertyOp35
 70
     1
102
RTVSPropertyOp36
 70
     1
102
RTVSPropertyOp37
 70
     1
102
RTVSPropertyOp38
 70
     1
102
RTVSPropertyOp39
 70
     1
102
RTVSPropertyOp40
 70
     1
102
RTVSPropertyOp41
 70
     1
102
RTVSPropertyOp42
 70
     1
102
RTVSPropertyOp43
 70
     1
102
RTVSPropertyOp44
 70
     1
102
RTVSPropertyOp45
 70
     1
102
RTVSPropertyOp46
 70
     1
102
RTVSPropertyOp47
 70
     1
102
RTVSPropertyOp48
 70
     1
102
RTVSPropertyOp49
 70
     1
102
RTVSPropertyOp50
 70
     1
102
RTVSPropertyOp51
 70
     0
102
RTVSPropertyOp52
 70
     0
102
RTVSPropertyOp53
 70
     1
102
RTVSPropertyOp54
 70
     1
102
RTVSPropertyOp55
 70
     1
102
RTVSPropertyOp56
 70
     1
102
RTVSPropertyOp57
 70
     1
102
RTVSPropertyOp58
 70
     1
102
RTVSPropertyOp59
 70
     1
102
RTVSPropertyOp60
 70
     1
102
RTVSPropertyOp61
 70
     1
102
RTVSPropertyOp62
 70
     1
  0
XRECORD
  5
1344
102
{ACAD_REACTORS
330
1343
102
}
330
1343
100
AcDbXrecord
280
     1
102
RTVSPost2010Prop28
280
     0
102
RTVSPost2010PropOp28
 70
     1
102
RTVSPost2010Prop29
280
     1
102
RTVSPost2010PropOp29
 70
     1
102
RTVSPost2010Prop30
280
     1
102
RTVSPost2010PropOp30
 70
     1
102
RTVSPost2010Prop31
280
     0
102
RTVSPost2010PropOp31
 70
     1
102
RTVSPost2010Prop32
280
     0
102
RTVSPost2010PropOp32
 70
     1
102
RTVSPost2010Prop33
280
     0
102
RTVSPost2010PropOp33
 70
     1
102
RTVSPost2010Prop34
280
     0
102
RTVSPost2010PropOp34
 70
     1
102
RTVSPost2010Prop35
280
     0
102
RTVSPost2010PropOp35
 70
     1
102
RTVSPost2010Prop36
280
     0
102
RTVSPost2010PropOp36
 70
     1
102
RTVSPost2010Prop37
 90
       50
102
RTVSPost2010PropOp37
 70
     1
102
RTVSPost2010Prop38
140
0.0
102
RTVSPost2010PropOp38
 70
     1
102
RTVSPost2010Prop39
140
1.0
102
RTVSPost2010PropOp39
 70
     1
102
RTVSPost2010Prop40
 90
        0
102
RTVSPost2010PropOp40
 70
     1
102
RTVSPost2010Prop41ColorIndex
 90
       18
102
RTVSPost2010Prop41ColorRGB
 90
        0
102
RTVSPost2010PropOp41
 70
     1
102
RTVSPost2010Prop42
 90
       50
102
RTVSPost2010PropOp42
 70
     1
102
RTVSPost2010Prop43
 90
        3
102
RTVSPost2010PropOp43
 70
     1
102
RTVSPost2010Prop44ColorIndex
 90
        5
102
RTVSPost2010Prop44ColorRGB
 90
      255
102
RTVSPost2010PropOp44
 70
     1
102
RTVSPost2010Prop45
280
     0
102
RTVSPost2010PropOp45
 70
     1
102
RTVSPost2010Prop46
 90
       50
102
RTVSPost2010PropOp46
 70
     1
102
RTVSPost2010Prop47
 90
       50
102
RTVSPost2010PropOp47
 70
     1
102
RTVSPost2010Prop48
 90
       50
102
RTVSPost2010PropOp48
 70
     1
102
RTVSPost2010Prop49
280
     0
102
RTVSPost2010PropOp49
 70
     1
102
RTVSPost2010Prop50
 90
       50
102
RTVSPost2010PropOp50
 70
     1
102
RTVSPost2010Prop51ColorIndex
 90
      256
102
RTVSPost2010Prop51ColorRGB
 90
-16777216
102
RTVSPost2010PropOp51
 70
     0
102
RTVSPost2010Prop52
140
1.0
102
RTVSPost2010PropOp52
 70
     0
102
RTVSPost2010Prop53
 90
        2
102
RTVSPost2010PropOp53
 70
     1
102
RTVSPost2010Prop54
  1
strokes_ogs.tif
102
RTVSPost2010PropOp54
 70
     1
102
RTVSPost2010Prop55
280
     0
102
RTVSPost2010PropOp55
 70
     1
102
RTVSPost2010Prop56
140
1.0
102
RTVSPost2010PropOp56
 70
     1
102
RTVSPost2010Prop57
140
1.0
102
RTVSPost2010PropOp57
 70
     1
102
RTVSPropertyOp0
 70
     1
102
RTVSPropertyOp1
 70
     1
102
RTVSPropertyOp2
 70
     1
102
RTVSPropertyOp3
 70
     1
102
RTVSPropertyOp4
 70
     1
102
RTVSPropertyOp5
 70
     1
102
RTVSPropertyOp6
 70
     1
102
RTVSPropertyOp7
 70
     1
102
RTVSPropertyOp8
 70
     1
102
RTVSPropertyOp9
 70
     1
102
RTVSPropertyOp10
 70
     1
102
RTVSPropertyOp11
 70
     1
102
RTVSPropertyOp12
 70
     1
102
RTVSPropertyOp13
 70
     1
102
RTVSPropertyOp14
 70
     1
102
RTVSPropertyOp15
 70
     1
102
RTVSPropertyOp16
 70
     1
102
RTVSPropertyOp17
 70
     1
102
RTVSPropertyOp18
 70
     1
102
RTVSPropertyOp19
 70
     1
102
RTVSPropertyOp20
 70
     1
102
RTVSPropertyOp21
 70
     1
102
RTVSPropertyOp22
 70
     1
102
RTVSPropertyOp23
 70
     1
102
RTVSPropertyOp24
 70
     1
102
RTVSPropertyOp25
 70
     1
102
RTVSPropertyOp26
 70
     1
102
RTVSPropertyOp27
 70
     1
102
RTVSPropertyOp28
 70
     1
102
RTVSPropertyOp29
 70
     1
102
RTVSPropertyOp30
 70
     1
102
RTVSPropertyOp31
 70
     1
102
RTVSPropertyOp32
 70
     1
102
RTVSPropertyOp33
 70
     1
102
RTVSPropertyOp34
 70
     1
102
RTVSPropertyOp35
 70
     1
102
RTVSPropertyOp36
 70
     1
102
RTVSPropertyOp37
 70
     1
102
RTVSPropertyOp38
 70
     1
102
RTVSPropertyOp39
 70
     1
102
RTVSPropertyOp40
 70
     1
102
RTVSPropertyOp41
 70
     1
102
RTVSPropertyOp42
 70
     1
102
RTVSPropertyOp43
 70
     1
102
RTVSPropertyOp44
 70
     1
102
RTVSPropertyOp45
 70
     1
102
RTVSPropertyOp46
 70
     1
102
RTVSPropertyOp47
 70
     1
102
RTVSPropertyOp48
 70
     1
102
RTVSPropertyOp49
 70
     1
102
RTVSPropertyOp50
 70
     1
102
RTVSPropertyOp51
 70
     0
102
RTVSPropertyOp52
 70
     0
102
RTVSPropertyOp53
 70
     1
102
RTVSPropertyOp54
 70
     1
102
RTVSPropertyOp55
 70
     1
102
RTVSPropertyOp56
 70
     1
102
RTVSPropertyOp57
 70
     1
102
RTVSPropertyOp58
 70
     1
102
RTVSPropertyOp59
 70
     1
102
RTVSPropertyOp60
 70
     1
102
RTVSPropertyOp61
 70
     1
102
RTVSPropertyOp62
 70
     1
  0
XRECORD
  5
1346
102
{ACAD_REACTORS
330
1345
102
}
330
1345
100
AcDbXrecord
280
     1
102
RTVSPost2010Prop28
280
     0
102
RTVSPost2010PropOp28
 70
     1
102
RTVSPost2010Prop29
280
     1
102
RTVSPost2010PropOp29
 70
     1
102
RTVSPost2010Prop30
280
     1
102
RTVSPost2010PropOp30
 70
     1
102
RTVSPost2010Prop31
280
     0
102
RTVSPost2010PropOp31
 70
     1
102
RTVSPost2010Prop32
280
     0
102
RTVSPost2010PropOp32
 70
     1
102
RTVSPost2010Prop33
280
     0
102
RTVSPost2010PropOp33
 70
     1
102
RTVSPost2010Prop34
280
     0
102
RTVSPost2010PropOp34
 70
     1
102
RTVSPost2010Prop35
280
     0
102
RTVSPost2010PropOp35
 70
     1
102
RTVSPost2010Prop36
280
     0
102
RTVSPost2010PropOp36
 70
     1
102
RTVSPost2010Prop37
 90
       50
102
RTVSPost2010PropOp37
 70
     1
102
RTVSPost2010Prop38
140
0.0
102
RTVSPost2010PropOp38
 70
     1
102
RTVSPost2010Prop39
140
1.0
102
RTVSPost2010PropOp39
 70
     1
102
RTVSPost2010Prop40
 90
        0
102
RTVSPost2010PropOp40
 70
     1
102
RTVSPost2010Prop41ColorIndex
 90
       18
102
RTVSPost2010Prop41ColorRGB
 90
        0
102
RTVSPost2010PropOp41
 70
     1
102
RTVSPost2010Prop42
 90
       50
102
RTVSPost2010PropOp42
 70
     1
102
RTVSPost2010Prop43
 90
        3
102
RTVSPost2010PropOp43
 70
     1
102
RTVSPost2010Prop44ColorIndex
 90
        5
102
RTVSPost2010Prop44ColorRGB
 90
      255
102
RTVSPost2010PropOp44
 70
     1
102
RTVSPost2010Prop45
280
     0
102
RTVSPost2010PropOp45
 70
     1
102
RTVSPost2010Prop46
 90
       50
102
RTVSPost2010PropOp46
 70
     1
102
RTVSPost2010Prop47
 90
       50
102
RTVSPost2010PropOp47
 70
     1
102
RTVSPost2010Prop48
 90
       50
102
RTVSPost2010PropOp48
 70
     1
102
RTVSPost2010Prop49
280
     0
102
RTVSPost2010PropOp49
 70
     1
102
RTVSPost2010Prop50
 90
       50
102
RTVSPost2010PropOp50
 70
     1
102
RTVSPost2010Prop51ColorIndex
 90
      256
102
RTVSPost2010Prop51ColorRGB
 90
-16777216
102
RTVSPost2010PropOp51
 70
     0
102
RTVSPost2010Prop52
140
1.0
102
RTVSPost2010PropOp52
 70
     0
102
RTVSPost2010Prop53
 90
        2
102
RTVSPost2010PropOp53
 70
     1
102
RTVSPost2010Prop54
  1
strokes_ogs.tif
102
RTVSPost2010PropOp54
 70
     1
102
RTVSPost2010Prop55
280
     0
102
RTVSPost2010PropOp55
 70
     1
102
RTVSPost2010Prop56
140
1.0
102
RTVSPost2010PropOp56
 70
     1
102
RTVSPost2010Prop57
140
1.0
102
RTVSPost2010PropOp57
 70
     1
102
RTVSPropertyOp0
 70
     1
102
RTVSPropertyOp1
 70
     1
102
RTVSPropertyOp2
 70
     1
102
RTVSPropertyOp3
 70
     1
102
RTVSPropertyOp4
 70
     1
102
RTVSPropertyOp5
 70
     1
102
RTVSPropertyOp6
 70
     1
102
RTVSPropertyOp7
 70
     1
102
RTVSPropertyOp8
 70
     1
102
RTVSPropertyOp9
 70
     1
102
RTVSPropertyOp10
 70
     1
102
RTVSPropertyOp11
 70
     1
102
RTVSPropertyOp12
 70
     1
102
RTVSPropertyOp13
 70
     1
102
RTVSPropertyOp14
 70
     1
102
RTVSPropertyOp15
 70
     1
102
RTVSPropertyOp16
 70
     1
102
RTVSPropertyOp17
 70
     1
102
RTVSPropertyOp18
 70
     1
102
RTVSPropertyOp19
 70
     1
102
RTVSPropertyOp20
 70
     1
102
RTVSPropertyOp21
 70
     1
102
RTVSPropertyOp22
 70
     1
102
RTVSPropertyOp23
 70
     1
102
RTVSPropertyOp24
 70
     1
102
RTVSPropertyOp25
 70
     1
102
RTVSPropertyOp26
 70
     1
102
RTVSPropertyOp27
 70
     1
102
RTVSPropertyOp28
 70
     1
102
RTVSPropertyOp29
 70
     1
102
RTVSPropertyOp30
 70
     1
102
RTVSPropertyOp31
 70
     1
102
RTVSPropertyOp32
 70
     1
102
RTVSPropertyOp33
 70
     1
102
RTVSPropertyOp34
 70
     1
102
RTVSPropertyOp35
 70
     1
102
RTVSPropertyOp36
 70
     1
102
RTVSPropertyOp37
 70
     1
102
RTVSPropertyOp38
 70
     1
102
RTVSPropertyOp39
 70
     1
102
RTVSPropertyOp40
 70
     1
102
RTVSPropertyOp41
 70
     1
102
RTVSPropertyOp42
 70
     1
102
RTVSPropertyOp43
 70
     1
102
RTVSPropertyOp44
 70
     1
102
RTVSPropertyOp45
 70
     1
102
RTVSPropertyOp46
 70
     1
102
RTVSPropertyOp47
 70
     1
102
RTVSPropertyOp48
 70
     1
102
RTVSPropertyOp49
 70
     1
102
RTVSPropertyOp50
 70
     1
102
RTVSPropertyOp51
 70
     0
102
RTVSPropertyOp52
 70
     0
102
RTVSPropertyOp53
 70
     1
102
RTVSPropertyOp54
 70
     1
102
RTVSPropertyOp55
 70
     1
102
RTVSPropertyOp56
 70
     1
102
RTVSPropertyOp57
 70
     1
102
RTVSPropertyOp58
 70
     1
102
RTVSPropertyOp59
 70
     1
102
RTVSPropertyOp60
 70
     1
102
RTVSPropertyOp61
 70
     1
102
RTVSPropertyOp62
 70
     1
  0
XRECORD
  5
133C
102
{ACAD_REACTORS
330
133B
102
}
330
133B
100
AcDbXrecord
280
     1
102
RTVSPost2010Prop28
280
     0
102
RTVSPost2010PropOp28
 70
     1
102
RTVSPost2010Prop29
280
     1
102
RTVSPost2010PropOp29
 70
     1
102
RTVSPost2010Prop30
280
     1
102
RTVSPost2010PropOp30
 70
     1
102
RTVSPost2010Prop31
280
     0
102
RTVSPost2010PropOp31
 70
     1
102
RTVSPost2010Prop32
280
     0
102
RTVSPost2010PropOp32
 70
     1
102
RTVSPost2010Prop33
280
     0
102
RTVSPost2010PropOp33
 70
     1
102
RTVSPost2010Prop34
280
     0
102
RTVSPost2010PropOp34
 70
     1
102
RTVSPost2010Prop35
280
     0
102
RTVSPost2010PropOp35
 70
     1
102
RTVSPost2010Prop36
280
     0
102
RTVSPost2010PropOp36
 70
     1
102
RTVSPost2010Prop37
 90
       50
102
RTVSPost2010PropOp37
 70
     1
102
RTVSPost2010Prop38
140
0.0
102
RTVSPost2010PropOp38
 70
     1
102
RTVSPost2010Prop39
140
1.0
102
RTVSPost2010PropOp39
 70
     1
102
RTVSPost2010Prop40
 90
        0
102
RTVSPost2010PropOp40
 70
     1
102
RTVSPost2010Prop41ColorIndex
 90
       18
102
RTVSPost2010Prop41ColorRGB
 90
        0
102
RTVSPost2010PropOp41
 70
     1
102
RTVSPost2010Prop42
 90
       50
102
RTVSPost2010PropOp42
 70
     1
102
RTVSPost2010Prop43
 90
        3
102
RTVSPost2010PropOp43
 70
     1
102
RTVSPost2010Prop44ColorIndex
 90
        5
102
RTVSPost2010Prop44ColorRGB
 90
      255
102
RTVSPost2010PropOp44
 70
     1
102
RTVSPost2010Prop45
280
     0
102
RTVSPost2010PropOp45
 70
     1
102
RTVSPost2010Prop46
 90
       50
102
RTVSPost2010PropOp46
 70
     1
102
RTVSPost2010Prop47
 90
       50
102
RTVSPost2010PropOp47
 70
     1
102
RTVSPost2010Prop48
 90
       50
102
RTVSPost2010PropOp48
 70
     1
102
RTVSPost2010Prop49
280
     0
102
RTVSPost2010PropOp49
 70
     1
102
RTVSPost2010Prop50
 90
       50
102
RTVSPost2010PropOp50
 70
     1
102
RTVSPost2010Prop51ColorIndex
 90
      256
102
RTVSPost2010Prop51ColorRGB
 90
-16777216
102
RTVSPost2010PropOp51
 70
     0
102
RTVSPost2010Prop52
140
1.0
102
RTVSPost2010PropOp52
 70
     0
102
RTVSPost2010Prop53
 90
        2
102
RTVSPost2010PropOp53
 70
     1
102
RTVSPost2010Prop54
  1
strokes_ogs.tif
102
RTVSPost2010PropOp54
 70
     1
102
RTVSPost2010Prop55
280
     0
102
RTVSPost2010PropOp55
 70
     1
102
RTVSPost2010Prop56
140
1.0
102
RTVSPost2010PropOp56
 70
     1
102
RTVSPost2010Prop57
140
1.0
102
RTVSPost2010PropOp57
 70
     1
102
RTVSPropertyOp0
 70
     1
102
RTVSPropertyOp1
 70
     1
102
RTVSPropertyOp2
 70
     1
102
RTVSPropertyOp3
 70
     1
102
RTVSPropertyOp4
 70
     1
102
RTVSPropertyOp5
 70
     1
102
RTVSPropertyOp6
 70
     1
102
RTVSPropertyOp7
 70
     1
102
RTVSPropertyOp8
 70
     1
102
RTVSPropertyOp9
 70
     1
102
RTVSPropertyOp10
 70
     1
102
RTVSPropertyOp11
 70
     1
102
RTVSPropertyOp12
 70
     1
102
RTVSPropertyOp13
 70
     1
102
RTVSPropertyOp14
 70
     1
102
RTVSPropertyOp15
 70
     1
102
RTVSPropertyOp16
 70
     1
102
RTVSPropertyOp17
 70
     1
102
RTVSPropertyOp18
 70
     1
102
RTVSPropertyOp19
 70
     1
102
RTVSPropertyOp20
 70
     1
102
RTVSPropertyOp21
 70
     1
102
RTVSPropertyOp22
 70
     1
102
RTVSPropertyOp23
 70
     1
102
RTVSPropertyOp24
 70
     1
102
RTVSPropertyOp25
 70
     1
102
RTVSPropertyOp26
 70
     1
102
RTVSPropertyOp27
 70
     1
102
RTVSPropertyOp28
 70
     1
102
RTVSPropertyOp29
 70
     1
102
RTVSPropertyOp30
 70
     1
102
RTVSPropertyOp31
 70
     1
102
RTVSPropertyOp32
 70
     1
102
RTVSPropertyOp33
 70
     1
102
RTVSPropertyOp34
 70
     1
102
RTVSPropertyOp35
 70
     1
102
RTVSPropertyOp36
 70
     1
102
RTVSPropertyOp37
 70
     1
102
RTVSPropertyOp38
 70
     1
102
RTVSPropertyOp39
 70
     1
102
RTVSPropertyOp40
 70
     1
102
RTVSPropertyOp41
 70
     1
102
RTVSPropertyOp42
 70
     1
102
RTVSPropertyOp43
 70
     1
102
RTVSPropertyOp44
 70
     1
102
RTVSPropertyOp45
 70
     1
102
RTVSPropertyOp46
 70
     1
102
RTVSPropertyOp47
 70
     1
102
RTVSPropertyOp48
 70
     1
102
RTVSPropertyOp49
 70
     1
102
RTVSPropertyOp50
 70
     1
102
RTVSPropertyOp51
 70
     0
102
RTVSPropertyOp52
 70
     0
102
RTVSPropertyOp53
 70
     1
102
RTVSPropertyOp54
 70
     1
102
RTVSPropertyOp55
 70
     1
102
RTVSPropertyOp56
 70
     1
102
RTVSPropertyOp57
 70
     1
102
RTVSPropertyOp58
 70
     1
102
RTVSPropertyOp59
 70
     1
102
RTVSPropertyOp60
 70
     1
102
RTVSPropertyOp61
 70
     1
102
RTVSPropertyOp62
 70
     1
  0
XRECORD
  5
1330
102
{ACAD_REACTORS
330
132F
102
}
330
132F
100
AcDbXrecord
280
     1
102
RTVSPost2010Prop28
280
     0
102
RTVSPost2010PropOp28
 70
     1
102
RTVSPost2010Prop29
280
     1
102
RTVSPost2010PropOp29
 70
     1
102
RTVSPost2010Prop30
280
     1
102
RTVSPost2010PropOp30
 70
     1
102
RTVSPost2010Prop31
280
     0
102
RTVSPost2010PropOp31
 70
     1
102
RTVSPost2010Prop32
280
     0
102
RTVSPost2010PropOp32
 70
     1
102
RTVSPost2010Prop33
280
     0
102
RTVSPost2010PropOp33
 70
     1
102
RTVSPost2010Prop34
280
     0
102
RTVSPost2010PropOp34
 70
     1
102
RTVSPost2010Prop35
280
     0
102
RTVSPost2010PropOp35
 70
     1
102
RTVSPost2010Prop36
280
     0
102
RTVSPost2010PropOp36
 70
     1
102
RTVSPost2010Prop37
 90
       50
102
RTVSPost2010PropOp37
 70
     1
102
RTVSPost2010Prop38
140
0.0
102
RTVSPost2010PropOp38
 70
     1
102
RTVSPost2010Prop39
140
1.0
102
RTVSPost2010PropOp39
 70
     1
102
RTVSPost2010Prop40
 90
        0
102
RTVSPost2010PropOp40
 70
     1
102
RTVSPost2010Prop41ColorIndex
 90
       18
102
RTVSPost2010Prop41ColorRGB
 90
        0
102
RTVSPost2010PropOp41
 70
     1
102
RTVSPost2010Prop42
 90
       50
102
RTVSPost2010PropOp42
 70
     1
102
RTVSPost2010Prop43
 90
        3
102
RTVSPost2010PropOp43
 70
     1
102
RTVSPost2010Prop44ColorIndex
 90
        5
102
RTVSPost2010Prop44ColorRGB
 90
      255
102
RTVSPost2010PropOp44
 70
     1
102
RTVSPost2010Prop45
280
     0
102
RTVSPost2010PropOp45
 70
     1
102
RTVSPost2010Prop46
 90
       50
102
RTVSPost2010PropOp46
 70
     1
102
RTVSPost2010Prop47
 90
       50
102
RTVSPost2010PropOp47
 70
     1
102
RTVSPost2010Prop48
 90
       50
102
RTVSPost2010PropOp48
 70
     1
102
RTVSPost2010Prop49
280
     0
102
RTVSPost2010PropOp49
 70
     1
102
RTVSPost2010Prop50
 90
       50
102
RTVSPost2010PropOp50
 70
     1
102
RTVSPost2010Prop51ColorIndex
 90
      256
102
RTVSPost2010Prop51ColorRGB
 90
-16777216
102
RTVSPost2010PropOp51
 70
     0
102
RTVSPost2010Prop52
140
1.0
102
RTVSPost2010PropOp52
 70
     0
102
RTVSPost2010Prop53
 90
        2
102
RTVSPost2010PropOp53
 70
     1
102
RTVSPost2010Prop54
  1
strokes_ogs.tif
102
RTVSPost2010PropOp54
 70
     1
102
RTVSPost2010Prop55
280
     0
102
RTVSPost2010PropOp55
 70
     1
102
RTVSPost2010Prop56
140
1.0
102
RTVSPost2010PropOp56
 70
     1
102
RTVSPost2010Prop57
140
1.0
102
RTVSPost2010PropOp57
 70
     1
102
RTVSPropertyOp0
 70
     1
102
RTVSPropertyOp1
 70
     1
102
RTVSPropertyOp2
 70
     1
102
RTVSPropertyOp3
 70
     1
102
RTVSPropertyOp4
 70
     1
102
RTVSPropertyOp5
 70
     1
102
RTVSPropertyOp6
 70
     1
102
RTVSPropertyOp7
 70
     1
102
RTVSPropertyOp8
 70
     1
102
RTVSPropertyOp9
 70
     1
102
RTVSPropertyOp10
 70
     1
102
RTVSPropertyOp11
 70
     1
102
RTVSPropertyOp12
 70
     1
102
RTVSPropertyOp13
 70
     1
102
RTVSPropertyOp14
 70
     1
102
RTVSPropertyOp15
 70
     1
102
RTVSPropertyOp16
 70
     1
102
RTVSPropertyOp17
 70
     1
102
RTVSPropertyOp18
 70
     1
102
RTVSPropertyOp19
 70
     1
102
RTVSPropertyOp20
 70
     1
102
RTVSPropertyOp21
 70
     1
102
RTVSPropertyOp22
 70
     1
102
RTVSPropertyOp23
 70
     1
102
RTVSPropertyOp24
 70
     1
102
RTVSPropertyOp25
 70
     1
102
RTVSPropertyOp26
 70
     1
102
RTVSPropertyOp27
 70
     1
102
RTVSPropertyOp28
 70
     1
102
RTVSPropertyOp29
 70
     1
102
RTVSPropertyOp30
 70
     1
102
RTVSPropertyOp31
 70
     1
102
RTVSPropertyOp32
 70
     1
102
RTVSPropertyOp33
 70
     1
102
RTVSPropertyOp34
 70
     1
102
RTVSPropertyOp35
 70
     1
102
RTVSPropertyOp36
 70
     1
102
RTVSPropertyOp37
 70
     1
102
RTVSPropertyOp38
 70
     1
102
RTVSPropertyOp39
 70
     1
102
RTVSPropertyOp40
 70
     1
102
RTVSPropertyOp41
 70
     1
102
RTVSPropertyOp42
 70
     1
102
RTVSPropertyOp43
 70
     1
102
RTVSPropertyOp44
 70
     1
102
RTVSPropertyOp45
 70
     1
102
RTVSPropertyOp46
 70
     1
102
RTVSPropertyOp47
 70
     1
102
RTVSPropertyOp48
 70
     1
102
RTVSPropertyOp49
 70
     1
102
RTVSPropertyOp50
 70
     1
102
RTVSPropertyOp51
 70
     0
102
RTVSPropertyOp52
 70
     0
102
RTVSPropertyOp53
 70
     1
102
RTVSPropertyOp54
 70
     1
102
RTVSPropertyOp55
 70
     1
102
RTVSPropertyOp56
 70
     1
102
RTVSPropertyOp57
 70
     1
102
RTVSPropertyOp58
 70
     1
102
RTVSPropertyOp59
 70
     1
102
RTVSPropertyOp60
 70
     1
102
RTVSPropertyOp61
 70
     1
102
RTVSPropertyOp62
 70
     1
  0
XRECORD
  5
1348
102
{ACAD_REACTORS
330
1347
102
}
330
1347
100
AcDbXrecord
280
     1
102
RTVSPost2010Prop28
280
     0
102
RTVSPost2010PropOp28
 70
     1
102
RTVSPost2010Prop29
280
     1
102
RTVSPost2010PropOp29
 70
     1
102
RTVSPost2010Prop30
280
     1
102
RTVSPost2010PropOp30
 70
     1
102
RTVSPost2010Prop31
280
     0
102
RTVSPost2010PropOp31
 70
     1
102
RTVSPost2010Prop32
280
     0
102
RTVSPost2010PropOp32
 70
     1
102
RTVSPost2010Prop33
280
     0
102
RTVSPost2010PropOp33
 70
     1
102
RTVSPost2010Prop34
280
     0
102
RTVSPost2010PropOp34
 70
     1
102
RTVSPost2010Prop35
280
     0
102
RTVSPost2010PropOp35
 70
     1
102
RTVSPost2010Prop36
280
     0
102
RTVSPost2010PropOp36
 70
     1
102
RTVSPost2010Prop37
 90
       50
102
RTVSPost2010PropOp37
 70
     1
102
RTVSPost2010Prop38
140
0.0
102
RTVSPost2010PropOp38
 70
     1
102
RTVSPost2010Prop39
140
1.0
102
RTVSPost2010PropOp39
 70
     1
102
RTVSPost2010Prop40
 90
        0
102
RTVSPost2010PropOp40
 70
     1
102
RTVSPost2010Prop41ColorIndex
 90
       18
102
RTVSPost2010Prop41ColorRGB
 90
        0
102
RTVSPost2010PropOp41
 70
     1
102
RTVSPost2010Prop42
 90
       50
102
RTVSPost2010PropOp42
 70
     1
102
RTVSPost2010Prop43
 90
        3
102
RTVSPost2010PropOp43
 70
     1
102
RTVSPost2010Prop44ColorIndex
 90
        5
102
RTVSPost2010Prop44ColorRGB
 90
      255
102
RTVSPost2010PropOp44
 70
     1
102
RTVSPost2010Prop45
280
     0
102
RTVSPost2010PropOp45
 70
     1
102
RTVSPost2010Prop46
 90
       50
102
RTVSPost2010PropOp46
 70
     1
102
RTVSPost2010Prop47
 90
       50
102
RTVSPost2010PropOp47
 70
     1
102
RTVSPost2010Prop48
 90
       50
102
RTVSPost2010PropOp48
 70
     1
102
RTVSPost2010Prop49
280
     0
102
RTVSPost2010PropOp49
 70
     1
102
RTVSPost2010Prop50
 90
       50
102
RTVSPost2010PropOp50
 70
     1
102
RTVSPost2010Prop51ColorIndex
 90
      256
102
RTVSPost2010Prop51ColorRGB
 90
-16777216
102
RTVSPost2010PropOp51
 70
     0
102
RTVSPost2010Prop52
140
1.0
102
RTVSPost2010PropOp52
 70
     0
102
RTVSPost2010Prop53
 90
        2
102
RTVSPost2010PropOp53
 70
     1
102
RTVSPost2010Prop54
  1
strokes_ogs.tif
102
RTVSPost2010PropOp54
 70
     1
102
RTVSPost2010Prop55
280
     0
102
RTVSPost2010PropOp55
 70
     1
102
RTVSPost2010Prop56
140
1.0
102
RTVSPost2010PropOp56
 70
     1
102
RTVSPost2010Prop57
140
1.0
102
RTVSPost2010PropOp57
 70
     1
102
RTVSPropertyOp0
 70
     1
102
RTVSPropertyOp1
 70
     1
102
RTVSPropertyOp2
 70
     1
102
RTVSPropertyOp3
 70
     1
102
RTVSPropertyOp4
 70
     1
102
RTVSPropertyOp5
 70
     1
102
RTVSPropertyOp6
 70
     1
102
RTVSPropertyOp7
 70
     1
102
RTVSPropertyOp8
 70
     1
102
RTVSPropertyOp9
 70
     1
102
RTVSPropertyOp10
 70
     1
102
RTVSPropertyOp11
 70
     1
102
RTVSPropertyOp12
 70
     1
102
RTVSPropertyOp13
 70
     1
102
RTVSPropertyOp14
 70
     1
102
RTVSPropertyOp15
 70
     1
102
RTVSPropertyOp16
 70
     1
102
RTVSPropertyOp17
 70
     1
102
RTVSPropertyOp18
 70
     1
102
RTVSPropertyOp19
 70
     1
102
RTVSPropertyOp20
 70
     1
102
RTVSPropertyOp21
 70
     1
102
RTVSPropertyOp22
 70
     1
102
RTVSPropertyOp23
 70
     1
102
RTVSPropertyOp24
 70
     1
102
RTVSPropertyOp25
 70
     1
102
RTVSPropertyOp26
 70
     1
102
RTVSPropertyOp27
 70
     1
102
RTVSPropertyOp28
 70
     1
102
RTVSPropertyOp29
 70
     1
102
RTVSPropertyOp30
 70
     1
102
RTVSPropertyOp31
 70
     1
102
RTVSPropertyOp32
 70
     1
102
RTVSPropertyOp33
 70
     1
102
RTVSPropertyOp34
 70
     1
102
RTVSPropertyOp35
 70
     1
102
RTVSPropertyOp36
 70
     1
102
RTVSPropertyOp37
 70
     1
102
RTVSPropertyOp38
 70
     1
102
RTVSPropertyOp39
 70
     1
102
RTVSPropertyOp40
 70
     1
102
RTVSPropertyOp41
 70
     1
102
RTVSPropertyOp42
 70
     1
102
RTVSPropertyOp43
 70
     1
102
RTVSPropertyOp44
 70
     1
102
RTVSPropertyOp45
 70
     1
102
RTVSPropertyOp46
 70
     1
102
RTVSPropertyOp47
 70
     1
102
RTVSPropertyOp48
 70
     1
102
RTVSPropertyOp49
 70
     1
102
RTVSPropertyOp50
 70
     1
102
RTVSPropertyOp51
 70
     0
102
RTVSPropertyOp52
 70
     0
102
RTVSPropertyOp53
 70
     1
102
RTVSPropertyOp54
 70
     1
102
RTVSPropertyOp55
 70
     1
102
RTVSPropertyOp56
 70
     1
102
RTVSPropertyOp57
 70
     1
102
RTVSPropertyOp58
 70
     1
102
RTVSPropertyOp59
 70
     1
102
RTVSPropertyOp60
 70
     1
102
RTVSPropertyOp61
 70
     1
102
RTVSPropertyOp62
 70
     1
  0
ENDSEC
  0
EOF
