  0
SECTION
  2
HEADER
  9
$ACADVER
  1
AC1015
  9
$DWGCODEPAGE
  3
ANSI_932
  9
$LTSCALE
 40
20.0
  9
$FILLMODE
 70
     1
  9
$CLAYER
  8
0
  9
$PDMODE
 70
     0
  9
$SPLFRAME
 70
     0
  9
$SPLINETYPE
 70
     6
  9
$SPLINESEGS
 70
     8
  9
$DIMASZ
 40
2.000000
  9
$DIMEXE
 40
1.500000
  9
$DIMEXO
 40
0.800000
  9
$DIMTAD
 70
     1
  9
$DIMTIH
 70
     0
  9
$DIMTOH
 70
     0
  9
$DIMTVP
 40
0.500000
  9
$DIMTXT
 40
3.100000
  9
$EXTMIN
 10
0.000000
 20
0.000000
 30
0.000000
  9
$EXTMAX
 10
297.000000
 20
420.000000
 30
0.000000
  9
$MEASUREMENT
 70
  1
  9
$LIMMIN
 10
0.000000
 20
0.000000
  9
$LIMMAX
 10
297.000000
 20
420.000000
  9
$HANDSEED
  5
170
  9
$LWDISPLAY
290
     0
  9
$DIMBLK
  1
_OPEN
  9
$DIMDEC
 70
     2
  9
$DIMADEC
 70
     2
  9
$DIMAUNIT
 70
     0
  9
$DIMZIN
 70
     8
  9
$DIMAZIN
 70
     2
  9
$DIMTOFL
 70
     1
  0
ENDSEC
  0
SECTION
  2
CLASSES
  0
ENDSEC
  0
SECTION
  2
TABLES
  0
TABLE
  2
VPORT
  5
13D
100
AcDbSymbolTable
 70
     1
  0
VPORT
  5
13E
100
AcDbSymbolTableRecord
100
AcDbViewportTableRecord
  2
*ACTIVE
 70
     0
 12
208.771974
 22
147.556071
 40
293.470525
 41
1.900447
  0
ENDTAB
  0
TABLE
  2
LTYPE
  5
13F
100
AcDbSymbolTable
 70
     2
  0
LTYPE
  5
140
100
AcDbSymbolTableRecord
100
AcDbLinetypeTableRecord
  2
BYBLOCK
 70
     0
  3

 72
    65
 73
     0
 40
0.0
  0
LTYPE
  5
141
100
AcDbSymbolTableRecord
100
AcDbLinetypeTableRecord
  2
BYLAYER
 70
     0
  3

 72
    65
 73
     0
 40
0.0
  0
LTYPE
  5
142
100
AcDbSymbolTableRecord
100
AcDbLinetypeTableRecord
  2
CONTINUOUS
 70
     0
  3
Solid line (NEC CAE2D for Win R16.0 : 2021.03.11)
 72
    65
 73
     0
 40
0.0
  0
LTYPE
  5
143
100
AcDbSymbolTableRecord
100
AcDbLinetypeTableRecord
  2
CENTER
 70
     0
  3
____ _ ____ _ ____ _ ____ _ ____ _ ____
 72
    65
 73
     4
 40
2.0
 49
1.25
 74
     0
 49
-0.25
 74
     0
 49
0.25
 74
     0
 49
-0.25
 74
     0
  0
ENDTAB
  0
TABLE
  2
LAYER
  5
144
100
AcDbSymbolTable
 70
    13
  0
LAYER
  5
145
100
AcDbSymbolTableRecord
100
AcDbLayerTableRecord
  2
0
 70
     0
 62
     7
  6
CONTINUOUS
370
    -3
390

  0
LAYER
  5
146
100
AcDbSymbolTableRecord
100
AcDbLayerTableRecord
  2
A0
 70
     0
 62
     9
  6
CONTINUOUS
370
    -3
390

  0
LAYER
  5
147
100
AcDbSymbolTableRecord
100
AcDbLayerTableRecord
  2
A4
 70
     0
 62
     9
  6
CONTINUOUS
370
    -3
390

  0
LAYER
  5
148
100
AcDbSymbolTableRecord
100
AcDbLayerTableRecord
  2
A5
 70
     0
 62
     8
  6
CONTINUOUS
370
    -3
390

  0
LAYER
  5
149
100
AcDbSymbolTableRecord
100
AcDbLayerTableRecord
  2
A6
 70
     0
 62
    12
  6
CONTINUOUS
370
    -3
390

  0
LAYER
  5
14A
100
AcDbSymbolTableRecord
100
AcDbLayerTableRecord
  2
A8
 70
     0
 62
    10
  6
CONTINUOUS
370
    -3
390

  0
LAYER
  5
14B
100
AcDbSymbolTableRecord
100
AcDbLayerTableRecord
  2
A9
 70
     0
 62
     9
  6
CONTINUOUS
370
    -3
390

  0
LAYER
  5
14C
100
AcDbSymbolTableRecord
100
AcDbLayerTableRecord
  2
A10
 70
     0
 62
     6
  6
CONTINUOUS
370
    -3
390

  0
LAYER
  5
14D
100
AcDbSymbolTableRecord
100
AcDbLayerTableRecord
  2
A20
 70
     0
 62
     1
  6
CONTINUOUS
370
    -3
390

  0
LAYER
  5
14E
100
AcDbSymbolTableRecord
100
AcDbLayerTableRecord
  2
A30
 70
     0
 62
     1
  6
CONTINUOUS
370
    -3
390

  0
LAYER
  5
14F
100
AcDbSymbolTableRecord
100
AcDbLayerTableRecord
  2
A40
 70
     0
 62
     9
  6
CONTINUOUS
370
    -3
390

  0
LAYER
  5
150
100
AcDbSymbolTableRecord
100
AcDbLayerTableRecord
  2
A50
 70
     0
 62
    12
  6
CONTINUOUS
370
    -3
390

  0
LAYER
  5
151
100
AcDbSymbolTableRecord
100
AcDbLayerTableRecord
  2
A1023
 70
     0
 62
    16
  6
CONTINUOUS
370
    -3
390

  0
ENDTAB
  0
TABLE
  2
STYLE
  5
152
100
AcDbSymbolTable
 70
     4
  0
STYLE
  5
153
100
AcDbSymbolTableRecord
100
AcDbTextStyleTableRecord
  2
STANDARD
 70
    64
 40
0.0
 41
1.0
 50
0.0
 71
     0
 42
3.000000000000000
  3
TXT
  4

  0
STYLE
  5
154
100
AcDbSymbolTableRecord
100
AcDbTextStyleTableRecord
  2
ANKTATE
 70
    68
 40
0.0
 41
1.0
 50
0.0
 71
     0
 42
3.000000000000000
  3
TXT
  4

  0
STYLE
  5
155
100
AcDbSymbolTableRecord
100
AcDbTextStyleTableRecord
  2
KNJYOKO
 70
    64
 40
0.0
 41
1.0
 50
0.0
 71
     0
 42
3.000000000000000
  3
TXT
  4
BIGFONT
  0
STYLE
  5
156
100
AcDbSymbolTableRecord
100
AcDbTextStyleTableRecord
  2
KNJTATE
 70
    68
 40
0.0
 41
1.0
 50
0.0
 71
     0
 42
3.000000000000000
  3
TXT
  4
BIGFONT
  0
ENDTAB
  0
TABLE
  2
VIEW
  5
157
100
AcDbSymbolTable
 70
     0
  0
ENDTAB
  0
TABLE
  2
UCS
  5
158
100
AcDbSymbolTable
 70
     0
  0
ENDTAB
  0
TABLE
  2
APPID
  5
159
100
AcDbSymbolTable
 70
     1
  0
APPID
  5
15A
100
AcDbSymbolTableRecord
100
AcDbRegAppTableRecord
  2
ACAD
 70
     0
  0
ENDTAB
  0
TABLE
  2
DIMSTYLE
  5
15B
100
AcDbSymbolTable
 70
     2
100
AcDbDimStyleTable
  0
DIMSTYLE
105
15C
100
AcDbSymbolTableRecord
100
AcDbDimStyleTableRecord
  2
STANDARD
 70
     0
 41
2.000000
 44
1.500000
 42
0.800000
145
0.661290
140
3.100000
144
1.000000
146
0.645161
340
153
  0
DIMSTYLE
105
15D
100
AcDbSymbolTableRecord
100
AcDbDimStyleTableRecord
  2
A001
 70
     0
 41
2.000000
 44
1.500000
 42
0.800000
145
0.661290
140
3.100000
144
1.000000
146
0.645161
 77
     1
 73
     0
 74
     0
271
     2
179
     2
275
     0
 78
     8
 79
     2
172
     1
340
153
  0
ENDTAB
  0
TABLE
  2
BLOCK_RECORD
  5
15E
100
AcDbSymbolTable
 70
    12
  0
BLOCK_RECORD
  5
15F
100
AcDbSymbolTableRecord
100
AcDbBlockTableRecord
  2
*MODEL_SPACE
  0
BLOCK_RECORD
  5
160
100
AcDbSymbolTableRecord
100
AcDbBlockTableRecord
  2
*PAPER_SPACE
  0
BLOCK_RECORD
  5
161
100
AcDbSymbolTableRecord
100
AcDbBlockTableRecord
  2
*PAPER_SPACE0
  0
BLOCK_RECORD
  5
1
100
AcDbSymbolTableRecord
100
AcDbBlockTableRecord
  2
_NONE
  0
BLOCK_RECORD
  5
4
100
AcDbSymbolTableRecord
100
AcDbBlockTableRecord
  2
_CLOSED
  0
BLOCK_RECORD
  5
B
100
AcDbSymbolTableRecord
100
AcDbBlockTableRecord
  2
_DOT
  0
BLOCK_RECORD
  5
13
100
AcDbSymbolTableRecord
100
AcDbBlockTableRecord
  2
_OPEN
  0
BLOCK_RECORD
  5
19
100
AcDbSymbolTableRecord
100
AcDbBlockTableRecord
  2
_ORIGIN
  0
BLOCK_RECORD
  5
1E
100
AcDbSymbolTableRecord
100
AcDbBlockTableRecord
  2
_OPEN30
  0
BLOCK_RECORD
  5
24
100
AcDbSymbolTableRecord
100
AcDbBlockTableRecord
  2
_BOXFILLED
  0
BLOCK_RECORD
  5
29
100
AcDbSymbolTableRecord
100
AcDbBlockTableRecord
  2
_BOXBLANK
  0
BLOCK_RECORD
  5
31
100
AcDbSymbolTableRecord
100
AcDbBlockTableRecord
  2
_OBLIQUE
  0
BLOCK_RECORD
  5
35
100
AcDbSymbolTableRecord
100
AcDbBlockTableRecord
  2
_OPEN90
  0
BLOCK_RECORD
  5
3B
100
AcDbSymbolTableRecord
100
AcDbBlockTableRecord
  2
_CLOSEDBLANK
  0
BLOCK_RECORD
  5
41
100
AcDbSymbolTableRecord
100
AcDbBlockTableRecord
  2
_DOTBLANK
  0
ENDTAB
  0
ENDSEC
  0
SECTION
  2
BLOCKS
  0
BLOCK
  5
162
100
AcDbEntity
  8
0
100
AcDbBlockBegin
  2
*MODEL_SPACE
 70
     0
 10
0.0
 20
0.0
 30
0.0
  3
*MODEL_SPACE
  1

  0
ENDBLK
  5
163
100
AcDbEntity
  8
0
100
AcDbBlockEnd
  0
BLOCK
  5
164
100
AcDbEntity
  8
0
100
AcDbBlockBegin
  2
*PAPER_SPACE
 70
     0
 10
0.0
 20
0.0
 30
0.0
  3
*PAPER_SPACE
  1

  0
ENDBLK
  5
165
100
AcDbEntity
  8
0
100
AcDbBlockEnd
  0
BLOCK
  5
166
100
AcDbEntity
  8
0
100
AcDbBlockBegin
  2
*PAPER_SPACE0
 70
     0
 10
0.0
 20
0.0
 30
0.0
  3
*PAPER_SPACE0
  1

  0
ENDBLK
  5
167
100
AcDbEntity
  8
0
100
AcDbBlockEnd
  0
BLOCK
  5
2
330
1
100
AcDbEntity
  8
0
100
AcDbBlockBegin
  2
_NONE
 70
     0
 10
0.0
 20
0.0
 30
0.0
  3
_NONE
  1

  0
ENDBLK
  5
3
330
1
100
AcDbEntity
  8
0
100
AcDbBlockEnd
  0
BLOCK
  5
5
330
4
100
AcDbEntity
  8
0
100
AcDbBlockBegin
  2
_CLOSED
 70
     0
 10
0.0
 20
0.0
 30
0.0
  3
_CLOSED
  1

  0
LINE
  5
6
330
4
100
AcDbEntity
  8
0
  6
BYBLOCK
 62
     0
370
    -2
100
AcDbLine
 10
-1.0
 20
0.166667
 30
0.0
 11
0.0
 21
0.0
 31
0.0
  0
LINE
  5
7
330
4
100
AcDbEntity
  8
0
  6
BYBLOCK
 62
     0
370
    -2
100
AcDbLine
 10
0.0
 20
0.0
 30
0.0
 11
-1.0
 21
-0.166667
 31
0.0
  0
LINE
  5
8
330
4
100
AcDbEntity
  8
0
  6
BYBLOCK
 62
     0
370
    -2
100
AcDbLine
 10
-1.0
 20
0.166667
 30
0.0
 11
-1.0
 21
-0.166667
 31
0.0
  0
LINE
  5
9
330
4
100
AcDbEntity
  8
0
  6
BYBLOCK
 62
     0
370
    -2
100
AcDbLine
 10
0.0
 20
0.0
 30
0.0
 11
-1.0
 21
0.0
 31
0.0
  0
ENDBLK
  5
A
330
4
100
AcDbEntity
  8
0
100
AcDbBlockEnd
  0
BLOCK
  5
C
330
B
100
AcDbEntity
  8
0
100
AcDbBlockBegin
  2
_DOT
 70
     0
 10
0.0
 20
0.0
 30
0.0
  3
_DOT
  1

  0
POLYLINE
  5
D
330
B
100
AcDbEntity
  8
0
  6
BYBLOCK
 62
     0
370
    -2
100
AcDb2dPolyline
 66
     1
 10
0.0
 20
0.0
 30
0.0
 70
     1
 40
0.5
 41
0.5
  0
VERTEX
  5
E
330
B
100
AcDbEntity
  8
0
  6
BYBLOCK
 62
     0
370
    -2
100
AcDbVertex
100
AcDb2dVertex
 10
-0.25
 20
0.0
 30
0.0
 42
1.0
  0
VERTEX
  5
F
330
B
100
AcDbEntity
  8
0
  6
BYBLOCK
 62
     0
370
    -2
100
AcDbVertex
100
AcDb2dVertex
 10
0.25
 20
0.0
 30
0.0
 42
1.0
  0
SEQEND
  5
10
330
B
100
AcDbEntity
  8
0
  6
BYBLOCK
 62
     0
370
    -2
  0
LINE
  5
11
330
B
100
AcDbEntity
  8
0
  6
BYBLOCK
 62
     0
370
    -2
100
AcDbLine
 10
-0.5
 20
0.0
 30
0.0
 11
-1.0
 21
0.0
 31
0.0
  0
ENDBLK
  5
12
330
B
100
AcDbEntity
  8
0
100
AcDbBlockEnd
  0
BLOCK
  5
14
330
13
100
AcDbEntity
  8
0
100
AcDbBlockBegin
  2
_OPEN
 70
     0
 10
0.0
 20
0.0
 30
0.0
  3
_OPEN
  1

  0
LINE
  5
15
330
13
100
AcDbEntity
  8
0
  6
BYBLOCK
 62
     0
370
    -2
100
AcDbLine
 10
-1.0
 20
0.166667
 30
0.0
 11
0.0
 21
0.0
 31
0.0
  0
LINE
  5
16
330
13
100
AcDbEntity
  8
0
  6
BYBLOCK
 62
     0
370
    -2
100
AcDbLine
 10
0.0
 20
0.0
 30
0.0
 11
-1.0
 21
-0.166667
 31
0.0
  0
LINE
  5
17
330
13
100
AcDbEntity
  8
0
  6
BYBLOCK
 62
     0
370
    -2
100
AcDbLine
 10
0.0
 20
0.0
 30
0.0
 11
-1.0
 21
0.0
 31
0.0
  0
ENDBLK
  5
18
330
13
100
AcDbEntity
  8
0
100
AcDbBlockEnd
  0
BLOCK
  5
1A
330
19
100
AcDbEntity
  8
0
100
AcDbBlockBegin
  2
_ORIGIN
 70
     0
 10
0.0
 20
0.0
 30
0.0
  3
_ORIGIN
  1

  0
CIRCLE
  5
1B
330
19
100
AcDbEntity
  8
0
  6
BYBLOCK
 62
     0
370
    -2
100
AcDbCircle
 10
0.0
 20
0.0
 30
0.0
 40
0.5
  0
LINE
  5
1C
330
19
100
AcDbEntity
  8
0
  6
BYBLOCK
 62
     0
370
    -2
100
AcDbLine
 10
0.0
 20
0.0
 30
0.0
 11
-1.0
 21
0.0
 31
0.0
  0
ENDBLK
  5
1D
330
19
100
AcDbEntity
  8
0
100
AcDbBlockEnd
  0
BLOCK
  5
1F
330
1E
100
AcDbEntity
  8
0
100
AcDbBlockBegin
  2
_OPEN30
 70
     0
 10
0.0
 20
0.0
 30
0.0
  3
_OPEN30
  1

  0
LINE
  5
20
330
1E
100
AcDbEntity
  8
0
  6
BYBLOCK
 62
     0
370
    -2
100
AcDbLine
 10
-1.0
 20
0.267949
 30
0.0
 11
0.0
 21
0.0
 31
0.0
  0
LINE
  5
21
330
1E
100
AcDbEntity
  8
0
  6
BYBLOCK
 62
     0
370
    -2
100
AcDbLine
 10
0.0
 20
0.0
 30
0.0
 11
-1.0
 21
-0.267949
 31
0.0
  0
LINE
  5
22
330
1E
100
AcDbEntity
  8
0
  6
BYBLOCK
 62
     0
370
    -2
100
AcDbLine
 10
0.0
 20
0.0
 30
0.0
 11
-1.0
 21
0.0
 31
0.0
  0
ENDBLK
  5
23
330
1E
100
AcDbEntity
  8
0
100
AcDbBlockEnd
  0
BLOCK
  5
25
330
24
100
AcDbEntity
  8
0
100
AcDbBlockBegin
  2
_BOXFILLED
 70
     0
 10
0.0
 20
0.0
 30
0.0
  3
_BOXFILLED
  1

  0
SOLID
  5
26
330
24
100
AcDbEntity
  8
0
  6
BYBLOCK
 62
     0
370
    -2
100
AcDbTrace
 10
-0.5
 20
0.5
 30
0.0
 11
0.5
 21
0.5
 31
0.0
 12
-0.5
 22
-0.5
 32
0.0
 13
0.5
 23
-0.5
 33
0.0
  0
LINE
  5
27
330
24
100
AcDbEntity
  8
0
  6
BYBLOCK
 62
     0
370
    -2
100
AcDbLine
 10
-0.5
 20
0.0
 30
0.0
 11
-1.0
 21
0.0
 31
0.0
  0
ENDBLK
  5
28
330
24
100
AcDbEntity
  8
0
100
AcDbBlockEnd
  0
BLOCK
  5
2A
330
29
100
AcDbEntity
  8
0
100
AcDbBlockBegin
  2
_BOXBLANK
 70
     0
 10
0.0
 20
0.0
 30
0.0
  3
_BOXBLANK
  1

  0
LINE
  5
2B
330
29
100
AcDbEntity
  8
0
  6
BYBLOCK
 62
     0
370
    -2
100
AcDbLine
 10
-0.5
 20
-0.5
 30
0.0
 11
0.5
 21
-0.5
 31
0.0
  0
LINE
  5
2C
330
29
100
AcDbEntity
  8
0
  6
BYBLOCK
 62
     0
370
    -2
100
AcDbLine
 10
0.5
 20
-0.5
 30
0.0
 11
0.5
 21
0.5
 31
0.0
  0
LINE
  5
2D
330
29
100
AcDbEntity
  8
0
  6
BYBLOCK
 62
     0
370
    -2
100
AcDbLine
 10
0.5
 20
0.5
 30
0.0
 11
-0.5
 21
0.5
 31
0.0
  0
LINE
  5
2E
330
29
100
AcDbEntity
  8
0
  6
BYBLOCK
 62
     0
370
    -2
100
AcDbLine
 10
-0.5
 20
0.5
 30
0.0
 11
-0.5
 21
-0.5
 31
0.0
  0
LINE
  5
2F
330
29
100
AcDbEntity
  8
0
  6
BYBLOCK
 62
     0
370
    -2
100
AcDbLine
 10
-0.5
 20
0.0
 30
0.0
 11
-1.0
 21
0.0
 31
0.0
  0
ENDBLK
  5
30
330
29
100
AcDbEntity
  8
0
100
AcDbBlockEnd
  0
BLOCK
  5
32
330
31
100
AcDbEntity
  8
0
100
AcDbBlockBegin
  2
_OBLIQUE
 70
     0
 10
0.0
 20
0.0
 30
0.0
  3
_OBLIQUE
  1

  0
LINE
  5
33
330
31
100
AcDbEntity
  8
0
  6
BYBLOCK
 62
     0
370
    -2
100
AcDbLine
 10
-0.5
 20
-0.5
 30
0.0
 11
0.5
 21
0.5
 31
0.0
  0
ENDBLK
  5
34
330
31
100
AcDbEntity
  8
0
100
AcDbBlockEnd
  0
BLOCK
  5
36
330
35
100
AcDbEntity
  8
0
100
AcDbBlockBegin
  2
_OPEN90
 70
     0
 10
0.0
 20
0.0
 30
0.0
  3
_OPEN90
  1

  0
LINE
  5
37
330
35
100
AcDbEntity
  8
0
  6
BYBLOCK
 62
     0
370
    -2
100
AcDbLine
 10
-0.5
 20
0.5
 30
0.0
 11
0.0
 21
0.0
 31
0.0
  0
LINE
  5
38
330
35
100
AcDbEntity
  8
0
  6
BYBLOCK
 62
     0
370
    -2
100
AcDbLine
 10
0.0
 20
0.0
 30
0.0
 11
-0.5
 21
-0.5
 31
0.0
  0
LINE
  5
39
330
35
100
AcDbEntity
  8
0
  6
BYBLOCK
 62
     0
370
    -2
100
AcDbLine
 10
0.0
 20
0.0
 30
0.0
 11
-1.0
 21
0.0
 31
0.0
  0
ENDBLK
  5
3A
330
35
100
AcDbEntity
  8
0
100
AcDbBlockEnd
  0
BLOCK
  5
3C
330
3B
100
AcDbEntity
  8
0
100
AcDbBlockBegin
  2
_CLOSEDBLANK
 70
     0
 10
0.0
 20
0.0
 30
0.0
  3
_CLOSEDBLANK
  1

  0
LINE
  5
3D
330
3B
100
AcDbEntity
  8
0
  6
BYBLOCK
 62
     0
370
    -2
100
AcDbLine
 10
-1.0
 20
0.1666666666666666
 30
0.0
 11
0.0
 21
0.0
 31
0.0
  0
LINE
  5
3E
330
3B
100
AcDbEntity
  8
0
  6
BYBLOCK
 62
     0
370
    -2
100
AcDbLine
 10
0.0
 20
0.0
 30
0.0
 11
-1.0
 21
-0.1666666666666666
 31
0.0
  0
LINE
  5
3F
330
3B
100
AcDbEntity
  8
0
  6
BYBLOCK
 62
     0
370
    -2
100
AcDbLine
 10
-1.0
 20
0.1666666666666666
 30
0.0
 11
-1.0
 21
-0.1666666666666666
 31
0.0
  0
ENDBLK
  5
40
330
3B
100
AcDbEntity
  8
0
100
AcDbBlockEnd
  0
BLOCK
  5
42
330
41
100
AcDbEntity
  8
0
100
AcDbBlockBegin
  2
_DOTBLANK
 70
     0
 10
0.0
 20
0.0
 30
0.0
  3
_DOTBLANK
  1

  0
CIRCLE
  5
43
330
41
100
AcDbEntity
  8
0
  6
BYBLOCK
 62
     0
370
    -2
100
AcDbCircle
 10
0.0
 20
0.0
 30
0.0
 40
0.5
  0
LINE
  5
44
330
41
100
AcDbEntity
  8
0
  6
BYBLOCK
 62
     0
370
    -2
100
AcDbLine
 10
-0.5
 20
0.0
 30
0.0
 11
-1.0
 21
0.0
 31
0.0
  0
ENDBLK
  5
45
330
41
100
AcDbEntity
  8
0
100
AcDbBlockEnd
  0
ENDSEC
  0
SECTION
  2
ENTITIES
  0
MTEXT
  5
46
100
AcDbEntity
  8
A8
  6
CONTINUOUS
 62
7
100
AcDbMText
 10
9.999997526638502
 20
18.00000076076889
 30
0.000000000000000
 40
3.000000000000000
 41
0.000000000000000
 44
0.6739999771118164
 71
     7
 72
     1
  1
{\H0.94x;{TYPE No.TEA-1000-U869-LIPH}}
 11
1.000000000000000
 21
0.000000000000000
 31
0.000000000000000
  7
STANDARD
  0
POINT
  5
47
100
AcDbEntity
  8
A0
  6
CONTINUOUS
 62
5
100
AcDbPoint
 10
9.999997526638502
 20
18.00000076076889
 30
0.000000000000000
  0
CIRCLE
  5
48
100
AcDbEntity
  8
A4
  6
CONTINUOUS
 62
7
100
AcDbCircle
 10
65.99999999996783
 20
169.1611905530660
 30
0.000000000000000
 40
8.750000000000000
  0
CIRCLE
  5
49
100
AcDbEntity
  8
A4
  6
CONTINUOUS
 62
7
100
AcDbCircle
 10
65.99999999996783
 20
169.1611905530660
 30
0.000000000000000
 40
8.625000000000000
  0
ARC
  5
4A
100
AcDbEntity
  8
A4
  6
CONTINUOUS
 62
7
100
AcDbCircle
 10
64.99999999996783
 20
169.1611905530660
 30
0.000000000000000
 40
1.000000000000000
100
AcDbArc
 50
270.0000000000000
 51
450.0000000000000
  0
LINE
  5
4B
100
AcDbEntity
  8
A4
  6
CONTINUOUS
 62
7
100
AcDbLine
 10
60.99999999996783
 20
168.1611905530659
 30
0.000000000000000
 11
60.99999999996783
 21
170.1611905530660
 31
0.000000000000000
  0
LINE
  5
4C
100
AcDbEntity
  8
A4
  6
CONTINUOUS
 62
7
100
AcDbLine
 10
60.99999999996783
 20
168.1611905530659
 30
0.000000000000000
 11
64.99999999996783
 21
168.1611905530659
 31
0.000000000000000
  0
LINE
  5
4D
100
AcDbEntity
  8
A4
  6
CONTINUOUS
 62
7
100
AcDbLine
 10
60.99999999996783
 20
170.1611905530660
 30
0.000000000000000
 11
60.99999999996783
 21
172.0479415530660
 31
0.000000000000000
  0
LINE
  5
4E
100
AcDbEntity
  8
A4
  6
CONTINUOUS
 62
7
100
AcDbLine
 10
60.99999999996783
 20
166.2744395530660
 30
0.000000000000000
 11
60.99999999996783
 21
168.1611905530659
 31
0.000000000000000
  0
LINE
  5
4F
100
AcDbEntity
  8
A4
  6
CONTINUOUS
 62
7
100
AcDbLine
 10
65.99999999996778
 20
163.3876875530659
 30
0.000000000000000
 11
60.99999999996778
 21
166.2744395530659
 31
0.000000000000000
  0
LINE
  5
50
100
AcDbEntity
  8
A4
  6
CONTINUOUS
 62
7
100
AcDbLine
 10
70.99999999996778
 20
166.2744395530659
 30
0.000000000000000
 11
65.99999999996784
 21
163.3876875530659
 31
0.000000000000000
  0
LINE
  5
51
100
AcDbEntity
  8
A4
  6
CONTINUOUS
 62
7
100
AcDbLine
 10
70.99999999996783
 20
172.0479415530660
 30
0.000000000000000
 11
70.99999999996783
 21
166.2744395530660
 31
0.000000000000000
  0
LINE
  5
52
100
AcDbEntity
  8
A4
  6
CONTINUOUS
 62
7
100
AcDbLine
 10
65.99999999996786
 20
174.9346935530659
 30
0.000000000000000
 11
70.99999999996786
 21
172.0479415530660
 31
0.000000000000000
  0
LINE
  5
53
100
AcDbEntity
  8
A4
  6
CONTINUOUS
 62
7
100
AcDbLine
 10
60.99999999996783
 20
170.1611905530660
 30
0.000000000000000
 11
64.99999999996783
 21
170.1611905530660
 31
0.000000000000000
  0
LINE
  5
54
100
AcDbEntity
  8
A4
  6
CONTINUOUS
 62
7
100
AcDbLine
 10
60.99999999996781
 20
172.0479415530659
 30
0.000000000000000
 11
65.99999999996786
 21
174.9346935530660
 31
0.000000000000000
  0
CIRCLE
  5
55
100
AcDbEntity
  8
A4
  6
CONTINUOUS
 62
7
100
AcDbCircle
 10
65.99999999996783
 20
169.1611905530660
 30
0.000000000000000
 40
8.800000000000001
  0
CIRCLE
  5
56
100
AcDbEntity
  8
A4
  6
CONTINUOUS
 62
7
100
AcDbCircle
 10
65.99999999996783
 20
169.1611905530660
 30
0.000000000000000
 40
16.00000000000000
  0
CIRCLE
  5
57
100
AcDbEntity
  8
A4
  6
CONTINUOUS
 62
7
100
AcDbCircle
 10
65.99999999996783
 20
169.1611905530660
 30
0.000000000000000
 40
14.25000000000000
  0
CIRCLE
  5
58
100
AcDbEntity
  8
A4
  6
CONTINUOUS
 62
7
100
AcDbCircle
 10
65.99999999996783
 20
169.1611905530660
 30
0.000000000000000
 40
9.000000000000000
  0
CIRCLE
  5
59
100
AcDbEntity
  8
A4
  6
CONTINUOUS
 62
7
100
AcDbCircle
 10
65.99999999996783
 20
169.1611905530660
 30
0.000000000000000
 40
9.500000000000000
  0
CIRCLE
  5
5A
100
AcDbEntity
  8
A4
  6
CONTINUOUS
 62
7
100
AcDbCircle
 10
54.24999999996783
 20
169.1611905530660
 30
0.000000000000000
 40
1.000000000000000
  0
LINE
  5
5B
100
AcDbEntity
  8
A4
  6
CONTINUOUS
 62
7
100
AcDbLine
 10
67.49999999996783
 20
177.7816605530659
 30
0.000000000000000
 11
67.49999999996783
 21
177.8324075530659
 31
0.000000000000000
  0
LINE
  5
5C
100
AcDbEntity
  8
A4
  6
CONTINUOUS
 62
7
100
AcDbLine
 10
63.99999999996783
 20
177.7309045530660
 30
0.000000000000000
 11
63.99999999996783
 21
177.6795525530660
 31
0.000000000000000
  0
ARC
  5
5D
100
AcDbEntity
  8
A5
  6
CONTINUOUS
 62
7
100
AcDbCircle
 10
61.35000000000002
 20
53.99999999999999
 30
0.000000000000000
 40
0.4000000000000000
100
AcDbArc
 50
270.0000000000000
 51
360.0000000000000
  0
ARC
  5
5E
100
AcDbEntity
  8
A5
  6
CONTINUOUS
 62
7
100
AcDbCircle
 10
70.65000000000001
 20
53.99999999999999
 30
0.000000000000000
 40
0.4000000000000000
100
AcDbArc
 50
180.0000000000000
 51
270.0000000000000
  0
LINE
  5
5F
100
AcDbEntity
  8
A5
  6
CONTINUOUS
 62
7
100
AcDbLine
 10
71.00000000000006
 20
50.00000000000001
 30
0.000000000000000
 11
71.77350300000006
 21
50.44658200000001
 31
0.000000000000000
  0
LINE
  5
60
100
AcDbEntity
  8
A5
  6
CONTINUOUS
 62
7
100
AcDbLine
 10
71.00000000000000
 20
50.00000000000000
 30
0.000000000000000
 11
70.33012700000000
 21
50.00000000000000
 31
0.000000000000000
  0
LINE
  5
61
100
AcDbEntity
  8
A5
  6
CONTINUOUS
 62
7
100
AcDbLine
 10
61.66987300000000
 20
50.00000000000000
 30
0.000000000000000
 11
61.00000000000000
 21
50.00000000000000
 31
0.000000000000000
  0
LINE
  5
62
100
AcDbEntity
  8
A5
  6
CONTINUOUS
 62
7
100
AcDbLine
 10
60.22649700000003
 20
50.44658199999999
 30
0.000000000000000
 11
61.00000000000003
 21
49.99999999999999
 31
0.000000000000000
  0
LINE
  5
63
100
AcDbEntity
  8
A5
  6
CONTINUOUS
 62
7
100
AcDbLine
 10
63.00000000000000
 20
54.90000000000002
 30
0.000000000000000
 11
63.00000000000000
 21
54.60000000000001
 31
0.000000000000000
  0
LINE
  5
64
100
AcDbEntity
  8
A5
  6
CONTINUOUS
 62
7
100
AcDbLine
 10
69.00000000000000
 20
54.60000000000001
 30
0.000000000000000
 11
69.00000000000000
 21
54.90000000000002
 31
0.000000000000000
  0
LINE
  5
65
100
AcDbEntity
  8
A5
  6
CONTINUOUS
 62
7
100
AcDbLine
 10
68.88675100000000
 20
53.60000000000001
 30
0.000000000000000
 11
63.11324900000000
 21
53.60000000000001
 31
0.000000000000000
  0
LINE
  5
66
100
AcDbEntity
  8
A5
  6
CONTINUOUS
 62
7
100
AcDbLine
 10
63.11324900000000
 20
53.60000000000001
 30
0.000000000000000
 11
60.22649699999999
 21
53.60000000000001
 31
0.000000000000000
  0
LINE
  5
67
100
AcDbEntity
  8
A5
  6
CONTINUOUS
 62
7
100
AcDbLine
 10
60.22649699999999
 20
53.60000000000001
 30
0.000000000000000
 11
60.22649699999999
 21
50.44658200000001
 31
0.000000000000000
  0
LINE
  5
68
100
AcDbEntity
  8
A5
  6
CONTINUOUS
 62
7
100
AcDbLine
 10
63.11324900000000
 20
53.60000000000001
 30
0.000000000000000
 11
63.11324900000000
 21
50.44658200000001
 31
0.000000000000000
  0
LINE
  5
69
100
AcDbEntity
  8
A5
  6
CONTINUOUS
 62
7
100
AcDbLine
 10
71.77350300000001
 20
53.60000000000001
 30
0.000000000000000
 11
68.88675100000000
 21
53.60000000000001
 31
0.000000000000000
  0
LINE
  5
6A
100
AcDbEntity
  8
A5
  6
CONTINUOUS
 62
7
100
AcDbLine
 10
68.88675100000000
 20
53.60000000000001
 30
0.000000000000000
 11
68.88675100000000
 21
50.44658200000001
 31
0.000000000000000
  0
LINE
  5
6B
100
AcDbEntity
  8
A5
  6
CONTINUOUS
 62
7
100
AcDbLine
 10
71.77350300000001
 20
53.60000000000001
 30
0.000000000000000
 11
71.77350300000001
 21
50.44658200000001
 31
0.000000000000000
  0
LINE
  5
6C
100
AcDbEntity
  8
A5
  6
CONTINUOUS
 62
7
100
AcDbLine
 10
70.33012700000000
 20
50.00000000000000
 30
0.000000000000000
 11
66.00000000000000
 21
50.00000000000000
 31
0.000000000000000
  0
LINE
  5
6D
100
AcDbEntity
  8
A5
  6
CONTINUOUS
 62
7
100
AcDbLine
 10
66.00000000000000
 20
50.00000000000000
 30
0.000000000000000
 11
61.66987300000000
 21
50.00000000000000
 31
0.000000000000000
  0
LINE
  5
6E
100
AcDbEntity
  8
A5
  6
CONTINUOUS
 62
7
100
AcDbLine
 10
71.49754700000000
 20
53.99999999999999
 30
0.000000000000000
 11
71.50000000000000
 21
53.99999999999999
 31
0.000000000000000
  0
LINE
  5
6F
100
AcDbEntity
  8
A5
  6
CONTINUOUS
 62
7
100
AcDbLine
 10
71.49754700000000
 20
54.60000000000001
 30
0.000000000000000
 11
71.50000000000000
 21
54.60000000000001
 31
0.000000000000000
  0
LINE
  5
70
100
AcDbEntity
  8
A5
  6
CONTINUOUS
 62
7
100
AcDbLine
 10
71.50000000000000
 20
53.99999999999999
 30
0.000000000000000
 11
71.50000000000000
 21
54.60000000000001
 31
0.000000000000000
  0
LINE
  5
71
100
AcDbEntity
  8
A5
  6
CONTINUOUS
 62
7
100
AcDbLine
 10
60.85807600000001
 20
53.99999999999999
 30
0.000000000000000
 11
60.50000000000000
 21
53.99999999999999
 31
0.000000000000000
  0
LINE
  5
72
100
AcDbEntity
  8
A5
  6
CONTINUOUS
 62
7
100
AcDbLine
 10
60.50000000000000
 20
54.60000000000001
 30
0.000000000000000
 11
60.85807600000001
 21
54.60000000000001
 31
0.000000000000000
  0
LINE
  5
73
100
AcDbEntity
  8
A5
  6
CONTINUOUS
 62
7
100
AcDbLine
 10
60.50000000000000
 20
53.99999999999999
 30
0.000000000000000
 11
60.50000000000000
 21
54.60000000000001
 31
0.000000000000000
  0
LINE
  5
74
100
AcDbEntity
  8
A5
  6
CONTINUOUS
 62
7
100
AcDbLine
 10
60.85807600000001
 20
53.99999999999999
 30
0.000000000000000
 11
60.91866300000001
 21
53.99999999999999
 31
0.000000000000000
  0
LINE
  5
75
100
AcDbEntity
  8
A5
  6
CONTINUOUS
 62
7
100
AcDbLine
 10
60.85807600000001
 20
54.60000000000001
 30
0.000000000000000
 11
60.91866300000001
 21
54.60000000000001
 31
0.000000000000000
  0
LINE
  5
76
100
AcDbEntity
  8
A5
  6
CONTINUOUS
 62
7
100
AcDbLine
 10
60.85807600000001
 20
53.99999999999999
 30
0.000000000000000
 11
60.85807600000001
 21
54.60000000000001
 31
0.000000000000000
  0
LINE
  5
77
100
AcDbEntity
  8
A5
  6
CONTINUOUS
 62
7
100
AcDbLine
 10
71.01621800000001
 20
53.99999999999999
 30
0.000000000000000
 11
71.08133700000002
 21
53.99999999999999
 31
0.000000000000000
  0
LINE
  5
78
100
AcDbEntity
  8
A5
  6
CONTINUOUS
 62
7
100
AcDbLine
 10
71.01621800000001
 20
54.60000000000001
 30
0.000000000000000
 11
71.08133700000002
 21
54.60000000000001
 31
0.000000000000000
  0
LINE
  5
79
100
AcDbEntity
  8
A5
  6
CONTINUOUS
 62
7
100
AcDbLine
 10
71.49754700000000
 20
53.99999999999999
 30
0.000000000000000
 11
71.08133700000002
 21
53.99999999999999
 31
0.000000000000000
  0
LINE
  5
7A
100
AcDbEntity
  8
A5
  6
CONTINUOUS
 62
7
100
AcDbLine
 10
71.08133700000002
 20
54.60000000000001
 30
0.000000000000000
 11
71.49754700000000
 21
54.60000000000001
 31
0.000000000000000
  0
LINE
  5
7B
100
AcDbEntity
  8
A5
  6
CONTINUOUS
 62
7
100
AcDbLine
 10
71.08133700000002
 20
53.99999999999999
 30
0.000000000000000
 11
71.08133700000002
 21
54.60000000000001
 31
0.000000000000000
  0
LINE
  5
7C
100
AcDbEntity
  8
A5
  6
CONTINUOUS
 62
7
100
AcDbLine
 10
71.49754700000000
 20
53.99999999999999
 30
0.000000000000000
 11
71.49754700000000
 21
54.60000000000001
 31
0.000000000000000
  0
LINE
  5
7D
100
AcDbEntity
  8
A5
  6
CONTINUOUS
 62
7
100
AcDbLine
 10
61.99651000000000
 20
53.99999999999999
 30
0.000000000000000
 11
62.11091300000001
 21
53.99999999999999
 31
0.000000000000000
  0
LINE
  5
7E
100
AcDbEntity
  8
A5
  6
CONTINUOUS
 62
7
100
AcDbLine
 10
61.99651000000000
 20
54.60000000000001
 30
0.000000000000000
 11
62.11091300000001
 21
54.60000000000001
 31
0.000000000000000
  0
LINE
  5
7F
100
AcDbEntity
  8
A5
  6
CONTINUOUS
 62
7
100
AcDbLine
 10
61.99651000000000
 20
53.99999999999999
 30
0.000000000000000
 11
60.91866300000001
 21
53.99999999999999
 31
0.000000000000000
  0
LINE
  5
80
100
AcDbEntity
  8
A5
  6
CONTINUOUS
 62
7
100
AcDbLine
 10
60.91866300000001
 20
54.60000000000001
 30
0.000000000000000
 11
61.99651000000000
 21
54.60000000000001
 31
0.000000000000000
  0
LINE
  5
81
100
AcDbEntity
  8
A5
  6
CONTINUOUS
 62
7
100
AcDbLine
 10
61.99651000000000
 20
53.99999999999999
 30
0.000000000000000
 11
61.99651000000000
 21
54.60000000000001
 31
0.000000000000000
  0
LINE
  5
82
100
AcDbEntity
  8
A5
  6
CONTINUOUS
 62
7
100
AcDbLine
 10
60.91866300000001
 20
53.99999999999999
 30
0.000000000000000
 11
60.91866300000001
 21
54.60000000000001
 31
0.000000000000000
  0
LINE
  5
83
100
AcDbEntity
  8
A5
  6
CONTINUOUS
 62
7
100
AcDbLine
 10
69.77121600000001
 20
53.99999999999999
 30
0.000000000000000
 11
69.88908700000002
 21
53.99999999999999
 31
0.000000000000000
  0
LINE
  5
84
100
AcDbEntity
  8
A5
  6
CONTINUOUS
 62
7
100
AcDbLine
 10
69.77121600000001
 20
54.60000000000001
 30
0.000000000000000
 11
69.88908700000002
 21
54.60000000000001
 31
0.000000000000000
  0
LINE
  5
85
100
AcDbEntity
  8
A5
  6
CONTINUOUS
 62
7
100
AcDbLine
 10
71.01621800000001
 20
53.99999999999999
 30
0.000000000000000
 11
69.88908700000002
 21
53.99999999999999
 31
0.000000000000000
  0
LINE
  5
86
100
AcDbEntity
  8
A5
  6
CONTINUOUS
 62
7
100
AcDbLine
 10
69.88908700000002
 20
54.60000000000001
 30
0.000000000000000
 11
71.01621800000001
 21
54.60000000000001
 31
0.000000000000000
  0
LINE
  5
87
100
AcDbEntity
  8
A5
  6
CONTINUOUS
 62
7
100
AcDbLine
 10
71.01621800000001
 20
53.99999999999999
 30
0.000000000000000
 11
71.01621800000001
 21
54.60000000000001
 31
0.000000000000000
  0
LINE
  5
88
100
AcDbEntity
  8
A5
  6
CONTINUOUS
 62
7
100
AcDbLine
 10
69.88908700000002
 20
53.99999999999999
 30
0.000000000000000
 11
69.88908700000002
 21
54.60000000000001
 31
0.000000000000000
  0
LINE
  5
89
100
AcDbEntity
  8
A5
  6
CONTINUOUS
 62
7
100
AcDbLine
 10
63.74443900000000
 20
53.99999999999999
 30
0.000000000000000
 11
63.89524100000000
 21
53.99999999999999
 31
0.000000000000000
  0
LINE
  5
8A
100
AcDbEntity
  8
A5
  6
CONTINUOUS
 62
7
100
AcDbLine
 10
63.74443900000000
 20
54.60000000000001
 30
0.000000000000000
 11
63.89524100000000
 21
54.60000000000001
 31
0.000000000000000
  0
LINE
  5
8B
100
AcDbEntity
  8
A5
  6
CONTINUOUS
 62
7
100
AcDbLine
 10
63.74443900000000
 20
53.99999999999999
 30
0.000000000000000
 11
62.11091300000001
 21
53.99999999999999
 31
0.000000000000000
  0
LINE
  5
8C
100
AcDbEntity
  8
A5
  6
CONTINUOUS
 62
7
100
AcDbLine
 10
62.11091300000001
 20
54.60000000000001
 30
0.000000000000000
 11
63.74443900000000
 21
54.60000000000001
 31
0.000000000000000
  0
LINE
  5
8D
100
AcDbEntity
  8
A5
  6
CONTINUOUS
 62
7
100
AcDbLine
 10
63.74443900000000
 20
53.99999999999999
 30
0.000000000000000
 11
63.74443900000000
 21
54.60000000000001
 31
0.000000000000000
  0
LINE
  5
8E
100
AcDbEntity
  8
A5
  6
CONTINUOUS
 62
7
100
AcDbLine
 10
62.11091300000001
 20
53.99999999999999
 30
0.000000000000000
 11
62.11091300000001
 21
54.60000000000001
 31
0.000000000000000
  0
LINE
  5
8F
100
AcDbEntity
  8
A5
  6
CONTINUOUS
 62
7
100
AcDbLine
 10
67.95208000000002
 20
53.99999999999999
 30
0.000000000000000
 11
68.10475900000000
 21
53.99999999999999
 31
0.000000000000000
  0
LINE
  5
90
100
AcDbEntity
  8
A5
  6
CONTINUOUS
 62
7
100
AcDbLine
 10
67.95208000000002
 20
54.60000000000001
 30
0.000000000000000
 11
68.10475900000000
 21
54.60000000000001
 31
0.000000000000000
  0
LINE
  5
91
100
AcDbEntity
  8
A5
  6
CONTINUOUS
 62
7
100
AcDbLine
 10
69.77121600000001
 20
53.99999999999999
 30
0.000000000000000
 11
68.10475900000000
 21
53.99999999999999
 31
0.000000000000000
  0
LINE
  5
92
100
AcDbEntity
  8
A5
  6
CONTINUOUS
 62
7
100
AcDbLine
 10
68.10475900000000
 20
54.60000000000001
 30
0.000000000000000
 11
69.77121600000001
 21
54.60000000000001
 31
0.000000000000000
  0
LINE
  5
93
100
AcDbEntity
  8
A5
  6
CONTINUOUS
 62
7
100
AcDbLine
 10
69.77121600000001
 20
53.99999999999999
 30
0.000000000000000
 11
69.77121600000001
 21
54.60000000000001
 31
0.000000000000000
  0
LINE
  5
94
100
AcDbEntity
  8
A5
  6
CONTINUOUS
 62
7
100
AcDbLine
 10
68.10475900000000
 20
53.99999999999999
 30
0.000000000000000
 11
68.10475900000000
 21
54.60000000000001
 31
0.000000000000000
  0
LINE
  5
95
100
AcDbEntity
  8
A5
  6
CONTINUOUS
 62
7
100
AcDbLine
 10
65.83575700000000
 20
53.99999999999999
 30
0.000000000000000
 11
63.89524100000000
 21
53.99999999999999
 31
0.000000000000000
  0
LINE
  5
96
100
AcDbEntity
  8
A5
  6
CONTINUOUS
 62
7
100
AcDbLine
 10
63.89524100000000
 20
54.60000000000001
 30
0.000000000000000
 11
65.83575700000000
 21
54.60000000000001
 31
0.000000000000000
  0
LINE
  5
97
100
AcDbEntity
  8
A5
  6
CONTINUOUS
 62
7
100
AcDbLine
 10
63.89524100000000
 20
53.99999999999999
 30
0.000000000000000
 11
63.89524100000000
 21
54.60000000000001
 31
0.000000000000000
  0
LINE
  5
98
100
AcDbEntity
  8
A5
  6
CONTINUOUS
 62
7
100
AcDbLine
 10
65.83575700000000
 20
53.99999999999999
 30
0.000000000000000
 11
66.00000000000000
 21
53.99999999999999
 31
0.000000000000000
  0
LINE
  5
99
100
AcDbEntity
  8
A5
  6
CONTINUOUS
 62
7
100
AcDbLine
 10
65.83575700000000
 20
54.60000000000001
 30
0.000000000000000
 11
66.00000000000000
 21
54.60000000000001
 31
0.000000000000000
  0
LINE
  5
9A
100
AcDbEntity
  8
A5
  6
CONTINUOUS
 62
7
100
AcDbLine
 10
65.83575700000000
 20
53.99999999999999
 30
0.000000000000000
 11
65.83575700000000
 21
54.60000000000001
 31
0.000000000000000
  0
LINE
  5
9B
100
AcDbEntity
  8
A5
  6
CONTINUOUS
 62
7
100
AcDbLine
 10
67.95208000000002
 20
53.99999999999999
 30
0.000000000000000
 11
66.00000000000000
 21
53.99999999999999
 31
0.000000000000000
  0
LINE
  5
9C
100
AcDbEntity
  8
A5
  6
CONTINUOUS
 62
7
100
AcDbLine
 10
67.95208000000002
 20
53.99999999999999
 30
0.000000000000000
 11
67.95208000000002
 21
54.60000000000001
 31
0.000000000000000
  0
LINE
  5
9D
100
AcDbEntity
  8
A5
  6
CONTINUOUS
 62
7
100
AcDbLine
 10
66.00000000000000
 20
54.60000000000001
 30
0.000000000000000
 11
67.95208000000002
 21
54.60000000000001
 31
0.000000000000000
  0
LINE
  5
9E
100
AcDbEntity
  8
A5
  6
CONTINUOUS
 62
7
100
AcDbLine
 10
66.00000000000000
 20
53.99999999999999
 30
0.000000000000000
 11
66.00000000000000
 21
54.60000000000001
 31
0.000000000000000
  0
LINE
  5
9F
100
AcDbEntity
  8
A5
  6
CONTINUOUS
 62
7
100
AcDbLine
 10
66.00000000000000
 20
83.80000000000000
 30
0.000000000000000
 11
52.50000000000000
 21
83.80000000000000
 31
0.000000000000000
  0
LINE
  5
A0
100
AcDbEntity
  8
A5
  6
CONTINUOUS
 62
7
100
AcDbLine
 10
66.00000000000000
 20
87.60000000000001
 30
0.000000000000000
 11
52.50000000000000
 21
87.60000000000001
 31
0.000000000000000
  0
LINE
  5
A1
100
AcDbEntity
  8
A5
  6
CONTINUOUS
 62
7
100
AcDbLine
 10
52.50000000000000
 20
87.60000000000001
 30
0.000000000000000
 11
52.50000000000000
 21
83.80000000000000
 31
0.000000000000000
  0
LINE
  5
A2
100
AcDbEntity
  8
A5
  6
CONTINUOUS
 62
7
100
AcDbLine
 10
79.50000000000000
 20
83.80000000000000
 30
0.000000000000000
 11
66.00000000000000
 21
83.80000000000000
 31
0.000000000000000
  0
LINE
  5
A3
100
AcDbEntity
  8
A5
  6
CONTINUOUS
 62
7
100
AcDbLine
 10
66.00000000000000
 20
87.60000000000001
 30
0.000000000000000
 11
66.00000000000000
 21
83.80000000000000
 31
0.000000000000000
  0
LINE
  5
A4
100
AcDbEntity
  8
A5
  6
CONTINUOUS
 62
7
100
AcDbLine
 10
79.50000000000000
 20
87.60000000000001
 30
0.000000000000000
 11
79.50000000000000
 21
83.80000000000000
 31
0.000000000000000
  0
LINE
  5
A5
100
AcDbEntity
  8
A5
  6
CONTINUOUS
 62
7
100
AcDbLine
 10
79.50000000000000
 20
87.60000000000001
 30
0.000000000000000
 11
66.00000000000000
 21
87.60000000000001
 31
0.000000000000000
  0
LINE
  5
A6
100
AcDbEntity
  8
A5
  6
CONTINUOUS
 62
7
100
AcDbLine
 10
62.97541300000000
 20
54.90000000000002
 30
0.000000000000000
 11
69.02458700000000
 21
54.90000000000002
 31
0.000000000000000
  0
LINE
  5
A7
100
AcDbEntity
  8
A5
  6
CONTINUOUS
 62
7
100
AcDbLine
 10
61.80000000000001
 20
58.60000000000001
 30
0.000000000000000
 11
61.02500000000001
 21
58.60000000000001
 31
0.000000000000000
  0
LINE
  5
A8
100
AcDbEntity
  8
A5
  6
CONTINUOUS
 62
7
100
AcDbLine
 10
61.80000000000000
 20
58.59999999999997
 30
0.000000000000000
 11
62.05000000000000
 21
54.90000000000000
 31
0.000000000000000
  0
LINE
  5
A9
100
AcDbEntity
  8
A5
  6
CONTINUOUS
 62
7
100
AcDbLine
 10
62.97541300000000
 20
54.90000000000002
 30
0.000000000000000
 11
62.05000000000001
 21
54.90000000000002
 31
0.000000000000000
  0
LINE
  5
AA
100
AcDbEntity
  8
A5
  6
CONTINUOUS
 62
7
100
AcDbLine
 10
68.66657500000002
 20
58.60000000000001
 30
0.000000000000000
 11
63.33342400000001
 21
58.60000000000001
 31
0.000000000000000
  0
LINE
  5
AB
100
AcDbEntity
  8
A5
  6
CONTINUOUS
 62
7
100
AcDbLine
 10
69.95000000000002
 20
54.90000000000002
 30
0.000000000000000
 11
69.02458700000000
 21
54.90000000000002
 31
0.000000000000000
  0
LINE
  5
AC
100
AcDbEntity
  8
A5
  6
CONTINUOUS
 62
7
100
AcDbLine
 10
69.94999999999999
 20
54.89999999999996
 30
0.000000000000000
 11
70.19999999999999
 21
58.59999999999997
 31
0.000000000000000
  0
LINE
  5
AD
100
AcDbEntity
  8
A5
  6
CONTINUOUS
 62
7
100
AcDbLine
 10
61.02500000000001
 20
59.10000000000001
 30
0.000000000000000
 11
61.02500000000001
 21
58.60000000000001
 31
0.000000000000000
  0
LINE
  5
AE
100
AcDbEntity
  8
A5
  6
CONTINUOUS
 62
7
100
AcDbLine
 10
70.97500000000002
 20
58.60000000000001
 30
0.000000000000000
 11
70.97500000000002
 21
59.10000000000001
 31
0.000000000000000
  0
LINE
  5
AF
100
AcDbEntity
  8
A5
  6
CONTINUOUS
 62
7
100
AcDbLine
 10
70.97500000000002
 20
58.60000000000001
 30
0.000000000000000
 11
70.20000000000002
 21
58.60000000000001
 31
0.000000000000000
  0
LINE
  5
B0
100
AcDbEntity
  8
A5
  6
CONTINUOUS
 62
7
100
AcDbLine
 10
56.10000000000002
 20
63.60000000000001
 30
0.000000000000000
 11
56.10000000000002
 21
59.60000000000001
 31
0.000000000000000
  0
LINE
  5
B1
100
AcDbEntity
  8
A5
  6
CONTINUOUS
 62
7
100
AcDbLine
 10
75.90000000000001
 20
59.60000000000001
 30
0.000000000000000
 11
75.90000000000001
 21
63.60000000000001
 31
0.000000000000000
  0
LINE
  5
B2
100
AcDbEntity
  8
A5
  6
CONTINUOUS
 62
7
100
AcDbLine
 10
75.40000000000001
 20
59.09999999999999
 30
0.000000000000000
 11
75.90000000000001
 21
59.59999999999999
 31
0.000000000000000
  0
LINE
  5
B3
100
AcDbEntity
  8
A5
  6
CONTINUOUS
 62
7
100
AcDbLine
 10
56.09999999999999
 20
59.59999999999998
 30
0.000000000000000
 11
56.59999999999999
 21
59.09999999999998
 31
0.000000000000000
  0
LINE
  5
B4
100
AcDbEntity
  8
A5
  6
CONTINUOUS
 62
7
100
AcDbLine
 10
75.90000000000001
 20
59.60000000000001
 30
0.000000000000000
 11
56.10000000000002
 21
59.60000000000001
 31
0.000000000000000
  0
LINE
  5
B5
100
AcDbEntity
  8
A5
  6
CONTINUOUS
 62
7
100
AcDbLine
 10
75.40000000000001
 20
59.10000000000001
 30
0.000000000000000
 11
56.60000000000002
 21
59.10000000000001
 31
0.000000000000000
  0
LINE
  5
B6
100
AcDbEntity
  8
A5
  6
CONTINUOUS
 62
7
100
AcDbLine
 10
66.00000000000000
 20
63.60000000000001
 30
0.000000000000000
 11
76.00000000000000
 21
63.60000000000001
 31
0.000000000000000
  0
LINE
  5
B7
100
AcDbEntity
  8
A5
  6
CONTINUOUS
 62
7
100
AcDbLine
 10
76.00000000000000
 20
63.60000000000001
 30
0.000000000000000
 11
76.00000000000000
 21
64.60000000000001
 31
0.000000000000000
  0
LINE
  5
B8
100
AcDbEntity
  8
A5
  6
CONTINUOUS
 62
7
100
AcDbLine
 10
61.41742400000001
 20
83.80000000000000
 30
0.000000000000000
 11
61.41742400000001
 21
64.60000000000001
 31
0.000000000000000
  0
LINE
  5
B9
100
AcDbEntity
  8
A5
  6
CONTINUOUS
 62
7
100
AcDbLine
 10
61.41742400000001
 20
89.60000000000001
 30
0.000000000000000
 11
61.41742400000001
 21
87.60000000000001
 31
0.000000000000000
  0
LINE
  5
BA
100
AcDbEntity
  8
A5
  6
CONTINUOUS
 62
7
100
AcDbLine
 10
56.00000000000000
 20
83.80000000000000
 30
0.000000000000000
 11
56.00000000000000
 21
64.60000000000001
 31
0.000000000000000
  0
LINE
  5
BB
100
AcDbEntity
  8
A5
  6
CONTINUOUS
 62
7
100
AcDbLine
 10
56.00000000000000
 20
89.60000000000001
 30
0.000000000000000
 11
56.00000000000000
 21
87.60000000000001
 31
0.000000000000000
  0
LINE
  5
BC
100
AcDbEntity
  8
A5
  6
CONTINUOUS
 62
7
100
AcDbLine
 10
56.00000000000000
 20
63.60000000000001
 30
0.000000000000000
 11
66.00000000000000
 21
63.60000000000001
 31
0.000000000000000
  0
LINE
  5
BD
100
AcDbEntity
  8
A5
  6
CONTINUOUS
 62
7
100
AcDbLine
 10
56.00000000000000
 20
64.60000000000001
 30
0.000000000000000
 11
61.41742400000001
 21
64.60000000000001
 31
0.000000000000000
  0
LINE
  5
BE
100
AcDbEntity
  8
A5
  6
CONTINUOUS
 62
7
100
AcDbLine
 10
56.00000000000000
 20
63.60000000000001
 30
0.000000000000000
 11
56.00000000000000
 21
64.60000000000001
 31
0.000000000000000
  0
LINE
  5
BF
100
AcDbEntity
  8
A5
  6
CONTINUOUS
 62
7
100
AcDbLine
 10
70.58257600000002
 20
64.60000000000001
 30
0.000000000000000
 11
76.00000000000000
 21
64.60000000000001
 31
0.000000000000000
  0
LINE
  5
C0
100
AcDbEntity
  8
A5
  6
CONTINUOUS
 62
7
100
AcDbLine
 10
76.00000000000000
 20
83.80000000000000
 30
0.000000000000000
 11
76.00000000000000
 21
64.60000000000001
 31
0.000000000000000
  0
LINE
  5
C1
100
AcDbEntity
  8
A5
  6
CONTINUOUS
 62
7
100
AcDbLine
 10
76.00000000000000
 20
89.60000000000001
 30
0.000000000000000
 11
76.00000000000000
 21
87.60000000000001
 31
0.000000000000000
  0
LINE
  5
C2
100
AcDbEntity
  8
A5
  6
CONTINUOUS
 62
7
100
AcDbLine
 10
70.58257600000002
 20
83.80000000000000
 30
0.000000000000000
 11
70.58257600000002
 21
64.60000000000001
 31
0.000000000000000
  0
LINE
  5
C3
100
AcDbEntity
  8
A5
  6
CONTINUOUS
 62
7
100
AcDbLine
 10
70.58257600000002
 20
89.60000000000001
 30
0.000000000000000
 11
70.58257600000002
 21
87.60000000000001
 31
0.000000000000000
  0
LINE
  5
C4
100
AcDbEntity
  8
A5
  6
CONTINUOUS
 62
7
100
AcDbLine
 10
50.00000000000000
 20
90.60000000000001
 30
0.000000000000000
 11
50.00000000000000
 21
89.60000000000001
 31
0.000000000000000
  0
LINE
  5
C5
100
AcDbEntity
  8
A5
  6
CONTINUOUS
 62
7
100
AcDbLine
 10
82.00000000000000
 20
89.60000000000001
 30
0.000000000000000
 11
82.00000000000000
 21
90.60000000000001
 31
0.000000000000000
  0
LINE
  5
C6
100
AcDbEntity
  8
A5
  6
CONTINUOUS
 62
7
100
AcDbLine
 10
50.00000000000000
 20
89.60000000000001
 30
0.000000000000000
 11
82.00000000000000
 21
89.60000000000001
 31
0.000000000000000
  0
LINE
  5
C7
100
AcDbEntity
  8
A5
  6
CONTINUOUS
 62
7
100
AcDbLine
 10
80.25000000000000
 20
93.60000000000001
 30
0.000000000000000
 11
51.75000000000000
 21
93.60000000000001
 31
0.000000000000000
  0
LINE
  5
C8
100
AcDbEntity
  8
A5
  6
CONTINUOUS
 62
7
100
AcDbLine
 10
82.00000000000000
 20
90.60000000000001
 30
0.000000000000000
 11
50.00000000000000
 21
90.60000000000001
 31
0.000000000000000
  0
LINE
  5
C9
100
AcDbEntity
  8
A5
  6
CONTINUOUS
 62
7
100
AcDbLine
 10
51.75000000000001
 20
93.59999999999998
 30
0.000000000000000
 11
50.00000000000002
 21
90.60000000000001
 31
0.000000000000000
  0
LINE
  5
CA
100
AcDbEntity
  8
A5
  6
CONTINUOUS
 62
7
100
AcDbLine
 10
82.00000000000003
 20
90.60000000000001
 30
0.000000000000000
 11
80.25000000000003
 21
93.60000000000001
 31
0.000000000000000
  0
LINE
  5
CB
100
AcDbEntity
  8
A4
  6
CENTER
 62
1
100
AcDbLine
 10
83.49999999996783
 20
169.1611905530660
 30
0.000000000000000
 11
48.49999999996783
 21
169.1611905530660
 31
0.000000000000000
  0
LINE
  5
CC
100
AcDbEntity
  8
A4
  6
CENTER
 62
1
100
AcDbLine
 10
65.99999999996783
 20
186.6611905530660
 30
0.000000000000000
 11
65.99999999996783
 21
151.6611905530659
 31
0.000000000000000
  0
LINE
  5
CD
100
AcDbEntity
  8
A5
  6
CENTER
 62
1
100
AcDbLine
 10
65.99999999996783
 20
95.10000000000001
 30
0.000000000000000
 11
65.99999999996783
 21
46.46903940820764
 31
0.000000000000000
  0
ARC
  5
CE
100
AcDbEntity
  8
A5
  6
CONTINUOUS
 62
7
100
AcDbCircle
 10
154.6712899293839
 20
48.00000000000000
 30
0.000000000000000
 40
0.4000000000000000
100
AcDbArc
 50
270.0000000000000
 51
360.0000000000000
  0
ARC
  5
CF
100
AcDbEntity
  8
A5
  6
CONTINUOUS
 62
7
100
AcDbCircle
 10
163.9712899293838
 20
48.00000000000000
 30
0.000000000000000
 40
0.4000000000000000
100
AcDbArc
 50
180.0000000000000
 51
270.0000000000000
  0
LINE
  5
D0
100
AcDbEntity
  8
A5
  6
CONTINUOUS
 62
7
100
AcDbLine
 10
164.3212899293839
 20
43.99999999999999
 30
0.000000000000000
 11
165.0947929293839
 21
44.44658199999999
 31
0.000000000000000
  0
LINE
  5
D1
100
AcDbEntity
  8
A5
  6
CONTINUOUS
 62
7
100
AcDbLine
 10
164.3212899293839
 20
44.00000000000000
 30
0.000000000000000
 11
163.6514169293839
 21
44.00000000000000
 31
0.000000000000000
  0
LINE
  5
D2
100
AcDbEntity
  8
A5
  6
CONTINUOUS
 62
7
100
AcDbLine
 10
154.9911629293838
 20
44.00000000000000
 30
0.000000000000000
 11
154.3212899293839
 21
44.00000000000000
 31
0.000000000000000
  0
LINE
  5
D3
100
AcDbEntity
  8
A5
  6
CONTINUOUS
 62
7
100
AcDbLine
 10
153.5477869293838
 20
44.44658200000002
 30
0.000000000000000
 11
154.3212899293838
 21
44.00000000000002
 31
0.000000000000000
  0
LINE
  5
D4
100
AcDbEntity
  8
A5
  6
CONTINUOUS
 62
7
100
AcDbLine
 10
156.3212899293839
 20
48.90000000000001
 30
0.000000000000000
 11
156.3212899293839
 21
48.59999999999999
 31
0.000000000000000
  0
LINE
  5
D5
100
AcDbEntity
  8
A5
  6
CONTINUOUS
 62
7
100
AcDbLine
 10
162.3212899293839
 20
48.59999999999999
 30
0.000000000000000
 11
162.3212899293839
 21
48.90000000000001
 31
0.000000000000000
  0
LINE
  5
D6
100
AcDbEntity
  8
A5
  6
CONTINUOUS
 62
7
100
AcDbLine
 10
162.2080409293839
 20
47.59999999999999
 30
0.000000000000000
 11
156.4345389293838
 21
47.59999999999999
 31
0.000000000000000
  0
LINE
  5
D7
100
AcDbEntity
  8
A5
  6
CONTINUOUS
 62
7
100
AcDbLine
 10
156.4345389293838
 20
47.59999999999999
 30
0.000000000000000
 11
153.5477869293838
 21
47.59999999999999
 31
0.000000000000000
  0
LINE
  5
D8
100
AcDbEntity
  8
A5
  6
CONTINUOUS
 62
7
100
AcDbLine
 10
153.5477869293838
 20
47.59999999999999
 30
0.000000000000000
 11
153.5477869293838
 21
44.44658200000001
 31
0.000000000000000
  0
LINE
  5
D9
100
AcDbEntity
  8
A5
  6
CONTINUOUS
 62
7
100
AcDbLine
 10
156.4345389293838
 20
47.59999999999999
 30
0.000000000000000
 11
156.4345389293838
 21
44.44658200000001
 31
0.000000000000000
  0
LINE
  5
DA
100
AcDbEntity
  8
A5
  6
CONTINUOUS
 62
7
100
AcDbLine
 10
165.0947929293839
 20
47.59999999999999
 30
0.000000000000000
 11
162.2080409293839
 21
47.59999999999999
 31
0.000000000000000
  0
LINE
  5
DB
100
AcDbEntity
  8
A5
  6
CONTINUOUS
 62
7
100
AcDbLine
 10
162.2080409293839
 20
47.59999999999999
 30
0.000000000000000
 11
162.2080409293839
 21
44.44658200000001
 31
0.000000000000000
  0
LINE
  5
DC
100
AcDbEntity
  8
A5
  6
CONTINUOUS
 62
7
100
AcDbLine
 10
165.0947929293839
 20
47.59999999999999
 30
0.000000000000000
 11
165.0947929293839
 21
44.44658200000001
 31
0.000000000000000
  0
LINE
  5
DD
100
AcDbEntity
  8
A5
  6
CONTINUOUS
 62
7
100
AcDbLine
 10
163.6514169293839
 20
44.00000000000000
 30
0.000000000000000
 11
159.3212899293839
 21
44.00000000000000
 31
0.000000000000000
  0
LINE
  5
DE
100
AcDbEntity
  8
A5
  6
CONTINUOUS
 62
7
100
AcDbLine
 10
159.3212899293839
 20
44.00000000000000
 30
0.000000000000000
 11
154.9911629293838
 21
44.00000000000000
 31
0.000000000000000
  0
LINE
  5
DF
100
AcDbEntity
  8
A5
  6
CONTINUOUS
 62
7
100
AcDbLine
 10
164.8188369293838
 20
48.00000000000000
 30
0.000000000000000
 11
164.8212899293839
 21
48.00000000000000
 31
0.000000000000000
  0
LINE
  5
E0
100
AcDbEntity
  8
A5
  6
CONTINUOUS
 62
7
100
AcDbLine
 10
164.8188369293838
 20
48.59999999999999
 30
0.000000000000000
 11
164.8212899293839
 21
48.59999999999999
 31
0.000000000000000
  0
LINE
  5
E1
100
AcDbEntity
  8
A5
  6
CONTINUOUS
 62
7
100
AcDbLine
 10
164.8212899293839
 20
48.00000000000000
 30
0.000000000000000
 11
164.8212899293839
 21
48.59999999999999
 31
0.000000000000000
  0
LINE
  5
E2
100
AcDbEntity
  8
A5
  6
CONTINUOUS
 62
7
100
AcDbLine
 10
154.1793659293839
 20
48.00000000000000
 30
0.000000000000000
 11
153.8212899293839
 21
48.00000000000000
 31
0.000000000000000
  0
LINE
  5
E3
100
AcDbEntity
  8
A5
  6
CONTINUOUS
 62
7
100
AcDbLine
 10
153.8212899293839
 20
48.59999999999999
 30
0.000000000000000
 11
154.1793659293839
 21
48.59999999999999
 31
0.000000000000000
  0
LINE
  5
E4
100
AcDbEntity
  8
A5
  6
CONTINUOUS
 62
7
100
AcDbLine
 10
153.8212899293839
 20
48.00000000000000
 30
0.000000000000000
 11
153.8212899293839
 21
48.59999999999999
 31
0.000000000000000
  0
LINE
  5
E5
100
AcDbEntity
  8
A5
  6
CONTINUOUS
 62
7
100
AcDbLine
 10
154.1793659293839
 20
48.00000000000000
 30
0.000000000000000
 11
154.2399529293839
 21
48.00000000000000
 31
0.000000000000000
  0
LINE
  5
E6
100
AcDbEntity
  8
A5
  6
CONTINUOUS
 62
7
100
AcDbLine
 10
154.1793659293839
 20
48.59999999999999
 30
0.000000000000000
 11
154.2399529293839
 21
48.59999999999999
 31
0.000000000000000
  0
LINE
  5
E7
100
AcDbEntity
  8
A5
  6
CONTINUOUS
 62
7
100
AcDbLine
 10
154.1793659293839
 20
48.00000000000000
 30
0.000000000000000
 11
154.1793659293839
 21
48.59999999999999
 31
0.000000000000000
  0
LINE
  5
E8
100
AcDbEntity
  8
A5
  6
CONTINUOUS
 62
7
100
AcDbLine
 10
164.3375079293838
 20
48.00000000000000
 30
0.000000000000000
 11
164.4026269293839
 21
48.00000000000000
 31
0.000000000000000
  0
LINE
  5
E9
100
AcDbEntity
  8
A5
  6
CONTINUOUS
 62
7
100
AcDbLine
 10
164.3375079293838
 20
48.59999999999999
 30
0.000000000000000
 11
164.4026269293839
 21
48.59999999999999
 31
0.000000000000000
  0
LINE
  5
EA
100
AcDbEntity
  8
A5
  6
CONTINUOUS
 62
7
100
AcDbLine
 10
164.8188369293838
 20
48.00000000000000
 30
0.000000000000000
 11
164.4026269293839
 21
48.00000000000000
 31
0.000000000000000
  0
LINE
  5
EB
100
AcDbEntity
  8
A5
  6
CONTINUOUS
 62
7
100
AcDbLine
 10
164.4026269293839
 20
48.59999999999999
 30
0.000000000000000
 11
164.8188369293838
 21
48.59999999999999
 31
0.000000000000000
  0
LINE
  5
EC
100
AcDbEntity
  8
A5
  6
CONTINUOUS
 62
7
100
AcDbLine
 10
164.4026269293839
 20
48.00000000000000
 30
0.000000000000000
 11
164.4026269293839
 21
48.59999999999999
 31
0.000000000000000
  0
LINE
  5
ED
100
AcDbEntity
  8
A5
  6
CONTINUOUS
 62
7
100
AcDbLine
 10
164.8188369293838
 20
48.00000000000000
 30
0.000000000000000
 11
164.8188369293838
 21
48.59999999999999
 31
0.000000000000000
  0
LINE
  5
EE
100
AcDbEntity
  8
A5
  6
CONTINUOUS
 62
7
100
AcDbLine
 10
155.3177999293839
 20
48.00000000000000
 30
0.000000000000000
 11
155.4322029293839
 21
48.00000000000000
 31
0.000000000000000
  0
LINE
  5
EF
100
AcDbEntity
  8
A5
  6
CONTINUOUS
 62
7
100
AcDbLine
 10
155.3177999293839
 20
48.59999999999999
 30
0.000000000000000
 11
155.4322029293839
 21
48.59999999999999
 31
0.000000000000000
  0
LINE
  5
F0
100
AcDbEntity
  8
A5
  6
CONTINUOUS
 62
7
100
AcDbLine
 10
155.3177999293839
 20
48.00000000000000
 30
0.000000000000000
 11
154.2399529293839
 21
48.00000000000000
 31
0.000000000000000
  0
LINE
  5
F1
100
AcDbEntity
  8
A5
  6
CONTINUOUS
 62
7
100
AcDbLine
 10
154.2399529293839
 20
48.59999999999999
 30
0.000000000000000
 11
155.3177999293839
 21
48.59999999999999
 31
0.000000000000000
  0
LINE
  5
F2
100
AcDbEntity
  8
A5
  6
CONTINUOUS
 62
7
100
AcDbLine
 10
155.3177999293839
 20
48.00000000000000
 30
0.000000000000000
 11
155.3177999293839
 21
48.59999999999999
 31
0.000000000000000
  0
LINE
  5
F3
100
AcDbEntity
  8
A5
  6
CONTINUOUS
 62
7
100
AcDbLine
 10
154.2399529293839
 20
48.00000000000000
 30
0.000000000000000
 11
154.2399529293839
 21
48.59999999999999
 31
0.000000000000000
  0
LINE
  5
F4
100
AcDbEntity
  8
A5
  6
CONTINUOUS
 62
7
100
AcDbLine
 10
163.0925059293838
 20
48.00000000000000
 30
0.000000000000000
 11
163.2103769293839
 21
48.00000000000000
 31
0.000000000000000
  0
LINE
  5
F5
100
AcDbEntity
  8
A5
  6
CONTINUOUS
 62
7
100
AcDbLine
 10
163.0925059293838
 20
48.59999999999999
 30
0.000000000000000
 11
163.2103769293839
 21
48.59999999999999
 31
0.000000000000000
  0
LINE
  5
F6
100
AcDbEntity
  8
A5
  6
CONTINUOUS
 62
7
100
AcDbLine
 10
164.3375079293838
 20
48.00000000000000
 30
0.000000000000000
 11
163.2103769293839
 21
48.00000000000000
 31
0.000000000000000
  0
LINE
  5
F7
100
AcDbEntity
  8
A5
  6
CONTINUOUS
 62
7
100
AcDbLine
 10
163.2103769293839
 20
48.59999999999999
 30
0.000000000000000
 11
164.3375079293838
 21
48.59999999999999
 31
0.000000000000000
  0
LINE
  5
F8
100
AcDbEntity
  8
A5
  6
CONTINUOUS
 62
7
100
AcDbLine
 10
164.3375079293838
 20
48.00000000000000
 30
0.000000000000000
 11
164.3375079293838
 21
48.59999999999999
 31
0.000000000000000
  0
LINE
  5
F9
100
AcDbEntity
  8
A5
  6
CONTINUOUS
 62
7
100
AcDbLine
 10
163.2103769293839
 20
48.00000000000000
 30
0.000000000000000
 11
163.2103769293839
 21
48.59999999999999
 31
0.000000000000000
  0
LINE
  5
FA
100
AcDbEntity
  8
A5
  6
CONTINUOUS
 62
7
100
AcDbLine
 10
157.0657289293839
 20
48.00000000000000
 30
0.000000000000000
 11
157.2165309293839
 21
48.00000000000000
 31
0.000000000000000
  0
LINE
  5
FB
100
AcDbEntity
  8
A5
  6
CONTINUOUS
 62
7
100
AcDbLine
 10
157.0657289293839
 20
48.59999999999999
 30
0.000000000000000
 11
157.2165309293839
 21
48.59999999999999
 31
0.000000000000000
  0
LINE
  5
FC
100
AcDbEntity
  8
A5
  6
CONTINUOUS
 62
7
100
AcDbLine
 10
157.0657289293839
 20
48.00000000000000
 30
0.000000000000000
 11
155.4322029293839
 21
48.00000000000000
 31
0.000000000000000
  0
LINE
  5
FD
100
AcDbEntity
  8
A5
  6
CONTINUOUS
 62
7
100
AcDbLine
 10
155.4322029293839
 20
48.59999999999999
 30
0.000000000000000
 11
157.0657289293839
 21
48.59999999999999
 31
0.000000000000000
  0
LINE
  5
FE
100
AcDbEntity
  8
A5
  6
CONTINUOUS
 62
7
100
AcDbLine
 10
157.0657289293839
 20
48.00000000000000
 30
0.000000000000000
 11
157.0657289293839
 21
48.59999999999999
 31
0.000000000000000
  0
LINE
  5
FF
100
AcDbEntity
  8
A5
  6
CONTINUOUS
 62
7
100
AcDbLine
 10
155.4322029293839
 20
48.00000000000000
 30
0.000000000000000
 11
155.4322029293839
 21
48.59999999999999
 31
0.000000000000000
  0
LINE
  5
100
100
AcDbEntity
  8
A5
  6
CONTINUOUS
 62
7
100
AcDbLine
 10
161.2733699293839
 20
48.00000000000000
 30
0.000000000000000
 11
161.4260489293839
 21
48.00000000000000
 31
0.000000000000000
  0
LINE
  5
101
100
AcDbEntity
  8
A5
  6
CONTINUOUS
 62
7
100
AcDbLine
 10
161.2733699293839
 20
48.59999999999999
 30
0.000000000000000
 11
161.4260489293839
 21
48.59999999999999
 31
0.000000000000000
  0
LINE
  5
102
100
AcDbEntity
  8
A5
  6
CONTINUOUS
 62
7
100
AcDbLine
 10
163.0925059293838
 20
48.00000000000000
 30
0.000000000000000
 11
161.4260489293839
 21
48.00000000000000
 31
0.000000000000000
  0
LINE
  5
103
100
AcDbEntity
  8
A5
  6
CONTINUOUS
 62
7
100
AcDbLine
 10
161.4260489293839
 20
48.59999999999999
 30
0.000000000000000
 11
163.0925059293838
 21
48.59999999999999
 31
0.000000000000000
  0
LINE
  5
104
100
AcDbEntity
  8
A5
  6
CONTINUOUS
 62
7
100
AcDbLine
 10
163.0925059293838
 20
48.00000000000000
 30
0.000000000000000
 11
163.0925059293838
 21
48.59999999999999
 31
0.000000000000000
  0
LINE
  5
105
100
AcDbEntity
  8
A5
  6
CONTINUOUS
 62
7
100
AcDbLine
 10
161.4260489293839
 20
48.00000000000000
 30
0.000000000000000
 11
161.4260489293839
 21
48.59999999999999
 31
0.000000000000000
  0
LINE
  5
106
100
AcDbEntity
  8
A5
  6
CONTINUOUS
 62
7
100
AcDbLine
 10
159.1570469293839
 20
48.00000000000000
 30
0.000000000000000
 11
157.2165309293839
 21
48.00000000000000
 31
0.000000000000000
  0
LINE
  5
107
100
AcDbEntity
  8
A5
  6
CONTINUOUS
 62
7
100
AcDbLine
 10
157.2165309293839
 20
48.59999999999999
 30
0.000000000000000
 11
159.1570469293839
 21
48.59999999999999
 31
0.000000000000000
  0
LINE
  5
108
100
AcDbEntity
  8
A5
  6
CONTINUOUS
 62
7
100
AcDbLine
 10
157.2165309293839
 20
48.00000000000000
 30
0.000000000000000
 11
157.2165309293839
 21
48.59999999999999
 31
0.000000000000000
  0
LINE
  5
109
100
AcDbEntity
  8
A5
  6
CONTINUOUS
 62
7
100
AcDbLine
 10
159.1570469293839
 20
48.00000000000000
 30
0.000000000000000
 11
159.3212899293839
 21
48.00000000000000
 31
0.000000000000000
  0
LINE
  5
10A
100
AcDbEntity
  8
A5
  6
CONTINUOUS
 62
7
100
AcDbLine
 10
159.1570469293839
 20
48.59999999999999
 30
0.000000000000000
 11
159.3212899293839
 21
48.59999999999999
 31
0.000000000000000
  0
LINE
  5
10B
100
AcDbEntity
  8
A5
  6
CONTINUOUS
 62
7
100
AcDbLine
 10
159.1570469293839
 20
48.00000000000000
 30
0.000000000000000
 11
159.1570469293839
 21
48.59999999999999
 31
0.000000000000000
  0
LINE
  5
10C
100
AcDbEntity
  8
A5
  6
CONTINUOUS
 62
7
100
AcDbLine
 10
161.2733699293839
 20
48.00000000000000
 30
0.000000000000000
 11
159.3212899293839
 21
48.00000000000000
 31
0.000000000000000
  0
LINE
  5
10D
100
AcDbEntity
  8
A5
  6
CONTINUOUS
 62
7
100
AcDbLine
 10
161.2733699293839
 20
48.00000000000000
 30
0.000000000000000
 11
161.2733699293839
 21
48.59999999999999
 31
0.000000000000000
  0
LINE
  5
10E
100
AcDbEntity
  8
A5
  6
CONTINUOUS
 62
7
100
AcDbLine
 10
159.3212899293839
 20
48.59999999999999
 30
0.000000000000000
 11
161.2733699293839
 21
48.59999999999999
 31
0.000000000000000
  0
LINE
  5
10F
100
AcDbEntity
  8
A5
  6
CONTINUOUS
 62
7
100
AcDbLine
 10
159.3212899293839
 20
48.00000000000000
 30
0.000000000000000
 11
159.3212899293839
 21
48.59999999999999
 31
0.000000000000000
  0
LINE
  5
110
100
AcDbEntity
  8
A5
  6
CONTINUOUS
 62
7
100
AcDbLine
 10
159.3212899293839
 20
83.80000000000000
 30
0.000000000000000
 11
145.8212899293839
 21
83.80000000000000
 31
0.000000000000000
  0
LINE
  5
111
100
AcDbEntity
  8
A5
  6
CONTINUOUS
 62
7
100
AcDbLine
 10
159.3212899293839
 20
87.60000000000001
 30
0.000000000000000
 11
145.8212899293839
 21
87.60000000000001
 31
0.000000000000000
  0
LINE
  5
112
100
AcDbEntity
  8
A5
  6
CONTINUOUS
 62
7
100
AcDbLine
 10
145.8212899293839
 20
87.60000000000001
 30
0.000000000000000
 11
145.8212899293839
 21
83.80000000000000
 31
0.000000000000000
  0
LINE
  5
113
100
AcDbEntity
  8
A5
  6
CONTINUOUS
 62
7
100
AcDbLine
 10
172.8212899293839
 20
83.80000000000000
 30
0.000000000000000
 11
159.3212899293839
 21
83.80000000000000
 31
0.000000000000000
  0
LINE
  5
114
100
AcDbEntity
  8
A5
  6
CONTINUOUS
 62
7
100
AcDbLine
 10
159.3212899293839
 20
87.60000000000001
 30
0.000000000000000
 11
159.3212899293839
 21
83.80000000000000
 31
0.000000000000000
  0
LINE
  5
115
100
AcDbEntity
  8
A5
  6
CONTINUOUS
 62
7
100
AcDbLine
 10
172.8212899293839
 20
87.60000000000001
 30
0.000000000000000
 11
172.8212899293839
 21
83.80000000000000
 31
0.000000000000000
  0
LINE
  5
116
100
AcDbEntity
  8
A5
  6
CONTINUOUS
 62
7
100
AcDbLine
 10
172.8212899293839
 20
87.60000000000001
 30
0.000000000000000
 11
159.3212899293839
 21
87.60000000000001
 31
0.000000000000000
  0
LINE
  5
117
100
AcDbEntity
  8
A5
  6
CONTINUOUS
 62
7
100
AcDbLine
 10
156.2967029293839
 20
48.90000000000001
 30
0.000000000000000
 11
162.3458769293838
 21
48.90000000000001
 31
0.000000000000000
  0
LINE
  5
118
100
AcDbEntity
  8
A5
  6
CONTINUOUS
 62
7
100
AcDbLine
 10
155.1212899293839
 20
52.60000000000001
 30
0.000000000000000
 11
154.3462899293839
 21
52.60000000000001
 31
0.000000000000000
  0
LINE
  5
119
100
AcDbEntity
  8
A5
  6
CONTINUOUS
 62
7
100
AcDbLine
 10
155.1212899293838
 20
52.59999999999997
 30
0.000000000000000
 11
155.3712899293838
 21
48.89999999999998
 31
0.000000000000000
  0
LINE
  5
11A
100
AcDbEntity
  8
A5
  6
CONTINUOUS
 62
7
100
AcDbLine
 10
156.2967029293839
 20
48.90000000000001
 30
0.000000000000000
 11
155.3712899293839
 21
48.90000000000001
 31
0.000000000000000
  0
LINE
  5
11B
100
AcDbEntity
  8
A5
  6
CONTINUOUS
 62
7
100
AcDbLine
 10
161.9878649293839
 20
52.60000000000001
 30
0.000000000000000
 11
156.6547139293839
 21
52.60000000000001
 31
0.000000000000000
  0
LINE
  5
11C
100
AcDbEntity
  8
A5
  6
CONTINUOUS
 62
7
100
AcDbLine
 10
163.2712899293839
 20
48.90000000000001
 30
0.000000000000000
 11
162.3458769293838
 21
48.90000000000001
 31
0.000000000000000
  0
LINE
  5
11D
100
AcDbEntity
  8
A5
  6
CONTINUOUS
 62
7
100
AcDbLine
 10
163.2712899293838
 20
48.89999999999993
 30
0.000000000000000
 11
163.5212899293838
 21
52.59999999999995
 31
0.000000000000000
  0
LINE
  5
11E
100
AcDbEntity
  8
A5
  6
CONTINUOUS
 62
7
100
AcDbLine
 10
154.3462899293839
 20
59.10000000000007
 30
0.000000000000000
 11
154.3462899293839
 21
52.60000000000001
 31
0.000000000000000
  0
LINE
  5
11F
100
AcDbEntity
  8
A5
  6
CONTINUOUS
 62
7
100
AcDbLine
 10
164.2962899293839
 20
52.60000000000001
 30
0.000000000000000
 11
164.2962899293839
 21
59.10000000000007
 31
0.000000000000000
  0
LINE
  5
120
100
AcDbEntity
  8
A5
  6
CONTINUOUS
 62
7
100
AcDbLine
 10
164.2962899293839
 20
52.60000000000001
 30
0.000000000000000
 11
163.5212899293839
 21
52.60000000000001
 31
0.000000000000000
  0
LINE
  5
121
100
AcDbEntity
  8
A5
  6
CONTINUOUS
 62
7
100
AcDbLine
 10
149.4212899293838
 20
63.60000000000001
 30
0.000000000000000
 11
149.4212899293838
 21
59.60000000000001
 31
0.000000000000000
  0
LINE
  5
122
100
AcDbEntity
  8
A5
  6
CONTINUOUS
 62
7
100
AcDbLine
 10
169.2212899293838
 20
59.60000000000001
 30
0.000000000000000
 11
169.2212899293838
 21
63.60000000000001
 31
0.000000000000000
  0
LINE
  5
123
100
AcDbEntity
  8
A5
  6
CONTINUOUS
 62
7
100
AcDbLine
 10
168.7212899293838
 20
59.10000000000001
 30
0.000000000000000
 11
169.2212899293838
 21
59.60000000000001
 31
0.000000000000000
  0
LINE
  5
124
100
AcDbEntity
  8
A5
  6
CONTINUOUS
 62
7
100
AcDbLine
 10
149.4212899293838
 20
59.59999999999998
 30
0.000000000000000
 11
149.9212899293838
 21
59.09999999999998
 31
0.000000000000000
  0
LINE
  5
125
100
AcDbEntity
  8
A5
  6
CONTINUOUS
 62
7
100
AcDbLine
 10
169.2212899293838
 20
59.60000000000001
 30
0.000000000000000
 11
149.4212899293838
 21
59.60000000000001
 31
0.000000000000000
  0
LINE
  5
126
100
AcDbEntity
  8
A5
  6
CONTINUOUS
 62
7
100
AcDbLine
 10
168.7212899293838
 20
59.10000000000001
 30
0.000000000000000
 11
149.9212899293838
 21
59.10000000000001
 31
0.000000000000000
  0
LINE
  5
127
100
AcDbEntity
  8
A5
  6
CONTINUOUS
 62
7
100
AcDbLine
 10
159.3212899293839
 20
63.60000000000001
 30
0.000000000000000
 11
169.3212899293839
 21
63.60000000000001
 31
0.000000000000000
  0
LINE
  5
128
100
AcDbEntity
  8
A5
  6
CONTINUOUS
 62
7
100
AcDbLine
 10
169.3212899293839
 20
63.60000000000001
 30
0.000000000000000
 11
169.3212899293839
 21
64.60000000000001
 31
0.000000000000000
  0
LINE
  5
129
100
AcDbEntity
  8
A5
  6
CONTINUOUS
 62
7
100
AcDbLine
 10
154.7387139293839
 20
83.80000000000000
 30
0.000000000000000
 11
154.7387139293839
 21
64.60000000000001
 31
0.000000000000000
  0
LINE
  5
12A
100
AcDbEntity
  8
A5
  6
CONTINUOUS
 62
7
100
AcDbLine
 10
154.7387139293839
 20
89.60000000000001
 30
0.000000000000000
 11
154.7387139293839
 21
87.60000000000001
 31
0.000000000000000
  0
LINE
  5
12B
100
AcDbEntity
  8
A5
  6
CONTINUOUS
 62
7
100
AcDbLine
 10
149.3212899293839
 20
83.80000000000000
 30
0.000000000000000
 11
149.3212899293839
 21
64.60000000000001
 31
0.000000000000000
  0
LINE
  5
12C
100
AcDbEntity
  8
A5
  6
CONTINUOUS
 62
7
100
AcDbLine
 10
149.3212899293839
 20
89.60000000000001
 30
0.000000000000000
 11
149.3212899293839
 21
87.60000000000001
 31
0.000000000000000
  0
LINE
  5
12D
100
AcDbEntity
  8
A5
  6
CONTINUOUS
 62
7
100
AcDbLine
 10
149.3212899293839
 20
63.60000000000001
 30
0.000000000000000
 11
159.3212899293839
 21
63.60000000000001
 31
0.000000000000000
  0
LINE
  5
12E
100
AcDbEntity
  8
A5
  6
CONTINUOUS
 62
7
100
AcDbLine
 10
149.3212899293839
 20
64.60000000000001
 30
0.000000000000000
 11
154.7387139293839
 21
64.60000000000001
 31
0.000000000000000
  0
LINE
  5
12F
100
AcDbEntity
  8
A5
  6
CONTINUOUS
 62
7
100
AcDbLine
 10
149.3212899293839
 20
63.60000000000001
 30
0.000000000000000
 11
149.3212899293839
 21
64.60000000000001
 31
0.000000000000000
  0
LINE
  5
130
100
AcDbEntity
  8
A5
  6
CONTINUOUS
 62
7
100
AcDbLine
 10
163.9038659293839
 20
64.60000000000001
 30
0.000000000000000
 11
169.3212899293839
 21
64.60000000000001
 31
0.000000000000000
  0
LINE
  5
131
100
AcDbEntity
  8
A5
  6
CONTINUOUS
 62
7
100
AcDbLine
 10
169.3212899293839
 20
83.80000000000000
 30
0.000000000000000
 11
169.3212899293839
 21
64.60000000000001
 31
0.000000000000000
  0
LINE
  5
132
100
AcDbEntity
  8
A5
  6
CONTINUOUS
 62
7
100
AcDbLine
 10
169.3212899293839
 20
89.60000000000001
 30
0.000000000000000
 11
169.3212899293839
 21
87.60000000000001
 31
0.000000000000000
  0
LINE
  5
133
100
AcDbEntity
  8
A5
  6
CONTINUOUS
 62
7
100
AcDbLine
 10
163.9038659293839
 20
83.80000000000000
 30
0.000000000000000
 11
163.9038659293839
 21
64.60000000000001
 31
0.000000000000000
  0
LINE
  5
134
100
AcDbEntity
  8
A5
  6
CONTINUOUS
 62
7
100
AcDbLine
 10
163.9038659293839
 20
89.60000000000001
 30
0.000000000000000
 11
163.9038659293839
 21
87.60000000000001
 31
0.000000000000000
  0
LINE
  5
135
100
AcDbEntity
  8
A5
  6
CONTINUOUS
 62
7
100
AcDbLine
 10
143.3212899293839
 20
90.60000000000001
 30
0.000000000000000
 11
143.3212899293839
 21
89.60000000000001
 31
0.000000000000000
  0
LINE
  5
136
100
AcDbEntity
  8
A5
  6
CONTINUOUS
 62
7
100
AcDbLine
 10
175.3212899293838
 20
89.60000000000001
 30
0.000000000000000
 11
175.3212899293838
 21
90.60000000000001
 31
0.000000000000000
  0
LINE
  5
137
100
AcDbEntity
  8
A5
  6
CONTINUOUS
 62
7
100
AcDbLine
 10
143.3212899293839
 20
89.60000000000001
 30
0.000000000000000
 11
175.3212899293838
 21
89.60000000000001
 31
0.000000000000000
  0
LINE
  5
138
100
AcDbEntity
  8
A5
  6
CONTINUOUS
 62
7
100
AcDbLine
 10
173.5712899293839
 20
93.60000000000001
 30
0.000000000000000
 11
145.0712899293839
 21
93.60000000000001
 31
0.000000000000000
  0
LINE
  5
139
100
AcDbEntity
  8
A5
  6
CONTINUOUS
 62
7
100
AcDbLine
 10
175.3212899293838
 20
90.60000000000001
 30
0.000000000000000
 11
143.3212899293839
 21
90.60000000000001
 31
0.000000000000000
  0
LINE
  5
13A
100
AcDbEntity
  8
A5
  6
CONTINUOUS
 62
7
100
AcDbLine
 10
145.0712899293840
 20
93.60000000000005
 30
0.000000000000000
 11
143.3212899293839
 21
90.60000000000002
 31
0.000000000000000
  0
LINE
  5
13B
100
AcDbEntity
  8
A5
  6
CONTINUOUS
 62
7
100
AcDbLine
 10
175.3212899293839
 20
90.59999999999998
 30
0.000000000000000
 11
173.5712899293839
 21
93.59999999999999
 31
0.000000000000000
  0
LINE
  5
13C
100
AcDbEntity
  8
A5
  6
CENTER
 62
1
100
AcDbLine
 10
159.3212899293517
 20
95.10000000000001
 30
0.000000000000000
 11
159.3212899293517
 21
40.46903940820764
 31
0.000000000000000
  0
ENDSEC
  0
SECTION
  2
OBJECTS
  0
DICTIONARY
  5
168
100
AcDbDictionary
  3
ACAD_GROUP
350
169
  3
ACAD_LAYOUT
350
16A
  3
ACAD_MLINESTYLE
350
16B
  0
DICTIONARY
  5
169
102
{ACAD_REACTORS
330
168
102
}
330
168
100
AcDbDictionary
  0
DICTIONARY
  5
16A
102
{ACAD_REACTORS
330
168
102
}
330
168
100
AcDbDictionary
  3
Model
350
16C
  3
ﾚｲｱｳﾄ1
350
16D
  3
ﾚｲｱｳﾄ2
350
16E
  0
DICTIONARY
  5
16B
102
{ACAD_REACTORS
330
168
102
}
330
168
100
AcDbDictionary
  3
STANDARD
350
16F
  0
LAYOUT
  5
16C
102
{ACAD_REACTORS
330
16A
102
}
330
16A
100
AcDbPlotSettings
 70
11952
  4
A3
 44
297.000000
 45
420.000000
 73
  1
 72
  1
100
AcDbLayout
  1
Model
 71
0
330
15F
  0
LAYOUT
  5
16D
102
{ACAD_REACTORS
330
16A
102
}
330
16A
100
AcDbPlotSettings
100
AcDbLayout
  1
ﾚｲｱｳﾄ1
 71
1
330
160
  0
LAYOUT
  5
16E
102
{ACAD_REACTORS
330
16A
102
}
330
16A
100
AcDbPlotSettings
100
AcDbLayout
  1
ﾚｲｱｳﾄ2
 71
2
330
161
  0
MLINESTYLE
  5
16F
102
{ACAD_REACTORS
330
16B
102
}
330
16B
100
AcDbMlineStyle
  2
STANDARD
 70
     0
  3

 62
   256
 51
90.00
 52
90.00
 71
     2
 49
0.50
 62
   256
  6
BYLAYER
 49
-0.50
 62
   256
  6
BYLAYER
  0
ENDSEC
  0
EOF
