  0
SECTION
  2
HEADER
  9
$ACADVER
  1
AC1015
  9
$ACADMAINTVER
 70
    20
  9
$DWGCODEPAGE
  3
ANSI_932
  9
$INSBASE
 10
0.0
 20
0.0
 30
0.0
  9
$EXTMIN
 10
9.999997526638502
 20
10.0
 30
0.0
  9
$EXTMAX
 10
310.917110006845
 20
539.1721497435321
 30
0.0
  9
$LIMMIN
 10
0.0000015376081137
 20
-0.0000001931532552
  9
$LIMMAX
 10
792.0000015376082
 20
545.9999998068466
  9
$ORTHOMODE
 70
     1
  9
$REGENMODE
 70
     1
  9
$FILLMODE
 70
     1
  9
$QTEXTMODE
 70
     0
  9
$MIRRTEXT
 70
     1
  9
$LTSCALE
 40
1.0
  9
$ATTMODE
 70
     1
  9
$TEXTSIZE
 40
2.5
  9
$TRACEWID
 40
1.0
  9
$TEXTSTYLE
  7
STANDARD
  9
$CLAYER
  8
0
  9
$CELTYPE
  6
BYLAYER
  9
$CECOLOR
 62
   256
  9
$CELTSCALE
 40
1.0
  9
$DISPSILH
 70
     0
  9
$DIMSCALE
 40
1.0
  9
$DIMASZ
 40
3.0
  9
$DIMEXO
 40
1.0
  9
$DIMDLI
 40
10.0
  9
$DIMRND
 40
0.0
  9
$DIMDLE
 40
0.0
  9
$DIMEXE
 40
1.0
  9
$DIMTP
 40
0.0
  9
$DIMTM
 40
0.0
  9
$DIMTXT
 40
3.2
  9
$DIMCEN
 40
0.0
  9
$DIMTSZ
 40
0.0
  9
$DIMTOL
 70
     0
  9
$DIMLIM
 70
     0
  9
$DIMTIH
 70
     0
  9
$DIMTOH
 70
     0
  9
$DIMSE1
 70
     0
  9
$DIMSE2
 70
     0
  9
$DIMTAD
 70
     3
  9
$DIMZIN
 70
     8
  9
$DIMBLK
  1

  9
$DIMASO
 70
     1
  9
$DIMSHO
 70
     1
  9
$DIMPOST
  1

  9
$DIMAPOST
  1

  9
$DIMALT
 70
     0
  9
$DIMALTD
 70
     2
  9
$DIMALTF
 40
25.4
  9
$DIMLFAC
 40
1.0
  9
$DIMTOFL
 70
     1
  9
$DIMTVP
 40
0.0
  9
$DIMTIX
 70
     0
  9
$DIMSOXD
 70
     0
  9
$DIMSAH
 70
     1
  9
$DIMBLK1
  1
OPEN
  9
$DIMBLK2
  1
OPEN
  9
$DIMSTYLE
  2
STANDARD
  9
$DIMCLRD
 70
     0
  9
$DIMCLRE
 70
     0
  9
$DIMCLRT
 70
     0
  9
$DIMTFAC
 40
1.0
  9
$DIMGAP
 40
1.0
  9
$DIMJUST
 70
     0
  9
$DIMSD1
 70
     0
  9
$DIMSD2
 70
     0
  9
$DIMTOLJ
 70
     1
  9
$DIMTZIN
 70
     0
  9
$DIMALTZ
 70
     0
  9
$DIMALTTZ
 70
     0
  9
$DIMUPT
 70
     0
  9
$DIMDEC
 70
     4
  9
$DIMTDEC
 70
     4
  9
$DIMALTU
 70
     2
  9
$DIMALTTD
 70
     2
  9
$DIMTXSTY
  7
STANDARD
  9
$DIMAUNIT
 70
     0
  9
$DIMADEC
 70
     0
  9
$DIMALTRND
 40
0.0
  9
$DIMAZIN
 70
     0
  9
$DIMDSEP
 70
    46
  9
$DIMATFIT
 70
     3
  9
$DIMFRAC
 70
     0
  9
$DIMLDRBLK
  1
OPEN
  9
$DIMLUNIT
 70
     2
  9
$DIMLWD
 70
    -2
  9
$DIMLWE
 70
    -2
  9
$DIMTMOVE
 70
     0
  9
$LUNITS
 70
     2
  9
$LUPREC
 70
     4
  9
$SKETCHINC
 40
1.0
  9
$FILLETRAD
 40
10.0
  9
$AUNITS
 70
     0
  9
$AUPREC
 70
     0
  9
$MENU
  1
.
  9
$ELEVATION
 40
0.0
  9
$PELEVATION
 40
0.0
  9
$THICKNESS
 40
0.0
  9
$LIMCHECK
 70
     0
  9
$CHAMFERA
 40
10.0
  9
$CHAMFERB
 40
10.0
  9
$CHAMFERC
 40
20.0
  9
$CHAMFERD
 40
0.0
  9
$SKPOLY
 70
     0
  9
$TDCREATE
 40
2454168.681633021
  9
$TDUCREATE
 40
2454168.306633021
  9
$TDUPDATE
 40
2457192.700641771
  9
$TDUUPDATE
 40
2457192.325641771
  9
$TDINDWG
 40
0.0137107639
  9
$TDUSRTIMER
 40
0.0137107523
  9
$USRTIMER
 70
     1
  9
$ANGBASE
 50
0.0
  9
$ANGDIR
 70
     0
  9
$PDMODE
 70
     0
  9
$PDSIZE
 40
0.0
  9
$PLINEWID
 40
0.0
  9
$SPLFRAME
 70
     0
  9
$SPLINETYPE
 70
     6
  9
$SPLINESEGS
 70
     8
  9
$HANDSEED
  5
C87
  9
$SURFTAB1
 70
     6
  9
$SURFTAB2
 70
     6
  9
$SURFTYPE
 70
     6
  9
$SURFU
 70
     6
  9
$SURFV
 70
     6
  9
$UCSBASE
  2

  9
$UCSNAME
  2

  9
$UCSORG
 10
0.0
 20
0.0
 30
0.0
  9
$UCSXDIR
 10
1.0
 20
0.0
 30
0.0
  9
$UCSYDIR
 10
0.0
 20
1.0
 30
0.0
  9
$UCSORTHOREF
  2

  9
$UCSORTHOVIEW
 70
     0
  9
$UCSORGTOP
 10
0.0
 20
0.0
 30
0.0
  9
$UCSORGBOTTOM
 10
0.0
 20
0.0
 30
0.0
  9
$UCSORGLEFT
 10
0.0
 20
0.0
 30
0.0
  9
$UCSORGRIGHT
 10
0.0
 20
0.0
 30
0.0
  9
$UCSORGFRONT
 10
0.0
 20
0.0
 30
0.0
  9
$UCSORGBACK
 10
0.0
 20
0.0
 30
0.0
  9
$PUCSBASE
  2

  9
$PUCSNAME
  2

  9
$PUCSORG
 10
0.0
 20
0.0
 30
0.0
  9
$PUCSXDIR
 10
1.0
 20
0.0
 30
0.0
  9
$PUCSYDIR
 10
0.0
 20
1.0
 30
0.0
  9
$PUCSORTHOREF
  2

  9
$PUCSORTHOVIEW
 70
     0
  9
$PUCSORGTOP
 10
0.0
 20
0.0
 30
0.0
  9
$PUCSORGBOTTOM
 10
0.0
 20
0.0
 30
0.0
  9
$PUCSORGLEFT
 10
0.0
 20
0.0
 30
0.0
  9
$PUCSORGRIGHT
 10
0.0
 20
0.0
 30
0.0
  9
$PUCSORGFRONT
 10
0.0
 20
0.0
 30
0.0
  9
$PUCSORGBACK
 10
0.0
 20
0.0
 30
0.0
  9
$USERI1
 70
     0
  9
$USERI2
 70
     0
  9
$USERI3
 70
     0
  9
$USERI4
 70
     0
  9
$USERI5
 70
     0
  9
$USERR1
 40
0.0
  9
$USERR2
 40
0.0
  9
$USERR3
 40
0.0
  9
$USERR4
 40
0.0
  9
$USERR5
 40
0.0
  9
$WORLDVIEW
 70
     1
  9
$SHADEDGE
 70
     3
  9
$SHADEDIF
 70
    70
  9
$TILEMODE
 70
     1
  9
$MAXACTVP
 70
    48
  9
$PINSBASE
 10
0.0
 20
0.0
 30
0.0
  9
$PLIMCHECK
 70
     0
  9
$PEXTMIN
 10
1.000000000000000E+20
 20
1.000000000000000E+20
 30
1.000000000000000E+20
  9
$PEXTMAX
 10
-1.000000000000000E+20
 20
-1.000000000000000E+20
 30
-1.000000000000000E+20
  9
$PLIMMIN
 10
0.0
 20
0.0
  9
$PLIMMAX
 10
420.0
 20
297.0
  9
$UNITMODE
 70
     0
  9
$VISRETAIN
 70
     1
  9
$PLINEGEN
 70
     0
  9
$PSLTSCALE
 70
     1
  9
$TREEDEPTH
 70
  3020
  9
$CMLSTYLE
  2
STANDARD
  9
$CMLJUST
 70
     0
  9
$CMLSCALE
 40
20.0
  9
$PROXYGRAPHICS
 70
     1
  9
$MEASUREMENT
 70
     0
  9
$CELWEIGHT
370
    -1
  9
$ENDCAPS
280
     0
  9
$JOINSTYLE
280
     0
  9
$LWDISPLAY
290
     0
  9
$INSUNITS
 70
     0
  9
$HYPERLINKBASE
  1

  9
$STYLESHEET
  1

  9
$XEDIT
290
     1
  9
$CEPSNTYPE
380
     0
  9
$PSTYLEMODE
290
     1
  9
$FINGERPRINTGUID
  2
{3C10637C-A5D4-478D-94BB-D7654504FB9A}
  9
$VERSIONGUID
  2
{31824278-9F6B-4C90-B18F-89DEB5F422F4}
  9
$EXTNAMES
290
     1
  9
$PSVPSCALE
 40
0.0
  9
$OLESTARTUP
290
     0
  0
ENDSEC
  0
SECTION
  2
CLASSES
  0
CLASS
  1
ACDBDICTIONARYWDFLT
  2
AcDbDictionaryWithDefault
  3
ObjectDBX Classes
 90
        0
280
     0
281
     0
  0
CLASS
  1
ACDBPLACEHOLDER
  2
AcDbPlaceHolder
  3
ObjectDBX Classes
 90
        0
280
     0
281
     0
  0
CLASS
  1
LAYOUT
  2
AcDbLayout
  3
ObjectDBX Classes
 90
        0
280
     0
281
     0
  0
CLASS
  1
DICTIONARYVAR
  2
AcDbDictionaryVar
  3
ObjectDBX Classes
 90
        0
280
     0
281
     0
  0
CLASS
  1
MATERIAL
  2
AcDbMaterial
  3
ObjectDBX Classes
 90
     1153
280
     0
281
     0
  0
CLASS
  1
VISUALSTYLE
  2
AcDbVisualStyle
  3
ObjectDBX Classes
 90
     4095
280
     0
281
     0
  0
CLASS
  1
TABLESTYLE
  2
AcDbTableStyle
  3
ObjectDBX Classes
 90
     4095
280
     0
281
     0
  0
CLASS
  1
SCALE
  2
AcDbScale
  3
ObjectDBX Classes
 90
     1153
280
     0
281
     0
  0
CLASS
  1
MLEADERSTYLE
  2
AcDbMLeaderStyle
  3
ACDB_MLEADERSTYLE_CLASS
 90
     4095
280
     0
281
     0
  0
CLASS
  1
ACDBSECTIONVIEWSTYLE
  2
AcDbSectionViewStyle
  3
ObjectDBX Classes
 90
     1025
280
     0
281
     0
  0
CLASS
  1
ACDBDETAILVIEWSTYLE
  2
AcDbDetailViewStyle
  3
ObjectDBX Classes
 90
     1025
280
     0
281
     0
  0
CLASS
  1
CELLSTYLEMAP
  2
AcDbCellStyleMap
  3
ObjectDBX Classes
 90
     1152
280
     0
281
     0
  0
ENDSEC
  0
SECTION
  2
TABLES
  0
TABLE
  2
VPORT
  5
8
330
0
100
AcDbSymbolTable
 70
     1
  0
VPORT
  5
BD1
330
8
100
AcDbSymbolTableRecord
100
AcDbViewportTableRecord
  2
*ACTIVE
 70
     0
 10
0.0
 20
0.0
 11
1.0
 21
1.0
 12
379.6300659783836
 22
274.5829478572884
 13
0.0
 23
0.0
 14
10.0
 24
10.0
 15
10.0
 25
10.0
 16
0.0
 26
0.0
 36
1.0
 17
0.0
 27
0.0
 37
0.0
 40
533.228467334148
 41
2.35006605019815
 42
50.0
 43
0.0
 44
0.0
 50
0.0
 51
0.0
 71
     0
 72
   100
 73
     1
 74
     0
 75
     0
 76
     0
 77
     0
 78
     0
281
     0
 65
     1
110
0.0
120
0.0
130
0.0
111
1.0
121
0.0
131
0.0
112
0.0
122
1.0
132
0.0
 79
     0
146
0.0
1001
ACAD_NAV_VCDISPLAY
1070
     3
  0
ENDTAB
  0
TABLE
  2
LTYPE
  5
5
330
0
100
AcDbSymbolTable
 70
     4
  0
LTYPE
  5
12
330
5
100
AcDbSymbolTableRecord
100
AcDbLinetypeTableRecord
  2
BYBLOCK
 70
     0
  3

 72
    65
 73
     0
 40
0.0
  0
LTYPE
  5
13
330
5
100
AcDbSymbolTableRecord
100
AcDbLinetypeTableRecord
  2
BYLAYER
 70
     0
  3

 72
    65
 73
     0
 40
0.0
  0
LTYPE
  5
14
330
5
100
AcDbSymbolTableRecord
100
AcDbLinetypeTableRecord
  2
CONTINUOUS
 70
     0
  3
Solid line
 72
    65
 73
     0
 40
0.0
  0
LTYPE
  5
4B
330
5
100
AcDbSymbolTableRecord
100
AcDbLinetypeTableRecord
  2
DASHED
 70
     0
  3
Dashed __ __ __ __ __ __ __ __ __ __ __ __ __ _
 72
    65
 73
     2
 40
19.04999999999999
 49
12.7
 74
     0
 49
-6.349999999999998
 74
     0
  0
LTYPE
  5
4C
330
5
100
AcDbSymbolTableRecord
100
AcDbLinetypeTableRecord
  2
CENTER
 70
     0
  3
Center ____ _ ____ _ ____ _ ____ _ ____ _ ____
 72
    65
 73
     4
 40
50.8
 49
31.75
 74
     0
 49
-6.349999999999998
 74
     0
 49
6.349999999999998
 74
     0
 49
-6.349999999999998
 74
     0
  0
LTYPE
  5
4D
330
5
100
AcDbSymbolTableRecord
100
AcDbLinetypeTableRecord
  2
PHANTOM
 70
     0
  3
Phantom ______  __  __  ______  __  __  ______
 72
    65
 73
     6
 40
63.5
 49
31.75
 74
     0
 49
-6.349999999999998
 74
     0
 49
6.349999999999998
 74
     0
 49
-6.349999999999998
 74
     0
 49
6.349999999999998
 74
     0
 49
-6.349999999999998
 74
     0
  0
ENDTAB
  0
TABLE
  2
LAYER
  5
2
330
0
100
AcDbSymbolTable
 70
     8
  0
LAYER
  5
E
102
{ACAD_XDICTIONARY
360
C2B
102
}
330
2
100
AcDbSymbolTableRecord
100
AcDbLayerTableRecord
  2
0
 70
     0
 62
     7
  6
CONTINUOUS
370
    -3
390
BDA
  0
LAYER
  5
4E
102
{ACAD_XDICTIONARY
360
C2D
102
}
330
2
100
AcDbSymbolTableRecord
100
AcDbLayerTableRecord
  2
4
 70
     0
 62
     1
  6
CENTER
370
    -3
390
BDA
  0
LAYER
  5
4F
102
{ACAD_XDICTIONARY
360
C2F
102
}
330
2
100
AcDbSymbolTableRecord
100
AcDbLayerTableRecord
  2
5
 70
     0
 62
     6
  6
PHANTOM
370
    -3
390
BDA
  0
LAYER
  5
50
102
{ACAD_XDICTIONARY
360
C31
102
}
330
2
100
AcDbSymbolTableRecord
100
AcDbLayerTableRecord
  2
1
 70
     0
 62
     7
  6
CONTINUOUS
370
    -3
390
BDA
  0
LAYER
  5
51
102
{ACAD_XDICTIONARY
360
C33
102
}
330
2
100
AcDbSymbolTableRecord
100
AcDbLayerTableRecord
  2
2
 70
     0
 62
     4
  6
CONTINUOUS
370
    -3
390
BDA
  0
LAYER
  5
52
102
{ACAD_XDICTIONARY
360
C35
102
}
330
2
100
AcDbSymbolTableRecord
100
AcDbLayerTableRecord
  2
3
 70
     0
 62
     2
  6
DASHED
370
    -3
390
BDA
  0
LAYER
  5
53
102
{ACAD_XDICTIONARY
360
C37
102
}
330
2
100
AcDbSymbolTableRecord
100
AcDbLayerTableRecord
  2
6
 70
     0
 62
     5
  6
CONTINUOUS
370
    -3
390
BDA
  0
LAYER
  5
54
102
{ACAD_XDICTIONARY
360
C39
102
}
330
2
100
AcDbSymbolTableRecord
100
AcDbLayerTableRecord
  2
7
 70
     0
 62
     3
  6
CONTINUOUS
370
    -3
390
BDA
  0
ENDTAB
  0
TABLE
  2
STYLE
  5
3
330
0
100
AcDbSymbolTable
 70
     1
  0
STYLE
  5
F
330
3
100
AcDbSymbolTableRecord
100
AcDbTextStyleTableRecord
  2
STANDARD
 70
     0
 40
0.0
 41
1.0
 50
0.0
 71
     0
 42
2.5
  3
simplex.shx
  4

  0
ENDTAB
  0
TABLE
  2
VIEW
  5
6
330
0
100
AcDbSymbolTable
 70
     0
  0
ENDTAB
  0
TABLE
  2
UCS
  5
7
330
0
100
AcDbSymbolTable
 70
     0
  0
ENDTAB
  0
TABLE
  2
APPID
  5
9
330
0
100
AcDbSymbolTable
 70
     7
  0
APPID
  5
10
330
9
100
AcDbSymbolTableRecord
100
AcDbRegAppTableRecord
  2
ACAD
 70
     0
  0
APPID
  5
3E
330
9
100
AcDbSymbolTableRecord
100
AcDbRegAppTableRecord
  2
CONTENTTABDATA
 70
     0
  0
APPID
  5
3F
330
9
100
AcDbSymbolTableRecord
100
AcDbRegAppTableRecord
  2
CONTENTCURRENTTAB
 70
     0
  0
APPID
  5
867
330
9
100
AcDbSymbolTableRecord
100
AcDbRegAppTableRecord
  2
CONTENTBLOCKICON
 70
     0
  0
APPID
  5
868
330
9
100
AcDbSymbolTableRecord
100
AcDbRegAppTableRecord
  2
CONTENTBLOCKDESCRIPTION
 70
     0
  0
APPID
  5
C45
330
9
100
AcDbSymbolTableRecord
100
AcDbRegAppTableRecord
  2
ACAD_NAV_VCDISPLAY
 70
     0
  0
APPID
  5
C7E
330
9
100
AcDbSymbolTableRecord
100
AcDbRegAppTableRecord
  2
ACAD_MLEADERVER
 70
     0
  0
ENDTAB
  0
TABLE
  2
DIMSTYLE
  5
A
330
0
100
AcDbSymbolTable
 70
     1
100
AcDbDimStyleTable
 71
     0
  0
DIMSTYLE
105
1D
330
A
100
AcDbSymbolTableRecord
100
AcDbDimStyleTableRecord
  2
STANDARD
 70
     0
 41
3.0
 42
1.0
 43
10.0
 44
1.0
 73
     0
 74
     0
 77
     3
 78
     8
140
3.2
141
0.0
147
1.0
172
     1
173
     1
340
F
341
2E
343
2E
344
2E
  0
ENDTAB
  0
TABLE
  2
BLOCK_RECORD
  5
1
330
0
100
AcDbSymbolTable
 70
     1
  0
BLOCK_RECORD
  5
18
102
{ACAD_XDICTIONARY
360
BD4
102
}
330
1
100
AcDbSymbolTableRecord
100
AcDbBlockTableRecord
  2
*MODEL_SPACE
340
C28
  0
BLOCK_RECORD
  5
15
102
{ACAD_XDICTIONARY
360
BD2
102
}
330
1
100
AcDbSymbolTableRecord
100
AcDbBlockTableRecord
  2
*PAPER_SPACE
340
C29
  0
BLOCK_RECORD
  5
2E
330
1
100
AcDbSymbolTableRecord
100
AcDbBlockTableRecord
  2
_OPEN
340
0
  0
ENDTAB
  0
ENDSEC
  0
SECTION
  2
BLOCKS
  0
BLOCK
  5
19
330
18
100
AcDbEntity
  8
0
100
AcDbBlockBegin
  2
*MODEL_SPACE
 70
     0
 10
0.0
 20
0.0
 30
0.0
  3
*MODEL_SPACE
  1

  0
ENDBLK
  5
1A
330
18
100
AcDbEntity
  8
0
100
AcDbBlockEnd
  0
BLOCK
  5
16
330
15
100
AcDbEntity
 67
     1
  8
0
100
AcDbBlockBegin
  2
*PAPER_SPACE
 70
     0
 10
0.0
 20
0.0
 30
0.0
  3
*PAPER_SPACE
  1

  0
ENDBLK
  5
17
330
15
100
AcDbEntity
 67
     1
  8
0
100
AcDbBlockEnd
  0
BLOCK
  5
2F
330
2E
100
AcDbEntity
  8
0
100
AcDbBlockBegin
  2
_OPEN
 70
     0
 10
0.0
 20
0.0
 30
0.0
  3
_OPEN
  1

  0
LINE
  5
30
330
2E
100
AcDbEntity
  8
0
  6
ByBlock
 62
     0
100
AcDbLine
 10
-1.0
 20
0.1666666666666666
 30
0.0
 11
0.0
 21
0.0
 31
0.0
  0
LINE
  5
31
330
2E
100
AcDbEntity
  8
0
  6
ByBlock
 62
     0
100
AcDbLine
 10
0.0
 20
0.0
 30
0.0
 11
-1.0
 21
-0.1666666666666666
 31
0.0
  0
LINE
  5
32
330
2E
100
AcDbEntity
  8
0
  6
ByBlock
 62
     0
100
AcDbLine
 10
0.0
 20
0.0
 30
0.0
 11
-1.0
 21
0.0
 31
0.0
  0
ENDBLK
  5
33
330
2E
100
AcDbEntity
  8
0
100
AcDbBlockEnd
  0
ENDSEC
  0
SECTION
  2
ENTITIES
  0
TEXT
  5
63
330
18
100
AcDbEntity
  8
4
  6
CENTER
 48
0.25
100
AcDbText
 10
23.97950852663849
 20
10.0
 30
0.0
 40
1.399999999999999
  1
4
100
AcDbText
  0
TEXT
  5
66
330
18
100
AcDbEntity
  8
1
  6
Continuous
 48
0.25
100
AcDbText
 10
9.999997526638502
 20
10.00000076076889
 30
0.0
 40
1.399999999999999
  1
LAYER
100
AcDbText
  0
TEXT
  5
67
330
18
100
AcDbEntity
  8
2
  6
Continuous
 48
0.25
100
AcDbText
 10
19.9795085266385
 20
10.0
 30
0.0
 40
1.399999999999999
  1
2
100
AcDbText
  0
TEXT
  5
68
330
18
100
AcDbEntity
  8
3
  6
DASHED
 48
0.25
100
AcDbText
 10
21.9795085266385
 20
10.0
 30
0.0
 40
1.399999999999999
  1
3
100
AcDbText
  0
TEXT
  5
69
330
18
100
AcDbEntity
  8
1
  6
Continuous
 48
0.25
100
AcDbText
 10
17.9795085266385
 20
10.0
 30
0.0
 40
1.399999999999999
  1
1
100
AcDbText
  0
TEXT
  5
6A
330
18
100
AcDbEntity
  8
5
  6
PHANTOM
 48
0.25
100
AcDbText
 10
25.9795085266385
 20
10.0
 30
0.0
 40
1.399999999999999
  1
5
100
AcDbText
  0
TEXT
  5
6B
330
18
100
AcDbEntity
  8
6
  6
Continuous
 48
0.25
100
AcDbText
 10
27.9795085266385
 20
10.0
 30
0.0
 40
1.399999999999999
  1
6
100
AcDbText
  0
TEXT
  5
6C
330
18
100
AcDbEntity
  8
7
  6
Continuous
 48
0.25
100
AcDbText
 10
29.9795085266385
 20
10.0
 30
0.0
 40
1.399999999999999
  1
7
100
AcDbText
  0
LINE
  5
440
330
18
100
AcDbEntity
  8
4
  6
CENTER
 48
0.2
100
AcDbLine
 10
49.97440776753818
 20
469.1336821611819
 30
0.0
 11
49.97440776753818
 21
101.1336649671044
 31
0.0
  0
ARC
  5
441
330
18
100
AcDbEntity
  8
1
  6
Continuous
100
AcDbCircle
 10
304.9171097218602
 20
271.3910322242828
 30
0.0
 40
3.000000142492396
100
AcDbArc
 50
359.9999999999996
 51
44.99999999999949
  0
ARC
  5
442
330
18
100
AcDbEntity
  8
1
  6
Continuous
100
AcDbCircle
 10
304.9171097218602
 20
271.3910322242827
 30
0.0
 40
6.000000284984736
100
AcDbArc
 50
0.0
 51
45.00000000000827
  0
LINE
  5
443
330
18
100
AcDbEntity
  8
4
  6
CENTER
 48
0.2
100
AcDbLine
 10
216.4884130521686
 20
469.1336821611819
 30
0.0
 11
216.4884130521686
 21
101.1336649671044
 31
0.0
  0
LINE
  5
444
330
18
100
AcDbEntity
  8
1
  6
Continuous
100
AcDbLine
 10
223.4884133846506
 20
104.1336649671044
 30
0.0
 11
223.4884133846506
 21
308.1336746565845
 31
0.0
  0
LINE
  5
445
330
18
100
AcDbEntity
  8
1
  6
Continuous
100
AcDbLine
 10
209.4884127196865
 20
104.1336649671042
 30
0.0
 11
209.4884127196865
 21
308.1336746565845
 31
0.0
  0
ARC
  5
446
330
18
100
AcDbEntity
  8
1
  6
Continuous
100
AcDbCircle
 10
128.0597163824772
 20
271.3910322242827
 30
0.0
 40
6.000000284984736
100
AcDbArc
 50
134.9999999999917
 51
180.0
  0
ARC
  5
447
330
18
100
AcDbEntity
  8
1
  6
Continuous
100
AcDbCircle
 10
128.0597163824772
 20
271.3910322242828
 30
0.0
 40
3.000000142492396
100
AcDbArc
 50
135.0000000000004
 51
180.0000000000004
  0
LINE
  5
448
330
18
100
AcDbEntity
  8
1
  6
Continuous
100
AcDbLine
 10
56.97440810002035
 20
104.1336649671044
 30
0.0
 11
56.97440810002035
 21
308.1136746556346
 31
0.0
  0
LINE
  5
449
330
18
100
AcDbEntity
  8
1
  6
Continuous
100
AcDbLine
 10
42.97440743505602
 20
104.1336649671046
 30
0.0
 11
42.97440743505602
 21
308.1336746565845
 31
0.0
  0
LINE
  5
44B
330
18
100
AcDbEntity
  8
4
  6
CENTER
 48
0.2
100
AcDbLine
 10
119.1597160974923
 20
43.76969302332159
 30
0.0
 11
155.559717159945
 21
43.76969302332159
 31
0.0
  0
LINE
  5
44C
330
18
100
AcDbEntity
  8
4
  6
CENTER
 48
0.2
100
AcDbLine
 10
149.0597172374312
 20
111.6336653233353
 30
0.0
 11
130.0597166199644
 21
111.6336653233353
 31
0.0
  0
LINE
  5
44D
330
18
100
AcDbEntity
  8
1
  6
Continuous
100
AcDbLine
 10
147.8597169367071
 20
50.91969336292837
 30
0.0
 11
151.059717088699
 21
50.91969336292837
 31
0.0
  0
LINE
  5
44E
330
18
100
AcDbEntity
  8
1
  6
Continuous
100
AcDbLine
 10
147.8597169367071
 20
50.76969335580375
 30
0.0
 11
151.0597170886989
 21
50.76969335580375
 31
0.0
  0
LINE
  5
44F
330
18
100
AcDbEntity
  8
1
  6
Continuous
100
AcDbLine
 10
145.5597168274631
 20
54.76969354579356
 30
0.0
 11
152.5597171599452
 21
54.7696935457936
 31
0.0
  0
LINE
  5
450
330
18
100
AcDbEntity
  8
1
  6
Continuous
100
AcDbLine
 10
151.059717088699
 20
36.61969268371482
 30
0.0
 11
147.8597169367071
 21
36.61969268371482
 31
0.0
  0
LINE
  5
451
330
18
100
AcDbEntity
  8
1
  6
Continuous
100
AcDbLine
 10
147.8597169367071
 20
36.76969269083943
 30
0.0
 11
151.0597170886989
 21
36.76969269083943
 31
0.0
  0
LINE
  5
452
330
18
100
AcDbEntity
  8
1
  6
Continuous
100
AcDbLine
 10
145.5597168274631
 20
32.76969250084963
 30
0.0
 11
152.5597171599452
 21
32.7696925008496
 31
0.0
  0
TEXT
  5
453
330
18
100
AcDbEntity
  8
7
  6
Continuous
 48
0.25
100
AcDbText
 10
9.999999064246594
 20
18.00000056761563
 30
0.0
 40
3.0
  1
TYPE No.TEA-1121-U26-C
100
AcDbText
  0
TEXT
  5
454
330
18
100
AcDbEntity
  8
7
  6
Continuous
 48
0.25
100
AcDbText
 10
9.999999064246594
 20
26.00000056761564
 30
0.0
 40
3.0
  1
CODE No.13399
100
AcDbText
  0
LINE
  5
45D
330
18
100
AcDbEntity
  8
4
  6
CENTER
 48
0.2
100
AcDbLine
 10
139.0597165187296
 20
29.06969246760141
 30
0.0
 11
139.0597165187296
 21
58.46969357904177
 31
0.0
  0
LINE
  5
45E
330
18
100
AcDbEntity
  8
1
  6
Continuous
100
AcDbLine
 10
145.5597168274631
 20
32.0696924676014
 30
0.0
 11
145.5597168274631
 21
38.7696927858343
 31
0.0
  0
LINE
  5
45F
330
18
100
AcDbEntity
  8
1
  6
Continuous
100
AcDbLine
 10
147.559716922458
 20
37.76969273833689
 30
0.0
 11
147.559716922458
 21
49.76969330830629
 31
0.0
  0
LINE
  5
460
330
18
100
AcDbEntity
  8
1
  6
Continuous
100
AcDbLine
 10
122.0597160974923
 20
36.76969269083946
 30
0.0
 11
122.0597160974923
 21
50.76969335580379
 31
0.0
  0
LINE
  5
461
330
18
100
AcDbEntity
  8
1
  6
Continuous
100
AcDbLine
 10
137.559716833703
 20
36.76969269083941
 30
0.0
 11
137.559716833703
 21
50.76969335580375
 31
0.0
  0
LINE
  5
462
330
18
100
AcDbEntity
  8
1
  6
Continuous
100
AcDbLine
 10
134.5597166912106
 20
36.76969269083946
 30
0.0
 11
134.5597166912106
 21
50.76969335580375
 31
0.0
  0
LINE
  5
463
330
18
100
AcDbEntity
  8
1
  6
Continuous
100
AcDbLine
 10
148.0597165599871
 20
36.76969269083943
 30
0.0
 11
148.0597165599871
 21
50.76969335580375
 31
0.0
  0
LINE
  5
464
330
18
100
AcDbEntity
  8
1
  6
Continuous
100
AcDbLine
 10
145.5597168274631
 20
34.86969260059425
 30
0.0
 11
132.5597162099961
 21
34.86969260059424
 31
0.0
  0
LINE
  5
465
330
18
100
AcDbEntity
  8
1
  6
Continuous
100
AcDbLine
 10
137.559716833703
 20
36.76969269083941
 30
0.0
 11
122.0597160974923
 21
36.76969269083946
 31
0.0
  0
LINE
  5
466
330
18
100
AcDbEntity
  8
1
  6
Continuous
100
AcDbLine
 10
128.8097160318807
 20
32.76969250084963
 30
0.0
 11
128.8097160318807
 21
32.0696924676014
 31
0.0
  0
LINE
  5
467
330
18
100
AcDbEntity
  8
1
  6
Continuous
100
AcDbLine
 10
130.8097161268757
 20
32.76969250084963
 30
0.0
 11
130.8097161268757
 21
32.0696924676014
 31
0.0
  0
LINE
  5
468
330
18
100
AcDbEntity
  8
1
  6
Continuous
100
AcDbLine
 10
132.5597162099961
 20
32.0696924676014
 30
0.0
 11
130.8097161268757
 21
32.0696924676014
 31
0.0
  0
LINE
  5
469
330
18
100
AcDbEntity
  8
1
  6
Continuous
100
AcDbLine
 10
132.5597162099961
 20
32.0696924676014
 30
0.0
 11
132.5597162099961
 21
36.76969269083943
 31
0.0
  0
LINE
  5
46A
330
18
100
AcDbEntity
  8
1
  6
Continuous
100
AcDbLine
 10
130.2597161007521
 20
36.76969269083943
 30
0.0
 11
130.2597161007521
 21
36.61969268371482
 31
0.0
  0
LINE
  5
46B
330
18
100
AcDbEntity
  8
1
  6
Continuous
100
AcDbLine
 10
130.2597161007521
 20
36.61969268371482
 30
0.0
 11
127.0597159487601
 21
36.61969268371482
 31
0.0
  0
LINE
  5
46C
330
18
100
AcDbEntity
  8
1
  6
Continuous
100
AcDbLine
 10
127.0597159487601
 20
36.61969268371482
 30
0.0
 11
127.0597159487601
 21
36.76969269083943
 31
0.0
  0
LINE
  5
46D
330
18
100
AcDbEntity
  8
1
  6
Continuous
100
AcDbLine
 10
126.8097159368859
 20
32.76969250084963
 30
0.0
 11
126.8097159368859
 21
32.0696924676014
 31
0.0
  0
LINE
  5
46E
330
18
100
AcDbEntity
  8
1
  6
Continuous
100
AcDbLine
 10
125.5597158775141
 20
36.76969269083943
 30
0.0
 11
125.5597158775141
 21
32.7696925008496
 31
0.0
  0
LINE
  5
46F
330
18
100
AcDbEntity
  8
1
  6
Continuous
100
AcDbLine
 10
128.8097160318807
 20
32.0696924676014
 30
0.0
 11
126.8097159368859
 21
32.0696924676014
 31
0.0
  0
LINE
  5
470
330
18
100
AcDbEntity
  8
1
  6
Continuous
100
AcDbLine
 10
125.5597158775141
 20
32.76969250084961
 30
0.0
 11
132.5597162099961
 21
32.76969250084963
 31
0.0
  0
LINE
  5
471
330
18
100
AcDbEntity
  8
1
  6
Continuous
100
AcDbLine
 10
147.3097169105835
 20
32.76969250084963
 30
0.0
 11
147.3097169105835
 21
32.0696924676014
 31
0.0
  0
LINE
  5
472
330
18
100
AcDbEntity
  8
1
  6
Continuous
100
AcDbLine
 10
147.8597169367071
 20
37.76969273833689
 30
0.0
 11
147.559716922458
 21
37.76969273833689
 31
0.0
  0
LINE
  5
473
330
18
100
AcDbEntity
  8
1
  6
Continuous
100
AcDbLine
 10
147.8597169367071
 20
36.61969268371482
 30
0.0
 11
147.8597169367071
 21
37.76969273833689
 31
0.0
  0
LINE
  5
474
330
18
100
AcDbEntity
  8
1
  6
Continuous
100
AcDbLine
 10
147.3097169105835
 20
32.0696924676014
 30
0.0
 11
145.5597168274631
 21
32.0696924676014
 31
0.0
  0
LINE
  5
475
330
18
100
AcDbEntity
  8
1
  6
Continuous
100
AcDbLine
 10
145.5597168274631
 20
52.66969344604891
 30
0.0
 11
132.5597162099961
 21
52.66969344604892
 31
0.0
  0
LINE
  5
476
330
18
100
AcDbEntity
  8
1
  6
Continuous
100
AcDbLine
 10
137.559716833703
 20
50.76969335580375
 30
0.0
 11
122.0597160974923
 21
50.76969335580379
 31
0.0
  0
LINE
  5
477
330
18
100
AcDbEntity
  8
1
  6
Continuous
100
AcDbLine
 10
128.8097160318807
 20
54.76969354579356
 30
0.0
 11
128.8097160318807
 21
55.46969357904178
 31
0.0
  0
LINE
  5
478
330
18
100
AcDbEntity
  8
1
  6
Continuous
100
AcDbLine
 10
130.8097161268757
 20
54.76969354579356
 30
0.0
 11
130.8097161268757
 21
55.46969357904178
 31
0.0
  0
LINE
  5
479
330
18
100
AcDbEntity
  8
1
  6
Continuous
100
AcDbLine
 10
132.5597162099961
 20
55.46969357904178
 30
0.0
 11
130.8097161268757
 21
55.46969357904178
 31
0.0
  0
LINE
  5
47A
330
18
100
AcDbEntity
  8
1
  6
Continuous
100
AcDbLine
 10
130.2597161007521
 20
50.91969336292837
 30
0.0
 11
130.2597161007521
 21
50.76969335580375
 31
0.0
  0
LINE
  5
47B
330
18
100
AcDbEntity
  8
1
  6
Continuous
100
AcDbLine
 10
132.5597162099961
 20
55.46969357904178
 30
0.0
 11
132.5597162099961
 21
50.76969335580375
 31
0.0
  0
LINE
  5
47C
330
18
100
AcDbEntity
  8
1
  6
Continuous
100
AcDbLine
 10
127.0597159487601
 20
50.76969335580375
 30
0.0
 11
127.0597159487601
 21
50.91969336292837
 31
0.0
  0
LINE
  5
47D
330
18
100
AcDbEntity
  8
1
  6
Continuous
100
AcDbLine
 10
127.0597159487601
 20
50.91969336292837
 30
0.0
 11
130.2597161007521
 21
50.91969336292837
 31
0.0
  0
LINE
  5
47E
330
18
100
AcDbEntity
  8
1
  6
Continuous
100
AcDbLine
 10
126.8097159368859
 20
54.76969354579356
 30
0.0
 11
126.8097159368859
 21
55.46969357904178
 31
0.0
  0
LINE
  5
47F
330
18
100
AcDbEntity
  8
1
  6
Continuous
100
AcDbLine
 10
125.5597158775141
 20
54.76969354579356
 30
0.0
 11
125.5597158775141
 21
50.76969335580375
 31
0.0
  0
LINE
  5
480
330
18
100
AcDbEntity
  8
1
  6
Continuous
100
AcDbLine
 10
128.8097160318807
 20
55.46969357904178
 30
0.0
 11
126.8097159368859
 21
55.46969357904178
 31
0.0
  0
LINE
  5
481
330
18
100
AcDbEntity
  8
1
  6
Continuous
100
AcDbLine
 10
125.5597158775141
 20
54.76969354579356
 30
0.0
 11
132.5597162099961
 21
54.76969354579356
 31
0.0
  0
LINE
  5
482
330
18
100
AcDbEntity
  8
1
  6
Continuous
100
AcDbLine
 10
145.559716827463
 20
48.76969326080892
 30
0.0
 11
145.5597168274631
 21
55.46969357904178
 31
0.0
  0
LINE
  5
483
330
18
100
AcDbEntity
  8
1
  6
Continuous
100
AcDbLine
 10
144.2597166750986
 20
49.4196932916822
 30
0.0
 11
144.2597166750986
 21
40.55208855827646
 31
0.0
  0
LINE
  5
484
330
18
100
AcDbEntity
  8
1
  6
Continuous
100
AcDbLine
 10
143.5597166418504
 20
49.4196932916822
 30
0.0
 11
143.5597166418504
 21
40.55208855827646
 31
0.0
  0
LINE
  5
485
330
18
100
AcDbEntity
  8
1
  6
Continuous
100
AcDbLine
 10
137.559716833703
 20
48.76969326080889
 30
0.0
 11
143.5597166418504
 21
48.76969326080889
 31
0.0
  0
LINE
  5
486
330
18
100
AcDbEntity
  8
1
  6
Continuous
100
AcDbLine
 10
137.559716833703
 20
38.7696927858343
 30
0.0
 11
145.5597168274631
 21
38.7696927858343
 31
0.0
  0
LINE
  5
487
330
18
100
AcDbEntity
  8
1
  6
Continuous
100
AcDbLine
 10
143.0597170949389
 20
46.76969316581398
 30
0.0
 11
137.559716833703
 21
46.76969316581398
 31
0.0
  0
LINE
  5
488
330
18
100
AcDbEntity
  8
1
  6
Continuous
100
AcDbLine
 10
137.559716833703
 20
40.76969288082924
 30
0.0
 11
143.0597170949389
 21
40.76969288082924
 31
0.0
  0
LINE
  5
489
330
18
100
AcDbEntity
  8
1
  6
Continuous
100
AcDbLine
 10
133.059716619964
 20
41.31969290695284
 30
0.0
 11
133.059716619964
 21
46.21969313969034
 31
0.0
  0
LINE
  5
48A
330
18
100
AcDbEntity
  8
1
  6
Continuous
100
AcDbLine
 10
134.5597166912106
 20
46.21969313969034
 30
0.0
 11
133.0597166199644
 21
46.21969313969034
 31
0.0
  0
LINE
  5
48B
330
18
100
AcDbEntity
  8
1
  6
Continuous
100
AcDbLine
 10
133.0597166199644
 20
41.31969290695284
 30
0.0
 11
134.5597166912106
 21
41.31969290695284
 31
0.0
  0
ARC
  5
48C
330
18
100
AcDbEntity
  8
1
  6
Continuous
100
AcDbCircle
 10
147.6602295408577
 20
42.45544163735331
 30
0.0
 40
0.1627105214091565
100
AcDbArc
 50
23.25856526596642
 51
58.22532785680152
  0
ARC
  5
48D
330
18
100
AcDbEntity
  8
1
  6
Continuous
100
AcDbCircle
 10
147.2404890311651
 20
41.5093711417732
 30
0.0
 40
1.196395517969073
100
AcDbArc
 50
65.01046055446568
 51
74.52459419059495
  0
ARC
  5
48E
330
18
100
AcDbEntity
  8
1
  6
Continuous
100
AcDbCircle
 10
147.3644479751823
 20
42.50679126880831
 30
0.0
 40
0.7878971310063832
100
AcDbArc
 50
59.45824752021793
 51
75.65052979516711
  0
ARC
  5
48F
330
18
100
AcDbEntity
  8
1
  6
Continuous
100
AcDbCircle
 10
147.7311506198531
 20
43.11342750392952
 30
0.0
 40
0.0794402801994934
100
AcDbArc
 50
8.506744921738564
 51
64.91476785701157
  0
LINE
  5
490
330
18
100
AcDbEntity
  8
1
  6
Continuous
100
AcDbLine
 10
144.2597166750986
 20
48.7696932608089
 30
0.0
 11
145.559716827463
 21
48.76969326080892
 31
0.0
  0
LINE
  5
491
330
18
100
AcDbEntity
  8
1
  6
Continuous
100
AcDbLine
 10
148.0597165599871
 20
45.01969308269335
 30
0.0
 11
147.559716922458
 21
45.01969308269335
 31
0.0
  0
LINE
  5
492
330
18
100
AcDbEntity
  8
1
  6
Continuous
100
AcDbLine
 10
147.5597169224581
 20
47.51969320143703
 30
0.0
 11
148.0597165599871
 21
47.51969320143703
 31
0.0
  0
LINE
  5
493
330
18
100
AcDbEntity
  8
1
  6
Continuous
100
AcDbLine
 10
147.559716922458
 20
40.01969284520614
 30
0.0
 11
147.8871281787082
 21
40.01969284522109
 31
0.0
  0
LINE
  5
494
330
18
100
AcDbEntity
  8
1
  6
Continuous
100
AcDbLine
 10
147.559716922458
 20
42.51969296394977
 30
0.0
 11
148.0597165599871
 21
42.51969296394977
 31
0.0
  0
LINE
  5
495
330
18
100
AcDbEntity
  8
1
  6
Continuous
100
AcDbLine
 10
147.8871281787083
 20
40.01969284522185
 30
0.0
 11
148.0597165599871
 21
40.01969284522146
 31
0.0
  0
LINE
  5
496
330
18
100
AcDbEntity
  8
1
  6
Continuous
100
AcDbLine
 10
147.8871281787082
 20
40.01969284522109
 30
0.0
 11
147.8871281787082
 21
42.51969296394977
 31
0.0
  0
LINE
  5
497
330
18
100
AcDbEntity
  8
1
  6
Continuous
100
AcDbLine
 10
147.8097169343323
 20
43.12517877395953
 30
0.0
 11
147.8097169343323
 21
42.51956310299852
 31
0.0
  0
LINE
  5
498
330
18
100
AcDbEntity
  8
1
  6
Continuous
100
AcDbLine
 10
146.0597172374313
 20
41.26969290457799
 30
0.0
 11
146.0597172374313
 21
46.2696931420652
 31
0.0
  0
LINE
  5
499
330
18
100
AcDbEntity
  8
1
  6
Continuous
100
AcDbLine
 10
143.5597166418504
 20
46.26969314206523
 30
0.0
 11
143.0597170949389
 21
46.26969314206523
 31
0.0
  0
LINE
  5
49A
330
18
100
AcDbEntity
  8
1
  6
Continuous
100
AcDbLine
 10
143.0597170949389
 20
41.26969290457797
 30
0.0
 11
143.5597166418504
 21
41.26969290457797
 31
0.0
  0
LINE
  5
49B
330
18
100
AcDbEntity
  8
1
  6
Continuous
100
AcDbLine
 10
143.0597170949389
 20
40.76969288082924
 30
0.0
 11
143.0597170949389
 21
46.76969316581395
 31
0.0
  0
LINE
  5
49C
330
18
100
AcDbEntity
  8
1
  6
Continuous
100
AcDbLine
 10
145.5597172136826
 20
46.76969316581398
 30
0.0
 11
144.2597171519359
 21
46.76969316581398
 31
0.0
  0
LINE
  5
49D
330
18
100
AcDbEntity
  8
1
  6
Continuous
100
AcDbLine
 10
144.2597171519359
 20
40.76969288082924
 30
0.0
 11
145.5597172136826
 21
40.76969288082924
 31
0.0
  0
LINE
  5
49E
330
18
100
AcDbEntity
  8
1
  6
Continuous
100
AcDbLine
 10
145.5597172136826
 20
40.76969288083536
 30
0.0
 11
145.5597172136826
 21
46.76969316581398
 31
0.0
  0
LINE
  5
49F
330
18
100
AcDbEntity
  8
1
  6
Continuous
100
AcDbLine
 10
145.5596172136825
 20
40.76959288082925
 30
0.0
 11
145.5597172136826
 21
40.76969288082924
 31
0.0
  0
LINE
  5
4A0
330
18
100
AcDbEntity
  8
1
  6
Continuous
100
AcDbLine
 10
143.5597166418504
 20
40.55208855827646
 30
0.0
 11
144.2597166750986
 21
40.55208855827646
 31
0.0
  0
LINE
  5
4A1
330
18
100
AcDbEntity
  8
1
  6
Continuous
100
AcDbLine
 10
146.0597172374313
 20
46.2696931420652
 30
0.0
 11
145.5597172136826
 21
46.76969316581398
 31
0.0
  0
LINE
  5
4A2
330
18
100
AcDbEntity
  8
1
  6
Continuous
100
AcDbLine
 10
145.5597172136826
 20
40.76969288082924
 30
0.0
 11
146.0598172374313
 21
41.26979290457799
 31
0.0
  0
LINE
  5
4A3
330
18
100
AcDbEntity
  8
1
  6
Continuous
100
AcDbLine
 10
147.3097169105835
 20
54.76969354579356
 30
0.0
 11
147.3097169105835
 21
55.46969357904178
 31
0.0
  0
LINE
  5
4A4
330
18
100
AcDbEntity
  8
1
  6
Continuous
100
AcDbLine
 10
147.8597169367071
 20
49.76969330830629
 30
0.0
 11
147.8597169367071
 21
50.91969336292837
 31
0.0
  0
LINE
  5
4A5
330
18
100
AcDbEntity
  8
1
  6
Continuous
100
AcDbLine
 10
147.559716922458
 20
49.76969330830629
 30
0.0
 11
147.8597169367071
 21
49.76969330830629
 31
0.0
  0
LINE
  5
4A6
330
18
100
AcDbEntity
  8
1
  6
Continuous
100
AcDbLine
 10
144.2597166750986
 20
49.4196932916822
 30
0.0
 11
143.5597166418504
 21
49.4196932916822
 31
0.0
  0
LINE
  5
4A7
330
18
100
AcDbEntity
  8
1
  6
Continuous
100
AcDbLine
 10
147.3097169105835
 20
55.46969357904178
 30
0.0
 11
145.5597168274631
 21
55.46969357904178
 31
0.0
  0
LINE
  5
4A8
330
18
100
AcDbEntity
  8
1
  6
Continuous
100
AcDbLine
 10
122.0597160974923
 20
161.3763083730836
 30
0.0
 11
122.0597160974923
 21
271.3910322242827
 31
0.0
  0
LINE
  5
4A9
330
18
100
AcDbEntity
  8
1
  6
Continuous
100
AcDbLine
 10
125.0597162399848
 20
161.3763083730836
 30
0.0
 11
125.0597162399848
 21
271.3910322242828
 31
0.0
  0
LINE
  5
4AA
330
18
100
AcDbEntity
  8
4
  6
CENTER
 48
0.2
100
AcDbLine
 10
43.97440743505604
 20
111.6336653233352
 30
0.0
 11
55.97440810002034
 21
111.6336653233352
 31
0.0
  0
LINE
  5
4AB
330
18
100
AcDbEntity
  8
1
  6
Continuous
100
AcDbLine
 10
42.97440743505602
 20
104.1336649671046
 30
0.0
 11
56.97440810002035
 21
104.1336649671044
 31
0.0
  0
CIRCLE
  5
4AC
330
18
100
AcDbEntity
  8
1
  6
Continuous
100
AcDbCircle
 10
49.97440776753818
 20
111.6336653233352
 30
0.0
 40
2.450000116368757
  0
LINE
  5
4AD
330
18
100
AcDbEntity
  8
1
  6
Continuous
100
AcDbLine
 10
54.97440810002036
 20
146.2964358926041
 30
0.0
 11
44.97440743505602
 21
146.2964358926041
 31
0.0
  0
LINE
  5
4AE
330
18
100
AcDbEntity
  8
1
  6
Continuous
100
AcDbLine
 10
54.97440810002036
 20
159.080207669841
 30
0.0
 11
44.97440743505602
 21
159.080207669841
 31
0.0
  0
LINE
  5
4AF
330
18
100
AcDbEntity
  8
1
  6
Continuous
100
AcDbLine
 10
134.5597166912106
 20
104.1336649671044
 30
0.0
 11
134.5597166912106
 21
145.1483855409989
 31
0.0
  0
LINE
  5
4B0
330
18
100
AcDbEntity
  8
1
  6
Continuous
100
AcDbLine
 10
137.5597168337028
 20
104.1336649671042
 30
0.0
 11
137.5597168337028
 21
145.148385540999
 31
0.0
  0
LINE
  5
4B1
330
18
100
AcDbEntity
  8
1
  6
Continuous
100
AcDbLine
 10
146.0597172374313
 20
109.1336652045917
 30
0.0
 11
146.0597172374313
 21
114.1336654420789
 31
0.0
  0
LINE
  5
4B2
330
18
100
AcDbEntity
  8
1
  6
Continuous
100
AcDbLine
 10
133.0597166199644
 20
109.1836652069665
 30
0.0
 11
133.0597166199644
 21
114.083665439704
 31
0.0
  0
LINE
  5
4B3
330
18
100
AcDbEntity
  8
1
  6
Continuous
100
AcDbLine
 10
143.0597170949389
 20
108.6336651808429
 30
0.0
 11
143.0597170949389
 21
114.6336654658276
 31
0.0
  0
LINE
  5
4B4
330
18
100
AcDbEntity
  8
1
  6
Continuous
100
AcDbLine
 10
145.5597172136826
 20
108.6336651808429
 30
0.0
 11
145.5597172136826
 21
114.6336654658276
 31
0.0
  0
LINE
  5
4B5
330
18
100
AcDbEntity
  8
1
  6
Continuous
100
AcDbLine
 10
144.2597166750986
 20
117.2836655916958
 30
0.0
 11
144.2597166750986
 21
105.9836650549746
 31
0.0
  0
LINE
  5
4B6
330
18
100
AcDbEntity
  8
1
  6
Continuous
100
AcDbLine
 10
143.5597166418504
 20
117.2836655916958
 30
0.0
 11
143.5597166418504
 21
105.9836650549746
 31
0.0
  0
LINE
  5
4B7
330
18
100
AcDbEntity
  8
1
  6
Continuous
100
AcDbLine
 10
137.5597168337028
 20
108.6336651808429
 30
0.0
 11
143.0597170949389
 21
108.6336651808429
 31
0.0
  0
LINE
  5
4B8
330
18
100
AcDbEntity
  8
1
  6
Continuous
100
AcDbLine
 10
137.5597168337028
 20
104.1336649671042
 30
0.0
 11
134.5597166912106
 21
104.1336649671044
 31
0.0
  0
LINE
  5
4B9
330
18
100
AcDbEntity
  8
1
  6
Continuous
100
AcDbLine
 10
133.0597166199644
 20
109.1836652069665
 30
0.0
 11
134.5597166912106
 21
109.1836652069665
 31
0.0
  0
LINE
  5
4BA
330
18
100
AcDbEntity
  8
1
  6
Continuous
100
AcDbLine
 10
143.0597170949389
 20
109.1336652045916
 30
0.0
 11
143.5597166418504
 21
109.1336652045916
 31
0.0
  0
LINE
  5
4BB
330
18
100
AcDbEntity
  8
1
  6
Continuous
100
AcDbLine
 10
144.2597171519359
 20
108.6336651808429
 30
0.0
 11
145.5597172136824
 21
108.6336651808429
 31
0.0
  0
LINE
  5
4BC
330
18
100
AcDbEntity
  8
1
  6
Continuous
100
AcDbLine
 10
143.5597166418504
 20
105.9836650549746
 30
0.0
 11
144.2597166750986
 21
105.9836650549746
 31
0.0
  0
LINE
  5
4BD
330
18
100
AcDbEntity
  8
1
  6
Continuous
100
AcDbLine
 10
145.5597172136824
 20
108.6336651808429
 30
0.0
 11
146.0597172374313
 21
109.1336652045917
 31
0.0
  0
LINE
  5
4BE
330
18
100
AcDbEntity
  8
1
  6
Continuous
100
AcDbLine
 10
143.0597170949389
 20
114.6336654658276
 30
0.0
 11
137.5597168337028
 21
114.6336654658276
 31
0.0
  0
LINE
  5
4BF
330
18
100
AcDbEntity
  8
1
  6
Continuous
100
AcDbLine
 10
134.5597166912106
 20
114.083665439704
 30
0.0
 11
133.0597166199644
 21
114.083665439704
 31
0.0
  0
LINE
  5
4C0
330
18
100
AcDbEntity
  8
1
  6
Continuous
100
AcDbLine
 10
143.5597166418504
 20
114.1336654420789
 30
0.0
 11
143.0597170949389
 21
114.1336654420789
 31
0.0
  0
LINE
  5
4C1
330
18
100
AcDbEntity
  8
1
  6
Continuous
100
AcDbLine
 10
145.5597172136826
 20
114.6336654658276
 30
0.0
 11
144.2597171519359
 21
114.6336654658276
 31
0.0
  0
LINE
  5
4C2
330
18
100
AcDbEntity
  8
1
  6
Continuous
100
AcDbLine
 10
144.2597166750986
 20
117.2836655916958
 30
0.0
 11
143.5597166418504
 21
117.2836655916958
 31
0.0
  0
LINE
  5
4C3
330
18
100
AcDbEntity
  8
1
  6
Continuous
100
AcDbLine
 10
146.0598172374312
 20
114.1335654420788
 30
0.0
 11
145.5597172136826
 21
114.6336654658276
 31
0.0
  0
LINE
  5
4C4
330
18
100
AcDbEntity
  8
1
  6
Continuous
100
AcDbLine
 10
133.6810369930255
 20
147.2697059852462
 30
0.0
 11
123.817075493828
 21
157.1336674844545
 31
0.0
  0
LINE
  5
4C5
330
18
100
AcDbEntity
  8
1
  6
Continuous
100
AcDbLine
 10
135.802357437357
 20
149.3910264296187
 30
0.0
 11
125.9383959381622
 21
159.254987928799
 31
0.0
  0
ARC
  5
4C6
330
18
100
AcDbEntity
  8
1
  6
Continuous
100
AcDbCircle
 10
128.0597163824769
 20
161.376308373084
 30
0.0
 40
3.000000142492261
100
AcDbArc
 50
179.9999999999966
 51
224.999999999596
  0
ARC
  5
4C7
330
18
100
AcDbEntity
  8
1
  6
Continuous
100
AcDbCircle
 10
128.0597163824772
 20
161.3763083730839
 30
0.0
 40
6.000000284984798
100
AcDbArc
 50
179.999999999997
 51
224.9999999998636
  0
ARC
  5
4C8
330
18
100
AcDbEntity
  8
1
  6
Continuous
100
AcDbCircle
 10
131.5597165487177
 20
145.1483855409988
 30
0.0
 40
3.000000142492948
100
AcDbArc
 50
0.0000000000012213
 51
44.99999999918871
  0
ARC
  5
4C9
330
18
100
AcDbEntity
  8
1
  6
Continuous
100
AcDbCircle
 10
131.5597165487185
 20
145.148385540999
 30
0.0
 40
6.000000284984414
100
AcDbArc
 50
359.9999999999996
 51
44.99999999987081
  0
LINE
  5
4CA
330
18
100
AcDbEntity
  8
1
  6
Continuous
100
AcDbLine
 10
152.5597171599452
 20
54.7696935457936
 30
0.0
 11
152.5597171599452
 21
32.7696925008496
 31
0.0
  0
LINE
  5
4CB
330
18
100
AcDbEntity
  8
1
  6
Continuous
100
AcDbLine
 10
151.3597171029482
 20
49.76969330830629
 30
0.0
 11
151.3597171029482
 21
37.76969273833689
 31
0.0
  0
LINE
  5
4CD
330
18
100
AcDbEntity
  8
1
  6
Continuous
100
AcDbLine
 10
149.3097170055784
 20
32.76969250084963
 30
0.0
 11
149.3097170055784
 21
32.0696924676014
 31
0.0
  0
LINE
  5
4CE
330
18
100
AcDbEntity
  8
1
  6
Continuous
100
AcDbLine
 10
151.3097171005733
 20
32.0696924676014
 30
0.0
 11
149.3097170055784
 21
32.0696924676014
 31
0.0
  0
LINE
  5
4CF
330
18
100
AcDbEntity
  8
1
  6
Continuous
100
AcDbLine
 10
151.3097171005733
 20
32.76969250084963
 30
0.0
 11
151.3097171005733
 21
32.0696924676014
 31
0.0
  0
LINE
  5
4D0
330
18
100
AcDbEntity
  8
1
  6
Continuous
100
AcDbLine
 10
151.3597171029482
 20
37.76969273833689
 30
0.0
 11
151.059717088699
 21
37.76969273833689
 31
0.0
  0
LINE
  5
4D1
330
18
100
AcDbEntity
  8
1
  6
Continuous
100
AcDbLine
 10
151.059717088699
 20
50.91969336292837
 30
0.0
 11
151.059717088699
 21
36.61969268371482
 31
0.0
  0
LINE
  5
4D2
330
18
100
AcDbEntity
  8
1
  6
Continuous
100
AcDbLine
 10
149.3097170055784
 20
54.76969354579356
 30
0.0
 11
149.3097170055784
 21
55.46969357904178
 31
0.0
  0
LINE
  5
4D3
330
18
100
AcDbEntity
  8
1
  6
Continuous
100
AcDbLine
 10
151.3097171005733
 20
54.76969354579356
 30
0.0
 11
151.3097171005733
 21
55.46969357904178
 31
0.0
  0
LINE
  5
4D4
330
18
100
AcDbEntity
  8
1
  6
Continuous
100
AcDbLine
 10
151.3097171005733
 20
55.46969357904178
 30
0.0
 11
149.3097170055784
 21
55.46969357904178
 31
0.0
  0
LINE
  5
4D6
330
18
100
AcDbEntity
  8
1
  6
Continuous
100
AcDbLine
 10
151.059717088699
 20
49.76969330830629
 30
0.0
 11
151.3597171029482
 21
49.76969330830629
 31
0.0
  0
LINE
  5
4D7
330
18
100
AcDbEntity
  8
4
  6
CENTER
 48
0.2
100
AcDbLine
 10
206.4884127196864
 20
111.6336653233352
 30
0.0
 11
226.4884133846507
 21
111.6336653233352
 31
0.0
  0
LINE
  5
4D8
330
18
100
AcDbEntity
  8
1
  6
Continuous
100
AcDbLine
 10
223.4884133846506
 20
104.1336649671044
 30
0.0
 11
209.4884127196865
 21
104.1336649671042
 31
0.0
  0
CIRCLE
  5
4D9
330
18
100
AcDbEntity
  8
1
  6
Continuous
100
AcDbCircle
 10
216.4884130521686
 20
111.6336653233352
 30
0.0
 40
2.500000118743655
  0
CIRCLE
  5
4DA
330
18
100
AcDbEntity
  8
1
  6
Continuous
100
AcDbCircle
 10
216.4884130521686
 20
111.6336653233352
 30
0.0
 40
3.000000142492353
  0
ARC
  5
4DB
330
18
100
AcDbEntity
  8
1
  6
Continuous
100
AcDbCircle
 10
216.4884130521686
 20
111.6336653233352
 30
0.0
 40
4.075000193552115
100
AcDbArc
 50
97.04791758419759
 51
165.9247960486483
  0
ARC
  5
4DC
330
18
100
AcDbEntity
  8
1
  6
Continuous
100
AcDbCircle
 10
216.4884130521686
 20
111.6336653233352
 30
0.0
 40
5.650000268360593
100
AcDbArc
 50
55.28550547565608
 51
304.7144945243438
  0
LINE
  5
4DD
330
18
100
AcDbEntity
  8
1
  6
Continuous
100
AcDbLine
 10
213.5703379625367
 20
112.2867320930809
 30
0.0
 11
212.5357551453255
 21
112.6246860339775
 31
0.0
  0
ARC
  5
4DE
330
18
100
AcDbEntity
  8
1
  6
Continuous
100
AcDbCircle
 10
216.4884130521686
 20
111.6336653233352
 30
0.0
 40
4.075000193552121
100
AcDbArc
 50
194.0752039513496
 51
262.9520824158024
  0
LINE
  5
4DF
330
18
100
AcDbEntity
  8
1
  6
Continuous
100
AcDbLine
 10
215.9884130284199
 20
108.6756252912861
 30
0.0
 11
215.9884130284199
 21
107.5894563087438
 31
0.0
  0
LINE
  5
4E0
330
18
100
AcDbEntity
  8
1
  6
Continuous
100
AcDbLine
 10
212.5357551453255
 20
110.642644612693
 30
0.0
 11
213.5649637564238
 21
110.9788430303923
 31
0.0
  0
LINE
  5
4E1
330
18
100
AcDbEntity
  8
1
  6
Continuous
100
AcDbLine
 10
219.7060175172135
 20
106.9893651027428
 30
0.0
 11
218.1949547770238
 21
109.1704377279929
 31
0.0
  0
LINE
  5
4E2
330
18
100
AcDbEntity
  8
1
  6
Continuous
100
AcDbLine
 10
215.9884130284199
 20
115.6778743379265
 30
0.0
 11
215.9884130284199
 21
114.5917053553844
 31
0.0
  0
LINE
  5
4E3
330
18
100
AcDbEntity
  8
1
  6
Continuous
100
AcDbLine
 10
218.191258672988
 20
114.0915579506987
 30
0.0
 11
219.7060175172135
 21
116.2779655439276
 31
0.0
  0
LINE
  5
4E4
330
18
100
AcDbEntity
  8
1
  6
Continuous
100
AcDbLine
 10
211.4884127196865
 20
147.4444862442421
 30
0.0
 11
221.4884133846506
 21
147.4444862442421
 31
0.0
  0
LINE
  5
4E5
330
18
100
AcDbEntity
  8
1
  6
Continuous
100
AcDbLine
 10
211.4884127196865
 20
160.2282580214691
 30
0.0
 11
221.4884133846506
 21
160.2282580214691
 31
0.0
  0
LINE
  5
4E6
330
18
100
AcDbEntity
  8
1
  6
Continuous
100
AcDbLine
 10
211.4884127196865
 20
272.5390825759075
 30
0.0
 11
221.4884133846506
 21
272.5390825759075
 31
0.0
  0
LINE
  5
4E7
330
18
100
AcDbEntity
  8
1
  6
Continuous
100
AcDbLine
 10
307.9171098643525
 20
161.3763083730836
 30
0.0
 11
307.9171098643525
 21
271.3910322242828
 31
0.0
  0
LINE
  5
4E8
330
18
100
AcDbEntity
  8
1
  6
Continuous
100
AcDbLine
 10
310.9171100068448
 20
161.3763083730836
 30
0.0
 11
310.9171100068448
 21
271.3910322242827
 31
0.0
  0
LINE
  5
4E9
330
18
100
AcDbEntity
  8
1
  6
Continuous
100
AcDbLine
 10
295.4171092706344
 20
104.1336649671042
 30
0.0
 11
295.4171092706344
 21
145.148385540999
 31
0.0
  0
LINE
  5
4EA
330
18
100
AcDbEntity
  8
1
  6
Continuous
100
AcDbLine
 10
298.4171094131268
 20
104.1336649671044
 30
0.0
 11
298.4171094131268
 21
145.1483855409989
 31
0.0
  0
LINE
  5
4EB
330
18
100
AcDbEntity
  8
1
  6
Continuous
100
AcDbLine
 10
287.4171088906548
 20
114.6336654658276
 30
0.0
 11
288.7171089524015
 21
114.6336654658276
 31
0.0
  0
LINE
  5
4EC
330
18
100
AcDbEntity
  8
1
  6
Continuous
100
AcDbLine
 10
288.7171089524015
 20
108.6336651808429
 30
0.0
 11
287.4171088906548
 21
108.6336651808429
 31
0.0
  0
LINE
  5
4ED
330
18
100
AcDbEntity
  8
4
  6
CENTER
 48
0.2
100
AcDbLine
 10
283.9171088669061
 20
111.6336653233353
 30
0.0
 11
302.917109484373
 21
111.6336653233353
 31
0.0
  0
LINE
  5
4EE
330
18
100
AcDbEntity
  8
1
  6
Continuous
100
AcDbLine
 10
287.4171088906548
 20
108.6336651808429
 30
0.0
 11
287.4171088906548
 21
114.6336654658276
 31
0.0
  0
LINE
  5
4EF
330
18
100
AcDbEntity
  8
1
  6
Continuous
100
AcDbLine
 10
286.9171088669061
 20
109.1336652045917
 30
0.0
 11
286.9171088669061
 21
114.1336654420789
 31
0.0
  0
LINE
  5
4F0
330
18
100
AcDbEntity
  8
1
  6
Continuous
100
AcDbLine
 10
287.4171088906548
 20
108.6336651808429
 30
0.0
 11
286.9171088669061
 21
109.1336652045917
 31
0.0
  0
LINE
  5
4F1
330
18
100
AcDbEntity
  8
1
  6
Continuous
100
AcDbLine
 10
286.9170088669059
 20
114.1335654420788
 30
0.0
 11
287.4171088906548
 21
114.6336654658276
 31
0.0
  0
LINE
  5
4F2
330
18
100
AcDbEntity
  8
1
  6
Continuous
100
AcDbLine
 10
287.4171088906548
 20
114.6336654658276
 30
0.0
 11
287.4172088906545
 21
114.6337654658276
 31
0.0
  0
LINE
  5
4F3
330
18
100
AcDbEntity
  8
1
  6
Continuous
100
AcDbLine
 10
288.7171094292387
 20
117.2836655916958
 30
0.0
 11
288.7171094292387
 21
105.9836650549746
 31
0.0
  0
LINE
  5
4F4
330
18
100
AcDbEntity
  8
1
  6
Continuous
100
AcDbLine
 10
289.9171090093984
 20
108.6336651808429
 30
0.0
 11
289.9171090093984
 21
114.6336654658276
 31
0.0
  0
LINE
  5
4F5
330
18
100
AcDbEntity
  8
1
  6
Continuous
100
AcDbLine
 10
299.9171094843729
 20
109.1836652069665
 30
0.0
 11
299.9171094843729
 21
114.083665439704
 31
0.0
  0
LINE
  5
4F6
330
18
100
AcDbEntity
  8
1
  6
Continuous
100
AcDbLine
 10
295.4171092706344
 20
104.1336649671042
 30
0.0
 11
298.4171094131268
 21
104.1336649671044
 31
0.0
  0
LINE
  5
4F7
330
18
100
AcDbEntity
  8
1
  6
Continuous
100
AcDbLine
 10
289.4171094624869
 20
105.9836650549747
 30
0.0
 11
289.4171094624869
 21
109.578665225728
 31
0.0
  0
LINE
  5
4F8
330
18
100
AcDbEntity
  8
1
  6
Continuous
100
AcDbLine
 10
289.4171094624869
 20
106.9893651027426
 30
0.0
 11
288.7171094292387
 21
106.9893651027426
 31
0.0
  0
LINE
  5
4F9
330
18
100
AcDbEntity
  8
1
  6
Continuous
100
AcDbLine
 10
289.4171094624869
 20
109.5786652257279
 30
0.0
 11
288.7171094292387
 21
109.5786652257279
 31
0.0
  0
LINE
  5
4FA
330
18
100
AcDbEntity
  8
1
  6
Continuous
100
AcDbLine
 10
295.4171092706344
 20
108.6336651808429
 30
0.0
 11
289.9171090093984
 21
108.6336651808429
 31
0.0
  0
LINE
  5
4FB
330
18
100
AcDbEntity
  8
1
  6
Continuous
100
AcDbLine
 10
289.4171094624869
 20
105.9836650549746
 30
0.0
 11
288.7171094292387
 21
105.9836650549746
 31
0.0
  0
LINE
  5
4FC
330
18
100
AcDbEntity
  8
1
  6
Continuous
100
AcDbLine
 10
289.9171090093984
 20
109.1336652045916
 30
0.0
 11
289.4171094624869
 21
109.1336652045916
 31
0.0
  0
LINE
  5
4FD
330
18
100
AcDbEntity
  8
1
  6
Continuous
100
AcDbLine
 10
299.9171094843729
 20
109.1836652069665
 30
0.0
 11
298.4171094131268
 21
109.1836652069665
 31
0.0
  0
LINE
  5
4FE
330
18
100
AcDbEntity
  8
1
  6
Continuous
100
AcDbLine
 10
289.4171094624869
 20
113.6886654209425
 30
0.0
 11
288.7171094292387
 21
113.6886654209425
 31
0.0
  0
LINE
  5
4FF
330
18
100
AcDbEntity
  8
1
  6
Continuous
100
AcDbLine
 10
289.4171094624869
 20
116.2779655439276
 30
0.0
 11
288.7171094292387
 21
116.2779655439276
 31
0.0
  0
LINE
  5
500
330
18
100
AcDbEntity
  8
1
  6
Continuous
100
AcDbLine
 10
289.9171090093984
 20
114.6336654658276
 30
0.0
 11
295.4171092706344
 21
114.6336654658276
 31
0.0
  0
LINE
  5
501
330
18
100
AcDbEntity
  8
1
  6
Continuous
100
AcDbLine
 10
288.7171094292387
 20
117.2836655916958
 30
0.0
 11
289.4171094624869
 21
117.2836655916958
 31
0.0
  0
LINE
  5
502
330
18
100
AcDbEntity
  8
1
  6
Continuous
100
AcDbLine
 10
289.4171094624869
 20
114.1336654420789
 30
0.0
 11
289.9171090093984
 21
114.1336654420789
 31
0.0
  0
LINE
  5
503
330
18
100
AcDbEntity
  8
1
  6
Continuous
100
AcDbLine
 10
289.4171094624869
 20
117.2836655916958
 30
0.0
 11
289.4171094624869
 21
113.6886654209425
 31
0.0
  0
LINE
  5
504
330
18
100
AcDbEntity
  8
1
  6
Continuous
100
AcDbLine
 10
298.4171094131268
 20
114.083665439704
 30
0.0
 11
299.9171094843729
 21
114.083665439704
 31
0.0
  0
LINE
  5
505
330
18
100
AcDbEntity
  8
1
  6
Continuous
100
AcDbLine
 10
297.1744686669802
 20
149.3910264296187
 30
0.0
 11
307.038430166175
 21
159.254987928799
 31
0.0
  0
LINE
  5
506
330
18
100
AcDbEntity
  8
1
  6
Continuous
100
AcDbLine
 10
299.2957891113117
 20
147.2697059852462
 30
0.0
 11
309.1597506105092
 21
157.1336674844545
 31
0.0
  0
ARC
  5
507
330
18
100
AcDbEntity
  8
1
  6
Continuous
100
AcDbCircle
 10
301.4171095556187
 20
145.148385540999
 30
0.0
 40
6.000000284984414
100
AcDbArc
 50
135.0000000001291
 51
180.0000000000004
  0
ARC
  5
508
330
18
100
AcDbEntity
  8
1
  6
Continuous
100
AcDbCircle
 10
301.4171095556196
 20
145.1483855409988
 30
0.0
 40
3.000000142492948
100
AcDbArc
 50
135.0000000008112
 51
179.9999999999986
  0
ARC
  5
509
330
18
100
AcDbEntity
  8
1
  6
Continuous
100
AcDbCircle
 10
304.9171097218602
 20
161.3763083730839
 30
0.0
 40
6.000000284984798
100
AcDbArc
 50
315.0000000001363
 51
0.0000000000028498
  0
ARC
  5
50A
330
18
100
AcDbEntity
  8
1
  6
Continuous
100
AcDbCircle
 10
304.9171097218602
 20
161.376308373084
 30
0.0
 40
3.000000142492261
100
AcDbArc
 50
315.0000000004039
 51
0.0000000000032569
  0
LINE
  5
50B
330
18
100
AcDbEntity
  8
4
  6
CENTER
 48
0.2
100
AcDbLine
 10
119.0597160974923
 20
524.4721491878118
 30
0.0
 11
155.559717159945
 21
524.4721491878118
 31
0.0
  0
LINE
  5
50C
330
18
100
AcDbEntity
  8
4
  6
CENTER
 48
0.2
100
AcDbLine
 10
129.5597162099961
 20
316.1336750365641
 30
0.0
 11
148.559716827463
 21
316.1336750365641
 31
0.0
  0
LINE
  5
50D
330
18
100
AcDbEntity
  8
4
  6
CENTER
 48
0.2
100
AcDbLine
 10
129.5597162099961
 20
354.1336768414673
 30
0.0
 11
148.559716827463
 21
354.1336768414673
 31
0.0
  0
LINE
  5
50E
330
18
100
AcDbEntity
  8
4
  6
CENTER
 48
0.2
100
AcDbLine
 10
122.559715877514
 20
335.1336759390154
 30
0.0
 11
155.559717159945
 21
335.1336759390154
 31
0.0
  0
CIRCLE
  5
50F
330
18
100
AcDbEntity
  8
1
  6
Continuous
100
AcDbCircle
 10
139.0597165187298
 20
335.1336759390154
 30
0.0
 40
11.80000056047026
  0
LINE
  5
510
330
18
100
AcDbEntity
  8
1
  6
Continuous
100
AcDbLine
 10
151.0597170886988
 20
531.6221495274186
 30
0.0
 11
147.8597169367071
 21
531.6221495274186
 31
0.0
  0
LINE
  5
511
330
18
100
AcDbEntity
  8
1
  6
Continuous
100
AcDbLine
 10
151.0597167024794
 20
531.4721495202937
 30
0.0
 11
140.5597162037563
 21
531.4721495202941
 31
0.0
  0
LINE
  5
512
330
18
100
AcDbEntity
  8
1
  6
Continuous
100
AcDbLine
 10
152.559717159945
 20
535.4721497102839
 30
0.0
 11
145.559716827463
 21
535.4721497102838
 31
0.0
  0
LINE
  5
513
330
18
100
AcDbEntity
  8
1
  6
Continuous
100
AcDbLine
 10
147.8597169367071
 20
517.3221488482051
 30
0.0
 11
151.0597170886988
 21
517.3221488482051
 31
0.0
  0
LINE
  5
514
330
18
100
AcDbEntity
  8
1
  6
Continuous
100
AcDbLine
 10
151.0597167024796
 20
517.4721488553297
 30
0.0
 11
140.5597162037563
 21
517.4721488553297
 31
0.0
  0
LINE
  5
515
330
18
100
AcDbEntity
  8
1
  6
Continuous
100
AcDbLine
 10
152.559717159945
 20
513.4721486653399
 30
0.0
 11
145.559716827463
 21
513.4721486653399
 31
0.0
  0
ARC
  5
516
330
18
100
AcDbEntity
  8
1
  6
Continuous
100
AcDbCircle
 10
145.0597164174947
 20
398.1756390417982
 30
0.0
 40
3.000000142492399
100
AcDbArc
 50
359.9999999999996
 51
80.40593177314164
  0
ARC
  5
517
330
18
100
AcDbEntity
  8
1
  6
Continuous
100
AcDbCircle
 10
145.0597164174949
 20
398.175639041798
 30
0.0
 40
6.000000284984697
100
AcDbArc
 50
0.0000000000008142
 51
80.40593177314175
  0
LINE
  5
518
330
18
100
AcDbEntity
  8
1
  6
Continuous
100
AcDbLine
 10
151.5597171124477
 20
362.133677221447
 30
0.0
 11
145.0505431235785
 21
362.133677221447
 31
0.0
  0
LINE
  5
519
330
18
100
AcDbEntity
  8
1
  6
Continuous
100
AcDbLine
 10
145.559716827463
 20
359.8836771145776
 30
0.0
 11
151.3097171005732
 21
359.8836771145777
 31
0.0
  0
LINE
  5
51A
330
18
100
AcDbEntity
  8
1
  6
Continuous
100
AcDbLine
 10
148.6507442938057
 20
333.6144550153686
 30
0.0
 11
147.9439438800686
 21
333.7264012033194
 31
0.0
  0
LINE
  5
51B
330
18
100
AcDbEntity
  8
1
  6
Continuous
100
AcDbLine
 10
147.9439438800687
 20
336.5409506747119
 30
0.0
 11
148.6507442938055
 21
336.6528968626626
 31
0.0
  0
LINE
  5
51C
330
18
100
AcDbEntity
  8
1
  6
Continuous
100
AcDbLine
 10
147.959716559987
 20
337.0336760292608
 30
0.0
 11
150.7057464381553
 21
337.0336760292608
 31
0.0
  0
LINE
  5
51D
330
18
100
AcDbEntity
  8
1
  6
Continuous
100
AcDbLine
 10
147.959716559987
 20
339.5136761470546
 30
0.0
 11
150.0167056765535
 21
339.5136761470546
 31
0.0
  0
LINE
  5
51E
330
18
100
AcDbEntity
  8
1
  6
Continuous
100
AcDbLine
 10
147.959716559987
 20
333.2336758487707
 30
0.0
 11
150.7057464381553
 21
333.2336758487707
 31
0.0
  0
LINE
  5
51F
330
18
100
AcDbEntity
  8
1
  6
Continuous
100
AcDbLine
 10
145.0505431235785
 20
308.1336746565845
 30
0.0
 11
151.5597171124477
 21
308.1336746565845
 31
0.0
  0
LINE
  5
520
330
18
100
AcDbEntity
  8
1
  6
Continuous
100
AcDbLine
 10
151.3097171005732
 20
310.3836747634538
 30
0.0
 11
145.559716827463
 21
310.3836747634538
 31
0.0
  0
LINE
  5
521
330
18
100
AcDbEntity
  8
1
  6
Continuous
100
AcDbLine
 10
143.5597163462485
 20
407.0497591379463
 30
0.0
 11
143.5597163462485
 21
466.1336821611818
 31
0.0
  0
LINE
  5
522
330
18
100
AcDbEntity
  8
1
  6
Continuous
100
AcDbLine
 10
140.5597162037563
 20
466.1336821611818
 30
0.0
 11
140.5597162037563
 21
407.0497591379463
 31
0.0
  0
LINE
  5
523
330
18
100
AcDbEntity
  8
1
  6
Continuous
100
AcDbLine
 10
56.97440810002035
 20
466.1336821611818
 30
0.0
 11
56.97440810002035
 21
362.133677221447
 31
0.0
  0
LINE
  5
524
330
18
100
AcDbEntity
  8
1
  6
Continuous
100
AcDbLine
 10
42.97440743505602
 20
466.1336821611818
 30
0.0
 11
42.97440743505602
 21
362.133677221447
 31
0.0
  0
LINE
  5
525
330
18
100
AcDbEntity
  8
4
  6
CENTER
 48
0.2
100
AcDbLine
 10
139.0597165187393
 20
305.1336746565845
 30
0.0
 11
139.0597165187393
 21
365.1336772214468
 31
0.0
  0
LINE
  5
526
330
18
100
AcDbEntity
  8
1
  6
Continuous
100
AcDbLine
 10
147.3097169105835
 20
359.8836771145776
 30
0.0
 11
147.3097169105835
 21
357.8836770195827
 31
0.0
  0
LINE
  5
527
330
18
100
AcDbEntity
  8
1
  6
Continuous
100
AcDbLine
 10
145.559716827463
 20
362.133677221447
 30
0.0
 11
145.559716827463
 21
354.1336768414673
 31
0.0
  0
LINE
  5
528
330
18
100
AcDbEntity
  8
1
  6
Continuous
100
AcDbLine
 10
132.5597162099961
 20
362.133677221447
 30
0.0
 11
132.5597162099961
 21
354.1336768414673
 31
0.0
  0
LINE
  5
529
330
18
100
AcDbEntity
  8
1
  6
Continuous
100
AcDbLine
 10
130.8097161268756
 20
357.8836770195827
 30
0.0
 11
130.8097161268756
 21
359.8836771145776
 31
0.0
  0
LINE
  5
52A
330
18
100
AcDbEntity
  8
1
  6
Continuous
100
AcDbLine
 10
126.8097159368858
 20
345.1336764139901
 30
0.0
 11
126.8097159368858
 21
359.8836771145776
 31
0.0
  0
LINE
  5
52B
330
18
100
AcDbEntity
  8
1
  6
Continuous
100
AcDbLine
 10
125.559715877514
 20
309.133674704082
 30
0.0
 11
125.559715877514
 21
361.1336771739494
 31
0.0
  0
LINE
  5
52C
330
18
100
AcDbEntity
  8
1
  6
Continuous
100
AcDbLine
 10
60.97440829001016
 20
362.133677221447
 30
0.0
 11
60.97440829000902
 21
345.1336764139903
 31
0.0
  0
LINE
  5
52D
330
18
100
AcDbEntity
  8
1
  6
Continuous
100
AcDbLine
 10
61.67440832325837
 20
357.8836770195827
 30
0.0
 11
61.67440832325837
 21
359.8836771145776
 31
0.0
  0
LINE
  5
52E
330
18
100
AcDbEntity
  8
1
  6
Continuous
100
AcDbLine
 10
38.97440724506612
 20
345.1336764139901
 30
0.0
 11
38.97440724506612
 21
362.133677221447
 31
0.0
  0
LINE
  5
52F
330
18
100
AcDbEntity
  8
1
  6
Continuous
100
AcDbLine
 10
38.27440721181801
 20
357.8836770195827
 30
0.0
 11
38.27440721181801
 21
359.8836771145776
 31
0.0
  0
LINE
  5
530
330
18
100
AcDbEntity
  8
1
  6
Continuous
100
AcDbLine
 10
60.97440829001016
 20
325.1336754640413
 30
0.0
 11
60.97440829001016
 21
308.1336746565845
 31
0.0
  0
LINE
  5
531
330
18
100
AcDbEntity
  8
1
  6
Continuous
100
AcDbLine
 10
38.97440724506623
 20
325.1336754640413
 30
0.0
 11
38.97440724506623
 21
308.1336746565845
 31
0.0
  0
LINE
  5
532
330
18
100
AcDbEntity
  8
1
  6
Continuous
100
AcDbLine
 10
60.97440829001016
 20
308.1336746565845
 30
0.0
 11
38.97440724506623
 21
308.1336746565845
 31
0.0
  0
LINE
  5
533
330
18
100
AcDbEntity
  8
1
  6
Continuous
100
AcDbLine
 10
54.97440810002036
 20
273.6871329275325
 30
0.0
 11
44.97440743505602
 21
273.6871329275325
 31
0.0
  0
LINE
  5
534
330
18
100
AcDbEntity
  8
1
  6
Continuous
100
AcDbLine
 10
54.97440810002036
 20
278.970904348572
 30
0.0
 11
44.97440743505602
 21
278.970904348572
 31
0.0
  0
LINE
  5
535
330
18
100
AcDbEntity
  8
1
  6
Continuous
100
AcDbLine
 10
38.27440721181801
 20
310.3836747634538
 30
0.0
 11
38.27440721181801
 21
312.3836748584487
 31
0.0
  0
LINE
  5
536
330
18
100
AcDbEntity
  8
1
  6
Continuous
100
AcDbLine
 10
38.97440724506623
 20
312.3836748584487
 30
0.0
 11
38.27440721181801
 21
312.3836748584487
 31
0.0
  0
LINE
  5
537
330
18
100
AcDbEntity
  8
1
  6
Continuous
100
AcDbLine
 10
38.97440724506623
 20
310.3836747634538
 30
0.0
 11
38.27440721181801
 21
310.3836747634538
 31
0.0
  0
LINE
  5
538
330
18
100
AcDbEntity
  8
1
  6
Continuous
100
AcDbLine
 10
60.97440829001016
 20
310.3836747634538
 30
0.0
 11
61.67440832325837
 21
310.3836747634538
 31
0.0
  0
LINE
  5
539
330
18
100
AcDbEntity
  8
1
  6
Continuous
100
AcDbLine
 10
61.67440832325837
 20
310.3836747634538
 30
0.0
 11
61.67440832325837
 21
312.3836748584487
 31
0.0
  0
LINE
  5
53A
330
18
100
AcDbEntity
  8
1
  6
Continuous
100
AcDbLine
 10
60.97440829001016
 20
312.3836748584487
 30
0.0
 11
61.67440832325837
 21
312.3836748584487
 31
0.0
  0
LINE
  5
53B
330
18
100
AcDbEntity
  8
4
  6
CENTER
 48
0.2
100
AcDbLine
 10
35.27440721180846
 20
316.1336750365643
 30
0.0
 11
64.67440832324882
 21
316.1336750365643
 31
0.0
  0
LINE
  5
53C
330
18
100
AcDbEntity
  8
4
  6
CENTER
 48
0.2
100
AcDbLine
 10
35.27440721180823
 20
335.1336759390159
 30
0.0
 11
64.6744083232486
 21
335.1336759390159
 31
0.0
  0
LINE
  5
53D
330
18
100
AcDbEntity
  8
4
  6
CENTER
 48
0.2
100
AcDbLine
 10
35.27440721181801
 20
354.1336768414673
 30
0.0
 11
64.67440832325838
 21
354.1336768414673
 31
0.0
  0
LINE
  5
53E
330
18
100
AcDbEntity
  8
1
  6
Continuous
100
AcDbLine
 10
41.07440734481087
 20
325.1336754640413
 30
0.0
 11
41.07440734481087
 21
345.1336764139901
 31
0.0
  0
LINE
  5
53F
330
18
100
AcDbEntity
  8
1
  6
Continuous
100
AcDbLine
 10
38.27440721181801
 20
325.1336754640413
 30
0.0
 11
41.07440734481087
 21
325.1336754640413
 31
0.0
  0
LINE
  5
540
330
18
100
AcDbEntity
  8
1
  6
Continuous
100
AcDbLine
 10
38.97440724506623
 20
318.3836751434334
 30
0.0
 11
38.27440721181801
 21
318.3836751434334
 31
0.0
  0
LINE
  5
541
330
18
100
AcDbEntity
  8
1
  6
Continuous
100
AcDbLine
 10
38.27440721181801
 20
318.3836751434334
 30
0.0
 11
38.27440721181801
 21
325.1336754640413
 31
0.0
  0
LINE
  5
542
330
18
100
AcDbEntity
  8
1
  6
Continuous
100
AcDbLine
 10
38.27440721181801
 20
345.1336764139901
 30
0.0
 11
41.07440734481087
 21
345.1336764139901
 31
0.0
  0
LINE
  5
543
330
18
100
AcDbEntity
  8
1
  6
Continuous
100
AcDbLine
 10
38.27440721181801
 20
345.1336764139901
 30
0.0
 11
38.27440721181801
 21
351.883676734598
 31
0.0
  0
LINE
  5
544
330
18
100
AcDbEntity
  8
1
  6
Continuous
100
AcDbLine
 10
38.97440724506623
 20
357.8836770195827
 30
0.0
 11
38.27440721181801
 21
357.8836770195827
 31
0.0
  0
LINE
  5
545
330
18
100
AcDbEntity
  8
1
  6
Continuous
100
AcDbLine
 10
38.97440724506612
 20
351.883676734598
 30
0.0
 11
38.27440721181801
 21
351.883676734598
 31
0.0
  0
LINE
  5
546
330
18
100
AcDbEntity
  8
1
  6
Continuous
100
AcDbLine
 10
58.87440819026551
 20
325.1336754640413
 30
0.0
 11
58.87440819026551
 21
345.1336764139901
 31
0.0
  0
LINE
  5
547
330
18
100
AcDbEntity
  8
1
  6
Continuous
100
AcDbLine
 10
61.67440832325837
 20
325.1336754640413
 30
0.0
 11
58.87440819026551
 21
325.1336754640413
 31
0.0
  0
LINE
  5
548
330
18
100
AcDbEntity
  8
1
  6
Continuous
100
AcDbLine
 10
60.97440829001016
 20
318.3836751434334
 30
0.0
 11
61.67440832325837
 21
318.3836751434334
 31
0.0
  0
LINE
  5
549
330
18
100
AcDbEntity
  8
1
  6
Continuous
100
AcDbLine
 10
61.67440832325837
 20
318.3836751434334
 30
0.0
 11
61.67440832325837
 21
325.1336754640413
 31
0.0
  0
LINE
  5
54A
330
18
100
AcDbEntity
  8
1
  6
Continuous
100
AcDbLine
 10
61.67440832325837
 20
345.1336764139901
 30
0.0
 11
61.67440832325837
 21
351.883676734598
 31
0.0
  0
LINE
  5
54B
330
18
100
AcDbEntity
  8
1
  6
Continuous
100
AcDbLine
 10
61.67440832325837
 20
345.1336764139901
 30
0.0
 11
58.87440819026551
 21
345.1336764139901
 31
0.0
  0
LINE
  5
54C
330
18
100
AcDbEntity
  8
1
  6
Continuous
100
AcDbLine
 10
60.97440829001016
 20
357.8836770195827
 30
0.0
 11
61.67440832325837
 21
357.8836770195827
 31
0.0
  0
LINE
  5
54D
330
18
100
AcDbEntity
  8
1
  6
Continuous
100
AcDbLine
 10
60.97440829000948
 20
351.883676734598
 30
0.0
 11
61.67440832325837
 21
351.883676734598
 31
0.0
  0
LINE
  5
54E
330
18
100
AcDbEntity
  8
1
  6
Continuous
100
AcDbLine
 10
126.8097159368858
 20
310.3836747634538
 30
0.0
 11
126.8097159368858
 21
325.1336754640413
 31
0.0
  0
CIRCLE
  5
54F
330
18
100
AcDbEntity
  8
1
  6
Continuous
100
AcDbCircle
 10
139.0597165187296
 20
316.1336750365641
 30
0.0
 40
2.2000001044944
  0
LINE
  5
550
330
18
100
AcDbEntity
  8
1
  6
Continuous
100
AcDbLine
 10
145.559716827463
 20
308.1336746565845
 30
0.0
 11
145.559716827463
 21
316.1336750365641
 31
0.0
  0
LINE
  5
551
330
18
100
AcDbEntity
  8
1
  6
Continuous
100
AcDbLine
 10
132.5597162099961
 20
308.1336746565845
 30
0.0
 11
132.5597162099961
 21
316.1336750365641
 31
0.0
  0
LINE
  5
552
330
18
100
AcDbEntity
  8
1
  6
Continuous
100
AcDbLine
 10
130.0597164774721
 20
280.1189547001968
 30
0.0
 11
130.0597164774721
 21
308.1336746565845
 31
0.0
  0
LINE
  5
553
330
18
100
AcDbEntity
  8
1
  6
Continuous
100
AcDbLine
 10
127.0597163349797
 20
280.1189547001968
 30
0.0
 11
127.0597163349797
 21
308.1336746565845
 31
0.0
  0
LINE
  5
554
330
18
100
AcDbEntity
  8
1
  6
Continuous
100
AcDbLine
 10
123.817075493843
 20
275.6336731129179
 30
0.0
 11
126.1810366368042
 21
277.9976342558795
 31
0.0
  0
ARC
  5
555
330
18
100
AcDbEntity
  8
1
  6
Continuous
100
AcDbCircle
 10
124.0597161924875
 20
280.1189547001968
 30
0.0
 40
6.000000284984547
100
AcDbArc
 50
314.9999999999982
 51
0.0000000000004071
  0
ARC
  5
556
330
18
100
AcDbEntity
  8
1
  6
Continuous
100
AcDbCircle
 10
124.0597161924872
 20
280.1189547001968
 30
0.0
 40
3.000000142492329
100
AcDbArc
 50
314.9999999999983
 51
0.0000000000008142
  0
LINE
  5
557
330
18
100
AcDbEntity
  8
1
  6
Continuous
100
AcDbLine
 10
125.9383959381596
 20
273.5123526686003
 30
0.0
 11
128.3023570811211
 21
275.8763138115625
 31
0.0
  0
LINE
  5
558
330
18
100
AcDbEntity
  8
1
  6
Continuous
100
AcDbLine
 10
126.5597159250115
 20
308.1336746565845
 30
0.0
 11
133.0688899138806
 21
308.1336746565845
 31
0.0
  0
LINE
  5
559
330
18
100
AcDbEntity
  8
1
  6
Continuous
100
AcDbLine
 10
130.8097161268756
 20
312.3836748584487
 30
0.0
 11
132.5597162099961
 21
312.3836748584487
 31
0.0
  0
LINE
  5
55A
330
18
100
AcDbEntity
  8
1
  6
Continuous
100
AcDbLine
 10
130.8097161268756
 20
310.3836747634538
 30
0.0
 11
130.8097161268756
 21
312.3836748584487
 31
0.0
  0
LINE
  5
55B
330
18
100
AcDbEntity
  8
1
  6
Continuous
100
AcDbLine
 10
132.5597162099961
 20
310.3836747634538
 30
0.0
 11
126.8097159368858
 21
310.3836747634538
 31
0.0
  0
ARC
  5
55C
330
18
100
AcDbEntity
  8
1
  6
Continuous
100
AcDbCircle
 10
126.5597159250115
 20
309.133674704082
 30
0.0
 40
1.000000047497451
100
AcDbArc
 50
180.0000000000011
 51
270.0
  0
ARC
  5
55D
330
18
100
AcDbEntity
  8
1
  6
Continuous
100
AcDbCircle
 10
139.0597165187296
 20
306.6336745853384
 30
0.0
 40
5.200000246986745
100
AcDbArc
 50
26.60013496100231
 51
153.399865038998
  0
ARC
  5
55E
330
18
100
AcDbEntity
  8
1
  6
Continuous
100
AcDbCircle
 10
133.0688899138806
 20
309.6336747278307
 30
0.0
 40
1.500000071246164
100
AcDbArc
 50
270.0
 51
333.399865039097
  0
LINE
  5
55F
330
18
100
AcDbEntity
  8
1
  6
Continuous
100
AcDbLine
 10
147.3097169105835
 20
312.3836748584487
 30
0.0
 11
147.3097169105835
 21
310.3836747634538
 31
0.0
  0
ARC
  5
560
330
18
100
AcDbEntity
  8
1
  6
Continuous
100
AcDbCircle
 10
145.0505431235785
 20
309.6336747278307
 30
0.0
 40
1.500000071246215
100
AcDbArc
 50
206.6001349609028
 51
270.0
  0
LINE
  5
561
330
18
100
AcDbEntity
  8
1
  6
Continuous
100
AcDbLine
 10
145.559716827463
 20
312.3836748584487
 30
0.0
 11
147.3097169105835
 21
312.3836748584487
 31
0.0
  0
ARC
  5
562
330
18
100
AcDbEntity
  8
1
  6
Continuous
100
AcDbCircle
 10
139.0597165187291
 20
335.1336759390156
 30
0.0
 40
8.700000413228245
100
AcDbArc
 50
10.91043795676776
 51
25.08956199352031
  0
LINE
  5
563
330
18
100
AcDbEntity
  8
1
  6
Continuous
100
AcDbLine
 10
147.809716934332
 20
339.5946194946974
 30
0.0
 11
147.809716934332
 21
336.5502392272751
 31
0.0
  0
LINE
  5
564
330
18
100
AcDbEntity
  8
1
  6
Continuous
100
AcDbLine
 10
147.959716559987
 20
336.5434488217932
 30
0.0
 11
147.959716559987
 21
342.8815796873024
 31
0.0
  0
LINE
  5
565
330
18
100
AcDbEntity
  8
1
  6
Continuous
100
AcDbLine
 10
143.1097167110942
 20
332.0340790438281
 30
0.0
 11
143.1097167110942
 21
338.2332728342054
 31
0.0
  0
LINE
  5
566
330
18
100
AcDbEntity
  8
1
  6
Continuous
100
AcDbLine
 10
134.1097162836172
 20
339.5836761503793
 30
0.0
 11
134.1097162836172
 21
335.1336759390157
 31
0.0
  0
LINE
  5
567
330
18
100
AcDbEntity
  8
1
  6
Continuous
100
AcDbLine
 10
134.1347162848046
 20
335.1086759378283
 30
0.0
 11
134.1347162848046
 21
339.2986341198219
 31
0.0
  0
ARC
  5
568
330
18
100
AcDbEntity
  8
1
  6
Continuous
100
AcDbCircle
 10
139.0597165187293
 20
335.1336759390158
 30
0.0
 40
8.700000413227572
100
AcDbArc
 50
154.9104376114692
 51
169.0895625982931
  0
LINE
  5
569
330
18
100
AcDbEntity
  8
1
  6
Continuous
100
AcDbLine
 10
130.3097161031269
 20
339.5946194946983
 30
0.0
 11
130.3097161031269
 21
336.5502392272751
 31
0.0
  0
LINE
  5
56A
330
18
100
AcDbEntity
  8
1
  6
Continuous
100
AcDbLine
 10
130.1597164774721
 20
336.5434488217934
 30
0.0
 11
130.1597164774721
 21
342.8815796873018
 31
0.0
  0
LINE
  5
56B
330
18
100
AcDbEntity
  8
1
  6
Continuous
100
AcDbLine
 10
135.0097163263649
 20
338.2332728342033
 30
0.0
 11
135.0097163263649
 21
332.0340790438269
 31
0.0
  0
ARC
  5
56C
330
18
100
AcDbEntity
  8
1
  6
Continuous
100
AcDbCircle
 10
132.9115329813232
 20
328.5610169163325
 30
0.0
 40
0.3
100
AcDbArc
 50
46.91116532227717
 51
134.9999999846059
  0
ARC
  5
56D
330
18
100
AcDbEntity
  8
1
  6
Continuous
100
AcDbCircle
 10
139.0597165187296
 20
335.1336759390157
 30
0.0
 40
11.6000080082267
100
AcDbArc
 50
222.8818397472738
 51
247.3294144731713
  0
ARC
  5
56E
330
18
100
AcDbEntity
  8
1
  6
Continuous
100
AcDbCircle
 10
139.0597165187296
 20
316.1336750365641
 30
0.0
 40
6.500000308733433
100
AcDbArc
 50
0.0
 51
180.0
  0
LINE
  5
56F
330
18
100
AcDbEntity
  8
1
  6
Continuous
100
AcDbLine
 10
128.8097160318807
 20
318.3836751434334
 30
0.0
 11
126.8097159368858
 21
318.3836751434334
 31
0.0
  0
LINE
  5
570
330
18
100
AcDbEntity
  8
1
  6
Continuous
100
AcDbLine
 10
128.8097160318807
 20
325.1336754640413
 30
0.0
 11
128.8097160318807
 21
318.3836751434334
 31
0.0
  0
LINE
  5
571
330
18
100
AcDbEntity
  8
1
  6
Continuous
100
AcDbLine
 10
125.559715877514
 20
325.1336754640413
 30
0.0
 11
128.8097160318807
 21
325.1336754640413
 31
0.0
  0
ARC
  5
572
330
18
100
AcDbEntity
  8
1
  6
Continuous
100
AcDbCircle
 10
139.0597165187393
 20
335.1336759390157
 30
0.0
 40
11.75000055810471
100
AcDbArc
 50
178.0324460215733
 51
181.9675539784253
  0
ARC
  5
573
330
18
100
AcDbEntity
  8
1
  6
Continuous
100
AcDbCircle
 10
128.316053885863
 20
335.5027615781941
 30
0.0
 40
1.000000047497437
100
AcDbArc
 50
109.999999999844
 51
178.0324460215672
  0
ARC
  5
574
330
18
100
AcDbEntity
  8
1
  6
Continuous
100
AcDbCircle
 10
128.316053885863
 20
334.7645902998374
 30
0.0
 40
1.000000047497465
100
AcDbArc
 50
181.967553978433
 51
250.0000000001559
  0
ARC
  5
575
330
18
100
AcDbEntity
  8
1
  6
Continuous
100
AcDbCircle
 10
130.2224194991315
 20
336.8372571909645
 30
0.0
 40
0.3000000142492311
100
AcDbArc
 50
261.0000000000145
 51
349.067722386108
  0
ARC
  5
576
330
18
100
AcDbEntity
  8
1
  6
Continuous
100
AcDbCircle
 10
129.0776025624777
 20
334.1836758938932
 30
0.0
 40
2.500000118743586
100
AcDbArc
 50
81.00000000000802
 51
109.9999999999892
  0
ARC
  5
577
330
18
100
AcDbEntity
  8
1
  6
Continuous
100
AcDbCircle
 10
130.2224194991315
 20
333.4300946870669
 30
0.0
 40
0.3000000142492325
100
AcDbArc
 50
10.93228905586136
 51
98.99999999998538
  0
ARC
  5
578
330
18
100
AcDbEntity
  8
1
  6
Continuous
100
AcDbCircle
 10
129.0776025624777
 20
336.0836759841382
 30
0.0
 40
2.500000118743558
100
AcDbArc
 50
250.0000000000107
 51
278.999999999992
  0
LINE
  5
579
330
18
100
AcDbEntity
  8
1
  6
Continuous
100
AcDbLine
 10
127.9740337262953
 20
336.4424542436123
 30
0.0
 11
128.2225521635516
 21
336.5329075574399
 31
0.0
  0
LINE
  5
57A
330
18
100
AcDbEntity
  8
1
  6
Continuous
100
AcDbLine
 10
129.4686887436533
 20
336.6528968626628
 30
0.0
 11
130.1754891573905
 21
336.540950674712
 31
0.0
  0
LINE
  5
57B
330
18
100
AcDbEntity
  8
1
  6
Continuous
100
AcDbLine
 10
128.2225521635514
 20
333.7344443205909
 30
0.0
 11
127.9740337262951
 21
333.8248976344186
 31
0.0
  0
LINE
  5
57C
330
18
100
AcDbEntity
  8
1
  6
Continuous
100
AcDbLine
 10
130.1754891573904
 20
333.7264012033195
 30
0.0
 11
129.4686887436535
 21
333.6144550153688
 31
0.0
  0
LINE
  5
57D
330
18
100
AcDbEntity
  8
1
  6
Continuous
100
AcDbLine
 10
130.1597164774721
 20
333.2336758487707
 30
0.0
 11
127.4136865993038
 21
333.2336758487707
 31
0.0
  0
LINE
  5
57E
330
18
100
AcDbEntity
  8
1
  6
Continuous
100
AcDbLine
 10
130.5597161150012
 20
326.9489336484052
 30
0.0
 11
130.5597161150012
 21
327.4726052862994
 31
0.0
  0
ARC
  5
57F
330
18
100
AcDbEntity
  8
1
  6
Continuous
100
AcDbCircle
 10
130.9088531095584
 20
331.3174692648926
 30
0.0
 40
0.300000014249232
100
AcDbArc
 50
296.9999999999872
 51
25.06772835442638
  0
ARC
  5
580
330
18
100
AcDbEntity
  8
1
  6
Continuous
100
AcDbCircle
 10
130.425620672134
 20
330.034902749989
 30
0.0
 40
2.500000118743655
100
AcDbArc
 50
285.9999999999947
 51
315.0000000000003
  0
ARC
  5
581
330
18
100
AcDbEntity
  8
1
  6
Continuous
100
AcDbCircle
 10
131.5424127045347
 20
328.4977703876663
 30
0.0
 40
2.500000118743443
100
AcDbArc
 50
117.0000000000011
 51
123.5784764141669
  0
ARC
  5
582
330
18
100
AcDbEntity
  8
1
  6
Continuous
100
AcDbCircle
 10
139.0597165187341
 20
335.1336759390208
 30
0.0
 40
11.75000055810184
100
AcDbArc
 50
220.7603717602572
 51
221.2995739046176
  0
LINE
  5
583
330
18
100
AcDbEntity
  8
1
  6
Continuous
100
AcDbLine
 10
132.6994009470242
 20
328.7731489507455
 30
0.0
 11
132.193387709065
 21
328.2671357130581
 31
0.0
  0
LINE
  5
584
330
18
100
AcDbEntity
  8
1
  6
Continuous
100
AcDbLine
 10
130.4074364012775
 20
330.7252868039385
 30
0.0
 11
131.0450502659492
 21
331.0501672949397
 31
0.0
  0
LINE
  5
585
330
18
100
AcDbEntity
  8
1
  6
Continuous
100
AcDbLine
 10
131.1147140944066
 20
327.6317483959995
 30
0.0
 11
130.2323048587509
 21
327.3787216193241
 31
0.0
  0
LINE
  5
586
330
18
100
AcDbEntity
  8
1
  6
Continuous
100
AcDbLine
 10
130.1597160960022
 20
333.7239029958193
 30
0.0
 11
130.1597160960022
 21
327.3857726289224
 31
0.0
  0
LINE
  5
587
330
18
100
AcDbEntity
  8
1
  6
Continuous
100
AcDbLine
 10
130.1597164774721
 20
330.7536757309768
 30
0.0
 11
128.1027273609056
 21
330.7536757309768
 31
0.0
  0
LINE
  5
588
330
18
100
AcDbEntity
  8
1
  6
Continuous
100
AcDbLine
 10
130.5597161150012
 20
330.8028771935225
 30
0.0
 11
130.5597161150012
 21
333.278952151822
 31
0.0
  0
ARC
  5
589
330
18
100
AcDbEntity
  8
1
  6
Continuous
100
AcDbCircle
 10
139.0597165187296
 20
335.1336759390157
 30
0.0
 40
8.700000413227838
100
AcDbArc
 50
190.910437007129
 51
205.0895623924902
  0
LINE
  5
58A
330
18
100
AcDbEntity
  8
1
  6
Continuous
100
AcDbLine
 10
130.3097161031269
 20
333.7171126507564
 30
0.0
 11
130.3097161031269
 21
330.6727323833341
 31
0.0
  0
ARC
  5
58B
330
18
100
AcDbEntity
  8
1
  6
Continuous
100
AcDbCircle
 10
140.1703894314207
 20
326.2024714639403
 30
0.0
 40
0.3000000142492376
100
AcDbArc
 50
9.000000000001161
 51
97.06773010680405
  0
ARC
  5
58C
330
18
100
AcDbEntity
  8
1
  6
Continuous
100
AcDbCircle
 10
141.2408556376041
 20
325.3465552559215
 30
0.0
 40
2.500000118743666
100
AcDbArc
 50
358.0000000000051
 51
27.0
  0
ARC
  5
58D
330
18
100
AcDbEntity
  8
1
  6
Continuous
100
AcDbCircle
 10
139.0597165187296
 20
335.1336759390157
 30
0.0
 40
11.6000080082267
100
AcDbArc
 50
292.6705855268286
 51
317.1181602527261
  0
ARC
  5
58E
330
18
100
AcDbEntity
  8
1
  6
Continuous
100
AcDbCircle
 10
136.878577399855
 20
325.3465552559215
 30
0.0
 40
2.500000118743645
100
AcDbArc
 50
153.000000000002
 51
181.9999999999966
  0
ARC
  5
58F
330
18
100
AcDbEntity
  8
1
  6
Continuous
100
AcDbCircle
 10
137.9490436060384
 20
326.2024714639403
 30
0.0
 40
0.3000000142492339
100
AcDbArc
 50
82.93227194825526
 51
170.9999999999987
  0
ARC
  5
590
330
18
100
AcDbEntity
  8
1
  6
Continuous
100
AcDbCircle
 10
143.0478631043934
 20
325.9336875731207
 30
0.0
 40
2.500000118743665
100
AcDbArc
 50
188.9999999999943
 51
217.9999999999706
  0
ARC
  5
591
330
18
100
AcDbEntity
  8
1
  6
Continuous
100
AcDbCircle
 10
139.0597165187296
 20
335.1336759390157
 30
0.0
 40
11.6000080082267
100
AcDbArc
 50
256.6705855268472
 51
283.3294144731528
  0
LINE
  5
592
330
18
100
AcDbEntity
  8
1
  6
Continuous
100
AcDbLine
 10
140.5786421356237
 20
325.5426013919448
 30
0.0
 11
140.466695947673
 21
326.2494018056814
 31
0.0
  0
ARC
  5
593
330
18
100
AcDbEntity
  8
1
  6
Continuous
100
AcDbCircle
 10
136.0907634855549
 20
324.8017918482676
 30
0.0
 40
1.000000047497464
100
AcDbArc
 50
253.967553978384
 51
321.9999999999054
  0
ARC
  5
594
330
18
100
AcDbEntity
  8
1
  6
Continuous
100
AcDbCircle
 10
135.0715699330658
 20
325.9336875731207
 30
0.0
 40
2.500000118743624
100
AcDbArc
 50
322.0000000000312
 51
351.0000000000075
  0
ARC
  5
595
330
18
100
AcDbEntity
  8
1
  6
Continuous
100
AcDbCircle
 10
135.3887208811316
 20
325.0298993180421
 30
0.0
 40
1.000000047497447
100
AcDbArc
 50
182.0000000002151
 51
250.0324460216016
  0
ARC
  5
596
330
18
100
AcDbEntity
  8
1
  6
Continuous
100
AcDbCircle
 10
139.0597165187331
 20
335.1336759390261
 30
0.0
 40
11.75000055810602
100
AcDbArc
 50
250.0324460215678
 51
253.9675539784241
  0
LINE
  5
597
330
18
100
AcDbEntity
  8
1
  6
Continuous
100
AcDbLine
 10
137.041596910654
 20
324.3945338117023
 30
0.0
 11
136.8787742765879
 21
324.1861303436993
 31
0.0
  0
LINE
  5
598
330
18
100
AcDbEntity
  8
1
  6
Continuous
100
AcDbLine
 10
137.6527370897863
 20
326.2494018056814
 30
0.0
 11
137.5407909018357
 21
325.5426013919448
 31
0.0
  0
LINE
  5
599
330
18
100
AcDbEntity
  8
1
  6
Continuous
100
AcDbLine
 10
134.3893300066447
 20
324.9949998196782
 30
0.0
 11
134.380100213636
 21
325.2593065100212
 31
0.0
  0
ARC
  5
59A
330
18
100
AcDbEntity
  8
1
  6
Continuous
100
AcDbCircle
 10
142.0286695519042
 20
324.8017918482676
 30
0.0
 40
1.000000047497447
100
AcDbArc
 50
218.0000000000948
 51
286.0324460216093
  0
ARC
  5
59B
330
18
100
AcDbEntity
  8
1
  6
Continuous
100
AcDbCircle
 10
139.0597165187332
 20
335.1336759390047
 30
0.0
 40
11.75000055808343
100
AcDbArc
 50
286.0324460215753
 51
289.9675539784325
  0
ARC
  5
59C
330
18
100
AcDbEntity
  8
1
  6
Continuous
100
AcDbCircle
 10
142.7307121563275
 20
325.0298993180421
 30
0.0
 40
1.000000047497469
100
AcDbArc
 50
289.9675539784044
 51
357.999999999785
  0
LINE
  5
59D
330
18
100
AcDbEntity
  8
1
  6
Continuous
100
AcDbLine
 10
141.2406587608701
 20
324.1861303436984
 30
0.0
 11
141.0778361268047
 21
324.3945338117018
 31
0.0
  0
LINE
  5
59E
330
18
100
AcDbEntity
  8
1
  6
Continuous
100
AcDbLine
 10
143.7393328238233
 20
325.2593065100213
 30
0.0
 11
143.7301030308148
 21
324.9949998196782
 31
0.0
  0
LINE
  5
59F
330
18
100
AcDbEntity
  8
1
  6
Continuous
100
AcDbLine
 10
139.0597165187296
 20
330.1836757039033
 30
0.0
 11
143.5097167300932
 21
330.1836757039033
 31
0.0
  0
LINE
  5
5A0
330
18
100
AcDbEntity
  8
1
  6
Continuous
100
AcDbLine
 10
142.1593134139173
 20
331.0836757466511
 30
0.0
 11
135.9601196235399
 21
331.083675746651
 31
0.0
  0
LINE
  5
5A1
330
18
100
AcDbEntity
  8
1
  6
Continuous
100
AcDbLine
 10
143.2246746995356
 20
330.2086757050907
 30
0.0
 11
139.0597165187296
 21
330.2086757050907
 31
0.0
  0
LINE
  5
5A2
330
18
100
AcDbEntity
  8
1
  6
Continuous
100
AcDbLine
 10
134.1097162836172
 20
335.1336759390157
 30
0.0
 11
134.1347162848046
 21
335.1336759390157
 31
0.0
  0
LINE
  5
5A3
330
18
100
AcDbEntity
  8
1
  6
Continuous
100
AcDbLine
 10
134.1347162848046
 20
335.1086759378283
 30
0.0
 11
135.0097163263649
 21
335.1086759378283
 31
0.0
  0
ARC
  5
5A4
330
18
100
AcDbEntity
  8
1
  6
Continuous
100
AcDbCircle
 10
134.7086395046305
 20
327.255342580242
 30
0.0
 40
0.3000000142492343
100
AcDbArc
 50
333.0000000000115
 51
61.06361230697046
  0
ARC
  5
5A5
330
18
100
AcDbEntity
  8
1
  6
Continuous
100
AcDbCircle
 10
139.0597165187294
 20
335.1336759390157
 30
0.0
 40
5.100000242236891
100
AcDbArc
 50
217.4280055430437
 51
232.5719944569506
  0
LINE
  5
5A6
330
18
100
AcDbEntity
  8
1
  6
Continuous
100
AcDbLine
 10
134.6510609835827
 20
326.4815315591787
 30
0.0
 11
134.9759414745833
 21
327.119145423851
 31
0.0
  0
LINE
  5
5A7
330
18
100
AcDbEntity
  8
1
  6
Continuous
100
AcDbLine
 10
139.0597165187296
 20
330.1836757039033
 30
0.0
 11
139.0597165187296
 21
331.083675746651
 31
0.0
  0
ARC
  5
5A8
330
18
100
AcDbEntity
  8
1
  6
Continuous
100
AcDbCircle
 10
139.0597165187296
 20
335.1336759390158
 30
0.0
 40
8.700000413227941
100
AcDbArc
 50
226.9111653222761
 51
241.0897043251646
  0
ARC
  5
5A9
330
18
100
AcDbEntity
  8
1
  6
Continuous
100
AcDbCircle
 10
139.0597165187296
 20
335.1336759390157
 30
0.0
 40
8.700000413227767
100
AcDbArc
 50
262.9104375970486
 51
277.089562332067
  0
LINE
  5
5AA
330
18
100
AcDbEntity
  8
1
  6
Continuous
100
AcDbLine
 10
147.5597169224778
 20
326.9489336484042
 30
0.0
 11
147.5597169224779
 21
327.4726052862984
 31
0.0
  0
LINE
  5
5AB
330
18
100
AcDbEntity
  8
1
  6
Continuous
100
AcDbLine
 10
147.9597169414777
 20
333.7239029958183
 30
0.0
 11
147.9597169414768
 21
327.3857726289213
 31
0.0
  0
ARC
  5
5AC
330
18
100
AcDbEntity
  8
1
  6
Continuous
100
AcDbCircle
 10
145.2079000561559
 20
328.5610169163316
 30
0.0
 40
0.3
100
AcDbArc
 50
45.00000001539034
 51
133.0888346777146
  0
LINE
  5
5AD
330
18
100
AcDbEntity
  8
1
  6
Continuous
100
AcDbLine
 10
145.420032090455
 20
328.7731489507447
 30
0.0
 11
145.9260453284141
 21
328.2671357130572
 31
0.0
  0
ARC
  5
5AE
330
18
100
AcDbEntity
  8
1
  6
Continuous
100
AcDbCircle
 10
147.6938123653453
 20
330.0349027499879
 30
0.0
 40
2.500000118743655
100
AcDbArc
 50
224.9999999999913
 51
253.9999999999984
  0
LINE
  5
5AF
330
18
100
AcDbEntity
  8
1
  6
Continuous
100
AcDbLine
 10
147.0047189430725
 20
327.6317483959984
 30
0.0
 11
147.8871281787281
 21
327.3787216193231
 31
0.0
  0
ARC
  5
5B0
330
18
100
AcDbEntity
  8
1
  6
Continuous
100
AcDbCircle
 10
139.0597165187459
 20
335.1336759390208
 30
0.0
 40
11.75000055810184
100
AcDbArc
 50
318.7004260953738
 51
319.2396282397343
  0
ARC
  5
5B1
330
18
100
AcDbEntity
  8
1
  6
Continuous
100
AcDbCircle
 10
147.8970135383276
 20
333.4300946870669
 30
0.0
 40
0.3000000142492324
100
AcDbArc
 50
81.00000000001463
 51
169.067731702734
  0
ARC
  5
5B2
330
18
100
AcDbEntity
  8
1
  6
Continuous
100
AcDbCircle
 10
147.8970135383276
 20
336.8372571909645
 30
0.0
 40
0.30000001424924
100
AcDbArc
 50
190.9322615163596
 51
278.9999999999853
  0
LINE
  5
5B3
330
18
100
AcDbEntity
  8
1
  6
Continuous
100
AcDbLine
 10
144.009716753842
 20
335.1336759390157
 30
0.0
 11
143.9847167526545
 21
335.1336759390157
 31
0.0
  0
LINE
  5
5B4
330
18
100
AcDbEntity
  8
1
  6
Continuous
100
AcDbLine
 10
143.9847167526545
 20
335.1586759402031
 30
0.0
 11
143.1097167110942
 21
335.1586759402031
 31
0.0
  0
ARC
  5
5B5
330
18
100
AcDbEntity
  8
1
  6
Continuous
100
AcDbCircle
 10
147.2105799279006
 20
331.3174692648926
 30
0.0
 40
0.3000000142492358
100
AcDbArc
 50
154.9322640890182
 51
243.000000000012
  0
ARC
  5
5B6
330
18
100
AcDbEntity
  8
1
  6
Continuous
100
AcDbCircle
 10
146.5770203329243
 20
328.497770387667
 30
0.0
 40
2.500000118743785
100
AcDbArc
 50
56.42152358582526
 51
62.99999999999752
  0
LINE
  5
5B7
330
18
100
AcDbEntity
  8
1
  6
Continuous
100
AcDbLine
 10
147.07438277151
 20
331.0501672949399
 30
0.0
 11
147.7119966361817
 21
330.7252868039392
 31
0.0
  0
ARC
  5
5B8
330
18
100
AcDbEntity
  8
1
  6
Continuous
100
AcDbCircle
 10
143.4107935328287
 20
327.255342580242
 30
0.0
 40
0.3000000142492411
100
AcDbArc
 50
118.9322639478662
 51
206.999999999988
  0
ARC
  5
5B9
330
18
100
AcDbEntity
  8
1
  6
Continuous
100
AcDbCircle
 10
139.0597165187293
 20
335.133675939016
 30
0.0
 40
8.700000413228217
100
AcDbArc
 50
298.9104378729215
 51
313.0895633971513
  0
ARC
  5
5BA
330
18
100
AcDbEntity
  8
1
  6
Continuous
100
AcDbCircle
 10
143.5097167300932
 20
330.6836757276522
 30
0.0
 40
0.5000000237487207
100
AcDbArc
 50
270.0
 51
359.9999999999996
  0
LINE
  5
5BB
330
18
100
AcDbEntity
  8
1
  6
Continuous
100
AcDbLine
 10
143.1434915628759
 20
327.119145423851
 30
0.0
 11
143.4683720538767
 21
326.4815315591789
 31
0.0
  0
ARC
  5
5BC
330
18
100
AcDbEntity
  8
1
  6
Continuous
100
AcDbCircle
 10
139.0597165187298
 20
335.1336759390156
 30
0.0
 40
5.100000242236736
100
AcDbArc
 50
307.428005543033
 51
322.5719944569663
  0
ARC
  5
5BD
330
18
100
AcDbEntity
  8
1
  6
Continuous
100
AcDbCircle
 10
139.0597165187296
 20
335.1336759390157
 30
0.0
 40
6.450000306358552
100
AcDbArc
 50
309.8752773570883
 51
320.1247226429122
  0
LINE
  5
5BE
330
18
100
AcDbEntity
  8
1
  6
Continuous
100
AcDbLine
 10
147.5597169224579
 20
330.8028771935231
 30
0.0
 11
147.5597169224579
 21
333.278952151822
 31
0.0
  0
ARC
  5
5BF
330
18
100
AcDbEntity
  8
1
  6
Continuous
100
AcDbCircle
 10
139.0597165187299
 20
335.1336759390156
 30
0.0
 40
8.700000413227476
100
AcDbArc
 50
334.9104378680542
 51
349.0895622770303
  0
LINE
  5
5C0
330
18
100
AcDbEntity
  8
1
  6
Continuous
100
AcDbLine
 10
144.009716753842
 20
330.6836757276522
 30
0.0
 11
144.009716753842
 21
335.1336759390157
 31
0.0
  0
LINE
  5
5C1
330
18
100
AcDbEntity
  8
1
  6
Continuous
100
AcDbLine
 10
143.9847167526545
 20
335.1586759402031
 30
0.0
 11
143.9847167526547
 21
330.9687177582095
 31
0.0
  0
LINE
  5
5C2
330
18
100
AcDbEntity
  8
1
  6
Continuous
100
AcDbLine
 10
147.809716934332
 20
333.7171126507564
 30
0.0
 11
147.809716934332
 21
330.672732383333
 31
0.0
  0
ARC
  5
5C3
330
18
100
AcDbEntity
  8
1
  6
Continuous
100
AcDbCircle
 10
132.9115329815326
 20
341.7063349813875
 30
0.0
 40
0.3000000142492313
100
AcDbArc
 50
225.0000000000078
 51
313.0677543182343
  0
ARC
  5
5C4
330
18
100
AcDbEntity
  8
1
  6
Continuous
100
AcDbCircle
 10
139.0597165187296
 20
335.1336759390157
 30
0.0
 40
11.6000080082267
100
AcDbArc
 50
112.6705855268285
 51
137.1181602527261
  0
ARC
  5
5C5
330
18
100
AcDbEntity
  8
1
  6
Continuous
100
AcDbCircle
 10
139.0597165187296
 20
354.1336768414673
 30
0.0
 40
6.500000308733433
100
AcDbArc
 50
180.0
 51
0.0
  0
LINE
  5
5C6
330
18
100
AcDbEntity
  8
1
  6
Continuous
100
AcDbLine
 10
128.8097160318807
 20
351.883676734598
 30
0.0
 11
128.8097160318807
 21
345.1336764139901
 31
0.0
  0
ARC
  5
5C7
330
18
100
AcDbEntity
  8
1
  6
Continuous
100
AcDbCircle
 10
139.059716518755
 20
335.1336759390107
 30
0.0
 40
11.75000055810184
100
AcDbArc
 50
138.7004260953906
 51
139.2396282397468
  0
LINE
  5
5C8
330
18
100
AcDbEntity
  8
1
  6
Continuous
100
AcDbLine
 10
131.1147140944265
 20
342.635603482031
 30
0.0
 11
130.2323048587709
 21
342.8886302587061
 31
0.0
  0
ARC
  5
5C9
330
18
100
AcDbEntity
  8
1
  6
Continuous
100
AcDbCircle
 10
130.4256206721543
 20
340.2324491280413
 30
0.0
 40
2.500000118743655
100
AcDbArc
 50
45.00000000000784
 51
74.00000000001203
  0
LINE
  5
5CA
330
18
100
AcDbEntity
  8
1
  6
Continuous
100
AcDbLine
 10
132.6994009371012
 20
341.494202936956
 30
0.0
 11
132.193387709085
 21
342.0002161649725
 31
0.0
  0
LINE
  5
5CB
330
18
100
AcDbEntity
  8
1
  6
Continuous
100
AcDbLine
 10
130.5597161150012
 20
336.9883997262097
 30
0.0
 11
130.5597161150012
 21
339.4644746845082
 31
0.0
  0
ARC
  5
5CC
330
18
100
AcDbEntity
  8
1
  6
Continuous
100
AcDbCircle
 10
130.9088531095584
 20
338.9498826131388
 30
0.0
 40
0.300000014249232
100
AcDbArc
 50
334.932271529974
 51
63.00000000001212
  0
ARC
  5
5CD
330
18
100
AcDbEntity
  8
1
  6
Continuous
100
AcDbCircle
 10
131.5424127045348
 20
341.7695814903644
 30
0.0
 40
2.500000118743785
100
AcDbArc
 50
236.4215235858253
 51
242.9999999999916
  0
LINE
  5
5CE
330
18
100
AcDbEntity
  8
1
  6
Continuous
100
AcDbLine
 10
131.0450502659491
 20
339.2171845830915
 30
0.0
 11
130.4074364012774
 21
339.5420650740922
 31
0.0
  0
LINE
  5
5CF
330
18
100
AcDbEntity
  8
1
  6
Continuous
100
AcDbLine
 10
130.1597164774721
 20
337.0336760292608
 30
0.0
 11
127.4136865993038
 21
337.0336760292608
 31
0.0
  0
LINE
  5
5D0
330
18
100
AcDbEntity
  8
1
  6
Continuous
100
AcDbLine
 10
130.5597161150012
 20
342.7947465917366
 30
0.0
 11
130.5597161150012
 21
343.3184182296262
 31
0.0
  0
LINE
  5
5D1
330
18
100
AcDbEntity
  8
1
  6
Continuous
100
AcDbLine
 10
125.559715877514
 20
345.1336764139901
 30
0.0
 11
128.8097160318807
 21
345.1336764139901
 31
0.0
  0
LINE
  5
5D2
330
18
100
AcDbEntity
  8
1
  6
Continuous
100
AcDbLine
 10
132.5597162099961
 20
357.8836770195827
 30
0.0
 11
130.8097161268756
 21
357.8836770195827
 31
0.0
  0
LINE
  5
5D3
330
18
100
AcDbEntity
  8
1
  6
Continuous
100
AcDbLine
 10
126.8097159368858
 20
351.883676734598
 30
0.0
 11
128.8097160318807
 21
351.883676734598
 31
0.0
  0
ARC
  5
5D4
330
18
100
AcDbEntity
  8
1
  6
Continuous
100
AcDbCircle
 10
143.0478631043934
 20
344.3336643049107
 30
0.0
 40
2.500000118743624
100
AcDbArc
 50
142.0000000000312
 51
171.0000000000075
  0
LINE
  5
5D5
330
18
100
AcDbEntity
  8
1
  6
Continuous
100
AcDbLine
 10
135.960119623542
 20
339.1836761313803
 30
0.0
 11
142.1593134139192
 21
339.1836761313805
 31
0.0
  0
ARC
  5
5D6
330
18
100
AcDbEntity
  8
1
  6
Continuous
100
AcDbCircle
 10
139.0597165187296
 20
335.1336759390157
 30
0.0
 40
11.6000080082267
100
AcDbArc
 50
76.67058552684721
 51
103.3294144731527
  0
ARC
  5
5D7
330
18
100
AcDbEntity
  8
1
  6
Continuous
100
AcDbCircle
 10
140.1703894314207
 20
344.0648804140912
 30
0.0
 40
0.3000000142492324
100
AcDbArc
 50
262.9322987356281
 51
350.9999999999982
  0
LINE
  5
5D8
330
18
100
AcDbEntity
  8
1
  6
Continuous
100
AcDbLine
 10
140.4666959476728
 20
344.01795007235
 30
0.0
 11
140.5786421356235
 21
344.7247504860866
 31
0.0
  0
ARC
  5
5D9
330
18
100
AcDbEntity
  8
1
  6
Continuous
100
AcDbCircle
 10
137.9490436060384
 20
344.0648804140912
 30
0.0
 40
0.3000000142492285
100
AcDbArc
 50
189.0000000000011
 51
277.0677277033986
  0
ARC
  5
5DA
330
18
100
AcDbEntity
  8
1
  6
Continuous
100
AcDbCircle
 10
135.0715699330658
 20
344.3336643049107
 30
0.0
 40
2.500000118743665
100
AcDbArc
 50
8.999999999994527
 51
37.99999999997071
  0
ARC
  5
5DB
330
18
100
AcDbEntity
  8
1
  6
Continuous
100
AcDbCircle
 10
136.0907634855549
 20
345.4655600297639
 30
0.0
 40
1.000000047497447
100
AcDbArc
 50
38.0000000000949
 51
106.0324460216094
  0
ARC
  5
5DC
330
18
100
AcDbEntity
  8
1
  6
Continuous
100
AcDbCircle
 10
136.878577399855
 20
344.92079662211
 30
0.0
 40
2.500000118743666
100
AcDbArc
 50
178.0000000000051
 51
206.9999999999998
  0
ARC
  5
5DD
330
18
100
AcDbEntity
  8
1
  6
Continuous
100
AcDbCircle
 10
139.0597165187259
 20
335.1336759390268
 30
0.0
 40
11.75000055808343
100
AcDbArc
 50
106.0324460215753
 51
109.9675539784325
  0
ARC
  5
5DE
330
18
100
AcDbEntity
  8
1
  6
Continuous
100
AcDbCircle
 10
135.3887208811316
 20
345.2374525599893
 30
0.0
 40
1.000000047497469
100
AcDbArc
 50
109.9675539784044
 51
177.9999999997852
  0
LINE
  5
5DF
330
18
100
AcDbEntity
  8
1
  6
Continuous
100
AcDbLine
 10
137.5407909018354
 20
344.7247504860866
 30
0.0
 11
137.6527370897862
 21
344.01795007235
 31
0.0
  0
LINE
  5
5E0
330
18
100
AcDbEntity
  8
1
  6
Continuous
100
AcDbLine
 10
136.8787742765891
 20
346.0812215343331
 30
0.0
 11
137.0415969106544
 21
345.8728180663297
 31
0.0
  0
LINE
  5
5E1
330
18
100
AcDbEntity
  8
1
  6
Continuous
100
AcDbLine
 10
134.3801002136358
 20
345.0080453680101
 30
0.0
 11
134.3893300066442
 21
345.2723520583532
 31
0.0
  0
ARC
  5
5E2
330
18
100
AcDbEntity
  8
1
  6
Continuous
100
AcDbCircle
 10
134.7086395046305
 20
343.0120092977894
 30
0.0
 40
0.3000000142492427
100
AcDbArc
 50
298.9211908111088
 51
26.99999999998806
  0
ARC
  5
5E3
330
18
100
AcDbEntity
  8
1
  6
Continuous
100
AcDbCircle
 10
139.0597165187298
 20
335.1336759390154
 30
0.0
 40
8.700000413228238
100
AcDbArc
 50
118.9108197052575
 51
133.0895625072623
  0
ARC
  5
5E4
330
18
100
AcDbEntity
  8
1
  6
Continuous
100
AcDbCircle
 10
134.6097163073659
 20
339.5836761503793
 30
0.0
 40
0.5000000237487207
100
AcDbArc
 50
90.0
 51
179.9999999999995
  0
LINE
  5
5E5
330
18
100
AcDbEntity
  8
1
  6
Continuous
100
AcDbLine
 10
139.0597165187296
 20
340.0836761741282
 30
0.0
 11
134.6097163073659
 21
340.0836761741282
 31
0.0
  0
ARC
  5
5E6
330
18
100
AcDbEntity
  8
1
  6
Continuous
100
AcDbCircle
 10
139.0597165187293
 20
335.1336759390159
 30
0.0
 40
5.100000242236736
100
AcDbArc
 50
127.4280055430325
 51
142.5719944569663
  0
ARC
  5
5E7
330
18
100
AcDbEntity
  8
1
  6
Continuous
100
AcDbCircle
 10
139.0597165187296
 20
335.1336759390157
 30
0.0
 40
6.450000306358552
100
AcDbArc
 50
129.8752773570884
 51
140.1247226429122
  0
LINE
  5
5E8
330
18
100
AcDbEntity
  8
1
  6
Continuous
100
AcDbLine
 10
139.0597165187393
 20
340.0836761741282
 30
0.0
 11
139.0597165187296
 21
339.1836761313804
 31
0.0
  0
LINE
  5
5E9
330
18
100
AcDbEntity
  8
1
  6
Continuous
100
AcDbLine
 10
134.8947583379235
 20
340.0586761729406
 30
0.0
 11
139.0597165187296
 21
340.0586761729406
 31
0.0
  0
LINE
  5
5EA
330
18
100
AcDbEntity
  8
1
  6
Continuous
100
AcDbLine
 10
134.9759414745833
 20
343.1482064541804
 30
0.0
 11
134.6510609835823
 21
343.7858203188525
 31
0.0
  0
ARC
  5
5EB
330
18
100
AcDbEntity
  8
1
  6
Continuous
100
AcDbCircle
 10
139.0597165187296
 20
335.1336759390157
 30
0.0
 40
8.700000413227908
100
AcDbArc
 50
82.91043667334179
 51
97.08956241494364
  0
ARC
  5
5EC
330
18
100
AcDbEntity
  8
1
  6
Continuous
100
AcDbCircle
 10
141.2408556376041
 20
344.92079662211
 30
0.0
 40
2.500000118743645
100
AcDbArc
 50
333.000000000002
 51
1.999999999996758
  0
ARC
  5
5ED
330
18
100
AcDbEntity
  8
1
  6
Continuous
100
AcDbCircle
 10
142.0286695519042
 20
345.4655600297639
 30
0.0
 40
1.000000047497464
100
AcDbArc
 50
73.96755397839024
 51
141.9999999999054
  0
ARC
  5
5EE
330
18
100
AcDbEntity
  8
1
  6
Continuous
100
AcDbCircle
 10
142.7307121563275
 20
345.2374525599893
 30
0.0
 40
1.000000047497447
100
AcDbArc
 50
2.000000000215165
 51
70.03244602160169
  0
ARC
  5
5EF
330
18
100
AcDbEntity
  8
1
  6
Continuous
100
AcDbCircle
 10
139.059716518726
 20
335.1336759390053
 30
0.0
 40
11.75000055810602
100
AcDbArc
 50
70.03244602156785
 51
73.96755397842413
  0
LINE
  5
5F0
330
18
100
AcDbEntity
  8
1
  6
Continuous
100
AcDbLine
 10
141.0778361268052
 20
345.8728180663291
 30
0.0
 11
141.2406587608712
 21
346.0812215343322
 31
0.0
  0
LINE
  5
5F1
330
18
100
AcDbEntity
  8
1
  6
Continuous
100
AcDbLine
 10
143.7301030308144
 20
345.2723520583532
 30
0.0
 11
143.739332823823
 21
345.0080453680102
 31
0.0
  0
LINE
  5
5F2
330
18
100
AcDbEntity
  8
1
  6
Continuous
100
AcDbLine
 10
147.5597169224579
 20
342.794746591732
 30
0.0
 11
147.5597169224579
 21
343.3184182296267
 31
0.0
  0
LINE
  5
5F3
330
18
100
AcDbEntity
  8
1
  6
Continuous
100
AcDbLine
 10
147.5597169224579
 20
336.9883997262097
 30
0.0
 11
147.5597169224579
 21
339.4644746845088
 31
0.0
  0
ARC
  5
5F4
330
18
100
AcDbEntity
  8
1
  6
Continuous
100
AcDbCircle
 10
147.2105799279006
 20
338.9498826131388
 30
0.0
 40
0.3000000142492387
100
AcDbArc
 50
116.9999999999872
 51
205.067739924598
  0
ARC
  5
5F5
330
18
100
AcDbEntity
  8
1
  6
Continuous
100
AcDbCircle
 10
147.6938123653251
 20
340.2324491280424
 30
0.0
 40
2.500000118743655
100
AcDbArc
 50
105.9999999999947
 51
135.0000000000003
  0
ARC
  5
5F6
330
18
100
AcDbEntity
  8
1
  6
Continuous
100
AcDbCircle
 10
146.5770203329245
 20
341.7695814903652
 30
0.0
 40
2.500000118743443
100
AcDbArc
 50
296.9999999999952
 51
303.5784764141669
  0
ARC
  5
5F7
330
18
100
AcDbEntity
  8
1
  6
Continuous
100
AcDbCircle
 10
139.059716518725
 20
335.1336759390107
 30
0.0
 40
11.75000055810184
100
AcDbArc
 50
40.76037176025722
 51
41.29957390461772
  0
LINE
  5
5F8
330
18
100
AcDbEntity
  8
1
  6
Continuous
100
AcDbLine
 10
147.7119966361817
 20
339.5420650740931
 30
0.0
 11
147.0743827715099
 21
339.2171845830918
 31
0.0
  0
LINE
  5
5F9
330
18
100
AcDbEntity
  8
1
  6
Continuous
100
AcDbLine
 10
147.0047189430525
 20
342.6356034820321
 30
0.0
 11
147.8871281787082
 21
342.8886302587073
 31
0.0
  0
ARC
  5
5FA
330
18
100
AcDbEntity
  8
1
  6
Continuous
100
AcDbCircle
 10
143.4107935328287
 20
343.0120092977894
 30
0.0
 40
0.3000000142492363
100
AcDbArc
 50
153.0000000000118
 51
241.0677486063498
  0
ARC
  5
5FB
330
18
100
AcDbEntity
  8
1
  6
Continuous
100
AcDbCircle
 10
145.2079000559466
 20
341.7063349813883
 30
0.0
 40
0.3000000142492313
100
AcDbArc
 50
226.9322456817689
 51
315.0000000000003
  0
ARC
  5
5FC
330
18
100
AcDbEntity
  8
1
  6
Continuous
100
AcDbCircle
 10
139.0597165187296
 20
335.1336759390158
 30
0.0
 40
8.700000413227664
100
AcDbArc
 50
46.91043850278119
 51
61.08956169414778
  0
ARC
  5
5FD
330
18
100
AcDbEntity
  8
1
  6
Continuous
100
AcDbCircle
 10
139.0597165187296
 20
335.1336759390158
 30
0.0
 40
5.100000242236891
100
AcDbArc
 50
37.42800554304907
 51
52.57199445695062
  0
LINE
  5
5FE
330
18
100
AcDbEntity
  8
1
  6
Continuous
100
AcDbLine
 10
145.420032100378
 20
341.4942029369568
 30
0.0
 11
145.9260453283941
 21
342.0002161649733
 31
0.0
  0
ARC
  5
5FF
330
18
100
AcDbEntity
  8
1
  6
Continuous
100
AcDbCircle
 10
139.0597165187296
 20
335.1336759390157
 30
0.0
 40
11.6000080082267
100
AcDbArc
 50
42.88183974727387
 51
67.3294144731714
  0
LINE
  5
600
330
18
100
AcDbEntity
  8
1
  6
Continuous
100
AcDbLine
 10
143.4683720538764
 20
343.7858203188527
 30
0.0
 11
143.1434915628758
 21
343.1482064541804
 31
0.0
  0
CIRCLE
  5
601
330
18
100
AcDbEntity
  8
1
  6
Continuous
100
AcDbCircle
 10
139.0597165187296
 20
354.1336768414673
 30
0.0
 40
2.200000104494404
  0
LINE
  5
602
330
18
100
AcDbEntity
  8
1
  6
Continuous
100
AcDbLine
 10
147.3097169105835
 20
357.8836770195827
 30
0.0
 11
145.559716827463
 21
357.8836770195827
 31
0.0
  0
LINE
  5
603
330
18
100
AcDbEntity
  8
1
  6
Continuous
100
AcDbLine
 10
60.97440829001016
 20
362.133677221447
 30
0.0
 11
38.97440724506623
 21
362.133677221447
 31
0.0
  0
LINE
  5
604
330
18
100
AcDbEntity
  8
1
  6
Continuous
100
AcDbLine
 10
38.97440724506623
 20
359.8836771145776
 30
0.0
 11
38.27440721181801
 21
359.8836771145776
 31
0.0
  0
LINE
  5
605
330
18
100
AcDbEntity
  8
1
  6
Continuous
100
AcDbLine
 10
54.97440810002036
 20
400.1121308068801
 30
0.0
 11
44.97440743505602
 21
400.1121308068801
 31
0.0
  0
LINE
  5
606
330
18
100
AcDbEntity
  8
1
  6
Continuous
100
AcDbLine
 10
60.97440829001016
 20
359.8836771145776
 30
0.0
 11
61.67440832325837
 21
359.8836771145776
 31
0.0
  0
LINE
  5
607
330
18
100
AcDbEntity
  8
1
  6
Continuous
100
AcDbLine
 10
54.97440810002036
 20
403.1767756077819
 30
0.0
 11
44.97440743505602
 21
403.1767756077819
 31
0.0
  0
ARC
  5
608
330
18
100
AcDbEntity
  8
1
  6
Continuous
100
AcDbCircle
 10
146.5597164887411
 20
407.0497591379463
 30
0.0
 40
6.000000284984798
100
AcDbArc
 50
180.0000000000004
 51
260.4059317731351
  0
LINE
  5
609
330
18
100
AcDbEntity
  8
1
  6
Continuous
100
AcDbLine
 10
148.059716559987
 20
398.1756390417981
 30
0.0
 11
148.059716559987
 21
362.133677221447
 31
0.0
  0
LINE
  5
60A
330
18
100
AcDbEntity
  8
1
  6
Continuous
100
AcDbLine
 10
133.0688899138806
 20
362.133677221447
 30
0.0
 11
126.5597159250114
 21
362.133677221447
 31
0.0
  0
LINE
  5
60B
330
18
100
AcDbEntity
  8
1
  6
Continuous
100
AcDbLine
 10
126.8097159368858
 20
359.8836771145776
 30
0.0
 11
132.5597162099961
 21
359.8836771145776
 31
0.0
  0
ARC
  5
60C
330
18
100
AcDbEntity
  8
1
  6
Continuous
100
AcDbCircle
 10
126.5597159250115
 20
361.1336771739494
 30
0.0
 40
1.000000047497444
100
AcDbArc
 50
90.0
 51
180.0
  0
ARC
  5
60D
330
18
100
AcDbEntity
  8
1
  6
Continuous
100
AcDbCircle
 10
139.0597165187296
 20
363.6336772926931
 30
0.0
 40
5.200000246986749
100
AcDbArc
 50
206.600134961002
 51
333.3998650389976
  0
ARC
  5
60E
330
18
100
AcDbEntity
  8
1
  6
Continuous
100
AcDbCircle
 10
133.0688899138806
 20
360.6336771502006
 30
0.0
 40
1.500000071246176
100
AcDbArc
 50
26.60013496090299
 51
90.0
  0
ARC
  5
60F
330
18
100
AcDbEntity
  8
1
  6
Continuous
100
AcDbCircle
 10
145.0505431235785
 20
360.6336771502006
 30
0.0
 40
1.500000071246164
100
AcDbArc
 50
90.0
 51
153.3998650390969
  0
ARC
  5
610
330
18
100
AcDbEntity
  8
1
  6
Continuous
100
AcDbCircle
 10
146.5597164887409
 20
407.0497591379463
 30
0.0
 40
3.000000142492333
100
AcDbArc
 50
180.0000000000004
 51
260.4059317731416
  0
LINE
  5
611
330
18
100
AcDbEntity
  8
4
  6
CENTER
 48
0.2
100
AcDbLine
 10
139.0597165187391
 20
509.7721486320916
 30
0.0
 11
139.0597165187393
 21
539.1721497435321
 31
0.0
  0
LINE
  5
612
330
18
100
AcDbEntity
  8
1
  6
Continuous
100
AcDbLine
 10
125.5597158775141
 20
513.4721486653399
 30
0.0
 11
125.5597158775141
 21
535.4721497102838
 31
0.0
  0
LINE
  5
613
330
18
100
AcDbEntity
  8
1
  6
Continuous
100
AcDbLine
 10
130.5597161150012
 20
518.4721489028271
 30
0.0
 11
130.5597161150012
 21
530.4721494727964
 31
0.0
  0
LINE
  5
614
330
18
100
AcDbEntity
  8
1
  6
Continuous
100
AcDbLine
 10
126.759715934511
 20
530.4721494727964
 30
0.0
 11
126.759715934511
 21
518.4721489028271
 31
0.0
  0
LINE
  5
615
330
18
100
AcDbEntity
  8
1
  6
Continuous
100
AcDbLine
 10
122.0597160974923
 20
531.4721495202941
 30
0.0
 11
122.0597160974923
 21
517.4721488553297
 31
0.0
  0
LINE
  5
616
330
18
100
AcDbEntity
  8
1
  6
Continuous
100
AcDbLine
 10
130.0597164774721
 20
531.4721495202941
 30
0.0
 11
130.0597164774721
 21
517.4721488553297
 31
0.0
  0
LINE
  5
617
330
18
100
AcDbEntity
  8
1
  6
Continuous
100
AcDbLine
 10
127.0597159487601
 20
531.6221495274186
 30
0.0
 11
127.0597159487601
 21
517.3221488482051
 31
0.0
  0
LINE
  5
618
330
18
100
AcDbEntity
  8
1
  6
Continuous
100
AcDbLine
 10
140.5597162037563
 20
531.4721495202941
 30
0.0
 11
140.5597162037563
 21
517.4721488553297
 31
0.0
  0
LINE
  5
619
330
18
100
AcDbEntity
  8
1
  6
Continuous
100
AcDbLine
 10
143.5597163462485
 20
531.4721495202941
 30
0.0
 11
143.5597163462485
 21
517.4721488553297
 31
0.0
  0
LINE
  5
61A
330
18
100
AcDbEntity
  8
4
  6
CENTER
 48
0.2
100
AcDbLine
 10
39.97440743505603
 20
458.633681804951
 30
0.0
 11
59.97440810002036
 21
458.633681804951
 31
0.0
  0
LINE
  5
61B
330
18
100
AcDbEntity
  8
1
  6
Continuous
100
AcDbLine
 10
42.97440743505602
 20
466.1336821611818
 30
0.0
 11
56.97440810002035
 21
466.1336821611818
 31
0.0
  0
LINE
  5
61C
330
18
100
AcDbEntity
  8
1
  6
Continuous
100
AcDbLine
 10
46.75680330249304
 20
453.9893815843583
 30
0.0
 11
48.26936156406168
 21
456.1726128497847
 31
0.0
  0
ARC
  5
61D
330
18
100
AcDbEntity
  8
1
  6
Continuous
100
AcDbCircle
 10
49.97440776753818
 20
458.633681804951
 30
0.0
 40
4.07500019355212
100
AcDbArc
 50
277.0479175841976
 51
345.9247960486506
  0
ARC
  5
61E
330
18
100
AcDbEntity
  8
1
  6
Continuous
100
AcDbCircle
 10
49.97440776753818
 20
458.6336818049509
 30
0.0
 40
5.650000268360598
100
AcDbArc
 50
235.2855054756561
 51
124.7144945243493
  0
CIRCLE
  5
61F
330
18
100
AcDbEntity
  8
1
  6
Continuous
100
AcDbCircle
 10
49.97440776753818
 20
458.6336818049509
 30
0.0
 40
3.000000142492408
  0
CIRCLE
  5
620
330
18
100
AcDbEntity
  8
1
  6
Continuous
100
AcDbCircle
 10
49.97440776753818
 20
458.6336818049509
 30
0.0
 40
2.500000118743598
  0
LINE
  5
621
330
18
100
AcDbEntity
  8
1
  6
Continuous
100
AcDbLine
 10
48.26936162634115
 20
461.0947506702226
 30
0.0
 11
46.75680330249292
 21
463.2779820255432
 31
0.0
  0
LINE
  5
622
330
18
100
AcDbEntity
  8
1
  6
Continuous
100
AcDbLine
 10
50.47440779128693
 20
462.6778908195421
 30
0.0
 11
50.47440779128693
 21
461.5917218369999
 31
0.0
  0
ARC
  5
623
330
18
100
AcDbEntity
  8
1
  6
Continuous
100
AcDbCircle
 10
49.97440776753818
 20
458.633681804951
 30
0.0
 40
4.075000193552115
100
AcDbArc
 50
14.07520395135189
 51
82.95208241580242
  0
LINE
  5
624
330
18
100
AcDbEntity
  8
1
  6
Continuous
100
AcDbLine
 10
53.92706567438107
 20
457.6426610943086
 30
0.0
 11
52.90178326873558
 21
457.9775769886727
 31
0.0
  0
LINE
  5
625
330
18
100
AcDbEntity
  8
1
  6
Continuous
100
AcDbLine
 10
50.47440779128693
 20
455.6756417729017
 30
0.0
 11
50.47440779128693
 21
454.5894727903594
 31
0.0
  0
LINE
  5
626
330
18
100
AcDbEntity
  8
1
  6
Continuous
100
AcDbLine
 10
52.90178326873546
 20
459.2897866212291
 30
0.0
 11
53.9270656743812
 21
459.6247025155933
 31
0.0
  0
LINE
  5
627
330
18
100
AcDbEntity
  8
4
  6
CENTER
 48
0.2
100
AcDbLine
 10
148.0597164174947
 20
458.633681804951
 30
0.0
 11
129.0597158000278
 21
458.633681804951
 31
0.0
  0
LINE
  5
628
330
18
100
AcDbEntity
  8
1
  6
Continuous
100
AcDbLine
 10
132.5597158237767
 20
455.6336816624585
 30
0.0
 11
133.8597158855232
 21
455.6336816624585
 31
0.0
  0
LINE
  5
629
330
18
100
AcDbEntity
  8
1
  6
Continuous
100
AcDbLine
 10
133.8597158855232
 20
461.6336819474433
 30
0.0
 11
132.5597158237767
 21
461.6336819474433
 31
0.0
  0
LINE
  5
62A
330
18
100
AcDbEntity
  8
1
  6
Continuous
100
AcDbLine
 10
132.0597158000278
 20
456.1336816862072
 30
0.0
 11
132.0597158000278
 21
461.1336819236943
 31
0.0
  0
LINE
  5
62B
330
18
100
AcDbEntity
  8
1
  6
Continuous
100
AcDbLine
 10
132.059615800028
 20
456.1337816862073
 30
0.0
 11
132.5597158237767
 21
455.6336816624585
 31
0.0
  0
LINE
  5
62C
330
18
100
AcDbEntity
  8
1
  6
Continuous
100
AcDbLine
 10
132.5597158237767
 20
461.6336819474431
 30
0.0
 11
132.0597158000278
 21
461.1336819236943
 31
0.0
  0
LINE
  5
62D
330
18
100
AcDbEntity
  8
1
  6
Continuous
100
AcDbLine
 10
132.5597158237767
 20
461.6336819474433
 30
0.0
 11
132.5597158237767
 21
455.6336816624586
 31
0.0
  0
LINE
  5
62E
330
18
100
AcDbEntity
  8
1
  6
Continuous
100
AcDbLine
 10
135.0597161332551
 20
464.2836820733116
 30
0.0
 11
135.0597161332551
 21
452.9836815365903
 31
0.0
  0
LINE
  5
62F
330
18
100
AcDbEntity
  8
1
  6
Continuous
100
AcDbLine
 10
134.359716100007
 20
464.2836820733116
 30
0.0
 11
134.359716100007
 21
452.9836815365903
 31
0.0
  0
LINE
  5
630
330
18
100
AcDbEntity
  8
1
  6
Continuous
100
AcDbLine
 10
134.359716100007
 20
452.9836815365903
 30
0.0
 11
135.0597161332551
 21
452.9836815365903
 31
0.0
  0
LINE
  5
631
330
18
100
AcDbEntity
  8
1
  6
Continuous
100
AcDbLine
 10
135.0597161332551
 20
464.2836820733116
 30
0.0
 11
134.359716100007
 21
464.2836820733116
 31
0.0
  0
LINE
  5
632
330
18
100
AcDbEntity
  8
1
  6
Continuous
100
AcDbLine
 10
133.8597158855232
 20
456.1336816862072
 30
0.0
 11
134.359716100007
 21
456.1336816862072
 31
0.0
  0
LINE
  5
633
330
18
100
AcDbEntity
  8
1
  6
Continuous
100
AcDbLine
 10
134.359716100007
 20
461.1336819236946
 30
0.0
 11
133.8597158855232
 21
461.1336819236946
 31
0.0
  0
LINE
  5
634
330
18
100
AcDbEntity
  8
1
  6
Continuous
100
AcDbLine
 10
133.8597158855232
 20
461.6336819474433
 30
0.0
 11
133.8597158855232
 21
455.6336816624586
 31
0.0
  0
LINE
  5
635
330
18
100
AcDbEntity
  8
1
  6
Continuous
100
AcDbLine
 10
135.0597159425203
 20
455.6336816624585
 30
0.0
 11
140.5597162037563
 21
455.6336816624585
 31
0.0
  0
LINE
  5
636
330
18
100
AcDbEntity
  8
1
  6
Continuous
100
AcDbLine
 10
140.5597162037563
 20
461.6336819474433
 30
0.0
 11
135.0597159425203
 21
461.6336819474433
 31
0.0
  0
LINE
  5
637
330
18
100
AcDbEntity
  8
1
  6
Continuous
100
AcDbLine
 10
143.5597163462485
 20
456.1836816885821
 30
0.0
 11
145.0597164174947
 21
456.1836816885821
 31
0.0
  0
LINE
  5
638
330
18
100
AcDbEntity
  8
1
  6
Continuous
100
AcDbLine
 10
145.0597164174947
 20
461.0836819213196
 30
0.0
 11
143.5597163462485
 21
461.0836819213196
 31
0.0
  0
LINE
  5
639
330
18
100
AcDbEntity
  8
1
  6
Continuous
100
AcDbLine
 10
145.0597164174947
 20
461.0836819213196
 30
0.0
 11
145.0597164174947
 21
456.1836816885821
 31
0.0
  0
LINE
  5
63A
330
18
100
AcDbEntity
  8
1
  6
Continuous
100
AcDbLine
 10
143.5597163462485
 20
466.1336821611818
 30
0.0
 11
140.5597162037563
 21
466.1336821611818
 31
0.0
  0
LINE
  5
63B
330
18
100
AcDbEntity
  8
1
  6
Continuous
100
AcDbLine
 10
134.359716100007
 20
519.4721489503246
 30
0.0
 11
132.5597162099961
 21
519.4721489503246
 31
0.0
  0
LINE
  5
63C
330
18
100
AcDbEntity
  8
1
  6
Continuous
100
AcDbLine
 10
132.5597158237767
 20
521.4721490453196
 30
0.0
 11
133.8597158855232
 21
521.4721490453196
 31
0.0
  0
LINE
  5
63D
330
18
100
AcDbEntity
  8
1
  6
Continuous
100
AcDbLine
 10
133.8597158855232
 20
527.4721493303042
 30
0.0
 11
132.5597158237769
 21
527.4721493303042
 31
0.0
  0
LINE
  5
63E
330
18
100
AcDbEntity
  8
1
  6
Continuous
100
AcDbLine
 10
132.5597162099961
 20
515.5721487650845
 30
0.0
 11
145.559716827463
 21
515.5721487650845
 31
0.0
  0
LINE
  5
63F
330
18
100
AcDbEntity
  8
1
  6
Continuous
100
AcDbLine
 10
130.259716100752
 20
517.3221488482051
 30
0.0
 11
130.259716100752
 21
518.4721489028271
 31
0.0
  0
LINE
  5
641
330
18
100
AcDbEntity
  8
1
  6
Continuous
100
AcDbLine
 10
132.5597162099961
 20
512.7721486320917
 30
0.0
 11
132.5597162099961
 21
519.4721489503246
 31
0.0
  0
LINE
  5
642
330
18
100
AcDbEntity
  8
1
  6
Continuous
100
AcDbLine
 10
122.0597160974923
 20
517.4721488553297
 30
0.0
 11
125.5597158775141
 21
517.4721488553297
 31
0.0
  0
LINE
  5
643
330
18
100
AcDbEntity
  8
1
  6
Continuous
100
AcDbLine
 10
128.8097160318807
 20
513.4721486653399
 30
0.0
 11
128.8097160318807
 21
512.7721486320917
 31
0.0
  0
LINE
  5
644
330
18
100
AcDbEntity
  8
1
  6
Continuous
100
AcDbLine
 10
126.8097159368858
 20
513.4721486653399
 30
0.0
 11
126.8097159368858
 21
512.7721486320917
 31
0.0
  0
LINE
  5
645
330
18
100
AcDbEntity
  8
1
  6
Continuous
100
AcDbLine
 10
126.8097159368858
 20
512.7721486320917
 30
0.0
 11
128.8097160318807
 21
512.7721486320917
 31
0.0
  0
LINE
  5
646
330
18
100
AcDbEntity
  8
1
  6
Continuous
100
AcDbLine
 10
130.8097161268756
 20
513.4721486653399
 30
0.0
 11
130.8097161268756
 21
512.7721486320917
 31
0.0
  0
LINE
  5
647
330
18
100
AcDbEntity
  8
1
  6
Continuous
100
AcDbLine
 10
130.8097161268756
 20
512.7721486320917
 30
0.0
 11
132.5597162099961
 21
512.7721486320917
 31
0.0
  0
LINE
  5
648
330
18
100
AcDbEntity
  8
1
  6
Continuous
100
AcDbLine
 10
127.0597159487601
 20
517.3221488482051
 30
0.0
 11
130.259716100752
 21
517.3221488482051
 31
0.0
  0
LINE
  5
649
330
18
100
AcDbEntity
  8
1
  6
Continuous
100
AcDbLine
 10
130.259716100752
 20
517.4721488553297
 30
0.0
 11
127.0597159487601
 21
517.4721488553297
 31
0.0
  0
LINE
  5
64A
330
18
100
AcDbEntity
  8
1
  6
Continuous
100
AcDbLine
 10
132.5597162099961
 20
513.4721486653399
 30
0.0
 11
125.5597158775141
 21
513.4721486653399
 31
0.0
  0
ARC
  5
64B
330
18
100
AcDbEntity
  8
1
  6
Continuous
100
AcDbCircle
 10
130.7894920869349
 20
525.8298893879108
 30
0.0
 40
0.8883808665480318
100
AcDbArc
 50
241.6679594929937
 51
255.0102766593041
  0
ARC
  5
64C
330
18
100
AcDbEntity
  8
1
  6
Continuous
100
AcDbCircle
 10
130.4028989118969
 20
525.1365369602758
 30
0.0
 40
0.0952785010941197
100
AcDbArc
 50
192.0393545563767
 51
248.4383399386492
  0
ARC
  5
64D
330
18
100
AcDbEntity
  8
1
  6
Continuous
100
AcDbCircle
 10
131.0197513584041
 20
527.155400225341
 30
0.0
 40
1.641802938435608
100
AcDbArc
 50
247.3643440693864
 51
253.7277834161496
  0
ARC
  5
64E
330
18
100
AcDbEntity
  8
1
  6
Continuous
100
AcDbCircle
 10
130.4579840694948
 20
525.7849554419655
 30
0.0
 40
0.1609639506458768
100
AcDbArc
 50
202.9661950335298
 51
244.1776517632546
  0
LINE
  5
64F
330
18
100
AcDbEntity
  8
1
  6
Continuous
100
AcDbLine
 10
130.0597164774721
 20
523.22214912844
 30
0.0
 11
130.5597161150012
 21
523.22214912844
 31
0.0
  0
LINE
  5
650
330
18
100
AcDbEntity
  8
1
  6
Continuous
100
AcDbLine
 10
130.5597161150012
 20
520.7221490096962
 30
0.0
 11
130.0597164774721
 21
520.7221490096962
 31
0.0
  0
LINE
  5
651
330
18
100
AcDbEntity
  8
1
  6
Continuous
100
AcDbLine
 10
130.5597161150012
 20
525.7221492471837
 30
0.0
 11
130.0597164774721
 21
525.7221492471837
 31
0.0
  0
LINE
  5
652
330
18
100
AcDbEntity
  8
1
  6
Continuous
100
AcDbLine
 10
130.5597161150091
 20
528.2221493659107
 30
0.0
 11
130.0597164774721
 21
528.222149365912
 31
0.0
  0
LINE
  5
653
330
18
100
AcDbEntity
  8
1
  6
Continuous
100
AcDbLine
 10
130.232304858751
 20
528.2221493659124
 30
0.0
 11
130.232304858751
 21
525.7221492471837
 31
0.0
  0
LINE
  5
654
330
18
100
AcDbEntity
  8
1
  6
Continuous
100
AcDbLine
 10
130.3097161031269
 20
525.116663437174
 30
0.0
 11
130.3097161031269
 21
525.7222791081351
 31
0.0
  0
LINE
  5
655
330
18
100
AcDbEntity
  8
1
  6
Continuous
100
AcDbLine
 10
132.0597158000278
 20
526.9721493065556
 30
0.0
 11
132.0597158000278
 21
521.9721490690682
 31
0.0
  0
LINE
  5
656
330
18
100
AcDbEntity
  8
1
  6
Continuous
100
AcDbLine
 10
132.059615800028
 20
521.9722490690683
 30
0.0
 11
132.5597158237767
 21
521.4721490453196
 31
0.0
  0
LINE
  5
657
330
18
100
AcDbEntity
  8
1
  6
Continuous
100
AcDbLine
 10
132.5597158237767
 20
527.4721493303042
 30
0.0
 11
132.0597158000278
 21
526.9721493065556
 31
0.0
  0
LINE
  5
658
330
18
100
AcDbEntity
  8
1
  6
Continuous
100
AcDbLine
 10
132.5597158237769
 20
527.4721493303042
 30
0.0
 11
132.5597158237769
 21
521.4721490453196
 31
0.0
  0
LINE
  5
659
330
18
100
AcDbEntity
  8
1
  6
Continuous
100
AcDbLine
 10
130.259716100752
 20
518.4721489028271
 30
0.0
 11
130.5597161150012
 21
518.4721489028271
 31
0.0
  0
LINE
  5
65A
330
18
100
AcDbEntity
  8
1
  6
Continuous
100
AcDbLine
 10
126.759715934511
 20
518.4721489028271
 30
0.0
 11
127.0597159487601
 21
518.4721489028271
 31
0.0
  0
LINE
  5
65B
330
18
100
AcDbEntity
  8
1
  6
Continuous
100
AcDbLine
 10
147.3097169105835
 20
513.4721486653399
 30
0.0
 11
147.3097169105835
 21
512.7721486320917
 31
0.0
  0
LINE
  5
65C
330
18
100
AcDbEntity
  8
1
  6
Continuous
100
AcDbLine
 10
147.8597169367071
 20
517.4721488553297
 30
0.0
 11
147.8597169367071
 21
517.3221488482051
 31
0.0
  0
LINE
  5
65D
330
18
100
AcDbEntity
  8
1
  6
Continuous
100
AcDbLine
 10
145.559716827463
 20
512.7721486320917
 30
0.0
 11
145.559716827463
 21
517.4721488553297
 31
0.0
  0
LINE
  5
65E
330
18
100
AcDbEntity
  8
1
  6
Continuous
100
AcDbLine
 10
145.559716827463
 20
512.7721486320917
 30
0.0
 11
147.3097169105835
 21
512.7721486320917
 31
0.0
  0
LINE
  5
65F
330
18
100
AcDbEntity
  8
1
  6
Continuous
100
AcDbLine
 10
133.8597158855232
 20
521.9721490690682
 30
0.0
 11
134.359716100007
 21
521.9721490690682
 31
0.0
  0
LINE
  5
660
330
18
100
AcDbEntity
  8
1
  6
Continuous
100
AcDbLine
 10
134.359716100007
 20
526.9721493065555
 30
0.0
 11
133.8597158855232
 21
526.9721493065555
 31
0.0
  0
LINE
  5
661
330
18
100
AcDbEntity
  8
1
  6
Continuous
100
AcDbLine
 10
133.8597158855234
 20
527.4721493303042
 30
0.0
 11
133.8597158855234
 21
521.4721490453196
 31
0.0
  0
LINE
  5
662
330
18
100
AcDbEntity
  8
1
  6
Continuous
100
AcDbLine
 10
135.0597161332551
 20
527.6897536528571
 30
0.0
 11
135.0597161332551
 21
518.8221489194512
 31
0.0
  0
LINE
  5
663
330
18
100
AcDbEntity
  8
1
  6
Continuous
100
AcDbLine
 10
134.359716100007
 20
527.6897536528571
 30
0.0
 11
135.0597161332551
 21
527.6897536528571
 31
0.0
  0
LINE
  5
664
330
18
100
AcDbEntity
  8
1
  6
Continuous
100
AcDbLine
 10
134.359716100007
 20
527.6897536528571
 30
0.0
 11
134.359716100007
 21
518.8221489194512
 31
0.0
  0
LINE
  5
665
330
18
100
AcDbEntity
  8
1
  6
Continuous
100
AcDbLine
 10
134.359716100007
 20
518.8221489194512
 30
0.0
 11
135.0597161332551
 21
518.8221489194512
 31
0.0
  0
LINE
  5
666
330
18
100
AcDbEntity
  8
1
  6
Continuous
100
AcDbLine
 10
140.5597162037563
 20
519.4721489503247
 30
0.0
 11
135.0597161332551
 21
519.4721489503246
 31
0.0
  0
LINE
  5
667
330
18
100
AcDbEntity
  8
1
  6
Continuous
100
AcDbLine
 10
135.0597159425203
 20
521.4721490453196
 30
0.0
 11
140.5597162037563
 21
521.4721490453196
 31
0.0
  0
LINE
  5
668
330
18
100
AcDbEntity
  8
1
  6
Continuous
100
AcDbLine
 10
140.5597162037563
 20
527.4721493303042
 30
0.0
 11
135.0597159425203
 21
527.4721493303042
 31
0.0
  0
LINE
  5
669
330
18
100
AcDbEntity
  8
1
  6
Continuous
100
AcDbLine
 10
143.5597163462485
 20
522.0221490714431
 30
0.0
 11
145.0597164174947
 21
522.0221490714431
 31
0.0
  0
LINE
  5
66A
330
18
100
AcDbEntity
  8
1
  6
Continuous
100
AcDbLine
 10
145.0597164174947
 20
526.9221493041806
 30
0.0
 11
143.5597163462485
 21
526.9221493041806
 31
0.0
  0
LINE
  5
66B
330
18
100
AcDbEntity
  8
1
  6
Continuous
100
AcDbLine
 10
145.0597164174949
 20
526.9221493041806
 30
0.0
 11
145.0597164174949
 21
522.0221490714431
 31
0.0
  0
LINE
  5
66C
330
18
100
AcDbEntity
  8
1
  6
Continuous
100
AcDbLine
 10
132.5597162099961
 20
533.3721496105392
 30
0.0
 11
145.559716827463
 21
533.3721496105392
 31
0.0
  0
LINE
  5
66D
330
18
100
AcDbEntity
  8
1
  6
Continuous
100
AcDbLine
 10
140.5597162037563
 20
529.4721494252991
 30
0.0
 11
132.5597162099961
 21
529.4721494252991
 31
0.0
  0
LINE
  5
66E
330
18
100
AcDbEntity
  8
1
  6
Continuous
100
AcDbLine
 10
122.0597160974923
 20
531.4721495202941
 30
0.0
 11
125.5597158775138
 21
531.4721495202941
 31
0.0
  0
LINE
  5
66F
330
18
100
AcDbEntity
  8
1
  6
Continuous
100
AcDbLine
 10
126.8097159368858
 20
536.172149743532
 30
0.0
 11
128.8097160318807
 21
536.172149743532
 31
0.0
  0
LINE
  5
670
330
18
100
AcDbEntity
  8
1
  6
Continuous
100
AcDbLine
 10
128.8097160318807
 20
535.4721497102838
 30
0.0
 11
128.8097160318807
 21
536.172149743532
 31
0.0
  0
LINE
  5
671
330
18
100
AcDbEntity
  8
1
  6
Continuous
100
AcDbLine
 10
126.8097159368858
 20
535.4721497102838
 30
0.0
 11
126.8097159368858
 21
536.172149743532
 31
0.0
  0
LINE
  5
672
330
18
100
AcDbEntity
  8
1
  6
Continuous
100
AcDbLine
 10
130.8097161268756
 20
535.4721497102838
 30
0.0
 11
130.8097161268756
 21
536.172149743532
 31
0.0
  0
LINE
  5
673
330
18
100
AcDbEntity
  8
1
  6
Continuous
100
AcDbLine
 10
130.8097161268756
 20
536.172149743532
 30
0.0
 11
132.5597162099961
 21
536.172149743532
 31
0.0
  0
LINE
  5
675
330
18
100
AcDbEntity
  8
1
  6
Continuous
100
AcDbLine
 10
130.259716100752
 20
531.6221495274186
 30
0.0
 11
127.0597159487601
 21
531.6221495274186
 31
0.0
  0
LINE
  5
676
330
18
100
AcDbEntity
  8
1
  6
Continuous
100
AcDbLine
 10
132.5597162099961
 20
536.172149743532
 30
0.0
 11
132.5597162099961
 21
529.4721494252991
 31
0.0
  0
LINE
  5
677
330
18
100
AcDbEntity
  8
1
  6
Continuous
100
AcDbLine
 10
127.0597159487601
 20
530.4721494727964
 30
0.0
 11
126.759715934511
 21
530.4721494727964
 31
0.0
  0
LINE
  5
678
330
18
100
AcDbEntity
  8
1
  6
Continuous
100
AcDbLine
 10
130.259716100752
 20
530.4721494727964
 30
0.0
 11
130.259716100752
 21
531.6221495274186
 31
0.0
  0
LINE
  5
679
330
18
100
AcDbEntity
  8
1
  6
Continuous
100
AcDbLine
 10
130.5597161150012
 20
530.4721494727964
 30
0.0
 11
130.259716100752
 21
530.4721494727964
 31
0.0
  0
LINE
  5
67A
330
18
100
AcDbEntity
  8
1
  6
Continuous
100
AcDbLine
 10
130.259716100752
 20
531.4721495202941
 30
0.0
 11
127.0597159487601
 21
531.4721495202941
 31
0.0
  0
LINE
  5
67B
330
18
100
AcDbEntity
  8
1
  6
Continuous
100
AcDbLine
 10
132.5597162099961
 20
535.4721497102838
 30
0.0
 11
125.5597158775141
 21
535.4721497102838
 31
0.0
  0
LINE
  5
67C
330
18
100
AcDbEntity
  8
1
  6
Continuous
100
AcDbLine
 10
147.3097169105835
 20
535.4721497102838
 30
0.0
 11
147.3097169105835
 21
536.172149743532
 31
0.0
  0
LINE
  5
67D
330
18
100
AcDbEntity
  8
1
  6
Continuous
100
AcDbLine
 10
147.8597169367071
 20
531.6221495274186
 30
0.0
 11
147.8597169367071
 21
531.4721495202942
 31
0.0
  0
LINE
  5
67E
330
18
100
AcDbEntity
  8
1
  6
Continuous
100
AcDbLine
 10
145.559716827463
 20
536.172149743532
 30
0.0
 11
145.559716827463
 21
531.4721495202941
 31
0.0
  0
LINE
  5
67F
330
18
100
AcDbEntity
  8
1
  6
Continuous
100
AcDbLine
 10
145.559716827463
 20
536.172149743532
 30
0.0
 11
147.3097169105835
 21
536.172149743532
 31
0.0
  0
LINE
  5
680
330
18
100
AcDbEntity
  8
1
  6
Continuous
100
AcDbLine
 10
292.4171099005807
 20
466.1336821611818
 30
0.0
 11
292.4171099005807
 21
407.0497591379463
 31
0.0
  0
LINE
  5
681
330
18
100
AcDbEntity
  8
1
  6
Continuous
100
AcDbLine
 10
289.4171097580888
 20
407.0497591379463
 30
0.0
 11
289.4171097580888
 21
466.1336821611818
 31
0.0
  0
LINE
  5
682
330
18
100
AcDbEntity
  8
1
  6
Continuous
100
AcDbLine
 10
223.4884133846506
 20
362.133677221447
 30
0.0
 11
223.4884133846506
 21
466.1336821611818
 31
0.0
  0
LINE
  5
683
330
18
100
AcDbEntity
  8
1
  6
Continuous
100
AcDbLine
 10
209.4884127196865
 20
362.133677221447
 30
0.0
 11
209.4884127196865
 21
466.1336821611818
 31
0.0
  0
LINE
  5
684
330
18
100
AcDbEntity
  8
1
  6
Continuous
100
AcDbLine
 10
228.1884136078888
 20
359.8836771145776
 30
0.0
 11
228.1884136078888
 21
357.8836770195827
 31
0.0
  0
LINE
  5
685
330
18
100
AcDbEntity
  8
1
  6
Continuous
100
AcDbLine
 10
204.7884124964484
 20
359.8836771145776
 30
0.0
 11
204.7884124964484
 21
357.8836770195827
 31
0.0
  0
LINE
  5
686
330
18
100
AcDbEntity
  8
1
  6
Continuous
100
AcDbLine
 10
227.4884135746404
 20
345.1336764139901
 30
0.0
 11
227.4884135746404
 21
362.133677221447
 31
0.0
  0
LINE
  5
687
330
18
100
AcDbEntity
  8
1
  6
Continuous
100
AcDbLine
 10
205.4884125296966
 20
345.1336764139901
 30
0.0
 11
205.4884125296966
 21
362.133677221447
 31
0.0
  0
LINE
  5
688
330
18
100
AcDbEntity
  8
1
  6
Continuous
100
AcDbLine
 10
151.3097171005732
 20
359.8836771145777
 30
0.0
 11
151.3097171005732
 21
345.1336764139901
 31
0.0
  0
LINE
  5
689
330
18
100
AcDbEntity
  8
1
  6
Continuous
100
AcDbLine
 10
152.559717159945
 20
309.133674704082
 30
0.0
 11
152.559717159945
 21
361.1336771739494
 31
0.0
  0
LINE
  5
68A
330
18
100
AcDbEntity
  8
4
  6
CENTER
 48
0.2
100
AcDbLine
 10
201.7884124964389
 20
316.1336750365643
 30
0.0
 11
231.188413607879
 21
316.1336750365643
 31
0.0
  0
LINE
  5
68B
330
18
100
AcDbEntity
  8
4
  6
CENTER
 48
0.2
100
AcDbLine
 10
201.7884124964385
 20
335.1336759390159
 30
0.0
 11
231.1884136078789
 21
335.1336759390159
 31
0.0
  0
LINE
  5
68C
330
18
100
AcDbEntity
  8
4
  6
CENTER
 48
0.2
100
AcDbLine
 10
201.7884124964484
 20
354.1336768414673
 30
0.0
 11
231.1884136078888
 21
354.1336768414673
 31
0.0
  0
LINE
  5
68D
330
18
100
AcDbEntity
  8
1
  6
Continuous
100
AcDbLine
 10
205.4884125296966
 20
308.1336746565845
 30
0.0
 11
227.4884135746404
 21
308.1336746565845
 31
0.0
  0
LINE
  5
68E
330
18
100
AcDbEntity
  8
1
  6
Continuous
100
AcDbLine
 10
151.3097171005732
 20
325.1336754640413
 30
0.0
 11
151.3097171005732
 21
310.3836747634538
 31
0.0
  0
LINE
  5
68F
330
18
100
AcDbEntity
  8
1
  6
Continuous
100
AcDbLine
 10
205.4884125296966
 20
308.1336746565845
 30
0.0
 11
205.4884125296966
 21
325.1336754640413
 31
0.0
  0
ARC
  5
690
330
18
100
AcDbEntity
  8
1
  6
Continuous
100
AcDbCircle
 10
151.5597171124477
 20
309.133674704082
 30
0.0
 40
1.000000047497444
100
AcDbArc
 50
270.0
 51
0.0000000000004071
  0
LINE
  5
691
330
18
100
AcDbEntity
  8
1
  6
Continuous
100
AcDbLine
 10
204.7884124964484
 20
312.3836748584487
 30
0.0
 11
204.7884124964484
 21
310.3836747634538
 31
0.0
  0
LINE
  5
692
330
18
100
AcDbEntity
  8
1
  6
Continuous
100
AcDbLine
 10
205.4884125296966
 20
310.3836747634538
 30
0.0
 11
204.7884124964484
 21
310.3836747634538
 31
0.0
  0
LINE
  5
693
330
18
100
AcDbEntity
  8
1
  6
Continuous
100
AcDbLine
 10
205.4884125296966
 20
312.3836748584487
 30
0.0
 11
204.7884124964484
 21
312.3836748584487
 31
0.0
  0
LINE
  5
694
330
18
100
AcDbEntity
  8
1
  6
Continuous
100
AcDbLine
 10
151.3097171005732
 20
318.3836751434334
 30
0.0
 11
149.3097170055784
 21
318.3836751434334
 31
0.0
  0
LINE
  5
695
330
18
100
AcDbEntity
  8
1
  6
Continuous
100
AcDbLine
 10
149.3097170055784
 20
318.3836751434334
 30
0.0
 11
149.3097170055784
 21
325.1336754640413
 31
0.0
  0
LINE
  5
696
330
18
100
AcDbEntity
  8
1
  6
Continuous
100
AcDbLine
 10
152.559717159945
 20
325.1336754640413
 30
0.0
 11
149.3097170055784
 21
325.1336754640413
 31
0.0
  0
ARC
  5
697
330
18
100
AcDbEntity
  8
1
  6
Continuous
100
AcDbCircle
 10
149.8033791515962
 20
335.502761578194
 30
0.0
 40
1.000000047497465
100
AcDbArc
 50
1.967553978433059
 51
70.00000000015595
  0
ARC
  5
698
330
18
100
AcDbEntity
  8
1
  6
Continuous
100
AcDbCircle
 10
149.8033791515962
 20
334.7645902998373
 30
0.0
 40
1.000000047497437
100
AcDbArc
 50
289.999999999844
 51
358.0324460215667
  0
ARC
  5
699
330
18
100
AcDbEntity
  8
1
  6
Continuous
100
AcDbCircle
 10
139.0597165187199
 20
335.1336759390158
 30
0.0
 40
11.75000055810471
100
AcDbArc
 50
358.0324460215734
 51
1.967553978425735
  0
ARC
  5
69A
330
18
100
AcDbEntity
  8
1
  6
Continuous
100
AcDbCircle
 10
149.0418304749816
 20
336.0836759841382
 30
0.0
 40
2.500000118743598
100
AcDbArc
 50
261.000000000008
 51
289.9999999999892
  0
ARC
  5
69B
330
18
100
AcDbEntity
  8
1
  6
Continuous
100
AcDbCircle
 10
149.0418304749814
 20
334.1836758938932
 30
0.0
 40
2.500000118743558
100
AcDbArc
 50
70.00000000001076
 51
98.99999999999195
  0
LINE
  5
69C
330
18
100
AcDbEntity
  8
1
  6
Continuous
100
AcDbLine
 10
149.8968808739077
 20
336.5329075574406
 30
0.0
 11
150.145399311164
 21
336.4424542436128
 31
0.0
  0
LINE
  5
69D
330
18
100
AcDbEntity
  8
1
  6
Continuous
100
AcDbLine
 10
150.1453993111638
 20
333.8248976344191
 30
0.0
 11
149.8968808739077
 21
333.7344443205915
 31
0.0
  0
LINE
  5
69E
330
18
100
AcDbEntity
  8
1
  6
Continuous
100
AcDbLine
 10
149.3097170055784
 20
345.1336764139901
 30
0.0
 11
149.3097170055784
 21
351.883676734598
 31
0.0
  0
LINE
  5
69F
330
18
100
AcDbEntity
  8
1
  6
Continuous
100
AcDbLine
 10
152.559717159945
 20
345.1336764139901
 30
0.0
 11
149.3097170055784
 21
345.1336764139901
 31
0.0
  0
LINE
  5
6A0
330
18
100
AcDbEntity
  8
1
  6
Continuous
100
AcDbLine
 10
149.3097170055784
 20
351.883676734598
 30
0.0
 11
151.3097171005732
 21
351.883676734598
 31
0.0
  0
LINE
  5
6A1
330
18
100
AcDbEntity
  8
1
  6
Continuous
100
AcDbLine
 10
207.5884126294413
 20
325.1336754640413
 30
0.0
 11
207.5884126294413
 21
345.1336764139903
 31
0.0
  0
LINE
  5
6A2
330
18
100
AcDbEntity
  8
1
  6
Continuous
100
AcDbLine
 10
204.7884124964484
 20
325.1336754640413
 30
0.0
 11
207.5884126294413
 21
325.1336754640413
 31
0.0
  0
LINE
  5
6A3
330
18
100
AcDbEntity
  8
1
  6
Continuous
100
AcDbLine
 10
204.7884124964484
 20
325.1336754640413
 30
0.0
 11
204.7884124964484
 21
318.3836751434334
 31
0.0
  0
LINE
  5
6A4
330
18
100
AcDbEntity
  8
1
  6
Continuous
100
AcDbLine
 10
205.4884125296966
 20
318.3836751434334
 30
0.0
 11
204.7884124964484
 21
318.3836751434334
 31
0.0
  0
LINE
  5
6A5
330
18
100
AcDbEntity
  8
1
  6
Continuous
100
AcDbLine
 10
204.7884124964484
 20
351.883676734598
 30
0.0
 11
204.7884124964484
 21
345.1336764139901
 31
0.0
  0
LINE
  5
6A6
330
18
100
AcDbEntity
  8
1
  6
Continuous
100
AcDbLine
 10
204.7884124964484
 20
345.1336764139901
 30
0.0
 11
207.5884126294413
 21
345.1336764139903
 31
0.0
  0
LINE
  5
6A7
330
18
100
AcDbEntity
  8
1
  6
Continuous
100
AcDbLine
 10
205.4884125296966
 20
357.8836770195827
 30
0.0
 11
204.7884124964484
 21
357.8836770195827
 31
0.0
  0
LINE
  5
6A8
330
18
100
AcDbEntity
  8
1
  6
Continuous
100
AcDbLine
 10
205.4884125296966
 20
351.883676734598
 30
0.0
 11
204.7884124964484
 21
351.883676734598
 31
0.0
  0
LINE
  5
6A9
330
18
100
AcDbEntity
  8
1
  6
Continuous
100
AcDbLine
 10
227.4884135746404
 20
308.1336746565845
 30
0.0
 11
227.4884135746404
 21
325.1336754640413
 31
0.0
  0
LINE
  5
6AA
330
18
100
AcDbEntity
  8
1
  6
Continuous
100
AcDbLine
 10
211.4884127196865
 20
277.8228539969473
 30
0.0
 11
221.4884133846506
 21
277.8228539969473
 31
0.0
  0
LINE
  5
6AB
330
18
100
AcDbEntity
  8
1
  6
Continuous
100
AcDbLine
 10
227.4884135746404
 20
310.3836747634538
 30
0.0
 11
228.1884136078888
 21
310.3836747634538
 31
0.0
  0
LINE
  5
6AC
330
18
100
AcDbEntity
  8
1
  6
Continuous
100
AcDbLine
 10
228.1884136078888
 20
312.3836748584487
 30
0.0
 11
228.1884136078888
 21
310.3836747634538
 31
0.0
  0
LINE
  5
6AD
330
18
100
AcDbEntity
  8
1
  6
Continuous
100
AcDbLine
 10
227.4884135746404
 20
312.3836748584487
 30
0.0
 11
228.1884136078888
 21
312.3836748584487
 31
0.0
  0
LINE
  5
6AE
330
18
100
AcDbEntity
  8
1
  6
Continuous
100
AcDbLine
 10
225.3884134748959
 20
325.1336754640413
 30
0.0
 11
225.3884134748959
 21
345.1336764139901
 31
0.0
  0
LINE
  5
6AF
330
18
100
AcDbEntity
  8
1
  6
Continuous
100
AcDbLine
 10
228.1884136078888
 20
325.1336754640413
 30
0.0
 11
225.3884134748959
 21
325.1336754640413
 31
0.0
  0
LINE
  5
6B0
330
18
100
AcDbEntity
  8
1
  6
Continuous
100
AcDbLine
 10
227.4884135746404
 20
318.3836751434334
 30
0.0
 11
228.1884136078888
 21
318.3836751434334
 31
0.0
  0
LINE
  5
6B1
330
18
100
AcDbEntity
  8
1
  6
Continuous
100
AcDbLine
 10
228.1884136078888
 20
325.1336754640413
 30
0.0
 11
228.1884136078888
 21
318.3836751434334
 31
0.0
  0
LINE
  5
6B2
330
18
100
AcDbEntity
  8
1
  6
Continuous
100
AcDbLine
 10
228.1884136078888
 20
345.1336764139901
 30
0.0
 11
225.3884134748959
 21
345.1336764139901
 31
0.0
  0
LINE
  5
6B3
330
18
100
AcDbEntity
  8
1
  6
Continuous
100
AcDbLine
 10
228.1884136078888
 20
351.883676734598
 30
0.0
 11
228.1884136078888
 21
345.1336764139901
 31
0.0
  0
LINE
  5
6B4
330
18
100
AcDbEntity
  8
1
  6
Continuous
100
AcDbLine
 10
227.4884135746404
 20
357.8836770195827
 30
0.0
 11
228.1884136078888
 21
357.8836770195827
 31
0.0
  0
LINE
  5
6B5
330
18
100
AcDbEntity
  8
1
  6
Continuous
100
AcDbLine
 10
227.4884135746404
 20
351.883676734598
 30
0.0
 11
228.1884136078888
 21
351.883676734598
 31
0.0
  0
LINE
  5
6B6
330
18
100
AcDbEntity
  8
1
  6
Continuous
100
AcDbLine
 10
205.4884125296966
 20
362.133677221447
 30
0.0
 11
227.4884135746404
 21
362.133677221447
 31
0.0
  0
LINE
  5
6B7
330
18
100
AcDbEntity
  8
1
  6
Continuous
100
AcDbLine
 10
151.0597167024794
 20
362.133677221447
 30
0.0
 11
151.0597167024794
 21
398.1756390417982
 31
0.0
  0
ARC
  5
6B8
330
18
100
AcDbEntity
  8
1
  6
Continuous
100
AcDbCircle
 10
151.5597171124477
 20
361.1336771739494
 30
0.0
 40
1.000000047497451
100
AcDbArc
 50
0.0
 51
90.0
  0
LINE
  5
6B9
330
18
100
AcDbEntity
  8
1
  6
Continuous
100
AcDbLine
 10
205.4884125296966
 20
359.8836771145776
 30
0.0
 11
204.7884124964484
 21
359.8836771145776
 31
0.0
  0
LINE
  5
6BA
330
18
100
AcDbEntity
  8
1
  6
Continuous
100
AcDbLine
 10
227.4884135746404
 20
359.8836771145776
 30
0.0
 11
228.1884136078888
 21
359.8836771145776
 31
0.0
  0
LINE
  5
6BB
330
18
100
AcDbEntity
  8
1
  6
Continuous
100
AcDbLine
 10
211.4884127196865
 20
402.0486225719625
 30
0.0
 11
221.4884133846506
 21
402.0486225719625
 31
0.0
  0
LINE
  5
6BC
330
18
100
AcDbEntity
  8
1
  6
Continuous
100
AcDbLine
 10
211.4884127196865
 20
405.1132673728641
 30
0.0
 11
221.4884133846506
 21
405.1132673728641
 31
0.0
  0
LINE
  5
6BD
330
18
100
AcDbEntity
  8
1
  6
Continuous
100
AcDbLine
 10
285.6671091937538
 20
359.8836771145776
 30
0.0
 11
285.6671091937538
 21
357.8836770195827
 31
0.0
  0
LINE
  5
6BE
330
18
100
AcDbEntity
  8
1
  6
Continuous
100
AcDbLine
 10
287.4171092768743
 20
362.133677221447
 30
0.0
 11
287.4171092768743
 21
354.1336768414673
 31
0.0
  0
LINE
  5
6BF
330
18
100
AcDbEntity
  8
1
  6
Continuous
100
AcDbLine
 10
302.1671099774617
 20
357.8836770195827
 30
0.0
 11
302.1671099774617
 21
359.8836771145776
 31
0.0
  0
LINE
  5
6C0
330
18
100
AcDbEntity
  8
1
  6
Continuous
100
AcDbLine
 10
300.4171098943408
 20
362.133677221447
 30
0.0
 11
300.4171098943408
 21
354.1336768414673
 31
0.0
  0
LINE
  5
6C1
330
18
100
AcDbEntity
  8
1
  6
Continuous
100
AcDbLine
 10
306.1671101674515
 20
345.1336764139901
 30
0.0
 11
306.1671101674515
 21
359.8836771145776
 31
0.0
  0
LINE
  5
6C2
330
18
100
AcDbEntity
  8
1
  6
Continuous
100
AcDbLine
 10
281.667109003764
 20
359.8836771145777
 30
0.0
 11
281.667109003764
 21
345.1336764139901
 31
0.0
  0
LINE
  5
6C3
330
18
100
AcDbEntity
  8
1
  6
Continuous
100
AcDbLine
 10
307.4171102268234
 20
309.133674704082
 30
0.0
 11
307.4171102268234
 21
361.1336771739494
 31
0.0
  0
LINE
  5
6C4
330
18
100
AcDbEntity
  8
1
  6
Continuous
100
AcDbLine
 10
280.4171089443922
 20
309.133674704082
 30
0.0
 11
280.4171089443922
 21
361.1336771739494
 31
0.0
  0
LINE
  5
6C5
330
18
100
AcDbEntity
  8
4
  6
CENTER
 48
0.2
100
AcDbLine
 10
293.9171095855978
 20
305.1336746565845
 30
0.0
 11
293.9171095855978
 21
365.1336772214468
 31
0.0
  0
LINE
  5
6C6
330
18
100
AcDbEntity
  8
1
  6
Continuous
100
AcDbLine
 10
281.667109003764
 20
325.1336754640413
 30
0.0
 11
281.667109003764
 21
310.3836747634538
 31
0.0
  0
CIRCLE
  5
6C7
330
18
100
AcDbEntity
  8
1
  6
Continuous
100
AcDbCircle
 10
293.9171095856078
 20
316.1336750365641
 30
0.0
 40
2.2000001044944
  0
LINE
  5
6C8
330
18
100
AcDbEntity
  8
1
  6
Continuous
100
AcDbLine
 10
306.1671101674515
 20
310.3836747634538
 30
0.0
 11
306.1671101674515
 21
325.1336754640413
 31
0.0
  0
LINE
  5
6C9
330
18
100
AcDbEntity
  8
1
  6
Continuous
100
AcDbLine
 10
300.4171098943408
 20
308.1336746565845
 30
0.0
 11
300.4171098943408
 21
316.1336750365641
 31
0.0
  0
LINE
  5
6CA
330
18
100
AcDbEntity
  8
1
  6
Continuous
100
AcDbLine
 10
287.4171092768743
 20
308.1336746565845
 30
0.0
 11
287.4171092768743
 21
316.1336750365641
 31
0.0
  0
LINE
  5
6CB
330
18
100
AcDbEntity
  8
1
  6
Continuous
100
AcDbLine
 10
300.4171098943408
 20
310.3836747634538
 30
0.0
 11
306.1671101674515
 21
310.3836747634538
 31
0.0
  0
LINE
  5
6CC
330
18
100
AcDbEntity
  8
1
  6
Continuous
100
AcDbLine
 10
306.4171101793259
 20
308.1336746565845
 30
0.0
 11
299.9079361904565
 21
308.1336746565845
 31
0.0
  0
ARC
  5
6CD
330
18
100
AcDbEntity
  8
1
  6
Continuous
100
AcDbCircle
 10
308.9171099118495
 20
280.1189547001968
 30
0.0
 40
6.000000284984547
100
AcDbArc
 50
179.9999999999995
 51
225.0000000000017
  0
LINE
  5
6CE
330
18
100
AcDbEntity
  8
1
  6
Continuous
100
AcDbLine
 10
302.9171096268653
 20
280.1189547001968
 30
0.0
 11
302.9171096268653
 21
308.1336746565845
 31
0.0
  0
LINE
  5
6CF
330
18
100
AcDbEntity
  8
1
  6
Continuous
100
AcDbLine
 10
287.9262829807586
 20
308.1336746565845
 30
0.0
 11
281.4171089918896
 21
308.1336746565845
 31
0.0
  0
LINE
  5
6D0
330
18
100
AcDbEntity
  8
1
  6
Continuous
100
AcDbLine
 10
287.4171092768743
 20
312.3836748584487
 30
0.0
 11
285.6671091937538
 21
312.3836748584487
 31
0.0
  0
LINE
  5
6D1
330
18
100
AcDbEntity
  8
1
  6
Continuous
100
AcDbLine
 10
285.6671091937538
 20
312.3836748584487
 30
0.0
 11
285.6671091937538
 21
310.3836747634538
 31
0.0
  0
LINE
  5
6D2
330
18
100
AcDbEntity
  8
1
  6
Continuous
100
AcDbLine
 10
281.667109003764
 20
310.3836747634538
 30
0.0
 11
287.4171092768743
 21
310.3836747634538
 31
0.0
  0
ARC
  5
6D3
330
18
100
AcDbEntity
  8
1
  6
Continuous
100
AcDbCircle
 10
281.4171089918896
 20
309.133674704082
 30
0.0
 40
1.000000047497444
100
AcDbArc
 50
179.9999999999995
 51
269.9999999999934
  0
ARC
  5
6D4
330
18
100
AcDbEntity
  8
1
  6
Continuous
100
AcDbCircle
 10
293.9171095856078
 20
306.6336745853384
 30
0.0
 40
5.200000246986745
100
AcDbArc
 50
26.60013496100199
 51
153.3998650389976
  0
ARC
  5
6D5
330
18
100
AcDbEntity
  8
1
  6
Continuous
100
AcDbCircle
 10
287.9262829807586
 20
309.6336747278307
 30
0.0
 40
1.500000071246215
100
AcDbArc
 50
270.0
 51
333.399865039097
  0
LINE
  5
6D6
330
18
100
AcDbEntity
  8
1
  6
Continuous
100
AcDbLine
 10
302.1671099774617
 20
310.3836747634538
 30
0.0
 11
302.1671099774617
 21
312.3836748584487
 31
0.0
  0
LINE
  5
6D7
330
18
100
AcDbEntity
  8
1
  6
Continuous
100
AcDbLine
 10
302.1671099774617
 20
312.3836748584487
 30
0.0
 11
300.4171098943408
 21
312.3836748584487
 31
0.0
  0
ARC
  5
6D8
330
18
100
AcDbEntity
  8
1
  6
Continuous
100
AcDbCircle
 10
299.9079361904565
 20
309.6336747278307
 30
0.0
 40
1.500000071246164
100
AcDbArc
 50
206.6001349609029
 51
270.0
  0
LINE
  5
6D9
330
18
100
AcDbEntity
  8
1
  6
Continuous
100
AcDbLine
 10
305.9171097693576
 20
280.1189547001968
 30
0.0
 11
305.9171097693576
 21
308.1336746565845
 31
0.0
  0
ARC
  5
6DA
330
18
100
AcDbEntity
  8
1
  6
Continuous
100
AcDbCircle
 10
308.91710991185
 20
280.1189547001968
 30
0.0
 40
3.000000142492329
100
AcDbArc
 50
179.999999999999
 51
225.0000000000016
  0
LINE
  5
6DB
330
18
100
AcDbEntity
  8
1
  6
Continuous
100
AcDbLine
 10
307.0384301661777
 20
273.5123526686003
 30
0.0
 11
304.674469023216
 21
275.8763138115625
 31
0.0
  0
LINE
  5
6DC
330
18
100
AcDbEntity
  8
1
  6
Continuous
100
AcDbLine
 10
309.1597506104942
 20
275.6336731129179
 30
0.0
 11
306.795789467533
 21
277.9976342558795
 31
0.0
  0
ARC
  5
6DD
330
18
100
AcDbEntity
  8
1
  6
Continuous
100
AcDbCircle
 10
306.4171101793259
 20
309.133674704082
 30
0.0
 40
1.000000047497451
100
AcDbArc
 50
270.0
 51
359.9999999999987
  0
LINE
  5
6DE
330
18
100
AcDbEntity
  8
1
  6
Continuous
100
AcDbLine
 10
302.8171096268553
 20
333.2336758487702
 30
0.0
 11
305.5631395050237
 21
333.2336758487702
 31
0.0
  0
LINE
  5
6DF
330
18
100
AcDbEntity
  8
1
  6
Continuous
100
AcDbLine
 10
302.8171096268553
 20
337.0336760292605
 30
0.0
 11
305.5631395050237
 21
337.0336760292605
 31
0.0
  0
LINE
  5
6E0
330
18
100
AcDbEntity
  8
1
  6
Continuous
100
AcDbLine
 10
302.8171096268553
 20
330.7536757309765
 30
0.0
 11
304.8740987434217
 21
330.7536757309765
 31
0.0
  0
ARC
  5
6E1
330
18
100
AcDbEntity
  8
1
  6
Continuous
100
AcDbCircle
 10
293.9171095855978
 20
335.1336759390154
 30
0.0
 40
11.80000056046991
100
AcDbArc
 50
282.7289438731229
 51
77.2710561268771
  0
LINE
  5
6E2
330
18
100
AcDbEntity
  8
1
  6
Continuous
100
AcDbLine
 10
303.5081373606741
 20
333.6144550153683
 30
0.0
 11
302.8013369469373
 21
333.7264012033192
 31
0.0
  0
LINE
  5
6E3
330
18
100
AcDbEntity
  8
1
  6
Continuous
100
AcDbLine
 10
302.8013369469373
 20
336.5409506747116
 30
0.0
 11
303.5081373606741
 21
336.6528968626622
 31
0.0
  0
LINE
  5
6E4
330
18
100
AcDbEntity
  8
4
  6
CENTER
 48
0.2
100
AcDbLine
 10
303.4171098943407
 20
354.1336768414673
 30
0.0
 11
284.4171092768739
 21
354.1336768414673
 31
0.0
  0
LINE
  5
6E5
330
18
100
AcDbEntity
  8
4
  6
CENTER
 48
0.2
100
AcDbLine
 10
310.4171102268234
 20
335.1336759390154
 30
0.0
 11
277.4171089443922
 21
335.1336759390154
 31
0.0
  0
LINE
  5
6E6
330
18
100
AcDbEntity
  8
4
  6
CENTER
 48
0.2
100
AcDbLine
 10
303.4171098943407
 20
316.1336750365641
 30
0.0
 11
284.4171092768744
 21
316.1336750365641
 31
0.0
  0
LINE
  5
6E7
330
18
100
AcDbEntity
  8
1
  6
Continuous
100
AcDbLine
 10
285.0171095443403
 20
342.8815796873014
 30
0.0
 11
285.0171095443403
 21
336.5434488217929
 31
0.0
  0
LINE
  5
6E8
330
18
100
AcDbEntity
  8
1
  6
Continuous
100
AcDbLine
 10
285.1671091699951
 20
339.594619494697
 30
0.0
 11
285.1671091699951
 21
336.5502392272747
 31
0.0
  0
ARC
  5
6E9
330
18
100
AcDbEntity
  8
1
  6
Continuous
100
AcDbCircle
 10
293.9171095855978
 20
335.1336759390155
 30
0.0
 40
8.700000413227476
100
AcDbArc
 50
154.9104378680541
 51
169.0895622770302
  0
ARC
  5
6EA
330
18
100
AcDbEntity
  8
1
  6
Continuous
100
AcDbCircle
 10
293.9171095855978
 20
335.1336759390154
 30
0.0
 40
11.80000056046992
100
AcDbArc
 50
102.7289438731228
 51
257.2710561268771
  0
ARC
  5
6EB
330
18
100
AcDbEntity
  8
1
  6
Continuous
100
AcDbCircle
 10
293.9171095855978
 20
335.1336759390154
 30
0.0
 40
8.700000413227838
100
AcDbArc
 50
10.91043700712905
 51
25.0895623924903
  0
LINE
  5
6EC
330
18
100
AcDbEntity
  8
1
  6
Continuous
100
AcDbLine
 10
302.6671100012005
 20
339.594619494698
 30
0.0
 11
302.6671100012005
 21
336.5502392272747
 31
0.0
  0
LINE
  5
6ED
330
18
100
AcDbEntity
  8
1
  6
Continuous
100
AcDbLine
 10
302.8171096268553
 20
336.5434488217927
 30
0.0
 11
302.8171096268557
 21
342.8815796873014
 31
0.0
  0
LINE
  5
6EE
330
18
100
AcDbEntity
  8
1
  6
Continuous
100
AcDbLine
 10
297.9671097779625
 20
332.0340790438266
 30
0.0
 11
297.9671097779625
 21
338.2332728342028
 31
0.0
  0
LINE
  5
6EF
330
18
100
AcDbEntity
  8
1
  6
Continuous
100
AcDbLine
 10
288.9671093504854
 20
339.583676150379
 30
0.0
 11
288.9671093504854
 21
335.1336759390154
 31
0.0
  0
LINE
  5
6F0
330
18
100
AcDbEntity
  8
1
  6
Continuous
100
AcDbLine
 10
289.8671093932331
 20
338.2332728342041
 30
0.0
 11
289.8671093932331
 21
332.0340790438278
 31
0.0
  0
LINE
  5
6F1
330
18
100
AcDbEntity
  8
1
  6
Continuous
100
AcDbLine
 10
288.9921093516728
 20
339.2986341198215
 30
0.0
 11
288.9921093516728
 21
335.1086759378278
 31
0.0
  0
LINE
  5
6F2
330
18
100
AcDbEntity
  8
1
  6
Continuous
100
AcDbLine
 10
285.4171091818694
 20
327.033675554286
 30
0.0
 11
289.7897854677436
 21
327.0336755542861
 31
0.0
  0
ARC
  5
6F3
330
18
100
AcDbEntity
  8
1
  6
Continuous
100
AcDbCircle
 10
293.9171095855978
 20
335.1336759390154
 30
0.0
 40
11.60042598450269
100
AcDbArc
 50
224.288839329069
 51
247.3329276748975
  0
ARC
  5
6F4
330
18
100
AcDbEntity
  8
1
  6
Continuous
100
AcDbCircle
 10
287.7689260483808
 20
328.5610168966428
 30
0.0
 40
0.3000000142492313
100
AcDbArc
 50
46.932245681769
 51
135.0000000000003
  0
LINE
  5
6F5
330
18
100
AcDbEntity
  8
1
  6
Continuous
100
AcDbLine
 10
287.16710926499
 20
327.2336755637855
 30
0.0
 11
289.8652491301105
 21
327.2336755637855
 31
0.0
  0
ARC
  5
6F6
330
18
100
AcDbEntity
  8
1
  6
Continuous
100
AcDbCircle
 10
293.9171095856078
 20
316.1336750365641
 30
0.0
 40
6.500000308733433
100
AcDbArc
 50
0.0
 51
180.0
  0
LINE
  5
6F7
330
18
100
AcDbEntity
  8
1
  6
Continuous
100
AcDbLine
 10
280.4171089443922
 20
325.1336754640413
 30
0.0
 11
283.6671090987589
 21
325.1336754640413
 31
0.0
  0
LINE
  5
6F8
330
18
100
AcDbEntity
  8
1
  6
Continuous
100
AcDbLine
 10
281.667109003764
 20
318.3836751434334
 30
0.0
 11
283.6671090987589
 21
318.3836751434334
 31
0.0
  0
LINE
  5
6F9
330
18
100
AcDbEntity
  8
1
  6
Continuous
100
AcDbLine
 10
283.6671090987589
 20
318.3836751434334
 30
0.0
 11
283.6671090987589
 21
325.1336754640413
 31
0.0
  0
LINE
  5
6FA
330
18
100
AcDbEntity
  8
1
  6
Continuous
100
AcDbLine
 10
284.3260818105219
 20
336.6528968626625
 30
0.0
 11
285.0328822242587
 21
336.5409506747117
 31
0.0
  0
LINE
  5
6FB
330
18
100
AcDbEntity
  8
1
  6
Continuous
100
AcDbLine
 10
285.0328822242587
 20
333.7264012033192
 30
0.0
 11
284.3260818105219
 21
333.6144550153685
 31
0.0
  0
LINE
  5
6FC
330
18
100
AcDbEntity
  8
1
  6
Continuous
100
AcDbLine
 10
285.0171095443403
 20
333.723903056238
 30
0.0
 11
285.0171095443403
 21
327.3857721907293
 31
0.0
  0
ARC
  5
6FD
330
18
100
AcDbEntity
  8
1
  6
Continuous
100
AcDbCircle
 10
293.9171095856078
 20
335.1336759390153
 30
0.0
 40
11.75000055810471
100
AcDbArc
 50
178.0324460215733
 51
181.9675539784253
  0
ARC
  5
6FE
330
18
100
AcDbEntity
  8
1
  6
Continuous
100
AcDbCircle
 10
283.1734469527315
 20
335.5027615781937
 30
0.0
 40
1.000000047497437
100
AcDbArc
 50
109.999999999844
 51
178.0324460215672
  0
ARC
  5
6FF
330
18
100
AcDbEntity
  8
1
  6
Continuous
100
AcDbCircle
 10
283.1734469527315
 20
334.7645902998371
 30
0.0
 40
1.000000047497465
100
AcDbArc
 50
181.967553978433
 51
250.0000000001559
  0
LINE
  5
700
330
18
100
AcDbEntity
  8
1
  6
Continuous
100
AcDbLine
 10
283.0799452304196
 20
333.7344443205905
 30
0.0
 11
282.8314267931638
 21
333.8248976344183
 31
0.0
  0
LINE
  5
701
330
18
100
AcDbEntity
  8
1
  6
Continuous
100
AcDbLine
 10
282.8314267931638
 20
336.442454243612
 30
0.0
 11
283.0799452304196
 21
336.5329075574396
 31
0.0
  0
ARC
  5
702
330
18
100
AcDbEntity
  8
1
  6
Continuous
100
AcDbCircle
 10
283.9349956293459
 20
334.1836758938928
 30
0.0
 40
2.500000118743598
100
AcDbArc
 50
81.00000000000802
 51
109.9999999999892
  0
ARC
  5
703
330
18
100
AcDbEntity
  8
1
  6
Continuous
100
AcDbCircle
 10
283.9349956293459
 20
336.0836759841379
 30
0.0
 40
2.500000118743558
100
AcDbArc
 50
250.0000000000107
 51
278.999999999992
  0
LINE
  5
704
330
18
100
AcDbEntity
  8
1
  6
Continuous
100
AcDbLine
 10
285.0171095443403
 20
333.2336758487702
 30
0.0
 11
282.2710796661723
 21
333.2336758487702
 31
0.0
  0
ARC
  5
705
330
18
100
AcDbEntity
  8
1
  6
Continuous
100
AcDbCircle
 10
293.9171095856028
 20
335.1336759390204
 30
0.0
 40
11.75000055810184
100
AcDbArc
 50
220.7603717602572
 51
221.2995739046176
  0
LINE
  5
706
330
18
100
AcDbEntity
  8
1
  6
Continuous
100
AcDbLine
 10
285.1671091699951
 20
333.717112650756
 30
0.0
 11
285.1671091699951
 21
330.6727323833327
 31
0.0
  0
ARC
  5
707
330
18
100
AcDbEntity
  8
1
  6
Continuous
100
AcDbCircle
 10
285.0798125659999
 20
336.8372571909641
 30
0.0
 40
0.3000000142492324
100
AcDbArc
 50
261.0000000000145
 51
349.0677317027341
  0
ARC
  5
708
330
18
100
AcDbEntity
  8
1
  6
Continuous
100
AcDbCircle
 10
285.0798125659999
 20
333.4300946870666
 30
0.0
 40
0.30000001424924
100
AcDbArc
 50
10.93226151635988
 51
98.99999999998538
  0
ARC
  5
709
330
18
100
AcDbEntity
  8
1
  6
Continuous
100
AcDbCircle
 10
293.9171095855982
 20
335.1336759390156
 30
0.0
 40
8.700000413228245
100
AcDbArc
 50
190.9104379567676
 51
205.0895619935202
  0
ARC
  5
70A
330
18
100
AcDbEntity
  8
1
  6
Continuous
100
AcDbCircle
 10
286.3998057714031
 20
328.4977703876659
 30
0.0
 40
2.500000118743443
100
AcDbArc
 50
117.0000000000011
 51
123.5784764141669
  0
LINE
  5
70B
330
18
100
AcDbEntity
  8
1
  6
Continuous
100
AcDbLine
 10
285.4171091818694
 20
326.9489336484048
 30
0.0
 11
285.4171091818694
 21
327.4726052862992
 31
0.0
  0
LINE
  5
70C
330
18
100
AcDbEntity
  8
1
  6
Continuous
100
AcDbLine
 10
285.2648294681458
 20
330.725286803938
 30
0.0
 11
285.9024433328178
 21
331.0501672949393
 31
0.0
  0
LINE
  5
70D
330
18
100
AcDbEntity
  8
1
  6
Continuous
100
AcDbLine
 10
285.9721071612749
 20
327.6317483959991
 30
0.0
 11
285.0896979256191
 21
327.3787216193239
 31
0.0
  0
ARC
  5
70E
330
18
100
AcDbEntity
  8
1
  6
Continuous
100
AcDbCircle
 10
285.2830137390025
 20
330.0349027499887
 30
0.0
 40
2.500000118743655
100
AcDbArc
 50
285.9999999999947
 51
315.0000000000003
  0
LINE
  5
70F
330
18
100
AcDbEntity
  8
1
  6
Continuous
100
AcDbLine
 10
287.5567940039496
 20
328.7731489410743
 30
0.0
 11
287.0507807759332
 21
328.2671357130577
 31
0.0
  0
ARC
  5
710
330
18
100
AcDbEntity
  8
1
  6
Continuous
100
AcDbCircle
 10
287.1671142235119
 20
329.2336976240644
 30
0.0
 40
2.000022060285107
100
AcDbArc
 50
233.2464916954408
 51
269.9998579503807
  0
ARC
  5
711
330
18
100
AcDbEntity
  8
1
  6
Continuous
100
AcDbCircle
 10
285.7662461764267
 20
331.3174692648924
 30
0.0
 40
0.3000000142492387
100
AcDbArc
 50
296.9999999999872
 51
25.06773992459844
  0
ARC
  5
712
330
18
100
AcDbEntity
  8
1
  6
Continuous
100
AcDbCircle
 10
296.0982487044726
 20
325.3465552559211
 30
0.0
 40
2.500000118743666
100
AcDbArc
 50
358.0000000000051
 51
27.0
  0
ARC
  5
713
330
18
100
AcDbEntity
  8
1
  6
Continuous
100
AcDbCircle
 10
293.9171095855978
 20
335.1336759390154
 30
0.0
 40
11.60010719608049
100
AcDbArc
 50
292.66975237077
 51
315.7111606709309
  0
ARC
  5
714
330
18
100
AcDbEntity
  8
1
  6
Continuous
100
AcDbCircle
 10
291.7359704667234
 20
325.3465552559211
 30
0.0
 40
2.500000118743645
100
AcDbArc
 50
153.000000000002
 51
181.9999999999966
  0
ARC
  5
715
330
18
100
AcDbEntity
  8
1
  6
Continuous
100
AcDbCircle
 10
295.0277824982892
 20
326.2024714639399
 30
0.0
 40
0.3000000142492285
100
AcDbArc
 50
9.000000000001161
 51
97.06772770339874
  0
ARC
  5
716
330
18
100
AcDbEntity
  8
1
  6
Continuous
100
AcDbCircle
 10
292.8064366729068
 20
326.2024714639399
 30
0.0
 40
0.3000000142492324
100
AcDbArc
 50
82.93229873562818
 51
170.9999999999983
  0
ARC
  5
717
330
18
100
AcDbEntity
  8
1
  6
Continuous
100
AcDbCircle
 10
293.9171095855978
 20
335.1336759390154
 30
0.0
 40
12.00000056996938
100
AcDbArc
 50
257.4866746371166
 51
282.5133253628834
  0
ARC
  5
718
330
18
100
AcDbEntity
  8
1
  6
Continuous
100
AcDbCircle
 10
297.9052561712616
 20
325.9336875731204
 30
0.0
 40
2.500000118743665
100
AcDbArc
 50
188.9999999999943
 51
217.9999999999706
  0
ARC
  5
719
330
18
100
AcDbEntity
  8
1
  6
Continuous
100
AcDbCircle
 10
289.928962999934
 20
325.9336875731204
 30
0.0
 40
2.500000118743624
100
AcDbArc
 50
322.0000000000312
 51
351.0000000000075
  0
ARC
  5
71A
330
18
100
AcDbEntity
  8
1
  6
Continuous
100
AcDbCircle
 10
293.9171095855978
 20
335.1336759390154
 30
0.0
 40
11.60042598450269
100
AcDbArc
 50
256.6670723251124
 51
257.047809404123
  0
LINE
  5
71B
330
18
100
AcDbEntity
  8
1
  6
Continuous
100
AcDbLine
 10
291.3171094621044
 20
323.4187276660992
 30
0.0
 11
291.3171094621044
 21
323.8723437080073
 31
0.0
  0
ARC
  5
71C
330
18
100
AcDbEntity
  8
1
  6
Continuous
100
AcDbCircle
 10
290.9481565524234
 20
324.8017918482673
 30
0.0
 40
1.000000047497464
100
AcDbArc
 50
253.967553978384
 51
321.9999999999054
  0
LINE
  5
71D
330
18
100
AcDbEntity
  8
1
  6
Continuous
100
AcDbLine
 10
291.898989977522
 20
324.3945338117019
 30
0.0
 11
291.7361673434562
 21
324.1861303436989
 31
0.0
  0
ARC
  5
71E
330
18
100
AcDbEntity
  8
1
  6
Continuous
100
AcDbCircle
 10
290.2461139480002
 20
325.0298993180417
 30
0.0
 40
1.000000047497447
100
AcDbArc
 50
182.0000000002151
 51
250.0324460216016
  0
LINE
  5
71F
330
18
100
AcDbEntity
  8
1
  6
Continuous
100
AcDbLine
 10
289.2467230735129
 20
324.9949998196779
 30
0.0
 11
289.2374932805042
 21
325.2593065100208
 31
0.0
  0
ARC
  5
720
330
18
100
AcDbEntity
  8
1
  6
Continuous
100
AcDbCircle
 10
293.9171095856014
 20
335.1336759390258
 30
0.0
 40
11.75000055810602
100
AcDbArc
 50
250.0324460215678
 51
253.9675539784241
  0
LINE
  5
721
330
18
100
AcDbEntity
  8
1
  6
Continuous
100
AcDbLine
 10
295.436035202492
 20
325.5426013919445
 30
0.0
 11
295.3240890145412
 21
326.2494018056811
 31
0.0
  0
LINE
  5
722
330
18
100
AcDbEntity
  8
1
  6
Continuous
100
AcDbLine
 10
292.5101301566547
 20
326.2494018056811
 30
0.0
 11
292.398183968704
 21
325.5426013919445
 31
0.0
  0
ARC
  5
723
330
18
100
AcDbEntity
  8
1
  6
Continuous
100
AcDbCircle
 10
293.9171095856014
 20
335.1336759390044
 30
0.0
 40
11.75000055808343
100
AcDbArc
 50
286.0324460215753
 51
289.9675539784325
  0
ARC
  5
724
330
18
100
AcDbEntity
  8
1
  6
Continuous
100
AcDbCircle
 10
297.5881052231958
 20
325.0298993180418
 30
0.0
 40
1.000000047497469
100
AcDbArc
 50
289.9675539784044
 51
357.999999999785
  0
LINE
  5
725
330
18
100
AcDbEntity
  8
1
  6
Continuous
100
AcDbLine
 10
298.5967258906918
 20
325.259306510021
 30
0.0
 11
298.5874960976831
 21
324.9949998196779
 31
0.0
  0
LINE
  5
726
330
18
100
AcDbEntity
  8
1
  6
Continuous
100
AcDbLine
 10
296.0980518277384
 20
324.1861303436979
 30
0.0
 11
295.935229193673
 21
324.3945338117015
 31
0.0
  0
ARC
  5
727
330
18
100
AcDbEntity
  8
1
  6
Continuous
100
AcDbCircle
 10
293.9171095855978
 20
335.1336759390154
 30
0.0
 40
11.60010719608049
100
AcDbArc
 50
282.9521905958705
 51
283.3302476292178
  0
LINE
  5
728
330
18
100
AcDbEntity
  8
1
  6
Continuous
100
AcDbLine
 10
296.5171097090911
 20
323.8723437080073
 30
0.0
 11
296.5171097090911
 21
323.4187276660993
 31
0.0
  0
ARC
  5
729
330
18
100
AcDbEntity
  8
1
  6
Continuous
100
AcDbCircle
 10
296.8860626187725
 20
324.8017918482673
 30
0.0
 40
1.000000047497447
100
AcDbArc
 50
218.0000000000948
 51
286.0324460216093
  0
LINE
  5
72A
330
18
100
AcDbEntity
  8
1
  6
Continuous
100
AcDbLine
 10
290.8175126904089
 20
331.0836757466508
 30
0.0
 11
297.0167064807851
 21
331.0836757466507
 31
0.0
  0
LINE
  5
72B
330
18
100
AcDbEntity
  8
1
  6
Continuous
100
AcDbLine
 10
293.9171095855978
 20
330.183675703903
 30
0.0
 11
298.3671097969613
 21
330.183675703903
 31
0.0
  0
LINE
  5
72C
330
18
100
AcDbEntity
  8
1
  6
Continuous
100
AcDbLine
 10
293.8421095820355
 20
330.2086757050903
 30
0.0
 11
298.0820677664043
 21
330.2086757050903
 31
0.0
  0
LINE
  5
72D
330
18
100
AcDbEntity
  8
1
  6
Continuous
100
AcDbLine
 10
288.9671093504854
 20
335.1336759390154
 30
0.0
 11
288.9921093516728
 21
335.1336759390154
 31
0.0
  0
LINE
  5
72E
330
18
100
AcDbEntity
  8
1
  6
Continuous
100
AcDbLine
 10
289.8671093932331
 20
335.1086759378278
 30
0.0
 11
288.9921093516728
 21
335.1086759378278
 31
0.0
  0
ARC
  5
72F
330
18
100
AcDbEntity
  8
1
  6
Continuous
100
AcDbCircle
 10
289.566032571499
 20
327.2553425802416
 30
0.0
 40
0.3000000142492363
100
AcDbArc
 50
333.0000000000119
 51
61.06774860634993
  0
ARC
  5
730
330
18
100
AcDbEntity
  8
1
  6
Continuous
100
AcDbCircle
 10
293.9171095855978
 20
335.1336759390153
 30
0.0
 40
8.700000413227664
100
AcDbArc
 50
226.9104385027811
 51
241.0895616941477
  0
LINE
  5
731
330
18
100
AcDbEntity
  8
1
  6
Continuous
100
AcDbLine
 10
289.5084540504509
 20
326.4815315591784
 30
0.0
 11
289.8333345414517
 21
327.1191454238507
 31
0.0
  0
ARC
  5
732
330
18
100
AcDbEntity
  8
1
  6
Continuous
100
AcDbCircle
 10
293.9171095855978
 20
335.1336759390154
 30
0.0
 40
8.700000413227908
100
AcDbArc
 50
262.9104366733419
 51
277.0895624149436
  0
LINE
  5
733
330
18
100
AcDbEntity
  8
1
  6
Continuous
100
AcDbLine
 10
293.9171095855978
 20
330.2086757050903
 30
0.0
 11
293.9171095855978
 21
330.183675703903
 31
0.0
  0
LINE
  5
734
330
18
100
AcDbEntity
  8
1
  6
Continuous
100
AcDbLine
 10
293.8421095820355
 20
330.2086757050903
 30
0.0
 11
293.8421095820355
 21
331.0836757466507
 31
0.0
  0
ARC
  5
735
330
18
100
AcDbEntity
  8
1
  6
Continuous
100
AcDbCircle
 10
293.9171095855978
 20
335.1336759390153
 30
0.0
 40
5.100000242236891
100
AcDbArc
 50
217.4280055430332
 51
232.5719944569577
  0
ARC
  5
736
330
18
100
AcDbEntity
  8
1
  6
Continuous
100
AcDbCircle
 10
302.7544066051961
 20
333.4300946870666
 30
0.0
 40
0.3000000142492311
100
AcDbArc
 50
81.00000000001463
 51
169.067722386108
  0
ARC
  5
737
330
18
100
AcDbEntity
  8
1
  6
Continuous
100
AcDbCircle
 10
302.7544066051961
 20
336.8372571909641
 30
0.0
 40
0.3000000142492325
100
AcDbArc
 50
190.9322890558613
 51
278.9999999999853
  0
LINE
  5
738
330
18
100
AcDbEntity
  8
1
  6
Continuous
100
AcDbLine
 10
302.8171096268553
 20
327.3857721907293
 30
0.0
 11
302.8171096268553
 21
333.7239030562378
 31
0.0
  0
ARC
  5
739
330
18
100
AcDbEntity
  8
1
  6
Continuous
100
AcDbCircle
 10
293.9171095855982
 20
335.1336759390153
 30
0.0
 40
8.700000413227572
100
AcDbArc
 50
334.9104376114692
 51
349.0895625982927
  0
LINE
  5
73A
330
18
100
AcDbEntity
  8
1
  6
Continuous
100
AcDbLine
 10
298.8671098207102
 20
335.1336759390154
 30
0.0
 11
298.8421098195227
 21
335.1336759390154
 31
0.0
  0
LINE
  5
73B
330
18
100
AcDbEntity
  8
1
  6
Continuous
100
AcDbLine
 10
298.8421098195227
 20
335.2086759425777
 30
0.0
 11
297.9671097779625
 21
335.2086759425777
 31
0.0
  0
LINE
  5
73C
330
18
100
AcDbEntity
  8
1
  6
Continuous
100
AcDbLine
 10
302.4171099893262
 20
326.9489336484048
 30
0.0
 11
302.4171099893262
 21
327.5204288914416
 31
0.0
  0
LINE
  5
73D
330
18
100
AcDbEntity
  8
1
  6
Continuous
100
AcDbLine
 10
302.4171099893262
 20
327.4726052862992
 30
0.0
 11
302.7445212455765
 21
327.3787216193239
 31
0.0
  0
LINE
  5
73E
330
18
100
AcDbEntity
  8
1
  6
Continuous
100
AcDbLine
 10
302.7445212455833
 20
327.3787216193178
 30
0.0
 11
302.8171100083319
 21
327.4621372673552
 31
0.0
  0
ARC
  5
73F
330
18
100
AcDbEntity
  8
1
  6
Continuous
100
AcDbCircle
 10
300.0652931228152
 20
328.5610168966428
 30
0.0
 40
0.3000000142492376
100
AcDbArc
 50
44.99999999999977
 51
133.0677250261323
  0
ARC
  5
740
330
18
100
AcDbEntity
  8
1
  6
Continuous
100
AcDbCircle
 10
301.4344133997925
 20
328.4977703876666
 30
0.0
 40
2.500000118743785
100
AcDbArc
 50
56.42152358582526
 51
62.99999999999752
  0
ARC
  5
741
330
18
100
AcDbEntity
  8
1
  6
Continuous
100
AcDbCircle
 10
302.3919721418743
 20
328.520112933337
 30
0.0
 40
1.000000047497485
100
AcDbArc
 50
248.1219144203053
 51
271.4404442293079
  0
ARC
  5
742
330
18
100
AcDbEntity
  8
1
  6
Continuous
100
AcDbCircle
 10
302.5512054321935
 20
330.0349027499887
 30
0.0
 40
2.500000118743713
100
AcDbArc
 50
225.0
 51
257.7166491972
  0
LINE
  5
743
330
18
100
AcDbEntity
  8
1
  6
Continuous
100
AcDbLine
 10
300.7834383952628
 20
328.267135713058
 30
0.0
 11
300.2774251672463
 21
328.7731489410745
 31
0.0
  0
LINE
  5
744
330
18
100
AcDbEntity
  8
1
  6
Continuous
100
AcDbLine
 10
301.9317758383782
 20
331.0501672949396
 30
0.0
 11
302.5693897030502
 21
330.7252868039388
 31
0.0
  0
ARC
  5
745
330
18
100
AcDbEntity
  8
1
  6
Continuous
100
AcDbCircle
 10
300.6671099062056
 20
329.2336756587804
 30
0.0
 40
2.000000094994915
100
AcDbArc
 50
270.0
 51
306.7304351116872
  0
LINE
  5
746
330
18
100
AcDbEntity
  8
1
  6
Continuous
100
AcDbLine
 10
302.8171098175904
 20
330.5805931555639
 30
0.0
 11
302.8171096268553
 21
330.7536757309765
 31
0.0
  0
ARC
  5
747
330
18
100
AcDbEntity
  8
1
  6
Continuous
100
AcDbCircle
 10
298.268186599697
 20
327.2553425802416
 30
0.0
 40
0.3000000142492427
100
AcDbArc
 50
118.9211908111089
 51
206.999999999988
  0
ARC
  5
748
330
18
100
AcDbEntity
  8
1
  6
Continuous
100
AcDbCircle
 10
298.3671097969613
 20
330.6836757276517
 30
0.0
 40
0.5000000237487207
100
AcDbArc
 50
270.0
 51
359.9999999999996
  0
LINE
  5
749
330
18
100
AcDbEntity
  8
1
  6
Continuous
100
AcDbLine
 10
298.0008846297442
 20
327.1191454238508
 30
0.0
 11
298.3257651207452
 21
326.4815315591786
 31
0.0
  0
ARC
  5
74A
330
18
100
AcDbEntity
  8
1
  6
Continuous
100
AcDbCircle
 10
293.9171095855978
 20
335.1336759390154
 30
0.0
 40
6.450000306358552
100
AcDbArc
 50
309.8752773570735
 51
320.1247226429235
  0
LINE
  5
74B
330
18
100
AcDbEntity
  8
1
  6
Continuous
100
AcDbLine
 10
302.4171099893262
 20
327.033675554286
 30
0.0
 11
298.0444337034524
 21
327.033675554286
 31
0.0
  0
ARC
  5
74C
330
18
100
AcDbEntity
  8
1
  6
Continuous
100
AcDbCircle
 10
293.9171095855978
 20
335.1336759390157
 30
0.0
 40
8.700000413228238
100
AcDbArc
 50
298.9108197052575
 51
313.0895625072623
  0
LINE
  5
74D
330
18
100
AcDbEntity
  8
1
  6
Continuous
100
AcDbLine
 10
297.9689700410855
 20
327.2336755637855
 30
0.0
 11
300.6671099062056
 21
327.2336755637855
 31
0.0
  0
ARC
  5
74E
330
18
100
AcDbEntity
  8
1
  6
Continuous
100
AcDbCircle
 10
302.0679729947693
 20
331.3174692648924
 30
0.0
 40
0.300000014249232
100
AcDbArc
 50
154.9322715299743
 51
243.000000000012
  0
LINE
  5
74F
330
18
100
AcDbEntity
  8
1
  6
Continuous
100
AcDbLine
 10
302.6671100012005
 20
333.717112650756
 30
0.0
 11
302.6671100012005
 21
330.6727323833337
 31
0.0
  0
ARC
  5
750
330
18
100
AcDbEntity
  8
1
  6
Continuous
100
AcDbCircle
 10
293.9171095855982
 20
335.1336759390153
 30
0.0
 40
5.100000242236909
100
AcDbArc
 50
307.4280055430319
 51
322.5719944569558
  0
LINE
  5
751
330
18
100
AcDbEntity
  8
1
  6
Continuous
100
AcDbLine
 10
298.8671098207102
 20
330.6836757276517
 30
0.0
 11
298.8671098207102
 21
335.1336759390154
 31
0.0
  0
LINE
  5
752
330
18
100
AcDbEntity
  8
1
  6
Continuous
100
AcDbLine
 10
298.8421098195227
 20
330.9687177582093
 30
0.0
 11
298.8421098195227
 21
335.2086759425777
 31
0.0
  0
ARC
  5
753
330
18
100
AcDbEntity
  8
1
  6
Continuous
100
AcDbCircle
 10
293.9171095855978
 20
335.1336759390153
 30
0.0
 40
11.60010719608058
100
AcDbArc
 50
112.66975237077
 51
135.7111606709308
  0
LINE
  5
754
330
18
100
AcDbEntity
  8
1
  6
Continuous
100
AcDbLine
 10
285.4171091818694
 20
343.2336763237447
 30
0.0
 11
289.7897854677436
 21
343.2336763237447
 31
0.0
  0
LINE
  5
755
330
18
100
AcDbEntity
  8
1
  6
Continuous
100
AcDbLine
 10
287.16710926499
 20
343.0336763142452
 30
0.0
 11
289.8652491301105
 21
343.0336763142452
 31
0.0
  0
ARC
  5
756
330
18
100
AcDbEntity
  8
1
  6
Continuous
100
AcDbCircle
 10
287.7689260483808
 20
341.7063349813878
 30
0.0
 40
0.300000014249235
100
AcDbArc
 50
224.9999999999998
 51
313.0676992193105
  0
ARC
  5
757
330
18
100
AcDbEntity
  8
1
  6
Continuous
100
AcDbCircle
 10
293.9171095856078
 20
354.1336768414673
 30
0.0
 40
6.500000308733433
100
AcDbArc
 50
180.0
 51
0.0
  0
LINE
  5
758
330
18
100
AcDbEntity
  8
1
  6
Continuous
100
AcDbLine
 10
283.6671090987589
 20
345.1336764139901
 30
0.0
 11
283.6671090987589
 21
351.883676734598
 31
0.0
  0
LINE
  5
759
330
18
100
AcDbEntity
  8
1
  6
Continuous
100
AcDbLine
 10
285.0896979256123
 20
342.888630258713
 30
0.0
 11
285.0171091628642
 21
342.8052146106757
 31
0.0
  0
LINE
  5
75A
330
18
100
AcDbEntity
  8
1
  6
Continuous
100
AcDbLine
 10
285.0171095443403
 20
339.5136761470542
 30
0.0
 11
282.9601204277743
 21
339.5136761470542
 31
0.0
  0
LINE
  5
75B
330
18
100
AcDbEntity
  8
1
  6
Continuous
100
AcDbLine
 10
285.0171095443403
 20
337.0336760292605
 30
0.0
 11
282.2710796661723
 21
337.0336760292605
 31
0.0
  0
ARC
  5
75C
330
18
100
AcDbEntity
  8
1
  6
Continuous
100
AcDbCircle
 10
285.4422470293217
 20
341.7472389446936
 30
0.0
 40
1.000000047497485
100
AcDbArc
 50
68.12191442030533
 51
115.1593889419649
  0
LINE
  5
75D
330
18
100
AcDbEntity
  8
1
  6
Continuous
100
AcDbLine
 10
285.4171091818694
 20
342.7947465917317
 30
0.0
 11
285.0896979256195
 21
342.8886302587069
 31
0.0
  0
LINE
  5
75E
330
18
100
AcDbEntity
  8
1
  6
Continuous
100
AcDbLine
 10
285.4171091818694
 20
343.3184182296259
 30
0.0
 11
285.4171091818694
 21
342.7469229865892
 31
0.0
  0
ARC
  5
75F
330
18
100
AcDbEntity
  8
1
  6
Continuous
100
AcDbCircle
 10
286.3998057714035
 20
341.7695814903641
 30
0.0
 40
2.500000118743785
100
AcDbArc
 50
236.4215235858253
 51
242.9999999999916
  0
LINE
  5
760
330
18
100
AcDbEntity
  8
1
  6
Continuous
100
AcDbLine
 10
285.9024433328173
 20
339.2171845830911
 30
0.0
 11
285.2648294681454
 21
339.5420650740919
 31
0.0
  0
ARC
  5
761
330
18
100
AcDbEntity
  8
1
  6
Continuous
100
AcDbCircle
 10
287.16710926499
 20
341.0336762192503
 30
0.0
 40
2.000000094994907
100
AcDbArc
 50
90.0
 51
126.7304351122465
  0
ARC
  5
762
330
18
100
AcDbEntity
  8
1
  6
Continuous
100
AcDbCircle
 10
285.7662461764267
 20
338.9498826131384
 30
0.0
 40
0.3000000142492358
100
AcDbArc
 50
334.9322640890183
 51
63.00000000001212
  0
LINE
  5
763
330
18
100
AcDbEntity
  8
1
  6
Continuous
100
AcDbLine
 10
287.0507807759328
 20
342.0002161649727
 30
0.0
 11
287.5567940039492
 21
341.4942029369562
 31
0.0
  0
ARC
  5
764
330
18
100
AcDbEntity
  8
1
  6
Continuous
100
AcDbCircle
 10
285.2830137390025
 20
340.232449128042
 30
0.0
 40
2.500000118743713
100
AcDbArc
 50
45.00000000000006
 51
77.71664919720014
  0
LINE
  5
765
330
18
100
AcDbEntity
  8
1
  6
Continuous
100
AcDbLine
 10
280.4171089443922
 20
345.1336764139901
 30
0.0
 11
283.6671090987589
 21
345.1336764139901
 31
0.0
  0
LINE
  5
766
330
18
100
AcDbEntity
  8
1
  6
Continuous
100
AcDbLine
 10
285.6671091937538
 20
357.8836770195827
 30
0.0
 11
287.4171092768743
 21
357.8836770195827
 31
0.0
  0
LINE
  5
767
330
18
100
AcDbEntity
  8
1
  6
Continuous
100
AcDbLine
 10
283.6671090987589
 20
351.883676734598
 30
0.0
 11
281.667109003764
 21
351.883676734598
 31
0.0
  0
ARC
  5
768
330
18
100
AcDbEntity
  8
1
  6
Continuous
100
AcDbCircle
 10
293.9171095855978
 20
335.1336759390154
 30
0.0
 40
12.00000056996942
100
AcDbArc
 50
77.48667463711662
 51
102.5133253628833
  0
ARC
  5
769
330
18
100
AcDbEntity
  8
1
  6
Continuous
100
AcDbCircle
 10
297.9052561712616
 20
344.3336643049104
 30
0.0
 40
2.500000118743624
100
AcDbArc
 50
142.0000000000312
 51
171.0000000000075
  0
LINE
  5
76A
330
18
100
AcDbEntity
  8
1
  6
Continuous
100
AcDbLine
 10
297.0167064807851
 20
339.1836761313801
 30
0.0
 11
290.8175126904089
 21
339.1836761313801
 31
0.0
  0
ARC
  5
76B
330
18
100
AcDbEntity
  8
1
  6
Continuous
100
AcDbCircle
 10
289.928962999934
 20
344.3336643049104
 30
0.0
 40
2.500000118743665
100
AcDbArc
 50
8.999999999994527
 51
37.99999999997071
  0
ARC
  5
76C
330
18
100
AcDbEntity
  8
1
  6
Continuous
100
AcDbCircle
 10
293.9171095855978
 20
335.1336759390153
 30
0.0
 40
11.60010719608058
100
AcDbArc
 50
102.9521905958705
 51
103.3302476292178
  0
LINE
  5
76D
330
18
100
AcDbEntity
  8
1
  6
Continuous
100
AcDbLine
 10
291.3171094621044
 20
346.3950081700233
 30
0.0
 11
291.3171094621044
 21
346.8486242119315
 31
0.0
  0
ARC
  5
76E
330
18
100
AcDbEntity
  8
1
  6
Continuous
100
AcDbCircle
 10
290.9481565524234
 20
345.4655600297635
 30
0.0
 40
1.000000047497447
100
AcDbArc
 50
38.0000000000949
 51
106.0324460216094
  0
LINE
  5
76F
330
18
100
AcDbEntity
  8
1
  6
Continuous
100
AcDbLine
 10
291.7361673434576
 20
346.0812215343328
 30
0.0
 11
291.898989977523
 21
345.8728180663293
 31
0.0
  0
ARC
  5
770
330
18
100
AcDbEntity
  8
1
  6
Continuous
100
AcDbCircle
 10
291.7359704667234
 20
344.9207966221096
 30
0.0
 40
2.500000118743666
100
AcDbArc
 50
178.0000000000051
 51
206.9999999999998
  0
ARC
  5
771
330
18
100
AcDbEntity
  8
1
  6
Continuous
100
AcDbCircle
 10
290.2461139480002
 20
345.2374525599889
 30
0.0
 40
1.000000047497469
100
AcDbArc
 50
109.9675539784044
 51
177.9999999997852
  0
LINE
  5
772
330
18
100
AcDbEntity
  8
1
  6
Continuous
100
AcDbLine
 10
289.2374932805042
 20
345.0080453680097
 30
0.0
 11
289.2467230735129
 21
345.2723520583529
 31
0.0
  0
ARC
  5
773
330
18
100
AcDbEntity
  8
1
  6
Continuous
100
AcDbCircle
 10
289.566032571499
 20
343.0120092977891
 30
0.0
 40
0.3000000142492411
100
AcDbArc
 50
298.9322639478661
 51
26.99999999998806
  0
LINE
  5
774
330
18
100
AcDbEntity
  8
1
  6
Continuous
100
AcDbLine
 10
289.8333345414517
 20
343.14820645418
 30
0.0
 11
289.5084540504509
 21
343.7858203188521
 31
0.0
  0
ARC
  5
775
330
18
100
AcDbEntity
  8
1
  6
Continuous
100
AcDbCircle
 10
293.9171095855941
 20
335.1336759390264
 30
0.0
 40
11.75000055808343
100
AcDbArc
 50
106.0324460215753
 51
109.9675539784325
  0
ARC
  5
776
330
18
100
AcDbEntity
  8
1
  6
Continuous
100
AcDbCircle
 10
292.8064366729068
 20
344.0648804140908
 30
0.0
 40
0.3000000142492376
100
AcDbArc
 50
189.0000000000011
 51
277.067730106804
  0
ARC
  5
777
330
18
100
AcDbEntity
  8
1
  6
Continuous
100
AcDbCircle
 10
295.0277824982892
 20
344.0648804140908
 30
0.0
 40
0.3000000142492339
100
AcDbArc
 50
262.9322719482552
 51
350.9999999999987
  0
ARC
  5
778
330
18
100
AcDbEntity
  8
1
  6
Continuous
100
AcDbCircle
 10
293.9171095855978
 20
335.1336759390154
 30
0.0
 40
8.700000413227767
100
AcDbArc
 50
82.91043759704216
 51
97.08956233206707
  0
LINE
  5
779
330
18
100
AcDbEntity
  8
1
  6
Continuous
100
AcDbLine
 10
292.3981839687036
 20
344.7247504860862
 30
0.0
 11
292.5101301566543
 21
344.0179500723497
 31
0.0
  0
LINE
  5
77A
330
18
100
AcDbEntity
  8
1
  6
Continuous
100
AcDbLine
 10
295.3240890145412
 20
344.0179500723497
 30
0.0
 11
295.436035202492
 21
344.7247504860862
 31
0.0
  0
LINE
  5
77B
330
18
100
AcDbEntity
  8
1
  6
Continuous
100
AcDbLine
 10
293.9171095855978
 20
340.0836761741278
 30
0.0
 11
289.4671093742341
 21
340.0836761741278
 31
0.0
  0
LINE
  5
77C
330
18
100
AcDbEntity
  8
1
  6
Continuous
100
AcDbLine
 10
293.9921095891601
 20
340.0586761729404
 30
0.0
 11
289.7521514047917
 21
340.0586761729404
 31
0.0
  0
ARC
  5
77D
330
18
100
AcDbEntity
  8
1
  6
Continuous
100
AcDbCircle
 10
289.4671093742341
 20
339.583676150379
 30
0.0
 40
0.5000000237487207
100
AcDbArc
 50
90.0
 51
179.9999999999995
  0
ARC
  5
77E
330
18
100
AcDbEntity
  8
1
  6
Continuous
100
AcDbCircle
 10
293.9171095855978
 20
335.1336759390154
 30
0.0
 40
6.450000306358552
100
AcDbArc
 50
129.8752773570738
 51
140.1247226429235
  0
ARC
  5
77F
330
18
100
AcDbEntity
  8
1
  6
Continuous
100
AcDbCircle
 10
293.9171095855978
 20
335.1336759390154
 30
0.0
 40
5.100000242236909
100
AcDbArc
 50
127.4280055430422
 51
142.5719944569559
  0
LINE
  5
780
330
18
100
AcDbEntity
  8
1
  6
Continuous
100
AcDbLine
 10
293.9171095855978
 20
340.0586761729404
 30
0.0
 11
293.9171095855978
 21
340.0836761741278
 31
0.0
  0
LINE
  5
781
330
18
100
AcDbEntity
  8
1
  6
Continuous
100
AcDbLine
 10
293.9921095891601
 20
340.0586761729404
 30
0.0
 11
293.9921095891601
 21
339.1836761313801
 31
0.0
  0
ARC
  5
782
330
18
100
AcDbEntity
  8
1
  6
Continuous
100
AcDbCircle
 10
293.9171095855982
 20
335.1336759390151
 30
0.0
 40
8.700000413228217
100
AcDbArc
 50
118.9104378729215
 51
133.0895633971514
  0
ARC
  5
783
330
18
100
AcDbEntity
  8
1
  6
Continuous
100
AcDbCircle
 10
293.9171095855946
 20
335.133675939005
 30
0.0
 40
11.75000055810602
100
AcDbArc
 50
70.03244602156785
 51
73.96755397842413
  0
LINE
  5
784
330
18
100
AcDbEntity
  8
1
  6
Continuous
100
AcDbLine
 10
302.4171099893262
 20
342.7947465917317
 30
0.0
 11
302.4171099893262
 21
343.3184182296259
 31
0.0
  0
LINE
  5
785
330
18
100
AcDbEntity
  8
1
  6
Continuous
100
AcDbLine
 10
298.0444337034524
 20
343.2336763237447
 30
0.0
 11
302.4171099893266
 21
343.2336763237447
 31
0.0
  0
ARC
  5
786
330
18
100
AcDbEntity
  8
1
  6
Continuous
100
AcDbCircle
 10
293.9171095855932
 20
335.1336759390103
 30
0.0
 40
11.75000055810184
100
AcDbArc
 50
40.76037176025722
 51
41.29957390461772
  0
LINE
  5
787
330
18
100
AcDbEntity
  8
1
  6
Continuous
100
AcDbLine
 10
301.8621120099211
 20
342.6356034820317
 30
0.0
 11
302.7445212455765
 21
342.8886302587069
 31
0.0
  0
ARC
  5
788
330
18
100
AcDbEntity
  8
1
  6
Continuous
100
AcDbCircle
 10
300.6671063851546
 20
341.0336603481663
 30
0.0
 40
2.000015966082119
100
AcDbArc
 50
53.26349952835832
 51
89.99989913012075
  0
ARC
  5
789
330
18
100
AcDbEntity
  8
1
  6
Continuous
100
AcDbCircle
 10
296.0982487044726
 20
344.9207966221096
 30
0.0
 40
2.500000118743645
100
AcDbArc
 50
333.000000000002
 51
1.999999999996758
  0
ARC
  5
78A
330
18
100
AcDbEntity
  8
1
  6
Continuous
100
AcDbCircle
 10
297.5881052231958
 20
345.237452559989
 30
0.0
 40
1.000000047497447
100
AcDbArc
 50
2.000000000215165
 51
70.03244602160169
  0
LINE
  5
78B
330
18
100
AcDbEntity
  8
1
  6
Continuous
100
AcDbLine
 10
298.5874960976831
 20
345.2723520583529
 30
0.0
 11
298.5967258906913
 21
345.0080453680099
 31
0.0
  0
ARC
  5
78C
330
18
100
AcDbEntity
  8
1
  6
Continuous
100
AcDbCircle
 10
298.268186599697
 20
343.0120092977891
 30
0.0
 40
0.3000000142492343
100
AcDbArc
 50
153.0000000000116
 51
241.0636123069704
  0
LINE
  5
78D
330
18
100
AcDbEntity
  8
1
  6
Continuous
100
AcDbLine
 10
298.3257651207446
 20
343.7858203188523
 30
0.0
 11
298.0008846297442
 21
343.14820645418
 31
0.0
  0
ARC
  5
78E
330
18
100
AcDbEntity
  8
1
  6
Continuous
100
AcDbCircle
 10
293.9171095855978
 20
335.1336759390153
 30
0.0
 40
11.60042598450272
100
AcDbArc
 50
44.2888393290691
 51
67.33292767489764
  0
LINE
  5
78F
330
18
100
AcDbEntity
  8
1
  6
Continuous
100
AcDbLine
 10
297.9689700410855
 20
343.0336763142452
 30
0.0
 11
300.6671099062056
 21
343.0336763142452
 31
0.0
  0
LINE
  5
790
330
18
100
AcDbEntity
  8
1
  6
Continuous
100
AcDbLine
 10
295.9352291936735
 20
345.8728180663289
 30
0.0
 11
296.0980518277398
 21
346.0812215343318
 31
0.0
  0
ARC
  5
791
330
18
100
AcDbEntity
  8
1
  6
Continuous
100
AcDbCircle
 10
293.9171095855978
 20
335.1336759390153
 30
0.0
 40
11.60042598450272
100
AcDbArc
 50
76.66707232511881
 51
77.04780940412942
  0
LINE
  5
792
330
18
100
AcDbEntity
  8
1
  6
Continuous
100
AcDbLine
 10
296.5171097090911
 20
346.8486242119315
 30
0.0
 11
296.5171097090911
 21
346.3950081700233
 31
0.0
  0
ARC
  5
793
330
18
100
AcDbEntity
  8
1
  6
Continuous
100
AcDbCircle
 10
296.8860626187725
 20
345.4655600297635
 30
0.0
 40
1.000000047497464
100
AcDbArc
 50
73.96755397839024
 51
141.9999999999054
  0
ARC
  5
794
330
18
100
AcDbEntity
  8
1
  6
Continuous
100
AcDbCircle
 10
302.0679729947693
 20
338.9498826131384
 30
0.0
 40
0.300000014249232
100
AcDbArc
 50
116.9999999999872
 51
205.0677283544261
  0
ARC
  5
795
330
18
100
AcDbEntity
  8
1
  6
Continuous
100
AcDbCircle
 10
301.434413399793
 20
341.7695814903648
 30
0.0
 40
2.500000118743443
100
AcDbArc
 50
296.9999999999952
 51
303.5784764141669
  0
LINE
  5
796
330
18
100
AcDbEntity
  8
1
  6
Continuous
100
AcDbLine
 10
300.0688331648703
 20
341.2856109349649
 30
0.0
 11
300.7834383952628
 21
342.000216164973
 31
0.0
  0
LINE
  5
797
330
18
100
AcDbEntity
  8
1
  6
Continuous
100
AcDbLine
 10
302.5693897030502
 20
339.5420650740927
 30
0.0
 11
301.9317758383782
 21
339.2171845830915
 31
0.0
  0
ARC
  5
798
330
18
100
AcDbEntity
  8
1
  6
Continuous
100
AcDbCircle
 10
293.9171095855982
 20
335.1336759390154
 30
0.0
 40
5.100000242236891
100
AcDbArc
 50
37.42800554303292
 51
52.57199445696807
  0
ARC
  5
799
330
18
100
AcDbEntity
  8
1
  6
Continuous
100
AcDbCircle
 10
302.5512054321935
 20
340.232449128042
 30
0.0
 40
2.500000118743655
100
AcDbArc
 50
105.9999999999947
 51
135.0000000000003
  0
ARC
  5
79A
330
18
100
AcDbEntity
  8
1
  6
Continuous
100
AcDbCircle
 10
293.9171095855978
 20
335.1336759390153
 30
0.0
 40
8.700000413227941
100
AcDbArc
 50
45.00098452694003
 51
61.08970432516464
  0
CIRCLE
  5
79B
330
18
100
AcDbEntity
  8
1
  6
Continuous
100
AcDbCircle
 10
293.9171095856078
 20
354.1336768414673
 30
0.0
 40
2.200000104494404
  0
LINE
  5
79C
330
18
100
AcDbEntity
  8
1
  6
Continuous
100
AcDbLine
 10
300.4171098943408
 20
357.8836770195827
 30
0.0
 11
302.1671099774617
 21
357.8836770195827
 31
0.0
  0
LINE
  5
79D
330
18
100
AcDbEntity
  8
1
  6
Continuous
100
AcDbLine
 10
307.4171102268234
 20
325.1336754640413
 30
0.0
 11
304.1671100724566
 21
325.1336754640413
 31
0.0
  0
LINE
  5
79E
330
18
100
AcDbEntity
  8
1
  6
Continuous
100
AcDbLine
 10
304.1671100724566
 20
318.3836751434334
 30
0.0
 11
306.1671101674515
 21
318.3836751434334
 31
0.0
  0
LINE
  5
79F
330
18
100
AcDbEntity
  8
1
  6
Continuous
100
AcDbLine
 10
304.1671100724566
 20
325.1336754640413
 30
0.0
 11
304.1671100724566
 21
318.3836751434334
 31
0.0
  0
ARC
  5
7A0
330
18
100
AcDbEntity
  8
1
  6
Continuous
100
AcDbCircle
 10
304.6607722184645
 20
334.764590299837
 30
0.0
 40
1.000000047497437
100
AcDbArc
 50
289.999999999844
 51
358.0324460215667
  0
ARC
  5
7A1
330
18
100
AcDbEntity
  8
1
  6
Continuous
100
AcDbCircle
 10
304.6607722184645
 20
335.5027615781937
 30
0.0
 40
1.000000047497465
100
AcDbArc
 50
1.967553978433059
 51
70.00000000015595
  0
ARC
  5
7A2
330
18
100
AcDbEntity
  8
1
  6
Continuous
100
AcDbCircle
 10
293.9171095855882
 20
335.1336759390154
 30
0.0
 40
11.75000055810471
100
AcDbArc
 50
358.0324460215734
 51
1.967553978425735
  0
ARC
  5
7A3
330
18
100
AcDbEntity
  8
1
  6
Continuous
100
AcDbCircle
 10
303.8992235418501
 20
336.0836759841378
 30
0.0
 40
2.500000118743586
100
AcDbArc
 50
261.000000000008
 51
289.9999999999892
  0
ARC
  5
7A4
330
18
100
AcDbEntity
  8
1
  6
Continuous
100
AcDbCircle
 10
303.8992235418501
 20
334.1836758938928
 30
0.0
 40
2.500000118743558
100
AcDbArc
 50
70.00000000001076
 51
98.99999999999195
  0
LINE
  5
7A5
330
18
100
AcDbEntity
  8
1
  6
Continuous
100
AcDbLine
 10
305.0027923780322
 20
333.8248976344187
 30
0.0
 11
304.7542739407759
 21
333.7344443205911
 31
0.0
  0
LINE
  5
7A6
330
18
100
AcDbEntity
  8
1
  6
Continuous
100
AcDbLine
 10
304.7542739407759
 20
336.5329075574402
 30
0.0
 11
305.0027923780322
 21
336.4424542436125
 31
0.0
  0
LINE
  5
7A7
330
18
100
AcDbEntity
  8
1
  6
Continuous
100
AcDbLine
 10
304.1671100724566
 20
351.883676734598
 30
0.0
 11
304.1671100724566
 21
345.1336764139901
 31
0.0
  0
LINE
  5
7A8
330
18
100
AcDbEntity
  8
1
  6
Continuous
100
AcDbLine
 10
307.4171102268234
 20
345.1336764139901
 30
0.0
 11
304.1671100724566
 21
345.1336764139901
 31
0.0
  0
LINE
  5
7A9
330
18
100
AcDbEntity
  8
1
  6
Continuous
100
AcDbLine
 10
306.1671101674515
 20
351.883676734598
 30
0.0
 11
304.1671100724566
 21
351.883676734598
 31
0.0
  0
ARC
  5
7AA
330
18
100
AcDbEntity
  8
1
  6
Continuous
100
AcDbCircle
 10
287.9171096868422
 20
398.175639041798
 30
0.0
 40
6.000000284984697
100
AcDbArc
 50
99.59406822685828
 51
179.999999999999
  0
ARC
  5
7AB
330
18
100
AcDbEntity
  8
1
  6
Continuous
100
AcDbCircle
 10
287.9171096868426
 20
398.1756390417982
 30
0.0
 40
3.000000142492399
100
AcDbArc
 50
99.59406822685837
 51
180.0000000000004
  0
ARC
  5
7AC
330
18
100
AcDbEntity
  8
1
  6
Continuous
100
AcDbCircle
 10
286.417109615596
 20
407.0497591379463
 30
0.0
 40
6.000000284984798
100
AcDbArc
 50
279.5940682268583
 51
359.9999999999996
  0
LINE
  5
7AD
330
18
100
AcDbEntity
  8
1
  6
Continuous
100
AcDbLine
 10
306.1671101674515
 20
359.8836771145776
 30
0.0
 11
300.4171098943408
 21
359.8836771145776
 31
0.0
  0
LINE
  5
7AE
330
18
100
AcDbEntity
  8
1
  6
Continuous
100
AcDbLine
 10
299.9079361904565
 20
362.133677221447
 30
0.0
 11
306.4171101793259
 21
362.133677221447
 31
0.0
  0
LINE
  5
7AF
330
18
100
AcDbEntity
  8
1
  6
Continuous
100
AcDbLine
 10
284.9171095443498
 20
398.1756390417981
 30
0.0
 11
284.9171095443498
 21
362.133677221447
 31
0.0
  0
LINE
  5
7B0
330
18
100
AcDbEntity
  8
1
  6
Continuous
100
AcDbLine
 10
281.9171094018579
 20
362.133677221447
 30
0.0
 11
281.9171094018579
 21
398.1756390417982
 31
0.0
  0
LINE
  5
7B1
330
18
100
AcDbEntity
  8
1
  6
Continuous
100
AcDbLine
 10
281.4171089918896
 20
362.133677221447
 30
0.0
 11
287.9262829807586
 21
362.133677221447
 31
0.0
  0
LINE
  5
7B2
330
18
100
AcDbEntity
  8
1
  6
Continuous
100
AcDbLine
 10
287.4171092768743
 20
359.8836771145776
 30
0.0
 11
281.667109003764
 21
359.8836771145777
 31
0.0
  0
ARC
  5
7B3
330
18
100
AcDbEntity
  8
1
  6
Continuous
100
AcDbCircle
 10
281.4171089918896
 20
361.1336771739494
 30
0.0
 40
1.000000047497451
100
AcDbArc
 50
90.0
 51
180.0
  0
ARC
  5
7B4
330
18
100
AcDbEntity
  8
1
  6
Continuous
100
AcDbCircle
 10
293.9171095856073
 20
363.6336772926931
 30
0.0
 40
5.200000246986749
100
AcDbArc
 50
206.6001349610023
 51
333.3998650389979
  0
ARC
  5
7B5
330
18
100
AcDbEntity
  8
1
  6
Continuous
100
AcDbCircle
 10
287.9262829807586
 20
360.6336771502006
 30
0.0
 40
1.500000071246164
100
AcDbArc
 50
26.60013496090299
 51
90.0
  0
ARC
  5
7B6
330
18
100
AcDbEntity
  8
1
  6
Continuous
100
AcDbCircle
 10
299.9079361904565
 20
360.6336771502006
 30
0.0
 40
1.500000071246176
100
AcDbArc
 50
90.0
 51
153.3998650390969
  0
ARC
  5
7B7
330
18
100
AcDbEntity
  8
1
  6
Continuous
100
AcDbCircle
 10
306.4171101793259
 20
361.1336771739494
 30
0.0
 40
1.000000047497444
100
AcDbArc
 50
0.0
 51
90.0
  0
ARC
  5
7B8
330
18
100
AcDbEntity
  8
1
  6
Continuous
100
AcDbCircle
 10
286.4171096155964
 20
407.0497591379463
 30
0.0
 40
3.000000142492333
100
AcDbArc
 50
279.5940682268581
 51
359.9999999999996
  0
LINE
  5
7B9
330
18
100
AcDbEntity
  8
1
  6
Continuous
100
AcDbLine
 10
151.3597171029482
 20
518.4721489028271
 30
0.0
 11
151.3597171029482
 21
530.4721494727964
 31
0.0
  0
LINE
  5
7BA
330
18
100
AcDbEntity
  8
1
  6
Continuous
100
AcDbLine
 10
152.559717159945
 20
513.4721486653399
 30
0.0
 11
152.559717159945
 21
535.4721497102839
 31
0.0
  0
LINE
  5
7BB
330
18
100
AcDbEntity
  8
1
  6
Continuous
100
AcDbLine
 10
151.0597170886988
 20
517.3221488482051
 30
0.0
 11
151.0597170886988
 21
531.6221495274186
 31
0.0
  0
LINE
  5
7BC
330
18
100
AcDbEntity
  8
1
  6
Continuous
100
AcDbLine
 10
223.4884133846506
 20
466.1336821611818
 30
0.0
 11
209.4884127196865
 21
466.1336821611818
 31
0.0
  0
LINE
  5
7BE
330
18
100
AcDbEntity
  8
1
  6
Continuous
100
AcDbLine
 10
149.3097170055784
 20
513.4721486653399
 30
0.0
 11
149.3097170055784
 21
512.7721486320917
 31
0.0
  0
LINE
  5
7BF
330
18
100
AcDbEntity
  8
1
  6
Continuous
100
AcDbLine
 10
149.3097170055784
 20
512.7721486320917
 30
0.0
 11
151.3097171005732
 21
512.7721486320917
 31
0.0
  0
LINE
  5
7C0
330
18
100
AcDbEntity
  8
1
  6
Continuous
100
AcDbLine
 10
151.3097171005732
 20
513.4721486653399
 30
0.0
 11
151.3097171005732
 21
512.7721486320917
 31
0.0
  0
LINE
  5
7C1
330
18
100
AcDbEntity
  8
1
  6
Continuous
100
AcDbLine
 10
151.0597170886988
 20
518.4721489028271
 30
0.0
 11
151.3597171029482
 21
518.4721489028271
 31
0.0
  0
LINE
  5
7C2
330
18
100
AcDbEntity
  8
4
  6
CENTER
 48
0.2
100
AcDbLine
 10
210.9884127196865
 20
458.633681804951
 30
0.0
 11
221.9884133846508
 21
458.633681804951
 31
0.0
  0
CIRCLE
  5
7C3
330
18
100
AcDbEntity
  8
1
  6
Continuous
100
AcDbCircle
 10
216.4884130521686
 20
458.633681804951
 30
0.0
 40
2.450000116368757
  0
LINE
  5
7C4
330
18
100
AcDbEntity
  8
1
  6
Continuous
100
AcDbLine
 10
149.3097170055784
 20
536.172149743532
 30
0.0
 11
151.3097171005732
 21
536.172149743532
 31
0.0
  0
LINE
  5
7C5
330
18
100
AcDbEntity
  8
1
  6
Continuous
100
AcDbLine
 10
149.3097170055784
 20
535.4721497102838
 30
0.0
 11
149.3097170055784
 21
536.172149743532
 31
0.0
  0
LINE
  5
7C6
330
18
100
AcDbEntity
  8
1
  6
Continuous
100
AcDbLine
 10
151.3097171005732
 20
535.4721497102838
 30
0.0
 11
151.3097171005732
 21
536.172149743532
 31
0.0
  0
LINE
  5
7C7
330
18
100
AcDbEntity
  8
1
  6
Continuous
100
AcDbLine
 10
151.3597171029482
 20
530.4721494727964
 30
0.0
 11
151.0597170886988
 21
530.4721494727964
 31
0.0
  0
LINE
  5
7C9
330
18
100
AcDbEntity
  8
4
  6
CENTER
 48
0.2
100
AcDbLine
 10
284.9171096868426
 20
458.633681804951
 30
0.0
 11
303.9171103043095
 21
458.633681804951
 31
0.0
  0
LINE
  5
7CA
330
18
100
AcDbEntity
  8
1
  6
Continuous
100
AcDbLine
 10
298.6171100043302
 20
452.9836815365903
 30
0.0
 11
298.6171100043302
 21
456.5786817073436
 31
0.0
  0
LINE
  5
7CB
330
18
100
AcDbEntity
  8
1
  6
Continuous
100
AcDbLine
 10
297.917109971082
 20
464.2836820733116
 30
0.0
 11
297.917109971082
 21
452.9836815365903
 31
0.0
  0
LINE
  5
7CC
330
18
100
AcDbEntity
  8
1
  6
Continuous
100
AcDbLine
 10
298.6171100043302
 20
453.9893815843583
 30
0.0
 11
297.917109971082
 21
453.9893815843583
 31
0.0
  0
LINE
  5
7CD
330
18
100
AcDbEntity
  8
1
  6
Continuous
100
AcDbLine
 10
298.6171100043302
 20
452.9836815365903
 30
0.0
 11
297.917109971082
 21
452.9836815365903
 31
0.0
  0
LINE
  5
7CE
330
18
100
AcDbEntity
  8
1
  6
Continuous
100
AcDbLine
 10
292.4171099005807
 20
461.6336819474433
 30
0.0
 11
297.9171101618167
 21
461.6336819474433
 31
0.0
  0
LINE
  5
7CF
330
18
100
AcDbEntity
  8
1
  6
Continuous
100
AcDbLine
 10
297.9171101618167
 20
455.6336816624585
 30
0.0
 11
292.4171099005807
 21
455.6336816624585
 31
0.0
  0
LINE
  5
7D0
330
18
100
AcDbEntity
  8
1
  6
Continuous
100
AcDbLine
 10
287.9171096868426
 20
461.0836819213196
 30
0.0
 11
287.9171096868426
 21
456.1836816885821
 31
0.0
  0
LINE
  5
7D1
330
18
100
AcDbEntity
  8
1
  6
Continuous
100
AcDbLine
 10
287.9171096868426
 20
461.0836819213196
 30
0.0
 11
289.4171097580888
 21
461.0836819213196
 31
0.0
  0
LINE
  5
7D2
330
18
100
AcDbEntity
  8
1
  6
Continuous
100
AcDbLine
 10
289.4171097580888
 20
456.1836816885821
 30
0.0
 11
287.9171096868426
 21
456.1836816885821
 31
0.0
  0
LINE
  5
7D3
330
18
100
AcDbEntity
  8
1
  6
Continuous
100
AcDbLine
 10
298.6171100043302
 20
463.2779820255432
 30
0.0
 11
297.917109971082
 21
463.2779820255432
 31
0.0
  0
LINE
  5
7D4
330
18
100
AcDbEntity
  8
1
  6
Continuous
100
AcDbLine
 10
298.6171100043302
 20
456.5786817073435
 30
0.0
 11
297.917109971082
 21
456.5786817073435
 31
0.0
  0
LINE
  5
7D5
330
18
100
AcDbEntity
  8
1
  6
Continuous
100
AcDbLine
 10
298.6171100043302
 20
460.6886819025581
 30
0.0
 11
297.917109971082
 21
460.6886819025581
 31
0.0
  0
LINE
  5
7D6
330
18
100
AcDbEntity
  8
1
  6
Continuous
100
AcDbLine
 10
297.917109971082
 20
464.2836820733116
 30
0.0
 11
298.6171100043302
 21
464.2836820733116
 31
0.0
  0
LINE
  5
7D7
330
18
100
AcDbEntity
  8
1
  6
Continuous
100
AcDbLine
 10
299.1171102188136
 20
461.6336819474433
 30
0.0
 11
299.1171102188136
 21
455.6336816624586
 31
0.0
  0
LINE
  5
7D8
330
18
100
AcDbEntity
  8
1
  6
Continuous
100
AcDbLine
 10
298.6171100043302
 20
461.1336819236946
 30
0.0
 11
299.1171102188136
 21
461.1336819236946
 31
0.0
  0
LINE
  5
7D9
330
18
100
AcDbEntity
  8
1
  6
Continuous
100
AcDbLine
 10
299.1171102188136
 20
456.1336816862072
 30
0.0
 11
298.6171100043302
 21
456.1336816862072
 31
0.0
  0
LINE
  5
7DA
330
18
100
AcDbEntity
  8
1
  6
Continuous
100
AcDbLine
 10
300.4171102805603
 20
461.6336819474433
 30
0.0
 11
300.4171102805603
 21
455.6336816624586
 31
0.0
  0
LINE
  5
7DB
330
18
100
AcDbEntity
  8
1
  6
Continuous
100
AcDbLine
 10
300.9172103043092
 20
456.1337816862073
 30
0.0
 11
300.4171102805603
 21
455.6336816624585
 31
0.0
  0
LINE
  5
7DC
330
18
100
AcDbEntity
  8
1
  6
Continuous
100
AcDbLine
 10
300.4171102805603
 20
461.6336819474431
 30
0.0
 11
300.9171103043095
 21
461.1336819236943
 31
0.0
  0
LINE
  5
7DD
330
18
100
AcDbEntity
  8
1
  6
Continuous
100
AcDbLine
 10
300.9171103043095
 20
456.1336816862072
 30
0.0
 11
300.9171103043095
 21
461.1336819236943
 31
0.0
  0
LINE
  5
7DE
330
18
100
AcDbEntity
  8
1
  6
Continuous
100
AcDbLine
 10
299.1171102188136
 20
461.6336819474433
 30
0.0
 11
300.4171102805603
 21
461.6336819474433
 31
0.0
  0
LINE
  5
7DF
330
18
100
AcDbEntity
  8
1
  6
Continuous
100
AcDbLine
 10
300.4171102805603
 20
455.6336816624585
 30
0.0
 11
299.1171102188136
 21
455.6336816624585
 31
0.0
  0
LINE
  5
7E0
330
18
100
AcDbEntity
  8
1
  6
Continuous
100
AcDbLine
 10
298.6171100043302
 20
464.2836820733116
 30
0.0
 11
298.6171100043302
 21
460.6886819025581
 31
0.0
  0
LINE
  5
7E1
330
18
100
AcDbEntity
  8
1
  6
Continuous
100
AcDbLine
 10
289.4171097580888
 20
466.1336821611818
 30
0.0
 11
292.4171099005807
 21
466.1336821611818
 31
0.0
  0
ENDSEC
  0
SECTION
  2
OBJECTS
  0
DICTIONARY
  5
C
330
0
100
AcDbDictionary
281
     1
  3
ACAD_CIP_PREVIOUS_PRODUCT_INFO
350
C2A
  3
ACAD_COLOR
350
C0D
  3
ACAD_DETAILVIEWSTYLE
350
C26
  3
ACAD_GROUP
350
D
  3
ACAD_LAYOUT
350
94
  3
ACAD_MATERIAL
350
BDB
  3
ACAD_MLEADERSTYLE
350
C22
  3
ACAD_MLINESTYLE
350
1B
  3
ACAD_PLOTSETTINGS
350
95
  3
ACAD_PLOTSTYLENAME
350
BD9
  3
ACAD_SCALELIST
350
C10
  3
ACAD_SECTIONVIEWSTYLE
350
C24
  3
ACAD_TABLESTYLE
350
C0E
  3
ACAD_VISUALSTYLE
350
BF4
  3
ACDB_RECOMPOSE_DATA
350
C48
  3
AcDbVariableDictionary
350
C3B
  3
CONTENTDICTIONARY
350
3D
  3
DWGPROPS
350
C49
  0
DICTIONARY
  5
C2B
330
E
100
AcDbDictionary
280
     1
281
     1
  3
ADSK_XREC_LAYER_RECONCILED
360
C2C
  0
DICTIONARY
  5
C2D
330
4E
100
AcDbDictionary
280
     1
281
     1
  3
ADSK_XREC_LAYER_RECONCILED
360
C2E
  0
DICTIONARY
  5
C2F
330
4F
100
AcDbDictionary
280
     1
281
     1
  3
ADSK_XREC_LAYER_RECONCILED
360
C30
  0
DICTIONARY
  5
C31
330
50
100
AcDbDictionary
280
     1
281
     1
  3
ADSK_XREC_LAYER_RECONCILED
360
C32
  0
DICTIONARY
  5
C33
330
51
100
AcDbDictionary
280
     1
281
     1
  3
ADSK_XREC_LAYER_RECONCILED
360
C34
  0
DICTIONARY
  5
C35
330
52
100
AcDbDictionary
280
     1
281
     1
  3
ADSK_XREC_LAYER_RECONCILED
360
C36
  0
DICTIONARY
  5
C37
330
53
100
AcDbDictionary
280
     1
281
     1
  3
ADSK_XREC_LAYER_RECONCILED
360
C38
  0
DICTIONARY
  5
C39
330
54
100
AcDbDictionary
280
     1
281
     1
  3
ADSK_XREC_LAYER_RECONCILED
360
C3A
  0
DICTIONARY
  5
BD4
330
18
100
AcDbDictionary
281
     1
  3
ACAD_LAYOUTSELFREF
350
BD5
  0
DICTIONARY
  5
BD2
330
15
100
AcDbDictionary
281
     1
  3
ACAD_LAYOUTSELFREF
350
BD3
  0
XRECORD
  5
C2A
102
{ACAD_REACTORS
330
C
102
}
330
C
100
AcDbXrecord
280
     1
300
ACDLT
300
2014
300
ACDLT_F_S
  0
DICTIONARY
  5
C0D
102
{ACAD_REACTORS
330
C
102
}
330
C
100
AcDbDictionary
281
     1
  0
DICTIONARY
  5
C26
102
{ACAD_REACTORS
330
C
102
}
330
C
100
AcDbDictionary
281
     1
  3
Imperial24
350
C27
  0
DICTIONARY
  5
D
102
{ACAD_REACTORS
330
C
102
}
330
C
100
AcDbDictionary
281
     1
  0
DICTIONARY
  5
94
102
{ACAD_REACTORS
330
C
102
}
330
C
100
AcDbDictionary
281
     1
  3
Model
350
C28
  3
レイアウト1
350
C29
  0
DICTIONARY
  5
BDB
102
{ACAD_REACTORS
330
C
102
}
330
C
100
AcDbDictionary
281
     1
  3
ByBlock
350
BE4
  3
ByLayer
350
BDC
  3
Global
350
BEC
  0
DICTIONARY
  5
C22
102
{ACAD_REACTORS
330
C
102
}
330
C
100
AcDbDictionary
281
     1
  3
Standard
350
C23
  0
DICTIONARY
  5
1B
102
{ACAD_REACTORS
330
C
102
}
330
C
100
AcDbDictionary
281
     1
  3
STANDARD
350
1C
  0
DICTIONARY
  5
95
102
{ACAD_REACTORS
330
C
102
}
330
C
100
AcDbDictionary
281
     1
  0
ACDBDICTIONARYWDFLT
  5
BD9
102
{ACAD_REACTORS
330
C
102
}
330
C
100
AcDbDictionary
281
     1
  3
Normal
350
BDA
100
AcDbDictionaryWithDefault
340
BDA
  0
DICTIONARY
  5
C10
102
{ACAD_REACTORS
330
C
102
}
330
C
100
AcDbDictionary
281
     1
  3
A0
350
C11
  3
A1
350
C12
  3
A2
350
C13
  3
A3
350
C14
  3
A4
350
C15
  3
A5
350
C16
  3
A6
350
C17
  3
A7
350
C18
  3
A8
350
C19
  3
A9
350
C1A
  3
B0
350
C1B
  3
B1
350
C1C
  3
B2
350
C1D
  3
B3
350
C1E
  3
B4
350
C1F
  3
B5
350
C20
  3
B6
350
C21
  0
DICTIONARY
  5
C24
102
{ACAD_REACTORS
330
C
102
}
330
C
100
AcDbDictionary
281
     1
  3
Imperial24
350
C25
  0
DICTIONARY
  5
C0E
102
{ACAD_REACTORS
330
C
102
}
330
C
100
AcDbDictionary
281
     1
  3
Standard
350
C0F
  0
DICTIONARY
  5
BF4
102
{ACAD_REACTORS
330
C
102
}
330
C
100
AcDbDictionary
281
     1
  3
2dWireframe
350
BFA
  3
Basic
350
BF9
  3
Brighten
350
C00
  3
ColorChange
350
C04
  3
Conceptual
350
BFD
  3
Dim
350
BFF
  3
EdgeColorOff
350
C0C
  3
Facepattern
350
C03
  3
Flat
350
BF5
  3
FlatWithEdges
350
BF6
  3
Gouraud
350
BF7
  3
GouraudWithEdges
350
BF8
  3
Hidden
350
BFC
  3
JitterOff
350
C0A
  3
Linepattern
350
C02
  3
OverhangOff
350
C0B
  3
Realistic
350
BFE
  3
Shaded
350
C09
  3
Shaded with edges
350
C08
  3
Shades of Gray
350
C05
  3
Sketchy
350
C06
  3
Thicken
350
C01
  3
Wireframe
350
BFB
  3
X-Ray
350
C07
  0
XRECORD
  5
C48
102
{ACAD_REACTORS
330
C
102
}
330
C
100
AcDbXrecord
280
     1
 90
        1
330
C0F
  0
DICTIONARY
  5
C3B
102
{ACAD_REACTORS
330
C
102
}
330
C
100
AcDbDictionary
281
     1
  3
CANNOSCALE
350
C40
  3
CMLEADERSTYLE
350
C3D
  3
CTABLESTYLE
350
C3C
  3
CVIEWDETAILSTYLE
350
C3E
  3
CVIEWSECTIONSTYLE
350
C3F
  3
DIMASSOC
350
C43
  3
INDEXCTL
350
C42
  3
SORTENTS
350
C41
  3
XCLIPFRAME
350
C44
  0
DICTIONARY
  5
3D
102
{ACAD_REACTORS
330
C
102
}
330
C
100
AcDbDictionary
281
     1
  0
XRECORD
  5
C49
102
{ACAD_REACTORS
330
C
102
}
330
C
100
AcDbXrecord
280
     1
  1
DWGPROPS COOKIE
  2

  3

  4

  6

  7

  8
Yoshitsune
  9

300
=
301
=
302
=
303
=
304
=
305
=
306
=
307
=
308
=
309
=
 40
0.0137100694444445
 41
2454168.681633021
 42
2457192.700641771
  1

 90
        0
  0
XRECORD
  5
C2C
102
{ACAD_REACTORS
330
C2B
102
}
330
C2B
100
AcDbXrecord
280
     1
290
     1
  0
XRECORD
  5
C2E
102
{ACAD_REACTORS
330
C2D
102
}
330
C2D
100
AcDbXrecord
280
     1
290
     1
  0
XRECORD
  5
C30
102
{ACAD_REACTORS
330
C2F
102
}
330
C2F
100
AcDbXrecord
280
     1
290
     1
  0
XRECORD
  5
C32
102
{ACAD_REACTORS
330
C31
102
}
330
C31
100
AcDbXrecord
280
     1
290
     1
  0
XRECORD
  5
C34
102
{ACAD_REACTORS
330
C33
102
}
330
C33
100
AcDbXrecord
280
     1
290
     1
  0
XRECORD
  5
C36
102
{ACAD_REACTORS
330
C35
102
}
330
C35
100
AcDbXrecord
280
     1
290
     1
  0
XRECORD
  5
C38
102
{ACAD_REACTORS
330
C37
102
}
330
C37
100
AcDbXrecord
280
     1
290
     1
  0
XRECORD
  5
C3A
102
{ACAD_REACTORS
330
C39
102
}
330
C39
100
AcDbXrecord
280
     1
290
     1
  0
XRECORD
  5
BD5
102
{ACAD_REACTORS
330
BD4
102
}
330
BD4
100
AcDbXrecord
280
     1
340
18
  0
XRECORD
  5
BD3
102
{ACAD_REACTORS
330
BD2
102
}
330
BD2
100
AcDbXrecord
280
     1
340
15
  0
ACDBDETAILVIEWSTYLE
  5
C27
102
{ACAD_XDICTIONARY
360
C81
102
}
102
{ACAD_REACTORS
330
C26
102
}
330
C26
100
AcDbModelDocViewStyle
 70
     0
  3
Imperial24
290
     0
100
AcDbDetailViewStyle
 70
     0
 71
     0
 90
        3
 71
     1
340
F
 40
0.24
340
0
 40
0.24
300

 40
0.36
280
     3
 71
     2
340
14
 90
       25
 71
     3
340
F
 40
0.24
 90
        1
 40
0.75
 90
        1
300
%<\AcVar ViewType \f "%tc1">% %<\AcVar ViewDetailId>%\PSCALE %<\AcVar ViewScale \f "%sn">%
 71
     4
340
14
 90
       25
340
14
 90
       25
280
     0
  0
LAYOUT
  5
C28
102
{ACAD_XDICTIONARY
360
C83
102
}
102
{ACAD_REACTORS
330
94
102
}
330
94
100
AcDbPlotSettings
  1

  2
Canon LBP9100C
  4

  6

 40
0.0
 41
0.0
 42
0.0
 43
0.0
 44
0.0
 45
0.0
 46
0.0
 47
0.0
 48
0.0
 49
0.0
140
0.0
141
0.0
142
1.0
143
1.0
 70
  1712
 72
     0
 73
     0
 74
     0
  7

 75
     0
147
1.0
148
0.0
149
0.0
100
AcDbLayout
  1
Model
 70
     1
 71
     0
 10
0.0
 20
0.0
 11
12.0
 21
9.0
 12
0.0
 22
0.0
 32
0.0
 14
0.0
 24
0.0
 34
0.0
 15
0.0
 25
0.0
 35
0.0
146
0.0
 13
0.0
 23
0.0
 33
0.0
 16
1.0
 26
0.0
 36
0.0
 17
0.0
 27
1.0
 37
0.0
 76
     0
330
18
331
BD1
  0
LAYOUT
  5
C29
102
{ACAD_XDICTIONARY
360
C85
102
}
102
{ACAD_REACTORS
330
94
102
}
330
94
100
AcDbPlotSettings
  1

  2
Canon LBP9100C
  4

  6

 40
0.0
 41
0.0
 42
0.0
 43
0.0
 44
0.0
 45
0.0
 46
0.0
 47
0.0
 48
0.0
 49
0.0
140
0.0
141
0.0
142
1.0
143
1.0
 70
   688
 72
     0
 73
     0
 74
     5
  7

 75
    16
147
1.0
148
0.0
149
0.0
100
AcDbLayout
  1
レイアウト1
 70
     1
 71
     1
 10
0.0
 20
0.0
 11
420.0
 21
297.0
 12
0.0
 22
0.0
 32
0.0
 14
1.000000000000000E+20
 24
1.000000000000000E+20
 34
1.000000000000000E+20
 15
-1.000000000000000E+20
 25
-1.000000000000000E+20
 35
-1.000000000000000E+20
146
0.0
 13
0.0
 23
0.0
 33
0.0
 16
1.0
 26
0.0
 36
0.0
 17
0.0
 27
1.0
 37
0.0
 76
     0
330
15
  0
MATERIAL
  5
BE4
102
{ACAD_XDICTIONARY
360
BE5
102
}
102
{ACAD_REACTORS
330
BDB
102
}
330
BDB
100
AcDbMaterial
  1
ByBlock
 72
     0
 43
0.0208333333333333
 43
0.0
 43
0.0
 43
0.0
 43
0.0
 43
0.0208333333333333
 43
0.0
 43
0.0
 43
0.0
 43
0.0
 43
1.0
 43
0.0
 43
0.0
 43
0.0
 43
0.0
 43
1.0
 77
     0
 47
0.0208333333333333
 47
0.0
 47
0.0
 47
0.0
 47
0.0
 47
0.0208333333333333
 47
0.0
 47
0.0
 47
0.0
 47
0.0
 47
1.0
 47
0.0
 47
0.0
 47
0.0
 47
0.0
 47
1.0
171
     0
 49
0.0208333333333333
 49
0.0
 49
0.0
 49
0.0
 49
0.0
 49
0.0208333333333333
 49
0.0
 49
0.0
 49
0.0
 49
0.0
 49
1.0
 49
0.0
 49
0.0
 49
0.0
 49
0.0
 49
1.0
175
     0
142
0.0208333333333333
142
0.0
142
0.0
142
0.0
142
0.0
142
0.0208333333333333
142
0.0
142
0.0
142
0.0
142
0.0
142
1.0
142
0.0
142
0.0
142
0.0
142
0.0
142
1.0
179
     0
144
0.0208333333333333
144
0.0
144
0.0
144
0.0
144
0.0
144
0.0208333333333333
144
0.0
144
0.0
144
0.0
144
0.0
144
1.0
144
0.0
144
0.0
144
0.0
144
0.0
144
1.0
147
0.0208333333333333
147
0.0
147
0.0
147
0.0
147
0.0
147
0.0208333333333333
147
0.0
147
0.0
147
0.0
147
0.0
147
1.0
147
0.0
147
0.0
147
0.0
147
0.0
147
1.0
  0
MATERIAL
  5
BDC
102
{ACAD_XDICTIONARY
360
BDD
102
}
102
{ACAD_REACTORS
330
BDB
102
}
330
BDB
100
AcDbMaterial
  1
ByLayer
 72
     0
 43
0.0208333333333333
 43
0.0
 43
0.0
 43
0.0
 43
0.0
 43
0.0208333333333333
 43
0.0
 43
0.0
 43
0.0
 43
0.0
 43
1.0
 43
0.0
 43
0.0
 43
0.0
 43
0.0
 43
1.0
 77
     0
 47
0.0208333333333333
 47
0.0
 47
0.0
 47
0.0
 47
0.0
 47
0.0208333333333333
 47
0.0
 47
0.0
 47
0.0
 47
0.0
 47
1.0
 47
0.0
 47
0.0
 47
0.0
 47
0.0
 47
1.0
171
     0
 49
0.0208333333333333
 49
0.0
 49
0.0
 49
0.0
 49
0.0
 49
0.0208333333333333
 49
0.0
 49
0.0
 49
0.0
 49
0.0
 49
1.0
 49
0.0
 49
0.0
 49
0.0
 49
0.0
 49
1.0
175
     0
142
0.0208333333333333
142
0.0
142
0.0
142
0.0
142
0.0
142
0.0208333333333333
142
0.0
142
0.0
142
0.0
142
0.0
142
1.0
142
0.0
142
0.0
142
0.0
142
0.0
142
1.0
179
     0
144
0.0208333333333333
144
0.0
144
0.0
144
0.0
144
0.0
144
0.0208333333333333
144
0.0
144
0.0
144
0.0
144
0.0
144
1.0
144
0.0
144
0.0
144
0.0
144
0.0
144
1.0
147
0.0208333333333333
147
0.0
147
0.0
147
0.0
147
0.0
147
0.0208333333333333
147
0.0
147
0.0
147
0.0
147
0.0
147
1.0
147
0.0
147
0.0
147
0.0
147
0.0
147
1.0
  0
MATERIAL
  5
BEC
102
{ACAD_XDICTIONARY
360
BED
102
}
102
{ACAD_REACTORS
330
BDB
102
}
330
BDB
100
AcDbMaterial
  1
Global
 72
     0
 43
0.0208333333333333
 43
0.0
 43
0.0
 43
0.0
 43
0.0
 43
0.0208333333333333
 43
0.0
 43
0.0
 43
0.0
 43
0.0
 43
1.0
 43
0.0
 43
0.0
 43
0.0
 43
0.0
 43
1.0
 77
     0
 47
0.0208333333333333
 47
0.0
 47
0.0
 47
0.0
 47
0.0
 47
0.0208333333333333
 47
0.0
 47
0.0
 47
0.0
 47
0.0
 47
1.0
 47
0.0
 47
0.0
 47
0.0
 47
0.0
 47
1.0
171
     0
 49
0.0208333333333333
 49
0.0
 49
0.0
 49
0.0
 49
0.0
 49
0.0208333333333333
 49
0.0
 49
0.0
 49
0.0
 49
0.0
 49
1.0
 49
0.0
 49
0.0
 49
0.0
 49
0.0
 49
1.0
175
     0
142
0.0208333333333333
142
0.0
142
0.0
142
0.0
142
0.0
142
0.0208333333333333
142
0.0
142
0.0
142
0.0
142
0.0
142
1.0
142
0.0
142
0.0
142
0.0
142
0.0
142
1.0
179
     0
144
0.0208333333333333
144
0.0
144
0.0
144
0.0
144
0.0
144
0.0208333333333333
144
0.0
144
0.0
144
0.0
144
0.0
144
1.0
144
0.0
144
0.0
144
0.0
144
0.0
144
1.0
147
0.0208333333333333
147
0.0
147
0.0
147
0.0
147
0.0
147
0.0208333333333333
147
0.0
147
0.0
147
0.0
147
0.0
147
1.0
147
0.0
147
0.0
147
0.0
147
0.0
147
1.0
  0
MLEADERSTYLE
  5
C23
102
{ACAD_REACTORS
330
C22
102
}
330
C22
100
AcDbMLeaderStyle
170
     2
171
     1
172
     0
 90
        2
 40
0.0
 41
0.0
173
     1
 91
-1056964608
340
12
 92
       -2
290
     1
 42
0.09
291
     1
 43
0.36
  3
Standard
 44
0.18
300

342
F
174
     1
178
     6
175
     1
176
     0
 93
-1056964608
 45
0.18
292
     0
297
     0
 46
0.18
 94
-1056964608
 47
1.0
 49
1.0
140
1.0
293
     1
141
0.0
294
     1
177
     0
142
1.0
295
     0
296
     0
143
0.125
1001
ACAD_MLEADERVER
1070
     2
  0
MLINESTYLE
  5
1C
102
{ACAD_REACTORS
330
1B
102
}
330
1B
100
AcDbMlineStyle
  2
STANDARD
 70
     0
  3

 62
   256
 51
90.0
 52
90.0
 71
     2
 49
0.5
 62
   256
  6
BYLAYER
 49
-0.5
 62
   256
  6
BYLAYER
  0
ACDBPLACEHOLDER
  5
BDA
102
{ACAD_REACTORS
330
BD9
102
}
330
BD9
  0
SCALE
  5
C11
102
{ACAD_REACTORS
330
C10
102
}
330
C10
100
AcDbScale
 70
     0
300
1:1
140
1.0
141
1.0
290
     1
  0
SCALE
  5
C12
102
{ACAD_REACTORS
330
C10
102
}
330
C10
100
AcDbScale
 70
     0
300
1/128" = 1'-0"
140
0.0078125
141
12.0
290
     0
  0
SCALE
  5
C13
102
{ACAD_REACTORS
330
C10
102
}
330
C10
100
AcDbScale
 70
     0
300
1/64" = 1'-0"
140
0.015625
141
12.0
290
     0
  0
SCALE
  5
C14
102
{ACAD_REACTORS
330
C10
102
}
330
C10
100
AcDbScale
 70
     0
300
1/32" = 1'-0"
140
0.03125
141
12.0
290
     0
  0
SCALE
  5
C15
102
{ACAD_REACTORS
330
C10
102
}
330
C10
100
AcDbScale
 70
     0
300
1/16" = 1'-0"
140
0.0625
141
12.0
290
     0
  0
SCALE
  5
C16
102
{ACAD_REACTORS
330
C10
102
}
330
C10
100
AcDbScale
 70
     0
300
3/32" = 1'-0"
140
0.09375
141
12.0
290
     0
  0
SCALE
  5
C17
102
{ACAD_REACTORS
330
C10
102
}
330
C10
100
AcDbScale
 70
     0
300
1/8" = 1'-0"
140
0.125
141
12.0
290
     0
  0
SCALE
  5
C18
102
{ACAD_REACTORS
330
C10
102
}
330
C10
100
AcDbScale
 70
     0
300
3/16" = 1'-0"
140
0.1875
141
12.0
290
     0
  0
SCALE
  5
C19
102
{ACAD_REACTORS
330
C10
102
}
330
C10
100
AcDbScale
 70
     0
300
1/4" = 1'-0"
140
0.25
141
12.0
290
     0
  0
SCALE
  5
C1A
102
{ACAD_REACTORS
330
C10
102
}
330
C10
100
AcDbScale
 70
     0
300
3/8" = 1'-0"
140
0.375
141
12.0
290
     0
  0
SCALE
  5
C1B
102
{ACAD_REACTORS
330
C10
102
}
330
C10
100
AcDbScale
 70
     0
300
1/2" = 1'-0"
140
0.5
141
12.0
290
     0
  0
SCALE
  5
C1C
102
{ACAD_REACTORS
330
C10
102
}
330
C10
100
AcDbScale
 70
     0
300
3/4" = 1'-0"
140
0.75
141
12.0
290
     0
  0
SCALE
  5
C1D
102
{ACAD_REACTORS
330
C10
102
}
330
C10
100
AcDbScale
 70
     0
300
1" = 1'-0"
140
1.0
141
12.0
290
     0
  0
SCALE
  5
C1E
102
{ACAD_REACTORS
330
C10
102
}
330
C10
100
AcDbScale
 70
     0
300
1-1/2" = 1'-0"
140
1.5
141
12.0
290
     0
  0
SCALE
  5
C1F
102
{ACAD_REACTORS
330
C10
102
}
330
C10
100
AcDbScale
 70
     0
300
3" = 1'-0"
140
3.0
141
12.0
290
     0
  0
SCALE
  5
C20
102
{ACAD_REACTORS
330
C10
102
}
330
C10
100
AcDbScale
 70
     0
300
6" = 1'-0"
140
6.0
141
12.0
290
     0
  0
SCALE
  5
C21
102
{ACAD_REACTORS
330
C10
102
}
330
C10
100
AcDbScale
 70
     0
300
1'-0" = 1'-0"
140
12.0
141
12.0
290
     0
  0
ACDBSECTIONVIEWSTYLE
  5
C25
102
{ACAD_XDICTIONARY
360
C7F
102
}
102
{ACAD_REACTORS
330
C24
102
}
330
C24
100
AcDbModelDocViewStyle
 70
     0
  3
Imperial24
290
     0
100
AcDbSectionViewStyle
 70
     0
 71
     0
 90
       78
 71
     1
340
F
 40
0.24
340
0
340
0
 40
0.24
300
I, O, Q, S, X, Z
 40
0.48
 90
        3
 40
0.18
 90
        1
 71
     2
340
14
 90
       25
340
14
 90
       50
 40
0.24
 40
0.0
 40
0.24
 71
     3
340
F
 40
0.24
 90
        1
 40
0.75
 90
        1
300
%<\AcVar ViewType \f "%tc1">% %<\AcVar ViewSectionStartId>%-%<\AcVar ViewSectionEndId>%\PSCALE %<\AcVar ViewScale \f "%sn">%
 71
     4
300
ANSI31
 40
1.0
 90
        0
290
     0
290
     0
 90
        6
 40
0.0
 40
1.570796326794896
 40
0.2617993877991494
 40
1.308996938995747
 40
-0.2617993877991494
 40
1.832595714594046
  0
TABLESTYLE
  5
C0F
102
{ACAD_XDICTIONARY
360
C46
102
}
102
{ACAD_REACTORS
330
C0E
102
}
330
C0E
100
AcDbTableStyle
  3
Standard
 70
     0
 71
     0
 40
0.06
 41
0.06
280
     0
281
     0
  7
STANDARD
140
0.18
170
     2
 62
     0
 63
     7
283
     0
274
    -2
284
     1
 64
     0
275
    -2
285
     1
 65
     0
276
    -2
286
     1
 66
     0
277
    -2
287
     1
 67
     0
278
    -2
288
     1
 68
     0
279
    -2
289
     1
 69
     0
  7
STANDARD
140
0.25
170
     5
 62
     0
 63
     7
283
     0
274
    -2
284
     1
 64
     0
275
    -2
285
     1
 65
     0
276
    -2
286
     1
 66
     0
277
    -2
287
     1
 67
     0
278
    -2
288
     1
 68
     0
279
    -2
289
     1
 69
     0
  7
STANDARD
140
0.18
170
     5
 62
     0
 63
     7
283
     0
274
    -2
284
     1
 64
     0
275
    -2
285
     1
 65
     0
276
    -2
286
     1
 66
     0
277
    -2
287
     1
 67
     0
278
    -2
288
     1
 68
     0
279
    -2
289
     1
 69
     0
  0
VISUALSTYLE
  5
BFA
102
{ACAD_XDICTIONARY
360
C57
102
}
102
{ACAD_REACTORS
330
BF4
102
}
330
BF4
100
AcDbVisualStyle
  2
2dWireframe
 70
     4
 71
     0
 72
     2
 73
     0
 90
        0
 40
-0.6
 41
-30.0
 62
     5
 63
     7
 74
     1
 91
        4
 64
     7
 65
   257
 75
     1
175
     1
 42
1.0
 92
        0
 66
   257
 43
1.0
 76
     1
 77
     6
 78
     2
 67
     7
 79
     5
170
     0
171
     0
290
     0
174
     0
 93
        1
 44
0.0
173
     0
291
     0
 45
0.0
1001
ACAD
1000
AcDbSavedByObjectVersion
1070
     0
  0
VISUALSTYLE
  5
BF9
102
{ACAD_XDICTIONARY
360
C55
102
}
102
{ACAD_REACTORS
330
BF4
102
}
330
BF4
100
AcDbVisualStyle
  2
Basic
 70
     7
 71
     1
 72
     0
 73
     1
 90
        0
 40
-0.6
 41
-30.0
 62
     5
 63
     7
 74
     0
 91
        4
 64
     7
 65
   257
 75
     1
175
     1
 42
1.0
 92
        8
 66
     7
 43
1.0
 76
     1
 77
     6
 78
     2
 67
     7
 79
     5
170
     0
171
     0
290
     0
174
     0
 93
        1
 44
0.0
173
     0
291
     1
 45
0.0
1001
ACAD
1000
AcDbSavedByObjectVersion
1070
     0
  0
VISUALSTYLE
  5
C00
102
{ACAD_XDICTIONARY
360
C63
102
}
102
{ACAD_REACTORS
330
BF4
102
}
330
BF4
100
AcDbVisualStyle
  2
Brighten
 70
    12
 71
     2
 72
     2
 73
     0
 90
        0
 40
-0.6
 41
-30.0
 62
     5
 63
     7
 74
     1
 91
        4
 64
     7
 65
   257
 75
     1
175
     1
 42
1.0
 92
        8
 66
     7
 43
1.0
 76
     1
 77
     6
 78
     2
 67
     7
 79
     5
170
     0
171
     0
290
     0
174
     0
 93
        1
 44
50.0
173
     0
291
     1
 45
0.0
1001
ACAD
1000
AcDbSavedByObjectVersion
1070
     0
  0
VISUALSTYLE
  5
C04
102
{ACAD_XDICTIONARY
360
C6B
102
}
102
{ACAD_REACTORS
330
BF4
102
}
330
BF4
100
AcDbVisualStyle
  2
ColorChange
 70
    16
 71
     2
 72
     2
 73
     3
 90
        0
 40
-0.6
 41
-30.0
 62
     5
 63
     8
 74
     1
 91
        4
 64
     7
 65
   257
 75
     1
175
     1
 42
1.0
 92
        8
 66
     8
 43
1.0
 76
     1
 77
     6
 78
     2
 67
     7
 79
     5
170
     0
171
     0
290
     0
174
     0
 93
        1
 44
0.0
173
     0
291
     1
 45
0.0
1001
ACAD
1000
AcDbSavedByObjectVersion
1070
     0
  0
VISUALSTYLE
  5
BFD
102
{ACAD_XDICTIONARY
360
C5D
102
}
102
{ACAD_REACTORS
330
BF4
102
}
330
BF4
100
AcDbVisualStyle
  2
Conceptual
 70
     9
 71
     3
 72
     2
 73
     0
 90
        0
 40
-0.6
 41
-30.0
 62
     5
 63
     7
 74
     2
 91
        2
 64
     7
 65
   257
 75
     1
175
     1
 42
179.0
 92
        8
 66
     7
 43
1.0
 76
     1
 77
     6
 78
     2
 67
     7
 79
     3
170
     0
171
     0
290
     0
174
     0
 93
        1
 44
0.0
173
     0
291
     0
 45
0.0
1001
ACAD
1000
AcDbSavedByObjectVersion
1070
     0
  0
VISUALSTYLE
  5
BFF
102
{ACAD_XDICTIONARY
360
C61
102
}
102
{ACAD_REACTORS
330
BF4
102
}
330
BF4
100
AcDbVisualStyle
  2
Dim
 70
    11
 71
     2
 72
     2
 73
     0
 90
        0
 40
-0.6
 41
-30.0
 62
     5
 63
     7
 74
     1
 91
        4
 64
     7
 65
   257
 75
     1
175
     1
 42
1.0
 92
        8
 66
     7
 43
1.0
 76
     1
 77
     6
 78
     2
 67
     7
 79
     5
170
     0
171
     0
290
     0
174
     0
 93
        1
 44
-50.0
173
     0
291
     1
 45
0.0
1001
ACAD
1000
AcDbSavedByObjectVersion
1070
     0
  0
VISUALSTYLE
  5
C0C
102
{ACAD_XDICTIONARY
360
C7B
102
}
102
{ACAD_REACTORS
330
BF4
102
}
330
BF4
100
AcDbVisualStyle
  2
EdgeColorOff
 70
    22
 71
     2
 72
     2
 73
     0
 90
        0
 40
-0.6
 41
-30.0
 62
     5
 63
     7
 74
     1
 91
        4
 64
     7
 65
   257
 75
     1
175
     1
 42
1.0
 92
        8
 66
     7
 43
1.0
 76
     1
 77
     6
 78
     2
 67
     7
 79
     5
170
     0
171
     0
290
     0
174
     0
 93
        1
 44
0.0
173
     0
291
     1
 45
0.0
1001
ACAD
1000
AcDbSavedByObjectVersion
1070
     0
  0
VISUALSTYLE
  5
C03
102
{ACAD_XDICTIONARY
360
C69
102
}
102
{ACAD_REACTORS
330
BF4
102
}
330
BF4
100
AcDbVisualStyle
  2
Facepattern
 70
    15
 71
     2
 72
     2
 73
     0
 90
        0
 40
-0.6
 41
-30.0
 62
     5
 63
     7
 74
     1
 91
        4
 64
     7
 65
   257
 75
     1
175
     1
 42
1.0
 92
        8
 66
     7
 43
1.0
 76
     1
 77
     6
 78
     2
 67
     7
 79
     5
170
     0
171
     0
290
     0
174
     0
 93
        1
 44
0.0
173
     0
291
     1
 45
0.0
1001
ACAD
1000
AcDbSavedByObjectVersion
1070
     0
  0
VISUALSTYLE
  5
BF5
102
{ACAD_XDICTIONARY
360
C4D
102
}
102
{ACAD_REACTORS
330
BF4
102
}
330
BF4
100
AcDbVisualStyle
  2
Flat
 70
     0
 71
     2
 72
     1
 73
     1
 90
        2
 40
-0.6
 41
30.0
 62
     5
 63
     7
 74
     0
 91
        0
 64
     7
 65
   257
 75
     1
175
     1
 42
1.0
 92
        8
 66
     7
 43
1.0
 76
     1
 77
     6
 78
     2
 67
     7
 79
     5
170
     0
171
     0
290
     0
174
     0
 93
       13
 44
0.0
173
     0
291
     1
 45
0.0
1001
ACAD
1000
AcDbSavedByObjectVersion
1070
     0
  0
VISUALSTYLE
  5
BF6
102
{ACAD_XDICTIONARY
360
C4F
102
}
102
{ACAD_REACTORS
330
BF4
102
}
330
BF4
100
AcDbVisualStyle
  2
FlatWithEdges
 70
     1
 71
     2
 72
     1
 73
     1
 90
        2
 40
-0.6
 41
30.0
 62
     5
 63
     7
 74
     1
 91
        0
 64
     7
 65
   257
 75
     1
175
     1
 42
1.0
 92
        0
 66
   257
 43
1.0
 76
     1
 77
     6
 78
     2
 67
     7
 79
     5
170
     0
171
     0
290
     0
174
     0
 93
       13
 44
0.0
173
     0
291
     1
 45
0.0
1001
ACAD
1000
AcDbSavedByObjectVersion
1070
     0
  0
VISUALSTYLE
  5
BF7
102
{ACAD_XDICTIONARY
360
C51
102
}
102
{ACAD_REACTORS
330
BF4
102
}
330
BF4
100
AcDbVisualStyle
  2
Gouraud
 70
     2
 71
     2
 72
     2
 73
     1
 90
        2
 40
-0.6
 41
30.0
 62
     5
 63
     7
 74
     0
 91
        0
 64
     7
 65
   257
 75
     1
175
     1
 42
1.0
 92
        0
 66
     7
 43
1.0
 76
     1
 77
     6
 78
     2
 67
     7
 79
     5
170
     0
171
     0
290
     0
174
     0
 93
       13
 44
0.0
173
     0
291
     1
 45
0.0
1001
ACAD
1000
AcDbSavedByObjectVersion
1070
     0
  0
VISUALSTYLE
  5
BF8
102
{ACAD_XDICTIONARY
360
C53
102
}
102
{ACAD_REACTORS
330
BF4
102
}
330
BF4
100
AcDbVisualStyle
  2
GouraudWithEdges
 70
     3
 71
     2
 72
     2
 73
     1
 90
        2
 40
-0.6
 41
30.0
 62
     5
 63
     7
 74
     1
 91
        0
 64
     7
 65
   257
 75
     1
175
     1
 42
1.0
 92
        0
 66
   257
 43
1.0
 76
     1
 77
     6
 78
     2
 67
     7
 79
     5
170
     0
171
     0
290
     0
174
     0
 93
       13
 44
0.0
173
     0
291
     1
 45
0.0
1001
ACAD
1000
AcDbSavedByObjectVersion
1070
     0
  0
VISUALSTYLE
  5
BFC
102
{ACAD_XDICTIONARY
360
C5B
102
}
102
{ACAD_REACTORS
330
BF4
102
}
330
BF4
100
AcDbVisualStyle
  2
Hidden
 70
     6
 71
     1
 72
     2
 73
     2
 90
        0
 40
-0.6
 41
-30.0
 62
     5
 63
     7
 74
     2
 91
        2
 64
     7
 65
   257
 75
     2
175
     1
 42
40.0
 92
        0
 66
   257
 43
1.0
 76
     1
 77
     6
 78
     2
 67
     7
 79
     3
170
     0
171
     0
290
     0
174
     0
 93
        1
 44
0.0
173
     0
291
     0
 45
0.0
1001
ACAD
1000
AcDbSavedByObjectVersion
1070
     0
  0
VISUALSTYLE
  5
C0A
102
{ACAD_XDICTIONARY
360
C77
102
}
102
{ACAD_REACTORS
330
BF4
102
}
330
BF4
100
AcDbVisualStyle
  2
JitterOff
 70
    20
 71
     2
 72
     2
 73
     0
 90
        0
 40
-0.6
 41
-30.0
 62
     5
 63
     7
 74
     1
 91
        4
 64
     7
 65
   257
 75
     1
175
     1
 42
1.0
 92
       10
 66
     7
 43
1.0
 76
     1
 77
     6
 78
     2
 67
     7
 79
     5
170
     0
171
     0
290
     0
174
     0
 93
        1
 44
0.0
173
     0
291
     1
 45
0.0
1001
ACAD
1000
AcDbSavedByObjectVersion
1070
     0
  0
VISUALSTYLE
  5
C02
102
{ACAD_XDICTIONARY
360
C67
102
}
102
{ACAD_REACTORS
330
BF4
102
}
330
BF4
100
AcDbVisualStyle
  2
Linepattern
 70
    14
 71
     2
 72
     2
 73
     0
 90
        0
 40
-0.6
 41
-30.0
 62
     5
 63
     7
 74
     1
 91
        4
 64
     7
 65
   257
 75
     7
175
     7
 42
1.0
 92
        8
 66
     7
 43
1.0
 76
     1
 77
     6
 78
     2
 67
     7
 79
     5
170
     0
171
     0
290
     0
174
     0
 93
        1
 44
0.0
173
     0
291
     1
 45
0.0
1001
ACAD
1000
AcDbSavedByObjectVersion
1070
     0
  0
VISUALSTYLE
  5
C0B
102
{ACAD_XDICTIONARY
360
C79
102
}
102
{ACAD_REACTORS
330
BF4
102
}
330
BF4
100
AcDbVisualStyle
  2
OverhangOff
 70
    21
 71
     2
 72
     2
 73
     0
 90
        0
 40
-0.6
 41
-30.0
 62
     5
 63
     7
 74
     1
 91
        4
 64
     7
 65
   257
 75
     1
175
     1
 42
1.0
 92
        9
 66
     7
 43
1.0
 76
     1
 77
     6
 78
     2
 67
     7
 79
     5
170
     0
171
     0
290
     0
174
     0
 93
        1
 44
0.0
173
     0
291
     1
 45
0.0
1001
ACAD
1000
AcDbSavedByObjectVersion
1070
     0
  0
VISUALSTYLE
  5
BFE
102
{ACAD_XDICTIONARY
360
C5F
102
}
102
{ACAD_REACTORS
330
BF4
102
}
330
BF4
100
AcDbVisualStyle
  2
Realistic
 70
     8
 71
     2
 72
     3
 73
     0
 90
        2
 40
-0.6
 41
30.0
 62
     5
 63
     7
 74
     0
 91
        0
 64
     7
 65
   257
 75
     1
175
     1
 42
1.0
 92
        8
 66
   257
 43
1.0
 76
     1
 77
     6
 78
     2
 67
     7
 79
     3
170
     0
171
     0
290
     0
174
     0
 93
       13
 44
0.0
173
     0
291
     0
 45
0.0
1001
ACAD
1000
AcDbSavedByObjectVersion
1070
     0
  0
VISUALSTYLE
  5
C09
102
{ACAD_XDICTIONARY
360
C75
102
}
102
{ACAD_REACTORS
330
BF4
102
}
330
BF4
100
AcDbVisualStyle
  2
Shaded
 70
    27
 71
     2
 72
     2
 73
     1
 90
        2
 40
-0.6
 41
30.0
 62
     5
 63
     7
 74
     0
 91
        4
 64
     7
 65
   257
 75
     1
175
     1
 42
1.0
 92
        8
 66
   257
 43
1.0
 76
     1
 77
     6
 78
     2
 67
     8
 79
     3
170
     0
171
     0
290
     0
174
     0
 93
        5
 44
0.0
173
     0
291
     0
 45
0.0
1001
ACAD
1000
AcDbSavedByObjectVersion
1070
     0
  0
VISUALSTYLE
  5
C08
102
{ACAD_XDICTIONARY
360
C73
102
}
102
{ACAD_REACTORS
330
BF4
102
}
330
BF4
100
AcDbVisualStyle
  2
Shaded with edges
 70
    26
 71
     2
 72
     2
 73
     1
 90
        2
 40
-0.6
 41
30.0
 62
     5
 63
     7
 74
     1
 91
       10
 64
     7
 65
   257
 75
     2
175
     1
 42
1.0
 92
        8
 66
   257
 43
1.0
 76
     1
 77
     6
 78
     2
 67
     7
 79
     3
170
     0
171
     0
290
     0
174
     0
 93
        5
 44
0.0
173
     0
291
     0
 45
0.0
1001
ACAD
1000
AcDbSavedByObjectVersion
1070
     0
  0
VISUALSTYLE
  5
C05
102
{ACAD_XDICTIONARY
360
C6D
102
}
102
{ACAD_REACTORS
330
BF4
102
}
330
BF4
100
AcDbVisualStyle
  2
Shades of Gray
 70
    23
 71
     2
 72
     2
 73
     3
 90
        0
 40
-0.6
 41
-30.0
 62
     5
 63
     7
 74
     2
 91
        2
 64
     7
 65
     7
 75
     1
175
     1
 42
40.0
 92
        8
 66
     7
 43
1.0
 76
     1
 77
     6
 78
     2
 67
     7
 79
     3
170
     0
171
     0
290
     0
174
     0
 93
        1
 44
0.0
173
     0
291
     0
 45
0.0
1001
ACAD
1000
AcDbSavedByObjectVersion
1070
     0
  0
VISUALSTYLE
  5
C06
102
{ACAD_XDICTIONARY
360
C6F
102
}
102
{ACAD_REACTORS
330
BF4
102
}
330
BF4
100
AcDbVisualStyle
  2
Sketchy
 70
    24
 71
     1
 72
     2
 73
     2
 90
        0
 40
-0.6
 41
-30.0
 62
     5
 63
     7
 74
     2
 91
        2
 64
     7
 65
     7
 75
     1
175
     1
 42
40.0
 92
       11
 66
     7
 43
1.0
 76
     1
 77
     6
 78
     2
 67
     7
 79
     6
170
     0
171
     0
290
     0
174
     0
 93
        1
 44
0.0
173
     0
291
     0
 45
0.0
1001
ACAD
1000
AcDbSavedByObjectVersion
1070
     0
  0
VISUALSTYLE
  5
C01
102
{ACAD_XDICTIONARY
360
C65
102
}
102
{ACAD_REACTORS
330
BF4
102
}
330
BF4
100
AcDbVisualStyle
  2
Thicken
 70
    13
 71
     2
 72
     2
 73
     0
 90
        0
 40
-0.6
 41
-30.0
 62
     5
 63
     7
 74
     1
 91
        4
 64
     7
 65
   257
 75
     1
175
     1
 42
1.0
 92
       12
 66
     7
 43
1.0
 76
     1
 77
     6
 78
     2
 67
     7
 79
     5
170
     0
171
     0
290
     0
174
     0
 93
        1
 44
0.0
173
     0
291
     1
 45
0.0
1001
ACAD
1000
AcDbSavedByObjectVersion
1070
     0
  0
VISUALSTYLE
  5
BFB
102
{ACAD_XDICTIONARY
360
C59
102
}
102
{ACAD_REACTORS
330
BF4
102
}
330
BF4
100
AcDbVisualStyle
  2
Wireframe
 70
     5
 71
     0
 72
     2
 73
     0
 90
        0
 40
-0.6
 41
-30.0
 62
     5
 63
     7
 74
     1
 91
        4
 64
     7
 65
   257
 75
     1
175
     1
 42
1.0
 92
        0
 66
   257
 43
1.0
 76
     1
 77
     6
 78
     2
 67
     7
 79
     3
170
     0
171
     0
290
     0
174
     0
 93
        1
 44
0.0
173
     0
291
     0
 45
0.0
1001
ACAD
1000
AcDbSavedByObjectVersion
1070
     0
  0
VISUALSTYLE
  5
C07
102
{ACAD_XDICTIONARY
360
C71
102
}
102
{ACAD_REACTORS
330
BF4
102
}
330
BF4
100
AcDbVisualStyle
  2
X-Ray
 70
    25
 71
     2
 72
     2
 73
     1
 90
        1
 40
0.5
 41
-30.0
 62
     5
 63
     7
 74
     1
 91
        0
 64
     7
 65
   257
 75
     1
175
     1
 42
1.0
 92
        8
 66
     7
 43
1.0
 76
     1
 77
     6
 78
     2
 67
     7
 79
     3
170
     0
171
     0
290
     0
174
     0
 93
       13
 44
0.0
173
     0
291
     0
 45
0.0
1001
ACAD
1000
AcDbSavedByObjectVersion
1070
     0
  0
DICTIONARYVAR
  5
C40
102
{ACAD_REACTORS
330
C3B
102
}
330
C3B
100
DictionaryVariables
280
     0
  1
1:1
  0
DICTIONARYVAR
  5
C3D
102
{ACAD_REACTORS
330
C3B
102
}
330
C3B
100
DictionaryVariables
280
     0
  1
STANDARD
  0
DICTIONARYVAR
  5
C3C
102
{ACAD_REACTORS
330
C3B
102
}
330
C3B
100
DictionaryVariables
280
     0
  1
STANDARD
  0
DICTIONARYVAR
  5
C3E
102
{ACAD_REACTORS
330
C3B
102
}
330
C3B
100
DictionaryVariables
280
     0
  1
Imperial24
  0
DICTIONARYVAR
  5
C3F
102
{ACAD_REACTORS
330
C3B
102
}
330
C3B
100
DictionaryVariables
280
     0
  1
Imperial24
  0
DICTIONARYVAR
  5
C43
102
{ACAD_REACTORS
330
C3B
102
}
330
C3B
100
DictionaryVariables
280
     0
  1
1
  0
DICTIONARYVAR
  5
C42
102
{ACAD_REACTORS
330
C3B
102
}
330
C3B
100
DictionaryVariables
280
     0
  1
0
  0
DICTIONARYVAR
  5
C41
102
{ACAD_REACTORS
330
C3B
102
}
330
C3B
100
DictionaryVariables
280
     0
  1
127
  0
DICTIONARYVAR
  5
C44
102
{ACAD_REACTORS
330
C3B
102
}
330
C3B
100
DictionaryVariables
280
     0
  1
2
  0
DICTIONARY
  5
C81
330
C27
100
AcDbDictionary
280
     1
281
     1
  3
ACAD_XREC_ROUNDTRIP
360
C82
  0
DICTIONARY
  5
C83
330
C28
100
AcDbDictionary
280
     1
281
     1
  3
ACAD_XREC_ROUNDTRIP
360
C84
  0
DICTIONARY
  5
C85
330
C29
100
AcDbDictionary
280
     1
281
     1
  3
ACAD_XREC_ROUNDTRIP
360
C86
  0
DICTIONARY
  5
BE5
330
BE4
100
AcDbDictionary
280
     1
281
     1
  3
ACAD_XREC_ROUNDTRIP
360
C4B
  3
BUMPTILE
360
BE7
  3
DIFFUSETILE
360
BE6
  3
OPACITYTILE
360
BEA
  3
REFLECTIONTILE
360
BE9
  3
REFRACTIONTILE
360
BEB
  3
SPECULARTILE
360
BE8
  0
DICTIONARY
  5
BDD
330
BDC
100
AcDbDictionary
280
     1
281
     1
  3
ACAD_XREC_ROUNDTRIP
360
C4A
  3
BUMPTILE
360
BDF
  3
DIFFUSETILE
360
BDE
  3
OPACITYTILE
360
BE2
  3
REFLECTIONTILE
360
BE1
  3
REFRACTIONTILE
360
BE3
  3
SPECULARTILE
360
BE0
  0
DICTIONARY
  5
BED
330
BEC
100
AcDbDictionary
280
     1
281
     1
  3
ACAD_XREC_ROUNDTRIP
360
C4C
  3
BUMPTILE
360
BEF
  3
DIFFUSETILE
360
BEE
  3
OPACITYTILE
360
BF2
  3
REFLECTIONTILE
360
BF1
  3
REFRACTIONTILE
360
BF3
  3
SPECULARTILE
360
BF0
  0
DICTIONARY
  5
C7F
330
C25
100
AcDbDictionary
280
     1
281
     1
  3
ACAD_XREC_ROUNDTRIP
360
C80
  0
DICTIONARY
  5
C46
330
C0F
100
AcDbDictionary
280
     1
281
     1
  3
ACAD_ROUNDTRIP_2008_TABLESTYLE_CELLSTYLEMAP
360
C47
  3
ACAD_XREC_ROUNDTRIP
360
C7D
  0
DICTIONARY
  5
C57
330
BFA
100
AcDbDictionary
280
     1
281
     1
  3
ACAD_XREC_ROUNDTRIP
360
C58
  0
DICTIONARY
  5
C55
330
BF9
100
AcDbDictionary
280
     1
281
     1
  3
ACAD_XREC_ROUNDTRIP
360
C56
  0
DICTIONARY
  5
C63
330
C00
100
AcDbDictionary
280
     1
281
     1
  3
ACAD_XREC_ROUNDTRIP
360
C64
  0
DICTIONARY
  5
C6B
330
C04
100
AcDbDictionary
280
     1
281
     1
  3
ACAD_XREC_ROUNDTRIP
360
C6C
  0
DICTIONARY
  5
C5D
330
BFD
100
AcDbDictionary
280
     1
281
     1
  3
ACAD_XREC_ROUNDTRIP
360
C5E
  0
DICTIONARY
  5
C61
330
BFF
100
AcDbDictionary
280
     1
281
     1
  3
ACAD_XREC_ROUNDTRIP
360
C62
  0
DICTIONARY
  5
C7B
330
C0C
100
AcDbDictionary
280
     1
281
     1
  3
ACAD_XREC_ROUNDTRIP
360
C7C
  0
DICTIONARY
  5
C69
330
C03
100
AcDbDictionary
280
     1
281
     1
  3
ACAD_XREC_ROUNDTRIP
360
C6A
  0
DICTIONARY
  5
C4D
330
BF5
100
AcDbDictionary
280
     1
281
     1
  3
ACAD_XREC_ROUNDTRIP
360
C4E
  0
DICTIONARY
  5
C4F
330
BF6
100
AcDbDictionary
280
     1
281
     1
  3
ACAD_XREC_ROUNDTRIP
360
C50
  0
DICTIONARY
  5
C51
330
BF7
100
AcDbDictionary
280
     1
281
     1
  3
ACAD_XREC_ROUNDTRIP
360
C52
  0
DICTIONARY
  5
C53
330
BF8
100
AcDbDictionary
280
     1
281
     1
  3
ACAD_XREC_ROUNDTRIP
360
C54
  0
DICTIONARY
  5
C5B
330
BFC
100
AcDbDictionary
280
     1
281
     1
  3
ACAD_XREC_ROUNDTRIP
360
C5C
  0
DICTIONARY
  5
C77
330
C0A
100
AcDbDictionary
280
     1
281
     1
  3
ACAD_XREC_ROUNDTRIP
360
C78
  0
DICTIONARY
  5
C67
330
C02
100
AcDbDictionary
280
     1
281
     1
  3
ACAD_XREC_ROUNDTRIP
360
C68
  0
DICTIONARY
  5
C79
330
C0B
100
AcDbDictionary
280
     1
281
     1
  3
ACAD_XREC_ROUNDTRIP
360
C7A
  0
DICTIONARY
  5
C5F
330
BFE
100
AcDbDictionary
280
     1
281
     1
  3
ACAD_XREC_ROUNDTRIP
360
C60
  0
DICTIONARY
  5
C75
330
C09
100
AcDbDictionary
280
     1
281
     1
  3
ACAD_XREC_ROUNDTRIP
360
C76
  0
DICTIONARY
  5
C73
330
C08
100
AcDbDictionary
280
     1
281
     1
  3
ACAD_XREC_ROUNDTRIP
360
C74
  0
DICTIONARY
  5
C6D
330
C05
100
AcDbDictionary
280
     1
281
     1
  3
ACAD_XREC_ROUNDTRIP
360
C6E
  0
DICTIONARY
  5
C6F
330
C06
100
AcDbDictionary
280
     1
281
     1
  3
ACAD_XREC_ROUNDTRIP
360
C70
  0
DICTIONARY
  5
C65
330
C01
100
AcDbDictionary
280
     1
281
     1
  3
ACAD_XREC_ROUNDTRIP
360
C66
  0
DICTIONARY
  5
C59
330
BFB
100
AcDbDictionary
280
     1
281
     1
  3
ACAD_XREC_ROUNDTRIP
360
C5A
  0
DICTIONARY
  5
C71
330
C07
100
AcDbDictionary
280
     1
281
     1
  3
ACAD_XREC_ROUNDTRIP
360
C72
  0
XRECORD
  5
C82
102
{ACAD_REACTORS
330
C81
102
}
330
C81
100
AcDbXrecord
280
     1
102
DISPLAYNAME
  1
Imperial24
102
FLAGS
 90
        0
  0
XRECORD
  5
C84
102
{ACAD_REACTORS
330
C83
102
}
330
C83
100
AcDbXrecord
280
     1
102
SHADEPLOT
 70
     0
102
SHADEPLOTRESLEVEL
 70
     2
102
SHADEPLOTCUSTOMDPI
 70
   300
  0
XRECORD
  5
C86
102
{ACAD_REACTORS
330
C85
102
}
330
C85
100
AcDbXrecord
280
     1
102
SHADEPLOT
 70
     0
102
SHADEPLOTRESLEVEL
 70
     2
102
SHADEPLOTCUSTOMDPI
 70
   300
  0
XRECORD
  5
C4B
102
{ACAD_REACTORS
330
BE5
102
}
330
BE5
100
AcDbXrecord
280
     1
102
MATERIAL
148
0.0
149
0.0
149
0.0
 93
        0
 94
      127
282
     0
 72
     0
 77
     0
171
     0
175
     0
179
     0
273
     0
  0
XRECORD
  5
BE7
102
{ACAD_REACTORS
330
BE5
102
}
330
BE5
100
AcDbXrecord
280
     1
270
     1
271
     1
  0
XRECORD
  5
BE6
102
{ACAD_REACTORS
330
BE5
102
}
330
BE5
100
AcDbXrecord
280
     1
270
     1
271
     1
  0
XRECORD
  5
BEA
102
{ACAD_REACTORS
330
BE5
102
}
330
BE5
100
AcDbXrecord
280
     1
270
     1
271
     1
  0
XRECORD
  5
BE9
102
{ACAD_REACTORS
330
BE5
102
}
330
BE5
100
AcDbXrecord
280
     1
270
     1
271
     1
  0
XRECORD
  5
BEB
102
{ACAD_REACTORS
330
BE5
102
}
330
BE5
100
AcDbXrecord
280
     1
270
     1
271
     1
  0
XRECORD
  5
BE8
102
{ACAD_REACTORS
330
BE5
102
}
330
BE5
100
AcDbXrecord
280
     1
270
     1
271
     1
  0
XRECORD
  5
C4A
102
{ACAD_REACTORS
330
BDD
102
}
330
BDD
100
AcDbXrecord
280
     1
102
MATERIAL
148
0.0
149
0.0
149
0.0
 93
        0
 94
      127
282
     0
 72
     0
 77
     0
171
     0
175
     0
179
     0
273
     0
  0
XRECORD
  5
BDF
102
{ACAD_REACTORS
330
BDD
102
}
330
BDD
100
AcDbXrecord
280
     1
270
     1
271
     1
  0
XRECORD
  5
BDE
102
{ACAD_REACTORS
330
BDD
102
}
330
BDD
100
AcDbXrecord
280
     1
270
     1
271
     1
  0
XRECORD
  5
BE2
102
{ACAD_REACTORS
330
BDD
102
}
330
BDD
100
AcDbXrecord
280
     1
270
     1
271
     1
  0
XRECORD
  5
BE1
102
{ACAD_REACTORS
330
BDD
102
}
330
BDD
100
AcDbXrecord
280
     1
270
     1
271
     1
  0
XRECORD
  5
BE3
102
{ACAD_REACTORS
330
BDD
102
}
330
BDD
100
AcDbXrecord
280
     1
270
     1
271
     1
  0
XRECORD
  5
BE0
102
{ACAD_REACTORS
330
BDD
102
}
330
BDD
100
AcDbXrecord
280
     1
270
     1
271
     1
  0
XRECORD
  5
C4C
102
{ACAD_REACTORS
330
BED
102
}
330
BED
100
AcDbXrecord
280
     1
102
MATERIAL
148
0.0
149
0.0
149
0.0
 93
        0
 94
      127
282
     0
 72
     0
 77
     0
171
     0
175
     0
179
     0
273
     0
  0
XRECORD
  5
BEF
102
{ACAD_REACTORS
330
BED
102
}
330
BED
100
AcDbXrecord
280
     1
270
     1
271
     1
  0
XRECORD
  5
BEE
102
{ACAD_REACTORS
330
BED
102
}
330
BED
100
AcDbXrecord
280
     1
270
     1
271
     1
  0
XRECORD
  5
BF2
102
{ACAD_REACTORS
330
BED
102
}
330
BED
100
AcDbXrecord
280
     1
270
     1
271
     1
  0
XRECORD
  5
BF1
102
{ACAD_REACTORS
330
BED
102
}
330
BED
100
AcDbXrecord
280
     1
270
     1
271
     1
  0
XRECORD
  5
BF3
102
{ACAD_REACTORS
330
BED
102
}
330
BED
100
AcDbXrecord
280
     1
270
     1
271
     1
  0
XRECORD
  5
BF0
102
{ACAD_REACTORS
330
BED
102
}
330
BED
100
AcDbXrecord
280
     1
270
     1
271
     1
  0
XRECORD
  5
C80
102
{ACAD_REACTORS
330
C7F
102
}
330
C7F
100
AcDbXrecord
280
     1
102
DISPLAYNAME
  1
Imperial24
102
FLAGS
 90
        0
  0
CELLSTYLEMAP
  5
C47
102
{ACAD_REACTORS
330
C46
102
}
330
C46
100
AcDbCellStyleMap
 90
        3
300
CELLSTYLE
  1
TABLEFORMAT_BEGIN
 90
        5
170
     1
 91
        0
 92
    32768
 62
   257
 93
        1
300
CONTENTFORMAT
  1
CONTENTFORMAT_BEGIN
 90
        0
 91
        0
 92
      512
 93
        0
300

 40
0.0
140
1.0
 94
        5
 62
     0
340
F
144
0.25
309
CONTENTFORMAT_END
171
     0
 94
        0
309
TABLEFORMAT_END
  1
CELLSTYLE_BEGIN
 90
        1
 91
        1
300
_TITLE
309
CELLSTYLE_END
300
CELLSTYLE
  1
TABLEFORMAT_BEGIN
 90
        5
170
     1
 91
        0
 92
        0
 62
   257
 93
        1
300
CONTENTFORMAT
  1
CONTENTFORMAT_BEGIN
 90
        0
 91
        0
 92
      512
 93
        0
300

 40
0.0
140
1.0
 94
        5
 62
     0
340
F
144
0.18
309
CONTENTFORMAT_END
171
     0
 94
        0
309
TABLEFORMAT_END
  1
CELLSTYLE_BEGIN
 90
        2
 91
        1
300
_HEADER
309
CELLSTYLE_END
300
CELLSTYLE
  1
TABLEFORMAT_BEGIN
 90
        5
170
     1
 91
        0
 92
        0
 62
   257
 93
        1
300
CONTENTFORMAT
  1
CONTENTFORMAT_BEGIN
 90
        0
 91
        0
 92
      512
 93
        0
300

 40
0.0
140
1.0
 94
        2
 62
     0
340
F
144
0.18
309
CONTENTFORMAT_END
171
     0
 94
        0
309
TABLEFORMAT_END
  1
CELLSTYLE_BEGIN
 90
        3
 91
        2
300
_DATA
309
CELLSTYLE_END
  0
XRECORD
  5
C7D
102
{ACAD_REACTORS
330
C46
102
}
330
C46
100
AcDbXrecord
280
     1
102
ACAD_ROUNDTRIP_PRE2007_TABLESTYLE
 90
      512
 91
        0
  1

 92
      512
 93
        0
  2

 94
      512
 95
        0
  3

  0
XRECORD
  5
C58
102
{ACAD_REACTORS
330
C57
102
}
330
C57
100
AcDbXrecord
280
     1
102
RTVSPost2010Prop28
280
     1
102
RTVSPost2010PropOp28
 70
     1
102
RTVSPost2010Prop29
280
     1
102
RTVSPost2010PropOp29
 70
     1
102
RTVSPost2010Prop30
280
     0
102
RTVSPost2010PropOp30
 70
     1
102
RTVSPost2010Prop31
280
     0
102
RTVSPost2010PropOp31
 70
     1
102
RTVSPost2010Prop32
280
     0
102
RTVSPost2010PropOp32
 70
     1
102
RTVSPost2010Prop33
280
     0
102
RTVSPost2010PropOp33
 70
     1
102
RTVSPost2010Prop34
280
     0
102
RTVSPost2010PropOp34
 70
     1
102
RTVSPost2010Prop35
280
     0
102
RTVSPost2010PropOp35
 70
     1
102
RTVSPost2010Prop36
280
     0
102
RTVSPost2010PropOp36
 70
     1
102
RTVSPost2010Prop37
 90
       50
102
RTVSPost2010PropOp37
 70
     1
102
RTVSPost2010Prop38
140
0.0
102
RTVSPost2010PropOp38
 70
     1
102
RTVSPost2010Prop39
140
1.0
102
RTVSPost2010PropOp39
 70
     1
102
RTVSPost2010Prop40
 90
        0
102
RTVSPost2010PropOp40
 70
     1
102
RTVSPost2010Prop41ColorIndex
 90
       18
102
RTVSPost2010Prop41ColorRGB
 90
        0
102
RTVSPost2010PropOp41
 70
     1
102
RTVSPost2010Prop42
 90
       50
102
RTVSPost2010PropOp42
 70
     1
102
RTVSPost2010Prop43
 90
        3
102
RTVSPost2010PropOp43
 70
     1
102
RTVSPost2010Prop44ColorIndex
 90
        5
102
RTVSPost2010Prop44ColorRGB
 90
      255
102
RTVSPost2010PropOp44
 70
     1
102
RTVSPost2010Prop45
280
     0
102
RTVSPost2010PropOp45
 70
     1
102
RTVSPost2010Prop46
 90
       50
102
RTVSPost2010PropOp46
 70
     1
102
RTVSPost2010Prop47
 90
       50
102
RTVSPost2010PropOp47
 70
     1
102
RTVSPost2010Prop48
 90
       50
102
RTVSPost2010PropOp48
 70
     1
102
RTVSPost2010Prop49
280
     0
102
RTVSPost2010PropOp49
 70
     1
102
RTVSPost2010Prop50
 90
       50
102
RTVSPost2010PropOp50
 70
     1
102
RTVSPost2010Prop51ColorIndex
 90
      256
102
RTVSPost2010Prop51ColorRGB
 90
-16777216
102
RTVSPost2010PropOp51
 70
     0
102
RTVSPost2010Prop52
140
1.0
102
RTVSPost2010PropOp52
 70
     0
102
RTVSPost2010Prop53
 90
        2
102
RTVSPost2010PropOp53
 70
     1
102
RTVSPost2010Prop54
  1
strokes_ogs.tif
102
RTVSPost2010PropOp54
 70
     1
102
RTVSPost2010Prop55
280
     0
102
RTVSPost2010PropOp55
 70
     1
102
RTVSPost2010Prop56
140
1.0
102
RTVSPost2010PropOp56
 70
     1
102
RTVSPost2010Prop57
140
1.0
102
RTVSPost2010PropOp57
 70
     1
102
RTVSPropertyOp0
 70
     1
102
RTVSPropertyOp1
 70
     1
102
RTVSPropertyOp2
 70
     1
102
RTVSPropertyOp3
 70
     1
102
RTVSPropertyOp4
 70
     1
102
RTVSPropertyOp5
 70
     1
102
RTVSPropertyOp6
 70
     1
102
RTVSPropertyOp7
 70
     1
102
RTVSPropertyOp8
 70
     1
102
RTVSPropertyOp9
 70
     1
102
RTVSPropertyOp10
 70
     1
102
RTVSPropertyOp11
 70
     1
102
RTVSPropertyOp12
 70
     1
102
RTVSPropertyOp13
 70
     1
102
RTVSPropertyOp14
 70
     1
102
RTVSPropertyOp15
 70
     1
102
RTVSPropertyOp16
 70
     1
102
RTVSPropertyOp17
 70
     1
102
RTVSPropertyOp18
 70
     1
102
RTVSPropertyOp19
 70
     1
102
RTVSPropertyOp20
 70
     1
102
RTVSPropertyOp21
 70
     1
102
RTVSPropertyOp22
 70
     1
102
RTVSPropertyOp23
 70
     1
102
RTVSPropertyOp24
 70
     1
102
RTVSPropertyOp25
 70
     1
102
RTVSPropertyOp26
 70
     1
102
RTVSPropertyOp27
 70
     1
102
RTVSPropertyOp28
 70
     1
102
RTVSPropertyOp29
 70
     1
102
RTVSPropertyOp30
 70
     1
102
RTVSPropertyOp31
 70
     1
102
RTVSPropertyOp32
 70
     1
102
RTVSPropertyOp33
 70
     1
102
RTVSPropertyOp34
 70
     1
102
RTVSPropertyOp35
 70
     1
102
RTVSPropertyOp36
 70
     1
102
RTVSPropertyOp37
 70
     1
102
RTVSPropertyOp38
 70
     1
102
RTVSPropertyOp39
 70
     1
102
RTVSPropertyOp40
 70
     1
102
RTVSPropertyOp41
 70
     1
102
RTVSPropertyOp42
 70
     1
102
RTVSPropertyOp43
 70
     1
102
RTVSPropertyOp44
 70
     1
102
RTVSPropertyOp45
 70
     1
102
RTVSPropertyOp46
 70
     1
102
RTVSPropertyOp47
 70
     1
102
RTVSPropertyOp48
 70
     1
102
RTVSPropertyOp49
 70
     1
102
RTVSPropertyOp50
 70
     1
102
RTVSPropertyOp51
 70
     0
102
RTVSPropertyOp52
 70
     0
102
RTVSPropertyOp53
 70
     1
102
RTVSPropertyOp54
 70
     1
102
RTVSPropertyOp55
 70
     1
102
RTVSPropertyOp56
 70
     1
102
RTVSPropertyOp57
 70
     1
102
RTVSPropertyOp58
 70
     1
102
RTVSPropertyOp59
 70
     1
102
RTVSPropertyOp60
 70
     1
102
RTVSPropertyOp61
 70
     1
102
RTVSPropertyOp62
 70
     1
  0
XRECORD
  5
C56
102
{ACAD_REACTORS
330
C55
102
}
330
C55
100
AcDbXrecord
280
     1
102
RTVSPost2010Prop28
280
     0
102
RTVSPost2010PropOp28
 70
     1
102
RTVSPost2010Prop29
280
     1
102
RTVSPost2010PropOp29
 70
     1
102
RTVSPost2010Prop30
280
     1
102
RTVSPost2010PropOp30
 70
     1
102
RTVSPost2010Prop31
280
     0
102
RTVSPost2010PropOp31
 70
     1
102
RTVSPost2010Prop32
280
     0
102
RTVSPost2010PropOp32
 70
     1
102
RTVSPost2010Prop33
280
     0
102
RTVSPost2010PropOp33
 70
     1
102
RTVSPost2010Prop34
280
     0
102
RTVSPost2010PropOp34
 70
     1
102
RTVSPost2010Prop35
280
     0
102
RTVSPost2010PropOp35
 70
     1
102
RTVSPost2010Prop36
280
     0
102
RTVSPost2010PropOp36
 70
     1
102
RTVSPost2010Prop37
 90
       50
102
RTVSPost2010PropOp37
 70
     1
102
RTVSPost2010Prop38
140
0.0
102
RTVSPost2010PropOp38
 70
     1
102
RTVSPost2010Prop39
140
1.0
102
RTVSPost2010PropOp39
 70
     1
102
RTVSPost2010Prop40
 90
        0
102
RTVSPost2010PropOp40
 70
     1
102
RTVSPost2010Prop41ColorIndex
 90
       18
102
RTVSPost2010Prop41ColorRGB
 90
        0
102
RTVSPost2010PropOp41
 70
     1
102
RTVSPost2010Prop42
 90
       50
102
RTVSPost2010PropOp42
 70
     1
102
RTVSPost2010Prop43
 90
        3
102
RTVSPost2010PropOp43
 70
     1
102
RTVSPost2010Prop44ColorIndex
 90
        5
102
RTVSPost2010Prop44ColorRGB
 90
      255
102
RTVSPost2010PropOp44
 70
     1
102
RTVSPost2010Prop45
280
     0
102
RTVSPost2010PropOp45
 70
     1
102
RTVSPost2010Prop46
 90
       50
102
RTVSPost2010PropOp46
 70
     1
102
RTVSPost2010Prop47
 90
       50
102
RTVSPost2010PropOp47
 70
     1
102
RTVSPost2010Prop48
 90
       50
102
RTVSPost2010PropOp48
 70
     1
102
RTVSPost2010Prop49
280
     0
102
RTVSPost2010PropOp49
 70
     1
102
RTVSPost2010Prop50
 90
       50
102
RTVSPost2010PropOp50
 70
     1
102
RTVSPost2010Prop51ColorIndex
 90
      256
102
RTVSPost2010Prop51ColorRGB
 90
-16777216
102
RTVSPost2010PropOp51
 70
     0
102
RTVSPost2010Prop52
140
1.0
102
RTVSPost2010PropOp52
 70
     0
102
RTVSPost2010Prop53
 90
        2
102
RTVSPost2010PropOp53
 70
     1
102
RTVSPost2010Prop54
  1
strokes_ogs.tif
102
RTVSPost2010PropOp54
 70
     1
102
RTVSPost2010Prop55
280
     0
102
RTVSPost2010PropOp55
 70
     1
102
RTVSPost2010Prop56
140
1.0
102
RTVSPost2010PropOp56
 70
     1
102
RTVSPost2010Prop57
140
1.0
102
RTVSPost2010PropOp57
 70
     1
102
RTVSPropertyOp0
 70
     1
102
RTVSPropertyOp1
 70
     1
102
RTVSPropertyOp2
 70
     1
102
RTVSPropertyOp3
 70
     1
102
RTVSPropertyOp4
 70
     1
102
RTVSPropertyOp5
 70
     1
102
RTVSPropertyOp6
 70
     1
102
RTVSPropertyOp7
 70
     1
102
RTVSPropertyOp8
 70
     1
102
RTVSPropertyOp9
 70
     1
102
RTVSPropertyOp10
 70
     1
102
RTVSPropertyOp11
 70
     1
102
RTVSPropertyOp12
 70
     1
102
RTVSPropertyOp13
 70
     1
102
RTVSPropertyOp14
 70
     1
102
RTVSPropertyOp15
 70
     1
102
RTVSPropertyOp16
 70
     1
102
RTVSPropertyOp17
 70
     1
102
RTVSPropertyOp18
 70
     1
102
RTVSPropertyOp19
 70
     1
102
RTVSPropertyOp20
 70
     1
102
RTVSPropertyOp21
 70
     1
102
RTVSPropertyOp22
 70
     1
102
RTVSPropertyOp23
 70
     1
102
RTVSPropertyOp24
 70
     1
102
RTVSPropertyOp25
 70
     1
102
RTVSPropertyOp26
 70
     1
102
RTVSPropertyOp27
 70
     1
102
RTVSPropertyOp28
 70
     1
102
RTVSPropertyOp29
 70
     1
102
RTVSPropertyOp30
 70
     1
102
RTVSPropertyOp31
 70
     1
102
RTVSPropertyOp32
 70
     1
102
RTVSPropertyOp33
 70
     1
102
RTVSPropertyOp34
 70
     1
102
RTVSPropertyOp35
 70
     1
102
RTVSPropertyOp36
 70
     1
102
RTVSPropertyOp37
 70
     1
102
RTVSPropertyOp38
 70
     1
102
RTVSPropertyOp39
 70
     1
102
RTVSPropertyOp40
 70
     1
102
RTVSPropertyOp41
 70
     1
102
RTVSPropertyOp42
 70
     1
102
RTVSPropertyOp43
 70
     1
102
RTVSPropertyOp44
 70
     1
102
RTVSPropertyOp45
 70
     1
102
RTVSPropertyOp46
 70
     1
102
RTVSPropertyOp47
 70
     1
102
RTVSPropertyOp48
 70
     1
102
RTVSPropertyOp49
 70
     1
102
RTVSPropertyOp50
 70
     1
102
RTVSPropertyOp51
 70
     0
102
RTVSPropertyOp52
 70
     0
102
RTVSPropertyOp53
 70
     1
102
RTVSPropertyOp54
 70
     1
102
RTVSPropertyOp55
 70
     1
102
RTVSPropertyOp56
 70
     1
102
RTVSPropertyOp57
 70
     1
102
RTVSPropertyOp58
 70
     1
102
RTVSPropertyOp59
 70
     1
102
RTVSPropertyOp60
 70
     1
102
RTVSPropertyOp61
 70
     1
102
RTVSPropertyOp62
 70
     1
  0
XRECORD
  5
C64
102
{ACAD_REACTORS
330
C63
102
}
330
C63
100
AcDbXrecord
280
     1
102
RTVSPost2010Prop28
280
     0
102
RTVSPost2010PropOp28
 70
     1
102
RTVSPost2010Prop29
280
     1
102
RTVSPost2010PropOp29
 70
     1
102
RTVSPost2010Prop30
280
     1
102
RTVSPost2010PropOp30
 70
     1
102
RTVSPost2010Prop31
280
     0
102
RTVSPost2010PropOp31
 70
     1
102
RTVSPost2010Prop32
280
     0
102
RTVSPost2010PropOp32
 70
     1
102
RTVSPost2010Prop33
280
     0
102
RTVSPost2010PropOp33
 70
     1
102
RTVSPost2010Prop34
280
     0
102
RTVSPost2010PropOp34
 70
     1
102
RTVSPost2010Prop35
280
     0
102
RTVSPost2010PropOp35
 70
     1
102
RTVSPost2010Prop36
280
     0
102
RTVSPost2010PropOp36
 70
     1
102
RTVSPost2010Prop37
 90
       50
102
RTVSPost2010PropOp37
 70
     1
102
RTVSPost2010Prop38
140
0.0
102
RTVSPost2010PropOp38
 70
     1
102
RTVSPost2010Prop39
140
1.0
102
RTVSPost2010PropOp39
 70
     1
102
RTVSPost2010Prop40
 90
        0
102
RTVSPost2010PropOp40
 70
     1
102
RTVSPost2010Prop41ColorIndex
 90
       18
102
RTVSPost2010Prop41ColorRGB
 90
        0
102
RTVSPost2010PropOp41
 70
     1
102
RTVSPost2010Prop42
 90
       50
102
RTVSPost2010PropOp42
 70
     1
102
RTVSPost2010Prop43
 90
        3
102
RTVSPost2010PropOp43
 70
     1
102
RTVSPost2010Prop44ColorIndex
 90
        5
102
RTVSPost2010Prop44ColorRGB
 90
      255
102
RTVSPost2010PropOp44
 70
     1
102
RTVSPost2010Prop45
280
     0
102
RTVSPost2010PropOp45
 70
     1
102
RTVSPost2010Prop46
 90
       50
102
RTVSPost2010PropOp46
 70
     1
102
RTVSPost2010Prop47
 90
       50
102
RTVSPost2010PropOp47
 70
     1
102
RTVSPost2010Prop48
 90
       50
102
RTVSPost2010PropOp48
 70
     1
102
RTVSPost2010Prop49
280
     0
102
RTVSPost2010PropOp49
 70
     1
102
RTVSPost2010Prop50
 90
       50
102
RTVSPost2010PropOp50
 70
     1
102
RTVSPost2010Prop51ColorIndex
 90
      256
102
RTVSPost2010Prop51ColorRGB
 90
-16777216
102
RTVSPost2010PropOp51
 70
     0
102
RTVSPost2010Prop52
140
1.0
102
RTVSPost2010PropOp52
 70
     0
102
RTVSPost2010Prop53
 90
        2
102
RTVSPost2010PropOp53
 70
     1
102
RTVSPost2010Prop54
  1
strokes_ogs.tif
102
RTVSPost2010PropOp54
 70
     1
102
RTVSPost2010Prop55
280
     0
102
RTVSPost2010PropOp55
 70
     1
102
RTVSPost2010Prop56
140
1.0
102
RTVSPost2010PropOp56
 70
     1
102
RTVSPost2010Prop57
140
1.0
102
RTVSPost2010PropOp57
 70
     1
102
RTVSPropertyOp0
 70
     1
102
RTVSPropertyOp1
 70
     1
102
RTVSPropertyOp2
 70
     1
102
RTVSPropertyOp3
 70
     1
102
RTVSPropertyOp4
 70
     1
102
RTVSPropertyOp5
 70
     1
102
RTVSPropertyOp6
 70
     1
102
RTVSPropertyOp7
 70
     1
102
RTVSPropertyOp8
 70
     1
102
RTVSPropertyOp9
 70
     1
102
RTVSPropertyOp10
 70
     1
102
RTVSPropertyOp11
 70
     1
102
RTVSPropertyOp12
 70
     1
102
RTVSPropertyOp13
 70
     1
102
RTVSPropertyOp14
 70
     1
102
RTVSPropertyOp15
 70
     1
102
RTVSPropertyOp16
 70
     1
102
RTVSPropertyOp17
 70
     1
102
RTVSPropertyOp18
 70
     1
102
RTVSPropertyOp19
 70
     1
102
RTVSPropertyOp20
 70
     1
102
RTVSPropertyOp21
 70
     1
102
RTVSPropertyOp22
 70
     1
102
RTVSPropertyOp23
 70
     1
102
RTVSPropertyOp24
 70
     1
102
RTVSPropertyOp25
 70
     1
102
RTVSPropertyOp26
 70
     1
102
RTVSPropertyOp27
 70
     1
102
RTVSPropertyOp28
 70
     1
102
RTVSPropertyOp29
 70
     1
102
RTVSPropertyOp30
 70
     1
102
RTVSPropertyOp31
 70
     1
102
RTVSPropertyOp32
 70
     1
102
RTVSPropertyOp33
 70
     1
102
RTVSPropertyOp34
 70
     1
102
RTVSPropertyOp35
 70
     1
102
RTVSPropertyOp36
 70
     1
102
RTVSPropertyOp37
 70
     1
102
RTVSPropertyOp38
 70
     1
102
RTVSPropertyOp39
 70
     1
102
RTVSPropertyOp40
 70
     1
102
RTVSPropertyOp41
 70
     1
102
RTVSPropertyOp42
 70
     1
102
RTVSPropertyOp43
 70
     1
102
RTVSPropertyOp44
 70
     1
102
RTVSPropertyOp45
 70
     1
102
RTVSPropertyOp46
 70
     1
102
RTVSPropertyOp47
 70
     1
102
RTVSPropertyOp48
 70
     1
102
RTVSPropertyOp49
 70
     1
102
RTVSPropertyOp50
 70
     1
102
RTVSPropertyOp51
 70
     0
102
RTVSPropertyOp52
 70
     0
102
RTVSPropertyOp53
 70
     1
102
RTVSPropertyOp54
 70
     1
102
RTVSPropertyOp55
 70
     1
102
RTVSPropertyOp56
 70
     1
102
RTVSPropertyOp57
 70
     1
102
RTVSPropertyOp58
 70
     1
102
RTVSPropertyOp59
 70
     1
102
RTVSPropertyOp60
 70
     1
102
RTVSPropertyOp61
 70
     1
102
RTVSPropertyOp62
 70
     1
  0
XRECORD
  5
C6C
102
{ACAD_REACTORS
330
C6B
102
}
330
C6B
100
AcDbXrecord
280
     1
102
RTVSPost2010Prop28
280
     0
102
RTVSPost2010PropOp28
 70
     1
102
RTVSPost2010Prop29
280
     1
102
RTVSPost2010PropOp29
 70
     1
102
RTVSPost2010Prop30
280
     1
102
RTVSPost2010PropOp30
 70
     1
102
RTVSPost2010Prop31
280
     0
102
RTVSPost2010PropOp31
 70
     1
102
RTVSPost2010Prop32
280
     0
102
RTVSPost2010PropOp32
 70
     1
102
RTVSPost2010Prop33
280
     0
102
RTVSPost2010PropOp33
 70
     1
102
RTVSPost2010Prop34
280
     0
102
RTVSPost2010PropOp34
 70
     1
102
RTVSPost2010Prop35
280
     0
102
RTVSPost2010PropOp35
 70
     1
102
RTVSPost2010Prop36
280
     0
102
RTVSPost2010PropOp36
 70
     1
102
RTVSPost2010Prop37
 90
       50
102
RTVSPost2010PropOp37
 70
     1
102
RTVSPost2010Prop38
140
0.0
102
RTVSPost2010PropOp38
 70
     1
102
RTVSPost2010Prop39
140
1.0
102
RTVSPost2010PropOp39
 70
     1
102
RTVSPost2010Prop40
 90
        0
102
RTVSPost2010PropOp40
 70
     1
102
RTVSPost2010Prop41ColorIndex
 90
       18
102
RTVSPost2010Prop41ColorRGB
 90
        0
102
RTVSPost2010PropOp41
 70
     1
102
RTVSPost2010Prop42
 90
       50
102
RTVSPost2010PropOp42
 70
     1
102
RTVSPost2010Prop43
 90
        3
102
RTVSPost2010PropOp43
 70
     1
102
RTVSPost2010Prop44ColorIndex
 90
        5
102
RTVSPost2010Prop44ColorRGB
 90
      255
102
RTVSPost2010PropOp44
 70
     1
102
RTVSPost2010Prop45
280
     0
102
RTVSPost2010PropOp45
 70
     1
102
RTVSPost2010Prop46
 90
       50
102
RTVSPost2010PropOp46
 70
     1
102
RTVSPost2010Prop47
 90
       50
102
RTVSPost2010PropOp47
 70
     1
102
RTVSPost2010Prop48
 90
       50
102
RTVSPost2010PropOp48
 70
     1
102
RTVSPost2010Prop49
280
     0
102
RTVSPost2010PropOp49
 70
     1
102
RTVSPost2010Prop50
 90
       50
102
RTVSPost2010PropOp50
 70
     1
102
RTVSPost2010Prop51ColorIndex
 90
      256
102
RTVSPost2010Prop51ColorRGB
 90
-16777216
102
RTVSPost2010PropOp51
 70
     0
102
RTVSPost2010Prop52
140
1.0
102
RTVSPost2010PropOp52
 70
     0
102
RTVSPost2010Prop53
 90
        2
102
RTVSPost2010PropOp53
 70
     1
102
RTVSPost2010Prop54
  1
strokes_ogs.tif
102
RTVSPost2010PropOp54
 70
     1
102
RTVSPost2010Prop55
280
     0
102
RTVSPost2010PropOp55
 70
     1
102
RTVSPost2010Prop56
140
1.0
102
RTVSPost2010PropOp56
 70
     1
102
RTVSPost2010Prop57
140
1.0
102
RTVSPost2010PropOp57
 70
     1
102
RTVSPropertyOp0
 70
     1
102
RTVSPropertyOp1
 70
     1
102
RTVSPropertyOp2
 70
     1
102
RTVSPropertyOp3
 70
     1
102
RTVSPropertyOp4
 70
     1
102
RTVSPropertyOp5
 70
     1
102
RTVSPropertyOp6
 70
     1
102
RTVSPropertyOp7
 70
     1
102
RTVSPropertyOp8
 70
     1
102
RTVSPropertyOp9
 70
     1
102
RTVSPropertyOp10
 70
     1
102
RTVSPropertyOp11
 70
     1
102
RTVSPropertyOp12
 70
     1
102
RTVSPropertyOp13
 70
     1
102
RTVSPropertyOp14
 70
     1
102
RTVSPropertyOp15
 70
     1
102
RTVSPropertyOp16
 70
     1
102
RTVSPropertyOp17
 70
     1
102
RTVSPropertyOp18
 70
     1
102
RTVSPropertyOp19
 70
     1
102
RTVSPropertyOp20
 70
     1
102
RTVSPropertyOp21
 70
     1
102
RTVSPropertyOp22
 70
     1
102
RTVSPropertyOp23
 70
     1
102
RTVSPropertyOp24
 70
     1
102
RTVSPropertyOp25
 70
     1
102
RTVSPropertyOp26
 70
     1
102
RTVSPropertyOp27
 70
     1
102
RTVSPropertyOp28
 70
     1
102
RTVSPropertyOp29
 70
     1
102
RTVSPropertyOp30
 70
     1
102
RTVSPropertyOp31
 70
     1
102
RTVSPropertyOp32
 70
     1
102
RTVSPropertyOp33
 70
     1
102
RTVSPropertyOp34
 70
     1
102
RTVSPropertyOp35
 70
     1
102
RTVSPropertyOp36
 70
     1
102
RTVSPropertyOp37
 70
     1
102
RTVSPropertyOp38
 70
     1
102
RTVSPropertyOp39
 70
     1
102
RTVSPropertyOp40
 70
     1
102
RTVSPropertyOp41
 70
     1
102
RTVSPropertyOp42
 70
     1
102
RTVSPropertyOp43
 70
     1
102
RTVSPropertyOp44
 70
     1
102
RTVSPropertyOp45
 70
     1
102
RTVSPropertyOp46
 70
     1
102
RTVSPropertyOp47
 70
     1
102
RTVSPropertyOp48
 70
     1
102
RTVSPropertyOp49
 70
     1
102
RTVSPropertyOp50
 70
     1
102
RTVSPropertyOp51
 70
     0
102
RTVSPropertyOp52
 70
     0
102
RTVSPropertyOp53
 70
     1
102
RTVSPropertyOp54
 70
     1
102
RTVSPropertyOp55
 70
     1
102
RTVSPropertyOp56
 70
     1
102
RTVSPropertyOp57
 70
     1
102
RTVSPropertyOp58
 70
     1
102
RTVSPropertyOp59
 70
     1
102
RTVSPropertyOp60
 70
     1
102
RTVSPropertyOp61
 70
     1
102
RTVSPropertyOp62
 70
     1
  0
XRECORD
  5
C5E
102
{ACAD_REACTORS
330
C5D
102
}
330
C5D
100
AcDbXrecord
280
     1
102
RTVSPost2010Prop28
280
     0
102
RTVSPost2010PropOp28
 70
     1
102
RTVSPost2010Prop29
280
     1
102
RTVSPost2010PropOp29
 70
     1
102
RTVSPost2010Prop30
280
     1
102
RTVSPost2010PropOp30
 70
     1
102
RTVSPost2010Prop31
280
     0
102
RTVSPost2010PropOp31
 70
     1
102
RTVSPost2010Prop32
280
     0
102
RTVSPost2010PropOp32
 70
     1
102
RTVSPost2010Prop33
280
     0
102
RTVSPost2010PropOp33
 70
     1
102
RTVSPost2010Prop34
280
     0
102
RTVSPost2010PropOp34
 70
     1
102
RTVSPost2010Prop35
280
     0
102
RTVSPost2010PropOp35
 70
     1
102
RTVSPost2010Prop36
280
     0
102
RTVSPost2010PropOp36
 70
     1
102
RTVSPost2010Prop37
 90
       50
102
RTVSPost2010PropOp37
 70
     1
102
RTVSPost2010Prop38
140
0.0
102
RTVSPost2010PropOp38
 70
     1
102
RTVSPost2010Prop39
140
1.0
102
RTVSPost2010PropOp39
 70
     1
102
RTVSPost2010Prop40
 90
        0
102
RTVSPost2010PropOp40
 70
     1
102
RTVSPost2010Prop41ColorIndex
 90
       18
102
RTVSPost2010Prop41ColorRGB
 90
        0
102
RTVSPost2010PropOp41
 70
     1
102
RTVSPost2010Prop42
 90
       50
102
RTVSPost2010PropOp42
 70
     1
102
RTVSPost2010Prop43
 90
        3
102
RTVSPost2010PropOp43
 70
     1
102
RTVSPost2010Prop44ColorIndex
 90
        5
102
RTVSPost2010Prop44ColorRGB
 90
      255
102
RTVSPost2010PropOp44
 70
     1
102
RTVSPost2010Prop45
280
     0
102
RTVSPost2010PropOp45
 70
     1
102
RTVSPost2010Prop46
 90
       50
102
RTVSPost2010PropOp46
 70
     1
102
RTVSPost2010Prop47
 90
       50
102
RTVSPost2010PropOp47
 70
     1
102
RTVSPost2010Prop48
 90
       50
102
RTVSPost2010PropOp48
 70
     1
102
RTVSPost2010Prop49
280
     0
102
RTVSPost2010PropOp49
 70
     1
102
RTVSPost2010Prop50
 90
       50
102
RTVSPost2010PropOp50
 70
     1
102
RTVSPost2010Prop51ColorIndex
 90
      256
102
RTVSPost2010Prop51ColorRGB
 90
-16777216
102
RTVSPost2010PropOp51
 70
     0
102
RTVSPost2010Prop52
140
1.0
102
RTVSPost2010PropOp52
 70
     0
102
RTVSPost2010Prop53
 90
        2
102
RTVSPost2010PropOp53
 70
     1
102
RTVSPost2010Prop54
  1
strokes_ogs.tif
102
RTVSPost2010PropOp54
 70
     1
102
RTVSPost2010Prop55
280
     0
102
RTVSPost2010PropOp55
 70
     1
102
RTVSPost2010Prop56
140
1.0
102
RTVSPost2010PropOp56
 70
     1
102
RTVSPost2010Prop57
140
1.0
102
RTVSPost2010PropOp57
 70
     1
102
RTVSPropertyOp0
 70
     1
102
RTVSPropertyOp1
 70
     1
102
RTVSPropertyOp2
 70
     1
102
RTVSPropertyOp3
 70
     1
102
RTVSPropertyOp4
 70
     1
102
RTVSPropertyOp5
 70
     1
102
RTVSPropertyOp6
 70
     1
102
RTVSPropertyOp7
 70
     1
102
RTVSPropertyOp8
 70
     1
102
RTVSPropertyOp9
 70
     1
102
RTVSPropertyOp10
 70
     1
102
RTVSPropertyOp11
 70
     1
102
RTVSPropertyOp12
 70
     1
102
RTVSPropertyOp13
 70
     1
102
RTVSPropertyOp14
 70
     1
102
RTVSPropertyOp15
 70
     1
102
RTVSPropertyOp16
 70
     1
102
RTVSPropertyOp17
 70
     1
102
RTVSPropertyOp18
 70
     1
102
RTVSPropertyOp19
 70
     1
102
RTVSPropertyOp20
 70
     1
102
RTVSPropertyOp21
 70
     1
102
RTVSPropertyOp22
 70
     1
102
RTVSPropertyOp23
 70
     1
102
RTVSPropertyOp24
 70
     1
102
RTVSPropertyOp25
 70
     1
102
RTVSPropertyOp26
 70
     1
102
RTVSPropertyOp27
 70
     1
102
RTVSPropertyOp28
 70
     1
102
RTVSPropertyOp29
 70
     1
102
RTVSPropertyOp30
 70
     1
102
RTVSPropertyOp31
 70
     1
102
RTVSPropertyOp32
 70
     1
102
RTVSPropertyOp33
 70
     1
102
RTVSPropertyOp34
 70
     1
102
RTVSPropertyOp35
 70
     1
102
RTVSPropertyOp36
 70
     1
102
RTVSPropertyOp37
 70
     1
102
RTVSPropertyOp38
 70
     1
102
RTVSPropertyOp39
 70
     1
102
RTVSPropertyOp40
 70
     1
102
RTVSPropertyOp41
 70
     1
102
RTVSPropertyOp42
 70
     1
102
RTVSPropertyOp43
 70
     1
102
RTVSPropertyOp44
 70
     1
102
RTVSPropertyOp45
 70
     1
102
RTVSPropertyOp46
 70
     1
102
RTVSPropertyOp47
 70
     1
102
RTVSPropertyOp48
 70
     1
102
RTVSPropertyOp49
 70
     1
102
RTVSPropertyOp50
 70
     1
102
RTVSPropertyOp51
 70
     0
102
RTVSPropertyOp52
 70
     0
102
RTVSPropertyOp53
 70
     1
102
RTVSPropertyOp54
 70
     1
102
RTVSPropertyOp55
 70
     1
102
RTVSPropertyOp56
 70
     1
102
RTVSPropertyOp57
 70
     1
102
RTVSPropertyOp58
 70
     1
102
RTVSPropertyOp59
 70
     1
102
RTVSPropertyOp60
 70
     1
102
RTVSPropertyOp61
 70
     1
102
RTVSPropertyOp62
 70
     1
  0
XRECORD
  5
C62
102
{ACAD_REACTORS
330
C61
102
}
330
C61
100
AcDbXrecord
280
     1
102
RTVSPost2010Prop28
280
     0
102
RTVSPost2010PropOp28
 70
     1
102
RTVSPost2010Prop29
280
     1
102
RTVSPost2010PropOp29
 70
     1
102
RTVSPost2010Prop30
280
     1
102
RTVSPost2010PropOp30
 70
     1
102
RTVSPost2010Prop31
280
     0
102
RTVSPost2010PropOp31
 70
     1
102
RTVSPost2010Prop32
280
     0
102
RTVSPost2010PropOp32
 70
     1
102
RTVSPost2010Prop33
280
     0
102
RTVSPost2010PropOp33
 70
     1
102
RTVSPost2010Prop34
280
     0
102
RTVSPost2010PropOp34
 70
     1
102
RTVSPost2010Prop35
280
     0
102
RTVSPost2010PropOp35
 70
     1
102
RTVSPost2010Prop36
280
     0
102
RTVSPost2010PropOp36
 70
     1
102
RTVSPost2010Prop37
 90
       50
102
RTVSPost2010PropOp37
 70
     1
102
RTVSPost2010Prop38
140
0.0
102
RTVSPost2010PropOp38
 70
     1
102
RTVSPost2010Prop39
140
1.0
102
RTVSPost2010PropOp39
 70
     1
102
RTVSPost2010Prop40
 90
        0
102
RTVSPost2010PropOp40
 70
     1
102
RTVSPost2010Prop41ColorIndex
 90
       18
102
RTVSPost2010Prop41ColorRGB
 90
        0
102
RTVSPost2010PropOp41
 70
     1
102
RTVSPost2010Prop42
 90
       50
102
RTVSPost2010PropOp42
 70
     1
102
RTVSPost2010Prop43
 90
        3
102
RTVSPost2010PropOp43
 70
     1
102
RTVSPost2010Prop44ColorIndex
 90
        5
102
RTVSPost2010Prop44ColorRGB
 90
      255
102
RTVSPost2010PropOp44
 70
     1
102
RTVSPost2010Prop45
280
     0
102
RTVSPost2010PropOp45
 70
     1
102
RTVSPost2010Prop46
 90
       50
102
RTVSPost2010PropOp46
 70
     1
102
RTVSPost2010Prop47
 90
       50
102
RTVSPost2010PropOp47
 70
     1
102
RTVSPost2010Prop48
 90
       50
102
RTVSPost2010PropOp48
 70
     1
102
RTVSPost2010Prop49
280
     0
102
RTVSPost2010PropOp49
 70
     1
102
RTVSPost2010Prop50
 90
       50
102
RTVSPost2010PropOp50
 70
     1
102
RTVSPost2010Prop51ColorIndex
 90
      256
102
RTVSPost2010Prop51ColorRGB
 90
-16777216
102
RTVSPost2010PropOp51
 70
     0
102
RTVSPost2010Prop52
140
1.0
102
RTVSPost2010PropOp52
 70
     0
102
RTVSPost2010Prop53
 90
        2
102
RTVSPost2010PropOp53
 70
     1
102
RTVSPost2010Prop54
  1
strokes_ogs.tif
102
RTVSPost2010PropOp54
 70
     1
102
RTVSPost2010Prop55
280
     0
102
RTVSPost2010PropOp55
 70
     1
102
RTVSPost2010Prop56
140
1.0
102
RTVSPost2010PropOp56
 70
     1
102
RTVSPost2010Prop57
140
1.0
102
RTVSPost2010PropOp57
 70
     1
102
RTVSPropertyOp0
 70
     1
102
RTVSPropertyOp1
 70
     1
102
RTVSPropertyOp2
 70
     1
102
RTVSPropertyOp3
 70
     1
102
RTVSPropertyOp4
 70
     1
102
RTVSPropertyOp5
 70
     1
102
RTVSPropertyOp6
 70
     1
102
RTVSPropertyOp7
 70
     1
102
RTVSPropertyOp8
 70
     1
102
RTVSPropertyOp9
 70
     1
102
RTVSPropertyOp10
 70
     1
102
RTVSPropertyOp11
 70
     1
102
RTVSPropertyOp12
 70
     1
102
RTVSPropertyOp13
 70
     1
102
RTVSPropertyOp14
 70
     1
102
RTVSPropertyOp15
 70
     1
102
RTVSPropertyOp16
 70
     1
102
RTVSPropertyOp17
 70
     1
102
RTVSPropertyOp18
 70
     1
102
RTVSPropertyOp19
 70
     1
102
RTVSPropertyOp20
 70
     1
102
RTVSPropertyOp21
 70
     1
102
RTVSPropertyOp22
 70
     1
102
RTVSPropertyOp23
 70
     1
102
RTVSPropertyOp24
 70
     1
102
RTVSPropertyOp25
 70
     1
102
RTVSPropertyOp26
 70
     1
102
RTVSPropertyOp27
 70
     1
102
RTVSPropertyOp28
 70
     1
102
RTVSPropertyOp29
 70
     1
102
RTVSPropertyOp30
 70
     1
102
RTVSPropertyOp31
 70
     1
102
RTVSPropertyOp32
 70
     1
102
RTVSPropertyOp33
 70
     1
102
RTVSPropertyOp34
 70
     1
102
RTVSPropertyOp35
 70
     1
102
RTVSPropertyOp36
 70
     1
102
RTVSPropertyOp37
 70
     1
102
RTVSPropertyOp38
 70
     1
102
RTVSPropertyOp39
 70
     1
102
RTVSPropertyOp40
 70
     1
102
RTVSPropertyOp41
 70
     1
102
RTVSPropertyOp42
 70
     1
102
RTVSPropertyOp43
 70
     1
102
RTVSPropertyOp44
 70
     1
102
RTVSPropertyOp45
 70
     1
102
RTVSPropertyOp46
 70
     1
102
RTVSPropertyOp47
 70
     1
102
RTVSPropertyOp48
 70
     1
102
RTVSPropertyOp49
 70
     1
102
RTVSPropertyOp50
 70
     1
102
RTVSPropertyOp51
 70
     0
102
RTVSPropertyOp52
 70
     0
102
RTVSPropertyOp53
 70
     1
102
RTVSPropertyOp54
 70
     1
102
RTVSPropertyOp55
 70
     1
102
RTVSPropertyOp56
 70
     1
102
RTVSPropertyOp57
 70
     1
102
RTVSPropertyOp58
 70
     1
102
RTVSPropertyOp59
 70
     1
102
RTVSPropertyOp60
 70
     1
102
RTVSPropertyOp61
 70
     1
102
RTVSPropertyOp62
 70
     1
  0
XRECORD
  5
C7C
102
{ACAD_REACTORS
330
C7B
102
}
330
C7B
100
AcDbXrecord
280
     1
102
RTVSPost2010Prop28
280
     0
102
RTVSPost2010PropOp28
 70
     1
102
RTVSPost2010Prop29
280
     1
102
RTVSPost2010PropOp29
 70
     1
102
RTVSPost2010Prop30
280
     1
102
RTVSPost2010PropOp30
 70
     1
102
RTVSPost2010Prop31
280
     0
102
RTVSPost2010PropOp31
 70
     1
102
RTVSPost2010Prop32
280
     0
102
RTVSPost2010PropOp32
 70
     1
102
RTVSPost2010Prop33
280
     0
102
RTVSPost2010PropOp33
 70
     1
102
RTVSPost2010Prop34
280
     0
102
RTVSPost2010PropOp34
 70
     1
102
RTVSPost2010Prop35
280
     0
102
RTVSPost2010PropOp35
 70
     1
102
RTVSPost2010Prop36
280
     0
102
RTVSPost2010PropOp36
 70
     1
102
RTVSPost2010Prop37
 90
       50
102
RTVSPost2010PropOp37
 70
     0
102
RTVSPost2010Prop38
140
0.0
102
RTVSPost2010PropOp38
 70
     0
102
RTVSPost2010Prop39
140
1.0
102
RTVSPost2010PropOp39
 70
     0
102
RTVSPost2010Prop40
 90
        0
102
RTVSPost2010PropOp40
 70
     0
102
RTVSPost2010Prop41ColorIndex
 90
       18
102
RTVSPost2010Prop41ColorRGB
 90
        0
102
RTVSPost2010PropOp41
 70
     0
102
RTVSPost2010Prop42
 90
       50
102
RTVSPost2010PropOp42
 70
     0
102
RTVSPost2010Prop43
 90
        3
102
RTVSPost2010PropOp43
 70
     0
102
RTVSPost2010Prop44ColorIndex
 90
        5
102
RTVSPost2010Prop44ColorRGB
 90
      255
102
RTVSPost2010PropOp44
 70
     0
102
RTVSPost2010Prop45
280
     0
102
RTVSPost2010PropOp45
 70
     1
102
RTVSPost2010Prop46
 90
       50
102
RTVSPost2010PropOp46
 70
     0
102
RTVSPost2010Prop47
 90
       50
102
RTVSPost2010PropOp47
 70
     0
102
RTVSPost2010Prop48
 90
       50
102
RTVSPost2010PropOp48
 70
     0
102
RTVSPost2010Prop49
280
     0
102
RTVSPost2010PropOp49
 70
     1
102
RTVSPost2010Prop50
 90
       50
102
RTVSPost2010PropOp50
 70
     0
102
RTVSPost2010Prop51ColorIndex
 90
      256
102
RTVSPost2010Prop51ColorRGB
 90
-16777216
102
RTVSPost2010PropOp51
 70
     0
102
RTVSPost2010Prop52
140
1.0
102
RTVSPost2010PropOp52
 70
     0
102
RTVSPost2010Prop53
 90
        2
102
RTVSPost2010PropOp53
 70
     0
102
RTVSPost2010Prop54
  1
strokes_ogs.tif
102
RTVSPost2010PropOp54
 70
     0
102
RTVSPost2010Prop55
280
     0
102
RTVSPost2010PropOp55
 70
     1
102
RTVSPost2010Prop56
140
1.0
102
RTVSPost2010PropOp56
 70
     0
102
RTVSPost2010Prop57
140
1.0
102
RTVSPost2010PropOp57
 70
     0
102
RTVSPropertyOp0
 70
     0
102
RTVSPropertyOp1
 70
     0
102
RTVSPropertyOp2
 70
     0
102
RTVSPropertyOp3
 70
     0
102
RTVSPropertyOp4
 70
     0
102
RTVSPropertyOp5
 70
     0
102
RTVSPropertyOp6
 70
     0
102
RTVSPropertyOp7
 70
     0
102
RTVSPropertyOp8
 70
     0
102
RTVSPropertyOp9
 70
     0
102
RTVSPropertyOp10
 70
     0
102
RTVSPropertyOp11
 70
     0
102
RTVSPropertyOp12
 70
     0
102
RTVSPropertyOp13
 70
     0
102
RTVSPropertyOp14
 70
     2
102
RTVSPropertyOp15
 70
     0
102
RTVSPropertyOp16
 70
     0
102
RTVSPropertyOp17
 70
     0
102
RTVSPropertyOp18
 70
     0
102
RTVSPropertyOp19
 70
     0
102
RTVSPropertyOp20
 70
     0
102
RTVSPropertyOp21
 70
     0
102
RTVSPropertyOp22
 70
     0
102
RTVSPropertyOp23
 70
     0
102
RTVSPropertyOp24
 70
     0
102
RTVSPropertyOp25
 70
     0
102
RTVSPropertyOp26
 70
     0
102
RTVSPropertyOp27
 70
     0
102
RTVSPropertyOp28
 70
     1
102
RTVSPropertyOp29
 70
     1
102
RTVSPropertyOp30
 70
     1
102
RTVSPropertyOp31
 70
     1
102
RTVSPropertyOp32
 70
     1
102
RTVSPropertyOp33
 70
     1
102
RTVSPropertyOp34
 70
     1
102
RTVSPropertyOp35
 70
     1
102
RTVSPropertyOp36
 70
     1
102
RTVSPropertyOp37
 70
     0
102
RTVSPropertyOp38
 70
     0
102
RTVSPropertyOp39
 70
     0
102
RTVSPropertyOp40
 70
     0
102
RTVSPropertyOp41
 70
     0
102
RTVSPropertyOp42
 70
     0
102
RTVSPropertyOp43
 70
     0
102
RTVSPropertyOp44
 70
     0
102
RTVSPropertyOp45
 70
     1
102
RTVSPropertyOp46
 70
     0
102
RTVSPropertyOp47
 70
     0
102
RTVSPropertyOp48
 70
     0
102
RTVSPropertyOp49
 70
     1
102
RTVSPropertyOp50
 70
     0
102
RTVSPropertyOp51
 70
     0
102
RTVSPropertyOp52
 70
     0
102
RTVSPropertyOp53
 70
     0
102
RTVSPropertyOp54
 70
     0
102
RTVSPropertyOp55
 70
     1
102
RTVSPropertyOp56
 70
     0
102
RTVSPropertyOp57
 70
     0
102
RTVSPropertyOp58
 70
     0
102
RTVSPropertyOp59
 70
     0
102
RTVSPropertyOp60
 70
     0
102
RTVSPropertyOp61
 70
     0
102
RTVSPropertyOp62
 70
     0
  0
XRECORD
  5
C6A
102
{ACAD_REACTORS
330
C69
102
}
330
C69
100
AcDbXrecord
280
     1
102
RTVSPost2010Prop28
280
     0
102
RTVSPost2010PropOp28
 70
     1
102
RTVSPost2010Prop29
280
     1
102
RTVSPost2010PropOp29
 70
     1
102
RTVSPost2010Prop30
280
     1
102
RTVSPost2010PropOp30
 70
     1
102
RTVSPost2010Prop31
280
     0
102
RTVSPost2010PropOp31
 70
     1
102
RTVSPost2010Prop32
280
     0
102
RTVSPost2010PropOp32
 70
     1
102
RTVSPost2010Prop33
280
     0
102
RTVSPost2010PropOp33
 70
     1
102
RTVSPost2010Prop34
280
     0
102
RTVSPost2010PropOp34
 70
     1
102
RTVSPost2010Prop35
280
     0
102
RTVSPost2010PropOp35
 70
     1
102
RTVSPost2010Prop36
280
     0
102
RTVSPost2010PropOp36
 70
     1
102
RTVSPost2010Prop37
 90
       50
102
RTVSPost2010PropOp37
 70
     1
102
RTVSPost2010Prop38
140
0.0
102
RTVSPost2010PropOp38
 70
     1
102
RTVSPost2010Prop39
140
1.0
102
RTVSPost2010PropOp39
 70
     1
102
RTVSPost2010Prop40
 90
        0
102
RTVSPost2010PropOp40
 70
     1
102
RTVSPost2010Prop41ColorIndex
 90
       18
102
RTVSPost2010Prop41ColorRGB
 90
        0
102
RTVSPost2010PropOp41
 70
     1
102
RTVSPost2010Prop42
 90
       50
102
RTVSPost2010PropOp42
 70
     1
102
RTVSPost2010Prop43
 90
        3
102
RTVSPost2010PropOp43
 70
     1
102
RTVSPost2010Prop44ColorIndex
 90
        5
102
RTVSPost2010Prop44ColorRGB
 90
      255
102
RTVSPost2010PropOp44
 70
     1
102
RTVSPost2010Prop45
280
     0
102
RTVSPost2010PropOp45
 70
     1
102
RTVSPost2010Prop46
 90
       50
102
RTVSPost2010PropOp46
 70
     1
102
RTVSPost2010Prop47
 90
       50
102
RTVSPost2010PropOp47
 70
     1
102
RTVSPost2010Prop48
 90
       50
102
RTVSPost2010PropOp48
 70
     1
102
RTVSPost2010Prop49
280
     0
102
RTVSPost2010PropOp49
 70
     1
102
RTVSPost2010Prop50
 90
       50
102
RTVSPost2010PropOp50
 70
     1
102
RTVSPost2010Prop51ColorIndex
 90
      256
102
RTVSPost2010Prop51ColorRGB
 90
-16777216
102
RTVSPost2010PropOp51
 70
     0
102
RTVSPost2010Prop52
140
1.0
102
RTVSPost2010PropOp52
 70
     0
102
RTVSPost2010Prop53
 90
        2
102
RTVSPost2010PropOp53
 70
     1
102
RTVSPost2010Prop54
  1
strokes_ogs.tif
102
RTVSPost2010PropOp54
 70
     1
102
RTVSPost2010Prop55
280
     0
102
RTVSPost2010PropOp55
 70
     1
102
RTVSPost2010Prop56
140
1.0
102
RTVSPost2010PropOp56
 70
     1
102
RTVSPost2010Prop57
140
1.0
102
RTVSPost2010PropOp57
 70
     1
102
RTVSPropertyOp0
 70
     1
102
RTVSPropertyOp1
 70
     1
102
RTVSPropertyOp2
 70
     1
102
RTVSPropertyOp3
 70
     1
102
RTVSPropertyOp4
 70
     1
102
RTVSPropertyOp5
 70
     1
102
RTVSPropertyOp6
 70
     1
102
RTVSPropertyOp7
 70
     1
102
RTVSPropertyOp8
 70
     1
102
RTVSPropertyOp9
 70
     1
102
RTVSPropertyOp10
 70
     1
102
RTVSPropertyOp11
 70
     1
102
RTVSPropertyOp12
 70
     1
102
RTVSPropertyOp13
 70
     1
102
RTVSPropertyOp14
 70
     1
102
RTVSPropertyOp15
 70
     1
102
RTVSPropertyOp16
 70
     1
102
RTVSPropertyOp17
 70
     1
102
RTVSPropertyOp18
 70
     1
102
RTVSPropertyOp19
 70
     1
102
RTVSPropertyOp20
 70
     1
102
RTVSPropertyOp21
 70
     1
102
RTVSPropertyOp22
 70
     1
102
RTVSPropertyOp23
 70
     1
102
RTVSPropertyOp24
 70
     1
102
RTVSPropertyOp25
 70
     1
102
RTVSPropertyOp26
 70
     1
102
RTVSPropertyOp27
 70
     1
102
RTVSPropertyOp28
 70
     1
102
RTVSPropertyOp29
 70
     1
102
RTVSPropertyOp30
 70
     1
102
RTVSPropertyOp31
 70
     1
102
RTVSPropertyOp32
 70
     1
102
RTVSPropertyOp33
 70
     1
102
RTVSPropertyOp34
 70
     1
102
RTVSPropertyOp35
 70
     1
102
RTVSPropertyOp36
 70
     1
102
RTVSPropertyOp37
 70
     1
102
RTVSPropertyOp38
 70
     1
102
RTVSPropertyOp39
 70
     1
102
RTVSPropertyOp40
 70
     1
102
RTVSPropertyOp41
 70
     1
102
RTVSPropertyOp42
 70
     1
102
RTVSPropertyOp43
 70
     1
102
RTVSPropertyOp44
 70
     1
102
RTVSPropertyOp45
 70
     1
102
RTVSPropertyOp46
 70
     1
102
RTVSPropertyOp47
 70
     1
102
RTVSPropertyOp48
 70
     1
102
RTVSPropertyOp49
 70
     1
102
RTVSPropertyOp50
 70
     1
102
RTVSPropertyOp51
 70
     0
102
RTVSPropertyOp52
 70
     0
102
RTVSPropertyOp53
 70
     1
102
RTVSPropertyOp54
 70
     1
102
RTVSPropertyOp55
 70
     1
102
RTVSPropertyOp56
 70
     1
102
RTVSPropertyOp57
 70
     1
102
RTVSPropertyOp58
 70
     1
102
RTVSPropertyOp59
 70
     1
102
RTVSPropertyOp60
 70
     1
102
RTVSPropertyOp61
 70
     1
102
RTVSPropertyOp62
 70
     1
  0
XRECORD
  5
C4E
102
{ACAD_REACTORS
330
C4D
102
}
330
C4D
100
AcDbXrecord
280
     1
102
RTVSPost2010Prop28
280
     0
102
RTVSPost2010PropOp28
 70
     1
102
RTVSPost2010Prop29
280
     1
102
RTVSPost2010PropOp29
 70
     1
102
RTVSPost2010Prop30
280
     1
102
RTVSPost2010PropOp30
 70
     1
102
RTVSPost2010Prop31
280
     0
102
RTVSPost2010PropOp31
 70
     1
102
RTVSPost2010Prop32
280
     0
102
RTVSPost2010PropOp32
 70
     1
102
RTVSPost2010Prop33
280
     0
102
RTVSPost2010PropOp33
 70
     1
102
RTVSPost2010Prop34
280
     0
102
RTVSPost2010PropOp34
 70
     1
102
RTVSPost2010Prop35
280
     0
102
RTVSPost2010PropOp35
 70
     1
102
RTVSPost2010Prop36
280
     0
102
RTVSPost2010PropOp36
 70
     1
102
RTVSPost2010Prop37
 90
       50
102
RTVSPost2010PropOp37
 70
     1
102
RTVSPost2010Prop38
140
0.0
102
RTVSPost2010PropOp38
 70
     1
102
RTVSPost2010Prop39
140
1.0
102
RTVSPost2010PropOp39
 70
     1
102
RTVSPost2010Prop40
 90
        0
102
RTVSPost2010PropOp40
 70
     1
102
RTVSPost2010Prop41ColorIndex
 90
       18
102
RTVSPost2010Prop41ColorRGB
 90
        0
102
RTVSPost2010PropOp41
 70
     1
102
RTVSPost2010Prop42
 90
       50
102
RTVSPost2010PropOp42
 70
     1
102
RTVSPost2010Prop43
 90
        3
102
RTVSPost2010PropOp43
 70
     1
102
RTVSPost2010Prop44ColorIndex
 90
        5
102
RTVSPost2010Prop44ColorRGB
 90
      255
102
RTVSPost2010PropOp44
 70
     1
102
RTVSPost2010Prop45
280
     0
102
RTVSPost2010PropOp45
 70
     1
102
RTVSPost2010Prop46
 90
       50
102
RTVSPost2010PropOp46
 70
     1
102
RTVSPost2010Prop47
 90
       50
102
RTVSPost2010PropOp47
 70
     1
102
RTVSPost2010Prop48
 90
       50
102
RTVSPost2010PropOp48
 70
     1
102
RTVSPost2010Prop49
280
     0
102
RTVSPost2010PropOp49
 70
     1
102
RTVSPost2010Prop50
 90
       50
102
RTVSPost2010PropOp50
 70
     1
102
RTVSPost2010Prop51ColorIndex
 90
      256
102
RTVSPost2010Prop51ColorRGB
 90
-16777216
102
RTVSPost2010PropOp51
 70
     0
102
RTVSPost2010Prop52
140
1.0
102
RTVSPost2010PropOp52
 70
     0
102
RTVSPost2010Prop53
 90
        2
102
RTVSPost2010PropOp53
 70
     1
102
RTVSPost2010Prop54
  1
strokes_ogs.tif
102
RTVSPost2010PropOp54
 70
     1
102
RTVSPost2010Prop55
280
     0
102
RTVSPost2010PropOp55
 70
     1
102
RTVSPost2010Prop56
140
1.0
102
RTVSPost2010PropOp56
 70
     1
102
RTVSPost2010Prop57
140
1.0
102
RTVSPost2010PropOp57
 70
     1
102
RTVSPropertyOp0
 70
     1
102
RTVSPropertyOp1
 70
     1
102
RTVSPropertyOp2
 70
     1
102
RTVSPropertyOp3
 70
     1
102
RTVSPropertyOp4
 70
     1
102
RTVSPropertyOp5
 70
     1
102
RTVSPropertyOp6
 70
     1
102
RTVSPropertyOp7
 70
     1
102
RTVSPropertyOp8
 70
     1
102
RTVSPropertyOp9
 70
     1
102
RTVSPropertyOp10
 70
     1
102
RTVSPropertyOp11
 70
     1
102
RTVSPropertyOp12
 70
     1
102
RTVSPropertyOp13
 70
     1
102
RTVSPropertyOp14
 70
     1
102
RTVSPropertyOp15
 70
     1
102
RTVSPropertyOp16
 70
     1
102
RTVSPropertyOp17
 70
     1
102
RTVSPropertyOp18
 70
     1
102
RTVSPropertyOp19
 70
     1
102
RTVSPropertyOp20
 70
     1
102
RTVSPropertyOp21
 70
     1
102
RTVSPropertyOp22
 70
     1
102
RTVSPropertyOp23
 70
     1
102
RTVSPropertyOp24
 70
     1
102
RTVSPropertyOp25
 70
     1
102
RTVSPropertyOp26
 70
     1
102
RTVSPropertyOp27
 70
     1
102
RTVSPropertyOp28
 70
     1
102
RTVSPropertyOp29
 70
     1
102
RTVSPropertyOp30
 70
     1
102
RTVSPropertyOp31
 70
     1
102
RTVSPropertyOp32
 70
     1
102
RTVSPropertyOp33
 70
     1
102
RTVSPropertyOp34
 70
     1
102
RTVSPropertyOp35
 70
     1
102
RTVSPropertyOp36
 70
     1
102
RTVSPropertyOp37
 70
     1
102
RTVSPropertyOp38
 70
     1
102
RTVSPropertyOp39
 70
     1
102
RTVSPropertyOp40
 70
     1
102
RTVSPropertyOp41
 70
     1
102
RTVSPropertyOp42
 70
     1
102
RTVSPropertyOp43
 70
     1
102
RTVSPropertyOp44
 70
     1
102
RTVSPropertyOp45
 70
     1
102
RTVSPropertyOp46
 70
     1
102
RTVSPropertyOp47
 70
     1
102
RTVSPropertyOp48
 70
     1
102
RTVSPropertyOp49
 70
     1
102
RTVSPropertyOp50
 70
     1
102
RTVSPropertyOp51
 70
     0
102
RTVSPropertyOp52
 70
     0
102
RTVSPropertyOp53
 70
     1
102
RTVSPropertyOp54
 70
     1
102
RTVSPropertyOp55
 70
     1
102
RTVSPropertyOp56
 70
     1
102
RTVSPropertyOp57
 70
     1
102
RTVSPropertyOp58
 70
     1
102
RTVSPropertyOp59
 70
     1
102
RTVSPropertyOp60
 70
     1
102
RTVSPropertyOp61
 70
     1
102
RTVSPropertyOp62
 70
     1
  0
XRECORD
  5
C50
102
{ACAD_REACTORS
330
C4F
102
}
330
C4F
100
AcDbXrecord
280
     1
102
RTVSPost2010Prop28
280
     0
102
RTVSPost2010PropOp28
 70
     1
102
RTVSPost2010Prop29
280
     1
102
RTVSPost2010PropOp29
 70
     1
102
RTVSPost2010Prop30
280
     1
102
RTVSPost2010PropOp30
 70
     1
102
RTVSPost2010Prop31
280
     0
102
RTVSPost2010PropOp31
 70
     1
102
RTVSPost2010Prop32
280
     0
102
RTVSPost2010PropOp32
 70
     1
102
RTVSPost2010Prop33
280
     0
102
RTVSPost2010PropOp33
 70
     1
102
RTVSPost2010Prop34
280
     0
102
RTVSPost2010PropOp34
 70
     1
102
RTVSPost2010Prop35
280
     0
102
RTVSPost2010PropOp35
 70
     1
102
RTVSPost2010Prop36
280
     0
102
RTVSPost2010PropOp36
 70
     1
102
RTVSPost2010Prop37
 90
       50
102
RTVSPost2010PropOp37
 70
     1
102
RTVSPost2010Prop38
140
0.0
102
RTVSPost2010PropOp38
 70
     1
102
RTVSPost2010Prop39
140
1.0
102
RTVSPost2010PropOp39
 70
     1
102
RTVSPost2010Prop40
 90
        0
102
RTVSPost2010PropOp40
 70
     1
102
RTVSPost2010Prop41ColorIndex
 90
       18
102
RTVSPost2010Prop41ColorRGB
 90
        0
102
RTVSPost2010PropOp41
 70
     1
102
RTVSPost2010Prop42
 90
       50
102
RTVSPost2010PropOp42
 70
     1
102
RTVSPost2010Prop43
 90
        3
102
RTVSPost2010PropOp43
 70
     1
102
RTVSPost2010Prop44ColorIndex
 90
        5
102
RTVSPost2010Prop44ColorRGB
 90
      255
102
RTVSPost2010PropOp44
 70
     1
102
RTVSPost2010Prop45
280
     0
102
RTVSPost2010PropOp45
 70
     1
102
RTVSPost2010Prop46
 90
       50
102
RTVSPost2010PropOp46
 70
     1
102
RTVSPost2010Prop47
 90
       50
102
RTVSPost2010PropOp47
 70
     1
102
RTVSPost2010Prop48
 90
       50
102
RTVSPost2010PropOp48
 70
     1
102
RTVSPost2010Prop49
280
     0
102
RTVSPost2010PropOp49
 70
     1
102
RTVSPost2010Prop50
 90
       50
102
RTVSPost2010PropOp50
 70
     1
102
RTVSPost2010Prop51ColorIndex
 90
      256
102
RTVSPost2010Prop51ColorRGB
 90
-16777216
102
RTVSPost2010PropOp51
 70
     0
102
RTVSPost2010Prop52
140
1.0
102
RTVSPost2010PropOp52
 70
     0
102
RTVSPost2010Prop53
 90
        2
102
RTVSPost2010PropOp53
 70
     1
102
RTVSPost2010Prop54
  1
strokes_ogs.tif
102
RTVSPost2010PropOp54
 70
     1
102
RTVSPost2010Prop55
280
     0
102
RTVSPost2010PropOp55
 70
     1
102
RTVSPost2010Prop56
140
1.0
102
RTVSPost2010PropOp56
 70
     1
102
RTVSPost2010Prop57
140
1.0
102
RTVSPost2010PropOp57
 70
     1
102
RTVSPropertyOp0
 70
     1
102
RTVSPropertyOp1
 70
     1
102
RTVSPropertyOp2
 70
     1
102
RTVSPropertyOp3
 70
     1
102
RTVSPropertyOp4
 70
     1
102
RTVSPropertyOp5
 70
     1
102
RTVSPropertyOp6
 70
     1
102
RTVSPropertyOp7
 70
     1
102
RTVSPropertyOp8
 70
     1
102
RTVSPropertyOp9
 70
     1
102
RTVSPropertyOp10
 70
     1
102
RTVSPropertyOp11
 70
     1
102
RTVSPropertyOp12
 70
     1
102
RTVSPropertyOp13
 70
     1
102
RTVSPropertyOp14
 70
     1
102
RTVSPropertyOp15
 70
     1
102
RTVSPropertyOp16
 70
     1
102
RTVSPropertyOp17
 70
     1
102
RTVSPropertyOp18
 70
     1
102
RTVSPropertyOp19
 70
     1
102
RTVSPropertyOp20
 70
     1
102
RTVSPropertyOp21
 70
     1
102
RTVSPropertyOp22
 70
     1
102
RTVSPropertyOp23
 70
     1
102
RTVSPropertyOp24
 70
     1
102
RTVSPropertyOp25
 70
     1
102
RTVSPropertyOp26
 70
     1
102
RTVSPropertyOp27
 70
     1
102
RTVSPropertyOp28
 70
     1
102
RTVSPropertyOp29
 70
     1
102
RTVSPropertyOp30
 70
     1
102
RTVSPropertyOp31
 70
     1
102
RTVSPropertyOp32
 70
     1
102
RTVSPropertyOp33
 70
     1
102
RTVSPropertyOp34
 70
     1
102
RTVSPropertyOp35
 70
     1
102
RTVSPropertyOp36
 70
     1
102
RTVSPropertyOp37
 70
     1
102
RTVSPropertyOp38
 70
     1
102
RTVSPropertyOp39
 70
     1
102
RTVSPropertyOp40
 70
     1
102
RTVSPropertyOp41
 70
     1
102
RTVSPropertyOp42
 70
     1
102
RTVSPropertyOp43
 70
     1
102
RTVSPropertyOp44
 70
     1
102
RTVSPropertyOp45
 70
     1
102
RTVSPropertyOp46
 70
     1
102
RTVSPropertyOp47
 70
     1
102
RTVSPropertyOp48
 70
     1
102
RTVSPropertyOp49
 70
     1
102
RTVSPropertyOp50
 70
     1
102
RTVSPropertyOp51
 70
     0
102
RTVSPropertyOp52
 70
     0
102
RTVSPropertyOp53
 70
     1
102
RTVSPropertyOp54
 70
     1
102
RTVSPropertyOp55
 70
     1
102
RTVSPropertyOp56
 70
     1
102
RTVSPropertyOp57
 70
     1
102
RTVSPropertyOp58
 70
     1
102
RTVSPropertyOp59
 70
     1
102
RTVSPropertyOp60
 70
     1
102
RTVSPropertyOp61
 70
     1
102
RTVSPropertyOp62
 70
     1
  0
XRECORD
  5
C52
102
{ACAD_REACTORS
330
C51
102
}
330
C51
100
AcDbXrecord
280
     1
102
RTVSPost2010Prop28
280
     0
102
RTVSPost2010PropOp28
 70
     1
102
RTVSPost2010Prop29
280
     1
102
RTVSPost2010PropOp29
 70
     1
102
RTVSPost2010Prop30
280
     1
102
RTVSPost2010PropOp30
 70
     1
102
RTVSPost2010Prop31
280
     0
102
RTVSPost2010PropOp31
 70
     1
102
RTVSPost2010Prop32
280
     0
102
RTVSPost2010PropOp32
 70
     1
102
RTVSPost2010Prop33
280
     0
102
RTVSPost2010PropOp33
 70
     1
102
RTVSPost2010Prop34
280
     0
102
RTVSPost2010PropOp34
 70
     1
102
RTVSPost2010Prop35
280
     0
102
RTVSPost2010PropOp35
 70
     1
102
RTVSPost2010Prop36
280
     0
102
RTVSPost2010PropOp36
 70
     1
102
RTVSPost2010Prop37
 90
       50
102
RTVSPost2010PropOp37
 70
     1
102
RTVSPost2010Prop38
140
0.0
102
RTVSPost2010PropOp38
 70
     1
102
RTVSPost2010Prop39
140
1.0
102
RTVSPost2010PropOp39
 70
     1
102
RTVSPost2010Prop40
 90
        0
102
RTVSPost2010PropOp40
 70
     1
102
RTVSPost2010Prop41ColorIndex
 90
       18
102
RTVSPost2010Prop41ColorRGB
 90
        0
102
RTVSPost2010PropOp41
 70
     1
102
RTVSPost2010Prop42
 90
       50
102
RTVSPost2010PropOp42
 70
     1
102
RTVSPost2010Prop43
 90
        3
102
RTVSPost2010PropOp43
 70
     1
102
RTVSPost2010Prop44ColorIndex
 90
        5
102
RTVSPost2010Prop44ColorRGB
 90
      255
102
RTVSPost2010PropOp44
 70
     1
102
RTVSPost2010Prop45
280
     0
102
RTVSPost2010PropOp45
 70
     1
102
RTVSPost2010Prop46
 90
       50
102
RTVSPost2010PropOp46
 70
     1
102
RTVSPost2010Prop47
 90
       50
102
RTVSPost2010PropOp47
 70
     1
102
RTVSPost2010Prop48
 90
       50
102
RTVSPost2010PropOp48
 70
     1
102
RTVSPost2010Prop49
280
     0
102
RTVSPost2010PropOp49
 70
     1
102
RTVSPost2010Prop50
 90
       50
102
RTVSPost2010PropOp50
 70
     1
102
RTVSPost2010Prop51ColorIndex
 90
      256
102
RTVSPost2010Prop51ColorRGB
 90
-16777216
102
RTVSPost2010PropOp51
 70
     0
102
RTVSPost2010Prop52
140
1.0
102
RTVSPost2010PropOp52
 70
     0
102
RTVSPost2010Prop53
 90
        2
102
RTVSPost2010PropOp53
 70
     1
102
RTVSPost2010Prop54
  1
strokes_ogs.tif
102
RTVSPost2010PropOp54
 70
     1
102
RTVSPost2010Prop55
280
     0
102
RTVSPost2010PropOp55
 70
     1
102
RTVSPost2010Prop56
140
1.0
102
RTVSPost2010PropOp56
 70
     1
102
RTVSPost2010Prop57
140
1.0
102
RTVSPost2010PropOp57
 70
     1
102
RTVSPropertyOp0
 70
     1
102
RTVSPropertyOp1
 70
     1
102
RTVSPropertyOp2
 70
     1
102
RTVSPropertyOp3
 70
     1
102
RTVSPropertyOp4
 70
     1
102
RTVSPropertyOp5
 70
     1
102
RTVSPropertyOp6
 70
     1
102
RTVSPropertyOp7
 70
     1
102
RTVSPropertyOp8
 70
     1
102
RTVSPropertyOp9
 70
     1
102
RTVSPropertyOp10
 70
     1
102
RTVSPropertyOp11
 70
     1
102
RTVSPropertyOp12
 70
     1
102
RTVSPropertyOp13
 70
     1
102
RTVSPropertyOp14
 70
     1
102
RTVSPropertyOp15
 70
     1
102
RTVSPropertyOp16
 70
     1
102
RTVSPropertyOp17
 70
     1
102
RTVSPropertyOp18
 70
     1
102
RTVSPropertyOp19
 70
     1
102
RTVSPropertyOp20
 70
     1
102
RTVSPropertyOp21
 70
     1
102
RTVSPropertyOp22
 70
     1
102
RTVSPropertyOp23
 70
     1
102
RTVSPropertyOp24
 70
     1
102
RTVSPropertyOp25
 70
     1
102
RTVSPropertyOp26
 70
     1
102
RTVSPropertyOp27
 70
     1
102
RTVSPropertyOp28
 70
     1
102
RTVSPropertyOp29
 70
     1
102
RTVSPropertyOp30
 70
     1
102
RTVSPropertyOp31
 70
     1
102
RTVSPropertyOp32
 70
     1
102
RTVSPropertyOp33
 70
     1
102
RTVSPropertyOp34
 70
     1
102
RTVSPropertyOp35
 70
     1
102
RTVSPropertyOp36
 70
     1
102
RTVSPropertyOp37
 70
     1
102
RTVSPropertyOp38
 70
     1
102
RTVSPropertyOp39
 70
     1
102
RTVSPropertyOp40
 70
     1
102
RTVSPropertyOp41
 70
     1
102
RTVSPropertyOp42
 70
     1
102
RTVSPropertyOp43
 70
     1
102
RTVSPropertyOp44
 70
     1
102
RTVSPropertyOp45
 70
     1
102
RTVSPropertyOp46
 70
     1
102
RTVSPropertyOp47
 70
     1
102
RTVSPropertyOp48
 70
     1
102
RTVSPropertyOp49
 70
     1
102
RTVSPropertyOp50
 70
     1
102
RTVSPropertyOp51
 70
     0
102
RTVSPropertyOp52
 70
     0
102
RTVSPropertyOp53
 70
     1
102
RTVSPropertyOp54
 70
     1
102
RTVSPropertyOp55
 70
     1
102
RTVSPropertyOp56
 70
     1
102
RTVSPropertyOp57
 70
     1
102
RTVSPropertyOp58
 70
     1
102
RTVSPropertyOp59
 70
     1
102
RTVSPropertyOp60
 70
     1
102
RTVSPropertyOp61
 70
     1
102
RTVSPropertyOp62
 70
     1
  0
XRECORD
  5
C54
102
{ACAD_REACTORS
330
C53
102
}
330
C53
100
AcDbXrecord
280
     1
102
RTVSPost2010Prop28
280
     0
102
RTVSPost2010PropOp28
 70
     1
102
RTVSPost2010Prop29
280
     1
102
RTVSPost2010PropOp29
 70
     1
102
RTVSPost2010Prop30
280
     1
102
RTVSPost2010PropOp30
 70
     1
102
RTVSPost2010Prop31
280
     0
102
RTVSPost2010PropOp31
 70
     1
102
RTVSPost2010Prop32
280
     0
102
RTVSPost2010PropOp32
 70
     1
102
RTVSPost2010Prop33
280
     0
102
RTVSPost2010PropOp33
 70
     1
102
RTVSPost2010Prop34
280
     0
102
RTVSPost2010PropOp34
 70
     1
102
RTVSPost2010Prop35
280
     0
102
RTVSPost2010PropOp35
 70
     1
102
RTVSPost2010Prop36
280
     0
102
RTVSPost2010PropOp36
 70
     1
102
RTVSPost2010Prop37
 90
       50
102
RTVSPost2010PropOp37
 70
     1
102
RTVSPost2010Prop38
140
0.0
102
RTVSPost2010PropOp38
 70
     1
102
RTVSPost2010Prop39
140
1.0
102
RTVSPost2010PropOp39
 70
     1
102
RTVSPost2010Prop40
 90
        0
102
RTVSPost2010PropOp40
 70
     1
102
RTVSPost2010Prop41ColorIndex
 90
       18
102
RTVSPost2010Prop41ColorRGB
 90
        0
102
RTVSPost2010PropOp41
 70
     1
102
RTVSPost2010Prop42
 90
       50
102
RTVSPost2010PropOp42
 70
     1
102
RTVSPost2010Prop43
 90
        3
102
RTVSPost2010PropOp43
 70
     1
102
RTVSPost2010Prop44ColorIndex
 90
        5
102
RTVSPost2010Prop44ColorRGB
 90
      255
102
RTVSPost2010PropOp44
 70
     1
102
RTVSPost2010Prop45
280
     0
102
RTVSPost2010PropOp45
 70
     1
102
RTVSPost2010Prop46
 90
       50
102
RTVSPost2010PropOp46
 70
     1
102
RTVSPost2010Prop47
 90
       50
102
RTVSPost2010PropOp47
 70
     1
102
RTVSPost2010Prop48
 90
       50
102
RTVSPost2010PropOp48
 70
     1
102
RTVSPost2010Prop49
280
     0
102
RTVSPost2010PropOp49
 70
     1
102
RTVSPost2010Prop50
 90
       50
102
RTVSPost2010PropOp50
 70
     1
102
RTVSPost2010Prop51ColorIndex
 90
      256
102
RTVSPost2010Prop51ColorRGB
 90
-16777216
102
RTVSPost2010PropOp51
 70
     0
102
RTVSPost2010Prop52
140
1.0
102
RTVSPost2010PropOp52
 70
     0
102
RTVSPost2010Prop53
 90
        2
102
RTVSPost2010PropOp53
 70
     1
102
RTVSPost2010Prop54
  1
strokes_ogs.tif
102
RTVSPost2010PropOp54
 70
     1
102
RTVSPost2010Prop55
280
     0
102
RTVSPost2010PropOp55
 70
     1
102
RTVSPost2010Prop56
140
1.0
102
RTVSPost2010PropOp56
 70
     1
102
RTVSPost2010Prop57
140
1.0
102
RTVSPost2010PropOp57
 70
     1
102
RTVSPropertyOp0
 70
     1
102
RTVSPropertyOp1
 70
     1
102
RTVSPropertyOp2
 70
     1
102
RTVSPropertyOp3
 70
     1
102
RTVSPropertyOp4
 70
     1
102
RTVSPropertyOp5
 70
     1
102
RTVSPropertyOp6
 70
     1
102
RTVSPropertyOp7
 70
     1
102
RTVSPropertyOp8
 70
     1
102
RTVSPropertyOp9
 70
     1
102
RTVSPropertyOp10
 70
     1
102
RTVSPropertyOp11
 70
     1
102
RTVSPropertyOp12
 70
     1
102
RTVSPropertyOp13
 70
     1
102
RTVSPropertyOp14
 70
     1
102
RTVSPropertyOp15
 70
     1
102
RTVSPropertyOp16
 70
     1
102
RTVSPropertyOp17
 70
     1
102
RTVSPropertyOp18
 70
     1
102
RTVSPropertyOp19
 70
     1
102
RTVSPropertyOp20
 70
     1
102
RTVSPropertyOp21
 70
     1
102
RTVSPropertyOp22
 70
     1
102
RTVSPropertyOp23
 70
     1
102
RTVSPropertyOp24
 70
     1
102
RTVSPropertyOp25
 70
     1
102
RTVSPropertyOp26
 70
     1
102
RTVSPropertyOp27
 70
     1
102
RTVSPropertyOp28
 70
     1
102
RTVSPropertyOp29
 70
     1
102
RTVSPropertyOp30
 70
     1
102
RTVSPropertyOp31
 70
     1
102
RTVSPropertyOp32
 70
     1
102
RTVSPropertyOp33
 70
     1
102
RTVSPropertyOp34
 70
     1
102
RTVSPropertyOp35
 70
     1
102
RTVSPropertyOp36
 70
     1
102
RTVSPropertyOp37
 70
     1
102
RTVSPropertyOp38
 70
     1
102
RTVSPropertyOp39
 70
     1
102
RTVSPropertyOp40
 70
     1
102
RTVSPropertyOp41
 70
     1
102
RTVSPropertyOp42
 70
     1
102
RTVSPropertyOp43
 70
     1
102
RTVSPropertyOp44
 70
     1
102
RTVSPropertyOp45
 70
     1
102
RTVSPropertyOp46
 70
     1
102
RTVSPropertyOp47
 70
     1
102
RTVSPropertyOp48
 70
     1
102
RTVSPropertyOp49
 70
     1
102
RTVSPropertyOp50
 70
     1
102
RTVSPropertyOp51
 70
     0
102
RTVSPropertyOp52
 70
     0
102
RTVSPropertyOp53
 70
     1
102
RTVSPropertyOp54
 70
     1
102
RTVSPropertyOp55
 70
     1
102
RTVSPropertyOp56
 70
     1
102
RTVSPropertyOp57
 70
     1
102
RTVSPropertyOp58
 70
     1
102
RTVSPropertyOp59
 70
     1
102
RTVSPropertyOp60
 70
     1
102
RTVSPropertyOp61
 70
     1
102
RTVSPropertyOp62
 70
     1
  0
XRECORD
  5
C5C
102
{ACAD_REACTORS
330
C5B
102
}
330
C5B
100
AcDbXrecord
280
     1
102
RTVSPost2010Prop28
280
     0
102
RTVSPost2010PropOp28
 70
     1
102
RTVSPost2010Prop29
280
     1
102
RTVSPost2010PropOp29
 70
     1
102
RTVSPost2010Prop30
280
     1
102
RTVSPost2010PropOp30
 70
     1
102
RTVSPost2010Prop31
280
     0
102
RTVSPost2010PropOp31
 70
     1
102
RTVSPost2010Prop32
280
     0
102
RTVSPost2010PropOp32
 70
     1
102
RTVSPost2010Prop33
280
     0
102
RTVSPost2010PropOp33
 70
     1
102
RTVSPost2010Prop34
280
     0
102
RTVSPost2010PropOp34
 70
     1
102
RTVSPost2010Prop35
280
     0
102
RTVSPost2010PropOp35
 70
     1
102
RTVSPost2010Prop36
280
     0
102
RTVSPost2010PropOp36
 70
     1
102
RTVSPost2010Prop37
 90
       50
102
RTVSPost2010PropOp37
 70
     1
102
RTVSPost2010Prop38
140
0.0
102
RTVSPost2010PropOp38
 70
     1
102
RTVSPost2010Prop39
140
1.0
102
RTVSPost2010PropOp39
 70
     1
102
RTVSPost2010Prop40
 90
        0
102
RTVSPost2010PropOp40
 70
     1
102
RTVSPost2010Prop41ColorIndex
 90
       18
102
RTVSPost2010Prop41ColorRGB
 90
        0
102
RTVSPost2010PropOp41
 70
     1
102
RTVSPost2010Prop42
 90
       50
102
RTVSPost2010PropOp42
 70
     1
102
RTVSPost2010Prop43
 90
        3
102
RTVSPost2010PropOp43
 70
     1
102
RTVSPost2010Prop44ColorIndex
 90
        5
102
RTVSPost2010Prop44ColorRGB
 90
      255
102
RTVSPost2010PropOp44
 70
     1
102
RTVSPost2010Prop45
280
     0
102
RTVSPost2010PropOp45
 70
     1
102
RTVSPost2010Prop46
 90
       50
102
RTVSPost2010PropOp46
 70
     1
102
RTVSPost2010Prop47
 90
       50
102
RTVSPost2010PropOp47
 70
     1
102
RTVSPost2010Prop48
 90
       50
102
RTVSPost2010PropOp48
 70
     1
102
RTVSPost2010Prop49
280
     0
102
RTVSPost2010PropOp49
 70
     1
102
RTVSPost2010Prop50
 90
       50
102
RTVSPost2010PropOp50
 70
     1
102
RTVSPost2010Prop51ColorIndex
 90
      256
102
RTVSPost2010Prop51ColorRGB
 90
-16777216
102
RTVSPost2010PropOp51
 70
     0
102
RTVSPost2010Prop52
140
1.0
102
RTVSPost2010PropOp52
 70
     0
102
RTVSPost2010Prop53
 90
        2
102
RTVSPost2010PropOp53
 70
     1
102
RTVSPost2010Prop54
  1
strokes_ogs.tif
102
RTVSPost2010PropOp54
 70
     1
102
RTVSPost2010Prop55
280
     0
102
RTVSPost2010PropOp55
 70
     1
102
RTVSPost2010Prop56
140
1.0
102
RTVSPost2010PropOp56
 70
     1
102
RTVSPost2010Prop57
140
1.0
102
RTVSPost2010PropOp57
 70
     1
102
RTVSPropertyOp0
 70
     1
102
RTVSPropertyOp1
 70
     1
102
RTVSPropertyOp2
 70
     1
102
RTVSPropertyOp3
 70
     1
102
RTVSPropertyOp4
 70
     1
102
RTVSPropertyOp5
 70
     1
102
RTVSPropertyOp6
 70
     1
102
RTVSPropertyOp7
 70
     1
102
RTVSPropertyOp8
 70
     1
102
RTVSPropertyOp9
 70
     1
102
RTVSPropertyOp10
 70
     1
102
RTVSPropertyOp11
 70
     1
102
RTVSPropertyOp12
 70
     1
102
RTVSPropertyOp13
 70
     1
102
RTVSPropertyOp14
 70
     1
102
RTVSPropertyOp15
 70
     1
102
RTVSPropertyOp16
 70
     1
102
RTVSPropertyOp17
 70
     1
102
RTVSPropertyOp18
 70
     1
102
RTVSPropertyOp19
 70
     1
102
RTVSPropertyOp20
 70
     1
102
RTVSPropertyOp21
 70
     1
102
RTVSPropertyOp22
 70
     1
102
RTVSPropertyOp23
 70
     1
102
RTVSPropertyOp24
 70
     1
102
RTVSPropertyOp25
 70
     1
102
RTVSPropertyOp26
 70
     1
102
RTVSPropertyOp27
 70
     1
102
RTVSPropertyOp28
 70
     1
102
RTVSPropertyOp29
 70
     1
102
RTVSPropertyOp30
 70
     1
102
RTVSPropertyOp31
 70
     1
102
RTVSPropertyOp32
 70
     1
102
RTVSPropertyOp33
 70
     1
102
RTVSPropertyOp34
 70
     1
102
RTVSPropertyOp35
 70
     1
102
RTVSPropertyOp36
 70
     1
102
RTVSPropertyOp37
 70
     1
102
RTVSPropertyOp38
 70
     1
102
RTVSPropertyOp39
 70
     1
102
RTVSPropertyOp40
 70
     1
102
RTVSPropertyOp41
 70
     1
102
RTVSPropertyOp42
 70
     1
102
RTVSPropertyOp43
 70
     1
102
RTVSPropertyOp44
 70
     1
102
RTVSPropertyOp45
 70
     1
102
RTVSPropertyOp46
 70
     1
102
RTVSPropertyOp47
 70
     1
102
RTVSPropertyOp48
 70
     1
102
RTVSPropertyOp49
 70
     1
102
RTVSPropertyOp50
 70
     1
102
RTVSPropertyOp51
 70
     0
102
RTVSPropertyOp52
 70
     0
102
RTVSPropertyOp53
 70
     1
102
RTVSPropertyOp54
 70
     1
102
RTVSPropertyOp55
 70
     1
102
RTVSPropertyOp56
 70
     1
102
RTVSPropertyOp57
 70
     1
102
RTVSPropertyOp58
 70
     1
102
RTVSPropertyOp59
 70
     1
102
RTVSPropertyOp60
 70
     1
102
RTVSPropertyOp61
 70
     1
102
RTVSPropertyOp62
 70
     1
  0
XRECORD
  5
C78
102
{ACAD_REACTORS
330
C77
102
}
330
C77
100
AcDbXrecord
280
     1
102
RTVSPost2010Prop28
280
     0
102
RTVSPost2010PropOp28
 70
     1
102
RTVSPost2010Prop29
280
     1
102
RTVSPost2010PropOp29
 70
     1
102
RTVSPost2010Prop30
280
     1
102
RTVSPost2010PropOp30
 70
     1
102
RTVSPost2010Prop31
280
     0
102
RTVSPost2010PropOp31
 70
     1
102
RTVSPost2010Prop32
280
     0
102
RTVSPost2010PropOp32
 70
     1
102
RTVSPost2010Prop33
280
     0
102
RTVSPost2010PropOp33
 70
     1
102
RTVSPost2010Prop34
280
     0
102
RTVSPost2010PropOp34
 70
     1
102
RTVSPost2010Prop35
280
     0
102
RTVSPost2010PropOp35
 70
     1
102
RTVSPost2010Prop36
280
     0
102
RTVSPost2010PropOp36
 70
     1
102
RTVSPost2010Prop37
 90
       50
102
RTVSPost2010PropOp37
 70
     0
102
RTVSPost2010Prop38
140
0.0
102
RTVSPost2010PropOp38
 70
     0
102
RTVSPost2010Prop39
140
1.0
102
RTVSPost2010PropOp39
 70
     0
102
RTVSPost2010Prop40
 90
        0
102
RTVSPost2010PropOp40
 70
     0
102
RTVSPost2010Prop41ColorIndex
 90
       18
102
RTVSPost2010Prop41ColorRGB
 90
        0
102
RTVSPost2010PropOp41
 70
     0
102
RTVSPost2010Prop42
 90
       50
102
RTVSPost2010PropOp42
 70
     0
102
RTVSPost2010Prop43
 90
        3
102
RTVSPost2010PropOp43
 70
     0
102
RTVSPost2010Prop44ColorIndex
 90
        5
102
RTVSPost2010Prop44ColorRGB
 90
      255
102
RTVSPost2010PropOp44
 70
     0
102
RTVSPost2010Prop45
280
     0
102
RTVSPost2010PropOp45
 70
     1
102
RTVSPost2010Prop46
 90
       50
102
RTVSPost2010PropOp46
 70
     0
102
RTVSPost2010Prop47
 90
       50
102
RTVSPost2010PropOp47
 70
     0
102
RTVSPost2010Prop48
 90
       50
102
RTVSPost2010PropOp48
 70
     0
102
RTVSPost2010Prop49
280
     0
102
RTVSPost2010PropOp49
 70
     1
102
RTVSPost2010Prop50
 90
       50
102
RTVSPost2010PropOp50
 70
     0
102
RTVSPost2010Prop51ColorIndex
 90
      256
102
RTVSPost2010Prop51ColorRGB
 90
-16777216
102
RTVSPost2010PropOp51
 70
     0
102
RTVSPost2010Prop52
140
1.0
102
RTVSPost2010PropOp52
 70
     0
102
RTVSPost2010Prop53
 90
        2
102
RTVSPost2010PropOp53
 70
     0
102
RTVSPost2010Prop54
  1
strokes_ogs.tif
102
RTVSPost2010PropOp54
 70
     0
102
RTVSPost2010Prop55
280
     0
102
RTVSPost2010PropOp55
 70
     1
102
RTVSPost2010Prop56
140
1.0
102
RTVSPost2010PropOp56
 70
     0
102
RTVSPost2010Prop57
140
1.0
102
RTVSPost2010PropOp57
 70
     0
102
RTVSPropertyOp0
 70
     0
102
RTVSPropertyOp1
 70
     0
102
RTVSPropertyOp2
 70
     0
102
RTVSPropertyOp3
 70
     0
102
RTVSPropertyOp4
 70
     0
102
RTVSPropertyOp5
 70
     0
102
RTVSPropertyOp6
 70
     0
102
RTVSPropertyOp7
 70
     0
102
RTVSPropertyOp8
 70
     0
102
RTVSPropertyOp9
 70
     0
102
RTVSPropertyOp10
 70
     0
102
RTVSPropertyOp11
 70
     0
102
RTVSPropertyOp12
 70
     0
102
RTVSPropertyOp13
 70
     0
102
RTVSPropertyOp14
 70
     2
102
RTVSPropertyOp15
 70
     0
102
RTVSPropertyOp16
 70
     0
102
RTVSPropertyOp17
 70
     0
102
RTVSPropertyOp18
 70
     0
102
RTVSPropertyOp19
 70
     0
102
RTVSPropertyOp20
 70
     0
102
RTVSPropertyOp21
 70
     0
102
RTVSPropertyOp22
 70
     0
102
RTVSPropertyOp23
 70
     0
102
RTVSPropertyOp24
 70
     0
102
RTVSPropertyOp25
 70
     0
102
RTVSPropertyOp26
 70
     0
102
RTVSPropertyOp27
 70
     0
102
RTVSPropertyOp28
 70
     1
102
RTVSPropertyOp29
 70
     1
102
RTVSPropertyOp30
 70
     1
102
RTVSPropertyOp31
 70
     1
102
RTVSPropertyOp32
 70
     1
102
RTVSPropertyOp33
 70
     1
102
RTVSPropertyOp34
 70
     1
102
RTVSPropertyOp35
 70
     1
102
RTVSPropertyOp36
 70
     1
102
RTVSPropertyOp37
 70
     0
102
RTVSPropertyOp38
 70
     0
102
RTVSPropertyOp39
 70
     0
102
RTVSPropertyOp40
 70
     0
102
RTVSPropertyOp41
 70
     0
102
RTVSPropertyOp42
 70
     0
102
RTVSPropertyOp43
 70
     0
102
RTVSPropertyOp44
 70
     0
102
RTVSPropertyOp45
 70
     1
102
RTVSPropertyOp46
 70
     0
102
RTVSPropertyOp47
 70
     0
102
RTVSPropertyOp48
 70
     0
102
RTVSPropertyOp49
 70
     1
102
RTVSPropertyOp50
 70
     0
102
RTVSPropertyOp51
 70
     0
102
RTVSPropertyOp52
 70
     0
102
RTVSPropertyOp53
 70
     0
102
RTVSPropertyOp54
 70
     0
102
RTVSPropertyOp55
 70
     1
102
RTVSPropertyOp56
 70
     0
102
RTVSPropertyOp57
 70
     0
102
RTVSPropertyOp58
 70
     0
102
RTVSPropertyOp59
 70
     0
102
RTVSPropertyOp60
 70
     0
102
RTVSPropertyOp61
 70
     0
102
RTVSPropertyOp62
 70
     0
  0
XRECORD
  5
C68
102
{ACAD_REACTORS
330
C67
102
}
330
C67
100
AcDbXrecord
280
     1
102
RTVSPost2010Prop28
280
     0
102
RTVSPost2010PropOp28
 70
     1
102
RTVSPost2010Prop29
280
     1
102
RTVSPost2010PropOp29
 70
     1
102
RTVSPost2010Prop30
280
     1
102
RTVSPost2010PropOp30
 70
     1
102
RTVSPost2010Prop31
280
     0
102
RTVSPost2010PropOp31
 70
     1
102
RTVSPost2010Prop32
280
     0
102
RTVSPost2010PropOp32
 70
     1
102
RTVSPost2010Prop33
280
     0
102
RTVSPost2010PropOp33
 70
     1
102
RTVSPost2010Prop34
280
     0
102
RTVSPost2010PropOp34
 70
     1
102
RTVSPost2010Prop35
280
     0
102
RTVSPost2010PropOp35
 70
     1
102
RTVSPost2010Prop36
280
     0
102
RTVSPost2010PropOp36
 70
     1
102
RTVSPost2010Prop37
 90
       50
102
RTVSPost2010PropOp37
 70
     1
102
RTVSPost2010Prop38
140
0.0
102
RTVSPost2010PropOp38
 70
     1
102
RTVSPost2010Prop39
140
1.0
102
RTVSPost2010PropOp39
 70
     1
102
RTVSPost2010Prop40
 90
        0
102
RTVSPost2010PropOp40
 70
     1
102
RTVSPost2010Prop41ColorIndex
 90
       18
102
RTVSPost2010Prop41ColorRGB
 90
        0
102
RTVSPost2010PropOp41
 70
     1
102
RTVSPost2010Prop42
 90
       50
102
RTVSPost2010PropOp42
 70
     1
102
RTVSPost2010Prop43
 90
        3
102
RTVSPost2010PropOp43
 70
     1
102
RTVSPost2010Prop44ColorIndex
 90
        5
102
RTVSPost2010Prop44ColorRGB
 90
      255
102
RTVSPost2010PropOp44
 70
     1
102
RTVSPost2010Prop45
280
     0
102
RTVSPost2010PropOp45
 70
     1
102
RTVSPost2010Prop46
 90
       50
102
RTVSPost2010PropOp46
 70
     1
102
RTVSPost2010Prop47
 90
       50
102
RTVSPost2010PropOp47
 70
     1
102
RTVSPost2010Prop48
 90
       50
102
RTVSPost2010PropOp48
 70
     1
102
RTVSPost2010Prop49
280
     0
102
RTVSPost2010PropOp49
 70
     1
102
RTVSPost2010Prop50
 90
       50
102
RTVSPost2010PropOp50
 70
     1
102
RTVSPost2010Prop51ColorIndex
 90
      256
102
RTVSPost2010Prop51ColorRGB
 90
-16777216
102
RTVSPost2010PropOp51
 70
     0
102
RTVSPost2010Prop52
140
1.0
102
RTVSPost2010PropOp52
 70
     0
102
RTVSPost2010Prop53
 90
        2
102
RTVSPost2010PropOp53
 70
     1
102
RTVSPost2010Prop54
  1
strokes_ogs.tif
102
RTVSPost2010PropOp54
 70
     1
102
RTVSPost2010Prop55
280
     0
102
RTVSPost2010PropOp55
 70
     1
102
RTVSPost2010Prop56
140
1.0
102
RTVSPost2010PropOp56
 70
     1
102
RTVSPost2010Prop57
140
1.0
102
RTVSPost2010PropOp57
 70
     1
102
RTVSPropertyOp0
 70
     1
102
RTVSPropertyOp1
 70
     1
102
RTVSPropertyOp2
 70
     1
102
RTVSPropertyOp3
 70
     1
102
RTVSPropertyOp4
 70
     1
102
RTVSPropertyOp5
 70
     1
102
RTVSPropertyOp6
 70
     1
102
RTVSPropertyOp7
 70
     1
102
RTVSPropertyOp8
 70
     1
102
RTVSPropertyOp9
 70
     1
102
RTVSPropertyOp10
 70
     1
102
RTVSPropertyOp11
 70
     1
102
RTVSPropertyOp12
 70
     1
102
RTVSPropertyOp13
 70
     1
102
RTVSPropertyOp14
 70
     1
102
RTVSPropertyOp15
 70
     1
102
RTVSPropertyOp16
 70
     1
102
RTVSPropertyOp17
 70
     1
102
RTVSPropertyOp18
 70
     1
102
RTVSPropertyOp19
 70
     1
102
RTVSPropertyOp20
 70
     1
102
RTVSPropertyOp21
 70
     1
102
RTVSPropertyOp22
 70
     1
102
RTVSPropertyOp23
 70
     1
102
RTVSPropertyOp24
 70
     1
102
RTVSPropertyOp25
 70
     1
102
RTVSPropertyOp26
 70
     1
102
RTVSPropertyOp27
 70
     1
102
RTVSPropertyOp28
 70
     1
102
RTVSPropertyOp29
 70
     1
102
RTVSPropertyOp30
 70
     1
102
RTVSPropertyOp31
 70
     1
102
RTVSPropertyOp32
 70
     1
102
RTVSPropertyOp33
 70
     1
102
RTVSPropertyOp34
 70
     1
102
RTVSPropertyOp35
 70
     1
102
RTVSPropertyOp36
 70
     1
102
RTVSPropertyOp37
 70
     1
102
RTVSPropertyOp38
 70
     1
102
RTVSPropertyOp39
 70
     1
102
RTVSPropertyOp40
 70
     1
102
RTVSPropertyOp41
 70
     1
102
RTVSPropertyOp42
 70
     1
102
RTVSPropertyOp43
 70
     1
102
RTVSPropertyOp44
 70
     1
102
RTVSPropertyOp45
 70
     1
102
RTVSPropertyOp46
 70
     1
102
RTVSPropertyOp47
 70
     1
102
RTVSPropertyOp48
 70
     1
102
RTVSPropertyOp49
 70
     1
102
RTVSPropertyOp50
 70
     1
102
RTVSPropertyOp51
 70
     0
102
RTVSPropertyOp52
 70
     0
102
RTVSPropertyOp53
 70
     1
102
RTVSPropertyOp54
 70
     1
102
RTVSPropertyOp55
 70
     1
102
RTVSPropertyOp56
 70
     1
102
RTVSPropertyOp57
 70
     1
102
RTVSPropertyOp58
 70
     1
102
RTVSPropertyOp59
 70
     1
102
RTVSPropertyOp60
 70
     1
102
RTVSPropertyOp61
 70
     1
102
RTVSPropertyOp62
 70
     1
  0
XRECORD
  5
C7A
102
{ACAD_REACTORS
330
C79
102
}
330
C79
100
AcDbXrecord
280
     1
102
RTVSPost2010Prop28
280
     0
102
RTVSPost2010PropOp28
 70
     1
102
RTVSPost2010Prop29
280
     1
102
RTVSPost2010PropOp29
 70
     1
102
RTVSPost2010Prop30
280
     1
102
RTVSPost2010PropOp30
 70
     1
102
RTVSPost2010Prop31
280
     0
102
RTVSPost2010PropOp31
 70
     1
102
RTVSPost2010Prop32
280
     0
102
RTVSPost2010PropOp32
 70
     1
102
RTVSPost2010Prop33
280
     0
102
RTVSPost2010PropOp33
 70
     1
102
RTVSPost2010Prop34
280
     0
102
RTVSPost2010PropOp34
 70
     1
102
RTVSPost2010Prop35
280
     0
102
RTVSPost2010PropOp35
 70
     1
102
RTVSPost2010Prop36
280
     0
102
RTVSPost2010PropOp36
 70
     1
102
RTVSPost2010Prop37
 90
       50
102
RTVSPost2010PropOp37
 70
     0
102
RTVSPost2010Prop38
140
0.0
102
RTVSPost2010PropOp38
 70
     0
102
RTVSPost2010Prop39
140
1.0
102
RTVSPost2010PropOp39
 70
     0
102
RTVSPost2010Prop40
 90
        0
102
RTVSPost2010PropOp40
 70
     0
102
RTVSPost2010Prop41ColorIndex
 90
       18
102
RTVSPost2010Prop41ColorRGB
 90
        0
102
RTVSPost2010PropOp41
 70
     0
102
RTVSPost2010Prop42
 90
       50
102
RTVSPost2010PropOp42
 70
     0
102
RTVSPost2010Prop43
 90
        3
102
RTVSPost2010PropOp43
 70
     0
102
RTVSPost2010Prop44ColorIndex
 90
        5
102
RTVSPost2010Prop44ColorRGB
 90
      255
102
RTVSPost2010PropOp44
 70
     0
102
RTVSPost2010Prop45
280
     0
102
RTVSPost2010PropOp45
 70
     1
102
RTVSPost2010Prop46
 90
       50
102
RTVSPost2010PropOp46
 70
     0
102
RTVSPost2010Prop47
 90
       50
102
RTVSPost2010PropOp47
 70
     0
102
RTVSPost2010Prop48
 90
       50
102
RTVSPost2010PropOp48
 70
     0
102
RTVSPost2010Prop49
280
     0
102
RTVSPost2010PropOp49
 70
     1
102
RTVSPost2010Prop50
 90
       50
102
RTVSPost2010PropOp50
 70
     0
102
RTVSPost2010Prop51ColorIndex
 90
      256
102
RTVSPost2010Prop51ColorRGB
 90
-16777216
102
RTVSPost2010PropOp51
 70
     0
102
RTVSPost2010Prop52
140
1.0
102
RTVSPost2010PropOp52
 70
     0
102
RTVSPost2010Prop53
 90
        2
102
RTVSPost2010PropOp53
 70
     0
102
RTVSPost2010Prop54
  1
strokes_ogs.tif
102
RTVSPost2010PropOp54
 70
     0
102
RTVSPost2010Prop55
280
     0
102
RTVSPost2010PropOp55
 70
     1
102
RTVSPost2010Prop56
140
1.0
102
RTVSPost2010PropOp56
 70
     0
102
RTVSPost2010Prop57
140
1.0
102
RTVSPost2010PropOp57
 70
     0
102
RTVSPropertyOp0
 70
     0
102
RTVSPropertyOp1
 70
     0
102
RTVSPropertyOp2
 70
     0
102
RTVSPropertyOp3
 70
     0
102
RTVSPropertyOp4
 70
     0
102
RTVSPropertyOp5
 70
     0
102
RTVSPropertyOp6
 70
     0
102
RTVSPropertyOp7
 70
     0
102
RTVSPropertyOp8
 70
     0
102
RTVSPropertyOp9
 70
     0
102
RTVSPropertyOp10
 70
     0
102
RTVSPropertyOp11
 70
     0
102
RTVSPropertyOp12
 70
     0
102
RTVSPropertyOp13
 70
     0
102
RTVSPropertyOp14
 70
     2
102
RTVSPropertyOp15
 70
     0
102
RTVSPropertyOp16
 70
     0
102
RTVSPropertyOp17
 70
     0
102
RTVSPropertyOp18
 70
     0
102
RTVSPropertyOp19
 70
     0
102
RTVSPropertyOp20
 70
     0
102
RTVSPropertyOp21
 70
     0
102
RTVSPropertyOp22
 70
     0
102
RTVSPropertyOp23
 70
     0
102
RTVSPropertyOp24
 70
     0
102
RTVSPropertyOp25
 70
     0
102
RTVSPropertyOp26
 70
     0
102
RTVSPropertyOp27
 70
     0
102
RTVSPropertyOp28
 70
     1
102
RTVSPropertyOp29
 70
     1
102
RTVSPropertyOp30
 70
     1
102
RTVSPropertyOp31
 70
     1
102
RTVSPropertyOp32
 70
     1
102
RTVSPropertyOp33
 70
     1
102
RTVSPropertyOp34
 70
     1
102
RTVSPropertyOp35
 70
     1
102
RTVSPropertyOp36
 70
     1
102
RTVSPropertyOp37
 70
     0
102
RTVSPropertyOp38
 70
     0
102
RTVSPropertyOp39
 70
     0
102
RTVSPropertyOp40
 70
     0
102
RTVSPropertyOp41
 70
     0
102
RTVSPropertyOp42
 70
     0
102
RTVSPropertyOp43
 70
     0
102
RTVSPropertyOp44
 70
     0
102
RTVSPropertyOp45
 70
     1
102
RTVSPropertyOp46
 70
     0
102
RTVSPropertyOp47
 70
     0
102
RTVSPropertyOp48
 70
     0
102
RTVSPropertyOp49
 70
     1
102
RTVSPropertyOp50
 70
     0
102
RTVSPropertyOp51
 70
     0
102
RTVSPropertyOp52
 70
     0
102
RTVSPropertyOp53
 70
     0
102
RTVSPropertyOp54
 70
     0
102
RTVSPropertyOp55
 70
     1
102
RTVSPropertyOp56
 70
     0
102
RTVSPropertyOp57
 70
     0
102
RTVSPropertyOp58
 70
     0
102
RTVSPropertyOp59
 70
     0
102
RTVSPropertyOp60
 70
     0
102
RTVSPropertyOp61
 70
     0
102
RTVSPropertyOp62
 70
     0
  0
XRECORD
  5
C60
102
{ACAD_REACTORS
330
C5F
102
}
330
C5F
100
AcDbXrecord
280
     1
102
RTVSPost2010Prop28
280
     0
102
RTVSPost2010PropOp28
 70
     1
102
RTVSPost2010Prop29
280
     1
102
RTVSPost2010PropOp29
 70
     1
102
RTVSPost2010Prop30
280
     1
102
RTVSPost2010PropOp30
 70
     1
102
RTVSPost2010Prop31
280
     0
102
RTVSPost2010PropOp31
 70
     1
102
RTVSPost2010Prop32
280
     0
102
RTVSPost2010PropOp32
 70
     1
102
RTVSPost2010Prop33
280
     0
102
RTVSPost2010PropOp33
 70
     1
102
RTVSPost2010Prop34
280
     0
102
RTVSPost2010PropOp34
 70
     1
102
RTVSPost2010Prop35
280
     0
102
RTVSPost2010PropOp35
 70
     1
102
RTVSPost2010Prop36
280
     0
102
RTVSPost2010PropOp36
 70
     1
102
RTVSPost2010Prop37
 90
       50
102
RTVSPost2010PropOp37
 70
     1
102
RTVSPost2010Prop38
140
0.0
102
RTVSPost2010PropOp38
 70
     1
102
RTVSPost2010Prop39
140
1.0
102
RTVSPost2010PropOp39
 70
     1
102
RTVSPost2010Prop40
 90
        0
102
RTVSPost2010PropOp40
 70
     1
102
RTVSPost2010Prop41ColorIndex
 90
       18
102
RTVSPost2010Prop41ColorRGB
 90
        0
102
RTVSPost2010PropOp41
 70
     1
102
RTVSPost2010Prop42
 90
       50
102
RTVSPost2010PropOp42
 70
     1
102
RTVSPost2010Prop43
 90
        3
102
RTVSPost2010PropOp43
 70
     1
102
RTVSPost2010Prop44ColorIndex
 90
        5
102
RTVSPost2010Prop44ColorRGB
 90
      255
102
RTVSPost2010PropOp44
 70
     1
102
RTVSPost2010Prop45
280
     0
102
RTVSPost2010PropOp45
 70
     1
102
RTVSPost2010Prop46
 90
       50
102
RTVSPost2010PropOp46
 70
     1
102
RTVSPost2010Prop47
 90
       50
102
RTVSPost2010PropOp47
 70
     1
102
RTVSPost2010Prop48
 90
       50
102
RTVSPost2010PropOp48
 70
     1
102
RTVSPost2010Prop49
280
     0
102
RTVSPost2010PropOp49
 70
     1
102
RTVSPost2010Prop50
 90
       50
102
RTVSPost2010PropOp50
 70
     1
102
RTVSPost2010Prop51ColorIndex
 90
      256
102
RTVSPost2010Prop51ColorRGB
 90
-16777216
102
RTVSPost2010PropOp51
 70
     0
102
RTVSPost2010Prop52
140
1.0
102
RTVSPost2010PropOp52
 70
     0
102
RTVSPost2010Prop53
 90
        2
102
RTVSPost2010PropOp53
 70
     1
102
RTVSPost2010Prop54
  1
strokes_ogs.tif
102
RTVSPost2010PropOp54
 70
     1
102
RTVSPost2010Prop55
280
     0
102
RTVSPost2010PropOp55
 70
     1
102
RTVSPost2010Prop56
140
1.0
102
RTVSPost2010PropOp56
 70
     1
102
RTVSPost2010Prop57
140
1.0
102
RTVSPost2010PropOp57
 70
     1
102
RTVSPropertyOp0
 70
     1
102
RTVSPropertyOp1
 70
     1
102
RTVSPropertyOp2
 70
     1
102
RTVSPropertyOp3
 70
     1
102
RTVSPropertyOp4
 70
     1
102
RTVSPropertyOp5
 70
     1
102
RTVSPropertyOp6
 70
     1
102
RTVSPropertyOp7
 70
     1
102
RTVSPropertyOp8
 70
     1
102
RTVSPropertyOp9
 70
     1
102
RTVSPropertyOp10
 70
     1
102
RTVSPropertyOp11
 70
     1
102
RTVSPropertyOp12
 70
     1
102
RTVSPropertyOp13
 70
     1
102
RTVSPropertyOp14
 70
     1
102
RTVSPropertyOp15
 70
     1
102
RTVSPropertyOp16
 70
     1
102
RTVSPropertyOp17
 70
     1
102
RTVSPropertyOp18
 70
     1
102
RTVSPropertyOp19
 70
     1
102
RTVSPropertyOp20
 70
     1
102
RTVSPropertyOp21
 70
     1
102
RTVSPropertyOp22
 70
     1
102
RTVSPropertyOp23
 70
     1
102
RTVSPropertyOp24
 70
     1
102
RTVSPropertyOp25
 70
     1
102
RTVSPropertyOp26
 70
     1
102
RTVSPropertyOp27
 70
     1
102
RTVSPropertyOp28
 70
     1
102
RTVSPropertyOp29
 70
     1
102
RTVSPropertyOp30
 70
     1
102
RTVSPropertyOp31
 70
     1
102
RTVSPropertyOp32
 70
     1
102
RTVSPropertyOp33
 70
     1
102
RTVSPropertyOp34
 70
     1
102
RTVSPropertyOp35
 70
     1
102
RTVSPropertyOp36
 70
     1
102
RTVSPropertyOp37
 70
     1
102
RTVSPropertyOp38
 70
     1
102
RTVSPropertyOp39
 70
     1
102
RTVSPropertyOp40
 70
     1
102
RTVSPropertyOp41
 70
     1
102
RTVSPropertyOp42
 70
     1
102
RTVSPropertyOp43
 70
     1
102
RTVSPropertyOp44
 70
     1
102
RTVSPropertyOp45
 70
     1
102
RTVSPropertyOp46
 70
     1
102
RTVSPropertyOp47
 70
     1
102
RTVSPropertyOp48
 70
     1
102
RTVSPropertyOp49
 70
     1
102
RTVSPropertyOp50
 70
     1
102
RTVSPropertyOp51
 70
     0
102
RTVSPropertyOp52
 70
     0
102
RTVSPropertyOp53
 70
     1
102
RTVSPropertyOp54
 70
     1
102
RTVSPropertyOp55
 70
     1
102
RTVSPropertyOp56
 70
     1
102
RTVSPropertyOp57
 70
     1
102
RTVSPropertyOp58
 70
     1
102
RTVSPropertyOp59
 70
     1
102
RTVSPropertyOp60
 70
     1
102
RTVSPropertyOp61
 70
     1
102
RTVSPropertyOp62
 70
     1
  0
XRECORD
  5
C76
102
{ACAD_REACTORS
330
C75
102
}
330
C75
100
AcDbXrecord
280
     1
102
RTVSPost2010Prop28
280
     0
102
RTVSPost2010PropOp28
 70
     1
102
RTVSPost2010Prop29
280
     1
102
RTVSPost2010PropOp29
 70
     1
102
RTVSPost2010Prop30
280
     1
102
RTVSPost2010PropOp30
 70
     1
102
RTVSPost2010Prop31
280
     0
102
RTVSPost2010PropOp31
 70
     1
102
RTVSPost2010Prop32
280
     0
102
RTVSPost2010PropOp32
 70
     1
102
RTVSPost2010Prop33
280
     0
102
RTVSPost2010PropOp33
 70
     1
102
RTVSPost2010Prop34
280
     0
102
RTVSPost2010PropOp34
 70
     1
102
RTVSPost2010Prop35
280
     0
102
RTVSPost2010PropOp35
 70
     1
102
RTVSPost2010Prop36
280
     0
102
RTVSPost2010PropOp36
 70
     1
102
RTVSPost2010Prop37
 90
       50
102
RTVSPost2010PropOp37
 70
     1
102
RTVSPost2010Prop38
140
0.0
102
RTVSPost2010PropOp38
 70
     1
102
RTVSPost2010Prop39
140
1.0
102
RTVSPost2010PropOp39
 70
     1
102
RTVSPost2010Prop40
 90
        0
102
RTVSPost2010PropOp40
 70
     1
102
RTVSPost2010Prop41ColorIndex
 90
       18
102
RTVSPost2010Prop41ColorRGB
 90
        0
102
RTVSPost2010PropOp41
 70
     1
102
RTVSPost2010Prop42
 90
       50
102
RTVSPost2010PropOp42
 70
     1
102
RTVSPost2010Prop43
 90
        3
102
RTVSPost2010PropOp43
 70
     1
102
RTVSPost2010Prop44ColorIndex
 90
        5
102
RTVSPost2010Prop44ColorRGB
 90
      255
102
RTVSPost2010PropOp44
 70
     1
102
RTVSPost2010Prop45
280
     0
102
RTVSPost2010PropOp45
 70
     1
102
RTVSPost2010Prop46
 90
       50
102
RTVSPost2010PropOp46
 70
     1
102
RTVSPost2010Prop47
 90
       50
102
RTVSPost2010PropOp47
 70
     1
102
RTVSPost2010Prop48
 90
       50
102
RTVSPost2010PropOp48
 70
     1
102
RTVSPost2010Prop49
280
     0
102
RTVSPost2010PropOp49
 70
     1
102
RTVSPost2010Prop50
 90
       50
102
RTVSPost2010PropOp50
 70
     1
102
RTVSPost2010Prop51ColorIndex
 90
      256
102
RTVSPost2010Prop51ColorRGB
 90
-16777216
102
RTVSPost2010PropOp51
 70
     0
102
RTVSPost2010Prop52
140
1.0
102
RTVSPost2010PropOp52
 70
     0
102
RTVSPost2010Prop53
 90
        2
102
RTVSPost2010PropOp53
 70
     1
102
RTVSPost2010Prop54
  1
strokes_ogs.tif
102
RTVSPost2010PropOp54
 70
     1
102
RTVSPost2010Prop55
280
     0
102
RTVSPost2010PropOp55
 70
     1
102
RTVSPost2010Prop56
140
1.0
102
RTVSPost2010PropOp56
 70
     1
102
RTVSPost2010Prop57
140
1.0
102
RTVSPost2010PropOp57
 70
     1
102
RTVSPropertyOp0
 70
     1
102
RTVSPropertyOp1
 70
     1
102
RTVSPropertyOp2
 70
     1
102
RTVSPropertyOp3
 70
     1
102
RTVSPropertyOp4
 70
     1
102
RTVSPropertyOp5
 70
     1
102
RTVSPropertyOp6
 70
     1
102
RTVSPropertyOp7
 70
     1
102
RTVSPropertyOp8
 70
     1
102
RTVSPropertyOp9
 70
     1
102
RTVSPropertyOp10
 70
     1
102
RTVSPropertyOp11
 70
     1
102
RTVSPropertyOp12
 70
     1
102
RTVSPropertyOp13
 70
     1
102
RTVSPropertyOp14
 70
     1
102
RTVSPropertyOp15
 70
     1
102
RTVSPropertyOp16
 70
     1
102
RTVSPropertyOp17
 70
     1
102
RTVSPropertyOp18
 70
     1
102
RTVSPropertyOp19
 70
     1
102
RTVSPropertyOp20
 70
     1
102
RTVSPropertyOp21
 70
     1
102
RTVSPropertyOp22
 70
     1
102
RTVSPropertyOp23
 70
     1
102
RTVSPropertyOp24
 70
     1
102
RTVSPropertyOp25
 70
     1
102
RTVSPropertyOp26
 70
     1
102
RTVSPropertyOp27
 70
     1
102
RTVSPropertyOp28
 70
     1
102
RTVSPropertyOp29
 70
     1
102
RTVSPropertyOp30
 70
     1
102
RTVSPropertyOp31
 70
     1
102
RTVSPropertyOp32
 70
     1
102
RTVSPropertyOp33
 70
     1
102
RTVSPropertyOp34
 70
     1
102
RTVSPropertyOp35
 70
     1
102
RTVSPropertyOp36
 70
     1
102
RTVSPropertyOp37
 70
     1
102
RTVSPropertyOp38
 70
     1
102
RTVSPropertyOp39
 70
     1
102
RTVSPropertyOp40
 70
     1
102
RTVSPropertyOp41
 70
     1
102
RTVSPropertyOp42
 70
     1
102
RTVSPropertyOp43
 70
     1
102
RTVSPropertyOp44
 70
     1
102
RTVSPropertyOp45
 70
     1
102
RTVSPropertyOp46
 70
     1
102
RTVSPropertyOp47
 70
     1
102
RTVSPropertyOp48
 70
     1
102
RTVSPropertyOp49
 70
     1
102
RTVSPropertyOp50
 70
     1
102
RTVSPropertyOp51
 70
     0
102
RTVSPropertyOp52
 70
     0
102
RTVSPropertyOp53
 70
     1
102
RTVSPropertyOp54
 70
     1
102
RTVSPropertyOp55
 70
     1
102
RTVSPropertyOp56
 70
     1
102
RTVSPropertyOp57
 70
     1
102
RTVSPropertyOp58
 70
     1
102
RTVSPropertyOp59
 70
     1
102
RTVSPropertyOp60
 70
     1
102
RTVSPropertyOp61
 70
     1
102
RTVSPropertyOp62
 70
     1
  0
XRECORD
  5
C74
102
{ACAD_REACTORS
330
C73
102
}
330
C73
100
AcDbXrecord
280
     1
102
RTVSPost2010Prop28
280
     0
102
RTVSPost2010PropOp28
 70
     1
102
RTVSPost2010Prop29
280
     1
102
RTVSPost2010PropOp29
 70
     1
102
RTVSPost2010Prop30
280
     1
102
RTVSPost2010PropOp30
 70
     1
102
RTVSPost2010Prop31
280
     0
102
RTVSPost2010PropOp31
 70
     1
102
RTVSPost2010Prop32
280
     0
102
RTVSPost2010PropOp32
 70
     1
102
RTVSPost2010Prop33
280
     0
102
RTVSPost2010PropOp33
 70
     1
102
RTVSPost2010Prop34
280
     0
102
RTVSPost2010PropOp34
 70
     1
102
RTVSPost2010Prop35
280
     0
102
RTVSPost2010PropOp35
 70
     1
102
RTVSPost2010Prop36
280
     0
102
RTVSPost2010PropOp36
 70
     1
102
RTVSPost2010Prop37
 90
       50
102
RTVSPost2010PropOp37
 70
     1
102
RTVSPost2010Prop38
140
0.0
102
RTVSPost2010PropOp38
 70
     1
102
RTVSPost2010Prop39
140
1.0
102
RTVSPost2010PropOp39
 70
     1
102
RTVSPost2010Prop40
 90
        0
102
RTVSPost2010PropOp40
 70
     1
102
RTVSPost2010Prop41ColorIndex
 90
       18
102
RTVSPost2010Prop41ColorRGB
 90
        0
102
RTVSPost2010PropOp41
 70
     1
102
RTVSPost2010Prop42
 90
       50
102
RTVSPost2010PropOp42
 70
     1
102
RTVSPost2010Prop43
 90
        3
102
RTVSPost2010PropOp43
 70
     1
102
RTVSPost2010Prop44ColorIndex
 90
        5
102
RTVSPost2010Prop44ColorRGB
 90
      255
102
RTVSPost2010PropOp44
 70
     1
102
RTVSPost2010Prop45
280
     0
102
RTVSPost2010PropOp45
 70
     1
102
RTVSPost2010Prop46
 90
       50
102
RTVSPost2010PropOp46
 70
     1
102
RTVSPost2010Prop47
 90
       50
102
RTVSPost2010PropOp47
 70
     1
102
RTVSPost2010Prop48
 90
       50
102
RTVSPost2010PropOp48
 70
     1
102
RTVSPost2010Prop49
280
     0
102
RTVSPost2010PropOp49
 70
     1
102
RTVSPost2010Prop50
 90
       50
102
RTVSPost2010PropOp50
 70
     1
102
RTVSPost2010Prop51ColorIndex
 90
      256
102
RTVSPost2010Prop51ColorRGB
 90
-16777216
102
RTVSPost2010PropOp51
 70
     0
102
RTVSPost2010Prop52
140
1.0
102
RTVSPost2010PropOp52
 70
     0
102
RTVSPost2010Prop53
 90
        2
102
RTVSPost2010PropOp53
 70
     1
102
RTVSPost2010Prop54
  1
strokes_ogs.tif
102
RTVSPost2010PropOp54
 70
     1
102
RTVSPost2010Prop55
280
     0
102
RTVSPost2010PropOp55
 70
     1
102
RTVSPost2010Prop56
140
1.0
102
RTVSPost2010PropOp56
 70
     1
102
RTVSPost2010Prop57
140
1.0
102
RTVSPost2010PropOp57
 70
     1
102
RTVSPropertyOp0
 70
     1
102
RTVSPropertyOp1
 70
     1
102
RTVSPropertyOp2
 70
     1
102
RTVSPropertyOp3
 70
     1
102
RTVSPropertyOp4
 70
     1
102
RTVSPropertyOp5
 70
     1
102
RTVSPropertyOp6
 70
     1
102
RTVSPropertyOp7
 70
     1
102
RTVSPropertyOp8
 70
     1
102
RTVSPropertyOp9
 70
     1
102
RTVSPropertyOp10
 70
     1
102
RTVSPropertyOp11
 70
     1
102
RTVSPropertyOp12
 70
     1
102
RTVSPropertyOp13
 70
     1
102
RTVSPropertyOp14
 70
     1
102
RTVSPropertyOp15
 70
     1
102
RTVSPropertyOp16
 70
     1
102
RTVSPropertyOp17
 70
     1
102
RTVSPropertyOp18
 70
     1
102
RTVSPropertyOp19
 70
     1
102
RTVSPropertyOp20
 70
     1
102
RTVSPropertyOp21
 70
     1
102
RTVSPropertyOp22
 70
     1
102
RTVSPropertyOp23
 70
     1
102
RTVSPropertyOp24
 70
     1
102
RTVSPropertyOp25
 70
     1
102
RTVSPropertyOp26
 70
     1
102
RTVSPropertyOp27
 70
     1
102
RTVSPropertyOp28
 70
     1
102
RTVSPropertyOp29
 70
     1
102
RTVSPropertyOp30
 70
     1
102
RTVSPropertyOp31
 70
     1
102
RTVSPropertyOp32
 70
     1
102
RTVSPropertyOp33
 70
     1
102
RTVSPropertyOp34
 70
     1
102
RTVSPropertyOp35
 70
     1
102
RTVSPropertyOp36
 70
     1
102
RTVSPropertyOp37
 70
     1
102
RTVSPropertyOp38
 70
     1
102
RTVSPropertyOp39
 70
     1
102
RTVSPropertyOp40
 70
     1
102
RTVSPropertyOp41
 70
     1
102
RTVSPropertyOp42
 70
     1
102
RTVSPropertyOp43
 70
     1
102
RTVSPropertyOp44
 70
     1
102
RTVSPropertyOp45
 70
     1
102
RTVSPropertyOp46
 70
     1
102
RTVSPropertyOp47
 70
     1
102
RTVSPropertyOp48
 70
     1
102
RTVSPropertyOp49
 70
     1
102
RTVSPropertyOp50
 70
     1
102
RTVSPropertyOp51
 70
     0
102
RTVSPropertyOp52
 70
     0
102
RTVSPropertyOp53
 70
     1
102
RTVSPropertyOp54
 70
     1
102
RTVSPropertyOp55
 70
     1
102
RTVSPropertyOp56
 70
     1
102
RTVSPropertyOp57
 70
     1
102
RTVSPropertyOp58
 70
     1
102
RTVSPropertyOp59
 70
     1
102
RTVSPropertyOp60
 70
     1
102
RTVSPropertyOp61
 70
     1
102
RTVSPropertyOp62
 70
     1
  0
XRECORD
  5
C6E
102
{ACAD_REACTORS
330
C6D
102
}
330
C6D
100
AcDbXrecord
280
     1
102
RTVSPost2010Prop28
280
     0
102
RTVSPost2010PropOp28
 70
     1
102
RTVSPost2010Prop29
280
     1
102
RTVSPost2010PropOp29
 70
     1
102
RTVSPost2010Prop30
280
     1
102
RTVSPost2010PropOp30
 70
     1
102
RTVSPost2010Prop31
280
     0
102
RTVSPost2010PropOp31
 70
     1
102
RTVSPost2010Prop32
280
     0
102
RTVSPost2010PropOp32
 70
     1
102
RTVSPost2010Prop33
280
     0
102
RTVSPost2010PropOp33
 70
     1
102
RTVSPost2010Prop34
280
     0
102
RTVSPost2010PropOp34
 70
     1
102
RTVSPost2010Prop35
280
     0
102
RTVSPost2010PropOp35
 70
     1
102
RTVSPost2010Prop36
280
     0
102
RTVSPost2010PropOp36
 70
     1
102
RTVSPost2010Prop37
 90
       50
102
RTVSPost2010PropOp37
 70
     1
102
RTVSPost2010Prop38
140
0.0
102
RTVSPost2010PropOp38
 70
     1
102
RTVSPost2010Prop39
140
1.0
102
RTVSPost2010PropOp39
 70
     1
102
RTVSPost2010Prop40
 90
        0
102
RTVSPost2010PropOp40
 70
     1
102
RTVSPost2010Prop41ColorIndex
 90
       18
102
RTVSPost2010Prop41ColorRGB
 90
        0
102
RTVSPost2010PropOp41
 70
     1
102
RTVSPost2010Prop42
 90
       50
102
RTVSPost2010PropOp42
 70
     1
102
RTVSPost2010Prop43
 90
        3
102
RTVSPost2010PropOp43
 70
     1
102
RTVSPost2010Prop44ColorIndex
 90
        5
102
RTVSPost2010Prop44ColorRGB
 90
      255
102
RTVSPost2010PropOp44
 70
     1
102
RTVSPost2010Prop45
280
     0
102
RTVSPost2010PropOp45
 70
     1
102
RTVSPost2010Prop46
 90
       50
102
RTVSPost2010PropOp46
 70
     1
102
RTVSPost2010Prop47
 90
       50
102
RTVSPost2010PropOp47
 70
     1
102
RTVSPost2010Prop48
 90
       50
102
RTVSPost2010PropOp48
 70
     1
102
RTVSPost2010Prop49
280
     0
102
RTVSPost2010PropOp49
 70
     1
102
RTVSPost2010Prop50
 90
       50
102
RTVSPost2010PropOp50
 70
     1
102
RTVSPost2010Prop51ColorIndex
 90
      256
102
RTVSPost2010Prop51ColorRGB
 90
-16777216
102
RTVSPost2010PropOp51
 70
     0
102
RTVSPost2010Prop52
140
1.0
102
RTVSPost2010PropOp52
 70
     0
102
RTVSPost2010Prop53
 90
        2
102
RTVSPost2010PropOp53
 70
     1
102
RTVSPost2010Prop54
  1
strokes_ogs.tif
102
RTVSPost2010PropOp54
 70
     1
102
RTVSPost2010Prop55
280
     0
102
RTVSPost2010PropOp55
 70
     1
102
RTVSPost2010Prop56
140
1.0
102
RTVSPost2010PropOp56
 70
     1
102
RTVSPost2010Prop57
140
1.0
102
RTVSPost2010PropOp57
 70
     1
102
RTVSPropertyOp0
 70
     1
102
RTVSPropertyOp1
 70
     1
102
RTVSPropertyOp2
 70
     1
102
RTVSPropertyOp3
 70
     1
102
RTVSPropertyOp4
 70
     1
102
RTVSPropertyOp5
 70
     1
102
RTVSPropertyOp6
 70
     1
102
RTVSPropertyOp7
 70
     1
102
RTVSPropertyOp8
 70
     1
102
RTVSPropertyOp9
 70
     1
102
RTVSPropertyOp10
 70
     1
102
RTVSPropertyOp11
 70
     1
102
RTVSPropertyOp12
 70
     1
102
RTVSPropertyOp13
 70
     1
102
RTVSPropertyOp14
 70
     1
102
RTVSPropertyOp15
 70
     1
102
RTVSPropertyOp16
 70
     1
102
RTVSPropertyOp17
 70
     1
102
RTVSPropertyOp18
 70
     1
102
RTVSPropertyOp19
 70
     1
102
RTVSPropertyOp20
 70
     1
102
RTVSPropertyOp21
 70
     1
102
RTVSPropertyOp22
 70
     1
102
RTVSPropertyOp23
 70
     1
102
RTVSPropertyOp24
 70
     1
102
RTVSPropertyOp25
 70
     1
102
RTVSPropertyOp26
 70
     1
102
RTVSPropertyOp27
 70
     1
102
RTVSPropertyOp28
 70
     1
102
RTVSPropertyOp29
 70
     1
102
RTVSPropertyOp30
 70
     1
102
RTVSPropertyOp31
 70
     1
102
RTVSPropertyOp32
 70
     1
102
RTVSPropertyOp33
 70
     1
102
RTVSPropertyOp34
 70
     1
102
RTVSPropertyOp35
 70
     1
102
RTVSPropertyOp36
 70
     1
102
RTVSPropertyOp37
 70
     1
102
RTVSPropertyOp38
 70
     1
102
RTVSPropertyOp39
 70
     1
102
RTVSPropertyOp40
 70
     1
102
RTVSPropertyOp41
 70
     1
102
RTVSPropertyOp42
 70
     1
102
RTVSPropertyOp43
 70
     1
102
RTVSPropertyOp44
 70
     1
102
RTVSPropertyOp45
 70
     1
102
RTVSPropertyOp46
 70
     1
102
RTVSPropertyOp47
 70
     1
102
RTVSPropertyOp48
 70
     1
102
RTVSPropertyOp49
 70
     1
102
RTVSPropertyOp50
 70
     1
102
RTVSPropertyOp51
 70
     0
102
RTVSPropertyOp52
 70
     0
102
RTVSPropertyOp53
 70
     1
102
RTVSPropertyOp54
 70
     1
102
RTVSPropertyOp55
 70
     1
102
RTVSPropertyOp56
 70
     1
102
RTVSPropertyOp57
 70
     1
102
RTVSPropertyOp58
 70
     1
102
RTVSPropertyOp59
 70
     1
102
RTVSPropertyOp60
 70
     1
102
RTVSPropertyOp61
 70
     1
102
RTVSPropertyOp62
 70
     1
  0
XRECORD
  5
C70
102
{ACAD_REACTORS
330
C6F
102
}
330
C6F
100
AcDbXrecord
280
     1
102
RTVSPost2010Prop28
280
     0
102
RTVSPost2010PropOp28
 70
     1
102
RTVSPost2010Prop29
280
     1
102
RTVSPost2010PropOp29
 70
     1
102
RTVSPost2010Prop30
280
     1
102
RTVSPost2010PropOp30
 70
     1
102
RTVSPost2010Prop31
280
     0
102
RTVSPost2010PropOp31
 70
     1
102
RTVSPost2010Prop32
280
     0
102
RTVSPost2010PropOp32
 70
     1
102
RTVSPost2010Prop33
280
     0
102
RTVSPost2010PropOp33
 70
     1
102
RTVSPost2010Prop34
280
     0
102
RTVSPost2010PropOp34
 70
     1
102
RTVSPost2010Prop35
280
     0
102
RTVSPost2010PropOp35
 70
     1
102
RTVSPost2010Prop36
280
     0
102
RTVSPost2010PropOp36
 70
     1
102
RTVSPost2010Prop37
 90
       50
102
RTVSPost2010PropOp37
 70
     1
102
RTVSPost2010Prop38
140
0.0
102
RTVSPost2010PropOp38
 70
     1
102
RTVSPost2010Prop39
140
1.0
102
RTVSPost2010PropOp39
 70
     1
102
RTVSPost2010Prop40
 90
        0
102
RTVSPost2010PropOp40
 70
     1
102
RTVSPost2010Prop41ColorIndex
 90
       18
102
RTVSPost2010Prop41ColorRGB
 90
        0
102
RTVSPost2010PropOp41
 70
     1
102
RTVSPost2010Prop42
 90
       50
102
RTVSPost2010PropOp42
 70
     1
102
RTVSPost2010Prop43
 90
        3
102
RTVSPost2010PropOp43
 70
     1
102
RTVSPost2010Prop44ColorIndex
 90
        5
102
RTVSPost2010Prop44ColorRGB
 90
      255
102
RTVSPost2010PropOp44
 70
     1
102
RTVSPost2010Prop45
280
     0
102
RTVSPost2010PropOp45
 70
     1
102
RTVSPost2010Prop46
 90
       50
102
RTVSPost2010PropOp46
 70
     1
102
RTVSPost2010Prop47
 90
       50
102
RTVSPost2010PropOp47
 70
     1
102
RTVSPost2010Prop48
 90
       50
102
RTVSPost2010PropOp48
 70
     1
102
RTVSPost2010Prop49
280
     0
102
RTVSPost2010PropOp49
 70
     1
102
RTVSPost2010Prop50
 90
       50
102
RTVSPost2010PropOp50
 70
     1
102
RTVSPost2010Prop51ColorIndex
 90
      256
102
RTVSPost2010Prop51ColorRGB
 90
-16777216
102
RTVSPost2010PropOp51
 70
     0
102
RTVSPost2010Prop52
140
1.0
102
RTVSPost2010PropOp52
 70
     0
102
RTVSPost2010Prop53
 90
        2
102
RTVSPost2010PropOp53
 70
     1
102
RTVSPost2010Prop54
  1
strokes_ogs.tif
102
RTVSPost2010PropOp54
 70
     1
102
RTVSPost2010Prop55
280
     0
102
RTVSPost2010PropOp55
 70
     1
102
RTVSPost2010Prop56
140
1.0
102
RTVSPost2010PropOp56
 70
     1
102
RTVSPost2010Prop57
140
1.0
102
RTVSPost2010PropOp57
 70
     1
102
RTVSPropertyOp0
 70
     1
102
RTVSPropertyOp1
 70
     1
102
RTVSPropertyOp2
 70
     1
102
RTVSPropertyOp3
 70
     1
102
RTVSPropertyOp4
 70
     1
102
RTVSPropertyOp5
 70
     1
102
RTVSPropertyOp6
 70
     1
102
RTVSPropertyOp7
 70
     1
102
RTVSPropertyOp8
 70
     1
102
RTVSPropertyOp9
 70
     1
102
RTVSPropertyOp10
 70
     1
102
RTVSPropertyOp11
 70
     1
102
RTVSPropertyOp12
 70
     1
102
RTVSPropertyOp13
 70
     1
102
RTVSPropertyOp14
 70
     1
102
RTVSPropertyOp15
 70
     1
102
RTVSPropertyOp16
 70
     1
102
RTVSPropertyOp17
 70
     1
102
RTVSPropertyOp18
 70
     1
102
RTVSPropertyOp19
 70
     1
102
RTVSPropertyOp20
 70
     1
102
RTVSPropertyOp21
 70
     1
102
RTVSPropertyOp22
 70
     1
102
RTVSPropertyOp23
 70
     1
102
RTVSPropertyOp24
 70
     1
102
RTVSPropertyOp25
 70
     1
102
RTVSPropertyOp26
 70
     1
102
RTVSPropertyOp27
 70
     1
102
RTVSPropertyOp28
 70
     1
102
RTVSPropertyOp29
 70
     1
102
RTVSPropertyOp30
 70
     1
102
RTVSPropertyOp31
 70
     1
102
RTVSPropertyOp32
 70
     1
102
RTVSPropertyOp33
 70
     1
102
RTVSPropertyOp34
 70
     1
102
RTVSPropertyOp35
 70
     1
102
RTVSPropertyOp36
 70
     1
102
RTVSPropertyOp37
 70
     1
102
RTVSPropertyOp38
 70
     1
102
RTVSPropertyOp39
 70
     1
102
RTVSPropertyOp40
 70
     1
102
RTVSPropertyOp41
 70
     1
102
RTVSPropertyOp42
 70
     1
102
RTVSPropertyOp43
 70
     1
102
RTVSPropertyOp44
 70
     1
102
RTVSPropertyOp45
 70
     1
102
RTVSPropertyOp46
 70
     1
102
RTVSPropertyOp47
 70
     1
102
RTVSPropertyOp48
 70
     1
102
RTVSPropertyOp49
 70
     1
102
RTVSPropertyOp50
 70
     1
102
RTVSPropertyOp51
 70
     0
102
RTVSPropertyOp52
 70
     0
102
RTVSPropertyOp53
 70
     1
102
RTVSPropertyOp54
 70
     1
102
RTVSPropertyOp55
 70
     1
102
RTVSPropertyOp56
 70
     1
102
RTVSPropertyOp57
 70
     1
102
RTVSPropertyOp58
 70
     1
102
RTVSPropertyOp59
 70
     1
102
RTVSPropertyOp60
 70
     1
102
RTVSPropertyOp61
 70
     1
102
RTVSPropertyOp62
 70
     1
  0
XRECORD
  5
C66
102
{ACAD_REACTORS
330
C65
102
}
330
C65
100
AcDbXrecord
280
     1
102
RTVSPost2010Prop28
280
     0
102
RTVSPost2010PropOp28
 70
     1
102
RTVSPost2010Prop29
280
     1
102
RTVSPost2010PropOp29
 70
     1
102
RTVSPost2010Prop30
280
     1
102
RTVSPost2010PropOp30
 70
     1
102
RTVSPost2010Prop31
280
     0
102
RTVSPost2010PropOp31
 70
     1
102
RTVSPost2010Prop32
280
     0
102
RTVSPost2010PropOp32
 70
     1
102
RTVSPost2010Prop33
280
     0
102
RTVSPost2010PropOp33
 70
     1
102
RTVSPost2010Prop34
280
     0
102
RTVSPost2010PropOp34
 70
     1
102
RTVSPost2010Prop35
280
     0
102
RTVSPost2010PropOp35
 70
     1
102
RTVSPost2010Prop36
280
     0
102
RTVSPost2010PropOp36
 70
     1
102
RTVSPost2010Prop37
 90
       50
102
RTVSPost2010PropOp37
 70
     1
102
RTVSPost2010Prop38
140
0.0
102
RTVSPost2010PropOp38
 70
     1
102
RTVSPost2010Prop39
140
1.0
102
RTVSPost2010PropOp39
 70
     1
102
RTVSPost2010Prop40
 90
        0
102
RTVSPost2010PropOp40
 70
     1
102
RTVSPost2010Prop41ColorIndex
 90
       18
102
RTVSPost2010Prop41ColorRGB
 90
        0
102
RTVSPost2010PropOp41
 70
     1
102
RTVSPost2010Prop42
 90
       50
102
RTVSPost2010PropOp42
 70
     1
102
RTVSPost2010Prop43
 90
        3
102
RTVSPost2010PropOp43
 70
     1
102
RTVSPost2010Prop44ColorIndex
 90
        5
102
RTVSPost2010Prop44ColorRGB
 90
      255
102
RTVSPost2010PropOp44
 70
     1
102
RTVSPost2010Prop45
280
     0
102
RTVSPost2010PropOp45
 70
     1
102
RTVSPost2010Prop46
 90
       50
102
RTVSPost2010PropOp46
 70
     1
102
RTVSPost2010Prop47
 90
       50
102
RTVSPost2010PropOp47
 70
     1
102
RTVSPost2010Prop48
 90
       50
102
RTVSPost2010PropOp48
 70
     1
102
RTVSPost2010Prop49
280
     0
102
RTVSPost2010PropOp49
 70
     1
102
RTVSPost2010Prop50
 90
       50
102
RTVSPost2010PropOp50
 70
     1
102
RTVSPost2010Prop51ColorIndex
 90
      256
102
RTVSPost2010Prop51ColorRGB
 90
-16777216
102
RTVSPost2010PropOp51
 70
     0
102
RTVSPost2010Prop52
140
1.0
102
RTVSPost2010PropOp52
 70
     0
102
RTVSPost2010Prop53
 90
        2
102
RTVSPost2010PropOp53
 70
     1
102
RTVSPost2010Prop54
  1
strokes_ogs.tif
102
RTVSPost2010PropOp54
 70
     1
102
RTVSPost2010Prop55
280
     0
102
RTVSPost2010PropOp55
 70
     1
102
RTVSPost2010Prop56
140
1.0
102
RTVSPost2010PropOp56
 70
     1
102
RTVSPost2010Prop57
140
1.0
102
RTVSPost2010PropOp57
 70
     1
102
RTVSPropertyOp0
 70
     1
102
RTVSPropertyOp1
 70
     1
102
RTVSPropertyOp2
 70
     1
102
RTVSPropertyOp3
 70
     1
102
RTVSPropertyOp4
 70
     1
102
RTVSPropertyOp5
 70
     1
102
RTVSPropertyOp6
 70
     1
102
RTVSPropertyOp7
 70
     1
102
RTVSPropertyOp8
 70
     1
102
RTVSPropertyOp9
 70
     1
102
RTVSPropertyOp10
 70
     1
102
RTVSPropertyOp11
 70
     1
102
RTVSPropertyOp12
 70
     1
102
RTVSPropertyOp13
 70
     1
102
RTVSPropertyOp14
 70
     1
102
RTVSPropertyOp15
 70
     1
102
RTVSPropertyOp16
 70
     1
102
RTVSPropertyOp17
 70
     1
102
RTVSPropertyOp18
 70
     1
102
RTVSPropertyOp19
 70
     1
102
RTVSPropertyOp20
 70
     1
102
RTVSPropertyOp21
 70
     1
102
RTVSPropertyOp22
 70
     1
102
RTVSPropertyOp23
 70
     1
102
RTVSPropertyOp24
 70
     1
102
RTVSPropertyOp25
 70
     1
102
RTVSPropertyOp26
 70
     1
102
RTVSPropertyOp27
 70
     1
102
RTVSPropertyOp28
 70
     1
102
RTVSPropertyOp29
 70
     1
102
RTVSPropertyOp30
 70
     1
102
RTVSPropertyOp31
 70
     1
102
RTVSPropertyOp32
 70
     1
102
RTVSPropertyOp33
 70
     1
102
RTVSPropertyOp34
 70
     1
102
RTVSPropertyOp35
 70
     1
102
RTVSPropertyOp36
 70
     1
102
RTVSPropertyOp37
 70
     1
102
RTVSPropertyOp38
 70
     1
102
RTVSPropertyOp39
 70
     1
102
RTVSPropertyOp40
 70
     1
102
RTVSPropertyOp41
 70
     1
102
RTVSPropertyOp42
 70
     1
102
RTVSPropertyOp43
 70
     1
102
RTVSPropertyOp44
 70
     1
102
RTVSPropertyOp45
 70
     1
102
RTVSPropertyOp46
 70
     1
102
RTVSPropertyOp47
 70
     1
102
RTVSPropertyOp48
 70
     1
102
RTVSPropertyOp49
 70
     1
102
RTVSPropertyOp50
 70
     1
102
RTVSPropertyOp51
 70
     0
102
RTVSPropertyOp52
 70
     0
102
RTVSPropertyOp53
 70
     1
102
RTVSPropertyOp54
 70
     1
102
RTVSPropertyOp55
 70
     1
102
RTVSPropertyOp56
 70
     1
102
RTVSPropertyOp57
 70
     1
102
RTVSPropertyOp58
 70
     1
102
RTVSPropertyOp59
 70
     1
102
RTVSPropertyOp60
 70
     1
102
RTVSPropertyOp61
 70
     1
102
RTVSPropertyOp62
 70
     1
  0
XRECORD
  5
C5A
102
{ACAD_REACTORS
330
C59
102
}
330
C59
100
AcDbXrecord
280
     1
102
RTVSPost2010Prop28
280
     0
102
RTVSPost2010PropOp28
 70
     1
102
RTVSPost2010Prop29
280
     1
102
RTVSPost2010PropOp29
 70
     1
102
RTVSPost2010Prop30
280
     1
102
RTVSPost2010PropOp30
 70
     1
102
RTVSPost2010Prop31
280
     0
102
RTVSPost2010PropOp31
 70
     1
102
RTVSPost2010Prop32
280
     0
102
RTVSPost2010PropOp32
 70
     1
102
RTVSPost2010Prop33
280
     0
102
RTVSPost2010PropOp33
 70
     1
102
RTVSPost2010Prop34
280
     0
102
RTVSPost2010PropOp34
 70
     1
102
RTVSPost2010Prop35
280
     0
102
RTVSPost2010PropOp35
 70
     1
102
RTVSPost2010Prop36
280
     0
102
RTVSPost2010PropOp36
 70
     1
102
RTVSPost2010Prop37
 90
       50
102
RTVSPost2010PropOp37
 70
     1
102
RTVSPost2010Prop38
140
0.0
102
RTVSPost2010PropOp38
 70
     1
102
RTVSPost2010Prop39
140
1.0
102
RTVSPost2010PropOp39
 70
     1
102
RTVSPost2010Prop40
 90
        0
102
RTVSPost2010PropOp40
 70
     1
102
RTVSPost2010Prop41ColorIndex
 90
       18
102
RTVSPost2010Prop41ColorRGB
 90
        0
102
RTVSPost2010PropOp41
 70
     1
102
RTVSPost2010Prop42
 90
       50
102
RTVSPost2010PropOp42
 70
     1
102
RTVSPost2010Prop43
 90
        3
102
RTVSPost2010PropOp43
 70
     1
102
RTVSPost2010Prop44ColorIndex
 90
        5
102
RTVSPost2010Prop44ColorRGB
 90
      255
102
RTVSPost2010PropOp44
 70
     1
102
RTVSPost2010Prop45
280
     0
102
RTVSPost2010PropOp45
 70
     1
102
RTVSPost2010Prop46
 90
       50
102
RTVSPost2010PropOp46
 70
     1
102
RTVSPost2010Prop47
 90
       50
102
RTVSPost2010PropOp47
 70
     1
102
RTVSPost2010Prop48
 90
       50
102
RTVSPost2010PropOp48
 70
     1
102
RTVSPost2010Prop49
280
     0
102
RTVSPost2010PropOp49
 70
     1
102
RTVSPost2010Prop50
 90
       50
102
RTVSPost2010PropOp50
 70
     1
102
RTVSPost2010Prop51ColorIndex
 90
      256
102
RTVSPost2010Prop51ColorRGB
 90
-16777216
102
RTVSPost2010PropOp51
 70
     0
102
RTVSPost2010Prop52
140
1.0
102
RTVSPost2010PropOp52
 70
     0
102
RTVSPost2010Prop53
 90
        2
102
RTVSPost2010PropOp53
 70
     1
102
RTVSPost2010Prop54
  1
strokes_ogs.tif
102
RTVSPost2010PropOp54
 70
     1
102
RTVSPost2010Prop55
280
     0
102
RTVSPost2010PropOp55
 70
     1
102
RTVSPost2010Prop56
140
1.0
102
RTVSPost2010PropOp56
 70
     1
102
RTVSPost2010Prop57
140
1.0
102
RTVSPost2010PropOp57
 70
     1
102
RTVSPropertyOp0
 70
     1
102
RTVSPropertyOp1
 70
     1
102
RTVSPropertyOp2
 70
     1
102
RTVSPropertyOp3
 70
     1
102
RTVSPropertyOp4
 70
     1
102
RTVSPropertyOp5
 70
     1
102
RTVSPropertyOp6
 70
     1
102
RTVSPropertyOp7
 70
     1
102
RTVSPropertyOp8
 70
     1
102
RTVSPropertyOp9
 70
     1
102
RTVSPropertyOp10
 70
     1
102
RTVSPropertyOp11
 70
     1
102
RTVSPropertyOp12
 70
     1
102
RTVSPropertyOp13
 70
     1
102
RTVSPropertyOp14
 70
     1
102
RTVSPropertyOp15
 70
     1
102
RTVSPropertyOp16
 70
     1
102
RTVSPropertyOp17
 70
     1
102
RTVSPropertyOp18
 70
     1
102
RTVSPropertyOp19
 70
     1
102
RTVSPropertyOp20
 70
     1
102
RTVSPropertyOp21
 70
     1
102
RTVSPropertyOp22
 70
     1
102
RTVSPropertyOp23
 70
     1
102
RTVSPropertyOp24
 70
     1
102
RTVSPropertyOp25
 70
     1
102
RTVSPropertyOp26
 70
     1
102
RTVSPropertyOp27
 70
     1
102
RTVSPropertyOp28
 70
     1
102
RTVSPropertyOp29
 70
     1
102
RTVSPropertyOp30
 70
     1
102
RTVSPropertyOp31
 70
     1
102
RTVSPropertyOp32
 70
     1
102
RTVSPropertyOp33
 70
     1
102
RTVSPropertyOp34
 70
     1
102
RTVSPropertyOp35
 70
     1
102
RTVSPropertyOp36
 70
     1
102
RTVSPropertyOp37
 70
     1
102
RTVSPropertyOp38
 70
     1
102
RTVSPropertyOp39
 70
     1
102
RTVSPropertyOp40
 70
     1
102
RTVSPropertyOp41
 70
     1
102
RTVSPropertyOp42
 70
     1
102
RTVSPropertyOp43
 70
     1
102
RTVSPropertyOp44
 70
     1
102
RTVSPropertyOp45
 70
     1
102
RTVSPropertyOp46
 70
     1
102
RTVSPropertyOp47
 70
     1
102
RTVSPropertyOp48
 70
     1
102
RTVSPropertyOp49
 70
     1
102
RTVSPropertyOp50
 70
     1
102
RTVSPropertyOp51
 70
     0
102
RTVSPropertyOp52
 70
     0
102
RTVSPropertyOp53
 70
     1
102
RTVSPropertyOp54
 70
     1
102
RTVSPropertyOp55
 70
     1
102
RTVSPropertyOp56
 70
     1
102
RTVSPropertyOp57
 70
     1
102
RTVSPropertyOp58
 70
     1
102
RTVSPropertyOp59
 70
     1
102
RTVSPropertyOp60
 70
     1
102
RTVSPropertyOp61
 70
     1
102
RTVSPropertyOp62
 70
     1
  0
XRECORD
  5
C72
102
{ACAD_REACTORS
330
C71
102
}
330
C71
100
AcDbXrecord
280
     1
102
RTVSPost2010Prop28
280
     0
102
RTVSPost2010PropOp28
 70
     1
102
RTVSPost2010Prop29
280
     1
102
RTVSPost2010PropOp29
 70
     1
102
RTVSPost2010Prop30
280
     1
102
RTVSPost2010PropOp30
 70
     1
102
RTVSPost2010Prop31
280
     0
102
RTVSPost2010PropOp31
 70
     1
102
RTVSPost2010Prop32
280
     0
102
RTVSPost2010PropOp32
 70
     1
102
RTVSPost2010Prop33
280
     0
102
RTVSPost2010PropOp33
 70
     1
102
RTVSPost2010Prop34
280
     0
102
RTVSPost2010PropOp34
 70
     1
102
RTVSPost2010Prop35
280
     0
102
RTVSPost2010PropOp35
 70
     1
102
RTVSPost2010Prop36
280
     0
102
RTVSPost2010PropOp36
 70
     1
102
RTVSPost2010Prop37
 90
       50
102
RTVSPost2010PropOp37
 70
     1
102
RTVSPost2010Prop38
140
0.0
102
RTVSPost2010PropOp38
 70
     1
102
RTVSPost2010Prop39
140
1.0
102
RTVSPost2010PropOp39
 70
     1
102
RTVSPost2010Prop40
 90
        0
102
RTVSPost2010PropOp40
 70
     1
102
RTVSPost2010Prop41ColorIndex
 90
       18
102
RTVSPost2010Prop41ColorRGB
 90
        0
102
RTVSPost2010PropOp41
 70
     1
102
RTVSPost2010Prop42
 90
       50
102
RTVSPost2010PropOp42
 70
     1
102
RTVSPost2010Prop43
 90
        3
102
RTVSPost2010PropOp43
 70
     1
102
RTVSPost2010Prop44ColorIndex
 90
        5
102
RTVSPost2010Prop44ColorRGB
 90
      255
102
RTVSPost2010PropOp44
 70
     1
102
RTVSPost2010Prop45
280
     0
102
RTVSPost2010PropOp45
 70
     1
102
RTVSPost2010Prop46
 90
       50
102
RTVSPost2010PropOp46
 70
     1
102
RTVSPost2010Prop47
 90
       50
102
RTVSPost2010PropOp47
 70
     1
102
RTVSPost2010Prop48
 90
       50
102
RTVSPost2010PropOp48
 70
     1
102
RTVSPost2010Prop49
280
     0
102
RTVSPost2010PropOp49
 70
     1
102
RTVSPost2010Prop50
 90
       50
102
RTVSPost2010PropOp50
 70
     1
102
RTVSPost2010Prop51ColorIndex
 90
      256
102
RTVSPost2010Prop51ColorRGB
 90
-16777216
102
RTVSPost2010PropOp51
 70
     0
102
RTVSPost2010Prop52
140
1.0
102
RTVSPost2010PropOp52
 70
     0
102
RTVSPost2010Prop53
 90
        2
102
RTVSPost2010PropOp53
 70
     1
102
RTVSPost2010Prop54
  1
strokes_ogs.tif
102
RTVSPost2010PropOp54
 70
     1
102
RTVSPost2010Prop55
280
     0
102
RTVSPost2010PropOp55
 70
     1
102
RTVSPost2010Prop56
140
1.0
102
RTVSPost2010PropOp56
 70
     1
102
RTVSPost2010Prop57
140
1.0
102
RTVSPost2010PropOp57
 70
     1
102
RTVSPropertyOp0
 70
     1
102
RTVSPropertyOp1
 70
     1
102
RTVSPropertyOp2
 70
     1
102
RTVSPropertyOp3
 70
     1
102
RTVSPropertyOp4
 70
     1
102
RTVSPropertyOp5
 70
     1
102
RTVSPropertyOp6
 70
     1
102
RTVSPropertyOp7
 70
     1
102
RTVSPropertyOp8
 70
     1
102
RTVSPropertyOp9
 70
     1
102
RTVSPropertyOp10
 70
     1
102
RTVSPropertyOp11
 70
     1
102
RTVSPropertyOp12
 70
     1
102
RTVSPropertyOp13
 70
     1
102
RTVSPropertyOp14
 70
     1
102
RTVSPropertyOp15
 70
     1
102
RTVSPropertyOp16
 70
     1
102
RTVSPropertyOp17
 70
     1
102
RTVSPropertyOp18
 70
     1
102
RTVSPropertyOp19
 70
     1
102
RTVSPropertyOp20
 70
     1
102
RTVSPropertyOp21
 70
     1
102
RTVSPropertyOp22
 70
     1
102
RTVSPropertyOp23
 70
     1
102
RTVSPropertyOp24
 70
     1
102
RTVSPropertyOp25
 70
     1
102
RTVSPropertyOp26
 70
     1
102
RTVSPropertyOp27
 70
     1
102
RTVSPropertyOp28
 70
     1
102
RTVSPropertyOp29
 70
     1
102
RTVSPropertyOp30
 70
     1
102
RTVSPropertyOp31
 70
     1
102
RTVSPropertyOp32
 70
     1
102
RTVSPropertyOp33
 70
     1
102
RTVSPropertyOp34
 70
     1
102
RTVSPropertyOp35
 70
     1
102
RTVSPropertyOp36
 70
     1
102
RTVSPropertyOp37
 70
     1
102
RTVSPropertyOp38
 70
     1
102
RTVSPropertyOp39
 70
     1
102
RTVSPropertyOp40
 70
     1
102
RTVSPropertyOp41
 70
     1
102
RTVSPropertyOp42
 70
     1
102
RTVSPropertyOp43
 70
     1
102
RTVSPropertyOp44
 70
     1
102
RTVSPropertyOp45
 70
     1
102
RTVSPropertyOp46
 70
     1
102
RTVSPropertyOp47
 70
     1
102
RTVSPropertyOp48
 70
     1
102
RTVSPropertyOp49
 70
     1
102
RTVSPropertyOp50
 70
     1
102
RTVSPropertyOp51
 70
     0
102
RTVSPropertyOp52
 70
     0
102
RTVSPropertyOp53
 70
     1
102
RTVSPropertyOp54
 70
     1
102
RTVSPropertyOp55
 70
     1
102
RTVSPropertyOp56
 70
     1
102
RTVSPropertyOp57
 70
     1
102
RTVSPropertyOp58
 70
     1
102
RTVSPropertyOp59
 70
     1
102
RTVSPropertyOp60
 70
     1
102
RTVSPropertyOp61
 70
     1
102
RTVSPropertyOp62
 70
     1
  0
ENDSEC
  0
EOF
