  0
SECTION
  2
HEADER
  9
$ACADVER
  1
AC1015
  9
$ACADMAINTVER
 70
    20
  9
$DWGCODEPAGE
  3
ANSI_932
  9
$INSBASE
 10
0.0
 20
0.0
 30
0.0
  9
$EXTMIN
 10
9.9999975266385
 20
10.0
 30
0.0
  9
$EXTMAX
 10
353.3972387462289
 20
393.2738983838104
 30
0.0
  9
$LIMMIN
 10
0.0000015376081137
 20
-0.0000001931533977
  9
$LIMMAX
 10
595.0000015376081
 20
410.1893937462405
  9
$ORTHOMODE
 70
     1
  9
$REGENMODE
 70
     1
  9
$FILLMODE
 70
     1
  9
$QTEXTMODE
 70
     0
  9
$MIRRTEXT
 70
     1
  9
$LTSCALE
 40
1.0
  9
$ATTMODE
 70
     1
  9
$TEXTSIZE
 40
2.5
  9
$TRACEWID
 40
1.0
  9
$TEXTSTYLE
  7
STANDARD
  9
$CLAYER
  8
0
  9
$CELTYPE
  6
BYLAYER
  9
$CECOLOR
 62
   256
  9
$CELTSCALE
 40
1.0
  9
$DISPSILH
 70
     0
  9
$DIMSCALE
 40
1.0
  9
$DIMASZ
 40
3.0
  9
$DIMEXO
 40
1.0
  9
$DIMDLI
 40
10.0
  9
$DIMRND
 40
0.0
  9
$DIMDLE
 40
0.0
  9
$DIMEXE
 40
1.0
  9
$DIMTP
 40
0.0
  9
$DIMTM
 40
0.0
  9
$DIMTXT
 40
3.2
  9
$DIMCEN
 40
0.0
  9
$DIMTSZ
 40
0.0
  9
$DIMTOL
 70
     0
  9
$DIMLIM
 70
     0
  9
$DIMTIH
 70
     0
  9
$DIMTOH
 70
     0
  9
$DIMSE1
 70
     0
  9
$DIMSE2
 70
     0
  9
$DIMTAD
 70
     3
  9
$DIMZIN
 70
     8
  9
$DIMBLK
  1

  9
$DIMASO
 70
     1
  9
$DIMSHO
 70
     1
  9
$DIMPOST
  1

  9
$DIMAPOST
  1

  9
$DIMALT
 70
     0
  9
$DIMALTD
 70
     2
  9
$DIMALTF
 40
25.4
  9
$DIMLFAC
 40
1.0
  9
$DIMTOFL
 70
     1
  9
$DIMTVP
 40
0.0
  9
$DIMTIX
 70
     0
  9
$DIMSOXD
 70
     0
  9
$DIMSAH
 70
     1
  9
$DIMBLK1
  1
OPEN
  9
$DIMBLK2
  1
OPEN
  9
$DIMSTYLE
  2
STANDARD
  9
$DIMCLRD
 70
     0
  9
$DIMCLRE
 70
     0
  9
$DIMCLRT
 70
     0
  9
$DIMTFAC
 40
1.0
  9
$DIMGAP
 40
1.0
  9
$DIMJUST
 70
     0
  9
$DIMSD1
 70
     0
  9
$DIMSD2
 70
     0
  9
$DIMTOLJ
 70
     1
  9
$DIMTZIN
 70
     0
  9
$DIMALTZ
 70
     0
  9
$DIMALTTZ
 70
     0
  9
$DIMUPT
 70
     0
  9
$DIMDEC
 70
     4
  9
$DIMTDEC
 70
     4
  9
$DIMALTU
 70
     2
  9
$DIMALTTD
 70
     2
  9
$DIMTXSTY
  7
STANDARD
  9
$DIMAUNIT
 70
     0
  9
$DIMADEC
 70
     0
  9
$DIMALTRND
 40
0.0
  9
$DIMAZIN
 70
     0
  9
$DIMDSEP
 70
    46
  9
$DIMATFIT
 70
     3
  9
$DIMFRAC
 70
     0
  9
$DIMLDRBLK
  1
OPEN
  9
$DIMLUNIT
 70
     2
  9
$DIMLWD
 70
    -2
  9
$DIMLWE
 70
    -2
  9
$DIMTMOVE
 70
     0
  9
$LUNITS
 70
     2
  9
$LUPREC
 70
     4
  9
$SKETCHINC
 40
1.0
  9
$FILLETRAD
 40
0.0
  9
$AUNITS
 70
     0
  9
$AUPREC
 70
     0
  9
$MENU
  1
.
  9
$ELEVATION
 40
0.0
  9
$PELEVATION
 40
0.0
  9
$THICKNESS
 40
0.0
  9
$LIMCHECK
 70
     0
  9
$CHAMFERA
 40
10.0
  9
$CHAMFERB
 40
10.0
  9
$CHAMFERC
 40
20.0
  9
$CHAMFERD
 40
0.0
  9
$SKPOLY
 70
     0
  9
$TDCREATE
 40
2453781.597979595
  9
$TDUCREATE
 40
2453781.222979595
  9
$TDUPDATE
 40
2457192.700677651
  9
$TDUUPDATE
 40
2457192.325677651
  9
$TDINDWG
 40
0.1828790509
  9
$TDUSRTIMER
 40
0.1828790278
  9
$USRTIMER
 70
     1
  9
$ANGBASE
 50
0.0
  9
$ANGDIR
 70
     0
  9
$PDMODE
 70
     0
  9
$PDSIZE
 40
0.0
  9
$PLINEWID
 40
0.0
  9
$SPLFRAME
 70
     0
  9
$SPLINETYPE
 70
     6
  9
$SPLINESEGS
 70
     8
  9
$HANDSEED
  5
2DBF
  9
$SURFTAB1
 70
     6
  9
$SURFTAB2
 70
     6
  9
$SURFTYPE
 70
     6
  9
$SURFU
 70
     6
  9
$SURFV
 70
     6
  9
$UCSBASE
  2

  9
$UCSNAME
  2

  9
$UCSORG
 10
0.0
 20
0.0
 30
0.0
  9
$UCSXDIR
 10
1.0
 20
0.0
 30
0.0
  9
$UCSYDIR
 10
0.0
 20
1.0
 30
0.0
  9
$UCSORTHOREF
  2

  9
$UCSORTHOVIEW
 70
     0
  9
$UCSORGTOP
 10
0.0
 20
0.0
 30
0.0
  9
$UCSORGBOTTOM
 10
0.0
 20
0.0
 30
0.0
  9
$UCSORGLEFT
 10
0.0
 20
0.0
 30
0.0
  9
$UCSORGRIGHT
 10
0.0
 20
0.0
 30
0.0
  9
$UCSORGFRONT
 10
0.0
 20
0.0
 30
0.0
  9
$UCSORGBACK
 10
0.0
 20
0.0
 30
0.0
  9
$PUCSBASE
  2

  9
$PUCSNAME
  2

  9
$PUCSORG
 10
0.0
 20
0.0
 30
0.0
  9
$PUCSXDIR
 10
1.0
 20
0.0
 30
0.0
  9
$PUCSYDIR
 10
0.0
 20
1.0
 30
0.0
  9
$PUCSORTHOREF
  2

  9
$PUCSORTHOVIEW
 70
     0
  9
$PUCSORGTOP
 10
0.0
 20
0.0
 30
0.0
  9
$PUCSORGBOTTOM
 10
0.0
 20
0.0
 30
0.0
  9
$PUCSORGLEFT
 10
0.0
 20
0.0
 30
0.0
  9
$PUCSORGRIGHT
 10
0.0
 20
0.0
 30
0.0
  9
$PUCSORGFRONT
 10
0.0
 20
0.0
 30
0.0
  9
$PUCSORGBACK
 10
0.0
 20
0.0
 30
0.0
  9
$USERI1
 70
     0
  9
$USERI2
 70
     0
  9
$USERI3
 70
     0
  9
$USERI4
 70
     0
  9
$USERI5
 70
     0
  9
$USERR1
 40
0.0
  9
$USERR2
 40
0.0
  9
$USERR3
 40
0.0
  9
$USERR4
 40
0.0
  9
$USERR5
 40
0.0
  9
$WORLDVIEW
 70
     1
  9
$SHADEDGE
 70
     3
  9
$SHADEDIF
 70
    70
  9
$TILEMODE
 70
     1
  9
$MAXACTVP
 70
    48
  9
$PINSBASE
 10
0.0
 20
0.0
 30
0.0
  9
$PLIMCHECK
 70
     0
  9
$PEXTMIN
 10
27.8447512626648
 20
20.24591643810271
 30
0.0
  9
$PEXTMAX
 10
250.6027613639831
 20
182.2132479429244
 30
0.0
  9
$PLIMMIN
 10
-3.757080078125
 20
-3.757083177566528
  9
$PLIMMAX
 10
293.2112426757812
 20
206.2162444591522
  9
$UNITMODE
 70
     0
  9
$VISRETAIN
 70
     1
  9
$PLINEGEN
 70
     0
  9
$PSLTSCALE
 70
     1
  9
$TREEDEPTH
 70
  3020
  9
$CMLSTYLE
  2
STANDARD
  9
$CMLJUST
 70
     0
  9
$CMLSCALE
 40
20.0
  9
$PROXYGRAPHICS
 70
     1
  9
$MEASUREMENT
 70
     0
  9
$CELWEIGHT
370
    -1
  9
$ENDCAPS
280
     0
  9
$JOINSTYLE
280
     0
  9
$LWDISPLAY
290
     0
  9
$INSUNITS
 70
     0
  9
$HYPERLINKBASE
  1

  9
$STYLESHEET
  1

  9
$XEDIT
290
     1
  9
$CEPSNTYPE
380
     0
  9
$PSTYLEMODE
290
     1
  9
$FINGERPRINTGUID
  2
{E82912CB-81F9-451D-9075-CC71D8C6976E}
  9
$VERSIONGUID
  2
{90AD63EF-DE96-49C6-BB43-AD4D9074D592}
  9
$EXTNAMES
290
     1
  9
$PSVPSCALE
 40
0.0
  9
$OLESTARTUP
290
     0
  0
ENDSEC
  0
SECTION
  2
CLASSES
  0
CLASS
  1
ACDBDICTIONARYWDFLT
  2
AcDbDictionaryWithDefault
  3
ObjectDBX Classes
 90
        0
280
     0
281
     0
  0
CLASS
  1
ACDBPLACEHOLDER
  2
AcDbPlaceHolder
  3
ObjectDBX Classes
 90
        0
280
     0
281
     0
  0
CLASS
  1
LAYOUT
  2
AcDbLayout
  3
ObjectDBX Classes
 90
        0
280
     0
281
     0
  0
CLASS
  1
DICTIONARYVAR
  2
AcDbDictionaryVar
  3
ObjectDBX Classes
 90
        0
280
     0
281
     0
  0
CLASS
  1
MATERIAL
  2
AcDbMaterial
  3
ObjectDBX Classes
 90
     1153
280
     0
281
     0
  0
CLASS
  1
VISUALSTYLE
  2
AcDbVisualStyle
  3
ObjectDBX Classes
 90
     4095
280
     0
281
     0
  0
CLASS
  1
TABLESTYLE
  2
AcDbTableStyle
  3
ObjectDBX Classes
 90
     4095
280
     0
281
     0
  0
CLASS
  1
SCALE
  2
AcDbScale
  3
ObjectDBX Classes
 90
     1153
280
     0
281
     0
  0
CLASS
  1
MLEADERSTYLE
  2
AcDbMLeaderStyle
  3
ACDB_MLEADERSTYLE_CLASS
 90
     4095
280
     0
281
     0
  0
CLASS
  1
ACDBSECTIONVIEWSTYLE
  2
AcDbSectionViewStyle
  3
ObjectDBX Classes
 90
     1025
280
     0
281
     0
  0
CLASS
  1
ACDBDETAILVIEWSTYLE
  2
AcDbDetailViewStyle
  3
ObjectDBX Classes
 90
     1025
280
     0
281
     0
  0
CLASS
  1
CELLSTYLEMAP
  2
AcDbCellStyleMap
  3
ObjectDBX Classes
 90
     1152
280
     0
281
     0
  0
ENDSEC
  0
SECTION
  2
TABLES
  0
TABLE
  2
VPORT
  5
8
330
0
100
AcDbSymbolTable
 70
     1
  0
VPORT
  5
2D09
330
8
100
AcDbSymbolTableRecord
100
AcDbViewportTableRecord
  2
*ACTIVE
 70
     0
 10
0.0
 20
0.0
 11
1.0
 21
1.0
 12
304.8935666808313
 22
201.6366038531821
 13
0.0
 23
0.0
 14
10.0
 24
10.0
 15
10.0
 25
10.0
 16
0.0
 26
0.0
 36
1.0
 17
0.0
 27
0.0
 37
0.0
 40
386.9886386283885
 41
2.35006605019815
 42
50.0
 43
0.0
 44
0.0
 50
0.0
 51
0.0
 71
     0
 72
   100
 73
     1
 74
     0
 75
     0
 76
     0
 77
     0
 78
     0
281
     0
 65
     1
110
0.0
120
0.0
130
0.0
111
1.0
121
0.0
131
0.0
112
0.0
122
1.0
132
0.0
 79
     0
146
0.0
1001
ACAD_NAV_VCDISPLAY
1070
     3
  0
ENDTAB
  0
TABLE
  2
LTYPE
  5
5
330
0
100
AcDbSymbolTable
 70
     4
  0
LTYPE
  5
12
330
5
100
AcDbSymbolTableRecord
100
AcDbLinetypeTableRecord
  2
BYBLOCK
 70
     0
  3

 72
    65
 73
     0
 40
0.0
  0
LTYPE
  5
13
330
5
100
AcDbSymbolTableRecord
100
AcDbLinetypeTableRecord
  2
BYLAYER
 70
     0
  3

 72
    65
 73
     0
 40
0.0
  0
LTYPE
  5
14
330
5
100
AcDbSymbolTableRecord
100
AcDbLinetypeTableRecord
  2
CONTINUOUS
 70
     0
  3
Solid line
 72
    65
 73
     0
 40
0.0
  0
LTYPE
  5
4B
330
5
100
AcDbSymbolTableRecord
100
AcDbLinetypeTableRecord
  2
DASHED
 70
     0
  3
Dashed __ __ __ __ __ __ __ __ __ __ __ __ __ _
 72
    65
 73
     2
 40
19.04999999999999
 49
12.7
 74
     0
 49
-6.349999999999998
 74
     0
  0
LTYPE
  5
4C
330
5
100
AcDbSymbolTableRecord
100
AcDbLinetypeTableRecord
  2
CENTER
 70
     0
  3
Center ____ _ ____ _ ____ _ ____ _ ____ _ ____
 72
    65
 73
     4
 40
50.8
 49
31.75
 74
     0
 49
-6.349999999999998
 74
     0
 49
6.349999999999998
 74
     0
 49
-6.349999999999998
 74
     0
  0
LTYPE
  5
4D
330
5
100
AcDbSymbolTableRecord
100
AcDbLinetypeTableRecord
  2
PHANTOM
 70
     0
  3
Phantom ______  __  __  ______  __  __  ______
 72
    65
 73
     6
 40
63.5
 49
31.75
 74
     0
 49
-6.349999999999998
 74
     0
 49
6.349999999999998
 74
     0
 49
-6.349999999999998
 74
     0
 49
6.349999999999998
 74
     0
 49
-6.349999999999998
 74
     0
  0
ENDTAB
  0
TABLE
  2
LAYER
  5
2
330
0
100
AcDbSymbolTable
 70
     8
  0
LAYER
  5
E
102
{ACAD_XDICTIONARY
360
2D63
102
}
330
2
100
AcDbSymbolTableRecord
100
AcDbLayerTableRecord
  2
0
 70
     0
 62
     7
  6
CONTINUOUS
370
    -3
390
2D12
  0
LAYER
  5
4E
102
{ACAD_XDICTIONARY
360
2D65
102
}
330
2
100
AcDbSymbolTableRecord
100
AcDbLayerTableRecord
  2
4
 70
     0
 62
     1
  6
CENTER
370
    -3
390
2D12
  0
LAYER
  5
4F
102
{ACAD_XDICTIONARY
360
2D67
102
}
330
2
100
AcDbSymbolTableRecord
100
AcDbLayerTableRecord
  2
5
 70
     0
 62
     6
  6
PHANTOM
370
    -3
390
2D12
  0
LAYER
  5
50
102
{ACAD_XDICTIONARY
360
2D69
102
}
330
2
100
AcDbSymbolTableRecord
100
AcDbLayerTableRecord
  2
1
 70
     0
 62
     7
  6
CONTINUOUS
370
    -3
390
2D12
  0
LAYER
  5
51
102
{ACAD_XDICTIONARY
360
2D6B
102
}
330
2
100
AcDbSymbolTableRecord
100
AcDbLayerTableRecord
  2
2
 70
     0
 62
     4
  6
CONTINUOUS
370
    -3
390
2D12
  0
LAYER
  5
52
102
{ACAD_XDICTIONARY
360
2D6D
102
}
330
2
100
AcDbSymbolTableRecord
100
AcDbLayerTableRecord
  2
3
 70
     0
 62
     2
  6
DASHED
370
    -3
390
2D12
  0
LAYER
  5
53
102
{ACAD_XDICTIONARY
360
2D6F
102
}
330
2
100
AcDbSymbolTableRecord
100
AcDbLayerTableRecord
  2
6
 70
     0
 62
     5
  6
CONTINUOUS
370
    -3
390
2D12
  0
LAYER
  5
54
102
{ACAD_XDICTIONARY
360
2D71
102
}
330
2
100
AcDbSymbolTableRecord
100
AcDbLayerTableRecord
  2
7
 70
     0
 62
     3
  6
CONTINUOUS
370
    -3
390
2D12
  0
ENDTAB
  0
TABLE
  2
STYLE
  5
3
330
0
100
AcDbSymbolTable
 70
     1
  0
STYLE
  5
F
330
3
100
AcDbSymbolTableRecord
100
AcDbTextStyleTableRecord
  2
STANDARD
 70
     0
 40
0.0
 41
1.0
 50
0.0
 71
     0
 42
2.5
  3
simplex.shx
  4

  0
ENDTAB
  0
TABLE
  2
VIEW
  5
6
330
0
100
AcDbSymbolTable
 70
     0
  0
ENDTAB
  0
TABLE
  2
UCS
  5
7
330
0
100
AcDbSymbolTable
 70
     0
  0
ENDTAB
  0
TABLE
  2
APPID
  5
9
330
0
100
AcDbSymbolTable
 70
     5
  0
APPID
  5
10
330
9
100
AcDbSymbolTableRecord
100
AcDbRegAppTableRecord
  2
ACAD
 70
     0
  0
APPID
  5
3E
330
9
100
AcDbSymbolTableRecord
100
AcDbRegAppTableRecord
  2
CONTENTTABDATA
 70
     0
  0
APPID
  5
3F
330
9
100
AcDbSymbolTableRecord
100
AcDbRegAppTableRecord
  2
CONTENTCURRENTTAB
 70
     0
  0
APPID
  5
2D7D
330
9
100
AcDbSymbolTableRecord
100
AcDbRegAppTableRecord
  2
ACAD_NAV_VCDISPLAY
 70
     0
  0
APPID
  5
2DB6
330
9
100
AcDbSymbolTableRecord
100
AcDbRegAppTableRecord
  2
ACAD_MLEADERVER
 70
     0
  0
ENDTAB
  0
TABLE
  2
DIMSTYLE
  5
A
330
0
100
AcDbSymbolTable
 70
     1
100
AcDbDimStyleTable
 71
     0
  0
DIMSTYLE
105
1D
330
A
100
AcDbSymbolTableRecord
100
AcDbDimStyleTableRecord
  2
STANDARD
 70
     0
 41
3.0
 42
1.0
 43
10.0
 44
1.0
 73
     0
 74
     0
 77
     3
 78
     8
140
3.2
141
0.0
147
1.0
172
     1
173
     1
340
F
341
2E
343
2E
344
2E
  0
ENDTAB
  0
TABLE
  2
BLOCK_RECORD
  5
1
330
0
100
AcDbSymbolTable
 70
     1
  0
BLOCK_RECORD
  5
18
102
{ACAD_XDICTIONARY
360
2D0C
102
}
330
1
100
AcDbSymbolTableRecord
100
AcDbBlockTableRecord
  2
*MODEL_SPACE
340
2D60
  0
BLOCK_RECORD
  5
15
102
{ACAD_XDICTIONARY
360
2D0A
102
}
330
1
100
AcDbSymbolTableRecord
100
AcDbBlockTableRecord
  2
*PAPER_SPACE
340
2D61
  0
BLOCK_RECORD
  5
2E
330
1
100
AcDbSymbolTableRecord
100
AcDbBlockTableRecord
  2
_OPEN
340
0
  0
ENDTAB
  0
ENDSEC
  0
SECTION
  2
BLOCKS
  0
BLOCK
  5
19
330
18
100
AcDbEntity
  8
0
100
AcDbBlockBegin
  2
*MODEL_SPACE
 70
     0
 10
0.0
 20
0.0
 30
0.0
  3
*MODEL_SPACE
  1

  0
ENDBLK
  5
1A
330
18
100
AcDbEntity
  8
0
100
AcDbBlockEnd
  0
BLOCK
  5
16
330
15
100
AcDbEntity
 67
     1
  8
0
100
AcDbBlockBegin
  2
*PAPER_SPACE
 70
     0
 10
0.0
 20
0.0
 30
0.0
  3
*PAPER_SPACE
  1

  0
ENDBLK
  5
17
330
15
100
AcDbEntity
 67
     1
  8
0
100
AcDbBlockEnd
  0
BLOCK
  5
2F
330
2E
100
AcDbEntity
  8
0
100
AcDbBlockBegin
  2
_OPEN
 70
     0
 10
0.0
 20
0.0
 30
0.0
  3
_OPEN
  1

  0
LINE
  5
30
330
2E
100
AcDbEntity
  8
0
  6
ByBlock
 62
     0
100
AcDbLine
 10
-1.0
 20
0.1666666666666666
 30
0.0
 11
0.0
 21
0.0
 31
0.0
  0
LINE
  5
31
330
2E
100
AcDbEntity
  8
0
  6
ByBlock
 62
     0
100
AcDbLine
 10
0.0
 20
0.0
 30
0.0
 11
-1.0
 21
-0.1666666666666666
 31
0.0
  0
LINE
  5
32
330
2E
100
AcDbEntity
  8
0
  6
ByBlock
 62
     0
100
AcDbLine
 10
0.0
 20
0.0
 30
0.0
 11
-1.0
 21
0.0
 31
0.0
  0
ENDBLK
  5
33
330
2E
100
AcDbEntity
  8
0
100
AcDbBlockEnd
  0
ENDSEC
  0
SECTION
  2
ENTITIES
  0
TEXT
  5
63
330
18
100
AcDbEntity
  8
4
  6
CENTER
 48
0.25
100
AcDbText
 10
23.97950852663849
 20
10.0
 30
0.0
 40
1.399999999999999
  1
4
100
AcDbText
  0
TEXT
  5
64
330
18
100
AcDbEntity
  8
7
  6
Continuous
 48
0.25
100
AcDbText
 10
9.999997526638502
 20
26.0000007607689
 30
0.0
 40
3.0
  1
CODE No.13393
100
AcDbText
  0
TEXT
  5
65
330
18
100
AcDbEntity
  8
7
  6
Continuous
 48
0.25
100
AcDbText
 10
9.999997526638502
 20
18.00000076076889
 30
0.0
 40
3.0
  1
TYPE No.TEA-1150-U33-03
100
AcDbText
  0
TEXT
  5
66
330
18
100
AcDbEntity
  8
1
  6
Continuous
 48
0.25
100
AcDbText
 10
9.999997526638502
 20
10.00000076076889
 30
0.0
 40
1.399999999999999
  1
LAYER
100
AcDbText
  0
TEXT
  5
67
330
18
100
AcDbEntity
  8
2
  6
Continuous
 48
0.25
100
AcDbText
 10
19.9795085266385
 20
10.0
 30
0.0
 40
1.399999999999999
  1
2
100
AcDbText
  0
TEXT
  5
68
330
18
100
AcDbEntity
  8
3
  6
DASHED
 48
0.25
100
AcDbText
 10
21.9795085266385
 20
10.0
 30
0.0
 40
1.399999999999999
  1
3
100
AcDbText
  0
TEXT
  5
69
330
18
100
AcDbEntity
  8
1
  6
Continuous
 48
0.25
100
AcDbText
 10
17.9795085266385
 20
10.0
 30
0.0
 40
1.399999999999999
  1
1
100
AcDbText
  0
TEXT
  5
6A
330
18
100
AcDbEntity
  8
5
  6
PHANTOM
 48
0.25
100
AcDbText
 10
25.9795085266385
 20
10.0
 30
0.0
 40
1.399999999999999
  1
5
100
AcDbText
  0
TEXT
  5
6B
330
18
100
AcDbEntity
  8
6
  6
Continuous
 48
0.25
100
AcDbText
 10
27.9795085266385
 20
10.0
 30
0.0
 40
1.399999999999999
  1
6
100
AcDbText
  0
TEXT
  5
6C
330
18
100
AcDbEntity
  8
7
  6
Continuous
 48
0.25
100
AcDbText
 10
29.9795085266385
 20
10.0
 30
0.0
 40
1.399999999999999
  1
7
100
AcDbText
  0
CIRCLE
  5
146D
330
18
100
AcDbEntity
  8
1
  6
Continuous
100
AcDbCircle
 10
332.8972379150235
 20
243.525698985367
 30
0.0
 40
6.000000284984715
  0
LINE
  5
146E
330
18
100
AcDbEntity
  8
1
  6
Continuous
100
AcDbLine
 10
315.3972370838181
 20
248.1790928326044
 30
0.0
 11
315.3972370838181
 21
177.1790894602851
 31
0.0
  0
LINE
  5
146F
330
18
100
AcDbEntity
  8
1
  6
Continuous
100
AcDbLine
 10
350.3972387462289
 20
248.1790928326044
 30
0.0
 11
350.3972387462289
 21
177.1790894602853
 31
0.0
  0
LINE
  5
1470
330
18
100
AcDbEntity
  8
1
  6
Continuous
100
AcDbLine
 10
314.8972370600694
 20
292.0257012889935
 30
0.0
 11
314.8972370600694
 21
136.0256938793911
 31
0.0
  0
LINE
  5
1471
330
18
100
AcDbEntity
  8
1
  6
Continuous
100
AcDbLine
 10
350.8972387699777
 20
136.025693879391
 30
0.0
 11
350.8972387699777
 21
292.0257012892866
 31
0.0
  0
LINE
  5
147A
330
18
100
AcDbEntity
  8
1
  6
Continuous
100
AcDbLine
 10
231.3930833916458
 20
143.8272640431458
 30
0.0
 11
231.3930833916458
 21
262.2426449519676
 31
0.0
  0
LINE
  5
147C
330
18
100
AcDbEntity
  8
1
  6
Continuous
100
AcDbLine
 10
240.9796826429252
 20
294.0257013839884
 30
0.0
 11
240.9796826429252
 21
134.0256937843961
 31
0.0
  0
LINE
  5
147D
330
18
100
AcDbEntity
  8
1
  6
Continuous
100
AcDbLine
 10
237.5521513624028
 20
289.0306548626158
 30
0.0
 11
237.552151362453
 21
138.8636359892684
 31
0.0
  0
LINE
  5
147F
330
18
100
AcDbEntity
  8
1
  6
Continuous
100
AcDbLine
 10
242.9796827379201
 20
242.2790925523695
 30
0.0
 11
242.9796827379201
 21
286.7757010396319
 31
0.0
  0
LINE
  5
1480
330
18
100
AcDbEntity
  8
1
  6
Continuous
100
AcDbLine
 10
245.9796828804125
 20
251.6660877276305
 30
0.0
 11
245.9796828804125
 21
248.1790928326045
 31
0.0
  0
LINE
  5
1481
330
18
100
AcDbEntity
  8
1
  6
Continuous
100
AcDbLine
 10
142.5372587967163
 20
167.393187017365
 30
0.0
 11
142.5372587967165
 21
266.9820034901587
 31
0.0
  0
LINE
  5
1482
330
18
100
AcDbEntity
  8
1
  6
Continuous
100
AcDbLine
 10
139.0773085815161
 20
143.8272640431458
 30
0.0
 11
139.0773085815161
 21
262.2426449519675
 31
0.0
  0
LINE
  5
1485
330
18
100
AcDbEntity
  8
1
  6
Continuous
100
AcDbLine
 10
137.2872585473547
 20
162.0256950077348
 30
0.0
 11
137.2872585473547
 21
264.0256999604349
 31
0.0
  0
LINE
  5
1488
330
18
100
AcDbEntity
  8
1
  6
Continuous
100
AcDbLine
 10
138.7872586186009
 20
162.0256951143247
 30
0.0
 11
138.7872586186009
 21
264.0256999573849
 31
0.0
  0
LINE
  5
15A4
330
18
100
AcDbEntity
  8
1
  6
Continuous
100
AcDbLine
 10
149.0372591054498
 20
168.6756954301828
 30
0.0
 11
149.0372591054498
 21
156.8756948697129
 31
0.0
  0
ARC
  5
15AA
330
18
100
AcDbEntity
  8
1
  6
Continuous
100
AcDbCircle
 10
150.2872591648216
 20
164.0256952093196
 30
0.0
 40
4.40000020898888
100
AcDbArc
 50
286.504515521362
 51
73.49548447863793
  0
LINE
  5
15AC
330
18
100
AcDbEntity
  8
1
  6
Continuous
100
AcDbLine
 10
142.5372587967163
 20
137.3258617282459
 30
0.0
 11
142.5372587967163
 21
160.6582034012741
 31
0.0
  0
LINE
  5
15B0
330
18
100
AcDbEntity
  8
1
  6
Continuous
100
AcDbLine
 10
133.0183964726908
 20
139.827550952826
 30
0.0
 11
136.7207254512138
 21
159.0800280597917
 31
0.0
  0
ARC
  5
15B3
330
18
100
AcDbEntity
  8
1
  6
Continuous
100
AcDbCircle
 10
150.2872591648216
 20
162.0256951143248
 30
0.0
 40
11.50000054622075
100
AcDbArc
 50
180.0000000000004
 51
192.8956180744931
  0
ARC
  5
15B7
330
18
100
AcDbEntity
  8
1
  6
Continuous
100
AcDbCircle
 10
150.2872591648215
 20
144.7756942949937
 30
0.0
 40
11.2500005343463
100
AcDbArc
 50
184.8360555206305
 51
355.1639444793689
  0
LINE
  5
15BB
330
18
100
AcDbEntity
  8
1
  6
Continuous
100
AcDbLine
 10
146.970634216935
 20
134.0256937843961
 30
0.0
 11
134.2801466208447
 21
134.0256937843961
 31
0.0
  0
LINE
  5
15BD
330
18
100
AcDbEntity
  8
1
  6
Continuous
100
AcDbLine
 10
135.0590331163151
 20
135.3400840515718
 30
0.0
 11
138.7677946484725
 21
141.6532216179348
 31
0.0
  0
LINE
  5
15CA
330
18
100
AcDbEntity
  8
1
  6
Continuous
100
AcDbLine
 10
149.0372591054498
 20
156.8756948697129
 30
0.0
 11
151.5372592241934
 21
156.8756948697129
 31
0.0
  0
LINE
  5
15CB
330
18
100
AcDbEntity
  8
1
  6
Continuous
100
AcDbLine
 10
151.5372592241934
 20
156.8756948697129
 30
0.0
 11
151.5372592241934
 21
168.6756954301828
 31
0.0
  0
LINE
  5
15E8
330
18
100
AcDbEntity
  8
1
  6
Continuous
100
AcDbLine
 10
151.5372592241934
 20
168.6756954301828
 30
0.0
 11
149.0372591054498
 21
168.6756954301828
 31
0.0
  0
LINE
  5
15F7
330
18
100
AcDbEntity
  8
1
  6
Continuous
100
AcDbLine
 10
320.5224803261751
 20
141.1708785652082
 30
0.0
 11
345.2719955038722
 21
141.1708785652082
 31
0.0
  0
LINE
  5
15F8
330
18
100
AcDbEntity
  8
1
  6
Continuous
100
AcDbLine
 10
320.5001237888201
 20
141.2756941287527
 30
0.0
 11
345.294352041227
 21
141.2756941287527
 31
0.0
  0
LINE
  5
15FA
330
18
100
AcDbEntity
  8
1
  6
Continuous
100
AcDbLine
 10
322.4972374210499
 20
139.2756940337555
 30
0.0
 11
343.297238408997
 21
139.2756940337555
 31
0.0
  0
LINE
  5
15FB
330
18
100
AcDbEntity
  8
1
  6
Continuous
100
AcDbLine
 10
321.3972373688028
 20
138.0256939743859
 30
0.0
 11
344.3972384612442
 21
138.0256939743859
 31
0.0
  0
LINE
  5
15FC
330
18
100
AcDbEntity
  8
1
  6
Continuous
100
AcDbLine
 10
344.3972384612442
 20
135.5256938556423
 30
0.0
 11
321.3972373688028
 21
135.5256938556423
 31
0.0
  0
LINE
  5
15FD
330
18
100
AcDbEntity
  8
1
  6
Continuous
100
AcDbLine
 10
316.8972371550643
 20
134.0256937843961
 30
0.0
 11
348.8972386749827
 21
134.0256937843961
 31
0.0
  0
ARC
  5
1600
330
18
100
AcDbEntity
  8
1
  6
Continuous
100
AcDbCircle
 10
332.8972379150235
 20
160.0256950193299
 30
0.0
 40
12.40000058896839
100
AcDbArc
 50
180.0000000000004
 51
359.9999999999998
  0
ARC
  5
1601
330
18
100
AcDbEntity
  8
1
  6
Continuous
100
AcDbCircle
 10
332.8972379150235
 20
164.5256952330684
 30
0.0
 40
12.40000058896839
100
AcDbArc
 50
56.56717714481172
 51
123.4328228551882
  0
LINE
  5
1602
330
18
100
AcDbEntity
  8
1
  6
Continuous
100
AcDbLine
 10
243.9796827854176
 20
238.6790923813787
 30
0.0
 11
243.9796827854176
 21
186.6790899115112
 31
0.0
  0
LINE
  5
1603
330
18
100
AcDbEntity
  8
1
  6
Continuous
100
AcDbLine
 10
252.4796831891459
 20
177.1790894602853
 30
0.0
 11
252.4796831891463
 21
249.5256992703518
 31
0.0
  0
LINE
  5
160A
330
18
100
AcDbEntity
  8
1
  6
Continuous
100
AcDbLine
 10
240.9796826429252
 20
134.0256937843961
 30
0.0
 11
238.056231113698
 21
134.281462651571
 31
0.0
  0
LINE
  5
160D
330
18
100
AcDbEntity
  8
1
  6
Continuous
100
AcDbLine
 10
231.979682213957
 20
149.0256945005891
 30
0.0
 11
237.7991741443994
 21
134.4769646744768
 31
0.0
  0
LINE
  5
160E
330
18
100
AcDbEntity
  8
1
  6
Continuous
100
AcDbLine
 10
231.9796822139407
 20
277.025700572264
 30
0.0
 11
231.9796822139406
 21
133.5256937606474
 31
0.0
  0
LINE
  5
1612
330
18
100
AcDbEntity
  8
1
  6
Continuous
100
AcDbLine
 10
230.2796821332124
 20
133.5256937606474
 30
0.0
 11
231.9796822139406
 21
133.5256937606474
 31
0.0
  0
LINE
  5
1613
330
18
100
AcDbEntity
  8
1
  6
Continuous
100
AcDbLine
 10
229.7796821095053
 20
134.0257002388678
 30
0.0
 11
229.7796821095053
 21
272.3204275939252
 31
0.0
  0
ARC
  5
1614
330
18
100
AcDbEntity
  8
1
  6
Continuous
100
AcDbCircle
 10
230.2796821332124
 20
134.0256937843961
 30
0.0
 40
0.5000000237487398
100
AcDbArc
 50
179.9996301860381
 51
269.9999999999934
  0
ARC
  5
161B
330
18
100
AcDbEntity
  8
1
  6
Continuous
100
AcDbCircle
 10
238.0808239013683
 20
134.5805460564826
 30
0.0
 40
0.3000927994880396
100
AcDbArc
 50
200.1918379660271
 51
265.2993043610347
  0
ARC
  5
1623
330
18
100
AcDbEntity
  8
1
  6
Continuous
100
AcDbCircle
 10
230.029682301642
 20
155.9756948269651
 30
0.0
 40
0.3000000142492325
100
AcDbArc
 50
179.9407117947444
 51
211.8786482958918
  0
LINE
  5
1626
330
18
100
AcDbEntity
  8
1
  6
Continuous
100
AcDbLine
 10
242.9796827379201
 20
141.2756941287526
 30
0.0
 11
242.9796827379201
 21
160.0256950193299
 31
0.0
  0
LINE
  5
1629
330
18
100
AcDbEntity
  8
1
  6
Continuous
100
AcDbLine
 10
242.9796827379201
 20
141.2756941287526
 30
0.0
 11
244.9796828329152
 21
141.1708785652082
 31
0.0
  0
LINE
  5
162A
330
18
100
AcDbEntity
  8
1
  6
Continuous
100
AcDbLine
 10
244.979682832915
 20
139.4853251608495
 30
0.0
 11
244.979682832915
 21
141.1708785652045
 31
0.0
  0
LINE
  5
162B
330
18
100
AcDbEntity
  8
1
  6
Continuous
100
AcDbLine
 10
240.9796826429251
 20
139.2756940337603
 30
0.0
 11
244.9796828329149
 21
139.4853251608494
 31
0.0
  0
LINE
  5
162C
330
18
100
AcDbEntity
  8
1
  6
Continuous
100
AcDbLine
 10
242.9796827379201
 20
147.6256944303615
 30
0.0
 11
262.4796836641205
 21
147.6256944303615
 31
0.0
  0
LINE
  5
162D
330
18
100
AcDbEntity
  8
1
  6
Continuous
100
AcDbLine
 10
263.9796837331457
 20
175.4258327210096
 30
0.0
 11
263.9796837331457
 21
149.1256128769015
 31
0.0
  0
ARC
  5
162E
330
18
100
AcDbEntity
  8
1
  6
Continuous
100
AcDbCircle
 10
262.4796836641204
 20
149.1256945016078
 30
0.0
 40
1.500000071246167
100
AcDbArc
 50
270.0
 51
359.9968821638124
  0
LINE
  5
162F
330
18
100
AcDbEntity
  8
1
  6
Continuous
100
AcDbLine
 10
229.7296824480007
 20
172.0760060182863
 30
0.0
 11
229.7296824480007
 21
155.9760052592413
 31
0.0
  0
ARC
  5
1632
330
18
100
AcDbEntity
  8
1
  6
Continuous
100
AcDbCircle
 10
230.029682301642
 20
172.0756955916742
 30
0.0
 40
0.3000000142492325
100
AcDbArc
 50
148.2482135928315
 51
179.9919997694454
  0
LINE
  5
1633
330
18
100
AcDbEntity
  8
1
  6
Continuous
100
AcDbLine
 10
242.9796827379201
 20
173.1256956415465
 30
0.0
 11
242.9796827379201
 21
183.0790897405204
 31
0.0
  0
LINE
  5
1635
330
18
100
AcDbEntity
  8
1
  6
Continuous
100
AcDbLine
 10
262.4796836641204
 20
174.6256957127927
 30
0.0
 11
242.9796827379201
 21
174.6256957127927
 31
0.0
  0
ARC
  5
163B
330
18
100
AcDbEntity
  8
1
  6
Continuous
100
AcDbCircle
 10
262.4796836641204
 20
173.1256956415466
 30
0.0
 40
1.5000000712462
100
AcDbArc
 50
0.0
 51
90.0
  0
ARC
  5
163C
330
18
100
AcDbEntity
  8
1
  6
Continuous
100
AcDbCircle
 10
249.417183043687
 20
184.5256961830179
 30
0.0
 40
6.045776188561061
100
AcDbArc
 50
4.268594760943256
 51
19.31791516669539
  0
ARC
  5
163D
330
18
100
AcDbEntity
  8
1
  6
Continuous
100
AcDbCircle
 10
249.4171830436852
 20
184.5256961830173
 30
0.0
 40
6.045776188562943
100
AcDbArc
 50
340.6820848333069
 51
355.7314052390543
  0
LINE
  5
163E
330
18
100
AcDbEntity
  8
1
  6
Continuous
100
AcDbLine
 10
262.4796836641204
 20
176.9256958220369
 30
0.0
 11
245.9796828804125
 21
176.9256958220368
 31
0.0
  0
LINE
  5
1640
330
18
100
AcDbEntity
  8
1
  6
Continuous
100
AcDbLine
 10
253.4796832366434
 20
178.5256958980327
 30
0.0
 11
253.4796832366434
 21
190.5256964680022
 31
0.0
  0
LINE
  5
1644
330
18
100
AcDbEntity
  8
1
  6
Continuous
100
AcDbLine
 10
244.979682832915
 20
177.1790894602855
 30
0.0
 11
252.4796831891459
 21
177.1790894602853
 31
0.0
  0
ARC
  5
1645
330
18
100
AcDbEntity
  8
1
  6
Continuous
100
AcDbCircle
 10
244.979682832915
 20
179.1790895552804
 30
0.0
 40
2.000000094994911
100
AcDbArc
 50
179.9999999999996
 51
270.0
  0
LINE
  5
1646
330
18
100
AcDbEntity
  8
1
  6
Continuous
100
AcDbLine
 10
242.9796827379201
 20
176.8853074645006
 30
0.0
 11
245.9796828804125
 21
176.8853074645006
 31
0.0
  0
LINE
  5
1647
330
18
100
AcDbEntity
  8
1
  6
Continuous
100
AcDbLine
 10
245.9796828804125
 20
177.1790894602855
 30
0.0
 11
245.9796828804125
 21
176.8853074645006
 31
0.0
  0
LINE
  5
1648
330
18
100
AcDbEntity
  8
1
  6
Continuous
100
AcDbLine
 10
252.4796831891459
 20
178.5256958980328
 30
0.0
 11
253.4796832366434
 21
178.5256958980328
 31
0.0
  0
LINE
  5
164B
330
18
100
AcDbEntity
  8
1
  6
Continuous
100
AcDbLine
 10
255.1225672851027
 20
182.5256960880226
 30
0.0
 11
255.1402861671186
 21
182.5256960880226
 31
0.0
  0
ARC
  5
164C
330
18
100
AcDbEntity
  8
1
  6
Continuous
100
AcDbCircle
 10
249.4171830427259
 20
184.5256961836346
 30
0.0
 40
6.062500289062302
100
AcDbArc
 50
312.0750220535878
 51
340.7374816966428
  0
LINE
  5
1650
330
18
100
AcDbEntity
  8
1
  6
Continuous
100
AcDbLine
 10
243.9796827854176
 20
186.6790899115113
 30
0.0
 11
241.6796826761734
 21
184.3790898022671
 31
0.0
  0
LINE
  5
1651
330
18
100
AcDbEntity
  8
1
  6
Continuous
100
AcDbLine
 10
241.6796828529501
 20
184.3790896254904
 30
0.0
 11
242.9796827379201
 21
183.0790897405204
 31
0.0
  0
LINE
  5
1653
330
18
100
AcDbEntity
  8
1
  6
Continuous
100
AcDbLine
 10
243.9796827854176
 20
188.5256963730073
 30
0.0
 11
240.9796826429252
 21
188.5256963730073
 31
0.0
  0
LINE
  5
1654
330
18
100
AcDbEntity
  8
1
  6
Continuous
100
AcDbLine
 10
242.9796827379201
 20
188.5256963730073
 30
0.0
 11
242.9796827379201
 21
185.6790898640138
 31
0.0
  0
LINE
  5
1656
330
18
100
AcDbEntity
  8
1
  6
Continuous
100
AcDbLine
 10
253.4796832366434
 20
190.5256964680022
 30
0.0
 11
252.4796831891459
 21
190.5256964680022
 31
0.0
  0
LINE
  5
1657
330
18
100
AcDbEntity
  8
1
  6
Continuous
100
AcDbLine
 10
255.4461887413896
 20
184.0756961616436
 30
0.0
 11
255.1225672851027
 21
184.0756961616436
 31
0.0
  0
LINE
  5
1659
330
18
100
AcDbEntity
  8
1
  6
Continuous
100
AcDbLine
 10
255.1225672851027
 20
184.9756962043913
 30
0.0
 11
255.4461887413903
 21
184.9756962043914
 31
0.0
  0
LINE
  5
165D
330
18
100
AcDbEntity
  8
1
  6
Continuous
100
AcDbLine
 10
255.1402861671184
 20
186.5256962780124
 30
0.0
 11
255.1225672851027
 21
186.5256962780124
 31
0.0
  0
ARC
  5
1660
330
18
100
AcDbEntity
  8
1
  6
Continuous
100
AcDbCircle
 10
249.4171830410446
 20
184.5256961813249
 30
0.0
 40
6.062500291004218
100
AcDbArc
 50
19.26251830771031
 51
47.92497794157285
  0
ARC
  5
1661
330
18
100
AcDbEntity
  8
1
  6
Continuous
100
AcDbCircle
 10
249.4171830436692
 20
184.5256961830181
 30
0.0
 40
5.723103123449134
100
AcDbArc
 50
355.490253654637
 51
4.509746345350023
  0
ARC
  5
1667
330
18
100
AcDbEntity
  8
1
  6
Continuous
100
AcDbCircle
 10
262.4796836641204
 20
175.4256957507906
 30
0.0
 40
1.50000007124619
100
AcDbArc
 50
0.005231876738463
 51
90.0
  0
LINE
  5
1668
330
18
100
AcDbEntity
  8
1
  6
Continuous
100
AcDbLine
 10
320.4972373260551
 20
141.3832543844215
 30
0.0
 11
320.4972373260551
 21
177.1790894602851
 31
0.0
  0
LINE
  5
1669
330
18
100
AcDbEntity
  8
1
  6
Continuous
100
AcDbLine
 10
318.8972372500592
 20
177.1790894602854
 30
0.0
 11
318.8972372500592
 21
140.5256940931296
 31
0.0
  0
LINE
  5
166A
330
18
100
AcDbEntity
  8
1
  6
Continuous
100
AcDbLine
 10
316.3972371313156
 20
177.1790894602853
 30
0.0
 11
316.3972371313156
 21
140.5256940931295
 31
0.0
  0
LINE
  5
166B
330
18
100
AcDbEntity
  8
1
  6
Continuous
100
AcDbLine
 10
320.497237326055
 20
141.3832543844216
 30
0.0
 11
320.5001237888179
 21
141.2756941287524
 31
0.0
  0
LINE
  5
166C
330
18
100
AcDbEntity
  8
1
  6
Continuous
100
AcDbLine
 10
320.4972373260551
 20
141.278438820883
 30
0.0
 11
320.4972373260551
 21
141.3832543844215
 31
0.0
  0
ARC
  5
166D
330
18
100
AcDbEntity
  8
1
  6
Continuous
100
AcDbCircle
 10
316.8972371550643
 20
136.025693879391
 30
0.0
 40
2.000000105678779
100
AcDbArc
 50
179.9999999999996
 51
269.9999999999967
  0
ARC
  5
166E
330
18
100
AcDbEntity
  8
1
  6
Continuous
100
AcDbCircle
 10
321.3972373688028
 20
140.5256940931296
 30
0.0
 40
2.500000118743635
100
AcDbArc
 50
180.0000000000004
 51
270.0
  0
ARC
  5
166F
330
18
100
AcDbEntity
  8
1
  6
Continuous
100
AcDbCircle
 10
321.3972373688027
 20
140.5256940931295
 30
0.0
 40
5.000000237487201
100
AcDbArc
 50
180.0000000000004
 51
270.0
  0
LINE
  5
1670
330
18
100
AcDbEntity
  8
1
  6
Continuous
100
AcDbLine
 10
320.500123788818
 20
141.2756941287526
 30
0.0
 11
320.5224803261756
 21
141.1708785652082
 31
0.0
  0
LINE
  5
1675
330
18
100
AcDbEntity
  8
1
  6
Continuous
100
AcDbLine
 10
325.2389087518545
 20
174.6256957127927
 30
0.0
 11
321.9972373973013
 21
174.6256957127927
 31
0.0
  0
ARC
  5
1679
330
18
100
AcDbEntity
  8
1
  6
Continuous
100
AcDbCircle
 10
325.2389087518545
 20
176.1256957840387
 30
0.0
 40
1.500000071246004
100
AcDbArc
 50
270.0000000000032
 51
303.4328228551993
  0
ARC
  5
168E
330
18
100
AcDbEntity
  8
1
  6
Continuous
100
AcDbCircle
 10
249.4171830436872
 20
243.5256989853676
 30
0.0
 40
6.045776188560799
100
AcDbArc
 50
4.268594760942899
 51
19.31791516669647
  0
ARC
  5
168F
330
18
100
AcDbEntity
  8
1
  6
Continuous
100
AcDbCircle
 10
249.4171830436854
 20
243.525698985367
 30
0.0
 40
6.045776188562657
100
AcDbArc
 50
340.6820848333065
 51
355.7314052390549
  0
LINE
  5
1691
330
18
100
AcDbEntity
  8
1
  6
Continuous
100
AcDbLine
 10
253.4796832366434
 20
237.5256987003824
 30
0.0
 11
253.4796832366434
 21
249.5256992703518
 31
0.0
  0
ARC
  5
1692
330
18
100
AcDbEntity
  8
1
  6
Continuous
100
AcDbCircle
 10
249.4171830436698
 20
243.5256989853677
 30
0.0
 40
5.723103123448565
100
AcDbArc
 50
355.490253654637
 51
4.509746345350833
  0
LINE
  5
1695
330
18
100
AcDbEntity
  8
1
  6
Continuous
100
AcDbLine
 10
241.6796828529501
 20
240.9790923138461
 30
0.0
 11
243.9796827854176
 21
238.6790923813787
 31
0.0
  0
LINE
  5
1696
330
18
100
AcDbEntity
  8
1
  6
Continuous
100
AcDbLine
 10
242.9796827379201
 20
242.2790925523695
 30
0.0
 11
241.6796826761734
 21
240.9790924906229
 31
0.0
  0
LINE
  5
1697
330
18
100
AcDbEntity
  8
1
  6
Continuous
100
AcDbLine
 10
240.9796826429252
 20
239.5256987953773
 30
0.0
 11
243.133076371419
 21
239.5256987953773
 31
0.0
  0
LINE
  5
169A
330
18
100
AcDbEntity
  8
1
  6
Continuous
100
AcDbLine
 10
252.4796831891459
 20
237.5256987003824
 30
0.0
 11
253.4796832366434
 21
237.5256987003824
 31
0.0
  0
LINE
  5
169B
330
18
100
AcDbEntity
  8
1
  6
Continuous
100
AcDbLine
 10
255.44618874139
 20
243.0756989639932
 30
0.0
 11
255.1225672851027
 21
243.0756989639932
 31
0.0
  0
LINE
  5
169E
330
18
100
AcDbEntity
  8
1
  6
Continuous
100
AcDbLine
 10
255.1225672851027
 20
241.5256988903722
 30
0.0
 11
255.1402861671186
 21
241.5256988903722
 31
0.0
  0
ARC
  5
16A0
330
18
100
AcDbEntity
  8
1
  6
Continuous
100
AcDbCircle
 10
249.417183042831
 20
243.5256989859343
 30
0.0
 40
6.062500288946516
100
AcDbArc
 50
312.0750220532429
 51
340.7374816967607
  0
LINE
  5
16A4
330
18
100
AcDbEntity
  8
1
  6
Continuous
100
AcDbLine
 10
244.979682861765
 20
248.1790928326045
 30
0.0
 11
252.4796831891459
 21
248.1790928326047
 31
0.0
  0
ARC
  5
16A5
330
18
100
AcDbEntity
  8
1
  6
Continuous
100
AcDbCircle
 10
244.979682832915
 20
246.1790927376096
 30
0.0
 40
2.000000094994919
100
AcDbArc
 50
89.99999917350931
 51
180.0
  0
LINE
  5
16A6
330
18
100
AcDbEntity
  8
1
  6
Continuous
100
AcDbLine
 10
242.9796827379201
 20
247.6563770920261
 30
0.0
 11
243.631487255047
 21
247.6563770920238
 31
0.0
  0
LINE
  5
16A7
330
18
100
AcDbEntity
  8
1
  6
Continuous
100
AcDbLine
 10
253.4796832366434
 20
249.5256992703518
 30
0.0
 11
252.4796831891459
 21
249.5256992703518
 31
0.0
  0
LINE
  5
16A8
330
18
100
AcDbEntity
  8
1
  6
Continuous
100
AcDbLine
 10
255.1225672851027
 20
243.9756990067409
 30
0.0
 11
255.4461887413905
 21
243.975699006741
 31
0.0
  0
LINE
  5
16AA
330
18
100
AcDbEntity
  8
1
  6
Continuous
100
AcDbLine
 10
255.1402861671184
 20
245.525699080362
 30
0.0
 11
255.1225672851027
 21
245.525699080362
 31
0.0
  0
ARC
  5
16AC
330
18
100
AcDbEntity
  8
1
  6
Continuous
100
AcDbCircle
 10
249.4171830413774
 20
243.5256989838343
 30
0.0
 40
6.0625002906373
100
AcDbArc
 50
19.26251830732105
 51
47.92497794267585
  0
LINE
  5
16C1
330
18
100
AcDbEntity
  8
1
  6
Continuous
100
AcDbLine
 10
345.2972385039919
 20
177.1790894602851
 30
0.0
 11
345.2972385039919
 21
141.3832543844216
 31
0.0
  0
LINE
  5
16C2
330
18
100
AcDbEntity
  8
1
  6
Continuous
100
AcDbLine
 10
346.8972385799878
 20
177.1790894602854
 30
0.0
 11
346.8972385799878
 21
140.5256940931295
 31
0.0
  0
LINE
  5
16C3
330
18
100
AcDbEntity
  8
1
  6
Continuous
100
AcDbLine
 10
349.3972386987314
 20
177.1790894602851
 30
0.0
 11
349.3972386987314
 21
140.5256940931295
 31
0.0
  0
LINE
  5
16C6
330
18
100
AcDbEntity
  8
1
  6
Continuous
100
AcDbLine
 10
345.2943520412292
 20
141.2756941287524
 30
0.0
 11
345.2972385039919
 21
141.3832543844216
 31
0.0
  0
LINE
  5
16C7
330
18
100
AcDbEntity
  8
1
  6
Continuous
100
AcDbLine
 10
345.2972385039919
 20
141.3832543844215
 30
0.0
 11
345.2972385039919
 21
141.278438820883
 31
0.0
  0
ARC
  5
16C8
330
18
100
AcDbEntity
  8
1
  6
Continuous
100
AcDbCircle
 10
332.8972379150234
 20
144.7756942949937
 30
0.0
 40
11.25000053434634
100
AcDbArc
 50
252.853790001108
 51
287.1462099988919
  0
ARC
  5
16C9
330
18
100
AcDbEntity
  8
1
  6
Continuous
100
AcDbCircle
 10
348.8972386749827
 20
136.025693879391
 30
0.0
 40
2.000000094994475
100
AcDbArc
 50
270.0
 51
0.0000000000016284
  0
ARC
  5
16CA
330
18
100
AcDbEntity
  8
1
  6
Continuous
100
AcDbCircle
 10
344.3972384612443
 20
140.5256940931295
 30
0.0
 40
5.000000237487199
100
AcDbArc
 50
270.0
 51
359.9999999999996
  0
LINE
  5
16CB
330
18
100
AcDbEntity
  8
1
  6
Continuous
100
AcDbLine
 10
345.271995503872
 20
141.1708785652082
 30
0.0
 11
345.2943520412292
 21
141.2756941287526
 31
0.0
  0
ARC
  5
16CC
330
18
100
AcDbEntity
  8
1
  6
Continuous
100
AcDbCircle
 10
344.3972384612442
 20
140.5256940931296
 30
0.0
 40
2.500000118743655
100
AcDbArc
 50
270.0
 51
359.9999999999975
  0
LINE
  5
16D0
330
18
100
AcDbEntity
  8
1
  6
Continuous
100
AcDbLine
 10
343.7972384327456
 20
174.6256957127927
 30
0.0
 11
340.5555670781926
 21
174.6256957127927
 31
0.0
  0
LINE
  5
16D2
330
18
100
AcDbEntity
  8
1
  6
Continuous
100
AcDbLine
 10
333.8972379625212
 20
176.8853074645028
 30
0.0
 11
333.8972379625209
 21
177.1790894602855
 31
0.0
  0
LINE
  5
16D3
330
18
100
AcDbEntity
  8
1
  6
Continuous
100
AcDbLine
 10
331.897237867526
 20
177.1790894602855
 30
0.0
 11
331.897237867526
 21
176.8853074645006
 31
0.0
  0
ARC
  5
16D4
330
18
100
AcDbEntity
  8
1
  6
Continuous
100
AcDbCircle
 10
340.5555670781927
 20
176.125695784039
 30
0.0
 40
1.500000071246349
100
AcDbArc
 50
236.5671771448002
 51
269.9999999999967
  0
LINE
  5
16E4
330
18
100
AcDbEntity
  8
1
  6
Continuous
100
AcDbLine
 10
315.3972370838181
 20
177.1790894602851
 30
0.0
 11
350.3972387462289
 21
177.1790894602851
 31
0.0
  0
LINE
  5
16E5
330
18
100
AcDbEntity
  8
1
  6
Continuous
100
AcDbLine
 10
343.7972384327456
 20
174.6251943360654
 30
0.0
 11
343.7972384327456
 21
174.6256957127927
 31
0.0
  0
ARC
  5
16E7
330
18
100
AcDbEntity
  8
1
  6
Continuous
100
AcDbCircle
 10
343.7972384327456
 20
173.1256956415465
 30
0.0
 40
1.500000071246182
100
AcDbArc
 50
0.0000000000024427
 51
90.0
  0
LINE
  5
16F0
330
18
100
AcDbEntity
  8
1
  6
Continuous
100
AcDbLine
 10
333.3472379363974
 20
243.0756989639932
 30
0.0
 11
334.8972380100183
 21
243.0756989639932
 31
0.0
  0
LINE
  5
16F1
330
18
100
AcDbEntity
  8
1
  6
Continuous
100
AcDbLine
 10
333.3472379363974
 20
243.9756990067409
 30
0.0
 11
334.8972380100183
 21
243.9756990067409
 31
0.0
  0
LINE
  5
16F2
330
18
100
AcDbEntity
  8
1
  6
Continuous
100
AcDbLine
 10
333.3472379363974
 20
243.9756990067408
 30
0.0
 11
333.3472379363974
 21
245.5256990803618
 31
0.0
  0
LINE
  5
16F3
330
18
100
AcDbEntity
  8
1
  6
Continuous
100
AcDbLine
 10
332.4472378936496
 20
245.525699080362
 30
0.0
 11
333.3472379363974
 21
245.525699080362
 31
0.0
  0
LINE
  5
16F4
330
18
100
AcDbEntity
  8
1
  6
Continuous
100
AcDbLine
 10
333.3472379363974
 20
241.5256988903721
 30
0.0
 11
332.4472378936496
 21
241.5256988903721
 31
0.0
  0
LINE
  5
16F5
330
18
100
AcDbEntity
  8
1
  6
Continuous
100
AcDbLine
 10
333.3472379363974
 20
241.5256988903723
 30
0.0
 11
333.3472379363974
 21
243.0756989639932
 31
0.0
  0
LINE
  5
16F8
330
18
100
AcDbEntity
  8
1
  6
Continuous
100
AcDbLine
 10
332.4472378936496
 20
243.9756990067408
 30
0.0
 11
332.4472378936496
 21
245.525699080362
 31
0.0
  0
LINE
  5
16F9
330
18
100
AcDbEntity
  8
1
  6
Continuous
100
AcDbLine
 10
330.8972378200287
 20
243.9756990067409
 30
0.0
 11
332.4472378936496
 21
243.9756990067409
 31
0.0
  0
LINE
  5
16FA
330
18
100
AcDbEntity
  8
1
  6
Continuous
100
AcDbLine
 10
330.8972378200286
 20
243.0756989639933
 30
0.0
 11
330.8972378200286
 21
243.9756990067408
 31
0.0
  0
LINE
  5
16FB
330
18
100
AcDbEntity
  8
1
  6
Continuous
100
AcDbLine
 10
330.8972378200287
 20
243.0756989639932
 30
0.0
 11
332.4472378936496
 21
243.0756989639932
 31
0.0
  0
LINE
  5
16FC
330
18
100
AcDbEntity
  8
1
  6
Continuous
100
AcDbLine
 10
332.4472378936496
 20
241.5256988903721
 30
0.0
 11
332.4472378936496
 21
243.0756989639932
 31
0.0
  0
LINE
  5
16FD
330
18
100
AcDbEntity
  8
1
  6
Continuous
100
AcDbLine
 10
334.8972380100184
 20
243.0756989639933
 30
0.0
 11
334.8972380100184
 21
243.9756990067408
 31
0.0
  0
LINE
  5
17A6
330
18
100
AcDbEntity
  8
1
  6
Continuous
100
AcDbLine
 10
132.8164962581737
 20
289.0620505601546
 30
0.0
 11
136.5841066663675
 21
267.963060182895
 31
0.0
  0
ARC
  5
17B0
330
18
100
AcDbEntity
  8
1
  6
Continuous
100
AcDbCircle
 10
150.2927385161216
 20
264.0202205335518
 30
0.0
 40
11.50548120229368
100
AcDbArc
 50
0.0220212643365369
 51
179.9727131906831
  0
LINE
  5
17B2
330
18
100
AcDbEntity
  8
1
  6
Continuous
100
AcDbLine
 10
139.5234853596277
 20
264.0256999590649
 30
0.0
 11
141.6200381484907
 21
264.0256999590649
 31
0.0
  0
ARC
  5
17B8
330
18
100
AcDbEntity
  8
1
  6
Continuous
100
AcDbCircle
 10
150.3448494974451
 20
264.0370460154812
 30
0.0
 40
11.55759644804127
100
AcDbArc
 50
180.0562471055614
 51
192.8598891452645
  0
ARC
  5
17C0
330
18
100
AcDbEntity
  8
1
  6
Continuous
100
AcDbCircle
 10
150.2874068056311
 20
264.025485622754
 30
0.0
 40
8.294941972447297
100
AcDbArc
 50
20.84923337979345
 51
159.1192819868494
  0
LINE
  5
17D0
330
18
100
AcDbEntity
  8
1
  6
Continuous
100
AcDbLine
 10
134.287314906647
 20
294.0257013839886
 30
0.0
 11
166.2873149024241
 21
294.0257013839886
 31
0.0
  0
LINE
  5
17E1
330
18
100
AcDbEntity
  8
1
  6
Continuous
100
AcDbLine
 10
168.2876250019508
 20
361.4238966795367
 30
0.0
 11
168.0262850533195
 21
358.4346750461094
 31
0.0
  0
LINE
  5
17F9
330
18
100
AcDbEntity
  8
1
  6
Continuous
100
AcDbLine
 10
142.2376674055655
 20
350.1738963269288
 30
0.0
 11
158.3375825985069
 21
350.1738963269288
 31
0.0
  0
LINE
  5
17FA
330
18
100
AcDbEntity
  8
1
  6
Continuous
100
AcDbLine
 10
158.037624515102
 20
350.2238961460752
 30
0.0
 11
142.5376254887996
 21
350.2238961460752
 31
0.0
  0
LINE
  5
1800
330
18
100
AcDbEntity
  8
1
  6
Continuous
100
AcDbLine
 10
161.4975747302976
 20
351.837297428256
 30
0.0
 11
161.3940475063074
 21
352.4244294915066
 31
0.0
  0
ARC
  5
1801
330
18
100
AcDbEntity
  8
1
  6
Continuous
100
AcDbCircle
 10
150.2876241469965
 20
357.8238965070558
 30
0.0
 40
11.25000053434644
100
AcDbArc
 50
320.3915843666067
 51
331.300234936419
  0
ARC
  5
1802
330
18
100
AcDbEntity
  8
1
  6
Continuous
100
AcDbCircle
 10
150.2876241469969
 20
357.8238965070557
 30
0.0
 40
11.3050510103981
100
AcDbArc
 50
320.9731804133876
 51
331.4459123567111
  0
LINE
  5
1803
330
18
100
AcDbEntity
  8
1
  6
Continuous
100
AcDbLine
 10
158.6376245436004
 20
350.4738963382535
 30
0.0
 11
158.6376245436004
 21
350.5036798620634
 31
0.0
  0
ARC
  5
1804
330
18
100
AcDbEntity
  8
1
  6
Continuous
100
AcDbCircle
 10
158.3376245293511
 20
350.4738963382535
 30
0.0
 40
0.3000000142492325
100
AcDbArc
 50
269.9919917989983
 51
0.0000000000008142
  0
LINE
  5
1805
330
18
100
AcDbEntity
  8
1
  6
Continuous
100
AcDbLine
 10
161.4975747302976
 20
351.837297428256
 30
0.0
 11
158.037624515102
 21
350.2238961460752
 31
0.0
  0
LINE
  5
1808
330
18
100
AcDbEntity
  8
1
  6
Continuous
100
AcDbLine
 10
167.9341746875118
 20
357.9997561597175
 30
0.0
 11
163.2876261088615
 21
352.4238978653372
 31
0.0
  0
LINE
  5
1809
330
18
100
AcDbEntity
  8
1
  6
Continuous
100
AcDbLine
 10
163.2880455415601
 20
352.4238962520596
 30
0.0
 11
137.2876252394381
 21
352.4238962520596
 31
0.0
  0
LINE
  5
180E
330
18
100
AcDbEntity
  8
1
  6
Continuous
100
AcDbLine
 10
168.0053038729615
 20
358.1969514090149
 30
0.0
 11
168.0023441821566
 21
358.1631219883145
 31
0.0
  0
ARC
  5
1812
330
18
100
AcDbEntity
  8
1
  6
Continuous
100
AcDbCircle
 10
167.7054577477286
 20
358.1913271601034
 30
0.0
 40
0.2982232161704036
100
AcDbArc
 50
320.050885755687
 51
354.573003790143
  0
LINE
  5
181B
330
18
100
AcDbEntity
  8
1
  6
Continuous
100
AcDbLine
 10
157.0376244676043
 20
384.7738981700718
 30
0.0
 11
155.8126244094201
 21
385.7738982175693
 31
0.0
  0
LINE
  5
1820
330
18
100
AcDbEntity
  8
1
  6
Continuous
100
AcDbLine
 10
132.2876250019508
 20
361.4238966795367
 30
0.0
 11
168.2876250019508
 21
361.4238966795367
 31
0.0
  0
LINE
  5
1821
330
18
100
AcDbEntity
  8
1
  6
Continuous
100
AcDbLine
 10
162.6623817358451
 20
365.4238968695265
 30
0.0
 11
137.8876235580283
 21
365.4238968695265
 31
0.0
  0
LINE
  5
1822
330
18
100
AcDbEntity
  8
1
  6
Continuous
100
AcDbLine
 10
155.0328989337121
 20
376.1238973777441
 30
0.0
 11
162.6876247359651
 21
376.1238973777442
 31
0.0
  0
LINE
  5
1835
330
18
100
AcDbEntity
  8
1
  6
Continuous
100
AcDbLine
 10
138.3875818511944
 20
379.6238983051884
 30
0.0
 11
162.1876664428051
 21
379.6238983051884
 31
0.0
  0
LINE
  5
183A
330
18
100
AcDbEntity
  8
1
  6
Continuous
100
AcDbLine
 10
137.8876235580283
 20
377.6238982119349
 30
0.0
 11
138.8315173997208
 21
377.6238982119349
 31
0.0
  0
LINE
  5
183C
330
18
100
AcDbEntity
  8
1
  6
Continuous
100
AcDbLine
 10
138.8315173997208
 20
377.6238982119349
 30
0.0
 11
138.8315173997209
 21
376.1238973777494
 31
0.0
  0
LINE
  5
183F
330
18
100
AcDbEntity
  8
1
  6
Continuous
100
AcDbLine
 10
137.8876235580283
 20
376.1238973777494
 30
0.0
 11
145.5423493602814
 21
376.1238973777494
 31
0.0
  0
LINE
  5
184A
330
18
100
AcDbEntity
  8
1
  6
Continuous
100
AcDbLine
 10
153.2036242854993
 20
382.9238973192622
 30
0.0
 11
153.2036242854993
 21
379.6238981521359
 31
0.0
  0
LINE
  5
184B
330
18
100
AcDbEntity
  8
1
  6
Continuous
100
AcDbLine
 10
147.3716240084941
 20
382.9238973192622
 30
0.0
 11
147.3716240084941
 21
379.6238983051884
 31
0.0
  0
LINE
  5
184C
330
18
100
AcDbEntity
  8
1
  6
Continuous
100
AcDbLine
 10
154.2875453552488
 20
383.4238973430109
 30
0.0
 11
154.2875453552488
 21
379.6238981521359
 31
0.0
  0
LINE
  5
184D
330
18
100
AcDbEntity
  8
1
  6
Continuous
100
AcDbLine
 10
146.2880580118276
 20
383.4238973430109
 30
0.0
 11
146.2880580118276
 21
379.6238983051884
 31
0.0
  0
LINE
  5
184F
330
18
100
AcDbEntity
  8
1
  6
Continuous
100
AcDbLine
 10
145.5423493602812
 20
377.6238974489953
 30
0.0
 11
162.6876247359651
 21
377.6238974489953
 31
0.0
  0
LINE
  5
1850
330
18
100
AcDbEntity
  8
1
  6
Continuous
100
AcDbLine
 10
145.5423493602815
 20
377.6238982119349
 30
0.0
 11
145.5423493602815
 21
376.1238973777495
 31
0.0
  0
LINE
  5
1853
330
18
100
AcDbEntity
  8
1
  6
Continuous
100
AcDbLine
 10
155.0328989337121
 20
376.1238973777467
 30
0.0
 11
155.0328989337121
 21
377.6238974489953
 31
0.0
  0
LINE
  5
1854
330
18
100
AcDbEntity
  8
1
  6
Continuous
100
AcDbLine
 10
154.2875453552488
 20
383.4238973430109
 30
0.0
 11
146.2880580118276
 21
383.4238973430109
 31
0.0
  0
LINE
  5
1855
330
18
100
AcDbEntity
  8
1
  6
Continuous
100
AcDbLine
 10
157.0376244676045
 20
384.7738981700718
 30
0.0
 11
143.5376238263911
 21
384.7738981700718
 31
0.0
  0
LINE
  5
1856
330
18
100
AcDbEntity
  8
1
  6
Continuous
100
AcDbLine
 10
155.8126244094201
 20
385.7738982175693
 30
0.0
 11
144.7626238845763
 21
385.7738982175693
 31
0.0
  0
LINE
  5
1858
330
18
100
AcDbEntity
  8
1
  6
Continuous
100
AcDbLine
 10
156.7376243578362
 20
383.6238981154497
 30
0.0
 11
143.8376239182471
 21
383.6238981154498
 31
0.0
  0
LINE
  5
185B
330
18
100
AcDbEntity
  8
1
  6
Continuous
100
AcDbLine
 10
147.371624008494
 20
382.9238973192608
 30
0.0
 11
146.2880580118276
 21
382.9238973192608
 31
0.0
  0
LINE
  5
1860
330
18
100
AcDbEntity
  8
1
  6
Continuous
100
AcDbLine
 10
143.5376238263889
 20
384.7738981700718
 30
0.0
 11
143.5376238263889
 21
384.0738981368236
 31
0.0
  0
LINE
  5
1861
330
18
100
AcDbEntity
  8
1
  6
Continuous
100
AcDbLine
 10
144.7626238845732
 20
385.7738982175693
 30
0.0
 11
143.5376238263889
 21
384.7738981700718
 31
0.0
  0
LINE
  5
186A
330
18
100
AcDbEntity
  8
1
  6
Continuous
100
AcDbLine
 10
148.0815941504349
 20
383.7738981226041
 30
0.0
 11
148.0815941504349
 21
383.6238981154498
 31
0.0
  0
LINE
  5
186B
330
18
100
AcDbEntity
  8
1
  6
Continuous
100
AcDbLine
 10
147.0626240415764
 20
383.7738981226041
 30
0.0
 11
147.0626240415764
 21
383.6238981154498
 31
0.0
  0
LINE
  5
186D
330
18
100
AcDbEntity
  8
1
  6
Continuous
100
AcDbLine
 10
146.1416439289935
 20
383.7738981226063
 30
0.0
 11
146.1416439289935
 21
383.6238981154498
 31
0.0
  0
LINE
  5
1878
330
18
100
AcDbEntity
  8
1
  6
Continuous
100
AcDbLine
 10
145.3466373273662
 20
383.7738981226063
 30
0.0
 11
145.3466373273662
 21
383.6238981154498
 31
0.0
  0
LINE
  5
1879
330
18
100
AcDbEntity
  8
1
  6
Continuous
100
AcDbLine
 10
144.7017601099945
 20
383.7738981226069
 30
0.0
 11
144.7017601099945
 21
383.6238981154498
 31
0.0
  0
LINE
  5
187B
330
18
100
AcDbEntity
  8
1
  6
Continuous
100
AcDbLine
 10
147.2876240045043
 20
383.6238981154498
 30
0.0
 11
147.2876240045043
 21
383.4238973430109
 31
0.0
  0
LINE
  5
187C
330
18
100
AcDbEntity
  8
1
  6
Continuous
100
AcDbLine
 10
143.9356139324315
 20
383.773898122607
 30
0.0
 11
143.9356139324315
 21
383.6238981154498
 31
0.0
  0
LINE
  5
187D
330
18
100
AcDbEntity
  8
1
  6
Continuous
100
AcDbLine
 10
144.2266065448029
 20
383.7738981226069
 30
0.0
 11
144.2266065448029
 21
383.6238981154498
 31
0.0
  0
LINE
  5
1881
330
18
100
AcDbEntity
  8
1
  6
Continuous
100
AcDbLine
 10
143.8376239182471
 20
383.773898122607
 30
0.0
 11
143.8376239182471
 21
383.6238981154498
 31
0.0
  0
ARC
  5
1882
330
18
100
AcDbEntity
  8
1
  6
Continuous
100
AcDbCircle
 10
143.8376238406381
 20
384.0738981368236
 30
0.0
 40
0.3000000142492368
100
AcDbArc
 50
180.0000000000024
 51
270.0
  0
LINE
  5
1886
330
18
100
AcDbEntity
  8
1
  6
Continuous
100
AcDbLine
 10
139.3876235580283
 20
384.423897751899
 30
0.0
 11
143.5376238263889
 21
384.423897751899
 31
0.0
  0
LINE
  5
1889
330
18
100
AcDbEntity
  8
1
  6
Continuous
100
AcDbLine
 10
154.2875453552489
 20
382.9238973192611
 30
0.0
 11
153.2036242854993
 21
382.9238973192611
 31
0.0
  0
LINE
  5
1892
330
18
100
AcDbEntity
  8
1
  6
Continuous
100
AcDbLine
 10
156.7376244533552
 20
383.7738981226682
 30
0.0
 11
143.8376238406381
 21
383.7738981226682
 31
0.0
  0
LINE
  5
1893
330
18
100
AcDbEntity
  8
1
  6
Continuous
100
AcDbLine
 10
151.4076549295603
 20
383.7738981226046
 30
0.0
 11
151.4076549295603
 21
383.6238981154498
 31
0.0
  0
LINE
  5
1895
330
18
100
AcDbEntity
  8
1
  6
Continuous
100
AcDbLine
 10
150.2876241469967
 20
383.7738981225744
 30
0.0
 11
150.2876241469967
 21
383.6238981154498
 31
0.0
  0
LINE
  5
1896
330
18
100
AcDbEntity
  8
1
  6
Continuous
100
AcDbLine
 10
149.5930314033376
 20
383.7738981225744
 30
0.0
 11
149.5930314033375
 21
383.6238981154498
 31
0.0
  0
LINE
  5
1898
330
18
100
AcDbEntity
  8
1
  6
Continuous
100
AcDbLine
 10
149.167593364433
 20
383.7738981225744
 30
0.0
 11
149.167593364433
 21
383.6238981154498
 31
0.0
  0
LINE
  5
1899
330
18
100
AcDbEntity
  8
1
  6
Continuous
100
AcDbLine
 10
153.5126242524169
 20
383.7738981226063
 30
0.0
 11
153.5126242524169
 21
383.6238981154498
 31
0.0
  0
LINE
  5
189B
330
18
100
AcDbEntity
  8
1
  6
Continuous
100
AcDbLine
 10
152.4936541435584
 20
383.7738981226046
 30
0.0
 11
152.4936541435584
 21
383.6238981154498
 31
0.0
  0
LINE
  5
189D
330
18
100
AcDbEntity
  8
1
  6
Continuous
100
AcDbLine
 10
151.65570478528
 20
383.7738981225744
 30
0.0
 11
151.65570478528
 21
383.6238981154498
 31
0.0
  0
LINE
  5
18A1
330
18
100
AcDbEntity
  8
1
  6
Continuous
100
AcDbLine
 10
155.2286109666269
 20
383.7738981226042
 30
0.0
 11
155.2286109666269
 21
383.6238981154498
 31
0.0
  0
LINE
  5
18A3
330
18
100
AcDbEntity
  8
1
  6
Continuous
100
AcDbLine
 10
154.4336043649998
 20
383.7738981226063
 30
0.0
 11
154.4336043649998
 21
383.6238981154498
 31
0.0
  0
LINE
  5
18A9
330
18
100
AcDbEntity
  8
1
  6
Continuous
100
AcDbLine
 10
151.337624196869
 20
389.2738983838104
 30
0.0
 11
155.2352741126881
 21
389.2738983838104
 31
0.0
  0
LINE
  5
18AA
330
18
100
AcDbEntity
  8
1
  6
Continuous
100
AcDbLine
 10
153.0501242782082
 20
388.7738983600617
 30
0.0
 11
153.0501242782084
 21
385.7738982175693
 31
0.0
  0
LINE
  5
18AB
330
18
100
AcDbEntity
  8
1
  6
Continuous
100
AcDbLine
 10
155.8126244094202
 20
388.7738983600617
 30
0.0
 11
155.8126244094202
 21
385.7738982175693
 31
0.0
  0
LINE
  5
18AD
330
18
100
AcDbEntity
  8
1
  6
Continuous
100
AcDbLine
 10
151.0376241826197
 20
388.9738983695611
 30
0.0
 11
151.0376241826197
 21
386.7738982650669
 31
0.0
  0
LINE
  5
18B0
330
18
100
AcDbEntity
  8
1
  6
Continuous
100
AcDbLine
 10
151.0376241826197
 20
386.7738982650669
 30
0.0
 11
149.5376241113736
 21
386.7738982650669
 31
0.0
  0
LINE
  5
18B6
330
18
100
AcDbEntity
  8
1
  6
Continuous
100
AcDbLine
 10
155.8734881839988
 20
383.7738981226042
 30
0.0
 11
155.8734881839988
 21
383.6238981154498
 31
0.0
  0
LINE
  5
18B8
330
18
100
AcDbEntity
  8
1
  6
Continuous
100
AcDbLine
 10
153.287624289489
 20
383.4238973430108
 30
0.0
 11
153.287624289489
 21
383.6238981154498
 31
0.0
  0
ARC
  5
18BA
330
18
100
AcDbEntity
  8
1
  6
Continuous
100
AcDbCircle
 10
151.337624196869
 20
388.9738983695611
 30
0.0
 40
0.3000000142492389
100
AcDbArc
 50
90.0
 51
180.0
  0
LINE
  5
18C6
330
18
100
AcDbEntity
  8
1
  6
Continuous
100
AcDbLine
 10
162.6623817358451
 20
365.4238968695265
 30
0.0
 11
162.6847382732023
 21
363.4238967745316
 31
0.0
  0
LINE
  5
18C7
330
18
100
AcDbEntity
  8
1
  6
Continuous
100
AcDbLine
 10
162.6847382732023
 20
363.4238967745316
 30
0.0
 11
162.6876247359651
 21
363.4238967745316
 31
0.0
  0
LINE
  5
18C8
330
18
100
AcDbEntity
  8
1
  6
Continuous
100
AcDbLine
 10
167.7876249782021
 20
363.4238967745316
 30
0.0
 11
165.7876248832072
 21
363.4238967745316
 31
0.0
  0
LINE
  5
18CB
330
18
100
AcDbEntity
  8
1
  6
Continuous
100
AcDbLine
 10
167.7876249782021
 20
362.1238967127849
 30
0.0
 11
165.7876248832072
 21
362.1238967127849
 31
0.0
  0
LINE
  5
18CC
330
18
100
AcDbEntity
  8
1
  6
Continuous
100
AcDbLine
 10
165.7876248832072
 20
368.9507985827424
 30
0.0
 11
165.7876248832072
 21
362.1238967127849
 31
0.0
  0
LINE
  5
18CD
330
18
100
AcDbEntity
  8
1
  6
Continuous
100
AcDbLine
 10
167.7876249782021
 20
368.9507985827424
 30
0.0
 11
167.7876249782021
 21
362.1238967127849
 31
0.0
  0
ARC
  5
18CF
330
18
100
AcDbEntity
  8
1
  6
Continuous
100
AcDbCircle
 10
150.2876241469967
 20
261.4061362651481
 30
0.0
 40
109.5177608656143
100
AcDbArc
 50
82.32124717730885
 51
83.49882153228596
  0
ARC
  5
18D0
330
18
100
AcDbEntity
  8
1
  6
Continuous
100
AcDbCircle
 10
150.2876241469967
 20
261.4061362651486
 30
0.0
 40
111.5177609606086
100
AcDbArc
 50
82.32124717730556
 51
83.61590544638648
  0
ARC
  5
18D1
330
18
100
AcDbEntity
  8
1
  6
Continuous
100
AcDbCircle
 10
164.7876248357097
 20
368.9507985827424
 30
0.0
 40
1.000000047497451
100
AcDbArc
 50
0.0
 51
82.32124717743038
  0
ARC
  5
18D2
330
18
100
AcDbEntity
  8
1
  6
Continuous
100
AcDbCircle
 10
164.7876248357097
 20
368.9507985827424
 30
0.0
 40
3.000000142492371
100
AcDbArc
 50
0.0
 51
82.32124717723982
  0
LINE
  5
18D3
330
18
100
AcDbEntity
  8
1
  6
Continuous
100
AcDbLine
 10
162.6876247359651
 20
382.9238977007319
 30
0.0
 11
162.6876247359651
 21
361.4238966795367
 31
0.0
  0
LINE
  5
18D5
330
18
100
AcDbEntity
  8
1
  6
Continuous
100
AcDbLine
 10
161.7437308942725
 20
377.6238982119349
 30
0.0
 11
161.7437308942725
 21
376.1238973777441
 31
0.0
  0
ARC
  5
18D6
330
18
100
AcDbEntity
  8
1
  6
Continuous
100
AcDbCircle
 10
162.1876247122163
 20
379.1238982831812
 30
0.0
 40
0.5000000237487347
100
AcDbArc
 50
0.0000000000040711
 51
89.99521802699218
  0
LINE
  5
18D7
330
18
100
AcDbEntity
  8
1
  6
Continuous
100
AcDbLine
 10
160.2876246219712
 20
376.1238973777492
 30
0.0
 11
160.2876246219712
 21
377.6238974489956
 31
0.0
  0
LINE
  5
18D9
330
18
100
AcDbEntity
  8
1
  6
Continuous
100
AcDbLine
 10
157.0376244676045
 20
384.0738981368236
 30
0.0
 11
157.0376244676045
 21
384.7738981700718
 31
0.0
  0
LINE
  5
18DC
330
18
100
AcDbEntity
  8
1
  6
Continuous
100
AcDbLine
 10
156.3486417491905
 20
383.7738981226046
 30
0.0
 11
156.3486417491905
 21
383.6238981154498
 31
0.0
  0
LINE
  5
18DD
330
18
100
AcDbEntity
  8
1
  6
Continuous
100
AcDbLine
 10
156.7376243578362
 20
383.7738981226057
 30
0.0
 11
156.7376243578362
 21
383.6238981154497
 31
0.0
  0
LINE
  5
18DF
330
18
100
AcDbEntity
  8
1
  6
Continuous
100
AcDbLine
 10
156.6396343615619
 20
383.7738981226046
 30
0.0
 11
156.6396343615619
 21
383.6238981154498
 31
0.0
  0
ARC
  5
18E1
330
18
100
AcDbEntity
  8
1
  6
Continuous
100
AcDbCircle
 10
156.7376244533552
 20
384.0738981368236
 30
0.0
 40
0.3000000142492368
100
AcDbArc
 50
270.0
 51
359.9999999999971
  0
LINE
  5
18E3
330
18
100
AcDbEntity
  8
1
  6
Continuous
100
AcDbLine
 10
157.0376244676045
 20
384.4238977719781
 30
0.0
 11
161.1876246647189
 21
384.4238977719781
 31
0.0
  0
ARC
  5
18E6
330
18
100
AcDbEntity
  8
1
  6
Continuous
100
AcDbCircle
 10
161.1876246647189
 20
382.9238977007321
 30
0.0
 40
1.50000007124612
100
AcDbArc
 50
359.9999999999956
 51
90.00000000000216
  0
LINE
  5
18E9
330
18
100
AcDbEntity
  8
1
  6
Continuous
100
AcDbLine
 10
315.3972370838181
 20
248.1790928326044
 30
0.0
 11
329.1096358870498
 21
248.1790928326044
 31
0.0
  0
LINE
  5
18EE
330
18
100
AcDbEntity
  8
1
  6
Continuous
100
AcDbLine
 10
320.5224803261745
 20
286.8805166031803
 30
0.0
 11
345.2719955038712
 21
286.8805166031803
 31
0.0
  0
LINE
  5
18EF
330
18
100
AcDbEntity
  8
1
  6
Continuous
100
AcDbLine
 10
320.50012378882
 20
286.7757010396319
 30
0.0
 11
345.2943520412269
 21
286.7757010396319
 31
0.0
  0
LINE
  5
18F1
330
18
100
AcDbEntity
  8
1
  6
Continuous
100
AcDbLine
 10
322.49723742105
 20
288.775701134627
 30
0.0
 11
343.2972384089971
 21
288.775701134627
 31
0.0
  0
LINE
  5
18F2
330
18
100
AcDbEntity
  8
1
  6
Continuous
100
AcDbLine
 10
344.3972384612442
 20
290.0257011939986
 30
0.0
 11
321.3972373688028
 21
290.0257011939986
 31
0.0
  0
LINE
  5
18F3
330
18
100
AcDbEntity
  8
1
  6
Continuous
100
AcDbLine
 10
321.3972373688028
 20
292.5257013127421
 30
0.0
 11
344.3972384612442
 21
292.5257013127421
 31
0.0
  0
LINE
  5
18F4
330
18
100
AcDbEntity
  8
1
  6
Continuous
100
AcDbLine
 10
348.8972386749827
 20
294.0257013839886
 30
0.0
 11
316.8972371550643
 21
294.0257013839886
 31
0.0
  0
LINE
  5
18F6
330
18
100
AcDbEntity
  8
1
  6
Continuous
100
AcDbLine
 10
237.8152264709676
 20
293.559742633837
 30
0.0
 11
231.9796822139407
 21
277.025700572264
 31
0.0
  0
LINE
  5
18FB
330
18
100
AcDbEntity
  8
1
  6
Continuous
100
AcDbLine
 10
231.9760019682555
 20
264.0256999590649
 30
0.0
 11
230.2073891219486
 21
264.0256999590649
 31
0.0
  0
ARC
  5
1900
330
18
100
AcDbEntity
  8
1
  6
Continuous
100
AcDbCircle
 10
237.2937276440593
 20
264.1700891038172
 30
0.0
 40
11.08195645236686
100
AcDbArc
 50
118.6738253678637
 51
120.1592445726693
  0
ARC
  5
1901
330
18
100
AcDbEntity
  8
1
  6
Continuous
100
AcDbCircle
 10
237.3796823649436
 20
264.0257000850247
 30
0.0
 40
11.25000037020349
100
AcDbArc
 50
120.1640066866069
 51
132.4973071913071
  0
LINE
  5
1905
330
18
100
AcDbEntity
  8
1
  6
Continuous
100
AcDbLine
 10
264.3296841334604
 20
257.2756996384571
 30
0.0
 11
264.3296841334604
 21
270.7757002796727
 31
0.0
  0
LINE
  5
190B
330
18
100
AcDbEntity
  8
1
  6
Continuous
100
AcDbLine
 10
259.1796841155244
 20
275.9260939629322
 30
0.0
 11
259.1796841155244
 21
252.1260928324751
 31
0.0
  0
LINE
  5
190E
330
18
100
AcDbEntity
  8
1
  6
Continuous
100
AcDbLine
 10
245.9796828804125
 20
251.6256993700965
 30
0.0
 11
258.6796842465696
 21
251.6256993700965
 31
0.0
  0
LINE
  5
190F
330
18
100
AcDbEntity
  8
1
  6
Continuous
100
AcDbLine
 10
242.9796827379201
 20
251.6660877276305
 30
0.0
 11
245.9796828804125
 21
251.6660877276305
 31
0.0
  0
LINE
  5
1910
330
18
100
AcDbEntity
  8
1
  6
Continuous
100
AcDbLine
 10
265.3296841809579
 20
258.5006996966415
 30
0.0
 11
265.3296841809579
 21
269.5507002214883
 31
0.0
  0
LINE
  5
1912
330
18
100
AcDbEntity
  8
1
  6
Continuous
100
AcDbLine
 10
265.5296841904573
 20
269.5507002214883
 30
0.0
 11
265.5296841904573
 21
258.5006996966415
 31
0.0
  0
LINE
  5
1916
330
18
100
AcDbEntity
  8
1
  6
Continuous
100
AcDbLine
 10
255.6796833411326
 20
275.4818067063407
 30
0.0
 11
255.6796833411326
 21
252.569593211789
 31
0.0
  0
LINE
  5
1918
330
18
100
AcDbEntity
  8
1
  6
Continuous
100
AcDbLine
 10
257.1796841753234
 20
252.5695932117889
 30
0.0
 11
255.6796833411326
 21
252.5695932117889
 31
0.0
  0
LINE
  5
191A
330
18
100
AcDbEntity
  8
1
  6
Continuous
100
AcDbLine
 10
257.1796841753234
 20
252.5695932117889
 30
0.0
 11
257.1796841753234
 21
251.6256993700965
 31
0.0
  0
ARC
  5
191B
330
18
100
AcDbEntity
  8
1
  6
Continuous
100
AcDbCircle
 10
258.6796842465696
 20
252.1256993938452
 30
0.0
 40
0.5000000237487347
100
AcDbArc
 50
270.0000000000032
 51
0.0450847485038396
  0
LINE
  5
191D
330
18
100
AcDbEntity
  8
1
  6
Continuous
100
AcDbLine
 10
257.1796834123838
 20
252.569593211789
 30
0.0
 11
257.1796834123838
 21
251.6256993700965
 31
0.0
  0
LINE
  5
191E
330
18
100
AcDbEntity
  8
1
  6
Continuous
100
AcDbLine
 10
263.6296841002121
 20
257.2756996384571
 30
0.0
 11
264.3296841334604
 21
257.2756996384571
 31
0.0
  0
LINE
  5
1920
330
18
100
AcDbEntity
  8
1
  6
Continuous
100
AcDbLine
 10
264.3296841334604
 20
257.2756996384571
 30
0.0
 11
265.3296841809579
 21
258.5006996966415
 31
0.0
  0
LINE
  5
1924
330
18
100
AcDbEntity
  8
1
  6
Continuous
100
AcDbLine
 10
265.3296841809579
 20
258.5006996966415
 30
0.0
 11
265.5296841904573
 21
258.5006996966415
 31
0.0
  0
LINE
  5
1925
330
18
100
AcDbEntity
  8
1
  6
Continuous
100
AcDbLine
 10
263.3296840859927
 20
258.4398359220624
 30
0.0
 11
263.1796840788383
 21
258.4398359220624
 31
0.0
  0
LINE
  5
1926
330
18
100
AcDbEntity
  8
1
  6
Continuous
100
AcDbLine
 10
263.3296840859951
 20
257.6736897444996
 30
0.0
 11
263.1796840788383
 21
257.6736897444996
 31
0.0
  0
LINE
  5
1928
330
18
100
AcDbEntity
  8
1
  6
Continuous
100
AcDbLine
 10
263.3296840859927
 20
257.9646823568713
 30
0.0
 11
263.1796840788383
 21
257.9646823568713
 31
0.0
  0
LINE
  5
192A
330
18
100
AcDbEntity
  8
1
  6
Continuous
100
AcDbLine
 10
263.3296840859951
 20
257.5756997482253
 30
0.0
 11
263.1796840788383
 21
257.5756997482252
 31
0.0
  0
ARC
  5
192C
330
18
100
AcDbEntity
  8
1
  6
Continuous
100
AcDbCircle
 10
263.6296841002121
 20
257.5756996527063
 30
0.0
 40
0.3000000142492368
100
AcDbArc
 50
180.0
 51
269.9999999999967
  0
LINE
  5
192D
330
18
100
AcDbEntity
  8
1
  6
Continuous
100
AcDbLine
 10
262.9796833063994
 20
261.0256998165725
 30
0.0
 11
263.1796840788383
 21
261.0256998165725
 31
0.0
  0
LINE
  5
192F
330
18
100
AcDbEntity
  8
1
  6
Continuous
100
AcDbLine
 10
262.4796832826507
 20
260.0256302684678
 30
0.0
 11
262.4796832826507
 21
261.1096868151666
 31
0.0
  0
LINE
  5
1930
330
18
100
AcDbEntity
  8
1
  6
Continuous
100
AcDbLine
 10
262.9796833063994
 20
260.0256302684678
 30
0.0
 11
262.9796833063994
 21
268.0256306484475
 31
0.0
  0
LINE
  5
1931
330
18
100
AcDbEntity
  8
1
  6
Continuous
100
AcDbLine
 10
262.9796833063994
 20
260.0256302684678
 30
0.0
 11
259.1796842685769
 21
260.0256302684678
 31
0.0
  0
LINE
  5
1932
330
18
100
AcDbEntity
  8
1
  6
Continuous
100
AcDbLine
 10
262.4796832826507
 20
261.1096868151666
 30
0.0
 11
259.1796842685769
 21
261.1096868151666
 31
0.0
  0
LINE
  5
1935
330
18
100
AcDbEntity
  8
1
  6
Continuous
100
AcDbLine
 10
257.1796834123839
 20
259.2804251723495
 30
0.0
 11
255.6796833411326
 21
259.2804251723495
 31
0.0
  0
LINE
  5
1937
330
18
100
AcDbEntity
  8
1
  6
Continuous
100
AcDbLine
 10
257.1796841753234
 20
260.1605971085951
 30
0.0
 11
255.6796833411326
 21
260.1605971085951
 31
0.0
  0
LINE
  5
193A
330
18
100
AcDbEntity
  8
1
  6
Continuous
100
AcDbLine
 10
263.3296840860277
 20
257.5756996527063
 30
0.0
 11
263.3296840860277
 21
270.4757002654234
 31
0.0
  0
LINE
  5
193F
330
18
100
AcDbEntity
  8
1
  6
Continuous
100
AcDbLine
 10
263.3296840859942
 20
264.0256999590649
 30
0.0
 11
263.1796840788383
 21
264.0256999590649
 31
0.0
  0
LINE
  5
1941
330
18
100
AcDbEntity
  8
1
  6
Continuous
100
AcDbLine
 10
263.3296840859931
 20
265.1457307416285
 30
0.0
 11
263.1796840788383
 21
265.1457307416285
 31
0.0
  0
LINE
  5
1942
330
18
100
AcDbEntity
  8
1
  6
Continuous
100
AcDbLine
 10
263.3296840859953
 20
261.819669962503
 30
0.0
 11
263.1796840788383
 21
261.819669962503
 31
0.0
  0
LINE
  5
1944
330
18
100
AcDbEntity
  8
1
  6
Continuous
100
AcDbLine
 10
263.3296840859942
 20
262.9056691765013
 30
0.0
 11
263.1796840788383
 21
262.9056691765013
 31
0.0
  0
LINE
  5
1946
330
18
100
AcDbEntity
  8
1
  6
Continuous
100
AcDbLine
 10
263.329684085963
 20
263.3311072154058
 30
0.0
 11
263.1796840788383
 21
263.3311072154058
 31
0.0
  0
LINE
  5
1947
330
18
100
AcDbEntity
  8
1
  6
Continuous
100
AcDbLine
 10
263.329684085963
 20
265.393780597348
 30
0.0
 11
263.1796840788383
 21
265.393780597348
 31
0.0
  0
LINE
  5
1949
330
18
100
AcDbEntity
  8
1
  6
Continuous
100
AcDbLine
 10
263.3296840859931
 20
266.2317299556267
 30
0.0
 11
263.1796840788383
 21
266.2317299556267
 31
0.0
  0
LINE
  5
194A
330
18
100
AcDbEntity
  8
1
  6
Continuous
100
AcDbLine
 10
263.3296840859947
 20
259.8797197410614
 30
0.0
 11
263.1796840788383
 21
259.8797197410614
 31
0.0
  0
LINE
  5
194C
330
18
100
AcDbEntity
  8
1
  6
Continuous
100
AcDbLine
 10
263.3296840859953
 20
260.8006998536452
 30
0.0
 11
263.1796840788383
 21
260.8006998536452
 31
0.0
  0
LINE
  5
1951
330
18
100
AcDbEntity
  8
1
  6
Continuous
100
AcDbLine
 10
268.8296843471988
 20
268.3104905184904
 30
0.0
 11
268.8296843471989
 21
259.7409093996393
 31
0.0
  0
LINE
  5
1953
330
18
100
AcDbEntity
  8
1
  6
Continuous
100
AcDbLine
 10
268.3296843234502
 20
259.2409093758905
 30
0.0
 11
265.5296841904573
 21
259.2409093758905
 31
0.0
  0
LINE
  5
1954
330
18
100
AcDbEntity
  8
1
  6
Continuous
100
AcDbLine
 10
268.8296843471989
 20
264.0256999590648
 30
0.0
 11
265.5296841904573
 21
264.0256999590649
 31
0.0
  0
LINE
  5
1956
330
18
100
AcDbEntity
  8
1
  6
Continuous
100
AcDbLine
 10
263.3296840859947
 20
259.084713139435
 30
0.0
 11
263.1796840788383
 21
259.084713139435
 31
0.0
  0
ARC
  5
195C
330
18
100
AcDbEntity
  8
1
  6
Continuous
100
AcDbCircle
 10
268.3296843234502
 20
259.7409093996393
 30
0.0
 40
0.5000000237487399
100
AcDbArc
 50
270.0
 51
359.9999999999975
  0
LINE
  5
1962
330
18
100
AcDbEntity
  8
1
  6
Continuous
100
AcDbLine
 10
258.6796842465696
 20
276.4257005480333
 30
0.0
 11
242.9796827379198
 21
276.4257005480333
 31
0.0
  0
LINE
  5
1963
330
18
100
AcDbEntity
  8
1
  6
Continuous
100
AcDbLine
 10
263.1796840788383
 20
267.0257001015572
 30
0.0
 11
262.9796833063993
 21
267.0257001015572
 31
0.0
  0
LINE
  5
1965
330
18
100
AcDbEntity
  8
1
  6
Continuous
100
AcDbLine
 10
262.4796832826506
 20
266.9417131029631
 30
0.0
 11
262.4796832826506
 21
268.0256306484475
 31
0.0
  0
LINE
  5
1966
330
18
100
AcDbEntity
  8
1
  6
Continuous
100
AcDbLine
 10
262.4796832826507
 20
266.941713102963
 30
0.0
 11
259.1796841155244
 21
266.941713102963
 31
0.0
  0
LINE
  5
1967
330
18
100
AcDbEntity
  8
1
  6
Continuous
100
AcDbLine
 10
262.9796833063994
 20
268.0256306484475
 30
0.0
 11
259.1796841155244
 21
268.0256306484475
 31
0.0
  0
LINE
  5
1968
330
18
100
AcDbEntity
  8
1
  6
Continuous
100
AcDbLine
 10
257.179683412384
 20
273.2644957229964
 30
0.0
 11
255.6796833411326
 21
273.2644957229964
 31
0.0
  0
LINE
  5
1969
330
18
100
AcDbEntity
  8
1
  6
Continuous
100
AcDbLine
 10
264.3296841334604
 20
270.7757002796727
 30
0.0
 11
263.6296841002121
 21
270.7757002796727
 31
0.0
  0
LINE
  5
196A
330
18
100
AcDbEntity
  8
1
  6
Continuous
100
AcDbLine
 10
265.3296841809579
 20
269.5507002214883
 30
0.0
 11
264.3296841334604
 21
270.7757002796727
 31
0.0
  0
LINE
  5
1972
330
18
100
AcDbEntity
  8
1
  6
Continuous
100
AcDbLine
 10
263.3296840859927
 20
267.2507000644845
 30
0.0
 11
263.1796840788383
 21
267.2507000644845
 31
0.0
  0
LINE
  5
1975
330
18
100
AcDbEntity
  8
1
  6
Continuous
100
AcDbLine
 10
265.5296841904573
 20
269.5507002214883
 30
0.0
 11
265.3296841809579
 21
269.5507002214883
 31
0.0
  0
LINE
  5
1976
330
18
100
AcDbEntity
  8
1
  6
Continuous
100
AcDbLine
 10
263.3296840859927
 20
268.1716801770684
 30
0.0
 11
263.1796840788383
 21
268.1716801770684
 31
0.0
  0
LINE
  5
1978
330
18
100
AcDbEntity
  8
1
  6
Continuous
100
AcDbLine
 10
263.3296840859949
 20
268.9666867786948
 30
0.0
 11
263.1796840788383
 21
268.9666867786948
 31
0.0
  0
LINE
  5
1979
330
18
100
AcDbEntity
  8
1
  6
Continuous
100
AcDbLine
 10
263.1796840788383
 20
270.4757001699044
 30
0.0
 11
263.1796840788383
 21
257.5756997482252
 31
0.0
  0
LINE
  5
197A
330
18
100
AcDbEntity
  8
1
  6
Continuous
100
AcDbLine
 10
263.3296840859949
 20
269.6115639960672
 30
0.0
 11
263.1796840788383
 21
269.6115639960672
 31
0.0
  0
LINE
  5
197C
330
18
100
AcDbEntity
  8
1
  6
Continuous
100
AcDbLine
 10
263.3296840859931
 20
270.0867175612584
 30
0.0
 11
263.1796840788383
 21
270.0867175612584
 31
0.0
  0
LINE
  5
197F
330
18
100
AcDbEntity
  8
1
  6
Continuous
100
AcDbLine
 10
263.3296840859931
 20
270.3777101736302
 30
0.0
 11
263.1796840788383
 21
270.3777101736302
 31
0.0
  0
LINE
  5
1981
330
18
100
AcDbEntity
  8
1
  6
Continuous
100
AcDbLine
 10
263.329684085963
 20
270.4757001699044
 30
0.0
 11
263.1796840788383
 21
270.4757001699044
 31
0.0
  0
ARC
  5
1982
330
18
100
AcDbEntity
  8
1
  6
Continuous
100
AcDbCircle
 10
263.6296841002121
 20
270.4757002654234
 30
0.0
 40
0.3000000142492368
100
AcDbArc
 50
90.00000000000325
 51
180.0
  0
ARC
  5
1986
330
18
100
AcDbEntity
  8
1
  6
Continuous
100
AcDbCircle
 10
258.6796842465696
 20
275.9257005242846
 30
0.0
 40
0.5000000237487347
100
AcDbArc
 50
0.0450847505166056
 51
90.0
  0
LINE
  5
1987
330
18
100
AcDbEntity
  8
1
  6
Continuous
100
AcDbLine
 10
257.1796834123839
 20
276.4257005480333
 30
0.0
 11
257.1796834123839
 21
259.2804251723495
 31
0.0
  0
LINE
  5
1988
330
18
100
AcDbEntity
  8
1
  6
Continuous
100
AcDbLine
 10
255.6796833411326
 20
275.4818067063407
 30
0.0
 11
257.1796834123838
 21
275.4818067063407
 31
0.0
  0
LINE
  5
1989
330
18
100
AcDbEntity
  8
1
  6
Continuous
100
AcDbLine
 10
240.9796826429252
 20
294.0257013839884
 30
0.0
 11
238.076911119021
 21
293.7717417828407
 31
0.0
  0
ARC
  5
198E
330
18
100
AcDbEntity
  8
1
  6
Continuous
100
AcDbCircle
 10
238.1023400551575
 20
293.4728461995159
 30
0.0
 40
0.2999753331955474
100
AcDbArc
 50
94.8628043081285
 51
163.16128479125
  0
LINE
  5
1994
330
18
100
AcDbEntity
  8
1
  6
Continuous
100
AcDbLine
 10
244.979682832915
 20
288.5660700075391
 30
0.0
 11
240.9796826429252
 21
288.7757011346283
 31
0.0
  0
LINE
  5
1995
330
18
100
AcDbEntity
  8
1
  6
Continuous
100
AcDbLine
 10
244.979682832915
 20
286.8805166031801
 30
0.0
 11
244.979682832915
 21
288.5660700075391
 31
0.0
  0
LINE
  5
1996
330
18
100
AcDbEntity
  8
1
  6
Continuous
100
AcDbLine
 10
244.9796828329152
 20
286.8805166031764
 30
0.0
 11
242.9796827379201
 21
286.7757010396319
 31
0.0
  0
LINE
  5
1999
330
18
100
AcDbEntity
  8
1
  6
Continuous
100
AcDbLine
 10
320.4972373260551
 20
248.1790928326044
 30
0.0
 11
320.4972373260551
 21
286.6681407839629
 31
0.0
  0
LINE
  5
199A
330
18
100
AcDbEntity
  8
1
  6
Continuous
100
AcDbLine
 10
318.8972372500592
 20
287.525701075255
 30
0.0
 11
318.8972372500592
 21
248.1790928326045
 31
0.0
  0
LINE
  5
199B
330
18
100
AcDbEntity
  8
1
  6
Continuous
100
AcDbLine
 10
316.3972371313156
 20
287.525701075255
 30
0.0
 11
316.3972371313156
 21
248.1790928326046
 31
0.0
  0
ARC
  5
199E
330
18
100
AcDbEntity
  8
1
  6
Continuous
100
AcDbCircle
 10
321.3972373688028
 20
287.525701075255
 30
0.0
 40
5.00000023748728
100
AcDbArc
 50
90.0
 51
179.9999999999996
  0
ARC
  5
199F
330
18
100
AcDbEntity
  8
1
  6
Continuous
100
AcDbCircle
 10
316.8972371550643
 20
292.0257012889934
 30
0.0
 40
2.000000094994788
100
AcDbArc
 50
90.00000000000325
 51
179.9999999999971
  0
ARC
  5
19A0
330
18
100
AcDbEntity
  8
1
  6
Continuous
100
AcDbCircle
 10
321.3972373688028
 20
287.5257010752548
 30
0.0
 40
2.500000118743638
100
AcDbArc
 50
90.0
 51
179.9999999999987
  0
LINE
  5
19A1
330
18
100
AcDbEntity
  8
1
  6
Continuous
100
AcDbLine
 10
320.522480326175
 20
286.8805166031764
 30
0.0
 11
320.5001237888178
 21
286.7757010396319
 31
0.0
  0
LINE
  5
19A2
330
18
100
AcDbEntity
  8
1
  6
Continuous
100
AcDbLine
 10
320.4972373260551
 20
286.6681407839631
 30
0.0
 11
320.4972373260551
 21
286.7729563475016
 31
0.0
  0
LINE
  5
19A3
330
18
100
AcDbEntity
  8
1
  6
Continuous
100
AcDbLine
 10
320.5001237888178
 20
286.7757010396321
 30
0.0
 11
320.4972373260551
 21
286.6681407839629
 31
0.0
  0
LINE
  5
19A8
330
18
100
AcDbEntity
  8
1
  6
Continuous
100
AcDbLine
 10
345.2972385039919
 20
286.6681407839631
 30
0.0
 11
345.2972385039919
 21
248.1790928326044
 31
0.0
  0
LINE
  5
19A9
330
18
100
AcDbEntity
  8
1
  6
Continuous
100
AcDbLine
 10
346.8972385799878
 20
287.525701075255
 30
0.0
 11
346.8972385799878
 21
248.1790928326045
 31
0.0
  0
LINE
  5
19AA
330
18
100
AcDbEntity
  8
1
  6
Continuous
100
AcDbLine
 10
349.3972386987314
 20
287.525701075255
 30
0.0
 11
349.3972386987314
 21
248.1790928326046
 31
0.0
  0
LINE
  5
19AB
330
18
100
AcDbEntity
  8
1
  6
Continuous
100
AcDbLine
 10
335.6597380462357
 20
259.2409093758902
 30
0.0
 11
338.4222381774475
 21
264.0256999590645
 31
0.0
  0
LINE
  5
19AC
330
18
100
AcDbEntity
  8
1
  6
Continuous
100
AcDbLine
 10
327.3722376526001
 20
264.0256999590649
 30
0.0
 11
330.1347377838119
 21
259.2409093758906
 31
0.0
  0
LINE
  5
19AF
330
18
100
AcDbEntity
  8
1
  6
Continuous
100
AcDbLine
 10
332.3972378912748
 20
263.2256999210669
 30
0.0
 11
332.3972378912748
 21
262.0756998664449
 31
0.0
  0
LINE
  5
19B0
330
18
100
AcDbEntity
  8
1
  6
Continuous
100
AcDbLine
 10
333.3972379387722
 20
262.0756998664449
 30
0.0
 11
333.3972379387722
 21
263.2256999210669
 31
0.0
  0
LINE
  5
19BA
330
18
100
AcDbEntity
  8
1
  6
Continuous
100
AcDbLine
 10
336.684839942997
 20
248.1790928326044
 30
0.0
 11
350.3972387462289
 21
248.1790928326044
 31
0.0
  0
LINE
  5
19BB
330
18
100
AcDbEntity
  8
1
  6
Continuous
100
AcDbLine
 10
331.8972378675258
 20
251.6660877276305
 30
0.0
 11
331.897237867526
 21
249.4417790494654
 31
0.0
  0
LINE
  5
19BC
330
18
100
AcDbEntity
  8
1
  6
Continuous
100
AcDbLine
 10
333.8972379625209
 20
249.4417790494654
 30
0.0
 11
333.8972379625209
 21
251.6660877276327
 31
0.0
  0
LINE
  5
19BD
330
18
100
AcDbEntity
  8
1
  6
Continuous
100
AcDbLine
 10
333.9472379648958
 20
259.2409093758905
 30
0.0
 11
335.6597380462352
 21
259.2409093758905
 31
0.0
  0
ARC
  5
19BF
330
18
100
AcDbEntity
  8
1
  6
Continuous
100
AcDbCircle
 10
332.8972379150235
 20
264.0256999590649
 30
0.0
 40
4.000000189989809
100
AcDbArc
 50
284.1337367207047
 51
75.86626327929463
  0
LINE
  5
19C7
330
18
100
AcDbEntity
  8
1
  6
Continuous
100
AcDbLine
 10
330.1347377838118
 20
259.2409093758905
 30
0.0
 11
331.8472378651512
 21
259.2409093758905
 31
0.0
  0
LINE
  5
19CD
330
18
100
AcDbEntity
  8
1
  6
Continuous
100
AcDbLine
 10
332.697237905524
 20
261.7756998521956
 30
0.0
 11
333.097237924523
 21
261.7756998521956
 31
0.0
  0
ARC
  5
19CF
330
18
100
AcDbEntity
  8
1
  6
Continuous
100
AcDbCircle
 10
332.8972379150235
 20
264.0256999590649
 30
0.0
 40
4.000000189989809
100
AcDbArc
 50
104.1337367207053
 51
255.8662632792952
  0
ARC
  5
19D7
330
18
100
AcDbEntity
  8
1
  6
Continuous
100
AcDbCircle
 10
332.697237905524
 20
262.0756998664449
 30
0.0
 40
0.3000000142492393
100
AcDbArc
 50
180.0
 51
270.0
  0
ARC
  5
19D8
330
18
100
AcDbEntity
  8
1
  6
Continuous
100
AcDbCircle
 10
333.097237924523
 20
262.0756998664449
 30
0.0
 40
0.3000000142492363
100
AcDbArc
 50
270.0
 51
359.9999999999983
  0
LINE
  5
19E7
330
18
100
AcDbEntity
  8
1
  6
Continuous
100
AcDbLine
 10
330.1347377838113
 20
268.8104905422395
 30
0.0
 11
327.3722376525995
 21
264.0256999590651
 31
0.0
  0
LINE
  5
19EB
330
18
100
AcDbEntity
  8
1
  6
Continuous
100
AcDbLine
 10
335.6597380462349
 20
268.8104905422392
 30
0.0
 11
330.1347377838118
 21
268.8104905422392
 31
0.0
  0
LINE
  5
19F1
330
18
100
AcDbEntity
  8
1
  6
Continuous
100
AcDbLine
 10
333.6472379506466
 20
265.0257000065623
 30
0.0
 11
333.6472379506466
 21
268.5104905279899
 31
0.0
  0
LINE
  5
19F6
330
18
100
AcDbEntity
  8
1
  6
Continuous
100
AcDbLine
 10
332.1472378794004
 20
268.5104905279901
 30
0.0
 11
332.1472378794004
 21
265.0257000065623
 31
0.0
  0
LINE
  5
19F7
330
18
100
AcDbEntity
  8
1
  6
Continuous
100
AcDbLine
 10
330.6472378081541
 20
263.8256999495654
 30
0.0
 11
330.6472378081541
 21
264.2256999686034
 31
0.0
  0
LINE
  5
19FD
330
18
100
AcDbEntity
  8
1
  6
Continuous
100
AcDbLine
 10
333.6972379530215
 20
263.5256999353162
 30
0.0
 11
334.8472380076435
 21
263.5256999353161
 31
0.0
  0
LINE
  5
19FE
330
18
100
AcDbEntity
  8
1
  6
Continuous
100
AcDbLine
 10
330.9472378224035
 20
263.5256999353161
 30
0.0
 11
332.0972378770254
 21
263.5256999353162
 31
0.0
  0
LINE
  5
19FF
330
18
100
AcDbEntity
  8
1
  6
Continuous
100
AcDbLine
 10
333.3972379387722
 20
264.8256999970628
 30
0.0
 11
333.3972379387722
 21
265.9757000516849
 31
0.0
  0
LINE
  5
1A00
330
18
100
AcDbEntity
  8
1
  6
Continuous
100
AcDbLine
 10
333.097237924523
 20
266.2757000659341
 30
0.0
 11
332.697237905524
 21
266.2757000659341
 31
0.0
  0
LINE
  5
1A01
330
18
100
AcDbEntity
  8
1
  6
Continuous
100
AcDbLine
 10
332.3972378912748
 20
265.9757000516849
 30
0.0
 11
332.3972378912748
 21
264.8256999970628
 31
0.0
  0
LINE
  5
1A02
330
18
100
AcDbEntity
  8
1
  6
Continuous
100
AcDbLine
 10
334.8472380076435
 20
264.5256999828136
 30
0.0
 11
333.6972379530215
 21
264.5256999828136
 31
0.0
  0
LINE
  5
1A03
330
18
100
AcDbEntity
  8
1
  6
Continuous
100
AcDbLine
 10
332.0972378770254
 20
264.5256999828136
 30
0.0
 11
330.9472378224035
 21
264.5256999828136
 31
0.0
  0
ARC
  5
1A07
330
18
100
AcDbEntity
  8
1
  6
Continuous
100
AcDbCircle
 10
333.9472379648958
 20
268.1955322880352
 30
0.0
 40
0.3000000142492335
100
AcDbArc
 50
180.0
 51
255.8662632793188
  0
ARC
  5
1A09
330
18
100
AcDbEntity
  8
1
  6
Continuous
100
AcDbCircle
 10
331.8472378651512
 20
268.1955322880352
 30
0.0
 40
0.3000000142492326
100
AcDbArc
 50
284.1337367206778
 51
0.0
  0
ARC
  5
1A0B
330
18
100
AcDbEntity
  8
1
  6
Continuous
100
AcDbCircle
 10
331.8472378651512
 20
268.51049052799
 30
0.0
 40
0.3000000142492357
100
AcDbArc
 50
0.0
 51
90.0
  0
ARC
  5
1A0C
330
18
100
AcDbEntity
  8
1
  6
Continuous
100
AcDbCircle
 10
333.9472379648958
 20
268.5104905279899
 30
0.0
 40
0.3000000142492425
100
AcDbArc
 50
90.00000000000651
 51
180.0
  0
ARC
  5
1A0E
330
18
100
AcDbEntity
  8
1
  6
Continuous
100
AcDbCircle
 10
330.9472378224035
 20
264.2256999685644
 30
0.0
 40
0.3000000142492355
100
AcDbArc
 50
90.0
 51
179.9999999925441
  0
ARC
  5
1A10
330
18
100
AcDbEntity
  8
1
  6
Continuous
100
AcDbCircle
 10
330.9472378224035
 20
263.8256999495654
 30
0.0
 40
0.3000000142492374
100
AcDbArc
 50
180.0000000000012
 51
270.0
  0
ARC
  5
1A11
330
18
100
AcDbEntity
  8
1
  6
Continuous
100
AcDbCircle
 10
334.1472379743953
 20
265.0257000065623
 30
0.0
 40
0.5000000237487237
100
AcDbArc
 50
180.0
 51
270.0
  0
ARC
  5
1A12
330
18
100
AcDbEntity
  8
1
  6
Continuous
100
AcDbCircle
 10
331.6472378556517
 20
263.0256999115674
 30
0.0
 40
0.5000000237487209
100
AcDbArc
 50
359.9999999999992
 51
90.0
  0
ARC
  5
1A13
330
18
100
AcDbEntity
  8
1
  6
Continuous
100
AcDbCircle
 10
334.1472379743953
 20
263.0256999115674
 30
0.0
 40
0.5000000237487257
100
AcDbArc
 50
90.0
 51
180.0
  0
ARC
  5
1A14
330
18
100
AcDbEntity
  8
1
  6
Continuous
100
AcDbCircle
 10
331.6472378556517
 20
265.0257000065623
 30
0.0
 40
0.5000000237487328
100
AcDbArc
 50
269.9999999240265
 51
359.9999999999992
  0
ARC
  5
1A15
330
18
100
AcDbEntity
  8
1
  6
Continuous
100
AcDbCircle
 10
332.0972378770254
 20
263.2256999210669
 30
0.0
 40
0.3000000142492361
100
AcDbArc
 50
0.0
 51
90.0
  0
ARC
  5
1A16
330
18
100
AcDbEntity
  8
1
  6
Continuous
100
AcDbCircle
 10
333.6972379530215
 20
263.2256999210669
 30
0.0
 40
0.3000000142492361
100
AcDbArc
 50
90.0
 51
180.0
  0
ARC
  5
1A17
330
18
100
AcDbEntity
  8
1
  6
Continuous
100
AcDbCircle
 10
333.6972379530215
 20
264.8256999970628
 30
0.0
 40
0.3000000142492361
100
AcDbArc
 50
180.0
 51
270.0
  0
ARC
  5
1A18
330
18
100
AcDbEntity
  8
1
  6
Continuous
100
AcDbCircle
 10
333.097237924523
 20
265.9757000516849
 30
0.0
 40
0.3000000142492393
100
AcDbArc
 50
0.0
 51
90.0
  0
ARC
  5
1A19
330
18
100
AcDbEntity
  8
1
  6
Continuous
100
AcDbCircle
 10
332.697237905524
 20
265.9757000516849
 30
0.0
 40
0.3000000142492363
100
AcDbArc
 50
90.0
 51
179.9999999999983
  0
ARC
  5
1A1A
330
18
100
AcDbEntity
  8
1
  6
Continuous
100
AcDbCircle
 10
332.0972378770254
 20
264.8256999970628
 30
0.0
 40
0.3000000142492361
100
AcDbArc
 50
270.0
 51
0.0
  0
LINE
  5
1A21
330
18
100
AcDbEntity
  8
1
  6
Continuous
100
AcDbLine
 10
338.4222381774468
 20
264.0256999590648
 30
0.0
 11
335.6597380462349
 21
268.8104905422392
 31
0.0
  0
LINE
  5
1A22
330
18
100
AcDbEntity
  8
1
  6
Continuous
100
AcDbLine
 10
335.1472380218928
 20
264.225699968609
 30
0.0
 11
335.1472380218928
 21
263.8256999495548
 31
0.0
  0
ARC
  5
1A25
330
18
100
AcDbEntity
  8
1
  6
Continuous
100
AcDbCircle
 10
334.8472380076435
 20
264.2256999685644
 30
0.0
 40
0.3000000142492341
100
AcDbArc
 50
0.0000000085265328
 51
90.0
  0
ARC
  5
1A26
330
18
100
AcDbEntity
  8
1
  6
Continuous
100
AcDbCircle
 10
334.8472380076435
 20
263.8256999495654
 30
0.0
 40
0.3000000142492369
100
AcDbArc
 50
270.0
 51
359.9999999979778
  0
ARC
  5
1A2B
330
18
100
AcDbEntity
  8
1
  6
Continuous
100
AcDbCircle
 10
344.3972384612442
 20
287.5257010752548
 30
0.0
 40
5.000000237487299
100
AcDbArc
 50
0.0000000000004071
 51
90.0
  0
ARC
  5
1A2C
330
18
100
AcDbEntity
  8
1
  6
Continuous
100
AcDbCircle
 10
348.8972386749827
 20
292.0257012889935
 30
0.0
 40
2.000000105679065
100
AcDbArc
 50
0.0000000083978857
 51
90.0
  0
LINE
  5
1A2D
330
18
100
AcDbEntity
  8
1
  6
Continuous
100
AcDbLine
 10
345.294352041229
 20
286.7757010396319
 30
0.0
 11
345.2719955038714
 21
286.8805166031764
 31
0.0
  0
LINE
  5
1A2E
330
18
100
AcDbEntity
  8
1
  6
Continuous
100
AcDbLine
 10
345.2972385039919
 20
286.7729563475015
 30
0.0
 11
345.2972385039919
 21
286.6681407839631
 31
0.0
  0
LINE
  5
1A2F
330
18
100
AcDbEntity
  8
1
  6
Continuous
100
AcDbLine
 10
345.297238503992
 20
286.6681407839629
 30
0.0
 11
345.294352041229
 21
286.7757010396321
 31
0.0
  0
ARC
  5
1A30
330
18
100
AcDbEntity
  8
1
  6
Continuous
100
AcDbCircle
 10
344.3972384612442
 20
287.5257010752548
 30
0.0
 40
2.500000118743655
100
AcDbArc
 50
0.0000000000016284
 51
90.0
  0
CIRCLE
  5
2428
330
18
100
AcDbEntity
  8
1
  6
Continuous
100
AcDbCircle
 10
150.2872591648216
 20
164.0256952093196
 30
0.0
 40
8.350000396603746
  0
CIRCLE
  5
2429
330
18
100
AcDbEntity
  8
1
  6
Continuous
100
AcDbCircle
 10
150.2872591648216
 20
164.0256952093197
 30
0.0
 40
8.450000401354071
  0
ARC
  5
242F
330
18
100
AcDbEntity
  8
1
  6
Continuous
100
AcDbCircle
 10
142.3414503939193
 20
137.2994879357798
 30
0.0
 40
0.1975765865049913
100
AcDbArc
 50
259.2724133607505
 51
7.671106362275804
  0
ARC
  5
2431
330
18
100
AcDbEntity
  8
1
  6
Continuous
100
AcDbCircle
 10
143.0974918866722
 20
138.926681388741
 30
0.0
 40
1.986392890969743
100
AcDbArc
 50
223.5269026792581
 51
246.4765333614836
  0
ARC
  5
2440
330
18
100
AcDbEntity
  8
1
  6
Continuous
100
AcDbCircle
 10
150.2970634729166
 20
162.027320753476
 30
0.0
 40
13.00980630093254
100
AcDbArc
 50
180.00559909712
 51
210.3799918916577
  0
ARC
  5
2441
330
18
100
AcDbEntity
  8
1
  6
Continuous
100
AcDbCircle
 10
142.3241080553755
 20
173.8150148322665
 30
0.0
 40
3.539027332716339
100
AcDbArc
 50
182.0109500909314
 51
189.4014050061719
  0
LINE
  5
2442
330
18
100
AcDbEntity
  8
1
  6
Continuous
100
AcDbLine
 10
138.8301195817006
 20
173.2367193873313
 30
0.0
 11
139.0747944780112
 21
173.2393375235605
 31
0.0
  0
ARC
  5
2446
330
18
100
AcDbEntity
  8
1
  6
Continuous
100
AcDbCircle
 10
150.2870494492085
 20
264.0255635225662
 30
0.0
 40
13.00021167926766
100
AcDbArc
 50
359.9990492814502
 51
179.9994045518421
  0
ARC
  5
2447
330
18
100
AcDbEntity
  8
1
  6
Continuous
100
AcDbCircle
 10
133.1471466066142
 20
272.8605918995228
 30
0.0
 40
12.16172760876006
100
AcDbArc
 50
299.1835172294932
 51
313.4103615116614
  0
ARC
  5
2448
330
18
100
AcDbEntity
  8
1
  6
Continuous
100
AcDbCircle
 10
125.6374927502457
 20
266.5530633817052
 30
0.0
 40
14.11411905213759
100
AcDbArc
 50
342.2179124617567
 51
349.6846194185002
  0
ARC
  5
244A
330
18
100
AcDbEntity
  8
1
  6
Continuous
100
AcDbCircle
 10
146.7765958373167
 20
264.0463159601724
 30
0.0
 40
5.156598900214041
100
AcDbArc
 50
145.2980894431546
 51
180.229068233442
  0
LINE
  5
244B
330
18
100
AcDbEntity
  8
4
  6
CENTER
 48
0.2
100
AcDbLine
 10
150.2876250019508
 20
298.7742045092677
 30
0.0
 11
150.2797790073494
 21
128.0255414126957
 31
0.0
  0
LINE
  5
247C
330
18
100
AcDbEntity
  8
1
  6
Continuous
100
AcDbLine
 10
167.5556670442343
 20
139.8259639463245
 30
0.0
 11
163.8551074050804
 21
159.0787812200773
 31
0.0
  0
LINE
  5
2483
330
18
100
AcDbEntity
  8
1
  6
Continuous
100
AcDbLine
 10
165.5146180061038
 20
135.3386846007632
 30
0.0
 11
161.8064366738656
 21
141.6521629797137
 31
0.0
  0
ARC
  5
2484
330
18
100
AcDbEntity
  8
1
  6
Continuous
100
AcDbCircle
 10
150.2888444587916
 20
162.0256950414798
 30
0.0
 40
11.50000054622075
100
AcDbArc
 50
347.0991163806027
 51
359.9947344550955
  0
ARC
  5
2485
330
18
100
AcDbEntity
  8
1
  6
Continuous
100
AcDbCircle
 10
150.279040300136
 20
162.0273215816506
 30
0.0
 40
13.00980630093254
100
AcDbArc
 50
329.6147425634382
 51
359.9891353579758
  0
LINE
  5
2488
330
18
100
AcDbEntity
  8
1
  6
Continuous
100
AcDbLine
 10
153.6028961618802
 20
134.0253890283267
 30
0.0
 11
166.2799627468928
 21
134.0242239920168
 31
0.0
  0
LINE
  5
2489
330
18
100
AcDbEntity
  8
1
  6
Continuous
100
AcDbLine
 10
161.4971225390093
 20
143.8262338404134
 30
0.0
 11
161.5080050422221
 21
262.2416142491782
 31
0.0
  0
LINE
  5
248A
330
18
100
AcDbEntity
  8
1
  6
Continuous
100
AcDbLine
 10
158.036574852426
 20
137.3251495261829
 30
0.0
 11
158.0387191201831
 21
160.6574911006809
 31
0.0
  0
LINE
  5
248B
330
18
100
AcDbEntity
  8
1
  6
Continuous
100
AcDbLine
 10
161.7888449564489
 20
162.0246381788328
 30
0.0
 11
161.7982188686205
 21
264.0246425911565
 31
0.0
  0
LINE
  5
248C
330
18
100
AcDbEntity
  8
1
  6
Continuous
100
AcDbLine
 10
163.2888450213509
 20
162.0245002205932
 30
0.0
 11
163.2982189335327
 21
264.0245047425569
 31
0.0
  0
LINE
  5
248D
330
18
100
AcDbEntity
  8
1
  6
Continuous
100
AcDbLine
 10
158.0393380725546
 20
167.3924746883306
 30
0.0
 11
158.0484903938738
 21
266.9812907405701
 31
0.0
  0
LINE
  5
248E
330
18
100
AcDbEntity
  8
1
  6
Continuous
100
AcDbLine
 10
167.771282071878
 20
289.0604443685991
 30
0.0
 11
164.0017326592677
 21
267.9618003279618
 31
0.0
  0
ARC
  5
248F
330
18
100
AcDbEntity
  8
1
  6
Continuous
100
AcDbCircle
 10
150.2406290812982
 20
264.0370508044664
 30
0.0
 40
11.55759644804127
100
AcDbArc
 50
347.1313003732303
 51
359.9384873495345
  0
ARC
  5
2490
330
18
100
AcDbEntity
  8
1
  6
Continuous
100
AcDbCircle
 10
174.9482169489127
 20
266.550797526917
 30
0.0
 40
14.11411905213759
100
AcDbArc
 50
190.3101150365956
 51
197.776821993339
  0
ARC
  5
2491
330
18
100
AcDbEntity
  8
1
  6
Continuous
100
AcDbCircle
 10
167.4391427930365
 20
272.8590161635137
 30
0.0
 40
12.16172760876006
100
AcDbArc
 50
226.5843729434345
 51
240.8112172256027
  0
LINE
  5
2493
330
18
100
AcDbEntity
  8
1
  6
Continuous
100
AcDbLine
 10
161.0619921307029
 20
264.0247102528805
 30
0.0
 11
158.9654393506935
 21
264.0249029283782
 31
0.0
  0
ARC
  5
2494
330
18
100
AcDbEntity
  8
1
  6
Continuous
100
AcDbCircle
 10
153.8088835782763
 20
264.0459928226986
 30
0.0
 40
5.156598900214041
100
AcDbArc
 50
359.7656662216536
 51
34.69664501194117
  0
ARC
  5
249B
330
18
100
AcDbEntity
  8
1
  6
Continuous
100
AcDbCircle
 10
220.4286391052776
 20
264.1200380301874
 30
0.0
 40
9.779205057682686
100
AcDbArc
 50
359.4472702914672
 51
17.01717136344077
  0
ARC
  5
249C
330
18
100
AcDbEntity
  8
1
  6
Continuous
100
AcDbCircle
 10
238.3674774490302
 20
267.9213614666542
 30
0.0
 40
8.993886463695737
100
AcDbArc
 50
205.667348157924
 51
219.1532954670547
  0
ARC
  5
249D
330
18
100
AcDbEntity
  8
1
  6
Continuous
100
AcDbCircle
 10
225.3713013983581
 20
273.5885303254258
 30
0.0
 40
12.84488120935072
100
AcDbArc
 50
297.9569435846216
 51
300.9624246256158
  0
ARC
  5
249E
330
18
100
AcDbEntity
  8
1
  6
Continuous
100
AcDbCircle
 10
234.5536094927617
 20
145.402066197722
 30
0.0
 40
3.531136794589238
100
AcDbArc
 50
206.4857979187379
 51
223.2038080863727
  0
ARC
  5
249F
330
18
100
AcDbEntity
  8
1
  6
Continuous
100
AcDbCircle
 10
211.2864816305831
 20
144.4195223462165
 30
0.0
 40
20.11532262419878
100
AcDbArc
 50
340.7720019904213
 51
358.3127883865274
  0
ARC
  5
24A5
330
18
100
AcDbEntity
  8
1
  6
Continuous
100
AcDbCircle
 10
229.8682872771482
 20
137.1812296902061
 30
0.0
 40
0.0700173305725491
100
AcDbArc
 50
188.8338665719919
 51
328.002327492476
  0
ARC
  5
24A6
330
18
100
AcDbEntity
  8
1
  6
Continuous
100
AcDbCircle
 10
228.4746836135724
 20
138.3505982898121
 30
0.0
 40
1.888578689110896
100
AcDbArc
 50
320.2958031595496
 51
342.8905310148211
  0
ARC
  5
24AA
330
18
100
AcDbEntity
  8
1
  6
Continuous
100
AcDbCircle
 10
212.5723829163695
 20
164.0256952093196
 30
0.0
 40
17.53371456930648
100
AcDbArc
 50
348.9270833404818
 51
11.07291665951832
  0
ARC
  5
24AB
330
18
100
AcDbEntity
  8
1
  6
Continuous
100
AcDbCircle
 10
268.3296843234503
 20
268.3104905184904
 30
0.0
 40
0.5000000237487399
100
AcDbArc
 50
0.0
 51
89.99999999999905
  0
LINE
  5
24AC
330
18
100
AcDbEntity
  8
1
  6
Continuous
100
AcDbLine
 10
268.3296843234503
 20
268.8104905422392
 30
0.0
 11
265.5296841904574
 21
268.8104905422392
 31
0.0
  0
ARC
  5
24AE
330
18
100
AcDbEntity
  8
1
  6
Continuous
100
AcDbCircle
 10
254.6021878810903
 20
262.2513604436995
 30
0.0
 40
9.168115502646587
100
AcDbArc
 50
23.96917243460646
 51
30.77006210204292
  0
ARC
  5
24AF
330
18
100
AcDbEntity
  8
1
  6
Continuous
100
AcDbCircle
 10
254.6239242767831
 20
265.788787016398
 30
0.0
 40
9.143682422931931
100
AcDbArc
 50
329.2208407514764
 51
336.0399247118248
  0
LINE
  5
24B0
330
18
100
AcDbEntity
  8
4
  6
CENTER
 48
0.2
100
AcDbLine
 10
271.8296843471989
 20
264.0256999590648
 30
0.0
 11
238.9796827379201
 21
264.0256999590648
 31
0.0
  0
LINE
  5
24B1
330
18
100
AcDbEntity
  8
4
  6
CENTER
 48
0.2
100
AcDbLine
 10
239.2686417745853
 20
243.5256989853671
 30
0.0
 11
258.4461887413905
 21
243.5256989853671
 31
0.0
  0
LINE
  5
24B2
330
18
100
AcDbEntity
  8
4
  6
CENTER
 48
0.2
100
AcDbLine
 10
239.2686417745853
 20
184.5256961830173
 30
0.0
 11
258.4461887413905
 21
184.5256961830173
 31
0.0
  0
LINE
  5
24B3
330
18
100
AcDbEntity
  8
2
  6
Continuous
100
AcDbLine
 10
263.1796840788383
 20
266.4842001015572
 30
0.0
 11
262.9796833063993
 21
266.4842001015572
 31
0.0
  0
LINE
  5
24B4
330
18
100
AcDbEntity
  8
2
  6
Continuous
100
AcDbLine
 10
263.1796840788383
 20
261.5671998165725
 30
0.0
 11
262.9796833063993
 21
261.5671998165725
 31
0.0
  0
LINE
  5
2588
330
18
100
AcDbEntity
  8
4
  6
CENTER
 48
0.2
100
AcDbLine
 10
312.3972370838182
 20
264.0256999590649
 30
0.0
 11
353.3972387462289
 21
264.0256999590649
 31
0.0
  0
ARC
  5
2589
330
18
100
AcDbEntity
  8
1
  6
Continuous
100
AcDbCircle
 10
333.9472379648958
 20
259.8558676300945
 30
0.0
 40
0.3000000142492335
100
AcDbArc
 50
104.1337367206811
 51
180.0
  0
ARC
  5
258A
330
18
100
AcDbEntity
  8
1
  6
Continuous
100
AcDbCircle
 10
331.8472378651512
 20
259.8558676300945
 30
0.0
 40
0.3000000142492326
100
AcDbArc
 50
0.0
 51
75.86626327932204
  0
ARC
  5
258B
330
18
100
AcDbEntity
  8
1
  6
Continuous
100
AcDbCircle
 10
333.9472379648958
 20
259.5409093901398
 30
0.0
 40
0.3000000142492425
100
AcDbArc
 50
180.0
 51
269.9999999999934
  0
ARC
  5
258C
330
18
100
AcDbEntity
  8
1
  6
Continuous
100
AcDbCircle
 10
331.8472378651512
 20
259.5409093901397
 30
0.0
 40
0.3000000142492357
100
AcDbArc
 50
270.0
 51
0.0
  0
LINE
  5
258D
330
18
100
AcDbEntity
  8
1
  6
Continuous
100
AcDbLine
 10
333.6472379506466
 20
263.0256999115674
 30
0.0
 11
333.6472379506466
 21
259.5409093901398
 31
0.0
  0
LINE
  5
258E
330
18
100
AcDbEntity
  8
1
  6
Continuous
100
AcDbLine
 10
332.1472378794004
 20
259.5409093901397
 30
0.0
 11
332.1472378794004
 21
263.0256999115674
 31
0.0
  0
CIRCLE
  5
258F
330
18
100
AcDbEntity
  8
1
  6
Continuous
100
AcDbCircle
 10
332.8972379150235
 20
264.0256999590649
 30
0.0
 40
5.525000262423436
  0
CIRCLE
  5
2590
330
18
100
AcDbEntity
  8
1
  6
Continuous
100
AcDbCircle
 10
332.8972379150235
 20
264.0256999590649
 30
0.0
 40
6.750000320607824
  0
CIRCLE
  5
2591
330
18
100
AcDbEntity
  8
1
  6
Continuous
100
AcDbCircle
 10
332.8972379150235
 20
264.0256999590649
 30
0.0
 40
12.40000058896842
  0
CIRCLE
  5
2592
330
18
100
AcDbEntity
  8
1
  6
Continuous
100
AcDbCircle
 10
332.8972379150235
 20
243.525698985367
 30
0.0
 40
4.500000213738529
  0
ARC
  5
2593
330
18
100
AcDbEntity
  8
1
  6
Continuous
100
AcDbCircle
 10
322.4986138779872
 20
286.7743245883289
 30
0.0
 40
2.001377019630746
100
AcDbArc
 50
90.03940545865456
 51
180.0391702472115
  0
ARC
  5
2594
330
18
100
AcDbEntity
  8
1
  6
Continuous
100
AcDbCircle
 10
343.295862090947
 20
286.7743247270254
 30
0.0
 40
2.001376880838686
100
AcDbArc
 50
359.9608257803142
 51
89.96059851469762
  0
LINE
  5
2595
330
18
100
AcDbEntity
  8
4
  6
CENTER
 48
0.2
100
AcDbLine
 10
323.8972376300388
 20
243.525698985367
 30
0.0
 11
341.8972382000082
 21
243.525698985367
 31
0.0
  0
LINE
  5
2596
330
18
100
AcDbEntity
  8
1
  6
Continuous
100
AcDbLine
 10
332.4472378936493
 20
184.9756962043913
 30
0.0
 11
332.4472378936493
 21
186.5256962780124
 31
0.0
  0
CIRCLE
  5
2597
330
18
100
AcDbEntity
  8
1
  6
Continuous
100
AcDbCircle
 10
332.8972379150231
 20
184.5256961830173
 30
0.0
 40
4.500000213738529
  0
LINE
  5
2598
330
18
100
AcDbEntity
  8
1
  6
Continuous
100
AcDbLine
 10
333.347237936397
 20
184.9756962043913
 30
0.0
 11
333.347237936397
 21
186.5256962780122
 31
0.0
  0
CIRCLE
  5
259B
330
18
100
AcDbEntity
  8
1
  6
Continuous
100
AcDbCircle
 10
332.8972379150231
 20
184.5256961830173
 30
0.0
 40
6.000000284984715
  0
LINE
  5
259C
330
18
100
AcDbEntity
  8
4
  6
CENTER
 48
0.2
100
AcDbLine
 10
323.8972376300385
 20
184.5256961830173
 30
0.0
 11
341.8972382000078
 21
184.5256961830173
 31
0.0
  0
LINE
  5
259D
330
18
100
AcDbEntity
  8
1
  6
Continuous
100
AcDbLine
 10
332.4472378936493
 20
182.5256960880225
 30
0.0
 11
332.4472378936493
 21
184.0756961616436
 31
0.0
  0
LINE
  5
259E
330
18
100
AcDbEntity
  8
1
  6
Continuous
100
AcDbLine
 10
333.347237936397
 20
182.5256960880225
 30
0.0
 11
332.4472378936493
 21
182.5256960880225
 31
0.0
  0
LINE
  5
259F
330
18
100
AcDbEntity
  8
1
  6
Continuous
100
AcDbLine
 10
330.8972378200284
 20
184.9756962043913
 30
0.0
 11
332.4472378936493
 21
184.9756962043913
 31
0.0
  0
LINE
  5
25A0
330
18
100
AcDbEntity
  8
1
  6
Continuous
100
AcDbLine
 10
330.8972378200284
 20
184.0756961616436
 30
0.0
 11
332.4472378936493
 21
184.0756961616436
 31
0.0
  0
LINE
  5
25A1
330
18
100
AcDbEntity
  8
1
  6
Continuous
100
AcDbLine
 10
330.8972378200282
 20
184.0756961616436
 30
0.0
 11
330.8972378200282
 21
184.9756962043912
 31
0.0
  0
LINE
  5
25A2
330
18
100
AcDbEntity
  8
1
  6
Continuous
100
AcDbLine
 10
333.347237936397
 20
184.0756961616436
 30
0.0
 11
334.897238010018
 21
184.0756961616436
 31
0.0
  0
LINE
  5
25A3
330
18
100
AcDbEntity
  8
1
  6
Continuous
100
AcDbLine
 10
333.347237936397
 20
184.9756962043913
 30
0.0
 11
334.897238010018
 21
184.9756962043913
 31
0.0
  0
LINE
  5
25A4
330
18
100
AcDbEntity
  8
1
  6
Continuous
100
AcDbLine
 10
333.347237936397
 20
182.5256960880227
 30
0.0
 11
333.347237936397
 21
184.0756961616436
 31
0.0
  0
LINE
  5
25A5
330
18
100
AcDbEntity
  8
1
  6
Continuous
100
AcDbLine
 10
334.897238010018
 20
184.0756961616436
 30
0.0
 11
334.897238010018
 21
184.9756962043912
 31
0.0
  0
LINE
  5
25A6
330
18
100
AcDbEntity
  8
1
  6
Continuous
100
AcDbLine
 10
332.4472378936493
 20
186.5256962780124
 30
0.0
 11
333.347237936397
 21
186.5256962780123
 31
0.0
  0
ARC
  5
25A7
330
18
100
AcDbEntity
  8
1
  6
Continuous
100
AcDbCircle
 10
332.8972079148929
 20
240.2268533530043
 30
0.0
 40
3.34776011277981
100
AcDbArc
 50
219.0329218663532
 51
320.9660360231288
  0
LINE
  5
25A9
330
18
100
AcDbEntity
  8
4
  6
CENTER
 48
0.2
100
AcDbLine
 10
332.8972379150228
 20
128.0255414126946
 30
0.0
 11
332.8972379150239
 21
298.7742045092666
 31
0.0
  0
ARC
  5
25AA
330
18
100
AcDbEntity
  8
1
  6
Continuous
100
AcDbCircle
 10
321.9972373973005
 20
173.1256956415466
 30
0.0
 40
1.500000071246182
100
AcDbArc
 50
89.99999999999944
 51
179.9999999999969
  0
ARC
  5
25AB
330
18
100
AcDbEntity
  8
1
  6
Continuous
100
AcDbCircle
 10
343.2958619520574
 20
141.2770705800563
 30
0.0
 40
2.001377019633391
100
AcDbArc
 50
270.0394054587245
 51
0.0391702477481091
  0
ARC
  5
25AD
330
18
100
AcDbEntity
  8
1
  6
Continuous
100
AcDbCircle
 10
322.4986137391031
 20
141.2770704413601
 30
0.0
 40
2.001376880841613
100
AcDbArc
 50
179.9608257803444
 51
269.9605985146097
  0
ARC
  5
25B0
330
18
100
AcDbEntity
  8
1
  6
Continuous
100
AcDbCircle
 10
170.4953873592861
 20
358.0969675696194
 30
0.0
 40
2.492089993761631
100
AcDbArc
 50
172.2117870500702
 51
177.7006488520939
  0
ARC
  5
25CC
330
18
100
AcDbEntity
  8
1
  6
Continuous
100
AcDbCircle
 10
152.0506666520606
 20
375.0682016628845
 30
0.0
 40
9.143598542474922
100
AcDbArc
 50
113.9598700208654
 51
120.7790525186472
  0
ARC
  5
25CD
330
18
100
AcDbEntity
  8
1
  6
Continuous
100
AcDbCircle
 10
148.5245816276756
 20
375.0682016353646
 30
0.0
 40
9.143598573413195
100
AcDbArc
 50
59.22094749283925
 51
66.04012996752461
  0
ARC
  5
25CE
330
18
100
AcDbEntity
  8
1
  6
Continuous
100
AcDbCircle
 10
155.2707179410606
 20
388.7314920303359
 30
0.0
 40
0.5435631676731635
100
AcDbArc
 50
4.474503303153126
 51
93.73870741118677
  0
ARC
  5
25D2
330
18
100
AcDbEntity
  8
1
  6
Continuous
100
AcDbCircle
 10
152.7403068452283
 20
389.0310198118182
 30
0.0
 40
0.2437970404543139
100
AcDbArc
 50
24.21774464441186
 51
85.02501267168034
  0
ARC
  5
25D3
330
18
100
AcDbEntity
  8
1
  6
Continuous
100
AcDbCircle
 10
152.3281894153123
 20
388.7863427469646
 30
0.0
 40
0.7220421102885811
100
AcDbArc
 50
359.012459049019
 51
28.51401767504789
  0
LINE
  5
25EE
330
18
100
AcDbEntity
  8
2
  6
Continuous
100
AcDbLine
 10
147.8291240045043
 20
383.6238981154498
 30
0.0
 11
147.8291240045043
 21
383.4238973430108
 31
0.0
  0
LINE
  5
25EF
330
18
100
AcDbEntity
  8
2
  6
Continuous
100
AcDbLine
 10
152.7461242894891
 20
383.6238981154498
 30
0.0
 11
152.7461242894891
 21
383.4238973430108
 31
0.0
  0
ARC
  5
26C5
330
18
100
AcDbEntity
  8
1
  6
Continuous
100
AcDbCircle
 10
138.3906068424788
 20
379.1192596432192
 30
0.0
 40
0.5000000237487347
100
AcDbArc
 50
90.02711876248152
 51
180.0223367894696
  0
LINE
  5
26DE
330
18
100
AcDbEntity
  8
4
  6
CENTER
 48
0.2
100
AcDbLine
 10
150.2876250019508
 20
346.2238961460752
 30
0.0
 11
150.2876250019508
 21
393.2738983838104
 31
0.0
  0
ARC
  5
26DF
330
18
100
AcDbEntity
  8
1
  6
Continuous
100
AcDbCircle
 10
139.3876253391827
 20
382.9238977007321
 30
0.0
 40
1.50000007124612
100
AcDbArc
 50
89.99999999999785
 51
180.0000000000043
  0
LINE
  5
26E0
330
18
100
AcDbEntity
  8
1
  6
Continuous
100
AcDbLine
 10
137.8876252679366
 20
382.9238977007319
 30
0.0
 11
137.8876252679366
 21
361.4238966795367
 31
0.0
  0
ARC
  5
26E1
330
18
100
AcDbEntity
  8
1
  6
Continuous
100
AcDbCircle
 10
135.7876251681919
 20
368.9507985827424
 30
0.0
 40
3.000000142492371
100
AcDbArc
 50
97.67875282276015
 51
180.0
  0
ARC
  5
26E2
330
18
100
AcDbEntity
  8
1
  6
Continuous
100
AcDbCircle
 10
150.287625856905
 20
261.4061362651486
 30
0.0
 40
111.5177609606086
100
AcDbArc
 50
96.38409455361351
 51
97.67875282269443
  0
ARC
  5
26E3
330
18
100
AcDbEntity
  8
1
  6
Continuous
100
AcDbCircle
 10
150.287625856905
 20
261.4061362651481
 30
0.0
 40
109.5177608656143
100
AcDbArc
 50
96.50117846771406
 51
97.67875282269116
  0
ARC
  5
26E4
330
18
100
AcDbEntity
  8
1
  6
Continuous
100
AcDbCircle
 10
135.7876251681919
 20
368.9507985827424
 30
0.0
 40
1.000000047497451
100
AcDbArc
 50
97.67875282256959
 51
180.0
  0
LINE
  5
26E5
330
18
100
AcDbEntity
  8
1
  6
Continuous
100
AcDbLine
 10
137.8905117306993
 20
363.4238967745316
 30
0.0
 11
137.8876252679366
 21
363.4238967745316
 31
0.0
  0
LINE
  5
26E6
330
18
100
AcDbEntity
  8
1
  6
Continuous
100
AcDbLine
 10
132.7876250256996
 20
363.4238967745316
 30
0.0
 11
134.7876251206945
 21
363.4238967745316
 31
0.0
  0
LINE
  5
26E7
330
18
100
AcDbEntity
  8
1
  6
Continuous
100
AcDbLine
 10
132.7876250256996
 20
362.1238967127849
 30
0.0
 11
134.7876251206945
 21
362.1238967127849
 31
0.0
  0
LINE
  5
26E8
330
18
100
AcDbEntity
  8
1
  6
Continuous
100
AcDbLine
 10
134.7876251206945
 20
368.9507985827424
 30
0.0
 11
134.7876251206945
 21
362.1238967127849
 31
0.0
  0
LINE
  5
26E9
330
18
100
AcDbEntity
  8
1
  6
Continuous
100
AcDbLine
 10
132.7876250256996
 20
368.9507985827424
 30
0.0
 11
132.7876250256996
 21
362.1238967127849
 31
0.0
  0
LINE
  5
26EA
330
18
100
AcDbEntity
  8
1
  6
Continuous
100
AcDbLine
 10
137.9128682680564
 20
365.4238968695265
 30
0.0
 11
137.8905117306993
 21
363.4238967745316
 31
0.0
  0
LINE
  5
26EB
330
18
100
AcDbEntity
  8
1
  6
Continuous
100
AcDbLine
 10
132.2876250019508
 20
361.4238966795367
 30
0.0
 11
132.548964950582
 21
358.4346750461094
 31
0.0
  0
LINE
  5
26EC
330
18
100
AcDbEntity
  8
1
  6
Continuous
100
AcDbLine
 10
139.0776752736041
 20
351.837297428256
 30
0.0
 11
142.5376254887996
 21
350.2238961460752
 31
0.0
  0
ARC
  5
26ED
330
18
100
AcDbEntity
  8
1
  6
Continuous
100
AcDbCircle
 10
150.2876258569051
 20
357.8238965070558
 30
0.0
 40
11.25000053434644
100
AcDbArc
 50
208.699765063581
 51
219.6084156333932
  0
LINE
  5
26EE
330
18
100
AcDbEntity
  8
1
  6
Continuous
100
AcDbLine
 10
141.9376254603012
 20
350.4738963382535
 30
0.0
 11
141.9376254603012
 21
350.5036798620634
 31
0.0
  0
ARC
  5
26EF
330
18
100
AcDbEntity
  8
1
  6
Continuous
100
AcDbCircle
 10
142.2376254745505
 20
350.4738963382535
 30
0.0
 40
0.3000000142492325
100
AcDbArc
 50
179.9999999999991
 51
270.0080082336194
  0
LINE
  5
26F0
330
18
100
AcDbEntity
  8
1
  6
Continuous
100
AcDbLine
 10
139.0776752736041
 20
351.837297428256
 30
0.0
 11
139.1812024975942
 21
352.4244294915066
 31
0.0
  0
ARC
  5
26F1
330
18
100
AcDbEntity
  8
1
  6
Continuous
100
AcDbCircle
 10
132.869792256173
 20
358.1913271601034
 30
0.0
 40
0.2982232161704036
100
AcDbArc
 50
185.4269962098569
 51
219.9491142443129
  0
LINE
  5
26F2
330
18
100
AcDbEntity
  8
1
  6
Continuous
100
AcDbLine
 10
132.5699461309401
 20
358.1969514090149
 30
0.0
 11
132.572905821745
 21
358.1631219883145
 31
0.0
  0
ARC
  5
26F3
330
18
100
AcDbEntity
  8
1
  6
Continuous
100
AcDbCircle
 10
130.0798626446154
 20
358.0969675696194
 30
0.0
 40
2.492089993761631
100
AcDbArc
 50
2.299351147906091
 51
7.788212949929736
  0
ARC
  5
26F4
330
18
100
AcDbEntity
  8
1
  6
Continuous
100
AcDbCircle
 10
150.2876258569046
 20
357.8238965070557
 30
0.0
 40
11.3050510103981
100
AcDbArc
 50
208.5540876432888
 51
219.0268195866123
  0
LINE
  5
26F5
330
18
100
AcDbEntity
  8
1
  6
Continuous
100
AcDbLine
 10
132.6410753163898
 20
357.9997561597175
 30
0.0
 11
137.2876252394381
 21
352.4238962520596
 31
0.0
  0
ARC
  5
26F6
330
18
100
AcDbEntity
  8
1
  6
Continuous
100
AcDbCircle
 10
145.3045320628411
 20
388.7314920303359
 30
0.0
 40
0.5435631676731635
100
AcDbArc
 50
86.26129258881324
 51
175.5254966968468
  0
ARC
  5
26F7
330
18
100
AcDbEntity
  8
1
  6
Continuous
100
AcDbCircle
 10
147.8349431586733
 20
389.0310198118182
 30
0.0
 40
0.2437970404543139
100
AcDbArc
 50
94.97498732831962
 51
155.7822553555881
  0
ARC
  5
26F8
330
18
100
AcDbEntity
  8
1
  6
Continuous
100
AcDbCircle
 10
148.2470605885893
 20
388.7863427469646
 30
0.0
 40
0.7220421102885811
100
AcDbArc
 50
151.4859823249521
 51
180.9875409509809
  0
LINE
  5
26F9
330
18
100
AcDbEntity
  8
1
  6
Continuous
100
AcDbLine
 10
149.2376258070325
 20
389.2738983838104
 30
0.0
 11
145.3399758912135
 21
389.2738983838104
 31
0.0
  0
ARC
  5
26FA
330
18
100
AcDbEntity
  8
1
  6
Continuous
100
AcDbCircle
 10
149.2376258070325
 20
388.9738983695611
 30
0.0
 40
0.3000000142492389
100
AcDbArc
 50
0.000000000000007
 51
90.0
  0
LINE
  5
26FB
330
18
100
AcDbEntity
  8
1
  6
Continuous
100
AcDbLine
 10
147.5251257256934
 20
388.7738983600617
 30
0.0
 11
147.5251257256933
 21
385.7738982175693
 31
0.0
  0
LINE
  5
26FC
330
18
100
AcDbEntity
  8
1
  6
Continuous
100
AcDbLine
 10
144.7626255944814
 20
388.7738983600617
 30
0.0
 11
144.7626255944814
 21
385.7738982175693
 31
0.0
  0
LINE
  5
26FD
330
18
100
AcDbEntity
  8
1
  6
Continuous
100
AcDbLine
 10
149.5376258212819
 20
388.9738983695611
 30
0.0
 11
149.5376258212819
 21
386.7738982650669
 31
0.0
  0
LINE
  5
2702
330
18
100
AcDbEntity
  8
1
  6
Continuous
100
AcDbLine
 10
168.2873149003127
 20
292.0256094828932
 30
0.0
 11
168.2801465469721
 21
136.0241320824755
 31
0.0
  0
LINE
  5
2703
330
18
100
AcDbEntity
  8
1
  6
Continuous
100
AcDbLine
 10
132.2873149087585
 20
292.025793285084
 30
0.0
 11
132.2801466229561
 21
136.0257856854916
 31
0.0
  0
ARC
  5
2704
330
18
100
AcDbEntity
  8
1
  6
Continuous
100
AcDbCircle
 10
134.287314906647
 20
292.0257013839886
 30
0.0
 40
2.0
100
AcDbArc
 50
90.0
 51
179.9973672275479
  0
ARC
  5
2705
330
18
100
AcDbEntity
  8
1
  6
Continuous
100
AcDbCircle
 10
166.2873149024241
 20
292.0257013839886
 30
0.0
 40
2.0
100
AcDbArc
 50
359.9973672275479
 51
90.0
  0
ARC
  5
2706
330
18
100
AcDbEntity
  8
1
  6
Continuous
100
AcDbCircle
 10
166.2801465490836
 20
136.0242239835709
 30
0.0
 40
2.0
100
AcDbArc
 50
269.9947344550959
 51
359.9973672275479
  0
ARC
  5
2707
330
18
100
AcDbEntity
  8
1
  6
Continuous
100
AcDbCircle
 10
134.2801466208447
 20
136.0256937843961
 30
0.0
 40
2.0
100
AcDbArc
 50
179.9973672275479
 51
270.0
  0
LINE
  5
2709
330
18
100
AcDbEntity
  8
4
  6
CENTER
 48
0.2
100
AcDbLine
 10
150.2876250019508
 20
79.7572708247045
 30
0.0
 11
150.2876250019508
 21
32.70726858696917
 31
0.0
  0
LINE
  5
270A
330
18
100
AcDbEntity
  8
1
  6
Continuous
100
AcDbLine
 10
158.037624515102
 20
75.7572708247045
 30
0.0
 11
142.5376254887996
 21
75.75727082470456
 31
0.0
  0
LINE
  5
270B
330
18
100
AcDbEntity
  8
1
  6
Continuous
100
AcDbLine
 10
142.2376674055655
 20
75.80727064385081
 30
0.0
 11
158.3375825985069
 21
75.80727064385081
 31
0.0
  0
LINE
  5
270C
330
18
100
AcDbEntity
  8
1
  6
Continuous
100
AcDbLine
 10
163.2880455415601
 20
73.55727071872002
 30
0.0
 11
137.2876252394381
 21
73.55727071871995
 31
0.0
  0
LINE
  5
270D
330
18
100
AcDbEntity
  8
1
  6
Continuous
100
AcDbLine
 10
132.2876250019508
 20
64.55727029124296
 30
0.0
 11
168.2876250019508
 21
64.5572702912429
 31
0.0
  0
LINE
  5
270E
330
18
100
AcDbEntity
  8
1
  6
Continuous
100
AcDbLine
 10
162.6623817358451
 20
60.55727010125309
 30
0.0
 11
137.8876235580283
 21
60.55727010125309
 31
0.0
  0
LINE
  5
2713
330
18
100
AcDbEntity
  8
1
  6
Continuous
100
AcDbLine
 10
137.8876252679366
 20
43.05726927004768
 30
0.0
 11
137.8876252679366
 21
64.5572702912429
 31
0.0
  0
LINE
  5
2714
330
18
100
AcDbEntity
  8
1
  6
Continuous
100
AcDbLine
 10
132.7876250256996
 20
57.03036838803729
 30
0.0
 11
132.7876250256996
 21
63.85727025799468
 31
0.0
  0
LINE
  5
2715
330
18
100
AcDbEntity
  8
1
  6
Continuous
100
AcDbLine
 10
134.7876251206945
 20
57.03036838803729
 30
0.0
 11
134.7876251206945
 21
63.85727025799473
 31
0.0
  0
LINE
  5
2716
330
18
100
AcDbEntity
  8
1
  6
Continuous
100
AcDbLine
 10
132.6410753163898
 20
67.98141081106212
 30
0.0
 11
137.2876252394381
 21
73.55727071871995
 31
0.0
  0
LINE
  5
2717
330
18
100
AcDbEntity
  8
1
  6
Continuous
100
AcDbLine
 10
139.0776752736041
 20
74.14386954252359
 30
0.0
 11
142.5376254887996
 21
75.75727082470456
 31
0.0
  0
ARC
  5
2719
330
18
100
AcDbEntity
  8
1
  6
Continuous
100
AcDbCircle
 10
142.2376254745505
 20
75.50727063252612
 30
0.0
 40
0.3000000142492325
100
AcDbArc
 50
89.99199176638056
 51
180.0000000000007
  0
LINE
  5
271A
330
18
100
AcDbEntity
  8
1
  6
Continuous
100
AcDbLine
 10
141.9376254603012
 20
75.50727063252612
 30
0.0
 11
141.9376254603012
 21
75.47748710871622
 31
0.0
  0
LINE
  5
271B
330
18
100
AcDbEntity
  8
1
  6
Continuous
100
AcDbLine
 10
139.0776752736041
 20
74.14386954252359
 30
0.0
 11
139.1812024975942
 21
73.55673747927295
 31
0.0
  0
LINE
  5
271D
330
18
100
AcDbEntity
  8
1
  6
Continuous
100
AcDbLine
 10
132.2876250019508
 20
64.55727029124296
 30
0.0
 11
132.548964950582
 21
67.54649192467019
 31
0.0
  0
ARC
  5
271E
330
18
100
AcDbEntity
  8
1
  6
Continuous
100
AcDbCircle
 10
130.0798626446154
 20
67.88419940116023
 30
0.0
 40
2.492089993761631
100
AcDbArc
 50
352.2117870500702
 51
357.7006488520939
  0
LINE
  5
271F
330
18
100
AcDbEntity
  8
1
  6
Continuous
100
AcDbLine
 10
132.5699461309401
 20
67.7842155617646
 30
0.0
 11
132.572905821745
 21
67.81804498246515
 31
0.0
  0
ARC
  5
2720
330
18
100
AcDbEntity
  8
1
  6
Continuous
100
AcDbCircle
 10
132.869792256173
 20
67.78983981067625
 30
0.0
 40
0.2982232161704036
100
AcDbArc
 50
140.050885755687
 51
174.573003790143
  0
LINE
  5
2721
330
18
100
AcDbEntity
  8
1
  6
Continuous
100
AcDbLine
 10
137.9128682680564
 20
60.55727010125309
 30
0.0
 11
137.8905117306993
 21
62.55727019624799
 31
0.0
  0
LINE
  5
2722
330
18
100
AcDbEntity
  8
1
  6
Continuous
100
AcDbLine
 10
132.7876250256996
 20
63.85727025799468
 30
0.0
 11
134.7876251206945
 21
63.85727025799468
 31
0.0
  0
LINE
  5
2723
330
18
100
AcDbEntity
  8
1
  6
Continuous
100
AcDbLine
 10
132.7876250256996
 20
62.55727019624799
 30
0.0
 11
134.7876251206945
 21
62.55727019624799
 31
0.0
  0
LINE
  5
2724
330
18
100
AcDbEntity
  8
1
  6
Continuous
100
AcDbLine
 10
137.8905117306993
 20
62.55727019624799
 30
0.0
 11
137.8876252679366
 21
62.55727019624799
 31
0.0
  0
ARC
  5
2726
330
18
100
AcDbEntity
  8
1
  6
Continuous
100
AcDbCircle
 10
150.287625856905
 20
164.575030705631
 30
0.0
 40
111.5177609606086
100
AcDbArc
 50
262.3212471773055
 51
263.6159054463864
  0
ARC
  5
2727
330
18
100
AcDbEntity
  8
1
  6
Continuous
100
AcDbCircle
 10
135.7876251681919
 20
57.03036838803729
 30
0.0
 40
3.000000142492371
100
AcDbArc
 50
180.0
 51
262.3212471772398
  0
ARC
  5
2728
330
18
100
AcDbEntity
  8
1
  6
Continuous
100
AcDbCircle
 10
135.7876251681919
 20
57.03036838803729
 30
0.0
 40
1.000000047497451
100
AcDbArc
 50
180.0
 51
262.3212471774304
  0
ARC
  5
2729
330
18
100
AcDbEntity
  8
1
  6
Continuous
100
AcDbCircle
 10
150.287625856905
 20
164.5750307056315
 30
0.0
 40
109.5177608656143
100
AcDbArc
 50
262.3212471773088
 51
263.4988215322859
  0
ARC
  5
272C
330
18
100
AcDbEntity
  8
1
  6
Continuous
100
AcDbCircle
 10
139.3876253391827
 20
43.05726927004758
 30
0.0
 40
1.50000007124612
100
AcDbArc
 50
179.9999999999955
 51
270.0000000000021
  0
LINE
  5
272D
330
18
100
AcDbEntity
  8
1
  6
Continuous
100
AcDbLine
 10
162.6876247359651
 20
43.05726927004768
 30
0.0
 11
162.6876247359651
 21
64.5572702912429
 31
0.0
  0
LINE
  5
272E
330
18
100
AcDbEntity
  8
1
  6
Continuous
100
AcDbLine
 10
165.7876248832072
 20
57.03036838803729
 30
0.0
 11
165.7876248832072
 21
63.85727025799473
 31
0.0
  0
LINE
  5
272F
330
18
100
AcDbEntity
  8
1
  6
Continuous
100
AcDbLine
 10
167.7876249782021
 20
57.03036838803729
 30
0.0
 11
167.7876249782021
 21
63.85727025799468
 31
0.0
  0
LINE
  5
2730
330
18
100
AcDbEntity
  8
1
  6
Continuous
100
AcDbLine
 10
168.2876250019508
 20
64.5572702912429
 30
0.0
 11
168.0262850533195
 21
67.54649192467019
 31
0.0
  0
LINE
  5
2731
330
18
100
AcDbEntity
  8
1
  6
Continuous
100
AcDbLine
 10
167.9341746875118
 20
67.98141081106212
 30
0.0
 11
163.2876261088615
 21
73.55726910544241
 31
0.0
  0
LINE
  5
2732
330
18
100
AcDbEntity
  8
1
  6
Continuous
100
AcDbLine
 10
161.4975747302976
 20
74.14386954252359
 30
0.0
 11
158.037624515102
 21
75.7572708247045
 31
0.0
  0
LINE
  5
2734
330
18
100
AcDbEntity
  8
1
  6
Continuous
100
AcDbLine
 10
158.6376245436004
 20
75.50727063252612
 30
0.0
 11
158.6376245436004
 21
75.47748710871622
 31
0.0
  0
ARC
  5
2735
330
18
100
AcDbEntity
  8
1
  6
Continuous
100
AcDbCircle
 10
158.3376245293511
 20
75.50727063252612
 30
0.0
 40
0.3000000142492325
100
AcDbArc
 50
359.9999999999992
 51
90.00800820100172
  0
LINE
  5
2736
330
18
100
AcDbEntity
  8
1
  6
Continuous
100
AcDbLine
 10
161.4975747302976
 20
74.14386954252359
 30
0.0
 11
161.3940475063074
 21
73.55673747927295
 31
0.0
  0
ARC
  5
2738
330
18
100
AcDbEntity
  8
1
  6
Continuous
100
AcDbCircle
 10
167.7054577477286
 20
67.78983981067625
 30
0.0
 40
0.2982232161704036
100
AcDbArc
 50
5.426996209856978
 51
39.94911424431293
  0
LINE
  5
2739
330
18
100
AcDbEntity
  8
1
  6
Continuous
100
AcDbLine
 10
168.0053038729615
 20
67.7842155617646
 30
0.0
 11
168.0023441821566
 21
67.81804498246515
 31
0.0
  0
ARC
  5
273A
330
18
100
AcDbEntity
  8
1
  6
Continuous
100
AcDbCircle
 10
170.4953873592861
 20
67.88419940116023
 30
0.0
 40
2.492089993761631
100
AcDbArc
 50
182.299351147906
 51
187.7882129499297
  0
LINE
  5
273B
330
18
100
AcDbEntity
  8
1
  6
Continuous
100
AcDbLine
 10
162.6847382732023
 20
62.55727019624799
 30
0.0
 11
162.6876247359651
 21
62.55727019624799
 31
0.0
  0
LINE
  5
273C
330
18
100
AcDbEntity
  8
1
  6
Continuous
100
AcDbLine
 10
167.7876249782021
 20
62.55727019624799
 30
0.0
 11
165.7876248832072
 21
62.55727019624799
 31
0.0
  0
LINE
  5
273D
330
18
100
AcDbEntity
  8
1
  6
Continuous
100
AcDbLine
 10
167.7876249782021
 20
63.85727025799468
 30
0.0
 11
165.7876248832072
 21
63.85727025799468
 31
0.0
  0
LINE
  5
273E
330
18
100
AcDbEntity
  8
1
  6
Continuous
100
AcDbLine
 10
162.6623817358451
 20
60.55727010125309
 30
0.0
 11
162.6847382732023
 21
62.55727019624799
 31
0.0
  0
ARC
  5
273F
330
18
100
AcDbEntity
  8
1
  6
Continuous
100
AcDbCircle
 10
164.7876248357097
 20
57.03036838803729
 30
0.0
 40
3.000000142492371
100
AcDbArc
 50
277.6787528227601
 51
0.0
  0
ARC
  5
2746
330
18
100
AcDbEntity
  8
1
  6
Continuous
100
AcDbCircle
 10
150.2876241469967
 20
164.575030705631
 30
0.0
 40
111.5177609606086
100
AcDbArc
 50
276.3840945536135
 51
277.6787528226944
  0
ARC
  5
2747
330
18
100
AcDbEntity
  8
1
  6
Continuous
100
AcDbCircle
 10
150.2876241469967
 20
164.5750307056315
 30
0.0
 40
109.5177608656143
100
AcDbArc
 50
276.501178467714
 51
277.6787528226911
  0
ARC
  5
2748
330
18
100
AcDbEntity
  8
1
  6
Continuous
100
AcDbCircle
 10
164.7876248357097
 20
57.03036838803729
 30
0.0
 40
1.000000047497451
100
AcDbArc
 50
277.6787528225696
 51
0.0
  0
ARC
  5
274B
330
18
100
AcDbEntity
  8
1
  6
Continuous
100
AcDbCircle
 10
155.2707179410606
 20
37.24967494044381
 30
0.0
 40
0.5435631676731635
100
AcDbArc
 50
266.2612925888132
 51
355.5254966968468
  0
LINE
  5
274E
330
18
100
AcDbEntity
  8
1
  6
Continuous
100
AcDbLine
 10
157.0376244676045
 20
41.20726880070775
 30
0.0
 11
143.5376238263911
 21
41.20726880070775
 31
0.0
  0
LINE
  5
274F
330
18
100
AcDbEntity
  8
1
  6
Continuous
100
AcDbLine
 10
155.8126244094201
 20
40.20726875321026
 30
0.0
 11
144.7626238845763
 21
40.20726875321019
 31
0.0
  0
ARC
  5
2750
330
18
100
AcDbEntity
  8
1
  6
Continuous
100
AcDbCircle
 10
149.2376258070325
 20
37.00726860121841
 30
0.0
 40
0.3000000142492389
100
AcDbArc
 50
270.0
 51
0.0
  0
LINE
  5
2751
330
18
100
AcDbEntity
  8
1
  6
Continuous
100
AcDbLine
 10
149.2376258070325
 20
36.70726858696918
 30
0.0
 11
145.3399758912135
 21
36.70726858696918
 31
0.0
  0
ARC
  5
2752
330
18
100
AcDbEntity
  8
1
  6
Continuous
100
AcDbCircle
 10
148.2470605885893
 20
37.19482422381503
 30
0.0
 40
0.7220421102885811
100
AcDbArc
 50
179.012459049019
 51
208.5140176750478
  0
ARC
  5
2753
330
18
100
AcDbEntity
  8
1
  6
Continuous
100
AcDbCircle
 10
147.8349431586733
 20
36.95014715896155
 30
0.0
 40
0.2437970404543139
100
AcDbArc
 50
204.2177446444118
 51
265.0250126716804
  0
ARC
  5
2754
330
18
100
AcDbEntity
  8
1
  6
Continuous
100
AcDbCircle
 10
145.3045320628411
 20
37.24967494044381
 30
0.0
 40
0.5435631676731635
100
AcDbArc
 50
184.4745033031531
 51
273.7387074111867
  0
ARC
  5
2755
330
18
100
AcDbEntity
  8
1
  6
Continuous
100
AcDbCircle
 10
152.7403068452283
 20
36.95014715896155
 30
0.0
 40
0.2437970404543139
100
AcDbArc
 50
274.9749873283196
 51
335.7822553555881
  0
ARC
  5
2756
330
18
100
AcDbEntity
  8
1
  6
Continuous
100
AcDbCircle
 10
152.3281894153123
 20
37.19482422381503
 30
0.0
 40
0.7220421102885811
100
AcDbArc
 50
331.485982324952
 51
0.9875409509809603
  0
LINE
  5
2757
330
18
100
AcDbEntity
  8
1
  6
Continuous
100
AcDbLine
 10
151.337624196869
 20
36.70726858696918
 30
0.0
 11
155.2352741126881
 21
36.70726858696918
 31
0.0
  0
ARC
  5
2758
330
18
100
AcDbEntity
  8
1
  6
Continuous
100
AcDbCircle
 10
151.337624196869
 20
37.00726860121841
 30
0.0
 40
0.3000000142492389
100
AcDbArc
 50
180.0
 51
270.0
  0
LINE
  5
275D
330
18
100
AcDbEntity
  8
1
  6
Continuous
100
AcDbLine
 10
151.0376241826197
 20
39.20726870571279
 30
0.0
 11
149.5376241113736
 21
39.20726870571279
 31
0.0
  0
LINE
  5
2763
330
18
100
AcDbEntity
  8
1
  6
Continuous
100
AcDbLine
 10
143.5376238263889
 20
41.20726880070775
 30
0.0
 11
143.5376238263889
 21
41.55726919880158
 31
0.0
  0
LINE
  5
2764
330
18
100
AcDbEntity
  8
1
  6
Continuous
100
AcDbLine
 10
144.7626238845732
 20
40.20726875321019
 30
0.0
 11
143.5376238263889
 21
41.20726880070775
 31
0.0
  0
LINE
  5
2783
330
18
100
AcDbEntity
  8
1
  6
Continuous
100
AcDbLine
 10
144.7626255944814
 20
37.2072686107179
 30
0.0
 11
144.7626255944814
 21
40.20726875321019
 31
0.0
  0
LINE
  5
2784
330
18
100
AcDbEntity
  8
1
  6
Continuous
100
AcDbLine
 10
149.5376258212819
 20
37.00726860121841
 30
0.0
 11
149.5376258212819
 21
39.20726870571279
 31
0.0
  0
LINE
  5
2785
330
18
100
AcDbEntity
  8
1
  6
Continuous
100
AcDbLine
 10
147.5251257256934
 20
37.2072686107179
 30
0.0
 11
147.5251257256933
 21
40.20726875321037
 31
0.0
  0
LINE
  5
2786
330
18
100
AcDbEntity
  8
1
  6
Continuous
100
AcDbLine
 10
153.0501242782082
 20
37.2072686107179
 30
0.0
 11
153.0501242782084
 21
40.20726875321037
 31
0.0
  0
LINE
  5
2787
330
18
100
AcDbEntity
  8
1
  6
Continuous
100
AcDbLine
 10
151.0376241826197
 20
37.00726860121841
 30
0.0
 11
151.0376241826197
 21
39.20726870571279
 31
0.0
  0
ARC
  5
278C
330
18
100
AcDbEntity
  8
1
  6
Continuous
100
AcDbCircle
 10
161.1876246647189
 20
43.05726927004758
 30
0.0
 40
1.50000007124612
100
AcDbArc
 50
269.9999999999978
 51
0.0000000000043396
  0
LINE
  5
278D
330
18
100
AcDbEntity
  8
1
  6
Continuous
100
AcDbLine
 10
139.3876253391827
 20
41.55726919880158
 30
0.0
 11
161.1876246647189
 21
41.55726919880158
 31
0.0
  0
LINE
  5
2790
330
18
100
AcDbEntity
  8
1
  6
Continuous
100
AcDbLine
 10
157.0376244676045
 20
41.55726919880158
 30
0.0
 11
157.0376244676045
 21
41.20726880070775
 31
0.0
  0
LINE
  5
2791
330
18
100
AcDbEntity
  8
1
  6
Continuous
100
AcDbLine
 10
157.0376244676043
 20
41.20726880070771
 30
0.0
 11
155.8126244094201
 21
40.20726875321026
 31
0.0
  0
LINE
  5
2792
330
18
100
AcDbEntity
  8
1
  6
Continuous
100
AcDbLine
 10
155.8126244094202
 20
37.2072686107179
 30
0.0
 11
155.8126244094202
 21
40.20726875321026
 31
0.0
  0
LINE
  5
2793
330
18
100
AcDbEntity
  8
1
  6
Continuous
100
AcDbLine
 10
134.5495756069743
 20
67.77044810698282
 30
0.0
 11
143.95505211274
 21
73.55727071871995
 31
0.0
  0
LINE
  5
2794
330
18
100
AcDbEntity
  8
1
  6
Continuous
100
AcDbLine
 10
133.5495756069808
 20
67.77044448510334
 30
0.0
 11
167.0254891064985
 21
67.7705657308275
 31
0.0
  0
LINE
  5
279B
330
18
100
AcDbEntity
  8
1
  6
Continuous
100
AcDbLine
 10
166.0254891065051
 20
67.77056210894802
 30
0.0
 11
156.6201978911617
 21
73.55727071871995
 31
0.0
  0
LINE
  5
27C3
330
18
100
AcDbEntity
  8
4
  6
CENTER
 48
0.2
100
AcDbLine
 10
172.2873149003127
 20
214.0256975841923
 30
0.0
 11
129.2873149087585
 21
214.0256975841923
 31
0.0
  0
LINE
  5
27D2
330
18
100
AcDbEntity
  8
4
  6
CENTER
 48
0.2
100
AcDbLine
 10
171.7860282849094
 20
264.0256999590648
 30
0.0
 11
128.7860282933552
 21
264.0256999590648
 31
0.0
  0
ARC
  5
2877
330
18
100
AcDbEntity
  8
1
  6
Continuous
100
AcDbCircle
 10
63.19237458112102
 20
264.033704087233
 30
0.0
 40
11.25000037020349
100
AcDbArc
 50
47.49742726378879
 51
59.83072776848898
  0
LINE
  5
2878
330
18
100
AcDbEntity
  8
1
  6
Continuous
100
AcDbLine
 10
68.59356942360463
 20
277.0332082536457
 30
0.0
 11
68.58038161579469
 21
133.5332020480162
 31
0.0
  0
LINE
  5
2879
330
18
100
AcDbEntity
  8
1
  6
Continuous
100
AcDbLine
 10
63.02220356712357
 20
289.0386746093204
 30
0.0
 11
63.00840305355207
 21
138.8716563701141
 31
0.0
  0
LINE
  5
287D
330
18
100
AcDbEntity
  8
1
  6
Continuous
100
AcDbLine
 10
57.59037569474014
 20
242.2876112925801
 30
0.0
 11
57.59446498179989
 21
286.7842195919374
 31
0.0
  0
LINE
  5
287E
330
18
100
AcDbEntity
  8
1
  6
Continuous
100
AcDbLine
 10
59.59513135132199
 20
294.0340361034784
 30
0.0
 11
59.58042717536615
 21
134.0340291795511
 31
0.0
  0
ARC
  5
287F
330
18
100
AcDbEntity
  8
1
  6
Continuous
100
AcDbCircle
 10
51.14756781841346
 20
184.5348067787518
 30
0.0
 40
6.062500291004218
100
AcDbArc
 50
132.069756513523
 51
160.7322161473855
  0
LINE
  5
2880
330
18
100
AcDbEntity
  8
1
  6
Continuous
100
AcDbLine
 10
70.78042766208274
 20
134.0330063417057
 30
0.0
 11
70.79313709900901
 21
272.3277331127575
 31
0.0
  0
LINE
  5
2881
330
18
100
AcDbEntity
  8
1
  6
Continuous
100
AcDbLine
 10
57.585435698752
 20
188.5342153402133
 30
0.0
 11
57.58517409249577
 21
185.6876088432408
 31
0.0
  0
LINE
  5
2882
330
18
100
AcDbEntity
  8
1
  6
Continuous
100
AcDbLine
 10
47.08451623337206
 20
178.5351798690149
 30
0.0
 11
47.08561904656874
 21
190.5351803883095
 31
0.0
  0
LINE
  5
2883
330
18
100
AcDbEntity
  8
1
  6
Continuous
100
AcDbLine
 10
48.08439252203992
 20
177.1884815358544
 30
0.0
 11
48.09104125472654
 21
249.5350910404079
 31
0.0
  0
LINE
  5
2884
330
18
100
AcDbEntity
  8
1
  6
Continuous
100
AcDbLine
 10
56.5900448075066
 20
238.6877030378914
 30
0.0
 11
56.58526595032096
 21
186.687700787615
 31
0.0
  0
LINE
  5
2885
330
18
100
AcDbEntity
  8
1
  6
Continuous
100
AcDbLine
 10
69.16792716120525
 20
143.8347183779377
 30
0.0
 11
69.17880966441811
 21
262.2500987867025
 31
0.0
  0
LINE
  5
2886
330
18
100
AcDbEntity
  8
1
  6
Continuous
100
AcDbLine
 10
57.58109337179003
 20
141.284213295491
 30
0.0
 11
57.58281651740986
 21
160.0342141068888
 31
0.0
  0
LINE
  5
2887
330
18
100
AcDbEntity
  8
1
  6
Continuous
100
AcDbLine
 10
68.58180608282438
 20
149.0332027225028
 30
0.0
 11
62.76097713291022
 21
134.4850077759115
 31
0.0
  0
ARC
  5
2889
330
18
100
AcDbEntity
  8
1
  6
Continuous
100
AcDbCircle
 10
62.479336896213
 20
134.5886150410009
 30
0.0
 40
0.3000927994880396
100
AcDbArc
 50
274.6954296524142
 51
339.8028965713385
  0
ARC
  5
288B
330
18
100
AcDbEntity
  8
1
  6
Continuous
100
AcDbCircle
 10
70.2804276398939
 20
134.0330458377839
 30
0.0
 40
0.5000000237487398
100
AcDbArc
 50
269.9947344551024
 51
359.9951042690577
  0
LINE
  5
288C
330
18
100
AcDbEntity
  8
1
  6
Continuous
100
AcDbLine
 10
70.28038168934404
 20
133.5330458161467
 30
0.0
 11
68.58038161579469
 21
133.5332020480162
 31
0.0
  0
LINE
  5
2891
330
18
100
AcDbEntity
  8
1
  6
Continuous
100
AcDbLine
 10
59.58042717536615
 20
134.0340291795511
 30
0.0
 11
62.50390219538246
 21
134.2895293770467
 31
0.0
  0
ARC
  5
2892
330
18
100
AcDbEntity
  8
1
  6
Continuous
100
AcDbCircle
 10
72.0858236153729
 20
138.3577844435952
 30
0.0
 40
1.888578689110896
100
AcDbArc
 50
197.1042034402745
 51
219.6989312955462
  0
ARC
  5
2893
330
18
100
AcDbEntity
  8
1
  6
Continuous
100
AcDbCircle
 10
70.69211249142694
 20
137.1885439226304
 30
0.0
 40
0.0700173305725491
100
AcDbArc
 50
211.9924069626199
 51
351.1608678831039
  0
ARC
  5
2894
330
18
100
AcDbEntity
  8
1
  6
Continuous
100
AcDbCircle
 10
89.27458326654644
 20
144.4251288597816
 30
0.0
 40
20.11532262419878
100
AcDbArc
 50
181.6819460685684
 51
199.2227324646745
  0
ARC
  5
2895
330
18
100
AcDbEntity
  8
1
  6
Continuous
100
AcDbCircle
 10
66.00754579947892
 20
145.4098109816743
 30
0.0
 40
3.531136794589238
100
AcDbArc
 50
316.7909263687231
 51
333.5089365363579
  0
LINE
  5
2896
330
18
100
AcDbEntity
  8
1
  6
Continuous
100
AcDbLine
 10
57.58109337179003
 20
141.284213295491
 30
0.0
 11
55.58108365257563
 21
141.1795815345886
 31
0.0
  0
LINE
  5
2897
330
18
100
AcDbEntity
  8
1
  6
Continuous
100
AcDbLine
 10
59.58090965613982
 20
139.284029406745
 30
0.0
 11
55.58092874837183
 21
139.4940281373477
 31
0.0
  0
LINE
  5
2898
330
18
100
AcDbEntity
  8
1
  6
Continuous
100
AcDbLine
 10
55.58092874837171
 20
139.4940281373479
 30
0.0
 11
55.58108365257586
 21
141.1795815345849
 31
0.0
  0
LINE
  5
289A
330
18
100
AcDbEntity
  8
1
  6
Continuous
100
AcDbLine
 10
70.833924188156
 20
172.0833073654176
 30
0.0
 11
70.83244458045098
 21
155.9833066743615
 31
0.0
  0
ARC
  5
289B
330
18
100
AcDbEntity
  8
1
  6
Continuous
100
AcDbCircle
 10
87.9904838149522
 20
164.0314198158264
 30
0.0
 40
17.53371456930648
100
AcDbArc
 50
168.9218177955775
 51
191.0676511146141
  0
LINE
  5
289C
330
18
100
AcDbEntity
  8
1
  6
Continuous
100
AcDbLine
 10
36.58423090038878
 20
175.4362816666292
 30
0.0
 11
36.58181388137694
 21
149.1360619335845
 31
0.0
  0
LINE
  5
289D
330
18
100
AcDbEntity
  8
1
  6
Continuous
100
AcDbLine
 10
57.58167694377329
 20
147.6342135702844
 30
0.0
 11
38.0816760999196
 21
147.636005641729
 31
0.0
  0
ARC
  5
289E
330
18
100
AcDbEntity
  8
1
  6
Continuous
100
AcDbCircle
 10
70.53244469954745
 20
155.9830238124018
 30
0.0
 40
0.3000000142492325
100
AcDbArc
 50
328.1160861592042
 51
0.0540226603514541
  0
ARC
  5
289F
330
18
100
AcDbEntity
  8
1
  6
Continuous
100
AcDbCircle
 10
38.0818139515693
 20
149.1360057066409
 30
0.0
 40
1.500000071246167
100
AcDbArc
 50
179.9978522912834
 51
269.9947344550959
  0
LINE
  5
28A0
330
18
100
AcDbEntity
  8
4
  6
CENTER
 48
0.2
100
AcDbLine
 10
61.29610904201652
 20
184.5338741183855
 30
0.0
 11
42.11856215619632
 21
184.5356365559581
 31
0.0
  0
LINE
  5
28A1
330
18
100
AcDbEntity
  8
1
  6
Continuous
100
AcDbLine
 10
55.58439284659904
 20
177.1877922776065
 30
0.0
 11
48.08439252203992
 21
177.1884815358544
 31
0.0
  0
LINE
  5
28A2
330
18
100
AcDbEntity
  8
1
  6
Continuous
100
AcDbLine
 10
38.08436880214162
 20
176.9360069096733
 30
0.0
 11
54.5843695161716
 21
176.9344905415277
 31
0.0
  0
LINE
  5
28A3
330
18
100
AcDbEntity
  8
1
  6
Continuous
100
AcDbLine
 10
38.08415742961221
 20
174.6360068101418
 30
0.0
 11
57.58415827346585
 21
174.6342147386972
 31
0.0
  0
LINE
  5
28A4
330
18
100
AcDbEntity
  8
1
  6
Continuous
100
AcDbLine
 10
54.58439280332448
 20
177.1878841787063
 30
0.0
 11
54.58436580443728
 21
176.8941021841621
 31
0.0
  0
ARC
  5
28A5
330
18
100
AcDbEntity
  8
1
  6
Continuous
100
AcDbCircle
 10
55.5845766487985
 20
179.1877923641557
 30
0.0
 40
2.000000094994911
100
AcDbArc
 50
269.9947344550959
 51
359.9947344550963
  0
LINE
  5
28A6
330
18
100
AcDbEntity
  8
1
  6
Continuous
100
AcDbLine
 10
57.58402042181625
 20
173.1342146737853
 30
0.0
 11
57.5849351496365
 21
183.087608730727
 31
0.0
  0
ARC
  5
28A7
330
18
100
AcDbEntity
  8
1
  6
Continuous
100
AcDbCircle
 10
70.53392430725299
 20
172.083024509122
 30
0.0
 40
0.3000000142492325
100
AcDbArc
 50
0.002734685650425
 51
31.74652086226436
  0
LINE
  5
28A8
330
18
100
AcDbEntity
  8
1
  6
Continuous
100
AcDbLine
 10
57.5843659342609
 20
176.893826480863
 30
0.0
 11
54.58436580443728
 21
176.8941021841621
 31
0.0
  0
LINE
  5
28A9
330
18
100
AcDbEntity
  8
1
  6
Continuous
100
AcDbLine
 10
58.88505450053013
 20
184.3874891387938
 30
0.0
 11
57.5849351496365
 21
183.087608730727
 31
0.0
  0
LINE
  5
28AA
330
18
100
AcDbEntity
  8
1
  6
Continuous
100
AcDbLine
 10
56.58526595032096
 20
186.6877007876151
 30
0.0
 11
58.88505467732303
 21
184.3874893155542
 31
0.0
  0
ARC
  5
28AB
330
18
100
AcDbEntity
  8
1
  6
Continuous
100
AcDbCircle
 10
38.08423095049204
 20
175.4360068447613
 30
0.0
 40
1.50000007124619
100
AcDbArc
 50
89.9947344550959
 51
179.9895025783574
  0
ARC
  5
28AC
330
18
100
AcDbEntity
  8
1
  6
Continuous
100
AcDbCircle
 10
38.08401957796263
 20
173.13600674523
 30
0.0
 40
1.5000000712462
100
AcDbArc
 50
89.9947344550959
 51
179.9947344550958
  0
ARC
  5
28AD
330
18
100
AcDbEntity
  8
1
  6
Continuous
100
AcDbCircle
 10
51.14756781673236
 20
184.5348067810617
 30
0.0
 40
6.062500289062302
100
AcDbArc
 50
199.257252758453
 51
227.9197124015081
  0
LINE
  5
28AE
330
18
100
AcDbEntity
  8
1
  6
Continuous
100
AcDbLine
 10
45.11852078803356
 20
184.0853608331986
 30
0.0
 11
45.44214224295394
 21
184.0853310920323
 31
0.0
  0
ARC
  5
28AF
330
18
100
AcDbEntity
  8
1
  6
Continuous
100
AcDbCircle
 10
51.14756781577302
 20
184.5348067804446
 30
0.0
 40
6.045776188562943
100
AcDbArc
 50
184.2633292160416
 51
199.3126496217889
  0
LINE
  5
28B0
330
18
100
AcDbEntity
  8
1
  6
Continuous
100
AcDbLine
 10
45.44222495394367
 20
184.9853311309794
 30
0.0
 11
45.1186034990227
 21
184.9853608721458
 31
0.0
  0
ARC
  5
28B1
330
18
100
AcDbEntity
  8
1
  6
Continuous
100
AcDbCircle
 10
51.14756781577121
 20
184.5348067804451
 30
0.0
 40
6.045776188561061
100
AcDbArc
 50
160.6768192884005
 51
175.7261396941526
  0
ARC
  5
28B2
330
18
100
AcDbEntity
  8
1
  6
Continuous
100
AcDbCircle
 10
51.14756781578893
 20
184.5348067804451
 30
0.0
 40
5.723103123449134
100
AcDbArc
 50
175.4849881097458
 51
184.5044808004589
  0
LINE
  5
28B3
330
18
100
AcDbEntity
  8
1
  6
Continuous
100
AcDbLine
 10
45.42464851870732
 20
186.5353328264396
 30
0.0
 11
45.44236740064826
 21
186.5353311980549
 31
0.0
  0
LINE
  5
28B4
330
18
100
AcDbEntity
  8
1
  6
Continuous
100
AcDbLine
 10
45.44199979624937
 20
182.5353310249568
 30
0.0
 11
45.42428091430821
 21
182.5353326533414
 31
0.0
  0
LINE
  5
28B5
330
18
100
AcDbEntity
  8
1
  6
Continuous
100
AcDbLine
 10
48.08451627664657
 20
178.5350879679152
 30
0.0
 11
47.08451623337206
 21
178.5351798690149
 31
0.0
  0
LINE
  5
28B6
330
18
100
AcDbEntity
  8
4
  6
CENTER
 48
0.2
100
AcDbLine
 10
28.74237274433329
 20
264.0368699541904
 30
0.0
 11
61.59237421488954
 21
264.03385100306
 31
0.0
  0
LINE
  5
28B7
330
18
100
AcDbEntity
  8
1
  6
Continuous
100
AcDbLine
 10
56.58543565547748
 20
188.534307241313
 30
0.0
 11
59.58543578530111
 21
188.5340315380139
 31
0.0
  0
LINE
  5
28B8
330
18
100
AcDbEntity
  8
1
  6
Continuous
100
AcDbLine
 10
47.08561904656874
 20
190.5351803883095
 30
0.0
 11
48.08561908984327
 21
190.5350884872098
 31
0.0
  0
LINE
  5
28BC
330
18
100
AcDbEntity
  8
1
  6
Continuous
100
AcDbLine
 10
55.59091779582947
 20
248.1877953501019
 30
0.0
 11
48.09091750012028
 21
248.1884846083475
 31
0.0
  0
LINE
  5
28BD
330
18
100
AcDbEntity
  8
4
  6
CENTER
 48
0.2
100
AcDbLine
 10
61.30153120690021
 20
243.5338766715838
 30
0.0
 11
42.12398432108004
 21
243.5356391091564
 31
0.0
  0
LINE
  5
28BF
330
18
100
AcDbEntity
  8
1
  6
Continuous
100
AcDbLine
 10
57.59037569474014
 20
242.2876112925801
 30
0.0
 11
58.89025627956744
 21
240.9874917648935
 31
0.0
  0
LINE
  5
28C0
330
18
100
AcDbEntity
  8
1
  6
Continuous
100
AcDbLine
 10
59.59012274138704
 20
239.5340337450157
 30
0.0
 11
57.43672902198679
 21
239.534231644258
 31
0.0
  0
LINE
  5
28C1
330
18
100
AcDbEntity
  8
1
  6
Continuous
100
AcDbLine
 10
58.8902561027745
 20
240.9874915881331
 30
0.0
 11
56.5900448075066
 21
238.6877030378914
 31
0.0
  0
LINE
  5
28C2
330
18
100
AcDbEntity
  8
1
  6
Continuous
100
AcDbLine
 10
57.59123836987888
 20
251.6746064282006
 30
0.0
 11
54.59123824005525
 21
251.6748821314998
 31
0.0
  0
LINE
  5
28C3
330
18
100
AcDbEntity
  8
1
  6
Continuous
100
AcDbLine
 10
57.59086987307941
 20
247.6648958095288
 30
0.0
 11
56.939065358705
 21
247.6649557110756
 31
0.0
  0
ARC
  5
28C4
330
18
100
AcDbEntity
  8
1
  6
Continuous
100
AcDbCircle
 10
55.59073402247999
 20
246.1877952635502
 30
0.0
 40
2.000000094994919
100
AcDbArc
 50
359.9947344550959
 51
89.99473528158658
  0
LINE
  5
28C5
330
18
100
AcDbEntity
  8
1
  6
Continuous
100
AcDbLine
 10
54.59123824005525
 20
251.6748821314998
 30
0.0
 11
54.59091778140488
 21
248.187887251199
 31
0.0
  0
ARC
  5
28C6
330
18
100
AcDbEntity
  8
1
  6
Continuous
100
AcDbCircle
 10
51.15298998151089
 20
243.5348093342099
 30
0.0
 40
6.062500288946516
100
AcDbArc
 50
199.2572527583352
 51
227.919712401853
  0
LINE
  5
28C7
330
18
100
AcDbEntity
  8
1
  6
Continuous
100
AcDbLine
 10
47.08993839825577
 20
237.5351824222131
 30
0.0
 11
47.09104121145246
 21
249.5351829415076
 31
0.0
  0
LINE
  5
28C8
330
18
100
AcDbEntity
  8
1
  6
Continuous
100
AcDbLine
 10
48.08993844153031
 20
237.5350905211134
 30
0.0
 11
47.08993839825577
 21
237.5351824222131
 31
0.0
  0
ARC
  5
28C9
330
18
100
AcDbEntity
  8
1
  6
Continuous
100
AcDbCircle
 10
51.15298998296429
 20
243.5348093321098
 30
0.0
 40
6.0625002906373
100
AcDbArc
 50
132.06975651242
 51
160.7322161477748
  0
LINE
  5
28CA
330
18
100
AcDbEntity
  8
1
  6
Continuous
100
AcDbLine
 10
45.43007068359101
 20
245.5353353796378
 30
0.0
 11
45.44778956553196
 21
245.5353337512531
 31
0.0
  0
LINE
  5
28CB
330
18
100
AcDbEntity
  8
1
  6
Continuous
100
AcDbLine
 10
45.44764711882741
 20
243.9853336841776
 30
0.0
 11
45.12402566390622
 21
243.9853634253439
 31
0.0
  0
LINE
  5
28CC
330
18
100
AcDbEntity
  8
1
  6
Continuous
100
AcDbLine
 10
47.09104121145246
 20
249.5351829415076
 30
0.0
 11
48.091041254727
 21
249.5350910404079
 31
0.0
  0
LINE
  5
28CD
330
18
100
AcDbEntity
  8
1
  6
Continuous
100
AcDbLine
 10
45.44742196113307
 20
241.5353335781549
 30
0.0
 11
45.4297030791919
 21
241.5353352065396
 31
0.0
  0
LINE
  5
28CE
330
18
100
AcDbEntity
  8
1
  6
Continuous
100
AcDbLine
 10
45.12394295291705
 20
243.0853633863967
 30
0.0
 11
45.44756440783766
 21
243.0853336452305
 31
0.0
  0
ARC
  5
28CF
330
18
100
AcDbEntity
  8
1
  6
Continuous
100
AcDbCircle
 10
51.15298998067206
 20
243.5348093336434
 30
0.0
 40
5.723103123448565
100
AcDbArc
 50
175.484988109745
 51
184.5044808004589
  0
ARC
  5
28D0
330
18
100
AcDbEntity
  8
1
  6
Continuous
100
AcDbCircle
 10
51.15298998065648
 20
243.5348093336426
 30
0.0
 40
6.045776188562657
100
AcDbArc
 50
184.263329216041
 51
199.3126496217893
  0
ARC
  5
28D1
330
18
100
AcDbEntity
  8
1
  6
Continuous
100
AcDbCircle
 10
51.15298998065465
 20
243.5348093336433
 30
0.0
 40
6.045776188560799
100
AcDbArc
 50
160.6768192883994
 51
175.726139694153
  0
ARC
  5
28D2
330
18
100
AcDbEntity
  8
1
  6
Continuous
100
AcDbCircle
 10
75.20163433157001
 20
273.5954307038869
 30
0.0
 40
12.84488120935072
100
AcDbArc
 50
239.0323098294799
 51
242.0377908704743
  0
ARC
  5
28D3
330
18
100
AcDbEntity
  8
1
  6
Continuous
100
AcDbCircle
 10
62.20493751675382
 20
267.9294562318618
 30
0.0
 40
8.993886463695737
100
AcDbArc
 50
320.8414389880411
 51
334.3273862971719
  0
ARC
  5
28D4
330
18
100
AcDbEntity
  8
1
  6
Continuous
100
AcDbCircle
 10
80.14342643896481
 20
264.1264842125544
 30
0.0
 40
9.779205057682686
100
AcDbArc
 50
162.9775630916551
 51
180.5474641636287
  0
LINE
  5
28D5
330
18
100
AcDbEntity
  8
1
  6
Continuous
100
AcDbLine
 10
68.59605495497823
 20
264.0332073571258
 30
0.0
 11
70.36466779381647
 21
264.033044819668
 31
0.0
  0
LINE
  5
28D7
330
18
100
AcDbEntity
  8
1
  6
Continuous
100
AcDbLine
 10
31.74276650861037
 20
268.3213847922357
 30
0.0
 11
31.74197895471866
 21
259.7518037095731
 31
0.0
  0
LINE
  5
28D9
330
18
100
AcDbEntity
  8
1
  6
Continuous
100
AcDbLine
 10
37.24178020751645
 20
257.5860885157352
 30
0.0
 11
37.24296573170289
 21
270.4860890739768
 31
0.0
  0
LINE
  5
28DA
330
18
100
AcDbEntity
  8
1
  6
Continuous
100
AcDbLine
 10
37.59200613697391
 20
260.0359869556958
 30
0.0
 11
37.59274134577168
 21
268.0359873018923
 31
0.0
  0
LINE
  5
28DB
330
18
100
AcDbEntity
  8
1
  6
Continuous
100
AcDbLine
 10
35.04288062804647
 20
269.5612912163672
 30
0.0
 11
35.0418651208945
 21
258.5112907381835
 31
0.0
  0
LINE
  5
28DC
330
18
100
AcDbEntity
  8
1
  6
Continuous
100
AcDbLine
 10
35.24186512954929
 20
258.5112723579636
 30
0.0
 11
35.24288063670127
 21
269.5612728361473
 31
0.0
  0
LINE
  5
28DD
330
18
100
AcDbEntity
  8
1
  6
Continuous
100
AcDbLine
 10
36.24175259397679
 20
257.2861804038526
 30
0.0
 11
36.24299325882303
 21
270.7861809880589
 31
0.0
  0
LINE
  5
28E3
330
18
100
AcDbEntity
  8
2
  6
Continuous
100
AcDbLine
 10
37.39214703730965
 20
261.5775748775806
 30
0.0
 11
37.59214780890408
 21
261.5775564972905
 31
0.0
  0
ARC
  5
28E4
330
18
100
AcDbEntity
  8
1
  6
Continuous
100
AcDbCircle
 10
45.9482947717225
 20
265.7983757758813
 30
0.0
 40
9.143682422931931
100
AcDbArc
 50
203.9548097432711
 51
210.7738937036195
  0
ARC
  5
28E5
330
18
100
AcDbEntity
  8
1
  6
Continuous
100
AcDbCircle
 10
32.24197897635594
 20
259.7517577590232
 30
0.0
 40
0.5000000237487399
100
AcDbArc
 50
179.9947344550983
 51
269.9947344550959
  0
LINE
  5
28E6
330
18
100
AcDbEntity
  8
1
  6
Continuous
100
AcDbLine
 10
37.24191888754178
 20
259.0951019960915
 30
0.0
 11
37.39191889406482
 21
259.0950882109264
 31
0.0
  0
LINE
  5
28E7
330
18
100
AcDbEntity
  8
1
  6
Continuous
100
AcDbLine
 10
32.24193302580607
 20
259.251757737386
 30
0.0
 11
35.04193314697483
 21
259.2515004143067
 31
0.0
  0
LINE
  5
28E8
330
18
100
AcDbEntity
  8
1
  6
Continuous
100
AcDbLine
 10
37.24207658859985
 20
260.8110887030552
 30
0.0
 11
37.39207659512346
 21
260.8110749178902
 31
0.0
  0
LINE
  5
28E9
330
18
100
AcDbEntity
  8
1
  6
Continuous
100
AcDbLine
 10
37.24199194951927
 20
259.8901085943606
 30
0.0
 11
37.39199195604232
 21
259.8900948091956
 31
0.0
  0
LINE
  5
28EA
330
18
100
AcDbEntity
  8
1
  6
Continuous
100
AcDbLine
 10
37.24217023306897
 20
261.83005880761
 30
0.0
 11
37.39217023959259
 21
261.830045022445
 31
0.0
  0
LINE
  5
28EB
330
18
100
AcDbEntity
  8
1
  6
Continuous
100
AcDbLine
 10
38.09210578459527
 20
261.1199975472669
 30
0.0
 11
41.39210478473347
 21
261.1196942737428
 31
0.0
  0
LINE
  5
28EC
330
18
100
AcDbEntity
  8
1
  6
Continuous
100
AcDbLine
 10
37.59200613697391
 20
260.0359869556958
 30
0.0
 11
41.39200515874938
 21
260.0356377316218
 31
0.0
  0
LINE
  5
28ED
330
18
100
AcDbEntity
  8
1
  6
Continuous
100
AcDbLine
 10
38.09200615861118
 20
260.0359410051459
 30
0.0
 11
38.09210578459527
 21
261.1199975472669
 31
0.0
  0
LINE
  5
28EF
330
18
100
AcDbEntity
  8
1
  6
Continuous
100
AcDbLine
 10
37.59209804446085
 20
261.0360564995774
 30
0.0
 11
37.39209727286653
 21
261.0360748798674
 31
0.0
  0
ARC
  5
28F0
330
18
100
AcDbEntity
  8
1
  6
Continuous
100
AcDbCircle
 10
36.94178019459889
 20
257.5861160860651
 30
0.0
 40
0.3000000142492368
100
AcDbArc
 50
269.9947344550992
 51
359.9947344550959
  0
LINE
  5
28F1
330
18
100
AcDbEntity
  8
1
  6
Continuous
100
AcDbLine
 10
37.24178020755772
 20
257.5860886112542
 30
0.0
 11
37.39178021408129
 21
257.5860748260891
 31
0.0
  0
LINE
  5
28F2
330
18
100
AcDbEntity
  8
1
  6
Continuous
100
AcDbLine
 10
37.24181595548805
 20
257.9750712182575
 30
0.0
 11
37.39181596200904
 21
257.9750574330925
 31
0.0
  0
LINE
  5
28F3
330
18
100
AcDbEntity
  8
1
  6
Continuous
100
AcDbLine
 10
37.24178921294571
 20
257.6840786071146
 30
0.0
 11
37.39178921946921
 21
257.6840648219496
 31
0.0
  0
LINE
  5
28F4
330
18
100
AcDbEntity
  8
1
  6
Continuous
100
AcDbLine
 10
37.24185962262112
 20
258.4502247814421
 30
0.0
 11
37.39185962914211
 21
258.450210996277
 31
0.0
  0
LINE
  5
28F5
330
18
100
AcDbEntity
  8
1
  6
Continuous
100
AcDbLine
 10
35.24186512954929
 20
258.5112723579636
 30
0.0
 11
35.0418651208945
 21
258.5112907381835
 31
0.0
  0
LINE
  5
28F6
330
18
100
AcDbEntity
  8
1
  6
Continuous
100
AcDbLine
 10
36.24175259397679
 20
257.2861804038526
 30
0.0
 11
35.24186512954929
 21
258.5112723579636
 31
0.0
  0
LINE
  5
28F8
330
18
100
AcDbEntity
  8
1
  6
Continuous
100
AcDbLine
 10
36.94175262426897
 20
257.2861160730827
 30
0.0
 11
36.24175259397679
 21
257.2861804038526
 31
0.0
  0
LINE
  5
28F9
330
18
100
AcDbEntity
  8
2
  6
Continuous
100
AcDbLine
 10
37.39259891502172
 20
266.4945751418013
 30
0.0
 11
37.59259968661615
 21
266.4945567615113
 31
0.0
  0
ARC
  5
28FA
330
18
100
AcDbEntity
  8
1
  6
Continuous
100
AcDbCircle
 10
45.96970607394673
 20
262.2609472205224
 30
0.0
 40
9.168115502646587
100
AcDbArc
 50
149.2246723530529
 51
156.0255620204894
  0
LINE
  5
28FB
330
18
100
AcDbEntity
  8
1
  6
Continuous
100
AcDbLine
 10
32.24281248079729
 20
268.8213388633232
 30
0.0
 11
35.04281260196604
 21
268.821081540244
 31
0.0
  0
ARC
  5
28FC
330
18
100
AcDbEntity
  8
1
  6
Continuous
100
AcDbCircle
 10
32.24276653024742
 20
268.3213388416859
 30
0.0
 40
0.5000000237487399
100
AcDbArc
 50
89.99473445509687
 51
179.9947344550958
  0
ARC
  5
28FD
330
18
100
AcDbEntity
  8
1
  6
Continuous
100
AcDbCircle
 10
36.94296571878533
 20
270.4861166443067
 30
0.0
 40
0.3000000142492368
100
AcDbArc
 50
359.9947344550959
 51
89.99473445509265
  0
LINE
  5
28FE
330
18
100
AcDbEntity
  8
1
  6
Continuous
100
AcDbLine
 10
37.24296573175888
 20
270.4860889784578
 30
0.0
 11
37.39296573825011
 21
270.4860751932928
 31
0.0
  0
LINE
  5
28FF
330
18
100
AcDbEntity
  8
1
  6
Continuous
100
AcDbLine
 10
37.24295672634076
 20
270.3880989825973
 30
0.0
 11
37.39295673286211
 21
270.3880851974323
 31
0.0
  0
LINE
  5
2900
330
18
100
AcDbEntity
  8
1
  6
Continuous
100
AcDbLine
 10
37.24292998380099
 20
270.0971063714544
 30
0.0
 11
37.39292999032233
 21
270.0970925862894
 31
0.0
  0
LINE
  5
2901
330
18
100
AcDbEntity
  8
1
  6
Continuous
100
AcDbLine
 10
37.24288631666604
 20
269.6219528082697
 30
0.0
 11
37.3928863231892
 21
269.6219390231047
 31
0.0
  0
LINE
  5
2902
330
18
100
AcDbEntity
  8
1
  6
Continuous
100
AcDbLine
 10
37.39296573825011
 20
270.4860751932928
 30
0.0
 11
37.39178021408129
 21
257.5860748260891
 31
0.0
  0
LINE
  5
2903
330
18
100
AcDbEntity
  8
1
  6
Continuous
100
AcDbLine
 10
37.2428270517434
 20
268.9770755936206
 30
0.0
 11
37.39282705826656
 21
268.9770618084556
 31
0.0
  0
LINE
  5
2904
330
18
100
AcDbEntity
  8
1
  6
Continuous
100
AcDbLine
 10
37.24275398976806
 20
268.1820689953514
 30
0.0
 11
37.39275399628906
 21
268.1820552101864
 31
0.0
  0
LINE
  5
2905
330
18
100
AcDbEntity
  8
1
  6
Continuous
100
AcDbLine
 10
35.04288062804647
 20
269.5612912163672
 30
0.0
 11
35.24288063670127
 21
269.5612728361473
 31
0.0
  0
LINE
  5
2906
330
18
100
AcDbEntity
  8
1
  6
Continuous
100
AcDbLine
 10
37.24266935068687
 20
267.2610888866568
 30
0.0
 11
37.39266935720786
 21
267.2610751014918
 31
0.0
  0
LINE
  5
2907
330
18
100
AcDbEntity
  8
1
  6
Continuous
100
AcDbLine
 10
36.24299325882303
 20
270.7861809880589
 30
0.0
 11
36.24307490066587
 21
270.7862809805563
 31
0.0
  0
LINE
  5
2908
330
18
100
AcDbEntity
  8
1
  6
Continuous
100
AcDbLine
 10
35.24288063670127
 20
269.5612728361473
 30
0.0
 11
36.24299325882303
 21
270.7861809880589
 31
0.0
  0
LINE
  5
2909
330
18
100
AcDbEntity
  8
1
  6
Continuous
100
AcDbLine
 10
36.24299325882303
 20
270.7861809880589
 30
0.0
 11
36.94299328911523
 21
270.7861166572891
 31
0.0
  0
LINE
  5
290A
330
18
100
AcDbEntity
  8
1
  6
Continuous
100
AcDbLine
 10
37.59274134577168
 20
268.0359873018923
 30
0.0
 11
41.39274052059966
 21
268.0356380778042
 31
0.0
  0
LINE
  5
290B
330
18
100
AcDbEntity
  8
1
  6
Continuous
100
AcDbLine
 10
38.09264175419929
 20
266.9520238104352
 30
0.0
 11
41.39264090739
 21
266.9517205368971
 31
0.0
  0
LINE
  5
290C
330
18
100
AcDbEntity
  8
1
  6
Continuous
100
AcDbLine
 10
38.0926417541994
 20
266.9520238104353
 30
0.0
 11
38.09274136740907
 21
268.0359413513424
 31
0.0
  0
LINE
  5
290E
330
18
100
AcDbEntity
  8
1
  6
Continuous
100
AcDbLine
 10
37.39264867946485
 20
267.0360751395147
 30
0.0
 11
37.59264945105929
 21
267.0360567592246
 31
0.0
  0
LINE
  5
290F
330
18
100
AcDbEntity
  8
1
  6
Continuous
100
AcDbLine
 10
31.74237273166449
 20
264.0365942509044
 30
0.0
 11
35.04237287447051
 21
264.0362909772753
 31
0.0
  0
LINE
  5
2910
330
18
100
AcDbEntity
  8
1
  6
Continuous
100
AcDbLine
 10
37.24257570621739
 20
266.242118782102
 30
0.0
 11
37.39257571273873
 21
266.242104996937
 31
0.0
  0
LINE
  5
2911
330
18
100
AcDbEntity
  8
1
  6
Continuous
100
AcDbLine
 10
37.24249869778367
 20
265.4041694273619
 30
0.0
 11
37.39249870427489
 21
265.4041556421968
 31
0.0
  0
LINE
  5
2912
330
18
100
AcDbEntity
  8
1
  6
Continuous
100
AcDbLine
 10
37.24230913584051
 20
263.3414960541301
 30
0.0
 11
37.39230914233172
 21
263.3414822689651
 31
0.0
  0
LINE
  5
2913
330
18
100
AcDbEntity
  8
1
  6
Continuous
100
AcDbLine
 10
37.24227003758744
 20
262.9160580170221
 30
0.0
 11
37.39227004410992
 21
262.9160442318572
 31
0.0
  0
LINE
  5
2914
330
18
100
AcDbEntity
  8
1
  6
Continuous
100
AcDbLine
 10
37.24247590170006
 20
265.1561195726898
 30
0.0
 11
37.3924759082214
 21
265.1561057875249
 31
0.0
  0
LINE
  5
2916
330
18
100
AcDbEntity
  8
1
  6
Continuous
100
AcDbLine
 10
37.24237296964322
 20
264.036088794856
 30
0.0
 11
37.39237297616568
 21
264.036075009691
 31
0.0
  0
LINE
  5
2918
330
18
100
AcDbEntity
  8
1
  6
Continuous
100
AcDbLine
 10
62.75954468779682
 20
293.5677865383063
 30
0.0
 11
68.59356942360463
 21
277.0332082536457
 31
0.0
  0
ARC
  5
2919
330
18
100
AcDbEntity
  8
1
  6
Continuous
100
AcDbCircle
 10
63.27834257115128
 20
264.1780852060828
 30
0.0
 40
11.08195645236686
100
AcDbArc
 50
59.83548988242657
 51
61.32090908723205
  0
ARC
  5
291A
330
18
100
AcDbEntity
  8
1
  6
Continuous
100
AcDbCircle
 10
62.47242311894189
 20
293.480916490405
 30
0.0
 40
0.2999753331955474
100
AcDbArc
 50
16.83344966384584
 51
85.13193014363329
  0
LINE
  5
291C
330
18
100
AcDbEntity
  8
1
  6
Continuous
100
AcDbLine
 10
55.59447452791568
 20
286.8892189572387
 30
0.0
 11
57.59446498179989
 21
286.7842195919374
 31
0.0
  0
LINE
  5
291D
330
18
100
AcDbEntity
  8
1
  6
Continuous
100
AcDbLine
 10
55.59447452791591
 20
286.8892189572425
 30
0.0
 11
55.59462943212007
 21
288.5747723544837
 31
0.0
  0
LINE
  5
291E
330
18
100
AcDbEntity
  8
1
  6
Continuous
100
AcDbLine
 10
55.59462943212007
 20
288.5747723544837
 30
0.0
 11
59.59464887054844
 21
288.7840358762887
 31
0.0
  0
LINE
  5
2920
330
18
100
AcDbEntity
  8
1
  6
Continuous
100
AcDbLine
 10
59.59513135132199
 20
294.0340361034784
 30
0.0
 11
62.49787952381995
 21
293.7798097355192
 31
0.0
  0
ARC
  5
2973
330
18
100
AcDbEntity
  8
1
  6
Continuous
100
AcDbCircle
 10
51.56464884521028
 20
367.5198766497524
 30
0.0
 40
11.25000058184376
100
AcDbArc
 50
201.0394697364669
 51
248.9605302635342
  0
ARC
  5
2974
330
18
100
AcDbEntity
  8
1
  6
Continuous
100
AcDbCircle
 10
51.56464884521028
 20
367.5198766497524
 30
0.0
 40
11.25000058184376
100
AcDbArc
 50
111.0394697364657
 51
158.960530263533
  0
LINE
  5
2975
330
18
100
AcDbEntity
  8
4
  6
CENTER
 48
0.2
100
AcDbLine
 10
37.06464829898959
 20
367.5198766497524
 30
0.0
 11
90.67433570311868
 21
367.5198766497524
 31
0.0
  0
ARC
  5
2976
330
18
100
AcDbEntity
  8
1
  6
Continuous
100
AcDbCircle
 10
51.56464884521028
 20
367.5198766497524
 30
0.0
 40
12.25000058184376
100
AcDbArc
 50
200.1530742571163
 51
249.8469257430788
  0
ARC
  5
2977
330
18
100
AcDbEntity
  8
1
  6
Continuous
100
AcDbCircle
 10
51.56464884521028
 20
367.5198766497524
 30
0.0
 40
12.25000058184376
100
AcDbArc
 50
110.1530742569211
 51
159.8469257430779
  0
LINE
  5
2978
330
18
100
AcDbEntity
  8
1
  6
Continuous
100
AcDbLine
 10
41.0646482989896
 20
363.4810028437308
 30
0.0
 11
41.0646482989896
 21
371.5587504557739
 31
0.0
  0
LINE
  5
2979
330
18
100
AcDbEntity
  8
1
  6
Continuous
100
AcDbLine
 10
40.06464829898958
 20
363.299390695256
 30
0.0
 11
40.06464829898958
 21
371.7403626042066
 31
0.0
  0
LINE
  5
297A
330
18
100
AcDbEntity
  8
1
  6
Continuous
100
AcDbLine
 10
86.06465048387233
 20
370.8198768064939
 30
0.0
 11
66.56464955767204
 21
370.8198768064939
 31
0.0
  0
LINE
  5
297B
330
18
100
AcDbEntity
  8
1
  6
Continuous
100
AcDbLine
 10
66.56464955767204
 20
364.2198764930108
 30
0.0
 11
84.06465038888098
 21
364.2198764930108
 31
0.0
  0
ARC
  5
297C
330
18
100
AcDbEntity
  8
1
  6
Continuous
100
AcDbCircle
 10
51.56464884521028
 20
367.5198766497524
 30
0.0
 40
11.25000058184379
100
AcDbArc
 50
21.03946973646693
 51
68.9605302635342
  0
ARC
  5
297D
330
18
100
AcDbEntity
  8
1
  6
Continuous
100
AcDbCircle
 10
51.56464884521028
 20
367.5198766497524
 30
0.0
 40
12.25000058184379
100
AcDbArc
 50
20.15307425692209
 51
69.84692574307885
  0
ARC
  5
297E
330
18
100
AcDbEntity
  8
1
  6
Continuous
100
AcDbCircle
 10
51.56464884521028
 20
367.5198766497524
 30
0.0
 40
11.25000058184376
100
AcDbArc
 50
291.0394697364657
 51
338.960530263533
  0
ARC
  5
297F
330
18
100
AcDbEntity
  8
1
  6
Continuous
100
AcDbCircle
 10
51.56464884521028
 20
367.5198766497524
 30
0.0
 40
12.25000058184376
100
AcDbArc
 50
290.1530742569211
 51
339.8469257430778
  0
LINE
  5
2980
330
18
100
AcDbEntity
  8
1
  6
Continuous
100
AcDbLine
 10
55.60352265123196
 20
357.0198761035317
 30
0.0
 11
47.52577503918882
 21
357.0198761035317
 31
0.0
  0
LINE
  5
2981
330
18
100
AcDbEntity
  8
1
  6
Continuous
100
AcDbLine
 10
55.785134799665
 20
356.0198761035317
 30
0.0
 11
47.34416289075555
 21
356.0198761035317
 31
0.0
  0
LINE
  5
2982
330
18
100
AcDbEntity
  8
1
  6
Continuous
100
AcDbLine
 10
47.96464867421946
 20
369.6698767518719
 30
0.0
 11
47.96464867421946
 21
365.3698765476328
 31
0.0
  0
LINE
  5
2983
330
18
100
AcDbEntity
  8
1
  6
Continuous
100
AcDbLine
 10
42.96464366820258
 20
365.3698765476328
 30
0.0
 11
42.96464366820281
 21
369.6698767518719
 31
0.0
  0
ARC
  5
2984
330
18
100
AcDbEntity
  8
1
  6
Continuous
100
AcDbCircle
 10
45.46464855547582
 20
365.3698765476328
 30
0.0
 40
2.500000118743622
100
AcDbArc
 50
180.0
 51
0.0
  0
ARC
  5
2985
330
18
100
AcDbEntity
  8
1
  6
Continuous
100
AcDbCircle
 10
45.46464855547582
 20
369.6698767518719
 30
0.0
 40
2.500000118743621
100
AcDbArc
 50
0.0
 51
180.0
  0
LINE
  5
2986
330
18
100
AcDbEntity
  8
1
  6
Continuous
100
AcDbLine
 10
65.9844514954259
 20
372.3255946973747
 30
0.0
 11
63.02577726290547
 21
371.8448101345904
 31
0.0
  0
LINE
  5
2987
330
18
100
AcDbEntity
  8
1
  6
Continuous
100
AcDbLine
 10
63.02577726290543
 20
363.1949431649144
 30
0.0
 11
65.9844514954259
 21
362.71415860213
 31
0.0
  0
LINE
  5
2988
330
18
100
AcDbEntity
  8
1
  6
Continuous
100
AcDbLine
 10
62.06464939143097
 20
371.5587504557739
 30
0.0
 11
62.06464939143097
 21
363.4810028437312
 31
0.0
  0
LINE
  5
2989
330
18
100
AcDbEntity
  8
1
  6
Continuous
100
AcDbLine
 10
63.06464939143097
 20
371.7403626042072
 30
0.0
 11
63.06464939143097
 21
363.2993906952977
 31
0.0
  0
LINE
  5
298A
330
18
100
AcDbEntity
  8
1
  6
Continuous
100
AcDbLine
 10
66.56464955767204
 20
363.2076849928832
 30
0.0
 11
66.56464955767204
 21
364.2198764930108
 31
0.0
  0
ARC
  5
298B
330
18
100
AcDbEntity
  8
1
  6
Continuous
100
AcDbCircle
 10
66.06464953392332
 20
363.2076849928832
 30
0.0
 40
0.5000000237487244
100
AcDbArc
 50
260.7701137562941
 51
0.0
  0
ARC
  5
298C
330
18
100
AcDbEntity
  8
1
  6
Continuous
100
AcDbCircle
 10
66.06464953392332
 20
371.8320683066214
 30
0.0
 40
0.5000000237487257
100
AcDbArc
 50
0.0000000000260551
 51
99.22988624373328
  0
LINE
  5
298D
330
18
100
AcDbEntity
  8
1
  6
Continuous
100
AcDbLine
 10
66.56464955767204
 20
370.8198768064939
 30
0.0
 11
66.56464955767204
 21
371.8320683066217
 31
0.0
  0
LINE
  5
298E
330
18
100
AcDbEntity
  8
1
  6
Continuous
100
AcDbLine
 10
47.52577503918882
 20
378.0198771959732
 30
0.0
 11
55.60352265123174
 21
378.0198771959732
 31
0.0
  0
LINE
  5
298F
330
18
100
AcDbEntity
  8
1
  6
Continuous
100
AcDbLine
 10
47.34416289075602
 20
379.019877195973
 30
0.0
 11
55.78513479966455
 21
379.019877195973
 31
0.0
  0
LINE
  5
2990
330
18
100
AcDbEntity
  8
1
  6
Continuous
100
AcDbLine
 10
84.06465038888098
 20
364.2198764930108
 30
0.0
 11
87.67433570311823
 21
367.5198766497524
 31
0.0
  0
ARC
  5
2999
330
18
100
AcDbEntity
  8
1
  6
Continuous
100
AcDbCircle
 10
86.86465052187029
 20
368.4055459131124
 30
0.0
 40
1.200000056996928
100
AcDbArc
 50
312.4337781267596
 51
46.48441343900446
  0
LINE
  5
299A
330
18
100
AcDbEntity
  8
1
  6
Continuous
100
AcDbLine
 10
87.69091281561554
 20
369.2757704581167
 30
0.0
 11
86.06465048387233
 21
370.8198768064939
 31
0.0
  0
LINE
  5
29B5
330
18
100
AcDbEntity
  8
1
  6
Continuous
100
AcDbLine
 10
134.5495756069743
 20
358.2107188637968
 30
0.0
 11
166.0254891065051
 21
358.2106048618316
 31
0.0
  0
LINE
  5
2CA1
330
18
100
AcDbEntity
  8
1
  6
Continuous
100
AcDbLine
 10
41.3934665818321
 20
252.1323358559569
 30
0.0
 11
41.39127933565868
 21
275.9323368859089
 31
0.0
  0
LINE
  5
2CA2
330
18
100
AcDbEntity
  8
1
  6
Continuous
100
AcDbLine
 10
44.89342651095818
 20
252.5769447645771
 30
0.0
 11
44.89132085344093
 21
275.4891581623727
 31
0.0
  0
LINE
  5
2CA3
330
18
100
AcDbEntity
  8
1
  6
Continuous
100
AcDbLine
 10
43.39351319091924
 20
251.632913075221
 30
0.0
 11
43.39193752133194
 21
268.7781883785019
 31
0.0
  0
LINE
  5
2CA5
330
18
100
AcDbEntity
  8
1
  6
Continuous
100
AcDbLine
 10
43.39132002558449
 20
275.4890203106531
 30
0.0
 11
43.39123328070654
 21
276.4329141483595
 31
0.0
  0
ARC
  5
2CA6
330
18
100
AcDbEntity
  8
1
  6
Continuous
100
AcDbCircle
 10
41.89127916634459
 20
275.9327762750728
 30
0.0
 40
0.5000000237487347
100
AcDbArc
 50
90.00526554490734
 51
180.0503502934079
  0
LINE
  5
2CA7
330
18
100
AcDbEntity
  8
1
  6
Continuous
100
AcDbLine
 10
43.39132078852411
 20
275.4890203107231
 30
0.0
 11
43.39123404364618
 21
276.4329141484297
 31
0.0
  0
LINE
  5
2CA8
330
18
100
AcDbEntity
  8
1
  6
Continuous
100
AcDbLine
 10
57.59237423178117
 20
276.4342192487738
 30
0.0
 11
41.89123321579471
 21
276.43277629671
 31
0.0
  0
LINE
  5
2CA9
330
18
100
AcDbEntity
  8
1
  6
Continuous
100
AcDbLine
 10
38.09264175419929
 20
261.1164134044476
 30
0.0
 11
41.39264090739
 21
261.1167166779859
 31
0.0
  0
LINE
  5
2CAA
330
18
100
AcDbEntity
  8
1
  6
Continuous
100
AcDbLine
 10
37.59274134577168
 20
260.0324499129907
 30
0.0
 11
41.39274052059966
 21
260.0327991370787
 31
0.0
  0
LINE
  5
2CAB
330
18
100
AcDbEntity
  8
1
  6
Continuous
100
AcDbLine
 10
38.09200615861118
 20
268.032496209737
 30
0.0
 11
41.39200515874938
 21
268.0327994832611
 31
0.0
  0
LINE
  5
2CAC
330
18
100
AcDbEntity
  8
1
  6
Continuous
100
AcDbLine
 10
38.09210578459527
 20
266.948439667616
 30
0.0
 11
41.39210478473347
 21
266.9487429411401
 31
0.0
  0
LINE
  5
2CAD
330
18
100
AcDbEntity
  8
1
  6
Continuous
100
AcDbLine
 10
43.39201764715749
 20
267.898016445903
 30
0.0
 11
44.8920184750139
 21
267.8981542976227
 31
0.0
  0
LINE
  5
2CAE
330
18
100
AcDbEntity
  8
1
  6
Continuous
100
AcDbLine
 10
44.89132085344093
 20
275.4891581623727
 30
0.0
 11
43.391320788524
 21
275.4890203107231
 31
0.0
  0
LINE
  5
2CAF
330
18
100
AcDbEntity
  8
1
  6
Continuous
100
AcDbLine
 10
43.39193752133194
 20
268.7781883785019
 30
0.0
 11
44.89193758624888
 21
268.7783262301514
 31
0.0
  0
LINE
  5
2CB0
330
18
100
AcDbEntity
  8
1
  6
Continuous
100
AcDbLine
 10
41.89351236306788
 20
251.6327752235013
 30
0.0
 11
54.59123447762682
 21
251.6339421580771
 31
0.0
  0
ARC
  5
2CB1
330
18
100
AcDbEntity
  8
1
  6
Continuous
100
AcDbCircle
 10
41.89346641251802
 20
252.1327752451385
 30
0.0
 40
0.5000000237487347
100
AcDbArc
 50
180.0503502954207
 51
270.0052655449039
  0
LINE
  5
2CB2
330
18
100
AcDbEntity
  8
1
  6
Continuous
100
AcDbLine
 10
43.39322267273303
 20
254.7941178869084
 30
0.0
 11
44.89322273765006
 21
254.794255738558
 31
0.0
  0
LINE
  5
2CB3
330
18
100
AcDbEntity
  8
1
  6
Continuous
100
AcDbLine
 10
44.89342651095818
 20
252.5769447645771
 30
0.0
 11
43.39342644604135
 21
252.5768069129276
 31
0.0
  0
ENDSEC
  0
SECTION
  2
OBJECTS
  0
DICTIONARY
  5
C
330
0
100
AcDbDictionary
281
     1
  3
ACAD_CIP_PREVIOUS_PRODUCT_INFO
350
2D62
  3
ACAD_COLOR
350
2D45
  3
ACAD_DETAILVIEWSTYLE
350
2D5E
  3
ACAD_GROUP
350
D
  3
ACAD_LAYOUT
350
94
  3
ACAD_MATERIAL
350
2D13
  3
ACAD_MLEADERSTYLE
350
2D5A
  3
ACAD_MLINESTYLE
350
1B
  3
ACAD_PLOTSETTINGS
350
95
  3
ACAD_PLOTSTYLENAME
350
2D11
  3
ACAD_SCALELIST
350
2D48
  3
ACAD_SECTIONVIEWSTYLE
350
2D5C
  3
ACAD_TABLESTYLE
350
2D46
  3
ACAD_VISUALSTYLE
350
2D2C
  3
ACDB_RECOMPOSE_DATA
350
2D80
  3
AcDbVariableDictionary
350
2D73
  3
CONTENTDICTIONARY
350
3D
  3
DWGPROPS
350
2D81
  0
DICTIONARY
  5
2D63
330
E
100
AcDbDictionary
280
     1
281
     1
  3
ADSK_XREC_LAYER_RECONCILED
360
2D64
  0
DICTIONARY
  5
2D65
330
4E
100
AcDbDictionary
280
     1
281
     1
  3
ADSK_XREC_LAYER_RECONCILED
360
2D66
  0
DICTIONARY
  5
2D67
330
4F
100
AcDbDictionary
280
     1
281
     1
  3
ADSK_XREC_LAYER_RECONCILED
360
2D68
  0
DICTIONARY
  5
2D69
330
50
100
AcDbDictionary
280
     1
281
     1
  3
ADSK_XREC_LAYER_RECONCILED
360
2D6A
  0
DICTIONARY
  5
2D6B
330
51
100
AcDbDictionary
280
     1
281
     1
  3
ADSK_XREC_LAYER_RECONCILED
360
2D6C
  0
DICTIONARY
  5
2D6D
330
52
100
AcDbDictionary
280
     1
281
     1
  3
ADSK_XREC_LAYER_RECONCILED
360
2D6E
  0
DICTIONARY
  5
2D6F
330
53
100
AcDbDictionary
280
     1
281
     1
  3
ADSK_XREC_LAYER_RECONCILED
360
2D70
  0
DICTIONARY
  5
2D71
330
54
100
AcDbDictionary
280
     1
281
     1
  3
ADSK_XREC_LAYER_RECONCILED
360
2D72
  0
DICTIONARY
  5
2D0C
330
18
100
AcDbDictionary
281
     1
  3
ACAD_LAYOUTSELFREF
350
2D0D
  0
DICTIONARY
  5
2D0A
330
15
100
AcDbDictionary
281
     1
  3
ACAD_LAYOUTSELFREF
350
2D0B
  0
XRECORD
  5
2D62
102
{ACAD_REACTORS
330
C
102
}
330
C
100
AcDbXrecord
280
     1
300
ACDLT
300
2014
300
ACDLT_F_S
  0
DICTIONARY
  5
2D45
102
{ACAD_REACTORS
330
C
102
}
330
C
100
AcDbDictionary
281
     1
  0
DICTIONARY
  5
2D5E
102
{ACAD_REACTORS
330
C
102
}
330
C
100
AcDbDictionary
281
     1
  3
Imperial24
350
2D5F
  0
DICTIONARY
  5
D
102
{ACAD_REACTORS
330
C
102
}
330
C
100
AcDbDictionary
281
     1
  0
DICTIONARY
  5
94
102
{ACAD_REACTORS
330
C
102
}
330
C
100
AcDbDictionary
281
     1
  3
Model
350
2D60
  3
レイアウト1
350
2D61
  0
DICTIONARY
  5
2D13
102
{ACAD_REACTORS
330
C
102
}
330
C
100
AcDbDictionary
281
     1
  3
ByBlock
350
2D1C
  3
ByLayer
350
2D14
  3
Global
350
2D24
  0
DICTIONARY
  5
2D5A
102
{ACAD_REACTORS
330
C
102
}
330
C
100
AcDbDictionary
281
     1
  3
Standard
350
2D5B
  0
DICTIONARY
  5
1B
102
{ACAD_REACTORS
330
C
102
}
330
C
100
AcDbDictionary
281
     1
  3
STANDARD
350
1C
  0
DICTIONARY
  5
95
102
{ACAD_REACTORS
330
C
102
}
330
C
100
AcDbDictionary
281
     1
  0
ACDBDICTIONARYWDFLT
  5
2D11
102
{ACAD_REACTORS
330
C
102
}
330
C
100
AcDbDictionary
281
     1
  3
Normal
350
2D12
100
AcDbDictionaryWithDefault
340
2D12
  0
DICTIONARY
  5
2D48
102
{ACAD_REACTORS
330
C
102
}
330
C
100
AcDbDictionary
281
     1
  3
A0
350
2D49
  3
A1
350
2D4A
  3
A2
350
2D4B
  3
A3
350
2D4C
  3
A4
350
2D4D
  3
A5
350
2D4E
  3
A6
350
2D4F
  3
A7
350
2D50
  3
A8
350
2D51
  3
A9
350
2D52
  3
B0
350
2D53
  3
B1
350
2D54
  3
B2
350
2D55
  3
B3
350
2D56
  3
B4
350
2D57
  3
B5
350
2D58
  3
B6
350
2D59
  0
DICTIONARY
  5
2D5C
102
{ACAD_REACTORS
330
C
102
}
330
C
100
AcDbDictionary
281
     1
  3
Imperial24
350
2D5D
  0
DICTIONARY
  5
2D46
102
{ACAD_REACTORS
330
C
102
}
330
C
100
AcDbDictionary
281
     1
  3
Standard
350
2D47
  0
DICTIONARY
  5
2D2C
102
{ACAD_REACTORS
330
C
102
}
330
C
100
AcDbDictionary
281
     1
  3
2dWireframe
350
2D32
  3
Basic
350
2D31
  3
Brighten
350
2D38
  3
ColorChange
350
2D3C
  3
Conceptual
350
2D35
  3
Dim
350
2D37
  3
EdgeColorOff
350
2D44
  3
Facepattern
350
2D3B
  3
Flat
350
2D2D
  3
FlatWithEdges
350
2D2E
  3
Gouraud
350
2D2F
  3
GouraudWithEdges
350
2D30
  3
Hidden
350
2D34
  3
JitterOff
350
2D42
  3
Linepattern
350
2D3A
  3
OverhangOff
350
2D43
  3
Realistic
350
2D36
  3
Shaded
350
2D41
  3
Shaded with edges
350
2D40
  3
Shades of Gray
350
2D3D
  3
Sketchy
350
2D3E
  3
Thicken
350
2D39
  3
Wireframe
350
2D33
  3
X-Ray
350
2D3F
  0
XRECORD
  5
2D80
102
{ACAD_REACTORS
330
C
102
}
330
C
100
AcDbXrecord
280
     1
 90
        1
330
2D47
  0
DICTIONARY
  5
2D73
102
{ACAD_REACTORS
330
C
102
}
330
C
100
AcDbDictionary
281
     1
  3
CANNOSCALE
350
2D78
  3
CMLEADERSTYLE
350
2D75
  3
CTABLESTYLE
350
2D74
  3
CVIEWDETAILSTYLE
350
2D76
  3
CVIEWSECTIONSTYLE
350
2D77
  3
DIMASSOC
350
2D7B
  3
INDEXCTL
350
2D7A
  3
SORTENTS
350
2D79
  3
XCLIPFRAME
350
2D7C
  0
DICTIONARY
  5
3D
102
{ACAD_REACTORS
330
C
102
}
330
C
100
AcDbDictionary
281
     1
  0
XRECORD
  5
2D81
102
{ACAD_REACTORS
330
C
102
}
330
C
100
AcDbXrecord
280
     1
  1
DWGPROPS COOKIE
  2

  3

  4

  6

  7

  8
Yoshitsune
  9

300
=
301
=
302
=
303
=
304
=
305
=
306
=
307
=
308
=
309
=
 40
0.1828783912037037
 41
2453781.597979595
 42
2457192.700677651
  1

 90
        0
  0
XRECORD
  5
2D64
102
{ACAD_REACTORS
330
2D63
102
}
330
2D63
100
AcDbXrecord
280
     1
290
     1
  0
XRECORD
  5
2D66
102
{ACAD_REACTORS
330
2D65
102
}
330
2D65
100
AcDbXrecord
280
     1
290
     1
  0
XRECORD
  5
2D68
102
{ACAD_REACTORS
330
2D67
102
}
330
2D67
100
AcDbXrecord
280
     1
290
     1
  0
XRECORD
  5
2D6A
102
{ACAD_REACTORS
330
2D69
102
}
330
2D69
100
AcDbXrecord
280
     1
290
     1
  0
XRECORD
  5
2D6C
102
{ACAD_REACTORS
330
2D6B
102
}
330
2D6B
100
AcDbXrecord
280
     1
290
     1
  0
XRECORD
  5
2D6E
102
{ACAD_REACTORS
330
2D6D
102
}
330
2D6D
100
AcDbXrecord
280
     1
290
     1
  0
XRECORD
  5
2D70
102
{ACAD_REACTORS
330
2D6F
102
}
330
2D6F
100
AcDbXrecord
280
     1
290
     1
  0
XRECORD
  5
2D72
102
{ACAD_REACTORS
330
2D71
102
}
330
2D71
100
AcDbXrecord
280
     1
290
     1
  0
XRECORD
  5
2D0D
102
{ACAD_REACTORS
330
2D0C
102
}
330
2D0C
100
AcDbXrecord
280
     1
340
18
  0
XRECORD
  5
2D0B
102
{ACAD_REACTORS
330
2D0A
102
}
330
2D0A
100
AcDbXrecord
280
     1
340
15
  0
ACDBDETAILVIEWSTYLE
  5
2D5F
102
{ACAD_XDICTIONARY
360
2DB9
102
}
102
{ACAD_REACTORS
330
2D5E
102
}
330
2D5E
100
AcDbModelDocViewStyle
 70
     0
  3
Imperial24
290
     0
100
AcDbDetailViewStyle
 70
     0
 71
     0
 90
        3
 71
     1
340
F
 40
0.24
340
0
 40
0.24
300

 40
0.36
280
     3
 71
     2
340
14
 90
       25
 71
     3
340
F
 40
0.24
 90
        1
 40
0.75
 90
        1
300
%<\AcVar ViewType \f "%tc1">% %<\AcVar ViewDetailId>%\PSCALE %<\AcVar ViewScale \f "%sn">%
 71
     4
340
14
 90
       25
340
14
 90
       25
280
     0
  0
LAYOUT
  5
2D60
102
{ACAD_XDICTIONARY
360
2DBB
102
}
102
{ACAD_REACTORS
330
94
102
}
330
94
100
AcDbPlotSettings
  1

  2
Canon LBP9100C
  4

  6

 40
0.0
 41
0.0
 42
0.0
 43
0.0
 44
0.0
 45
0.0
 46
0.0
 47
0.0
 48
0.0
 49
0.0
140
0.0
141
0.0
142
1.0
143
1.0
 70
  1712
 72
     0
 73
     0
 74
     0
  7

 75
     0
147
1.0
148
0.0
149
0.0
100
AcDbLayout
  1
Model
 70
     1
 71
     0
 10
0.0
 20
0.0
 11
12.0
 21
9.0
 12
0.0
 22
0.0
 32
0.0
 14
0.0
 24
0.0
 34
0.0
 15
0.0
 25
0.0
 35
0.0
146
0.0
 13
0.0
 23
0.0
 33
0.0
 16
1.0
 26
0.0
 36
0.0
 17
0.0
 27
1.0
 37
0.0
 76
     0
330
18
331
2D09
  0
LAYOUT
  5
2D61
102
{ACAD_XDICTIONARY
360
2DBD
102
}
102
{ACAD_REACTORS
330
94
102
}
330
94
100
AcDbPlotSettings
  1

  2
Canon LBP9100C
  4

  6

 40
0.0
 41
0.0
 42
0.0
 43
0.0
 44
0.0
 45
0.0
 46
0.0
 47
0.0
 48
0.0
 49
0.0
140
0.0
141
0.0
142
1.0
143
1.0
 70
   688
 72
     0
 73
     0
 74
     5
  7

 75
    16
147
1.0
148
0.0
149
0.0
100
AcDbLayout
  1
レイアウト1
 70
     1
 71
     1
 10
-3.757080078125
 20
-3.757083177566528
 11
293.2112426757812
 21
206.2162444591522
 12
0.0
 22
0.0
 32
0.0
 14
27.8447512626648
 24
20.24591643810271
 34
0.0
 15
250.6027613639831
 25
182.2132479429244
 35
0.0
146
0.0
 13
0.0
 23
0.0
 33
0.0
 16
1.0
 26
0.0
 36
0.0
 17
0.0
 27
1.0
 37
0.0
 76
     0
330
15
  0
MATERIAL
  5
2D1C
102
{ACAD_XDICTIONARY
360
2D1D
102
}
102
{ACAD_REACTORS
330
2D13
102
}
330
2D13
100
AcDbMaterial
  1
ByBlock
 72
     0
 43
0.0208333333333333
 43
0.0
 43
0.0
 43
0.0
 43
0.0
 43
0.0208333333333333
 43
0.0
 43
0.0
 43
0.0
 43
0.0
 43
1.0
 43
0.0
 43
0.0
 43
0.0
 43
0.0
 43
1.0
 77
     0
 47
0.0208333333333333
 47
0.0
 47
0.0
 47
0.0
 47
0.0
 47
0.0208333333333333
 47
0.0
 47
0.0
 47
0.0
 47
0.0
 47
1.0
 47
0.0
 47
0.0
 47
0.0
 47
0.0
 47
1.0
171
     0
 49
0.0208333333333333
 49
0.0
 49
0.0
 49
0.0
 49
0.0
 49
0.0208333333333333
 49
0.0
 49
0.0
 49
0.0
 49
0.0
 49
1.0
 49
0.0
 49
0.0
 49
0.0
 49
0.0
 49
1.0
175
     0
142
0.0208333333333333
142
0.0
142
0.0
142
0.0
142
0.0
142
0.0208333333333333
142
0.0
142
0.0
142
0.0
142
0.0
142
1.0
142
0.0
142
0.0
142
0.0
142
0.0
142
1.0
179
     0
144
0.0208333333333333
144
0.0
144
0.0
144
0.0
144
0.0
144
0.0208333333333333
144
0.0
144
0.0
144
0.0
144
0.0
144
1.0
144
0.0
144
0.0
144
0.0
144
0.0
144
1.0
147
0.0208333333333333
147
0.0
147
0.0
147
0.0
147
0.0
147
0.0208333333333333
147
0.0
147
0.0
147
0.0
147
0.0
147
1.0
147
0.0
147
0.0
147
0.0
147
0.0
147
1.0
  0
MATERIAL
  5
2D14
102
{ACAD_XDICTIONARY
360
2D15
102
}
102
{ACAD_REACTORS
330
2D13
102
}
330
2D13
100
AcDbMaterial
  1
ByLayer
 72
     0
 43
0.0208333333333333
 43
0.0
 43
0.0
 43
0.0
 43
0.0
 43
0.0208333333333333
 43
0.0
 43
0.0
 43
0.0
 43
0.0
 43
1.0
 43
0.0
 43
0.0
 43
0.0
 43
0.0
 43
1.0
 77
     0
 47
0.0208333333333333
 47
0.0
 47
0.0
 47
0.0
 47
0.0
 47
0.0208333333333333
 47
0.0
 47
0.0
 47
0.0
 47
0.0
 47
1.0
 47
0.0
 47
0.0
 47
0.0
 47
0.0
 47
1.0
171
     0
 49
0.0208333333333333
 49
0.0
 49
0.0
 49
0.0
 49
0.0
 49
0.0208333333333333
 49
0.0
 49
0.0
 49
0.0
 49
0.0
 49
1.0
 49
0.0
 49
0.0
 49
0.0
 49
0.0
 49
1.0
175
     0
142
0.0208333333333333
142
0.0
142
0.0
142
0.0
142
0.0
142
0.0208333333333333
142
0.0
142
0.0
142
0.0
142
0.0
142
1.0
142
0.0
142
0.0
142
0.0
142
0.0
142
1.0
179
     0
144
0.0208333333333333
144
0.0
144
0.0
144
0.0
144
0.0
144
0.0208333333333333
144
0.0
144
0.0
144
0.0
144
0.0
144
1.0
144
0.0
144
0.0
144
0.0
144
0.0
144
1.0
147
0.0208333333333333
147
0.0
147
0.0
147
0.0
147
0.0
147
0.0208333333333333
147
0.0
147
0.0
147
0.0
147
0.0
147
1.0
147
0.0
147
0.0
147
0.0
147
0.0
147
1.0
  0
MATERIAL
  5
2D24
102
{ACAD_XDICTIONARY
360
2D25
102
}
102
{ACAD_REACTORS
330
2D13
102
}
330
2D13
100
AcDbMaterial
  1
Global
 72
     0
 43
0.0208333333333333
 43
0.0
 43
0.0
 43
0.0
 43
0.0
 43
0.0208333333333333
 43
0.0
 43
0.0
 43
0.0
 43
0.0
 43
1.0
 43
0.0
 43
0.0
 43
0.0
 43
0.0
 43
1.0
 77
     0
 47
0.0208333333333333
 47
0.0
 47
0.0
 47
0.0
 47
0.0
 47
0.0208333333333333
 47
0.0
 47
0.0
 47
0.0
 47
0.0
 47
1.0
 47
0.0
 47
0.0
 47
0.0
 47
0.0
 47
1.0
171
     0
 49
0.0208333333333333
 49
0.0
 49
0.0
 49
0.0
 49
0.0
 49
0.0208333333333333
 49
0.0
 49
0.0
 49
0.0
 49
0.0
 49
1.0
 49
0.0
 49
0.0
 49
0.0
 49
0.0
 49
1.0
175
     0
142
0.0208333333333333
142
0.0
142
0.0
142
0.0
142
0.0
142
0.0208333333333333
142
0.0
142
0.0
142
0.0
142
0.0
142
1.0
142
0.0
142
0.0
142
0.0
142
0.0
142
1.0
179
     0
144
0.0208333333333333
144
0.0
144
0.0
144
0.0
144
0.0
144
0.0208333333333333
144
0.0
144
0.0
144
0.0
144
0.0
144
1.0
144
0.0
144
0.0
144
0.0
144
0.0
144
1.0
147
0.0208333333333333
147
0.0
147
0.0
147
0.0
147
0.0
147
0.0208333333333333
147
0.0
147
0.0
147
0.0
147
0.0
147
1.0
147
0.0
147
0.0
147
0.0
147
0.0
147
1.0
  0
MLEADERSTYLE
  5
2D5B
102
{ACAD_REACTORS
330
2D5A
102
}
330
2D5A
100
AcDbMLeaderStyle
170
     2
171
     1
172
     0
 90
        2
 40
0.0
 41
0.0
173
     1
 91
-1056964608
340
12
 92
       -2
290
     1
 42
0.09
291
     1
 43
0.36
  3
Standard
 44
0.18
300

342
F
174
     1
178
     6
175
     1
176
     0
 93
-1056964608
 45
0.18
292
     0
297
     0
 46
0.18
 94
-1056964608
 47
1.0
 49
1.0
140
1.0
293
     1
141
0.0
294
     1
177
     0
142
1.0
295
     0
296
     0
143
0.125
1001
ACAD_MLEADERVER
1070
     2
  0
MLINESTYLE
  5
1C
102
{ACAD_REACTORS
330
1B
102
}
330
1B
100
AcDbMlineStyle
  2
STANDARD
 70
     0
  3

 62
   256
 51
90.0
 52
90.0
 71
     2
 49
0.5
 62
   256
  6
BYLAYER
 49
-0.5
 62
   256
  6
BYLAYER
  0
ACDBPLACEHOLDER
  5
2D12
102
{ACAD_REACTORS
330
2D11
102
}
330
2D11
  0
SCALE
  5
2D49
102
{ACAD_REACTORS
330
2D48
102
}
330
2D48
100
AcDbScale
 70
     0
300
1:1
140
1.0
141
1.0
290
     1
  0
SCALE
  5
2D4A
102
{ACAD_REACTORS
330
2D48
102
}
330
2D48
100
AcDbScale
 70
     0
300
1/128" = 1'-0"
140
0.0078125
141
12.0
290
     0
  0
SCALE
  5
2D4B
102
{ACAD_REACTORS
330
2D48
102
}
330
2D48
100
AcDbScale
 70
     0
300
1/64" = 1'-0"
140
0.015625
141
12.0
290
     0
  0
SCALE
  5
2D4C
102
{ACAD_REACTORS
330
2D48
102
}
330
2D48
100
AcDbScale
 70
     0
300
1/32" = 1'-0"
140
0.03125
141
12.0
290
     0
  0
SCALE
  5
2D4D
102
{ACAD_REACTORS
330
2D48
102
}
330
2D48
100
AcDbScale
 70
     0
300
1/16" = 1'-0"
140
0.0625
141
12.0
290
     0
  0
SCALE
  5
2D4E
102
{ACAD_REACTORS
330
2D48
102
}
330
2D48
100
AcDbScale
 70
     0
300
3/32" = 1'-0"
140
0.09375
141
12.0
290
     0
  0
SCALE
  5
2D4F
102
{ACAD_REACTORS
330
2D48
102
}
330
2D48
100
AcDbScale
 70
     0
300
1/8" = 1'-0"
140
0.125
141
12.0
290
     0
  0
SCALE
  5
2D50
102
{ACAD_REACTORS
330
2D48
102
}
330
2D48
100
AcDbScale
 70
     0
300
3/16" = 1'-0"
140
0.1875
141
12.0
290
     0
  0
SCALE
  5
2D51
102
{ACAD_REACTORS
330
2D48
102
}
330
2D48
100
AcDbScale
 70
     0
300
1/4" = 1'-0"
140
0.25
141
12.0
290
     0
  0
SCALE
  5
2D52
102
{ACAD_REACTORS
330
2D48
102
}
330
2D48
100
AcDbScale
 70
     0
300
3/8" = 1'-0"
140
0.375
141
12.0
290
     0
  0
SCALE
  5
2D53
102
{ACAD_REACTORS
330
2D48
102
}
330
2D48
100
AcDbScale
 70
     0
300
1/2" = 1'-0"
140
0.5
141
12.0
290
     0
  0
SCALE
  5
2D54
102
{ACAD_REACTORS
330
2D48
102
}
330
2D48
100
AcDbScale
 70
     0
300
3/4" = 1'-0"
140
0.75
141
12.0
290
     0
  0
SCALE
  5
2D55
102
{ACAD_REACTORS
330
2D48
102
}
330
2D48
100
AcDbScale
 70
     0
300
1" = 1'-0"
140
1.0
141
12.0
290
     0
  0
SCALE
  5
2D56
102
{ACAD_REACTORS
330
2D48
102
}
330
2D48
100
AcDbScale
 70
     0
300
1-1/2" = 1'-0"
140
1.5
141
12.0
290
     0
  0
SCALE
  5
2D57
102
{ACAD_REACTORS
330
2D48
102
}
330
2D48
100
AcDbScale
 70
     0
300
3" = 1'-0"
140
3.0
141
12.0
290
     0
  0
SCALE
  5
2D58
102
{ACAD_REACTORS
330
2D48
102
}
330
2D48
100
AcDbScale
 70
     0
300
6" = 1'-0"
140
6.0
141
12.0
290
     0
  0
SCALE
  5
2D59
102
{ACAD_REACTORS
330
2D48
102
}
330
2D48
100
AcDbScale
 70
     0
300
1'-0" = 1'-0"
140
12.0
141
12.0
290
     0
  0
ACDBSECTIONVIEWSTYLE
  5
2D5D
102
{ACAD_XDICTIONARY
360
2DB7
102
}
102
{ACAD_REACTORS
330
2D5C
102
}
330
2D5C
100
AcDbModelDocViewStyle
 70
     0
  3
Imperial24
290
     0
100
AcDbSectionViewStyle
 70
     0
 71
     0
 90
       78
 71
     1
340
F
 40
0.24
340
0
340
0
 40
0.24
300
I, O, Q, S, X, Z
 40
0.48
 90
        3
 40
0.18
 90
        1
 71
     2
340
14
 90
       25
340
14
 90
       50
 40
0.24
 40
0.0
 40
0.24
 71
     3
340
F
 40
0.24
 90
        1
 40
0.75
 90
        1
300
%<\AcVar ViewType \f "%tc1">% %<\AcVar ViewSectionStartId>%-%<\AcVar ViewSectionEndId>%\PSCALE %<\AcVar ViewScale \f "%sn">%
 71
     4
300
ANSI31
 40
1.0
 90
        0
290
     0
290
     0
 90
        6
 40
0.0
 40
1.570796326794896
 40
0.2617993877991494
 40
1.308996938995747
 40
-0.2617993877991494
 40
1.832595714594046
  0
TABLESTYLE
  5
2D47
102
{ACAD_XDICTIONARY
360
2D7E
102
}
102
{ACAD_REACTORS
330
2D46
102
}
330
2D46
100
AcDbTableStyle
  3
Standard
 70
     0
 71
     0
 40
0.06
 41
0.06
280
     0
281
     0
  7
STANDARD
140
0.18
170
     2
 62
     0
 63
     7
283
     0
274
    -2
284
     1
 64
     0
275
    -2
285
     1
 65
     0
276
    -2
286
     1
 66
     0
277
    -2
287
     1
 67
     0
278
    -2
288
     1
 68
     0
279
    -2
289
     1
 69
     0
  7
STANDARD
140
0.25
170
     5
 62
     0
 63
     7
283
     0
274
    -2
284
     1
 64
     0
275
    -2
285
     1
 65
     0
276
    -2
286
     1
 66
     0
277
    -2
287
     1
 67
     0
278
    -2
288
     1
 68
     0
279
    -2
289
     1
 69
     0
  7
STANDARD
140
0.18
170
     5
 62
     0
 63
     7
283
     0
274
    -2
284
     1
 64
     0
275
    -2
285
     1
 65
     0
276
    -2
286
     1
 66
     0
277
    -2
287
     1
 67
     0
278
    -2
288
     1
 68
     0
279
    -2
289
     1
 69
     0
  0
VISUALSTYLE
  5
2D32
102
{ACAD_XDICTIONARY
360
2D8F
102
}
102
{ACAD_REACTORS
330
2D2C
102
}
330
2D2C
100
AcDbVisualStyle
  2
2dWireframe
 70
     4
 71
     0
 72
     2
 73
     0
 90
        0
 40
-0.6
 41
-30.0
 62
     5
 63
     7
 74
     1
 91
        4
 64
     7
 65
   257
 75
     1
175
     1
 42
1.0
 92
        0
 66
   257
 43
1.0
 76
     1
 77
     6
 78
     2
 67
     7
 79
     5
170
     0
171
     0
290
     0
174
     0
 93
        1
 44
0.0
173
     0
291
     0
 45
0.0
1001
ACAD
1000
AcDbSavedByObjectVersion
1070
     0
  0
VISUALSTYLE
  5
2D31
102
{ACAD_XDICTIONARY
360
2D8D
102
}
102
{ACAD_REACTORS
330
2D2C
102
}
330
2D2C
100
AcDbVisualStyle
  2
Basic
 70
     7
 71
     1
 72
     0
 73
     1
 90
        0
 40
-0.6
 41
-30.0
 62
     5
 63
     7
 74
     0
 91
        4
 64
     7
 65
   257
 75
     1
175
     1
 42
1.0
 92
        8
 66
     7
 43
1.0
 76
     1
 77
     6
 78
     2
 67
     7
 79
     5
170
     0
171
     0
290
     0
174
     0
 93
        1
 44
0.0
173
     0
291
     1
 45
0.0
1001
ACAD
1000
AcDbSavedByObjectVersion
1070
     0
  0
VISUALSTYLE
  5
2D38
102
{ACAD_XDICTIONARY
360
2D9B
102
}
102
{ACAD_REACTORS
330
2D2C
102
}
330
2D2C
100
AcDbVisualStyle
  2
Brighten
 70
    12
 71
     2
 72
     2
 73
     0
 90
        0
 40
-0.6
 41
-30.0
 62
     5
 63
     7
 74
     1
 91
        4
 64
     7
 65
   257
 75
     1
175
     1
 42
1.0
 92
        8
 66
     7
 43
1.0
 76
     1
 77
     6
 78
     2
 67
     7
 79
     5
170
     0
171
     0
290
     0
174
     0
 93
        1
 44
50.0
173
     0
291
     1
 45
0.0
1001
ACAD
1000
AcDbSavedByObjectVersion
1070
     0
  0
VISUALSTYLE
  5
2D3C
102
{ACAD_XDICTIONARY
360
2DA3
102
}
102
{ACAD_REACTORS
330
2D2C
102
}
330
2D2C
100
AcDbVisualStyle
  2
ColorChange
 70
    16
 71
     2
 72
     2
 73
     3
 90
        0
 40
-0.6
 41
-30.0
 62
     5
 63
     8
 74
     1
 91
        4
 64
     7
 65
   257
 75
     1
175
     1
 42
1.0
 92
        8
 66
     8
 43
1.0
 76
     1
 77
     6
 78
     2
 67
     7
 79
     5
170
     0
171
     0
290
     0
174
     0
 93
        1
 44
0.0
173
     0
291
     1
 45
0.0
1001
ACAD
1000
AcDbSavedByObjectVersion
1070
     0
  0
VISUALSTYLE
  5
2D35
102
{ACAD_XDICTIONARY
360
2D95
102
}
102
{ACAD_REACTORS
330
2D2C
102
}
330
2D2C
100
AcDbVisualStyle
  2
Conceptual
 70
     9
 71
     3
 72
     2
 73
     0
 90
        0
 40
-0.6
 41
-30.0
 62
     5
 63
     7
 74
     2
 91
        2
 64
     7
 65
   257
 75
     1
175
     1
 42
179.0
 92
        8
 66
     7
 43
1.0
 76
     1
 77
     6
 78
     2
 67
     7
 79
     3
170
     0
171
     0
290
     0
174
     0
 93
        1
 44
0.0
173
     0
291
     0
 45
0.0
1001
ACAD
1000
AcDbSavedByObjectVersion
1070
     0
  0
VISUALSTYLE
  5
2D37
102
{ACAD_XDICTIONARY
360
2D99
102
}
102
{ACAD_REACTORS
330
2D2C
102
}
330
2D2C
100
AcDbVisualStyle
  2
Dim
 70
    11
 71
     2
 72
     2
 73
     0
 90
        0
 40
-0.6
 41
-30.0
 62
     5
 63
     7
 74
     1
 91
        4
 64
     7
 65
   257
 75
     1
175
     1
 42
1.0
 92
        8
 66
     7
 43
1.0
 76
     1
 77
     6
 78
     2
 67
     7
 79
     5
170
     0
171
     0
290
     0
174
     0
 93
        1
 44
-50.0
173
     0
291
     1
 45
0.0
1001
ACAD
1000
AcDbSavedByObjectVersion
1070
     0
  0
VISUALSTYLE
  5
2D44
102
{ACAD_XDICTIONARY
360
2DB3
102
}
102
{ACAD_REACTORS
330
2D2C
102
}
330
2D2C
100
AcDbVisualStyle
  2
EdgeColorOff
 70
    22
 71
     2
 72
     2
 73
     0
 90
        0
 40
-0.6
 41
-30.0
 62
     5
 63
     7
 74
     1
 91
        4
 64
     7
 65
   257
 75
     1
175
     1
 42
1.0
 92
        8
 66
     7
 43
1.0
 76
     1
 77
     6
 78
     2
 67
     7
 79
     5
170
     0
171
     0
290
     0
174
     0
 93
        1
 44
0.0
173
     0
291
     1
 45
0.0
1001
ACAD
1000
AcDbSavedByObjectVersion
1070
     0
  0
VISUALSTYLE
  5
2D3B
102
{ACAD_XDICTIONARY
360
2DA1
102
}
102
{ACAD_REACTORS
330
2D2C
102
}
330
2D2C
100
AcDbVisualStyle
  2
Facepattern
 70
    15
 71
     2
 72
     2
 73
     0
 90
        0
 40
-0.6
 41
-30.0
 62
     5
 63
     7
 74
     1
 91
        4
 64
     7
 65
   257
 75
     1
175
     1
 42
1.0
 92
        8
 66
     7
 43
1.0
 76
     1
 77
     6
 78
     2
 67
     7
 79
     5
170
     0
171
     0
290
     0
174
     0
 93
        1
 44
0.0
173
     0
291
     1
 45
0.0
1001
ACAD
1000
AcDbSavedByObjectVersion
1070
     0
  0
VISUALSTYLE
  5
2D2D
102
{ACAD_XDICTIONARY
360
2D85
102
}
102
{ACAD_REACTORS
330
2D2C
102
}
330
2D2C
100
AcDbVisualStyle
  2
Flat
 70
     0
 71
     2
 72
     1
 73
     1
 90
        2
 40
-0.6
 41
30.0
 62
     5
 63
     7
 74
     0
 91
        0
 64
     7
 65
   257
 75
     1
175
     1
 42
1.0
 92
        8
 66
     7
 43
1.0
 76
     1
 77
     6
 78
     2
 67
     7
 79
     5
170
     0
171
     0
290
     0
174
     0
 93
       13
 44
0.0
173
     0
291
     1
 45
0.0
1001
ACAD
1000
AcDbSavedByObjectVersion
1070
     0
  0
VISUALSTYLE
  5
2D2E
102
{ACAD_XDICTIONARY
360
2D87
102
}
102
{ACAD_REACTORS
330
2D2C
102
}
330
2D2C
100
AcDbVisualStyle
  2
FlatWithEdges
 70
     1
 71
     2
 72
     1
 73
     1
 90
        2
 40
-0.6
 41
30.0
 62
     5
 63
     7
 74
     1
 91
        0
 64
     7
 65
   257
 75
     1
175
     1
 42
1.0
 92
        0
 66
   257
 43
1.0
 76
     1
 77
     6
 78
     2
 67
     7
 79
     5
170
     0
171
     0
290
     0
174
     0
 93
       13
 44
0.0
173
     0
291
     1
 45
0.0
1001
ACAD
1000
AcDbSavedByObjectVersion
1070
     0
  0
VISUALSTYLE
  5
2D2F
102
{ACAD_XDICTIONARY
360
2D89
102
}
102
{ACAD_REACTORS
330
2D2C
102
}
330
2D2C
100
AcDbVisualStyle
  2
Gouraud
 70
     2
 71
     2
 72
     2
 73
     1
 90
        2
 40
-0.6
 41
30.0
 62
     5
 63
     7
 74
     0
 91
        0
 64
     7
 65
   257
 75
     1
175
     1
 42
1.0
 92
        0
 66
     7
 43
1.0
 76
     1
 77
     6
 78
     2
 67
     7
 79
     5
170
     0
171
     0
290
     0
174
     0
 93
       13
 44
0.0
173
     0
291
     1
 45
0.0
1001
ACAD
1000
AcDbSavedByObjectVersion
1070
     0
  0
VISUALSTYLE
  5
2D30
102
{ACAD_XDICTIONARY
360
2D8B
102
}
102
{ACAD_REACTORS
330
2D2C
102
}
330
2D2C
100
AcDbVisualStyle
  2
GouraudWithEdges
 70
     3
 71
     2
 72
     2
 73
     1
 90
        2
 40
-0.6
 41
30.0
 62
     5
 63
     7
 74
     1
 91
        0
 64
     7
 65
   257
 75
     1
175
     1
 42
1.0
 92
        0
 66
   257
 43
1.0
 76
     1
 77
     6
 78
     2
 67
     7
 79
     5
170
     0
171
     0
290
     0
174
     0
 93
       13
 44
0.0
173
     0
291
     1
 45
0.0
1001
ACAD
1000
AcDbSavedByObjectVersion
1070
     0
  0
VISUALSTYLE
  5
2D34
102
{ACAD_XDICTIONARY
360
2D93
102
}
102
{ACAD_REACTORS
330
2D2C
102
}
330
2D2C
100
AcDbVisualStyle
  2
Hidden
 70
     6
 71
     1
 72
     2
 73
     2
 90
        0
 40
-0.6
 41
-30.0
 62
     5
 63
     7
 74
     2
 91
        2
 64
     7
 65
   257
 75
     2
175
     1
 42
40.0
 92
        0
 66
   257
 43
1.0
 76
     1
 77
     6
 78
     2
 67
     7
 79
     3
170
     0
171
     0
290
     0
174
     0
 93
        1
 44
0.0
173
     0
291
     0
 45
0.0
1001
ACAD
1000
AcDbSavedByObjectVersion
1070
     0
  0
VISUALSTYLE
  5
2D42
102
{ACAD_XDICTIONARY
360
2DAF
102
}
102
{ACAD_REACTORS
330
2D2C
102
}
330
2D2C
100
AcDbVisualStyle
  2
JitterOff
 70
    20
 71
     2
 72
     2
 73
     0
 90
        0
 40
-0.6
 41
-30.0
 62
     5
 63
     7
 74
     1
 91
        4
 64
     7
 65
   257
 75
     1
175
     1
 42
1.0
 92
       10
 66
     7
 43
1.0
 76
     1
 77
     6
 78
     2
 67
     7
 79
     5
170
     0
171
     0
290
     0
174
     0
 93
        1
 44
0.0
173
     0
291
     1
 45
0.0
1001
ACAD
1000
AcDbSavedByObjectVersion
1070
     0
  0
VISUALSTYLE
  5
2D3A
102
{ACAD_XDICTIONARY
360
2D9F
102
}
102
{ACAD_REACTORS
330
2D2C
102
}
330
2D2C
100
AcDbVisualStyle
  2
Linepattern
 70
    14
 71
     2
 72
     2
 73
     0
 90
        0
 40
-0.6
 41
-30.0
 62
     5
 63
     7
 74
     1
 91
        4
 64
     7
 65
   257
 75
     7
175
     7
 42
1.0
 92
        8
 66
     7
 43
1.0
 76
     1
 77
     6
 78
     2
 67
     7
 79
     5
170
     0
171
     0
290
     0
174
     0
 93
        1
 44
0.0
173
     0
291
     1
 45
0.0
1001
ACAD
1000
AcDbSavedByObjectVersion
1070
     0
  0
VISUALSTYLE
  5
2D43
102
{ACAD_XDICTIONARY
360
2DB1
102
}
102
{ACAD_REACTORS
330
2D2C
102
}
330
2D2C
100
AcDbVisualStyle
  2
OverhangOff
 70
    21
 71
     2
 72
     2
 73
     0
 90
        0
 40
-0.6
 41
-30.0
 62
     5
 63
     7
 74
     1
 91
        4
 64
     7
 65
   257
 75
     1
175
     1
 42
1.0
 92
        9
 66
     7
 43
1.0
 76
     1
 77
     6
 78
     2
 67
     7
 79
     5
170
     0
171
     0
290
     0
174
     0
 93
        1
 44
0.0
173
     0
291
     1
 45
0.0
1001
ACAD
1000
AcDbSavedByObjectVersion
1070
     0
  0
VISUALSTYLE
  5
2D36
102
{ACAD_XDICTIONARY
360
2D97
102
}
102
{ACAD_REACTORS
330
2D2C
102
}
330
2D2C
100
AcDbVisualStyle
  2
Realistic
 70
     8
 71
     2
 72
     3
 73
     0
 90
        2
 40
-0.6
 41
30.0
 62
     5
 63
     7
 74
     0
 91
        0
 64
     7
 65
   257
 75
     1
175
     1
 42
1.0
 92
        8
 66
   257
 43
1.0
 76
     1
 77
     6
 78
     2
 67
     7
 79
     3
170
     0
171
     0
290
     0
174
     0
 93
       13
 44
0.0
173
     0
291
     0
 45
0.0
1001
ACAD
1000
AcDbSavedByObjectVersion
1070
     0
  0
VISUALSTYLE
  5
2D41
102
{ACAD_XDICTIONARY
360
2DAD
102
}
102
{ACAD_REACTORS
330
2D2C
102
}
330
2D2C
100
AcDbVisualStyle
  2
Shaded
 70
    27
 71
     2
 72
     2
 73
     1
 90
        2
 40
-0.6
 41
30.0
 62
     5
 63
     7
 74
     0
 91
        4
 64
     7
 65
   257
 75
     1
175
     1
 42
1.0
 92
        8
 66
   257
 43
1.0
 76
     1
 77
     6
 78
     2
 67
     8
 79
     3
170
     0
171
     0
290
     0
174
     0
 93
        5
 44
0.0
173
     0
291
     0
 45
0.0
1001
ACAD
1000
AcDbSavedByObjectVersion
1070
     0
  0
VISUALSTYLE
  5
2D40
102
{ACAD_XDICTIONARY
360
2DAB
102
}
102
{ACAD_REACTORS
330
2D2C
102
}
330
2D2C
100
AcDbVisualStyle
  2
Shaded with edges
 70
    26
 71
     2
 72
     2
 73
     1
 90
        2
 40
-0.6
 41
30.0
 62
     5
 63
     7
 74
     1
 91
       10
 64
     7
 65
   257
 75
     2
175
     1
 42
1.0
 92
        8
 66
   257
 43
1.0
 76
     1
 77
     6
 78
     2
 67
     7
 79
     3
170
     0
171
     0
290
     0
174
     0
 93
        5
 44
0.0
173
     0
291
     0
 45
0.0
1001
ACAD
1000
AcDbSavedByObjectVersion
1070
     0
  0
VISUALSTYLE
  5
2D3D
102
{ACAD_XDICTIONARY
360
2DA5
102
}
102
{ACAD_REACTORS
330
2D2C
102
}
330
2D2C
100
AcDbVisualStyle
  2
Shades of Gray
 70
    23
 71
     2
 72
     2
 73
     3
 90
        0
 40
-0.6
 41
-30.0
 62
     5
 63
     7
 74
     2
 91
        2
 64
     7
 65
     7
 75
     1
175
     1
 42
40.0
 92
        8
 66
     7
 43
1.0
 76
     1
 77
     6
 78
     2
 67
     7
 79
     3
170
     0
171
     0
290
     0
174
     0
 93
        1
 44
0.0
173
     0
291
     0
 45
0.0
1001
ACAD
1000
AcDbSavedByObjectVersion
1070
     0
  0
VISUALSTYLE
  5
2D3E
102
{ACAD_XDICTIONARY
360
2DA7
102
}
102
{ACAD_REACTORS
330
2D2C
102
}
330
2D2C
100
AcDbVisualStyle
  2
Sketchy
 70
    24
 71
     1
 72
     2
 73
     2
 90
        0
 40
-0.6
 41
-30.0
 62
     5
 63
     7
 74
     2
 91
        2
 64
     7
 65
     7
 75
     1
175
     1
 42
40.0
 92
       11
 66
     7
 43
1.0
 76
     1
 77
     6
 78
     2
 67
     7
 79
     6
170
     0
171
     0
290
     0
174
     0
 93
        1
 44
0.0
173
     0
291
     0
 45
0.0
1001
ACAD
1000
AcDbSavedByObjectVersion
1070
     0
  0
VISUALSTYLE
  5
2D39
102
{ACAD_XDICTIONARY
360
2D9D
102
}
102
{ACAD_REACTORS
330
2D2C
102
}
330
2D2C
100
AcDbVisualStyle
  2
Thicken
 70
    13
 71
     2
 72
     2
 73
     0
 90
        0
 40
-0.6
 41
-30.0
 62
     5
 63
     7
 74
     1
 91
        4
 64
     7
 65
   257
 75
     1
175
     1
 42
1.0
 92
       12
 66
     7
 43
1.0
 76
     1
 77
     6
 78
     2
 67
     7
 79
     5
170
     0
171
     0
290
     0
174
     0
 93
        1
 44
0.0
173
     0
291
     1
 45
0.0
1001
ACAD
1000
AcDbSavedByObjectVersion
1070
     0
  0
VISUALSTYLE
  5
2D33
102
{ACAD_XDICTIONARY
360
2D91
102
}
102
{ACAD_REACTORS
330
2D2C
102
}
330
2D2C
100
AcDbVisualStyle
  2
Wireframe
 70
     5
 71
     0
 72
     2
 73
     0
 90
        0
 40
-0.6
 41
-30.0
 62
     5
 63
     7
 74
     1
 91
        4
 64
     7
 65
   257
 75
     1
175
     1
 42
1.0
 92
        0
 66
   257
 43
1.0
 76
     1
 77
     6
 78
     2
 67
     7
 79
     3
170
     0
171
     0
290
     0
174
     0
 93
        1
 44
0.0
173
     0
291
     0
 45
0.0
1001
ACAD
1000
AcDbSavedByObjectVersion
1070
     0
  0
VISUALSTYLE
  5
2D3F
102
{ACAD_XDICTIONARY
360
2DA9
102
}
102
{ACAD_REACTORS
330
2D2C
102
}
330
2D2C
100
AcDbVisualStyle
  2
X-Ray
 70
    25
 71
     2
 72
     2
 73
     1
 90
        1
 40
0.5
 41
-30.0
 62
     5
 63
     7
 74
     1
 91
        0
 64
     7
 65
   257
 75
     1
175
     1
 42
1.0
 92
        8
 66
     7
 43
1.0
 76
     1
 77
     6
 78
     2
 67
     7
 79
     3
170
     0
171
     0
290
     0
174
     0
 93
       13
 44
0.0
173
     0
291
     0
 45
0.0
1001
ACAD
1000
AcDbSavedByObjectVersion
1070
     0
  0
DICTIONARYVAR
  5
2D78
102
{ACAD_REACTORS
330
2D73
102
}
330
2D73
100
DictionaryVariables
280
     0
  1
1:1
  0
DICTIONARYVAR
  5
2D75
102
{ACAD_REACTORS
330
2D73
102
}
330
2D73
100
DictionaryVariables
280
     0
  1
STANDARD
  0
DICTIONARYVAR
  5
2D74
102
{ACAD_REACTORS
330
2D73
102
}
330
2D73
100
DictionaryVariables
280
     0
  1
STANDARD
  0
DICTIONARYVAR
  5
2D76
102
{ACAD_REACTORS
330
2D73
102
}
330
2D73
100
DictionaryVariables
280
     0
  1
Imperial24
  0
DICTIONARYVAR
  5
2D77
102
{ACAD_REACTORS
330
2D73
102
}
330
2D73
100
DictionaryVariables
280
     0
  1
Imperial24
  0
DICTIONARYVAR
  5
2D7B
102
{ACAD_REACTORS
330
2D73
102
}
330
2D73
100
DictionaryVariables
280
     0
  1
1
  0
DICTIONARYVAR
  5
2D7A
102
{ACAD_REACTORS
330
2D73
102
}
330
2D73
100
DictionaryVariables
280
     0
  1
0
  0
DICTIONARYVAR
  5
2D79
102
{ACAD_REACTORS
330
2D73
102
}
330
2D73
100
DictionaryVariables
280
     0
  1
127
  0
DICTIONARYVAR
  5
2D7C
102
{ACAD_REACTORS
330
2D73
102
}
330
2D73
100
DictionaryVariables
280
     0
  1
2
  0
DICTIONARY
  5
2DB9
330
2D5F
100
AcDbDictionary
280
     1
281
     1
  3
ACAD_XREC_ROUNDTRIP
360
2DBA
  0
DICTIONARY
  5
2DBB
330
2D60
100
AcDbDictionary
280
     1
281
     1
  3
ACAD_XREC_ROUNDTRIP
360
2DBC
  0
DICTIONARY
  5
2DBD
330
2D61
100
AcDbDictionary
280
     1
281
     1
  3
ACAD_XREC_ROUNDTRIP
360
2DBE
  0
DICTIONARY
  5
2D1D
330
2D1C
100
AcDbDictionary
280
     1
281
     1
  3
ACAD_XREC_ROUNDTRIP
360
2D83
  3
BUMPTILE
360
2D1F
  3
DIFFUSETILE
360
2D1E
  3
OPACITYTILE
360
2D22
  3
REFLECTIONTILE
360
2D21
  3
REFRACTIONTILE
360
2D23
  3
SPECULARTILE
360
2D20
  0
DICTIONARY
  5
2D15
330
2D14
100
AcDbDictionary
280
     1
281
     1
  3
ACAD_XREC_ROUNDTRIP
360
2D82
  3
BUMPTILE
360
2D17
  3
DIFFUSETILE
360
2D16
  3
OPACITYTILE
360
2D1A
  3
REFLECTIONTILE
360
2D19
  3
REFRACTIONTILE
360
2D1B
  3
SPECULARTILE
360
2D18
  0
DICTIONARY
  5
2D25
330
2D24
100
AcDbDictionary
280
     1
281
     1
  3
ACAD_XREC_ROUNDTRIP
360
2D84
  3
BUMPTILE
360
2D27
  3
DIFFUSETILE
360
2D26
  3
OPACITYTILE
360
2D2A
  3
REFLECTIONTILE
360
2D29
  3
REFRACTIONTILE
360
2D2B
  3
SPECULARTILE
360
2D28
  0
DICTIONARY
  5
2DB7
330
2D5D
100
AcDbDictionary
280
     1
281
     1
  3
ACAD_XREC_ROUNDTRIP
360
2DB8
  0
DICTIONARY
  5
2D7E
330
2D47
100
AcDbDictionary
280
     1
281
     1
  3
ACAD_ROUNDTRIP_2008_TABLESTYLE_CELLSTYLEMAP
360
2D7F
  3
ACAD_XREC_ROUNDTRIP
360
2DB5
  0
DICTIONARY
  5
2D8F
330
2D32
100
AcDbDictionary
280
     1
281
     1
  3
ACAD_XREC_ROUNDTRIP
360
2D90
  0
DICTIONARY
  5
2D8D
330
2D31
100
AcDbDictionary
280
     1
281
     1
  3
ACAD_XREC_ROUNDTRIP
360
2D8E
  0
DICTIONARY
  5
2D9B
330
2D38
100
AcDbDictionary
280
     1
281
     1
  3
ACAD_XREC_ROUNDTRIP
360
2D9C
  0
DICTIONARY
  5
2DA3
330
2D3C
100
AcDbDictionary
280
     1
281
     1
  3
ACAD_XREC_ROUNDTRIP
360
2DA4
  0
DICTIONARY
  5
2D95
330
2D35
100
AcDbDictionary
280
     1
281
     1
  3
ACAD_XREC_ROUNDTRIP
360
2D96
  0
DICTIONARY
  5
2D99
330
2D37
100
AcDbDictionary
280
     1
281
     1
  3
ACAD_XREC_ROUNDTRIP
360
2D9A
  0
DICTIONARY
  5
2DB3
330
2D44
100
AcDbDictionary
280
     1
281
     1
  3
ACAD_XREC_ROUNDTRIP
360
2DB4
  0
DICTIONARY
  5
2DA1
330
2D3B
100
AcDbDictionary
280
     1
281
     1
  3
ACAD_XREC_ROUNDTRIP
360
2DA2
  0
DICTIONARY
  5
2D85
330
2D2D
100
AcDbDictionary
280
     1
281
     1
  3
ACAD_XREC_ROUNDTRIP
360
2D86
  0
DICTIONARY
  5
2D87
330
2D2E
100
AcDbDictionary
280
     1
281
     1
  3
ACAD_XREC_ROUNDTRIP
360
2D88
  0
DICTIONARY
  5
2D89
330
2D2F
100
AcDbDictionary
280
     1
281
     1
  3
ACAD_XREC_ROUNDTRIP
360
2D8A
  0
DICTIONARY
  5
2D8B
330
2D30
100
AcDbDictionary
280
     1
281
     1
  3
ACAD_XREC_ROUNDTRIP
360
2D8C
  0
DICTIONARY
  5
2D93
330
2D34
100
AcDbDictionary
280
     1
281
     1
  3
ACAD_XREC_ROUNDTRIP
360
2D94
  0
DICTIONARY
  5
2DAF
330
2D42
100
AcDbDictionary
280
     1
281
     1
  3
ACAD_XREC_ROUNDTRIP
360
2DB0
  0
DICTIONARY
  5
2D9F
330
2D3A
100
AcDbDictionary
280
     1
281
     1
  3
ACAD_XREC_ROUNDTRIP
360
2DA0
  0
DICTIONARY
  5
2DB1
330
2D43
100
AcDbDictionary
280
     1
281
     1
  3
ACAD_XREC_ROUNDTRIP
360
2DB2
  0
DICTIONARY
  5
2D97
330
2D36
100
AcDbDictionary
280
     1
281
     1
  3
ACAD_XREC_ROUNDTRIP
360
2D98
  0
DICTIONARY
  5
2DAD
330
2D41
100
AcDbDictionary
280
     1
281
     1
  3
ACAD_XREC_ROUNDTRIP
360
2DAE
  0
DICTIONARY
  5
2DAB
330
2D40
100
AcDbDictionary
280
     1
281
     1
  3
ACAD_XREC_ROUNDTRIP
360
2DAC
  0
DICTIONARY
  5
2DA5
330
2D3D
100
AcDbDictionary
280
     1
281
     1
  3
ACAD_XREC_ROUNDTRIP
360
2DA6
  0
DICTIONARY
  5
2DA7
330
2D3E
100
AcDbDictionary
280
     1
281
     1
  3
ACAD_XREC_ROUNDTRIP
360
2DA8
  0
DICTIONARY
  5
2D9D
330
2D39
100
AcDbDictionary
280
     1
281
     1
  3
ACAD_XREC_ROUNDTRIP
360
2D9E
  0
DICTIONARY
  5
2D91
330
2D33
100
AcDbDictionary
280
     1
281
     1
  3
ACAD_XREC_ROUNDTRIP
360
2D92
  0
DICTIONARY
  5
2DA9
330
2D3F
100
AcDbDictionary
280
     1
281
     1
  3
ACAD_XREC_ROUNDTRIP
360
2DAA
  0
XRECORD
  5
2DBA
102
{ACAD_REACTORS
330
2DB9
102
}
330
2DB9
100
AcDbXrecord
280
     1
102
DISPLAYNAME
  1
Imperial24
102
FLAGS
 90
        0
  0
XRECORD
  5
2DBC
102
{ACAD_REACTORS
330
2DBB
102
}
330
2DBB
100
AcDbXrecord
280
     1
102
SHADEPLOT
 70
     0
102
SHADEPLOTRESLEVEL
 70
     2
102
SHADEPLOTCUSTOMDPI
 70
   300
  0
XRECORD
  5
2DBE
102
{ACAD_REACTORS
330
2DBD
102
}
330
2DBD
100
AcDbXrecord
280
     1
102
SHADEPLOT
 70
     0
102
SHADEPLOTRESLEVEL
 70
     2
102
SHADEPLOTCUSTOMDPI
 70
   300
  0
XRECORD
  5
2D83
102
{ACAD_REACTORS
330
2D1D
102
}
330
2D1D
100
AcDbXrecord
280
     1
102
MATERIAL
148
0.0
149
0.0
149
0.0
 93
        0
 94
      127
282
     0
 72
     0
 77
     0
171
     0
175
     0
179
     0
273
     0
  0
XRECORD
  5
2D1F
102
{ACAD_REACTORS
330
2D1D
102
}
330
2D1D
100
AcDbXrecord
280
     1
270
     1
271
     1
  0
XRECORD
  5
2D1E
102
{ACAD_REACTORS
330
2D1D
102
}
330
2D1D
100
AcDbXrecord
280
     1
270
     1
271
     1
  0
XRECORD
  5
2D22
102
{ACAD_REACTORS
330
2D1D
102
}
330
2D1D
100
AcDbXrecord
280
     1
270
     1
271
     1
  0
XRECORD
  5
2D21
102
{ACAD_REACTORS
330
2D1D
102
}
330
2D1D
100
AcDbXrecord
280
     1
270
     1
271
     1
  0
XRECORD
  5
2D23
102
{ACAD_REACTORS
330
2D1D
102
}
330
2D1D
100
AcDbXrecord
280
     1
270
     1
271
     1
  0
XRECORD
  5
2D20
102
{ACAD_REACTORS
330
2D1D
102
}
330
2D1D
100
AcDbXrecord
280
     1
270
     1
271
     1
  0
XRECORD
  5
2D82
102
{ACAD_REACTORS
330
2D15
102
}
330
2D15
100
AcDbXrecord
280
     1
102
MATERIAL
148
0.0
149
0.0
149
0.0
 93
        0
 94
      127
282
     0
 72
     0
 77
     0
171
     0
175
     0
179
     0
273
     0
  0
XRECORD
  5
2D17
102
{ACAD_REACTORS
330
2D15
102
}
330
2D15
100
AcDbXrecord
280
     1
270
     1
271
     1
  0
XRECORD
  5
2D16
102
{ACAD_REACTORS
330
2D15
102
}
330
2D15
100
AcDbXrecord
280
     1
270
     1
271
     1
  0
XRECORD
  5
2D1A
102
{ACAD_REACTORS
330
2D15
102
}
330
2D15
100
AcDbXrecord
280
     1
270
     1
271
     1
  0
XRECORD
  5
2D19
102
{ACAD_REACTORS
330
2D15
102
}
330
2D15
100
AcDbXrecord
280
     1
270
     1
271
     1
  0
XRECORD
  5
2D1B
102
{ACAD_REACTORS
330
2D15
102
}
330
2D15
100
AcDbXrecord
280
     1
270
     1
271
     1
  0
XRECORD
  5
2D18
102
{ACAD_REACTORS
330
2D15
102
}
330
2D15
100
AcDbXrecord
280
     1
270
     1
271
     1
  0
XRECORD
  5
2D84
102
{ACAD_REACTORS
330
2D25
102
}
330
2D25
100
AcDbXrecord
280
     1
102
MATERIAL
148
0.0
149
0.0
149
0.0
 93
        0
 94
      127
282
     0
 72
     0
 77
     0
171
     0
175
     0
179
     0
273
     0
  0
XRECORD
  5
2D27
102
{ACAD_REACTORS
330
2D25
102
}
330
2D25
100
AcDbXrecord
280
     1
270
     1
271
     1
  0
XRECORD
  5
2D26
102
{ACAD_REACTORS
330
2D25
102
}
330
2D25
100
AcDbXrecord
280
     1
270
     1
271
     1
  0
XRECORD
  5
2D2A
102
{ACAD_REACTORS
330
2D25
102
}
330
2D25
100
AcDbXrecord
280
     1
270
     1
271
     1
  0
XRECORD
  5
2D29
102
{ACAD_REACTORS
330
2D25
102
}
330
2D25
100
AcDbXrecord
280
     1
270
     1
271
     1
  0
XRECORD
  5
2D2B
102
{ACAD_REACTORS
330
2D25
102
}
330
2D25
100
AcDbXrecord
280
     1
270
     1
271
     1
  0
XRECORD
  5
2D28
102
{ACAD_REACTORS
330
2D25
102
}
330
2D25
100
AcDbXrecord
280
     1
270
     1
271
     1
  0
XRECORD
  5
2DB8
102
{ACAD_REACTORS
330
2DB7
102
}
330
2DB7
100
AcDbXrecord
280
     1
102
DISPLAYNAME
  1
Imperial24
102
FLAGS
 90
        0
  0
CELLSTYLEMAP
  5
2D7F
102
{ACAD_REACTORS
330
2D7E
102
}
330
2D7E
100
AcDbCellStyleMap
 90
        3
300
CELLSTYLE
  1
TABLEFORMAT_BEGIN
 90
        5
170
     1
 91
        0
 92
    32768
 62
   257
 93
        1
300
CONTENTFORMAT
  1
CONTENTFORMAT_BEGIN
 90
        0
 91
        0
 92
      512
 93
        0
300

 40
0.0
140
1.0
 94
        5
 62
     0
340
F
144
0.25
309
CONTENTFORMAT_END
171
     0
 94
        0
309
TABLEFORMAT_END
  1
CELLSTYLE_BEGIN
 90
        1
 91
        1
300
_TITLE
309
CELLSTYLE_END
300
CELLSTYLE
  1
TABLEFORMAT_BEGIN
 90
        5
170
     1
 91
        0
 92
        0
 62
   257
 93
        1
300
CONTENTFORMAT
  1
CONTENTFORMAT_BEGIN
 90
        0
 91
        0
 92
      512
 93
        0
300

 40
0.0
140
1.0
 94
        5
 62
     0
340
F
144
0.18
309
CONTENTFORMAT_END
171
     0
 94
        0
309
TABLEFORMAT_END
  1
CELLSTYLE_BEGIN
 90
        2
 91
        1
300
_HEADER
309
CELLSTYLE_END
300
CELLSTYLE
  1
TABLEFORMAT_BEGIN
 90
        5
170
     1
 91
        0
 92
        0
 62
   257
 93
        1
300
CONTENTFORMAT
  1
CONTENTFORMAT_BEGIN
 90
        0
 91
        0
 92
      512
 93
        0
300

 40
0.0
140
1.0
 94
        2
 62
     0
340
F
144
0.18
309
CONTENTFORMAT_END
171
     0
 94
        0
309
TABLEFORMAT_END
  1
CELLSTYLE_BEGIN
 90
        3
 91
        2
300
_DATA
309
CELLSTYLE_END
  0
XRECORD
  5
2DB5
102
{ACAD_REACTORS
330
2D7E
102
}
330
2D7E
100
AcDbXrecord
280
     1
102
ACAD_ROUNDTRIP_PRE2007_TABLESTYLE
 90
      512
 91
        0
  1

 92
      512
 93
        0
  2

 94
      512
 95
        0
  3

  0
XRECORD
  5
2D90
102
{ACAD_REACTORS
330
2D8F
102
}
330
2D8F
100
AcDbXrecord
280
     1
102
RTVSPost2010Prop28
280
     1
102
RTVSPost2010PropOp28
 70
     1
102
RTVSPost2010Prop29
280
     1
102
RTVSPost2010PropOp29
 70
     1
102
RTVSPost2010Prop30
280
     0
102
RTVSPost2010PropOp30
 70
     1
102
RTVSPost2010Prop31
280
     0
102
RTVSPost2010PropOp31
 70
     1
102
RTVSPost2010Prop32
280
     0
102
RTVSPost2010PropOp32
 70
     1
102
RTVSPost2010Prop33
280
     0
102
RTVSPost2010PropOp33
 70
     1
102
RTVSPost2010Prop34
280
     0
102
RTVSPost2010PropOp34
 70
     1
102
RTVSPost2010Prop35
280
     0
102
RTVSPost2010PropOp35
 70
     1
102
RTVSPost2010Prop36
280
     0
102
RTVSPost2010PropOp36
 70
     1
102
RTVSPost2010Prop37
 90
       50
102
RTVSPost2010PropOp37
 70
     1
102
RTVSPost2010Prop38
140
0.0
102
RTVSPost2010PropOp38
 70
     1
102
RTVSPost2010Prop39
140
1.0
102
RTVSPost2010PropOp39
 70
     1
102
RTVSPost2010Prop40
 90
        0
102
RTVSPost2010PropOp40
 70
     1
102
RTVSPost2010Prop41ColorIndex
 90
       18
102
RTVSPost2010Prop41ColorRGB
 90
        0
102
RTVSPost2010PropOp41
 70
     1
102
RTVSPost2010Prop42
 90
       50
102
RTVSPost2010PropOp42
 70
     1
102
RTVSPost2010Prop43
 90
        3
102
RTVSPost2010PropOp43
 70
     1
102
RTVSPost2010Prop44ColorIndex
 90
        5
102
RTVSPost2010Prop44ColorRGB
 90
      255
102
RTVSPost2010PropOp44
 70
     1
102
RTVSPost2010Prop45
280
     0
102
RTVSPost2010PropOp45
 70
     1
102
RTVSPost2010Prop46
 90
       50
102
RTVSPost2010PropOp46
 70
     1
102
RTVSPost2010Prop47
 90
       50
102
RTVSPost2010PropOp47
 70
     1
102
RTVSPost2010Prop48
 90
       50
102
RTVSPost2010PropOp48
 70
     1
102
RTVSPost2010Prop49
280
     0
102
RTVSPost2010PropOp49
 70
     1
102
RTVSPost2010Prop50
 90
       50
102
RTVSPost2010PropOp50
 70
     1
102
RTVSPost2010Prop51ColorIndex
 90
      256
102
RTVSPost2010Prop51ColorRGB
 90
-16777216
102
RTVSPost2010PropOp51
 70
     0
102
RTVSPost2010Prop52
140
1.0
102
RTVSPost2010PropOp52
 70
     0
102
RTVSPost2010Prop53
 90
        2
102
RTVSPost2010PropOp53
 70
     1
102
RTVSPost2010Prop54
  1
strokes_ogs.tif
102
RTVSPost2010PropOp54
 70
     1
102
RTVSPost2010Prop55
280
     0
102
RTVSPost2010PropOp55
 70
     1
102
RTVSPost2010Prop56
140
1.0
102
RTVSPost2010PropOp56
 70
     1
102
RTVSPost2010Prop57
140
1.0
102
RTVSPost2010PropOp57
 70
     1
102
RTVSPropertyOp0
 70
     1
102
RTVSPropertyOp1
 70
     1
102
RTVSPropertyOp2
 70
     1
102
RTVSPropertyOp3
 70
     1
102
RTVSPropertyOp4
 70
     1
102
RTVSPropertyOp5
 70
     1
102
RTVSPropertyOp6
 70
     1
102
RTVSPropertyOp7
 70
     1
102
RTVSPropertyOp8
 70
     1
102
RTVSPropertyOp9
 70
     1
102
RTVSPropertyOp10
 70
     1
102
RTVSPropertyOp11
 70
     1
102
RTVSPropertyOp12
 70
     1
102
RTVSPropertyOp13
 70
     1
102
RTVSPropertyOp14
 70
     1
102
RTVSPropertyOp15
 70
     1
102
RTVSPropertyOp16
 70
     1
102
RTVSPropertyOp17
 70
     1
102
RTVSPropertyOp18
 70
     1
102
RTVSPropertyOp19
 70
     1
102
RTVSPropertyOp20
 70
     1
102
RTVSPropertyOp21
 70
     1
102
RTVSPropertyOp22
 70
     1
102
RTVSPropertyOp23
 70
     1
102
RTVSPropertyOp24
 70
     1
102
RTVSPropertyOp25
 70
     1
102
RTVSPropertyOp26
 70
     1
102
RTVSPropertyOp27
 70
     1
102
RTVSPropertyOp28
 70
     1
102
RTVSPropertyOp29
 70
     1
102
RTVSPropertyOp30
 70
     1
102
RTVSPropertyOp31
 70
     1
102
RTVSPropertyOp32
 70
     1
102
RTVSPropertyOp33
 70
     1
102
RTVSPropertyOp34
 70
     1
102
RTVSPropertyOp35
 70
     1
102
RTVSPropertyOp36
 70
     1
102
RTVSPropertyOp37
 70
     1
102
RTVSPropertyOp38
 70
     1
102
RTVSPropertyOp39
 70
     1
102
RTVSPropertyOp40
 70
     1
102
RTVSPropertyOp41
 70
     1
102
RTVSPropertyOp42
 70
     1
102
RTVSPropertyOp43
 70
     1
102
RTVSPropertyOp44
 70
     1
102
RTVSPropertyOp45
 70
     1
102
RTVSPropertyOp46
 70
     1
102
RTVSPropertyOp47
 70
     1
102
RTVSPropertyOp48
 70
     1
102
RTVSPropertyOp49
 70
     1
102
RTVSPropertyOp50
 70
     1
102
RTVSPropertyOp51
 70
     0
102
RTVSPropertyOp52
 70
     0
102
RTVSPropertyOp53
 70
     1
102
RTVSPropertyOp54
 70
     1
102
RTVSPropertyOp55
 70
     1
102
RTVSPropertyOp56
 70
     1
102
RTVSPropertyOp57
 70
     1
102
RTVSPropertyOp58
 70
     1
102
RTVSPropertyOp59
 70
     1
102
RTVSPropertyOp60
 70
     1
102
RTVSPropertyOp61
 70
     1
102
RTVSPropertyOp62
 70
     1
  0
XRECORD
  5
2D8E
102
{ACAD_REACTORS
330
2D8D
102
}
330
2D8D
100
AcDbXrecord
280
     1
102
RTVSPost2010Prop28
280
     0
102
RTVSPost2010PropOp28
 70
     1
102
RTVSPost2010Prop29
280
     1
102
RTVSPost2010PropOp29
 70
     1
102
RTVSPost2010Prop30
280
     1
102
RTVSPost2010PropOp30
 70
     1
102
RTVSPost2010Prop31
280
     0
102
RTVSPost2010PropOp31
 70
     1
102
RTVSPost2010Prop32
280
     0
102
RTVSPost2010PropOp32
 70
     1
102
RTVSPost2010Prop33
280
     0
102
RTVSPost2010PropOp33
 70
     1
102
RTVSPost2010Prop34
280
     0
102
RTVSPost2010PropOp34
 70
     1
102
RTVSPost2010Prop35
280
     0
102
RTVSPost2010PropOp35
 70
     1
102
RTVSPost2010Prop36
280
     0
102
RTVSPost2010PropOp36
 70
     1
102
RTVSPost2010Prop37
 90
       50
102
RTVSPost2010PropOp37
 70
     1
102
RTVSPost2010Prop38
140
0.0
102
RTVSPost2010PropOp38
 70
     1
102
RTVSPost2010Prop39
140
1.0
102
RTVSPost2010PropOp39
 70
     1
102
RTVSPost2010Prop40
 90
        0
102
RTVSPost2010PropOp40
 70
     1
102
RTVSPost2010Prop41ColorIndex
 90
       18
102
RTVSPost2010Prop41ColorRGB
 90
        0
102
RTVSPost2010PropOp41
 70
     1
102
RTVSPost2010Prop42
 90
       50
102
RTVSPost2010PropOp42
 70
     1
102
RTVSPost2010Prop43
 90
        3
102
RTVSPost2010PropOp43
 70
     1
102
RTVSPost2010Prop44ColorIndex
 90
        5
102
RTVSPost2010Prop44ColorRGB
 90
      255
102
RTVSPost2010PropOp44
 70
     1
102
RTVSPost2010Prop45
280
     0
102
RTVSPost2010PropOp45
 70
     1
102
RTVSPost2010Prop46
 90
       50
102
RTVSPost2010PropOp46
 70
     1
102
RTVSPost2010Prop47
 90
       50
102
RTVSPost2010PropOp47
 70
     1
102
RTVSPost2010Prop48
 90
       50
102
RTVSPost2010PropOp48
 70
     1
102
RTVSPost2010Prop49
280
     0
102
RTVSPost2010PropOp49
 70
     1
102
RTVSPost2010Prop50
 90
       50
102
RTVSPost2010PropOp50
 70
     1
102
RTVSPost2010Prop51ColorIndex
 90
      256
102
RTVSPost2010Prop51ColorRGB
 90
-16777216
102
RTVSPost2010PropOp51
 70
     0
102
RTVSPost2010Prop52
140
1.0
102
RTVSPost2010PropOp52
 70
     0
102
RTVSPost2010Prop53
 90
        2
102
RTVSPost2010PropOp53
 70
     1
102
RTVSPost2010Prop54
  1
strokes_ogs.tif
102
RTVSPost2010PropOp54
 70
     1
102
RTVSPost2010Prop55
280
     0
102
RTVSPost2010PropOp55
 70
     1
102
RTVSPost2010Prop56
140
1.0
102
RTVSPost2010PropOp56
 70
     1
102
RTVSPost2010Prop57
140
1.0
102
RTVSPost2010PropOp57
 70
     1
102
RTVSPropertyOp0
 70
     1
102
RTVSPropertyOp1
 70
     1
102
RTVSPropertyOp2
 70
     1
102
RTVSPropertyOp3
 70
     1
102
RTVSPropertyOp4
 70
     1
102
RTVSPropertyOp5
 70
     1
102
RTVSPropertyOp6
 70
     1
102
RTVSPropertyOp7
 70
     1
102
RTVSPropertyOp8
 70
     1
102
RTVSPropertyOp9
 70
     1
102
RTVSPropertyOp10
 70
     1
102
RTVSPropertyOp11
 70
     1
102
RTVSPropertyOp12
 70
     1
102
RTVSPropertyOp13
 70
     1
102
RTVSPropertyOp14
 70
     1
102
RTVSPropertyOp15
 70
     1
102
RTVSPropertyOp16
 70
     1
102
RTVSPropertyOp17
 70
     1
102
RTVSPropertyOp18
 70
     1
102
RTVSPropertyOp19
 70
     1
102
RTVSPropertyOp20
 70
     1
102
RTVSPropertyOp21
 70
     1
102
RTVSPropertyOp22
 70
     1
102
RTVSPropertyOp23
 70
     1
102
RTVSPropertyOp24
 70
     1
102
RTVSPropertyOp25
 70
     1
102
RTVSPropertyOp26
 70
     1
102
RTVSPropertyOp27
 70
     1
102
RTVSPropertyOp28
 70
     1
102
RTVSPropertyOp29
 70
     1
102
RTVSPropertyOp30
 70
     1
102
RTVSPropertyOp31
 70
     1
102
RTVSPropertyOp32
 70
     1
102
RTVSPropertyOp33
 70
     1
102
RTVSPropertyOp34
 70
     1
102
RTVSPropertyOp35
 70
     1
102
RTVSPropertyOp36
 70
     1
102
RTVSPropertyOp37
 70
     1
102
RTVSPropertyOp38
 70
     1
102
RTVSPropertyOp39
 70
     1
102
RTVSPropertyOp40
 70
     1
102
RTVSPropertyOp41
 70
     1
102
RTVSPropertyOp42
 70
     1
102
RTVSPropertyOp43
 70
     1
102
RTVSPropertyOp44
 70
     1
102
RTVSPropertyOp45
 70
     1
102
RTVSPropertyOp46
 70
     1
102
RTVSPropertyOp47
 70
     1
102
RTVSPropertyOp48
 70
     1
102
RTVSPropertyOp49
 70
     1
102
RTVSPropertyOp50
 70
     1
102
RTVSPropertyOp51
 70
     0
102
RTVSPropertyOp52
 70
     0
102
RTVSPropertyOp53
 70
     1
102
RTVSPropertyOp54
 70
     1
102
RTVSPropertyOp55
 70
     1
102
RTVSPropertyOp56
 70
     1
102
RTVSPropertyOp57
 70
     1
102
RTVSPropertyOp58
 70
     1
102
RTVSPropertyOp59
 70
     1
102
RTVSPropertyOp60
 70
     1
102
RTVSPropertyOp61
 70
     1
102
RTVSPropertyOp62
 70
     1
  0
XRECORD
  5
2D9C
102
{ACAD_REACTORS
330
2D9B
102
}
330
2D9B
100
AcDbXrecord
280
     1
102
RTVSPost2010Prop28
280
     0
102
RTVSPost2010PropOp28
 70
     1
102
RTVSPost2010Prop29
280
     1
102
RTVSPost2010PropOp29
 70
     1
102
RTVSPost2010Prop30
280
     1
102
RTVSPost2010PropOp30
 70
     1
102
RTVSPost2010Prop31
280
     0
102
RTVSPost2010PropOp31
 70
     1
102
RTVSPost2010Prop32
280
     0
102
RTVSPost2010PropOp32
 70
     1
102
RTVSPost2010Prop33
280
     0
102
RTVSPost2010PropOp33
 70
     1
102
RTVSPost2010Prop34
280
     0
102
RTVSPost2010PropOp34
 70
     1
102
RTVSPost2010Prop35
280
     0
102
RTVSPost2010PropOp35
 70
     1
102
RTVSPost2010Prop36
280
     0
102
RTVSPost2010PropOp36
 70
     1
102
RTVSPost2010Prop37
 90
       50
102
RTVSPost2010PropOp37
 70
     1
102
RTVSPost2010Prop38
140
0.0
102
RTVSPost2010PropOp38
 70
     1
102
RTVSPost2010Prop39
140
1.0
102
RTVSPost2010PropOp39
 70
     1
102
RTVSPost2010Prop40
 90
        0
102
RTVSPost2010PropOp40
 70
     1
102
RTVSPost2010Prop41ColorIndex
 90
       18
102
RTVSPost2010Prop41ColorRGB
 90
        0
102
RTVSPost2010PropOp41
 70
     1
102
RTVSPost2010Prop42
 90
       50
102
RTVSPost2010PropOp42
 70
     1
102
RTVSPost2010Prop43
 90
        3
102
RTVSPost2010PropOp43
 70
     1
102
RTVSPost2010Prop44ColorIndex
 90
        5
102
RTVSPost2010Prop44ColorRGB
 90
      255
102
RTVSPost2010PropOp44
 70
     1
102
RTVSPost2010Prop45
280
     0
102
RTVSPost2010PropOp45
 70
     1
102
RTVSPost2010Prop46
 90
       50
102
RTVSPost2010PropOp46
 70
     1
102
RTVSPost2010Prop47
 90
       50
102
RTVSPost2010PropOp47
 70
     1
102
RTVSPost2010Prop48
 90
       50
102
RTVSPost2010PropOp48
 70
     1
102
RTVSPost2010Prop49
280
     0
102
RTVSPost2010PropOp49
 70
     1
102
RTVSPost2010Prop50
 90
       50
102
RTVSPost2010PropOp50
 70
     1
102
RTVSPost2010Prop51ColorIndex
 90
      256
102
RTVSPost2010Prop51ColorRGB
 90
-16777216
102
RTVSPost2010PropOp51
 70
     0
102
RTVSPost2010Prop52
140
1.0
102
RTVSPost2010PropOp52
 70
     0
102
RTVSPost2010Prop53
 90
        2
102
RTVSPost2010PropOp53
 70
     1
102
RTVSPost2010Prop54
  1
strokes_ogs.tif
102
RTVSPost2010PropOp54
 70
     1
102
RTVSPost2010Prop55
280
     0
102
RTVSPost2010PropOp55
 70
     1
102
RTVSPost2010Prop56
140
1.0
102
RTVSPost2010PropOp56
 70
     1
102
RTVSPost2010Prop57
140
1.0
102
RTVSPost2010PropOp57
 70
     1
102
RTVSPropertyOp0
 70
     1
102
RTVSPropertyOp1
 70
     1
102
RTVSPropertyOp2
 70
     1
102
RTVSPropertyOp3
 70
     1
102
RTVSPropertyOp4
 70
     1
102
RTVSPropertyOp5
 70
     1
102
RTVSPropertyOp6
 70
     1
102
RTVSPropertyOp7
 70
     1
102
RTVSPropertyOp8
 70
     1
102
RTVSPropertyOp9
 70
     1
102
RTVSPropertyOp10
 70
     1
102
RTVSPropertyOp11
 70
     1
102
RTVSPropertyOp12
 70
     1
102
RTVSPropertyOp13
 70
     1
102
RTVSPropertyOp14
 70
     1
102
RTVSPropertyOp15
 70
     1
102
RTVSPropertyOp16
 70
     1
102
RTVSPropertyOp17
 70
     1
102
RTVSPropertyOp18
 70
     1
102
RTVSPropertyOp19
 70
     1
102
RTVSPropertyOp20
 70
     1
102
RTVSPropertyOp21
 70
     1
102
RTVSPropertyOp22
 70
     1
102
RTVSPropertyOp23
 70
     1
102
RTVSPropertyOp24
 70
     1
102
RTVSPropertyOp25
 70
     1
102
RTVSPropertyOp26
 70
     1
102
RTVSPropertyOp27
 70
     1
102
RTVSPropertyOp28
 70
     1
102
RTVSPropertyOp29
 70
     1
102
RTVSPropertyOp30
 70
     1
102
RTVSPropertyOp31
 70
     1
102
RTVSPropertyOp32
 70
     1
102
RTVSPropertyOp33
 70
     1
102
RTVSPropertyOp34
 70
     1
102
RTVSPropertyOp35
 70
     1
102
RTVSPropertyOp36
 70
     1
102
RTVSPropertyOp37
 70
     1
102
RTVSPropertyOp38
 70
     1
102
RTVSPropertyOp39
 70
     1
102
RTVSPropertyOp40
 70
     1
102
RTVSPropertyOp41
 70
     1
102
RTVSPropertyOp42
 70
     1
102
RTVSPropertyOp43
 70
     1
102
RTVSPropertyOp44
 70
     1
102
RTVSPropertyOp45
 70
     1
102
RTVSPropertyOp46
 70
     1
102
RTVSPropertyOp47
 70
     1
102
RTVSPropertyOp48
 70
     1
102
RTVSPropertyOp49
 70
     1
102
RTVSPropertyOp50
 70
     1
102
RTVSPropertyOp51
 70
     0
102
RTVSPropertyOp52
 70
     0
102
RTVSPropertyOp53
 70
     1
102
RTVSPropertyOp54
 70
     1
102
RTVSPropertyOp55
 70
     1
102
RTVSPropertyOp56
 70
     1
102
RTVSPropertyOp57
 70
     1
102
RTVSPropertyOp58
 70
     1
102
RTVSPropertyOp59
 70
     1
102
RTVSPropertyOp60
 70
     1
102
RTVSPropertyOp61
 70
     1
102
RTVSPropertyOp62
 70
     1
  0
XRECORD
  5
2DA4
102
{ACAD_REACTORS
330
2DA3
102
}
330
2DA3
100
AcDbXrecord
280
     1
102
RTVSPost2010Prop28
280
     0
102
RTVSPost2010PropOp28
 70
     1
102
RTVSPost2010Prop29
280
     1
102
RTVSPost2010PropOp29
 70
     1
102
RTVSPost2010Prop30
280
     1
102
RTVSPost2010PropOp30
 70
     1
102
RTVSPost2010Prop31
280
     0
102
RTVSPost2010PropOp31
 70
     1
102
RTVSPost2010Prop32
280
     0
102
RTVSPost2010PropOp32
 70
     1
102
RTVSPost2010Prop33
280
     0
102
RTVSPost2010PropOp33
 70
     1
102
RTVSPost2010Prop34
280
     0
102
RTVSPost2010PropOp34
 70
     1
102
RTVSPost2010Prop35
280
     0
102
RTVSPost2010PropOp35
 70
     1
102
RTVSPost2010Prop36
280
     0
102
RTVSPost2010PropOp36
 70
     1
102
RTVSPost2010Prop37
 90
       50
102
RTVSPost2010PropOp37
 70
     1
102
RTVSPost2010Prop38
140
0.0
102
RTVSPost2010PropOp38
 70
     1
102
RTVSPost2010Prop39
140
1.0
102
RTVSPost2010PropOp39
 70
     1
102
RTVSPost2010Prop40
 90
        0
102
RTVSPost2010PropOp40
 70
     1
102
RTVSPost2010Prop41ColorIndex
 90
       18
102
RTVSPost2010Prop41ColorRGB
 90
        0
102
RTVSPost2010PropOp41
 70
     1
102
RTVSPost2010Prop42
 90
       50
102
RTVSPost2010PropOp42
 70
     1
102
RTVSPost2010Prop43
 90
        3
102
RTVSPost2010PropOp43
 70
     1
102
RTVSPost2010Prop44ColorIndex
 90
        5
102
RTVSPost2010Prop44ColorRGB
 90
      255
102
RTVSPost2010PropOp44
 70
     1
102
RTVSPost2010Prop45
280
     0
102
RTVSPost2010PropOp45
 70
     1
102
RTVSPost2010Prop46
 90
       50
102
RTVSPost2010PropOp46
 70
     1
102
RTVSPost2010Prop47
 90
       50
102
RTVSPost2010PropOp47
 70
     1
102
RTVSPost2010Prop48
 90
       50
102
RTVSPost2010PropOp48
 70
     1
102
RTVSPost2010Prop49
280
     0
102
RTVSPost2010PropOp49
 70
     1
102
RTVSPost2010Prop50
 90
       50
102
RTVSPost2010PropOp50
 70
     1
102
RTVSPost2010Prop51ColorIndex
 90
      256
102
RTVSPost2010Prop51ColorRGB
 90
-16777216
102
RTVSPost2010PropOp51
 70
     0
102
RTVSPost2010Prop52
140
1.0
102
RTVSPost2010PropOp52
 70
     0
102
RTVSPost2010Prop53
 90
        2
102
RTVSPost2010PropOp53
 70
     1
102
RTVSPost2010Prop54
  1
strokes_ogs.tif
102
RTVSPost2010PropOp54
 70
     1
102
RTVSPost2010Prop55
280
     0
102
RTVSPost2010PropOp55
 70
     1
102
RTVSPost2010Prop56
140
1.0
102
RTVSPost2010PropOp56
 70
     1
102
RTVSPost2010Prop57
140
1.0
102
RTVSPost2010PropOp57
 70
     1
102
RTVSPropertyOp0
 70
     1
102
RTVSPropertyOp1
 70
     1
102
RTVSPropertyOp2
 70
     1
102
RTVSPropertyOp3
 70
     1
102
RTVSPropertyOp4
 70
     1
102
RTVSPropertyOp5
 70
     1
102
RTVSPropertyOp6
 70
     1
102
RTVSPropertyOp7
 70
     1
102
RTVSPropertyOp8
 70
     1
102
RTVSPropertyOp9
 70
     1
102
RTVSPropertyOp10
 70
     1
102
RTVSPropertyOp11
 70
     1
102
RTVSPropertyOp12
 70
     1
102
RTVSPropertyOp13
 70
     1
102
RTVSPropertyOp14
 70
     1
102
RTVSPropertyOp15
 70
     1
102
RTVSPropertyOp16
 70
     1
102
RTVSPropertyOp17
 70
     1
102
RTVSPropertyOp18
 70
     1
102
RTVSPropertyOp19
 70
     1
102
RTVSPropertyOp20
 70
     1
102
RTVSPropertyOp21
 70
     1
102
RTVSPropertyOp22
 70
     1
102
RTVSPropertyOp23
 70
     1
102
RTVSPropertyOp24
 70
     1
102
RTVSPropertyOp25
 70
     1
102
RTVSPropertyOp26
 70
     1
102
RTVSPropertyOp27
 70
     1
102
RTVSPropertyOp28
 70
     1
102
RTVSPropertyOp29
 70
     1
102
RTVSPropertyOp30
 70
     1
102
RTVSPropertyOp31
 70
     1
102
RTVSPropertyOp32
 70
     1
102
RTVSPropertyOp33
 70
     1
102
RTVSPropertyOp34
 70
     1
102
RTVSPropertyOp35
 70
     1
102
RTVSPropertyOp36
 70
     1
102
RTVSPropertyOp37
 70
     1
102
RTVSPropertyOp38
 70
     1
102
RTVSPropertyOp39
 70
     1
102
RTVSPropertyOp40
 70
     1
102
RTVSPropertyOp41
 70
     1
102
RTVSPropertyOp42
 70
     1
102
RTVSPropertyOp43
 70
     1
102
RTVSPropertyOp44
 70
     1
102
RTVSPropertyOp45
 70
     1
102
RTVSPropertyOp46
 70
     1
102
RTVSPropertyOp47
 70
     1
102
RTVSPropertyOp48
 70
     1
102
RTVSPropertyOp49
 70
     1
102
RTVSPropertyOp50
 70
     1
102
RTVSPropertyOp51
 70
     0
102
RTVSPropertyOp52
 70
     0
102
RTVSPropertyOp53
 70
     1
102
RTVSPropertyOp54
 70
     1
102
RTVSPropertyOp55
 70
     1
102
RTVSPropertyOp56
 70
     1
102
RTVSPropertyOp57
 70
     1
102
RTVSPropertyOp58
 70
     1
102
RTVSPropertyOp59
 70
     1
102
RTVSPropertyOp60
 70
     1
102
RTVSPropertyOp61
 70
     1
102
RTVSPropertyOp62
 70
     1
  0
XRECORD
  5
2D96
102
{ACAD_REACTORS
330
2D95
102
}
330
2D95
100
AcDbXrecord
280
     1
102
RTVSPost2010Prop28
280
     0
102
RTVSPost2010PropOp28
 70
     1
102
RTVSPost2010Prop29
280
     1
102
RTVSPost2010PropOp29
 70
     1
102
RTVSPost2010Prop30
280
     1
102
RTVSPost2010PropOp30
 70
     1
102
RTVSPost2010Prop31
280
     0
102
RTVSPost2010PropOp31
 70
     1
102
RTVSPost2010Prop32
280
     0
102
RTVSPost2010PropOp32
 70
     1
102
RTVSPost2010Prop33
280
     0
102
RTVSPost2010PropOp33
 70
     1
102
RTVSPost2010Prop34
280
     0
102
RTVSPost2010PropOp34
 70
     1
102
RTVSPost2010Prop35
280
     0
102
RTVSPost2010PropOp35
 70
     1
102
RTVSPost2010Prop36
280
     0
102
RTVSPost2010PropOp36
 70
     1
102
RTVSPost2010Prop37
 90
       50
102
RTVSPost2010PropOp37
 70
     1
102
RTVSPost2010Prop38
140
0.0
102
RTVSPost2010PropOp38
 70
     1
102
RTVSPost2010Prop39
140
1.0
102
RTVSPost2010PropOp39
 70
     1
102
RTVSPost2010Prop40
 90
        0
102
RTVSPost2010PropOp40
 70
     1
102
RTVSPost2010Prop41ColorIndex
 90
       18
102
RTVSPost2010Prop41ColorRGB
 90
        0
102
RTVSPost2010PropOp41
 70
     1
102
RTVSPost2010Prop42
 90
       50
102
RTVSPost2010PropOp42
 70
     1
102
RTVSPost2010Prop43
 90
        3
102
RTVSPost2010PropOp43
 70
     1
102
RTVSPost2010Prop44ColorIndex
 90
        5
102
RTVSPost2010Prop44ColorRGB
 90
      255
102
RTVSPost2010PropOp44
 70
     1
102
RTVSPost2010Prop45
280
     0
102
RTVSPost2010PropOp45
 70
     1
102
RTVSPost2010Prop46
 90
       50
102
RTVSPost2010PropOp46
 70
     1
102
RTVSPost2010Prop47
 90
       50
102
RTVSPost2010PropOp47
 70
     1
102
RTVSPost2010Prop48
 90
       50
102
RTVSPost2010PropOp48
 70
     1
102
RTVSPost2010Prop49
280
     0
102
RTVSPost2010PropOp49
 70
     1
102
RTVSPost2010Prop50
 90
       50
102
RTVSPost2010PropOp50
 70
     1
102
RTVSPost2010Prop51ColorIndex
 90
      256
102
RTVSPost2010Prop51ColorRGB
 90
-16777216
102
RTVSPost2010PropOp51
 70
     0
102
RTVSPost2010Prop52
140
1.0
102
RTVSPost2010PropOp52
 70
     0
102
RTVSPost2010Prop53
 90
        2
102
RTVSPost2010PropOp53
 70
     1
102
RTVSPost2010Prop54
  1
strokes_ogs.tif
102
RTVSPost2010PropOp54
 70
     1
102
RTVSPost2010Prop55
280
     0
102
RTVSPost2010PropOp55
 70
     1
102
RTVSPost2010Prop56
140
1.0
102
RTVSPost2010PropOp56
 70
     1
102
RTVSPost2010Prop57
140
1.0
102
RTVSPost2010PropOp57
 70
     1
102
RTVSPropertyOp0
 70
     1
102
RTVSPropertyOp1
 70
     1
102
RTVSPropertyOp2
 70
     1
102
RTVSPropertyOp3
 70
     1
102
RTVSPropertyOp4
 70
     1
102
RTVSPropertyOp5
 70
     1
102
RTVSPropertyOp6
 70
     1
102
RTVSPropertyOp7
 70
     1
102
RTVSPropertyOp8
 70
     1
102
RTVSPropertyOp9
 70
     1
102
RTVSPropertyOp10
 70
     1
102
RTVSPropertyOp11
 70
     1
102
RTVSPropertyOp12
 70
     1
102
RTVSPropertyOp13
 70
     1
102
RTVSPropertyOp14
 70
     1
102
RTVSPropertyOp15
 70
     1
102
RTVSPropertyOp16
 70
     1
102
RTVSPropertyOp17
 70
     1
102
RTVSPropertyOp18
 70
     1
102
RTVSPropertyOp19
 70
     1
102
RTVSPropertyOp20
 70
     1
102
RTVSPropertyOp21
 70
     1
102
RTVSPropertyOp22
 70
     1
102
RTVSPropertyOp23
 70
     1
102
RTVSPropertyOp24
 70
     1
102
RTVSPropertyOp25
 70
     1
102
RTVSPropertyOp26
 70
     1
102
RTVSPropertyOp27
 70
     1
102
RTVSPropertyOp28
 70
     1
102
RTVSPropertyOp29
 70
     1
102
RTVSPropertyOp30
 70
     1
102
RTVSPropertyOp31
 70
     1
102
RTVSPropertyOp32
 70
     1
102
RTVSPropertyOp33
 70
     1
102
RTVSPropertyOp34
 70
     1
102
RTVSPropertyOp35
 70
     1
102
RTVSPropertyOp36
 70
     1
102
RTVSPropertyOp37
 70
     1
102
RTVSPropertyOp38
 70
     1
102
RTVSPropertyOp39
 70
     1
102
RTVSPropertyOp40
 70
     1
102
RTVSPropertyOp41
 70
     1
102
RTVSPropertyOp42
 70
     1
102
RTVSPropertyOp43
 70
     1
102
RTVSPropertyOp44
 70
     1
102
RTVSPropertyOp45
 70
     1
102
RTVSPropertyOp46
 70
     1
102
RTVSPropertyOp47
 70
     1
102
RTVSPropertyOp48
 70
     1
102
RTVSPropertyOp49
 70
     1
102
RTVSPropertyOp50
 70
     1
102
RTVSPropertyOp51
 70
     0
102
RTVSPropertyOp52
 70
     0
102
RTVSPropertyOp53
 70
     1
102
RTVSPropertyOp54
 70
     1
102
RTVSPropertyOp55
 70
     1
102
RTVSPropertyOp56
 70
     1
102
RTVSPropertyOp57
 70
     1
102
RTVSPropertyOp58
 70
     1
102
RTVSPropertyOp59
 70
     1
102
RTVSPropertyOp60
 70
     1
102
RTVSPropertyOp61
 70
     1
102
RTVSPropertyOp62
 70
     1
  0
XRECORD
  5
2D9A
102
{ACAD_REACTORS
330
2D99
102
}
330
2D99
100
AcDbXrecord
280
     1
102
RTVSPost2010Prop28
280
     0
102
RTVSPost2010PropOp28
 70
     1
102
RTVSPost2010Prop29
280
     1
102
RTVSPost2010PropOp29
 70
     1
102
RTVSPost2010Prop30
280
     1
102
RTVSPost2010PropOp30
 70
     1
102
RTVSPost2010Prop31
280
     0
102
RTVSPost2010PropOp31
 70
     1
102
RTVSPost2010Prop32
280
     0
102
RTVSPost2010PropOp32
 70
     1
102
RTVSPost2010Prop33
280
     0
102
RTVSPost2010PropOp33
 70
     1
102
RTVSPost2010Prop34
280
     0
102
RTVSPost2010PropOp34
 70
     1
102
RTVSPost2010Prop35
280
     0
102
RTVSPost2010PropOp35
 70
     1
102
RTVSPost2010Prop36
280
     0
102
RTVSPost2010PropOp36
 70
     1
102
RTVSPost2010Prop37
 90
       50
102
RTVSPost2010PropOp37
 70
     1
102
RTVSPost2010Prop38
140
0.0
102
RTVSPost2010PropOp38
 70
     1
102
RTVSPost2010Prop39
140
1.0
102
RTVSPost2010PropOp39
 70
     1
102
RTVSPost2010Prop40
 90
        0
102
RTVSPost2010PropOp40
 70
     1
102
RTVSPost2010Prop41ColorIndex
 90
       18
102
RTVSPost2010Prop41ColorRGB
 90
        0
102
RTVSPost2010PropOp41
 70
     1
102
RTVSPost2010Prop42
 90
       50
102
RTVSPost2010PropOp42
 70
     1
102
RTVSPost2010Prop43
 90
        3
102
RTVSPost2010PropOp43
 70
     1
102
RTVSPost2010Prop44ColorIndex
 90
        5
102
RTVSPost2010Prop44ColorRGB
 90
      255
102
RTVSPost2010PropOp44
 70
     1
102
RTVSPost2010Prop45
280
     0
102
RTVSPost2010PropOp45
 70
     1
102
RTVSPost2010Prop46
 90
       50
102
RTVSPost2010PropOp46
 70
     1
102
RTVSPost2010Prop47
 90
       50
102
RTVSPost2010PropOp47
 70
     1
102
RTVSPost2010Prop48
 90
       50
102
RTVSPost2010PropOp48
 70
     1
102
RTVSPost2010Prop49
280
     0
102
RTVSPost2010PropOp49
 70
     1
102
RTVSPost2010Prop50
 90
       50
102
RTVSPost2010PropOp50
 70
     1
102
RTVSPost2010Prop51ColorIndex
 90
      256
102
RTVSPost2010Prop51ColorRGB
 90
-16777216
102
RTVSPost2010PropOp51
 70
     0
102
RTVSPost2010Prop52
140
1.0
102
RTVSPost2010PropOp52
 70
     0
102
RTVSPost2010Prop53
 90
        2
102
RTVSPost2010PropOp53
 70
     1
102
RTVSPost2010Prop54
  1
strokes_ogs.tif
102
RTVSPost2010PropOp54
 70
     1
102
RTVSPost2010Prop55
280
     0
102
RTVSPost2010PropOp55
 70
     1
102
RTVSPost2010Prop56
140
1.0
102
RTVSPost2010PropOp56
 70
     1
102
RTVSPost2010Prop57
140
1.0
102
RTVSPost2010PropOp57
 70
     1
102
RTVSPropertyOp0
 70
     1
102
RTVSPropertyOp1
 70
     1
102
RTVSPropertyOp2
 70
     1
102
RTVSPropertyOp3
 70
     1
102
RTVSPropertyOp4
 70
     1
102
RTVSPropertyOp5
 70
     1
102
RTVSPropertyOp6
 70
     1
102
RTVSPropertyOp7
 70
     1
102
RTVSPropertyOp8
 70
     1
102
RTVSPropertyOp9
 70
     1
102
RTVSPropertyOp10
 70
     1
102
RTVSPropertyOp11
 70
     1
102
RTVSPropertyOp12
 70
     1
102
RTVSPropertyOp13
 70
     1
102
RTVSPropertyOp14
 70
     1
102
RTVSPropertyOp15
 70
     1
102
RTVSPropertyOp16
 70
     1
102
RTVSPropertyOp17
 70
     1
102
RTVSPropertyOp18
 70
     1
102
RTVSPropertyOp19
 70
     1
102
RTVSPropertyOp20
 70
     1
102
RTVSPropertyOp21
 70
     1
102
RTVSPropertyOp22
 70
     1
102
RTVSPropertyOp23
 70
     1
102
RTVSPropertyOp24
 70
     1
102
RTVSPropertyOp25
 70
     1
102
RTVSPropertyOp26
 70
     1
102
RTVSPropertyOp27
 70
     1
102
RTVSPropertyOp28
 70
     1
102
RTVSPropertyOp29
 70
     1
102
RTVSPropertyOp30
 70
     1
102
RTVSPropertyOp31
 70
     1
102
RTVSPropertyOp32
 70
     1
102
RTVSPropertyOp33
 70
     1
102
RTVSPropertyOp34
 70
     1
102
RTVSPropertyOp35
 70
     1
102
RTVSPropertyOp36
 70
     1
102
RTVSPropertyOp37
 70
     1
102
RTVSPropertyOp38
 70
     1
102
RTVSPropertyOp39
 70
     1
102
RTVSPropertyOp40
 70
     1
102
RTVSPropertyOp41
 70
     1
102
RTVSPropertyOp42
 70
     1
102
RTVSPropertyOp43
 70
     1
102
RTVSPropertyOp44
 70
     1
102
RTVSPropertyOp45
 70
     1
102
RTVSPropertyOp46
 70
     1
102
RTVSPropertyOp47
 70
     1
102
RTVSPropertyOp48
 70
     1
102
RTVSPropertyOp49
 70
     1
102
RTVSPropertyOp50
 70
     1
102
RTVSPropertyOp51
 70
     0
102
RTVSPropertyOp52
 70
     0
102
RTVSPropertyOp53
 70
     1
102
RTVSPropertyOp54
 70
     1
102
RTVSPropertyOp55
 70
     1
102
RTVSPropertyOp56
 70
     1
102
RTVSPropertyOp57
 70
     1
102
RTVSPropertyOp58
 70
     1
102
RTVSPropertyOp59
 70
     1
102
RTVSPropertyOp60
 70
     1
102
RTVSPropertyOp61
 70
     1
102
RTVSPropertyOp62
 70
     1
  0
XRECORD
  5
2DB4
102
{ACAD_REACTORS
330
2DB3
102
}
330
2DB3
100
AcDbXrecord
280
     1
102
RTVSPost2010Prop28
280
     0
102
RTVSPost2010PropOp28
 70
     1
102
RTVSPost2010Prop29
280
     1
102
RTVSPost2010PropOp29
 70
     1
102
RTVSPost2010Prop30
280
     1
102
RTVSPost2010PropOp30
 70
     1
102
RTVSPost2010Prop31
280
     0
102
RTVSPost2010PropOp31
 70
     1
102
RTVSPost2010Prop32
280
     0
102
RTVSPost2010PropOp32
 70
     1
102
RTVSPost2010Prop33
280
     0
102
RTVSPost2010PropOp33
 70
     1
102
RTVSPost2010Prop34
280
     0
102
RTVSPost2010PropOp34
 70
     1
102
RTVSPost2010Prop35
280
     0
102
RTVSPost2010PropOp35
 70
     1
102
RTVSPost2010Prop36
280
     0
102
RTVSPost2010PropOp36
 70
     1
102
RTVSPost2010Prop37
 90
       50
102
RTVSPost2010PropOp37
 70
     0
102
RTVSPost2010Prop38
140
0.0
102
RTVSPost2010PropOp38
 70
     0
102
RTVSPost2010Prop39
140
1.0
102
RTVSPost2010PropOp39
 70
     0
102
RTVSPost2010Prop40
 90
        0
102
RTVSPost2010PropOp40
 70
     0
102
RTVSPost2010Prop41ColorIndex
 90
       18
102
RTVSPost2010Prop41ColorRGB
 90
        0
102
RTVSPost2010PropOp41
 70
     0
102
RTVSPost2010Prop42
 90
       50
102
RTVSPost2010PropOp42
 70
     0
102
RTVSPost2010Prop43
 90
        3
102
RTVSPost2010PropOp43
 70
     0
102
RTVSPost2010Prop44ColorIndex
 90
        5
102
RTVSPost2010Prop44ColorRGB
 90
      255
102
RTVSPost2010PropOp44
 70
     0
102
RTVSPost2010Prop45
280
     0
102
RTVSPost2010PropOp45
 70
     1
102
RTVSPost2010Prop46
 90
       50
102
RTVSPost2010PropOp46
 70
     0
102
RTVSPost2010Prop47
 90
       50
102
RTVSPost2010PropOp47
 70
     0
102
RTVSPost2010Prop48
 90
       50
102
RTVSPost2010PropOp48
 70
     0
102
RTVSPost2010Prop49
280
     0
102
RTVSPost2010PropOp49
 70
     1
102
RTVSPost2010Prop50
 90
       50
102
RTVSPost2010PropOp50
 70
     0
102
RTVSPost2010Prop51ColorIndex
 90
      256
102
RTVSPost2010Prop51ColorRGB
 90
-16777216
102
RTVSPost2010PropOp51
 70
     0
102
RTVSPost2010Prop52
140
1.0
102
RTVSPost2010PropOp52
 70
     0
102
RTVSPost2010Prop53
 90
        2
102
RTVSPost2010PropOp53
 70
     0
102
RTVSPost2010Prop54
  1
strokes_ogs.tif
102
RTVSPost2010PropOp54
 70
     0
102
RTVSPost2010Prop55
280
     0
102
RTVSPost2010PropOp55
 70
     1
102
RTVSPost2010Prop56
140
1.0
102
RTVSPost2010PropOp56
 70
     0
102
RTVSPost2010Prop57
140
1.0
102
RTVSPost2010PropOp57
 70
     0
102
RTVSPropertyOp0
 70
     0
102
RTVSPropertyOp1
 70
     0
102
RTVSPropertyOp2
 70
     0
102
RTVSPropertyOp3
 70
     0
102
RTVSPropertyOp4
 70
     0
102
RTVSPropertyOp5
 70
     0
102
RTVSPropertyOp6
 70
     0
102
RTVSPropertyOp7
 70
     0
102
RTVSPropertyOp8
 70
     0
102
RTVSPropertyOp9
 70
     0
102
RTVSPropertyOp10
 70
     0
102
RTVSPropertyOp11
 70
     0
102
RTVSPropertyOp12
 70
     0
102
RTVSPropertyOp13
 70
     0
102
RTVSPropertyOp14
 70
     2
102
RTVSPropertyOp15
 70
     0
102
RTVSPropertyOp16
 70
     0
102
RTVSPropertyOp17
 70
     0
102
RTVSPropertyOp18
 70
     0
102
RTVSPropertyOp19
 70
     0
102
RTVSPropertyOp20
 70
     0
102
RTVSPropertyOp21
 70
     0
102
RTVSPropertyOp22
 70
     0
102
RTVSPropertyOp23
 70
     0
102
RTVSPropertyOp24
 70
     0
102
RTVSPropertyOp25
 70
     0
102
RTVSPropertyOp26
 70
     0
102
RTVSPropertyOp27
 70
     0
102
RTVSPropertyOp28
 70
     1
102
RTVSPropertyOp29
 70
     1
102
RTVSPropertyOp30
 70
     1
102
RTVSPropertyOp31
 70
     1
102
RTVSPropertyOp32
 70
     1
102
RTVSPropertyOp33
 70
     1
102
RTVSPropertyOp34
 70
     1
102
RTVSPropertyOp35
 70
     1
102
RTVSPropertyOp36
 70
     1
102
RTVSPropertyOp37
 70
     0
102
RTVSPropertyOp38
 70
     0
102
RTVSPropertyOp39
 70
     0
102
RTVSPropertyOp40
 70
     0
102
RTVSPropertyOp41
 70
     0
102
RTVSPropertyOp42
 70
     0
102
RTVSPropertyOp43
 70
     0
102
RTVSPropertyOp44
 70
     0
102
RTVSPropertyOp45
 70
     1
102
RTVSPropertyOp46
 70
     0
102
RTVSPropertyOp47
 70
     0
102
RTVSPropertyOp48
 70
     0
102
RTVSPropertyOp49
 70
     1
102
RTVSPropertyOp50
 70
     0
102
RTVSPropertyOp51
 70
     0
102
RTVSPropertyOp52
 70
     0
102
RTVSPropertyOp53
 70
     0
102
RTVSPropertyOp54
 70
     0
102
RTVSPropertyOp55
 70
     1
102
RTVSPropertyOp56
 70
     0
102
RTVSPropertyOp57
 70
     0
102
RTVSPropertyOp58
 70
     0
102
RTVSPropertyOp59
 70
     0
102
RTVSPropertyOp60
 70
     0
102
RTVSPropertyOp61
 70
     0
102
RTVSPropertyOp62
 70
     0
  0
XRECORD
  5
2DA2
102
{ACAD_REACTORS
330
2DA1
102
}
330
2DA1
100
AcDbXrecord
280
     1
102
RTVSPost2010Prop28
280
     0
102
RTVSPost2010PropOp28
 70
     1
102
RTVSPost2010Prop29
280
     1
102
RTVSPost2010PropOp29
 70
     1
102
RTVSPost2010Prop30
280
     1
102
RTVSPost2010PropOp30
 70
     1
102
RTVSPost2010Prop31
280
     0
102
RTVSPost2010PropOp31
 70
     1
102
RTVSPost2010Prop32
280
     0
102
RTVSPost2010PropOp32
 70
     1
102
RTVSPost2010Prop33
280
     0
102
RTVSPost2010PropOp33
 70
     1
102
RTVSPost2010Prop34
280
     0
102
RTVSPost2010PropOp34
 70
     1
102
RTVSPost2010Prop35
280
     0
102
RTVSPost2010PropOp35
 70
     1
102
RTVSPost2010Prop36
280
     0
102
RTVSPost2010PropOp36
 70
     1
102
RTVSPost2010Prop37
 90
       50
102
RTVSPost2010PropOp37
 70
     1
102
RTVSPost2010Prop38
140
0.0
102
RTVSPost2010PropOp38
 70
     1
102
RTVSPost2010Prop39
140
1.0
102
RTVSPost2010PropOp39
 70
     1
102
RTVSPost2010Prop40
 90
        0
102
RTVSPost2010PropOp40
 70
     1
102
RTVSPost2010Prop41ColorIndex
 90
       18
102
RTVSPost2010Prop41ColorRGB
 90
        0
102
RTVSPost2010PropOp41
 70
     1
102
RTVSPost2010Prop42
 90
       50
102
RTVSPost2010PropOp42
 70
     1
102
RTVSPost2010Prop43
 90
        3
102
RTVSPost2010PropOp43
 70
     1
102
RTVSPost2010Prop44ColorIndex
 90
        5
102
RTVSPost2010Prop44ColorRGB
 90
      255
102
RTVSPost2010PropOp44
 70
     1
102
RTVSPost2010Prop45
280
     0
102
RTVSPost2010PropOp45
 70
     1
102
RTVSPost2010Prop46
 90
       50
102
RTVSPost2010PropOp46
 70
     1
102
RTVSPost2010Prop47
 90
       50
102
RTVSPost2010PropOp47
 70
     1
102
RTVSPost2010Prop48
 90
       50
102
RTVSPost2010PropOp48
 70
     1
102
RTVSPost2010Prop49
280
     0
102
RTVSPost2010PropOp49
 70
     1
102
RTVSPost2010Prop50
 90
       50
102
RTVSPost2010PropOp50
 70
     1
102
RTVSPost2010Prop51ColorIndex
 90
      256
102
RTVSPost2010Prop51ColorRGB
 90
-16777216
102
RTVSPost2010PropOp51
 70
     0
102
RTVSPost2010Prop52
140
1.0
102
RTVSPost2010PropOp52
 70
     0
102
RTVSPost2010Prop53
 90
        2
102
RTVSPost2010PropOp53
 70
     1
102
RTVSPost2010Prop54
  1
strokes_ogs.tif
102
RTVSPost2010PropOp54
 70
     1
102
RTVSPost2010Prop55
280
     0
102
RTVSPost2010PropOp55
 70
     1
102
RTVSPost2010Prop56
140
1.0
102
RTVSPost2010PropOp56
 70
     1
102
RTVSPost2010Prop57
140
1.0
102
RTVSPost2010PropOp57
 70
     1
102
RTVSPropertyOp0
 70
     1
102
RTVSPropertyOp1
 70
     1
102
RTVSPropertyOp2
 70
     1
102
RTVSPropertyOp3
 70
     1
102
RTVSPropertyOp4
 70
     1
102
RTVSPropertyOp5
 70
     1
102
RTVSPropertyOp6
 70
     1
102
RTVSPropertyOp7
 70
     1
102
RTVSPropertyOp8
 70
     1
102
RTVSPropertyOp9
 70
     1
102
RTVSPropertyOp10
 70
     1
102
RTVSPropertyOp11
 70
     1
102
RTVSPropertyOp12
 70
     1
102
RTVSPropertyOp13
 70
     1
102
RTVSPropertyOp14
 70
     1
102
RTVSPropertyOp15
 70
     1
102
RTVSPropertyOp16
 70
     1
102
RTVSPropertyOp17
 70
     1
102
RTVSPropertyOp18
 70
     1
102
RTVSPropertyOp19
 70
     1
102
RTVSPropertyOp20
 70
     1
102
RTVSPropertyOp21
 70
     1
102
RTVSPropertyOp22
 70
     1
102
RTVSPropertyOp23
 70
     1
102
RTVSPropertyOp24
 70
     1
102
RTVSPropertyOp25
 70
     1
102
RTVSPropertyOp26
 70
     1
102
RTVSPropertyOp27
 70
     1
102
RTVSPropertyOp28
 70
     1
102
RTVSPropertyOp29
 70
     1
102
RTVSPropertyOp30
 70
     1
102
RTVSPropertyOp31
 70
     1
102
RTVSPropertyOp32
 70
     1
102
RTVSPropertyOp33
 70
     1
102
RTVSPropertyOp34
 70
     1
102
RTVSPropertyOp35
 70
     1
102
RTVSPropertyOp36
 70
     1
102
RTVSPropertyOp37
 70
     1
102
RTVSPropertyOp38
 70
     1
102
RTVSPropertyOp39
 70
     1
102
RTVSPropertyOp40
 70
     1
102
RTVSPropertyOp41
 70
     1
102
RTVSPropertyOp42
 70
     1
102
RTVSPropertyOp43
 70
     1
102
RTVSPropertyOp44
 70
     1
102
RTVSPropertyOp45
 70
     1
102
RTVSPropertyOp46
 70
     1
102
RTVSPropertyOp47
 70
     1
102
RTVSPropertyOp48
 70
     1
102
RTVSPropertyOp49
 70
     1
102
RTVSPropertyOp50
 70
     1
102
RTVSPropertyOp51
 70
     0
102
RTVSPropertyOp52
 70
     0
102
RTVSPropertyOp53
 70
     1
102
RTVSPropertyOp54
 70
     1
102
RTVSPropertyOp55
 70
     1
102
RTVSPropertyOp56
 70
     1
102
RTVSPropertyOp57
 70
     1
102
RTVSPropertyOp58
 70
     1
102
RTVSPropertyOp59
 70
     1
102
RTVSPropertyOp60
 70
     1
102
RTVSPropertyOp61
 70
     1
102
RTVSPropertyOp62
 70
     1
  0
XRECORD
  5
2D86
102
{ACAD_REACTORS
330
2D85
102
}
330
2D85
100
AcDbXrecord
280
     1
102
RTVSPost2010Prop28
280
     0
102
RTVSPost2010PropOp28
 70
     1
102
RTVSPost2010Prop29
280
     1
102
RTVSPost2010PropOp29
 70
     1
102
RTVSPost2010Prop30
280
     1
102
RTVSPost2010PropOp30
 70
     1
102
RTVSPost2010Prop31
280
     0
102
RTVSPost2010PropOp31
 70
     1
102
RTVSPost2010Prop32
280
     0
102
RTVSPost2010PropOp32
 70
     1
102
RTVSPost2010Prop33
280
     0
102
RTVSPost2010PropOp33
 70
     1
102
RTVSPost2010Prop34
280
     0
102
RTVSPost2010PropOp34
 70
     1
102
RTVSPost2010Prop35
280
     0
102
RTVSPost2010PropOp35
 70
     1
102
RTVSPost2010Prop36
280
     0
102
RTVSPost2010PropOp36
 70
     1
102
RTVSPost2010Prop37
 90
       50
102
RTVSPost2010PropOp37
 70
     1
102
RTVSPost2010Prop38
140
0.0
102
RTVSPost2010PropOp38
 70
     1
102
RTVSPost2010Prop39
140
1.0
102
RTVSPost2010PropOp39
 70
     1
102
RTVSPost2010Prop40
 90
        0
102
RTVSPost2010PropOp40
 70
     1
102
RTVSPost2010Prop41ColorIndex
 90
       18
102
RTVSPost2010Prop41ColorRGB
 90
        0
102
RTVSPost2010PropOp41
 70
     1
102
RTVSPost2010Prop42
 90
       50
102
RTVSPost2010PropOp42
 70
     1
102
RTVSPost2010Prop43
 90
        3
102
RTVSPost2010PropOp43
 70
     1
102
RTVSPost2010Prop44ColorIndex
 90
        5
102
RTVSPost2010Prop44ColorRGB
 90
      255
102
RTVSPost2010PropOp44
 70
     1
102
RTVSPost2010Prop45
280
     0
102
RTVSPost2010PropOp45
 70
     1
102
RTVSPost2010Prop46
 90
       50
102
RTVSPost2010PropOp46
 70
     1
102
RTVSPost2010Prop47
 90
       50
102
RTVSPost2010PropOp47
 70
     1
102
RTVSPost2010Prop48
 90
       50
102
RTVSPost2010PropOp48
 70
     1
102
RTVSPost2010Prop49
280
     0
102
RTVSPost2010PropOp49
 70
     1
102
RTVSPost2010Prop50
 90
       50
102
RTVSPost2010PropOp50
 70
     1
102
RTVSPost2010Prop51ColorIndex
 90
      256
102
RTVSPost2010Prop51ColorRGB
 90
-16777216
102
RTVSPost2010PropOp51
 70
     0
102
RTVSPost2010Prop52
140
1.0
102
RTVSPost2010PropOp52
 70
     0
102
RTVSPost2010Prop53
 90
        2
102
RTVSPost2010PropOp53
 70
     1
102
RTVSPost2010Prop54
  1
strokes_ogs.tif
102
RTVSPost2010PropOp54
 70
     1
102
RTVSPost2010Prop55
280
     0
102
RTVSPost2010PropOp55
 70
     1
102
RTVSPost2010Prop56
140
1.0
102
RTVSPost2010PropOp56
 70
     1
102
RTVSPost2010Prop57
140
1.0
102
RTVSPost2010PropOp57
 70
     1
102
RTVSPropertyOp0
 70
     1
102
RTVSPropertyOp1
 70
     1
102
RTVSPropertyOp2
 70
     1
102
RTVSPropertyOp3
 70
     1
102
RTVSPropertyOp4
 70
     1
102
RTVSPropertyOp5
 70
     1
102
RTVSPropertyOp6
 70
     1
102
RTVSPropertyOp7
 70
     1
102
RTVSPropertyOp8
 70
     1
102
RTVSPropertyOp9
 70
     1
102
RTVSPropertyOp10
 70
     1
102
RTVSPropertyOp11
 70
     1
102
RTVSPropertyOp12
 70
     1
102
RTVSPropertyOp13
 70
     1
102
RTVSPropertyOp14
 70
     1
102
RTVSPropertyOp15
 70
     1
102
RTVSPropertyOp16
 70
     1
102
RTVSPropertyOp17
 70
     1
102
RTVSPropertyOp18
 70
     1
102
RTVSPropertyOp19
 70
     1
102
RTVSPropertyOp20
 70
     1
102
RTVSPropertyOp21
 70
     1
102
RTVSPropertyOp22
 70
     1
102
RTVSPropertyOp23
 70
     1
102
RTVSPropertyOp24
 70
     1
102
RTVSPropertyOp25
 70
     1
102
RTVSPropertyOp26
 70
     1
102
RTVSPropertyOp27
 70
     1
102
RTVSPropertyOp28
 70
     1
102
RTVSPropertyOp29
 70
     1
102
RTVSPropertyOp30
 70
     1
102
RTVSPropertyOp31
 70
     1
102
RTVSPropertyOp32
 70
     1
102
RTVSPropertyOp33
 70
     1
102
RTVSPropertyOp34
 70
     1
102
RTVSPropertyOp35
 70
     1
102
RTVSPropertyOp36
 70
     1
102
RTVSPropertyOp37
 70
     1
102
RTVSPropertyOp38
 70
     1
102
RTVSPropertyOp39
 70
     1
102
RTVSPropertyOp40
 70
     1
102
RTVSPropertyOp41
 70
     1
102
RTVSPropertyOp42
 70
     1
102
RTVSPropertyOp43
 70
     1
102
RTVSPropertyOp44
 70
     1
102
RTVSPropertyOp45
 70
     1
102
RTVSPropertyOp46
 70
     1
102
RTVSPropertyOp47
 70
     1
102
RTVSPropertyOp48
 70
     1
102
RTVSPropertyOp49
 70
     1
102
RTVSPropertyOp50
 70
     1
102
RTVSPropertyOp51
 70
     0
102
RTVSPropertyOp52
 70
     0
102
RTVSPropertyOp53
 70
     1
102
RTVSPropertyOp54
 70
     1
102
RTVSPropertyOp55
 70
     1
102
RTVSPropertyOp56
 70
     1
102
RTVSPropertyOp57
 70
     1
102
RTVSPropertyOp58
 70
     1
102
RTVSPropertyOp59
 70
     1
102
RTVSPropertyOp60
 70
     1
102
RTVSPropertyOp61
 70
     1
102
RTVSPropertyOp62
 70
     1
  0
XRECORD
  5
2D88
102
{ACAD_REACTORS
330
2D87
102
}
330
2D87
100
AcDbXrecord
280
     1
102
RTVSPost2010Prop28
280
     0
102
RTVSPost2010PropOp28
 70
     1
102
RTVSPost2010Prop29
280
     1
102
RTVSPost2010PropOp29
 70
     1
102
RTVSPost2010Prop30
280
     1
102
RTVSPost2010PropOp30
 70
     1
102
RTVSPost2010Prop31
280
     0
102
RTVSPost2010PropOp31
 70
     1
102
RTVSPost2010Prop32
280
     0
102
RTVSPost2010PropOp32
 70
     1
102
RTVSPost2010Prop33
280
     0
102
RTVSPost2010PropOp33
 70
     1
102
RTVSPost2010Prop34
280
     0
102
RTVSPost2010PropOp34
 70
     1
102
RTVSPost2010Prop35
280
     0
102
RTVSPost2010PropOp35
 70
     1
102
RTVSPost2010Prop36
280
     0
102
RTVSPost2010PropOp36
 70
     1
102
RTVSPost2010Prop37
 90
       50
102
RTVSPost2010PropOp37
 70
     1
102
RTVSPost2010Prop38
140
0.0
102
RTVSPost2010PropOp38
 70
     1
102
RTVSPost2010Prop39
140
1.0
102
RTVSPost2010PropOp39
 70
     1
102
RTVSPost2010Prop40
 90
        0
102
RTVSPost2010PropOp40
 70
     1
102
RTVSPost2010Prop41ColorIndex
 90
       18
102
RTVSPost2010Prop41ColorRGB
 90
        0
102
RTVSPost2010PropOp41
 70
     1
102
RTVSPost2010Prop42
 90
       50
102
RTVSPost2010PropOp42
 70
     1
102
RTVSPost2010Prop43
 90
        3
102
RTVSPost2010PropOp43
 70
     1
102
RTVSPost2010Prop44ColorIndex
 90
        5
102
RTVSPost2010Prop44ColorRGB
 90
      255
102
RTVSPost2010PropOp44
 70
     1
102
RTVSPost2010Prop45
280
     0
102
RTVSPost2010PropOp45
 70
     1
102
RTVSPost2010Prop46
 90
       50
102
RTVSPost2010PropOp46
 70
     1
102
RTVSPost2010Prop47
 90
       50
102
RTVSPost2010PropOp47
 70
     1
102
RTVSPost2010Prop48
 90
       50
102
RTVSPost2010PropOp48
 70
     1
102
RTVSPost2010Prop49
280
     0
102
RTVSPost2010PropOp49
 70
     1
102
RTVSPost2010Prop50
 90
       50
102
RTVSPost2010PropOp50
 70
     1
102
RTVSPost2010Prop51ColorIndex
 90
      256
102
RTVSPost2010Prop51ColorRGB
 90
-16777216
102
RTVSPost2010PropOp51
 70
     0
102
RTVSPost2010Prop52
140
1.0
102
RTVSPost2010PropOp52
 70
     0
102
RTVSPost2010Prop53
 90
        2
102
RTVSPost2010PropOp53
 70
     1
102
RTVSPost2010Prop54
  1
strokes_ogs.tif
102
RTVSPost2010PropOp54
 70
     1
102
RTVSPost2010Prop55
280
     0
102
RTVSPost2010PropOp55
 70
     1
102
RTVSPost2010Prop56
140
1.0
102
RTVSPost2010PropOp56
 70
     1
102
RTVSPost2010Prop57
140
1.0
102
RTVSPost2010PropOp57
 70
     1
102
RTVSPropertyOp0
 70
     1
102
RTVSPropertyOp1
 70
     1
102
RTVSPropertyOp2
 70
     1
102
RTVSPropertyOp3
 70
     1
102
RTVSPropertyOp4
 70
     1
102
RTVSPropertyOp5
 70
     1
102
RTVSPropertyOp6
 70
     1
102
RTVSPropertyOp7
 70
     1
102
RTVSPropertyOp8
 70
     1
102
RTVSPropertyOp9
 70
     1
102
RTVSPropertyOp10
 70
     1
102
RTVSPropertyOp11
 70
     1
102
RTVSPropertyOp12
 70
     1
102
RTVSPropertyOp13
 70
     1
102
RTVSPropertyOp14
 70
     1
102
RTVSPropertyOp15
 70
     1
102
RTVSPropertyOp16
 70
     1
102
RTVSPropertyOp17
 70
     1
102
RTVSPropertyOp18
 70
     1
102
RTVSPropertyOp19
 70
     1
102
RTVSPropertyOp20
 70
     1
102
RTVSPropertyOp21
 70
     1
102
RTVSPropertyOp22
 70
     1
102
RTVSPropertyOp23
 70
     1
102
RTVSPropertyOp24
 70
     1
102
RTVSPropertyOp25
 70
     1
102
RTVSPropertyOp26
 70
     1
102
RTVSPropertyOp27
 70
     1
102
RTVSPropertyOp28
 70
     1
102
RTVSPropertyOp29
 70
     1
102
RTVSPropertyOp30
 70
     1
102
RTVSPropertyOp31
 70
     1
102
RTVSPropertyOp32
 70
     1
102
RTVSPropertyOp33
 70
     1
102
RTVSPropertyOp34
 70
     1
102
RTVSPropertyOp35
 70
     1
102
RTVSPropertyOp36
 70
     1
102
RTVSPropertyOp37
 70
     1
102
RTVSPropertyOp38
 70
     1
102
RTVSPropertyOp39
 70
     1
102
RTVSPropertyOp40
 70
     1
102
RTVSPropertyOp41
 70
     1
102
RTVSPropertyOp42
 70
     1
102
RTVSPropertyOp43
 70
     1
102
RTVSPropertyOp44
 70
     1
102
RTVSPropertyOp45
 70
     1
102
RTVSPropertyOp46
 70
     1
102
RTVSPropertyOp47
 70
     1
102
RTVSPropertyOp48
 70
     1
102
RTVSPropertyOp49
 70
     1
102
RTVSPropertyOp50
 70
     1
102
RTVSPropertyOp51
 70
     0
102
RTVSPropertyOp52
 70
     0
102
RTVSPropertyOp53
 70
     1
102
RTVSPropertyOp54
 70
     1
102
RTVSPropertyOp55
 70
     1
102
RTVSPropertyOp56
 70
     1
102
RTVSPropertyOp57
 70
     1
102
RTVSPropertyOp58
 70
     1
102
RTVSPropertyOp59
 70
     1
102
RTVSPropertyOp60
 70
     1
102
RTVSPropertyOp61
 70
     1
102
RTVSPropertyOp62
 70
     1
  0
XRECORD
  5
2D8A
102
{ACAD_REACTORS
330
2D89
102
}
330
2D89
100
AcDbXrecord
280
     1
102
RTVSPost2010Prop28
280
     0
102
RTVSPost2010PropOp28
 70
     1
102
RTVSPost2010Prop29
280
     1
102
RTVSPost2010PropOp29
 70
     1
102
RTVSPost2010Prop30
280
     1
102
RTVSPost2010PropOp30
 70
     1
102
RTVSPost2010Prop31
280
     0
102
RTVSPost2010PropOp31
 70
     1
102
RTVSPost2010Prop32
280
     0
102
RTVSPost2010PropOp32
 70
     1
102
RTVSPost2010Prop33
280
     0
102
RTVSPost2010PropOp33
 70
     1
102
RTVSPost2010Prop34
280
     0
102
RTVSPost2010PropOp34
 70
     1
102
RTVSPost2010Prop35
280
     0
102
RTVSPost2010PropOp35
 70
     1
102
RTVSPost2010Prop36
280
     0
102
RTVSPost2010PropOp36
 70
     1
102
RTVSPost2010Prop37
 90
       50
102
RTVSPost2010PropOp37
 70
     1
102
RTVSPost2010Prop38
140
0.0
102
RTVSPost2010PropOp38
 70
     1
102
RTVSPost2010Prop39
140
1.0
102
RTVSPost2010PropOp39
 70
     1
102
RTVSPost2010Prop40
 90
        0
102
RTVSPost2010PropOp40
 70
     1
102
RTVSPost2010Prop41ColorIndex
 90
       18
102
RTVSPost2010Prop41ColorRGB
 90
        0
102
RTVSPost2010PropOp41
 70
     1
102
RTVSPost2010Prop42
 90
       50
102
RTVSPost2010PropOp42
 70
     1
102
RTVSPost2010Prop43
 90
        3
102
RTVSPost2010PropOp43
 70
     1
102
RTVSPost2010Prop44ColorIndex
 90
        5
102
RTVSPost2010Prop44ColorRGB
 90
      255
102
RTVSPost2010PropOp44
 70
     1
102
RTVSPost2010Prop45
280
     0
102
RTVSPost2010PropOp45
 70
     1
102
RTVSPost2010Prop46
 90
       50
102
RTVSPost2010PropOp46
 70
     1
102
RTVSPost2010Prop47
 90
       50
102
RTVSPost2010PropOp47
 70
     1
102
RTVSPost2010Prop48
 90
       50
102
RTVSPost2010PropOp48
 70
     1
102
RTVSPost2010Prop49
280
     0
102
RTVSPost2010PropOp49
 70
     1
102
RTVSPost2010Prop50
 90
       50
102
RTVSPost2010PropOp50
 70
     1
102
RTVSPost2010Prop51ColorIndex
 90
      256
102
RTVSPost2010Prop51ColorRGB
 90
-16777216
102
RTVSPost2010PropOp51
 70
     0
102
RTVSPost2010Prop52
140
1.0
102
RTVSPost2010PropOp52
 70
     0
102
RTVSPost2010Prop53
 90
        2
102
RTVSPost2010PropOp53
 70
     1
102
RTVSPost2010Prop54
  1
strokes_ogs.tif
102
RTVSPost2010PropOp54
 70
     1
102
RTVSPost2010Prop55
280
     0
102
RTVSPost2010PropOp55
 70
     1
102
RTVSPost2010Prop56
140
1.0
102
RTVSPost2010PropOp56
 70
     1
102
RTVSPost2010Prop57
140
1.0
102
RTVSPost2010PropOp57
 70
     1
102
RTVSPropertyOp0
 70
     1
102
RTVSPropertyOp1
 70
     1
102
RTVSPropertyOp2
 70
     1
102
RTVSPropertyOp3
 70
     1
102
RTVSPropertyOp4
 70
     1
102
RTVSPropertyOp5
 70
     1
102
RTVSPropertyOp6
 70
     1
102
RTVSPropertyOp7
 70
     1
102
RTVSPropertyOp8
 70
     1
102
RTVSPropertyOp9
 70
     1
102
RTVSPropertyOp10
 70
     1
102
RTVSPropertyOp11
 70
     1
102
RTVSPropertyOp12
 70
     1
102
RTVSPropertyOp13
 70
     1
102
RTVSPropertyOp14
 70
     1
102
RTVSPropertyOp15
 70
     1
102
RTVSPropertyOp16
 70
     1
102
RTVSPropertyOp17
 70
     1
102
RTVSPropertyOp18
 70
     1
102
RTVSPropertyOp19
 70
     1
102
RTVSPropertyOp20
 70
     1
102
RTVSPropertyOp21
 70
     1
102
RTVSPropertyOp22
 70
     1
102
RTVSPropertyOp23
 70
     1
102
RTVSPropertyOp24
 70
     1
102
RTVSPropertyOp25
 70
     1
102
RTVSPropertyOp26
 70
     1
102
RTVSPropertyOp27
 70
     1
102
RTVSPropertyOp28
 70
     1
102
RTVSPropertyOp29
 70
     1
102
RTVSPropertyOp30
 70
     1
102
RTVSPropertyOp31
 70
     1
102
RTVSPropertyOp32
 70
     1
102
RTVSPropertyOp33
 70
     1
102
RTVSPropertyOp34
 70
     1
102
RTVSPropertyOp35
 70
     1
102
RTVSPropertyOp36
 70
     1
102
RTVSPropertyOp37
 70
     1
102
RTVSPropertyOp38
 70
     1
102
RTVSPropertyOp39
 70
     1
102
RTVSPropertyOp40
 70
     1
102
RTVSPropertyOp41
 70
     1
102
RTVSPropertyOp42
 70
     1
102
RTVSPropertyOp43
 70
     1
102
RTVSPropertyOp44
 70
     1
102
RTVSPropertyOp45
 70
     1
102
RTVSPropertyOp46
 70
     1
102
RTVSPropertyOp47
 70
     1
102
RTVSPropertyOp48
 70
     1
102
RTVSPropertyOp49
 70
     1
102
RTVSPropertyOp50
 70
     1
102
RTVSPropertyOp51
 70
     0
102
RTVSPropertyOp52
 70
     0
102
RTVSPropertyOp53
 70
     1
102
RTVSPropertyOp54
 70
     1
102
RTVSPropertyOp55
 70
     1
102
RTVSPropertyOp56
 70
     1
102
RTVSPropertyOp57
 70
     1
102
RTVSPropertyOp58
 70
     1
102
RTVSPropertyOp59
 70
     1
102
RTVSPropertyOp60
 70
     1
102
RTVSPropertyOp61
 70
     1
102
RTVSPropertyOp62
 70
     1
  0
XRECORD
  5
2D8C
102
{ACAD_REACTORS
330
2D8B
102
}
330
2D8B
100
AcDbXrecord
280
     1
102
RTVSPost2010Prop28
280
     0
102
RTVSPost2010PropOp28
 70
     1
102
RTVSPost2010Prop29
280
     1
102
RTVSPost2010PropOp29
 70
     1
102
RTVSPost2010Prop30
280
     1
102
RTVSPost2010PropOp30
 70
     1
102
RTVSPost2010Prop31
280
     0
102
RTVSPost2010PropOp31
 70
     1
102
RTVSPost2010Prop32
280
     0
102
RTVSPost2010PropOp32
 70
     1
102
RTVSPost2010Prop33
280
     0
102
RTVSPost2010PropOp33
 70
     1
102
RTVSPost2010Prop34
280
     0
102
RTVSPost2010PropOp34
 70
     1
102
RTVSPost2010Prop35
280
     0
102
RTVSPost2010PropOp35
 70
     1
102
RTVSPost2010Prop36
280
     0
102
RTVSPost2010PropOp36
 70
     1
102
RTVSPost2010Prop37
 90
       50
102
RTVSPost2010PropOp37
 70
     1
102
RTVSPost2010Prop38
140
0.0
102
RTVSPost2010PropOp38
 70
     1
102
RTVSPost2010Prop39
140
1.0
102
RTVSPost2010PropOp39
 70
     1
102
RTVSPost2010Prop40
 90
        0
102
RTVSPost2010PropOp40
 70
     1
102
RTVSPost2010Prop41ColorIndex
 90
       18
102
RTVSPost2010Prop41ColorRGB
 90
        0
102
RTVSPost2010PropOp41
 70
     1
102
RTVSPost2010Prop42
 90
       50
102
RTVSPost2010PropOp42
 70
     1
102
RTVSPost2010Prop43
 90
        3
102
RTVSPost2010PropOp43
 70
     1
102
RTVSPost2010Prop44ColorIndex
 90
        5
102
RTVSPost2010Prop44ColorRGB
 90
      255
102
RTVSPost2010PropOp44
 70
     1
102
RTVSPost2010Prop45
280
     0
102
RTVSPost2010PropOp45
 70
     1
102
RTVSPost2010Prop46
 90
       50
102
RTVSPost2010PropOp46
 70
     1
102
RTVSPost2010Prop47
 90
       50
102
RTVSPost2010PropOp47
 70
     1
102
RTVSPost2010Prop48
 90
       50
102
RTVSPost2010PropOp48
 70
     1
102
RTVSPost2010Prop49
280
     0
102
RTVSPost2010PropOp49
 70
     1
102
RTVSPost2010Prop50
 90
       50
102
RTVSPost2010PropOp50
 70
     1
102
RTVSPost2010Prop51ColorIndex
 90
      256
102
RTVSPost2010Prop51ColorRGB
 90
-16777216
102
RTVSPost2010PropOp51
 70
     0
102
RTVSPost2010Prop52
140
1.0
102
RTVSPost2010PropOp52
 70
     0
102
RTVSPost2010Prop53
 90
        2
102
RTVSPost2010PropOp53
 70
     1
102
RTVSPost2010Prop54
  1
strokes_ogs.tif
102
RTVSPost2010PropOp54
 70
     1
102
RTVSPost2010Prop55
280
     0
102
RTVSPost2010PropOp55
 70
     1
102
RTVSPost2010Prop56
140
1.0
102
RTVSPost2010PropOp56
 70
     1
102
RTVSPost2010Prop57
140
1.0
102
RTVSPost2010PropOp57
 70
     1
102
RTVSPropertyOp0
 70
     1
102
RTVSPropertyOp1
 70
     1
102
RTVSPropertyOp2
 70
     1
102
RTVSPropertyOp3
 70
     1
102
RTVSPropertyOp4
 70
     1
102
RTVSPropertyOp5
 70
     1
102
RTVSPropertyOp6
 70
     1
102
RTVSPropertyOp7
 70
     1
102
RTVSPropertyOp8
 70
     1
102
RTVSPropertyOp9
 70
     1
102
RTVSPropertyOp10
 70
     1
102
RTVSPropertyOp11
 70
     1
102
RTVSPropertyOp12
 70
     1
102
RTVSPropertyOp13
 70
     1
102
RTVSPropertyOp14
 70
     1
102
RTVSPropertyOp15
 70
     1
102
RTVSPropertyOp16
 70
     1
102
RTVSPropertyOp17
 70
     1
102
RTVSPropertyOp18
 70
     1
102
RTVSPropertyOp19
 70
     1
102
RTVSPropertyOp20
 70
     1
102
RTVSPropertyOp21
 70
     1
102
RTVSPropertyOp22
 70
     1
102
RTVSPropertyOp23
 70
     1
102
RTVSPropertyOp24
 70
     1
102
RTVSPropertyOp25
 70
     1
102
RTVSPropertyOp26
 70
     1
102
RTVSPropertyOp27
 70
     1
102
RTVSPropertyOp28
 70
     1
102
RTVSPropertyOp29
 70
     1
102
RTVSPropertyOp30
 70
     1
102
RTVSPropertyOp31
 70
     1
102
RTVSPropertyOp32
 70
     1
102
RTVSPropertyOp33
 70
     1
102
RTVSPropertyOp34
 70
     1
102
RTVSPropertyOp35
 70
     1
102
RTVSPropertyOp36
 70
     1
102
RTVSPropertyOp37
 70
     1
102
RTVSPropertyOp38
 70
     1
102
RTVSPropertyOp39
 70
     1
102
RTVSPropertyOp40
 70
     1
102
RTVSPropertyOp41
 70
     1
102
RTVSPropertyOp42
 70
     1
102
RTVSPropertyOp43
 70
     1
102
RTVSPropertyOp44
 70
     1
102
RTVSPropertyOp45
 70
     1
102
RTVSPropertyOp46
 70
     1
102
RTVSPropertyOp47
 70
     1
102
RTVSPropertyOp48
 70
     1
102
RTVSPropertyOp49
 70
     1
102
RTVSPropertyOp50
 70
     1
102
RTVSPropertyOp51
 70
     0
102
RTVSPropertyOp52
 70
     0
102
RTVSPropertyOp53
 70
     1
102
RTVSPropertyOp54
 70
     1
102
RTVSPropertyOp55
 70
     1
102
RTVSPropertyOp56
 70
     1
102
RTVSPropertyOp57
 70
     1
102
RTVSPropertyOp58
 70
     1
102
RTVSPropertyOp59
 70
     1
102
RTVSPropertyOp60
 70
     1
102
RTVSPropertyOp61
 70
     1
102
RTVSPropertyOp62
 70
     1
  0
XRECORD
  5
2D94
102
{ACAD_REACTORS
330
2D93
102
}
330
2D93
100
AcDbXrecord
280
     1
102
RTVSPost2010Prop28
280
     0
102
RTVSPost2010PropOp28
 70
     1
102
RTVSPost2010Prop29
280
     1
102
RTVSPost2010PropOp29
 70
     1
102
RTVSPost2010Prop30
280
     1
102
RTVSPost2010PropOp30
 70
     1
102
RTVSPost2010Prop31
280
     0
102
RTVSPost2010PropOp31
 70
     1
102
RTVSPost2010Prop32
280
     0
102
RTVSPost2010PropOp32
 70
     1
102
RTVSPost2010Prop33
280
     0
102
RTVSPost2010PropOp33
 70
     1
102
RTVSPost2010Prop34
280
     0
102
RTVSPost2010PropOp34
 70
     1
102
RTVSPost2010Prop35
280
     0
102
RTVSPost2010PropOp35
 70
     1
102
RTVSPost2010Prop36
280
     0
102
RTVSPost2010PropOp36
 70
     1
102
RTVSPost2010Prop37
 90
       50
102
RTVSPost2010PropOp37
 70
     1
102
RTVSPost2010Prop38
140
0.0
102
RTVSPost2010PropOp38
 70
     1
102
RTVSPost2010Prop39
140
1.0
102
RTVSPost2010PropOp39
 70
     1
102
RTVSPost2010Prop40
 90
        0
102
RTVSPost2010PropOp40
 70
     1
102
RTVSPost2010Prop41ColorIndex
 90
       18
102
RTVSPost2010Prop41ColorRGB
 90
        0
102
RTVSPost2010PropOp41
 70
     1
102
RTVSPost2010Prop42
 90
       50
102
RTVSPost2010PropOp42
 70
     1
102
RTVSPost2010Prop43
 90
        3
102
RTVSPost2010PropOp43
 70
     1
102
RTVSPost2010Prop44ColorIndex
 90
        5
102
RTVSPost2010Prop44ColorRGB
 90
      255
102
RTVSPost2010PropOp44
 70
     1
102
RTVSPost2010Prop45
280
     0
102
RTVSPost2010PropOp45
 70
     1
102
RTVSPost2010Prop46
 90
       50
102
RTVSPost2010PropOp46
 70
     1
102
RTVSPost2010Prop47
 90
       50
102
RTVSPost2010PropOp47
 70
     1
102
RTVSPost2010Prop48
 90
       50
102
RTVSPost2010PropOp48
 70
     1
102
RTVSPost2010Prop49
280
     0
102
RTVSPost2010PropOp49
 70
     1
102
RTVSPost2010Prop50
 90
       50
102
RTVSPost2010PropOp50
 70
     1
102
RTVSPost2010Prop51ColorIndex
 90
      256
102
RTVSPost2010Prop51ColorRGB
 90
-16777216
102
RTVSPost2010PropOp51
 70
     0
102
RTVSPost2010Prop52
140
1.0
102
RTVSPost2010PropOp52
 70
     0
102
RTVSPost2010Prop53
 90
        2
102
RTVSPost2010PropOp53
 70
     1
102
RTVSPost2010Prop54
  1
strokes_ogs.tif
102
RTVSPost2010PropOp54
 70
     1
102
RTVSPost2010Prop55
280
     0
102
RTVSPost2010PropOp55
 70
     1
102
RTVSPost2010Prop56
140
1.0
102
RTVSPost2010PropOp56
 70
     1
102
RTVSPost2010Prop57
140
1.0
102
RTVSPost2010PropOp57
 70
     1
102
RTVSPropertyOp0
 70
     1
102
RTVSPropertyOp1
 70
     1
102
RTVSPropertyOp2
 70
     1
102
RTVSPropertyOp3
 70
     1
102
RTVSPropertyOp4
 70
     1
102
RTVSPropertyOp5
 70
     1
102
RTVSPropertyOp6
 70
     1
102
RTVSPropertyOp7
 70
     1
102
RTVSPropertyOp8
 70
     1
102
RTVSPropertyOp9
 70
     1
102
RTVSPropertyOp10
 70
     1
102
RTVSPropertyOp11
 70
     1
102
RTVSPropertyOp12
 70
     1
102
RTVSPropertyOp13
 70
     1
102
RTVSPropertyOp14
 70
     1
102
RTVSPropertyOp15
 70
     1
102
RTVSPropertyOp16
 70
     1
102
RTVSPropertyOp17
 70
     1
102
RTVSPropertyOp18
 70
     1
102
RTVSPropertyOp19
 70
     1
102
RTVSPropertyOp20
 70
     1
102
RTVSPropertyOp21
 70
     1
102
RTVSPropertyOp22
 70
     1
102
RTVSPropertyOp23
 70
     1
102
RTVSPropertyOp24
 70
     1
102
RTVSPropertyOp25
 70
     1
102
RTVSPropertyOp26
 70
     1
102
RTVSPropertyOp27
 70
     1
102
RTVSPropertyOp28
 70
     1
102
RTVSPropertyOp29
 70
     1
102
RTVSPropertyOp30
 70
     1
102
RTVSPropertyOp31
 70
     1
102
RTVSPropertyOp32
 70
     1
102
RTVSPropertyOp33
 70
     1
102
RTVSPropertyOp34
 70
     1
102
RTVSPropertyOp35
 70
     1
102
RTVSPropertyOp36
 70
     1
102
RTVSPropertyOp37
 70
     1
102
RTVSPropertyOp38
 70
     1
102
RTVSPropertyOp39
 70
     1
102
RTVSPropertyOp40
 70
     1
102
RTVSPropertyOp41
 70
     1
102
RTVSPropertyOp42
 70
     1
102
RTVSPropertyOp43
 70
     1
102
RTVSPropertyOp44
 70
     1
102
RTVSPropertyOp45
 70
     1
102
RTVSPropertyOp46
 70
     1
102
RTVSPropertyOp47
 70
     1
102
RTVSPropertyOp48
 70
     1
102
RTVSPropertyOp49
 70
     1
102
RTVSPropertyOp50
 70
     1
102
RTVSPropertyOp51
 70
     0
102
RTVSPropertyOp52
 70
     0
102
RTVSPropertyOp53
 70
     1
102
RTVSPropertyOp54
 70
     1
102
RTVSPropertyOp55
 70
     1
102
RTVSPropertyOp56
 70
     1
102
RTVSPropertyOp57
 70
     1
102
RTVSPropertyOp58
 70
     1
102
RTVSPropertyOp59
 70
     1
102
RTVSPropertyOp60
 70
     1
102
RTVSPropertyOp61
 70
     1
102
RTVSPropertyOp62
 70
     1
  0
XRECORD
  5
2DB0
102
{ACAD_REACTORS
330
2DAF
102
}
330
2DAF
100
AcDbXrecord
280
     1
102
RTVSPost2010Prop28
280
     0
102
RTVSPost2010PropOp28
 70
     1
102
RTVSPost2010Prop29
280
     1
102
RTVSPost2010PropOp29
 70
     1
102
RTVSPost2010Prop30
280
     1
102
RTVSPost2010PropOp30
 70
     1
102
RTVSPost2010Prop31
280
     0
102
RTVSPost2010PropOp31
 70
     1
102
RTVSPost2010Prop32
280
     0
102
RTVSPost2010PropOp32
 70
     1
102
RTVSPost2010Prop33
280
     0
102
RTVSPost2010PropOp33
 70
     1
102
RTVSPost2010Prop34
280
     0
102
RTVSPost2010PropOp34
 70
     1
102
RTVSPost2010Prop35
280
     0
102
RTVSPost2010PropOp35
 70
     1
102
RTVSPost2010Prop36
280
     0
102
RTVSPost2010PropOp36
 70
     1
102
RTVSPost2010Prop37
 90
       50
102
RTVSPost2010PropOp37
 70
     0
102
RTVSPost2010Prop38
140
0.0
102
RTVSPost2010PropOp38
 70
     0
102
RTVSPost2010Prop39
140
1.0
102
RTVSPost2010PropOp39
 70
     0
102
RTVSPost2010Prop40
 90
        0
102
RTVSPost2010PropOp40
 70
     0
102
RTVSPost2010Prop41ColorIndex
 90
       18
102
RTVSPost2010Prop41ColorRGB
 90
        0
102
RTVSPost2010PropOp41
 70
     0
102
RTVSPost2010Prop42
 90
       50
102
RTVSPost2010PropOp42
 70
     0
102
RTVSPost2010Prop43
 90
        3
102
RTVSPost2010PropOp43
 70
     0
102
RTVSPost2010Prop44ColorIndex
 90
        5
102
RTVSPost2010Prop44ColorRGB
 90
      255
102
RTVSPost2010PropOp44
 70
     0
102
RTVSPost2010Prop45
280
     0
102
RTVSPost2010PropOp45
 70
     1
102
RTVSPost2010Prop46
 90
       50
102
RTVSPost2010PropOp46
 70
     0
102
RTVSPost2010Prop47
 90
       50
102
RTVSPost2010PropOp47
 70
     0
102
RTVSPost2010Prop48
 90
       50
102
RTVSPost2010PropOp48
 70
     0
102
RTVSPost2010Prop49
280
     0
102
RTVSPost2010PropOp49
 70
     1
102
RTVSPost2010Prop50
 90
       50
102
RTVSPost2010PropOp50
 70
     0
102
RTVSPost2010Prop51ColorIndex
 90
      256
102
RTVSPost2010Prop51ColorRGB
 90
-16777216
102
RTVSPost2010PropOp51
 70
     0
102
RTVSPost2010Prop52
140
1.0
102
RTVSPost2010PropOp52
 70
     0
102
RTVSPost2010Prop53
 90
        2
102
RTVSPost2010PropOp53
 70
     0
102
RTVSPost2010Prop54
  1
strokes_ogs.tif
102
RTVSPost2010PropOp54
 70
     0
102
RTVSPost2010Prop55
280
     0
102
RTVSPost2010PropOp55
 70
     1
102
RTVSPost2010Prop56
140
1.0
102
RTVSPost2010PropOp56
 70
     0
102
RTVSPost2010Prop57
140
1.0
102
RTVSPost2010PropOp57
 70
     0
102
RTVSPropertyOp0
 70
     0
102
RTVSPropertyOp1
 70
     0
102
RTVSPropertyOp2
 70
     0
102
RTVSPropertyOp3
 70
     0
102
RTVSPropertyOp4
 70
     0
102
RTVSPropertyOp5
 70
     0
102
RTVSPropertyOp6
 70
     0
102
RTVSPropertyOp7
 70
     0
102
RTVSPropertyOp8
 70
     0
102
RTVSPropertyOp9
 70
     0
102
RTVSPropertyOp10
 70
     0
102
RTVSPropertyOp11
 70
     0
102
RTVSPropertyOp12
 70
     0
102
RTVSPropertyOp13
 70
     0
102
RTVSPropertyOp14
 70
     2
102
RTVSPropertyOp15
 70
     0
102
RTVSPropertyOp16
 70
     0
102
RTVSPropertyOp17
 70
     0
102
RTVSPropertyOp18
 70
     0
102
RTVSPropertyOp19
 70
     0
102
RTVSPropertyOp20
 70
     0
102
RTVSPropertyOp21
 70
     0
102
RTVSPropertyOp22
 70
     0
102
RTVSPropertyOp23
 70
     0
102
RTVSPropertyOp24
 70
     0
102
RTVSPropertyOp25
 70
     0
102
RTVSPropertyOp26
 70
     0
102
RTVSPropertyOp27
 70
     0
102
RTVSPropertyOp28
 70
     1
102
RTVSPropertyOp29
 70
     1
102
RTVSPropertyOp30
 70
     1
102
RTVSPropertyOp31
 70
     1
102
RTVSPropertyOp32
 70
     1
102
RTVSPropertyOp33
 70
     1
102
RTVSPropertyOp34
 70
     1
102
RTVSPropertyOp35
 70
     1
102
RTVSPropertyOp36
 70
     1
102
RTVSPropertyOp37
 70
     0
102
RTVSPropertyOp38
 70
     0
102
RTVSPropertyOp39
 70
     0
102
RTVSPropertyOp40
 70
     0
102
RTVSPropertyOp41
 70
     0
102
RTVSPropertyOp42
 70
     0
102
RTVSPropertyOp43
 70
     0
102
RTVSPropertyOp44
 70
     0
102
RTVSPropertyOp45
 70
     1
102
RTVSPropertyOp46
 70
     0
102
RTVSPropertyOp47
 70
     0
102
RTVSPropertyOp48
 70
     0
102
RTVSPropertyOp49
 70
     1
102
RTVSPropertyOp50
 70
     0
102
RTVSPropertyOp51
 70
     0
102
RTVSPropertyOp52
 70
     0
102
RTVSPropertyOp53
 70
     0
102
RTVSPropertyOp54
 70
     0
102
RTVSPropertyOp55
 70
     1
102
RTVSPropertyOp56
 70
     0
102
RTVSPropertyOp57
 70
     0
102
RTVSPropertyOp58
 70
     0
102
RTVSPropertyOp59
 70
     0
102
RTVSPropertyOp60
 70
     0
102
RTVSPropertyOp61
 70
     0
102
RTVSPropertyOp62
 70
     0
  0
XRECORD
  5
2DA0
102
{ACAD_REACTORS
330
2D9F
102
}
330
2D9F
100
AcDbXrecord
280
     1
102
RTVSPost2010Prop28
280
     0
102
RTVSPost2010PropOp28
 70
     1
102
RTVSPost2010Prop29
280
     1
102
RTVSPost2010PropOp29
 70
     1
102
RTVSPost2010Prop30
280
     1
102
RTVSPost2010PropOp30
 70
     1
102
RTVSPost2010Prop31
280
     0
102
RTVSPost2010PropOp31
 70
     1
102
RTVSPost2010Prop32
280
     0
102
RTVSPost2010PropOp32
 70
     1
102
RTVSPost2010Prop33
280
     0
102
RTVSPost2010PropOp33
 70
     1
102
RTVSPost2010Prop34
280
     0
102
RTVSPost2010PropOp34
 70
     1
102
RTVSPost2010Prop35
280
     0
102
RTVSPost2010PropOp35
 70
     1
102
RTVSPost2010Prop36
280
     0
102
RTVSPost2010PropOp36
 70
     1
102
RTVSPost2010Prop37
 90
       50
102
RTVSPost2010PropOp37
 70
     1
102
RTVSPost2010Prop38
140
0.0
102
RTVSPost2010PropOp38
 70
     1
102
RTVSPost2010Prop39
140
1.0
102
RTVSPost2010PropOp39
 70
     1
102
RTVSPost2010Prop40
 90
        0
102
RTVSPost2010PropOp40
 70
     1
102
RTVSPost2010Prop41ColorIndex
 90
       18
102
RTVSPost2010Prop41ColorRGB
 90
        0
102
RTVSPost2010PropOp41
 70
     1
102
RTVSPost2010Prop42
 90
       50
102
RTVSPost2010PropOp42
 70
     1
102
RTVSPost2010Prop43
 90
        3
102
RTVSPost2010PropOp43
 70
     1
102
RTVSPost2010Prop44ColorIndex
 90
        5
102
RTVSPost2010Prop44ColorRGB
 90
      255
102
RTVSPost2010PropOp44
 70
     1
102
RTVSPost2010Prop45
280
     0
102
RTVSPost2010PropOp45
 70
     1
102
RTVSPost2010Prop46
 90
       50
102
RTVSPost2010PropOp46
 70
     1
102
RTVSPost2010Prop47
 90
       50
102
RTVSPost2010PropOp47
 70
     1
102
RTVSPost2010Prop48
 90
       50
102
RTVSPost2010PropOp48
 70
     1
102
RTVSPost2010Prop49
280
     0
102
RTVSPost2010PropOp49
 70
     1
102
RTVSPost2010Prop50
 90
       50
102
RTVSPost2010PropOp50
 70
     1
102
RTVSPost2010Prop51ColorIndex
 90
      256
102
RTVSPost2010Prop51ColorRGB
 90
-16777216
102
RTVSPost2010PropOp51
 70
     0
102
RTVSPost2010Prop52
140
1.0
102
RTVSPost2010PropOp52
 70
     0
102
RTVSPost2010Prop53
 90
        2
102
RTVSPost2010PropOp53
 70
     1
102
RTVSPost2010Prop54
  1
strokes_ogs.tif
102
RTVSPost2010PropOp54
 70
     1
102
RTVSPost2010Prop55
280
     0
102
RTVSPost2010PropOp55
 70
     1
102
RTVSPost2010Prop56
140
1.0
102
RTVSPost2010PropOp56
 70
     1
102
RTVSPost2010Prop57
140
1.0
102
RTVSPost2010PropOp57
 70
     1
102
RTVSPropertyOp0
 70
     1
102
RTVSPropertyOp1
 70
     1
102
RTVSPropertyOp2
 70
     1
102
RTVSPropertyOp3
 70
     1
102
RTVSPropertyOp4
 70
     1
102
RTVSPropertyOp5
 70
     1
102
RTVSPropertyOp6
 70
     1
102
RTVSPropertyOp7
 70
     1
102
RTVSPropertyOp8
 70
     1
102
RTVSPropertyOp9
 70
     1
102
RTVSPropertyOp10
 70
     1
102
RTVSPropertyOp11
 70
     1
102
RTVSPropertyOp12
 70
     1
102
RTVSPropertyOp13
 70
     1
102
RTVSPropertyOp14
 70
     1
102
RTVSPropertyOp15
 70
     1
102
RTVSPropertyOp16
 70
     1
102
RTVSPropertyOp17
 70
     1
102
RTVSPropertyOp18
 70
     1
102
RTVSPropertyOp19
 70
     1
102
RTVSPropertyOp20
 70
     1
102
RTVSPropertyOp21
 70
     1
102
RTVSPropertyOp22
 70
     1
102
RTVSPropertyOp23
 70
     1
102
RTVSPropertyOp24
 70
     1
102
RTVSPropertyOp25
 70
     1
102
RTVSPropertyOp26
 70
     1
102
RTVSPropertyOp27
 70
     1
102
RTVSPropertyOp28
 70
     1
102
RTVSPropertyOp29
 70
     1
102
RTVSPropertyOp30
 70
     1
102
RTVSPropertyOp31
 70
     1
102
RTVSPropertyOp32
 70
     1
102
RTVSPropertyOp33
 70
     1
102
RTVSPropertyOp34
 70
     1
102
RTVSPropertyOp35
 70
     1
102
RTVSPropertyOp36
 70
     1
102
RTVSPropertyOp37
 70
     1
102
RTVSPropertyOp38
 70
     1
102
RTVSPropertyOp39
 70
     1
102
RTVSPropertyOp40
 70
     1
102
RTVSPropertyOp41
 70
     1
102
RTVSPropertyOp42
 70
     1
102
RTVSPropertyOp43
 70
     1
102
RTVSPropertyOp44
 70
     1
102
RTVSPropertyOp45
 70
     1
102
RTVSPropertyOp46
 70
     1
102
RTVSPropertyOp47
 70
     1
102
RTVSPropertyOp48
 70
     1
102
RTVSPropertyOp49
 70
     1
102
RTVSPropertyOp50
 70
     1
102
RTVSPropertyOp51
 70
     0
102
RTVSPropertyOp52
 70
     0
102
RTVSPropertyOp53
 70
     1
102
RTVSPropertyOp54
 70
     1
102
RTVSPropertyOp55
 70
     1
102
RTVSPropertyOp56
 70
     1
102
RTVSPropertyOp57
 70
     1
102
RTVSPropertyOp58
 70
     1
102
RTVSPropertyOp59
 70
     1
102
RTVSPropertyOp60
 70
     1
102
RTVSPropertyOp61
 70
     1
102
RTVSPropertyOp62
 70
     1
  0
XRECORD
  5
2DB2
102
{ACAD_REACTORS
330
2DB1
102
}
330
2DB1
100
AcDbXrecord
280
     1
102
RTVSPost2010Prop28
280
     0
102
RTVSPost2010PropOp28
 70
     1
102
RTVSPost2010Prop29
280
     1
102
RTVSPost2010PropOp29
 70
     1
102
RTVSPost2010Prop30
280
     1
102
RTVSPost2010PropOp30
 70
     1
102
RTVSPost2010Prop31
280
     0
102
RTVSPost2010PropOp31
 70
     1
102
RTVSPost2010Prop32
280
     0
102
RTVSPost2010PropOp32
 70
     1
102
RTVSPost2010Prop33
280
     0
102
RTVSPost2010PropOp33
 70
     1
102
RTVSPost2010Prop34
280
     0
102
RTVSPost2010PropOp34
 70
     1
102
RTVSPost2010Prop35
280
     0
102
RTVSPost2010PropOp35
 70
     1
102
RTVSPost2010Prop36
280
     0
102
RTVSPost2010PropOp36
 70
     1
102
RTVSPost2010Prop37
 90
       50
102
RTVSPost2010PropOp37
 70
     0
102
RTVSPost2010Prop38
140
0.0
102
RTVSPost2010PropOp38
 70
     0
102
RTVSPost2010Prop39
140
1.0
102
RTVSPost2010PropOp39
 70
     0
102
RTVSPost2010Prop40
 90
        0
102
RTVSPost2010PropOp40
 70
     0
102
RTVSPost2010Prop41ColorIndex
 90
       18
102
RTVSPost2010Prop41ColorRGB
 90
        0
102
RTVSPost2010PropOp41
 70
     0
102
RTVSPost2010Prop42
 90
       50
102
RTVSPost2010PropOp42
 70
     0
102
RTVSPost2010Prop43
 90
        3
102
RTVSPost2010PropOp43
 70
     0
102
RTVSPost2010Prop44ColorIndex
 90
        5
102
RTVSPost2010Prop44ColorRGB
 90
      255
102
RTVSPost2010PropOp44
 70
     0
102
RTVSPost2010Prop45
280
     0
102
RTVSPost2010PropOp45
 70
     1
102
RTVSPost2010Prop46
 90
       50
102
RTVSPost2010PropOp46
 70
     0
102
RTVSPost2010Prop47
 90
       50
102
RTVSPost2010PropOp47
 70
     0
102
RTVSPost2010Prop48
 90
       50
102
RTVSPost2010PropOp48
 70
     0
102
RTVSPost2010Prop49
280
     0
102
RTVSPost2010PropOp49
 70
     1
102
RTVSPost2010Prop50
 90
       50
102
RTVSPost2010PropOp50
 70
     0
102
RTVSPost2010Prop51ColorIndex
 90
      256
102
RTVSPost2010Prop51ColorRGB
 90
-16777216
102
RTVSPost2010PropOp51
 70
     0
102
RTVSPost2010Prop52
140
1.0
102
RTVSPost2010PropOp52
 70
     0
102
RTVSPost2010Prop53
 90
        2
102
RTVSPost2010PropOp53
 70
     0
102
RTVSPost2010Prop54
  1
strokes_ogs.tif
102
RTVSPost2010PropOp54
 70
     0
102
RTVSPost2010Prop55
280
     0
102
RTVSPost2010PropOp55
 70
     1
102
RTVSPost2010Prop56
140
1.0
102
RTVSPost2010PropOp56
 70
     0
102
RTVSPost2010Prop57
140
1.0
102
RTVSPost2010PropOp57
 70
     0
102
RTVSPropertyOp0
 70
     0
102
RTVSPropertyOp1
 70
     0
102
RTVSPropertyOp2
 70
     0
102
RTVSPropertyOp3
 70
     0
102
RTVSPropertyOp4
 70
     0
102
RTVSPropertyOp5
 70
     0
102
RTVSPropertyOp6
 70
     0
102
RTVSPropertyOp7
 70
     0
102
RTVSPropertyOp8
 70
     0
102
RTVSPropertyOp9
 70
     0
102
RTVSPropertyOp10
 70
     0
102
RTVSPropertyOp11
 70
     0
102
RTVSPropertyOp12
 70
     0
102
RTVSPropertyOp13
 70
     0
102
RTVSPropertyOp14
 70
     2
102
RTVSPropertyOp15
 70
     0
102
RTVSPropertyOp16
 70
     0
102
RTVSPropertyOp17
 70
     0
102
RTVSPropertyOp18
 70
     0
102
RTVSPropertyOp19
 70
     0
102
RTVSPropertyOp20
 70
     0
102
RTVSPropertyOp21
 70
     0
102
RTVSPropertyOp22
 70
     0
102
RTVSPropertyOp23
 70
     0
102
RTVSPropertyOp24
 70
     0
102
RTVSPropertyOp25
 70
     0
102
RTVSPropertyOp26
 70
     0
102
RTVSPropertyOp27
 70
     0
102
RTVSPropertyOp28
 70
     1
102
RTVSPropertyOp29
 70
     1
102
RTVSPropertyOp30
 70
     1
102
RTVSPropertyOp31
 70
     1
102
RTVSPropertyOp32
 70
     1
102
RTVSPropertyOp33
 70
     1
102
RTVSPropertyOp34
 70
     1
102
RTVSPropertyOp35
 70
     1
102
RTVSPropertyOp36
 70
     1
102
RTVSPropertyOp37
 70
     0
102
RTVSPropertyOp38
 70
     0
102
RTVSPropertyOp39
 70
     0
102
RTVSPropertyOp40
 70
     0
102
RTVSPropertyOp41
 70
     0
102
RTVSPropertyOp42
 70
     0
102
RTVSPropertyOp43
 70
     0
102
RTVSPropertyOp44
 70
     0
102
RTVSPropertyOp45
 70
     1
102
RTVSPropertyOp46
 70
     0
102
RTVSPropertyOp47
 70
     0
102
RTVSPropertyOp48
 70
     0
102
RTVSPropertyOp49
 70
     1
102
RTVSPropertyOp50
 70
     0
102
RTVSPropertyOp51
 70
     0
102
RTVSPropertyOp52
 70
     0
102
RTVSPropertyOp53
 70
     0
102
RTVSPropertyOp54
 70
     0
102
RTVSPropertyOp55
 70
     1
102
RTVSPropertyOp56
 70
     0
102
RTVSPropertyOp57
 70
     0
102
RTVSPropertyOp58
 70
     0
102
RTVSPropertyOp59
 70
     0
102
RTVSPropertyOp60
 70
     0
102
RTVSPropertyOp61
 70
     0
102
RTVSPropertyOp62
 70
     0
  0
XRECORD
  5
2D98
102
{ACAD_REACTORS
330
2D97
102
}
330
2D97
100
AcDbXrecord
280
     1
102
RTVSPost2010Prop28
280
     0
102
RTVSPost2010PropOp28
 70
     1
102
RTVSPost2010Prop29
280
     1
102
RTVSPost2010PropOp29
 70
     1
102
RTVSPost2010Prop30
280
     1
102
RTVSPost2010PropOp30
 70
     1
102
RTVSPost2010Prop31
280
     0
102
RTVSPost2010PropOp31
 70
     1
102
RTVSPost2010Prop32
280
     0
102
RTVSPost2010PropOp32
 70
     1
102
RTVSPost2010Prop33
280
     0
102
RTVSPost2010PropOp33
 70
     1
102
RTVSPost2010Prop34
280
     0
102
RTVSPost2010PropOp34
 70
     1
102
RTVSPost2010Prop35
280
     0
102
RTVSPost2010PropOp35
 70
     1
102
RTVSPost2010Prop36
280
     0
102
RTVSPost2010PropOp36
 70
     1
102
RTVSPost2010Prop37
 90
       50
102
RTVSPost2010PropOp37
 70
     1
102
RTVSPost2010Prop38
140
0.0
102
RTVSPost2010PropOp38
 70
     1
102
RTVSPost2010Prop39
140
1.0
102
RTVSPost2010PropOp39
 70
     1
102
RTVSPost2010Prop40
 90
        0
102
RTVSPost2010PropOp40
 70
     1
102
RTVSPost2010Prop41ColorIndex
 90
       18
102
RTVSPost2010Prop41ColorRGB
 90
        0
102
RTVSPost2010PropOp41
 70
     1
102
RTVSPost2010Prop42
 90
       50
102
RTVSPost2010PropOp42
 70
     1
102
RTVSPost2010Prop43
 90
        3
102
RTVSPost2010PropOp43
 70
     1
102
RTVSPost2010Prop44ColorIndex
 90
        5
102
RTVSPost2010Prop44ColorRGB
 90
      255
102
RTVSPost2010PropOp44
 70
     1
102
RTVSPost2010Prop45
280
     0
102
RTVSPost2010PropOp45
 70
     1
102
RTVSPost2010Prop46
 90
       50
102
RTVSPost2010PropOp46
 70
     1
102
RTVSPost2010Prop47
 90
       50
102
RTVSPost2010PropOp47
 70
     1
102
RTVSPost2010Prop48
 90
       50
102
RTVSPost2010PropOp48
 70
     1
102
RTVSPost2010Prop49
280
     0
102
RTVSPost2010PropOp49
 70
     1
102
RTVSPost2010Prop50
 90
       50
102
RTVSPost2010PropOp50
 70
     1
102
RTVSPost2010Prop51ColorIndex
 90
      256
102
RTVSPost2010Prop51ColorRGB
 90
-16777216
102
RTVSPost2010PropOp51
 70
     0
102
RTVSPost2010Prop52
140
1.0
102
RTVSPost2010PropOp52
 70
     0
102
RTVSPost2010Prop53
 90
        2
102
RTVSPost2010PropOp53
 70
     1
102
RTVSPost2010Prop54
  1
strokes_ogs.tif
102
RTVSPost2010PropOp54
 70
     1
102
RTVSPost2010Prop55
280
     0
102
RTVSPost2010PropOp55
 70
     1
102
RTVSPost2010Prop56
140
1.0
102
RTVSPost2010PropOp56
 70
     1
102
RTVSPost2010Prop57
140
1.0
102
RTVSPost2010PropOp57
 70
     1
102
RTVSPropertyOp0
 70
     1
102
RTVSPropertyOp1
 70
     1
102
RTVSPropertyOp2
 70
     1
102
RTVSPropertyOp3
 70
     1
102
RTVSPropertyOp4
 70
     1
102
RTVSPropertyOp5
 70
     1
102
RTVSPropertyOp6
 70
     1
102
RTVSPropertyOp7
 70
     1
102
RTVSPropertyOp8
 70
     1
102
RTVSPropertyOp9
 70
     1
102
RTVSPropertyOp10
 70
     1
102
RTVSPropertyOp11
 70
     1
102
RTVSPropertyOp12
 70
     1
102
RTVSPropertyOp13
 70
     1
102
RTVSPropertyOp14
 70
     1
102
RTVSPropertyOp15
 70
     1
102
RTVSPropertyOp16
 70
     1
102
RTVSPropertyOp17
 70
     1
102
RTVSPropertyOp18
 70
     1
102
RTVSPropertyOp19
 70
     1
102
RTVSPropertyOp20
 70
     1
102
RTVSPropertyOp21
 70
     1
102
RTVSPropertyOp22
 70
     1
102
RTVSPropertyOp23
 70
     1
102
RTVSPropertyOp24
 70
     1
102
RTVSPropertyOp25
 70
     1
102
RTVSPropertyOp26
 70
     1
102
RTVSPropertyOp27
 70
     1
102
RTVSPropertyOp28
 70
     1
102
RTVSPropertyOp29
 70
     1
102
RTVSPropertyOp30
 70
     1
102
RTVSPropertyOp31
 70
     1
102
RTVSPropertyOp32
 70
     1
102
RTVSPropertyOp33
 70
     1
102
RTVSPropertyOp34
 70
     1
102
RTVSPropertyOp35
 70
     1
102
RTVSPropertyOp36
 70
     1
102
RTVSPropertyOp37
 70
     1
102
RTVSPropertyOp38
 70
     1
102
RTVSPropertyOp39
 70
     1
102
RTVSPropertyOp40
 70
     1
102
RTVSPropertyOp41
 70
     1
102
RTVSPropertyOp42
 70
     1
102
RTVSPropertyOp43
 70
     1
102
RTVSPropertyOp44
 70
     1
102
RTVSPropertyOp45
 70
     1
102
RTVSPropertyOp46
 70
     1
102
RTVSPropertyOp47
 70
     1
102
RTVSPropertyOp48
 70
     1
102
RTVSPropertyOp49
 70
     1
102
RTVSPropertyOp50
 70
     1
102
RTVSPropertyOp51
 70
     0
102
RTVSPropertyOp52
 70
     0
102
RTVSPropertyOp53
 70
     1
102
RTVSPropertyOp54
 70
     1
102
RTVSPropertyOp55
 70
     1
102
RTVSPropertyOp56
 70
     1
102
RTVSPropertyOp57
 70
     1
102
RTVSPropertyOp58
 70
     1
102
RTVSPropertyOp59
 70
     1
102
RTVSPropertyOp60
 70
     1
102
RTVSPropertyOp61
 70
     1
102
RTVSPropertyOp62
 70
     1
  0
XRECORD
  5
2DAE
102
{ACAD_REACTORS
330
2DAD
102
}
330
2DAD
100
AcDbXrecord
280
     1
102
RTVSPost2010Prop28
280
     0
102
RTVSPost2010PropOp28
 70
     1
102
RTVSPost2010Prop29
280
     1
102
RTVSPost2010PropOp29
 70
     1
102
RTVSPost2010Prop30
280
     1
102
RTVSPost2010PropOp30
 70
     1
102
RTVSPost2010Prop31
280
     0
102
RTVSPost2010PropOp31
 70
     1
102
RTVSPost2010Prop32
280
     0
102
RTVSPost2010PropOp32
 70
     1
102
RTVSPost2010Prop33
280
     0
102
RTVSPost2010PropOp33
 70
     1
102
RTVSPost2010Prop34
280
     0
102
RTVSPost2010PropOp34
 70
     1
102
RTVSPost2010Prop35
280
     0
102
RTVSPost2010PropOp35
 70
     1
102
RTVSPost2010Prop36
280
     0
102
RTVSPost2010PropOp36
 70
     1
102
RTVSPost2010Prop37
 90
       50
102
RTVSPost2010PropOp37
 70
     1
102
RTVSPost2010Prop38
140
0.0
102
RTVSPost2010PropOp38
 70
     1
102
RTVSPost2010Prop39
140
1.0
102
RTVSPost2010PropOp39
 70
     1
102
RTVSPost2010Prop40
 90
        0
102
RTVSPost2010PropOp40
 70
     1
102
RTVSPost2010Prop41ColorIndex
 90
       18
102
RTVSPost2010Prop41ColorRGB
 90
        0
102
RTVSPost2010PropOp41
 70
     1
102
RTVSPost2010Prop42
 90
       50
102
RTVSPost2010PropOp42
 70
     1
102
RTVSPost2010Prop43
 90
        3
102
RTVSPost2010PropOp43
 70
     1
102
RTVSPost2010Prop44ColorIndex
 90
        5
102
RTVSPost2010Prop44ColorRGB
 90
      255
102
RTVSPost2010PropOp44
 70
     1
102
RTVSPost2010Prop45
280
     0
102
RTVSPost2010PropOp45
 70
     1
102
RTVSPost2010Prop46
 90
       50
102
RTVSPost2010PropOp46
 70
     1
102
RTVSPost2010Prop47
 90
       50
102
RTVSPost2010PropOp47
 70
     1
102
RTVSPost2010Prop48
 90
       50
102
RTVSPost2010PropOp48
 70
     1
102
RTVSPost2010Prop49
280
     0
102
RTVSPost2010PropOp49
 70
     1
102
RTVSPost2010Prop50
 90
       50
102
RTVSPost2010PropOp50
 70
     1
102
RTVSPost2010Prop51ColorIndex
 90
      256
102
RTVSPost2010Prop51ColorRGB
 90
-16777216
102
RTVSPost2010PropOp51
 70
     0
102
RTVSPost2010Prop52
140
1.0
102
RTVSPost2010PropOp52
 70
     0
102
RTVSPost2010Prop53
 90
        2
102
RTVSPost2010PropOp53
 70
     1
102
RTVSPost2010Prop54
  1
strokes_ogs.tif
102
RTVSPost2010PropOp54
 70
     1
102
RTVSPost2010Prop55
280
     0
102
RTVSPost2010PropOp55
 70
     1
102
RTVSPost2010Prop56
140
1.0
102
RTVSPost2010PropOp56
 70
     1
102
RTVSPost2010Prop57
140
1.0
102
RTVSPost2010PropOp57
 70
     1
102
RTVSPropertyOp0
 70
     1
102
RTVSPropertyOp1
 70
     1
102
RTVSPropertyOp2
 70
     1
102
RTVSPropertyOp3
 70
     1
102
RTVSPropertyOp4
 70
     1
102
RTVSPropertyOp5
 70
     1
102
RTVSPropertyOp6
 70
     1
102
RTVSPropertyOp7
 70
     1
102
RTVSPropertyOp8
 70
     1
102
RTVSPropertyOp9
 70
     1
102
RTVSPropertyOp10
 70
     1
102
RTVSPropertyOp11
 70
     1
102
RTVSPropertyOp12
 70
     1
102
RTVSPropertyOp13
 70
     1
102
RTVSPropertyOp14
 70
     1
102
RTVSPropertyOp15
 70
     1
102
RTVSPropertyOp16
 70
     1
102
RTVSPropertyOp17
 70
     1
102
RTVSPropertyOp18
 70
     1
102
RTVSPropertyOp19
 70
     1
102
RTVSPropertyOp20
 70
     1
102
RTVSPropertyOp21
 70
     1
102
RTVSPropertyOp22
 70
     1
102
RTVSPropertyOp23
 70
     1
102
RTVSPropertyOp24
 70
     1
102
RTVSPropertyOp25
 70
     1
102
RTVSPropertyOp26
 70
     1
102
RTVSPropertyOp27
 70
     1
102
RTVSPropertyOp28
 70
     1
102
RTVSPropertyOp29
 70
     1
102
RTVSPropertyOp30
 70
     1
102
RTVSPropertyOp31
 70
     1
102
RTVSPropertyOp32
 70
     1
102
RTVSPropertyOp33
 70
     1
102
RTVSPropertyOp34
 70
     1
102
RTVSPropertyOp35
 70
     1
102
RTVSPropertyOp36
 70
     1
102
RTVSPropertyOp37
 70
     1
102
RTVSPropertyOp38
 70
     1
102
RTVSPropertyOp39
 70
     1
102
RTVSPropertyOp40
 70
     1
102
RTVSPropertyOp41
 70
     1
102
RTVSPropertyOp42
 70
     1
102
RTVSPropertyOp43
 70
     1
102
RTVSPropertyOp44
 70
     1
102
RTVSPropertyOp45
 70
     1
102
RTVSPropertyOp46
 70
     1
102
RTVSPropertyOp47
 70
     1
102
RTVSPropertyOp48
 70
     1
102
RTVSPropertyOp49
 70
     1
102
RTVSPropertyOp50
 70
     1
102
RTVSPropertyOp51
 70
     0
102
RTVSPropertyOp52
 70
     0
102
RTVSPropertyOp53
 70
     1
102
RTVSPropertyOp54
 70
     1
102
RTVSPropertyOp55
 70
     1
102
RTVSPropertyOp56
 70
     1
102
RTVSPropertyOp57
 70
     1
102
RTVSPropertyOp58
 70
     1
102
RTVSPropertyOp59
 70
     1
102
RTVSPropertyOp60
 70
     1
102
RTVSPropertyOp61
 70
     1
102
RTVSPropertyOp62
 70
     1
  0
XRECORD
  5
2DAC
102
{ACAD_REACTORS
330
2DAB
102
}
330
2DAB
100
AcDbXrecord
280
     1
102
RTVSPost2010Prop28
280
     0
102
RTVSPost2010PropOp28
 70
     1
102
RTVSPost2010Prop29
280
     1
102
RTVSPost2010PropOp29
 70
     1
102
RTVSPost2010Prop30
280
     1
102
RTVSPost2010PropOp30
 70
     1
102
RTVSPost2010Prop31
280
     0
102
RTVSPost2010PropOp31
 70
     1
102
RTVSPost2010Prop32
280
     0
102
RTVSPost2010PropOp32
 70
     1
102
RTVSPost2010Prop33
280
     0
102
RTVSPost2010PropOp33
 70
     1
102
RTVSPost2010Prop34
280
     0
102
RTVSPost2010PropOp34
 70
     1
102
RTVSPost2010Prop35
280
     0
102
RTVSPost2010PropOp35
 70
     1
102
RTVSPost2010Prop36
280
     0
102
RTVSPost2010PropOp36
 70
     1
102
RTVSPost2010Prop37
 90
       50
102
RTVSPost2010PropOp37
 70
     1
102
RTVSPost2010Prop38
140
0.0
102
RTVSPost2010PropOp38
 70
     1
102
RTVSPost2010Prop39
140
1.0
102
RTVSPost2010PropOp39
 70
     1
102
RTVSPost2010Prop40
 90
        0
102
RTVSPost2010PropOp40
 70
     1
102
RTVSPost2010Prop41ColorIndex
 90
       18
102
RTVSPost2010Prop41ColorRGB
 90
        0
102
RTVSPost2010PropOp41
 70
     1
102
RTVSPost2010Prop42
 90
       50
102
RTVSPost2010PropOp42
 70
     1
102
RTVSPost2010Prop43
 90
        3
102
RTVSPost2010PropOp43
 70
     1
102
RTVSPost2010Prop44ColorIndex
 90
        5
102
RTVSPost2010Prop44ColorRGB
 90
      255
102
RTVSPost2010PropOp44
 70
     1
102
RTVSPost2010Prop45
280
     0
102
RTVSPost2010PropOp45
 70
     1
102
RTVSPost2010Prop46
 90
       50
102
RTVSPost2010PropOp46
 70
     1
102
RTVSPost2010Prop47
 90
       50
102
RTVSPost2010PropOp47
 70
     1
102
RTVSPost2010Prop48
 90
       50
102
RTVSPost2010PropOp48
 70
     1
102
RTVSPost2010Prop49
280
     0
102
RTVSPost2010PropOp49
 70
     1
102
RTVSPost2010Prop50
 90
       50
102
RTVSPost2010PropOp50
 70
     1
102
RTVSPost2010Prop51ColorIndex
 90
      256
102
RTVSPost2010Prop51ColorRGB
 90
-16777216
102
RTVSPost2010PropOp51
 70
     0
102
RTVSPost2010Prop52
140
1.0
102
RTVSPost2010PropOp52
 70
     0
102
RTVSPost2010Prop53
 90
        2
102
RTVSPost2010PropOp53
 70
     1
102
RTVSPost2010Prop54
  1
strokes_ogs.tif
102
RTVSPost2010PropOp54
 70
     1
102
RTVSPost2010Prop55
280
     0
102
RTVSPost2010PropOp55
 70
     1
102
RTVSPost2010Prop56
140
1.0
102
RTVSPost2010PropOp56
 70
     1
102
RTVSPost2010Prop57
140
1.0
102
RTVSPost2010PropOp57
 70
     1
102
RTVSPropertyOp0
 70
     1
102
RTVSPropertyOp1
 70
     1
102
RTVSPropertyOp2
 70
     1
102
RTVSPropertyOp3
 70
     1
102
RTVSPropertyOp4
 70
     1
102
RTVSPropertyOp5
 70
     1
102
RTVSPropertyOp6
 70
     1
102
RTVSPropertyOp7
 70
     1
102
RTVSPropertyOp8
 70
     1
102
RTVSPropertyOp9
 70
     1
102
RTVSPropertyOp10
 70
     1
102
RTVSPropertyOp11
 70
     1
102
RTVSPropertyOp12
 70
     1
102
RTVSPropertyOp13
 70
     1
102
RTVSPropertyOp14
 70
     1
102
RTVSPropertyOp15
 70
     1
102
RTVSPropertyOp16
 70
     1
102
RTVSPropertyOp17
 70
     1
102
RTVSPropertyOp18
 70
     1
102
RTVSPropertyOp19
 70
     1
102
RTVSPropertyOp20
 70
     1
102
RTVSPropertyOp21
 70
     1
102
RTVSPropertyOp22
 70
     1
102
RTVSPropertyOp23
 70
     1
102
RTVSPropertyOp24
 70
     1
102
RTVSPropertyOp25
 70
     1
102
RTVSPropertyOp26
 70
     1
102
RTVSPropertyOp27
 70
     1
102
RTVSPropertyOp28
 70
     1
102
RTVSPropertyOp29
 70
     1
102
RTVSPropertyOp30
 70
     1
102
RTVSPropertyOp31
 70
     1
102
RTVSPropertyOp32
 70
     1
102
RTVSPropertyOp33
 70
     1
102
RTVSPropertyOp34
 70
     1
102
RTVSPropertyOp35
 70
     1
102
RTVSPropertyOp36
 70
     1
102
RTVSPropertyOp37
 70
     1
102
RTVSPropertyOp38
 70
     1
102
RTVSPropertyOp39
 70
     1
102
RTVSPropertyOp40
 70
     1
102
RTVSPropertyOp41
 70
     1
102
RTVSPropertyOp42
 70
     1
102
RTVSPropertyOp43
 70
     1
102
RTVSPropertyOp44
 70
     1
102
RTVSPropertyOp45
 70
     1
102
RTVSPropertyOp46
 70
     1
102
RTVSPropertyOp47
 70
     1
102
RTVSPropertyOp48
 70
     1
102
RTVSPropertyOp49
 70
     1
102
RTVSPropertyOp50
 70
     1
102
RTVSPropertyOp51
 70
     0
102
RTVSPropertyOp52
 70
     0
102
RTVSPropertyOp53
 70
     1
102
RTVSPropertyOp54
 70
     1
102
RTVSPropertyOp55
 70
     1
102
RTVSPropertyOp56
 70
     1
102
RTVSPropertyOp57
 70
     1
102
RTVSPropertyOp58
 70
     1
102
RTVSPropertyOp59
 70
     1
102
RTVSPropertyOp60
 70
     1
102
RTVSPropertyOp61
 70
     1
102
RTVSPropertyOp62
 70
     1
  0
XRECORD
  5
2DA6
102
{ACAD_REACTORS
330
2DA5
102
}
330
2DA5
100
AcDbXrecord
280
     1
102
RTVSPost2010Prop28
280
     0
102
RTVSPost2010PropOp28
 70
     1
102
RTVSPost2010Prop29
280
     1
102
RTVSPost2010PropOp29
 70
     1
102
RTVSPost2010Prop30
280
     1
102
RTVSPost2010PropOp30
 70
     1
102
RTVSPost2010Prop31
280
     0
102
RTVSPost2010PropOp31
 70
     1
102
RTVSPost2010Prop32
280
     0
102
RTVSPost2010PropOp32
 70
     1
102
RTVSPost2010Prop33
280
     0
102
RTVSPost2010PropOp33
 70
     1
102
RTVSPost2010Prop34
280
     0
102
RTVSPost2010PropOp34
 70
     1
102
RTVSPost2010Prop35
280
     0
102
RTVSPost2010PropOp35
 70
     1
102
RTVSPost2010Prop36
280
     0
102
RTVSPost2010PropOp36
 70
     1
102
RTVSPost2010Prop37
 90
       50
102
RTVSPost2010PropOp37
 70
     1
102
RTVSPost2010Prop38
140
0.0
102
RTVSPost2010PropOp38
 70
     1
102
RTVSPost2010Prop39
140
1.0
102
RTVSPost2010PropOp39
 70
     1
102
RTVSPost2010Prop40
 90
        0
102
RTVSPost2010PropOp40
 70
     1
102
RTVSPost2010Prop41ColorIndex
 90
       18
102
RTVSPost2010Prop41ColorRGB
 90
        0
102
RTVSPost2010PropOp41
 70
     1
102
RTVSPost2010Prop42
 90
       50
102
RTVSPost2010PropOp42
 70
     1
102
RTVSPost2010Prop43
 90
        3
102
RTVSPost2010PropOp43
 70
     1
102
RTVSPost2010Prop44ColorIndex
 90
        5
102
RTVSPost2010Prop44ColorRGB
 90
      255
102
RTVSPost2010PropOp44
 70
     1
102
RTVSPost2010Prop45
280
     0
102
RTVSPost2010PropOp45
 70
     1
102
RTVSPost2010Prop46
 90
       50
102
RTVSPost2010PropOp46
 70
     1
102
RTVSPost2010Prop47
 90
       50
102
RTVSPost2010PropOp47
 70
     1
102
RTVSPost2010Prop48
 90
       50
102
RTVSPost2010PropOp48
 70
     1
102
RTVSPost2010Prop49
280
     0
102
RTVSPost2010PropOp49
 70
     1
102
RTVSPost2010Prop50
 90
       50
102
RTVSPost2010PropOp50
 70
     1
102
RTVSPost2010Prop51ColorIndex
 90
      256
102
RTVSPost2010Prop51ColorRGB
 90
-16777216
102
RTVSPost2010PropOp51
 70
     0
102
RTVSPost2010Prop52
140
1.0
102
RTVSPost2010PropOp52
 70
     0
102
RTVSPost2010Prop53
 90
        2
102
RTVSPost2010PropOp53
 70
     1
102
RTVSPost2010Prop54
  1
strokes_ogs.tif
102
RTVSPost2010PropOp54
 70
     1
102
RTVSPost2010Prop55
280
     0
102
RTVSPost2010PropOp55
 70
     1
102
RTVSPost2010Prop56
140
1.0
102
RTVSPost2010PropOp56
 70
     1
102
RTVSPost2010Prop57
140
1.0
102
RTVSPost2010PropOp57
 70
     1
102
RTVSPropertyOp0
 70
     1
102
RTVSPropertyOp1
 70
     1
102
RTVSPropertyOp2
 70
     1
102
RTVSPropertyOp3
 70
     1
102
RTVSPropertyOp4
 70
     1
102
RTVSPropertyOp5
 70
     1
102
RTVSPropertyOp6
 70
     1
102
RTVSPropertyOp7
 70
     1
102
RTVSPropertyOp8
 70
     1
102
RTVSPropertyOp9
 70
     1
102
RTVSPropertyOp10
 70
     1
102
RTVSPropertyOp11
 70
     1
102
RTVSPropertyOp12
 70
     1
102
RTVSPropertyOp13
 70
     1
102
RTVSPropertyOp14
 70
     1
102
RTVSPropertyOp15
 70
     1
102
RTVSPropertyOp16
 70
     1
102
RTVSPropertyOp17
 70
     1
102
RTVSPropertyOp18
 70
     1
102
RTVSPropertyOp19
 70
     1
102
RTVSPropertyOp20
 70
     1
102
RTVSPropertyOp21
 70
     1
102
RTVSPropertyOp22
 70
     1
102
RTVSPropertyOp23
 70
     1
102
RTVSPropertyOp24
 70
     1
102
RTVSPropertyOp25
 70
     1
102
RTVSPropertyOp26
 70
     1
102
RTVSPropertyOp27
 70
     1
102
RTVSPropertyOp28
 70
     1
102
RTVSPropertyOp29
 70
     1
102
RTVSPropertyOp30
 70
     1
102
RTVSPropertyOp31
 70
     1
102
RTVSPropertyOp32
 70
     1
102
RTVSPropertyOp33
 70
     1
102
RTVSPropertyOp34
 70
     1
102
RTVSPropertyOp35
 70
     1
102
RTVSPropertyOp36
 70
     1
102
RTVSPropertyOp37
 70
     1
102
RTVSPropertyOp38
 70
     1
102
RTVSPropertyOp39
 70
     1
102
RTVSPropertyOp40
 70
     1
102
RTVSPropertyOp41
 70
     1
102
RTVSPropertyOp42
 70
     1
102
RTVSPropertyOp43
 70
     1
102
RTVSPropertyOp44
 70
     1
102
RTVSPropertyOp45
 70
     1
102
RTVSPropertyOp46
 70
     1
102
RTVSPropertyOp47
 70
     1
102
RTVSPropertyOp48
 70
     1
102
RTVSPropertyOp49
 70
     1
102
RTVSPropertyOp50
 70
     1
102
RTVSPropertyOp51
 70
     0
102
RTVSPropertyOp52
 70
     0
102
RTVSPropertyOp53
 70
     1
102
RTVSPropertyOp54
 70
     1
102
RTVSPropertyOp55
 70
     1
102
RTVSPropertyOp56
 70
     1
102
RTVSPropertyOp57
 70
     1
102
RTVSPropertyOp58
 70
     1
102
RTVSPropertyOp59
 70
     1
102
RTVSPropertyOp60
 70
     1
102
RTVSPropertyOp61
 70
     1
102
RTVSPropertyOp62
 70
     1
  0
XRECORD
  5
2DA8
102
{ACAD_REACTORS
330
2DA7
102
}
330
2DA7
100
AcDbXrecord
280
     1
102
RTVSPost2010Prop28
280
     0
102
RTVSPost2010PropOp28
 70
     1
102
RTVSPost2010Prop29
280
     1
102
RTVSPost2010PropOp29
 70
     1
102
RTVSPost2010Prop30
280
     1
102
RTVSPost2010PropOp30
 70
     1
102
RTVSPost2010Prop31
280
     0
102
RTVSPost2010PropOp31
 70
     1
102
RTVSPost2010Prop32
280
     0
102
RTVSPost2010PropOp32
 70
     1
102
RTVSPost2010Prop33
280
     0
102
RTVSPost2010PropOp33
 70
     1
102
RTVSPost2010Prop34
280
     0
102
RTVSPost2010PropOp34
 70
     1
102
RTVSPost2010Prop35
280
     0
102
RTVSPost2010PropOp35
 70
     1
102
RTVSPost2010Prop36
280
     0
102
RTVSPost2010PropOp36
 70
     1
102
RTVSPost2010Prop37
 90
       50
102
RTVSPost2010PropOp37
 70
     1
102
RTVSPost2010Prop38
140
0.0
102
RTVSPost2010PropOp38
 70
     1
102
RTVSPost2010Prop39
140
1.0
102
RTVSPost2010PropOp39
 70
     1
102
RTVSPost2010Prop40
 90
        0
102
RTVSPost2010PropOp40
 70
     1
102
RTVSPost2010Prop41ColorIndex
 90
       18
102
RTVSPost2010Prop41ColorRGB
 90
        0
102
RTVSPost2010PropOp41
 70
     1
102
RTVSPost2010Prop42
 90
       50
102
RTVSPost2010PropOp42
 70
     1
102
RTVSPost2010Prop43
 90
        3
102
RTVSPost2010PropOp43
 70
     1
102
RTVSPost2010Prop44ColorIndex
 90
        5
102
RTVSPost2010Prop44ColorRGB
 90
      255
102
RTVSPost2010PropOp44
 70
     1
102
RTVSPost2010Prop45
280
     0
102
RTVSPost2010PropOp45
 70
     1
102
RTVSPost2010Prop46
 90
       50
102
RTVSPost2010PropOp46
 70
     1
102
RTVSPost2010Prop47
 90
       50
102
RTVSPost2010PropOp47
 70
     1
102
RTVSPost2010Prop48
 90
       50
102
RTVSPost2010PropOp48
 70
     1
102
RTVSPost2010Prop49
280
     0
102
RTVSPost2010PropOp49
 70
     1
102
RTVSPost2010Prop50
 90
       50
102
RTVSPost2010PropOp50
 70
     1
102
RTVSPost2010Prop51ColorIndex
 90
      256
102
RTVSPost2010Prop51ColorRGB
 90
-16777216
102
RTVSPost2010PropOp51
 70
     0
102
RTVSPost2010Prop52
140
1.0
102
RTVSPost2010PropOp52
 70
     0
102
RTVSPost2010Prop53
 90
        2
102
RTVSPost2010PropOp53
 70
     1
102
RTVSPost2010Prop54
  1
strokes_ogs.tif
102
RTVSPost2010PropOp54
 70
     1
102
RTVSPost2010Prop55
280
     0
102
RTVSPost2010PropOp55
 70
     1
102
RTVSPost2010Prop56
140
1.0
102
RTVSPost2010PropOp56
 70
     1
102
RTVSPost2010Prop57
140
1.0
102
RTVSPost2010PropOp57
 70
     1
102
RTVSPropertyOp0
 70
     1
102
RTVSPropertyOp1
 70
     1
102
RTVSPropertyOp2
 70
     1
102
RTVSPropertyOp3
 70
     1
102
RTVSPropertyOp4
 70
     1
102
RTVSPropertyOp5
 70
     1
102
RTVSPropertyOp6
 70
     1
102
RTVSPropertyOp7
 70
     1
102
RTVSPropertyOp8
 70
     1
102
RTVSPropertyOp9
 70
     1
102
RTVSPropertyOp10
 70
     1
102
RTVSPropertyOp11
 70
     1
102
RTVSPropertyOp12
 70
     1
102
RTVSPropertyOp13
 70
     1
102
RTVSPropertyOp14
 70
     1
102
RTVSPropertyOp15
 70
     1
102
RTVSPropertyOp16
 70
     1
102
RTVSPropertyOp17
 70
     1
102
RTVSPropertyOp18
 70
     1
102
RTVSPropertyOp19
 70
     1
102
RTVSPropertyOp20
 70
     1
102
RTVSPropertyOp21
 70
     1
102
RTVSPropertyOp22
 70
     1
102
RTVSPropertyOp23
 70
     1
102
RTVSPropertyOp24
 70
     1
102
RTVSPropertyOp25
 70
     1
102
RTVSPropertyOp26
 70
     1
102
RTVSPropertyOp27
 70
     1
102
RTVSPropertyOp28
 70
     1
102
RTVSPropertyOp29
 70
     1
102
RTVSPropertyOp30
 70
     1
102
RTVSPropertyOp31
 70
     1
102
RTVSPropertyOp32
 70
     1
102
RTVSPropertyOp33
 70
     1
102
RTVSPropertyOp34
 70
     1
102
RTVSPropertyOp35
 70
     1
102
RTVSPropertyOp36
 70
     1
102
RTVSPropertyOp37
 70
     1
102
RTVSPropertyOp38
 70
     1
102
RTVSPropertyOp39
 70
     1
102
RTVSPropertyOp40
 70
     1
102
RTVSPropertyOp41
 70
     1
102
RTVSPropertyOp42
 70
     1
102
RTVSPropertyOp43
 70
     1
102
RTVSPropertyOp44
 70
     1
102
RTVSPropertyOp45
 70
     1
102
RTVSPropertyOp46
 70
     1
102
RTVSPropertyOp47
 70
     1
102
RTVSPropertyOp48
 70
     1
102
RTVSPropertyOp49
 70
     1
102
RTVSPropertyOp50
 70
     1
102
RTVSPropertyOp51
 70
     0
102
RTVSPropertyOp52
 70
     0
102
RTVSPropertyOp53
 70
     1
102
RTVSPropertyOp54
 70
     1
102
RTVSPropertyOp55
 70
     1
102
RTVSPropertyOp56
 70
     1
102
RTVSPropertyOp57
 70
     1
102
RTVSPropertyOp58
 70
     1
102
RTVSPropertyOp59
 70
     1
102
RTVSPropertyOp60
 70
     1
102
RTVSPropertyOp61
 70
     1
102
RTVSPropertyOp62
 70
     1
  0
XRECORD
  5
2D9E
102
{ACAD_REACTORS
330
2D9D
102
}
330
2D9D
100
AcDbXrecord
280
     1
102
RTVSPost2010Prop28
280
     0
102
RTVSPost2010PropOp28
 70
     1
102
RTVSPost2010Prop29
280
     1
102
RTVSPost2010PropOp29
 70
     1
102
RTVSPost2010Prop30
280
     1
102
RTVSPost2010PropOp30
 70
     1
102
RTVSPost2010Prop31
280
     0
102
RTVSPost2010PropOp31
 70
     1
102
RTVSPost2010Prop32
280
     0
102
RTVSPost2010PropOp32
 70
     1
102
RTVSPost2010Prop33
280
     0
102
RTVSPost2010PropOp33
 70
     1
102
RTVSPost2010Prop34
280
     0
102
RTVSPost2010PropOp34
 70
     1
102
RTVSPost2010Prop35
280
     0
102
RTVSPost2010PropOp35
 70
     1
102
RTVSPost2010Prop36
280
     0
102
RTVSPost2010PropOp36
 70
     1
102
RTVSPost2010Prop37
 90
       50
102
RTVSPost2010PropOp37
 70
     1
102
RTVSPost2010Prop38
140
0.0
102
RTVSPost2010PropOp38
 70
     1
102
RTVSPost2010Prop39
140
1.0
102
RTVSPost2010PropOp39
 70
     1
102
RTVSPost2010Prop40
 90
        0
102
RTVSPost2010PropOp40
 70
     1
102
RTVSPost2010Prop41ColorIndex
 90
       18
102
RTVSPost2010Prop41ColorRGB
 90
        0
102
RTVSPost2010PropOp41
 70
     1
102
RTVSPost2010Prop42
 90
       50
102
RTVSPost2010PropOp42
 70
     1
102
RTVSPost2010Prop43
 90
        3
102
RTVSPost2010PropOp43
 70
     1
102
RTVSPost2010Prop44ColorIndex
 90
        5
102
RTVSPost2010Prop44ColorRGB
 90
      255
102
RTVSPost2010PropOp44
 70
     1
102
RTVSPost2010Prop45
280
     0
102
RTVSPost2010PropOp45
 70
     1
102
RTVSPost2010Prop46
 90
       50
102
RTVSPost2010PropOp46
 70
     1
102
RTVSPost2010Prop47
 90
       50
102
RTVSPost2010PropOp47
 70
     1
102
RTVSPost2010Prop48
 90
       50
102
RTVSPost2010PropOp48
 70
     1
102
RTVSPost2010Prop49
280
     0
102
RTVSPost2010PropOp49
 70
     1
102
RTVSPost2010Prop50
 90
       50
102
RTVSPost2010PropOp50
 70
     1
102
RTVSPost2010Prop51ColorIndex
 90
      256
102
RTVSPost2010Prop51ColorRGB
 90
-16777216
102
RTVSPost2010PropOp51
 70
     0
102
RTVSPost2010Prop52
140
1.0
102
RTVSPost2010PropOp52
 70
     0
102
RTVSPost2010Prop53
 90
        2
102
RTVSPost2010PropOp53
 70
     1
102
RTVSPost2010Prop54
  1
strokes_ogs.tif
102
RTVSPost2010PropOp54
 70
     1
102
RTVSPost2010Prop55
280
     0
102
RTVSPost2010PropOp55
 70
     1
102
RTVSPost2010Prop56
140
1.0
102
RTVSPost2010PropOp56
 70
     1
102
RTVSPost2010Prop57
140
1.0
102
RTVSPost2010PropOp57
 70
     1
102
RTVSPropertyOp0
 70
     1
102
RTVSPropertyOp1
 70
     1
102
RTVSPropertyOp2
 70
     1
102
RTVSPropertyOp3
 70
     1
102
RTVSPropertyOp4
 70
     1
102
RTVSPropertyOp5
 70
     1
102
RTVSPropertyOp6
 70
     1
102
RTVSPropertyOp7
 70
     1
102
RTVSPropertyOp8
 70
     1
102
RTVSPropertyOp9
 70
     1
102
RTVSPropertyOp10
 70
     1
102
RTVSPropertyOp11
 70
     1
102
RTVSPropertyOp12
 70
     1
102
RTVSPropertyOp13
 70
     1
102
RTVSPropertyOp14
 70
     1
102
RTVSPropertyOp15
 70
     1
102
RTVSPropertyOp16
 70
     1
102
RTVSPropertyOp17
 70
     1
102
RTVSPropertyOp18
 70
     1
102
RTVSPropertyOp19
 70
     1
102
RTVSPropertyOp20
 70
     1
102
RTVSPropertyOp21
 70
     1
102
RTVSPropertyOp22
 70
     1
102
RTVSPropertyOp23
 70
     1
102
RTVSPropertyOp24
 70
     1
102
RTVSPropertyOp25
 70
     1
102
RTVSPropertyOp26
 70
     1
102
RTVSPropertyOp27
 70
     1
102
RTVSPropertyOp28
 70
     1
102
RTVSPropertyOp29
 70
     1
102
RTVSPropertyOp30
 70
     1
102
RTVSPropertyOp31
 70
     1
102
RTVSPropertyOp32
 70
     1
102
RTVSPropertyOp33
 70
     1
102
RTVSPropertyOp34
 70
     1
102
RTVSPropertyOp35
 70
     1
102
RTVSPropertyOp36
 70
     1
102
RTVSPropertyOp37
 70
     1
102
RTVSPropertyOp38
 70
     1
102
RTVSPropertyOp39
 70
     1
102
RTVSPropertyOp40
 70
     1
102
RTVSPropertyOp41
 70
     1
102
RTVSPropertyOp42
 70
     1
102
RTVSPropertyOp43
 70
     1
102
RTVSPropertyOp44
 70
     1
102
RTVSPropertyOp45
 70
     1
102
RTVSPropertyOp46
 70
     1
102
RTVSPropertyOp47
 70
     1
102
RTVSPropertyOp48
 70
     1
102
RTVSPropertyOp49
 70
     1
102
RTVSPropertyOp50
 70
     1
102
RTVSPropertyOp51
 70
     0
102
RTVSPropertyOp52
 70
     0
102
RTVSPropertyOp53
 70
     1
102
RTVSPropertyOp54
 70
     1
102
RTVSPropertyOp55
 70
     1
102
RTVSPropertyOp56
 70
     1
102
RTVSPropertyOp57
 70
     1
102
RTVSPropertyOp58
 70
     1
102
RTVSPropertyOp59
 70
     1
102
RTVSPropertyOp60
 70
     1
102
RTVSPropertyOp61
 70
     1
102
RTVSPropertyOp62
 70
     1
  0
XRECORD
  5
2D92
102
{ACAD_REACTORS
330
2D91
102
}
330
2D91
100
AcDbXrecord
280
     1
102
RTVSPost2010Prop28
280
     0
102
RTVSPost2010PropOp28
 70
     1
102
RTVSPost2010Prop29
280
     1
102
RTVSPost2010PropOp29
 70
     1
102
RTVSPost2010Prop30
280
     1
102
RTVSPost2010PropOp30
 70
     1
102
RTVSPost2010Prop31
280
     0
102
RTVSPost2010PropOp31
 70
     1
102
RTVSPost2010Prop32
280
     0
102
RTVSPost2010PropOp32
 70
     1
102
RTVSPost2010Prop33
280
     0
102
RTVSPost2010PropOp33
 70
     1
102
RTVSPost2010Prop34
280
     0
102
RTVSPost2010PropOp34
 70
     1
102
RTVSPost2010Prop35
280
     0
102
RTVSPost2010PropOp35
 70
     1
102
RTVSPost2010Prop36
280
     0
102
RTVSPost2010PropOp36
 70
     1
102
RTVSPost2010Prop37
 90
       50
102
RTVSPost2010PropOp37
 70
     1
102
RTVSPost2010Prop38
140
0.0
102
RTVSPost2010PropOp38
 70
     1
102
RTVSPost2010Prop39
140
1.0
102
RTVSPost2010PropOp39
 70
     1
102
RTVSPost2010Prop40
 90
        0
102
RTVSPost2010PropOp40
 70
     1
102
RTVSPost2010Prop41ColorIndex
 90
       18
102
RTVSPost2010Prop41ColorRGB
 90
        0
102
RTVSPost2010PropOp41
 70
     1
102
RTVSPost2010Prop42
 90
       50
102
RTVSPost2010PropOp42
 70
     1
102
RTVSPost2010Prop43
 90
        3
102
RTVSPost2010PropOp43
 70
     1
102
RTVSPost2010Prop44ColorIndex
 90
        5
102
RTVSPost2010Prop44ColorRGB
 90
      255
102
RTVSPost2010PropOp44
 70
     1
102
RTVSPost2010Prop45
280
     0
102
RTVSPost2010PropOp45
 70
     1
102
RTVSPost2010Prop46
 90
       50
102
RTVSPost2010PropOp46
 70
     1
102
RTVSPost2010Prop47
 90
       50
102
RTVSPost2010PropOp47
 70
     1
102
RTVSPost2010Prop48
 90
       50
102
RTVSPost2010PropOp48
 70
     1
102
RTVSPost2010Prop49
280
     0
102
RTVSPost2010PropOp49
 70
     1
102
RTVSPost2010Prop50
 90
       50
102
RTVSPost2010PropOp50
 70
     1
102
RTVSPost2010Prop51ColorIndex
 90
      256
102
RTVSPost2010Prop51ColorRGB
 90
-16777216
102
RTVSPost2010PropOp51
 70
     0
102
RTVSPost2010Prop52
140
1.0
102
RTVSPost2010PropOp52
 70
     0
102
RTVSPost2010Prop53
 90
        2
102
RTVSPost2010PropOp53
 70
     1
102
RTVSPost2010Prop54
  1
strokes_ogs.tif
102
RTVSPost2010PropOp54
 70
     1
102
RTVSPost2010Prop55
280
     0
102
RTVSPost2010PropOp55
 70
     1
102
RTVSPost2010Prop56
140
1.0
102
RTVSPost2010PropOp56
 70
     1
102
RTVSPost2010Prop57
140
1.0
102
RTVSPost2010PropOp57
 70
     1
102
RTVSPropertyOp0
 70
     1
102
RTVSPropertyOp1
 70
     1
102
RTVSPropertyOp2
 70
     1
102
RTVSPropertyOp3
 70
     1
102
RTVSPropertyOp4
 70
     1
102
RTVSPropertyOp5
 70
     1
102
RTVSPropertyOp6
 70
     1
102
RTVSPropertyOp7
 70
     1
102
RTVSPropertyOp8
 70
     1
102
RTVSPropertyOp9
 70
     1
102
RTVSPropertyOp10
 70
     1
102
RTVSPropertyOp11
 70
     1
102
RTVSPropertyOp12
 70
     1
102
RTVSPropertyOp13
 70
     1
102
RTVSPropertyOp14
 70
     1
102
RTVSPropertyOp15
 70
     1
102
RTVSPropertyOp16
 70
     1
102
RTVSPropertyOp17
 70
     1
102
RTVSPropertyOp18
 70
     1
102
RTVSPropertyOp19
 70
     1
102
RTVSPropertyOp20
 70
     1
102
RTVSPropertyOp21
 70
     1
102
RTVSPropertyOp22
 70
     1
102
RTVSPropertyOp23
 70
     1
102
RTVSPropertyOp24
 70
     1
102
RTVSPropertyOp25
 70
     1
102
RTVSPropertyOp26
 70
     1
102
RTVSPropertyOp27
 70
     1
102
RTVSPropertyOp28
 70
     1
102
RTVSPropertyOp29
 70
     1
102
RTVSPropertyOp30
 70
     1
102
RTVSPropertyOp31
 70
     1
102
RTVSPropertyOp32
 70
     1
102
RTVSPropertyOp33
 70
     1
102
RTVSPropertyOp34
 70
     1
102
RTVSPropertyOp35
 70
     1
102
RTVSPropertyOp36
 70
     1
102
RTVSPropertyOp37
 70
     1
102
RTVSPropertyOp38
 70
     1
102
RTVSPropertyOp39
 70
     1
102
RTVSPropertyOp40
 70
     1
102
RTVSPropertyOp41
 70
     1
102
RTVSPropertyOp42
 70
     1
102
RTVSPropertyOp43
 70
     1
102
RTVSPropertyOp44
 70
     1
102
RTVSPropertyOp45
 70
     1
102
RTVSPropertyOp46
 70
     1
102
RTVSPropertyOp47
 70
     1
102
RTVSPropertyOp48
 70
     1
102
RTVSPropertyOp49
 70
     1
102
RTVSPropertyOp50
 70
     1
102
RTVSPropertyOp51
 70
     0
102
RTVSPropertyOp52
 70
     0
102
RTVSPropertyOp53
 70
     1
102
RTVSPropertyOp54
 70
     1
102
RTVSPropertyOp55
 70
     1
102
RTVSPropertyOp56
 70
     1
102
RTVSPropertyOp57
 70
     1
102
RTVSPropertyOp58
 70
     1
102
RTVSPropertyOp59
 70
     1
102
RTVSPropertyOp60
 70
     1
102
RTVSPropertyOp61
 70
     1
102
RTVSPropertyOp62
 70
     1
  0
XRECORD
  5
2DAA
102
{ACAD_REACTORS
330
2DA9
102
}
330
2DA9
100
AcDbXrecord
280
     1
102
RTVSPost2010Prop28
280
     0
102
RTVSPost2010PropOp28
 70
     1
102
RTVSPost2010Prop29
280
     1
102
RTVSPost2010PropOp29
 70
     1
102
RTVSPost2010Prop30
280
     1
102
RTVSPost2010PropOp30
 70
     1
102
RTVSPost2010Prop31
280
     0
102
RTVSPost2010PropOp31
 70
     1
102
RTVSPost2010Prop32
280
     0
102
RTVSPost2010PropOp32
 70
     1
102
RTVSPost2010Prop33
280
     0
102
RTVSPost2010PropOp33
 70
     1
102
RTVSPost2010Prop34
280
     0
102
RTVSPost2010PropOp34
 70
     1
102
RTVSPost2010Prop35
280
     0
102
RTVSPost2010PropOp35
 70
     1
102
RTVSPost2010Prop36
280
     0
102
RTVSPost2010PropOp36
 70
     1
102
RTVSPost2010Prop37
 90
       50
102
RTVSPost2010PropOp37
 70
     1
102
RTVSPost2010Prop38
140
0.0
102
RTVSPost2010PropOp38
 70
     1
102
RTVSPost2010Prop39
140
1.0
102
RTVSPost2010PropOp39
 70
     1
102
RTVSPost2010Prop40
 90
        0
102
RTVSPost2010PropOp40
 70
     1
102
RTVSPost2010Prop41ColorIndex
 90
       18
102
RTVSPost2010Prop41ColorRGB
 90
        0
102
RTVSPost2010PropOp41
 70
     1
102
RTVSPost2010Prop42
 90
       50
102
RTVSPost2010PropOp42
 70
     1
102
RTVSPost2010Prop43
 90
        3
102
RTVSPost2010PropOp43
 70
     1
102
RTVSPost2010Prop44ColorIndex
 90
        5
102
RTVSPost2010Prop44ColorRGB
 90
      255
102
RTVSPost2010PropOp44
 70
     1
102
RTVSPost2010Prop45
280
     0
102
RTVSPost2010PropOp45
 70
     1
102
RTVSPost2010Prop46
 90
       50
102
RTVSPost2010PropOp46
 70
     1
102
RTVSPost2010Prop47
 90
       50
102
RTVSPost2010PropOp47
 70
     1
102
RTVSPost2010Prop48
 90
       50
102
RTVSPost2010PropOp48
 70
     1
102
RTVSPost2010Prop49
280
     0
102
RTVSPost2010PropOp49
 70
     1
102
RTVSPost2010Prop50
 90
       50
102
RTVSPost2010PropOp50
 70
     1
102
RTVSPost2010Prop51ColorIndex
 90
      256
102
RTVSPost2010Prop51ColorRGB
 90
-16777216
102
RTVSPost2010PropOp51
 70
     0
102
RTVSPost2010Prop52
140
1.0
102
RTVSPost2010PropOp52
 70
     0
102
RTVSPost2010Prop53
 90
        2
102
RTVSPost2010PropOp53
 70
     1
102
RTVSPost2010Prop54
  1
strokes_ogs.tif
102
RTVSPost2010PropOp54
 70
     1
102
RTVSPost2010Prop55
280
     0
102
RTVSPost2010PropOp55
 70
     1
102
RTVSPost2010Prop56
140
1.0
102
RTVSPost2010PropOp56
 70
     1
102
RTVSPost2010Prop57
140
1.0
102
RTVSPost2010PropOp57
 70
     1
102
RTVSPropertyOp0
 70
     1
102
RTVSPropertyOp1
 70
     1
102
RTVSPropertyOp2
 70
     1
102
RTVSPropertyOp3
 70
     1
102
RTVSPropertyOp4
 70
     1
102
RTVSPropertyOp5
 70
     1
102
RTVSPropertyOp6
 70
     1
102
RTVSPropertyOp7
 70
     1
102
RTVSPropertyOp8
 70
     1
102
RTVSPropertyOp9
 70
     1
102
RTVSPropertyOp10
 70
     1
102
RTVSPropertyOp11
 70
     1
102
RTVSPropertyOp12
 70
     1
102
RTVSPropertyOp13
 70
     1
102
RTVSPropertyOp14
 70
     1
102
RTVSPropertyOp15
 70
     1
102
RTVSPropertyOp16
 70
     1
102
RTVSPropertyOp17
 70
     1
102
RTVSPropertyOp18
 70
     1
102
RTVSPropertyOp19
 70
     1
102
RTVSPropertyOp20
 70
     1
102
RTVSPropertyOp21
 70
     1
102
RTVSPropertyOp22
 70
     1
102
RTVSPropertyOp23
 70
     1
102
RTVSPropertyOp24
 70
     1
102
RTVSPropertyOp25
 70
     1
102
RTVSPropertyOp26
 70
     1
102
RTVSPropertyOp27
 70
     1
102
RTVSPropertyOp28
 70
     1
102
RTVSPropertyOp29
 70
     1
102
RTVSPropertyOp30
 70
     1
102
RTVSPropertyOp31
 70
     1
102
RTVSPropertyOp32
 70
     1
102
RTVSPropertyOp33
 70
     1
102
RTVSPropertyOp34
 70
     1
102
RTVSPropertyOp35
 70
     1
102
RTVSPropertyOp36
 70
     1
102
RTVSPropertyOp37
 70
     1
102
RTVSPropertyOp38
 70
     1
102
RTVSPropertyOp39
 70
     1
102
RTVSPropertyOp40
 70
     1
102
RTVSPropertyOp41
 70
     1
102
RTVSPropertyOp42
 70
     1
102
RTVSPropertyOp43
 70
     1
102
RTVSPropertyOp44
 70
     1
102
RTVSPropertyOp45
 70
     1
102
RTVSPropertyOp46
 70
     1
102
RTVSPropertyOp47
 70
     1
102
RTVSPropertyOp48
 70
     1
102
RTVSPropertyOp49
 70
     1
102
RTVSPropertyOp50
 70
     1
102
RTVSPropertyOp51
 70
     0
102
RTVSPropertyOp52
 70
     0
102
RTVSPropertyOp53
 70
     1
102
RTVSPropertyOp54
 70
     1
102
RTVSPropertyOp55
 70
     1
102
RTVSPropertyOp56
 70
     1
102
RTVSPropertyOp57
 70
     1
102
RTVSPropertyOp58
 70
     1
102
RTVSPropertyOp59
 70
     1
102
RTVSPropertyOp60
 70
     1
102
RTVSPropertyOp61
 70
     1
102
RTVSPropertyOp62
 70
     1
  0
ENDSEC
  0
EOF
