  0
SECTION
  2
HEADER
  9
$ACADVER
  1
AC1015
  9
$ACADMAINTVER
 70
    20
  9
$DWGCODEPAGE
  3
ANSI_932
  9
$INSBASE
 10
0.0
 20
0.0
 30
0.0
  9
$EXTMIN
 10
9.9999975266385
 20
10.0
 30
0.0
  9
$EXTMAX
 10
488.2577278818295
 20
333.1415650070525
 30
0.0
  9
$LIMMIN
 10
0.0000015376081137
 20
-0.0000001931532552
  9
$LIMMAX
 10
515.0000015376082
 20
355.0378785947253
  9
$ORTHOMODE
 70
     1
  9
$REGENMODE
 70
     1
  9
$FILLMODE
 70
     1
  9
$QTEXTMODE
 70
     0
  9
$MIRRTEXT
 70
     1
  9
$LTSCALE
 40
1.0
  9
$ATTMODE
 70
     1
  9
$TEXTSIZE
 40
2.5
  9
$TRACEWID
 40
1.0
  9
$TEXTSTYLE
  7
STANDARD
  9
$CLAYER
  8
0
  9
$CELTYPE
  6
BYLAYER
  9
$CECOLOR
 62
   256
  9
$CELTSCALE
 40
1.0
  9
$DISPSILH
 70
     0
  9
$DIMSCALE
 40
1.0
  9
$DIMASZ
 40
3.0
  9
$DIMEXO
 40
1.0
  9
$DIMDLI
 40
10.0
  9
$DIMRND
 40
0.0
  9
$DIMDLE
 40
0.0
  9
$DIMEXE
 40
1.0
  9
$DIMTP
 40
0.0
  9
$DIMTM
 40
0.0
  9
$DIMTXT
 40
3.2
  9
$DIMCEN
 40
0.0
  9
$DIMTSZ
 40
0.0
  9
$DIMTOL
 70
     0
  9
$DIMLIM
 70
     0
  9
$DIMTIH
 70
     0
  9
$DIMTOH
 70
     0
  9
$DIMSE1
 70
     0
  9
$DIMSE2
 70
     0
  9
$DIMTAD
 70
     3
  9
$DIMZIN
 70
     8
  9
$DIMBLK
  1

  9
$DIMASO
 70
     1
  9
$DIMSHO
 70
     1
  9
$DIMPOST
  1

  9
$DIMAPOST
  1

  9
$DIMALT
 70
     0
  9
$DIMALTD
 70
     2
  9
$DIMALTF
 40
25.4
  9
$DIMLFAC
 40
1.0
  9
$DIMTOFL
 70
     1
  9
$DIMTVP
 40
0.0
  9
$DIMTIX
 70
     0
  9
$DIMSOXD
 70
     0
  9
$DIMSAH
 70
     1
  9
$DIMBLK1
  1
OPEN
  9
$DIMBLK2
  1
OPEN
  9
$DIMSTYLE
  2
STANDARD
  9
$DIMCLRD
 70
     0
  9
$DIMCLRE
 70
     0
  9
$DIMCLRT
 70
     0
  9
$DIMTFAC
 40
1.0
  9
$DIMGAP
 40
1.0
  9
$DIMJUST
 70
     0
  9
$DIMSD1
 70
     0
  9
$DIMSD2
 70
     0
  9
$DIMTOLJ
 70
     1
  9
$DIMTZIN
 70
     0
  9
$DIMALTZ
 70
     0
  9
$DIMALTTZ
 70
     0
  9
$DIMUPT
 70
     0
  9
$DIMDEC
 70
     4
  9
$DIMTDEC
 70
     4
  9
$DIMALTU
 70
     2
  9
$DIMALTTD
 70
     2
  9
$DIMTXSTY
  7
STANDARD
  9
$DIMAUNIT
 70
     0
  9
$DIMADEC
 70
     0
  9
$DIMALTRND
 40
0.0
  9
$DIMAZIN
 70
     0
  9
$DIMDSEP
 70
    46
  9
$DIMATFIT
 70
     3
  9
$DIMFRAC
 70
     0
  9
$DIMLDRBLK
  1
OPEN
  9
$DIMLUNIT
 70
     2
  9
$DIMLWD
 70
    -2
  9
$DIMLWE
 70
    -2
  9
$DIMTMOVE
 70
     0
  9
$LUNITS
 70
     2
  9
$LUPREC
 70
     4
  9
$SKETCHINC
 40
1.0
  9
$FILLETRAD
 40
0.0
  9
$AUNITS
 70
     0
  9
$AUPREC
 70
     0
  9
$MENU
  1
.
  9
$ELEVATION
 40
0.0
  9
$PELEVATION
 40
0.0
  9
$THICKNESS
 40
0.0
  9
$LIMCHECK
 70
     0
  9
$CHAMFERA
 40
10.0
  9
$CHAMFERB
 40
10.0
  9
$CHAMFERC
 40
0.0
  9
$CHAMFERD
 40
0.0
  9
$SKPOLY
 70
     0
  9
$TDCREATE
 40
2452264.488287211
  9
$TDUCREATE
 40
2452264.113287211
  9
$TDUPDATE
 40
2457192.700770810
  9
$TDUUPDATE
 40
2457192.325770810
  9
$TDINDWG
 40
0.1095884028
  9
$TDUSRTIMER
 40
0.1095875694
  9
$USRTIMER
 70
     1
  9
$ANGBASE
 50
0.0
  9
$ANGDIR
 70
     0
  9
$PDMODE
 70
     0
  9
$PDSIZE
 40
0.0
  9
$PLINEWID
 40
0.0
  9
$SPLFRAME
 70
     0
  9
$SPLINETYPE
 70
     6
  9
$SPLINESEGS
 70
     8
  9
$HANDSEED
  5
123D
  9
$SURFTAB1
 70
     6
  9
$SURFTAB2
 70
     6
  9
$SURFTYPE
 70
     6
  9
$SURFU
 70
     6
  9
$SURFV
 70
     6
  9
$UCSBASE
  2

  9
$UCSNAME
  2

  9
$UCSORG
 10
0.0
 20
0.0
 30
0.0
  9
$UCSXDIR
 10
1.0
 20
0.0
 30
0.0
  9
$UCSYDIR
 10
0.0
 20
1.0
 30
0.0
  9
$UCSORTHOREF
  2

  9
$UCSORTHOVIEW
 70
     0
  9
$UCSORGTOP
 10
0.0
 20
0.0
 30
0.0
  9
$UCSORGBOTTOM
 10
0.0
 20
0.0
 30
0.0
  9
$UCSORGLEFT
 10
0.0
 20
0.0
 30
0.0
  9
$UCSORGRIGHT
 10
0.0
 20
0.0
 30
0.0
  9
$UCSORGFRONT
 10
0.0
 20
0.0
 30
0.0
  9
$UCSORGBACK
 10
0.0
 20
0.0
 30
0.0
  9
$PUCSBASE
  2

  9
$PUCSNAME
  2

  9
$PUCSORG
 10
0.0
 20
0.0
 30
0.0
  9
$PUCSXDIR
 10
1.0
 20
0.0
 30
0.0
  9
$PUCSYDIR
 10
0.0
 20
1.0
 30
0.0
  9
$PUCSORTHOREF
  2

  9
$PUCSORTHOVIEW
 70
     0
  9
$PUCSORGTOP
 10
0.0
 20
0.0
 30
0.0
  9
$PUCSORGBOTTOM
 10
0.0
 20
0.0
 30
0.0
  9
$PUCSORGLEFT
 10
0.0
 20
0.0
 30
0.0
  9
$PUCSORGRIGHT
 10
0.0
 20
0.0
 30
0.0
  9
$PUCSORGFRONT
 10
0.0
 20
0.0
 30
0.0
  9
$PUCSORGBACK
 10
0.0
 20
0.0
 30
0.0
  9
$USERI1
 70
     0
  9
$USERI2
 70
     0
  9
$USERI3
 70
     0
  9
$USERI4
 70
     0
  9
$USERI5
 70
     0
  9
$USERR1
 40
0.0
  9
$USERR2
 40
0.0
  9
$USERR3
 40
0.0
  9
$USERR4
 40
0.0
  9
$USERR5
 40
0.0
  9
$WORLDVIEW
 70
     1
  9
$SHADEDGE
 70
     3
  9
$SHADEDIF
 70
    70
  9
$TILEMODE
 70
     1
  9
$MAXACTVP
 70
    48
  9
$PINSBASE
 10
0.0
 20
0.0
 30
0.0
  9
$PLIMCHECK
 70
     0
  9
$PEXTMIN
 10
1.000000000000000E+20
 20
1.000000000000000E+20
 30
1.000000000000000E+20
  9
$PEXTMAX
 10
-1.000000000000000E+20
 20
-1.000000000000000E+20
 30
-1.000000000000000E+20
  9
$PLIMMIN
 10
0.0
 20
0.0
  9
$PLIMMAX
 10
420.0
 20
297.0
  9
$UNITMODE
 70
     0
  9
$VISRETAIN
 70
     1
  9
$PLINEGEN
 70
     0
  9
$PSLTSCALE
 70
     1
  9
$TREEDEPTH
 70
  3020
  9
$CMLSTYLE
  2
STANDARD
  9
$CMLJUST
 70
     0
  9
$CMLSCALE
 40
1.0
  9
$PROXYGRAPHICS
 70
     1
  9
$MEASUREMENT
 70
     0
  9
$CELWEIGHT
370
    -1
  9
$ENDCAPS
280
     0
  9
$JOINSTYLE
280
     0
  9
$LWDISPLAY
290
     0
  9
$INSUNITS
 70
     0
  9
$HYPERLINKBASE
  1

  9
$STYLESHEET
  1

  9
$XEDIT
290
     1
  9
$CEPSNTYPE
380
     0
  9
$PSTYLEMODE
290
     1
  9
$FINGERPRINTGUID
  2
{6DEB292B-02D9-4DBA-B8B6-19DEDBCEFB8C}
  9
$VERSIONGUID
  2
{18CF82CB-73BE-40AD-95AF-11DDB6296222}
  9
$EXTNAMES
290
     1
  9
$PSVPSCALE
 40
0.0
  9
$OLESTARTUP
290
     0
  0
ENDSEC
  0
SECTION
  2
CLASSES
  0
CLASS
  1
ACDBDICTIONARYWDFLT
  2
AcDbDictionaryWithDefault
  3
ObjectDBX Classes
 90
        0
280
     0
281
     0
  0
CLASS
  1
ACDBPLACEHOLDER
  2
AcDbPlaceHolder
  3
ObjectDBX Classes
 90
        0
280
     0
281
     0
  0
CLASS
  1
LAYOUT
  2
AcDbLayout
  3
ObjectDBX Classes
 90
        0
280
     0
281
     0
  0
CLASS
  1
DICTIONARYVAR
  2
AcDbDictionaryVar
  3
ObjectDBX Classes
 90
        0
280
     0
281
     0
  0
CLASS
  1
MATERIAL
  2
AcDbMaterial
  3
ObjectDBX Classes
 90
     1153
280
     0
281
     0
  0
CLASS
  1
VISUALSTYLE
  2
AcDbVisualStyle
  3
ObjectDBX Classes
 90
     4095
280
     0
281
     0
  0
CLASS
  1
TABLESTYLE
  2
AcDbTableStyle
  3
ObjectDBX Classes
 90
     4095
280
     0
281
     0
  0
CLASS
  1
SCALE
  2
AcDbScale
  3
ObjectDBX Classes
 90
     1153
280
     0
281
     0
  0
CLASS
  1
MLEADERSTYLE
  2
AcDbMLeaderStyle
  3
ACDB_MLEADERSTYLE_CLASS
 90
     4095
280
     0
281
     0
  0
CLASS
  1
ACDBSECTIONVIEWSTYLE
  2
AcDbSectionViewStyle
  3
ObjectDBX Classes
 90
     1025
280
     0
281
     0
  0
CLASS
  1
ACDBDETAILVIEWSTYLE
  2
AcDbDetailViewStyle
  3
ObjectDBX Classes
 90
     1025
280
     0
281
     0
  0
CLASS
  1
CELLSTYLEMAP
  2
AcDbCellStyleMap
  3
ObjectDBX Classes
 90
     1152
280
     0
281
     0
  0
ENDSEC
  0
SECTION
  2
TABLES
  0
TABLE
  2
VPORT
  5
EA7
330
0
100
AcDbSymbolTable
 70
     1
  0
VPORT
  5
1187
330
EA7
100
AcDbSymbolTableRecord
100
AcDbViewportTableRecord
  2
*ACTIVE
 70
     0
 10
0.0
 20
0.0
 11
1.0
 21
1.0
 12
347.184734406828
 22
171.8847939951773
 13
0.0
 23
0.0
 14
10.0
 24
10.0
 15
10.0
 25
10.0
 16
0.0
 26
0.0
 36
1.0
 17
0.0
 27
0.0
 37
0.0
 40
327.3787831964312
 41
2.35006605019815
 42
50.0
 43
0.0
 44
0.0
 50
0.0
 51
0.0
 71
     0
 72
   100
 73
     1
 74
     0
 75
     0
 76
     0
 77
     0
 78
     0
281
     0
 65
     1
110
0.0
120
0.0
130
0.0
111
1.0
121
0.0
131
0.0
112
0.0
122
1.0
132
0.0
 79
     0
146
0.0
1001
ACAD_NAV_VCDISPLAY
1070
     3
  0
ENDTAB
  0
TABLE
  2
LTYPE
  5
EA4
330
0
100
AcDbSymbolTable
 70
     4
  0
LTYPE
  5
EB2
330
EA4
100
AcDbSymbolTableRecord
100
AcDbLinetypeTableRecord
  2
BYBLOCK
 70
     0
  3

 72
    65
 73
     0
 40
0.0
  0
LTYPE
  5
EB3
330
EA4
100
AcDbSymbolTableRecord
100
AcDbLinetypeTableRecord
  2
BYLAYER
 70
     0
  3

 72
    65
 73
     0
 40
0.0
  0
LTYPE
  5
EB4
330
EA4
100
AcDbSymbolTableRecord
100
AcDbLinetypeTableRecord
  2
CONTINUOUS
 70
     0
  3
Solid line
 72
    65
 73
     0
 40
0.0
  0
LTYPE
  5
EC2
330
EA4
100
AcDbSymbolTableRecord
100
AcDbLinetypeTableRecord
  2
DASHED
 70
     0
  3
Dashed __ __ __ __ __ __ __ __ __ __ __ __ __ _
 72
    65
 73
     2
 40
19.04999999999997
 49
12.7
 74
     0
 49
-6.349999999999997
 74
     0
  0
LTYPE
  5
EC3
330
EA4
100
AcDbSymbolTableRecord
100
AcDbLinetypeTableRecord
  2
CENTER
 70
     0
  3
Center ____ _ ____ _ ____ _ ____ _ ____ _ ____
 72
    65
 73
     4
 40
50.8
 49
31.75
 74
     0
 49
-6.349999999999997
 74
     0
 49
6.349999999999997
 74
     0
 49
-6.349999999999997
 74
     0
  0
LTYPE
  5
EC4
330
EA4
100
AcDbSymbolTableRecord
100
AcDbLinetypeTableRecord
  2
PHANTOM
 70
     0
  3
Phantom ______  __  __  ______  __  __  ______
 72
    65
 73
     6
 40
63.5
 49
31.75
 74
     0
 49
-6.349999999999997
 74
     0
 49
6.349999999999997
 74
     0
 49
-6.349999999999997
 74
     0
 49
6.349999999999997
 74
     0
 49
-6.349999999999997
 74
     0
  0
ENDTAB
  0
TABLE
  2
LAYER
  5
EA1
330
0
100
AcDbSymbolTable
 70
     8
  0
LAYER
  5
EAF
102
{ACAD_XDICTIONARY
360
11E1
102
}
330
EA1
100
AcDbSymbolTableRecord
100
AcDbLayerTableRecord
  2
0
 70
     0
 62
     7
  6
CONTINUOUS
370
    -3
390
1190
  0
LAYER
  5
EC5
102
{ACAD_XDICTIONARY
360
11E3
102
}
330
EA1
100
AcDbSymbolTableRecord
100
AcDbLayerTableRecord
  2
4
 70
     0
 62
     1
  6
CENTER
370
    -3
390
1190
  0
LAYER
  5
EC6
102
{ACAD_XDICTIONARY
360
11E5
102
}
330
EA1
100
AcDbSymbolTableRecord
100
AcDbLayerTableRecord
  2
5
 70
     0
 62
     6
  6
PHANTOM
370
    -3
390
1190
  0
LAYER
  5
EC7
102
{ACAD_XDICTIONARY
360
11E7
102
}
330
EA1
100
AcDbSymbolTableRecord
100
AcDbLayerTableRecord
  2
1
 70
     0
 62
     7
  6
CONTINUOUS
370
    -3
390
1190
  0
LAYER
  5
EC8
102
{ACAD_XDICTIONARY
360
11E9
102
}
330
EA1
100
AcDbSymbolTableRecord
100
AcDbLayerTableRecord
  2
2
 70
     0
 62
     4
  6
CONTINUOUS
370
    -3
390
1190
  0
LAYER
  5
EC9
102
{ACAD_XDICTIONARY
360
11EB
102
}
330
EA1
100
AcDbSymbolTableRecord
100
AcDbLayerTableRecord
  2
3
 70
     0
 62
     2
  6
DASHED
370
    -3
390
1190
  0
LAYER
  5
ECA
102
{ACAD_XDICTIONARY
360
11ED
102
}
330
EA1
100
AcDbSymbolTableRecord
100
AcDbLayerTableRecord
  2
6
 70
     0
 62
     5
  6
CONTINUOUS
370
    -3
390
1190
  0
LAYER
  5
ECB
102
{ACAD_XDICTIONARY
360
11EF
102
}
330
EA1
100
AcDbSymbolTableRecord
100
AcDbLayerTableRecord
  2
7
 70
     0
 62
     3
  6
CONTINUOUS
370
    -3
390
1190
  0
ENDTAB
  0
TABLE
  2
STYLE
  5
EA2
330
0
100
AcDbSymbolTable
 70
     1
  0
STYLE
  5
EB0
330
EA2
100
AcDbSymbolTableRecord
100
AcDbTextStyleTableRecord
  2
STANDARD
 70
     0
 40
0.0
 41
1.0
 50
0.0
 71
     0
 42
2.5
  3
simplex.shx
  4

  0
ENDTAB
  0
TABLE
  2
VIEW
  5
EA5
330
0
100
AcDbSymbolTable
 70
     0
  0
ENDTAB
  0
TABLE
  2
UCS
  5
EA6
330
0
100
AcDbSymbolTable
 70
     0
  0
ENDTAB
  0
TABLE
  2
APPID
  5
EA8
330
0
100
AcDbSymbolTable
 70
     5
  0
APPID
  5
EB1
330
EA8
100
AcDbSymbolTableRecord
100
AcDbRegAppTableRecord
  2
ACAD
 70
     0
  0
APPID
  5
ECC
330
EA8
100
AcDbSymbolTableRecord
100
AcDbRegAppTableRecord
  2
CONTENTTABDATA
 70
     0
  0
APPID
  5
ECD
330
EA8
100
AcDbSymbolTableRecord
100
AcDbRegAppTableRecord
  2
CONTENTCURRENTTAB
 70
     0
  0
APPID
  5
11FB
330
EA8
100
AcDbSymbolTableRecord
100
AcDbRegAppTableRecord
  2
ACAD_NAV_VCDISPLAY
 70
     0
  0
APPID
  5
1234
330
EA8
100
AcDbSymbolTableRecord
100
AcDbRegAppTableRecord
  2
ACAD_MLEADERVER
 70
     0
  0
ENDTAB
  0
TABLE
  2
DIMSTYLE
  5
EA9
330
0
100
AcDbSymbolTable
 70
     1
100
AcDbDimStyleTable
 71
     0
  0
DIMSTYLE
105
ECE
330
EA9
100
AcDbSymbolTableRecord
100
AcDbDimStyleTableRecord
  2
STANDARD
 70
     0
 41
3.0
 42
1.0
 43
10.0
 44
1.0
 73
     0
 74
     0
 77
     3
 78
     8
140
3.2
141
0.0
147
1.0
172
     1
173
     1
284
     8
285
     8
286
     8
340
EB0
  0
ENDTAB
  0
TABLE
  2
BLOCK_RECORD
  5
EA0
330
0
100
AcDbSymbolTable
 70
     1
  0
BLOCK_RECORD
  5
EBD
102
{ACAD_XDICTIONARY
360
118A
102
}
330
EA0
100
AcDbSymbolTableRecord
100
AcDbBlockTableRecord
  2
*MODEL_SPACE
340
11DE
  0
BLOCK_RECORD
  5
EB9
102
{ACAD_XDICTIONARY
360
1188
102
}
330
EA0
100
AcDbSymbolTableRecord
100
AcDbBlockTableRecord
  2
*PAPER_SPACE
340
11DF
  0
BLOCK_RECORD
  5
ED6
330
EA0
100
AcDbSymbolTableRecord
100
AcDbBlockTableRecord
  2
_OPEN
340
0
  0
ENDTAB
  0
ENDSEC
  0
SECTION
  2
BLOCKS
  0
BLOCK
  5
EBE
330
EBD
100
AcDbEntity
  8
0
100
AcDbBlockBegin
  2
*MODEL_SPACE
 70
     0
 10
0.0
 20
0.0
 30
0.0
  3
*MODEL_SPACE
  1

  0
ENDBLK
  5
EBF
330
EBD
100
AcDbEntity
  8
0
100
AcDbBlockEnd
  0
BLOCK
  5
EBA
330
EB9
100
AcDbEntity
 67
     1
  8
0
100
AcDbBlockBegin
  2
*PAPER_SPACE
 70
     0
 10
0.0
 20
0.0
 30
0.0
  3
*PAPER_SPACE
  1

  0
ENDBLK
  5
EBB
330
EB9
100
AcDbEntity
 67
     1
  8
0
100
AcDbBlockEnd
  0
BLOCK
  5
ED7
330
ED6
100
AcDbEntity
  8
0
100
AcDbBlockBegin
  2
_OPEN
 70
     0
 10
0.0
 20
0.0
 30
0.0
  3
_OPEN
  1

  0
LINE
  5
ED8
330
ED6
100
AcDbEntity
  8
0
  6
ByBlock
 62
     0
100
AcDbLine
 10
-1.0
 20
0.1666666666666666
 30
0.0
 11
0.0
 21
0.0
 31
0.0
  0
LINE
  5
ED9
330
ED6
100
AcDbEntity
  8
0
  6
ByBlock
 62
     0
100
AcDbLine
 10
0.0
 20
0.0
 30
0.0
 11
-1.0
 21
-0.1666666666666666
 31
0.0
  0
LINE
  5
EDA
330
ED6
100
AcDbEntity
  8
0
  6
ByBlock
 62
     0
100
AcDbLine
 10
0.0
 20
0.0
 30
0.0
 11
-1.0
 21
0.0
 31
0.0
  0
ENDBLK
  5
EDB
330
ED6
100
AcDbEntity
  8
0
100
AcDbBlockEnd
  0
ENDSEC
  0
SECTION
  2
ENTITIES
  0
TEXT
  5
EDC
330
EBD
100
AcDbEntity
  8
4
  6
CENTER
100
AcDbText
 10
23.97950852663849
 20
10.0
 30
0.0
 40
1.399999999999999
  1
4
100
AcDbText
  0
TEXT
  5
EDD
330
EBD
100
AcDbEntity
  8
7
  6
Continuous
100
AcDbText
 10
9.999997526638502
 20
26.00000076076889
 30
0.0
 40
3.0
  1
CODE No.13195
100
AcDbText
  0
TEXT
  5
EDE
330
EBD
100
AcDbEntity
  8
7
  6
Continuous
100
AcDbText
 10
9.999997526638502
 20
18.00000076076889
 30
0.0
 40
3.0
  1
TYPE No.TEA-1160-U101
100
AcDbText
  0
TEXT
  5
EDF
330
EBD
100
AcDbEntity
  8
1
  6
Continuous
100
AcDbText
 10
9.999997526638502
 20
10.00000076076889
 30
0.0
 40
1.399999999999999
  1
LAYER
100
AcDbText
  0
TEXT
  5
EE0
330
EBD
100
AcDbEntity
  8
2
  6
Continuous
100
AcDbText
 10
19.9795085266385
 20
10.0
 30
0.0
 40
1.399999999999999
  1
2
100
AcDbText
  0
TEXT
  5
EE1
330
EBD
100
AcDbEntity
  8
3
  6
DASHED
100
AcDbText
 10
21.97950852663848
 20
10.0
 30
0.0
 40
1.399999999999999
  1
3
100
AcDbText
  0
TEXT
  5
EE2
330
EBD
100
AcDbEntity
  8
1
  6
Continuous
100
AcDbText
 10
17.9795085266385
 20
10.0
 30
0.0
 40
1.399999999999999
  1
1
100
AcDbText
  0
TEXT
  5
EE3
330
EBD
100
AcDbEntity
  8
5
  6
PHANTOM
100
AcDbText
 10
25.97950852663849
 20
10.0
 30
0.0
 40
1.399999999999999
  1
5
100
AcDbText
  0
TEXT
  5
EE4
330
EBD
100
AcDbEntity
  8
6
  6
Continuous
100
AcDbText
 10
27.97950852663849
 20
10.0
 30
0.0
 40
1.399999999999999
  1
6
100
AcDbText
  0
TEXT
  5
EE5
330
EBD
100
AcDbEntity
  8
7
  6
Continuous
100
AcDbText
 10
29.9795085266385
 20
10.0
 30
0.0
 40
1.399999999999999
  1
7
100
AcDbText
  0
LINE
  5
EE6
330
EBD
100
AcDbEntity
  8
4
  6
CENTER
100
AcDbLine
 10
37.04218401172232
 20
99.08684467373465
 30
0.0
 11
37.04218401172232
 21
259.547023020141
 31
0.0
  0
LINE
  5
EE7
330
EBD
100
AcDbEntity
  8
1
  6
Continuous
100
AcDbLine
 10
19.04218601098037
 20
108.5980984835194
 30
0.0
 11
19.04218399800851
 21
250.5980984835193
 31
0.0
  0
LINE
  5
EE8
330
EBD
100
AcDbEntity
  8
1
  6
Continuous
100
AcDbLine
 10
25.79218401172225
 20
126.3480985260472
 30
0.0
 11
25.79218401172225
 21
203.4772345260471
 31
0.0
  0
LINE
  5
EE9
330
EBD
100
AcDbEntity
  8
1
  6
Continuous
100
AcDbLine
 10
27.4921840117223
 20
204.2975205260471
 30
0.0
 11
27.4921840117223
 21
120.4016710271199
 31
0.0
  0
LINE
  5
EEA
330
EBD
100
AcDbEntity
  8
1
  6
Continuous
100
AcDbLine
 10
46.59218401172235
 20
120.4016710271199
 30
0.0
 11
46.59218401172235
 21
204.2975205260471
 31
0.0
  0
LINE
  5
EEB
330
EBD
100
AcDbEntity
  8
1
  6
Continuous
100
AcDbLine
 10
48.29218401172233
 20
126.3480985260472
 30
0.0
 11
48.2921840117223
 21
203.4772345260472
 31
0.0
  0
LINE
  5
EEC
330
EBD
100
AcDbEntity
  8
1
  6
Continuous
100
AcDbLine
 10
55.04218401172233
 20
250.5980985260471
 30
0.0
 11
55.04218401172227
 21
108.5980985260472
 31
0.0
  0
LINE
  5
EED
330
EBD
100
AcDbEntity
  8
1
  6
Continuous
100
AcDbLine
 10
52.04218401172227
 20
105.5980985260472
 30
0.0
 11
22.04218601098038
 21
105.5980985260472
 31
0.0
  0
ARC
  5
EEE
330
EBD
100
AcDbEntity
  8
1
  6
Continuous
100
AcDbCircle
 10
37.04218401172232
 20
126.3480985260472
 30
0.0
 40
11.25
100
AcDbArc
 50
180.0
 51
0.0
  0
LINE
  5
EEF
330
EBD
100
AcDbEntity
  8
4
  6
CENTER
100
AcDbLine
 10
46.54218401172238
 20
145.5980985260473
 30
0.0
 11
27.54218401172238
 21
145.5980985260473
 31
0.0
  0
CIRCLE
  5
EF0
330
EBD
100
AcDbEntity
  8
1
  6
Continuous
100
AcDbCircle
 10
37.04218401172237
 20
145.5980985260473
 30
0.0
 40
7.4
  0
ARC
  5
EF1
330
EBD
100
AcDbEntity
  8
1
  6
Continuous
100
AcDbCircle
 10
37.04218401172237
 20
145.5980985260473
 30
0.0
 40
4.4
100
AcDbArc
 50
106.5045159999997
 51
253.4954839999999
  0
LINE
  5
EF2
330
EBD
100
AcDbEntity
  8
1
  6
Continuous
100
AcDbLine
 10
35.79218401172243
 20
151.7980985260471
 30
0.0
 11
35.79218401172237
 21
139.9980985260472
 31
0.0
  0
LINE
  5
EF3
330
EBD
100
AcDbEntity
  8
1
  6
Continuous
100
AcDbLine
 10
38.29218401172237
 20
139.9980985260472
 30
0.0
 11
38.29218401172243
 21
151.7980985260471
 31
0.0
  0
LINE
  5
EF4
330
EBD
100
AcDbEntity
  8
1
  6
Continuous
100
AcDbLine
 10
35.79218401172232
 20
139.9980985260472
 30
0.0
 11
38.29218401172232
 21
139.9980985260472
 31
0.0
  0
LINE
  5
EF5
330
EBD
100
AcDbEntity
  8
1
  6
Continuous
100
AcDbLine
 10
38.29218401172237
 20
151.7980985260471
 30
0.0
 11
35.79218401172237
 21
151.7980985260471
 31
0.0
  0
LINE
  5
EF6
330
EBD
100
AcDbEntity
  8
1
  6
Continuous
100
AcDbLine
 10
38.29218401172257
 20
151.7763165260473
 30
0.0
 11
38.22684001172266
 21
151.7980985260473
 31
0.0
  0
LINE
  5
EF7
330
EBD
100
AcDbEntity
  8
4
  6
CENTER
100
AcDbLine
 10
56.54218401172238
 20
205.5980985260473
 30
0.0
 11
17.54218401172238
 21
205.598098526047
 31
0.0
  0
LINE
  5
EF8
330
EBD
100
AcDbEntity
  8
1
  6
Continuous
100
AcDbLine
 10
22.04218399800851
 20
253.5980985260469
 30
0.0
 11
52.04218401172233
 21
253.5980985260469
 31
0.0
  0
ARC
  5
EF9
330
EBD
100
AcDbEntity
  8
1
  6
Continuous
100
AcDbCircle
 10
37.04218401172232
 20
205.598098526047
 30
0.0
 40
11.5
100
AcDbArc
 50
348.047747
 51
191.9522439999999
  0
ARC
  5
EFA
330
EBD
100
AcDbEntity
  8
1
  6
Continuous
100
AcDbCircle
 10
37.04218401172232
 20
205.598098526047
 30
0.0
 40
11.25
100
AcDbArc
 50
349.5627394236206
 51
190.4372648007184
  0
ARC
  5
EFB
330
EBD
100
AcDbEntity
  8
1
  6
Continuous
100
AcDbCircle
 10
37.04218401172232
 20
205.598098526047
 30
0.0
 40
8.294727999999999
100
AcDbArc
 50
0.0000000000000254
 51
180.0
  0
LINE
  5
EFC
330
EBD
100
AcDbEntity
  8
1
  6
Continuous
100
AcDbLine
 10
28.67294601172218
 20
205.5980985260469
 30
0.0
 11
28.74745601172232
 21
205.5980985260469
 31
0.0
  0
LINE
  5
EFD
330
EBD
100
AcDbEntity
  8
1
  6
Continuous
100
AcDbLine
 10
28.34178201172239
 20
205.1561465260471
 30
0.0
 11
28.67294601172224
 21
205.598098526047
 31
0.0
  0
LINE
  5
EFE
330
EBD
100
AcDbEntity
  8
1
  6
Continuous
100
AcDbLine
 10
27.94806801172224
 20
204.7199205260473
 30
0.0
 11
28.34178201172234
 21
205.1561465260472
 31
0.0
  0
LINE
  5
EFF
330
EBD
100
AcDbEntity
  8
1
  6
Continuous
100
AcDbLine
 10
27.49218401172237
 20
204.2975205260471
 30
0.0
 11
27.9480680117223
 21
204.7199205260471
 31
0.0
  0
LINE
  5
F00
330
EBD
100
AcDbEntity
  8
1
  6
Continuous
100
AcDbLine
 10
26.91599601172244
 20
203.9990985260471
 30
0.0
 11
27.49218401172241
 21
204.2975205260471
 31
0.0
  0
LINE
  5
F01
330
EBD
100
AcDbEntity
  8
1
  6
Continuous
100
AcDbLine
 10
26.34930401172214
 20
203.7251325260473
 30
0.0
 11
26.91599601172224
 21
203.9990985260472
 31
0.0
  0
LINE
  5
F02
330
EBD
100
AcDbEntity
  8
1
  6
Continuous
100
AcDbLine
 10
25.79218401172232
 20
203.4772345260471
 30
0.0
 11
26.34930401172246
 21
203.7251325260473
 31
0.0
  0
LINE
  5
F03
330
EBD
100
AcDbEntity
  8
1
  6
Continuous
100
AcDbLine
 10
45.74260001172234
 20
205.1561305260471
 30
0.0
 11
46.13632801172246
 21
204.7198945260471
 31
0.0
  0
LINE
  5
F04
330
EBD
100
AcDbEntity
  8
1
  6
Continuous
100
AcDbLine
 10
45.33691201172231
 20
205.598098526047
 30
0.0
 11
45.41142401172208
 21
205.598098526047
 31
0.0
  0
LINE
  5
F05
330
EBD
100
AcDbEntity
  8
1
  6
Continuous
100
AcDbLine
 10
45.41142401172229
 20
205.5980985260474
 30
0.0
 11
45.74260001172231
 21
205.1561305260474
 31
0.0
  0
LINE
  5
F06
330
EBD
100
AcDbEntity
  8
1
  6
Continuous
100
AcDbLine
 10
47.73501601172239
 20
203.7251565260473
 30
0.0
 11
48.29218401172241
 21
203.4772345260472
 31
0.0
  0
LINE
  5
F07
330
EBD
100
AcDbEntity
  8
1
  6
Continuous
100
AcDbLine
 10
47.16833601172226
 20
203.9991185260471
 30
0.0
 11
47.73501601172222
 21
203.7251565260471
 31
0.0
  0
LINE
  5
F08
330
EBD
100
AcDbEntity
  8
1
  6
Continuous
100
AcDbLine
 10
46.59218401172235
 20
204.2975205260471
 30
0.0
 11
47.16833601172232
 21
203.9991185260471
 31
0.0
  0
LINE
  5
F09
330
EBD
100
AcDbEntity
  8
1
  6
Continuous
100
AcDbLine
 10
46.13632801172214
 20
204.7198945260471
 30
0.0
 11
46.5921840117221
 21
204.2975205260471
 31
0.0
  0
LINE
  5
F0A
330
EBD
100
AcDbEntity
  8
4
  6
CENTER
100
AcDbLine
 10
168.1644428265206
 20
233.8480985260447
 30
0.0
 11
187.244124122925
 21
233.8480985260447
 31
0.0
  0
LINE
  5
F0B
330
EBD
100
AcDbEntity
  8
4
  6
CENTER
100
AcDbLine
 10
163.3307542233885
 20
205.5980985260474
 30
0.0
 11
198.0928842233886
 21
205.5980985260474
 31
0.0
  0
LINE
  5
F0C
330
EBD
100
AcDbEntity
  8
1
  6
Continuous
100
AcDbLine
 10
187.5807542233886
 20
173.5980985260474
 30
0.0
 11
171.3807542233887
 21
173.5980985260474
 31
0.0
  0
LINE
  5
F0D
330
EBD
100
AcDbEntity
  8
1
  6
Continuous
100
AcDbLine
 10
187.5807542233886
 20
165.5980985260474
 30
0.0
 11
171.3807542233887
 21
165.5980985260474
 31
0.0
  0
LINE
  5
F0E
330
EBD
100
AcDbEntity
  8
4
  6
CENTER
100
AcDbLine
 10
168.1644428265206
 20
125.3480985260446
 30
0.0
 11
187.244124122925
 21
125.3480985260446
 31
0.0
  0
ARC
  5
F0F
330
EBD
100
AcDbEntity
  8
1
  6
Continuous
100
AcDbCircle
 10
181.4056802233887
 20
122.2480985260474
 30
0.0
 40
1.0
100
AcDbArc
 50
270.0
 51
323.4050690000001
  0
ARC
  5
F10
330
EBD
100
AcDbEntity
  8
1
  6
Continuous
100
AcDbCircle
 10
181.4056802233887
 20
128.4480985260474
 30
0.0
 40
1.0
100
AcDbArc
 50
36.59493100000001
 51
90.0
  0
LINE
  5
F11
330
EBD
100
AcDbEntity
  8
1
  6
Continuous
100
AcDbLine
 10
192.0807542233887
 20
243.5980985260473
 30
0.0
 11
178.0807542233887
 21
243.5980985260473
 31
0.0
  0
LINE
  5
F12
330
EBD
100
AcDbEntity
  8
1
  6
Continuous
100
AcDbLine
 10
192.0403462233884
 20
193.5980985260474
 30
0.0
 11
178.0807542233887
 21
193.5980985260474
 31
0.0
  0
LINE
  5
F13
330
EBD
100
AcDbEntity
  8
1
  6
Continuous
100
AcDbLine
 10
187.5570951663513
 20
170.5980985260474
 30
0.0
 11
171.3807542233886
 21
170.5980985260474
 31
0.0
  0
LINE
  5
F14
330
EBD
100
AcDbEntity
  8
4
  6
CENTER
100
AcDbLine
 10
195.0531770251831
 20
169.5980985260474
 30
0.0
 11
176.2506026767248
 21
169.5980985260474
 31
0.0
  0
LINE
  5
F15
330
EBD
100
AcDbEntity
  8
1
  6
Continuous
100
AcDbLine
 10
187.5570951663501
 20
168.5980985260474
 30
0.0
 11
171.3807542233887
 21
168.5980985260474
 31
0.0
  0
LINE
  5
F16
330
EBD
100
AcDbEntity
  8
1
  6
Continuous
100
AcDbLine
 10
187.3307542233886
 20
160.1541545260474
 30
0.0
 11
171.3807542233887
 21
160.1541545260474
 31
0.0
  0
LINE
  5
F17
330
EBD
100
AcDbEntity
  8
1
  6
Continuous
100
AcDbLine
 10
187.3307542233886
 20
157.1980985260474
 30
0.0
 11
171.3807542233887
 21
157.1980985260474
 31
0.0
  0
LINE
  5
F18
330
EBD
100
AcDbEntity
  8
1
  6
Continuous
100
AcDbLine
 10
179.3307542233885
 20
178.3475785260474
 30
0.0
 11
187.557095166343
 21
173.5980985260474
 31
0.0
  0
LINE
  5
F19
330
EBD
100
AcDbEntity
  8
1
  6
Continuous
100
AcDbLine
 10
187.3307542233886
 20
131.6980985260474
 30
0.0
 11
171.3807542233887
 21
131.6980985260474
 31
0.0
  0
LINE
  5
F1A
330
EBD
100
AcDbEntity
  8
1
  6
Continuous
100
AcDbLine
 10
156.8807542233888
 20
115.5980985260472
 30
0.0
 11
156.8807542233888
 21
213.8928265260473
 31
0.0
  0
LINE
  5
F1B
330
EBD
100
AcDbEntity
  8
1
  6
Continuous
100
AcDbLine
 10
159.0807542233886
 20
115.2980985260475
 30
0.0
 11
159.0807542233886
 21
215.467369015805
 31
0.0
  0
LINE
  5
F1C
330
EBD
100
AcDbEntity
  8
1
  6
Continuous
100
AcDbLine
 10
159.3307542233887
 20
218.2756385260474
 30
0.0
 11
159.3307542233886
 21
132.4187285260473
 31
0.0
  0
LINE
  5
F1D
330
EBD
100
AcDbEntity
  8
1
  6
Continuous
100
AcDbLine
 10
171.3807542233886
 20
253.5980985260473
 30
0.0
 11
171.3807542233887
 21
105.5980985260474
 31
0.0
  0
ARC
  5
F1E
330
EBD
100
AcDbEntity
  8
1
  6
Continuous
100
AcDbCircle
 10
203.9073742233885
 20
133.3760185260474
 30
0.0
 40
44.586898
100
AcDbArc
 50
181.230249
 51
216.5704589999998
  0
ARC
  5
F1F
330
EBD
100
AcDbEntity
  8
1
  6
Continuous
100
AcDbCircle
 10
170.5079022233887
 20
108.5980985260474
 30
0.0
 40
3.0
100
AcDbArc
 50
216.5700659999999
 51
270.0005689999999
  0
LINE
  5
F20
330
EBD
100
AcDbEntity
  8
1
  6
Continuous
100
AcDbLine
 10
171.3807542233887
 20
105.5980985260474
 30
0.0
 11
170.5079322233887
 21
105.5980985260474
 31
0.0
  0
LINE
  5
F21
330
EBD
100
AcDbEntity
  8
4
  6
CENTER
100
AcDbLine
 10
28.75998303213973
 20
315.1415650070525
 30
0.0
 11
55.91496367593649
 21
315.1415650070525
 31
0.0
  0
ARC
  5
F22
330
EBD
100
AcDbEntity
  8
1
  6
Continuous
100
AcDbCircle
 10
36.10709211352832
 20
315.1415650070187
 30
0.0
 40
6.129999999999999
100
AcDbArc
 50
20.14999999999997
 51
69.71996810789445
  0
ARC
  5
F23
330
EBD
100
AcDbEntity
  8
1
  6
Continuous
100
AcDbCircle
 10
36.10709211352832
 20
315.1415650070187
 30
0.0
 40
6.129999999999999
100
AcDbArc
 50
290.2800318921055
 51
339.7199681078944
  0
ARC
  5
F24
330
EBD
100
AcDbEntity
  8
1
  6
Continuous
100
AcDbCircle
 10
36.10709211352832
 20
315.1415650070187
 30
0.0
 40
5.629999999999999
100
AcDbArc
 50
291.171361066549
 51
338.8286389334508
  0
ARC
  5
F25
330
EBD
100
AcDbEntity
  8
1
  6
Continuous
100
AcDbCircle
 10
36.10709211352832
 20
315.1415650070187
 30
0.0
 40
5.629999999999999
100
AcDbArc
 50
21.17136106654907
 51
68.82863893345064
  0
ARC
  5
F26
330
EBD
100
AcDbEntity
  8
1
  6
Continuous
100
AcDbCircle
 10
36.10709211352832
 20
315.1415650070187
 30
0.0
 40
6.129999999999999
100
AcDbArc
 50
200.2800318921054
 51
249.7199681078942
  0
ARC
  5
F27
330
EBD
100
AcDbEntity
  8
1
  6
Continuous
100
AcDbCircle
 10
36.10709211352832
 20
315.1415650070187
 30
0.0
 40
5.629999999999999
100
AcDbArc
 50
201.1713610665488
 51
248.8286389334604
  0
LINE
  5
F28
330
EBD
100
AcDbEntity
  8
1
  6
Continuous
100
AcDbLine
 10
33.98238036837318
 20
309.3915650070185
 30
0.0
 11
38.2318038586834
 21
309.3915650070185
 31
0.0
  0
LINE
  5
F29
330
EBD
100
AcDbEntity
  8
1
  6
Continuous
100
AcDbLine
 10
34.07376970918601
 20
309.8915650070185
 30
0.0
 11
38.14041451787046
 21
309.8915650070185
 31
0.0
  0
ARC
  5
F2A
330
EBD
100
AcDbEntity
  8
1
  6
Continuous
100
AcDbCircle
 10
36.10709211352832
 20
315.1415650070187
 30
0.0
 40
6.129999999999999
100
AcDbArc
 50
110.2800318921055
 51
159.7199681078944
  0
ARC
  5
F2B
330
EBD
100
AcDbEntity
  8
1
  6
Continuous
100
AcDbCircle
 10
36.10709211352832
 20
315.1415650070187
 30
0.0
 40
5.629999999999999
100
AcDbArc
 50
111.1713610665489
 51
158.8286389334508
  0
LINE
  5
F2C
330
EBD
100
AcDbEntity
  8
1
  6
Continuous
100
AcDbLine
 10
30.35709211352831
 20
317.2662767521738
 30
0.0
 11
30.35709211352831
 21
313.0168532618636
 31
0.0
  0
LINE
  5
F2D
330
EBD
100
AcDbEntity
  8
1
  6
Continuous
100
AcDbLine
 10
30.85709211352831
 20
317.1748874113608
 30
0.0
 11
30.85709211352831
 21
313.1082426026764
 31
0.0
  0
ARC
  5
F2E
330
EBD
100
AcDbEntity
  8
1
  6
Continuous
100
AcDbCircle
 10
33.05709211352832
 20
314.0615650070186
 30
0.0
 40
1.25
100
AcDbArc
 50
179.9999999999998
 51
359.9999999999997
  0
ARC
  5
F2F
330
EBD
100
AcDbEntity
  8
1
  6
Continuous
100
AcDbCircle
 10
33.05709211352832
 20
316.2115650070185
 30
0.0
 40
1.25
100
AcDbArc
 50
359.9999999999997
 51
180.0
  0
LINE
  5
F30
330
EBD
100
AcDbEntity
  8
1
  6
Continuous
100
AcDbLine
 10
31.80709211352831
 20
316.2115650070187
 30
0.0
 11
31.80709211352831
 21
314.0615650070186
 31
0.0
  0
LINE
  5
F31
330
EBD
100
AcDbEntity
  8
1
  6
Continuous
100
AcDbLine
 10
34.30709211352832
 20
316.1815650070185
 30
0.0
 11
34.30709211352832
 21
316.2115650070187
 31
0.0
  0
LINE
  5
F32
330
EBD
100
AcDbEntity
  8
1
  6
Continuous
100
AcDbLine
 10
34.30709211352832
 20
314.0615650070186
 30
0.0
 11
34.30709211352832
 21
316.1815650070185
 31
0.0
  0
LINE
  5
F33
330
EBD
100
AcDbEntity
  8
1
  6
Continuous
100
AcDbLine
 10
38.14041451787058
 20
320.3915650070185
 30
0.0
 11
34.07376970918607
 21
320.3915650070185
 31
0.0
  0
LINE
  5
F34
330
EBD
100
AcDbEntity
  8
1
  6
Continuous
100
AcDbLine
 10
38.2318038586834
 20
320.8915650070187
 30
0.0
 11
33.98238036837315
 21
320.8915650070187
 31
0.0
  0
LINE
  5
F35
330
EBD
100
AcDbEntity
  8
1
  6
Continuous
100
AcDbLine
 10
47.4570921135283
 20
315.9915650070187
 30
0.0
 11
47.0770921135283
 21
316.3615650070187
 31
0.0
  0
LINE
  5
F36
330
EBD
100
AcDbEntity
  8
1
  6
Continuous
100
AcDbLine
 10
53.35709211352831
 20
313.4915650070186
 30
0.0
 11
43.60709211352832
 21
313.4915650070187
 31
0.0
  0
ARC
  5
F37
330
EBD
100
AcDbEntity
  8
1
  6
Continuous
100
AcDbCircle
 10
43.35709211352829
 20
312.9815650070186
 30
0.0
 40
0.25
100
AcDbArc
 50
260.7699999999999
 51
359.9999999999997
  0
ARC
  5
F38
330
EBD
100
AcDbEntity
  8
1
  6
Continuous
100
AcDbCircle
 10
43.35709211352829
 20
317.2915650070186
 30
0.0
 40
0.25
100
AcDbArc
 50
359.9999999999997
 51
99.22999999999996
  0
LINE
  5
F39
330
EBD
100
AcDbEntity
  8
1
  6
Continuous
100
AcDbLine
 10
41.35709211352831
 20
317.1748874113608
 30
0.0
 11
41.35709211352831
 21
313.1082426026764
 31
0.0
  0
LINE
  5
F3A
330
EBD
100
AcDbEntity
  8
1
  6
Continuous
100
AcDbLine
 10
41.85709211352832
 20
313.0168532618636
 30
0.0
 11
41.85709211352832
 21
317.2532217549132
 31
0.0
  0
LINE
  5
F3B
330
EBD
100
AcDbEntity
  8
1
  6
Continuous
100
AcDbLine
 10
43.31709211352833
 20
312.7315650070186
 30
0.0
 11
41.83940315746439
 21
312.9695820200757
 31
0.0
  0
LINE
  5
F3C
330
EBD
100
AcDbEntity
  8
1
  6
Continuous
100
AcDbLine
 10
41.84296588106938
 20
317.3041218554816
 30
0.0
 11
43.31709211352833
 21
317.5415650070186
 31
0.0
  0
LINE
  5
F3D
330
EBD
100
AcDbEntity
  8
1
  6
Continuous
100
AcDbLine
 10
43.60709211352832
 20
313.4915650070187
 30
0.0
 11
43.60709211352832
 21
312.9815650070186
 31
0.0
  0
LINE
  5
F3E
330
EBD
100
AcDbEntity
  8
1
  6
Continuous
100
AcDbLine
 10
43.60709211352832
 20
317.2915650070186
 30
0.0
 11
43.60709211352832
 21
316.7915650070186
 31
0.0
  0
LINE
  5
F3F
330
EBD
100
AcDbEntity
  8
1
  6
Continuous
100
AcDbLine
 10
46.30709211352828
 20
316.3615650070187
 30
0.0
 11
45.87709211352839
 21
316.7915650070188
 31
0.0
  0
LINE
  5
F40
330
EBD
100
AcDbEntity
  8
1
  6
Continuous
100
AcDbLine
 10
47.0770921135283
 20
316.3615650070186
 30
0.0
 11
46.30709211352828
 21
316.3615650070186
 31
0.0
  0
LINE
  5
F41
330
EBD
100
AcDbEntity
  8
1
  6
Continuous
100
AcDbLine
 10
43.60709211352832
 20
316.7915650070186
 30
0.0
 11
45.87709211352829
 21
316.7915650070186
 31
0.0
  0
LINE
  5
F42
330
EBD
100
AcDbEntity
  8
1
  6
Continuous
100
AcDbLine
 10
52.40709211352831
 20
316.7415650070186
 30
0.0
 11
49.57709211352831
 21
316.7415650070186
 31
0.0
  0
LINE
  5
F43
330
EBD
100
AcDbEntity
  8
1
  6
Continuous
100
AcDbLine
 10
48.42709211352832
 20
316.3615650070187
 30
0.0
 11
48.0570921135283
 21
315.9915650070187
 31
0.0
  0
LINE
  5
F44
330
EBD
100
AcDbEntity
  8
1
  6
Continuous
100
AcDbLine
 10
49.57709211352817
 20
316.7415650070187
 30
0.0
 11
49.20709211352832
 21
316.3615650070187
 31
0.0
  0
LINE
  5
F45
330
EBD
100
AcDbEntity
  8
1
  6
Continuous
100
AcDbLine
 10
48.0570921135283
 20
315.9915650070185
 30
0.0
 11
47.4570921135283
 21
315.9915650070185
 31
0.0
  0
LINE
  5
F46
330
EBD
100
AcDbEntity
  8
1
  6
Continuous
100
AcDbLine
 10
49.20709211352832
 20
316.3615650070186
 30
0.0
 11
48.42709211352832
 21
316.3615650070186
 31
0.0
  0
ARC
  5
F47
330
EBD
100
AcDbEntity
  8
1
  6
Continuous
100
AcDbCircle
 10
53.75709211352833
 20
314.6915650070186
 30
0.0
 40
0.6
100
AcDbArc
 50
313.5199999999997
 51
47.56999999999981
  0
LINE
  5
F48
330
EBD
100
AcDbEntity
  8
1
  6
Continuous
100
AcDbLine
 10
54.16709211352833
 20
314.2615650070187
 30
0.0
 11
53.35709211352831
 21
313.4915650070187
 31
0.0
  0
LINE
  5
F49
330
EBD
100
AcDbEntity
  8
1
  6
Continuous
100
AcDbLine
 10
52.40709211352817
 20
316.7415650070187
 30
0.0
 11
54.1570921135283
 21
315.1415650070187
 31
0.0
  0
LINE
  5
F4A
330
EBD
100
AcDbEntity
  8
1
  6
Continuous
100
AcDbLine
 10
173.3807542233886
 20
131.3480985260474
 30
0.0
 11
173.3807542233886
 21
117.8480985260474
 31
0.0
  0
LINE
  5
F4B
330
EBD
100
AcDbEntity
  8
1
  6
Continuous
100
AcDbLine
 10
180.3807542233886
 20
117.8480985260474
 30
0.0
 11
180.3807542233886
 21
131.3480985260474
 31
0.0
  0
ARC
  5
F4C
330
EBD
100
AcDbEntity
  8
1
  6
Continuous
100
AcDbCircle
 10
157.3807542233888
 20
115.5980985260472
 30
0.0
 40
0.5
100
AcDbArc
 50
180.0
 51
270.0
  0
ARC
  5
F4D
330
EBD
100
AcDbEntity
  8
1
  6
Continuous
100
AcDbCircle
 10
158.8807542233888
 20
115.2980985260473
 30
0.0
 40
0.2
100
AcDbArc
 50
270.0
 51
0.0
  0
LINE
  5
F4E
330
EBD
100
AcDbEntity
  8
1
  6
Continuous
100
AcDbLine
 10
157.3807542233888
 20
115.0980985260473
 30
0.0
 11
158.8807542233888
 21
115.0980985260474
 31
0.0
  0
LINE
  5
F4F
330
EBD
100
AcDbEntity
  8
1
  6
Continuous
100
AcDbLine
 10
159.0595242233885
 20
124.7773125260473
 30
0.0
 11
159.0807542233885
 21
124.7836785260472
 31
0.0
  0
LINE
  5
F50
330
EBD
100
AcDbEntity
  8
1
  6
Continuous
100
AcDbLine
 10
173.3807542233886
 20
117.8480985260474
 30
0.0
 11
180.3807542233886
 21
117.8480985260474
 31
0.0
  0
LINE
  5
F51
330
EBD
100
AcDbEntity
  8
1
  6
Continuous
100
AcDbLine
 10
171.3807542233887
 20
129.8480985260447
 30
0.0
 11
173.3807542233886
 21
129.8480985260447
 31
0.0
  0
LINE
  5
F52
330
EBD
100
AcDbEntity
  8
1
  6
Continuous
100
AcDbLine
 10
171.3807542233887
 20
120.8480985260447
 30
0.0
 11
173.3807542233886
 21
120.8480985260447
 31
0.0
  0
LINE
  5
F53
330
EBD
100
AcDbEntity
  8
1
  6
Continuous
100
AcDbLine
 10
181.4056802233885
 20
129.4480985260472
 30
0.0
 11
181.4056802233885
 21
121.2480985260474
 31
0.0
  0
LINE
  5
F54
330
EBD
100
AcDbEntity
  8
1
  6
Continuous
100
AcDbLine
 10
180.3807542233886
 20
121.2480985260474
 30
0.0
 11
181.4056802233885
 21
121.2480985260474
 31
0.0
  0
LINE
  5
F55
330
EBD
100
AcDbEntity
  8
1
  6
Continuous
100
AcDbLine
 10
180.3807542233886
 20
129.4480985260472
 30
0.0
 11
181.4056802233885
 21
129.4480985260472
 31
0.0
  0
LINE
  5
F56
330
EBD
100
AcDbEntity
  8
1
  6
Continuous
100
AcDbLine
 10
155.0307542233885
 20
152.6980985260473
 30
0.0
 11
155.0307542233885
 21
138.4980985260473
 31
0.0
  0
LINE
  5
F57
330
EBD
100
AcDbEntity
  8
1
  6
Continuous
100
AcDbLine
 10
155.3307542233885
 20
138.1980985260474
 30
0.0
 11
156.8807542233886
 21
138.1980985260474
 31
0.0
  0
ARC
  5
F58
330
EBD
100
AcDbEntity
  8
1
  6
Continuous
100
AcDbCircle
 10
155.3307542233886
 20
138.4980985260474
 30
0.0
 40
0.3
100
AcDbArc
 50
180.0
 51
270.0
  0
ARC
  5
F59
330
EBD
100
AcDbEntity
  8
1
  6
Continuous
100
AcDbCircle
 10
159.5807542233885
 20
135.1236165260472
 30
0.0
 40
0.5
100
AcDbArc
 50
120.518067
 51
180.0
  0
LINE
  5
F5A
330
EBD
100
AcDbEntity
  8
1
  6
Continuous
100
AcDbLine
 10
155.3307542233886
 20
152.9980985260474
 30
0.0
 11
156.8807542233886
 21
152.9980985260474
 31
0.0
  0
ARC
  5
F5B
330
EBD
100
AcDbEntity
  8
1
  6
Continuous
100
AcDbCircle
 10
155.3307542233886
 20
152.6980985260473
 30
0.0
 40
0.3
100
AcDbArc
 50
90.0
 51
180.0
  0
LINE
  5
F5C
330
EBD
100
AcDbEntity
  8
1
  6
Continuous
100
AcDbLine
 10
159.0807542233886
 20
143.6352825260474
 30
0.0
 11
159.3259602233885
 21
143.6352825260474
 31
0.0
  0
LINE
  5
F5D
330
EBD
100
AcDbEntity
  8
1
  6
Continuous
100
AcDbLine
 10
159.3307542233886
 20
151.2599285260473
 30
0.0
 11
159.0807542233886
 21
151.2306295157648
 31
0.0
  0
LINE
  5
F5E
330
EBD
100
AcDbEntity
  8
1
  6
Continuous
100
AcDbLine
 10
173.3807542233886
 20
131.3480985260474
 30
0.0
 11
180.3807542233886
 21
131.3480985260474
 31
0.0
  0
ARC
  5
F5F
330
EBD
100
AcDbEntity
  8
1
  6
Continuous
100
AcDbCircle
 10
231.8106742233885
 20
216.8328985260473
 30
0.0
 40
72.49427799999998
100
AcDbArc
 50
150.9111139999999
 51
178.859658
  0
LINE
  5
F60
330
EBD
100
AcDbEntity
  8
1
  6
Continuous
100
AcDbLine
 10
173.8444942233886
 20
200.7439765260472
 30
0.0
 11
173.8444942233886
 21
195.5979745260474
 31
0.0
  0
LINE
  5
F61
330
EBD
100
AcDbEntity
  8
1
  6
Continuous
100
AcDbLine
 10
178.0807542233887
 20
193.5980985260474
 30
0.0
 11
178.0807542233887
 21
243.5980985260473
 31
0.0
  0
LINE
  5
F62
330
EBD
100
AcDbEntity
  8
1
  6
Continuous
100
AcDbLine
 10
179.3307542233885
 20
193.5980985260474
 30
0.0
 11
179.3307542233885
 21
178.3475785260471
 31
0.0
  0
LINE
  5
F63
330
EBD
100
AcDbEntity
  8
1
  6
Continuous
100
AcDbLine
 10
173.8444942233886
 20
195.5979745260473
 30
0.0
 11
171.3807542233886
 21
193.664916468119
 31
0.0
  0
LINE
  5
F64
330
EBD
100
AcDbEntity
  8
1
  6
Continuous
100
AcDbLine
 10
178.0807542233887
 20
195.5979745260474
 30
0.0
 11
173.8444942233886
 21
195.5979745260474
 31
0.0
  0
LINE
  5
F65
330
EBD
100
AcDbEntity
  8
1
  6
Continuous
100
AcDbLine
 10
159.3170502233886
 20
204.2916565260473
 30
0.0
 11
159.3307542233886
 21
204.3011785260473
 31
0.0
  0
ARC
  5
F66
330
EBD
100
AcDbEntity
  8
1
  6
Continuous
100
AcDbCircle
 10
164.4807542233886
 20
205.5980985260474
 30
0.0
 40
11.25
100
AcDbArc
 50
117.365933
 51
132.497307
  0
LINE
  5
F67
330
EBD
100
AcDbEntity
  8
1
  6
Continuous
100
AcDbLine
 10
173.8444942233886
 20
210.4522205260471
 30
0.0
 11
173.8444942233886
 21
215.5982245260473
 31
0.0
  0
LINE
  5
F68
330
EBD
100
AcDbEntity
  8
1
  6
Continuous
100
AcDbLine
 10
174.8479542233885
 20
207.7113225260473
 30
0.0
 11
175.0438622233886
 21
206.3069065260473
 31
0.0
  0
LINE
  5
F69
330
EBD
100
AcDbEntity
  8
1
  6
Continuous
100
AcDbLine
 10
178.0807542233887
 20
200.7439765260471
 30
0.0
 11
173.8444942233886
 21
200.7439765260472
 31
0.0
  0
LINE
  5
F6A
330
EBD
100
AcDbEntity
  8
1
  6
Continuous
100
AcDbLine
 10
174.4552262233885
 20
202.1081825260471
 30
0.0
 11
173.8444942233886
 21
200.7439765260471
 31
0.0
  0
LINE
  5
F6B
330
EBD
100
AcDbEntity
  8
1
  6
Continuous
100
AcDbLine
 10
174.8479542233888
 20
203.4848765260472
 30
0.0
 11
174.4552262233886
 21
202.1081825260475
 31
0.0
  0
LINE
  5
F6C
330
EBD
100
AcDbEntity
  8
1
  6
Continuous
100
AcDbLine
 10
175.0438622233884
 20
204.8892905260471
 30
0.0
 11
174.8479542233884
 21
203.4848765260469
 31
0.0
  0
LINE
  5
F6D
330
EBD
100
AcDbEntity
  8
1
  6
Continuous
100
AcDbLine
 10
175.0438622233886
 20
206.3069065260473
 30
0.0
 11
175.0438622233886
 21
204.8892905260471
 31
0.0
  0
LINE
  5
F6E
330
EBD
100
AcDbEntity
  8
1
  6
Continuous
100
AcDbLine
 10
178.0807542233887
 20
210.4522205260474
 30
0.0
 11
173.8444942233886
 21
210.4522205260474
 31
0.0
  0
LINE
  5
F6F
330
EBD
100
AcDbEntity
  8
1
  6
Continuous
100
AcDbLine
 10
174.4552262233885
 20
209.0880165260471
 30
0.0
 11
174.8479542233886
 21
207.7113225260473
 31
0.0
  0
LINE
  5
F70
330
EBD
100
AcDbEntity
  8
1
  6
Continuous
100
AcDbLine
 10
173.8444942233885
 20
210.4522205260474
 30
0.0
 11
174.4552262233885
 21
209.0880165260474
 31
0.0
  0
LINE
  5
F71
330
EBD
100
AcDbEntity
  8
1
  6
Continuous
100
AcDbLine
 10
171.3807542233887
 20
218.5980985259607
 30
0.0
 11
178.0807542233887
 21
218.598098525968
 31
0.0
  0
LINE
  5
F72
330
EBD
100
AcDbEntity
  8
4
  6
CENTER
100
AcDbLine
 10
168.6333199778306
 20
222.5980985259576
 30
0.0
 11
181.0192947308648
 21
222.5980985259714
 31
0.0
  0
LINE
  5
F73
330
EBD
100
AcDbEntity
  8
1
  6
Continuous
100
AcDbLine
 10
171.3807542233887
 20
223.5980985260474
 30
0.0
 11
178.0807542233887
 21
223.5980985260474
 31
0.0
  0
LINE
  5
F74
330
EBD
100
AcDbEntity
  8
1
  6
Continuous
100
AcDbLine
 10
171.3807542233887
 20
221.5980985260474
 30
0.0
 11
178.0807542233887
 21
221.5980985260474
 31
0.0
  0
LINE
  5
F75
330
EBD
100
AcDbEntity
  8
1
  6
Continuous
100
AcDbLine
 10
171.3807542233888
 20
217.5143154174708
 30
0.0
 11
173.8444942233886
 21
215.5982245260473
 31
0.0
  0
LINE
  5
F76
330
EBD
100
AcDbEntity
  8
1
  6
Continuous
100
AcDbLine
 10
178.0807542233887
 20
215.5982245260473
 30
0.0
 11
173.8444942233886
 21
215.5982245260473
 31
0.0
  0
LINE
  5
F77
330
EBD
100
AcDbEntity
  8
1
  6
Continuous
100
AcDbLine
 10
173.3807542231864
 20
227.8480985260474
 30
0.0
 11
173.3807542231614
 21
241.3480985259904
 31
0.0
  0
LINE
  5
F78
330
EBD
100
AcDbEntity
  8
1
  6
Continuous
100
AcDbLine
 10
171.3807542233886
 20
229.3480985260447
 30
0.0
 11
173.3807542231841
 21
229.3480985260447
 31
0.0
  0
LINE
  5
F79
330
EBD
100
AcDbEntity
  8
1
  6
Continuous
100
AcDbLine
 10
171.3807542233887
 20
226.5980985259608
 30
0.0
 11
178.0807542233887
 21
226.5980985259683
 31
0.0
  0
LINE
  5
F7A
330
EBD
100
AcDbEntity
  8
1
  6
Continuous
100
AcDbLine
 10
173.3807542231614
 20
227.8480985260474
 30
0.0
 11
178.0807542233886
 21
227.8480985260471
 31
0.0
  0
LINE
  5
F7B
330
EBD
100
AcDbEntity
  8
1
  6
Continuous
100
AcDbLine
 10
171.3807542233886
 20
238.3480985260447
 30
0.0
 11
173.3807542231664
 21
238.3480985260447
 31
0.0
  0
LINE
  5
F7C
330
EBD
100
AcDbEntity
  8
1
  6
Continuous
100
AcDbLine
 10
173.3807542231614
 20
241.3480985260473
 30
0.0
 11
178.0807542233887
 21
241.3480985260473
 31
0.0
  0
ARC
  5
F7D
330
EBD
100
AcDbEntity
  8
1
  6
Continuous
100
AcDbCircle
 10
171.0469982233888
 20
250.6380985260474
 30
0.0
 40
2.959999999999998
100
AcDbArc
 50
90.000111
 51
150.911256
  0
LINE
  5
F7E
330
EBD
100
AcDbEntity
  8
1
  6
Continuous
100
AcDbLine
 10
171.0470302233884
 20
253.5980985260473
 30
0.0
 11
171.3807542233887
 21
253.5980985260473
 31
0.0
  0
LINE
  5
F7F
330
EBD
100
AcDbEntity
  8
1
  6
Continuous
100
AcDbLine
 10
187.3307542233886
 20
131.6980985260474
 30
0.0
 11
187.3307542233853
 21
165.5980985260474
 31
0.0
  0
LINE
  5
F80
330
EBD
100
AcDbEntity
  8
1
  6
Continuous
100
AcDbLine
 10
189.3307542233886
 20
133.6980985260472
 30
0.0
 11
189.3307542233886
 21
158.1541545260473
 31
0.0
  0
LINE
  5
F81
330
EBD
100
AcDbEntity
  8
1
  6
Continuous
100
AcDbLine
 10
183.1531082233885
 20
125.5150805260472
 30
0.0
 11
183.1531082233885
 21
125.1811185260472
 31
0.0
  0
LINE
  5
F82
330
EBD
100
AcDbEntity
  8
1
  6
Continuous
100
AcDbLine
 10
182.2085502233884
 20
129.0442525260472
 30
0.0
 11
182.2085502233884
 21
121.6519445260473
 31
0.0
  0
ARC
  5
F83
330
EBD
100
AcDbEntity
  8
1
  6
Continuous
100
AcDbCircle
 10
177.2307542233888
 20
125.3480985260474
 30
0.0
 40
6.2
100
AcDbArc
 50
323.4050690000001
 51
342.850973
  0
LINE
  5
F84
330
EBD
100
AcDbEntity
  8
1
  6
Continuous
100
AcDbLine
 10
183.1551082233886
 20
123.5199785260473
 30
0.0
 11
183.1371422233883
 21
123.5302465260475
 31
0.0
  0
LINE
  5
F85
330
EBD
100
AcDbEntity
  8
1
  6
Continuous
100
AcDbLine
 10
183.3368382233884
 20
124.7525765260474
 30
0.0
 11
183.3533002233886
 21
124.6574805260474
 31
0.0
  0
LINE
  5
F86
330
EBD
100
AcDbEntity
  8
1
  6
Continuous
100
AcDbLine
 10
183.3118722233884
 20
124.8480985260473
 30
0.0
 11
183.3368382233884
 21
124.7525765260474
 31
0.0
  0
LINE
  5
F87
330
EBD
100
AcDbEntity
  8
1
  6
Continuous
100
AcDbLine
 10
183.1531082233884
 20
125.1811185260472
 30
0.0
 11
183.1371422233883
 21
124.8480985260472
 31
0.0
  0
LINE
  5
F88
330
EBD
100
AcDbEntity
  8
1
  6
Continuous
100
AcDbLine
 10
183.2806502233888
 20
124.0876405260474
 30
0.0
 11
183.3118722233888
 21
124.2480985260475
 31
0.0
  0
LINE
  5
F89
330
EBD
100
AcDbEntity
  8
1
  6
Continuous
100
AcDbLine
 10
183.2420742233884
 20
123.9149085260473
 30
0.0
 11
183.2806502233885
 21
124.0876405260472
 31
0.0
  0
LINE
  5
F8A
330
EBD
100
AcDbEntity
  8
1
  6
Continuous
100
AcDbLine
 10
183.1947482233885
 20
123.7292185260473
 30
0.0
 11
183.2420742233884
 21
123.9149085260474
 31
0.0
  0
LINE
  5
F8B
330
EBD
100
AcDbEntity
  8
1
  6
Continuous
100
AcDbLine
 10
183.1371422233887
 20
123.5302465260475
 30
0.0
 11
183.1947482233885
 21
123.7292185260474
 31
0.0
  0
LINE
  5
F8C
330
EBD
100
AcDbEntity
  8
1
  6
Continuous
100
AcDbLine
 10
183.3298982233886
 20
124.3886285260471
 30
0.0
 11
183.3118722233886
 21
124.2480985260471
 31
0.0
  0
LINE
  5
F8D
330
EBD
100
AcDbEntity
  8
1
  6
Continuous
100
AcDbLine
 10
183.3435262233886
 20
124.5243865260476
 30
0.0
 11
183.3298982233884
 21
124.3886285260475
 31
0.0
  0
LINE
  5
F8E
330
EBD
100
AcDbEntity
  8
1
  6
Continuous
100
AcDbLine
 10
183.3533002233888
 20
124.6574805260474
 30
0.0
 11
183.3435262233888
 21
124.5243865260472
 31
0.0
  0
LINE
  5
F8F
330
EBD
100
AcDbEntity
  8
1
  6
Continuous
100
AcDbLine
 10
183.3118722233884
 20
124.8480985260472
 30
0.0
 11
183.1371422233883
 21
124.8480985260472
 31
0.0
  0
ARC
  5
F90
330
EBD
100
AcDbEntity
  8
1
  6
Continuous
100
AcDbCircle
 10
177.2307542233888
 20
125.3480985260474
 30
0.0
 40
6.2
100
AcDbArc
 50
17.14902699999997
 51
36.59493100000001
  0
LINE
  5
F91
330
EBD
100
AcDbEntity
  8
1
  6
Continuous
100
AcDbLine
 10
183.1947482233885
 20
126.9669785260472
 30
0.0
 11
183.1371422233887
 21
127.1659505260472
 31
0.0
  0
LINE
  5
F92
330
EBD
100
AcDbEntity
  8
1
  6
Continuous
100
AcDbLine
 10
183.2420742233884
 20
126.7812885260473
 30
0.0
 11
183.1947482233884
 21
126.9669785260472
 31
0.0
  0
LINE
  5
F93
330
EBD
100
AcDbEntity
  8
1
  6
Continuous
100
AcDbLine
 10
183.2806502233884
 20
126.6085585260473
 30
0.0
 11
183.2420742233884
 21
126.7812885260473
 31
0.0
  0
LINE
  5
F94
330
EBD
100
AcDbEntity
  8
1
  6
Continuous
100
AcDbLine
 10
183.3118722233884
 20
126.4480985260473
 30
0.0
 11
183.2806502233884
 21
126.6085585260473
 31
0.0
  0
LINE
  5
F95
330
EBD
100
AcDbEntity
  8
1
  6
Continuous
100
AcDbLine
 10
183.3435262233886
 20
126.1718125260474
 30
0.0
 11
183.3533002233886
 21
126.0387165260473
 31
0.0
  0
LINE
  5
F96
330
EBD
100
AcDbEntity
  8
1
  6
Continuous
100
AcDbLine
 10
183.3298982233886
 20
126.3075685260474
 30
0.0
 11
183.3435262233886
 21
126.1718125260473
 31
0.0
  0
LINE
  5
F97
330
EBD
100
AcDbEntity
  8
1
  6
Continuous
100
AcDbLine
 10
183.3118722233888
 20
126.4480985260474
 30
0.0
 11
183.3298982233888
 21
126.3075685260474
 31
0.0
  0
LINE
  5
F98
330
EBD
100
AcDbEntity
  8
1
  6
Continuous
100
AcDbLine
 10
183.1371422233883
 20
125.8480985260473
 30
0.0
 11
183.1531082233884
 21
125.5150805260474
 31
0.0
  0
LINE
  5
F99
330
EBD
100
AcDbEntity
  8
1
  6
Continuous
100
AcDbLine
 10
183.3368382233884
 20
125.9436205260472
 30
0.0
 11
183.3118722233886
 21
125.8480985260472
 31
0.0
  0
LINE
  5
F9A
330
EBD
100
AcDbEntity
  8
1
  6
Continuous
100
AcDbLine
 10
183.3533002233886
 20
126.0387165260473
 30
0.0
 11
183.3368382233884
 21
125.9436205260475
 31
0.0
  0
LINE
  5
F9B
330
EBD
100
AcDbEntity
  8
1
  6
Continuous
100
AcDbLine
 10
183.1371422233887
 20
127.1659505260473
 30
0.0
 11
183.1551082233884
 21
127.1762185260474
 31
0.0
  0
LINE
  5
F9C
330
EBD
100
AcDbEntity
  8
1
  6
Continuous
100
AcDbLine
 10
183.3118722233884
 20
125.8480985260472
 30
0.0
 11
183.1371422233883
 21
125.8480985260472
 31
0.0
  0
ARC
  5
F9D
330
EBD
100
AcDbEntity
  8
1
  6
Continuous
100
AcDbCircle
 10
187.3307542233886
 20
133.6980985260474
 30
0.0
 40
2.0
100
AcDbArc
 50
270.0
 51
0.0
  0
LINE
  5
F9E
330
EBD
100
AcDbEntity
  8
1
  6
Continuous
100
AcDbLine
 10
192.0807542233884
 20
160.5980985260474
 30
0.0
 11
192.0807542233884
 21
243.5980985260473
 31
0.0
  0
ARC
  5
F9F
330
EBD
100
AcDbEntity
  8
1
  6
Continuous
100
AcDbCircle
 10
190.0807542233884
 20
177.7622005260473
 30
0.0
 40
0.5
100
AcDbArc
 50
299.9999999999999
 51
0.0
  0
LINE
  5
FA0
330
EBD
100
AcDbEntity
  8
1
  6
Continuous
100
AcDbLine
 10
190.5807542233887
 20
160.5980985260471
 30
0.0
 11
190.5807542233887
 21
193.5980985260474
 31
0.0
  0
LINE
  5
FA1
330
EBD
100
AcDbEntity
  8
1
  6
Continuous
100
AcDbLine
 10
187.5807542233886
 20
160.5980985260474
 30
0.0
 11
187.5807542233886
 21
174.2980985260473
 31
0.0
  0
ARC
  5
FA2
330
EBD
100
AcDbEntity
  8
1
  6
Continuous
100
AcDbCircle
 10
187.3307542233886
 20
158.1541545260473
 30
0.0
 40
2.0
100
AcDbArc
 50
0.0
 51
90.0
  0
ARC
  5
FA3
330
EBD
100
AcDbEntity
  8
1
  6
Continuous
100
AcDbCircle
 10
187.3307542233886
 20
155.1980985260474
 30
0.0
 40
2.0
100
AcDbArc
 50
0.0000000000000254
 51
90.0
  0
LINE
  5
FA4
330
EBD
100
AcDbEntity
  8
1
  6
Continuous
100
AcDbLine
 10
192.0807542233884
 20
160.5980985260474
 30
0.0
 11
187.5807542233886
 21
160.5980985260474
 31
0.0
  0
LINE
  5
FA5
330
EBD
100
AcDbEntity
  8
1
  6
Continuous
100
AcDbLine
 10
190.3307542233884
 20
177.3291885260469
 30
0.0
 11
188.8307542233888
 21
176.4631625260471
 31
0.0
  0
LINE
  5
FA6
330
EBD
100
AcDbEntity
  8
1
  6
Continuous
100
AcDbLine
 10
187.5570951663501
 20
168.5980985260474
 30
0.0
 11
187.5570951663513
 21
170.5980985260486
 31
0.0
  0
ARC
  5
FA7
330
EBD
100
AcDbEntity
  8
1
  6
Continuous
100
AcDbCircle
 10
190.0807542233884
 20
174.2980985260473
 30
0.0
 40
2.5
100
AcDbArc
 50
119.9999999999999
 51
180.0
  0
LINE
  5
FA8
330
EBD
100
AcDbEntity
  8
1
  6
Continuous
100
AcDbLine
 10
190.5807542233887
 20
188.4767785260473
 30
0.0
 11
192.0807542233884
 21
188.4767785260473
 31
0.0
  0
LINE
  5
FA9
330
EBD
100
AcDbEntity
  8
1
  6
Continuous
100
AcDbLine
 10
191.8263542233886
 20
193.5740705260471
 30
0.0
 11
191.8307542233884
 21
193.543782526047
 31
0.0
  0
LINE
  5
FAA
330
EBD
100
AcDbEntity
  8
1
  6
Continuous
100
AcDbLine
 10
191.8129942233884
 20
193.592096526047
 30
0.0
 11
191.8263542233884
 21
193.5740705260471
 31
0.0
  0
LINE
  5
FAB
330
EBD
100
AcDbEntity
  8
1
  6
Continuous
100
AcDbLine
 10
191.7903462233888
 20
193.5980985260474
 30
0.0
 11
191.8129942233888
 21
193.5920965260475
 31
0.0
  0
LINE
  5
FAC
330
EBD
100
AcDbEntity
  8
1
  6
Continuous
100
AcDbLine
 10
190.5807542233887
 20
191.0374385260474
 30
0.0
 11
192.0807542233884
 21
191.0374385260474
 31
0.0
  0
LINE
  5
FAD
330
EBD
100
AcDbEntity
  8
1
  6
Continuous
100
AcDbLine
 10
171.3807542233884
 20
333.1415650070525
 30
0.0
 11
171.3807542233886
 21
297.1415650070525
 31
0.0
  0
LINE
  5
FAE
330
EBD
100
AcDbEntity
  8
1
  6
Continuous
100
AcDbLine
 10
159.3307542233887
 20
330.1415650070525
 30
0.0
 11
159.3307542233887
 21
300.1415650070526
 31
0.0
  0
LINE
  5
FAF
330
EBD
100
AcDbEntity
  8
4
  6
CENTER
100
AcDbLine
 10
150.3722221098914
 20
315.1415650070525
 30
0.0
 11
197.0404945916664
 21
315.1415650070525
 31
0.0
  0
LINE
  5
FB0
330
EBD
100
AcDbEntity
  8
1
  6
Continuous
100
AcDbLine
 10
162.3307542233886
 20
333.1415650070525
 30
0.0
 11
171.3807542233884
 21
333.1415650070525
 31
0.0
  0
LINE
  5
FB1
330
EBD
100
AcDbEntity
  8
1
  6
Continuous
100
AcDbLine
 10
162.3307542233886
 20
297.1415650070525
 30
0.0
 11
171.3807542233886
 21
297.1415650070525
 31
0.0
  0
LINE
  5
FB2
330
EBD
100
AcDbEntity
  8
1
  6
Continuous
100
AcDbLine
 10
156.8807542233888
 20
305.5915650070525
 30
0.0
 11
156.8807542233888
 21
324.6915650070524
 31
0.0
  0
ARC
  5
FB3
330
EBD
100
AcDbEntity
  8
1
  6
Continuous
100
AcDbCircle
 10
22.04218399800851
 20
250.5980985260471
 30
0.0
 40
3.0
100
AcDbArc
 50
89.99999999999994
 51
180.0000008122168
  0
ARC
  5
FB4
330
EBD
100
AcDbEntity
  8
1
  6
Continuous
100
AcDbCircle
 10
52.04218401172233
 20
250.5980985260471
 30
0.0
 40
3.0
100
AcDbArc
 50
0.0
 51
90.0
  0
ARC
  5
FB5
330
EBD
100
AcDbEntity
  8
1
  6
Continuous
100
AcDbCircle
 10
22.04218601098038
 20
108.5980985260472
 30
0.0
 40
3.0
100
AcDbArc
 50
180.0000008122168
 51
270.0
  0
ARC
  5
FB6
330
EBD
100
AcDbEntity
  8
1
  6
Continuous
100
AcDbCircle
 10
52.04218401172227
 20
108.5980985260472
 30
0.0
 40
3.0
100
AcDbArc
 50
270.0
 51
0.0
  0
ARC
  5
FB7
330
EBD
100
AcDbEntity
  8
1
  6
Continuous
100
AcDbCircle
 10
162.3307542233886
 20
330.1415650070525
 30
0.0
 40
3.0
100
AcDbArc
 50
90.0
 51
179.9999999999998
  0
ARC
  5
FB8
330
EBD
100
AcDbEntity
  8
1
  6
Continuous
100
AcDbCircle
 10
162.3307542233886
 20
300.1415650070526
 30
0.0
 40
3.0
100
AcDbArc
 50
179.9999999999998
 51
270.0
  0
LINE
  5
FB9
330
EBD
100
AcDbEntity
  8
1
  6
Continuous
100
AcDbLine
 10
159.0807542233886
 20
326.3915650070525
 30
0.0
 11
156.8807542233888
 21
324.6915650070524
 31
0.0
  0
LINE
  5
FBA
330
EBD
100
AcDbEntity
  8
1
  6
Continuous
100
AcDbLine
 10
156.8807542233888
 20
305.5915650070525
 30
0.0
 11
159.0807542233886
 21
303.8915650070525
 31
0.0
  0
LINE
  5
FBB
330
EBD
100
AcDbEntity
  8
1
  6
Continuous
100
AcDbLine
 10
155.0307542233885
 20
322.2415650070526
 30
0.0
 11
155.0307542233885
 21
308.0415650070523
 31
0.0
  0
ARC
  5
FBC
330
EBD
100
AcDbEntity
  8
1
  6
Continuous
100
AcDbCircle
 10
155.3307542233886
 20
308.0415650070526
 30
0.0
 40
0.3
100
AcDbArc
 50
180.0
 51
270.0
  0
LINE
  5
FBD
330
EBD
100
AcDbEntity
  8
1
  6
Continuous
100
AcDbLine
 10
155.3307542233885
 20
307.7415650070526
 30
0.0
 11
156.8807542233886
 21
307.7415650070526
 31
0.0
  0
ARC
  5
FBE
330
EBD
100
AcDbEntity
  8
1
  6
Continuous
100
AcDbCircle
 10
155.3307542233886
 20
322.2415650070526
 30
0.0
 40
0.3
100
AcDbArc
 50
90.0
 51
180.0
  0
LINE
  5
FBF
330
EBD
100
AcDbEntity
  8
1
  6
Continuous
100
AcDbLine
 10
155.3307542233886
 20
322.5415650070526
 30
0.0
 11
156.8807542233886
 21
322.5415650070526
 31
0.0
  0
LINE
  5
FC0
330
EBD
100
AcDbEntity
  8
1
  6
Continuous
100
AcDbLine
 10
159.0807542233886
 20
303.8915650070525
 30
0.0
 11
159.0807542233886
 21
326.3915650070525
 31
0.0
  0
LINE
  5
FC1
330
EBD
100
AcDbEntity
  8
1
  6
Continuous
100
AcDbLine
 10
159.3307542233887
 20
326.3915650070525
 30
0.0
 11
159.0807542233886
 21
326.3915650070525
 31
0.0
  0
LINE
  5
FC2
330
EBD
100
AcDbEntity
  8
1
  6
Continuous
100
AcDbLine
 10
159.3307542233887
 20
303.8915650070525
 30
0.0
 11
159.0807542233886
 21
303.8915650070525
 31
0.0
  0
LINE
  5
FC3
330
EBD
100
AcDbEntity
  8
1
  6
Continuous
100
AcDbLine
 10
173.380754223189
 20
307.6415650070499
 30
0.0
 11
173.3807542231614
 21
322.6415650069981
 31
0.0
  0
LINE
  5
FC4
330
EBD
100
AcDbEntity
  8
1
  6
Continuous
100
AcDbLine
 10
173.3807542231614
 20
322.6415650070551
 30
0.0
 11
180.3807542233886
 21
322.641565007055
 31
0.0
  0
LINE
  5
FC5
330
EBD
100
AcDbEntity
  8
1
  6
Continuous
100
AcDbLine
 10
171.3807542233884
 20
319.6415650070525
 30
0.0
 11
173.3807542231664
 21
319.6415650070525
 31
0.0
  0
LINE
  5
FC6
330
EBD
100
AcDbEntity
  8
1
  6
Continuous
100
AcDbLine
 10
171.3807542233884
 20
310.6415650070526
 30
0.0
 11
173.3807542231841
 21
310.6415650070526
 31
0.0
  0
LINE
  5
FC7
330
EBD
100
AcDbEntity
  8
1
  6
Continuous
100
AcDbLine
 10
173.380754223189
 20
307.6415650070499
 30
0.0
 11
180.3807542233886
 21
307.64156500705
 31
0.0
  0
LINE
  5
FC8
330
EBD
100
AcDbEntity
  8
1
  6
Continuous
100
AcDbLine
 10
180.3807542233886
 20
322.641565007055
 30
0.0
 11
180.3807542233886
 21
307.64156500705
 31
0.0
  0
ARC
  5
FC9
330
EBD
100
AcDbEntity
  8
1
  6
Continuous
100
AcDbCircle
 10
177.2307542233888
 20
315.1415650070552
 30
0.0
 40
6.2
100
AcDbArc
 50
17.14902699999997
 51
36.59493100000001
  0
ARC
  5
FCA
330
EBD
100
AcDbEntity
  8
1
  6
Continuous
100
AcDbCircle
 10
177.2307542233888
 20
315.1415650070552
 30
0.0
 40
6.2
100
AcDbArc
 50
323.4050690000001
 51
342.850973
  0
LINE
  5
FCB
330
EBD
100
AcDbEntity
  8
1
  6
Continuous
100
AcDbLine
 10
182.2085502233884
 20
318.8377190070552
 30
0.0
 11
182.2085502233884
 21
311.4454110070552
 31
0.0
  0
LINE
  5
FCC
330
EBD
100
AcDbEntity
  8
1
  6
Continuous
100
AcDbLine
 10
181.4056802233885
 20
319.2415650070552
 30
0.0
 11
181.4056802233885
 21
311.0415650070552
 31
0.0
  0
LINE
  5
FCD
330
EBD
100
AcDbEntity
  8
1
  6
Continuous
100
AcDbLine
 10
180.3807542233886
 20
311.0415650070552
 30
0.0
 11
181.4056802233885
 21
311.0415650070552
 31
0.0
  0
ARC
  5
FCE
330
EBD
100
AcDbEntity
  8
1
  6
Continuous
100
AcDbCircle
 10
181.4056802233887
 20
312.0415650070552
 30
0.0
 40
1.0
100
AcDbArc
 50
270.0
 51
323.4050690000001
  0
LINE
  5
FCF
330
EBD
100
AcDbEntity
  8
1
  6
Continuous
100
AcDbLine
 10
180.3807542233886
 20
319.2415650070552
 30
0.0
 11
181.4056802233885
 21
319.2415650070552
 31
0.0
  0
ARC
  5
FD0
330
EBD
100
AcDbEntity
  8
1
  6
Continuous
100
AcDbCircle
 10
181.4056802233887
 20
318.2415650070552
 30
0.0
 40
1.0
100
AcDbArc
 50
36.59493100000001
 51
90.0
  0
LINE
  5
FD1
330
EBD
100
AcDbEntity
  8
1
  6
Continuous
100
AcDbLine
 10
183.3118722233884
 20
315.6415650070552
 30
0.0
 11
183.1371422233883
 21
315.6415650070552
 31
0.0
  0
LINE
  5
FD2
330
EBD
100
AcDbEntity
  8
1
  6
Continuous
100
AcDbLine
 10
183.1371422233887
 20
316.9594170070552
 30
0.0
 11
183.1551082233884
 21
316.9696850070552
 31
0.0
  0
LINE
  5
FD3
330
EBD
100
AcDbEntity
  8
1
  6
Continuous
100
AcDbLine
 10
183.3533002233886
 20
315.8321830070552
 30
0.0
 11
183.3368382233884
 21
315.7370870070554
 31
0.0
  0
LINE
  5
FD4
330
EBD
100
AcDbEntity
  8
1
  6
Continuous
100
AcDbLine
 10
183.3368382233884
 20
315.7370870070548
 30
0.0
 11
183.3118722233886
 21
315.6415650070552
 31
0.0
  0
LINE
  5
FD5
330
EBD
100
AcDbEntity
  8
1
  6
Continuous
100
AcDbLine
 10
183.1371422233883
 20
315.6415650070552
 30
0.0
 11
183.1531082233884
 21
315.3085470070552
 31
0.0
  0
LINE
  5
FD6
330
EBD
100
AcDbEntity
  8
1
  6
Continuous
100
AcDbLine
 10
183.3118722233888
 20
316.2415650070552
 30
0.0
 11
183.3298982233888
 21
316.1010350070552
 31
0.0
  0
LINE
  5
FD7
330
EBD
100
AcDbEntity
  8
1
  6
Continuous
100
AcDbLine
 10
183.3298982233886
 20
316.1010350070552
 30
0.0
 11
183.3435262233886
 21
315.965279007055
 31
0.0
  0
LINE
  5
FD8
330
EBD
100
AcDbEntity
  8
1
  6
Continuous
100
AcDbLine
 10
183.3435262233886
 20
315.965279007055
 30
0.0
 11
183.3533002233886
 21
315.8321830070552
 31
0.0
  0
LINE
  5
FD9
330
EBD
100
AcDbEntity
  8
1
  6
Continuous
100
AcDbLine
 10
183.3118722233884
 20
316.2415650070552
 30
0.0
 11
183.2806502233884
 21
316.4020250070552
 31
0.0
  0
LINE
  5
FDA
330
EBD
100
AcDbEntity
  8
1
  6
Continuous
100
AcDbLine
 10
183.2806502233884
 20
316.4020250070552
 30
0.0
 11
183.2420742233884
 21
316.5747550070549
 31
0.0
  0
LINE
  5
FDB
330
EBD
100
AcDbEntity
  8
1
  6
Continuous
100
AcDbLine
 10
183.2420742233884
 20
316.5747550070549
 30
0.0
 11
183.1947482233884
 21
316.760445007055
 31
0.0
  0
LINE
  5
FDC
330
EBD
100
AcDbEntity
  8
1
  6
Continuous
100
AcDbLine
 10
183.1947482233885
 20
316.760445007055
 30
0.0
 11
183.1371422233887
 21
316.9594170070548
 31
0.0
  0
LINE
  5
FDD
330
EBD
100
AcDbEntity
  8
1
  6
Continuous
100
AcDbLine
 10
183.3118722233884
 20
314.641565007055
 30
0.0
 11
183.1371422233883
 21
314.641565007055
 31
0.0
  0
LINE
  5
FDE
330
EBD
100
AcDbEntity
  8
1
  6
Continuous
100
AcDbLine
 10
183.3533002233888
 20
314.4509470070552
 30
0.0
 11
183.3435262233888
 21
314.3178530070552
 31
0.0
  0
LINE
  5
FDF
330
EBD
100
AcDbEntity
  8
1
  6
Continuous
100
AcDbLine
 10
183.3435262233886
 20
314.3178530070553
 30
0.0
 11
183.3298982233884
 21
314.1820950070552
 31
0.0
  0
LINE
  5
FE0
330
EBD
100
AcDbEntity
  8
1
  6
Continuous
100
AcDbLine
 10
183.3298982233886
 20
314.1820950070548
 30
0.0
 11
183.3118722233886
 21
314.0415650070548
 31
0.0
  0
LINE
  5
FE1
330
EBD
100
AcDbEntity
  8
1
  6
Continuous
100
AcDbLine
 10
183.1371422233887
 20
313.3237130070552
 30
0.0
 11
183.1947482233885
 21
313.5226850070552
 31
0.0
  0
LINE
  5
FE2
330
EBD
100
AcDbEntity
  8
1
  6
Continuous
100
AcDbLine
 10
183.1947482233885
 20
313.5226850070548
 30
0.0
 11
183.2420742233884
 21
313.7083750070552
 31
0.0
  0
LINE
  5
FE3
330
EBD
100
AcDbEntity
  8
1
  6
Continuous
100
AcDbLine
 10
183.2420742233884
 20
313.7083750070551
 30
0.0
 11
183.2806502233885
 21
313.8811070070551
 31
0.0
  0
LINE
  5
FE4
330
EBD
100
AcDbEntity
  8
1
  6
Continuous
100
AcDbLine
 10
183.2806502233888
 20
313.8811070070552
 30
0.0
 11
183.3118722233888
 21
314.0415650070552
 31
0.0
  0
LINE
  5
FE5
330
EBD
100
AcDbEntity
  8
1
  6
Continuous
100
AcDbLine
 10
183.1531082233884
 20
314.9745850070551
 30
0.0
 11
183.1371422233883
 21
314.641565007055
 31
0.0
  0
LINE
  5
FE6
330
EBD
100
AcDbEntity
  8
1
  6
Continuous
100
AcDbLine
 10
183.3118722233884
 20
314.6415650070551
 30
0.0
 11
183.3368382233884
 21
314.5460430070552
 31
0.0
  0
LINE
  5
FE7
330
EBD
100
AcDbEntity
  8
1
  6
Continuous
100
AcDbLine
 10
183.3368382233884
 20
314.5460430070552
 30
0.0
 11
183.3533002233886
 21
314.4509470070552
 31
0.0
  0
LINE
  5
FE8
330
EBD
100
AcDbEntity
  8
1
  6
Continuous
100
AcDbLine
 10
183.1551082233886
 20
313.3134450070552
 30
0.0
 11
183.1371422233883
 21
313.3237130070552
 31
0.0
  0
LINE
  5
FE9
330
EBD
100
AcDbEntity
  8
1
  6
Continuous
100
AcDbLine
 10
183.1531082233885
 20
315.3085470070552
 30
0.0
 11
183.1531082233885
 21
314.9745850070551
 31
0.0
  0
LINE
  5
FEA
330
EBD
100
AcDbEntity
  8
1
  6
Continuous
100
AcDbLine
 10
192.0807542233884
 20
301.6415650070525
 30
0.0
 11
192.0807542233887
 21
328.6415650070525
 31
0.0
  0
LINE
  5
FEB
330
EBD
100
AcDbEntity
  8
1
  6
Continuous
100
AcDbLine
 10
178.0807542233886
 20
301.6415650070525
 30
0.0
 11
178.0807542233886
 21
303.1415650070525
 31
0.0
  0
LINE
  5
FEC
330
EBD
100
AcDbEntity
  8
1
  6
Continuous
100
AcDbLine
 10
178.0807542233886
 20
301.6415650070525
 30
0.0
 11
192.0807542233884
 21
301.6415650070525
 31
0.0
  0
LINE
  5
FED
330
EBD
100
AcDbEntity
  8
1
  6
Continuous
100
AcDbLine
 10
178.0807542233887
 20
328.6415650070525
 30
0.0
 11
192.0807542233887
 21
328.6415650070525
 31
0.0
  0
LINE
  5
FEE
330
EBD
100
AcDbEntity
  8
1
  6
Continuous
100
AcDbLine
 10
178.0807542233887
 20
327.1415650070526
 30
0.0
 11
190.5807542233887
 21
327.1415650070526
 31
0.0
  0
LINE
  5
FEF
330
EBD
100
AcDbEntity
  8
1
  6
Continuous
100
AcDbLine
 10
178.0807542233886
 20
303.1415650070525
 30
0.0
 11
190.5807542233887
 21
303.1415650070525
 31
0.0
  0
LINE
  5
FF0
330
EBD
100
AcDbEntity
  8
1
  6
Continuous
100
AcDbLine
 10
190.5807542233887
 20
303.1415650070525
 30
0.0
 11
190.5807542233887
 21
327.1415650070526
 31
0.0
  0
LINE
  5
FF1
330
EBD
100
AcDbEntity
  8
1
  6
Continuous
100
AcDbLine
 10
178.0807542233887
 20
327.1415650070526
 30
0.0
 11
178.0807542233887
 21
328.6415650070525
 31
0.0
  0
ARC
  5
FF2
330
EBD
100
AcDbEntity
  8
1
  6
Continuous
100
AcDbCircle
 10
190.5807542233887
 20
327.1415650070526
 30
0.0
 40
1.5
100
AcDbArc
 50
0.0
 51
90.0
  0
ARC
  5
FF3
330
EBD
100
AcDbEntity
  8
1
  6
Continuous
100
AcDbCircle
 10
190.5807542233887
 20
303.1415650070525
 30
0.0
 40
1.5
100
AcDbArc
 50
269.9999999999997
 51
0.0
  0
LINE
  5
FF4
330
EBD
100
AcDbEntity
  8
1
  6
Continuous
100
AcDbLine
 10
187.5807542233886
 20
319.8415650070518
 30
0.0
 11
187.5807542233886
 21
310.441565007052
 31
0.0
  0
ARC
  5
FF5
330
EBD
100
AcDbEntity
  8
1
  6
Continuous
100
AcDbCircle
 10
190.0807542233884
 20
319.8415650070522
 30
0.0
 40
2.5
100
AcDbArc
 50
119.9999999999999
 51
180.0
  0
LINE
  5
FF6
330
EBD
100
AcDbEntity
  8
1
  6
Continuous
100
AcDbLine
 10
190.3307542233884
 20
322.8726550070522
 30
0.0
 11
188.8307542233888
 21
322.0066290070523
 31
0.0
  0
ARC
  5
FF7
330
EBD
100
AcDbEntity
  8
1
  6
Continuous
100
AcDbCircle
 10
190.0807542233884
 20
323.3056670070522
 30
0.0
 40
0.5
100
AcDbArc
 50
299.9999999999999
 51
0.0
  0
ARC
  5
FF8
330
EBD
100
AcDbEntity
  8
1
  6
Continuous
100
AcDbCircle
 10
190.0807542233884
 20
310.4415650070527
 30
0.0
 40
2.5
100
AcDbArc
 50
180.0
 51
239.9999999999999
  0
ARC
  5
FF9
330
EBD
100
AcDbEntity
  8
1
  6
Continuous
100
AcDbCircle
 10
190.0807542233884
 20
306.9774630070526
 30
0.0
 40
0.5
100
AcDbArc
 50
0.0
 51
60.0000000000001
  0
LINE
  5
FFA
330
EBD
100
AcDbEntity
  8
1
  6
Continuous
100
AcDbLine
 10
190.3307542233884
 20
307.4104750070528
 30
0.0
 11
188.8307542233888
 21
308.2765010070526
 31
0.0
  0
LINE
  5
FFB
330
EBD
100
AcDbEntity
  8
1
  6
Continuous
100
AcDbLine
 10
181.8415701177481
 20
319.1415650070525
 30
0.0
 11
187.5807542233886
 21
319.1415650070525
 31
0.0
  0
LINE
  5
FFC
330
EBD
100
AcDbEntity
  8
1
  6
Continuous
100
AcDbLine
 10
181.8415701177372
 20
311.1415650070525
 30
0.0
 11
187.5807542233886
 21
311.1415650070525
 31
0.0
  0
LINE
  5
FFD
330
EBD
100
AcDbEntity
  8
1
  6
Continuous
100
AcDbLine
 10
171.3807542233884
 20
323.4823419244368
 30
0.0
 11
174.5185763968875
 21
322.641565007055
 31
0.0
  0
LINE
  5
FFE
330
EBD
100
AcDbEntity
  8
1
  6
Continuous
100
AcDbLine
 10
180.3807542233886
 20
321.0707991925567
 30
0.0
 11
187.5807542233886
 21
319.1415650070525
 31
0.0
  0
LINE
  5
FFF
330
EBD
100
AcDbEntity
  8
1
  6
Continuous
100
AcDbLine
 10
180.3807542233886
 20
309.2123308215484
 30
0.0
 11
187.5807542233886
 21
311.1415650070525
 31
0.0
  0
LINE
  5
1000
330
EBD
100
AcDbEntity
  8
1
  6
Continuous
100
AcDbLine
 10
171.3807542233884
 20
306.800788089668
 30
0.0
 11
174.5185763968875
 21
307.6415650070499
 31
0.0
  0
LINE
  5
1001
330
EBD
100
AcDbEntity
  8
1
  6
Continuous
100
AcDbLine
 10
171.3807542233888
 20
327.0577818984762
 30
0.0
 11
173.8444942233886
 21
325.1416910070525
 31
0.0
  0
LINE
  5
1002
330
EBD
100
AcDbEntity
  8
1
  6
Continuous
100
AcDbLine
 10
173.8444942233885
 20
305.1414410070524
 30
0.0
 11
171.3807542233884
 21
303.2083829491241
 31
0.0
  0
LINE
  5
1003
330
EBD
100
AcDbEntity
  8
1
  6
Continuous
100
AcDbLine
 10
173.8444942233886
 20
307.4609452330287
 30
0.0
 11
173.8444942233886
 21
305.1414410070524
 31
0.0
  0
LINE
  5
1004
330
EBD
100
AcDbEntity
  8
1
  6
Continuous
100
AcDbLine
 10
173.8444942233886
 20
322.8221847810766
 30
0.0
 11
173.8444942233886
 21
325.1416890070526
 31
0.0
  0
LINE
  5
1005
330
EBD
100
AcDbEntity
  8
1
  6
Continuous
100
AcDbLine
 10
181.3307542233886
 20
326.6415650070525
 30
0.0
 11
181.3307542233886
 21
320.8162474597471
 31
0.0
  0
LINE
  5
1006
330
EBD
100
AcDbEntity
  8
1
  6
Continuous
100
AcDbLine
 10
173.8444942233886
 20
323.8915650070525
 30
0.0
 11
181.3307542233886
 21
323.8915650070525
 31
0.0
  0
LINE
  5
1007
330
EBD
100
AcDbEntity
  8
1
  6
Continuous
100
AcDbLine
 10
173.8444942233886
 20
306.3915650070525
 30
0.0
 11
181.3307542233886
 21
306.3915650070525
 31
0.0
  0
LINE
  5
1008
330
EBD
100
AcDbEntity
  8
1
  6
Continuous
100
AcDbLine
 10
181.3307542233886
 20
309.466882554358
 30
0.0
 11
181.3307542233886
 21
303.6415650070525
 31
0.0
  0
LINE
  5
1009
330
EBD
100
AcDbEntity
  8
1
  6
Continuous
100
AcDbLine
 10
185.3307542233886
 20
326.6415650070525
 30
0.0
 11
185.3307542233886
 21
319.7444506900225
 31
0.0
  0
LINE
  5
100A
330
EBD
100
AcDbEntity
  8
1
  6
Continuous
100
AcDbLine
 10
186.8307542233884
 20
321.6415650070525
 30
0.0
 11
186.8307542233884
 21
319.3425269013757
 31
0.0
  0
LINE
  5
100B
330
EBD
100
AcDbEntity
  8
1
  6
Continuous
100
AcDbLine
 10
181.3307542233886
 20
326.6415650070525
 30
0.0
 11
185.3307542233886
 21
326.6415650070525
 31
0.0
  0
LINE
  5
100C
330
EBD
100
AcDbEntity
  8
1
  6
Continuous
100
AcDbLine
 10
181.3307542233886
 20
303.6415650070525
 30
0.0
 11
185.3307542233886
 21
303.6415650070525
 31
0.0
  0
LINE
  5
100D
330
EBD
100
AcDbEntity
  8
1
  6
Continuous
100
AcDbLine
 10
185.3307542233886
 20
310.5386793240823
 30
0.0
 11
185.3307542233886
 21
303.6415650070525
 31
0.0
  0
LINE
  5
100E
330
EBD
100
AcDbEntity
  8
1
  6
Continuous
100
AcDbLine
 10
185.3307542233886
 20
321.6415650070525
 30
0.0
 11
187.8307542233884
 21
321.6415650070525
 31
0.0
  0
LINE
  5
100F
330
EBD
100
AcDbEntity
  8
1
  6
Continuous
100
AcDbLine
 10
186.8307542233884
 20
308.6415650070525
 30
0.0
 11
186.8307542233884
 21
310.9406031127292
 31
0.0
  0
LINE
  5
1010
330
EBD
100
AcDbEntity
  8
1
  6
Continuous
100
AcDbLine
 10
185.3307542233886
 20
308.6415650070525
 30
0.0
 11
187.8307542233884
 21
308.6415650070525
 31
0.0
  0
LINE
  5
1011
330
EBD
100
AcDbEntity
  8
1
  6
Continuous
100
AcDbLine
 10
187.8307542233884
 20
321.6415650070525
 30
0.0
 11
187.8307542233884
 21
320.9312897429376
 31
0.0
  0
LINE
  5
1012
330
EBD
100
AcDbEntity
  8
1
  6
Continuous
100
AcDbLine
 10
187.8307542233884
 20
308.6415650070525
 30
0.0
 11
187.8307542233884
 21
309.3518402711674
 31
0.0
  0
LINE
  5
1013
330
EBD
100
AcDbEntity
  8
1
  6
Continuous
100
AcDbLine
 10
181.3307542233886
 20
323.6415650070525
 30
0.0
 11
185.3307542233886
 21
323.6415650070525
 31
0.0
  0
LINE
  5
1014
330
EBD
100
AcDbEntity
  8
1
  6
Continuous
100
AcDbLine
 10
181.9826780120351
 20
320.6415650070525
 30
0.0
 11
185.3307542233886
 21
320.6415650070525
 31
0.0
  0
LINE
  5
1015
330
EBD
100
AcDbEntity
  8
1
  6
Continuous
100
AcDbLine
 10
181.9826780120351
 20
309.6415650070525
 30
0.0
 11
185.3307542233886
 21
309.6415650070525
 31
0.0
  0
LINE
  5
1016
330
EBD
100
AcDbEntity
  8
1
  6
Continuous
100
AcDbLine
 10
181.3307542233886
 20
306.6415650070525
 30
0.0
 11
185.3307542233886
 21
306.6415650070525
 31
0.0
  0
LINE
  5
1017
330
EBD
100
AcDbEntity
  8
4
  6
CENTER
100
AcDbLine
 10
165.3664050790728
 20
145.5980985260473
 30
0.0
 11
149.9809209882805
 21
145.5980985260473
 31
0.0
  0
LINE
  5
1018
330
EBD
100
AcDbEntity
  8
1
  6
Continuous
100
AcDbLine
 10
171.3807542233886
 20
327.6415650070525
 30
0.0
 11
178.0807542233887
 21
327.6415650070525
 31
0.0
  0
LINE
  5
1019
330
EBD
100
AcDbEntity
  8
1
  6
Continuous
100
AcDbLine
 10
171.3807542233886
 20
302.6415650070525
 30
0.0
 11
178.0807542233886
 21
302.6415650070525
 31
0.0
  0
LINE
  5
101A
330
EBD
100
AcDbEntity
  8
1
  6
Continuous
100
AcDbLine
 10
187.3307542233881
 20
303.1415650070525
 30
0.0
 11
187.3307542233876
 21
308.6415650070525
 31
0.0
  0
LINE
  5
101B
330
EBD
100
AcDbEntity
  8
1
  6
Continuous
100
AcDbLine
 10
189.3307542233881
 20
304.6415650070525
 30
0.0
 11
189.3307542233883
 21
307.9878256737197
 31
0.0
  0
ARC
  5
101C
330
EBD
100
AcDbEntity
  8
1
  6
Continuous
100
AcDbCircle
 10
187.3307542233883
 20
304.6415650070525
 30
0.0
 40
2.0
100
AcDbArc
 50
311.4096221092663
 51
0.0
  0
ARC
  5
101D
330
EBD
100
AcDbEntity
  8
1
  6
Continuous
100
AcDbCircle
 10
187.3307542233883
 20
325.6415650070524
 30
0.0
 40
2.0
100
AcDbArc
 50
0.0
 51
48.59037789073365
  0
LINE
  5
101E
330
EBD
100
AcDbEntity
  8
1
  6
Continuous
100
AcDbLine
 10
189.3307542233881
 20
325.6415650070524
 30
0.0
 11
189.3307542233883
 21
322.2953043403852
 31
0.0
  0
LINE
  5
101F
330
EBD
100
AcDbEntity
  8
1
  6
Continuous
100
AcDbLine
 10
187.3307542233881
 20
327.1415650070525
 30
0.0
 11
187.3307542233876
 21
321.6415650070525
 31
0.0
  0
LINE
  5
1020
330
EBD
100
AcDbEntity
  8
1
  6
Continuous
100
AcDbLine
 10
301.1193244350549
 20
250.5980985260471
 30
0.0
 11
301.1193244350549
 21
108.5980985260472
 31
0.0
  0
LINE
  5
1021
330
EBD
100
AcDbEntity
  8
1
  6
Continuous
100
AcDbLine
 10
337.119322435797
 20
108.5980984835194
 30
0.0
 11
337.1193244487689
 21
250.5980984835193
 31
0.0
  0
LINE
  5
1022
330
EBD
100
AcDbEntity
  8
4
  6
CENTER
100
AcDbLine
 10
319.1193244350549
 20
99.08684467373465
 30
0.0
 11
319.1193244350549
 21
259.547023020141
 31
0.0
  0
LINE
  5
1023
330
EBD
100
AcDbEntity
  8
1
  6
Continuous
100
AcDbLine
 10
334.1193244487689
 20
253.5980985260469
 30
0.0
 11
304.1193244350549
 21
253.5980985260469
 31
0.0
  0
ARC
  5
1024
330
EBD
100
AcDbEntity
  8
1
  6
Continuous
100
AcDbCircle
 10
334.1193244487689
 20
250.5980985260471
 30
0.0
 40
3.0
100
AcDbArc
 50
359.999999187783
 51
90.00000000000005
  0
ARC
  5
1025
330
EBD
100
AcDbEntity
  8
1
  6
Continuous
100
AcDbCircle
 10
304.1193244350549
 20
250.5980985260471
 30
0.0
 40
3.0
100
AcDbArc
 50
90.0
 51
180.0
  0
LINE
  5
1026
330
EBD
100
AcDbEntity
  8
4
  6
CENTER
100
AcDbLine
 10
299.6193244350549
 20
205.5980985260473
 30
0.0
 11
338.6193244350549
 21
205.598098526047
 31
0.0
  0
LINE
  5
1027
330
EBD
100
AcDbEntity
  8
1
  6
Continuous
100
AcDbLine
 10
304.1193244350549
 20
105.5980985260472
 30
0.0
 11
334.119322435797
 21
105.5980985260472
 31
0.0
  0
ARC
  5
1028
330
EBD
100
AcDbEntity
  8
1
  6
Continuous
100
AcDbCircle
 10
334.119322435797
 20
108.5980985260472
 30
0.0
 40
3.0
100
AcDbArc
 50
270.0
 51
359.999999187783
  0
ARC
  5
1029
330
EBD
100
AcDbEntity
  8
1
  6
Continuous
100
AcDbCircle
 10
304.1193244350549
 20
108.5980985260472
 30
0.0
 40
3.0
100
AcDbArc
 50
180.0
 51
270.0
  0
LINE
  5
102A
330
EBD
100
AcDbEntity
  8
1
  6
Continuous
100
AcDbLine
 10
332.1193244204171
 20
248.5980985260471
 30
0.0
 11
306.1193244350549
 21
248.5980985260471
 31
0.0
  0
LINE
  5
102B
330
EBD
100
AcDbEntity
  8
1
  6
Continuous
100
AcDbLine
 10
332.1193224641488
 20
110.5980985260472
 30
0.0
 11
332.1193231729417
 21
160.5980985260471
 31
0.0
  0
LINE
  5
102C
330
EBD
100
AcDbEntity
  8
1
  6
Continuous
100
AcDbLine
 10
306.1193244350549
 20
248.5980985260471
 30
0.0
 11
306.1193244350549
 21
243.5980985260473
 31
0.0
  0
LINE
  5
102D
330
EBD
100
AcDbEntity
  8
1
  6
Continuous
100
AcDbLine
 10
306.1193244350549
 20
110.5980985260472
 30
0.0
 11
332.1193224641488
 21
110.5980985260472
 31
0.0
  0
LINE
  5
102E
330
EBD
100
AcDbEntity
  8
1
  6
Continuous
100
AcDbLine
 10
332.6193244350549
 20
243.5980985260473
 30
0.0
 11
305.6193244350549
 21
243.598098526047
 31
0.0
  0
LINE
  5
102F
330
EBD
100
AcDbEntity
  8
1
  6
Continuous
100
AcDbLine
 10
332.6193244350549
 20
160.5980985260471
 30
0.0
 11
305.6193244350549
 21
160.5980985260474
 31
0.0
  0
LINE
  5
1030
330
EBD
100
AcDbEntity
  8
1
  6
Continuous
100
AcDbLine
 10
305.6193244350549
 20
243.598098526047
 30
0.0
 11
305.6193244350549
 21
193.5980985260474
 31
0.0
  0
LINE
  5
1031
330
EBD
100
AcDbEntity
  8
1
  6
Continuous
100
AcDbLine
 10
332.6193244350549
 20
243.5980985260473
 30
0.0
 11
332.6193244350549
 21
193.5980985260474
 31
0.0
  0
LINE
  5
1032
330
EBD
100
AcDbEntity
  8
1
  6
Continuous
100
AcDbLine
 10
306.8440691080924
 20
193.5980985260474
 30
0.0
 11
305.6193244350549
 21
193.5980985260474
 31
0.0
  0
LINE
  5
1033
330
EBD
100
AcDbEntity
  8
1
  6
Continuous
100
AcDbLine
 10
305.6193244350549
 20
188.4767785260473
 30
0.0
 11
305.6193244350549
 21
160.5980985260474
 31
0.0
  0
LINE
  5
1034
330
EBD
100
AcDbEntity
  8
1
  6
Continuous
100
AcDbLine
 10
332.6193244350549
 20
188.4767785260473
 30
0.0
 11
332.6193244350549
 21
160.5980985260471
 31
0.0
  0
LINE
  5
1035
330
EBD
100
AcDbEntity
  8
1
  6
Continuous
100
AcDbLine
 10
306.1193244350549
 20
193.5980985260474
 30
0.0
 11
306.1193244350549
 21
189.3428039298315
 31
0.0
  0
LINE
  5
1036
330
EBD
100
AcDbEntity
  8
1
  6
Continuous
100
AcDbLine
 10
332.1193243495379
 20
243.5980985260473
 30
0.0
 11
332.1193244204171
 21
248.5980985260471
 31
0.0
  0
LINE
  5
1037
330
EBD
100
AcDbEntity
  8
1
  6
Continuous
100
AcDbLine
 10
307.7100945118771
 20
192.0980985260475
 30
0.0
 11
305.6193244350549
 21
188.4767785260473
 31
0.0
  0
ARC
  5
1038
330
EBD
100
AcDbEntity
  8
1
  6
Continuous
100
AcDbCircle
 10
306.8440691080924
 20
192.5980985260473
 30
0.0
 40
1.0
100
AcDbArc
 50
330.0000000000228
 51
90.0
  0
LINE
  5
1039
330
EBD
100
AcDbEntity
  8
1
  6
Continuous
100
AcDbLine
 10
306.1193244350549
 20
160.5980985260471
 30
0.0
 11
306.1193244350549
 21
110.5980985260472
 31
0.0
  0
LINE
  5
103A
330
EBD
100
AcDbEntity
  8
1
  6
Continuous
100
AcDbLine
 10
330.528554358233
 20
192.0980985260475
 30
0.0
 11
332.6193244350549
 21
188.4767785260473
 31
0.0
  0
LINE
  5
103B
330
EBD
100
AcDbEntity
  8
1
  6
Continuous
100
AcDbLine
 10
331.3945797620176
 20
193.5980985260474
 30
0.0
 11
332.6193244350552
 21
193.5980985260474
 31
0.0
  0
LINE
  5
103C
330
EBD
100
AcDbEntity
  8
1
  6
Continuous
100
AcDbLine
 10
332.1193244350549
 20
193.5980985260474
 30
0.0
 11
332.1193244350549
 21
189.3428039298315
 31
0.0
  0
ARC
  5
103D
330
EBD
100
AcDbEntity
  8
1
  6
Continuous
100
AcDbCircle
 10
331.3945797620176
 20
192.5980985260473
 30
0.0
 40
1.0
100
AcDbArc
 50
90.0
 51
209.9999999999771
  0
LINE
  5
103E
330
EBD
100
AcDbEntity
  8
4
  6
CENTER
100
AcDbLine
 10
309.5809604515545
 20
125.3480985260446
 30
0.0
 11
328.6606417479589
 21
125.3480985260446
 31
0.0
  0
ARC
  5
103F
330
EBD
100
AcDbEntity
  8
1
  6
Continuous
100
AcDbCircle
 10
319.1193244350549
 20
125.3480985260446
 30
0.0
 40
7.499999999997212
100
AcDbArc
 50
126.8698976457887
 51
53.13010235421106
  0
LINE
  5
1040
330
EBD
100
AcDbEntity
  8
1
  6
Continuous
100
AcDbLine
 10
314.619324435062
 20
131.3480985260474
 30
0.0
 11
323.6193244350482
 21
131.3480985260474
 31
0.0
  0
CIRCLE
  5
1041
330
EBD
100
AcDbEntity
  8
1
  6
Continuous
100
AcDbCircle
 10
319.1193244350549
 20
125.3480985260446
 30
0.0
 40
4.099999999999996
  0
LINE
  5
1042
330
EBD
100
AcDbEntity
  8
1
  6
Continuous
100
AcDbLine
 10
319.6437047734767
 20
124.2075352879908
 30
0.0
 11
320.2772724494197
 21
123.5965950290456
 31
0.0
  0
LINE
  5
1043
330
EBD
100
AcDbEntity
  8
1
  6
Continuous
100
AcDbLine
 10
319.6444118802576
 20
126.4893688708798
 30
0.0
 11
320.2765653426383
 21
127.100309129825
 31
0.0
  0
ARC
  5
1044
330
EBD
100
AcDbEntity
  8
1
  6
Continuous
100
AcDbCircle
 10
319.118324435055
 20
125.3480985260446
 30
0.0
 40
2.1
100
AcDbArc
 50
213.463
 51
236.5369999999999
  0
ARC
  5
1045
330
EBD
100
AcDbEntity
  8
1
  6
Continuous
100
AcDbCircle
 10
319.118324435055
 20
125.3480985260446
 30
0.0
 40
2.1
100
AcDbArc
 50
123.4629999999998
 51
146.5369999999998
  0
LINE
  5
1046
330
EBD
100
AcDbEntity
  8
1
  6
Continuous
100
AcDbLine
 10
317.9777611970008
 20
124.8227181876232
 30
0.0
 11
317.3668209380558
 21
124.1905647252423
 31
0.0
  0
LINE
  5
1047
330
EBD
100
AcDbEntity
  8
1
  6
Continuous
100
AcDbLine
 10
317.9777611970008
 20
125.8734788644664
 30
0.0
 11
317.3668209380559
 21
126.5056323268471
 31
0.0
  0
LINE
  5
1048
330
EBD
100
AcDbEntity
  8
1
  6
Continuous
100
AcDbLine
 10
319.119031541836
 20
124.3984541189112
 30
0.0
 11
319.6437047734767
 21
124.2075352879908
 31
0.0
  0
LINE
  5
1049
330
EBD
100
AcDbEntity
  8
1
  6
Continuous
100
AcDbLine
 10
318.1686800279214
 20
125.3488056328259
 30
0.0
 11
317.9777611970008
 21
124.8227181876232
 31
0.0
  0
LINE
  5
104A
330
EBD
100
AcDbEntity
  8
1
  6
Continuous
100
AcDbLine
 10
318.5929440966333
 20
124.2075352879908
 30
0.0
 11
317.9607906342525
 21
123.5965950290456
 31
0.0
  0
LINE
  5
104B
330
EBD
100
AcDbEntity
  8
1
  6
Continuous
100
AcDbLine
 10
319.119031541836
 20
124.3984541189112
 30
0.0
 11
318.5929440966333
 21
124.2075352879908
 31
0.0
  0
LINE
  5
104C
330
EBD
100
AcDbEntity
  8
1
  6
Continuous
100
AcDbLine
 10
319.118324435055
 20
126.2984500399594
 30
0.0
 11
318.5936512034146
 21
126.4893688708798
 31
0.0
  0
LINE
  5
104D
330
EBD
100
AcDbEntity
  8
1
  6
Continuous
100
AcDbLine
 10
318.5936512034146
 20
126.4893688708798
 30
0.0
 11
317.9607906342525
 21
127.0996020230438
 31
0.0
  0
LINE
  5
104E
330
EBD
100
AcDbEntity
  8
1
  6
Continuous
100
AcDbLine
 10
318.1686800279214
 20
125.3488056328259
 30
0.0
 11
317.9777611970008
 21
125.8734788644664
 31
0.0
  0
LINE
  5
104F
330
EBD
100
AcDbEntity
  8
1
  6
Continuous
100
AcDbLine
 10
319.118324435055
 20
126.2984500399594
 30
0.0
 11
319.6444118802576
 21
126.4893688708798
 31
0.0
  0
ARC
  5
1050
330
EBD
100
AcDbEntity
  8
1
  6
Continuous
100
AcDbCircle
 10
319.118324435055
 20
125.3480985260446
 30
0.0
 40
2.1
100
AcDbArc
 50
303.463
 51
326.5369999999998
  0
ARC
  5
1051
330
EBD
100
AcDbEntity
  8
1
  6
Continuous
100
AcDbCircle
 10
319.118324435055
 20
125.3480985260446
 30
0.0
 40
2.1
100
AcDbArc
 50
33.46300000000004
 51
56.537
  0
LINE
  5
1052
330
EBD
100
AcDbEntity
  8
1
  6
Continuous
100
AcDbLine
 10
320.2595947798899
 20
124.8234252944043
 30
0.0
 11
320.8705350388352
 21
124.189857618461
 31
0.0
  0
LINE
  5
1053
330
EBD
100
AcDbEntity
  8
1
  6
Continuous
100
AcDbLine
 10
320.0686759489697
 20
125.3480985260446
 30
0.0
 11
320.2595947798899
 21
124.8234252944043
 31
0.0
  0
LINE
  5
1054
330
EBD
100
AcDbEntity
  8
1
  6
Continuous
100
AcDbLine
 10
320.2595947798899
 20
125.8741859712475
 30
0.0
 11
320.8705350388352
 21
126.5063394336283
 31
0.0
  0
LINE
  5
1055
330
EBD
100
AcDbEntity
  8
1
  6
Continuous
100
AcDbLine
 10
320.0686759489697
 20
125.3480985260446
 30
0.0
 11
320.2595947798899
 21
125.8741859712475
 31
0.0
  0
LINE
  5
1056
330
EBD
100
AcDbEntity
  8
1
  6
Continuous
100
AcDbLine
 10
323.8193244350542
 20
169.5980985260493
 30
0.0
 11
323.8193244350542
 21
160.5980985260471
 31
0.0
  0
LINE
  5
1057
330
EBD
100
AcDbEntity
  8
1
  6
Continuous
100
AcDbLine
 10
314.4193244350546
 20
169.5980985260464
 30
0.0
 11
314.4193244350546
 21
160.5980985260474
 31
0.0
  0
LINE
  5
1058
330
EBD
100
AcDbEntity
  8
4
  6
CENTER
100
AcDbLine
 10
325.8193244350554
 20
169.5980985260474
 30
0.0
 11
312.4193244350546
 21
169.5980985260474
 31
0.0
  0
ARC
  5
1059
330
EBD
100
AcDbEntity
  8
1
  6
Continuous
100
AcDbCircle
 10
319.1193244350549
 20
169.5980985260474
 30
0.0
 40
4.700000000000383
100
AcDbArc
 50
0.0
 51
180.0
  0
CIRCLE
  5
105A
330
EBD
100
AcDbEntity
  8
1
  6
Continuous
100
AcDbCircle
 10
319.1193244350549
 20
205.598098526047
 30
0.0
 40
8.0
  0
LINE
  5
105B
330
EBD
100
AcDbEntity
  8
4
  6
CENTER
100
AcDbLine
 10
307.9207212234206
 20
222.5980985259576
 30
0.0
 11
329.1871896628915
 21
222.5980985259714
 31
0.0
  0
LINE
  5
105C
330
EBD
100
AcDbEntity
  8
1
  6
Continuous
100
AcDbLine
 10
314.4193244350546
 20
220.598098525964
 30
0.0
 11
314.4193244350546
 21
224.5980985259496
 31
0.0
  0
LINE
  5
105D
330
EBD
100
AcDbEntity
  8
1
  6
Continuous
100
AcDbLine
 10
323.8193244350542
 20
220.5980985259667
 30
0.0
 11
323.8193244350542
 21
224.5980985259524
 31
0.0
  0
ARC
  5
105E
330
EBD
100
AcDbEntity
  8
1
  6
Continuous
100
AcDbCircle
 10
319.1193244350549
 20
220.598098525965
 30
0.0
 40
2.25
100
AcDbArc
 50
239.4102786546768
 51
300.5897213453232
  0
ARC
  5
105F
330
EBD
100
AcDbEntity
  8
1
  6
Continuous
100
AcDbCircle
 10
319.1193244350549
 20
220.598098525965
 30
0.0
 40
4.699999999999363
100
AcDbArc
 50
180.0
 51
0.0
  0
ARC
  5
1060
330
EBD
100
AcDbEntity
  8
1
  6
Continuous
100
AcDbCircle
 10
319.1193244350549
 20
224.5980985259504
 30
0.0
 40
4.699999999999363
100
AcDbArc
 50
0.0
 51
180.0
  0
ARC
  5
1061
330
EBD
100
AcDbEntity
  8
1
  6
Continuous
100
AcDbCircle
 10
319.1193244350549
 20
224.5980985259504
 30
0.0
 40
2.25
100
AcDbArc
 50
59.41027865609942
 51
120.5897213439004
  0
CIRCLE
  5
1062
330
EBD
100
AcDbEntity
  8
1
  6
Continuous
100
AcDbCircle
 10
319.1193244350549
 20
169.5980985260474
 30
0.0
 40
4.099999999999996
  0
LINE
  5
1063
330
EBD
100
AcDbEntity
  8
1
  6
Continuous
100
AcDbLine
 10
319.6444118802576
 20
170.7393688708826
 30
0.0
 11
320.2765653426383
 21
171.3503091298276
 31
0.0
  0
LINE
  5
1064
330
EBD
100
AcDbEntity
  8
1
  6
Continuous
100
AcDbLine
 10
319.118324435055
 20
170.548450039962
 30
0.0
 11
318.5936512034146
 21
170.7393688708824
 31
0.0
  0
LINE
  5
1065
330
EBD
100
AcDbEntity
  8
1
  6
Continuous
100
AcDbLine
 10
318.5936512034146
 20
170.7393688708824
 30
0.0
 11
317.9607906342525
 21
171.3496020230464
 31
0.0
  0
LINE
  5
1066
330
EBD
100
AcDbEntity
  8
1
  6
Continuous
100
AcDbLine
 10
319.118324435055
 20
170.548450039962
 30
0.0
 11
319.6444118802576
 21
170.7393688708826
 31
0.0
  0
ARC
  5
1067
330
EBD
100
AcDbEntity
  8
1
  6
Continuous
100
AcDbCircle
 10
319.118324435055
 20
169.5980985260471
 30
0.0
 40
2.1
100
AcDbArc
 50
33.46300000000004
 51
56.537
  0
LINE
  5
1068
330
EBD
100
AcDbEntity
  8
1
  6
Continuous
100
AcDbLine
 10
320.2595947798899
 20
170.1241859712503
 30
0.0
 11
320.8705350388352
 21
170.756339433631
 31
0.0
  0
ARC
  5
1069
330
EBD
100
AcDbEntity
  8
1
  6
Continuous
100
AcDbCircle
 10
319.118324435055
 20
169.5980985260471
 30
0.0
 40
2.1
100
AcDbArc
 50
123.4629999999998
 51
146.5369999999998
  0
LINE
  5
106A
330
EBD
100
AcDbEntity
  8
1
  6
Continuous
100
AcDbLine
 10
317.9777611970008
 20
170.123478864469
 30
0.0
 11
317.3668209380559
 21
170.7556323268498
 31
0.0
  0
LINE
  5
106B
330
EBD
100
AcDbEntity
  8
1
  6
Continuous
100
AcDbLine
 10
319.6437047734767
 20
168.4575352879934
 30
0.0
 11
320.2772724494197
 21
167.8465950290483
 31
0.0
  0
LINE
  5
106C
330
EBD
100
AcDbEntity
  8
1
  6
Continuous
100
AcDbLine
 10
319.119031541836
 20
168.6484541189138
 30
0.0
 11
319.6437047734767
 21
168.4575352879934
 31
0.0
  0
LINE
  5
106D
330
EBD
100
AcDbEntity
  8
1
  6
Continuous
100
AcDbLine
 10
318.1686800279214
 20
169.5988056328286
 30
0.0
 11
317.9777611970008
 21
169.0727181876258
 31
0.0
  0
LINE
  5
106E
330
EBD
100
AcDbEntity
  8
1
  6
Continuous
100
AcDbLine
 10
318.5929440966333
 20
168.4575352879936
 30
0.0
 11
317.9607906342525
 21
167.8465950290483
 31
0.0
  0
LINE
  5
106F
330
EBD
100
AcDbEntity
  8
1
  6
Continuous
100
AcDbLine
 10
319.119031541836
 20
168.6484541189138
 30
0.0
 11
318.5929440966333
 21
168.4575352879936
 31
0.0
  0
ARC
  5
1070
330
EBD
100
AcDbEntity
  8
1
  6
Continuous
100
AcDbCircle
 10
319.118324435055
 20
169.5980985260471
 30
0.0
 40
2.1
100
AcDbArc
 50
303.463
 51
326.5369999999998
  0
LINE
  5
1071
330
EBD
100
AcDbEntity
  8
1
  6
Continuous
100
AcDbLine
 10
320.2595947798899
 20
169.073425294407
 30
0.0
 11
320.8705350388352
 21
168.4398576184638
 31
0.0
  0
LINE
  5
1072
330
EBD
100
AcDbEntity
  8
1
  6
Continuous
100
AcDbLine
 10
320.0686759489697
 20
169.5980985260474
 30
0.0
 11
320.2595947798899
 21
169.073425294407
 31
0.0
  0
ARC
  5
1073
330
EBD
100
AcDbEntity
  8
1
  6
Continuous
100
AcDbCircle
 10
319.118324435055
 20
169.5980985260471
 30
0.0
 40
2.1
100
AcDbArc
 50
213.463
 51
236.5369999999999
  0
LINE
  5
1074
330
EBD
100
AcDbEntity
  8
1
  6
Continuous
100
AcDbLine
 10
317.9777611970008
 20
169.0727181876258
 30
0.0
 11
317.3668209380558
 21
168.4405647252449
 31
0.0
  0
LINE
  5
1075
330
EBD
100
AcDbEntity
  8
1
  6
Continuous
100
AcDbLine
 10
318.1686800279214
 20
169.5988056328286
 30
0.0
 11
317.9777611970008
 21
170.123478864469
 31
0.0
  0
LINE
  5
1076
330
EBD
100
AcDbEntity
  8
1
  6
Continuous
100
AcDbLine
 10
320.0686759489697
 20
169.5980985260474
 30
0.0
 11
320.2595947798899
 21
170.1241859712503
 31
0.0
  0
CIRCLE
  5
1077
330
EBD
100
AcDbEntity
  8
1
  6
Continuous
100
AcDbCircle
 10
319.1193244350549
 20
222.598098525965
 30
0.0
 40
4.099999999999996
  0
LINE
  5
1078
330
EBD
100
AcDbEntity
  8
1
  6
Continuous
100
AcDbLine
 10
317.9777611970008
 20
223.1234788643864
 30
0.0
 11
317.3668209380559
 21
223.7556323267674
 31
0.0
  0
LINE
  5
1079
330
EBD
100
AcDbEntity
  8
1
  6
Continuous
100
AcDbLine
 10
320.2595947798899
 20
223.1241859711678
 30
0.0
 11
320.8705350388352
 21
223.7563394335484
 31
0.0
  0
LINE
  5
107A
330
EBD
100
AcDbEntity
  8
1
  6
Continuous
100
AcDbLine
 10
319.118324435055
 20
223.5484500398797
 30
0.0
 11
319.6444118802576
 21
223.7393688708
 31
0.0
  0
LINE
  5
107B
330
EBD
100
AcDbEntity
  8
1
  6
Continuous
100
AcDbLine
 10
319.118324435055
 20
223.5484500398797
 30
0.0
 11
318.5936512034146
 21
223.7393688707999
 31
0.0
  0
LINE
  5
107C
330
EBD
100
AcDbEntity
  8
1
  6
Continuous
100
AcDbLine
 10
320.0686759489697
 20
222.598098525965
 30
0.0
 11
320.2595947798899
 21
223.1241859711678
 31
0.0
  0
LINE
  5
107D
330
EBD
100
AcDbEntity
  8
1
  6
Continuous
100
AcDbLine
 10
318.1686800279214
 20
222.5988056327462
 30
0.0
 11
317.9777611970008
 21
223.1234788643864
 31
0.0
  0
LINE
  5
107E
330
EBD
100
AcDbEntity
  8
1
  6
Continuous
100
AcDbLine
 10
317.9777611970008
 20
222.0727181875435
 30
0.0
 11
317.3668209380558
 21
221.4405647251624
 31
0.0
  0
ARC
  5
107F
330
EBD
100
AcDbEntity
  8
1
  6
Continuous
100
AcDbCircle
 10
319.118324435055
 20
222.598098525965
 30
0.0
 40
2.1
100
AcDbArc
 50
213.463
 51
236.5369999999999
  0
LINE
  5
1080
330
EBD
100
AcDbEntity
  8
1
  6
Continuous
100
AcDbLine
 10
320.0686759489697
 20
222.598098525965
 30
0.0
 11
320.2595947798899
 21
222.0734252943246
 31
0.0
  0
LINE
  5
1081
330
EBD
100
AcDbEntity
  8
1
  6
Continuous
100
AcDbLine
 10
320.2595947798899
 20
222.0734252943246
 30
0.0
 11
320.8705350388352
 21
221.4398576183814
 31
0.0
  0
ARC
  5
1082
330
EBD
100
AcDbEntity
  8
1
  6
Continuous
100
AcDbCircle
 10
319.118324435055
 20
222.598098525965
 30
0.0
 40
2.1
100
AcDbArc
 50
303.463
 51
326.5369999999998
  0
LINE
  5
1083
330
EBD
100
AcDbEntity
  8
1
  6
Continuous
100
AcDbLine
 10
319.119031541836
 20
221.6484541188314
 30
0.0
 11
318.5929440966333
 21
221.4575352879112
 31
0.0
  0
LINE
  5
1084
330
EBD
100
AcDbEntity
  8
1
  6
Continuous
100
AcDbLine
 10
318.5929440966333
 20
221.4575352879112
 30
0.0
 11
317.9607906342525
 21
220.846595028966
 31
0.0
  0
LINE
  5
1085
330
EBD
100
AcDbEntity
  8
1
  6
Continuous
100
AcDbLine
 10
318.1686800279214
 20
222.5988056327462
 30
0.0
 11
317.9777611970008
 21
222.0727181875435
 31
0.0
  0
LINE
  5
1086
330
EBD
100
AcDbEntity
  8
1
  6
Continuous
100
AcDbLine
 10
319.119031541836
 20
221.6484541188314
 30
0.0
 11
319.6437047734767
 21
221.4575352879112
 31
0.0
  0
LINE
  5
1087
330
EBD
100
AcDbEntity
  8
1
  6
Continuous
100
AcDbLine
 10
319.6437047734767
 20
221.4575352879112
 30
0.0
 11
320.2772724494197
 21
220.846595028966
 31
0.0
  0
ARC
  5
1088
330
EBD
100
AcDbEntity
  8
1
  6
Continuous
100
AcDbCircle
 10
319.118324435055
 20
222.598098525965
 30
0.0
 40
2.1
100
AcDbArc
 50
123.4629999999998
 51
146.5369999999998
  0
ARC
  5
1089
330
EBD
100
AcDbEntity
  8
1
  6
Continuous
100
AcDbCircle
 10
319.118324435055
 20
222.598098525965
 30
0.0
 40
2.1
100
AcDbArc
 50
33.46300000000004
 51
56.537
  0
LINE
  5
108A
330
EBD
100
AcDbEntity
  8
1
  6
Continuous
100
AcDbLine
 10
318.5936512034146
 20
223.7393688707999
 30
0.0
 11
317.9607906342525
 21
224.3496020229641
 31
0.0
  0
LINE
  5
108B
330
EBD
100
AcDbEntity
  8
1
  6
Continuous
100
AcDbLine
 10
319.6444118802576
 20
223.7393688708
 30
0.0
 11
320.2765653426383
 21
224.3503091297451
 31
0.0
  0
LINE
  5
108C
330
EBD
100
AcDbEntity
  8
4
  6
CENTER
100
AcDbLine
 10
309.5809604515545
 20
233.8480985260447
 30
0.0
 11
328.6606417479589
 21
233.8480985260447
 31
0.0
  0
LINE
  5
108D
330
EBD
100
AcDbEntity
  8
1
  6
Continuous
100
AcDbLine
 10
331.6193244350549
 20
144.1980985260474
 30
0.0
 11
331.6193244350549
 21
155.1980985260474
 31
0.0
  0
LINE
  5
108E
330
EBD
100
AcDbEntity
  8
1
  6
Continuous
100
AcDbLine
 10
306.6193244350549
 20
144.1980985260474
 30
0.0
 11
306.6193244350551
 21
155.1980985260474
 31
0.0
  0
ARC
  5
108F
330
EBD
100
AcDbEntity
  8
1
  6
Continuous
100
AcDbCircle
 10
319.1193244350549
 20
144.1980985260474
 30
0.0
 40
12.5
100
AcDbArc
 50
179.9999999999994
 51
0.0000000000002606
  0
LINE
  5
1090
330
EBD
100
AcDbEntity
  8
1
  6
Continuous
100
AcDbLine
 10
329.6193244350549
 20
157.1980985260474
 30
0.0
 11
326.2174124117472
 21
157.1980985260474
 31
0.0
  0
ARC
  5
1091
330
EBD
100
AcDbEntity
  8
1
  6
Continuous
100
AcDbCircle
 10
319.1193244350549
 20
144.1980985260474
 30
0.0
 40
10.5
100
AcDbArc
 50
179.9999999999994
 51
0.0000000000002606
  0
LINE
  5
1092
330
EBD
100
AcDbEntity
  8
1
  6
Continuous
100
AcDbLine
 10
308.6193244350549
 20
144.1980985260474
 30
0.0
 11
308.619324435055
 21
153.1980985260472
 31
0.0
  0
LINE
  5
1093
330
EBD
100
AcDbEntity
  8
1
  6
Continuous
100
AcDbLine
 10
329.6193244350549
 20
144.1980985260474
 30
0.0
 11
329.6193244350549
 21
153.1980985260472
 31
0.0
  0
ARC
  5
1094
330
EBD
100
AcDbEntity
  8
1
  6
Continuous
100
AcDbCircle
 10
308.6193244350551
 20
155.1980985260474
 30
0.0
 40
2.0
100
AcDbArc
 50
90.0
 51
179.9999999999995
  0
ARC
  5
1095
330
EBD
100
AcDbEntity
  8
1
  6
Continuous
100
AcDbCircle
 10
329.6193244350549
 20
155.1980985260474
 30
0.0
 40
2.0
100
AcDbArc
 50
0.0
 51
90.0
  0
ARC
  5
1096
330
EBD
100
AcDbEntity
  8
1
  6
Continuous
100
AcDbCircle
 10
319.1193244350549
 20
150.1541545260471
 30
0.0
 40
10.0
100
AcDbArc
 50
44.7806392887352
 51
135.2193607112647
  0
ARC
  5
1097
330
EBD
100
AcDbEntity
  8
1
  6
Continuous
100
AcDbCircle
 10
319.1193244350549
 20
150.1541545260471
 30
0.0
 40
8.0
100
AcDbArc
 50
44.7806392887352
 51
135.2193607112648
  0
LINE
  5
1098
330
EBD
100
AcDbEntity
  8
1
  6
Continuous
100
AcDbLine
 10
312.0212364583625
 20
155.1980985260474
 30
0.0
 11
310.619324435055
 21
155.1980985260474
 31
0.0
  0
ARC
  5
1099
330
EBD
100
AcDbEntity
  8
1
  6
Continuous
100
AcDbCircle
 10
312.0212364583625
 20
157.1980985260474
 30
0.0
 40
2.0
100
AcDbArc
 50
270.0
 51
315.2193607112643
  0
ARC
  5
109A
330
EBD
100
AcDbEntity
  8
1
  6
Continuous
100
AcDbCircle
 10
310.619324435055
 20
153.1980985260472
 30
0.0
 40
2.0
100
AcDbArc
 50
90.0
 51
179.9999999999995
  0
LINE
  5
109B
330
EBD
100
AcDbEntity
  8
1
  6
Continuous
100
AcDbLine
 10
312.0212364583625
 20
157.1980985260474
 30
0.0
 11
308.6193244350551
 21
157.1980985260474
 31
0.0
  0
ARC
  5
109C
330
EBD
100
AcDbEntity
  8
1
  6
Continuous
100
AcDbCircle
 10
327.6193244350549
 20
153.1980985260472
 30
0.0
 40
2.0
100
AcDbArc
 50
0.0000000000002615
 51
90.0
  0
LINE
  5
109D
330
EBD
100
AcDbEntity
  8
1
  6
Continuous
100
AcDbLine
 10
326.2174124117472
 20
155.1980985260474
 30
0.0
 11
327.6193244350549
 21
155.1980985260474
 31
0.0
  0
ARC
  5
109E
330
EBD
100
AcDbEntity
  8
1
  6
Continuous
100
AcDbCircle
 10
326.2174124117472
 20
157.1980985260474
 30
0.0
 40
2.0
100
AcDbArc
 50
224.7806392887353
 51
270.0
  0
CIRCLE
  5
109F
330
EBD
100
AcDbEntity
  8
1
  6
Continuous
100
AcDbCircle
 10
319.1193244350549
 20
205.598098526047
 30
0.0
 40
6.5
  0
ARC
  5
10A0
330
EBD
100
AcDbEntity
  8
1
  6
Continuous
100
AcDbCircle
 10
319.1193244350549
 20
205.598098526047
 30
0.0
 40
3.1
100
AcDbArc
 50
25.88778452829981
 51
64.11221547170066
  0
LINE
  5
10A1
330
EBD
100
AcDbEntity
  8
1
  6
Continuous
100
AcDbLine
 10
320.6040540225542
 20
205.601063133342
 30
0.0
 11
321.9082421777462
 21
206.9515895029296
 31
0.0
  0
LINE
  5
10A2
330
EBD
100
AcDbEntity
  8
1
  6
Continuous
100
AcDbLine
 10
321.9082421777462
 20
204.2446075491644
 30
0.0
 11
320.6040540225542
 21
205.5951339187524
 31
0.0
  0
ARC
  5
10A3
330
EBD
100
AcDbEntity
  8
1
  6
Continuous
100
AcDbCircle
 10
319.1193244350549
 20
205.598098526047
 30
0.0
 40
3.1
100
AcDbArc
 50
295.8877845283009
 51
334.1122154716988
  0
CIRCLE
  5
10A4
330
EBD
100
AcDbEntity
  8
1
  6
Continuous
100
AcDbCircle
 10
319.1193244350549
 20
205.598098526047
 30
0.0
 40
4.049999999999998
  0
CIRCLE
  5
10A5
330
EBD
100
AcDbEntity
  8
1
  6
Continuous
100
AcDbCircle
 10
319.1193244350549
 20
205.598098526047
 30
0.0
 40
5.0
  0
LINE
  5
10A6
330
EBD
100
AcDbEntity
  8
1
  6
Continuous
100
AcDbLine
 10
324.1193244350549
 20
202.7110985260473
 30
0.0
 11
319.1193244350549
 21
199.8240985260471
 31
0.0
  0
LINE
  5
10A7
330
EBD
100
AcDbEntity
  8
1
  6
Continuous
100
AcDbLine
 10
319.1193244350549
 20
211.371098526047
 30
0.0
 11
324.1193244350549
 21
208.4850985260473
 31
0.0
  0
LINE
  5
10A8
330
EBD
100
AcDbEntity
  8
1
  6
Continuous
100
AcDbLine
 10
316.3304066923639
 20
206.9515895029298
 30
0.0
 11
317.6345948475557
 21
205.601063133342
 31
0.0
  0
LINE
  5
10A9
330
EBD
100
AcDbEntity
  8
1
  6
Continuous
100
AcDbLine
 10
317.6345948475557
 20
205.5951339187524
 30
0.0
 11
316.3304066923639
 21
204.2446075491648
 31
0.0
  0
ARC
  5
10AA
330
EBD
100
AcDbEntity
  8
1
  6
Continuous
100
AcDbCircle
 10
319.1193244350549
 20
205.598098526047
 30
0.0
 40
3.1
100
AcDbArc
 50
205.8877845282996
 51
244.1122154716998
  0
LINE
  5
10AB
330
EBD
100
AcDbEntity
  8
1
  6
Continuous
100
AcDbLine
 10
314.1193244350549
 20
202.7110985260473
 30
0.0
 11
319.1193244350549
 21
199.8240985260471
 31
0.0
  0
LINE
  5
10AC
330
EBD
100
AcDbEntity
  8
1
  6
Continuous
100
AcDbLine
 10
319.1163598277602
 20
204.1133689385476
 30
0.0
 11
317.7658334581725
 21
202.809180783356
 31
0.0
  0
LINE
  5
10AD
330
EBD
100
AcDbEntity
  8
1
  6
Continuous
100
AcDbLine
 10
317.635501218964
 20
205.598098526047
 30
0.0
 11
317.6345948475557
 21
205.601063133342
 31
0.0
  0
LINE
  5
10AE
330
EBD
100
AcDbEntity
  8
1
  6
Continuous
100
AcDbLine
 10
317.635501218964
 20
205.598098526047
 30
0.0
 11
317.6345948475557
 21
205.5951339187524
 31
0.0
  0
LINE
  5
10AF
330
EBD
100
AcDbEntity
  8
1
  6
Continuous
100
AcDbLine
 10
319.1193244350549
 20
204.1142753099564
 30
0.0
 11
319.1163598277602
 21
204.1133689385476
 31
0.0
  0
LINE
  5
10B0
330
EBD
100
AcDbEntity
  8
1
  6
Continuous
100
AcDbLine
 10
319.1193244350549
 20
204.1142753099564
 30
0.0
 11
319.1222890423499
 21
204.1133689385476
 31
0.0
  0
LINE
  5
10B1
330
EBD
100
AcDbEntity
  8
1
  6
Continuous
100
AcDbLine
 10
320.6031476511457
 20
205.598098526047
 30
0.0
 11
320.6040540225542
 21
205.5951339187524
 31
0.0
  0
LINE
  5
10B2
330
EBD
100
AcDbEntity
  8
1
  6
Continuous
100
AcDbLine
 10
320.6031476511457
 20
205.598098526047
 30
0.0
 11
320.6040540225542
 21
205.601063133342
 31
0.0
  0
LINE
  5
10B3
330
EBD
100
AcDbEntity
  8
1
  6
Continuous
100
AcDbLine
 10
320.4728154119376
 20
202.809180783356
 30
0.0
 11
319.1222890423499
 21
204.1133689385476
 31
0.0
  0
ARC
  5
10B4
330
EBD
100
AcDbEntity
  8
1
  6
Continuous
100
AcDbCircle
 10
319.1193244350549
 20
205.598098526047
 30
0.0
 40
3.1
100
AcDbArc
 50
115.887784528301
 51
154.1122154716988
  0
LINE
  5
10B5
330
EBD
100
AcDbEntity
  8
1
  6
Continuous
100
AcDbLine
 10
319.1193244350549
 20
211.371098526047
 30
0.0
 11
314.1193244350549
 21
208.4850985260473
 31
0.0
  0
LINE
  5
10B6
330
EBD
100
AcDbEntity
  8
1
  6
Continuous
100
AcDbLine
 10
317.7658334581725
 20
208.3870162687383
 30
0.0
 11
319.1163598277602
 21
207.0828281135464
 31
0.0
  0
LINE
  5
10B7
330
EBD
100
AcDbEntity
  8
1
  6
Continuous
100
AcDbLine
 10
319.1222890423496
 20
207.0828281135466
 30
0.0
 11
320.4728154119373
 21
208.3870162687384
 31
0.0
  0
LINE
  5
10B8
330
EBD
100
AcDbEntity
  8
1
  6
Continuous
100
AcDbLine
 10
319.1193244350549
 20
207.0819217421381
 30
0.0
 11
319.1222890423496
 21
207.0828281135466
 31
0.0
  0
LINE
  5
10B9
330
EBD
100
AcDbEntity
  8
1
  6
Continuous
100
AcDbLine
 10
319.1193244350549
 20
207.0819217421381
 30
0.0
 11
319.1163598277602
 21
207.0828281135466
 31
0.0
  0
LINE
  5
10BA
330
EBD
100
AcDbEntity
  8
1
  6
Continuous
100
AcDbLine
 10
324.1193244350549
 20
202.7110985260473
 30
0.0
 11
324.1193244350549
 21
208.4850985260473
 31
0.0
  0
LINE
  5
10BB
330
EBD
100
AcDbEntity
  8
1
  6
Continuous
100
AcDbLine
 10
314.1193244350549
 20
202.7110985260473
 30
0.0
 11
314.1193244350549
 21
208.4850985260473
 31
0.0
  0
LINE
  5
10BC
330
EBD
100
AcDbEntity
  8
1
  6
Continuous
100
AcDbLine
 10
479.1578946467215
 20
115.2980985260475
 30
0.0
 11
479.1578946467215
 21
215.467369015805
 31
0.0
  0
ARC
  5
10BD
330
EBD
100
AcDbEntity
  8
1
  6
Continuous
100
AcDbCircle
 10
434.3312746467211
 20
133.3760185260474
 30
0.0
 40
44.586898
100
AcDbArc
 50
323.4295409999999
 51
358.7697509999999
  0
LINE
  5
10BE
330
EBD
100
AcDbEntity
  8
1
  6
Continuous
100
AcDbLine
 10
466.8578946467213
 20
253.5980985260473
 30
0.0
 11
466.8578946467213
 21
105.5980985260474
 31
0.0
  0
LINE
  5
10BF
330
EBD
100
AcDbEntity
  8
1
  6
Continuous
100
AcDbLine
 10
481.357894646721
 20
115.5980985260472
 30
0.0
 11
481.357894646721
 21
213.8928265260473
 31
0.0
  0
LINE
  5
10C0
330
EBD
100
AcDbEntity
  8
1
  6
Continuous
100
AcDbLine
 10
480.8578946467211
 20
115.0980985260473
 30
0.0
 11
479.3578946467213
 21
115.0980985260474
 31
0.0
  0
ARC
  5
10C1
330
EBD
100
AcDbEntity
  8
1
  6
Continuous
100
AcDbCircle
 10
479.3578946467213
 20
115.2980985260473
 30
0.0
 40
0.2
100
AcDbArc
 50
180.0
 51
270.0
  0
ARC
  5
10C2
330
EBD
100
AcDbEntity
  8
1
  6
Continuous
100
AcDbCircle
 10
480.8578946467211
 20
115.5980985260472
 30
0.0
 40
0.5
100
AcDbArc
 50
270.0
 51
0.000000000000007
  0
ARC
  5
10C3
330
EBD
100
AcDbEntity
  8
1
  6
Continuous
100
AcDbCircle
 10
467.7307466467213
 20
108.5980985260474
 30
0.0
 40
3.0
100
AcDbArc
 50
269.999431
 51
323.429934
  0
LINE
  5
10C4
330
EBD
100
AcDbEntity
  8
1
  6
Continuous
100
AcDbLine
 10
466.8578946467213
 20
105.5980985260474
 30
0.0
 11
467.7307166467215
 21
105.5980985260474
 31
0.0
  0
LINE
  5
10C5
330
EBD
100
AcDbEntity
  8
1
  6
Continuous
100
AcDbLine
 10
446.1578946467215
 20
160.5980985260474
 30
0.0
 11
446.1578946467215
 21
243.5980985260473
 31
0.0
  0
LINE
  5
10C6
330
EBD
100
AcDbEntity
  8
1
  6
Continuous
100
AcDbLine
 10
463.3906946467212
 20
203.4848765260472
 30
0.0
 11
463.7834226467213
 21
202.1081825260475
 31
0.0
  0
LINE
  5
10C7
330
EBD
100
AcDbEntity
  8
1
  6
Continuous
100
AcDbLine
 10
460.1578946467212
 20
193.5980985260474
 30
0.0
 11
460.1578946467212
 21
243.5980985260473
 31
0.0
  0
LINE
  5
10C8
330
EBD
100
AcDbEntity
  8
1
  6
Continuous
100
AcDbLine
 10
478.9078946467212
 20
218.2756385260474
 30
0.0
 11
478.9078946467216
 21
132.4187285260473
 31
0.0
  0
ARC
  5
10C9
330
EBD
100
AcDbEntity
  8
1
  6
Continuous
100
AcDbCircle
 10
461.007894646721
 20
125.3480985260474
 30
0.0
 40
6.2
100
AcDbArc
 50
143.4050689999999
 51
162.850973
  0
ARC
  5
10CA
330
EBD
100
AcDbEntity
  8
1
  6
Continuous
100
AcDbCircle
 10
461.007894646721
 20
125.3480985260474
 30
0.0
 40
6.2
100
AcDbArc
 50
197.1490269999999
 51
216.5949309999998
  0
LINE
  5
10CB
330
EBD
100
AcDbEntity
  8
1
  6
Continuous
100
AcDbLine
 10
450.9078946467215
 20
131.6980985260474
 30
0.0
 11
466.8578946467213
 21
131.6980985260474
 31
0.0
  0
LINE
  5
10CC
330
EBD
100
AcDbEntity
  8
1
  6
Continuous
100
AcDbLine
 10
458.9078946467215
 20
178.3475785260474
 30
0.0
 11
450.6815537037668
 21
173.5980985260474
 31
0.0
  0
LINE
  5
10CD
330
EBD
100
AcDbEntity
  8
1
  6
Continuous
100
AcDbLine
 10
450.9078946467215
 20
157.1980985260474
 30
0.0
 11
466.8578946467213
 21
157.1980985260474
 31
0.0
  0
LINE
  5
10CE
330
EBD
100
AcDbEntity
  8
1
  6
Continuous
100
AcDbLine
 10
450.9078946467215
 20
160.1541545260474
 30
0.0
 11
466.8578946467213
 21
160.1541545260474
 31
0.0
  0
LINE
  5
10CF
330
EBD
100
AcDbEntity
  8
1
  6
Continuous
100
AcDbLine
 10
450.6815537037597
 20
168.5980985260474
 30
0.0
 11
466.8578946467213
 21
168.5980985260474
 31
0.0
  0
LINE
  5
10D0
330
EBD
100
AcDbEntity
  8
4
  6
CENTER
100
AcDbLine
 10
443.1854718449268
 20
169.5980985260474
 30
0.0
 11
461.9880461933852
 21
169.5980985260474
 31
0.0
  0
LINE
  5
10D1
330
EBD
100
AcDbEntity
  8
1
  6
Continuous
100
AcDbLine
 10
450.6815537037588
 20
170.5980985260474
 30
0.0
 11
466.8578946467213
 21
170.5980985260474
 31
0.0
  0
LINE
  5
10D2
330
EBD
100
AcDbEntity
  8
1
  6
Continuous
100
AcDbLine
 10
446.1983026467216
 20
193.5980985260474
 30
0.0
 11
460.1578946467212
 21
193.5980985260474
 31
0.0
  0
LINE
  5
10D3
330
EBD
100
AcDbEntity
  8
4
  6
CENTER
100
AcDbLine
 10
470.0742060435896
 20
125.3480985260446
 30
0.0
 11
450.9945247471851
 21
125.3480985260446
 31
0.0
  0
LINE
  5
10D4
330
EBD
100
AcDbEntity
  8
1
  6
Continuous
100
AcDbLine
 10
450.6578946467215
 20
165.5980985260474
 30
0.0
 11
466.8578946467213
 21
165.5980985260474
 31
0.0
  0
LINE
  5
10D5
330
EBD
100
AcDbEntity
  8
1
  6
Continuous
100
AcDbLine
 10
450.6578946467215
 20
173.5980985260474
 30
0.0
 11
466.8578946467213
 21
173.5980985260474
 31
0.0
  0
LINE
  5
10D6
330
EBD
100
AcDbEntity
  8
4
  6
CENTER
100
AcDbLine
 10
472.8722437910374
 20
145.5980985260473
 30
0.0
 11
488.2577278818295
 21
145.5980985260473
 31
0.0
  0
LINE
  5
10D7
330
EBD
100
AcDbEntity
  8
1
  6
Continuous
100
AcDbLine
 10
483.2078946467213
 20
152.6980985260473
 30
0.0
 11
483.2078946467213
 21
138.4980985260473
 31
0.0
  0
LINE
  5
10D8
330
EBD
100
AcDbEntity
  8
1
  6
Continuous
100
AcDbLine
 10
479.1791246467215
 20
124.7773125260473
 30
0.0
 11
479.1578946467216
 21
124.7836785260472
 31
0.0
  0
ARC
  5
10D9
330
EBD
100
AcDbEntity
  8
1
  6
Continuous
100
AcDbCircle
 10
478.6578946467217
 20
135.1236165260472
 30
0.0
 40
0.5
100
AcDbArc
 50
0.000000000000007
 51
59.48193300000001
  0
ARC
  5
10DA
330
EBD
100
AcDbEntity
  8
1
  6
Continuous
100
AcDbCircle
 10
482.9078946467216
 20
138.4980985260474
 30
0.0
 40
0.3
100
AcDbArc
 50
270.0
 51
0.000000000000007
  0
LINE
  5
10DB
330
EBD
100
AcDbEntity
  8
1
  6
Continuous
100
AcDbLine
 10
482.9078946467216
 20
138.1980985260474
 30
0.0
 11
481.3578946467215
 21
138.1980985260474
 31
0.0
  0
LINE
  5
10DC
330
EBD
100
AcDbEntity
  8
1
  6
Continuous
100
AcDbLine
 10
456.0300986467216
 20
129.0442525260472
 30
0.0
 11
456.0300986467216
 21
121.6519445260473
 31
0.0
  0
LINE
  5
10DD
330
EBD
100
AcDbEntity
  8
1
  6
Continuous
100
AcDbLine
 10
456.8329686467213
 20
129.4480985260472
 30
0.0
 11
456.8329686467213
 21
121.2480985260474
 31
0.0
  0
LINE
  5
10DE
330
EBD
100
AcDbEntity
  8
1
  6
Continuous
100
AcDbLine
 10
457.8578946467212
 20
117.8480985260474
 30
0.0
 11
457.8578946467212
 21
131.3480985260474
 31
0.0
  0
LINE
  5
10DF
330
EBD
100
AcDbEntity
  8
1
  6
Continuous
100
AcDbLine
 10
464.8578946467215
 20
131.3480985260474
 30
0.0
 11
464.8578946467215
 21
117.8480985260474
 31
0.0
  0
LINE
  5
10E0
330
EBD
100
AcDbEntity
  8
1
  6
Continuous
100
AcDbLine
 10
464.8578946467215
 20
117.8480985260474
 30
0.0
 11
457.8578946467215
 21
117.8480985260474
 31
0.0
  0
LINE
  5
10E1
330
EBD
100
AcDbEntity
  8
1
  6
Continuous
100
AcDbLine
 10
466.8578946467213
 20
120.8480985260447
 30
0.0
 11
464.8578946467215
 21
120.8480985260447
 31
0.0
  0
LINE
  5
10E2
330
EBD
100
AcDbEntity
  8
1
  6
Continuous
100
AcDbLine
 10
457.8578946467215
 20
121.2480985260474
 30
0.0
 11
456.8329686467213
 21
121.2480985260474
 31
0.0
  0
ARC
  5
10E3
330
EBD
100
AcDbEntity
  8
1
  6
Continuous
100
AcDbCircle
 10
456.8329686467213
 20
122.2480985260474
 30
0.0
 40
1.0
100
AcDbArc
 50
216.5949309999998
 51
270.0
  0
LINE
  5
10E4
330
EBD
100
AcDbEntity
  8
1
  6
Continuous
100
AcDbLine
 10
464.8578946467215
 20
131.3480985260474
 30
0.0
 11
457.8578946467215
 21
131.3480985260474
 31
0.0
  0
LINE
  5
10E5
330
EBD
100
AcDbEntity
  8
1
  6
Continuous
100
AcDbLine
 10
466.8578946467213
 20
129.8480985260447
 30
0.0
 11
464.8578946467215
 21
129.8480985260447
 31
0.0
  0
LINE
  5
10E6
330
EBD
100
AcDbEntity
  8
1
  6
Continuous
100
AcDbLine
 10
457.8578946467215
 20
129.4480985260472
 30
0.0
 11
456.8329686467213
 21
129.4480985260472
 31
0.0
  0
ARC
  5
10E7
330
EBD
100
AcDbEntity
  8
1
  6
Continuous
100
AcDbCircle
 10
456.8329686467213
 20
128.4480985260474
 30
0.0
 40
1.0
100
AcDbArc
 50
90.0
 51
143.4050689999999
  0
LINE
  5
10E8
330
EBD
100
AcDbEntity
  8
1
  6
Continuous
100
AcDbLine
 10
479.1578946467216
 20
143.6352825260474
 30
0.0
 11
478.9126886467216
 21
143.6352825260474
 31
0.0
  0
LINE
  5
10E9
330
EBD
100
AcDbEntity
  8
1
  6
Continuous
100
AcDbLine
 10
478.9078946467216
 20
151.2599285260473
 30
0.0
 11
479.1578946467215
 21
151.2306295157648
 31
0.0
  0
ARC
  5
10EA
330
EBD
100
AcDbEntity
  8
1
  6
Continuous
100
AcDbCircle
 10
482.9078946467216
 20
152.6980985260473
 30
0.0
 40
0.3
100
AcDbArc
 50
0.000000000000007
 51
90.0
  0
LINE
  5
10EB
330
EBD
100
AcDbEntity
  8
1
  6
Continuous
100
AcDbLine
 10
482.9078946467216
 20
152.9980985260474
 30
0.0
 11
481.3578946467215
 21
152.9980985260474
 31
0.0
  0
LINE
  5
10EC
330
EBD
100
AcDbEntity
  8
1
  6
Continuous
100
AcDbLine
 10
458.9078946467215
 20
193.5980985260474
 30
0.0
 11
458.9078946467215
 21
178.3475785260471
 31
0.0
  0
LINE
  5
10ED
330
EBD
100
AcDbEntity
  8
1
  6
Continuous
100
AcDbLine
 10
460.1578946467212
 20
200.7439765260471
 30
0.0
 11
464.3941546467215
 21
200.7439765260472
 31
0.0
  0
LINE
  5
10EE
330
EBD
100
AcDbEntity
  8
1
  6
Continuous
100
AcDbLine
 10
460.1578946467212
 20
195.5979745260474
 30
0.0
 11
464.3941546467215
 21
195.5979745260474
 31
0.0
  0
LINE
  5
10EF
330
EBD
100
AcDbEntity
  8
1
  6
Continuous
100
AcDbLine
 10
463.7834226467216
 20
202.1081825260471
 30
0.0
 11
464.3941546467215
 21
200.7439765260471
 31
0.0
  0
LINE
  5
10F0
330
EBD
100
AcDbEntity
  8
1
  6
Continuous
100
AcDbLine
 10
464.3941546467215
 20
195.5979745260473
 30
0.0
 11
466.8578946467213
 21
193.664916468119
 31
0.0
  0
LINE
  5
10F1
330
EBD
100
AcDbEntity
  8
1
  6
Continuous
100
AcDbLine
 10
464.3941546467215
 20
200.7439765260472
 30
0.0
 11
464.3941546467215
 21
195.5979745260474
 31
0.0
  0
ARC
  5
10F2
330
EBD
100
AcDbEntity
  8
1
  6
Continuous
100
AcDbCircle
 10
450.9078946467215
 20
158.1541545260473
 30
0.0
 40
2.0
100
AcDbArc
 50
90.0
 51
180.0
  0
LINE
  5
10F3
330
EBD
100
AcDbEntity
  8
1
  6
Continuous
100
AcDbLine
 10
450.9078946467215
 20
131.6980985260474
 30
0.0
 11
450.9078946467248
 21
165.5980985260474
 31
0.0
  0
LINE
  5
10F4
330
EBD
100
AcDbEntity
  8
1
  6
Continuous
100
AcDbLine
 10
448.9078946467213
 20
133.6980985260472
 30
0.0
 11
448.9078946467213
 21
158.1541545260473
 31
0.0
  0
LINE
  5
10F5
330
EBD
100
AcDbEntity
  8
1
  6
Continuous
100
AcDbLine
 10
454.9267766467217
 20
125.8480985260472
 30
0.0
 11
455.1015066467216
 21
125.8480985260472
 31
0.0
  0
LINE
  5
10F6
330
EBD
100
AcDbEntity
  8
1
  6
Continuous
100
AcDbLine
 10
455.1015066467213
 20
127.1659505260473
 30
0.0
 11
455.0835406467213
 21
127.1762185260474
 31
0.0
  0
LINE
  5
10F7
330
EBD
100
AcDbEntity
  8
1
  6
Continuous
100
AcDbLine
 10
454.8853486467216
 20
126.0387165260473
 30
0.0
 11
454.9018106467213
 21
125.9436205260475
 31
0.0
  0
LINE
  5
10F8
330
EBD
100
AcDbEntity
  8
1
  6
Continuous
100
AcDbLine
 10
454.9018106467213
 20
125.9436205260472
 30
0.0
 11
454.9267766467216
 21
125.8480985260472
 31
0.0
  0
LINE
  5
10F9
330
EBD
100
AcDbEntity
  8
1
  6
Continuous
100
AcDbLine
 10
455.1015066467216
 20
125.8480985260473
 30
0.0
 11
455.0855406467213
 21
125.5150805260474
 31
0.0
  0
LINE
  5
10FA
330
EBD
100
AcDbEntity
  8
1
  6
Continuous
100
AcDbLine
 10
454.926776646721
 20
126.4480985260474
 30
0.0
 11
454.9087506467213
 21
126.3075685260474
 31
0.0
  0
LINE
  5
10FB
330
EBD
100
AcDbEntity
  8
1
  6
Continuous
100
AcDbLine
 10
454.9087506467213
 20
126.3075685260474
 30
0.0
 11
454.8951226467211
 21
126.1718125260473
 31
0.0
  0
LINE
  5
10FC
330
EBD
100
AcDbEntity
  8
1
  6
Continuous
100
AcDbLine
 10
454.8951226467216
 20
126.1718125260474
 30
0.0
 11
454.8853486467216
 21
126.0387165260473
 31
0.0
  0
LINE
  5
10FD
330
EBD
100
AcDbEntity
  8
1
  6
Continuous
100
AcDbLine
 10
454.9267766467217
 20
126.4480985260473
 30
0.0
 11
454.9579986467216
 21
126.6085585260473
 31
0.0
  0
LINE
  5
10FE
330
EBD
100
AcDbEntity
  8
1
  6
Continuous
100
AcDbLine
 10
454.9579986467215
 20
126.6085585260473
 30
0.0
 11
454.9965746467215
 21
126.7812885260473
 31
0.0
  0
LINE
  5
10FF
330
EBD
100
AcDbEntity
  8
1
  6
Continuous
100
AcDbLine
 10
454.9965746467217
 20
126.7812885260473
 30
0.0
 11
455.0439006467215
 21
126.9669785260472
 31
0.0
  0
LINE
  5
1100
330
EBD
100
AcDbEntity
  8
1
  6
Continuous
100
AcDbLine
 10
455.0439006467213
 20
126.9669785260472
 30
0.0
 11
455.1015066467213
 21
127.1659505260472
 31
0.0
  0
LINE
  5
1101
330
EBD
100
AcDbEntity
  8
1
  6
Continuous
100
AcDbLine
 10
454.9267766467217
 20
124.8480985260472
 30
0.0
 11
455.1015066467216
 21
124.8480985260472
 31
0.0
  0
LINE
  5
1102
330
EBD
100
AcDbEntity
  8
1
  6
Continuous
100
AcDbLine
 10
454.8853486467213
 20
124.6574805260474
 30
0.0
 11
454.895122646721
 21
124.5243865260472
 31
0.0
  0
LINE
  5
1103
330
EBD
100
AcDbEntity
  8
1
  6
Continuous
100
AcDbLine
 10
454.8951226467216
 20
124.5243865260476
 30
0.0
 11
454.9087506467213
 21
124.3886285260475
 31
0.0
  0
LINE
  5
1104
330
EBD
100
AcDbEntity
  8
1
  6
Continuous
100
AcDbLine
 10
454.9087506467213
 20
124.3886285260471
 30
0.0
 11
454.9267766467216
 21
124.2480985260471
 31
0.0
  0
LINE
  5
1105
330
EBD
100
AcDbEntity
  8
1
  6
Continuous
100
AcDbLine
 10
455.1015066467213
 20
123.5302465260475
 30
0.0
 11
455.0439006467213
 21
123.7292185260474
 31
0.0
  0
LINE
  5
1106
330
EBD
100
AcDbEntity
  8
1
  6
Continuous
100
AcDbLine
 10
455.0439006467213
 20
123.7292185260473
 30
0.0
 11
454.9965746467211
 21
123.9149085260474
 31
0.0
  0
LINE
  5
1107
330
EBD
100
AcDbEntity
  8
1
  6
Continuous
100
AcDbLine
 10
454.9965746467215
 20
123.9149085260473
 30
0.0
 11
454.9579986467215
 21
124.0876405260472
 31
0.0
  0
LINE
  5
1108
330
EBD
100
AcDbEntity
  8
1
  6
Continuous
100
AcDbLine
 10
454.9579986467212
 20
124.0876405260474
 30
0.0
 11
454.926776646721
 21
124.2480985260475
 31
0.0
  0
LINE
  5
1109
330
EBD
100
AcDbEntity
  8
1
  6
Continuous
100
AcDbLine
 10
455.0855406467213
 20
125.1811185260472
 30
0.0
 11
455.1015066467216
 21
124.8480985260472
 31
0.0
  0
LINE
  5
110A
330
EBD
100
AcDbEntity
  8
1
  6
Continuous
100
AcDbLine
 10
454.9267766467217
 20
124.8480985260473
 30
0.0
 11
454.9018106467213
 21
124.7525765260474
 31
0.0
  0
LINE
  5
110B
330
EBD
100
AcDbEntity
  8
1
  6
Continuous
100
AcDbLine
 10
454.9018106467213
 20
124.7525765260474
 30
0.0
 11
454.8853486467216
 21
124.6574805260474
 31
0.0
  0
LINE
  5
110C
330
EBD
100
AcDbEntity
  8
1
  6
Continuous
100
AcDbLine
 10
455.0835406467213
 20
123.5199785260473
 30
0.0
 11
455.1015066467216
 21
123.5302465260475
 31
0.0
  0
LINE
  5
110D
330
EBD
100
AcDbEntity
  8
1
  6
Continuous
100
AcDbLine
 10
455.0855406467213
 20
125.5150805260472
 30
0.0
 11
455.0855406467213
 21
125.1811185260472
 31
0.0
  0
ARC
  5
110E
330
EBD
100
AcDbEntity
  8
1
  6
Continuous
100
AcDbCircle
 10
450.9078946467215
 20
133.6980985260474
 30
0.0
 40
2.0
100
AcDbArc
 50
180.0
 51
270.0
  0
ARC
  5
110F
330
EBD
100
AcDbEntity
  8
1
  6
Continuous
100
AcDbCircle
 10
450.9078946467215
 20
155.1980985260474
 30
0.0
 40
2.0
100
AcDbArc
 50
90.0
 51
179.9999999999998
  0
LINE
  5
1110
330
EBD
100
AcDbEntity
  8
1
  6
Continuous
100
AcDbLine
 10
447.6578946467212
 20
160.5980985260471
 30
0.0
 11
447.6578946467212
 21
193.5980985260474
 31
0.0
  0
LINE
  5
1111
330
EBD
100
AcDbEntity
  8
1
  6
Continuous
100
AcDbLine
 10
450.6578946467215
 20
160.5980985260474
 30
0.0
 11
450.6578946467215
 21
174.2980985260473
 31
0.0
  0
LINE
  5
1112
330
EBD
100
AcDbEntity
  8
1
  6
Continuous
100
AcDbLine
 10
446.1578946467215
 20
160.5980985260474
 30
0.0
 11
450.6578946467215
 21
160.5980985260474
 31
0.0
  0
LINE
  5
1113
330
EBD
100
AcDbEntity
  8
1
  6
Continuous
100
AcDbLine
 10
450.6815537037597
 20
168.5980985260474
 30
0.0
 11
450.6815537037588
 21
170.5980985260486
 31
0.0
  0
ARC
  5
1114
330
EBD
100
AcDbEntity
  8
1
  6
Continuous
100
AcDbCircle
 10
448.1578946467215
 20
174.2980985260473
 30
0.0
 40
2.5
100
AcDbArc
 50
0.000000000000007
 51
60.0
  0
LINE
  5
1115
330
EBD
100
AcDbEntity
  8
1
  6
Continuous
100
AcDbLine
 10
447.9078946467216
 20
177.3291885260469
 30
0.0
 11
449.4078946467213
 21
176.4631625260471
 31
0.0
  0
ARC
  5
1116
330
EBD
100
AcDbEntity
  8
1
  6
Continuous
100
AcDbCircle
 10
448.1578946467215
 20
177.7622005260473
 30
0.0
 40
0.5
100
AcDbArc
 50
180.0
 51
239.9999999999999
  0
LINE
  5
1117
330
EBD
100
AcDbEntity
  8
1
  6
Continuous
100
AcDbLine
 10
447.6578946467212
 20
191.0374385260474
 30
0.0
 11
446.1578946467215
 21
191.0374385260474
 31
0.0
  0
LINE
  5
1118
330
EBD
100
AcDbEntity
  8
1
  6
Continuous
100
AcDbLine
 10
447.6578946467212
 20
188.4767785260473
 30
0.0
 11
446.1578946467215
 21
188.4767785260473
 31
0.0
  0
LINE
  5
1119
330
EBD
100
AcDbEntity
  8
1
  6
Continuous
100
AcDbLine
 10
446.4483026467211
 20
193.5980985260474
 30
0.0
 11
446.425654646721
 21
193.5920965260475
 31
0.0
  0
LINE
  5
111A
330
EBD
100
AcDbEntity
  8
1
  6
Continuous
100
AcDbLine
 10
446.4256546467211
 20
193.592096526047
 30
0.0
 11
446.4122946467216
 21
193.5740705260471
 31
0.0
  0
LINE
  5
111B
330
EBD
100
AcDbEntity
  8
1
  6
Continuous
100
AcDbLine
 10
446.4122946467213
 20
193.5740705260471
 30
0.0
 11
446.4078946467215
 21
193.543782526047
 31
0.0
  0
LINE
  5
111C
330
EBD
100
AcDbEntity
  8
1
  6
Continuous
100
AcDbLine
 10
446.1578946467212
 20
243.5980985260473
 30
0.0
 11
460.1578946467212
 21
243.5980985260473
 31
0.0
  0
LINE
  5
111D
330
EBD
100
AcDbEntity
  8
4
  6
CENTER
100
AcDbLine
 10
474.9078946467216
 20
205.5980985260474
 30
0.0
 11
440.1457646467213
 21
205.5980985260474
 31
0.0
  0
LINE
  5
111E
330
EBD
100
AcDbEntity
  8
4
  6
CENTER
100
AcDbLine
 10
470.0742060435896
 20
233.8480985260447
 30
0.0
 11
450.9945247471851
 21
233.8480985260447
 31
0.0
  0
ARC
  5
111F
330
EBD
100
AcDbEntity
  8
1
  6
Continuous
100
AcDbCircle
 10
406.4279746467211
 20
216.8328985260473
 30
0.0
 40
72.49427799999998
100
AcDbArc
 50
1.140342000000014
 51
29.088886
  0
LINE
  5
1120
330
EBD
100
AcDbEntity
  8
1
  6
Continuous
100
AcDbLine
 10
478.9215986467215
 20
204.2916565260473
 30
0.0
 11
478.9078946467216
 21
204.3011785260473
 31
0.0
  0
ARC
  5
1121
330
EBD
100
AcDbEntity
  8
1
  6
Continuous
100
AcDbCircle
 10
473.7578946467215
 20
205.5980985260474
 30
0.0
 40
11.25
100
AcDbArc
 50
47.50269299999999
 51
62.63406699999999
  0
LINE
  5
1122
330
EBD
100
AcDbEntity
  8
1
  6
Continuous
100
AcDbLine
 10
464.3941546467215
 20
210.4522205260471
 30
0.0
 11
464.3941546467215
 21
215.5982245260473
 31
0.0
  0
LINE
  5
1123
330
EBD
100
AcDbEntity
  8
1
  6
Continuous
100
AcDbLine
 10
460.1578946467212
 20
210.4522205260474
 30
0.0
 11
464.3941546467215
 21
210.4522205260474
 31
0.0
  0
LINE
  5
1124
330
EBD
100
AcDbEntity
  8
1
  6
Continuous
100
AcDbLine
 10
464.3941546467216
 20
210.4522205260474
 30
0.0
 11
463.7834226467216
 21
209.0880165260474
 31
0.0
  0
LINE
  5
1125
330
EBD
100
AcDbEntity
  8
1
  6
Continuous
100
AcDbLine
 10
463.7834226467216
 20
209.0880165260471
 30
0.0
 11
463.3906946467215
 21
207.7113225260473
 31
0.0
  0
LINE
  5
1126
330
EBD
100
AcDbEntity
  8
1
  6
Continuous
100
AcDbLine
 10
463.1947866467213
 20
206.3069065260473
 30
0.0
 11
463.1947866467213
 21
204.8892905260471
 31
0.0
  0
LINE
  5
1127
330
EBD
100
AcDbEntity
  8
1
  6
Continuous
100
AcDbLine
 10
463.1947866467217
 20
204.8892905260471
 30
0.0
 11
463.3906946467217
 21
203.4848765260469
 31
0.0
  0
LINE
  5
1128
330
EBD
100
AcDbEntity
  8
1
  6
Continuous
100
AcDbLine
 10
463.3906946467217
 20
207.7113225260473
 30
0.0
 11
463.1947866467215
 21
206.3069065260473
 31
0.0
  0
LINE
  5
1129
330
EBD
100
AcDbEntity
  8
1
  6
Continuous
100
AcDbLine
 10
460.1578946467212
 20
215.5982245260473
 30
0.0
 11
464.3941546467215
 21
215.5982245260473
 31
0.0
  0
LINE
  5
112A
330
EBD
100
AcDbEntity
  8
1
  6
Continuous
100
AcDbLine
 10
466.8578946467213
 20
221.5980985260474
 30
0.0
 11
460.1578946467212
 21
221.5980985260474
 31
0.0
  0
LINE
  5
112B
330
EBD
100
AcDbEntity
  8
1
  6
Continuous
100
AcDbLine
 10
466.8578946467213
 20
223.5980985260474
 30
0.0
 11
460.1578946467212
 21
223.5980985260474
 31
0.0
  0
LINE
  5
112C
330
EBD
100
AcDbEntity
  8
4
  6
CENTER
100
AcDbLine
 10
469.6053288922794
 20
222.5980985259576
 30
0.0
 11
457.2193541392453
 21
222.5980985259714
 31
0.0
  0
LINE
  5
112D
330
EBD
100
AcDbEntity
  8
1
  6
Continuous
100
AcDbLine
 10
466.8578946467213
 20
218.5980985259607
 30
0.0
 11
460.1578946467212
 21
218.598098525968
 31
0.0
  0
LINE
  5
112E
330
EBD
100
AcDbEntity
  8
1
  6
Continuous
100
AcDbLine
 10
466.8578946467213
 20
217.5143154174708
 30
0.0
 11
464.3941546467215
 21
215.5982245260473
 31
0.0
  0
LINE
  5
112F
330
EBD
100
AcDbEntity
  8
1
  6
Continuous
100
AcDbLine
 10
464.8578946469235
 20
227.8480985260474
 30
0.0
 11
464.8578946469482
 21
241.3480985259904
 31
0.0
  0
LINE
  5
1130
330
EBD
100
AcDbEntity
  8
1
  6
Continuous
100
AcDbLine
 10
464.8578946469487
 20
227.8480985260474
 30
0.0
 11
460.1578946467216
 21
227.8480985260471
 31
0.0
  0
LINE
  5
1131
330
EBD
100
AcDbEntity
  8
1
  6
Continuous
100
AcDbLine
 10
466.8578946467213
 20
226.5980985259608
 30
0.0
 11
460.1578946467212
 21
226.5980985259683
 31
0.0
  0
LINE
  5
1132
330
EBD
100
AcDbEntity
  8
1
  6
Continuous
100
AcDbLine
 10
466.8578946467213
 20
229.3480985260447
 30
0.0
 11
464.8578946469259
 21
229.3480985260447
 31
0.0
  0
LINE
  5
1133
330
EBD
100
AcDbEntity
  8
1
  6
Continuous
100
AcDbLine
 10
464.8578946469482
 20
241.3480985260473
 30
0.0
 11
460.1578946467212
 21
241.3480985260473
 31
0.0
  0
LINE
  5
1134
330
EBD
100
AcDbEntity
  8
1
  6
Continuous
100
AcDbLine
 10
466.8578946467213
 20
238.3480985260447
 30
0.0
 11
464.8578946469434
 21
238.3480985260447
 31
0.0
  0
LINE
  5
1135
330
EBD
100
AcDbEntity
  8
1
  6
Continuous
100
AcDbLine
 10
467.1916186467216
 20
253.5980985260473
 30
0.0
 11
466.8578946467213
 21
253.5980985260473
 31
0.0
  0
ARC
  5
1136
330
EBD
100
AcDbEntity
  8
1
  6
Continuous
100
AcDbCircle
 10
467.1916506467211
 20
250.6380985260474
 30
0.0
 40
2.959999999999998
100
AcDbArc
 50
29.088744
 51
89.99988900000003
  0
LINE
  5
1137
330
EBD
100
AcDbEntity
  8
1
  6
Continuous
100
AcDbLine
 10
188.6536298789204
 20
55.49230268682304
 30
0.0
 11
190.5807542233887
 21
55.49230268682304
 31
0.0
  0
LINE
  5
1138
330
EBD
100
AcDbEntity
  8
1
  6
Continuous
100
AcDbLine
 10
178.0807542233887
 20
29.99230268682309
 30
0.0
 11
192.0807542233884
 21
29.99230268682309
 31
0.0
  0
LINE
  5
1139
330
EBD
100
AcDbEntity
  8
1
  6
Continuous
100
AcDbLine
 10
178.0807542233886
 20
56.99230268682304
 30
0.0
 11
192.0807542233884
 21
56.99230268682311
 31
0.0
  0
ARC
  5
113A
330
EBD
100
AcDbEntity
  8
1
  6
Continuous
100
AcDbCircle
 10
177.2307542233888
 20
43.49230268682044
 30
0.0
 40
6.2
100
AcDbArc
 50
17.14902700000001
 51
36.59493099999997
  0
ARC
  5
113B
330
EBD
100
AcDbEntity
  8
1
  6
Continuous
100
AcDbCircle
 10
177.2307542233888
 20
43.49230268682044
 30
0.0
 40
6.2
100
AcDbArc
 50
323.4050689999999
 51
342.850973
  0
LINE
  5
113C
330
EBD
100
AcDbEntity
  8
4
  6
CENTER
100
AcDbLine
 10
150.3722221098914
 20
43.49230268682304
 30
0.0
 11
197.0404945916664
 21
43.49230268682311
 31
0.0
  0
ARC
  5
113D
330
EBD
100
AcDbEntity
  8
1
  6
Continuous
100
AcDbCircle
 10
162.3307542233886
 20
28.49230268682314
 30
0.0
 40
3.0
100
AcDbArc
 50
180.0
 51
270.0
  0
LINE
  5
113E
330
EBD
100
AcDbEntity
  8
1
  6
Continuous
100
AcDbLine
 10
171.3807542233884
 20
25.49230268682316
 30
0.0
 11
171.3807542233886
 21
61.49230268682311
 31
0.0
  0
LINE
  5
113F
330
EBD
100
AcDbEntity
  8
1
  6
Continuous
100
AcDbLine
 10
180.3807542233886
 20
35.99230268682052
 30
0.0
 11
180.3807542233886
 21
50.99230268682553
 31
0.0
  0
LINE
  5
1140
330
EBD
100
AcDbEntity
  8
1
  6
Continuous
100
AcDbLine
 10
173.380754223189
 20
50.99230268682571
 30
0.0
 11
173.3807542231614
 21
35.99230268687732
 31
0.0
  0
LINE
  5
1141
330
EBD
100
AcDbEntity
  8
1
  6
Continuous
100
AcDbLine
 10
159.0807542233886
 20
54.74230268682315
 30
0.0
 11
159.0807542233886
 21
32.24230268682315
 31
0.0
  0
LINE
  5
1142
330
EBD
100
AcDbEntity
  8
1
  6
Continuous
100
AcDbLine
 10
155.0307542233885
 20
36.39230268682307
 30
0.0
 11
155.0307542233885
 21
50.59230268682313
 31
0.0
  0
LINE
  5
1143
330
EBD
100
AcDbEntity
  8
1
  6
Continuous
100
AcDbLine
 10
156.8807542233888
 20
53.04230268682312
 30
0.0
 11
156.8807542233888
 21
33.94230268682304
 31
0.0
  0
LINE
  5
1144
330
EBD
100
AcDbEntity
  8
1
  6
Continuous
100
AcDbLine
 10
159.3307542233887
 20
28.49230268682314
 30
0.0
 11
159.3307542233887
 21
58.49230268682311
 31
0.0
  0
LINE
  5
1145
330
EBD
100
AcDbEntity
  8
1
  6
Continuous
100
AcDbLine
 10
162.3307542233886
 20
61.49230268682311
 30
0.0
 11
171.3807542233886
 21
61.49230268682311
 31
0.0
  0
ARC
  5
1146
330
EBD
100
AcDbEntity
  8
1
  6
Continuous
100
AcDbCircle
 10
162.3307542233886
 20
58.49230268682311
 30
0.0
 40
3.0
100
AcDbArc
 50
90.00000000000005
 51
180.0
  0
LINE
  5
1147
330
EBD
100
AcDbEntity
  8
1
  6
Continuous
100
AcDbLine
 10
159.3307542233887
 20
54.74230268682315
 30
0.0
 11
159.0807542233886
 21
54.74230268682315
 31
0.0
  0
LINE
  5
1148
330
EBD
100
AcDbEntity
  8
1
  6
Continuous
100
AcDbLine
 10
155.3307542233885
 20
50.89230268682303
 30
0.0
 11
156.8807542233886
 21
50.89230268682303
 31
0.0
  0
ARC
  5
1149
330
EBD
100
AcDbEntity
  8
1
  6
Continuous
100
AcDbCircle
 10
155.3307542233886
 20
50.59230268682302
 30
0.0
 40
0.3
100
AcDbArc
 50
90.00000000000005
 51
180.0
  0
LINE
  5
114A
330
EBD
100
AcDbEntity
  8
1
  6
Continuous
100
AcDbLine
 10
156.8807542233888
 20
53.04230268682312
 30
0.0
 11
159.0807542233886
 21
54.74230268682315
 31
0.0
  0
LINE
  5
114B
330
EBD
100
AcDbEntity
  8
1
  6
Continuous
100
AcDbLine
 10
171.3807542233886
 20
55.99230268682305
 30
0.0
 11
187.3307542233883
 21
55.99230268682299
 31
0.0
  0
LINE
  5
114C
330
EBD
100
AcDbEntity
  8
1
  6
Continuous
100
AcDbLine
 10
173.380754223189
 20
50.99230268682571
 30
0.0
 11
180.3807542233886
 21
50.99230268682553
 31
0.0
  0
LINE
  5
114D
330
EBD
100
AcDbEntity
  8
1
  6
Continuous
100
AcDbLine
 10
178.0807542233886
 20
56.99230268682304
 30
0.0
 11
178.0807542233886
 21
55.99230268682305
 31
0.0
  0
LINE
  5
114E
330
EBD
100
AcDbEntity
  8
1
  6
Continuous
100
AcDbLine
 10
159.3307542233887
 20
32.24230268682315
 30
0.0
 11
159.0807542233886
 21
32.24230268682315
 31
0.0
  0
LINE
  5
114F
330
EBD
100
AcDbEntity
  8
1
  6
Continuous
100
AcDbLine
 10
155.3307542233886
 20
36.09230268682301
 30
0.0
 11
156.8807542233886
 21
36.09230268682301
 31
0.0
  0
ARC
  5
1150
330
EBD
100
AcDbEntity
  8
1
  6
Continuous
100
AcDbCircle
 10
155.3307542233886
 20
36.39230268682307
 30
0.0
 40
0.3
100
AcDbArc
 50
180.0
 51
270.0
  0
LINE
  5
1151
330
EBD
100
AcDbEntity
  8
1
  6
Continuous
100
AcDbLine
 10
159.0807542233886
 20
32.24230268682315
 30
0.0
 11
156.8807542233888
 21
33.94230268682304
 31
0.0
  0
LINE
  5
1152
330
EBD
100
AcDbEntity
  8
1
  6
Continuous
100
AcDbLine
 10
171.3807542233884
 20
47.99230268682304
 30
0.0
 11
173.3807542231841
 21
47.99230268682304
 31
0.0
  0
LINE
  5
1153
330
EBD
100
AcDbEntity
  8
1
  6
Continuous
100
AcDbLine
 10
171.3807542233884
 20
38.99230268682304
 30
0.0
 11
173.3807542231664
 21
38.99230268682304
 31
0.0
  0
ARC
  5
1154
330
EBD
100
AcDbEntity
  8
1
  6
Continuous
100
AcDbCircle
 10
181.4056802233887
 20
40.39230268682047
 30
0.0
 40
1.0
100
AcDbArc
 50
270.0
 51
323.4050689999999
  0
LINE
  5
1155
330
EBD
100
AcDbEntity
  8
1
  6
Continuous
100
AcDbLine
 10
180.3807542233886
 20
39.39230268682047
 30
0.0
 11
181.4056802233885
 21
39.39230268682047
 31
0.0
  0
ARC
  5
1156
330
EBD
100
AcDbEntity
  8
1
  6
Continuous
100
AcDbCircle
 10
181.4056802233887
 20
46.59230268682046
 30
0.0
 40
1.0
100
AcDbArc
 50
36.59493099999997
 51
90.00000000000005
  0
LINE
  5
1157
330
EBD
100
AcDbEntity
  8
1
  6
Continuous
100
AcDbLine
 10
180.3807542233886
 20
47.59230268682046
 30
0.0
 11
181.4056802233885
 21
47.59230268682046
 31
0.0
  0
LINE
  5
1158
330
EBD
100
AcDbEntity
  8
1
  6
Continuous
100
AcDbLine
 10
181.4056802233885
 20
39.39230268682052
 30
0.0
 11
181.4056802233885
 21
47.59230268682034
 31
0.0
  0
LINE
  5
1159
330
EBD
100
AcDbEntity
  8
1
  6
Continuous
100
AcDbLine
 10
182.2085502233884
 20
39.79614868682045
 30
0.0
 11
182.2085502233884
 21
47.18845668682045
 31
0.0
  0
LINE
  5
115A
330
EBD
100
AcDbEntity
  8
1
  6
Continuous
100
AcDbLine
 10
173.3807542231614
 20
35.99230268682038
 30
0.0
 11
180.3807542233886
 21
35.99230268682052
 31
0.0
  0
LINE
  5
115B
330
EBD
100
AcDbEntity
  8
1
  6
Continuous
100
AcDbLine
 10
178.0807542233887
 20
30.99230268682314
 30
0.0
 11
178.0807542233887
 21
29.99230268682309
 31
0.0
  0
LINE
  5
115C
330
EBD
100
AcDbEntity
  8
1
  6
Continuous
100
AcDbLine
 10
162.3307542233886
 20
25.49230268682316
 30
0.0
 11
171.3807542233884
 21
25.49230268682316
 31
0.0
  0
LINE
  5
115D
330
EBD
100
AcDbEntity
  8
1
  6
Continuous
100
AcDbLine
 10
190.5807542233887
 20
56.9923026868231
 30
0.0
 11
190.5807542233887
 21
29.99230268682309
 31
0.0
  0
LINE
  5
115E
330
EBD
100
AcDbEntity
  8
1
  6
Continuous
100
AcDbLine
 10
192.0807542233884
 20
56.99230268682311
 30
0.0
 11
192.0807542233884
 21
29.99230268682309
 31
0.0
  0
ARC
  5
115F
330
EBD
100
AcDbEntity
  8
1
  6
Continuous
100
AcDbCircle
 10
187.3307542233883
 20
53.99230268682294
 30
0.0
 40
2.0
100
AcDbArc
 50
0.0
 51
90.0
  0
LINE
  5
1160
330
EBD
100
AcDbEntity
  8
1
  6
Continuous
100
AcDbLine
 10
189.3307542233881
 20
53.99230268682297
 30
0.0
 11
189.3307542233886
 21
32.99230268682331
 31
0.0
  0
LINE
  5
1161
330
EBD
100
AcDbEntity
  8
1
  6
Continuous
100
AcDbLine
 10
190.3307542233884
 20
51.22339268682281
 30
0.0
 11
189.3307542233883
 21
50.64604202015595
 31
0.0
  0
ARC
  5
1162
330
EBD
100
AcDbEntity
  8
1
  6
Continuous
100
AcDbCircle
 10
190.0807542233884
 20
51.65640468682299
 30
0.0
 40
0.5
100
AcDbArc
 50
299.9999999999999
 51
0.0
  0
LINE
  5
1163
330
EBD
100
AcDbEntity
  8
1
  6
Continuous
100
AcDbLine
 10
183.1531082233885
 20
43.32532068682053
 30
0.0
 11
183.1531082233885
 21
43.65928268682049
 31
0.0
  0
LINE
  5
1164
330
EBD
100
AcDbEntity
  8
1
  6
Continuous
100
AcDbLine
 10
183.1551082233886
 20
45.32042268682045
 30
0.0
 11
183.1371422233883
 21
45.31015468682034
 31
0.0
  0
LINE
  5
1165
330
EBD
100
AcDbEntity
  8
1
  6
Continuous
100
AcDbLine
 10
183.3368382233884
 20
44.08782468682043
 30
0.0
 11
183.3533002233886
 21
44.18292068682045
 31
0.0
  0
LINE
  5
1166
330
EBD
100
AcDbEntity
  8
1
  6
Continuous
100
AcDbLine
 10
183.3118722233884
 20
43.99230268682031
 30
0.0
 11
183.3368382233884
 21
44.08782468682043
 31
0.0
  0
LINE
  5
1167
330
EBD
100
AcDbEntity
  8
1
  6
Continuous
100
AcDbLine
 10
183.1531082233884
 20
43.65928268682049
 30
0.0
 11
183.1371422233883
 21
43.99230268682043
 31
0.0
  0
LINE
  5
1168
330
EBD
100
AcDbEntity
  8
1
  6
Continuous
100
AcDbLine
 10
183.2806502233888
 20
44.75276068682023
 30
0.0
 11
183.3118722233888
 21
44.59230268682031
 31
0.0
  0
LINE
  5
1169
330
EBD
100
AcDbEntity
  8
1
  6
Continuous
100
AcDbLine
 10
183.2420742233884
 20
44.92549268682052
 30
0.0
 11
183.2806502233885
 21
44.75276068682052
 31
0.0
  0
LINE
  5
116A
330
EBD
100
AcDbEntity
  8
1
  6
Continuous
100
AcDbLine
 10
183.1947482233885
 20
45.11118268682053
 30
0.0
 11
183.2420742233884
 21
44.92549268682046
 31
0.0
  0
LINE
  5
116B
330
EBD
100
AcDbEntity
  8
1
  6
Continuous
100
AcDbLine
 10
183.1371422233887
 20
45.31015468682034
 30
0.0
 11
183.1947482233885
 21
45.11118268682042
 31
0.0
  0
LINE
  5
116C
330
EBD
100
AcDbEntity
  8
1
  6
Continuous
100
AcDbLine
 10
183.3298982233886
 20
44.45177268682072
 30
0.0
 11
183.3118722233886
 21
44.59230268682071
 31
0.0
  0
LINE
  5
116D
330
EBD
100
AcDbEntity
  8
1
  6
Continuous
100
AcDbLine
 10
183.3435262233886
 20
44.31601468682027
 30
0.0
 11
183.3298982233884
 21
44.45177268682033
 31
0.0
  0
LINE
  5
116E
330
EBD
100
AcDbEntity
  8
1
  6
Continuous
100
AcDbLine
 10
183.3533002233888
 20
44.18292068682045
 30
0.0
 11
183.3435262233888
 21
44.31601468682049
 31
0.0
  0
LINE
  5
116F
330
EBD
100
AcDbEntity
  8
1
  6
Continuous
100
AcDbLine
 10
183.3118722233884
 20
43.99230268682043
 30
0.0
 11
183.1371422233883
 21
43.99230268682043
 31
0.0
  0
LINE
  5
1170
330
EBD
100
AcDbEntity
  8
1
  6
Continuous
100
AcDbLine
 10
183.1947482233885
 20
41.8734226868206
 30
0.0
 11
183.1371422233887
 21
41.67445068682058
 31
0.0
  0
LINE
  5
1171
330
EBD
100
AcDbEntity
  8
1
  6
Continuous
100
AcDbLine
 10
183.2420742233884
 20
42.05911268682053
 30
0.0
 11
183.1947482233884
 21
41.8734226868206
 31
0.0
  0
LINE
  5
1172
330
EBD
100
AcDbEntity
  8
1
  6
Continuous
100
AcDbLine
 10
183.2806502233884
 20
42.23184268682053
 30
0.0
 11
183.2420742233884
 21
42.05911268682053
 31
0.0
  0
LINE
  5
1173
330
EBD
100
AcDbEntity
  8
1
  6
Continuous
100
AcDbLine
 10
183.3118722233884
 20
42.39230268682052
 30
0.0
 11
183.2806502233884
 21
42.23184268682053
 31
0.0
  0
LINE
  5
1174
330
EBD
100
AcDbEntity
  8
1
  6
Continuous
100
AcDbLine
 10
183.3435262233886
 20
42.66858868682041
 30
0.0
 11
183.3533002233886
 21
42.80168468682028
 31
0.0
  0
LINE
  5
1175
330
EBD
100
AcDbEntity
  8
1
  6
Continuous
100
AcDbLine
 10
183.3298982233886
 20
42.53283268682042
 30
0.0
 11
183.3435262233886
 21
42.66858868682048
 31
0.0
  0
LINE
  5
1176
330
EBD
100
AcDbEntity
  8
1
  6
Continuous
100
AcDbLine
 10
183.3118722233888
 20
42.39230268682047
 30
0.0
 11
183.3298982233888
 21
42.53283268682042
 31
0.0
  0
LINE
  5
1177
330
EBD
100
AcDbEntity
  8
1
  6
Continuous
100
AcDbLine
 10
183.1371422233883
 20
42.99230268682031
 30
0.0
 11
183.1531082233884
 21
43.3253206868203
 31
0.0
  0
LINE
  5
1178
330
EBD
100
AcDbEntity
  8
1
  6
Continuous
100
AcDbLine
 10
183.3368382233884
 20
42.89678068682063
 30
0.0
 11
183.3118722233886
 21
42.99230268682046
 31
0.0
  0
LINE
  5
1179
330
EBD
100
AcDbEntity
  8
1
  6
Continuous
100
AcDbLine
 10
183.3533002233886
 20
42.80168468682041
 30
0.0
 11
183.3368382233884
 21
42.89678068682031
 31
0.0
  0
LINE
  5
117A
330
EBD
100
AcDbEntity
  8
1
  6
Continuous
100
AcDbLine
 10
183.1371422233887
 20
41.67445068682048
 30
0.0
 11
183.1551082233884
 21
41.66418268682043
 31
0.0
  0
LINE
  5
117B
330
EBD
100
AcDbEntity
  8
1
  6
Continuous
100
AcDbLine
 10
183.3118722233884
 20
42.99230268682044
 30
0.0
 11
183.1371422233883
 21
42.99230268682044
 31
0.0
  0
LINE
  5
117C
330
EBD
100
AcDbEntity
  8
1
  6
Continuous
100
AcDbLine
 10
187.3307542233881
 20
30.99230268682318
 30
0.0
 11
187.3307542233858
 21
55.99230268682294
 31
0.0
  0
ARC
  5
117D
330
EBD
100
AcDbEntity
  8
1
  6
Continuous
100
AcDbCircle
 10
190.0807542233884
 20
35.32820068682321
 30
0.0
 40
0.5
100
AcDbArc
 50
0.0
 51
60.0000000000001
  0
LINE
  5
117E
330
EBD
100
AcDbEntity
  8
1
  6
Continuous
100
AcDbLine
 10
190.3307542233884
 20
35.7612126868234
 30
0.0
 11
189.3307542233884
 21
36.3385633534901
 31
0.0
  0
ARC
  5
117F
330
EBD
100
AcDbEntity
  8
1
  6
Continuous
100
AcDbCircle
 10
187.3307542233883
 20
32.99230268682325
 30
0.0
 40
2.0
100
AcDbArc
 50
270.0
 51
0.0
  0
LINE
  5
1180
330
EBD
100
AcDbEntity
  8
1
  6
Continuous
100
AcDbLine
 10
171.3807542233886
 20
30.99230268682314
 30
0.0
 11
187.3307542233883
 21
30.99230268682318
 31
0.0
  0
LINE
  5
1181
330
EBD
100
AcDbEntity
  8
1
  6
Continuous
100
AcDbLine
 10
188.6536298789204
 20
31.49230268682313
 30
0.0
 11
190.5807542233887
 21
31.49230268682313
 31
0.0
  0
ENDSEC
  0
SECTION
  2
OBJECTS
  0
DICTIONARY
  5
EAB
330
0
100
AcDbDictionary
281
     1
  3
ACAD_CIP_PREVIOUS_PRODUCT_INFO
350
11E0
  3
ACAD_COLOR
350
11C3
  3
ACAD_DETAILVIEWSTYLE
350
11DC
  3
ACAD_GROUP
350
EAC
  3
ACAD_LAYOUT
350
EB8
  3
ACAD_MATERIAL
350
1191
  3
ACAD_MLEADERSTYLE
350
11D8
  3
ACAD_MLINESTYLE
350
EB5
  3
ACAD_PLOTSETTINGS
350
EB7
  3
ACAD_PLOTSTYLENAME
350
118F
  3
ACAD_SCALELIST
350
11C6
  3
ACAD_SECTIONVIEWSTYLE
350
11DA
  3
ACAD_TABLESTYLE
350
11C4
  3
ACAD_VISUALSTYLE
350
11AA
  3
ACDB_RECOMPOSE_DATA
350
11FE
  3
AcDbVariableDictionary
350
11F1
  3
DWGPROPS
350
11FF
  0
DICTIONARY
  5
11E1
330
EAF
100
AcDbDictionary
280
     1
281
     1
  3
ADSK_XREC_LAYER_RECONCILED
360
11E2
  0
DICTIONARY
  5
11E3
330
EC5
100
AcDbDictionary
280
     1
281
     1
  3
ADSK_XREC_LAYER_RECONCILED
360
11E4
  0
DICTIONARY
  5
11E5
330
EC6
100
AcDbDictionary
280
     1
281
     1
  3
ADSK_XREC_LAYER_RECONCILED
360
11E6
  0
DICTIONARY
  5
11E7
330
EC7
100
AcDbDictionary
280
     1
281
     1
  3
ADSK_XREC_LAYER_RECONCILED
360
11E8
  0
DICTIONARY
  5
11E9
330
EC8
100
AcDbDictionary
280
     1
281
     1
  3
ADSK_XREC_LAYER_RECONCILED
360
11EA
  0
DICTIONARY
  5
11EB
330
EC9
100
AcDbDictionary
280
     1
281
     1
  3
ADSK_XREC_LAYER_RECONCILED
360
11EC
  0
DICTIONARY
  5
11ED
330
ECA
100
AcDbDictionary
280
     1
281
     1
  3
ADSK_XREC_LAYER_RECONCILED
360
11EE
  0
DICTIONARY
  5
11EF
330
ECB
100
AcDbDictionary
280
     1
281
     1
  3
ADSK_XREC_LAYER_RECONCILED
360
11F0
  0
DICTIONARY
  5
118A
330
EBD
100
AcDbDictionary
281
     1
  3
ACAD_LAYOUTSELFREF
350
118B
  0
DICTIONARY
  5
1188
330
EB9
100
AcDbDictionary
281
     1
  3
ACAD_LAYOUTSELFREF
350
1189
  0
XRECORD
  5
11E0
102
{ACAD_REACTORS
330
EAB
102
}
330
EAB
100
AcDbXrecord
280
     1
300
ACDLT
300
2014
300
ACDLT_F_S
  0
DICTIONARY
  5
11C3
102
{ACAD_REACTORS
330
EAB
102
}
330
EAB
100
AcDbDictionary
281
     1
  0
DICTIONARY
  5
11DC
102
{ACAD_REACTORS
330
EAB
102
}
330
EAB
100
AcDbDictionary
281
     1
  3
Imperial24
350
11DD
  0
DICTIONARY
  5
EAC
102
{ACAD_REACTORS
330
EAB
102
}
330
EAB
100
AcDbDictionary
281
     1
  0
DICTIONARY
  5
EB8
102
{ACAD_REACTORS
330
EAB
102
}
330
EAB
100
AcDbDictionary
281
     1
  3
Model
350
11DE
  3
レイアウト1
350
11DF
  0
DICTIONARY
  5
1191
102
{ACAD_REACTORS
330
EAB
102
}
330
EAB
100
AcDbDictionary
281
     1
  3
ByBlock
350
119A
  3
ByLayer
350
1192
  3
Global
350
11A2
  0
DICTIONARY
  5
11D8
102
{ACAD_REACTORS
330
EAB
102
}
330
EAB
100
AcDbDictionary
281
     1
  3
Standard
350
11D9
  0
DICTIONARY
  5
EB5
102
{ACAD_REACTORS
330
EAB
102
}
330
EAB
100
AcDbDictionary
281
     1
  3
STANDARD
350
EB6
  0
DICTIONARY
  5
EB7
102
{ACAD_REACTORS
330
EAB
102
}
330
EAB
100
AcDbDictionary
281
     1
  0
ACDBDICTIONARYWDFLT
  5
118F
102
{ACAD_REACTORS
330
EAB
102
}
330
EAB
100
AcDbDictionary
281
     1
  3
Normal
350
1190
100
AcDbDictionaryWithDefault
340
1190
  0
DICTIONARY
  5
11C6
102
{ACAD_REACTORS
330
EAB
102
}
330
EAB
100
AcDbDictionary
281
     1
  3
A0
350
11C7
  3
A1
350
11C8
  3
A2
350
11C9
  3
A3
350
11CA
  3
A4
350
11CB
  3
A5
350
11CC
  3
A6
350
11CD
  3
A7
350
11CE
  3
A8
350
11CF
  3
A9
350
11D0
  3
B0
350
11D1
  3
B1
350
11D2
  3
B2
350
11D3
  3
B3
350
11D4
  3
B4
350
11D5
  3
B5
350
11D6
  3
B6
350
11D7
  0
DICTIONARY
  5
11DA
102
{ACAD_REACTORS
330
EAB
102
}
330
EAB
100
AcDbDictionary
281
     1
  3
Imperial24
350
11DB
  0
DICTIONARY
  5
11C4
102
{ACAD_REACTORS
330
EAB
102
}
330
EAB
100
AcDbDictionary
281
     1
  3
Standard
350
11C5
  0
DICTIONARY
  5
11AA
102
{ACAD_REACTORS
330
EAB
102
}
330
EAB
100
AcDbDictionary
281
     1
  3
2dWireframe
350
11B0
  3
Basic
350
11AF
  3
Brighten
350
11B6
  3
ColorChange
350
11BA
  3
Conceptual
350
11B3
  3
Dim
350
11B5
  3
EdgeColorOff
350
11C2
  3
Facepattern
350
11B9
  3
Flat
350
11AB
  3
FlatWithEdges
350
11AC
  3
Gouraud
350
11AD
  3
GouraudWithEdges
350
11AE
  3
Hidden
350
11B2
  3
JitterOff
350
11C0
  3
Linepattern
350
11B8
  3
OverhangOff
350
11C1
  3
Realistic
350
11B4
  3
Shaded
350
11BF
  3
Shaded with edges
350
11BE
  3
Shades of Gray
350
11BB
  3
Sketchy
350
11BC
  3
Thicken
350
11B7
  3
Wireframe
350
11B1
  3
X-Ray
350
11BD
  0
XRECORD
  5
11FE
102
{ACAD_REACTORS
330
EAB
102
}
330
EAB
100
AcDbXrecord
280
     1
 90
        1
330
11C5
  0
DICTIONARY
  5
11F1
102
{ACAD_REACTORS
330
EAB
102
}
330
EAB
100
AcDbDictionary
281
     1
  3
CANNOSCALE
350
11F6
  3
CMLEADERSTYLE
350
11F3
  3
CTABLESTYLE
350
11F2
  3
CVIEWDETAILSTYLE
350
11F4
  3
CVIEWSECTIONSTYLE
350
11F5
  3
DIMASSOC
350
11F9
  3
INDEXCTL
350
11F8
  3
SORTENTS
350
11F7
  3
XCLIPFRAME
350
11FA
  0
XRECORD
  5
11FF
102
{ACAD_REACTORS
330
EAB
102
}
330
EAB
100
AcDbXrecord
280
     1
  1
DWGPROPS COOKIE
  2

  3

  4

  6

  7

  8
Yoshitsune
  9

300
=
301
=
302
=
303
=
304
=
305
=
306
=
307
=
308
=
309
=
 40
0.1095877199074074
 41
2452264.488287211
 42
2457192.70077081
  1

 90
        0
  0
XRECORD
  5
11E2
102
{ACAD_REACTORS
330
11E1
102
}
330
11E1
100
AcDbXrecord
280
     1
290
     1
  0
XRECORD
  5
11E4
102
{ACAD_REACTORS
330
11E3
102
}
330
11E3
100
AcDbXrecord
280
     1
290
     1
  0
XRECORD
  5
11E6
102
{ACAD_REACTORS
330
11E5
102
}
330
11E5
100
AcDbXrecord
280
     1
290
     1
  0
XRECORD
  5
11E8
102
{ACAD_REACTORS
330
11E7
102
}
330
11E7
100
AcDbXrecord
280
     1
290
     1
  0
XRECORD
  5
11EA
102
{ACAD_REACTORS
330
11E9
102
}
330
11E9
100
AcDbXrecord
280
     1
290
     1
  0
XRECORD
  5
11EC
102
{ACAD_REACTORS
330
11EB
102
}
330
11EB
100
AcDbXrecord
280
     1
290
     1
  0
XRECORD
  5
11EE
102
{ACAD_REACTORS
330
11ED
102
}
330
11ED
100
AcDbXrecord
280
     1
290
     1
  0
XRECORD
  5
11F0
102
{ACAD_REACTORS
330
11EF
102
}
330
11EF
100
AcDbXrecord
280
     1
290
     1
  0
XRECORD
  5
118B
102
{ACAD_REACTORS
330
118A
102
}
330
118A
100
AcDbXrecord
280
     1
340
EBD
  0
XRECORD
  5
1189
102
{ACAD_REACTORS
330
1188
102
}
330
1188
100
AcDbXrecord
280
     1
340
EB9
  0
ACDBDETAILVIEWSTYLE
  5
11DD
102
{ACAD_XDICTIONARY
360
1237
102
}
102
{ACAD_REACTORS
330
11DC
102
}
330
11DC
100
AcDbModelDocViewStyle
 70
     0
  3
Imperial24
290
     0
100
AcDbDetailViewStyle
 70
     0
 71
     0
 90
        3
 71
     1
340
EB0
 40
0.24
340
0
 40
0.24
300

 40
0.36
280
     3
 71
     2
340
EB4
 90
       25
 71
     3
340
EB0
 40
0.24
 90
        1
 40
0.75
 90
        1
300
%<\AcVar ViewType \f "%tc1">% %<\AcVar ViewDetailId>%\PSCALE %<\AcVar ViewScale \f "%sn">%
 71
     4
340
EB4
 90
       25
340
EB4
 90
       25
280
     0
  0
LAYOUT
  5
11DE
102
{ACAD_XDICTIONARY
360
1239
102
}
102
{ACAD_REACTORS
330
EB8
102
}
330
EB8
100
AcDbPlotSettings
  1

  2
Canon LBP9100C
  4

  6

 40
0.0
 41
0.0
 42
0.0
 43
0.0
 44
0.0
 45
0.0
 46
0.0
 47
0.0
 48
0.0
 49
0.0
140
0.0
141
0.0
142
1.0
143
1.0
 70
  1712
 72
     0
 73
     0
 74
     0
  7

 75
     0
147
1.0
148
0.0
149
0.0
100
AcDbLayout
  1
Model
 70
     1
 71
     0
 10
0.0
 20
0.0
 11
12.0
 21
9.0
 12
0.0
 22
0.0
 32
0.0
 14
0.0
 24
0.0
 34
0.0
 15
0.0
 25
0.0
 35
0.0
146
0.0
 13
0.0
 23
0.0
 33
0.0
 16
1.0
 26
0.0
 36
0.0
 17
0.0
 27
1.0
 37
0.0
 76
     0
330
EBD
331
1187
  0
LAYOUT
  5
11DF
102
{ACAD_XDICTIONARY
360
123B
102
}
102
{ACAD_REACTORS
330
EB8
102
}
330
EB8
100
AcDbPlotSettings
  1

  2
Canon LBP9100C
  4

  6

 40
0.0
 41
0.0
 42
0.0
 43
0.0
 44
0.0
 45
0.0
 46
0.0
 47
0.0
 48
0.0
 49
0.0
140
0.0
141
0.0
142
1.0
143
1.0
 70
   688
 72
     0
 73
     0
 74
     5
  7

 75
    16
147
1.0
148
0.0
149
0.0
100
AcDbLayout
  1
レイアウト1
 70
     1
 71
     1
 10
0.0
 20
0.0
 11
420.0
 21
297.0
 12
0.0
 22
0.0
 32
0.0
 14
1.000000000000000E+20
 24
1.000000000000000E+20
 34
1.000000000000000E+20
 15
-1.000000000000000E+20
 25
-1.000000000000000E+20
 35
-1.000000000000000E+20
146
0.0
 13
0.0
 23
0.0
 33
0.0
 16
1.0
 26
0.0
 36
0.0
 17
0.0
 27
1.0
 37
0.0
 76
     0
330
EB9
  0
MATERIAL
  5
119A
102
{ACAD_XDICTIONARY
360
119B
102
}
102
{ACAD_REACTORS
330
1191
102
}
330
1191
100
AcDbMaterial
  1
ByBlock
 72
     0
 43
0.0208333333333333
 43
0.0
 43
0.0
 43
0.0
 43
0.0
 43
0.0208333333333333
 43
0.0
 43
0.0
 43
0.0
 43
0.0
 43
1.0
 43
0.0
 43
0.0
 43
0.0
 43
0.0
 43
1.0
 77
     0
 47
0.0208333333333333
 47
0.0
 47
0.0
 47
0.0
 47
0.0
 47
0.0208333333333333
 47
0.0
 47
0.0
 47
0.0
 47
0.0
 47
1.0
 47
0.0
 47
0.0
 47
0.0
 47
0.0
 47
1.0
171
     0
 49
0.0208333333333333
 49
0.0
 49
0.0
 49
0.0
 49
0.0
 49
0.0208333333333333
 49
0.0
 49
0.0
 49
0.0
 49
0.0
 49
1.0
 49
0.0
 49
0.0
 49
0.0
 49
0.0
 49
1.0
175
     0
142
0.0208333333333333
142
0.0
142
0.0
142
0.0
142
0.0
142
0.0208333333333333
142
0.0
142
0.0
142
0.0
142
0.0
142
1.0
142
0.0
142
0.0
142
0.0
142
0.0
142
1.0
179
     0
144
0.0208333333333333
144
0.0
144
0.0
144
0.0
144
0.0
144
0.0208333333333333
144
0.0
144
0.0
144
0.0
144
0.0
144
1.0
144
0.0
144
0.0
144
0.0
144
0.0
144
1.0
147
0.0208333333333333
147
0.0
147
0.0
147
0.0
147
0.0
147
0.0208333333333333
147
0.0
147
0.0
147
0.0
147
0.0
147
1.0
147
0.0
147
0.0
147
0.0
147
0.0
147
1.0
  0
MATERIAL
  5
1192
102
{ACAD_XDICTIONARY
360
1193
102
}
102
{ACAD_REACTORS
330
1191
102
}
330
1191
100
AcDbMaterial
  1
ByLayer
 72
     0
 43
0.0208333333333333
 43
0.0
 43
0.0
 43
0.0
 43
0.0
 43
0.0208333333333333
 43
0.0
 43
0.0
 43
0.0
 43
0.0
 43
1.0
 43
0.0
 43
0.0
 43
0.0
 43
0.0
 43
1.0
 77
     0
 47
0.0208333333333333
 47
0.0
 47
0.0
 47
0.0
 47
0.0
 47
0.0208333333333333
 47
0.0
 47
0.0
 47
0.0
 47
0.0
 47
1.0
 47
0.0
 47
0.0
 47
0.0
 47
0.0
 47
1.0
171
     0
 49
0.0208333333333333
 49
0.0
 49
0.0
 49
0.0
 49
0.0
 49
0.0208333333333333
 49
0.0
 49
0.0
 49
0.0
 49
0.0
 49
1.0
 49
0.0
 49
0.0
 49
0.0
 49
0.0
 49
1.0
175
     0
142
0.0208333333333333
142
0.0
142
0.0
142
0.0
142
0.0
142
0.0208333333333333
142
0.0
142
0.0
142
0.0
142
0.0
142
1.0
142
0.0
142
0.0
142
0.0
142
0.0
142
1.0
179
     0
144
0.0208333333333333
144
0.0
144
0.0
144
0.0
144
0.0
144
0.0208333333333333
144
0.0
144
0.0
144
0.0
144
0.0
144
1.0
144
0.0
144
0.0
144
0.0
144
0.0
144
1.0
147
0.0208333333333333
147
0.0
147
0.0
147
0.0
147
0.0
147
0.0208333333333333
147
0.0
147
0.0
147
0.0
147
0.0
147
1.0
147
0.0
147
0.0
147
0.0
147
0.0
147
1.0
  0
MATERIAL
  5
11A2
102
{ACAD_XDICTIONARY
360
11A3
102
}
102
{ACAD_REACTORS
330
1191
102
}
330
1191
100
AcDbMaterial
  1
Global
 72
     0
 43
0.0208333333333333
 43
0.0
 43
0.0
 43
0.0
 43
0.0
 43
0.0208333333333333
 43
0.0
 43
0.0
 43
0.0
 43
0.0
 43
1.0
 43
0.0
 43
0.0
 43
0.0
 43
0.0
 43
1.0
 77
     0
 47
0.0208333333333333
 47
0.0
 47
0.0
 47
0.0
 47
0.0
 47
0.0208333333333333
 47
0.0
 47
0.0
 47
0.0
 47
0.0
 47
1.0
 47
0.0
 47
0.0
 47
0.0
 47
0.0
 47
1.0
171
     0
 49
0.0208333333333333
 49
0.0
 49
0.0
 49
0.0
 49
0.0
 49
0.0208333333333333
 49
0.0
 49
0.0
 49
0.0
 49
0.0
 49
1.0
 49
0.0
 49
0.0
 49
0.0
 49
0.0
 49
1.0
175
     0
142
0.0208333333333333
142
0.0
142
0.0
142
0.0
142
0.0
142
0.0208333333333333
142
0.0
142
0.0
142
0.0
142
0.0
142
1.0
142
0.0
142
0.0
142
0.0
142
0.0
142
1.0
179
     0
144
0.0208333333333333
144
0.0
144
0.0
144
0.0
144
0.0
144
0.0208333333333333
144
0.0
144
0.0
144
0.0
144
0.0
144
1.0
144
0.0
144
0.0
144
0.0
144
0.0
144
1.0
147
0.0208333333333333
147
0.0
147
0.0
147
0.0
147
0.0
147
0.0208333333333333
147
0.0
147
0.0
147
0.0
147
0.0
147
1.0
147
0.0
147
0.0
147
0.0
147
0.0
147
1.0
  0
MLEADERSTYLE
  5
11D9
102
{ACAD_REACTORS
330
11D8
102
}
330
11D8
100
AcDbMLeaderStyle
170
     2
171
     1
172
     0
 90
        2
 40
0.0
 41
0.0
173
     1
 91
-1056964608
340
EB2
 92
       -2
290
     1
 42
0.09
291
     1
 43
0.36
  3
Standard
 44
0.18
300

342
EB0
174
     1
178
     6
175
     1
176
     0
 93
-1056964608
 45
0.18
292
     0
297
     0
 46
0.18
 94
-1056964608
 47
1.0
 49
1.0
140
1.0
293
     1
141
0.0
294
     1
177
     0
142
1.0
295
     0
296
     0
143
0.125
1001
ACAD_MLEADERVER
1070
     2
  0
MLINESTYLE
  5
EB6
102
{ACAD_REACTORS
330
EB5
102
}
330
EB5
100
AcDbMlineStyle
  2
STANDARD
 70
     0
  3

 62
   256
 51
90.0
 52
90.0
 71
     2
 49
0.5
 62
   256
  6
BYLAYER
 49
-0.5
 62
   256
  6
BYLAYER
  0
ACDBPLACEHOLDER
  5
1190
102
{ACAD_REACTORS
330
118F
102
}
330
118F
  0
SCALE
  5
11C7
102
{ACAD_REACTORS
330
11C6
102
}
330
11C6
100
AcDbScale
 70
     0
300
1:1
140
1.0
141
1.0
290
     1
  0
SCALE
  5
11C8
102
{ACAD_REACTORS
330
11C6
102
}
330
11C6
100
AcDbScale
 70
     0
300
1/128" = 1'-0"
140
0.0078125
141
12.0
290
     0
  0
SCALE
  5
11C9
102
{ACAD_REACTORS
330
11C6
102
}
330
11C6
100
AcDbScale
 70
     0
300
1/64" = 1'-0"
140
0.015625
141
12.0
290
     0
  0
SCALE
  5
11CA
102
{ACAD_REACTORS
330
11C6
102
}
330
11C6
100
AcDbScale
 70
     0
300
1/32" = 1'-0"
140
0.03125
141
12.0
290
     0
  0
SCALE
  5
11CB
102
{ACAD_REACTORS
330
11C6
102
}
330
11C6
100
AcDbScale
 70
     0
300
1/16" = 1'-0"
140
0.0625
141
12.0
290
     0
  0
SCALE
  5
11CC
102
{ACAD_REACTORS
330
11C6
102
}
330
11C6
100
AcDbScale
 70
     0
300
3/32" = 1'-0"
140
0.09375
141
12.0
290
     0
  0
SCALE
  5
11CD
102
{ACAD_REACTORS
330
11C6
102
}
330
11C6
100
AcDbScale
 70
     0
300
1/8" = 1'-0"
140
0.125
141
12.0
290
     0
  0
SCALE
  5
11CE
102
{ACAD_REACTORS
330
11C6
102
}
330
11C6
100
AcDbScale
 70
     0
300
3/16" = 1'-0"
140
0.1875
141
12.0
290
     0
  0
SCALE
  5
11CF
102
{ACAD_REACTORS
330
11C6
102
}
330
11C6
100
AcDbScale
 70
     0
300
1/4" = 1'-0"
140
0.25
141
12.0
290
     0
  0
SCALE
  5
11D0
102
{ACAD_REACTORS
330
11C6
102
}
330
11C6
100
AcDbScale
 70
     0
300
3/8" = 1'-0"
140
0.375
141
12.0
290
     0
  0
SCALE
  5
11D1
102
{ACAD_REACTORS
330
11C6
102
}
330
11C6
100
AcDbScale
 70
     0
300
1/2" = 1'-0"
140
0.5
141
12.0
290
     0
  0
SCALE
  5
11D2
102
{ACAD_REACTORS
330
11C6
102
}
330
11C6
100
AcDbScale
 70
     0
300
3/4" = 1'-0"
140
0.75
141
12.0
290
     0
  0
SCALE
  5
11D3
102
{ACAD_REACTORS
330
11C6
102
}
330
11C6
100
AcDbScale
 70
     0
300
1" = 1'-0"
140
1.0
141
12.0
290
     0
  0
SCALE
  5
11D4
102
{ACAD_REACTORS
330
11C6
102
}
330
11C6
100
AcDbScale
 70
     0
300
1-1/2" = 1'-0"
140
1.5
141
12.0
290
     0
  0
SCALE
  5
11D5
102
{ACAD_REACTORS
330
11C6
102
}
330
11C6
100
AcDbScale
 70
     0
300
3" = 1'-0"
140
3.0
141
12.0
290
     0
  0
SCALE
  5
11D6
102
{ACAD_REACTORS
330
11C6
102
}
330
11C6
100
AcDbScale
 70
     0
300
6" = 1'-0"
140
6.0
141
12.0
290
     0
  0
SCALE
  5
11D7
102
{ACAD_REACTORS
330
11C6
102
}
330
11C6
100
AcDbScale
 70
     0
300
1'-0" = 1'-0"
140
12.0
141
12.0
290
     0
  0
ACDBSECTIONVIEWSTYLE
  5
11DB
102
{ACAD_XDICTIONARY
360
1235
102
}
102
{ACAD_REACTORS
330
11DA
102
}
330
11DA
100
AcDbModelDocViewStyle
 70
     0
  3
Imperial24
290
     0
100
AcDbSectionViewStyle
 70
     0
 71
     0
 90
       78
 71
     1
340
EB0
 40
0.24
340
0
340
0
 40
0.24
300
I, O, Q, S, X, Z
 40
0.48
 90
        3
 40
0.18
 90
        1
 71
     2
340
EB4
 90
       25
340
EB4
 90
       50
 40
0.24
 40
0.0
 40
0.24
 71
     3
340
EB0
 40
0.24
 90
        1
 40
0.75
 90
        1
300
%<\AcVar ViewType \f "%tc1">% %<\AcVar ViewSectionStartId>%-%<\AcVar ViewSectionEndId>%\PSCALE %<\AcVar ViewScale \f "%sn">%
 71
     4
300
ANSI31
 40
1.0
 90
        0
290
     0
290
     0
 90
        6
 40
0.0
 40
1.570796326794896
 40
0.2617993877991494
 40
1.308996938995747
 40
-0.2617993877991494
 40
1.832595714594046
  0
TABLESTYLE
  5
11C5
102
{ACAD_XDICTIONARY
360
11FC
102
}
102
{ACAD_REACTORS
330
11C4
102
}
330
11C4
100
AcDbTableStyle
  3
Standard
 70
     0
 71
     0
 40
0.06
 41
0.06
280
     0
281
     0
  7
STANDARD
140
0.18
170
     2
 62
     0
 63
     7
283
     0
274
    -2
284
     1
 64
     0
275
    -2
285
     1
 65
     0
276
    -2
286
     1
 66
     0
277
    -2
287
     1
 67
     0
278
    -2
288
     1
 68
     0
279
    -2
289
     1
 69
     0
  7
STANDARD
140
0.25
170
     5
 62
     0
 63
     7
283
     0
274
    -2
284
     1
 64
     0
275
    -2
285
     1
 65
     0
276
    -2
286
     1
 66
     0
277
    -2
287
     1
 67
     0
278
    -2
288
     1
 68
     0
279
    -2
289
     1
 69
     0
  7
STANDARD
140
0.18
170
     5
 62
     0
 63
     7
283
     0
274
    -2
284
     1
 64
     0
275
    -2
285
     1
 65
     0
276
    -2
286
     1
 66
     0
277
    -2
287
     1
 67
     0
278
    -2
288
     1
 68
     0
279
    -2
289
     1
 69
     0
  0
VISUALSTYLE
  5
11B0
102
{ACAD_XDICTIONARY
360
120D
102
}
102
{ACAD_REACTORS
330
11AA
102
}
330
11AA
100
AcDbVisualStyle
  2
2dWireframe
 70
     4
 71
     0
 72
     2
 73
     0
 90
        0
 40
-0.6
 41
-30.0
 62
     5
 63
     7
 74
     1
 91
        4
 64
     7
 65
   257
 75
     1
175
     1
 42
1.0
 92
        0
 66
   257
 43
1.0
 76
     1
 77
     6
 78
     2
 67
     7
 79
     5
170
     0
171
     0
290
     0
174
     0
 93
        1
 44
0.0
173
     0
291
     0
 45
0.0
1001
ACAD
1000
AcDbSavedByObjectVersion
1070
     0
  0
VISUALSTYLE
  5
11AF
102
{ACAD_XDICTIONARY
360
120B
102
}
102
{ACAD_REACTORS
330
11AA
102
}
330
11AA
100
AcDbVisualStyle
  2
Basic
 70
     7
 71
     1
 72
     0
 73
     1
 90
        0
 40
-0.6
 41
-30.0
 62
     5
 63
     7
 74
     0
 91
        4
 64
     7
 65
   257
 75
     1
175
     1
 42
1.0
 92
        8
 66
     7
 43
1.0
 76
     1
 77
     6
 78
     2
 67
     7
 79
     5
170
     0
171
     0
290
     0
174
     0
 93
        1
 44
0.0
173
     0
291
     1
 45
0.0
1001
ACAD
1000
AcDbSavedByObjectVersion
1070
     0
  0
VISUALSTYLE
  5
11B6
102
{ACAD_XDICTIONARY
360
1219
102
}
102
{ACAD_REACTORS
330
11AA
102
}
330
11AA
100
AcDbVisualStyle
  2
Brighten
 70
    12
 71
     2
 72
     2
 73
     0
 90
        0
 40
-0.6
 41
-30.0
 62
     5
 63
     7
 74
     1
 91
        4
 64
     7
 65
   257
 75
     1
175
     1
 42
1.0
 92
        8
 66
     7
 43
1.0
 76
     1
 77
     6
 78
     2
 67
     7
 79
     5
170
     0
171
     0
290
     0
174
     0
 93
        1
 44
50.0
173
     0
291
     1
 45
0.0
1001
ACAD
1000
AcDbSavedByObjectVersion
1070
     0
  0
VISUALSTYLE
  5
11BA
102
{ACAD_XDICTIONARY
360
1221
102
}
102
{ACAD_REACTORS
330
11AA
102
}
330
11AA
100
AcDbVisualStyle
  2
ColorChange
 70
    16
 71
     2
 72
     2
 73
     3
 90
        0
 40
-0.6
 41
-30.0
 62
     5
 63
     8
 74
     1
 91
        4
 64
     7
 65
   257
 75
     1
175
     1
 42
1.0
 92
        8
 66
     8
 43
1.0
 76
     1
 77
     6
 78
     2
 67
     7
 79
     5
170
     0
171
     0
290
     0
174
     0
 93
        1
 44
0.0
173
     0
291
     1
 45
0.0
1001
ACAD
1000
AcDbSavedByObjectVersion
1070
     0
  0
VISUALSTYLE
  5
11B3
102
{ACAD_XDICTIONARY
360
1213
102
}
102
{ACAD_REACTORS
330
11AA
102
}
330
11AA
100
AcDbVisualStyle
  2
Conceptual
 70
     9
 71
     3
 72
     2
 73
     0
 90
        0
 40
-0.6
 41
-30.0
 62
     5
 63
     7
 74
     2
 91
        2
 64
     7
 65
   257
 75
     1
175
     1
 42
179.0
 92
        8
 66
     7
 43
1.0
 76
     1
 77
     6
 78
     2
 67
     7
 79
     3
170
     0
171
     0
290
     0
174
     0
 93
        1
 44
0.0
173
     0
291
     0
 45
0.0
1001
ACAD
1000
AcDbSavedByObjectVersion
1070
     0
  0
VISUALSTYLE
  5
11B5
102
{ACAD_XDICTIONARY
360
1217
102
}
102
{ACAD_REACTORS
330
11AA
102
}
330
11AA
100
AcDbVisualStyle
  2
Dim
 70
    11
 71
     2
 72
     2
 73
     0
 90
        0
 40
-0.6
 41
-30.0
 62
     5
 63
     7
 74
     1
 91
        4
 64
     7
 65
   257
 75
     1
175
     1
 42
1.0
 92
        8
 66
     7
 43
1.0
 76
     1
 77
     6
 78
     2
 67
     7
 79
     5
170
     0
171
     0
290
     0
174
     0
 93
        1
 44
-50.0
173
     0
291
     1
 45
0.0
1001
ACAD
1000
AcDbSavedByObjectVersion
1070
     0
  0
VISUALSTYLE
  5
11C2
102
{ACAD_XDICTIONARY
360
1231
102
}
102
{ACAD_REACTORS
330
11AA
102
}
330
11AA
100
AcDbVisualStyle
  2
EdgeColorOff
 70
    22
 71
     2
 72
     2
 73
     0
 90
        0
 40
-0.6
 41
-30.0
 62
     5
 63
     7
 74
     1
 91
        4
 64
     7
 65
   257
 75
     1
175
     1
 42
1.0
 92
        8
 66
     7
 43
1.0
 76
     1
 77
     6
 78
     2
 67
     7
 79
     5
170
     0
171
     0
290
     0
174
     0
 93
        1
 44
0.0
173
     0
291
     1
 45
0.0
1001
ACAD
1000
AcDbSavedByObjectVersion
1070
     0
  0
VISUALSTYLE
  5
11B9
102
{ACAD_XDICTIONARY
360
121F
102
}
102
{ACAD_REACTORS
330
11AA
102
}
330
11AA
100
AcDbVisualStyle
  2
Facepattern
 70
    15
 71
     2
 72
     2
 73
     0
 90
        0
 40
-0.6
 41
-30.0
 62
     5
 63
     7
 74
     1
 91
        4
 64
     7
 65
   257
 75
     1
175
     1
 42
1.0
 92
        8
 66
     7
 43
1.0
 76
     1
 77
     6
 78
     2
 67
     7
 79
     5
170
     0
171
     0
290
     0
174
     0
 93
        1
 44
0.0
173
     0
291
     1
 45
0.0
1001
ACAD
1000
AcDbSavedByObjectVersion
1070
     0
  0
VISUALSTYLE
  5
11AB
102
{ACAD_XDICTIONARY
360
1203
102
}
102
{ACAD_REACTORS
330
11AA
102
}
330
11AA
100
AcDbVisualStyle
  2
Flat
 70
     0
 71
     2
 72
     1
 73
     1
 90
        2
 40
-0.6
 41
30.0
 62
     5
 63
     7
 74
     0
 91
        0
 64
     7
 65
   257
 75
     1
175
     1
 42
1.0
 92
        8
 66
     7
 43
1.0
 76
     1
 77
     6
 78
     2
 67
     7
 79
     5
170
     0
171
     0
290
     0
174
     0
 93
       13
 44
0.0
173
     0
291
     1
 45
0.0
1001
ACAD
1000
AcDbSavedByObjectVersion
1070
     0
  0
VISUALSTYLE
  5
11AC
102
{ACAD_XDICTIONARY
360
1205
102
}
102
{ACAD_REACTORS
330
11AA
102
}
330
11AA
100
AcDbVisualStyle
  2
FlatWithEdges
 70
     1
 71
     2
 72
     1
 73
     1
 90
        2
 40
-0.6
 41
30.0
 62
     5
 63
     7
 74
     1
 91
        0
 64
     7
 65
   257
 75
     1
175
     1
 42
1.0
 92
        0
 66
   257
 43
1.0
 76
     1
 77
     6
 78
     2
 67
     7
 79
     5
170
     0
171
     0
290
     0
174
     0
 93
       13
 44
0.0
173
     0
291
     1
 45
0.0
1001
ACAD
1000
AcDbSavedByObjectVersion
1070
     0
  0
VISUALSTYLE
  5
11AD
102
{ACAD_XDICTIONARY
360
1207
102
}
102
{ACAD_REACTORS
330
11AA
102
}
330
11AA
100
AcDbVisualStyle
  2
Gouraud
 70
     2
 71
     2
 72
     2
 73
     1
 90
        2
 40
-0.6
 41
30.0
 62
     5
 63
     7
 74
     0
 91
        0
 64
     7
 65
   257
 75
     1
175
     1
 42
1.0
 92
        0
 66
     7
 43
1.0
 76
     1
 77
     6
 78
     2
 67
     7
 79
     5
170
     0
171
     0
290
     0
174
     0
 93
       13
 44
0.0
173
     0
291
     1
 45
0.0
1001
ACAD
1000
AcDbSavedByObjectVersion
1070
     0
  0
VISUALSTYLE
  5
11AE
102
{ACAD_XDICTIONARY
360
1209
102
}
102
{ACAD_REACTORS
330
11AA
102
}
330
11AA
100
AcDbVisualStyle
  2
GouraudWithEdges
 70
     3
 71
     2
 72
     2
 73
     1
 90
        2
 40
-0.6
 41
30.0
 62
     5
 63
     7
 74
     1
 91
        0
 64
     7
 65
   257
 75
     1
175
     1
 42
1.0
 92
        0
 66
   257
 43
1.0
 76
     1
 77
     6
 78
     2
 67
     7
 79
     5
170
     0
171
     0
290
     0
174
     0
 93
       13
 44
0.0
173
     0
291
     1
 45
0.0
1001
ACAD
1000
AcDbSavedByObjectVersion
1070
     0
  0
VISUALSTYLE
  5
11B2
102
{ACAD_XDICTIONARY
360
1211
102
}
102
{ACAD_REACTORS
330
11AA
102
}
330
11AA
100
AcDbVisualStyle
  2
Hidden
 70
     6
 71
     1
 72
     2
 73
     2
 90
        0
 40
-0.6
 41
-30.0
 62
     5
 63
     7
 74
     2
 91
        2
 64
     7
 65
   257
 75
     2
175
     1
 42
40.0
 92
        0
 66
   257
 43
1.0
 76
     1
 77
     6
 78
     2
 67
     7
 79
     3
170
     0
171
     0
290
     0
174
     0
 93
        1
 44
0.0
173
     0
291
     0
 45
0.0
1001
ACAD
1000
AcDbSavedByObjectVersion
1070
     0
  0
VISUALSTYLE
  5
11C0
102
{ACAD_XDICTIONARY
360
122D
102
}
102
{ACAD_REACTORS
330
11AA
102
}
330
11AA
100
AcDbVisualStyle
  2
JitterOff
 70
    20
 71
     2
 72
     2
 73
     0
 90
        0
 40
-0.6
 41
-30.0
 62
     5
 63
     7
 74
     1
 91
        4
 64
     7
 65
   257
 75
     1
175
     1
 42
1.0
 92
       10
 66
     7
 43
1.0
 76
     1
 77
     6
 78
     2
 67
     7
 79
     5
170
     0
171
     0
290
     0
174
     0
 93
        1
 44
0.0
173
     0
291
     1
 45
0.0
1001
ACAD
1000
AcDbSavedByObjectVersion
1070
     0
  0
VISUALSTYLE
  5
11B8
102
{ACAD_XDICTIONARY
360
121D
102
}
102
{ACAD_REACTORS
330
11AA
102
}
330
11AA
100
AcDbVisualStyle
  2
Linepattern
 70
    14
 71
     2
 72
     2
 73
     0
 90
        0
 40
-0.6
 41
-30.0
 62
     5
 63
     7
 74
     1
 91
        4
 64
     7
 65
   257
 75
     7
175
     7
 42
1.0
 92
        8
 66
     7
 43
1.0
 76
     1
 77
     6
 78
     2
 67
     7
 79
     5
170
     0
171
     0
290
     0
174
     0
 93
        1
 44
0.0
173
     0
291
     1
 45
0.0
1001
ACAD
1000
AcDbSavedByObjectVersion
1070
     0
  0
VISUALSTYLE
  5
11C1
102
{ACAD_XDICTIONARY
360
122F
102
}
102
{ACAD_REACTORS
330
11AA
102
}
330
11AA
100
AcDbVisualStyle
  2
OverhangOff
 70
    21
 71
     2
 72
     2
 73
     0
 90
        0
 40
-0.6
 41
-30.0
 62
     5
 63
     7
 74
     1
 91
        4
 64
     7
 65
   257
 75
     1
175
     1
 42
1.0
 92
        9
 66
     7
 43
1.0
 76
     1
 77
     6
 78
     2
 67
     7
 79
     5
170
     0
171
     0
290
     0
174
     0
 93
        1
 44
0.0
173
     0
291
     1
 45
0.0
1001
ACAD
1000
AcDbSavedByObjectVersion
1070
     0
  0
VISUALSTYLE
  5
11B4
102
{ACAD_XDICTIONARY
360
1215
102
}
102
{ACAD_REACTORS
330
11AA
102
}
330
11AA
100
AcDbVisualStyle
  2
Realistic
 70
     8
 71
     2
 72
     3
 73
     0
 90
        2
 40
-0.6
 41
30.0
 62
     5
 63
     7
 74
     0
 91
        0
 64
     7
 65
   257
 75
     1
175
     1
 42
1.0
 92
        8
 66
   257
 43
1.0
 76
     1
 77
     6
 78
     2
 67
     7
 79
     3
170
     0
171
     0
290
     0
174
     0
 93
       13
 44
0.0
173
     0
291
     0
 45
0.0
1001
ACAD
1000
AcDbSavedByObjectVersion
1070
     0
  0
VISUALSTYLE
  5
11BF
102
{ACAD_XDICTIONARY
360
122B
102
}
102
{ACAD_REACTORS
330
11AA
102
}
330
11AA
100
AcDbVisualStyle
  2
Shaded
 70
    27
 71
     2
 72
     2
 73
     1
 90
        2
 40
-0.6
 41
30.0
 62
     5
 63
     7
 74
     0
 91
        4
 64
     7
 65
   257
 75
     1
175
     1
 42
1.0
 92
        8
 66
   257
 43
1.0
 76
     1
 77
     6
 78
     2
 67
     8
 79
     3
170
     0
171
     0
290
     0
174
     0
 93
        5
 44
0.0
173
     0
291
     0
 45
0.0
1001
ACAD
1000
AcDbSavedByObjectVersion
1070
     0
  0
VISUALSTYLE
  5
11BE
102
{ACAD_XDICTIONARY
360
1229
102
}
102
{ACAD_REACTORS
330
11AA
102
}
330
11AA
100
AcDbVisualStyle
  2
Shaded with edges
 70
    26
 71
     2
 72
     2
 73
     1
 90
        2
 40
-0.6
 41
30.0
 62
     5
 63
     7
 74
     1
 91
       10
 64
     7
 65
   257
 75
     2
175
     1
 42
1.0
 92
        8
 66
   257
 43
1.0
 76
     1
 77
     6
 78
     2
 67
     7
 79
     3
170
     0
171
     0
290
     0
174
     0
 93
        5
 44
0.0
173
     0
291
     0
 45
0.0
1001
ACAD
1000
AcDbSavedByObjectVersion
1070
     0
  0
VISUALSTYLE
  5
11BB
102
{ACAD_XDICTIONARY
360
1223
102
}
102
{ACAD_REACTORS
330
11AA
102
}
330
11AA
100
AcDbVisualStyle
  2
Shades of Gray
 70
    23
 71
     2
 72
     2
 73
     3
 90
        0
 40
-0.6
 41
-30.0
 62
     5
 63
     7
 74
     2
 91
        2
 64
     7
 65
     7
 75
     1
175
     1
 42
40.0
 92
        8
 66
     7
 43
1.0
 76
     1
 77
     6
 78
     2
 67
     7
 79
     3
170
     0
171
     0
290
     0
174
     0
 93
        1
 44
0.0
173
     0
291
     0
 45
0.0
1001
ACAD
1000
AcDbSavedByObjectVersion
1070
     0
  0
VISUALSTYLE
  5
11BC
102
{ACAD_XDICTIONARY
360
1225
102
}
102
{ACAD_REACTORS
330
11AA
102
}
330
11AA
100
AcDbVisualStyle
  2
Sketchy
 70
    24
 71
     1
 72
     2
 73
     2
 90
        0
 40
-0.6
 41
-30.0
 62
     5
 63
     7
 74
     2
 91
        2
 64
     7
 65
     7
 75
     1
175
     1
 42
40.0
 92
       11
 66
     7
 43
1.0
 76
     1
 77
     6
 78
     2
 67
     7
 79
     6
170
     0
171
     0
290
     0
174
     0
 93
        1
 44
0.0
173
     0
291
     0
 45
0.0
1001
ACAD
1000
AcDbSavedByObjectVersion
1070
     0
  0
VISUALSTYLE
  5
11B7
102
{ACAD_XDICTIONARY
360
121B
102
}
102
{ACAD_REACTORS
330
11AA
102
}
330
11AA
100
AcDbVisualStyle
  2
Thicken
 70
    13
 71
     2
 72
     2
 73
     0
 90
        0
 40
-0.6
 41
-30.0
 62
     5
 63
     7
 74
     1
 91
        4
 64
     7
 65
   257
 75
     1
175
     1
 42
1.0
 92
       12
 66
     7
 43
1.0
 76
     1
 77
     6
 78
     2
 67
     7
 79
     5
170
     0
171
     0
290
     0
174
     0
 93
        1
 44
0.0
173
     0
291
     1
 45
0.0
1001
ACAD
1000
AcDbSavedByObjectVersion
1070
     0
  0
VISUALSTYLE
  5
11B1
102
{ACAD_XDICTIONARY
360
120F
102
}
102
{ACAD_REACTORS
330
11AA
102
}
330
11AA
100
AcDbVisualStyle
  2
Wireframe
 70
     5
 71
     0
 72
     2
 73
     0
 90
        0
 40
-0.6
 41
-30.0
 62
     5
 63
     7
 74
     1
 91
        4
 64
     7
 65
   257
 75
     1
175
     1
 42
1.0
 92
        0
 66
   257
 43
1.0
 76
     1
 77
     6
 78
     2
 67
     7
 79
     3
170
     0
171
     0
290
     0
174
     0
 93
        1
 44
0.0
173
     0
291
     0
 45
0.0
1001
ACAD
1000
AcDbSavedByObjectVersion
1070
     0
  0
VISUALSTYLE
  5
11BD
102
{ACAD_XDICTIONARY
360
1227
102
}
102
{ACAD_REACTORS
330
11AA
102
}
330
11AA
100
AcDbVisualStyle
  2
X-Ray
 70
    25
 71
     2
 72
     2
 73
     1
 90
        1
 40
0.5
 41
-30.0
 62
     5
 63
     7
 74
     1
 91
        0
 64
     7
 65
   257
 75
     1
175
     1
 42
1.0
 92
        8
 66
     7
 43
1.0
 76
     1
 77
     6
 78
     2
 67
     7
 79
     3
170
     0
171
     0
290
     0
174
     0
 93
       13
 44
0.0
173
     0
291
     0
 45
0.0
1001
ACAD
1000
AcDbSavedByObjectVersion
1070
     0
  0
DICTIONARYVAR
  5
11F6
102
{ACAD_REACTORS
330
11F1
102
}
330
11F1
100
DictionaryVariables
280
     0
  1
1:1
  0
DICTIONARYVAR
  5
11F3
102
{ACAD_REACTORS
330
11F1
102
}
330
11F1
100
DictionaryVariables
280
     0
  1
STANDARD
  0
DICTIONARYVAR
  5
11F2
102
{ACAD_REACTORS
330
11F1
102
}
330
11F1
100
DictionaryVariables
280
     0
  1
STANDARD
  0
DICTIONARYVAR
  5
11F4
102
{ACAD_REACTORS
330
11F1
102
}
330
11F1
100
DictionaryVariables
280
     0
  1
Imperial24
  0
DICTIONARYVAR
  5
11F5
102
{ACAD_REACTORS
330
11F1
102
}
330
11F1
100
DictionaryVariables
280
     0
  1
Imperial24
  0
DICTIONARYVAR
  5
11F9
102
{ACAD_REACTORS
330
11F1
102
}
330
11F1
100
DictionaryVariables
280
     0
  1
1
  0
DICTIONARYVAR
  5
11F8
102
{ACAD_REACTORS
330
11F1
102
}
330
11F1
100
DictionaryVariables
280
     0
  1
0
  0
DICTIONARYVAR
  5
11F7
102
{ACAD_REACTORS
330
11F1
102
}
330
11F1
100
DictionaryVariables
280
     0
  1
127
  0
DICTIONARYVAR
  5
11FA
102
{ACAD_REACTORS
330
11F1
102
}
330
11F1
100
DictionaryVariables
280
     0
  1
2
  0
DICTIONARY
  5
1237
330
11DD
100
AcDbDictionary
280
     1
281
     1
  3
ACAD_XREC_ROUNDTRIP
360
1238
  0
DICTIONARY
  5
1239
330
11DE
100
AcDbDictionary
280
     1
281
     1
  3
ACAD_XREC_ROUNDTRIP
360
123A
  0
DICTIONARY
  5
123B
330
11DF
100
AcDbDictionary
280
     1
281
     1
  3
ACAD_XREC_ROUNDTRIP
360
123C
  0
DICTIONARY
  5
119B
330
119A
100
AcDbDictionary
280
     1
281
     1
  3
ACAD_XREC_ROUNDTRIP
360
1201
  3
BUMPTILE
360
119D
  3
DIFFUSETILE
360
119C
  3
OPACITYTILE
360
11A0
  3
REFLECTIONTILE
360
119F
  3
REFRACTIONTILE
360
11A1
  3
SPECULARTILE
360
119E
  0
DICTIONARY
  5
1193
330
1192
100
AcDbDictionary
280
     1
281
     1
  3
ACAD_XREC_ROUNDTRIP
360
1200
  3
BUMPTILE
360
1195
  3
DIFFUSETILE
360
1194
  3
OPACITYTILE
360
1198
  3
REFLECTIONTILE
360
1197
  3
REFRACTIONTILE
360
1199
  3
SPECULARTILE
360
1196
  0
DICTIONARY
  5
11A3
330
11A2
100
AcDbDictionary
280
     1
281
     1
  3
ACAD_XREC_ROUNDTRIP
360
1202
  3
BUMPTILE
360
11A5
  3
DIFFUSETILE
360
11A4
  3
OPACITYTILE
360
11A8
  3
REFLECTIONTILE
360
11A7
  3
REFRACTIONTILE
360
11A9
  3
SPECULARTILE
360
11A6
  0
DICTIONARY
  5
1235
330
11DB
100
AcDbDictionary
280
     1
281
     1
  3
ACAD_XREC_ROUNDTRIP
360
1236
  0
DICTIONARY
  5
11FC
330
11C5
100
AcDbDictionary
280
     1
281
     1
  3
ACAD_ROUNDTRIP_2008_TABLESTYLE_CELLSTYLEMAP
360
11FD
  3
ACAD_XREC_ROUNDTRIP
360
1233
  0
DICTIONARY
  5
120D
330
11B0
100
AcDbDictionary
280
     1
281
     1
  3
ACAD_XREC_ROUNDTRIP
360
120E
  0
DICTIONARY
  5
120B
330
11AF
100
AcDbDictionary
280
     1
281
     1
  3
ACAD_XREC_ROUNDTRIP
360
120C
  0
DICTIONARY
  5
1219
330
11B6
100
AcDbDictionary
280
     1
281
     1
  3
ACAD_XREC_ROUNDTRIP
360
121A
  0
DICTIONARY
  5
1221
330
11BA
100
AcDbDictionary
280
     1
281
     1
  3
ACAD_XREC_ROUNDTRIP
360
1222
  0
DICTIONARY
  5
1213
330
11B3
100
AcDbDictionary
280
     1
281
     1
  3
ACAD_XREC_ROUNDTRIP
360
1214
  0
DICTIONARY
  5
1217
330
11B5
100
AcDbDictionary
280
     1
281
     1
  3
ACAD_XREC_ROUNDTRIP
360
1218
  0
DICTIONARY
  5
1231
330
11C2
100
AcDbDictionary
280
     1
281
     1
  3
ACAD_XREC_ROUNDTRIP
360
1232
  0
DICTIONARY
  5
121F
330
11B9
100
AcDbDictionary
280
     1
281
     1
  3
ACAD_XREC_ROUNDTRIP
360
1220
  0
DICTIONARY
  5
1203
330
11AB
100
AcDbDictionary
280
     1
281
     1
  3
ACAD_XREC_ROUNDTRIP
360
1204
  0
DICTIONARY
  5
1205
330
11AC
100
AcDbDictionary
280
     1
281
     1
  3
ACAD_XREC_ROUNDTRIP
360
1206
  0
DICTIONARY
  5
1207
330
11AD
100
AcDbDictionary
280
     1
281
     1
  3
ACAD_XREC_ROUNDTRIP
360
1208
  0
DICTIONARY
  5
1209
330
11AE
100
AcDbDictionary
280
     1
281
     1
  3
ACAD_XREC_ROUNDTRIP
360
120A
  0
DICTIONARY
  5
1211
330
11B2
100
AcDbDictionary
280
     1
281
     1
  3
ACAD_XREC_ROUNDTRIP
360
1212
  0
DICTIONARY
  5
122D
330
11C0
100
AcDbDictionary
280
     1
281
     1
  3
ACAD_XREC_ROUNDTRIP
360
122E
  0
DICTIONARY
  5
121D
330
11B8
100
AcDbDictionary
280
     1
281
     1
  3
ACAD_XREC_ROUNDTRIP
360
121E
  0
DICTIONARY
  5
122F
330
11C1
100
AcDbDictionary
280
     1
281
     1
  3
ACAD_XREC_ROUNDTRIP
360
1230
  0
DICTIONARY
  5
1215
330
11B4
100
AcDbDictionary
280
     1
281
     1
  3
ACAD_XREC_ROUNDTRIP
360
1216
  0
DICTIONARY
  5
122B
330
11BF
100
AcDbDictionary
280
     1
281
     1
  3
ACAD_XREC_ROUNDTRIP
360
122C
  0
DICTIONARY
  5
1229
330
11BE
100
AcDbDictionary
280
     1
281
     1
  3
ACAD_XREC_ROUNDTRIP
360
122A
  0
DICTIONARY
  5
1223
330
11BB
100
AcDbDictionary
280
     1
281
     1
  3
ACAD_XREC_ROUNDTRIP
360
1224
  0
DICTIONARY
  5
1225
330
11BC
100
AcDbDictionary
280
     1
281
     1
  3
ACAD_XREC_ROUNDTRIP
360
1226
  0
DICTIONARY
  5
121B
330
11B7
100
AcDbDictionary
280
     1
281
     1
  3
ACAD_XREC_ROUNDTRIP
360
121C
  0
DICTIONARY
  5
120F
330
11B1
100
AcDbDictionary
280
     1
281
     1
  3
ACAD_XREC_ROUNDTRIP
360
1210
  0
DICTIONARY
  5
1227
330
11BD
100
AcDbDictionary
280
     1
281
     1
  3
ACAD_XREC_ROUNDTRIP
360
1228
  0
XRECORD
  5
1238
102
{ACAD_REACTORS
330
1237
102
}
330
1237
100
AcDbXrecord
280
     1
102
DISPLAYNAME
  1
Imperial24
102
FLAGS
 90
        0
  0
XRECORD
  5
123A
102
{ACAD_REACTORS
330
1239
102
}
330
1239
100
AcDbXrecord
280
     1
102
SHADEPLOT
 70
     0
102
SHADEPLOTRESLEVEL
 70
     2
102
SHADEPLOTCUSTOMDPI
 70
   300
  0
XRECORD
  5
123C
102
{ACAD_REACTORS
330
123B
102
}
330
123B
100
AcDbXrecord
280
     1
102
SHADEPLOT
 70
     0
102
SHADEPLOTRESLEVEL
 70
     2
102
SHADEPLOTCUSTOMDPI
 70
   300
  0
XRECORD
  5
1201
102
{ACAD_REACTORS
330
119B
102
}
330
119B
100
AcDbXrecord
280
     1
102
MATERIAL
148
0.0
149
0.0
149
0.0
 93
        0
 94
      127
282
     0
 72
     0
 77
     0
171
     0
175
     0
179
     0
273
     0
  0
XRECORD
  5
119D
102
{ACAD_REACTORS
330
119B
102
}
330
119B
100
AcDbXrecord
280
     1
270
     1
271
     1
  0
XRECORD
  5
119C
102
{ACAD_REACTORS
330
119B
102
}
330
119B
100
AcDbXrecord
280
     1
270
     1
271
     1
  0
XRECORD
  5
11A0
102
{ACAD_REACTORS
330
119B
102
}
330
119B
100
AcDbXrecord
280
     1
270
     1
271
     1
  0
XRECORD
  5
119F
102
{ACAD_REACTORS
330
119B
102
}
330
119B
100
AcDbXrecord
280
     1
270
     1
271
     1
  0
XRECORD
  5
11A1
102
{ACAD_REACTORS
330
119B
102
}
330
119B
100
AcDbXrecord
280
     1
270
     1
271
     1
  0
XRECORD
  5
119E
102
{ACAD_REACTORS
330
119B
102
}
330
119B
100
AcDbXrecord
280
     1
270
     1
271
     1
  0
XRECORD
  5
1200
102
{ACAD_REACTORS
330
1193
102
}
330
1193
100
AcDbXrecord
280
     1
102
MATERIAL
148
0.0
149
0.0
149
0.0
 93
        0
 94
      127
282
     0
 72
     0
 77
     0
171
     0
175
     0
179
     0
273
     0
  0
XRECORD
  5
1195
102
{ACAD_REACTORS
330
1193
102
}
330
1193
100
AcDbXrecord
280
     1
270
     1
271
     1
  0
XRECORD
  5
1194
102
{ACAD_REACTORS
330
1193
102
}
330
1193
100
AcDbXrecord
280
     1
270
     1
271
     1
  0
XRECORD
  5
1198
102
{ACAD_REACTORS
330
1193
102
}
330
1193
100
AcDbXrecord
280
     1
270
     1
271
     1
  0
XRECORD
  5
1197
102
{ACAD_REACTORS
330
1193
102
}
330
1193
100
AcDbXrecord
280
     1
270
     1
271
     1
  0
XRECORD
  5
1199
102
{ACAD_REACTORS
330
1193
102
}
330
1193
100
AcDbXrecord
280
     1
270
     1
271
     1
  0
XRECORD
  5
1196
102
{ACAD_REACTORS
330
1193
102
}
330
1193
100
AcDbXrecord
280
     1
270
     1
271
     1
  0
XRECORD
  5
1202
102
{ACAD_REACTORS
330
11A3
102
}
330
11A3
100
AcDbXrecord
280
     1
102
MATERIAL
148
0.0
149
0.0
149
0.0
 93
        0
 94
      127
282
     0
 72
     0
 77
     0
171
     0
175
     0
179
     0
273
     0
  0
XRECORD
  5
11A5
102
{ACAD_REACTORS
330
11A3
102
}
330
11A3
100
AcDbXrecord
280
     1
270
     1
271
     1
  0
XRECORD
  5
11A4
102
{ACAD_REACTORS
330
11A3
102
}
330
11A3
100
AcDbXrecord
280
     1
270
     1
271
     1
  0
XRECORD
  5
11A8
102
{ACAD_REACTORS
330
11A3
102
}
330
11A3
100
AcDbXrecord
280
     1
270
     1
271
     1
  0
XRECORD
  5
11A7
102
{ACAD_REACTORS
330
11A3
102
}
330
11A3
100
AcDbXrecord
280
     1
270
     1
271
     1
  0
XRECORD
  5
11A9
102
{ACAD_REACTORS
330
11A3
102
}
330
11A3
100
AcDbXrecord
280
     1
270
     1
271
     1
  0
XRECORD
  5
11A6
102
{ACAD_REACTORS
330
11A3
102
}
330
11A3
100
AcDbXrecord
280
     1
270
     1
271
     1
  0
XRECORD
  5
1236
102
{ACAD_REACTORS
330
1235
102
}
330
1235
100
AcDbXrecord
280
     1
102
DISPLAYNAME
  1
Imperial24
102
FLAGS
 90
        0
  0
CELLSTYLEMAP
  5
11FD
102
{ACAD_REACTORS
330
11FC
102
}
330
11FC
100
AcDbCellStyleMap
 90
        3
300
CELLSTYLE
  1
TABLEFORMAT_BEGIN
 90
        5
170
     1
 91
        0
 92
    32768
 62
   257
 93
        1
300
CONTENTFORMAT
  1
CONTENTFORMAT_BEGIN
 90
        0
 91
        0
 92
      512
 93
        0
300

 40
0.0
140
1.0
 94
        5
 62
     0
340
EB0
144
0.25
309
CONTENTFORMAT_END
171
     0
 94
        0
309
TABLEFORMAT_END
  1
CELLSTYLE_BEGIN
 90
        1
 91
        1
300
_TITLE
309
CELLSTYLE_END
300
CELLSTYLE
  1
TABLEFORMAT_BEGIN
 90
        5
170
     1
 91
        0
 92
        0
 62
   257
 93
        1
300
CONTENTFORMAT
  1
CONTENTFORMAT_BEGIN
 90
        0
 91
        0
 92
      512
 93
        0
300

 40
0.0
140
1.0
 94
        5
 62
     0
340
EB0
144
0.18
309
CONTENTFORMAT_END
171
     0
 94
        0
309
TABLEFORMAT_END
  1
CELLSTYLE_BEGIN
 90
        2
 91
        1
300
_HEADER
309
CELLSTYLE_END
300
CELLSTYLE
  1
TABLEFORMAT_BEGIN
 90
        5
170
     1
 91
        0
 92
        0
 62
   257
 93
        1
300
CONTENTFORMAT
  1
CONTENTFORMAT_BEGIN
 90
        0
 91
        0
 92
      512
 93
        0
300

 40
0.0
140
1.0
 94
        2
 62
     0
340
EB0
144
0.18
309
CONTENTFORMAT_END
171
     0
 94
        0
309
TABLEFORMAT_END
  1
CELLSTYLE_BEGIN
 90
        3
 91
        2
300
_DATA
309
CELLSTYLE_END
  0
XRECORD
  5
1233
102
{ACAD_REACTORS
330
11FC
102
}
330
11FC
100
AcDbXrecord
280
     1
102
ACAD_ROUNDTRIP_PRE2007_TABLESTYLE
 90
      512
 91
        0
  1

 92
      512
 93
        0
  2

 94
      512
 95
        0
  3

  0
XRECORD
  5
120E
102
{ACAD_REACTORS
330
120D
102
}
330
120D
100
AcDbXrecord
280
     1
102
RTVSPost2010Prop28
280
     1
102
RTVSPost2010PropOp28
 70
     1
102
RTVSPost2010Prop29
280
     1
102
RTVSPost2010PropOp29
 70
     1
102
RTVSPost2010Prop30
280
     0
102
RTVSPost2010PropOp30
 70
     1
102
RTVSPost2010Prop31
280
     0
102
RTVSPost2010PropOp31
 70
     1
102
RTVSPost2010Prop32
280
     0
102
RTVSPost2010PropOp32
 70
     1
102
RTVSPost2010Prop33
280
     0
102
RTVSPost2010PropOp33
 70
     1
102
RTVSPost2010Prop34
280
     0
102
RTVSPost2010PropOp34
 70
     1
102
RTVSPost2010Prop35
280
     0
102
RTVSPost2010PropOp35
 70
     1
102
RTVSPost2010Prop36
280
     0
102
RTVSPost2010PropOp36
 70
     1
102
RTVSPost2010Prop37
 90
       50
102
RTVSPost2010PropOp37
 70
     1
102
RTVSPost2010Prop38
140
0.0
102
RTVSPost2010PropOp38
 70
     1
102
RTVSPost2010Prop39
140
1.0
102
RTVSPost2010PropOp39
 70
     1
102
RTVSPost2010Prop40
 90
        0
102
RTVSPost2010PropOp40
 70
     1
102
RTVSPost2010Prop41ColorIndex
 90
       18
102
RTVSPost2010Prop41ColorRGB
 90
        0
102
RTVSPost2010PropOp41
 70
     1
102
RTVSPost2010Prop42
 90
       50
102
RTVSPost2010PropOp42
 70
     1
102
RTVSPost2010Prop43
 90
        3
102
RTVSPost2010PropOp43
 70
     1
102
RTVSPost2010Prop44ColorIndex
 90
        5
102
RTVSPost2010Prop44ColorRGB
 90
      255
102
RTVSPost2010PropOp44
 70
     1
102
RTVSPost2010Prop45
280
     0
102
RTVSPost2010PropOp45
 70
     1
102
RTVSPost2010Prop46
 90
       50
102
RTVSPost2010PropOp46
 70
     1
102
RTVSPost2010Prop47
 90
       50
102
RTVSPost2010PropOp47
 70
     1
102
RTVSPost2010Prop48
 90
       50
102
RTVSPost2010PropOp48
 70
     1
102
RTVSPost2010Prop49
280
     0
102
RTVSPost2010PropOp49
 70
     1
102
RTVSPost2010Prop50
 90
       50
102
RTVSPost2010PropOp50
 70
     1
102
RTVSPost2010Prop51ColorIndex
 90
      256
102
RTVSPost2010Prop51ColorRGB
 90
-16777216
102
RTVSPost2010PropOp51
 70
     0
102
RTVSPost2010Prop52
140
1.0
102
RTVSPost2010PropOp52
 70
     0
102
RTVSPost2010Prop53
 90
        2
102
RTVSPost2010PropOp53
 70
     1
102
RTVSPost2010Prop54
  1
strokes_ogs.tif
102
RTVSPost2010PropOp54
 70
     1
102
RTVSPost2010Prop55
280
     0
102
RTVSPost2010PropOp55
 70
     1
102
RTVSPost2010Prop56
140
1.0
102
RTVSPost2010PropOp56
 70
     1
102
RTVSPost2010Prop57
140
1.0
102
RTVSPost2010PropOp57
 70
     1
102
RTVSPropertyOp0
 70
     1
102
RTVSPropertyOp1
 70
     1
102
RTVSPropertyOp2
 70
     1
102
RTVSPropertyOp3
 70
     1
102
RTVSPropertyOp4
 70
     1
102
RTVSPropertyOp5
 70
     1
102
RTVSPropertyOp6
 70
     1
102
RTVSPropertyOp7
 70
     1
102
RTVSPropertyOp8
 70
     1
102
RTVSPropertyOp9
 70
     1
102
RTVSPropertyOp10
 70
     1
102
RTVSPropertyOp11
 70
     1
102
RTVSPropertyOp12
 70
     1
102
RTVSPropertyOp13
 70
     1
102
RTVSPropertyOp14
 70
     1
102
RTVSPropertyOp15
 70
     1
102
RTVSPropertyOp16
 70
     1
102
RTVSPropertyOp17
 70
     1
102
RTVSPropertyOp18
 70
     1
102
RTVSPropertyOp19
 70
     1
102
RTVSPropertyOp20
 70
     1
102
RTVSPropertyOp21
 70
     1
102
RTVSPropertyOp22
 70
     1
102
RTVSPropertyOp23
 70
     1
102
RTVSPropertyOp24
 70
     1
102
RTVSPropertyOp25
 70
     1
102
RTVSPropertyOp26
 70
     1
102
RTVSPropertyOp27
 70
     1
102
RTVSPropertyOp28
 70
     1
102
RTVSPropertyOp29
 70
     1
102
RTVSPropertyOp30
 70
     1
102
RTVSPropertyOp31
 70
     1
102
RTVSPropertyOp32
 70
     1
102
RTVSPropertyOp33
 70
     1
102
RTVSPropertyOp34
 70
     1
102
RTVSPropertyOp35
 70
     1
102
RTVSPropertyOp36
 70
     1
102
RTVSPropertyOp37
 70
     1
102
RTVSPropertyOp38
 70
     1
102
RTVSPropertyOp39
 70
     1
102
RTVSPropertyOp40
 70
     1
102
RTVSPropertyOp41
 70
     1
102
RTVSPropertyOp42
 70
     1
102
RTVSPropertyOp43
 70
     1
102
RTVSPropertyOp44
 70
     1
102
RTVSPropertyOp45
 70
     1
102
RTVSPropertyOp46
 70
     1
102
RTVSPropertyOp47
 70
     1
102
RTVSPropertyOp48
 70
     1
102
RTVSPropertyOp49
 70
     1
102
RTVSPropertyOp50
 70
     1
102
RTVSPropertyOp51
 70
     0
102
RTVSPropertyOp52
 70
     0
102
RTVSPropertyOp53
 70
     1
102
RTVSPropertyOp54
 70
     1
102
RTVSPropertyOp55
 70
     1
102
RTVSPropertyOp56
 70
     1
102
RTVSPropertyOp57
 70
     1
102
RTVSPropertyOp58
 70
     1
102
RTVSPropertyOp59
 70
     1
102
RTVSPropertyOp60
 70
     1
102
RTVSPropertyOp61
 70
     1
102
RTVSPropertyOp62
 70
     1
  0
XRECORD
  5
120C
102
{ACAD_REACTORS
330
120B
102
}
330
120B
100
AcDbXrecord
280
     1
102
RTVSPost2010Prop28
280
     0
102
RTVSPost2010PropOp28
 70
     1
102
RTVSPost2010Prop29
280
     1
102
RTVSPost2010PropOp29
 70
     1
102
RTVSPost2010Prop30
280
     1
102
RTVSPost2010PropOp30
 70
     1
102
RTVSPost2010Prop31
280
     0
102
RTVSPost2010PropOp31
 70
     1
102
RTVSPost2010Prop32
280
     0
102
RTVSPost2010PropOp32
 70
     1
102
RTVSPost2010Prop33
280
     0
102
RTVSPost2010PropOp33
 70
     1
102
RTVSPost2010Prop34
280
     0
102
RTVSPost2010PropOp34
 70
     1
102
RTVSPost2010Prop35
280
     0
102
RTVSPost2010PropOp35
 70
     1
102
RTVSPost2010Prop36
280
     0
102
RTVSPost2010PropOp36
 70
     1
102
RTVSPost2010Prop37
 90
       50
102
RTVSPost2010PropOp37
 70
     1
102
RTVSPost2010Prop38
140
0.0
102
RTVSPost2010PropOp38
 70
     1
102
RTVSPost2010Prop39
140
1.0
102
RTVSPost2010PropOp39
 70
     1
102
RTVSPost2010Prop40
 90
        0
102
RTVSPost2010PropOp40
 70
     1
102
RTVSPost2010Prop41ColorIndex
 90
       18
102
RTVSPost2010Prop41ColorRGB
 90
        0
102
RTVSPost2010PropOp41
 70
     1
102
RTVSPost2010Prop42
 90
       50
102
RTVSPost2010PropOp42
 70
     1
102
RTVSPost2010Prop43
 90
        3
102
RTVSPost2010PropOp43
 70
     1
102
RTVSPost2010Prop44ColorIndex
 90
        5
102
RTVSPost2010Prop44ColorRGB
 90
      255
102
RTVSPost2010PropOp44
 70
     1
102
RTVSPost2010Prop45
280
     0
102
RTVSPost2010PropOp45
 70
     1
102
RTVSPost2010Prop46
 90
       50
102
RTVSPost2010PropOp46
 70
     1
102
RTVSPost2010Prop47
 90
       50
102
RTVSPost2010PropOp47
 70
     1
102
RTVSPost2010Prop48
 90
       50
102
RTVSPost2010PropOp48
 70
     1
102
RTVSPost2010Prop49
280
     0
102
RTVSPost2010PropOp49
 70
     1
102
RTVSPost2010Prop50
 90
       50
102
RTVSPost2010PropOp50
 70
     1
102
RTVSPost2010Prop51ColorIndex
 90
      256
102
RTVSPost2010Prop51ColorRGB
 90
-16777216
102
RTVSPost2010PropOp51
 70
     0
102
RTVSPost2010Prop52
140
1.0
102
RTVSPost2010PropOp52
 70
     0
102
RTVSPost2010Prop53
 90
        2
102
RTVSPost2010PropOp53
 70
     1
102
RTVSPost2010Prop54
  1
strokes_ogs.tif
102
RTVSPost2010PropOp54
 70
     1
102
RTVSPost2010Prop55
280
     0
102
RTVSPost2010PropOp55
 70
     1
102
RTVSPost2010Prop56
140
1.0
102
RTVSPost2010PropOp56
 70
     1
102
RTVSPost2010Prop57
140
1.0
102
RTVSPost2010PropOp57
 70
     1
102
RTVSPropertyOp0
 70
     1
102
RTVSPropertyOp1
 70
     1
102
RTVSPropertyOp2
 70
     1
102
RTVSPropertyOp3
 70
     1
102
RTVSPropertyOp4
 70
     1
102
RTVSPropertyOp5
 70
     1
102
RTVSPropertyOp6
 70
     1
102
RTVSPropertyOp7
 70
     1
102
RTVSPropertyOp8
 70
     1
102
RTVSPropertyOp9
 70
     1
102
RTVSPropertyOp10
 70
     1
102
RTVSPropertyOp11
 70
     1
102
RTVSPropertyOp12
 70
     1
102
RTVSPropertyOp13
 70
     1
102
RTVSPropertyOp14
 70
     1
102
RTVSPropertyOp15
 70
     1
102
RTVSPropertyOp16
 70
     1
102
RTVSPropertyOp17
 70
     1
102
RTVSPropertyOp18
 70
     1
102
RTVSPropertyOp19
 70
     1
102
RTVSPropertyOp20
 70
     1
102
RTVSPropertyOp21
 70
     1
102
RTVSPropertyOp22
 70
     1
102
RTVSPropertyOp23
 70
     1
102
RTVSPropertyOp24
 70
     1
102
RTVSPropertyOp25
 70
     1
102
RTVSPropertyOp26
 70
     1
102
RTVSPropertyOp27
 70
     1
102
RTVSPropertyOp28
 70
     1
102
RTVSPropertyOp29
 70
     1
102
RTVSPropertyOp30
 70
     1
102
RTVSPropertyOp31
 70
     1
102
RTVSPropertyOp32
 70
     1
102
RTVSPropertyOp33
 70
     1
102
RTVSPropertyOp34
 70
     1
102
RTVSPropertyOp35
 70
     1
102
RTVSPropertyOp36
 70
     1
102
RTVSPropertyOp37
 70
     1
102
RTVSPropertyOp38
 70
     1
102
RTVSPropertyOp39
 70
     1
102
RTVSPropertyOp40
 70
     1
102
RTVSPropertyOp41
 70
     1
102
RTVSPropertyOp42
 70
     1
102
RTVSPropertyOp43
 70
     1
102
RTVSPropertyOp44
 70
     1
102
RTVSPropertyOp45
 70
     1
102
RTVSPropertyOp46
 70
     1
102
RTVSPropertyOp47
 70
     1
102
RTVSPropertyOp48
 70
     1
102
RTVSPropertyOp49
 70
     1
102
RTVSPropertyOp50
 70
     1
102
RTVSPropertyOp51
 70
     0
102
RTVSPropertyOp52
 70
     0
102
RTVSPropertyOp53
 70
     1
102
RTVSPropertyOp54
 70
     1
102
RTVSPropertyOp55
 70
     1
102
RTVSPropertyOp56
 70
     1
102
RTVSPropertyOp57
 70
     1
102
RTVSPropertyOp58
 70
     1
102
RTVSPropertyOp59
 70
     1
102
RTVSPropertyOp60
 70
     1
102
RTVSPropertyOp61
 70
     1
102
RTVSPropertyOp62
 70
     1
  0
XRECORD
  5
121A
102
{ACAD_REACTORS
330
1219
102
}
330
1219
100
AcDbXrecord
280
     1
102
RTVSPost2010Prop28
280
     0
102
RTVSPost2010PropOp28
 70
     1
102
RTVSPost2010Prop29
280
     1
102
RTVSPost2010PropOp29
 70
     1
102
RTVSPost2010Prop30
280
     1
102
RTVSPost2010PropOp30
 70
     1
102
RTVSPost2010Prop31
280
     0
102
RTVSPost2010PropOp31
 70
     1
102
RTVSPost2010Prop32
280
     0
102
RTVSPost2010PropOp32
 70
     1
102
RTVSPost2010Prop33
280
     0
102
RTVSPost2010PropOp33
 70
     1
102
RTVSPost2010Prop34
280
     0
102
RTVSPost2010PropOp34
 70
     1
102
RTVSPost2010Prop35
280
     0
102
RTVSPost2010PropOp35
 70
     1
102
RTVSPost2010Prop36
280
     0
102
RTVSPost2010PropOp36
 70
     1
102
RTVSPost2010Prop37
 90
       50
102
RTVSPost2010PropOp37
 70
     1
102
RTVSPost2010Prop38
140
0.0
102
RTVSPost2010PropOp38
 70
     1
102
RTVSPost2010Prop39
140
1.0
102
RTVSPost2010PropOp39
 70
     1
102
RTVSPost2010Prop40
 90
        0
102
RTVSPost2010PropOp40
 70
     1
102
RTVSPost2010Prop41ColorIndex
 90
       18
102
RTVSPost2010Prop41ColorRGB
 90
        0
102
RTVSPost2010PropOp41
 70
     1
102
RTVSPost2010Prop42
 90
       50
102
RTVSPost2010PropOp42
 70
     1
102
RTVSPost2010Prop43
 90
        3
102
RTVSPost2010PropOp43
 70
     1
102
RTVSPost2010Prop44ColorIndex
 90
        5
102
RTVSPost2010Prop44ColorRGB
 90
      255
102
RTVSPost2010PropOp44
 70
     1
102
RTVSPost2010Prop45
280
     0
102
RTVSPost2010PropOp45
 70
     1
102
RTVSPost2010Prop46
 90
       50
102
RTVSPost2010PropOp46
 70
     1
102
RTVSPost2010Prop47
 90
       50
102
RTVSPost2010PropOp47
 70
     1
102
RTVSPost2010Prop48
 90
       50
102
RTVSPost2010PropOp48
 70
     1
102
RTVSPost2010Prop49
280
     0
102
RTVSPost2010PropOp49
 70
     1
102
RTVSPost2010Prop50
 90
       50
102
RTVSPost2010PropOp50
 70
     1
102
RTVSPost2010Prop51ColorIndex
 90
      256
102
RTVSPost2010Prop51ColorRGB
 90
-16777216
102
RTVSPost2010PropOp51
 70
     0
102
RTVSPost2010Prop52
140
1.0
102
RTVSPost2010PropOp52
 70
     0
102
RTVSPost2010Prop53
 90
        2
102
RTVSPost2010PropOp53
 70
     1
102
RTVSPost2010Prop54
  1
strokes_ogs.tif
102
RTVSPost2010PropOp54
 70
     1
102
RTVSPost2010Prop55
280
     0
102
RTVSPost2010PropOp55
 70
     1
102
RTVSPost2010Prop56
140
1.0
102
RTVSPost2010PropOp56
 70
     1
102
RTVSPost2010Prop57
140
1.0
102
RTVSPost2010PropOp57
 70
     1
102
RTVSPropertyOp0
 70
     1
102
RTVSPropertyOp1
 70
     1
102
RTVSPropertyOp2
 70
     1
102
RTVSPropertyOp3
 70
     1
102
RTVSPropertyOp4
 70
     1
102
RTVSPropertyOp5
 70
     1
102
RTVSPropertyOp6
 70
     1
102
RTVSPropertyOp7
 70
     1
102
RTVSPropertyOp8
 70
     1
102
RTVSPropertyOp9
 70
     1
102
RTVSPropertyOp10
 70
     1
102
RTVSPropertyOp11
 70
     1
102
RTVSPropertyOp12
 70
     1
102
RTVSPropertyOp13
 70
     1
102
RTVSPropertyOp14
 70
     1
102
RTVSPropertyOp15
 70
     1
102
RTVSPropertyOp16
 70
     1
102
RTVSPropertyOp17
 70
     1
102
RTVSPropertyOp18
 70
     1
102
RTVSPropertyOp19
 70
     1
102
RTVSPropertyOp20
 70
     1
102
RTVSPropertyOp21
 70
     1
102
RTVSPropertyOp22
 70
     1
102
RTVSPropertyOp23
 70
     1
102
RTVSPropertyOp24
 70
     1
102
RTVSPropertyOp25
 70
     1
102
RTVSPropertyOp26
 70
     1
102
RTVSPropertyOp27
 70
     1
102
RTVSPropertyOp28
 70
     1
102
RTVSPropertyOp29
 70
     1
102
RTVSPropertyOp30
 70
     1
102
RTVSPropertyOp31
 70
     1
102
RTVSPropertyOp32
 70
     1
102
RTVSPropertyOp33
 70
     1
102
RTVSPropertyOp34
 70
     1
102
RTVSPropertyOp35
 70
     1
102
RTVSPropertyOp36
 70
     1
102
RTVSPropertyOp37
 70
     1
102
RTVSPropertyOp38
 70
     1
102
RTVSPropertyOp39
 70
     1
102
RTVSPropertyOp40
 70
     1
102
RTVSPropertyOp41
 70
     1
102
RTVSPropertyOp42
 70
     1
102
RTVSPropertyOp43
 70
     1
102
RTVSPropertyOp44
 70
     1
102
RTVSPropertyOp45
 70
     1
102
RTVSPropertyOp46
 70
     1
102
RTVSPropertyOp47
 70
     1
102
RTVSPropertyOp48
 70
     1
102
RTVSPropertyOp49
 70
     1
102
RTVSPropertyOp50
 70
     1
102
RTVSPropertyOp51
 70
     0
102
RTVSPropertyOp52
 70
     0
102
RTVSPropertyOp53
 70
     1
102
RTVSPropertyOp54
 70
     1
102
RTVSPropertyOp55
 70
     1
102
RTVSPropertyOp56
 70
     1
102
RTVSPropertyOp57
 70
     1
102
RTVSPropertyOp58
 70
     1
102
RTVSPropertyOp59
 70
     1
102
RTVSPropertyOp60
 70
     1
102
RTVSPropertyOp61
 70
     1
102
RTVSPropertyOp62
 70
     1
  0
XRECORD
  5
1222
102
{ACAD_REACTORS
330
1221
102
}
330
1221
100
AcDbXrecord
280
     1
102
RTVSPost2010Prop28
280
     0
102
RTVSPost2010PropOp28
 70
     1
102
RTVSPost2010Prop29
280
     1
102
RTVSPost2010PropOp29
 70
     1
102
RTVSPost2010Prop30
280
     1
102
RTVSPost2010PropOp30
 70
     1
102
RTVSPost2010Prop31
280
     0
102
RTVSPost2010PropOp31
 70
     1
102
RTVSPost2010Prop32
280
     0
102
RTVSPost2010PropOp32
 70
     1
102
RTVSPost2010Prop33
280
     0
102
RTVSPost2010PropOp33
 70
     1
102
RTVSPost2010Prop34
280
     0
102
RTVSPost2010PropOp34
 70
     1
102
RTVSPost2010Prop35
280
     0
102
RTVSPost2010PropOp35
 70
     1
102
RTVSPost2010Prop36
280
     0
102
RTVSPost2010PropOp36
 70
     1
102
RTVSPost2010Prop37
 90
       50
102
RTVSPost2010PropOp37
 70
     1
102
RTVSPost2010Prop38
140
0.0
102
RTVSPost2010PropOp38
 70
     1
102
RTVSPost2010Prop39
140
1.0
102
RTVSPost2010PropOp39
 70
     1
102
RTVSPost2010Prop40
 90
        0
102
RTVSPost2010PropOp40
 70
     1
102
RTVSPost2010Prop41ColorIndex
 90
       18
102
RTVSPost2010Prop41ColorRGB
 90
        0
102
RTVSPost2010PropOp41
 70
     1
102
RTVSPost2010Prop42
 90
       50
102
RTVSPost2010PropOp42
 70
     1
102
RTVSPost2010Prop43
 90
        3
102
RTVSPost2010PropOp43
 70
     1
102
RTVSPost2010Prop44ColorIndex
 90
        5
102
RTVSPost2010Prop44ColorRGB
 90
      255
102
RTVSPost2010PropOp44
 70
     1
102
RTVSPost2010Prop45
280
     0
102
RTVSPost2010PropOp45
 70
     1
102
RTVSPost2010Prop46
 90
       50
102
RTVSPost2010PropOp46
 70
     1
102
RTVSPost2010Prop47
 90
       50
102
RTVSPost2010PropOp47
 70
     1
102
RTVSPost2010Prop48
 90
       50
102
RTVSPost2010PropOp48
 70
     1
102
RTVSPost2010Prop49
280
     0
102
RTVSPost2010PropOp49
 70
     1
102
RTVSPost2010Prop50
 90
       50
102
RTVSPost2010PropOp50
 70
     1
102
RTVSPost2010Prop51ColorIndex
 90
      256
102
RTVSPost2010Prop51ColorRGB
 90
-16777216
102
RTVSPost2010PropOp51
 70
     0
102
RTVSPost2010Prop52
140
1.0
102
RTVSPost2010PropOp52
 70
     0
102
RTVSPost2010Prop53
 90
        2
102
RTVSPost2010PropOp53
 70
     1
102
RTVSPost2010Prop54
  1
strokes_ogs.tif
102
RTVSPost2010PropOp54
 70
     1
102
RTVSPost2010Prop55
280
     0
102
RTVSPost2010PropOp55
 70
     1
102
RTVSPost2010Prop56
140
1.0
102
RTVSPost2010PropOp56
 70
     1
102
RTVSPost2010Prop57
140
1.0
102
RTVSPost2010PropOp57
 70
     1
102
RTVSPropertyOp0
 70
     1
102
RTVSPropertyOp1
 70
     1
102
RTVSPropertyOp2
 70
     1
102
RTVSPropertyOp3
 70
     1
102
RTVSPropertyOp4
 70
     1
102
RTVSPropertyOp5
 70
     1
102
RTVSPropertyOp6
 70
     1
102
RTVSPropertyOp7
 70
     1
102
RTVSPropertyOp8
 70
     1
102
RTVSPropertyOp9
 70
     1
102
RTVSPropertyOp10
 70
     1
102
RTVSPropertyOp11
 70
     1
102
RTVSPropertyOp12
 70
     1
102
RTVSPropertyOp13
 70
     1
102
RTVSPropertyOp14
 70
     1
102
RTVSPropertyOp15
 70
     1
102
RTVSPropertyOp16
 70
     1
102
RTVSPropertyOp17
 70
     1
102
RTVSPropertyOp18
 70
     1
102
RTVSPropertyOp19
 70
     1
102
RTVSPropertyOp20
 70
     1
102
RTVSPropertyOp21
 70
     1
102
RTVSPropertyOp22
 70
     1
102
RTVSPropertyOp23
 70
     1
102
RTVSPropertyOp24
 70
     1
102
RTVSPropertyOp25
 70
     1
102
RTVSPropertyOp26
 70
     1
102
RTVSPropertyOp27
 70
     1
102
RTVSPropertyOp28
 70
     1
102
RTVSPropertyOp29
 70
     1
102
RTVSPropertyOp30
 70
     1
102
RTVSPropertyOp31
 70
     1
102
RTVSPropertyOp32
 70
     1
102
RTVSPropertyOp33
 70
     1
102
RTVSPropertyOp34
 70
     1
102
RTVSPropertyOp35
 70
     1
102
RTVSPropertyOp36
 70
     1
102
RTVSPropertyOp37
 70
     1
102
RTVSPropertyOp38
 70
     1
102
RTVSPropertyOp39
 70
     1
102
RTVSPropertyOp40
 70
     1
102
RTVSPropertyOp41
 70
     1
102
RTVSPropertyOp42
 70
     1
102
RTVSPropertyOp43
 70
     1
102
RTVSPropertyOp44
 70
     1
102
RTVSPropertyOp45
 70
     1
102
RTVSPropertyOp46
 70
     1
102
RTVSPropertyOp47
 70
     1
102
RTVSPropertyOp48
 70
     1
102
RTVSPropertyOp49
 70
     1
102
RTVSPropertyOp50
 70
     1
102
RTVSPropertyOp51
 70
     0
102
RTVSPropertyOp52
 70
     0
102
RTVSPropertyOp53
 70
     1
102
RTVSPropertyOp54
 70
     1
102
RTVSPropertyOp55
 70
     1
102
RTVSPropertyOp56
 70
     1
102
RTVSPropertyOp57
 70
     1
102
RTVSPropertyOp58
 70
     1
102
RTVSPropertyOp59
 70
     1
102
RTVSPropertyOp60
 70
     1
102
RTVSPropertyOp61
 70
     1
102
RTVSPropertyOp62
 70
     1
  0
XRECORD
  5
1214
102
{ACAD_REACTORS
330
1213
102
}
330
1213
100
AcDbXrecord
280
     1
102
RTVSPost2010Prop28
280
     0
102
RTVSPost2010PropOp28
 70
     1
102
RTVSPost2010Prop29
280
     1
102
RTVSPost2010PropOp29
 70
     1
102
RTVSPost2010Prop30
280
     1
102
RTVSPost2010PropOp30
 70
     1
102
RTVSPost2010Prop31
280
     0
102
RTVSPost2010PropOp31
 70
     1
102
RTVSPost2010Prop32
280
     0
102
RTVSPost2010PropOp32
 70
     1
102
RTVSPost2010Prop33
280
     0
102
RTVSPost2010PropOp33
 70
     1
102
RTVSPost2010Prop34
280
     0
102
RTVSPost2010PropOp34
 70
     1
102
RTVSPost2010Prop35
280
     0
102
RTVSPost2010PropOp35
 70
     1
102
RTVSPost2010Prop36
280
     0
102
RTVSPost2010PropOp36
 70
     1
102
RTVSPost2010Prop37
 90
       50
102
RTVSPost2010PropOp37
 70
     1
102
RTVSPost2010Prop38
140
0.0
102
RTVSPost2010PropOp38
 70
     1
102
RTVSPost2010Prop39
140
1.0
102
RTVSPost2010PropOp39
 70
     1
102
RTVSPost2010Prop40
 90
        0
102
RTVSPost2010PropOp40
 70
     1
102
RTVSPost2010Prop41ColorIndex
 90
       18
102
RTVSPost2010Prop41ColorRGB
 90
        0
102
RTVSPost2010PropOp41
 70
     1
102
RTVSPost2010Prop42
 90
       50
102
RTVSPost2010PropOp42
 70
     1
102
RTVSPost2010Prop43
 90
        3
102
RTVSPost2010PropOp43
 70
     1
102
RTVSPost2010Prop44ColorIndex
 90
        5
102
RTVSPost2010Prop44ColorRGB
 90
      255
102
RTVSPost2010PropOp44
 70
     1
102
RTVSPost2010Prop45
280
     0
102
RTVSPost2010PropOp45
 70
     1
102
RTVSPost2010Prop46
 90
       50
102
RTVSPost2010PropOp46
 70
     1
102
RTVSPost2010Prop47
 90
       50
102
RTVSPost2010PropOp47
 70
     1
102
RTVSPost2010Prop48
 90
       50
102
RTVSPost2010PropOp48
 70
     1
102
RTVSPost2010Prop49
280
     0
102
RTVSPost2010PropOp49
 70
     1
102
RTVSPost2010Prop50
 90
       50
102
RTVSPost2010PropOp50
 70
     1
102
RTVSPost2010Prop51ColorIndex
 90
      256
102
RTVSPost2010Prop51ColorRGB
 90
-16777216
102
RTVSPost2010PropOp51
 70
     0
102
RTVSPost2010Prop52
140
1.0
102
RTVSPost2010PropOp52
 70
     0
102
RTVSPost2010Prop53
 90
        2
102
RTVSPost2010PropOp53
 70
     1
102
RTVSPost2010Prop54
  1
strokes_ogs.tif
102
RTVSPost2010PropOp54
 70
     1
102
RTVSPost2010Prop55
280
     0
102
RTVSPost2010PropOp55
 70
     1
102
RTVSPost2010Prop56
140
1.0
102
RTVSPost2010PropOp56
 70
     1
102
RTVSPost2010Prop57
140
1.0
102
RTVSPost2010PropOp57
 70
     1
102
RTVSPropertyOp0
 70
     1
102
RTVSPropertyOp1
 70
     1
102
RTVSPropertyOp2
 70
     1
102
RTVSPropertyOp3
 70
     1
102
RTVSPropertyOp4
 70
     1
102
RTVSPropertyOp5
 70
     1
102
RTVSPropertyOp6
 70
     1
102
RTVSPropertyOp7
 70
     1
102
RTVSPropertyOp8
 70
     1
102
RTVSPropertyOp9
 70
     1
102
RTVSPropertyOp10
 70
     1
102
RTVSPropertyOp11
 70
     1
102
RTVSPropertyOp12
 70
     1
102
RTVSPropertyOp13
 70
     1
102
RTVSPropertyOp14
 70
     1
102
RTVSPropertyOp15
 70
     1
102
RTVSPropertyOp16
 70
     1
102
RTVSPropertyOp17
 70
     1
102
RTVSPropertyOp18
 70
     1
102
RTVSPropertyOp19
 70
     1
102
RTVSPropertyOp20
 70
     1
102
RTVSPropertyOp21
 70
     1
102
RTVSPropertyOp22
 70
     1
102
RTVSPropertyOp23
 70
     1
102
RTVSPropertyOp24
 70
     1
102
RTVSPropertyOp25
 70
     1
102
RTVSPropertyOp26
 70
     1
102
RTVSPropertyOp27
 70
     1
102
RTVSPropertyOp28
 70
     1
102
RTVSPropertyOp29
 70
     1
102
RTVSPropertyOp30
 70
     1
102
RTVSPropertyOp31
 70
     1
102
RTVSPropertyOp32
 70
     1
102
RTVSPropertyOp33
 70
     1
102
RTVSPropertyOp34
 70
     1
102
RTVSPropertyOp35
 70
     1
102
RTVSPropertyOp36
 70
     1
102
RTVSPropertyOp37
 70
     1
102
RTVSPropertyOp38
 70
     1
102
RTVSPropertyOp39
 70
     1
102
RTVSPropertyOp40
 70
     1
102
RTVSPropertyOp41
 70
     1
102
RTVSPropertyOp42
 70
     1
102
RTVSPropertyOp43
 70
     1
102
RTVSPropertyOp44
 70
     1
102
RTVSPropertyOp45
 70
     1
102
RTVSPropertyOp46
 70
     1
102
RTVSPropertyOp47
 70
     1
102
RTVSPropertyOp48
 70
     1
102
RTVSPropertyOp49
 70
     1
102
RTVSPropertyOp50
 70
     1
102
RTVSPropertyOp51
 70
     0
102
RTVSPropertyOp52
 70
     0
102
RTVSPropertyOp53
 70
     1
102
RTVSPropertyOp54
 70
     1
102
RTVSPropertyOp55
 70
     1
102
RTVSPropertyOp56
 70
     1
102
RTVSPropertyOp57
 70
     1
102
RTVSPropertyOp58
 70
     1
102
RTVSPropertyOp59
 70
     1
102
RTVSPropertyOp60
 70
     1
102
RTVSPropertyOp61
 70
     1
102
RTVSPropertyOp62
 70
     1
  0
XRECORD
  5
1218
102
{ACAD_REACTORS
330
1217
102
}
330
1217
100
AcDbXrecord
280
     1
102
RTVSPost2010Prop28
280
     0
102
RTVSPost2010PropOp28
 70
     1
102
RTVSPost2010Prop29
280
     1
102
RTVSPost2010PropOp29
 70
     1
102
RTVSPost2010Prop30
280
     1
102
RTVSPost2010PropOp30
 70
     1
102
RTVSPost2010Prop31
280
     0
102
RTVSPost2010PropOp31
 70
     1
102
RTVSPost2010Prop32
280
     0
102
RTVSPost2010PropOp32
 70
     1
102
RTVSPost2010Prop33
280
     0
102
RTVSPost2010PropOp33
 70
     1
102
RTVSPost2010Prop34
280
     0
102
RTVSPost2010PropOp34
 70
     1
102
RTVSPost2010Prop35
280
     0
102
RTVSPost2010PropOp35
 70
     1
102
RTVSPost2010Prop36
280
     0
102
RTVSPost2010PropOp36
 70
     1
102
RTVSPost2010Prop37
 90
       50
102
RTVSPost2010PropOp37
 70
     1
102
RTVSPost2010Prop38
140
0.0
102
RTVSPost2010PropOp38
 70
     1
102
RTVSPost2010Prop39
140
1.0
102
RTVSPost2010PropOp39
 70
     1
102
RTVSPost2010Prop40
 90
        0
102
RTVSPost2010PropOp40
 70
     1
102
RTVSPost2010Prop41ColorIndex
 90
       18
102
RTVSPost2010Prop41ColorRGB
 90
        0
102
RTVSPost2010PropOp41
 70
     1
102
RTVSPost2010Prop42
 90
       50
102
RTVSPost2010PropOp42
 70
     1
102
RTVSPost2010Prop43
 90
        3
102
RTVSPost2010PropOp43
 70
     1
102
RTVSPost2010Prop44ColorIndex
 90
        5
102
RTVSPost2010Prop44ColorRGB
 90
      255
102
RTVSPost2010PropOp44
 70
     1
102
RTVSPost2010Prop45
280
     0
102
RTVSPost2010PropOp45
 70
     1
102
RTVSPost2010Prop46
 90
       50
102
RTVSPost2010PropOp46
 70
     1
102
RTVSPost2010Prop47
 90
       50
102
RTVSPost2010PropOp47
 70
     1
102
RTVSPost2010Prop48
 90
       50
102
RTVSPost2010PropOp48
 70
     1
102
RTVSPost2010Prop49
280
     0
102
RTVSPost2010PropOp49
 70
     1
102
RTVSPost2010Prop50
 90
       50
102
RTVSPost2010PropOp50
 70
     1
102
RTVSPost2010Prop51ColorIndex
 90
      256
102
RTVSPost2010Prop51ColorRGB
 90
-16777216
102
RTVSPost2010PropOp51
 70
     0
102
RTVSPost2010Prop52
140
1.0
102
RTVSPost2010PropOp52
 70
     0
102
RTVSPost2010Prop53
 90
        2
102
RTVSPost2010PropOp53
 70
     1
102
RTVSPost2010Prop54
  1
strokes_ogs.tif
102
RTVSPost2010PropOp54
 70
     1
102
RTVSPost2010Prop55
280
     0
102
RTVSPost2010PropOp55
 70
     1
102
RTVSPost2010Prop56
140
1.0
102
RTVSPost2010PropOp56
 70
     1
102
RTVSPost2010Prop57
140
1.0
102
RTVSPost2010PropOp57
 70
     1
102
RTVSPropertyOp0
 70
     1
102
RTVSPropertyOp1
 70
     1
102
RTVSPropertyOp2
 70
     1
102
RTVSPropertyOp3
 70
     1
102
RTVSPropertyOp4
 70
     1
102
RTVSPropertyOp5
 70
     1
102
RTVSPropertyOp6
 70
     1
102
RTVSPropertyOp7
 70
     1
102
RTVSPropertyOp8
 70
     1
102
RTVSPropertyOp9
 70
     1
102
RTVSPropertyOp10
 70
     1
102
RTVSPropertyOp11
 70
     1
102
RTVSPropertyOp12
 70
     1
102
RTVSPropertyOp13
 70
     1
102
RTVSPropertyOp14
 70
     1
102
RTVSPropertyOp15
 70
     1
102
RTVSPropertyOp16
 70
     1
102
RTVSPropertyOp17
 70
     1
102
RTVSPropertyOp18
 70
     1
102
RTVSPropertyOp19
 70
     1
102
RTVSPropertyOp20
 70
     1
102
RTVSPropertyOp21
 70
     1
102
RTVSPropertyOp22
 70
     1
102
RTVSPropertyOp23
 70
     1
102
RTVSPropertyOp24
 70
     1
102
RTVSPropertyOp25
 70
     1
102
RTVSPropertyOp26
 70
     1
102
RTVSPropertyOp27
 70
     1
102
RTVSPropertyOp28
 70
     1
102
RTVSPropertyOp29
 70
     1
102
RTVSPropertyOp30
 70
     1
102
RTVSPropertyOp31
 70
     1
102
RTVSPropertyOp32
 70
     1
102
RTVSPropertyOp33
 70
     1
102
RTVSPropertyOp34
 70
     1
102
RTVSPropertyOp35
 70
     1
102
RTVSPropertyOp36
 70
     1
102
RTVSPropertyOp37
 70
     1
102
RTVSPropertyOp38
 70
     1
102
RTVSPropertyOp39
 70
     1
102
RTVSPropertyOp40
 70
     1
102
RTVSPropertyOp41
 70
     1
102
RTVSPropertyOp42
 70
     1
102
RTVSPropertyOp43
 70
     1
102
RTVSPropertyOp44
 70
     1
102
RTVSPropertyOp45
 70
     1
102
RTVSPropertyOp46
 70
     1
102
RTVSPropertyOp47
 70
     1
102
RTVSPropertyOp48
 70
     1
102
RTVSPropertyOp49
 70
     1
102
RTVSPropertyOp50
 70
     1
102
RTVSPropertyOp51
 70
     0
102
RTVSPropertyOp52
 70
     0
102
RTVSPropertyOp53
 70
     1
102
RTVSPropertyOp54
 70
     1
102
RTVSPropertyOp55
 70
     1
102
RTVSPropertyOp56
 70
     1
102
RTVSPropertyOp57
 70
     1
102
RTVSPropertyOp58
 70
     1
102
RTVSPropertyOp59
 70
     1
102
RTVSPropertyOp60
 70
     1
102
RTVSPropertyOp61
 70
     1
102
RTVSPropertyOp62
 70
     1
  0
XRECORD
  5
1232
102
{ACAD_REACTORS
330
1231
102
}
330
1231
100
AcDbXrecord
280
     1
102
RTVSPost2010Prop28
280
     0
102
RTVSPost2010PropOp28
 70
     1
102
RTVSPost2010Prop29
280
     1
102
RTVSPost2010PropOp29
 70
     1
102
RTVSPost2010Prop30
280
     1
102
RTVSPost2010PropOp30
 70
     1
102
RTVSPost2010Prop31
280
     0
102
RTVSPost2010PropOp31
 70
     1
102
RTVSPost2010Prop32
280
     0
102
RTVSPost2010PropOp32
 70
     1
102
RTVSPost2010Prop33
280
     0
102
RTVSPost2010PropOp33
 70
     1
102
RTVSPost2010Prop34
280
     0
102
RTVSPost2010PropOp34
 70
     1
102
RTVSPost2010Prop35
280
     0
102
RTVSPost2010PropOp35
 70
     1
102
RTVSPost2010Prop36
280
     0
102
RTVSPost2010PropOp36
 70
     1
102
RTVSPost2010Prop37
 90
       50
102
RTVSPost2010PropOp37
 70
     0
102
RTVSPost2010Prop38
140
0.0
102
RTVSPost2010PropOp38
 70
     0
102
RTVSPost2010Prop39
140
1.0
102
RTVSPost2010PropOp39
 70
     0
102
RTVSPost2010Prop40
 90
        0
102
RTVSPost2010PropOp40
 70
     0
102
RTVSPost2010Prop41ColorIndex
 90
       18
102
RTVSPost2010Prop41ColorRGB
 90
        0
102
RTVSPost2010PropOp41
 70
     0
102
RTVSPost2010Prop42
 90
       50
102
RTVSPost2010PropOp42
 70
     0
102
RTVSPost2010Prop43
 90
        3
102
RTVSPost2010PropOp43
 70
     0
102
RTVSPost2010Prop44ColorIndex
 90
        5
102
RTVSPost2010Prop44ColorRGB
 90
      255
102
RTVSPost2010PropOp44
 70
     0
102
RTVSPost2010Prop45
280
     0
102
RTVSPost2010PropOp45
 70
     1
102
RTVSPost2010Prop46
 90
       50
102
RTVSPost2010PropOp46
 70
     0
102
RTVSPost2010Prop47
 90
       50
102
RTVSPost2010PropOp47
 70
     0
102
RTVSPost2010Prop48
 90
       50
102
RTVSPost2010PropOp48
 70
     0
102
RTVSPost2010Prop49
280
     0
102
RTVSPost2010PropOp49
 70
     1
102
RTVSPost2010Prop50
 90
       50
102
RTVSPost2010PropOp50
 70
     0
102
RTVSPost2010Prop51ColorIndex
 90
      256
102
RTVSPost2010Prop51ColorRGB
 90
-16777216
102
RTVSPost2010PropOp51
 70
     0
102
RTVSPost2010Prop52
140
1.0
102
RTVSPost2010PropOp52
 70
     0
102
RTVSPost2010Prop53
 90
        2
102
RTVSPost2010PropOp53
 70
     0
102
RTVSPost2010Prop54
  1
strokes_ogs.tif
102
RTVSPost2010PropOp54
 70
     0
102
RTVSPost2010Prop55
280
     0
102
RTVSPost2010PropOp55
 70
     1
102
RTVSPost2010Prop56
140
1.0
102
RTVSPost2010PropOp56
 70
     0
102
RTVSPost2010Prop57
140
1.0
102
RTVSPost2010PropOp57
 70
     0
102
RTVSPropertyOp0
 70
     0
102
RTVSPropertyOp1
 70
     0
102
RTVSPropertyOp2
 70
     0
102
RTVSPropertyOp3
 70
     0
102
RTVSPropertyOp4
 70
     0
102
RTVSPropertyOp5
 70
     0
102
RTVSPropertyOp6
 70
     0
102
RTVSPropertyOp7
 70
     0
102
RTVSPropertyOp8
 70
     0
102
RTVSPropertyOp9
 70
     0
102
RTVSPropertyOp10
 70
     0
102
RTVSPropertyOp11
 70
     0
102
RTVSPropertyOp12
 70
     0
102
RTVSPropertyOp13
 70
     0
102
RTVSPropertyOp14
 70
     2
102
RTVSPropertyOp15
 70
     0
102
RTVSPropertyOp16
 70
     0
102
RTVSPropertyOp17
 70
     0
102
RTVSPropertyOp18
 70
     0
102
RTVSPropertyOp19
 70
     0
102
RTVSPropertyOp20
 70
     0
102
RTVSPropertyOp21
 70
     0
102
RTVSPropertyOp22
 70
     0
102
RTVSPropertyOp23
 70
     0
102
RTVSPropertyOp24
 70
     0
102
RTVSPropertyOp25
 70
     0
102
RTVSPropertyOp26
 70
     0
102
RTVSPropertyOp27
 70
     0
102
RTVSPropertyOp28
 70
     1
102
RTVSPropertyOp29
 70
     1
102
RTVSPropertyOp30
 70
     1
102
RTVSPropertyOp31
 70
     1
102
RTVSPropertyOp32
 70
     1
102
RTVSPropertyOp33
 70
     1
102
RTVSPropertyOp34
 70
     1
102
RTVSPropertyOp35
 70
     1
102
RTVSPropertyOp36
 70
     1
102
RTVSPropertyOp37
 70
     0
102
RTVSPropertyOp38
 70
     0
102
RTVSPropertyOp39
 70
     0
102
RTVSPropertyOp40
 70
     0
102
RTVSPropertyOp41
 70
     0
102
RTVSPropertyOp42
 70
     0
102
RTVSPropertyOp43
 70
     0
102
RTVSPropertyOp44
 70
     0
102
RTVSPropertyOp45
 70
     1
102
RTVSPropertyOp46
 70
     0
102
RTVSPropertyOp47
 70
     0
102
RTVSPropertyOp48
 70
     0
102
RTVSPropertyOp49
 70
     1
102
RTVSPropertyOp50
 70
     0
102
RTVSPropertyOp51
 70
     0
102
RTVSPropertyOp52
 70
     0
102
RTVSPropertyOp53
 70
     0
102
RTVSPropertyOp54
 70
     0
102
RTVSPropertyOp55
 70
     1
102
RTVSPropertyOp56
 70
     0
102
RTVSPropertyOp57
 70
     0
102
RTVSPropertyOp58
 70
     0
102
RTVSPropertyOp59
 70
     0
102
RTVSPropertyOp60
 70
     0
102
RTVSPropertyOp61
 70
     0
102
RTVSPropertyOp62
 70
     0
  0
XRECORD
  5
1220
102
{ACAD_REACTORS
330
121F
102
}
330
121F
100
AcDbXrecord
280
     1
102
RTVSPost2010Prop28
280
     0
102
RTVSPost2010PropOp28
 70
     1
102
RTVSPost2010Prop29
280
     1
102
RTVSPost2010PropOp29
 70
     1
102
RTVSPost2010Prop30
280
     1
102
RTVSPost2010PropOp30
 70
     1
102
RTVSPost2010Prop31
280
     0
102
RTVSPost2010PropOp31
 70
     1
102
RTVSPost2010Prop32
280
     0
102
RTVSPost2010PropOp32
 70
     1
102
RTVSPost2010Prop33
280
     0
102
RTVSPost2010PropOp33
 70
     1
102
RTVSPost2010Prop34
280
     0
102
RTVSPost2010PropOp34
 70
     1
102
RTVSPost2010Prop35
280
     0
102
RTVSPost2010PropOp35
 70
     1
102
RTVSPost2010Prop36
280
     0
102
RTVSPost2010PropOp36
 70
     1
102
RTVSPost2010Prop37
 90
       50
102
RTVSPost2010PropOp37
 70
     1
102
RTVSPost2010Prop38
140
0.0
102
RTVSPost2010PropOp38
 70
     1
102
RTVSPost2010Prop39
140
1.0
102
RTVSPost2010PropOp39
 70
     1
102
RTVSPost2010Prop40
 90
        0
102
RTVSPost2010PropOp40
 70
     1
102
RTVSPost2010Prop41ColorIndex
 90
       18
102
RTVSPost2010Prop41ColorRGB
 90
        0
102
RTVSPost2010PropOp41
 70
     1
102
RTVSPost2010Prop42
 90
       50
102
RTVSPost2010PropOp42
 70
     1
102
RTVSPost2010Prop43
 90
        3
102
RTVSPost2010PropOp43
 70
     1
102
RTVSPost2010Prop44ColorIndex
 90
        5
102
RTVSPost2010Prop44ColorRGB
 90
      255
102
RTVSPost2010PropOp44
 70
     1
102
RTVSPost2010Prop45
280
     0
102
RTVSPost2010PropOp45
 70
     1
102
RTVSPost2010Prop46
 90
       50
102
RTVSPost2010PropOp46
 70
     1
102
RTVSPost2010Prop47
 90
       50
102
RTVSPost2010PropOp47
 70
     1
102
RTVSPost2010Prop48
 90
       50
102
RTVSPost2010PropOp48
 70
     1
102
RTVSPost2010Prop49
280
     0
102
RTVSPost2010PropOp49
 70
     1
102
RTVSPost2010Prop50
 90
       50
102
RTVSPost2010PropOp50
 70
     1
102
RTVSPost2010Prop51ColorIndex
 90
      256
102
RTVSPost2010Prop51ColorRGB
 90
-16777216
102
RTVSPost2010PropOp51
 70
     0
102
RTVSPost2010Prop52
140
1.0
102
RTVSPost2010PropOp52
 70
     0
102
RTVSPost2010Prop53
 90
        2
102
RTVSPost2010PropOp53
 70
     1
102
RTVSPost2010Prop54
  1
strokes_ogs.tif
102
RTVSPost2010PropOp54
 70
     1
102
RTVSPost2010Prop55
280
     0
102
RTVSPost2010PropOp55
 70
     1
102
RTVSPost2010Prop56
140
1.0
102
RTVSPost2010PropOp56
 70
     1
102
RTVSPost2010Prop57
140
1.0
102
RTVSPost2010PropOp57
 70
     1
102
RTVSPropertyOp0
 70
     1
102
RTVSPropertyOp1
 70
     1
102
RTVSPropertyOp2
 70
     1
102
RTVSPropertyOp3
 70
     1
102
RTVSPropertyOp4
 70
     1
102
RTVSPropertyOp5
 70
     1
102
RTVSPropertyOp6
 70
     1
102
RTVSPropertyOp7
 70
     1
102
RTVSPropertyOp8
 70
     1
102
RTVSPropertyOp9
 70
     1
102
RTVSPropertyOp10
 70
     1
102
RTVSPropertyOp11
 70
     1
102
RTVSPropertyOp12
 70
     1
102
RTVSPropertyOp13
 70
     1
102
RTVSPropertyOp14
 70
     1
102
RTVSPropertyOp15
 70
     1
102
RTVSPropertyOp16
 70
     1
102
RTVSPropertyOp17
 70
     1
102
RTVSPropertyOp18
 70
     1
102
RTVSPropertyOp19
 70
     1
102
RTVSPropertyOp20
 70
     1
102
RTVSPropertyOp21
 70
     1
102
RTVSPropertyOp22
 70
     1
102
RTVSPropertyOp23
 70
     1
102
RTVSPropertyOp24
 70
     1
102
RTVSPropertyOp25
 70
     1
102
RTVSPropertyOp26
 70
     1
102
RTVSPropertyOp27
 70
     1
102
RTVSPropertyOp28
 70
     1
102
RTVSPropertyOp29
 70
     1
102
RTVSPropertyOp30
 70
     1
102
RTVSPropertyOp31
 70
     1
102
RTVSPropertyOp32
 70
     1
102
RTVSPropertyOp33
 70
     1
102
RTVSPropertyOp34
 70
     1
102
RTVSPropertyOp35
 70
     1
102
RTVSPropertyOp36
 70
     1
102
RTVSPropertyOp37
 70
     1
102
RTVSPropertyOp38
 70
     1
102
RTVSPropertyOp39
 70
     1
102
RTVSPropertyOp40
 70
     1
102
RTVSPropertyOp41
 70
     1
102
RTVSPropertyOp42
 70
     1
102
RTVSPropertyOp43
 70
     1
102
RTVSPropertyOp44
 70
     1
102
RTVSPropertyOp45
 70
     1
102
RTVSPropertyOp46
 70
     1
102
RTVSPropertyOp47
 70
     1
102
RTVSPropertyOp48
 70
     1
102
RTVSPropertyOp49
 70
     1
102
RTVSPropertyOp50
 70
     1
102
RTVSPropertyOp51
 70
     0
102
RTVSPropertyOp52
 70
     0
102
RTVSPropertyOp53
 70
     1
102
RTVSPropertyOp54
 70
     1
102
RTVSPropertyOp55
 70
     1
102
RTVSPropertyOp56
 70
     1
102
RTVSPropertyOp57
 70
     1
102
RTVSPropertyOp58
 70
     1
102
RTVSPropertyOp59
 70
     1
102
RTVSPropertyOp60
 70
     1
102
RTVSPropertyOp61
 70
     1
102
RTVSPropertyOp62
 70
     1
  0
XRECORD
  5
1204
102
{ACAD_REACTORS
330
1203
102
}
330
1203
100
AcDbXrecord
280
     1
102
RTVSPost2010Prop28
280
     0
102
RTVSPost2010PropOp28
 70
     1
102
RTVSPost2010Prop29
280
     1
102
RTVSPost2010PropOp29
 70
     1
102
RTVSPost2010Prop30
280
     1
102
RTVSPost2010PropOp30
 70
     1
102
RTVSPost2010Prop31
280
     0
102
RTVSPost2010PropOp31
 70
     1
102
RTVSPost2010Prop32
280
     0
102
RTVSPost2010PropOp32
 70
     1
102
RTVSPost2010Prop33
280
     0
102
RTVSPost2010PropOp33
 70
     1
102
RTVSPost2010Prop34
280
     0
102
RTVSPost2010PropOp34
 70
     1
102
RTVSPost2010Prop35
280
     0
102
RTVSPost2010PropOp35
 70
     1
102
RTVSPost2010Prop36
280
     0
102
RTVSPost2010PropOp36
 70
     1
102
RTVSPost2010Prop37
 90
       50
102
RTVSPost2010PropOp37
 70
     1
102
RTVSPost2010Prop38
140
0.0
102
RTVSPost2010PropOp38
 70
     1
102
RTVSPost2010Prop39
140
1.0
102
RTVSPost2010PropOp39
 70
     1
102
RTVSPost2010Prop40
 90
        0
102
RTVSPost2010PropOp40
 70
     1
102
RTVSPost2010Prop41ColorIndex
 90
       18
102
RTVSPost2010Prop41ColorRGB
 90
        0
102
RTVSPost2010PropOp41
 70
     1
102
RTVSPost2010Prop42
 90
       50
102
RTVSPost2010PropOp42
 70
     1
102
RTVSPost2010Prop43
 90
        3
102
RTVSPost2010PropOp43
 70
     1
102
RTVSPost2010Prop44ColorIndex
 90
        5
102
RTVSPost2010Prop44ColorRGB
 90
      255
102
RTVSPost2010PropOp44
 70
     1
102
RTVSPost2010Prop45
280
     0
102
RTVSPost2010PropOp45
 70
     1
102
RTVSPost2010Prop46
 90
       50
102
RTVSPost2010PropOp46
 70
     1
102
RTVSPost2010Prop47
 90
       50
102
RTVSPost2010PropOp47
 70
     1
102
RTVSPost2010Prop48
 90
       50
102
RTVSPost2010PropOp48
 70
     1
102
RTVSPost2010Prop49
280
     0
102
RTVSPost2010PropOp49
 70
     1
102
RTVSPost2010Prop50
 90
       50
102
RTVSPost2010PropOp50
 70
     1
102
RTVSPost2010Prop51ColorIndex
 90
      256
102
RTVSPost2010Prop51ColorRGB
 90
-16777216
102
RTVSPost2010PropOp51
 70
     0
102
RTVSPost2010Prop52
140
1.0
102
RTVSPost2010PropOp52
 70
     0
102
RTVSPost2010Prop53
 90
        2
102
RTVSPost2010PropOp53
 70
     1
102
RTVSPost2010Prop54
  1
strokes_ogs.tif
102
RTVSPost2010PropOp54
 70
     1
102
RTVSPost2010Prop55
280
     0
102
RTVSPost2010PropOp55
 70
     1
102
RTVSPost2010Prop56
140
1.0
102
RTVSPost2010PropOp56
 70
     1
102
RTVSPost2010Prop57
140
1.0
102
RTVSPost2010PropOp57
 70
     1
102
RTVSPropertyOp0
 70
     1
102
RTVSPropertyOp1
 70
     1
102
RTVSPropertyOp2
 70
     1
102
RTVSPropertyOp3
 70
     1
102
RTVSPropertyOp4
 70
     1
102
RTVSPropertyOp5
 70
     1
102
RTVSPropertyOp6
 70
     1
102
RTVSPropertyOp7
 70
     1
102
RTVSPropertyOp8
 70
     1
102
RTVSPropertyOp9
 70
     1
102
RTVSPropertyOp10
 70
     1
102
RTVSPropertyOp11
 70
     1
102
RTVSPropertyOp12
 70
     1
102
RTVSPropertyOp13
 70
     1
102
RTVSPropertyOp14
 70
     1
102
RTVSPropertyOp15
 70
     1
102
RTVSPropertyOp16
 70
     1
102
RTVSPropertyOp17
 70
     1
102
RTVSPropertyOp18
 70
     1
102
RTVSPropertyOp19
 70
     1
102
RTVSPropertyOp20
 70
     1
102
RTVSPropertyOp21
 70
     1
102
RTVSPropertyOp22
 70
     1
102
RTVSPropertyOp23
 70
     1
102
RTVSPropertyOp24
 70
     1
102
RTVSPropertyOp25
 70
     1
102
RTVSPropertyOp26
 70
     1
102
RTVSPropertyOp27
 70
     1
102
RTVSPropertyOp28
 70
     1
102
RTVSPropertyOp29
 70
     1
102
RTVSPropertyOp30
 70
     1
102
RTVSPropertyOp31
 70
     1
102
RTVSPropertyOp32
 70
     1
102
RTVSPropertyOp33
 70
     1
102
RTVSPropertyOp34
 70
     1
102
RTVSPropertyOp35
 70
     1
102
RTVSPropertyOp36
 70
     1
102
RTVSPropertyOp37
 70
     1
102
RTVSPropertyOp38
 70
     1
102
RTVSPropertyOp39
 70
     1
102
RTVSPropertyOp40
 70
     1
102
RTVSPropertyOp41
 70
     1
102
RTVSPropertyOp42
 70
     1
102
RTVSPropertyOp43
 70
     1
102
RTVSPropertyOp44
 70
     1
102
RTVSPropertyOp45
 70
     1
102
RTVSPropertyOp46
 70
     1
102
RTVSPropertyOp47
 70
     1
102
RTVSPropertyOp48
 70
     1
102
RTVSPropertyOp49
 70
     1
102
RTVSPropertyOp50
 70
     1
102
RTVSPropertyOp51
 70
     0
102
RTVSPropertyOp52
 70
     0
102
RTVSPropertyOp53
 70
     1
102
RTVSPropertyOp54
 70
     1
102
RTVSPropertyOp55
 70
     1
102
RTVSPropertyOp56
 70
     1
102
RTVSPropertyOp57
 70
     1
102
RTVSPropertyOp58
 70
     1
102
RTVSPropertyOp59
 70
     1
102
RTVSPropertyOp60
 70
     1
102
RTVSPropertyOp61
 70
     1
102
RTVSPropertyOp62
 70
     1
  0
XRECORD
  5
1206
102
{ACAD_REACTORS
330
1205
102
}
330
1205
100
AcDbXrecord
280
     1
102
RTVSPost2010Prop28
280
     0
102
RTVSPost2010PropOp28
 70
     1
102
RTVSPost2010Prop29
280
     1
102
RTVSPost2010PropOp29
 70
     1
102
RTVSPost2010Prop30
280
     1
102
RTVSPost2010PropOp30
 70
     1
102
RTVSPost2010Prop31
280
     0
102
RTVSPost2010PropOp31
 70
     1
102
RTVSPost2010Prop32
280
     0
102
RTVSPost2010PropOp32
 70
     1
102
RTVSPost2010Prop33
280
     0
102
RTVSPost2010PropOp33
 70
     1
102
RTVSPost2010Prop34
280
     0
102
RTVSPost2010PropOp34
 70
     1
102
RTVSPost2010Prop35
280
     0
102
RTVSPost2010PropOp35
 70
     1
102
RTVSPost2010Prop36
280
     0
102
RTVSPost2010PropOp36
 70
     1
102
RTVSPost2010Prop37
 90
       50
102
RTVSPost2010PropOp37
 70
     1
102
RTVSPost2010Prop38
140
0.0
102
RTVSPost2010PropOp38
 70
     1
102
RTVSPost2010Prop39
140
1.0
102
RTVSPost2010PropOp39
 70
     1
102
RTVSPost2010Prop40
 90
        0
102
RTVSPost2010PropOp40
 70
     1
102
RTVSPost2010Prop41ColorIndex
 90
       18
102
RTVSPost2010Prop41ColorRGB
 90
        0
102
RTVSPost2010PropOp41
 70
     1
102
RTVSPost2010Prop42
 90
       50
102
RTVSPost2010PropOp42
 70
     1
102
RTVSPost2010Prop43
 90
        3
102
RTVSPost2010PropOp43
 70
     1
102
RTVSPost2010Prop44ColorIndex
 90
        5
102
RTVSPost2010Prop44ColorRGB
 90
      255
102
RTVSPost2010PropOp44
 70
     1
102
RTVSPost2010Prop45
280
     0
102
RTVSPost2010PropOp45
 70
     1
102
RTVSPost2010Prop46
 90
       50
102
RTVSPost2010PropOp46
 70
     1
102
RTVSPost2010Prop47
 90
       50
102
RTVSPost2010PropOp47
 70
     1
102
RTVSPost2010Prop48
 90
       50
102
RTVSPost2010PropOp48
 70
     1
102
RTVSPost2010Prop49
280
     0
102
RTVSPost2010PropOp49
 70
     1
102
RTVSPost2010Prop50
 90
       50
102
RTVSPost2010PropOp50
 70
     1
102
RTVSPost2010Prop51ColorIndex
 90
      256
102
RTVSPost2010Prop51ColorRGB
 90
-16777216
102
RTVSPost2010PropOp51
 70
     0
102
RTVSPost2010Prop52
140
1.0
102
RTVSPost2010PropOp52
 70
     0
102
RTVSPost2010Prop53
 90
        2
102
RTVSPost2010PropOp53
 70
     1
102
RTVSPost2010Prop54
  1
strokes_ogs.tif
102
RTVSPost2010PropOp54
 70
     1
102
RTVSPost2010Prop55
280
     0
102
RTVSPost2010PropOp55
 70
     1
102
RTVSPost2010Prop56
140
1.0
102
RTVSPost2010PropOp56
 70
     1
102
RTVSPost2010Prop57
140
1.0
102
RTVSPost2010PropOp57
 70
     1
102
RTVSPropertyOp0
 70
     1
102
RTVSPropertyOp1
 70
     1
102
RTVSPropertyOp2
 70
     1
102
RTVSPropertyOp3
 70
     1
102
RTVSPropertyOp4
 70
     1
102
RTVSPropertyOp5
 70
     1
102
RTVSPropertyOp6
 70
     1
102
RTVSPropertyOp7
 70
     1
102
RTVSPropertyOp8
 70
     1
102
RTVSPropertyOp9
 70
     1
102
RTVSPropertyOp10
 70
     1
102
RTVSPropertyOp11
 70
     1
102
RTVSPropertyOp12
 70
     1
102
RTVSPropertyOp13
 70
     1
102
RTVSPropertyOp14
 70
     1
102
RTVSPropertyOp15
 70
     1
102
RTVSPropertyOp16
 70
     1
102
RTVSPropertyOp17
 70
     1
102
RTVSPropertyOp18
 70
     1
102
RTVSPropertyOp19
 70
     1
102
RTVSPropertyOp20
 70
     1
102
RTVSPropertyOp21
 70
     1
102
RTVSPropertyOp22
 70
     1
102
RTVSPropertyOp23
 70
     1
102
RTVSPropertyOp24
 70
     1
102
RTVSPropertyOp25
 70
     1
102
RTVSPropertyOp26
 70
     1
102
RTVSPropertyOp27
 70
     1
102
RTVSPropertyOp28
 70
     1
102
RTVSPropertyOp29
 70
     1
102
RTVSPropertyOp30
 70
     1
102
RTVSPropertyOp31
 70
     1
102
RTVSPropertyOp32
 70
     1
102
RTVSPropertyOp33
 70
     1
102
RTVSPropertyOp34
 70
     1
102
RTVSPropertyOp35
 70
     1
102
RTVSPropertyOp36
 70
     1
102
RTVSPropertyOp37
 70
     1
102
RTVSPropertyOp38
 70
     1
102
RTVSPropertyOp39
 70
     1
102
RTVSPropertyOp40
 70
     1
102
RTVSPropertyOp41
 70
     1
102
RTVSPropertyOp42
 70
     1
102
RTVSPropertyOp43
 70
     1
102
RTVSPropertyOp44
 70
     1
102
RTVSPropertyOp45
 70
     1
102
RTVSPropertyOp46
 70
     1
102
RTVSPropertyOp47
 70
     1
102
RTVSPropertyOp48
 70
     1
102
RTVSPropertyOp49
 70
     1
102
RTVSPropertyOp50
 70
     1
102
RTVSPropertyOp51
 70
     0
102
RTVSPropertyOp52
 70
     0
102
RTVSPropertyOp53
 70
     1
102
RTVSPropertyOp54
 70
     1
102
RTVSPropertyOp55
 70
     1
102
RTVSPropertyOp56
 70
     1
102
RTVSPropertyOp57
 70
     1
102
RTVSPropertyOp58
 70
     1
102
RTVSPropertyOp59
 70
     1
102
RTVSPropertyOp60
 70
     1
102
RTVSPropertyOp61
 70
     1
102
RTVSPropertyOp62
 70
     1
  0
XRECORD
  5
1208
102
{ACAD_REACTORS
330
1207
102
}
330
1207
100
AcDbXrecord
280
     1
102
RTVSPost2010Prop28
280
     0
102
RTVSPost2010PropOp28
 70
     1
102
RTVSPost2010Prop29
280
     1
102
RTVSPost2010PropOp29
 70
     1
102
RTVSPost2010Prop30
280
     1
102
RTVSPost2010PropOp30
 70
     1
102
RTVSPost2010Prop31
280
     0
102
RTVSPost2010PropOp31
 70
     1
102
RTVSPost2010Prop32
280
     0
102
RTVSPost2010PropOp32
 70
     1
102
RTVSPost2010Prop33
280
     0
102
RTVSPost2010PropOp33
 70
     1
102
RTVSPost2010Prop34
280
     0
102
RTVSPost2010PropOp34
 70
     1
102
RTVSPost2010Prop35
280
     0
102
RTVSPost2010PropOp35
 70
     1
102
RTVSPost2010Prop36
280
     0
102
RTVSPost2010PropOp36
 70
     1
102
RTVSPost2010Prop37
 90
       50
102
RTVSPost2010PropOp37
 70
     1
102
RTVSPost2010Prop38
140
0.0
102
RTVSPost2010PropOp38
 70
     1
102
RTVSPost2010Prop39
140
1.0
102
RTVSPost2010PropOp39
 70
     1
102
RTVSPost2010Prop40
 90
        0
102
RTVSPost2010PropOp40
 70
     1
102
RTVSPost2010Prop41ColorIndex
 90
       18
102
RTVSPost2010Prop41ColorRGB
 90
        0
102
RTVSPost2010PropOp41
 70
     1
102
RTVSPost2010Prop42
 90
       50
102
RTVSPost2010PropOp42
 70
     1
102
RTVSPost2010Prop43
 90
        3
102
RTVSPost2010PropOp43
 70
     1
102
RTVSPost2010Prop44ColorIndex
 90
        5
102
RTVSPost2010Prop44ColorRGB
 90
      255
102
RTVSPost2010PropOp44
 70
     1
102
RTVSPost2010Prop45
280
     0
102
RTVSPost2010PropOp45
 70
     1
102
RTVSPost2010Prop46
 90
       50
102
RTVSPost2010PropOp46
 70
     1
102
RTVSPost2010Prop47
 90
       50
102
RTVSPost2010PropOp47
 70
     1
102
RTVSPost2010Prop48
 90
       50
102
RTVSPost2010PropOp48
 70
     1
102
RTVSPost2010Prop49
280
     0
102
RTVSPost2010PropOp49
 70
     1
102
RTVSPost2010Prop50
 90
       50
102
RTVSPost2010PropOp50
 70
     1
102
RTVSPost2010Prop51ColorIndex
 90
      256
102
RTVSPost2010Prop51ColorRGB
 90
-16777216
102
RTVSPost2010PropOp51
 70
     0
102
RTVSPost2010Prop52
140
1.0
102
RTVSPost2010PropOp52
 70
     0
102
RTVSPost2010Prop53
 90
        2
102
RTVSPost2010PropOp53
 70
     1
102
RTVSPost2010Prop54
  1
strokes_ogs.tif
102
RTVSPost2010PropOp54
 70
     1
102
RTVSPost2010Prop55
280
     0
102
RTVSPost2010PropOp55
 70
     1
102
RTVSPost2010Prop56
140
1.0
102
RTVSPost2010PropOp56
 70
     1
102
RTVSPost2010Prop57
140
1.0
102
RTVSPost2010PropOp57
 70
     1
102
RTVSPropertyOp0
 70
     1
102
RTVSPropertyOp1
 70
     1
102
RTVSPropertyOp2
 70
     1
102
RTVSPropertyOp3
 70
     1
102
RTVSPropertyOp4
 70
     1
102
RTVSPropertyOp5
 70
     1
102
RTVSPropertyOp6
 70
     1
102
RTVSPropertyOp7
 70
     1
102
RTVSPropertyOp8
 70
     1
102
RTVSPropertyOp9
 70
     1
102
RTVSPropertyOp10
 70
     1
102
RTVSPropertyOp11
 70
     1
102
RTVSPropertyOp12
 70
     1
102
RTVSPropertyOp13
 70
     1
102
RTVSPropertyOp14
 70
     1
102
RTVSPropertyOp15
 70
     1
102
RTVSPropertyOp16
 70
     1
102
RTVSPropertyOp17
 70
     1
102
RTVSPropertyOp18
 70
     1
102
RTVSPropertyOp19
 70
     1
102
RTVSPropertyOp20
 70
     1
102
RTVSPropertyOp21
 70
     1
102
RTVSPropertyOp22
 70
     1
102
RTVSPropertyOp23
 70
     1
102
RTVSPropertyOp24
 70
     1
102
RTVSPropertyOp25
 70
     1
102
RTVSPropertyOp26
 70
     1
102
RTVSPropertyOp27
 70
     1
102
RTVSPropertyOp28
 70
     1
102
RTVSPropertyOp29
 70
     1
102
RTVSPropertyOp30
 70
     1
102
RTVSPropertyOp31
 70
     1
102
RTVSPropertyOp32
 70
     1
102
RTVSPropertyOp33
 70
     1
102
RTVSPropertyOp34
 70
     1
102
RTVSPropertyOp35
 70
     1
102
RTVSPropertyOp36
 70
     1
102
RTVSPropertyOp37
 70
     1
102
RTVSPropertyOp38
 70
     1
102
RTVSPropertyOp39
 70
     1
102
RTVSPropertyOp40
 70
     1
102
RTVSPropertyOp41
 70
     1
102
RTVSPropertyOp42
 70
     1
102
RTVSPropertyOp43
 70
     1
102
RTVSPropertyOp44
 70
     1
102
RTVSPropertyOp45
 70
     1
102
RTVSPropertyOp46
 70
     1
102
RTVSPropertyOp47
 70
     1
102
RTVSPropertyOp48
 70
     1
102
RTVSPropertyOp49
 70
     1
102
RTVSPropertyOp50
 70
     1
102
RTVSPropertyOp51
 70
     0
102
RTVSPropertyOp52
 70
     0
102
RTVSPropertyOp53
 70
     1
102
RTVSPropertyOp54
 70
     1
102
RTVSPropertyOp55
 70
     1
102
RTVSPropertyOp56
 70
     1
102
RTVSPropertyOp57
 70
     1
102
RTVSPropertyOp58
 70
     1
102
RTVSPropertyOp59
 70
     1
102
RTVSPropertyOp60
 70
     1
102
RTVSPropertyOp61
 70
     1
102
RTVSPropertyOp62
 70
     1
  0
XRECORD
  5
120A
102
{ACAD_REACTORS
330
1209
102
}
330
1209
100
AcDbXrecord
280
     1
102
RTVSPost2010Prop28
280
     0
102
RTVSPost2010PropOp28
 70
     1
102
RTVSPost2010Prop29
280
     1
102
RTVSPost2010PropOp29
 70
     1
102
RTVSPost2010Prop30
280
     1
102
RTVSPost2010PropOp30
 70
     1
102
RTVSPost2010Prop31
280
     0
102
RTVSPost2010PropOp31
 70
     1
102
RTVSPost2010Prop32
280
     0
102
RTVSPost2010PropOp32
 70
     1
102
RTVSPost2010Prop33
280
     0
102
RTVSPost2010PropOp33
 70
     1
102
RTVSPost2010Prop34
280
     0
102
RTVSPost2010PropOp34
 70
     1
102
RTVSPost2010Prop35
280
     0
102
RTVSPost2010PropOp35
 70
     1
102
RTVSPost2010Prop36
280
     0
102
RTVSPost2010PropOp36
 70
     1
102
RTVSPost2010Prop37
 90
       50
102
RTVSPost2010PropOp37
 70
     1
102
RTVSPost2010Prop38
140
0.0
102
RTVSPost2010PropOp38
 70
     1
102
RTVSPost2010Prop39
140
1.0
102
RTVSPost2010PropOp39
 70
     1
102
RTVSPost2010Prop40
 90
        0
102
RTVSPost2010PropOp40
 70
     1
102
RTVSPost2010Prop41ColorIndex
 90
       18
102
RTVSPost2010Prop41ColorRGB
 90
        0
102
RTVSPost2010PropOp41
 70
     1
102
RTVSPost2010Prop42
 90
       50
102
RTVSPost2010PropOp42
 70
     1
102
RTVSPost2010Prop43
 90
        3
102
RTVSPost2010PropOp43
 70
     1
102
RTVSPost2010Prop44ColorIndex
 90
        5
102
RTVSPost2010Prop44ColorRGB
 90
      255
102
RTVSPost2010PropOp44
 70
     1
102
RTVSPost2010Prop45
280
     0
102
RTVSPost2010PropOp45
 70
     1
102
RTVSPost2010Prop46
 90
       50
102
RTVSPost2010PropOp46
 70
     1
102
RTVSPost2010Prop47
 90
       50
102
RTVSPost2010PropOp47
 70
     1
102
RTVSPost2010Prop48
 90
       50
102
RTVSPost2010PropOp48
 70
     1
102
RTVSPost2010Prop49
280
     0
102
RTVSPost2010PropOp49
 70
     1
102
RTVSPost2010Prop50
 90
       50
102
RTVSPost2010PropOp50
 70
     1
102
RTVSPost2010Prop51ColorIndex
 90
      256
102
RTVSPost2010Prop51ColorRGB
 90
-16777216
102
RTVSPost2010PropOp51
 70
     0
102
RTVSPost2010Prop52
140
1.0
102
RTVSPost2010PropOp52
 70
     0
102
RTVSPost2010Prop53
 90
        2
102
RTVSPost2010PropOp53
 70
     1
102
RTVSPost2010Prop54
  1
strokes_ogs.tif
102
RTVSPost2010PropOp54
 70
     1
102
RTVSPost2010Prop55
280
     0
102
RTVSPost2010PropOp55
 70
     1
102
RTVSPost2010Prop56
140
1.0
102
RTVSPost2010PropOp56
 70
     1
102
RTVSPost2010Prop57
140
1.0
102
RTVSPost2010PropOp57
 70
     1
102
RTVSPropertyOp0
 70
     1
102
RTVSPropertyOp1
 70
     1
102
RTVSPropertyOp2
 70
     1
102
RTVSPropertyOp3
 70
     1
102
RTVSPropertyOp4
 70
     1
102
RTVSPropertyOp5
 70
     1
102
RTVSPropertyOp6
 70
     1
102
RTVSPropertyOp7
 70
     1
102
RTVSPropertyOp8
 70
     1
102
RTVSPropertyOp9
 70
     1
102
RTVSPropertyOp10
 70
     1
102
RTVSPropertyOp11
 70
     1
102
RTVSPropertyOp12
 70
     1
102
RTVSPropertyOp13
 70
     1
102
RTVSPropertyOp14
 70
     1
102
RTVSPropertyOp15
 70
     1
102
RTVSPropertyOp16
 70
     1
102
RTVSPropertyOp17
 70
     1
102
RTVSPropertyOp18
 70
     1
102
RTVSPropertyOp19
 70
     1
102
RTVSPropertyOp20
 70
     1
102
RTVSPropertyOp21
 70
     1
102
RTVSPropertyOp22
 70
     1
102
RTVSPropertyOp23
 70
     1
102
RTVSPropertyOp24
 70
     1
102
RTVSPropertyOp25
 70
     1
102
RTVSPropertyOp26
 70
     1
102
RTVSPropertyOp27
 70
     1
102
RTVSPropertyOp28
 70
     1
102
RTVSPropertyOp29
 70
     1
102
RTVSPropertyOp30
 70
     1
102
RTVSPropertyOp31
 70
     1
102
RTVSPropertyOp32
 70
     1
102
RTVSPropertyOp33
 70
     1
102
RTVSPropertyOp34
 70
     1
102
RTVSPropertyOp35
 70
     1
102
RTVSPropertyOp36
 70
     1
102
RTVSPropertyOp37
 70
     1
102
RTVSPropertyOp38
 70
     1
102
RTVSPropertyOp39
 70
     1
102
RTVSPropertyOp40
 70
     1
102
RTVSPropertyOp41
 70
     1
102
RTVSPropertyOp42
 70
     1
102
RTVSPropertyOp43
 70
     1
102
RTVSPropertyOp44
 70
     1
102
RTVSPropertyOp45
 70
     1
102
RTVSPropertyOp46
 70
     1
102
RTVSPropertyOp47
 70
     1
102
RTVSPropertyOp48
 70
     1
102
RTVSPropertyOp49
 70
     1
102
RTVSPropertyOp50
 70
     1
102
RTVSPropertyOp51
 70
     0
102
RTVSPropertyOp52
 70
     0
102
RTVSPropertyOp53
 70
     1
102
RTVSPropertyOp54
 70
     1
102
RTVSPropertyOp55
 70
     1
102
RTVSPropertyOp56
 70
     1
102
RTVSPropertyOp57
 70
     1
102
RTVSPropertyOp58
 70
     1
102
RTVSPropertyOp59
 70
     1
102
RTVSPropertyOp60
 70
     1
102
RTVSPropertyOp61
 70
     1
102
RTVSPropertyOp62
 70
     1
  0
XRECORD
  5
1212
102
{ACAD_REACTORS
330
1211
102
}
330
1211
100
AcDbXrecord
280
     1
102
RTVSPost2010Prop28
280
     0
102
RTVSPost2010PropOp28
 70
     1
102
RTVSPost2010Prop29
280
     1
102
RTVSPost2010PropOp29
 70
     1
102
RTVSPost2010Prop30
280
     1
102
RTVSPost2010PropOp30
 70
     1
102
RTVSPost2010Prop31
280
     0
102
RTVSPost2010PropOp31
 70
     1
102
RTVSPost2010Prop32
280
     0
102
RTVSPost2010PropOp32
 70
     1
102
RTVSPost2010Prop33
280
     0
102
RTVSPost2010PropOp33
 70
     1
102
RTVSPost2010Prop34
280
     0
102
RTVSPost2010PropOp34
 70
     1
102
RTVSPost2010Prop35
280
     0
102
RTVSPost2010PropOp35
 70
     1
102
RTVSPost2010Prop36
280
     0
102
RTVSPost2010PropOp36
 70
     1
102
RTVSPost2010Prop37
 90
       50
102
RTVSPost2010PropOp37
 70
     1
102
RTVSPost2010Prop38
140
0.0
102
RTVSPost2010PropOp38
 70
     1
102
RTVSPost2010Prop39
140
1.0
102
RTVSPost2010PropOp39
 70
     1
102
RTVSPost2010Prop40
 90
        0
102
RTVSPost2010PropOp40
 70
     1
102
RTVSPost2010Prop41ColorIndex
 90
       18
102
RTVSPost2010Prop41ColorRGB
 90
        0
102
RTVSPost2010PropOp41
 70
     1
102
RTVSPost2010Prop42
 90
       50
102
RTVSPost2010PropOp42
 70
     1
102
RTVSPost2010Prop43
 90
        3
102
RTVSPost2010PropOp43
 70
     1
102
RTVSPost2010Prop44ColorIndex
 90
        5
102
RTVSPost2010Prop44ColorRGB
 90
      255
102
RTVSPost2010PropOp44
 70
     1
102
RTVSPost2010Prop45
280
     0
102
RTVSPost2010PropOp45
 70
     1
102
RTVSPost2010Prop46
 90
       50
102
RTVSPost2010PropOp46
 70
     1
102
RTVSPost2010Prop47
 90
       50
102
RTVSPost2010PropOp47
 70
     1
102
RTVSPost2010Prop48
 90
       50
102
RTVSPost2010PropOp48
 70
     1
102
RTVSPost2010Prop49
280
     0
102
RTVSPost2010PropOp49
 70
     1
102
RTVSPost2010Prop50
 90
       50
102
RTVSPost2010PropOp50
 70
     1
102
RTVSPost2010Prop51ColorIndex
 90
      256
102
RTVSPost2010Prop51ColorRGB
 90
-16777216
102
RTVSPost2010PropOp51
 70
     0
102
RTVSPost2010Prop52
140
1.0
102
RTVSPost2010PropOp52
 70
     0
102
RTVSPost2010Prop53
 90
        2
102
RTVSPost2010PropOp53
 70
     1
102
RTVSPost2010Prop54
  1
strokes_ogs.tif
102
RTVSPost2010PropOp54
 70
     1
102
RTVSPost2010Prop55
280
     0
102
RTVSPost2010PropOp55
 70
     1
102
RTVSPost2010Prop56
140
1.0
102
RTVSPost2010PropOp56
 70
     1
102
RTVSPost2010Prop57
140
1.0
102
RTVSPost2010PropOp57
 70
     1
102
RTVSPropertyOp0
 70
     1
102
RTVSPropertyOp1
 70
     1
102
RTVSPropertyOp2
 70
     1
102
RTVSPropertyOp3
 70
     1
102
RTVSPropertyOp4
 70
     1
102
RTVSPropertyOp5
 70
     1
102
RTVSPropertyOp6
 70
     1
102
RTVSPropertyOp7
 70
     1
102
RTVSPropertyOp8
 70
     1
102
RTVSPropertyOp9
 70
     1
102
RTVSPropertyOp10
 70
     1
102
RTVSPropertyOp11
 70
     1
102
RTVSPropertyOp12
 70
     1
102
RTVSPropertyOp13
 70
     1
102
RTVSPropertyOp14
 70
     1
102
RTVSPropertyOp15
 70
     1
102
RTVSPropertyOp16
 70
     1
102
RTVSPropertyOp17
 70
     1
102
RTVSPropertyOp18
 70
     1
102
RTVSPropertyOp19
 70
     1
102
RTVSPropertyOp20
 70
     1
102
RTVSPropertyOp21
 70
     1
102
RTVSPropertyOp22
 70
     1
102
RTVSPropertyOp23
 70
     1
102
RTVSPropertyOp24
 70
     1
102
RTVSPropertyOp25
 70
     1
102
RTVSPropertyOp26
 70
     1
102
RTVSPropertyOp27
 70
     1
102
RTVSPropertyOp28
 70
     1
102
RTVSPropertyOp29
 70
     1
102
RTVSPropertyOp30
 70
     1
102
RTVSPropertyOp31
 70
     1
102
RTVSPropertyOp32
 70
     1
102
RTVSPropertyOp33
 70
     1
102
RTVSPropertyOp34
 70
     1
102
RTVSPropertyOp35
 70
     1
102
RTVSPropertyOp36
 70
     1
102
RTVSPropertyOp37
 70
     1
102
RTVSPropertyOp38
 70
     1
102
RTVSPropertyOp39
 70
     1
102
RTVSPropertyOp40
 70
     1
102
RTVSPropertyOp41
 70
     1
102
RTVSPropertyOp42
 70
     1
102
RTVSPropertyOp43
 70
     1
102
RTVSPropertyOp44
 70
     1
102
RTVSPropertyOp45
 70
     1
102
RTVSPropertyOp46
 70
     1
102
RTVSPropertyOp47
 70
     1
102
RTVSPropertyOp48
 70
     1
102
RTVSPropertyOp49
 70
     1
102
RTVSPropertyOp50
 70
     1
102
RTVSPropertyOp51
 70
     0
102
RTVSPropertyOp52
 70
     0
102
RTVSPropertyOp53
 70
     1
102
RTVSPropertyOp54
 70
     1
102
RTVSPropertyOp55
 70
     1
102
RTVSPropertyOp56
 70
     1
102
RTVSPropertyOp57
 70
     1
102
RTVSPropertyOp58
 70
     1
102
RTVSPropertyOp59
 70
     1
102
RTVSPropertyOp60
 70
     1
102
RTVSPropertyOp61
 70
     1
102
RTVSPropertyOp62
 70
     1
  0
XRECORD
  5
122E
102
{ACAD_REACTORS
330
122D
102
}
330
122D
100
AcDbXrecord
280
     1
102
RTVSPost2010Prop28
280
     0
102
RTVSPost2010PropOp28
 70
     1
102
RTVSPost2010Prop29
280
     1
102
RTVSPost2010PropOp29
 70
     1
102
RTVSPost2010Prop30
280
     1
102
RTVSPost2010PropOp30
 70
     1
102
RTVSPost2010Prop31
280
     0
102
RTVSPost2010PropOp31
 70
     1
102
RTVSPost2010Prop32
280
     0
102
RTVSPost2010PropOp32
 70
     1
102
RTVSPost2010Prop33
280
     0
102
RTVSPost2010PropOp33
 70
     1
102
RTVSPost2010Prop34
280
     0
102
RTVSPost2010PropOp34
 70
     1
102
RTVSPost2010Prop35
280
     0
102
RTVSPost2010PropOp35
 70
     1
102
RTVSPost2010Prop36
280
     0
102
RTVSPost2010PropOp36
 70
     1
102
RTVSPost2010Prop37
 90
       50
102
RTVSPost2010PropOp37
 70
     0
102
RTVSPost2010Prop38
140
0.0
102
RTVSPost2010PropOp38
 70
     0
102
RTVSPost2010Prop39
140
1.0
102
RTVSPost2010PropOp39
 70
     0
102
RTVSPost2010Prop40
 90
        0
102
RTVSPost2010PropOp40
 70
     0
102
RTVSPost2010Prop41ColorIndex
 90
       18
102
RTVSPost2010Prop41ColorRGB
 90
        0
102
RTVSPost2010PropOp41
 70
     0
102
RTVSPost2010Prop42
 90
       50
102
RTVSPost2010PropOp42
 70
     0
102
RTVSPost2010Prop43
 90
        3
102
RTVSPost2010PropOp43
 70
     0
102
RTVSPost2010Prop44ColorIndex
 90
        5
102
RTVSPost2010Prop44ColorRGB
 90
      255
102
RTVSPost2010PropOp44
 70
     0
102
RTVSPost2010Prop45
280
     0
102
RTVSPost2010PropOp45
 70
     1
102
RTVSPost2010Prop46
 90
       50
102
RTVSPost2010PropOp46
 70
     0
102
RTVSPost2010Prop47
 90
       50
102
RTVSPost2010PropOp47
 70
     0
102
RTVSPost2010Prop48
 90
       50
102
RTVSPost2010PropOp48
 70
     0
102
RTVSPost2010Prop49
280
     0
102
RTVSPost2010PropOp49
 70
     1
102
RTVSPost2010Prop50
 90
       50
102
RTVSPost2010PropOp50
 70
     0
102
RTVSPost2010Prop51ColorIndex
 90
      256
102
RTVSPost2010Prop51ColorRGB
 90
-16777216
102
RTVSPost2010PropOp51
 70
     0
102
RTVSPost2010Prop52
140
1.0
102
RTVSPost2010PropOp52
 70
     0
102
RTVSPost2010Prop53
 90
        2
102
RTVSPost2010PropOp53
 70
     0
102
RTVSPost2010Prop54
  1
strokes_ogs.tif
102
RTVSPost2010PropOp54
 70
     0
102
RTVSPost2010Prop55
280
     0
102
RTVSPost2010PropOp55
 70
     1
102
RTVSPost2010Prop56
140
1.0
102
RTVSPost2010PropOp56
 70
     0
102
RTVSPost2010Prop57
140
1.0
102
RTVSPost2010PropOp57
 70
     0
102
RTVSPropertyOp0
 70
     0
102
RTVSPropertyOp1
 70
     0
102
RTVSPropertyOp2
 70
     0
102
RTVSPropertyOp3
 70
     0
102
RTVSPropertyOp4
 70
     0
102
RTVSPropertyOp5
 70
     0
102
RTVSPropertyOp6
 70
     0
102
RTVSPropertyOp7
 70
     0
102
RTVSPropertyOp8
 70
     0
102
RTVSPropertyOp9
 70
     0
102
RTVSPropertyOp10
 70
     0
102
RTVSPropertyOp11
 70
     0
102
RTVSPropertyOp12
 70
     0
102
RTVSPropertyOp13
 70
     0
102
RTVSPropertyOp14
 70
     2
102
RTVSPropertyOp15
 70
     0
102
RTVSPropertyOp16
 70
     0
102
RTVSPropertyOp17
 70
     0
102
RTVSPropertyOp18
 70
     0
102
RTVSPropertyOp19
 70
     0
102
RTVSPropertyOp20
 70
     0
102
RTVSPropertyOp21
 70
     0
102
RTVSPropertyOp22
 70
     0
102
RTVSPropertyOp23
 70
     0
102
RTVSPropertyOp24
 70
     0
102
RTVSPropertyOp25
 70
     0
102
RTVSPropertyOp26
 70
     0
102
RTVSPropertyOp27
 70
     0
102
RTVSPropertyOp28
 70
     1
102
RTVSPropertyOp29
 70
     1
102
RTVSPropertyOp30
 70
     1
102
RTVSPropertyOp31
 70
     1
102
RTVSPropertyOp32
 70
     1
102
RTVSPropertyOp33
 70
     1
102
RTVSPropertyOp34
 70
     1
102
RTVSPropertyOp35
 70
     1
102
RTVSPropertyOp36
 70
     1
102
RTVSPropertyOp37
 70
     0
102
RTVSPropertyOp38
 70
     0
102
RTVSPropertyOp39
 70
     0
102
RTVSPropertyOp40
 70
     0
102
RTVSPropertyOp41
 70
     0
102
RTVSPropertyOp42
 70
     0
102
RTVSPropertyOp43
 70
     0
102
RTVSPropertyOp44
 70
     0
102
RTVSPropertyOp45
 70
     1
102
RTVSPropertyOp46
 70
     0
102
RTVSPropertyOp47
 70
     0
102
RTVSPropertyOp48
 70
     0
102
RTVSPropertyOp49
 70
     1
102
RTVSPropertyOp50
 70
     0
102
RTVSPropertyOp51
 70
     0
102
RTVSPropertyOp52
 70
     0
102
RTVSPropertyOp53
 70
     0
102
RTVSPropertyOp54
 70
     0
102
RTVSPropertyOp55
 70
     1
102
RTVSPropertyOp56
 70
     0
102
RTVSPropertyOp57
 70
     0
102
RTVSPropertyOp58
 70
     0
102
RTVSPropertyOp59
 70
     0
102
RTVSPropertyOp60
 70
     0
102
RTVSPropertyOp61
 70
     0
102
RTVSPropertyOp62
 70
     0
  0
XRECORD
  5
121E
102
{ACAD_REACTORS
330
121D
102
}
330
121D
100
AcDbXrecord
280
     1
102
RTVSPost2010Prop28
280
     0
102
RTVSPost2010PropOp28
 70
     1
102
RTVSPost2010Prop29
280
     1
102
RTVSPost2010PropOp29
 70
     1
102
RTVSPost2010Prop30
280
     1
102
RTVSPost2010PropOp30
 70
     1
102
RTVSPost2010Prop31
280
     0
102
RTVSPost2010PropOp31
 70
     1
102
RTVSPost2010Prop32
280
     0
102
RTVSPost2010PropOp32
 70
     1
102
RTVSPost2010Prop33
280
     0
102
RTVSPost2010PropOp33
 70
     1
102
RTVSPost2010Prop34
280
     0
102
RTVSPost2010PropOp34
 70
     1
102
RTVSPost2010Prop35
280
     0
102
RTVSPost2010PropOp35
 70
     1
102
RTVSPost2010Prop36
280
     0
102
RTVSPost2010PropOp36
 70
     1
102
RTVSPost2010Prop37
 90
       50
102
RTVSPost2010PropOp37
 70
     1
102
RTVSPost2010Prop38
140
0.0
102
RTVSPost2010PropOp38
 70
     1
102
RTVSPost2010Prop39
140
1.0
102
RTVSPost2010PropOp39
 70
     1
102
RTVSPost2010Prop40
 90
        0
102
RTVSPost2010PropOp40
 70
     1
102
RTVSPost2010Prop41ColorIndex
 90
       18
102
RTVSPost2010Prop41ColorRGB
 90
        0
102
RTVSPost2010PropOp41
 70
     1
102
RTVSPost2010Prop42
 90
       50
102
RTVSPost2010PropOp42
 70
     1
102
RTVSPost2010Prop43
 90
        3
102
RTVSPost2010PropOp43
 70
     1
102
RTVSPost2010Prop44ColorIndex
 90
        5
102
RTVSPost2010Prop44ColorRGB
 90
      255
102
RTVSPost2010PropOp44
 70
     1
102
RTVSPost2010Prop45
280
     0
102
RTVSPost2010PropOp45
 70
     1
102
RTVSPost2010Prop46
 90
       50
102
RTVSPost2010PropOp46
 70
     1
102
RTVSPost2010Prop47
 90
       50
102
RTVSPost2010PropOp47
 70
     1
102
RTVSPost2010Prop48
 90
       50
102
RTVSPost2010PropOp48
 70
     1
102
RTVSPost2010Prop49
280
     0
102
RTVSPost2010PropOp49
 70
     1
102
RTVSPost2010Prop50
 90
       50
102
RTVSPost2010PropOp50
 70
     1
102
RTVSPost2010Prop51ColorIndex
 90
      256
102
RTVSPost2010Prop51ColorRGB
 90
-16777216
102
RTVSPost2010PropOp51
 70
     0
102
RTVSPost2010Prop52
140
1.0
102
RTVSPost2010PropOp52
 70
     0
102
RTVSPost2010Prop53
 90
        2
102
RTVSPost2010PropOp53
 70
     1
102
RTVSPost2010Prop54
  1
strokes_ogs.tif
102
RTVSPost2010PropOp54
 70
     1
102
RTVSPost2010Prop55
280
     0
102
RTVSPost2010PropOp55
 70
     1
102
RTVSPost2010Prop56
140
1.0
102
RTVSPost2010PropOp56
 70
     1
102
RTVSPost2010Prop57
140
1.0
102
RTVSPost2010PropOp57
 70
     1
102
RTVSPropertyOp0
 70
     1
102
RTVSPropertyOp1
 70
     1
102
RTVSPropertyOp2
 70
     1
102
RTVSPropertyOp3
 70
     1
102
RTVSPropertyOp4
 70
     1
102
RTVSPropertyOp5
 70
     1
102
RTVSPropertyOp6
 70
     1
102
RTVSPropertyOp7
 70
     1
102
RTVSPropertyOp8
 70
     1
102
RTVSPropertyOp9
 70
     1
102
RTVSPropertyOp10
 70
     1
102
RTVSPropertyOp11
 70
     1
102
RTVSPropertyOp12
 70
     1
102
RTVSPropertyOp13
 70
     1
102
RTVSPropertyOp14
 70
     1
102
RTVSPropertyOp15
 70
     1
102
RTVSPropertyOp16
 70
     1
102
RTVSPropertyOp17
 70
     1
102
RTVSPropertyOp18
 70
     1
102
RTVSPropertyOp19
 70
     1
102
RTVSPropertyOp20
 70
     1
102
RTVSPropertyOp21
 70
     1
102
RTVSPropertyOp22
 70
     1
102
RTVSPropertyOp23
 70
     1
102
RTVSPropertyOp24
 70
     1
102
RTVSPropertyOp25
 70
     1
102
RTVSPropertyOp26
 70
     1
102
RTVSPropertyOp27
 70
     1
102
RTVSPropertyOp28
 70
     1
102
RTVSPropertyOp29
 70
     1
102
RTVSPropertyOp30
 70
     1
102
RTVSPropertyOp31
 70
     1
102
RTVSPropertyOp32
 70
     1
102
RTVSPropertyOp33
 70
     1
102
RTVSPropertyOp34
 70
     1
102
RTVSPropertyOp35
 70
     1
102
RTVSPropertyOp36
 70
     1
102
RTVSPropertyOp37
 70
     1
102
RTVSPropertyOp38
 70
     1
102
RTVSPropertyOp39
 70
     1
102
RTVSPropertyOp40
 70
     1
102
RTVSPropertyOp41
 70
     1
102
RTVSPropertyOp42
 70
     1
102
RTVSPropertyOp43
 70
     1
102
RTVSPropertyOp44
 70
     1
102
RTVSPropertyOp45
 70
     1
102
RTVSPropertyOp46
 70
     1
102
RTVSPropertyOp47
 70
     1
102
RTVSPropertyOp48
 70
     1
102
RTVSPropertyOp49
 70
     1
102
RTVSPropertyOp50
 70
     1
102
RTVSPropertyOp51
 70
     0
102
RTVSPropertyOp52
 70
     0
102
RTVSPropertyOp53
 70
     1
102
RTVSPropertyOp54
 70
     1
102
RTVSPropertyOp55
 70
     1
102
RTVSPropertyOp56
 70
     1
102
RTVSPropertyOp57
 70
     1
102
RTVSPropertyOp58
 70
     1
102
RTVSPropertyOp59
 70
     1
102
RTVSPropertyOp60
 70
     1
102
RTVSPropertyOp61
 70
     1
102
RTVSPropertyOp62
 70
     1
  0
XRECORD
  5
1230
102
{ACAD_REACTORS
330
122F
102
}
330
122F
100
AcDbXrecord
280
     1
102
RTVSPost2010Prop28
280
     0
102
RTVSPost2010PropOp28
 70
     1
102
RTVSPost2010Prop29
280
     1
102
RTVSPost2010PropOp29
 70
     1
102
RTVSPost2010Prop30
280
     1
102
RTVSPost2010PropOp30
 70
     1
102
RTVSPost2010Prop31
280
     0
102
RTVSPost2010PropOp31
 70
     1
102
RTVSPost2010Prop32
280
     0
102
RTVSPost2010PropOp32
 70
     1
102
RTVSPost2010Prop33
280
     0
102
RTVSPost2010PropOp33
 70
     1
102
RTVSPost2010Prop34
280
     0
102
RTVSPost2010PropOp34
 70
     1
102
RTVSPost2010Prop35
280
     0
102
RTVSPost2010PropOp35
 70
     1
102
RTVSPost2010Prop36
280
     0
102
RTVSPost2010PropOp36
 70
     1
102
RTVSPost2010Prop37
 90
       50
102
RTVSPost2010PropOp37
 70
     0
102
RTVSPost2010Prop38
140
0.0
102
RTVSPost2010PropOp38
 70
     0
102
RTVSPost2010Prop39
140
1.0
102
RTVSPost2010PropOp39
 70
     0
102
RTVSPost2010Prop40
 90
        0
102
RTVSPost2010PropOp40
 70
     0
102
RTVSPost2010Prop41ColorIndex
 90
       18
102
RTVSPost2010Prop41ColorRGB
 90
        0
102
RTVSPost2010PropOp41
 70
     0
102
RTVSPost2010Prop42
 90
       50
102
RTVSPost2010PropOp42
 70
     0
102
RTVSPost2010Prop43
 90
        3
102
RTVSPost2010PropOp43
 70
     0
102
RTVSPost2010Prop44ColorIndex
 90
        5
102
RTVSPost2010Prop44ColorRGB
 90
      255
102
RTVSPost2010PropOp44
 70
     0
102
RTVSPost2010Prop45
280
     0
102
RTVSPost2010PropOp45
 70
     1
102
RTVSPost2010Prop46
 90
       50
102
RTVSPost2010PropOp46
 70
     0
102
RTVSPost2010Prop47
 90
       50
102
RTVSPost2010PropOp47
 70
     0
102
RTVSPost2010Prop48
 90
       50
102
RTVSPost2010PropOp48
 70
     0
102
RTVSPost2010Prop49
280
     0
102
RTVSPost2010PropOp49
 70
     1
102
RTVSPost2010Prop50
 90
       50
102
RTVSPost2010PropOp50
 70
     0
102
RTVSPost2010Prop51ColorIndex
 90
      256
102
RTVSPost2010Prop51ColorRGB
 90
-16777216
102
RTVSPost2010PropOp51
 70
     0
102
RTVSPost2010Prop52
140
1.0
102
RTVSPost2010PropOp52
 70
     0
102
RTVSPost2010Prop53
 90
        2
102
RTVSPost2010PropOp53
 70
     0
102
RTVSPost2010Prop54
  1
strokes_ogs.tif
102
RTVSPost2010PropOp54
 70
     0
102
RTVSPost2010Prop55
280
     0
102
RTVSPost2010PropOp55
 70
     1
102
RTVSPost2010Prop56
140
1.0
102
RTVSPost2010PropOp56
 70
     0
102
RTVSPost2010Prop57
140
1.0
102
RTVSPost2010PropOp57
 70
     0
102
RTVSPropertyOp0
 70
     0
102
RTVSPropertyOp1
 70
     0
102
RTVSPropertyOp2
 70
     0
102
RTVSPropertyOp3
 70
     0
102
RTVSPropertyOp4
 70
     0
102
RTVSPropertyOp5
 70
     0
102
RTVSPropertyOp6
 70
     0
102
RTVSPropertyOp7
 70
     0
102
RTVSPropertyOp8
 70
     0
102
RTVSPropertyOp9
 70
     0
102
RTVSPropertyOp10
 70
     0
102
RTVSPropertyOp11
 70
     0
102
RTVSPropertyOp12
 70
     0
102
RTVSPropertyOp13
 70
     0
102
RTVSPropertyOp14
 70
     2
102
RTVSPropertyOp15
 70
     0
102
RTVSPropertyOp16
 70
     0
102
RTVSPropertyOp17
 70
     0
102
RTVSPropertyOp18
 70
     0
102
RTVSPropertyOp19
 70
     0
102
RTVSPropertyOp20
 70
     0
102
RTVSPropertyOp21
 70
     0
102
RTVSPropertyOp22
 70
     0
102
RTVSPropertyOp23
 70
     0
102
RTVSPropertyOp24
 70
     0
102
RTVSPropertyOp25
 70
     0
102
RTVSPropertyOp26
 70
     0
102
RTVSPropertyOp27
 70
     0
102
RTVSPropertyOp28
 70
     1
102
RTVSPropertyOp29
 70
     1
102
RTVSPropertyOp30
 70
     1
102
RTVSPropertyOp31
 70
     1
102
RTVSPropertyOp32
 70
     1
102
RTVSPropertyOp33
 70
     1
102
RTVSPropertyOp34
 70
     1
102
RTVSPropertyOp35
 70
     1
102
RTVSPropertyOp36
 70
     1
102
RTVSPropertyOp37
 70
     0
102
RTVSPropertyOp38
 70
     0
102
RTVSPropertyOp39
 70
     0
102
RTVSPropertyOp40
 70
     0
102
RTVSPropertyOp41
 70
     0
102
RTVSPropertyOp42
 70
     0
102
RTVSPropertyOp43
 70
     0
102
RTVSPropertyOp44
 70
     0
102
RTVSPropertyOp45
 70
     1
102
RTVSPropertyOp46
 70
     0
102
RTVSPropertyOp47
 70
     0
102
RTVSPropertyOp48
 70
     0
102
RTVSPropertyOp49
 70
     1
102
RTVSPropertyOp50
 70
     0
102
RTVSPropertyOp51
 70
     0
102
RTVSPropertyOp52
 70
     0
102
RTVSPropertyOp53
 70
     0
102
RTVSPropertyOp54
 70
     0
102
RTVSPropertyOp55
 70
     1
102
RTVSPropertyOp56
 70
     0
102
RTVSPropertyOp57
 70
     0
102
RTVSPropertyOp58
 70
     0
102
RTVSPropertyOp59
 70
     0
102
RTVSPropertyOp60
 70
     0
102
RTVSPropertyOp61
 70
     0
102
RTVSPropertyOp62
 70
     0
  0
XRECORD
  5
1216
102
{ACAD_REACTORS
330
1215
102
}
330
1215
100
AcDbXrecord
280
     1
102
RTVSPost2010Prop28
280
     0
102
RTVSPost2010PropOp28
 70
     1
102
RTVSPost2010Prop29
280
     1
102
RTVSPost2010PropOp29
 70
     1
102
RTVSPost2010Prop30
280
     1
102
RTVSPost2010PropOp30
 70
     1
102
RTVSPost2010Prop31
280
     0
102
RTVSPost2010PropOp31
 70
     1
102
RTVSPost2010Prop32
280
     0
102
RTVSPost2010PropOp32
 70
     1
102
RTVSPost2010Prop33
280
     0
102
RTVSPost2010PropOp33
 70
     1
102
RTVSPost2010Prop34
280
     0
102
RTVSPost2010PropOp34
 70
     1
102
RTVSPost2010Prop35
280
     0
102
RTVSPost2010PropOp35
 70
     1
102
RTVSPost2010Prop36
280
     0
102
RTVSPost2010PropOp36
 70
     1
102
RTVSPost2010Prop37
 90
       50
102
RTVSPost2010PropOp37
 70
     1
102
RTVSPost2010Prop38
140
0.0
102
RTVSPost2010PropOp38
 70
     1
102
RTVSPost2010Prop39
140
1.0
102
RTVSPost2010PropOp39
 70
     1
102
RTVSPost2010Prop40
 90
        0
102
RTVSPost2010PropOp40
 70
     1
102
RTVSPost2010Prop41ColorIndex
 90
       18
102
RTVSPost2010Prop41ColorRGB
 90
        0
102
RTVSPost2010PropOp41
 70
     1
102
RTVSPost2010Prop42
 90
       50
102
RTVSPost2010PropOp42
 70
     1
102
RTVSPost2010Prop43
 90
        3
102
RTVSPost2010PropOp43
 70
     1
102
RTVSPost2010Prop44ColorIndex
 90
        5
102
RTVSPost2010Prop44ColorRGB
 90
      255
102
RTVSPost2010PropOp44
 70
     1
102
RTVSPost2010Prop45
280
     0
102
RTVSPost2010PropOp45
 70
     1
102
RTVSPost2010Prop46
 90
       50
102
RTVSPost2010PropOp46
 70
     1
102
RTVSPost2010Prop47
 90
       50
102
RTVSPost2010PropOp47
 70
     1
102
RTVSPost2010Prop48
 90
       50
102
RTVSPost2010PropOp48
 70
     1
102
RTVSPost2010Prop49
280
     0
102
RTVSPost2010PropOp49
 70
     1
102
RTVSPost2010Prop50
 90
       50
102
RTVSPost2010PropOp50
 70
     1
102
RTVSPost2010Prop51ColorIndex
 90
      256
102
RTVSPost2010Prop51ColorRGB
 90
-16777216
102
RTVSPost2010PropOp51
 70
     0
102
RTVSPost2010Prop52
140
1.0
102
RTVSPost2010PropOp52
 70
     0
102
RTVSPost2010Prop53
 90
        2
102
RTVSPost2010PropOp53
 70
     1
102
RTVSPost2010Prop54
  1
strokes_ogs.tif
102
RTVSPost2010PropOp54
 70
     1
102
RTVSPost2010Prop55
280
     0
102
RTVSPost2010PropOp55
 70
     1
102
RTVSPost2010Prop56
140
1.0
102
RTVSPost2010PropOp56
 70
     1
102
RTVSPost2010Prop57
140
1.0
102
RTVSPost2010PropOp57
 70
     1
102
RTVSPropertyOp0
 70
     1
102
RTVSPropertyOp1
 70
     1
102
RTVSPropertyOp2
 70
     1
102
RTVSPropertyOp3
 70
     1
102
RTVSPropertyOp4
 70
     1
102
RTVSPropertyOp5
 70
     1
102
RTVSPropertyOp6
 70
     1
102
RTVSPropertyOp7
 70
     1
102
RTVSPropertyOp8
 70
     1
102
RTVSPropertyOp9
 70
     1
102
RTVSPropertyOp10
 70
     1
102
RTVSPropertyOp11
 70
     1
102
RTVSPropertyOp12
 70
     1
102
RTVSPropertyOp13
 70
     1
102
RTVSPropertyOp14
 70
     1
102
RTVSPropertyOp15
 70
     1
102
RTVSPropertyOp16
 70
     1
102
RTVSPropertyOp17
 70
     1
102
RTVSPropertyOp18
 70
     1
102
RTVSPropertyOp19
 70
     1
102
RTVSPropertyOp20
 70
     1
102
RTVSPropertyOp21
 70
     1
102
RTVSPropertyOp22
 70
     1
102
RTVSPropertyOp23
 70
     1
102
RTVSPropertyOp24
 70
     1
102
RTVSPropertyOp25
 70
     1
102
RTVSPropertyOp26
 70
     1
102
RTVSPropertyOp27
 70
     1
102
RTVSPropertyOp28
 70
     1
102
RTVSPropertyOp29
 70
     1
102
RTVSPropertyOp30
 70
     1
102
RTVSPropertyOp31
 70
     1
102
RTVSPropertyOp32
 70
     1
102
RTVSPropertyOp33
 70
     1
102
RTVSPropertyOp34
 70
     1
102
RTVSPropertyOp35
 70
     1
102
RTVSPropertyOp36
 70
     1
102
RTVSPropertyOp37
 70
     1
102
RTVSPropertyOp38
 70
     1
102
RTVSPropertyOp39
 70
     1
102
RTVSPropertyOp40
 70
     1
102
RTVSPropertyOp41
 70
     1
102
RTVSPropertyOp42
 70
     1
102
RTVSPropertyOp43
 70
     1
102
RTVSPropertyOp44
 70
     1
102
RTVSPropertyOp45
 70
     1
102
RTVSPropertyOp46
 70
     1
102
RTVSPropertyOp47
 70
     1
102
RTVSPropertyOp48
 70
     1
102
RTVSPropertyOp49
 70
     1
102
RTVSPropertyOp50
 70
     1
102
RTVSPropertyOp51
 70
     0
102
RTVSPropertyOp52
 70
     0
102
RTVSPropertyOp53
 70
     1
102
RTVSPropertyOp54
 70
     1
102
RTVSPropertyOp55
 70
     1
102
RTVSPropertyOp56
 70
     1
102
RTVSPropertyOp57
 70
     1
102
RTVSPropertyOp58
 70
     1
102
RTVSPropertyOp59
 70
     1
102
RTVSPropertyOp60
 70
     1
102
RTVSPropertyOp61
 70
     1
102
RTVSPropertyOp62
 70
     1
  0
XRECORD
  5
122C
102
{ACAD_REACTORS
330
122B
102
}
330
122B
100
AcDbXrecord
280
     1
102
RTVSPost2010Prop28
280
     0
102
RTVSPost2010PropOp28
 70
     1
102
RTVSPost2010Prop29
280
     1
102
RTVSPost2010PropOp29
 70
     1
102
RTVSPost2010Prop30
280
     1
102
RTVSPost2010PropOp30
 70
     1
102
RTVSPost2010Prop31
280
     0
102
RTVSPost2010PropOp31
 70
     1
102
RTVSPost2010Prop32
280
     0
102
RTVSPost2010PropOp32
 70
     1
102
RTVSPost2010Prop33
280
     0
102
RTVSPost2010PropOp33
 70
     1
102
RTVSPost2010Prop34
280
     0
102
RTVSPost2010PropOp34
 70
     1
102
RTVSPost2010Prop35
280
     0
102
RTVSPost2010PropOp35
 70
     1
102
RTVSPost2010Prop36
280
     0
102
RTVSPost2010PropOp36
 70
     1
102
RTVSPost2010Prop37
 90
       50
102
RTVSPost2010PropOp37
 70
     1
102
RTVSPost2010Prop38
140
0.0
102
RTVSPost2010PropOp38
 70
     1
102
RTVSPost2010Prop39
140
1.0
102
RTVSPost2010PropOp39
 70
     1
102
RTVSPost2010Prop40
 90
        0
102
RTVSPost2010PropOp40
 70
     1
102
RTVSPost2010Prop41ColorIndex
 90
       18
102
RTVSPost2010Prop41ColorRGB
 90
        0
102
RTVSPost2010PropOp41
 70
     1
102
RTVSPost2010Prop42
 90
       50
102
RTVSPost2010PropOp42
 70
     1
102
RTVSPost2010Prop43
 90
        3
102
RTVSPost2010PropOp43
 70
     1
102
RTVSPost2010Prop44ColorIndex
 90
        5
102
RTVSPost2010Prop44ColorRGB
 90
      255
102
RTVSPost2010PropOp44
 70
     1
102
RTVSPost2010Prop45
280
     0
102
RTVSPost2010PropOp45
 70
     1
102
RTVSPost2010Prop46
 90
       50
102
RTVSPost2010PropOp46
 70
     1
102
RTVSPost2010Prop47
 90
       50
102
RTVSPost2010PropOp47
 70
     1
102
RTVSPost2010Prop48
 90
       50
102
RTVSPost2010PropOp48
 70
     1
102
RTVSPost2010Prop49
280
     0
102
RTVSPost2010PropOp49
 70
     1
102
RTVSPost2010Prop50
 90
       50
102
RTVSPost2010PropOp50
 70
     1
102
RTVSPost2010Prop51ColorIndex
 90
      256
102
RTVSPost2010Prop51ColorRGB
 90
-16777216
102
RTVSPost2010PropOp51
 70
     0
102
RTVSPost2010Prop52
140
1.0
102
RTVSPost2010PropOp52
 70
     0
102
RTVSPost2010Prop53
 90
        2
102
RTVSPost2010PropOp53
 70
     1
102
RTVSPost2010Prop54
  1
strokes_ogs.tif
102
RTVSPost2010PropOp54
 70
     1
102
RTVSPost2010Prop55
280
     0
102
RTVSPost2010PropOp55
 70
     1
102
RTVSPost2010Prop56
140
1.0
102
RTVSPost2010PropOp56
 70
     1
102
RTVSPost2010Prop57
140
1.0
102
RTVSPost2010PropOp57
 70
     1
102
RTVSPropertyOp0
 70
     1
102
RTVSPropertyOp1
 70
     1
102
RTVSPropertyOp2
 70
     1
102
RTVSPropertyOp3
 70
     1
102
RTVSPropertyOp4
 70
     1
102
RTVSPropertyOp5
 70
     1
102
RTVSPropertyOp6
 70
     1
102
RTVSPropertyOp7
 70
     1
102
RTVSPropertyOp8
 70
     1
102
RTVSPropertyOp9
 70
     1
102
RTVSPropertyOp10
 70
     1
102
RTVSPropertyOp11
 70
     1
102
RTVSPropertyOp12
 70
     1
102
RTVSPropertyOp13
 70
     1
102
RTVSPropertyOp14
 70
     1
102
RTVSPropertyOp15
 70
     1
102
RTVSPropertyOp16
 70
     1
102
RTVSPropertyOp17
 70
     1
102
RTVSPropertyOp18
 70
     1
102
RTVSPropertyOp19
 70
     1
102
RTVSPropertyOp20
 70
     1
102
RTVSPropertyOp21
 70
     1
102
RTVSPropertyOp22
 70
     1
102
RTVSPropertyOp23
 70
     1
102
RTVSPropertyOp24
 70
     1
102
RTVSPropertyOp25
 70
     1
102
RTVSPropertyOp26
 70
     1
102
RTVSPropertyOp27
 70
     1
102
RTVSPropertyOp28
 70
     1
102
RTVSPropertyOp29
 70
     1
102
RTVSPropertyOp30
 70
     1
102
RTVSPropertyOp31
 70
     1
102
RTVSPropertyOp32
 70
     1
102
RTVSPropertyOp33
 70
     1
102
RTVSPropertyOp34
 70
     1
102
RTVSPropertyOp35
 70
     1
102
RTVSPropertyOp36
 70
     1
102
RTVSPropertyOp37
 70
     1
102
RTVSPropertyOp38
 70
     1
102
RTVSPropertyOp39
 70
     1
102
RTVSPropertyOp40
 70
     1
102
RTVSPropertyOp41
 70
     1
102
RTVSPropertyOp42
 70
     1
102
RTVSPropertyOp43
 70
     1
102
RTVSPropertyOp44
 70
     1
102
RTVSPropertyOp45
 70
     1
102
RTVSPropertyOp46
 70
     1
102
RTVSPropertyOp47
 70
     1
102
RTVSPropertyOp48
 70
     1
102
RTVSPropertyOp49
 70
     1
102
RTVSPropertyOp50
 70
     1
102
RTVSPropertyOp51
 70
     0
102
RTVSPropertyOp52
 70
     0
102
RTVSPropertyOp53
 70
     1
102
RTVSPropertyOp54
 70
     1
102
RTVSPropertyOp55
 70
     1
102
RTVSPropertyOp56
 70
     1
102
RTVSPropertyOp57
 70
     1
102
RTVSPropertyOp58
 70
     1
102
RTVSPropertyOp59
 70
     1
102
RTVSPropertyOp60
 70
     1
102
RTVSPropertyOp61
 70
     1
102
RTVSPropertyOp62
 70
     1
  0
XRECORD
  5
122A
102
{ACAD_REACTORS
330
1229
102
}
330
1229
100
AcDbXrecord
280
     1
102
RTVSPost2010Prop28
280
     0
102
RTVSPost2010PropOp28
 70
     1
102
RTVSPost2010Prop29
280
     1
102
RTVSPost2010PropOp29
 70
     1
102
RTVSPost2010Prop30
280
     1
102
RTVSPost2010PropOp30
 70
     1
102
RTVSPost2010Prop31
280
     0
102
RTVSPost2010PropOp31
 70
     1
102
RTVSPost2010Prop32
280
     0
102
RTVSPost2010PropOp32
 70
     1
102
RTVSPost2010Prop33
280
     0
102
RTVSPost2010PropOp33
 70
     1
102
RTVSPost2010Prop34
280
     0
102
RTVSPost2010PropOp34
 70
     1
102
RTVSPost2010Prop35
280
     0
102
RTVSPost2010PropOp35
 70
     1
102
RTVSPost2010Prop36
280
     0
102
RTVSPost2010PropOp36
 70
     1
102
RTVSPost2010Prop37
 90
       50
102
RTVSPost2010PropOp37
 70
     1
102
RTVSPost2010Prop38
140
0.0
102
RTVSPost2010PropOp38
 70
     1
102
RTVSPost2010Prop39
140
1.0
102
RTVSPost2010PropOp39
 70
     1
102
RTVSPost2010Prop40
 90
        0
102
RTVSPost2010PropOp40
 70
     1
102
RTVSPost2010Prop41ColorIndex
 90
       18
102
RTVSPost2010Prop41ColorRGB
 90
        0
102
RTVSPost2010PropOp41
 70
     1
102
RTVSPost2010Prop42
 90
       50
102
RTVSPost2010PropOp42
 70
     1
102
RTVSPost2010Prop43
 90
        3
102
RTVSPost2010PropOp43
 70
     1
102
RTVSPost2010Prop44ColorIndex
 90
        5
102
RTVSPost2010Prop44ColorRGB
 90
      255
102
RTVSPost2010PropOp44
 70
     1
102
RTVSPost2010Prop45
280
     0
102
RTVSPost2010PropOp45
 70
     1
102
RTVSPost2010Prop46
 90
       50
102
RTVSPost2010PropOp46
 70
     1
102
RTVSPost2010Prop47
 90
       50
102
RTVSPost2010PropOp47
 70
     1
102
RTVSPost2010Prop48
 90
       50
102
RTVSPost2010PropOp48
 70
     1
102
RTVSPost2010Prop49
280
     0
102
RTVSPost2010PropOp49
 70
     1
102
RTVSPost2010Prop50
 90
       50
102
RTVSPost2010PropOp50
 70
     1
102
RTVSPost2010Prop51ColorIndex
 90
      256
102
RTVSPost2010Prop51ColorRGB
 90
-16777216
102
RTVSPost2010PropOp51
 70
     0
102
RTVSPost2010Prop52
140
1.0
102
RTVSPost2010PropOp52
 70
     0
102
RTVSPost2010Prop53
 90
        2
102
RTVSPost2010PropOp53
 70
     1
102
RTVSPost2010Prop54
  1
strokes_ogs.tif
102
RTVSPost2010PropOp54
 70
     1
102
RTVSPost2010Prop55
280
     0
102
RTVSPost2010PropOp55
 70
     1
102
RTVSPost2010Prop56
140
1.0
102
RTVSPost2010PropOp56
 70
     1
102
RTVSPost2010Prop57
140
1.0
102
RTVSPost2010PropOp57
 70
     1
102
RTVSPropertyOp0
 70
     1
102
RTVSPropertyOp1
 70
     1
102
RTVSPropertyOp2
 70
     1
102
RTVSPropertyOp3
 70
     1
102
RTVSPropertyOp4
 70
     1
102
RTVSPropertyOp5
 70
     1
102
RTVSPropertyOp6
 70
     1
102
RTVSPropertyOp7
 70
     1
102
RTVSPropertyOp8
 70
     1
102
RTVSPropertyOp9
 70
     1
102
RTVSPropertyOp10
 70
     1
102
RTVSPropertyOp11
 70
     1
102
RTVSPropertyOp12
 70
     1
102
RTVSPropertyOp13
 70
     1
102
RTVSPropertyOp14
 70
     1
102
RTVSPropertyOp15
 70
     1
102
RTVSPropertyOp16
 70
     1
102
RTVSPropertyOp17
 70
     1
102
RTVSPropertyOp18
 70
     1
102
RTVSPropertyOp19
 70
     1
102
RTVSPropertyOp20
 70
     1
102
RTVSPropertyOp21
 70
     1
102
RTVSPropertyOp22
 70
     1
102
RTVSPropertyOp23
 70
     1
102
RTVSPropertyOp24
 70
     1
102
RTVSPropertyOp25
 70
     1
102
RTVSPropertyOp26
 70
     1
102
RTVSPropertyOp27
 70
     1
102
RTVSPropertyOp28
 70
     1
102
RTVSPropertyOp29
 70
     1
102
RTVSPropertyOp30
 70
     1
102
RTVSPropertyOp31
 70
     1
102
RTVSPropertyOp32
 70
     1
102
RTVSPropertyOp33
 70
     1
102
RTVSPropertyOp34
 70
     1
102
RTVSPropertyOp35
 70
     1
102
RTVSPropertyOp36
 70
     1
102
RTVSPropertyOp37
 70
     1
102
RTVSPropertyOp38
 70
     1
102
RTVSPropertyOp39
 70
     1
102
RTVSPropertyOp40
 70
     1
102
RTVSPropertyOp41
 70
     1
102
RTVSPropertyOp42
 70
     1
102
RTVSPropertyOp43
 70
     1
102
RTVSPropertyOp44
 70
     1
102
RTVSPropertyOp45
 70
     1
102
RTVSPropertyOp46
 70
     1
102
RTVSPropertyOp47
 70
     1
102
RTVSPropertyOp48
 70
     1
102
RTVSPropertyOp49
 70
     1
102
RTVSPropertyOp50
 70
     1
102
RTVSPropertyOp51
 70
     0
102
RTVSPropertyOp52
 70
     0
102
RTVSPropertyOp53
 70
     1
102
RTVSPropertyOp54
 70
     1
102
RTVSPropertyOp55
 70
     1
102
RTVSPropertyOp56
 70
     1
102
RTVSPropertyOp57
 70
     1
102
RTVSPropertyOp58
 70
     1
102
RTVSPropertyOp59
 70
     1
102
RTVSPropertyOp60
 70
     1
102
RTVSPropertyOp61
 70
     1
102
RTVSPropertyOp62
 70
     1
  0
XRECORD
  5
1224
102
{ACAD_REACTORS
330
1223
102
}
330
1223
100
AcDbXrecord
280
     1
102
RTVSPost2010Prop28
280
     0
102
RTVSPost2010PropOp28
 70
     1
102
RTVSPost2010Prop29
280
     1
102
RTVSPost2010PropOp29
 70
     1
102
RTVSPost2010Prop30
280
     1
102
RTVSPost2010PropOp30
 70
     1
102
RTVSPost2010Prop31
280
     0
102
RTVSPost2010PropOp31
 70
     1
102
RTVSPost2010Prop32
280
     0
102
RTVSPost2010PropOp32
 70
     1
102
RTVSPost2010Prop33
280
     0
102
RTVSPost2010PropOp33
 70
     1
102
RTVSPost2010Prop34
280
     0
102
RTVSPost2010PropOp34
 70
     1
102
RTVSPost2010Prop35
280
     0
102
RTVSPost2010PropOp35
 70
     1
102
RTVSPost2010Prop36
280
     0
102
RTVSPost2010PropOp36
 70
     1
102
RTVSPost2010Prop37
 90
       50
102
RTVSPost2010PropOp37
 70
     1
102
RTVSPost2010Prop38
140
0.0
102
RTVSPost2010PropOp38
 70
     1
102
RTVSPost2010Prop39
140
1.0
102
RTVSPost2010PropOp39
 70
     1
102
RTVSPost2010Prop40
 90
        0
102
RTVSPost2010PropOp40
 70
     1
102
RTVSPost2010Prop41ColorIndex
 90
       18
102
RTVSPost2010Prop41ColorRGB
 90
        0
102
RTVSPost2010PropOp41
 70
     1
102
RTVSPost2010Prop42
 90
       50
102
RTVSPost2010PropOp42
 70
     1
102
RTVSPost2010Prop43
 90
        3
102
RTVSPost2010PropOp43
 70
     1
102
RTVSPost2010Prop44ColorIndex
 90
        5
102
RTVSPost2010Prop44ColorRGB
 90
      255
102
RTVSPost2010PropOp44
 70
     1
102
RTVSPost2010Prop45
280
     0
102
RTVSPost2010PropOp45
 70
     1
102
RTVSPost2010Prop46
 90
       50
102
RTVSPost2010PropOp46
 70
     1
102
RTVSPost2010Prop47
 90
       50
102
RTVSPost2010PropOp47
 70
     1
102
RTVSPost2010Prop48
 90
       50
102
RTVSPost2010PropOp48
 70
     1
102
RTVSPost2010Prop49
280
     0
102
RTVSPost2010PropOp49
 70
     1
102
RTVSPost2010Prop50
 90
       50
102
RTVSPost2010PropOp50
 70
     1
102
RTVSPost2010Prop51ColorIndex
 90
      256
102
RTVSPost2010Prop51ColorRGB
 90
-16777216
102
RTVSPost2010PropOp51
 70
     0
102
RTVSPost2010Prop52
140
1.0
102
RTVSPost2010PropOp52
 70
     0
102
RTVSPost2010Prop53
 90
        2
102
RTVSPost2010PropOp53
 70
     1
102
RTVSPost2010Prop54
  1
strokes_ogs.tif
102
RTVSPost2010PropOp54
 70
     1
102
RTVSPost2010Prop55
280
     0
102
RTVSPost2010PropOp55
 70
     1
102
RTVSPost2010Prop56
140
1.0
102
RTVSPost2010PropOp56
 70
     1
102
RTVSPost2010Prop57
140
1.0
102
RTVSPost2010PropOp57
 70
     1
102
RTVSPropertyOp0
 70
     1
102
RTVSPropertyOp1
 70
     1
102
RTVSPropertyOp2
 70
     1
102
RTVSPropertyOp3
 70
     1
102
RTVSPropertyOp4
 70
     1
102
RTVSPropertyOp5
 70
     1
102
RTVSPropertyOp6
 70
     1
102
RTVSPropertyOp7
 70
     1
102
RTVSPropertyOp8
 70
     1
102
RTVSPropertyOp9
 70
     1
102
RTVSPropertyOp10
 70
     1
102
RTVSPropertyOp11
 70
     1
102
RTVSPropertyOp12
 70
     1
102
RTVSPropertyOp13
 70
     1
102
RTVSPropertyOp14
 70
     1
102
RTVSPropertyOp15
 70
     1
102
RTVSPropertyOp16
 70
     1
102
RTVSPropertyOp17
 70
     1
102
RTVSPropertyOp18
 70
     1
102
RTVSPropertyOp19
 70
     1
102
RTVSPropertyOp20
 70
     1
102
RTVSPropertyOp21
 70
     1
102
RTVSPropertyOp22
 70
     1
102
RTVSPropertyOp23
 70
     1
102
RTVSPropertyOp24
 70
     1
102
RTVSPropertyOp25
 70
     1
102
RTVSPropertyOp26
 70
     1
102
RTVSPropertyOp27
 70
     1
102
RTVSPropertyOp28
 70
     1
102
RTVSPropertyOp29
 70
     1
102
RTVSPropertyOp30
 70
     1
102
RTVSPropertyOp31
 70
     1
102
RTVSPropertyOp32
 70
     1
102
RTVSPropertyOp33
 70
     1
102
RTVSPropertyOp34
 70
     1
102
RTVSPropertyOp35
 70
     1
102
RTVSPropertyOp36
 70
     1
102
RTVSPropertyOp37
 70
     1
102
RTVSPropertyOp38
 70
     1
102
RTVSPropertyOp39
 70
     1
102
RTVSPropertyOp40
 70
     1
102
RTVSPropertyOp41
 70
     1
102
RTVSPropertyOp42
 70
     1
102
RTVSPropertyOp43
 70
     1
102
RTVSPropertyOp44
 70
     1
102
RTVSPropertyOp45
 70
     1
102
RTVSPropertyOp46
 70
     1
102
RTVSPropertyOp47
 70
     1
102
RTVSPropertyOp48
 70
     1
102
RTVSPropertyOp49
 70
     1
102
RTVSPropertyOp50
 70
     1
102
RTVSPropertyOp51
 70
     0
102
RTVSPropertyOp52
 70
     0
102
RTVSPropertyOp53
 70
     1
102
RTVSPropertyOp54
 70
     1
102
RTVSPropertyOp55
 70
     1
102
RTVSPropertyOp56
 70
     1
102
RTVSPropertyOp57
 70
     1
102
RTVSPropertyOp58
 70
     1
102
RTVSPropertyOp59
 70
     1
102
RTVSPropertyOp60
 70
     1
102
RTVSPropertyOp61
 70
     1
102
RTVSPropertyOp62
 70
     1
  0
XRECORD
  5
1226
102
{ACAD_REACTORS
330
1225
102
}
330
1225
100
AcDbXrecord
280
     1
102
RTVSPost2010Prop28
280
     0
102
RTVSPost2010PropOp28
 70
     1
102
RTVSPost2010Prop29
280
     1
102
RTVSPost2010PropOp29
 70
     1
102
RTVSPost2010Prop30
280
     1
102
RTVSPost2010PropOp30
 70
     1
102
RTVSPost2010Prop31
280
     0
102
RTVSPost2010PropOp31
 70
     1
102
RTVSPost2010Prop32
280
     0
102
RTVSPost2010PropOp32
 70
     1
102
RTVSPost2010Prop33
280
     0
102
RTVSPost2010PropOp33
 70
     1
102
RTVSPost2010Prop34
280
     0
102
RTVSPost2010PropOp34
 70
     1
102
RTVSPost2010Prop35
280
     0
102
RTVSPost2010PropOp35
 70
     1
102
RTVSPost2010Prop36
280
     0
102
RTVSPost2010PropOp36
 70
     1
102
RTVSPost2010Prop37
 90
       50
102
RTVSPost2010PropOp37
 70
     1
102
RTVSPost2010Prop38
140
0.0
102
RTVSPost2010PropOp38
 70
     1
102
RTVSPost2010Prop39
140
1.0
102
RTVSPost2010PropOp39
 70
     1
102
RTVSPost2010Prop40
 90
        0
102
RTVSPost2010PropOp40
 70
     1
102
RTVSPost2010Prop41ColorIndex
 90
       18
102
RTVSPost2010Prop41ColorRGB
 90
        0
102
RTVSPost2010PropOp41
 70
     1
102
RTVSPost2010Prop42
 90
       50
102
RTVSPost2010PropOp42
 70
     1
102
RTVSPost2010Prop43
 90
        3
102
RTVSPost2010PropOp43
 70
     1
102
RTVSPost2010Prop44ColorIndex
 90
        5
102
RTVSPost2010Prop44ColorRGB
 90
      255
102
RTVSPost2010PropOp44
 70
     1
102
RTVSPost2010Prop45
280
     0
102
RTVSPost2010PropOp45
 70
     1
102
RTVSPost2010Prop46
 90
       50
102
RTVSPost2010PropOp46
 70
     1
102
RTVSPost2010Prop47
 90
       50
102
RTVSPost2010PropOp47
 70
     1
102
RTVSPost2010Prop48
 90
       50
102
RTVSPost2010PropOp48
 70
     1
102
RTVSPost2010Prop49
280
     0
102
RTVSPost2010PropOp49
 70
     1
102
RTVSPost2010Prop50
 90
       50
102
RTVSPost2010PropOp50
 70
     1
102
RTVSPost2010Prop51ColorIndex
 90
      256
102
RTVSPost2010Prop51ColorRGB
 90
-16777216
102
RTVSPost2010PropOp51
 70
     0
102
RTVSPost2010Prop52
140
1.0
102
RTVSPost2010PropOp52
 70
     0
102
RTVSPost2010Prop53
 90
        2
102
RTVSPost2010PropOp53
 70
     1
102
RTVSPost2010Prop54
  1
strokes_ogs.tif
102
RTVSPost2010PropOp54
 70
     1
102
RTVSPost2010Prop55
280
     0
102
RTVSPost2010PropOp55
 70
     1
102
RTVSPost2010Prop56
140
1.0
102
RTVSPost2010PropOp56
 70
     1
102
RTVSPost2010Prop57
140
1.0
102
RTVSPost2010PropOp57
 70
     1
102
RTVSPropertyOp0
 70
     1
102
RTVSPropertyOp1
 70
     1
102
RTVSPropertyOp2
 70
     1
102
RTVSPropertyOp3
 70
     1
102
RTVSPropertyOp4
 70
     1
102
RTVSPropertyOp5
 70
     1
102
RTVSPropertyOp6
 70
     1
102
RTVSPropertyOp7
 70
     1
102
RTVSPropertyOp8
 70
     1
102
RTVSPropertyOp9
 70
     1
102
RTVSPropertyOp10
 70
     1
102
RTVSPropertyOp11
 70
     1
102
RTVSPropertyOp12
 70
     1
102
RTVSPropertyOp13
 70
     1
102
RTVSPropertyOp14
 70
     1
102
RTVSPropertyOp15
 70
     1
102
RTVSPropertyOp16
 70
     1
102
RTVSPropertyOp17
 70
     1
102
RTVSPropertyOp18
 70
     1
102
RTVSPropertyOp19
 70
     1
102
RTVSPropertyOp20
 70
     1
102
RTVSPropertyOp21
 70
     1
102
RTVSPropertyOp22
 70
     1
102
RTVSPropertyOp23
 70
     1
102
RTVSPropertyOp24
 70
     1
102
RTVSPropertyOp25
 70
     1
102
RTVSPropertyOp26
 70
     1
102
RTVSPropertyOp27
 70
     1
102
RTVSPropertyOp28
 70
     1
102
RTVSPropertyOp29
 70
     1
102
RTVSPropertyOp30
 70
     1
102
RTVSPropertyOp31
 70
     1
102
RTVSPropertyOp32
 70
     1
102
RTVSPropertyOp33
 70
     1
102
RTVSPropertyOp34
 70
     1
102
RTVSPropertyOp35
 70
     1
102
RTVSPropertyOp36
 70
     1
102
RTVSPropertyOp37
 70
     1
102
RTVSPropertyOp38
 70
     1
102
RTVSPropertyOp39
 70
     1
102
RTVSPropertyOp40
 70
     1
102
RTVSPropertyOp41
 70
     1
102
RTVSPropertyOp42
 70
     1
102
RTVSPropertyOp43
 70
     1
102
RTVSPropertyOp44
 70
     1
102
RTVSPropertyOp45
 70
     1
102
RTVSPropertyOp46
 70
     1
102
RTVSPropertyOp47
 70
     1
102
RTVSPropertyOp48
 70
     1
102
RTVSPropertyOp49
 70
     1
102
RTVSPropertyOp50
 70
     1
102
RTVSPropertyOp51
 70
     0
102
RTVSPropertyOp52
 70
     0
102
RTVSPropertyOp53
 70
     1
102
RTVSPropertyOp54
 70
     1
102
RTVSPropertyOp55
 70
     1
102
RTVSPropertyOp56
 70
     1
102
RTVSPropertyOp57
 70
     1
102
RTVSPropertyOp58
 70
     1
102
RTVSPropertyOp59
 70
     1
102
RTVSPropertyOp60
 70
     1
102
RTVSPropertyOp61
 70
     1
102
RTVSPropertyOp62
 70
     1
  0
XRECORD
  5
121C
102
{ACAD_REACTORS
330
121B
102
}
330
121B
100
AcDbXrecord
280
     1
102
RTVSPost2010Prop28
280
     0
102
RTVSPost2010PropOp28
 70
     1
102
RTVSPost2010Prop29
280
     1
102
RTVSPost2010PropOp29
 70
     1
102
RTVSPost2010Prop30
280
     1
102
RTVSPost2010PropOp30
 70
     1
102
RTVSPost2010Prop31
280
     0
102
RTVSPost2010PropOp31
 70
     1
102
RTVSPost2010Prop32
280
     0
102
RTVSPost2010PropOp32
 70
     1
102
RTVSPost2010Prop33
280
     0
102
RTVSPost2010PropOp33
 70
     1
102
RTVSPost2010Prop34
280
     0
102
RTVSPost2010PropOp34
 70
     1
102
RTVSPost2010Prop35
280
     0
102
RTVSPost2010PropOp35
 70
     1
102
RTVSPost2010Prop36
280
     0
102
RTVSPost2010PropOp36
 70
     1
102
RTVSPost2010Prop37
 90
       50
102
RTVSPost2010PropOp37
 70
     1
102
RTVSPost2010Prop38
140
0.0
102
RTVSPost2010PropOp38
 70
     1
102
RTVSPost2010Prop39
140
1.0
102
RTVSPost2010PropOp39
 70
     1
102
RTVSPost2010Prop40
 90
        0
102
RTVSPost2010PropOp40
 70
     1
102
RTVSPost2010Prop41ColorIndex
 90
       18
102
RTVSPost2010Prop41ColorRGB
 90
        0
102
RTVSPost2010PropOp41
 70
     1
102
RTVSPost2010Prop42
 90
       50
102
RTVSPost2010PropOp42
 70
     1
102
RTVSPost2010Prop43
 90
        3
102
RTVSPost2010PropOp43
 70
     1
102
RTVSPost2010Prop44ColorIndex
 90
        5
102
RTVSPost2010Prop44ColorRGB
 90
      255
102
RTVSPost2010PropOp44
 70
     1
102
RTVSPost2010Prop45
280
     0
102
RTVSPost2010PropOp45
 70
     1
102
RTVSPost2010Prop46
 90
       50
102
RTVSPost2010PropOp46
 70
     1
102
RTVSPost2010Prop47
 90
       50
102
RTVSPost2010PropOp47
 70
     1
102
RTVSPost2010Prop48
 90
       50
102
RTVSPost2010PropOp48
 70
     1
102
RTVSPost2010Prop49
280
     0
102
RTVSPost2010PropOp49
 70
     1
102
RTVSPost2010Prop50
 90
       50
102
RTVSPost2010PropOp50
 70
     1
102
RTVSPost2010Prop51ColorIndex
 90
      256
102
RTVSPost2010Prop51ColorRGB
 90
-16777216
102
RTVSPost2010PropOp51
 70
     0
102
RTVSPost2010Prop52
140
1.0
102
RTVSPost2010PropOp52
 70
     0
102
RTVSPost2010Prop53
 90
        2
102
RTVSPost2010PropOp53
 70
     1
102
RTVSPost2010Prop54
  1
strokes_ogs.tif
102
RTVSPost2010PropOp54
 70
     1
102
RTVSPost2010Prop55
280
     0
102
RTVSPost2010PropOp55
 70
     1
102
RTVSPost2010Prop56
140
1.0
102
RTVSPost2010PropOp56
 70
     1
102
RTVSPost2010Prop57
140
1.0
102
RTVSPost2010PropOp57
 70
     1
102
RTVSPropertyOp0
 70
     1
102
RTVSPropertyOp1
 70
     1
102
RTVSPropertyOp2
 70
     1
102
RTVSPropertyOp3
 70
     1
102
RTVSPropertyOp4
 70
     1
102
RTVSPropertyOp5
 70
     1
102
RTVSPropertyOp6
 70
     1
102
RTVSPropertyOp7
 70
     1
102
RTVSPropertyOp8
 70
     1
102
RTVSPropertyOp9
 70
     1
102
RTVSPropertyOp10
 70
     1
102
RTVSPropertyOp11
 70
     1
102
RTVSPropertyOp12
 70
     1
102
RTVSPropertyOp13
 70
     1
102
RTVSPropertyOp14
 70
     1
102
RTVSPropertyOp15
 70
     1
102
RTVSPropertyOp16
 70
     1
102
RTVSPropertyOp17
 70
     1
102
RTVSPropertyOp18
 70
     1
102
RTVSPropertyOp19
 70
     1
102
RTVSPropertyOp20
 70
     1
102
RTVSPropertyOp21
 70
     1
102
RTVSPropertyOp22
 70
     1
102
RTVSPropertyOp23
 70
     1
102
RTVSPropertyOp24
 70
     1
102
RTVSPropertyOp25
 70
     1
102
RTVSPropertyOp26
 70
     1
102
RTVSPropertyOp27
 70
     1
102
RTVSPropertyOp28
 70
     1
102
RTVSPropertyOp29
 70
     1
102
RTVSPropertyOp30
 70
     1
102
RTVSPropertyOp31
 70
     1
102
RTVSPropertyOp32
 70
     1
102
RTVSPropertyOp33
 70
     1
102
RTVSPropertyOp34
 70
     1
102
RTVSPropertyOp35
 70
     1
102
RTVSPropertyOp36
 70
     1
102
RTVSPropertyOp37
 70
     1
102
RTVSPropertyOp38
 70
     1
102
RTVSPropertyOp39
 70
     1
102
RTVSPropertyOp40
 70
     1
102
RTVSPropertyOp41
 70
     1
102
RTVSPropertyOp42
 70
     1
102
RTVSPropertyOp43
 70
     1
102
RTVSPropertyOp44
 70
     1
102
RTVSPropertyOp45
 70
     1
102
RTVSPropertyOp46
 70
     1
102
RTVSPropertyOp47
 70
     1
102
RTVSPropertyOp48
 70
     1
102
RTVSPropertyOp49
 70
     1
102
RTVSPropertyOp50
 70
     1
102
RTVSPropertyOp51
 70
     0
102
RTVSPropertyOp52
 70
     0
102
RTVSPropertyOp53
 70
     1
102
RTVSPropertyOp54
 70
     1
102
RTVSPropertyOp55
 70
     1
102
RTVSPropertyOp56
 70
     1
102
RTVSPropertyOp57
 70
     1
102
RTVSPropertyOp58
 70
     1
102
RTVSPropertyOp59
 70
     1
102
RTVSPropertyOp60
 70
     1
102
RTVSPropertyOp61
 70
     1
102
RTVSPropertyOp62
 70
     1
  0
XRECORD
  5
1210
102
{ACAD_REACTORS
330
120F
102
}
330
120F
100
AcDbXrecord
280
     1
102
RTVSPost2010Prop28
280
     0
102
RTVSPost2010PropOp28
 70
     1
102
RTVSPost2010Prop29
280
     1
102
RTVSPost2010PropOp29
 70
     1
102
RTVSPost2010Prop30
280
     1
102
RTVSPost2010PropOp30
 70
     1
102
RTVSPost2010Prop31
280
     0
102
RTVSPost2010PropOp31
 70
     1
102
RTVSPost2010Prop32
280
     0
102
RTVSPost2010PropOp32
 70
     1
102
RTVSPost2010Prop33
280
     0
102
RTVSPost2010PropOp33
 70
     1
102
RTVSPost2010Prop34
280
     0
102
RTVSPost2010PropOp34
 70
     1
102
RTVSPost2010Prop35
280
     0
102
RTVSPost2010PropOp35
 70
     1
102
RTVSPost2010Prop36
280
     0
102
RTVSPost2010PropOp36
 70
     1
102
RTVSPost2010Prop37
 90
       50
102
RTVSPost2010PropOp37
 70
     1
102
RTVSPost2010Prop38
140
0.0
102
RTVSPost2010PropOp38
 70
     1
102
RTVSPost2010Prop39
140
1.0
102
RTVSPost2010PropOp39
 70
     1
102
RTVSPost2010Prop40
 90
        0
102
RTVSPost2010PropOp40
 70
     1
102
RTVSPost2010Prop41ColorIndex
 90
       18
102
RTVSPost2010Prop41ColorRGB
 90
        0
102
RTVSPost2010PropOp41
 70
     1
102
RTVSPost2010Prop42
 90
       50
102
RTVSPost2010PropOp42
 70
     1
102
RTVSPost2010Prop43
 90
        3
102
RTVSPost2010PropOp43
 70
     1
102
RTVSPost2010Prop44ColorIndex
 90
        5
102
RTVSPost2010Prop44ColorRGB
 90
      255
102
RTVSPost2010PropOp44
 70
     1
102
RTVSPost2010Prop45
280
     0
102
RTVSPost2010PropOp45
 70
     1
102
RTVSPost2010Prop46
 90
       50
102
RTVSPost2010PropOp46
 70
     1
102
RTVSPost2010Prop47
 90
       50
102
RTVSPost2010PropOp47
 70
     1
102
RTVSPost2010Prop48
 90
       50
102
RTVSPost2010PropOp48
 70
     1
102
RTVSPost2010Prop49
280
     0
102
RTVSPost2010PropOp49
 70
     1
102
RTVSPost2010Prop50
 90
       50
102
RTVSPost2010PropOp50
 70
     1
102
RTVSPost2010Prop51ColorIndex
 90
      256
102
RTVSPost2010Prop51ColorRGB
 90
-16777216
102
RTVSPost2010PropOp51
 70
     0
102
RTVSPost2010Prop52
140
1.0
102
RTVSPost2010PropOp52
 70
     0
102
RTVSPost2010Prop53
 90
        2
102
RTVSPost2010PropOp53
 70
     1
102
RTVSPost2010Prop54
  1
strokes_ogs.tif
102
RTVSPost2010PropOp54
 70
     1
102
RTVSPost2010Prop55
280
     0
102
RTVSPost2010PropOp55
 70
     1
102
RTVSPost2010Prop56
140
1.0
102
RTVSPost2010PropOp56
 70
     1
102
RTVSPost2010Prop57
140
1.0
102
RTVSPost2010PropOp57
 70
     1
102
RTVSPropertyOp0
 70
     1
102
RTVSPropertyOp1
 70
     1
102
RTVSPropertyOp2
 70
     1
102
RTVSPropertyOp3
 70
     1
102
RTVSPropertyOp4
 70
     1
102
RTVSPropertyOp5
 70
     1
102
RTVSPropertyOp6
 70
     1
102
RTVSPropertyOp7
 70
     1
102
RTVSPropertyOp8
 70
     1
102
RTVSPropertyOp9
 70
     1
102
RTVSPropertyOp10
 70
     1
102
RTVSPropertyOp11
 70
     1
102
RTVSPropertyOp12
 70
     1
102
RTVSPropertyOp13
 70
     1
102
RTVSPropertyOp14
 70
     1
102
RTVSPropertyOp15
 70
     1
102
RTVSPropertyOp16
 70
     1
102
RTVSPropertyOp17
 70
     1
102
RTVSPropertyOp18
 70
     1
102
RTVSPropertyOp19
 70
     1
102
RTVSPropertyOp20
 70
     1
102
RTVSPropertyOp21
 70
     1
102
RTVSPropertyOp22
 70
     1
102
RTVSPropertyOp23
 70
     1
102
RTVSPropertyOp24
 70
     1
102
RTVSPropertyOp25
 70
     1
102
RTVSPropertyOp26
 70
     1
102
RTVSPropertyOp27
 70
     1
102
RTVSPropertyOp28
 70
     1
102
RTVSPropertyOp29
 70
     1
102
RTVSPropertyOp30
 70
     1
102
RTVSPropertyOp31
 70
     1
102
RTVSPropertyOp32
 70
     1
102
RTVSPropertyOp33
 70
     1
102
RTVSPropertyOp34
 70
     1
102
RTVSPropertyOp35
 70
     1
102
RTVSPropertyOp36
 70
     1
102
RTVSPropertyOp37
 70
     1
102
RTVSPropertyOp38
 70
     1
102
RTVSPropertyOp39
 70
     1
102
RTVSPropertyOp40
 70
     1
102
RTVSPropertyOp41
 70
     1
102
RTVSPropertyOp42
 70
     1
102
RTVSPropertyOp43
 70
     1
102
RTVSPropertyOp44
 70
     1
102
RTVSPropertyOp45
 70
     1
102
RTVSPropertyOp46
 70
     1
102
RTVSPropertyOp47
 70
     1
102
RTVSPropertyOp48
 70
     1
102
RTVSPropertyOp49
 70
     1
102
RTVSPropertyOp50
 70
     1
102
RTVSPropertyOp51
 70
     0
102
RTVSPropertyOp52
 70
     0
102
RTVSPropertyOp53
 70
     1
102
RTVSPropertyOp54
 70
     1
102
RTVSPropertyOp55
 70
     1
102
RTVSPropertyOp56
 70
     1
102
RTVSPropertyOp57
 70
     1
102
RTVSPropertyOp58
 70
     1
102
RTVSPropertyOp59
 70
     1
102
RTVSPropertyOp60
 70
     1
102
RTVSPropertyOp61
 70
     1
102
RTVSPropertyOp62
 70
     1
  0
XRECORD
  5
1228
102
{ACAD_REACTORS
330
1227
102
}
330
1227
100
AcDbXrecord
280
     1
102
RTVSPost2010Prop28
280
     0
102
RTVSPost2010PropOp28
 70
     1
102
RTVSPost2010Prop29
280
     1
102
RTVSPost2010PropOp29
 70
     1
102
RTVSPost2010Prop30
280
     1
102
RTVSPost2010PropOp30
 70
     1
102
RTVSPost2010Prop31
280
     0
102
RTVSPost2010PropOp31
 70
     1
102
RTVSPost2010Prop32
280
     0
102
RTVSPost2010PropOp32
 70
     1
102
RTVSPost2010Prop33
280
     0
102
RTVSPost2010PropOp33
 70
     1
102
RTVSPost2010Prop34
280
     0
102
RTVSPost2010PropOp34
 70
     1
102
RTVSPost2010Prop35
280
     0
102
RTVSPost2010PropOp35
 70
     1
102
RTVSPost2010Prop36
280
     0
102
RTVSPost2010PropOp36
 70
     1
102
RTVSPost2010Prop37
 90
       50
102
RTVSPost2010PropOp37
 70
     1
102
RTVSPost2010Prop38
140
0.0
102
RTVSPost2010PropOp38
 70
     1
102
RTVSPost2010Prop39
140
1.0
102
RTVSPost2010PropOp39
 70
     1
102
RTVSPost2010Prop40
 90
        0
102
RTVSPost2010PropOp40
 70
     1
102
RTVSPost2010Prop41ColorIndex
 90
       18
102
RTVSPost2010Prop41ColorRGB
 90
        0
102
RTVSPost2010PropOp41
 70
     1
102
RTVSPost2010Prop42
 90
       50
102
RTVSPost2010PropOp42
 70
     1
102
RTVSPost2010Prop43
 90
        3
102
RTVSPost2010PropOp43
 70
     1
102
RTVSPost2010Prop44ColorIndex
 90
        5
102
RTVSPost2010Prop44ColorRGB
 90
      255
102
RTVSPost2010PropOp44
 70
     1
102
RTVSPost2010Prop45
280
     0
102
RTVSPost2010PropOp45
 70
     1
102
RTVSPost2010Prop46
 90
       50
102
RTVSPost2010PropOp46
 70
     1
102
RTVSPost2010Prop47
 90
       50
102
RTVSPost2010PropOp47
 70
     1
102
RTVSPost2010Prop48
 90
       50
102
RTVSPost2010PropOp48
 70
     1
102
RTVSPost2010Prop49
280
     0
102
RTVSPost2010PropOp49
 70
     1
102
RTVSPost2010Prop50
 90
       50
102
RTVSPost2010PropOp50
 70
     1
102
RTVSPost2010Prop51ColorIndex
 90
      256
102
RTVSPost2010Prop51ColorRGB
 90
-16777216
102
RTVSPost2010PropOp51
 70
     0
102
RTVSPost2010Prop52
140
1.0
102
RTVSPost2010PropOp52
 70
     0
102
RTVSPost2010Prop53
 90
        2
102
RTVSPost2010PropOp53
 70
     1
102
RTVSPost2010Prop54
  1
strokes_ogs.tif
102
RTVSPost2010PropOp54
 70
     1
102
RTVSPost2010Prop55
280
     0
102
RTVSPost2010PropOp55
 70
     1
102
RTVSPost2010Prop56
140
1.0
102
RTVSPost2010PropOp56
 70
     1
102
RTVSPost2010Prop57
140
1.0
102
RTVSPost2010PropOp57
 70
     1
102
RTVSPropertyOp0
 70
     1
102
RTVSPropertyOp1
 70
     1
102
RTVSPropertyOp2
 70
     1
102
RTVSPropertyOp3
 70
     1
102
RTVSPropertyOp4
 70
     1
102
RTVSPropertyOp5
 70
     1
102
RTVSPropertyOp6
 70
     1
102
RTVSPropertyOp7
 70
     1
102
RTVSPropertyOp8
 70
     1
102
RTVSPropertyOp9
 70
     1
102
RTVSPropertyOp10
 70
     1
102
RTVSPropertyOp11
 70
     1
102
RTVSPropertyOp12
 70
     1
102
RTVSPropertyOp13
 70
     1
102
RTVSPropertyOp14
 70
     1
102
RTVSPropertyOp15
 70
     1
102
RTVSPropertyOp16
 70
     1
102
RTVSPropertyOp17
 70
     1
102
RTVSPropertyOp18
 70
     1
102
RTVSPropertyOp19
 70
     1
102
RTVSPropertyOp20
 70
     1
102
RTVSPropertyOp21
 70
     1
102
RTVSPropertyOp22
 70
     1
102
RTVSPropertyOp23
 70
     1
102
RTVSPropertyOp24
 70
     1
102
RTVSPropertyOp25
 70
     1
102
RTVSPropertyOp26
 70
     1
102
RTVSPropertyOp27
 70
     1
102
RTVSPropertyOp28
 70
     1
102
RTVSPropertyOp29
 70
     1
102
RTVSPropertyOp30
 70
     1
102
RTVSPropertyOp31
 70
     1
102
RTVSPropertyOp32
 70
     1
102
RTVSPropertyOp33
 70
     1
102
RTVSPropertyOp34
 70
     1
102
RTVSPropertyOp35
 70
     1
102
RTVSPropertyOp36
 70
     1
102
RTVSPropertyOp37
 70
     1
102
RTVSPropertyOp38
 70
     1
102
RTVSPropertyOp39
 70
     1
102
RTVSPropertyOp40
 70
     1
102
RTVSPropertyOp41
 70
     1
102
RTVSPropertyOp42
 70
     1
102
RTVSPropertyOp43
 70
     1
102
RTVSPropertyOp44
 70
     1
102
RTVSPropertyOp45
 70
     1
102
RTVSPropertyOp46
 70
     1
102
RTVSPropertyOp47
 70
     1
102
RTVSPropertyOp48
 70
     1
102
RTVSPropertyOp49
 70
     1
102
RTVSPropertyOp50
 70
     1
102
RTVSPropertyOp51
 70
     0
102
RTVSPropertyOp52
 70
     0
102
RTVSPropertyOp53
 70
     1
102
RTVSPropertyOp54
 70
     1
102
RTVSPropertyOp55
 70
     1
102
RTVSPropertyOp56
 70
     1
102
RTVSPropertyOp57
 70
     1
102
RTVSPropertyOp58
 70
     1
102
RTVSPropertyOp59
 70
     1
102
RTVSPropertyOp60
 70
     1
102
RTVSPropertyOp61
 70
     1
102
RTVSPropertyOp62
 70
     1
  0
ENDSEC
  0
EOF
